  0
SECTION
  2
HEADER
  9
$ACADVER
  1
AC1015
  9
$INSBASE
 10
0.000000
 20
0.000000
 30
0.0
  9
$VIEWCTR
 10
7.531722
 20
4.5
  9
$VIEWSIZE
 40
9.0
  9
$SNAPMODE
 70
     0
  9
$SNAPUNIT
 10
1.0
 20
1.0
  9
$SNAPBASE
 10
0.0
 20
0.0
  9
$SNAPANG
 50
0.0
  9
$SNAPSTYLE
 70
     0
  9
$SNAPISOPAIR
 70
     0
  9
$GRIDMODE
 70
     0
  9
$GRIDUNIT
 10
0.0
 20
0.0
  9
$ORTHOMODE
 70
     0
  9
$REGENMODE
 70
     1
  9
$FILLMODE
 70
     1
  9
$QTEXTMODE
 70
     0
  9
$DRAGMODE
 70
     2
  9
$LTSCALE
  40
     1.000000
  9
$OSMODE
 70
     0
  9
$ATTMODE
 70
     1
  9
$TEXTSIZE
 40
0.2
  9
$TRACEWID
 40
0.05
  9
$TEXTSTYLE
  7
STANDARD
  9
$CELTYPE
  6
BYLAYER
  9
$CECOLOR
 62
   256
  9
$DIMSCALE
 40
1.0
  9
$DIMASZ
 40
0.18
  9
$DIMEXO
 40
0.0625
  9
$DIMDLI
 40
0.38
  9
$DIMRND
 40
0.0
  9
$DIMDLE
 40
0.0
  9
$DIMEXE
 40
0.18
  9
$DIMTP
 40
0.0
  9
$DIMTM
 40
0.0
  9
$DIMTXT
 40
0.18
  9
$DIMCEN
 40
0.09
  9
$DIMTSZ
 40
0.0
  9
$DIMADEC
 70
     0
  9
$DIMALTRND
 40
0.000000
  9
$DIMAZIN
 70
     0
  9
$DIMDSEP
 70
    46
  9
$DIMATFIT
 70
     3
  9
$DIMFRAC
 70
     0
  9
$DIMLDRBLK
  1

  9
$DIMLUNIT
 70
     2
  9
$DIMLWD
 70
   13
  9
$DIMLWE
 70
   13
  9
$DIMTMOVE
 70
     0
  9
$CELWEIGHT
370
    25
  9
$LWDISPLAY
290
    1
  9
$EXTNAMES
290
    1
  9
$DIMTOL
 70
     0
  9
$DIMLIM
 70
     0
  9
$DIMTIH
 70
     1
  9
$DIMTOH
 70
     1
  9
$DIMSE1
 70
     0
  9
$DIMSE2
 70
     0
  9
$DIMTAD
 70
     0
  9
$DIMZIN
 70
     0
  9
$DIMBLK
  1

  9
$LUNITS
 70
     2
  9
$LUPREC
 70
     4
  9
$AXISMODE
 70
     0
  9
$AXISUNIT
 10
0.0
 20
0.0
  9
$SKETCHINC
 40
0.1
  9
$FILLETRAD
 40
0.0
  9
$AUNITS
 70
     0
  9
$AUPREC
 70
     0
  9
$MENU
  1
ACAD
  9
$ELEVATION
 40
0.0
  9
$THICKNESS
 40
0.0
  9
$VIEWDIR
 10
0.0
 20
0.0
 30
1.0
  9
$LIMCHECK
 70
     0
  9
$BLIPMODE
 70
     1
  9
$CHAMFERA
 40
0.0
  9
$CHAMFERB
 40
0.0
  9
$FASTZOOM
 70
     1
  9
$SKPOLY
 70
     0
  9
$TDCREATE
 40
0000000.0000000000
  9
$TDUPDATE
 40
0000000.0000000000
  9
$TDINDWG
 40
0.0000000000
  9
$TDUSRTIMER
 40
0.0000000000
  9
$USRTIMER
 70
     1
  9
$ANGBASE
 50
0.0
  9
$ANGDIR
 70
     0
  9
$PDMODE
 70
     0
  9
$PDSIZE
 40
0.0
  9
$PLINEWID
 40
0.0
  9
$COORDS
 70
     0
  9
$USERI1
 70
     0
  9
$USERI2
 70
     0
  9
$USERI3
 70
     0
  9
$USERI4
 70
     0
  9
$USERI5
 70
     0
  9
$USERR1
 40
0.0
  9
$USERR2
 40
0.0
  9
$USERR3
 40
0.0
  9
$USERR4
 40
0.0
  9
$USERR5
 40
0.0
  9
$CLAYER
  8
M2
  9
$EXTMIN
 10
0.0
 20
0.0
  9
$EXTMAX
 10
841.0
 20
594.0
  9
$LIMMIN
 10
0.0
 20
0.0
  9
$LIMMAX
 10
841.0
 20
594.0
  9
$HANDSEED
  5
123
  0
ENDSEC
  0
SECTION
  2
CLASSES
  0
CLASS
  1
DIMASSOC
  2
AcDbDimAssoc
  3
"AcDbDimAssoc|Product Desc:     AcDim ARX App For Dimension|Company:          Autodesk, Inc.|WEB Address:      www.autodesk.com"
 90
        0
280
     0
281
     0
  0
ENDSEC
  0
SECTION
  2
TABLES
  0
TABLE
  2
VPORT
  5
8
100
AcDbSymbolTable
 70
     2
  0
VPORT
  5
14
100
AcDbSymbolTableRecord
100
AcDbViewportTableRecord
  2
*ACTIVE
 70
     0
 10
0.0
 20
0.0
 11
1.0
 21
1.0
 12
484.0
 22
297.0
 13
0.0
 23
0.0
 14
1.0
 24
1.0
 15
0.0
 25
0.0
 16
0.0
 26
0.0
 36
1.0
 17
0.0
 27
0.0
 37
0.0
 40
594.0
 41
2.0
 42
50.0
 43
0.0
 44
0.0
 50
0.0
 51
0.0
 71
     0
 72
   100
 73
     1
 74
     1
 75
     0
 76
     0
 77
     0
 78
     0
  0
ENDTAB
  0
TABLE
  2
LTYPE
  5
5
100
AcDbSymbolTable
 70
     5
  0
LTYPE
  5
15
100
AcDbSymbolTableRecord
100
AcDbLinetypeTableRecord
  2
BYBLOCK
 70
     0
  3

 72
    65
 73
     0
 40
0.0
  0
LTYPE
  5
16
100
AcDbSymbolTableRecord
100
AcDbLinetypeTableRecord
  2
BYLAYER
 70
     0
  3

 72
    65
 73
     0
 40
0.0
  0
LTYPE
  5
17
100
AcDbSymbolTableRecord
100
AcDbLinetypeTableRecord
  2
CONTINUOUS
 70
    64
  3
Solid line
 72
    65
 73
     0
 40
0.0
  0
LTYPE
  5
18
100
AcDbSymbolTableRecord
100
AcDbLinetypeTableRecord
  2
DASHED
 70
    64
  3
__ __ __ __ __ __ __ __ __ __ __ __ __ __ __ __
 72
    65
 73
     2
 40
0.75
 49
0.5
 74
     0
 49
-0.25
 74
     0
  0
LTYPE
  5
19
100
AcDbSymbolTableRecord
100
AcDbLinetypeTableRecord
  2
DASHDOT
 70
    64
  3
__ . __ . __ . __ . __ . __ . __ . __ . __ . __
 72
    65
 73
     4
 40
1.0
 49
0.5
 74
     0
 49
-0.25
 74
     0
 49
0.0
 74
     0
 49
-0.25
 74
     0
  0
LTYPE
  5
1A
100
AcDbSymbolTableRecord
100
AcDbLinetypeTableRecord
  2
DIVIDE
 70
    64
  3
____ . . ____ . . ____ . . ____ . . ____ . . __
 72
    65
 73
     6
 40
1.25
 49
0.5
 74
     0
 49
-0.25
 74
     0
 49
0.0
 74
     0
 49
-0.25
 74
     0
 49
0.0
 74
     0
 49
-0.25
 74
     0
  0
LTYPE
  5
1B
100
AcDbSymbolTableRecord
100
AcDbLinetypeTableRecord
  2
DOT
 70
    64
  3
. . . . . . . . . . . . . . . . . . . . . . . .
 72
    65
 73
     2
 40
0.25
 49
0.0
 74
     0
 49
-0.25
 74
     0
  0
ENDTAB
  0
TABLE
  2
LAYER
  5
2
100
AcDbSymbolTable
 70
   102
  0
LAYER
  5
F
100
AcDbSymbolTableRecord
100
AcDbLayerTableRecord
  2
0
 70
     0
 62
     7
  6
CONTINUOUS
370
     -3
390
F
  0
LAYER
  5
1C
100
AcDbSymbolTableRecord
100
AcDbLayerTableRecord
  2
M2
 70
     0
 62
     3
  6
CONTINUOUS
370
     -3
390
F
  0
LAYER
  5
1D
100
AcDbSymbolTableRecord
100
AcDbLayerTableRecord
  2
M4
 70
     0
 62
     7
  6
CONTINUOUS
370
     -3
390
F
  0
LAYER
  5
1E
100
AcDbSymbolTableRecord
100
AcDbLayerTableRecord
  2
DD0
 70
     0
 62
     4
  6
CONTINUOUS
370
     -3
390
F
  0
ENDTAB
  0
TABLE
  2
STYLE
  5
3
100
AcDbSymbolTable
 70
     2
  0
STYLE
  5
10
100
AcDbSymbolTableRecord
100
AcDbTextStyleTableRecord
  2
STANDARD
 70
     0
 40
0.0
 41
1.0
 50
0.0
 71
     0
 42
0.2
  3
txt
  4
BIGFONT
  0
ENDTAB
  0
TABLE
  2
VIEW
  5
6
100
AcDbSymbolTable
 70
     0
  0
ENDTAB
  0
TABLE
  2
UCS
  5
7
100
AcDbSymbolTable
 70
     0
  0
ENDTAB
  0
TABLE
  2
APPID
  5
9
100
AcDbSymbolTable
 70
     1
  0
APPID
  5
11
100
AcDbSymbolTableRecord
100
AcDbRegAppTableRecord
  2
ACAD
 70
     0
  0
ENDTAB
  0
TABLE
  2
DIMSTYLE
  5
A
100
AcDbSymbolTable
 70
     2
100
AcDbDimStyleTable
 71
     1
  0
DIMSTYLE
105
50
100
AcDbSymbolTableRecord
100
AcDbDimStyleTableRecord
  2
STANDARD
 70
     0
  3

  4

  5

  6
_OPEN
  7
_OPEN
 40
1.0
 41
3.0
 42
0.0
 43
8.0
 44
1.5
 45
0.0
 46
0.0
 47
0.0
 48
0.0
140
3.2
141
0.09
142
0.0
143
0.03937
144
1.0
145
0.0
146
1.0
147
1.0
148
0.000000
 71
     0
 72
     0
 73
     1
 74
     1
 75
     0
 76
     0
 77
     3
 78
     8
170
     0
171
     2
172
     0
173
     1
174
     0
175
     0
176
     0
177
     0
178
     0
270
     2
271
     2
272
     4
273
     2
274
     2
340
10
275
     0
278
    46
280
     0
281
     0
282
     0
283
     1
284
     0
285
     0
286
     0
287
     3
288
     0
371
   13
372
   13
  0
DIMSTYLE
105
51
100
AcDbSymbolTableRecord
100
AcDbDimStyleTableRecord
  2
LEADSTYL
 70
     0
  3

  4

  5

  6
_OPEN
  7
_OPEN
 40
1.0
 41
3.0
 42
0.0625
 43
0.38
 44
0.18
 45
0.0
 46
0.0
 47
0.0
 48
0.0
140
3.2
141
0.09
142
0.0
143
25.4
144
1.0
145
0.0
146
1.0
147
1.0
 71
     0
 72
     0
 73
     1
 74
     1
 75
     0
 76
     0
 77
     0
 78
     0
170
     0
171
     2
172
     0
173
     1
174
     0
175
     0
176
     0
177
     0
178
     0
270
     2
271
     4
272
     4
273
     2
274
     2
340
10
275
     0
280
     0
281
     0
282
     0
283
     1
284
     0
285
     0
286
     0
287
     3
288
     0
  0
ENDTAB
  0
TABLE
  2
BLOCK_RECORD
  5
1
100
AcDbSymbolTable
 70
     7
  0
BLOCK_RECORD
  5
1F
100
AcDbSymbolTableRecord
100
AcDbBlockTableRecord
  2
*MODEL_SPACE
  0
BLOCK_RECORD
  5
22
100
AcDbSymbolTableRecord
100
AcDbBlockTableRecord
  2
*PAPER_SPACE
  0
BLOCK_RECORD
  5
25
100
AcDbSymbolTableRecord
100
AcDbBlockTableRecord
  2
_NONE
  0
BLOCK_RECORD
  5
29
100
AcDbSymbolTableRecord
100
AcDbBlockTableRecord
  2
_OPEN
  0
BLOCK_RECORD
  5
2F
100
AcDbSymbolTableRecord
100
AcDbBlockTableRecord
  2
_CLOSED
  0
BLOCK_RECORD
  5
36
100
AcDbSymbolTableRecord
100
AcDbBlockTableRecord
  2
_ORIGIN
  0
BLOCK_RECORD
  5
3B
100
AcDbSymbolTableRecord
100
AcDbBlockTableRecord
  2
_DOT
  0
BLOCK_RECORD
  5
43
100
AcDbSymbolTableRecord
100
AcDbBlockTableRecord
  2
_OBLIQUE
  0
BLOCK_RECORD
  5
47
100
AcDbSymbolTableRecord
100
AcDbBlockTableRecord
  2
DIMS0
  0
ENDTAB
  0
ENDSEC
  0
SECTION
  2
BLOCKS
  0
BLOCK
  5
20
100
AcDbEntity
  8
0
100
AcDbBlockBegin
  2
*MODEL_SPACE
 70
     0
 10
0.0
 20
0.0
 30
0.0
  3
*MODEL_SPACE
  1

  0
ENDBLK
  5
21
100
AcDbEntity
  8
0
100
AcDbBlockEnd
  0
BLOCK
  5
23
100
AcDbEntity
 67
     1
  8
0
100
AcDbBlockBegin
  2
*PAPER_SPACE
 70
     0
 10
0.0
 20
0.0
 30
0.0
  3
*PAPER_SPACE
  1

  0
ENDBLK
  5
24
100
AcDbEntity
 67
     1
  8
0
100
AcDbBlockEnd
  0
BLOCK
  5
26
100
AcDbEntity
  8
0
100
AcDbBlockBegin
  2
_NONE
 70
     0
 10
0.0
 20
0.0
  0
CIRCLE
  5
27
100
AcDbEntity
  8
0
 62
     0
370
13
100
AcDbCircle
 10
0.0
 20
0.0
 40
0.25
  0
ENDBLK
  5
28
100
AcDbEntity
  8
0
100
AcDbBlockEnd
  0
BLOCK
  5
2A
100
AcDbEntity
  8
0
100
AcDbBlockBegin
  2
_OPEN
 70
     0
 10
0.0
 20
0.0
  0
LINE
  5
2B
100
AcDbEntity
  8
0
 62
     0
370
13
100
AcDbLine
 10
-0.965926
 20
0.258819
 11
0.0
 21
0.0
  0
LINE
  5
2C
100
AcDbEntity
  8
0
 62
     0
370
13
100
AcDbLine
 10
0.0
 20
0.0
 11
-0.965926
 21
-0.258819
  0
LINE
  5
2D
100
AcDbEntity
  8
0
 62
     0
370
13
100
AcDbLine
 10
0.0
 20
0.0
 11
-1.0
 21
0.0
  0
ENDBLK
  5
2E
100
AcDbEntity
  8
0
100
AcDbBlockEnd
  0
BLOCK
  5
30
100
AcDbEntity
  8
0
100
AcDbBlockBegin
  2
_CLOSED
 70
     0
 10
0.0
 20
0.0
  0
LINE
  5
31
100
AcDbEntity
  8
0
 62
     0
370
13
100
AcDbLine
 10
-0.965926
 20
0.258819
 11
0.0
 21
0.0
  0
LINE
  5
32
100
AcDbEntity
  8
0
 62
     0
370
13
100
AcDbLine
 10
0.0
 20
0.0
 11
-0.965926
 21
-0.258819
  0
LINE
  5
33
100
AcDbEntity
  8
0
 62
     0
370
13
100
AcDbLine
 10
-0.965926
 20
0.258819
 11
-0.965926
 21
-0.258819
  0
LINE
  5
34
100
AcDbEntity
  8
0
 62
     0
370
13
100
AcDbLine
 10
0.0
 20
0.0
 11
-1.0
 21
0.0
  0
ENDBLK
  5
35
100
AcDbEntity
  8
0
100
AcDbBlockEnd
  0
BLOCK
  5
37
100
AcDbEntity
  8
0
100
AcDbBlockBegin
  2
_ORIGIN
 70
     0
 10
0.0
 20
0.0
  0
CIRCLE
  5
38
100
AcDbEntity
  8
0
 62
     0
370
13
100
AcDbCircle
 10
0.0
 20
0.0
 40
0.5
  0
LINE
  5
39
100
AcDbEntity
  8
0
 62
     0
370
13
100
AcDbLine
 10
0.0
 20
0.0
 11
-1.0
 21
0.0
  0
ENDBLK
  5
3A
100
AcDbEntity
  8
0
100
AcDbBlockEnd
  0
BLOCK
  5
3C
100
AcDbEntity
  8
0
100
AcDbBlockBegin
  2
_DOT
 70
     0
 10
0.0
 20
0.0
  0
POLYLINE
  5
3D
100
AcDbEntity
  8
0
 62
     0
100
AcDb2dPolyline
 66
     1
 70
     1
 40
0.5
 41
0.5
  0
VERTEX
  5
3E
100
AcDbEntity
  8
0
 62
     0
100
AcDbVertex
100
AcDb2dVertex
 10
-0.25
 20
0.0
 42
1.0
  0
VERTEX
  5
3F
100
AcDbEntity
  8
0
 62
     0
100
AcDbVertex
100
AcDb2dVertex
 10
0.25
 20
0.0
 42
1.0
  0
SEQEND
  5
40
100
AcDbEntity
  8
0
 62
     0
  0
LINE
  5
41
100
AcDbEntity
  8
0
 62
     0
370
13
100
AcDbLine
 10
-0.5
 20
0.0
 11
-1.0
 21
0.0
  0
ENDBLK
  5
42
100
AcDbEntity
  8
0
100
AcDbBlockEnd
  0
BLOCK
  5
44
100
AcDbEntity
  8
0
100
AcDbBlockBegin
  2
_OBLIQUE
 70
     0
 10
0.0
 20
0.0
  0
LINE
  5
45
100
AcDbEntity
  8
0
 62
     0
370
13
100
AcDbLine
 10
-0.353553
 20
-0.353553
 11
0.353553
 21
0.353553
  0
ENDBLK
  5
46
100
AcDbEntity
  8
0
100
AcDbBlockEnd
  0
BLOCK
  5
48
100
AcDbEntity
  8
DD0
100
AcDbBlockBegin
  2
DIMS0
 70
     0
 10
0.0
 20
0.0
  0
LINE
  5
49
100
AcDbEntity
  8
DD0
  6
CONTINUOUS
370
13
100
AcDbLine
 10
56.599309
 20
402.998473
 11
56.972351
 21
405.975189
  0
LINE
  5
4A
100
AcDbEntity
  8
DD0
  6
CONTINUOUS
370
13
100
AcDbLine
 10
56.972351
 20
405.975189
 11
55.160929
 21
403.583798
  0
LINE
  5
4B
100
AcDbEntity
  8
DD0
  6
CONTINUOUS
370
13
100
AcDbLine
 10
56.972351
 20
405.975189
 11
41.417385
 21
367.750366
  0
LINE
  5
4C
100
AcDbEntity
  8
DD0
  6
CONTINUOUS
370
13
100
AcDbLine
 10
41.417385
 20
367.750366
 11
14.817385
 21
367.750366
  0
TEXT
  5
4D
100
AcDbEntity
  8
DD0
100
AcDbText
 10
18.539053
 20
368.750366
 40
5.0
  1
Ｍ８ねじ
 41
0.833333
  7
STANDARD
100
AcDbText
  0
ENDBLK
  5
4E
100
AcDbEntity
  8
DD0
100
AcDbBlockEnd
  0
ENDSEC
  0
SECTION
  2
ENTITIES
  0
INSERT
  5
4F
100
AcDbEntity
  8
DD0
100
AcDbBlockReference
  2
DIMS0
 10
0.0
 20
0.0
  0
LINE
  5
52
100
AcDbEntity
  8
M2
  6
CONTINUOUS
370
25
 62
     2
100
AcDbLine
 10
51.574261
 20
416.911732
 11
51.574261
 21
401.911732
  0
LINE
  5
53
100
AcDbEntity
  8
M2
  6
CONTINUOUS
370
25
 62
     2
100
AcDbLine
 10
51.574261
 20
416.911732
 11
65.574261
 21
416.911732
  0
LINE
  5
54
100
AcDbEntity
  8
M2
  6
CONTINUOUS
370
25
 62
     2
100
AcDbLine
 10
65.574261
 20
416.911732
 11
65.574261
 21
401.911732
  0
CIRCLE
  5
55
100
AcDbEntity
  8
M2
  6
CONTINUOUS
370
25
 62
     2
100
AcDbCircle
 10
58.574261
 20
409.911732
 40
4.25
  0
LINE
  5
56
100
AcDbEntity
  8
M2
  6
CONTINUOUS
370
25
 62
     2
100
AcDbLine
 10
76.574261
 20
416.911732
 11
76.574261
 21
401.911732
  0
LINE
  5
57
100
AcDbEntity
  8
M2
  6
CONTINUOUS
370
25
 62
     2
100
AcDbLine
 10
76.574261
 20
416.911732
 11
90.574261
 21
416.911732
  0
CIRCLE
  5
58
100
AcDbEntity
  8
M2
  6
CONTINUOUS
370
25
 62
     2
100
AcDbCircle
 10
83.574261
 20
409.911732
 40
4.25
  0
LINE
  5
59
100
AcDbEntity
  8
M2
  6
CONTINUOUS
370
25
 62
     2
100
AcDbLine
 10
90.574261
 20
416.911732
 11
90.574261
 21
401.911732
  0
LINE
  5
5A
100
AcDbEntity
  8
M2
  6
CONTINUOUS
370
25
 62
     2
100
AcDbLine
 10
101.574261
 20
416.911732
 11
101.574261
 21
401.911732
  0
LINE
  5
5B
100
AcDbEntity
  8
M2
  6
CONTINUOUS
370
25
 62
     2
100
AcDbLine
 10
101.574261
 20
416.911732
 11
115.574261
 21
416.911732
  0
LINE
  5
5C
100
AcDbEntity
  8
M2
  6
CONTINUOUS
370
25
 62
     2
100
AcDbLine
 10
115.574261
 20
416.911732
 11
115.574261
 21
401.911732
  0
CIRCLE
  5
5D
100
AcDbEntity
  8
M2
  6
CONTINUOUS
370
25
 62
     2
100
AcDbCircle
 10
108.574261
 20
409.911732
 40
4.25
  0
LINE
  5
5E
100
AcDbEntity
  8
M2
  6
CONTINUOUS
370
25
 62
     2
100
AcDbLine
 10
51.574261
 20
482.911732
 11
51.574261
 21
499.411732
  0
LINE
  5
5F
100
AcDbEntity
  8
M2
  6
CONTINUOUS
370
25
 62
     2
100
AcDbLine
 10
51.574261
 20
482.911732
 11
65.574261
 21
482.911732
  0
LINE
  5
60
100
AcDbEntity
  8
M2
  6
CONTINUOUS
370
25
 62
     2
100
AcDbLine
 10
65.574261
 20
482.911732
 11
65.574261
 21
499.411732
  0
CIRCLE
  5
61
100
AcDbEntity
  8
M2
  6
CONTINUOUS
370
25
 62
     2
100
AcDbCircle
 10
58.574261
 20
489.911732
 40
4.25
  0
LINE
  5
62
100
AcDbEntity
  8
M2
  6
CONTINUOUS
370
25
 62
     2
100
AcDbLine
 10
76.574261
 20
482.911732
 11
76.574261
 21
499.411732
  0
LINE
  5
63
100
AcDbEntity
  8
M2
  6
CONTINUOUS
370
25
 62
     2
100
AcDbLine
 10
76.574261
 20
482.911732
 11
90.574261
 21
482.911732
  0
LINE
  5
64
100
AcDbEntity
  8
M2
  6
CONTINUOUS
370
25
 62
     2
100
AcDbLine
 10
90.574261
 20
482.911732
 11
90.574261
 21
499.411732
  0
CIRCLE
  5
65
100
AcDbEntity
  8
M2
  6
CONTINUOUS
370
25
 62
     2
100
AcDbCircle
 10
83.574261
 20
489.911732
 40
4.25
  0
CIRCLE
  5
66
100
AcDbEntity
  8
M2
  6
CONTINUOUS
370
25
 62
     2
100
AcDbCircle
 10
108.574261
 20
489.911732
 40
4.25
  0
LINE
  5
67
100
AcDbEntity
  8
M2
  6
CONTINUOUS
370
25
 62
     2
100
AcDbLine
 10
101.574261
 20
482.911732
 11
115.574261
 21
482.911732
  0
LINE
  5
68
100
AcDbEntity
  8
M2
  6
CONTINUOUS
370
25
 62
     2
100
AcDbLine
 10
101.574261
 20
482.911732
 11
101.574261
 21
499.411732
  0
LINE
  5
69
100
AcDbEntity
  8
M2
  6
CONTINUOUS
370
25
 62
     2
100
AcDbLine
 10
115.574261
 20
482.911732
 11
115.574261
 21
499.411732
  0
LINE
  5
6A
100
AcDbEntity
  8
M2
  6
DASHDOT
370
25
 62
     2
100
AcDbLine
 10
83.574261
 20
404.911732
 11
83.574261
 21
414.911732
  0
LINE
  5
6B
100
AcDbEntity
  8
M2
  6
DASHDOT
370
25
 62
     2
100
AcDbLine
 10
78.574261
 20
409.911732
 11
88.574261
 21
409.911732
  0
LINE
  5
6C
100
AcDbEntity
  8
M2
  6
DASHDOT
370
25
 62
     2
100
AcDbLine
 10
53.574261
 20
409.911732
 11
63.574261
 21
409.911732
  0
LINE
  5
6D
100
AcDbEntity
  8
M2
  6
DASHDOT
370
25
 62
     2
100
AcDbLine
 10
58.574261
 20
404.911732
 11
58.574261
 21
414.911732
  0
LINE
  5
6E
100
AcDbEntity
  8
M2
  6
DASHDOT
370
25
 62
     2
100
AcDbLine
 10
103.574261
 20
409.911732
 11
113.574261
 21
409.911732
  0
LINE
  5
6F
100
AcDbEntity
  8
M2
  6
DASHDOT
370
25
 62
     2
100
AcDbLine
 10
108.574261
 20
404.911732
 11
108.574261
 21
414.911732
  0
LINE
  5
70
100
AcDbEntity
  8
M2
  6
DASHDOT
370
25
 62
     2
100
AcDbLine
 10
83.574261
 20
484.911732
 11
83.574261
 21
494.911732
  0
LINE
  5
71
100
AcDbEntity
  8
M2
  6
DASHDOT
370
25
 62
     2
100
AcDbLine
 10
78.574261
 20
489.911732
 11
88.574261
 21
489.911732
  0
LINE
  5
72
100
AcDbEntity
  8
M2
  6
DASHDOT
370
25
 62
     2
100
AcDbLine
 10
58.574261
 20
484.911732
 11
58.574261
 21
494.911732
  0
LINE
  5
73
100
AcDbEntity
  8
M2
  6
DASHDOT
370
25
 62
     2
100
AcDbLine
 10
53.574261
 20
489.911732
 11
63.574261
 21
489.911732
  0
LINE
  5
74
100
AcDbEntity
  8
M2
  6
DASHDOT
370
25
 62
     2
100
AcDbLine
 10
103.574261
 20
489.911732
 11
113.574261
 21
489.911732
  0
LINE
  5
75
100
AcDbEntity
  8
M2
  6
DASHDOT
370
25
 62
     2
100
AcDbLine
 10
108.574261
 20
484.911732
 11
108.574261
 21
494.911732
  0
LINE
  5
76
100
AcDbEntity
  8
M2
  6
DASHDOT
370
25
 62
     4
100
AcDbLine
 10
36.074261
 20
449.911732
 11
131.074261
 21
449.911732
  0
LINE
  5
77
100
AcDbEntity
  8
M2
  6
DASHDOT
370
25
 62
     4
100
AcDbLine
 10
83.574261
 20
391.911732
 11
83.574261
 21
509.411732
  0
LINE
  5
78
100
AcDbEntity
  8
M2
  6
DASHDOT
370
25
100
AcDbLine
 10
91.074261
 20
405.911732
 11
101.074261
 21
405.911732
  0
LINE
  5
79
100
AcDbEntity
  8
M2
  6
DASHDOT
370
25
100
AcDbLine
 10
96.074261
 20
400.911732
 11
96.074261
 21
410.911732
  0
CIRCLE
  5
7A
100
AcDbEntity
  8
M2
  6
CONTINUOUS
370
25
100
AcDbCircle
 10
96.074261
 20
405.911732
 40
2.5
  0
CIRCLE
  5
7B
100
AcDbEntity
  8
M2
  6
CONTINUOUS
370
25
100
AcDbCircle
 10
71.074261
 20
493.911732
 40
2.5
  0
LINE
  5
7C
100
AcDbEntity
  8
M2
  6
DASHDOT
370
25
100
AcDbLine
 10
66.074261
 20
493.911732
 11
76.074261
 21
493.911732
  0
LINE
  5
7D
100
AcDbEntity
  8
M2
  6
DASHDOT
370
25
100
AcDbLine
 10
71.074261
 20
488.911732
 11
71.074261
 21
498.911732
  0
LINE
  5
7E
100
AcDbEntity
  8
M2
  6
DASHDOT
370
25
100
AcDbLine
 10
53.574261
 20
397.911732
 11
63.574261
 21
397.911732
  0
LINE
  5
7F
100
AcDbEntity
  8
M2
  6
DASHDOT
370
25
100
AcDbLine
 10
58.574261
 20
392.911732
 11
58.574261
 21
402.911732
  0
LINE
  5
80
100
AcDbEntity
  8
M2
  6
DASHDOT
370
25
100
AcDbLine
 10
108.574261
 20
392.911732
 11
108.574261
 21
402.911732
  0
LINE
  5
81
100
AcDbEntity
  8
M2
  6
DASHDOT
370
25
100
AcDbLine
 10
103.574261
 20
397.911732
 11
113.574261
 21
397.911732
  0
LINE
  5
82
100
AcDbEntity
  8
M2
  6
DASHDOT
370
25
100
AcDbLine
 10
58.574261
 20
496.911732
 11
58.574261
 21
506.911732
  0
LINE
  5
83
100
AcDbEntity
  8
M2
  6
DASHDOT
370
25
100
AcDbLine
 10
53.574261
 20
501.911732
 11
63.574261
 21
501.911732
  0
LINE
  5
84
100
AcDbEntity
  8
M2
  6
DASHDOT
370
25
100
AcDbLine
 10
108.574261
 20
496.911732
 11
108.574261
 21
506.911732
  0
LINE
  5
85
100
AcDbEntity
  8
M2
  6
DASHDOT
370
25
100
AcDbLine
 10
103.574261
 20
501.911732
 11
113.574261
 21
501.911732
  0
LINE
  5
86
100
AcDbEntity
  8
M2
  6
CONTINUOUS
370
25
 62
     4
100
AcDbLine
 10
121.074261
 20
499.411732
 11
121.074261
 21
401.911732
  0
LINE
  5
87
100
AcDbEntity
  8
M2
  6
CONTINUOUS
370
25
 62
     4
100
AcDbLine
 10
46.074261
 20
499.411732
 11
121.074261
 21
499.411732
  0
LINE
  5
88
100
AcDbEntity
  8
M2
  6
CONTINUOUS
370
25
 62
     4
100
AcDbLine
 10
46.074261
 20
499.411732
 11
46.074261
 21
401.911732
  0
LINE
  5
89
100
AcDbEntity
  8
M2
  6
CONTINUOUS
370
25
 62
     4
100
AcDbLine
 10
46.074261
 20
401.911732
 11
121.074261
 21
401.911732
  0
LINE
  5
8A
100
AcDbEntity
  8
M2
  6
CONTINUOUS
370
25
 62
     4
100
AcDbLine
 10
48.574261
 20
474.911732
 11
118.574261
 21
474.911732
  0
LINE
  5
8B
100
AcDbEntity
  8
M2
  6
CONTINUOUS
370
25
 62
     4
100
AcDbLine
 10
119.574261
 20
473.911732
 11
119.574261
 21
425.911732
  0
ARC
  5
8C
100
AcDbEntity
  8
M2
  6
CONTINUOUS
370
25
 62
     4
100
AcDbCircle
 10
118.574261
 20
473.911732
 40
1.0
100
AcDbArc
 50
0.0
 51
90.0
  0
ARC
  5
8D
100
AcDbEntity
  8
M2
  6
CONTINUOUS
370
25
 62
     4
100
AcDbCircle
 10
118.574261
 20
425.911732
 40
1.0
100
AcDbArc
 50
270.0
 51
360.0
  0
LINE
  5
8E
100
AcDbEntity
  8
M2
  6
CONTINUOUS
370
25
 62
     4
100
AcDbLine
 10
48.574261
 20
424.911732
 11
118.574261
 21
424.911732
  0
ARC
  5
8F
100
AcDbEntity
  8
M2
  6
CONTINUOUS
370
25
 62
     4
100
AcDbCircle
 10
48.574261
 20
425.911732
 40
1.0
100
AcDbArc
 50
180.0
 51
270.0
  0
LINE
  5
90
100
AcDbEntity
  8
M2
  6
CONTINUOUS
370
25
 62
     4
100
AcDbLine
 10
47.574261
 20
473.911732
 11
47.574261
 21
425.911732
  0
ARC
  5
91
100
AcDbEntity
  8
M2
  6
CONTINUOUS
370
25
 62
     4
100
AcDbCircle
 10
48.574261
 20
473.911732
 40
1.0
100
AcDbArc
 50
90.0
 51
180.0
  0
LINE
  5
92
100
AcDbEntity
  8
M2
  6
CONTINUOUS
370
25
 62
     4
100
AcDbLine
 10
87.874261
 20
471.291379
 11
79.274261
 21
471.291379
  0
LINE
  5
93
100
AcDbEntity
  8
M2
  6
CONTINUOUS
370
25
 62
     4
100
AcDbLine
 10
87.874261
 20
455.424299
 11
87.874261
 21
471.291379
  0
LINE
  5
94
100
AcDbEntity
  8
M2
  6
CONTINUOUS
370
25
 62
     4
100
AcDbLine
 10
78.974269
 20
468.51174
 11
79.274261
 21
468.51174
  0
LINE
  5
95
100
AcDbEntity
  8
M2
  6
CONTINUOUS
370
25
 62
     4
100
AcDbLine
 10
87.874261
 20
468.51174
 11
88.174269
 21
468.51174
  0
LINE
  5
96
100
AcDbEntity
  8
M2
  6
CONTINUOUS
370
25
 62
     4
100
AcDbLine
 10
88.174269
 20
452.611753
 11
88.174269
 21
468.51174
  0
LINE
  5
97
100
AcDbEntity
  8
M2
  6
CONTINUOUS
370
25
 62
     4
100
AcDbLine
 10
79.274261
 20
455.424299
 11
79.274261
 21
471.291379
  0
LINE
  5
98
100
AcDbEntity
  8
M2
  6
CONTINUOUS
370
25
 62
     4
100
AcDbLine
 10
87.874261
 20
467.318652
 11
79.274261
 21
467.318652
  0
LINE
  5
99
100
AcDbEntity
  8
M2
  6
CONTINUOUS
370
25
 62
     4
100
AcDbLine
 10
87.874261
 20
461.413972
 11
79.274261
 21
461.413972
  0
LINE
  5
9A
100
AcDbEntity
  8
M2
  6
CONTINUOUS
370
25
 62
     4
100
AcDbLine
 10
78.974269
 20
452.611753
 11
88.174269
 21
452.611753
  0
LINE
  5
9B
100
AcDbEntity
  8
M2
  6
CONTINUOUS
370
25
 62
     4
100
AcDbLine
 10
78.974269
 20
452.611753
 11
78.974269
 21
468.51174
  0
LINE
  5
9C
100
AcDbEntity
  8
M2
  6
DASHDOT
370
25
100
AcDbLine
 10
58.574261
 20
276.111732
 11
58.574261
 21
266.111732
  0
LINE
  5
9D
100
AcDbEntity
  8
M2
  6
DASHDOT
370
25
100
AcDbLine
 10
53.574261
 20
271.111732
 11
63.574261
 21
271.111732
  0
LINE
  5
9E
100
AcDbEntity
  8
M2
  6
DASHDOT
370
25
100
AcDbLine
 10
71.074261
 20
323.911732
 11
71.074261
 21
269.911732
  0
LINE
  5
9F
100
AcDbEntity
  8
M2
  6
DASHDOT
370
25
100
AcDbLine
 10
76.074261
 20
318.911732
 11
66.074261
 21
318.911732
  0
LINE
  5
A0
100
AcDbEntity
  8
M2
  6
DASHDOT
370
25
100
AcDbLine
 10
91.074261
 20
318.911732
 11
101.074261
 21
318.911732
  0
LINE
  5
A1
100
AcDbEntity
  8
M2
  6
DASHDOT
370
25
100
AcDbLine
 10
96.074261
 20
323.911732
 11
96.074261
 21
269.911732
  0
LINE
  5
A2
100
AcDbEntity
  8
M2
  6
DASHDOT
370
25
100
AcDbLine
 10
108.574261
 20
276.111732
 11
108.574261
 21
266.111732
  0
LINE
  5
A3
100
AcDbEntity
  8
M2
  6
DASHDOT
370
25
100
AcDbLine
 10
103.574261
 20
271.111732
 11
113.574261
 21
271.111732
  0
LINE
  5
A4
100
AcDbEntity
  8
M2
  6
DASHDOT
370
25
 62
     2
100
AcDbLine
 10
58.574261
 20
306.911732
 11
58.574261
 21
296.911732
  0
LINE
  5
A5
100
AcDbEntity
  8
M2
  6
DASHDOT
370
25
 62
     2
100
AcDbLine
 10
53.574261
 20
301.911732
 11
63.574261
 21
301.911732
  0
LINE
  5
A6
100
AcDbEntity
  8
M2
  6
DASHDOT
370
25
 62
     2
100
AcDbLine
 10
78.574261
 20
301.911732
 11
88.574261
 21
301.911732
  0
LINE
  5
A7
100
AcDbEntity
  8
M2
  6
DASHDOT
370
25
 62
     2
100
AcDbLine
 10
83.574261
 20
306.911732
 11
83.574261
 21
296.911732
  0
LINE
  5
A8
100
AcDbEntity
  8
M2
  6
DASHDOT
370
25
 62
     2
100
AcDbLine
 10
103.574261
 20
301.911732
 11
113.574261
 21
301.911732
  0
LINE
  5
A9
100
AcDbEntity
  8
M2
  6
DASHDOT
370
25
 62
     2
100
AcDbLine
 10
108.574261
 20
306.911732
 11
108.574261
 21
296.911732
  0
LINE
  5
AA
100
AcDbEntity
  8
M2
  6
CONTINUOUS
370
25
 62
     4
100
AcDbLine
 10
46.074261
 20
269.911732
 11
121.074261
 21
269.911732
  0
LINE
  5
AB
100
AcDbEntity
  8
M2
  6
CONTINUOUS
370
25
 62
     4
100
AcDbLine
 10
46.074261
 20
329.911732
 11
46.074261
 21
269.911732
  0
LINE
  5
AC
100
AcDbEntity
  8
M2
  6
CONTINUOUS
370
25
 62
     4
100
AcDbLine
 10
121.074261
 20
329.911732
 11
121.074261
 21
269.911732
  0
LINE
  5
AD
100
AcDbEntity
  8
M2
  6
CONTINUOUS
370
25
 62
     4
100
AcDbLine
 10
119.574261
 20
334.911732
 11
119.574261
 21
329.911732
  0
LINE
  5
AE
100
AcDbEntity
  8
M2
  6
CONTINUOUS
370
25
 62
     4
100
AcDbLine
 10
87.824261
 20
334.911732
 11
119.574261
 21
334.911732
  0
LINE
  5
AF
100
AcDbEntity
  8
M2
  6
CONTINUOUS
370
25
 62
     4
100
AcDbLine
 10
87.824261
 20
348.058272
 11
87.824261
 21
334.911732
  0
LINE
  5
B0
100
AcDbEntity
  8
M2
  6
CONTINUOUS
370
25
 62
     4
100
AcDbLine
 10
87.824261
 20
348.058272
 11
79.324261
 21
348.058272
  0
LINE
  5
B1
100
AcDbEntity
  8
M2
  6
CONTINUOUS
370
25
 62
     4
100
AcDbLine
 10
79.324261
 20
348.058272
 11
79.324261
 21
334.911732
  0
LINE
  5
B2
100
AcDbEntity
  8
M2
  6
CONTINUOUS
370
25
 62
     4
100
AcDbLine
 10
47.574261
 20
334.911732
 11
79.324261
 21
334.911732
  0
LINE
  5
B3
100
AcDbEntity
  8
M2
  6
CONTINUOUS
370
25
 62
     4
100
AcDbLine
 10
47.574261
 20
334.911732
 11
47.574261
 21
329.911732
  0
LINE
  5
B4
100
AcDbEntity
  8
M2
  6
CONTINUOUS
370
25
 62
     4
100
AcDbLine
 10
119.574261
 20
329.911732
 11
121.074261
 21
329.911732
  0
LINE
  5
B5
100
AcDbEntity
  8
M2
  6
CONTINUOUS
370
25
 62
     4
100
AcDbLine
 10
46.074261
 20
329.911732
 11
47.574261
 21
329.911732
  0
LINE
  5
B6
100
AcDbEntity
  8
M2
  6
CONTINUOUS
370
25
 62
     4
100
AcDbLine
 10
230.947288
 20
473.706083
 11
238.574261
 21
471.10645
  0
LINE
  5
B7
100
AcDbEntity
  8
M2
  6
CONTINUOUS
370
25
 62
     4
100
AcDbLine
 10
228.879719
 20
473.572201
 11
230.947288
 21
473.706083
  0
LINE
  5
B8
100
AcDbEntity
  8
M2
  6
CONTINUOUS
370
25
 62
     4
100
AcDbLine
 10
228.879719
 20
473.572201
 11
227.653192
 21
471.055135
  0
ARC
  5
B9
100
AcDbEntity
  8
M2
  6
CONTINUOUS
370
25
 62
     4
100
AcDbCircle
 10
228.372357
 20
470.704695
 40
0.799999
100
AcDbArc
 50
154.020881
 51
243.841477
  0
LINE
  5
BA
100
AcDbEntity
  8
M2
  6
CONTINUOUS
370
25
 62
     4
100
AcDbLine
 10
238.574261
 20
464.843553
 11
228.019673
 21
469.986634
  0
LINE
  5
BB
100
AcDbEntity
  8
M2
  6
DASHDOT
370
25
100
AcDbLine
 10
309.374261
 20
501.911732
 11
295.374261
 21
501.911732
  0
LINE
  5
BC
100
AcDbEntity
  8
M2
  6
DASHDOT
370
25
100
AcDbLine
 10
302.374261
 20
508.911732
 11
302.374261
 21
494.911732
  0
LINE
  5
BD
100
AcDbEntity
  8
M2
  6
DASHDOT
370
25
100
AcDbLine
 10
303.574261
 20
493.911732
 11
247.574261
 21
493.911732
  0
LINE
  5
BE
100
AcDbEntity
  8
M2
  6
DASHDOT
370
25
100
AcDbLine
 10
254.574261
 20
500.911732
 11
254.574261
 21
486.911732
  0
LINE
  5
BF
100
AcDbEntity
  8
M2
  6
DASHDOT
370
25
100
AcDbLine
 10
254.574261
 20
398.911732
 11
254.574261
 21
412.911732
  0
LINE
  5
C0
100
AcDbEntity
  8
M2
  6
DASHDOT
370
25
100
AcDbLine
 10
303.574261
 20
405.911732
 11
247.574261
 21
405.911732
  0
LINE
  5
C1
100
AcDbEntity
  8
M2
  6
DASHDOT
370
25
100
AcDbLine
 10
302.374261
 20
404.911732
 11
302.374261
 21
390.911732
  0
LINE
  5
C2
100
AcDbEntity
  8
M2
  6
DASHDOT
370
25
100
AcDbLine
 10
309.374261
 20
397.911732
 11
295.374261
 21
397.911732
  0
LINE
  5
C3
100
AcDbEntity
  8
M2
  6
DASHDOT
370
25
 62
     2
100
AcDbLine
 10
271.574261
 20
484.911732
 11
271.574261
 21
494.911732
  0
LINE
  5
C4
100
AcDbEntity
  8
M2
  6
DASHDOT
370
25
 62
     2
100
AcDbLine
 10
276.574261
 20
489.911732
 11
266.574261
 21
489.911732
  0
LINE
  5
C5
100
AcDbEntity
  8
M2
  6
DASHDOT
370
25
 62
     2
100
AcDbLine
 10
276.574261
 20
409.911732
 11
266.574261
 21
409.911732
  0
LINE
  5
C6
100
AcDbEntity
  8
M2
  6
DASHDOT
370
25
 62
     2
100
AcDbLine
 10
271.574261
 20
404.911732
 11
271.574261
 21
414.911732
  0
LINE
  5
C7
100
AcDbEntity
  8
M2
  6
CONTINUOUS
370
25
 62
     4
100
AcDbLine
 10
301.574261
 20
404.911732
 11
303.574261
 21
404.911732
  0
LINE
  5
C8
100
AcDbEntity
  8
M2
  6
CONTINUOUS
370
25
 62
     4
100
AcDbLine
 10
298.574261
 20
467.411732
 11
299.574261
 21
467.411732
  0
LINE
  5
C9
100
AcDbEntity
  8
M2
  6
CONTINUOUS
370
25
 62
     4
100
AcDbLine
 10
300.374261
 20
432.411732
 11
298.574261
 21
432.411732
  0
LINE
  5
CA
100
AcDbEntity
  8
M2
  6
CONTINUOUS
370
25
 62
     4
100
AcDbLine
 10
298.574261
 20
432.411732
 11
298.574261
 21
467.411732
  0
LINE
  5
CB
100
AcDbEntity
  8
M2
  6
CONTINUOUS
370
25
 62
     4
100
AcDbLine
 10
298.574261
 20
432.411732
 11
300.374261
 21
432.411732
  0
LINE
  5
CC
100
AcDbEntity
  8
M2
  6
CONTINUOUS
370
25
 62
     4
100
AcDbLine
 10
300.374261
 20
428.061752
 11
300.374261
 21
432.411732
  0
LINE
  5
CD
100
AcDbEntity
  8
M2
  6
CONTINUOUS
370
25
 62
     4
100
AcDbLine
 10
301.574261
 20
465.411748
 11
299.574261
 21
467.411732
  0
LINE
  5
CE
100
AcDbEntity
  8
M2
  6
CONTINUOUS
370
25
 62
     4
100
AcDbLine
 10
303.574261
 20
465.411748
 11
301.574261
 21
465.411748
  0
LINE
  5
CF
100
AcDbEntity
  8
M2
  6
CONTINUOUS
370
25
 62
     4
100
AcDbLine
 10
299.574261
 20
467.411732
 11
298.574261
 21
467.411732
  0
LINE
  5
D0
100
AcDbEntity
  8
M2
  6
CONTINUOUS
370
25
 62
     4
100
AcDbLine
 10
270.976261
 20
497.911732
 11
250.574261
 21
497.911732
  0
LINE
  5
D1
100
AcDbEntity
  8
M2
  6
CONTINUOUS
370
25
 62
     4
100
AcDbLine
 10
301.574261
 20
401.911732
 11
250.574261
 21
401.911732
  0
LINE
  5
D2
100
AcDbEntity
  8
M2
  6
CONTINUOUS
370
25
 62
     4
100
AcDbLine
 10
250.574261
 20
401.911732
 11
250.574261
 21
417.911732
  0
LINE
  5
D3
100
AcDbEntity
  8
M2
  6
CONTINUOUS
370
25
 62
     4
100
AcDbLine
 10
243.574261
 20
417.911732
 11
243.574261
 21
424.911732
  0
LINE
  5
D4
100
AcDbEntity
  8
M2
  6
CONTINUOUS
370
25
 62
     4
100
AcDbLine
 10
243.574261
 20
474.911732
 11
243.574261
 21
481.911732
  0
LINE
  5
D5
100
AcDbEntity
  8
M2
  6
CONTINUOUS
370
25
 62
     4
100
AcDbLine
 10
250.574261
 20
481.911732
 11
250.574261
 21
497.911732
  0
LINE
  5
D6
100
AcDbEntity
  8
M2
  6
CONTINUOUS
370
25
 62
     4
100
AcDbLine
 10
243.574261
 20
474.911732
 11
238.574261
 21
474.911732
  0
LINE
  5
D7
100
AcDbEntity
  8
M2
  6
CONTINUOUS
370
25
 62
     4
100
AcDbLine
 10
243.574261
 20
424.911732
 11
238.574261
 21
424.911732
  0
LINE
  5
D8
100
AcDbEntity
  8
M2
  6
CONTINUOUS
370
25
 62
     4
100
AcDbLine
 10
301.574261
 20
401.911732
 11
301.574261
 21
404.911732
  0
LINE
  5
D9
100
AcDbEntity
  8
M2
  6
CONTINUOUS
370
25
 62
     4
100
AcDbLine
 10
250.574261
 20
481.911732
 11
243.574261
 21
481.911732
  0
LINE
  5
DA
100
AcDbEntity
  8
M2
  6
CONTINUOUS
370
25
 62
     4
100
AcDbLine
 10
273.574261
 20
499.411732
 11
270.976261
 21
497.911732
  0
LINE
  5
DB
100
AcDbEntity
  8
M2
  6
CONTINUOUS
370
25
 62
     4
100
AcDbLine
 10
301.574261
 20
494.911732
 11
303.574261
 21
494.911732
  0
LINE
  5
DC
100
AcDbEntity
  8
M2
  6
CONTINUOUS
370
25
 62
     4
100
AcDbLine
 10
250.574261
 20
417.911732
 11
243.574261
 21
417.911732
  0
LINE
  5
DD
100
AcDbEntity
  8
M2
  6
CONTINUOUS
370
25
 62
     4
100
AcDbLine
 10
273.574261
 20
499.411732
 11
291.574261
 21
499.411732
  0
LINE
  5
DE
100
AcDbEntity
  8
M2
  6
CONTINUOUS
370
25
 62
     4
100
AcDbLine
 10
238.574261
 20
449.911732
 11
238.574261
 21
474.911732
  0
LINE
  5
DF
100
AcDbEntity
  8
M2
  6
CONTINUOUS
370
25
 62
     4
100
AcDbLine
 10
238.574261
 20
424.911732
 11
238.574261
 21
449.911732
  0
LINE
  5
E0
100
AcDbEntity
  8
M2
  6
CONTINUOUS
370
25
 62
     4
100
AcDbLine
 10
300.374261
 20
428.061752
 11
303.574261
 21
428.061752
  0
LINE
  5
E1
100
AcDbEntity
  8
M2
  6
CONTINUOUS
370
25
 62
     4
100
AcDbLine
 10
303.574261
 20
465.411748
 11
303.574261
 21
494.911732
  0
LINE
  5
E2
100
AcDbEntity
  8
M2
  6
CONTINUOUS
370
25
 62
     4
100
AcDbLine
 10
292.574261
 20
497.911732
 11
292.574261
 21
498.411732
  0
LINE
  5
E3
100
AcDbEntity
  8
M2
  6
CONTINUOUS
370
25
 62
     4
100
AcDbLine
 10
292.574261
 20
498.411732
 11
291.574261
 21
499.411732
  0
LINE
  5
E4
100
AcDbEntity
  8
M2
  6
CONTINUOUS
370
25
 62
     4
100
AcDbLine
 10
301.574261
 20
494.911732
 11
301.574261
 21
497.911732
  0
LINE
  5
E5
100
AcDbEntity
  8
M2
  6
CONTINUOUS
370
25
 62
     4
100
AcDbLine
 10
301.574261
 20
497.911732
 11
292.574261
 21
497.911732
  0
LINE
  5
E6
100
AcDbEntity
  8
M2
  6
CONTINUOUS
370
25
 62
     4
100
AcDbLine
 10
303.574261
 20
404.911732
 11
303.574261
 21
428.061752
  0
LINE
  5
E7
100
AcDbEntity
  8
M2
  6
DASHDOT
370
25
 62
     4
100
AcDbLine
 10
232.00274
 20
449.911732
 11
307.687336
 21
449.911732
  0
LINE
  5
E8
100
AcDbEntity
  8
M2
  6
CONTINUOUS
370
25
 62
     7
100
AcDbLine
 10
120.574261
 20
127.700244
 11
120.574261
 21
177.700244
  0
ARC
  5
E9
100
AcDbEntity
  8
M2
  6
CONTINUOUS
370
25
 62
     7
100
AcDbCircle
 10
47.574261
 20
177.700244
 40
1.0
100
AcDbArc
 50
90.0
 51
180.0
  0
LINE
  5
EA
100
AcDbEntity
  8
M2
  6
CONTINUOUS
370
25
 62
     7
100
AcDbLine
 10
46.574261
 20
127.700244
 11
46.574261
 21
177.700244
  0
ARC
  5
EB
100
AcDbEntity
  8
M2
  6
CONTINUOUS
370
25
 62
     7
100
AcDbCircle
 10
119.574261
 20
127.700244
 40
1.0
100
AcDbArc
 50
270.0
 51
360.0
  0
ARC
  5
EC
100
AcDbEntity
  8
M2
  6
CONTINUOUS
370
25
 62
     7
100
AcDbCircle
 10
119.574261
 20
177.700244
 40
1.0
100
AcDbArc
 50
0.0
 51
90.0
  0
LINE
  5
ED
100
AcDbEntity
  8
M2
  6
CONTINUOUS
370
25
 62
     7
100
AcDbLine
 10
47.574261
 20
126.700244
 11
119.574261
 21
126.700244
  0
ARC
  5
EE
100
AcDbEntity
  8
M2
  6
CONTINUOUS
370
25
 62
     7
100
AcDbCircle
 10
47.574261
 20
127.700244
 40
1.0
100
AcDbArc
 50
180.0
 51
270.0
  0
LINE
  5
EF
100
AcDbEntity
  8
M2
  6
CONTINUOUS
370
25
 62
     7
100
AcDbLine
 10
47.574261
 20
178.700244
 11
119.574261
 21
178.700244
  0
LINE
  5
F0
100
AcDbEntity
  8
M2
  6
DASHDOT
370
25
100
AcDbLine
 10
234.938702
 20
190.700244
 11
234.938702
 21
202.700244
  0
LINE
  5
F1
100
AcDbEntity
  8
M2
  6
DASHDOT
370
25
100
AcDbLine
 10
228.938702
 20
196.700244
 11
240.938702
 21
196.700244
  0
LINE
  5
F2
100
AcDbEntity
  8
M2
  6
DASHDOT
370
25
100
AcDbLine
 10
253.938702
 20
108.700244
 11
265.938702
 21
108.700244
  0
CIRCLE
  5
F3
100
AcDbEntity
  8
M2
  6
CONTINUOUS
370
25
100
AcDbCircle
 10
259.938702
 20
108.700244
 40
2.5
  0
LINE
  5
F4
100
AcDbEntity
  8
M2
  6
DASHDOT
370
25
100
AcDbLine
 10
259.938702
 20
102.700244
 11
259.938702
 21
114.700244
  0
CIRCLE
  5
F5
100
AcDbEntity
  8
M2
  6
CONTINUOUS
370
25
100
AcDbCircle
 10
234.938702
 20
196.700244
 40
2.5
  0
LINE
  5
F6
100
AcDbEntity
  8
M2
  6
DIVIDE
370
25
 62
     4
100
AcDbLine
 10
284.438702
 20
104.700244
 11
284.438702
 21
202.200244
  0
LINE
  5
F7
100
AcDbEntity
  8
M2
  6
DIVIDE
370
25
 62
     4
100
AcDbLine
 10
210.438702
 20
202.200244
 11
284.438702
 21
202.200244
  0
LINE
  5
F8
100
AcDbEntity
  8
M2
  6
DIVIDE
370
25
 62
     4
100
AcDbLine
 10
210.438702
 20
104.700244
 11
284.438702
 21
104.700244
  0
LINE
  5
F9
100
AcDbEntity
  8
M2
  6
DIVIDE
370
25
 62
     4
100
AcDbLine
 10
210.438702
 20
104.700244
 11
210.438702
 21
202.200244
  0
LINE
  5
FA
100
AcDbEntity
  8
M2
  6
DASHDOT
370
25
 62
     4
100
AcDbLine
 10
204.215477
 20
152.700244
 11
292.922969
 21
152.700244
  0
LINE
  5
FB
100
AcDbEntity
  8
M2
  6
DASHDOT
370
25
 62
     4
100
AcDbLine
 10
247.438702
 20
96.495413
 11
247.438702
 21
210.208147
  0
LINE
  5
FC
100
AcDbEntity
  8
M2
  6
DASHDOT
370
25
 62
     4
100
AcDbLine
 10
83.574261
 20
92.261198
 11
83.574261
 21
210.208147
  0
LINE
  5
FD
100
AcDbEntity
  8
M2
  6
DASHDOT
370
25
 62
     4
100
AcDbLine
 10
40.351036
 20
152.700244
 11
129.058528
 21
152.700244
  0
LINE
  5
FE
100
AcDbEntity
  8
M2
  6
DASHDOT
370
25
 62
     4
100
AcDbLine
 10
45.574261
 20
104.700244
 11
121.574261
 21
104.700244
  0
LINE
  5
FF
100
AcDbEntity
  8
M2
  6
DASHDOT
370
25
 62
     4
100
AcDbLine
 10
121.574261
 20
104.700244
 11
121.574261
 21
202.200244
  0
LINE
  5
100
100
AcDbEntity
  8
M2
  6
DASHDOT
370
25
 62
     4
100
AcDbLine
 10
45.574261
 20
104.700244
 11
45.574261
 21
202.200244
  0
LINE
  5
101
100
AcDbEntity
  8
M2
  6
DASHDOT
370
25
 62
     4
100
AcDbLine
 10
45.574261
 20
202.200244
 11
121.574261
 21
202.200244
  0
LINE
  5
102
100
AcDbEntity
  8
M4
  6
CONTINUOUS
370
25
100
AcDbLine
 10
250.906635
 20
41.249999
 11
250.906635
 21
-1.421085E-014
  0
LINE
  5
103
100
AcDbEntity
  8
M4
  6
CONTINUOUS
370
25
100
AcDbLine
 10
45.906657
 20
41.249999
 11
45.906657
 21
-1.421085E-014
  0
LINE
  5
104
100
AcDbEntity
  8
M4
  6
CONTINUOUS
370
25
100
AcDbLine
 10
45.906657
 20
-1.421085E-014
 11
250.906635
 21
-1.421085E-014
  0
LINE
  5
105
100
AcDbEntity
  8
M4
  6
CONTINUOUS
370
25
100
AcDbLine
 10
45.906657
 20
41.249999
 11
250.906635
 21
41.249999
  0
LINE
  5
106
100
AcDbEntity
  8
M4
  6
CONTINUOUS
370
25
 60
     1
100
AcDbLine
 10
225.906636
 20
27.499999
 11
225.906636
 21
41.249999
  0
LINE
  5
107
100
AcDbEntity
  8
M4
  6
CONTINUOUS
370
25
100
AcDbLine
 10
203.406674
 20
27.499999
 11
225.906636
 21
27.499999
  0
TEXT
  5
108
100
AcDbEntity
  8
M4
100
AcDbText
 10
206.058039
 20
31.250002
 40
6.25
  1
ＲＥＶ．：
 41
0.666667
  7
STANDARD
100
AcDbText
  0
LINE
  5
109
100
AcDbEntity
  8
M4
  6
CONTINUOUS
370
25
 60
     1
100
AcDbLine
 10
250.906635
 20
27.499999
 11
250.906635
 21
41.249999
  0
LINE
  5
10A
100
AcDbEntity
  8
M4
  6
CONTINUOUS
370
25
100
AcDbLine
 10
225.906636
 20
27.499999
 11
250.906635
 21
27.499999
  0
TEXT
  5
10B
100
AcDbEntity
  8
M4
100
AcDbText
 10
236.080225
 20
31.250002
 40
6.25
  1
００
 41
0.833333
  7
STANDARD
100
AcDbText
  0
LINE
  5
10C
100
AcDbEntity
  8
M4
  6
CONTINUOUS
370
25
 60
     1
100
AcDbLine
 10
75.906657
 20
27.499999
 11
75.906657
 21
41.249999
  0
LINE
  5
10D
100
AcDbEntity
  8
M4
  6
CONTINUOUS
370
25
100
AcDbLine
 10
45.906657
 20
27.499999
 11
75.906657
 21
27.499999
  0
TEXT
  5
10E
100
AcDbEntity
  8
M4
100
AcDbText
 10
48.580271
 20
31.250002
 40
6.25
  1
登録名：
 41
0.833333
  7
STANDARD
100
AcDbText
  0
LINE
  5
10F
100
AcDbEntity
  8
M4
  6
CONTINUOUS
370
25
 60
     1
100
AcDbLine
 10
250.906635
 20
13.749999
 11
250.906635
 21
27.499999
  0
LINE
  5
110
100
AcDbEntity
  8
M4
  6
CONTINUOUS
370
25
100
AcDbLine
 10
225.906636
 20
13.749999
 11
250.906635
 21
13.749999
  0
LINE
  5
111
100
AcDbEntity
  8
M4
  6
CONTINUOUS
370
25
 60
     1
100
AcDbLine
 10
225.906636
 20
13.749999
 11
225.906636
 21
27.499999
  0
LINE
  5
112
100
AcDbEntity
  8
M4
  6
CONTINUOUS
370
25
100
AcDbLine
 10
75.906657
 20
13.749999
 11
225.906636
 21
13.749999
  0
TEXT
  5
113
100
AcDbEntity
  8
M4
100
AcDbText
 10
78.580271
 20
17.500002
 40
6.25
  1
表面形
 41
0.833333
  7
STANDARD
100
AcDbText
  0
LINE
  5
114
100
AcDbEntity
  8
M4
  6
CONTINUOUS
370
25
 60
     1
100
AcDbLine
 10
75.906657
 20
13.749999
 11
75.906657
 21
27.499999
  0
LINE
  5
115
100
AcDbEntity
  8
M4
  6
CONTINUOUS
370
25
100
AcDbLine
 10
45.906657
 20
13.749999
 11
75.906657
 21
13.749999
  0
TEXT
  5
116
100
AcDbEntity
  8
M4
100
AcDbText
 10
47.312921
 20
17.500002
 40
6.25
  1
接続方式：
 41
0.75
  7
STANDARD
100
AcDbText
  0
LINE
  5
117
100
AcDbEntity
  8
M4
  6
CONTINUOUS
370
25
 60
     1
100
AcDbLine
 10
250.906635
 20
-1.421085E-014
 11
250.906635
 21
13.749999
  0
LINE
  5
118
100
AcDbEntity
  8
M4
  6
CONTINUOUS
370
25
 60
     1
100
AcDbLine
 10
225.906636
 20
-1.421085E-014
 11
250.906635
 21
-1.421085E-014
  0
LINE
  5
119
100
AcDbEntity
  8
M4
  6
CONTINUOUS
370
25
 60
     1
100
AcDbLine
 10
225.906636
 20
-1.421085E-014
 11
225.906636
 21
13.749999
  0
LINE
  5
11A
100
AcDbEntity
  8
M4
  6
CONTINUOUS
370
25
 60
     1
100
AcDbLine
 10
75.906657
 20
-1.421085E-014
 11
225.906636
 21
-1.421085E-014
  0
TEXT
  5
11B
100
AcDbEntity
  8
M4
100
AcDbText
 10
78.562921
 20
3.750002
 40
6.25
  1
ＥＢ－１００Ｅ
 41
0.75
  7
STANDARD
100
AcDbText
  0
LINE
  5
11C
100
AcDbEntity
  8
M4
  6
CONTINUOUS
370
25
 60
     1
100
AcDbLine
 10
75.906657
 20
-1.421085E-014
 11
75.906657
 21
13.749999
  0
LINE
  5
11D
100
AcDbEntity
  8
M4
  6
CONTINUOUS
370
25
 60
     1
100
AcDbLine
 10
45.906657
 20
-1.421085E-014
 11
75.906657
 21
-1.421085E-014
  0
TEXT
  5
11E
100
AcDbEntity
  8
M4
100
AcDbText
 10
47.312921
 20
3.750002
 40
6.25
  1
適用形式：
 41
0.75
  7
STANDARD
100
AcDbText
  0
LINE
  5
11F
100
AcDbEntity
  8
M4
  6
CONTINUOUS
370
25
100
AcDbLine
 10
203.406674
 20
27.499999
 11
203.406674
 21
41.249999
  0
LINE
  5
120
100
AcDbEntity
  8
M4
  6
CONTINUOUS
370
25
100
AcDbLine
 10
75.906657
 20
27.499999
 11
203.406674
 21
27.499999
  0
TEXT
  5
121
100
AcDbEntity
  8
M4
100
AcDbText
 10
78.580271
 20
31.250002
 40
6.25
  1
ＥＢ－１００Ｅ　３Ｐ
 41
0.833333
  7
STANDARD
100
AcDbText
  0
ENDSEC
  0
SECTION
  2
OBJECTS
  0
DICTIONARY
  5
C
100
AcDbDictionary
  3
ACAD_GROUP
350
D
  3
ACAD_MLINESTYLE
350
E
  0
DICTIONARY
  5
D
102
{ACAD_REACTORS
330
C
102
}
100
AcDbDictionary
  0
DICTIONARY
  5
E
102
{ACAD_REACTORS
330
C
102
}
100
AcDbDictionary
  3
STANDARD
350
13
  0
MLINESTYLE
  5
13
102
{ACAD_REACTORS
330
E
102
}
100
AcDbMlineStyle
  2
STANDARD
 70
     0
  3

 62
     0
 51
90.0
 52
90.0
 71
     2
 49
0.5
 62
   256
  6
BYLAYER
 49
-0.5
 62
   256
  6
BYLAYER
  0
ENDSEC
  0
EOF
