  0
SECTION
  2
HEADER
  9
$ACADVER
  1
AC1015
  9
$INSBASE
 10
0.000000
 20
0.000000
 30
0.0
  9
$VIEWCTR
 10
7.531722
 20
4.5
  9
$VIEWSIZE
 40
9.0
  9
$SNAPMODE
 70
     0
  9
$SNAPUNIT
 10
1.0
 20
1.0
  9
$SNAPBASE
 10
0.0
 20
0.0
  9
$SNAPANG
 50
0.0
  9
$SNAPSTYLE
 70
     0
  9
$SNAPISOPAIR
 70
     0
  9
$GRIDMODE
 70
     0
  9
$GRIDUNIT
 10
0.0
 20
0.0
  9
$ORTHOMODE
 70
     0
  9
$REGENMODE
 70
     1
  9
$FILLMODE
 70
     1
  9
$QTEXTMODE
 70
     0
  9
$DRAGMODE
 70
     2
  9
$LTSCALE
  40
     1.000000
  9
$OSMODE
 70
     0
  9
$ATTMODE
 70
     1
  9
$TEXTSIZE
 40
0.2
  9
$TRACEWID
 40
0.05
  9
$TEXTSTYLE
  7
STANDARD
  9
$CELTYPE
  6
BYLAYER
  9
$CECOLOR
 62
   256
  9
$DIMSCALE
 40
1.0
  9
$DIMASZ
 40
0.18
  9
$DIMEXO
 40
0.0625
  9
$DIMDLI
 40
0.38
  9
$DIMRND
 40
0.0
  9
$DIMDLE
 40
0.0
  9
$DIMEXE
 40
0.18
  9
$DIMTP
 40
0.0
  9
$DIMTM
 40
0.0
  9
$DIMTXT
 40
0.18
  9
$DIMCEN
 40
0.09
  9
$DIMTSZ
 40
0.0
  9
$DIMADEC
 70
     0
  9
$DIMALTRND
 40
0.000000
  9
$DIMAZIN
 70
     0
  9
$DIMDSEP
 70
    46
  9
$DIMATFIT
 70
     3
  9
$DIMFRAC
 70
     0
  9
$DIMLDRBLK
  1

  9
$DIMLUNIT
 70
     2
  9
$DIMLWD
 70
   13
  9
$DIMLWE
 70
   13
  9
$DIMTMOVE
 70
     0
  9
$CELWEIGHT
370
    25
  9
$LWDISPLAY
290
    1
  9
$EXTNAMES
290
    1
  9
$DIMTOL
 70
     0
  9
$DIMLIM
 70
     0
  9
$DIMTIH
 70
     1
  9
$DIMTOH
 70
     1
  9
$DIMSE1
 70
     0
  9
$DIMSE2
 70
     0
  9
$DIMTAD
 70
     0
  9
$DIMZIN
 70
     0
  9
$DIMBLK
  1

  9
$LUNITS
 70
     2
  9
$LUPREC
 70
     4
  9
$AXISMODE
 70
     0
  9
$AXISUNIT
 10
0.0
 20
0.0
  9
$SKETCHINC
 40
0.1
  9
$FILLETRAD
 40
0.0
  9
$AUNITS
 70
     0
  9
$AUPREC
 70
     0
  9
$MENU
  1
ACAD
  9
$ELEVATION
 40
0.0
  9
$THICKNESS
 40
0.0
  9
$VIEWDIR
 10
0.0
 20
0.0
 30
1.0
  9
$LIMCHECK
 70
     0
  9
$BLIPMODE
 70
     1
  9
$CHAMFERA
 40
0.0
  9
$CHAMFERB
 40
0.0
  9
$FASTZOOM
 70
     1
  9
$SKPOLY
 70
     0
  9
$TDCREATE
 40
0000000.0000000000
  9
$TDUPDATE
 40
0000000.0000000000
  9
$TDINDWG
 40
0.0000000000
  9
$TDUSRTIMER
 40
0.0000000000
  9
$USRTIMER
 70
     1
  9
$ANGBASE
 50
0.0
  9
$ANGDIR
 70
     0
  9
$PDMODE
 70
     0
  9
$PDSIZE
 40
0.0
  9
$PLINEWID
 40
0.0
  9
$COORDS
 70
     0
  9
$USERI1
 70
     0
  9
$USERI2
 70
     0
  9
$USERI3
 70
     0
  9
$USERI4
 70
     0
  9
$USERI5
 70
     0
  9
$USERR1
 40
0.0
  9
$USERR2
 40
0.0
  9
$USERR3
 40
0.0
  9
$USERR4
 40
0.0
  9
$USERR5
 40
0.0
  9
$CLAYER
  8
M2
  9
$EXTMIN
 10
0.0
 20
0.0
  9
$EXTMAX
 10
841.0
 20
594.0
  9
$LIMMIN
 10
0.0
 20
0.0
  9
$LIMMAX
 10
841.0
 20
594.0
  9
$HANDSEED
  5
14C
  0
ENDSEC
  0
SECTION
  2
CLASSES
  0
CLASS
  1
DIMASSOC
  2
AcDbDimAssoc
  3
"AcDbDimAssoc|Product Desc:     AcDim ARX App For Dimension|Company:          Autodesk, Inc.|WEB Address:      www.autodesk.com"
 90
        0
280
     0
281
     0
  0
ENDSEC
  0
SECTION
  2
TABLES
  0
TABLE
  2
VPORT
  5
8
100
AcDbSymbolTable
 70
     2
  0
VPORT
  5
14
100
AcDbSymbolTableRecord
100
AcDbViewportTableRecord
  2
*ACTIVE
 70
     0
 10
0.0
 20
0.0
 11
1.0
 21
1.0
 12
484.0
 22
297.0
 13
0.0
 23
0.0
 14
1.0
 24
1.0
 15
0.0
 25
0.0
 16
0.0
 26
0.0
 36
1.0
 17
0.0
 27
0.0
 37
0.0
 40
594.0
 41
2.0
 42
50.0
 43
0.0
 44
0.0
 50
0.0
 51
0.0
 71
     0
 72
   100
 73
     1
 74
     1
 75
     0
 76
     0
 77
     0
 78
     0
  0
ENDTAB
  0
TABLE
  2
LTYPE
  5
5
100
AcDbSymbolTable
 70
     5
  0
LTYPE
  5
15
100
AcDbSymbolTableRecord
100
AcDbLinetypeTableRecord
  2
BYBLOCK
 70
     0
  3

 72
    65
 73
     0
 40
0.0
  0
LTYPE
  5
16
100
AcDbSymbolTableRecord
100
AcDbLinetypeTableRecord
  2
BYLAYER
 70
     0
  3

 72
    65
 73
     0
 40
0.0
  0
LTYPE
  5
17
100
AcDbSymbolTableRecord
100
AcDbLinetypeTableRecord
  2
CONTINUOUS
 70
    64
  3
Solid line
 72
    65
 73
     0
 40
0.0
  0
LTYPE
  5
18
100
AcDbSymbolTableRecord
100
AcDbLinetypeTableRecord
  2
DASHED
 70
    64
  3
__ __ __ __ __ __ __ __ __ __ __ __ __ __ __ __
 72
    65
 73
     2
 40
0.75
 49
0.5
 74
     0
 49
-0.25
 74
     0
  0
LTYPE
  5
19
100
AcDbSymbolTableRecord
100
AcDbLinetypeTableRecord
  2
DASHDOT
 70
    64
  3
__ . __ . __ . __ . __ . __ . __ . __ . __ . __
 72
    65
 73
     4
 40
1.0
 49
0.5
 74
     0
 49
-0.25
 74
     0
 49
0.0
 74
     0
 49
-0.25
 74
     0
  0
LTYPE
  5
1A
100
AcDbSymbolTableRecord
100
AcDbLinetypeTableRecord
  2
DIVIDE
 70
    64
  3
____ . . ____ . . ____ . . ____ . . ____ . . __
 72
    65
 73
     6
 40
1.25
 49
0.5
 74
     0
 49
-0.25
 74
     0
 49
0.0
 74
     0
 49
-0.25
 74
     0
 49
0.0
 74
     0
 49
-0.25
 74
     0
  0
LTYPE
  5
1B
100
AcDbSymbolTableRecord
100
AcDbLinetypeTableRecord
  2
DOT
 70
    64
  3
. . . . . . . . . . . . . . . . . . . . . . . .
 72
    65
 73
     2
 40
0.25
 49
0.0
 74
     0
 49
-0.25
 74
     0
  0
ENDTAB
  0
TABLE
  2
LAYER
  5
2
100
AcDbSymbolTable
 70
   102
  0
LAYER
  5
F
100
AcDbSymbolTableRecord
100
AcDbLayerTableRecord
  2
0
 70
     0
 62
     7
  6
CONTINUOUS
370
     -3
390
F
  0
LAYER
  5
1C
100
AcDbSymbolTableRecord
100
AcDbLayerTableRecord
  2
M2
 70
     0
 62
     3
  6
CONTINUOUS
370
     -3
390
F
  0
LAYER
  5
1D
100
AcDbSymbolTableRecord
100
AcDbLayerTableRecord
  2
M4
 70
     0
 62
     7
  6
CONTINUOUS
370
     -3
390
F
  0
LAYER
  5
1E
100
AcDbSymbolTableRecord
100
AcDbLayerTableRecord
  2
DD0
 70
     0
 62
     4
  6
CONTINUOUS
370
     -3
390
F
  0
ENDTAB
  0
TABLE
  2
STYLE
  5
3
100
AcDbSymbolTable
 70
     2
  0
STYLE
  5
10
100
AcDbSymbolTableRecord
100
AcDbTextStyleTableRecord
  2
STANDARD
 70
     0
 40
0.0
 41
1.0
 50
0.0
 71
     0
 42
0.2
  3
txt
  4
BIGFONT
  0
ENDTAB
  0
TABLE
  2
VIEW
  5
6
100
AcDbSymbolTable
 70
     0
  0
ENDTAB
  0
TABLE
  2
UCS
  5
7
100
AcDbSymbolTable
 70
     0
  0
ENDTAB
  0
TABLE
  2
APPID
  5
9
100
AcDbSymbolTable
 70
     1
  0
APPID
  5
11
100
AcDbSymbolTableRecord
100
AcDbRegAppTableRecord
  2
ACAD
 70
     0
  0
ENDTAB
  0
TABLE
  2
DIMSTYLE
  5
A
100
AcDbSymbolTable
 70
     2
100
AcDbDimStyleTable
 71
     1
  0
DIMSTYLE
105
62
100
AcDbSymbolTableRecord
100
AcDbDimStyleTableRecord
  2
STANDARD
 70
     0
  3

  4

  5

  6
_OPEN
  7
_OPEN
 40
1.0
 41
3.0
 42
0.0
 43
8.0
 44
1.5
 45
0.0
 46
0.0
 47
0.0
 48
0.0
140
3.2
141
0.09
142
0.0
143
0.03937
144
1.0
145
0.0
146
1.0
147
1.0
148
0.000000
 71
     0
 72
     0
 73
     1
 74
     1
 75
     0
 76
     0
 77
     3
 78
     8
170
     0
171
     2
172
     0
173
     1
174
     0
175
     0
176
     0
177
     0
178
     0
270
     2
271
     2
272
     4
273
     2
274
     2
340
10
275
     0
278
    46
280
     0
281
     0
282
     0
283
     1
284
     0
285
     0
286
     0
287
     3
288
     0
371
   13
372
   13
  0
DIMSTYLE
105
63
100
AcDbSymbolTableRecord
100
AcDbDimStyleTableRecord
  2
LEADSTYL
 70
     0
  3

  4

  5

  6
_OPEN
  7
_OPEN
 40
1.0
 41
3.0
 42
0.0625
 43
0.38
 44
0.18
 45
0.0
 46
0.0
 47
0.0
 48
0.0
140
3.2
141
0.09
142
0.0
143
25.4
144
1.0
145
0.0
146
1.0
147
1.0
 71
     0
 72
     0
 73
     1
 74
     1
 75
     0
 76
     0
 77
     0
 78
     0
170
     0
171
     2
172
     0
173
     1
174
     0
175
     0
176
     0
177
     0
178
     0
270
     2
271
     4
272
     4
273
     2
274
     2
340
10
275
     0
280
     0
281
     0
282
     0
283
     1
284
     0
285
     0
286
     0
287
     3
288
     0
  0
ENDTAB
  0
TABLE
  2
BLOCK_RECORD
  5
1
100
AcDbSymbolTable
 70
     9
  0
BLOCK_RECORD
  5
1F
100
AcDbSymbolTableRecord
100
AcDbBlockTableRecord
  2
*MODEL_SPACE
  0
BLOCK_RECORD
  5
22
100
AcDbSymbolTableRecord
100
AcDbBlockTableRecord
  2
*PAPER_SPACE
  0
BLOCK_RECORD
  5
25
100
AcDbSymbolTableRecord
100
AcDbBlockTableRecord
  2
_NONE
  0
BLOCK_RECORD
  5
29
100
AcDbSymbolTableRecord
100
AcDbBlockTableRecord
  2
_OPEN
  0
BLOCK_RECORD
  5
2F
100
AcDbSymbolTableRecord
100
AcDbBlockTableRecord
  2
_CLOSED
  0
BLOCK_RECORD
  5
36
100
AcDbSymbolTableRecord
100
AcDbBlockTableRecord
  2
_ORIGIN
  0
BLOCK_RECORD
  5
3B
100
AcDbSymbolTableRecord
100
AcDbBlockTableRecord
  2
_DOT
  0
BLOCK_RECORD
  5
43
100
AcDbSymbolTableRecord
100
AcDbBlockTableRecord
  2
_OBLIQUE
  0
BLOCK_RECORD
  5
47
100
AcDbSymbolTableRecord
100
AcDbBlockTableRecord
  2
DIMS0
  0
BLOCK_RECORD
  5
50
100
AcDbSymbolTableRecord
100
AcDbBlockTableRecord
  2
DIMS1
  0
BLOCK_RECORD
  5
59
100
AcDbSymbolTableRecord
100
AcDbBlockTableRecord
  2
DIMS2
  0
ENDTAB
  0
ENDSEC
  0
SECTION
  2
BLOCKS
  0
BLOCK
  5
20
100
AcDbEntity
  8
0
100
AcDbBlockBegin
  2
*MODEL_SPACE
 70
     0
 10
0.0
 20
0.0
 30
0.0
  3
*MODEL_SPACE
  1

  0
ENDBLK
  5
21
100
AcDbEntity
  8
0
100
AcDbBlockEnd
  0
BLOCK
  5
23
100
AcDbEntity
 67
     1
  8
0
100
AcDbBlockBegin
  2
*PAPER_SPACE
 70
     0
 10
0.0
 20
0.0
 30
0.0
  3
*PAPER_SPACE
  1

  0
ENDBLK
  5
24
100
AcDbEntity
 67
     1
  8
0
100
AcDbBlockEnd
  0
BLOCK
  5
26
100
AcDbEntity
  8
0
100
AcDbBlockBegin
  2
_NONE
 70
     0
 10
0.0
 20
0.0
  0
CIRCLE
  5
27
100
AcDbEntity
  8
0
 62
     0
370
13
100
AcDbCircle
 10
0.0
 20
0.0
 40
0.25
  0
ENDBLK
  5
28
100
AcDbEntity
  8
0
100
AcDbBlockEnd
  0
BLOCK
  5
2A
100
AcDbEntity
  8
0
100
AcDbBlockBegin
  2
_OPEN
 70
     0
 10
0.0
 20
0.0
  0
LINE
  5
2B
100
AcDbEntity
  8
0
 62
     0
370
13
100
AcDbLine
 10
-0.965926
 20
0.258819
 11
0.0
 21
0.0
  0
LINE
  5
2C
100
AcDbEntity
  8
0
 62
     0
370
13
100
AcDbLine
 10
0.0
 20
0.0
 11
-0.965926
 21
-0.258819
  0
LINE
  5
2D
100
AcDbEntity
  8
0
 62
     0
370
13
100
AcDbLine
 10
0.0
 20
0.0
 11
-1.0
 21
0.0
  0
ENDBLK
  5
2E
100
AcDbEntity
  8
0
100
AcDbBlockEnd
  0
BLOCK
  5
30
100
AcDbEntity
  8
0
100
AcDbBlockBegin
  2
_CLOSED
 70
     0
 10
0.0
 20
0.0
  0
LINE
  5
31
100
AcDbEntity
  8
0
 62
     0
370
13
100
AcDbLine
 10
-0.965926
 20
0.258819
 11
0.0
 21
0.0
  0
LINE
  5
32
100
AcDbEntity
  8
0
 62
     0
370
13
100
AcDbLine
 10
0.0
 20
0.0
 11
-0.965926
 21
-0.258819
  0
LINE
  5
33
100
AcDbEntity
  8
0
 62
     0
370
13
100
AcDbLine
 10
-0.965926
 20
0.258819
 11
-0.965926
 21
-0.258819
  0
LINE
  5
34
100
AcDbEntity
  8
0
 62
     0
370
13
100
AcDbLine
 10
0.0
 20
0.0
 11
-1.0
 21
0.0
  0
ENDBLK
  5
35
100
AcDbEntity
  8
0
100
AcDbBlockEnd
  0
BLOCK
  5
37
100
AcDbEntity
  8
0
100
AcDbBlockBegin
  2
_ORIGIN
 70
     0
 10
0.0
 20
0.0
  0
CIRCLE
  5
38
100
AcDbEntity
  8
0
 62
     0
370
13
100
AcDbCircle
 10
0.0
 20
0.0
 40
0.5
  0
LINE
  5
39
100
AcDbEntity
  8
0
 62
     0
370
13
100
AcDbLine
 10
0.0
 20
0.0
 11
-1.0
 21
0.0
  0
ENDBLK
  5
3A
100
AcDbEntity
  8
0
100
AcDbBlockEnd
  0
BLOCK
  5
3C
100
AcDbEntity
  8
0
100
AcDbBlockBegin
  2
_DOT
 70
     0
 10
0.0
 20
0.0
  0
POLYLINE
  5
3D
100
AcDbEntity
  8
0
 62
     0
100
AcDb2dPolyline
 66
     1
 70
     1
 40
0.5
 41
0.5
  0
VERTEX
  5
3E
100
AcDbEntity
  8
0
 62
     0
100
AcDbVertex
100
AcDb2dVertex
 10
-0.25
 20
0.0
 42
1.0
  0
VERTEX
  5
3F
100
AcDbEntity
  8
0
 62
     0
100
AcDbVertex
100
AcDb2dVertex
 10
0.25
 20
0.0
 42
1.0
  0
SEQEND
  5
40
100
AcDbEntity
  8
0
 62
     0
  0
LINE
  5
41
100
AcDbEntity
  8
0
 62
     0
370
13
100
AcDbLine
 10
-0.5
 20
0.0
 11
-1.0
 21
0.0
  0
ENDBLK
  5
42
100
AcDbEntity
  8
0
100
AcDbBlockEnd
  0
BLOCK
  5
44
100
AcDbEntity
  8
0
100
AcDbBlockBegin
  2
_OBLIQUE
 70
     0
 10
0.0
 20
0.0
  0
LINE
  5
45
100
AcDbEntity
  8
0
 62
     0
370
13
100
AcDbLine
 10
-0.353553
 20
-0.353553
 11
0.353553
 21
0.353553
  0
ENDBLK
  5
46
100
AcDbEntity
  8
0
100
AcDbBlockEnd
  0
BLOCK
  5
48
100
AcDbEntity
  8
DD0
100
AcDbBlockBegin
  2
DIMS0
 70
     0
 10
0.0
 20
0.0
  0
TEXT
  5
49
100
AcDbEntity
  8
DD0
100
AcDbText
 10
179.743536
 20
551.709351
 40
5.0
  1
中央極
 41
0.833333
  7
STANDARD
100
AcDbText
  0
LINE
  5
4A
100
AcDbEntity
  8
DD0
  6
CONTINUOUS
370
13
100
AcDbLine
 10
218.123765
 20
542.22652
 11
221.110092
 21
541.94043
  0
LINE
  5
4B
100
AcDbEntity
  8
DD0
  6
CONTINUOUS
370
13
100
AcDbLine
 10
221.110092
 20
541.94043
 11
218.666902
 21
543.681355
  0
LINE
  5
4C
100
AcDbEntity
  8
DD0
  6
CONTINUOUS
370
13
100
AcDbLine
 10
221.110092
 20
541.94043
 11
197.621872
 21
550.709351
  0
LINE
  5
4D
100
AcDbEntity
  8
DD0
  6
CONTINUOUS
370
13
100
AcDbLine
 10
197.621872
 20
550.709351
 11
176.021866
 21
550.709351
  0
ENDBLK
  5
4E
100
AcDbEntity
  8
DD0
100
AcDbBlockEnd
  0
BLOCK
  5
51
100
AcDbEntity
  8
DD0
100
AcDbBlockBegin
  2
DIMS1
 70
     0
 10
0.0
 20
0.0
  0
TEXT
  5
52
100
AcDbEntity
  8
DD0
100
AcDbText
 10
183.188452
 20
573.139587
 40
5.0
  1
左右極
 41
0.833333
  7
STANDARD
100
AcDbText
  0
LINE
  5
53
100
AcDbEntity
  8
DD0
  6
CONTINUOUS
370
13
100
AcDbLine
 10
231.411621
 20
544.817232
 11
234.110062
 21
543.506348
  0
LINE
  5
54
100
AcDbEntity
  8
DD0
  6
CONTINUOUS
370
13
100
AcDbLine
 10
234.110062
 20
543.506348
 11
232.428585
 21
545.990827
  0
LINE
  5
55
100
AcDbEntity
  8
DD0
  6
CONTINUOUS
370
13
100
AcDbLine
 10
234.110062
 20
543.506348
 11
201.066788
 21
572.139587
  0
LINE
  5
56
100
AcDbEntity
  8
DD0
  6
CONTINUOUS
370
13
100
AcDbLine
 10
201.066788
 20
572.139587
 11
179.466782
 21
572.139587
  0
ENDBLK
  5
57
100
AcDbEntity
  8
DD0
100
AcDbBlockEnd
  0
BLOCK
  5
5A
100
AcDbEntity
  8
DD0
100
AcDbBlockBegin
  2
DIMS2
 70
     0
 10
0.0
 20
0.0
  0
LINE
  5
5B
100
AcDbEntity
  8
DD0
  6
CONTINUOUS
370
13
100
AcDbLine
 10
42.555689
 20
380.003554
 11
42.874439
 21
382.986572
  0
LINE
  5
5C
100
AcDbEntity
  8
DD0
  6
CONTINUOUS
370
13
100
AcDbLine
 10
42.874439
 20
382.986572
 11
41.106884
 21
380.562578
  0
LINE
  5
5D
100
AcDbEntity
  8
DD0
  6
CONTINUOUS
370
13
100
AcDbLine
 10
42.874439
 20
382.986572
 11
31.051085
 21
352.34436
  0
LINE
  5
5E
100
AcDbEntity
  8
DD0
  6
CONTINUOUS
370
13
100
AcDbLine
 10
31.051085
 20
352.34436
 11
4.451085
 21
352.34436
  0
TEXT
  5
5F
100
AcDbEntity
  8
DD0
100
AcDbText
 10
8.172752
 20
353.34436
 40
5.0
  1
φ１１穴
 41
0.833333
  7
STANDARD
100
AcDbText
  0
ENDBLK
  5
60
100
AcDbEntity
  8
DD0
100
AcDbBlockEnd
  0
ENDSEC
  0
SECTION
  2
ENTITIES
  0
INSERT
  5
4F
100
AcDbEntity
  8
DD0
100
AcDbBlockReference
  2
DIMS0
 10
0.0
 20
0.0
  0
INSERT
  5
58
100
AcDbEntity
  8
DD0
100
AcDbBlockReference
  2
DIMS1
 10
0.0
 20
0.0
  0
INSERT
  5
61
100
AcDbEntity
  8
DD0
100
AcDbBlockReference
  2
DIMS2
 10
0.0
 20
0.0
  0
CIRCLE
  5
64
100
AcDbEntity
  8
M2
  6
CONTINUOUS
370
25
100
AcDbCircle
 10
54.864465
 20
114.21504
 40
1.75
  0
CIRCLE
  5
65
100
AcDbEntity
  8
M2
  6
CONTINUOUS
370
25
100
AcDbCircle
 10
76.864465
 20
114.21504
 40
1.75
  0
CIRCLE
  5
66
100
AcDbEntity
  8
M2
  6
CONTINUOUS
370
25
100
AcDbCircle
 10
76.864465
 20
211.214918
 40
1.75
  0
CIRCLE
  5
67
100
AcDbEntity
  8
M2
  6
CONTINUOUS
370
25
100
AcDbCircle
 10
54.864465
 20
211.214918
 40
1.75
  0
LINE
  5
68
100
AcDbEntity
  8
M2
  6
DASHDOT
370
25
100
AcDbLine
 10
48.114465
 20
211.214918
 11
61.614465
 21
211.214918
  0
LINE
  5
69
100
AcDbEntity
  8
M2
  6
DASHDOT
370
25
100
AcDbLine
 10
54.864465
 20
204.464918
 11
54.864465
 21
217.964918
  0
LINE
  5
6A
100
AcDbEntity
  8
M2
  6
DASHDOT
370
25
100
AcDbLine
 10
70.114465
 20
211.214918
 11
83.614465
 21
211.214918
  0
LINE
  5
6B
100
AcDbEntity
  8
M2
  6
DASHDOT
370
25
100
AcDbLine
 10
76.864465
 20
204.464918
 11
76.864465
 21
217.964918
  0
LINE
  5
6C
100
AcDbEntity
  8
M2
  6
DASHDOT
370
25
100
AcDbLine
 10
70.114465
 20
114.21504
 11
83.614465
 21
114.21504
  0
LINE
  5
6D
100
AcDbEntity
  8
M2
  6
DASHDOT
370
25
100
AcDbLine
 10
76.864465
 20
107.46504
 11
76.864465
 21
120.96504
  0
LINE
  5
6E
100
AcDbEntity
  8
M2
  6
DASHDOT
370
25
100
AcDbLine
 10
48.114465
 20
114.21504
 11
61.614465
 21
114.21504
  0
LINE
  5
6F
100
AcDbEntity
  8
M2
  6
DASHDOT
370
25
100
AcDbLine
 10
54.864465
 20
107.46504
 11
54.864465
 21
120.96504
  0
LINE
  5
70
100
AcDbEntity
  8
M2
  6
CONTINUOUS
370
25
 62
     7
100
AcDbLine
 10
190.860071
 20
182.71504
 11
190.860071
 21
142.71504
  0
LINE
  5
71
100
AcDbEntity
  8
M2
  6
CONTINUOUS
370
25
 62
     7
100
AcDbLine
 10
193.860071
 20
185.71504
 11
246.860071
 21
185.71504
  0
LINE
  5
72
100
AcDbEntity
  8
M2
  6
CONTINUOUS
370
25
 62
     7
100
AcDbLine
 10
193.860071
 20
139.71504
 11
246.860071
 21
139.71504
  0
LINE
  5
73
100
AcDbEntity
  8
M2
  6
CONTINUOUS
370
25
 62
     7
100
AcDbLine
 10
249.860071
 20
182.71504
 11
249.860071
 21
142.71504
  0
ARC
  5
74
100
AcDbEntity
  8
M2
  6
CONTINUOUS
370
25
 62
     7
100
AcDbCircle
 10
193.860071
 20
142.71504
 40
3.0
100
AcDbArc
 50
180.0
 51
270.0
  0
ARC
  5
75
100
AcDbEntity
  8
M2
  6
CONTINUOUS
370
25
 62
     7
100
AcDbCircle
 10
246.860071
 20
142.71504
 40
3.0
100
AcDbArc
 50
270.0
 51
360.0
  0
ARC
  5
76
100
AcDbEntity
  8
M2
  6
CONTINUOUS
370
25
 62
     7
100
AcDbCircle
 10
246.860071
 20
182.71504
 40
3.0
100
AcDbArc
 50
0.0
 51
90.0
  0
ARC
  5
77
100
AcDbEntity
  8
M2
  6
CONTINUOUS
370
25
 62
     7
100
AcDbCircle
 10
193.860071
 20
182.71504
 40
3.0
100
AcDbArc
 50
90.0
 51
180.0
  0
ARC
  5
78
100
AcDbEntity
  8
M2
  6
CONTINUOUS
370
25
 62
     4
100
AcDbCircle
 10
70.989465
 20
464.733853
 40
0.25
100
AcDbArc
 50
270.0
 51
360.0
  0
ARC
  5
79
100
AcDbEntity
  8
M2
  6
CONTINUOUS
370
25
 62
     4
100
AcDbCircle
 10
70.989465
 20
467.476162
 40
0.25
100
AcDbArc
 50
270.0
 51
360.0
  0
LINE
  5
7A
100
AcDbEntity
  8
M2
  6
CONTINUOUS
370
25
 62
     4
100
AcDbLine
 10
60.739465
 20
467.226162
 11
70.989465
 21
467.226162
  0
LINE
  5
7B
100
AcDbEntity
  8
M2
  6
CONTINUOUS
370
25
 62
     4
100
AcDbLine
 10
71.239465
 20
470.497363
 11
71.739511
 21
470.497363
  0
ARC
  5
7C
100
AcDbEntity
  8
M2
  6
CONTINUOUS
370
25
 62
     4
100
AcDbCircle
 10
60.739465
 20
470.902675
 40
0.25
100
AcDbArc
 50
90.0
 51
180.0
  0
ARC
  5
7D
100
AcDbEntity
  8
M2
  6
CONTINUOUS
370
25
 62
     4
100
AcDbCircle
 10
60.739465
 20
467.476162
 40
0.25
100
AcDbArc
 50
180.0
 51
270.0
  0
ARC
  5
7E
100
AcDbEntity
  8
M2
  6
CONTINUOUS
370
25
 62
     4
100
AcDbCircle
 10
70.989465
 20
470.902675
 40
0.25
100
AcDbArc
 50
0.0
 51
90.0
  0
ARC
  5
7F
100
AcDbEntity
  8
M2
  6
CONTINUOUS
370
25
 62
     4
100
AcDbCircle
 10
60.739465
 20
464.733853
 40
0.25
100
AcDbArc
 50
180.0
 51
270.0
  0
LINE
  5
80
100
AcDbEntity
  8
M2
  6
CONTINUOUS
370
25
 62
     4
100
AcDbLine
 10
60.489465
 20
470.497363
 11
59.989419
 21
470.497363
  0
LINE
  5
81
100
AcDbEntity
  8
M2
  6
CONTINUOUS
370
25
 62
     4
100
AcDbLine
 10
71.739511
 20
449.038013
 11
59.989419
 21
449.038013
  0
LINE
  5
82
100
AcDbEntity
  8
M2
  6
CONTINUOUS
370
25
 62
     4
100
AcDbLine
 10
59.989419
 20
449.038013
 11
59.989419
 21
470.497363
  0
LINE
  5
83
100
AcDbEntity
  8
M2
  6
CONTINUOUS
370
25
 62
     4
100
AcDbLine
 10
71.239465
 20
470.902675
 11
71.239465
 21
464.733853
  0
LINE
  5
84
100
AcDbEntity
  8
M2
  6
CONTINUOUS
370
25
 62
     4
100
AcDbLine
 10
71.739511
 20
449.038013
 11
71.739511
 21
470.497363
  0
LINE
  5
85
100
AcDbEntity
  8
M2
  6
CONTINUOUS
370
25
 62
     4
100
AcDbLine
 10
60.739465
 20
464.483853
 11
70.989465
 21
464.483853
  0
LINE
  5
86
100
AcDbEntity
  8
M2
  6
CONTINUOUS
370
25
 62
     4
100
AcDbLine
 10
60.489465
 20
469.552211
 11
59.989419
 21
469.552211
  0
LINE
  5
87
100
AcDbEntity
  8
M2
  6
CONTINUOUS
370
25
 62
     4
100
AcDbLine
 10
60.739465
 20
471.152675
 11
70.989465
 21
471.152675
  0
LINE
  5
88
100
AcDbEntity
  8
M2
  6
CONTINUOUS
370
25
 62
     4
100
AcDbLine
 10
71.239465
 20
469.552211
 11
71.739511
 21
469.552211
  0
LINE
  5
89
100
AcDbEntity
  8
M2
  6
CONTINUOUS
370
25
 62
     4
100
AcDbLine
 10
60.489465
 20
470.902675
 11
60.489465
 21
464.733853
  0
LINE
  5
8A
100
AcDbEntity
  8
M2
  6
CONTINUOUS
370
25
 62
     4
100
AcDbLine
 10
94.864465
 20
440.802211
 11
94.864465
 21
480.802211
  0
LINE
  5
8B
100
AcDbEntity
  8
M2
  6
CONTINUOUS
370
25
 62
     4
100
AcDbLine
 10
92.364465
 20
483.302211
 11
39.364465
 21
483.302211
  0
LINE
  5
8C
100
AcDbEntity
  8
M2
  6
CONTINUOUS
370
25
 62
     4
100
AcDbLine
 10
36.864465
 20
480.802211
 11
36.864465
 21
440.802211
  0
LINE
  5
8D
100
AcDbEntity
  8
M2
  6
CONTINUOUS
370
25
 62
     4
100
AcDbLine
 10
39.364465
 20
438.302211
 11
92.364465
 21
438.302211
  0
ARC
  5
8E
100
AcDbEntity
  8
M2
  6
CONTINUOUS
370
25
 62
     4
100
AcDbCircle
 10
92.364465
 20
480.802211
 40
2.5
100
AcDbArc
 50
0.0
 51
90.0
  0
ARC
  5
8F
100
AcDbEntity
  8
M2
  6
CONTINUOUS
370
25
 62
     4
100
AcDbCircle
 10
39.364465
 20
480.802211
 40
2.5
100
AcDbArc
 50
90.0
 51
180.0
  0
ARC
  5
90
100
AcDbEntity
  8
M2
  6
CONTINUOUS
370
25
 62
     4
100
AcDbCircle
 10
39.364465
 20
440.802211
 40
2.5
100
AcDbArc
 50
180.0
 51
270.0
  0
ARC
  5
91
100
AcDbEntity
  8
M2
  6
CONTINUOUS
370
25
 62
     4
100
AcDbCircle
 10
92.364465
 20
440.802211
 40
2.5
100
AcDbArc
 50
270.0
 51
360.0
  0
LINE
  5
92
100
AcDbEntity
  8
M2
  6
CONTINUOUS
370
25
 62
     4
100
AcDbLine
 10
30.864465
 20
415.552211
 11
100.864466
 21
415.552211
  0
LINE
  5
93
100
AcDbEntity
  8
M2
  6
CONTINUOUS
370
25
 62
     4
100
AcDbLine
 10
30.864465
 20
506.052211
 11
100.864466
 21
506.052211
  0
LINE
  5
94
100
AcDbEntity
  8
M2
  6
CONTINUOUS
370
25
 62
     4
100
AcDbLine
 10
37.614391
 20
377.552187
 11
50.114391
 21
377.552187
  0
CIRCLE
  5
95
100
AcDbEntity
  8
M2
  6
CONTINUOUS
370
25
 62
     4
100
AcDbCircle
 10
43.864391
 20
385.552187
 40
2.75
  0
LINE
  5
96
100
AcDbEntity
  8
M2
  6
CONTINUOUS
370
25
 62
     4
100
AcDbLine
 10
50.114391
 20
377.552187
 11
50.114391
 21
396.552211
  0
LINE
  5
97
100
AcDbEntity
  8
M2
  6
CONTINUOUS
370
25
 62
     4
100
AcDbLine
 10
37.614391
 20
396.552211
 11
37.614391
 21
377.552187
  0
LINE
  5
98
100
AcDbEntity
  8
M2
  6
CONTINUOUS
370
25
 62
     4
100
AcDbLine
 10
59.614465
 20
377.552211
 11
72.114465
 21
377.552211
  0
CIRCLE
  5
99
100
AcDbEntity
  8
M2
  6
CONTINUOUS
370
25
 62
     4
100
AcDbCircle
 10
65.864465
 20
385.552211
 40
2.75
  0
LINE
  5
9A
100
AcDbEntity
  8
M2
  6
CONTINUOUS
370
25
 62
     4
100
AcDbLine
 10
72.114465
 20
377.552211
 11
72.114465
 21
396.552211
  0
LINE
  5
9B
100
AcDbEntity
  8
M2
  6
CONTINUOUS
370
25
 62
     4
100
AcDbLine
 10
59.614465
 20
396.552211
 11
59.614465
 21
377.552211
  0
LINE
  5
9C
100
AcDbEntity
  8
M2
  6
CONTINUOUS
370
25
 62
     4
100
AcDbLine
 10
81.614391
 20
396.552211
 11
81.614391
 21
377.552187
  0
LINE
  5
9D
100
AcDbEntity
  8
M2
  6
CONTINUOUS
370
25
 62
     4
100
AcDbLine
 10
81.614391
 20
377.552187
 11
94.114391
 21
377.552187
  0
CIRCLE
  5
9E
100
AcDbEntity
  8
M2
  6
CONTINUOUS
370
25
 62
     4
100
AcDbCircle
 10
87.864391
 20
385.552187
 40
2.75
  0
LINE
  5
9F
100
AcDbEntity
  8
M2
  6
CONTINUOUS
370
25
 62
     4
100
AcDbLine
 10
94.114391
 20
377.552187
 11
94.114391
 21
396.552211
  0
LINE
  5
A0
100
AcDbEntity
  8
M2
  6
CONTINUOUS
370
25
 62
     4
100
AcDbLine
 10
72.114465
 20
396.552211
 11
59.614465
 21
396.552211
  0
LINE
  5
A1
100
AcDbEntity
  8
M2
  6
CONTINUOUS
370
25
 62
     4
100
AcDbLine
 10
37.614391
 20
544.052236
 11
50.114391
 21
544.052236
  0
CIRCLE
  5
A2
100
AcDbEntity
  8
M2
  6
CONTINUOUS
370
25
 62
     4
100
AcDbCircle
 10
43.864391
 20
536.052236
 40
2.75
  0
LINE
  5
A3
100
AcDbEntity
  8
M2
  6
CONTINUOUS
370
25
 62
     4
100
AcDbLine
 10
50.114391
 20
544.052236
 11
50.114391
 21
525.052211
  0
LINE
  5
A4
100
AcDbEntity
  8
M2
  6
CONTINUOUS
370
25
 62
     4
100
AcDbLine
 10
37.614391
 20
525.052211
 11
37.614391
 21
544.052236
  0
LINE
  5
A5
100
AcDbEntity
  8
M2
  6
CONTINUOUS
370
25
 62
     4
100
AcDbLine
 10
59.614465
 20
544.052211
 11
72.114465
 21
544.052211
  0
CIRCLE
  5
A6
100
AcDbEntity
  8
M2
  6
CONTINUOUS
370
25
 62
     4
100
AcDbCircle
 10
65.864465
 20
536.052211
 40
2.75
  0
LINE
  5
A7
100
AcDbEntity
  8
M2
  6
CONTINUOUS
370
25
 62
     4
100
AcDbLine
 10
72.114465
 20
544.052211
 11
72.114465
 21
525.052211
  0
LINE
  5
A8
100
AcDbEntity
  8
M2
  6
CONTINUOUS
370
25
 62
     4
100
AcDbLine
 10
59.614465
 20
525.052211
 11
59.614465
 21
544.052211
  0
LINE
  5
A9
100
AcDbEntity
  8
M2
  6
CONTINUOUS
370
25
 62
     4
100
AcDbLine
 10
81.614391
 20
525.052211
 11
81.614391
 21
544.052236
  0
LINE
  5
AA
100
AcDbEntity
  8
M2
  6
CONTINUOUS
370
25
 62
     4
100
AcDbLine
 10
81.614391
 20
544.052236
 11
94.114391
 21
544.052236
  0
CIRCLE
  5
AB
100
AcDbEntity
  8
M2
  6
CONTINUOUS
370
25
 62
     4
100
AcDbCircle
 10
87.864391
 20
536.052236
 40
2.75
  0
LINE
  5
AC
100
AcDbEntity
  8
M2
  6
CONTINUOUS
370
25
 62
     4
100
AcDbLine
 10
94.114391
 20
544.052236
 11
94.114391
 21
525.052211
  0
LINE
  5
AD
100
AcDbEntity
  8
M2
  6
CONTINUOUS
370
25
 62
     4
100
AcDbLine
 10
72.114465
 20
525.052211
 11
59.614465
 21
525.052211
  0
LINE
  5
AE
100
AcDbEntity
  8
M2
  6
CONTINUOUS
370
25
 62
     4
100
AcDbLine
 10
100.864466
 20
396.552211
 11
100.864466
 21
525.052211
  0
LINE
  5
AF
100
AcDbEntity
  8
M2
  6
CONTINUOUS
370
25
 62
     4
100
AcDbLine
 10
100.864466
 20
525.052211
 11
94.114391
 21
525.052211
  0
LINE
  5
B0
100
AcDbEntity
  8
M2
  6
CONTINUOUS
370
25
 62
     4
100
AcDbLine
 10
30.864465
 20
525.052211
 11
30.864465
 21
396.552211
  0
LINE
  5
B1
100
AcDbEntity
  8
M2
  6
DASHDOT
370
25
 62
     4
100
AcDbLine
 10
18.364465
 20
460.802211
 11
113.364466
 21
460.802211
  0
LINE
  5
B2
100
AcDbEntity
  8
M2
  6
DASHDOT
370
25
 62
     4
100
AcDbLine
 10
65.864465
 20
370.150135
 11
65.864465
 21
552.439252
  0
LINE
  5
B3
100
AcDbEntity
  8
M2
  6
CONTINUOUS
370
25
 62
     4
100
AcDbLine
 10
30.864465
 20
396.552211
 11
37.614391
 21
396.552211
  0
LINE
  5
B4
100
AcDbEntity
  8
M2
  6
CONTINUOUS
370
25
 62
     4
100
AcDbLine
 10
37.614391
 20
525.052211
 11
30.864465
 21
525.052211
  0
LINE
  5
B5
100
AcDbEntity
  8
M2
  6
CONTINUOUS
370
25
 62
     4
100
AcDbLine
 10
81.614391
 20
525.052211
 11
50.114391
 21
525.052211
  0
LINE
  5
B6
100
AcDbEntity
  8
M2
  6
CONTINUOUS
370
25
 62
     4
100
AcDbLine
 10
94.114391
 20
396.552211
 11
100.864466
 21
396.552211
  0
LINE
  5
B7
100
AcDbEntity
  8
M2
  6
CONTINUOUS
370
25
 62
     4
100
AcDbLine
 10
50.114391
 20
396.552211
 11
81.614391
 21
396.552211
  0
LINE
  5
B8
100
AcDbEntity
  8
M2
  6
CONTINUOUS
370
25
 62
     4
100
AcDbLine
 10
36.614465
 20
525.052089
 11
36.614343
 21
517.052089
  0
LINE
  5
B9
100
AcDbEntity
  8
M2
  6
CONTINUOUS
370
25
 62
     4
100
AcDbLine
 10
51.114343
 20
517.052089
 11
51.114465
 21
525.052089
  0
LINE
  5
BA
100
AcDbEntity
  8
M2
  6
CONTINUOUS
370
25
 62
     4
100
AcDbLine
 10
58.614465
 20
525.052089
 11
58.614343
 21
517.052089
  0
LINE
  5
BB
100
AcDbEntity
  8
M2
  6
CONTINUOUS
370
25
 62
     4
100
AcDbLine
 10
73.114343
 20
517.052089
 11
73.114465
 21
525.052089
  0
LINE
  5
BC
100
AcDbEntity
  8
M2
  6
CONTINUOUS
370
25
 62
     4
100
AcDbLine
 10
80.614465
 20
525.052089
 11
80.614343
 21
517.052089
  0
LINE
  5
BD
100
AcDbEntity
  8
M2
  6
CONTINUOUS
370
25
 62
     4
100
AcDbLine
 10
95.114343
 20
517.052089
 11
95.114465
 21
525.052089
  0
ARC
  5
BE
100
AcDbEntity
  8
M2
  6
CONTINUOUS
370
25
 62
     4
100
AcDbCircle
 10
87.864465
 20
517.052211
 40
7.25
100
AcDbArc
 50
180.0
 51
360.0
  0
ARC
  5
BF
100
AcDbEntity
  8
M2
  6
CONTINUOUS
370
25
 62
     4
100
AcDbCircle
 10
65.864465
 20
517.052211
 40
7.25
100
AcDbArc
 50
180.0
 51
360.0
  0
ARC
  5
C0
100
AcDbEntity
  8
M2
  6
CONTINUOUS
370
25
 62
     4
100
AcDbCircle
 10
43.864465
 20
517.052211
 40
7.25
100
AcDbArc
 50
180.0
 51
360.0
  0
LINE
  5
C1
100
AcDbEntity
  8
M2
  6
CONTINUOUS
370
25
 62
     4
100
AcDbLine
 10
36.614465
 20
396.552333
 11
36.614343
 21
404.552333
  0
LINE
  5
C2
100
AcDbEntity
  8
M2
  6
CONTINUOUS
370
25
 62
     4
100
AcDbLine
 10
51.114343
 20
404.552333
 11
51.114465
 21
396.552333
  0
LINE
  5
C3
100
AcDbEntity
  8
M2
  6
CONTINUOUS
370
25
 62
     4
100
AcDbLine
 10
58.614465
 20
396.552333
 11
58.614343
 21
404.552333
  0
LINE
  5
C4
100
AcDbEntity
  8
M2
  6
CONTINUOUS
370
25
 62
     4
100
AcDbLine
 10
73.114343
 20
404.552333
 11
73.114465
 21
396.552333
  0
LINE
  5
C5
100
AcDbEntity
  8
M2
  6
CONTINUOUS
370
25
 62
     4
100
AcDbLine
 10
80.614465
 20
396.552333
 11
80.614343
 21
404.552333
  0
LINE
  5
C6
100
AcDbEntity
  8
M2
  6
CONTINUOUS
370
25
 62
     4
100
AcDbLine
 10
95.114343
 20
404.552333
 11
95.114465
 21
396.552333
  0
ARC
  5
C7
100
AcDbEntity
  8
M2
  6
CONTINUOUS
370
25
 62
     4
100
AcDbCircle
 10
87.864465
 20
404.552211
 40
7.25
100
AcDbArc
 50
0.0
 51
180.0
  0
ARC
  5
C8
100
AcDbEntity
  8
M2
  6
CONTINUOUS
370
25
 62
     4
100
AcDbCircle
 10
65.864465
 20
404.552211
 40
7.25
100
AcDbArc
 50
0.0
 51
180.0
  0
ARC
  5
C9
100
AcDbEntity
  8
M2
  6
CONTINUOUS
370
25
 62
     4
100
AcDbCircle
 10
43.864465
 20
404.552211
 40
7.25
100
AcDbArc
 50
0.0
 51
180.0
  0
CIRCLE
  5
CA
100
AcDbEntity
  8
M2
  6
CONTINUOUS
370
25
100
AcDbCircle
 10
54.864465
 20
509.302211
 40
1.75
  0
LINE
  5
CB
100
AcDbEntity
  8
M2
  6
DASHDOT
370
25
100
AcDbLine
 10
54.864465
 20
502.552212
 11
54.864465
 21
516.052211
  0
LINE
  5
CC
100
AcDbEntity
  8
M2
  6
DASHDOT
370
25
100
AcDbLine
 10
48.114465
 20
509.302211
 11
61.614465
 21
509.302211
  0
LINE
  5
CD
100
AcDbEntity
  8
M2
  6
DASHDOT
370
25
100
AcDbLine
 10
76.864465
 20
502.552212
 11
76.864465
 21
516.052211
  0
CIRCLE
  5
CE
100
AcDbEntity
  8
M2
  6
CONTINUOUS
370
25
100
AcDbCircle
 10
76.864465
 20
509.302211
 40
1.75
  0
LINE
  5
CF
100
AcDbEntity
  8
M2
  6
DASHDOT
370
25
100
AcDbLine
 10
83.614465
 20
509.302211
 11
70.114465
 21
509.302211
  0
CIRCLE
  5
D0
100
AcDbEntity
  8
M2
  6
CONTINUOUS
370
25
100
AcDbCircle
 10
54.864465
 20
412.302211
 40
1.75
  0
LINE
  5
D1
100
AcDbEntity
  8
M2
  6
DASHDOT
370
25
100
AcDbLine
 10
54.864465
 20
419.052211
 11
54.864465
 21
405.552212
  0
LINE
  5
D2
100
AcDbEntity
  8
M2
  6
DASHDOT
370
25
100
AcDbLine
 10
48.114465
 20
412.302211
 11
61.614465
 21
412.302211
  0
LINE
  5
D3
100
AcDbEntity
  8
M2
  6
DASHDOT
370
25
100
AcDbLine
 10
76.864465
 20
419.052211
 11
76.864465
 21
405.552212
  0
CIRCLE
  5
D4
100
AcDbEntity
  8
M2
  6
CONTINUOUS
370
25
100
AcDbCircle
 10
76.864465
 20
412.302211
 40
1.75
  0
LINE
  5
D5
100
AcDbEntity
  8
M2
  6
DASHDOT
370
25
100
AcDbLine
 10
83.614465
 20
412.302211
 11
70.114465
 21
412.302211
  0
LINE
  5
D6
100
AcDbEntity
  8
M2
  6
DASHDOT
370
25
 62
     2
100
AcDbLine
 10
87.864391
 20
528.302236
 11
87.864391
 21
543.802236
  0
LINE
  5
D7
100
AcDbEntity
  8
M2
  6
DASHDOT
370
25
 62
     2
100
AcDbLine
 10
80.114392
 20
536.052236
 11
95.614391
 21
536.052236
  0
LINE
  5
D8
100
AcDbEntity
  8
M2
  6
DASHDOT
370
25
 62
     2
100
AcDbLine
 10
58.114465
 20
536.052211
 11
73.614465
 21
536.052211
  0
LINE
  5
D9
100
AcDbEntity
  8
M2
  6
DASHDOT
370
25
 62
     2
100
AcDbLine
 10
65.864465
 20
528.302212
 11
65.864465
 21
543.802211
  0
LINE
  5
DA
100
AcDbEntity
  8
M2
  6
DASHDOT
370
25
 62
     2
100
AcDbLine
 10
36.114392
 20
536.052236
 11
51.614391
 21
536.052236
  0
LINE
  5
DB
100
AcDbEntity
  8
M2
  6
DASHDOT
370
25
 62
     2
100
AcDbLine
 10
43.864391
 20
528.302236
 11
43.864391
 21
543.802236
  0
LINE
  5
DC
100
AcDbEntity
  8
M2
  6
DASHDOT
370
25
 62
     2
100
AcDbLine
 10
43.864391
 20
377.802187
 11
43.864391
 21
393.302187
  0
LINE
  5
DD
100
AcDbEntity
  8
M2
  6
DASHDOT
370
25
 62
     2
100
AcDbLine
 10
36.114392
 20
385.552187
 11
51.614391
 21
385.552187
  0
LINE
  5
DE
100
AcDbEntity
  8
M2
  6
DASHDOT
370
25
 62
     2
100
AcDbLine
 10
65.864465
 20
377.802212
 11
65.864465
 21
393.302211
  0
LINE
  5
DF
100
AcDbEntity
  8
M2
  6
DASHDOT
370
25
 62
     2
100
AcDbLine
 10
58.114465
 20
385.552211
 11
73.614465
 21
385.552211
  0
LINE
  5
E0
100
AcDbEntity
  8
M2
  6
DASHDOT
370
25
 62
     2
100
AcDbLine
 10
80.114392
 20
385.552187
 11
95.614391
 21
385.552187
  0
LINE
  5
E1
100
AcDbEntity
  8
M2
  6
DASHDOT
370
25
 62
     2
100
AcDbLine
 10
87.864391
 20
377.802187
 11
87.864391
 21
393.302187
  0
LINE
  5
E2
100
AcDbEntity
  8
M2
  6
DASHED
370
25
 62
     2
100
AcDbLine
 10
221.110071
 20
540.737989
 11
221.110071
 21
531.737989
  0
LINE
  5
E3
100
AcDbEntity
  8
M2
  6
DASHDOT
370
25
 62
     2
100
AcDbLine
 10
215.564756
 20
536.237989
 11
225.110071
 21
536.237989
  0
LINE
  5
E4
100
AcDbEntity
  8
M2
  6
DASHED
370
25
 62
     2
100
AcDbLine
 10
234.110071
 20
540.737989
 11
234.110071
 21
531.737989
  0
LINE
  5
E5
100
AcDbEntity
  8
M2
  6
DASHDOT
370
25
 62
     2
100
AcDbLine
 10
228.948008
 20
536.237989
 11
238.110071
 21
536.237989
  0
LINE
  5
E6
100
AcDbEntity
  8
M2
  6
DASHED
370
25
 62
     2
100
AcDbLine
 10
221.110071
 20
381.237989
 11
221.110071
 21
390.237989
  0
LINE
  5
E7
100
AcDbEntity
  8
M2
  6
DASHDOT
370
25
 62
     2
100
AcDbLine
 10
215.564756
 20
385.737989
 11
225.110071
 21
385.737989
  0
LINE
  5
E8
100
AcDbEntity
  8
M2
  6
DASHED
370
25
 62
     2
100
AcDbLine
 10
234.110071
 20
381.237989
 11
234.110071
 21
390.237989
  0
LINE
  5
E9
100
AcDbEntity
  8
M2
  6
DASHDOT
370
25
 62
     2
100
AcDbLine
 10
228.948008
 20
385.737989
 11
238.110071
 21
385.737989
  0
LINE
  5
EA
100
AcDbEntity
  8
M2
  6
DASHED
370
25
100
AcDbLine
 10
240.110071
 20
512.612744
 11
240.110071
 21
506.362744
  0
LINE
  5
EB
100
AcDbEntity
  8
M2
  6
DASHDOT
370
25
100
AcDbLine
 10
232.801919
 20
509.487744
 11
255.110071
 21
509.487744
  0
LINE
  5
EC
100
AcDbEntity
  8
M2
  6
DASHED
370
25
100
AcDbLine
 10
240.110071
 20
409.363233
 11
240.110071
 21
415.613233
  0
LINE
  5
ED
100
AcDbEntity
  8
M2
  6
DASHDOT
370
25
100
AcDbLine
 10
232.801919
 20
412.488233
 11
255.110071
 21
412.488233
  0
LINE
  5
EE
100
AcDbEntity
  8
M2
  6
DASHDOT
370
25
 62
     4
100
AcDbLine
 10
65.864465
 20
89.124541
 11
65.864465
 21
236.964918
  0
LINE
  5
EF
100
AcDbEntity
  8
M2
  6
DASHDOT
370
25
 62
     4
100
AcDbLine
 10
21.567777
 20
162.71504
 11
106.783144
 21
162.71504
  0
LINE
  5
F0
100
AcDbEntity
  8
M2
  6
DASHDOT
370
25
 62
     4
100
AcDbLine
 10
30.864587
 20
226.964918
 11
100.864466
 21
226.964918
  0
LINE
  5
F1
100
AcDbEntity
  8
M2
  6
DASHDOT
370
25
 62
     4
100
AcDbLine
 10
30.864465
 20
226.964918
 11
30.864465
 21
98.465039
  0
LINE
  5
F2
100
AcDbEntity
  8
M2
  6
DASHDOT
370
25
 62
     4
100
AcDbLine
 10
100.864466
 20
98.465039
 11
100.864466
 21
226.964918
  0
LINE
  5
F3
100
AcDbEntity
  8
M2
  6
DASHDOT
370
25
 62
     4
100
AcDbLine
 10
30.864465
 20
98.465039
 11
100.864466
 21
98.465039
  0
LINE
  5
F4
100
AcDbEntity
  8
M2
  6
DASHDOT
370
25
 62
     4
100
AcDbLine
 10
220.360071
 20
90.874541
 11
220.360071
 21
236.964918
  0
LINE
  5
F5
100
AcDbEntity
  8
M2
  6
DASHDOT
370
25
 62
     4
100
AcDbLine
 10
175.813383
 20
162.71504
 11
261.028749
 21
162.71504
  0
LINE
  5
F6
100
AcDbEntity
  8
M2
  6
DASHDOT
370
25
 62
     4
100
AcDbLine
 10
255.110071
 20
98.465039
 11
255.110071
 21
226.964918
  0
LINE
  5
F7
100
AcDbEntity
  8
M2
  6
DASHDOT
370
25
 62
     4
100
AcDbLine
 10
185.110193
 20
226.964918
 11
255.110071
 21
226.964918
  0
LINE
  5
F8
100
AcDbEntity
  8
M2
  6
DASHDOT
370
25
 62
     4
100
AcDbLine
 10
185.110071
 20
226.964918
 11
185.110071
 21
98.465039
  0
LINE
  5
F9
100
AcDbEntity
  8
M2
  6
DASHDOT
370
25
 62
     4
100
AcDbLine
 10
185.110071
 20
98.465039
 11
255.110071
 21
98.465039
  0
LINE
  5
FA
100
AcDbEntity
  8
M2
  6
CONTINUOUS
370
25
 62
     4
100
AcDbLine
 10
225.110071
 20
544.237989
 11
225.110071
 21
530.987989
  0
LINE
  5
FB
100
AcDbEntity
  8
M2
  6
CONTINUOUS
370
25
 62
     4
100
AcDbLine
 10
226.860071
 20
529.237989
 11
232.360071
 21
529.237989
  0
LINE
  5
FC
100
AcDbEntity
  8
M2
  6
CONTINUOUS
370
25
 62
     4
100
AcDbLine
 10
238.110071
 20
544.237989
 11
238.110071
 21
525.237989
  0
LINE
  5
FD
100
AcDbEntity
  8
M2
  6
CONTINUOUS
370
25
 62
     4
100
AcDbLine
 10
221.110071
 20
377.737989
 11
225.110071
 21
377.737989
  0
LINE
  5
FE
100
AcDbEntity
  8
M2
  6
CONTINUOUS
370
25
 62
     4
100
AcDbLine
 10
234.110071
 20
377.737989
 11
234.110071
 21
393.01077
  0
LINE
  5
FF
100
AcDbEntity
  8
M2
  6
CONTINUOUS
370
25
 62
     4
100
AcDbLine
 10
221.110071
 20
544.237989
 11
221.110071
 21
530.987867
  0
LINE
  5
100
100
AcDbEntity
  8
M2
  6
DASHDOT
370
25
 62
     4
100
AcDbLine
 10
177.447397
 20
460.987989
 11
262.486414
 21
460.987989
  0
LINE
  5
101
100
AcDbEntity
  8
M2
  6
CONTINUOUS
370
25
 62
     4
100
AcDbLine
 10
206.610071
 20
438.487989
 11
206.610071
 21
525.237867
  0
LINE
  5
102
100
AcDbEntity
  8
M2
  6
CONTINUOUS
370
25
 62
     4
100
AcDbLine
 10
255.109949
 20
396.737989
 11
255.109949
 21
419.487989
  0
LINE
  5
103
100
AcDbEntity
  8
M2
  6
CONTINUOUS
370
25
 62
     4
100
AcDbLine
 10
234.110071
 20
544.237989
 11
234.110071
 21
528.965207
  0
LINE
  5
104
100
AcDbEntity
  8
M2
  6
CONTINUOUS
370
25
 62
     4
100
AcDbLine
 10
234.110071
 20
544.237989
 11
238.110071
 21
544.237989
  0
LINE
  5
105
100
AcDbEntity
  8
M2
  6
CONTINUOUS
370
25
 62
     4
100
AcDbLine
 10
253.109949
 20
396.737989
 11
255.109949
 21
396.737989
  0
ARC
  5
106
100
AcDbEntity
  8
M2
  6
CONTINUOUS
370
25
 62
     4
100
AcDbCircle
 10
226.860071
 20
530.987867
 40
5.749988
100
AcDbArc
 50
180.0
 51
269.999924
  0
ARC
  5
107
100
AcDbEntity
  8
M2
  6
CONTINUOUS
370
25
 62
     4
100
AcDbCircle
 10
226.860071
 20
390.987989
 40
1.75
100
AcDbArc
 50
90.0
 51
179.99975
  0
LINE
  5
108
100
AcDbEntity
  8
M2
  6
CONTINUOUS
370
25
 62
     4
100
AcDbLine
 10
201.610071
 20
483.487989
 11
201.610071
 21
438.487989
  0
ARC
  5
109
100
AcDbEntity
  8
M2
  6
CONTINUOUS
370
25
 62
     4
100
AcDbCircle
 10
232.360071
 20
523.487989
 40
5.75
100
AcDbArc
 50
17.718953
 51
90.0
  0
ARC
  5
10A
100
AcDbEntity
  8
M2
  6
CONTINUOUS
370
25
 62
     4
100
AcDbCircle
 10
232.360071
 20
398.487989
 40
5.75
100
AcDbArc
 50
269.999924
 51
342.281047
  0
ARC
  5
10B
100
AcDbEntity
  8
M2
  6
CONTINUOUS
370
25
 62
     4
100
AcDbCircle
 10
226.860071
 20
530.987989
 40
1.75
100
AcDbArc
 50
180.0
 51
269.99975
  0
LINE
  5
10C
100
AcDbEntity
  8
M2
  6
CONTINUOUS
370
25
 62
     4
100
AcDbLine
 10
221.110071
 20
377.737989
 11
221.110071
 21
390.988111
  0
LINE
  5
10D
100
AcDbEntity
  8
M2
  6
CONTINUOUS
370
25
 62
     4
100
AcDbLine
 10
225.110071
 20
377.737989
 11
225.110071
 21
390.987989
  0
LINE
  5
10E
100
AcDbEntity
  8
M2
  6
CONTINUOUS
370
25
 62
     4
100
AcDbLine
 10
221.110071
 20
544.237989
 11
225.110071
 21
544.237989
  0
LINE
  5
10F
100
AcDbEntity
  8
M2
  6
CONTINUOUS
370
25
 62
     4
100
AcDbLine
 10
234.110071
 20
377.737989
 11
238.110071
 21
377.737989
  0
ARC
  5
110
100
AcDbEntity
  8
M2
  6
CONTINUOUS
370
25
 62
     4
100
AcDbCircle
 10
226.860071
 20
390.988111
 40
5.749988
100
AcDbArc
 50
90.0
 51
179.999924
  0
LINE
  5
111
100
AcDbEntity
  8
M2
  6
CONTINUOUS
370
25
 62
     4
100
AcDbLine
 10
238.110071
 20
377.737989
 11
238.110071
 21
396.737989
  0
LINE
  5
112
100
AcDbEntity
  8
M2
  6
CONTINUOUS
370
25
 62
     4
100
AcDbLine
 10
226.860071
 20
392.737989
 11
234.110071
 21
392.737989
  0
LINE
  5
113
100
AcDbEntity
  8
M2
  6
CONTINUOUS
370
25
 62
     4
100
AcDbLine
 10
255.110071
 20
396.737989
 11
255.110071
 21
525.237989
  0
LINE
  5
114
100
AcDbEntity
  8
M2
  6
CONTINUOUS
370
25
 62
     4
100
AcDbLine
 10
255.110071
 20
525.237989
 11
206.610071
 21
525.237989
  0
ARC
  5
115
100
AcDbEntity
  8
M2
  6
CONTINUOUS
370
25
 62
     4
100
AcDbCircle
 10
232.609827
 20
460.987999
 40
43.99974
100
AcDbArc
 50
163.894398
 51
180.241931
  0
LINE
  5
116
100
AcDbEntity
  8
M2
  6
CONTINUOUS
370
25
 62
     4
100
AcDbLine
 10
203.610071
 20
506.237989
 11
203.610071
 21
415.737989
  0
LINE
  5
117
100
AcDbEntity
  8
M2
  6
CONTINUOUS
370
25
 62
     4
100
AcDbLine
 10
206.610071
 20
396.737989
 11
206.610071
 21
415.737989
  0
LINE
  5
118
100
AcDbEntity
  8
M2
  6
CONTINUOUS
370
25
 62
     4
100
AcDbLine
 10
206.610071
 20
396.737989
 11
225.610071
 21
396.737989
  0
LINE
  5
119
100
AcDbEntity
  8
M2
  6
CONTINUOUS
370
25
 62
     4
100
AcDbLine
 10
189.403145
 20
469.304514
 11
200.301595
 21
466.083755
  0
LINE
  5
11A
100
AcDbEntity
  8
M2
  6
CONTINUOUS
370
25
 62
     4
100
AcDbLine
 10
190.336996
 20
473.193996
 11
200.529255
 21
471.298026
  0
LINE
  5
11B
100
AcDbEntity
  8
M2
  6
CONTINUOUS
370
25
 62
     4
100
AcDbLine
 10
190.327198
 20
473.196256
 11
189.393347
 21
469.306775
  0
LINE
  5
11C
100
AcDbEntity
  8
M2
  6
CONTINUOUS
370
25
 62
     4
100
AcDbLine
 10
204.013147
 20
453.413892
 11
204.013269
 21
453.414015
  0
LINE
  5
11D
100
AcDbEntity
  8
M2
  6
CONTINUOUS
370
25
 62
     4
100
AcDbLine
 10
200.110071
 20
483.487989
 11
200.110071
 21
438.487989
  0
LINE
  5
11E
100
AcDbEntity
  8
M2
  6
CONTINUOUS
370
25
 62
     4
100
AcDbLine
 10
203.105554
 20
458.838575
 11
203.105554
 21
458.838453
  0
LINE
  5
11F
100
AcDbEntity
  8
M2
  6
CONTINUOUS
370
25
 62
     4
100
AcDbLine
 10
202.860071
 20
438.487989
 11
203.610071
 21
438.487989
  0
LINE
  5
120
100
AcDbEntity
  8
M2
  6
CONTINUOUS
370
25
 62
     4
100
AcDbLine
 10
238.109949
 20
396.737867
 11
234.109949
 21
396.737867
  0
LINE
  5
121
100
AcDbEntity
  8
M2
  6
CONTINUOUS
370
25
 62
     4
100
AcDbLine
 10
255.109949
 20
525.237989
 11
255.109949
 21
502.487989
  0
LINE
  5
122
100
AcDbEntity
  8
M2
  6
CONTINUOUS
370
25
 62
     4
100
AcDbLine
 10
253.109949
 20
525.237989
 11
255.109949
 21
525.237989
  0
LINE
  5
123
100
AcDbEntity
  8
M2
  6
CONTINUOUS
370
25
 62
     4
100
AcDbLine
 10
202.860071
 20
483.487989
 11
203.610071
 21
483.487989
  0
LINE
  5
124
100
AcDbEntity
  8
M2
  6
CONTINUOUS
370
25
 62
     4
100
AcDbLine
 10
200.110071
 20
483.487989
 11
203.610071
 21
483.487989
  0
LINE
  5
125
100
AcDbEntity
  8
M2
  6
CONTINUOUS
370
25
 62
     4
100
AcDbLine
 10
200.110071
 20
438.487989
 11
206.610071
 21
438.487989
  0
LINE
  5
126
100
AcDbEntity
  8
M2
  6
CONTINUOUS
370
25
 62
     4
100
AcDbLine
 10
203.105432
 20
458.838453
 11
203.105554
 21
458.838575
  0
LINE
  5
127
100
AcDbEntity
  8
M2
  6
CONTINUOUS
370
25
 62
     4
100
AcDbLine
 10
225.109949
 20
396.737989
 11
255.110071
 21
396.737989
  0
LINE
  5
128
100
AcDbEntity
  8
M2
  6
CONTINUOUS
370
25
 62
     4
100
AcDbLine
 10
188.610071
 20
460.987989
 11
188.610071
 21
463.366895
  0
LINE
  5
129
100
AcDbEntity
  8
M2
  6
CONTINUOUS
370
25
 62
     4
100
AcDbLine
 10
203.610071
 20
506.237989
 11
206.610071
 21
506.237989
  0
LINE
  5
12A
100
AcDbEntity
  8
M2
  6
CONTINUOUS
370
25
 62
     4
100
AcDbLine
 10
203.610071
 20
415.737989
 11
206.610071
 21
415.737989
  0
LINE
  5
12B
100
AcDbEntity
  8
M4
  6
CONTINUOUS
370
25
100
AcDbLine
 10
234.53941
 20
41.250004
 11
234.53941
 21
-7.105427E-015
  0
LINE
  5
12C
100
AcDbEntity
  8
M4
  6
CONTINUOUS
370
25
100
AcDbLine
 10
29.539422
 20
41.250004
 11
29.539422
 21
-7.105427E-015
  0
LINE
  5
12D
100
AcDbEntity
  8
M4
  6
CONTINUOUS
370
25
100
AcDbLine
 10
29.539422
 20
-7.105427E-015
 11
234.53941
 21
-7.105427E-015
  0
LINE
  5
12E
100
AcDbEntity
  8
M4
  6
CONTINUOUS
370
25
100
AcDbLine
 10
29.539422
 20
41.250004
 11
234.53941
 21
41.250004
  0
LINE
  5
12F
100
AcDbEntity
  8
M4
  6
CONTINUOUS
370
25
100
AcDbLine
 10
187.03943
 20
27.499999
 11
187.03943
 21
41.250004
  0
LINE
  5
130
100
AcDbEntity
  8
M4
  6
CONTINUOUS
370
25
100
AcDbLine
 10
59.539431
 20
27.499999
 11
187.03943
 21
27.499999
  0
LINE
  5
131
100
AcDbEntity
  8
M4
  6
CONTINUOUS
370
25
 60
     1
100
AcDbLine
 10
209.539411
 20
27.499999
 11
209.539411
 21
41.250004
  0
LINE
  5
132
100
AcDbEntity
  8
M4
  6
CONTINUOUS
370
25
100
AcDbLine
 10
187.03943
 20
27.499999
 11
209.539411
 21
27.499999
  0
TEXT
  5
133
100
AcDbEntity
  8
M4
100
AcDbText
 10
189.690836
 20
31.250005
 40
6.25
  1
ＲＥＶ．：
 41
0.666667
  7
STANDARD
100
AcDbText
  0
LINE
  5
134
100
AcDbEntity
  8
M4
  6
CONTINUOUS
370
25
 60
     1
100
AcDbLine
 10
234.53941
 20
27.499999
 11
234.53941
 21
41.250004
  0
LINE
  5
135
100
AcDbEntity
  8
M4
  6
CONTINUOUS
370
25
100
AcDbLine
 10
209.539411
 20
27.499999
 11
234.53941
 21
27.499999
  0
TEXT
  5
136
100
AcDbEntity
  8
M4
100
AcDbText
 10
219.712991
 20
31.250005
 40
6.25
  1
００
 41
0.833333
  7
STANDARD
100
AcDbText
  0
LINE
  5
137
100
AcDbEntity
  8
M4
  6
CONTINUOUS
370
25
 60
     1
100
AcDbLine
 10
59.539431
 20
27.499999
 11
59.539431
 21
41.250004
  0
LINE
  5
138
100
AcDbEntity
  8
M4
  6
CONTINUOUS
370
25
100
AcDbLine
 10
29.539422
 20
27.499999
 11
59.539431
 21
27.499999
  0
TEXT
  5
139
100
AcDbEntity
  8
M4
100
AcDbText
 10
32.213037
 20
31.250005
 40
6.25
  1
登録名：
 41
0.833333
  7
STANDARD
100
AcDbText
  0
LINE
  5
13A
100
AcDbEntity
  8
M4
  6
CONTINUOUS
370
25
 60
     1
100
AcDbLine
 10
234.53941
 20
13.749999
 11
234.53941
 21
27.499999
  0
LINE
  5
13B
100
AcDbEntity
  8
M4
  6
CONTINUOUS
370
25
100
AcDbLine
 10
209.539411
 20
13.749999
 11
234.53941
 21
13.749999
  0
LINE
  5
13C
100
AcDbEntity
  8
M4
  6
CONTINUOUS
370
25
 60
     1
100
AcDbLine
 10
209.539411
 20
13.749999
 11
209.539411
 21
27.499999
  0
LINE
  5
13D
100
AcDbEntity
  8
M4
  6
CONTINUOUS
370
25
100
AcDbLine
 10
59.539431
 20
13.749999
 11
209.539411
 21
13.749999
  0
TEXT
  5
13E
100
AcDbEntity
  8
M4
100
AcDbText
 10
62.213037
 20
17.500001
 40
6.25
  1
表面形
 41
0.833333
  7
STANDARD
100
AcDbText
  0
LINE
  5
13F
100
AcDbEntity
  8
M4
  6
CONTINUOUS
370
25
 60
     1
100
AcDbLine
 10
59.539431
 20
13.749999
 11
59.539431
 21
27.499999
  0
LINE
  5
140
100
AcDbEntity
  8
M4
  6
CONTINUOUS
370
25
100
AcDbLine
 10
29.539422
 20
13.749999
 11
59.539431
 21
13.749999
  0
TEXT
  5
141
100
AcDbEntity
  8
M4
100
AcDbText
 10
30.945673
 20
17.500001
 40
6.25
  1
接続方式：
 41
0.75
  7
STANDARD
100
AcDbText
  0
LINE
  5
142
100
AcDbEntity
  8
M4
  6
CONTINUOUS
370
25
 60
     1
100
AcDbLine
 10
234.53941
 20
-7.105427E-015
 11
234.53941
 21
13.749999
  0
LINE
  5
143
100
AcDbEntity
  8
M4
  6
CONTINUOUS
370
25
 60
     1
100
AcDbLine
 10
209.539411
 20
-7.105427E-015
 11
234.53941
 21
-7.105427E-015
  0
LINE
  5
144
100
AcDbEntity
  8
M4
  6
CONTINUOUS
370
25
 60
     1
100
AcDbLine
 10
209.539411
 20
-7.105427E-015
 11
209.539411
 21
13.749999
  0
LINE
  5
145
100
AcDbEntity
  8
M4
  6
CONTINUOUS
370
25
 60
     1
100
AcDbLine
 10
59.539431
 20
-7.105427E-015
 11
209.539411
 21
-7.105427E-015
  0
TEXT
  5
146
100
AcDbEntity
  8
M4
100
AcDbText
 10
62.195688
 20
3.750001
 40
6.25
  1
ＥＸ４００Ｂ／ＲＸ４００Ｂ
 41
0.75
  7
STANDARD
100
AcDbText
  0
LINE
  5
147
100
AcDbEntity
  8
M4
  6
CONTINUOUS
370
25
 60
     1
100
AcDbLine
 10
59.539431
 20
-7.105427E-015
 11
59.539431
 21
13.749999
  0
LINE
  5
148
100
AcDbEntity
  8
M4
  6
CONTINUOUS
370
25
 60
     1
100
AcDbLine
 10
29.539422
 20
-7.105427E-015
 11
59.539431
 21
-7.105427E-015
  0
TEXT
  5
149
100
AcDbEntity
  8
M4
100
AcDbText
 10
30.945673
 20
3.750001
 40
6.25
  1
適用形式：
 41
0.75
  7
STANDARD
100
AcDbText
  0
TEXT
  5
14A
100
AcDbEntity
  8
M4
100
AcDbText
 10
62.213037
 20
31.250005
 40
6.25
  1
ＥＸ４００Ｂ　３Ｐ
 41
0.833333
  7
STANDARD
100
AcDbText
  0
ENDSEC
  0
SECTION
  2
OBJECTS
  0
DICTIONARY
  5
C
100
AcDbDictionary
  3
ACAD_GROUP
350
D
  3
ACAD_MLINESTYLE
350
E
  0
DICTIONARY
  5
D
102
{ACAD_REACTORS
330
C
102
}
100
AcDbDictionary
  0
DICTIONARY
  5
E
102
{ACAD_REACTORS
330
C
102
}
100
AcDbDictionary
  3
STANDARD
350
13
  0
MLINESTYLE
  5
13
102
{ACAD_REACTORS
330
E
102
}
100
AcDbMlineStyle
  2
STANDARD
 70
     0
  3

 62
     0
 51
90.0
 52
90.0
 71
     2
 49
0.5
 62
   256
  6
BYLAYER
 49
-0.5
 62
   256
  6
BYLAYER
  0
ENDSEC
  0
EOF
