  0
SECTION
  2
HEADER
  9
$ACADVER
  1
AC1015
  9
$INSBASE
 10
0.000000
 20
0.000000
 30
0.0
  9
$VIEWCTR
 10
7.531722
 20
4.5
  9
$VIEWSIZE
 40
9.0
  9
$SNAPMODE
 70
     0
  9
$SNAPUNIT
 10
1.0
 20
1.0
  9
$SNAPBASE
 10
0.0
 20
0.0
  9
$SNAPANG
 50
0.0
  9
$SNAPSTYLE
 70
     0
  9
$SNAPISOPAIR
 70
     0
  9
$GRIDMODE
 70
     0
  9
$GRIDUNIT
 10
0.0
 20
0.0
  9
$ORTHOMODE
 70
     0
  9
$REGENMODE
 70
     1
  9
$FILLMODE
 70
     1
  9
$QTEXTMODE
 70
     0
  9
$DRAGMODE
 70
     2
  9
$LTSCALE
  40
     1.000000
  9
$OSMODE
 70
     0
  9
$ATTMODE
 70
     1
  9
$TEXTSIZE
 40
0.2
  9
$TRACEWID
 40
0.05
  9
$TEXTSTYLE
  7
STANDARD
  9
$CELTYPE
  6
BYLAYER
  9
$CECOLOR
 62
   256
  9
$DIMSCALE
 40
1.0
  9
$DIMASZ
 40
0.18
  9
$DIMEXO
 40
0.0625
  9
$DIMDLI
 40
0.38
  9
$DIMRND
 40
0.0
  9
$DIMDLE
 40
0.0
  9
$DIMEXE
 40
0.18
  9
$DIMTP
 40
0.0
  9
$DIMTM
 40
0.0
  9
$DIMTXT
 40
0.18
  9
$DIMCEN
 40
0.09
  9
$DIMTSZ
 40
0.0
  9
$DIMADEC
 70
     0
  9
$DIMALTRND
 40
0.000000
  9
$DIMAZIN
 70
     0
  9
$DIMDSEP
 70
    46
  9
$DIMATFIT
 70
     3
  9
$DIMFRAC
 70
     0
  9
$DIMLDRBLK
  1

  9
$DIMLUNIT
 70
     2
  9
$DIMLWD
 70
   13
  9
$DIMLWE
 70
   13
  9
$DIMTMOVE
 70
     0
  9
$CELWEIGHT
370
    25
  9
$LWDISPLAY
290
    1
  9
$EXTNAMES
290
    1
  9
$DIMTOL
 70
     0
  9
$DIMLIM
 70
     0
  9
$DIMTIH
 70
     1
  9
$DIMTOH
 70
     1
  9
$DIMSE1
 70
     0
  9
$DIMSE2
 70
     0
  9
$DIMTAD
 70
     0
  9
$DIMZIN
 70
     0
  9
$DIMBLK
  1

  9
$LUNITS
 70
     2
  9
$LUPREC
 70
     4
  9
$AXISMODE
 70
     0
  9
$AXISUNIT
 10
0.0
 20
0.0
  9
$SKETCHINC
 40
0.1
  9
$FILLETRAD
 40
0.0
  9
$AUNITS
 70
     0
  9
$AUPREC
 70
     0
  9
$MENU
  1
ACAD
  9
$ELEVATION
 40
0.0
  9
$THICKNESS
 40
0.0
  9
$VIEWDIR
 10
0.0
 20
0.0
 30
1.0
  9
$LIMCHECK
 70
     0
  9
$BLIPMODE
 70
     1
  9
$CHAMFERA
 40
0.0
  9
$CHAMFERB
 40
0.0
  9
$FASTZOOM
 70
     1
  9
$SKPOLY
 70
     0
  9
$TDCREATE
 40
0000000.0000000000
  9
$TDUPDATE
 40
0000000.0000000000
  9
$TDINDWG
 40
0.0000000000
  9
$TDUSRTIMER
 40
0.0000000000
  9
$USRTIMER
 70
     1
  9
$ANGBASE
 50
0.0
  9
$ANGDIR
 70
     0
  9
$PDMODE
 70
     0
  9
$PDSIZE
 40
0.0
  9
$PLINEWID
 40
0.0
  9
$COORDS
 70
     0
  9
$USERI1
 70
     0
  9
$USERI2
 70
     0
  9
$USERI3
 70
     0
  9
$USERI4
 70
     0
  9
$USERI5
 70
     0
  9
$USERR1
 40
0.0
  9
$USERR2
 40
0.0
  9
$USERR3
 40
0.0
  9
$USERR4
 40
0.0
  9
$USERR5
 40
0.0
  9
$CLAYER
  8
M2
  9
$EXTMIN
 10
0.0
 20
0.0
  9
$EXTMAX
 10
841.0
 20
594.0
  9
$LIMMIN
 10
0.0
 20
0.0
  9
$LIMMAX
 10
841.0
 20
594.0
  9
$HANDSEED
  5
157
  0
ENDSEC
  0
SECTION
  2
CLASSES
  0
CLASS
  1
DIMASSOC
  2
AcDbDimAssoc
  3
"AcDbDimAssoc|Product Desc:     AcDim ARX App For Dimension|Company:          Autodesk, Inc.|WEB Address:      www.autodesk.com"
 90
        0
280
     0
281
     0
  0
ENDSEC
  0
SECTION
  2
TABLES
  0
TABLE
  2
VPORT
  5
8
100
AcDbSymbolTable
 70
     2
  0
VPORT
  5
14
100
AcDbSymbolTableRecord
100
AcDbViewportTableRecord
  2
*ACTIVE
 70
     0
 10
0.0
 20
0.0
 11
1.0
 21
1.0
 12
484.0
 22
297.0
 13
0.0
 23
0.0
 14
1.0
 24
1.0
 15
0.0
 25
0.0
 16
0.0
 26
0.0
 36
1.0
 17
0.0
 27
0.0
 37
0.0
 40
594.0
 41
2.0
 42
50.0
 43
0.0
 44
0.0
 50
0.0
 51
0.0
 71
     0
 72
   100
 73
     1
 74
     1
 75
     0
 76
     0
 77
     0
 78
     0
  0
ENDTAB
  0
TABLE
  2
LTYPE
  5
5
100
AcDbSymbolTable
 70
     5
  0
LTYPE
  5
15
100
AcDbSymbolTableRecord
100
AcDbLinetypeTableRecord
  2
BYBLOCK
 70
     0
  3

 72
    65
 73
     0
 40
0.0
  0
LTYPE
  5
16
100
AcDbSymbolTableRecord
100
AcDbLinetypeTableRecord
  2
BYLAYER
 70
     0
  3

 72
    65
 73
     0
 40
0.0
  0
LTYPE
  5
17
100
AcDbSymbolTableRecord
100
AcDbLinetypeTableRecord
  2
CONTINUOUS
 70
    64
  3
Solid line
 72
    65
 73
     0
 40
0.0
  0
LTYPE
  5
18
100
AcDbSymbolTableRecord
100
AcDbLinetypeTableRecord
  2
DASHED
 70
    64
  3
__ __ __ __ __ __ __ __ __ __ __ __ __ __ __ __
 72
    65
 73
     2
 40
0.75
 49
0.5
 74
     0
 49
-0.25
 74
     0
  0
LTYPE
  5
19
100
AcDbSymbolTableRecord
100
AcDbLinetypeTableRecord
  2
DASHDOT
 70
    64
  3
__ . __ . __ . __ . __ . __ . __ . __ . __ . __
 72
    65
 73
     4
 40
1.0
 49
0.5
 74
     0
 49
-0.25
 74
     0
 49
0.0
 74
     0
 49
-0.25
 74
     0
  0
LTYPE
  5
1A
100
AcDbSymbolTableRecord
100
AcDbLinetypeTableRecord
  2
DIVIDE
 70
    64
  3
____ . . ____ . . ____ . . ____ . . ____ . . __
 72
    65
 73
     6
 40
1.25
 49
0.5
 74
     0
 49
-0.25
 74
     0
 49
0.0
 74
     0
 49
-0.25
 74
     0
 49
0.0
 74
     0
 49
-0.25
 74
     0
  0
LTYPE
  5
1B
100
AcDbSymbolTableRecord
100
AcDbLinetypeTableRecord
  2
DOT
 70
    64
  3
. . . . . . . . . . . . . . . . . . . . . . . .
 72
    65
 73
     2
 40
0.25
 49
0.0
 74
     0
 49
-0.25
 74
     0
  0
ENDTAB
  0
TABLE
  2
LAYER
  5
2
100
AcDbSymbolTable
 70
   102
  0
LAYER
  5
F
100
AcDbSymbolTableRecord
100
AcDbLayerTableRecord
  2
0
 70
     0
 62
     7
  6
CONTINUOUS
370
     -3
390
F
  0
LAYER
  5
1C
100
AcDbSymbolTableRecord
100
AcDbLayerTableRecord
  2
M2
 70
     0
 62
     3
  6
CONTINUOUS
370
     -3
390
F
  0
LAYER
  5
1D
100
AcDbSymbolTableRecord
100
AcDbLayerTableRecord
  2
M3
 70
     0
 62
     3
  6
CONTINUOUS
370
     -3
390
F
  0
LAYER
  5
1E
100
AcDbSymbolTableRecord
100
AcDbLayerTableRecord
  2
M4
 70
     0
 62
     3
  6
CONTINUOUS
370
     -3
390
F
  0
LAYER
  5
1F
100
AcDbSymbolTableRecord
100
AcDbLayerTableRecord
  2
M5
 70
     0
 62
     3
  6
CONTINUOUS
370
     -3
390
F
  0
LAYER
  5
20
100
AcDbSymbolTableRecord
100
AcDbLayerTableRecord
  2
M6
 70
     0
 62
     7
  6
CONTINUOUS
370
     -3
390
F
  0
ENDTAB
  0
TABLE
  2
STYLE
  5
3
100
AcDbSymbolTable
 70
     2
  0
STYLE
  5
10
100
AcDbSymbolTableRecord
100
AcDbTextStyleTableRecord
  2
STANDARD
 70
     0
 40
0.0
 41
1.0
 50
0.0
 71
     0
 42
0.2
  3
txt
  4
BIGFONT
  0
ENDTAB
  0
TABLE
  2
VIEW
  5
6
100
AcDbSymbolTable
 70
     0
  0
ENDTAB
  0
TABLE
  2
UCS
  5
7
100
AcDbSymbolTable
 70
     0
  0
ENDTAB
  0
TABLE
  2
APPID
  5
9
100
AcDbSymbolTable
 70
     1
  0
APPID
  5
11
100
AcDbSymbolTableRecord
100
AcDbRegAppTableRecord
  2
ACAD
 70
     0
  0
ENDTAB
  0
TABLE
  2
DIMSTYLE
  5
A
100
AcDbSymbolTable
 70
     2
100
AcDbDimStyleTable
 71
     1
  0
DIMSTYLE
105
49
100
AcDbSymbolTableRecord
100
AcDbDimStyleTableRecord
  2
STANDARD
 70
     0
  3

  4

  5

  6
_OPEN
  7
_OPEN
 40
1.0
 41
3.0
 42
0.0
 43
8.0
 44
1.5
 45
0.0
 46
0.0
 47
0.0
 48
0.0
140
3.2
141
0.09
142
0.0
143
0.03937
144
1.0
145
0.0
146
1.0
147
1.0
148
0.000000
 71
     0
 72
     0
 73
     1
 74
     1
 75
     0
 76
     0
 77
     3
 78
     8
170
     0
171
     2
172
     0
173
     1
174
     0
175
     0
176
     0
177
     0
178
     0
270
     2
271
     2
272
     4
273
     2
274
     2
340
10
275
     0
278
    46
280
     0
281
     0
282
     0
283
     1
284
     0
285
     0
286
     0
287
     3
288
     0
371
   13
372
   13
  0
DIMSTYLE
105
4A
100
AcDbSymbolTableRecord
100
AcDbDimStyleTableRecord
  2
LEADSTYL
 70
     0
  3

  4

  5

  6
_OPEN
  7
_OPEN
 40
1.0
 41
3.0
 42
0.0625
 43
0.38
 44
0.18
 45
0.0
 46
0.0
 47
0.0
 48
0.0
140
3.2
141
0.09
142
0.0
143
25.4
144
1.0
145
0.0
146
1.0
147
1.0
 71
     0
 72
     0
 73
     1
 74
     1
 75
     0
 76
     0
 77
     0
 78
     0
170
     0
171
     2
172
     0
173
     1
174
     0
175
     0
176
     0
177
     0
178
     0
270
     2
271
     4
272
     4
273
     2
274
     2
340
10
275
     0
280
     0
281
     0
282
     0
283
     1
284
     0
285
     0
286
     0
287
     3
288
     0
  0
ENDTAB
  0
TABLE
  2
BLOCK_RECORD
  5
1
100
AcDbSymbolTable
 70
     6
  0
BLOCK_RECORD
  5
21
100
AcDbSymbolTableRecord
100
AcDbBlockTableRecord
  2
*MODEL_SPACE
  0
BLOCK_RECORD
  5
24
100
AcDbSymbolTableRecord
100
AcDbBlockTableRecord
  2
*PAPER_SPACE
  0
BLOCK_RECORD
  5
27
100
AcDbSymbolTableRecord
100
AcDbBlockTableRecord
  2
_NONE
  0
BLOCK_RECORD
  5
2B
100
AcDbSymbolTableRecord
100
AcDbBlockTableRecord
  2
_OPEN
  0
BLOCK_RECORD
  5
31
100
AcDbSymbolTableRecord
100
AcDbBlockTableRecord
  2
_CLOSED
  0
BLOCK_RECORD
  5
38
100
AcDbSymbolTableRecord
100
AcDbBlockTableRecord
  2
_ORIGIN
  0
BLOCK_RECORD
  5
3D
100
AcDbSymbolTableRecord
100
AcDbBlockTableRecord
  2
_DOT
  0
BLOCK_RECORD
  5
45
100
AcDbSymbolTableRecord
100
AcDbBlockTableRecord
  2
_OBLIQUE
  0
ENDTAB
  0
ENDSEC
  0
SECTION
  2
BLOCKS
  0
BLOCK
  5
22
100
AcDbEntity
  8
0
100
AcDbBlockBegin
  2
*MODEL_SPACE
 70
     0
 10
0.0
 20
0.0
 30
0.0
  3
*MODEL_SPACE
  1

  0
ENDBLK
  5
23
100
AcDbEntity
  8
0
100
AcDbBlockEnd
  0
BLOCK
  5
25
100
AcDbEntity
 67
     1
  8
0
100
AcDbBlockBegin
  2
*PAPER_SPACE
 70
     0
 10
0.0
 20
0.0
 30
0.0
  3
*PAPER_SPACE
  1

  0
ENDBLK
  5
26
100
AcDbEntity
 67
     1
  8
0
100
AcDbBlockEnd
  0
BLOCK
  5
28
100
AcDbEntity
  8
0
100
AcDbBlockBegin
  2
_NONE
 70
     0
 10
0.0
 20
0.0
  0
CIRCLE
  5
29
100
AcDbEntity
  8
0
 62
     0
370
13
100
AcDbCircle
 10
0.0
 20
0.0
 40
0.25
  0
ENDBLK
  5
2A
100
AcDbEntity
  8
0
100
AcDbBlockEnd
  0
BLOCK
  5
2C
100
AcDbEntity
  8
0
100
AcDbBlockBegin
  2
_OPEN
 70
     0
 10
0.0
 20
0.0
  0
LINE
  5
2D
100
AcDbEntity
  8
0
 62
     0
370
13
100
AcDbLine
 10
-0.965926
 20
0.258819
 11
0.0
 21
0.0
  0
LINE
  5
2E
100
AcDbEntity
  8
0
 62
     0
370
13
100
AcDbLine
 10
0.0
 20
0.0
 11
-0.965926
 21
-0.258819
  0
LINE
  5
2F
100
AcDbEntity
  8
0
 62
     0
370
13
100
AcDbLine
 10
0.0
 20
0.0
 11
-1.0
 21
0.0
  0
ENDBLK
  5
30
100
AcDbEntity
  8
0
100
AcDbBlockEnd
  0
BLOCK
  5
32
100
AcDbEntity
  8
0
100
AcDbBlockBegin
  2
_CLOSED
 70
     0
 10
0.0
 20
0.0
  0
LINE
  5
33
100
AcDbEntity
  8
0
 62
     0
370
13
100
AcDbLine
 10
-0.965926
 20
0.258819
 11
0.0
 21
0.0
  0
LINE
  5
34
100
AcDbEntity
  8
0
 62
     0
370
13
100
AcDbLine
 10
0.0
 20
0.0
 11
-0.965926
 21
-0.258819
  0
LINE
  5
35
100
AcDbEntity
  8
0
 62
     0
370
13
100
AcDbLine
 10
-0.965926
 20
0.258819
 11
-0.965926
 21
-0.258819
  0
LINE
  5
36
100
AcDbEntity
  8
0
 62
     0
370
13
100
AcDbLine
 10
0.0
 20
0.0
 11
-1.0
 21
0.0
  0
ENDBLK
  5
37
100
AcDbEntity
  8
0
100
AcDbBlockEnd
  0
BLOCK
  5
39
100
AcDbEntity
  8
0
100
AcDbBlockBegin
  2
_ORIGIN
 70
     0
 10
0.0
 20
0.0
  0
CIRCLE
  5
3A
100
AcDbEntity
  8
0
 62
     0
370
13
100
AcDbCircle
 10
0.0
 20
0.0
 40
0.5
  0
LINE
  5
3B
100
AcDbEntity
  8
0
 62
     0
370
13
100
AcDbLine
 10
0.0
 20
0.0
 11
-1.0
 21
0.0
  0
ENDBLK
  5
3C
100
AcDbEntity
  8
0
100
AcDbBlockEnd
  0
BLOCK
  5
3E
100
AcDbEntity
  8
0
100
AcDbBlockBegin
  2
_DOT
 70
     0
 10
0.0
 20
0.0
  0
POLYLINE
  5
3F
100
AcDbEntity
  8
0
 62
     0
100
AcDb2dPolyline
 66
     1
 70
     1
 40
0.5
 41
0.5
  0
VERTEX
  5
40
100
AcDbEntity
  8
0
 62
     0
100
AcDbVertex
100
AcDb2dVertex
 10
-0.25
 20
0.0
 42
1.0
  0
VERTEX
  5
41
100
AcDbEntity
  8
0
 62
     0
100
AcDbVertex
100
AcDb2dVertex
 10
0.25
 20
0.0
 42
1.0
  0
SEQEND
  5
42
100
AcDbEntity
  8
0
 62
     0
  0
LINE
  5
43
100
AcDbEntity
  8
0
 62
     0
370
13
100
AcDbLine
 10
-0.5
 20
0.0
 11
-1.0
 21
0.0
  0
ENDBLK
  5
44
100
AcDbEntity
  8
0
100
AcDbBlockEnd
  0
BLOCK
  5
46
100
AcDbEntity
  8
0
100
AcDbBlockBegin
  2
_OBLIQUE
 70
     0
 10
0.0
 20
0.0
  0
LINE
  5
47
100
AcDbEntity
  8
0
 62
     0
370
13
100
AcDbLine
 10
-0.353553
 20
-0.353553
 11
0.353553
 21
0.353553
  0
ENDBLK
  5
48
100
AcDbEntity
  8
0
100
AcDbBlockEnd
  0
ENDSEC
  0
SECTION
  2
ENTITIES
  0
LINE
  5
4B
100
AcDbEntity
  8
M2
  6
DASHDOT
370
25
 62
     4
100
AcDbLine
 10
165.708398
 20
90.272317
 11
207.708398
 21
90.272317
  0
LINE
  5
4C
100
AcDbEntity
  8
M2
  6
DASHDOT
370
25
 62
     4
100
AcDbLine
 10
207.708398
 20
90.272317
 11
207.708398
 21
250.272317
  0
LINE
  5
4D
100
AcDbEntity
  8
M2
  6
DASHDOT
370
25
 62
     4
100
AcDbLine
 10
207.708398
 20
250.272317
 11
165.708398
 21
250.272317
  0
LINE
  5
4E
100
AcDbEntity
  8
M2
  6
DASHDOT
370
25
 62
     4
100
AcDbLine
 10
165.708398
 20
250.272317
 11
165.708398
 21
90.272317
  0
LINE
  5
4F
100
AcDbEntity
  8
M2
  6
DASHDOT
370
25
 62
     4
100
AcDbLine
 10
160.708398
 20
170.272317
 11
212.708398
 21
170.272317
  0
LINE
  5
50
100
AcDbEntity
  8
M2
  6
DASHDOT
370
25
 62
     4
100
AcDbLine
 10
186.708398
 20
85.272317
 11
186.708398
 21
255.272317
  0
LINE
  5
51
100
AcDbEntity
  8
M2
  6
CONTINUOUS
370
25
 62
     4
100
AcDbLine
 10
177.708398
 20
403.504017
 11
214.308398
 21
403.504017
  0
LINE
  5
52
100
AcDbEntity
  8
M2
  6
CONTINUOUS
370
25
 62
     4
100
AcDbLine
 10
207.708398
 20
485.504017
 11
178.890673
 21
485.504017
  0
LINE
  5
53
100
AcDbEntity
  8
M2
  6
CONTINUOUS
370
25
 62
     4
100
AcDbLine
 10
175.708398
 20
454.004017
 11
175.708398
 21
435.004017
  0
LINE
  5
54
100
AcDbEntity
  8
M2
  6
CONTINUOUS
370
25
 62
     4
100
AcDbLine
 10
177.708349
 20
479.504017
 11
177.7083
 21
409.504017
  0
LINE
  5
55
100
AcDbEntity
  8
M2
  6
CONTINUOUS
370
25
 62
     4
100
AcDbLine
 10
175.708398
 20
454.004017
 11
177.708398
 21
454.004017
  0
LINE
  5
56
100
AcDbEntity
  8
M2
  6
CONTINUOUS
370
25
 62
     4
100
AcDbLine
 10
177.708398
 20
435.004017
 11
175.708398
 21
435.004017
  0
LINE
  5
57
100
AcDbEntity
  8
M2
  6
CONTINUOUS
370
25
 62
     4
100
AcDbLine
 10
177.7083
 20
409.504017
 11
178.9083
 21
409.504017
  0
LINE
  5
58
100
AcDbEntity
  8
M2
  6
CONTINUOUS
370
25
 62
     4
100
AcDbLine
 10
178.9083
 20
409.504017
 11
178.908398
 21
403.504017
  0
LINE
  5
59
100
AcDbEntity
  8
M2
  6
CONTINUOUS
370
25
 62
     4
100
AcDbLine
 10
178.908398
 20
485.504017
 11
178.908349
 21
479.504017
  0
LINE
  5
5A
100
AcDbEntity
  8
M2
  6
CONTINUOUS
370
25
 62
     4
100
AcDbLine
 10
178.908349
 20
479.504017
 11
177.708349
 21
479.504017
  0
LINE
  5
5B
100
AcDbEntity
  8
M2
  6
CONTINUOUS
370
25
 62
     4
100
AcDbLine
 10
175.708349
 20
450.99679
 11
171.38623
 21
452.569886
  0
LINE
  5
5C
100
AcDbEntity
  8
M2
  6
CONTINUOUS
370
25
 62
     4
100
AcDbLine
 10
175.708349
 20
447.910657
 11
170.394335
 21
449.844788
  0
LINE
  5
5D
100
AcDbEntity
  8
M2
  6
CONTINUOUS
370
25
 62
     4
100
AcDbLine
 10
171.38623
 20
452.569886
 11
170.394335
 21
449.844788
  0
LINE
  5
5E
100
AcDbEntity
  8
M2
  6
CONTINUOUS
370
25
 62
     4
100
AcDbLine
 10
197.008398
 20
485.503968
 11
200.008398
 21
485.503968
  0
LINE
  5
5F
100
AcDbEntity
  8
M2
  6
CONTINUOUS
370
25
 62
     4
100
AcDbLine
 10
200.008398
 20
485.503968
 11
200.008398
 21
501.503968
  0
LINE
  5
60
100
AcDbEntity
  8
M2
  6
CONTINUOUS
370
25
 62
     4
100
AcDbLine
 10
200.008398
 20
501.503968
 11
197.008398
 21
501.503968
  0
LINE
  5
61
100
AcDbEntity
  8
M2
  6
CONTINUOUS
370
25
 62
     4
100
AcDbLine
 10
197.008398
 20
501.503968
 11
197.008398
 21
485.503968
  0
LINE
  5
62
100
AcDbEntity
  8
M2
  6
CONTINUOUS
370
25
 62
     4
100
AcDbLine
 10
197.308398
 20
327.504017
 11
197.308398
 21
343.504017
  0
LINE
  5
63
100
AcDbEntity
  8
M2
  6
CONTINUOUS
370
25
 62
     4
100
AcDbLine
 10
197.308398
 20
343.504017
 11
194.308398
 21
343.504017
  0
LINE
  5
64
100
AcDbEntity
  8
M2
  6
CONTINUOUS
370
25
 62
     4
100
AcDbLine
 10
194.308398
 20
343.504017
 11
194.308398
 21
327.504017
  0
ARC
  5
65
100
AcDbEntity
  8
M2
  6
CONTINUOUS
370
25
 62
     4
100
AcDbCircle
 10
189.308398
 20
444.504017
 40
19.599994
100
AcDbArc
 50
160.000408
 51
180.0
  0
LINE
  5
66
100
AcDbEntity
  8
M2
  6
DASHDOT
370
25
 62
     4
100
AcDbLine
 10
165.471235
 20
444.504017
 11
210.708398
 21
444.504017
  0
LINE
  5
67
100
AcDbEntity
  8
M2
  6
CONTINUOUS
370
25
 62
     4
100
AcDbLine
 10
176.734375
 20
452.060071
 11
176.734277
 21
452.060071
  0
LINE
  5
68
100
AcDbEntity
  8
M2
  6
CONTINUOUS
370
25
 62
     4
100
AcDbLine
 10
171.847949
 20
453.838587
 11
171.8479
 21
453.838538
  0
LINE
  5
69
100
AcDbEntity
  8
M2
  6
CONTINUOUS
370
25
 62
     4
100
AcDbLine
 10
171.386132
 20
452.569886
 11
170.394335
 21
449.844788
  0
LINE
  5
6A
100
AcDbEntity
  8
M2
  6
CONTINUOUS
370
25
 62
     4
100
AcDbLine
 10
194.308398
 20
327.504017
 11
197.308398
 21
327.504017
  0
LINE
  5
6B
100
AcDbEntity
  8
M2
  6
CONTINUOUS
370
25
 62
     4
100
AcDbLine
 10
207.708398
 20
481.603968
 11
207.708398
 21
483.403968
  0
LINE
  5
6C
100
AcDbEntity
  8
M2
  6
CONTINUOUS
370
25
 62
     4
100
AcDbLine
 10
207.708398
 20
403.504017
 11
207.708398
 21
485.504017
  0
LINE
  5
6D
100
AcDbEntity
  8
M2
  6
CONTINUOUS
370
25
 62
     4
100
AcDbLine
 10
210.708398
 20
494.504017
 11
210.708398
 21
403.504017
  0
LINE
  5
6E
100
AcDbEntity
  8
M2
  6
CONTINUOUS
370
25
 62
     4
100
AcDbLine
 10
214.708398
 20
494.504017
 11
208.308447
 21
494.504017
  0
LINE
  5
6F
100
AcDbEntity
  8
M2
  6
CONTINUOUS
370
25
 62
     4
100
AcDbLine
 10
214.708398
 20
494.504017
 11
214.708398
 21
334.504017
  0
LINE
  5
70
100
AcDbEntity
  8
M2
  6
CONTINUOUS
370
25
 62
     4
100
AcDbLine
 10
214.708398
 20
334.504017
 11
210.708398
 21
334.504017
  0
LINE
  5
71
100
AcDbEntity
  8
M2
  6
CONTINUOUS
370
25
 62
     4
100
AcDbLine
 10
177.708398
 20
343.504017
 11
214.308398
 21
343.504017
  0
LINE
  5
72
100
AcDbEntity
  8
M2
  6
CONTINUOUS
370
25
 62
     4
100
AcDbLine
 10
210.708398
 20
343.504017
 11
210.708398
 21
334.504017
  0
LINE
  5
73
100
AcDbEntity
  8
M2
  6
CONTINUOUS
370
25
 62
     4
100
AcDbLine
 10
214.308398
 20
343.504017
 11
214.308398
 21
403.503968
  0
LINE
  5
74
100
AcDbEntity
  8
M2
  6
CONTINUOUS
370
25
 62
     4
100
AcDbLine
 10
177.708398
 20
403.504017
 11
177.708398
 21
343.504017
  0
LINE
  5
75
100
AcDbEntity
  8
M2
  6
CONTINUOUS
370
25
 62
     4
100
AcDbLine
 10
210.708447
 20
479.504066
 11
207.708447
 21
479.504017
  0
LINE
  5
76
100
AcDbEntity
  8
M2
  6
CONTINUOUS
370
25
 62
     4
100
AcDbLine
 10
208.308447
 20
479.504017
 11
208.308447
 21
494.504017
  0
LINE
  5
77
100
AcDbEntity
  8
M2
  6
CONTINUOUS
370
25
 62
     4
100
AcDbLine
 10
208.308447
 20
485.504017
 11
207.708447
 21
485.504017
  0
LINE
  5
78
100
AcDbEntity
  8
M2
  6
CONTINUOUS
370
25
 62
     4
100
AcDbLine
 10
207.708349
 20
409.503968
 11
210.708398
 21
409.503968
  0
LINE
  5
79
100
AcDbEntity
  8
M2
  6
DASHDOT
370
25
 62
     4
100
AcDbLine
 10
227.495684
 20
414.504017
 11
150.712178
 21
414.504017
  0
LINE
  5
7A
100
AcDbEntity
  8
M2
  6
CONTINUOUS
370
25
 62
     4
100
AcDbLine
 10
5.0
 20
403.504066
 11
47.0
 21
403.504066
  0
LINE
  5
7B
100
AcDbEntity
  8
M2
  6
CONTINUOUS
370
25
 62
     4
100
AcDbLine
 10
47.0
 20
334.504066
 11
47.0
 21
494.504066
  0
LINE
  5
7C
100
AcDbEntity
  8
M2
  6
CONTINUOUS
370
25
 62
     4
100
AcDbLine
 10
47.0
 20
485.504066
 11
5.0
 21
485.504066
  0
LINE
  5
7D
100
AcDbEntity
  8
M2
  6
CONTINUOUS
370
25
 62
     4
100
AcDbLine
 10
5.0
 20
494.504066
 11
5.0
 21
334.504066
  0
LINE
  5
7E
100
AcDbEntity
  8
M2
  6
DASHDOT
370
25
 62
     4
100
AcDbLine
 10
0.0
 20
444.504066
 11
52.0
 21
444.504066
  0
LINE
  5
7F
100
AcDbEntity
  8
M2
  6
DASHDOT
370
25
 62
     4
100
AcDbLine
 10
26.0
 20
338.504066
 11
26.0
 21
502.358167
  0
LINE
  5
80
100
AcDbEntity
  8
M2
  6
CONTINUOUS
370
25
 62
     4
100
AcDbLine
 10
19.6
 20
435.004066
 11
32.4
 21
435.004066
  0
LINE
  5
81
100
AcDbEntity
  8
M2
  6
CONTINUOUS
370
25
 62
     4
100
AcDbLine
 10
33.8
 20
436.404017
 11
33.8
 21
452.603968
  0
LINE
  5
82
100
AcDbEntity
  8
M2
  6
CONTINUOUS
370
25
 62
     4
100
AcDbLine
 10
32.4
 20
454.004066
 11
19.6
 21
454.004017
  0
LINE
  5
83
100
AcDbEntity
  8
M2
  6
CONTINUOUS
370
25
 62
     4
100
AcDbLine
 10
18.2
 20
452.604017
 11
18.2
 21
436.404066
  0
ARC
  5
84
100
AcDbEntity
  8
M2
  6
CONTINUOUS
370
25
 62
     4
100
AcDbCircle
 10
19.6
 20
452.604017
 40
1.4
100
AcDbArc
 50
89.999875
 51
180.0
  0
ARC
  5
85
100
AcDbEntity
  8
M2
  6
CONTINUOUS
370
25
 62
     4
100
AcDbCircle
 10
19.6
 20
436.404066
 40
1.4
100
AcDbArc
 50
179.999875
 51
270.0
  0
ARC
  5
86
100
AcDbEntity
  8
M2
  6
CONTINUOUS
370
25
 62
     4
100
AcDbCircle
 10
32.4
 20
436.404066
 40
1.4
100
AcDbArc
 50
269.999875
 51
360.0
  0
ARC
  5
87
100
AcDbEntity
  8
M2
  6
CONTINUOUS
370
25
 62
     4
100
AcDbCircle
 10
32.4
 20
452.604017
 40
1.4
100
AcDbArc
 50
0.0
 51
90.0
  0
LINE
  5
88
100
AcDbEntity
  8
M2
  6
CONTINUOUS
370
25
 62
     4
100
AcDbLine
 10
5.0
 20
479.504066
 11
47.0
 21
479.504066
  0
LINE
  5
89
100
AcDbEntity
  8
M2
  6
CONTINUOUS
370
25
 62
     4
100
AcDbLine
 10
47.0
 20
409.504017
 11
5.0
 21
409.504017
  0
LINE
  5
8A
100
AcDbEntity
  8
M2
  6
CONTINUOUS
370
25
 62
     4
100
AcDbLine
 10
7.5
 20
485.504017
 11
16.5
 21
485.504017
  0
LINE
  5
8B
100
AcDbEntity
  8
M2
  6
CONTINUOUS
370
25
 62
     4
100
AcDbLine
 10
16.5
 20
485.504017
 11
16.5
 21
501.504017
  0
LINE
  5
8C
100
AcDbEntity
  8
M2
  6
CONTINUOUS
370
25
 62
     4
100
AcDbLine
 10
16.5
 20
501.504017
 11
7.5
 21
501.504017
  0
LINE
  5
8D
100
AcDbEntity
  8
M2
  6
CONTINUOUS
370
25
 62
     4
100
AcDbLine
 10
7.5
 20
501.504017
 11
7.5
 21
485.504017
  0
CIRCLE
  5
8E
100
AcDbEntity
  8
M2
  6
CONTINUOUS
370
25
 62
     4
100
AcDbCircle
 10
12.0
 20
490.504017
 40
1.349998
  0
ARC
  5
8F
100
AcDbEntity
  8
M2
  6
CONTINUOUS
370
25
 62
     4
100
AcDbCircle
 10
12.0
 20
496.903968
 40
1.349998
100
AcDbArc
 50
180.0
 51
360.0
  0
ARC
  5
90
100
AcDbEntity
  8
M2
  6
CONTINUOUS
370
25
 62
     4
100
AcDbCircle
 10
12.0
 20
498.503968
 40
1.349998
100
AcDbArc
 50
0.0
 51
180.0
  0
LINE
  5
91
100
AcDbEntity
  8
M2
  6
CONTINUOUS
370
25
 62
     4
100
AcDbLine
 10
13.35
 20
498.503968
 11
13.35
 21
496.903968
  0
LINE
  5
92
100
AcDbEntity
  8
M2
  6
CONTINUOUS
370
25
 62
     4
100
AcDbLine
 10
10.65
 20
498.503968
 11
10.65
 21
496.903968
  0
LINE
  5
93
100
AcDbEntity
  8
M2
  6
CONTINUOUS
370
25
 62
     4
100
AcDbLine
 10
21.5
 20
485.504017
 11
30.5
 21
485.504017
  0
LINE
  5
94
100
AcDbEntity
  8
M2
  6
CONTINUOUS
370
25
 62
     4
100
AcDbLine
 10
30.5
 20
485.504017
 11
30.5
 21
501.504017
  0
LINE
  5
95
100
AcDbEntity
  8
M2
  6
CONTINUOUS
370
25
 62
     4
100
AcDbLine
 10
30.5
 20
501.504017
 11
21.5
 21
501.504017
  0
LINE
  5
96
100
AcDbEntity
  8
M2
  6
CONTINUOUS
370
25
 62
     4
100
AcDbLine
 10
21.5
 20
501.504017
 11
21.5
 21
485.504017
  0
CIRCLE
  5
97
100
AcDbEntity
  8
M2
  6
CONTINUOUS
370
25
 62
     4
100
AcDbCircle
 10
26.0
 20
490.504017
 40
1.349998
  0
ARC
  5
98
100
AcDbEntity
  8
M2
  6
CONTINUOUS
370
25
 62
     4
100
AcDbCircle
 10
26.0
 20
496.903968
 40
1.349998
100
AcDbArc
 50
180.0
 51
360.0
  0
ARC
  5
99
100
AcDbEntity
  8
M2
  6
CONTINUOUS
370
25
 62
     4
100
AcDbCircle
 10
26.0
 20
498.503968
 40
1.349998
100
AcDbArc
 50
0.0
 51
180.0
  0
LINE
  5
9A
100
AcDbEntity
  8
M2
  6
CONTINUOUS
370
25
 62
     4
100
AcDbLine
 10
27.35
 20
498.503968
 11
27.35
 21
496.903968
  0
LINE
  5
9B
100
AcDbEntity
  8
M2
  6
CONTINUOUS
370
25
 62
     4
100
AcDbLine
 10
24.65
 20
498.503968
 11
24.65
 21
496.903968
  0
LINE
  5
9C
100
AcDbEntity
  8
M2
  6
CONTINUOUS
370
25
 62
     4
100
AcDbLine
 10
35.5
 20
485.504017
 11
44.5
 21
485.504017
  0
LINE
  5
9D
100
AcDbEntity
  8
M2
  6
CONTINUOUS
370
25
 62
     4
100
AcDbLine
 10
44.5
 20
485.504017
 11
44.5
 21
501.504017
  0
LINE
  5
9E
100
AcDbEntity
  8
M2
  6
CONTINUOUS
370
25
 62
     4
100
AcDbLine
 10
44.5
 20
501.504017
 11
35.5
 21
501.504017
  0
LINE
  5
9F
100
AcDbEntity
  8
M2
  6
CONTINUOUS
370
25
 62
     4
100
AcDbLine
 10
35.5
 20
501.504017
 11
35.5
 21
485.504017
  0
CIRCLE
  5
A0
100
AcDbEntity
  8
M2
  6
CONTINUOUS
370
25
 62
     4
100
AcDbCircle
 10
40.0
 20
490.504017
 40
1.349998
  0
ARC
  5
A1
100
AcDbEntity
  8
M2
  6
CONTINUOUS
370
25
 62
     4
100
AcDbCircle
 10
40.0
 20
496.903968
 40
1.349998
100
AcDbArc
 50
180.0
 51
360.0
  0
ARC
  5
A2
100
AcDbEntity
  8
M2
  6
CONTINUOUS
370
25
 62
     4
100
AcDbCircle
 10
40.0
 20
498.503968
 40
1.349998
100
AcDbArc
 50
0.0
 51
180.0
  0
LINE
  5
A3
100
AcDbEntity
  8
M2
  6
CONTINUOUS
370
25
 62
     4
100
AcDbLine
 10
41.35
 20
498.503968
 11
41.35
 21
496.903968
  0
LINE
  5
A4
100
AcDbEntity
  8
M2
  6
CONTINUOUS
370
25
 62
     4
100
AcDbLine
 10
38.65
 20
498.503968
 11
38.65
 21
496.903968
  0
LINE
  5
A5
100
AcDbEntity
  8
M2
  6
CONTINUOUS
370
25
 62
     4
100
AcDbLine
 10
16.5
 20
343.504114
 11
16.5
 21
327.504114
  0
LINE
  5
A6
100
AcDbEntity
  8
M2
  6
CONTINUOUS
370
25
 62
     4
100
AcDbLine
 10
16.5
 20
327.504114
 11
7.5
 21
327.504114
  0
LINE
  5
A7
100
AcDbEntity
  8
M2
  6
CONTINUOUS
370
25
 62
     4
100
AcDbLine
 10
7.5
 20
327.504114
 11
7.5
 21
343.504114
  0
CIRCLE
  5
A8
100
AcDbEntity
  8
M2
  6
CONTINUOUS
370
25
 62
     4
100
AcDbCircle
 10
12.0
 20
338.504114
 40
1.349998
  0
ARC
  5
A9
100
AcDbEntity
  8
M2
  6
CONTINUOUS
370
25
 62
     4
100
AcDbCircle
 10
12.0
 20
332.104163
 40
1.349998
100
AcDbArc
 50
0.0
 51
179.997928
  0
ARC
  5
AA
100
AcDbEntity
  8
M2
  6
CONTINUOUS
370
25
 62
     4
100
AcDbCircle
 10
12.0
 20
330.504163
 40
1.349998
100
AcDbArc
 50
179.997928
 51
360.0
  0
LINE
  5
AB
100
AcDbEntity
  8
M2
  6
CONTINUOUS
370
25
 62
     4
100
AcDbLine
 10
13.35
 20
330.504163
 11
13.35
 21
332.104163
  0
LINE
  5
AC
100
AcDbEntity
  8
M2
  6
CONTINUOUS
370
25
 62
     4
100
AcDbLine
 10
10.65
 20
330.504163
 11
10.65
 21
332.104163
  0
LINE
  5
AD
100
AcDbEntity
  8
M2
  6
CONTINUOUS
370
25
 62
     4
100
AcDbLine
 10
30.5
 20
343.504114
 11
30.5
 21
327.504114
  0
LINE
  5
AE
100
AcDbEntity
  8
M2
  6
CONTINUOUS
370
25
 62
     4
100
AcDbLine
 10
30.5
 20
327.504114
 11
21.5
 21
327.504114
  0
LINE
  5
AF
100
AcDbEntity
  8
M2
  6
CONTINUOUS
370
25
 62
     4
100
AcDbLine
 10
21.5
 20
327.504114
 11
21.5
 21
343.504114
  0
CIRCLE
  5
B0
100
AcDbEntity
  8
M2
  6
CONTINUOUS
370
25
 62
     4
100
AcDbCircle
 10
26.0
 20
338.504114
 40
1.349998
  0
ARC
  5
B1
100
AcDbEntity
  8
M2
  6
CONTINUOUS
370
25
 62
     4
100
AcDbCircle
 10
26.0
 20
332.104163
 40
1.349998
100
AcDbArc
 50
0.0
 51
179.997928
  0
ARC
  5
B2
100
AcDbEntity
  8
M2
  6
CONTINUOUS
370
25
 62
     4
100
AcDbCircle
 10
26.0
 20
330.504163
 40
1.349998
100
AcDbArc
 50
179.997928
 51
360.0
  0
LINE
  5
B3
100
AcDbEntity
  8
M2
  6
CONTINUOUS
370
25
 62
     4
100
AcDbLine
 10
27.35
 20
330.504163
 11
27.35
 21
332.104163
  0
LINE
  5
B4
100
AcDbEntity
  8
M2
  6
CONTINUOUS
370
25
 62
     4
100
AcDbLine
 10
24.65
 20
330.504163
 11
24.65
 21
332.104163
  0
LINE
  5
B5
100
AcDbEntity
  8
M2
  6
CONTINUOUS
370
25
 62
     4
100
AcDbLine
 10
44.5
 20
343.504114
 11
44.5
 21
327.504114
  0
LINE
  5
B6
100
AcDbEntity
  8
M2
  6
CONTINUOUS
370
25
 62
     4
100
AcDbLine
 10
44.5
 20
327.504114
 11
35.5
 21
327.504114
  0
LINE
  5
B7
100
AcDbEntity
  8
M2
  6
CONTINUOUS
370
25
 62
     4
100
AcDbLine
 10
35.5
 20
327.504114
 11
35.5
 21
343.504114
  0
CIRCLE
  5
B8
100
AcDbEntity
  8
M2
  6
CONTINUOUS
370
25
 62
     4
100
AcDbCircle
 10
40.0
 20
338.504114
 40
1.349998
  0
ARC
  5
B9
100
AcDbEntity
  8
M2
  6
CONTINUOUS
370
25
 62
     4
100
AcDbCircle
 10
40.0
 20
332.104163
 40
1.349998
100
AcDbArc
 50
0.0
 51
179.997928
  0
ARC
  5
BA
100
AcDbEntity
  8
M2
  6
CONTINUOUS
370
25
 62
     4
100
AcDbCircle
 10
40.0
 20
330.504163
 40
1.349998
100
AcDbArc
 50
179.997928
 51
360.0
  0
LINE
  5
BB
100
AcDbEntity
  8
M2
  6
CONTINUOUS
370
25
 62
     4
100
AcDbLine
 10
41.35
 20
330.504163
 11
41.35
 21
332.104163
  0
LINE
  5
BC
100
AcDbEntity
  8
M2
  6
CONTINUOUS
370
25
 62
     4
100
AcDbLine
 10
38.65
 20
330.504163
 11
38.65
 21
332.104163
  0
LINE
  5
BD
100
AcDbEntity
  8
M2
  6
CONTINUOUS
370
25
 62
     4
100
AcDbLine
 10
21.4
 20
452.569886
 11
21.4
 21
438.004017
  0
LINE
  5
BE
100
AcDbEntity
  8
M2
  6
CONTINUOUS
370
25
 62
     4
100
AcDbLine
 10
30.6
 20
452.569886
 11
30.6
 21
438.004017
  0
LINE
  5
BF
100
AcDbEntity
  8
M2
  6
CONTINUOUS
370
25
 62
     4
100
AcDbLine
 10
30.6
 20
438.004066
 11
21.4
 21
438.004066
  0
LINE
  5
C0
100
AcDbEntity
  8
M2
  6
CONTINUOUS
370
25
 62
     4
100
AcDbLine
 10
21.4
 20
449.844788
 11
30.6
 21
449.844788
  0
LINE
  5
C1
100
AcDbEntity
  8
M2
  6
CONTINUOUS
370
25
 62
     4
100
AcDbLine
 10
21.4
 20
452.569886
 11
30.6
 21
452.569886
  0
LINE
  5
C2
100
AcDbEntity
  8
M2
  6
DIVIDE
370
25
 62
     4
100
AcDbLine
 10
15.148999
 20
485.504066
 11
15.589001
 21
485.504066
  0
LINE
  5
C3
100
AcDbEntity
  8
M2
  6
DIVIDE
370
25
 62
     4
100
AcDbLine
 10
29.148999
 20
485.504066
 11
29.589001
 21
485.504066
  0
LINE
  5
C4
100
AcDbEntity
  8
M2
  6
CONTINUOUS
370
25
 62
     4
100
AcDbLine
 10
47.0
 20
494.504066
 11
44.5
 21
494.504066
  0
LINE
  5
C5
100
AcDbEntity
  8
M2
  6
CONTINUOUS
370
25
 62
     4
100
AcDbLine
 10
47.0
 20
334.504066
 11
44.5
 21
334.504066
  0
LINE
  5
C6
100
AcDbEntity
  8
M2
  6
CONTINUOUS
370
25
 62
     4
100
AcDbLine
 10
47.0
 20
343.504066
 11
5.0
 21
343.504066
  0
LINE
  5
C7
100
AcDbEntity
  8
M2
  6
CONTINUOUS
370
25
 62
     4
100
AcDbLine
 10
7.5
 20
494.504066
 11
5.0
 21
494.504066
  0
LINE
  5
C8
100
AcDbEntity
  8
M2
  6
CONTINUOUS
370
25
 62
     4
100
AcDbLine
 10
21.5
 20
494.504066
 11
16.5
 21
494.504066
  0
LINE
  5
C9
100
AcDbEntity
  8
M2
  6
CONTINUOUS
370
25
 62
     4
100
AcDbLine
 10
35.5
 20
494.504066
 11
30.5
 21
494.504066
  0
LINE
  5
CA
100
AcDbEntity
  8
M2
  6
CONTINUOUS
370
25
 62
     4
100
AcDbLine
 10
7.5
 20
334.504066
 11
5.0
 21
334.504066
  0
LINE
  5
CB
100
AcDbEntity
  8
M2
  6
CONTINUOUS
370
25
 62
     4
100
AcDbLine
 10
21.5
 20
334.504066
 11
16.5
 21
334.504066
  0
LINE
  5
CC
100
AcDbEntity
  8
M2
  6
CONTINUOUS
370
25
 62
     4
100
AcDbLine
 10
35.5
 20
334.504066
 11
30.5
 21
334.504066
  0
LINE
  5
CD
100
AcDbEntity
  8
M2
  6
DASHDOT
370
25
 62
     4
100
AcDbLine
 10
52.0
 20
414.504066
 11
0.0
 21
414.504066
  0
LINE
  5
CE
100
AcDbEntity
  8
M2
  6
CONTINUOUS
370
25
 62
     4
100
AcDbLine
 10
43.299949
 20
391.404066
 11
28.699949
 21
391.404066
  0
LINE
  5
CF
100
AcDbEntity
  8
M2
  6
CONTINUOUS
370
25
 62
     4
100
AcDbLine
 10
43.499949
 20
382.604066
 11
43.499949
 21
391.204066
  0
LINE
  5
D0
100
AcDbEntity
  8
M2
  6
DASHDOT
370
25
 62
     4
100
AcDbLine
 10
25.999949
 20
386.904066
 11
45.999949
 21
386.904066
  0
LINE
  5
D1
100
AcDbEntity
  8
M2
  6
DASHDOT
370
25
 62
     4
100
AcDbLine
 10
35.999949
 20
395.886732
 11
35.999949
 21
378.203333
  0
LINE
  5
D2
100
AcDbEntity
  8
M2
  6
CONTINUOUS
370
25
 62
     4
100
AcDbLine
 10
28.699949
 20
382.404066
 11
43.299949
 21
382.404066
  0
LINE
  5
D3
100
AcDbEntity
  8
M2
  6
CONTINUOUS
370
25
 62
     4
100
AcDbLine
 10
28.499949
 20
391.204066
 11
28.499949
 21
382.604066
  0
ARC
  5
D4
100
AcDbEntity
  8
M2
  6
CONTINUOUS
370
25
 62
     4
100
AcDbCircle
 10
43.299949
 20
391.204066
 40
0.2
100
AcDbArc
 50
0.0
 51
90.0
  0
ARC
  5
D5
100
AcDbEntity
  8
M2
  6
CONTINUOUS
370
25
 62
     4
100
AcDbCircle
 10
28.699949
 20
391.204066
 40
0.2
100
AcDbArc
 50
90.0
 51
180.0
  0
ARC
  5
D6
100
AcDbEntity
  8
M2
  6
CONTINUOUS
370
25
 62
     4
100
AcDbCircle
 10
28.699949
 20
382.604066
 40
0.2
100
AcDbArc
 50
180.0
 51
270.0
  0
ARC
  5
D7
100
AcDbEntity
  8
M2
  6
CONTINUOUS
370
25
 62
     4
100
AcDbCircle
 10
43.299949
 20
382.604066
 40
0.2
100
AcDbArc
 50
270.0
 51
360.0
  0
LINE
  5
D8
100
AcDbEntity
  8
M2
  6
DASHDOT
370
25
 62
     4
100
AcDbLine
 10
5.0
 20
90.272317
 11
47.0
 21
90.272317
  0
LINE
  5
D9
100
AcDbEntity
  8
M2
  6
DASHDOT
370
25
 62
     4
100
AcDbLine
 10
47.0
 20
90.272317
 11
47.0
 21
250.272317
  0
LINE
  5
DA
100
AcDbEntity
  8
M2
  6
DASHDOT
370
25
 62
     4
100
AcDbLine
 10
47.0
 20
250.272317
 11
5.0
 21
250.272317
  0
LINE
  5
DB
100
AcDbEntity
  8
M2
  6
DASHDOT
370
25
 62
     4
100
AcDbLine
 10
5.0
 20
250.272317
 11
5.0
 21
90.272317
  0
LINE
  5
DC
100
AcDbEntity
  8
M2
  6
DASHDOT
370
25
 62
     4
100
AcDbLine
 10
0.0
 20
170.272317
 11
52.0
 21
170.272317
  0
LINE
  5
DD
100
AcDbEntity
  8
M2
  6
DASHDOT
370
25
 62
     4
100
AcDbLine
 10
26.0
 20
85.272317
 11
26.0
 21
255.272317
  0
CIRCLE
  5
DE
100
AcDbEntity
  8
M3
  6
CONTINUOUS
370
25
100
AcDbCircle
 10
33.0
 20
490.904066
 40
1.2
  0
LINE
  5
DF
100
AcDbEntity
  8
M3
  6
DASHDOT
370
25
100
AcDbLine
 10
33.0
 20
485.704066
 11
33.0
 21
496.104066
  0
LINE
  5
E0
100
AcDbEntity
  8
M3
  6
DASHDOT
370
25
100
AcDbLine
 10
27.8
 20
490.904066
 11
38.2
 21
490.904066
  0
LINE
  5
E1
100
AcDbEntity
  8
M3
  6
DASHDOT
370
25
100
AcDbLine
 10
19.0
 20
485.704066
 11
19.0
 21
496.104066
  0
CIRCLE
  5
E2
100
AcDbEntity
  8
M3
  6
CONTINUOUS
370
25
100
AcDbCircle
 10
19.0
 20
490.904066
 40
1.2
  0
LINE
  5
E3
100
AcDbEntity
  8
M3
  6
DASHDOT
370
25
100
AcDbLine
 10
13.8
 20
490.904066
 11
24.2
 21
490.904066
  0
CIRCLE
  5
E4
100
AcDbEntity
  8
M3
  6
CONTINUOUS
370
25
100
AcDbCircle
 10
19.0
 20
338.104066
 40
1.2
  0
LINE
  5
E5
100
AcDbEntity
  8
M3
  6
DASHDOT
370
25
100
AcDbLine
 10
19.0
 20
332.904066
 11
19.0
 21
343.304066
  0
LINE
  5
E6
100
AcDbEntity
  8
M3
  6
DASHDOT
370
25
100
AcDbLine
 10
13.8
 20
338.104066
 11
24.2
 21
338.104066
  0
CIRCLE
  5
E7
100
AcDbEntity
  8
M3
  6
CONTINUOUS
370
25
100
AcDbCircle
 10
33.0
 20
338.104066
 40
1.2
  0
LINE
  5
E8
100
AcDbEntity
  8
M3
  6
DASHDOT
370
25
100
AcDbLine
 10
33.0
 20
332.904066
 11
33.0
 21
343.304066
  0
LINE
  5
E9
100
AcDbEntity
  8
M3
  6
DASHDOT
370
25
100
AcDbLine
 10
27.8
 20
338.104066
 11
38.2
 21
338.104066
  0
LINE
  5
EA
100
AcDbEntity
  8
M3
  6
DASHDOT
370
25
100
AcDbLine
 10
210.708398
 20
492.704017
 11
210.708398
 21
489.104017
  0
LINE
  5
EB
100
AcDbEntity
  8
M3
  6
DASHDOT
370
25
100
AcDbLine
 10
207.449341
 20
490.904017
 11
214.708398
 21
490.904017
  0
LINE
  5
EC
100
AcDbEntity
  8
M3
  6
DASHDOT
370
25
100
AcDbLine
 10
210.708398
 20
336.304017
 11
210.708398
 21
339.904017
  0
LINE
  5
ED
100
AcDbEntity
  8
M3
  6
DASHDOT
370
25
100
AcDbLine
 10
207.449341
 20
338.104017
 11
214.708398
 21
338.104017
  0
CIRCLE
  5
EE
100
AcDbEntity
  8
M3
  6
CONTINUOUS
370
25
100
AcDbCircle
 10
19.0
 20
93.872317
 40
1.0
  0
CIRCLE
  5
EF
100
AcDbEntity
  8
M3
  6
CONTINUOUS
370
25
100
AcDbCircle
 10
33.0
 20
93.872317
 40
1.0
  0
CIRCLE
  5
F0
100
AcDbEntity
  8
M3
  6
CONTINUOUS
370
25
100
AcDbCircle
 10
33.0
 20
246.672268
 40
1.0
  0
CIRCLE
  5
F1
100
AcDbEntity
  8
M3
  6
CONTINUOUS
370
25
100
AcDbCircle
 10
19.0
 20
246.672268
 40
1.0
  0
LINE
  5
F2
100
AcDbEntity
  8
M3
  6
DASHDOT
370
25
100
AcDbLine
 10
14.0
 20
246.672268
 11
24.0
 21
246.672268
  0
LINE
  5
F3
100
AcDbEntity
  8
M3
  6
DASHDOT
370
25
100
AcDbLine
 10
19.0
 20
241.672268
 11
19.0
 21
251.672268
  0
LINE
  5
F4
100
AcDbEntity
  8
M3
  6
DASHDOT
370
25
100
AcDbLine
 10
28.0
 20
246.672268
 11
38.0
 21
246.672268
  0
LINE
  5
F5
100
AcDbEntity
  8
M3
  6
DASHDOT
370
25
100
AcDbLine
 10
33.0
 20
241.672268
 11
33.0
 21
251.672268
  0
LINE
  5
F6
100
AcDbEntity
  8
M3
  6
DASHDOT
370
25
100
AcDbLine
 10
28.0
 20
93.872317
 11
38.0
 21
93.872317
  0
LINE
  5
F7
100
AcDbEntity
  8
M3
  6
DASHDOT
370
25
100
AcDbLine
 10
33.0
 20
88.872317
 11
33.0
 21
98.872317
  0
LINE
  5
F8
100
AcDbEntity
  8
M3
  6
DASHDOT
370
25
100
AcDbLine
 10
14.0
 20
93.872317
 11
24.0
 21
93.872317
  0
LINE
  5
F9
100
AcDbEntity
  8
M3
  6
DASHDOT
370
25
100
AcDbLine
 10
19.0
 20
88.872317
 11
19.0
 21
98.872317
  0
LINE
  5
FA
100
AcDbEntity
  8
M4
  6
DASHDOT
370
25
 62
     2
100
AcDbLine
 10
40.0
 20
487.904017
 11
40.0
 21
493.104017
  0
LINE
  5
FB
100
AcDbEntity
  8
M4
  6
DASHDOT
370
25
 62
     2
100
AcDbLine
 10
37.4
 20
490.504017
 11
42.6
 21
490.504017
  0
LINE
  5
FC
100
AcDbEntity
  8
M4
  6
DASHDOT
370
25
 62
     2
100
AcDbLine
 10
37.4
 20
496.903968
 11
42.6
 21
496.903968
  0
LINE
  5
FD
100
AcDbEntity
  8
M4
  6
DASHDOT
370
25
 62
     2
100
AcDbLine
 10
37.4
 20
498.503968
 11
42.6
 21
498.503968
  0
LINE
  5
FE
100
AcDbEntity
  8
M4
  6
DASHDOT
370
25
 62
     2
100
AcDbLine
 10
40.0
 20
494.303968
 11
40.0
 21
500.797901
  0
LINE
  5
FF
100
AcDbEntity
  8
M4
  6
DASHDOT
370
25
 62
     2
100
AcDbLine
 10
26.0
 20
487.904017
 11
26.0
 21
493.104017
  0
LINE
  5
100
100
AcDbEntity
  8
M4
  6
DASHDOT
370
25
 62
     2
100
AcDbLine
 10
23.4
 20
490.504017
 11
28.6
 21
490.504017
  0
LINE
  5
101
100
AcDbEntity
  8
M4
  6
DASHDOT
370
25
 62
     2
100
AcDbLine
 10
23.4
 20
496.903968
 11
28.6
 21
496.903968
  0
LINE
  5
102
100
AcDbEntity
  8
M4
  6
DASHDOT
370
25
 62
     2
100
AcDbLine
 10
23.4
 20
498.503968
 11
28.6
 21
498.503968
  0
LINE
  5
103
100
AcDbEntity
  8
M4
  6
DASHDOT
370
25
 62
     2
100
AcDbLine
 10
26.0
 20
494.303968
 11
26.0
 21
500.797901
  0
LINE
  5
104
100
AcDbEntity
  8
M4
  6
DASHDOT
370
25
 62
     2
100
AcDbLine
 10
12.0
 20
487.904017
 11
12.0
 21
493.104017
  0
LINE
  5
105
100
AcDbEntity
  8
M4
  6
DASHDOT
370
25
 62
     2
100
AcDbLine
 10
9.4
 20
490.504017
 11
14.6
 21
490.504017
  0
LINE
  5
106
100
AcDbEntity
  8
M4
  6
DASHDOT
370
25
 62
     2
100
AcDbLine
 10
9.4
 20
496.903968
 11
14.6
 21
496.903968
  0
LINE
  5
107
100
AcDbEntity
  8
M4
  6
DASHDOT
370
25
 62
     2
100
AcDbLine
 10
9.4
 20
498.503968
 11
14.6
 21
498.503968
  0
LINE
  5
108
100
AcDbEntity
  8
M4
  6
DASHDOT
370
25
 62
     2
100
AcDbLine
 10
12.0
 20
494.303968
 11
12.0
 21
500.797901
  0
LINE
  5
109
100
AcDbEntity
  8
M4
  6
DASHDOT
370
25
 62
     2
100
AcDbLine
 10
40.0
 20
341.104114
 11
40.0
 21
335.904114
  0
LINE
  5
10A
100
AcDbEntity
  8
M4
  6
DASHDOT
370
25
 62
     2
100
AcDbLine
 10
37.4
 20
338.504114
 11
42.6
 21
338.504114
  0
LINE
  5
10B
100
AcDbEntity
  8
M4
  6
DASHDOT
370
25
 62
     2
100
AcDbLine
 10
37.4
 20
332.104163
 11
42.6
 21
332.104163
  0
LINE
  5
10C
100
AcDbEntity
  8
M4
  6
DASHDOT
370
25
 62
     2
100
AcDbLine
 10
37.4
 20
330.504163
 11
42.6
 21
330.504163
  0
LINE
  5
10D
100
AcDbEntity
  8
M4
  6
DASHDOT
370
25
 62
     2
100
AcDbLine
 10
40.0
 20
334.704163
 11
40.0
 21
328.21023
  0
LINE
  5
10E
100
AcDbEntity
  8
M4
  6
DASHDOT
370
25
 62
     2
100
AcDbLine
 10
26.0
 20
341.104114
 11
26.0
 21
335.904114
  0
LINE
  5
10F
100
AcDbEntity
  8
M4
  6
DASHDOT
370
25
 62
     2
100
AcDbLine
 10
23.4
 20
338.504114
 11
28.6
 21
338.504114
  0
LINE
  5
110
100
AcDbEntity
  8
M4
  6
DASHDOT
370
25
 62
     2
100
AcDbLine
 10
23.4
 20
332.104163
 11
28.6
 21
332.104163
  0
LINE
  5
111
100
AcDbEntity
  8
M4
  6
DASHDOT
370
25
 62
     2
100
AcDbLine
 10
23.4
 20
330.504163
 11
28.6
 21
330.504163
  0
LINE
  5
112
100
AcDbEntity
  8
M4
  6
DASHDOT
370
25
 62
     2
100
AcDbLine
 10
26.0
 20
334.704163
 11
26.0
 21
328.21023
  0
LINE
  5
113
100
AcDbEntity
  8
M4
  6
DASHDOT
370
25
 62
     2
100
AcDbLine
 10
12.0
 20
341.104114
 11
12.0
 21
335.904114
  0
LINE
  5
114
100
AcDbEntity
  8
M4
  6
DASHDOT
370
25
 62
     2
100
AcDbLine
 10
9.4
 20
338.504114
 11
14.6
 21
338.504114
  0
LINE
  5
115
100
AcDbEntity
  8
M4
  6
DASHDOT
370
25
 62
     2
100
AcDbLine
 10
9.4
 20
332.104163
 11
14.6
 21
332.104163
  0
LINE
  5
116
100
AcDbEntity
  8
M4
  6
DASHDOT
370
25
 62
     2
100
AcDbLine
 10
9.4
 20
330.504163
 11
14.6
 21
330.504163
  0
LINE
  5
117
100
AcDbEntity
  8
M4
  6
DASHDOT
370
25
 62
     2
100
AcDbLine
 10
12.0
 20
334.704163
 11
12.0
 21
328.21023
  0
LINE
  5
118
100
AcDbEntity
  8
M4
  6
DASHDOT
370
25
 62
     2
100
AcDbLine
 10
197.008398
 20
487.803968
 11
197.008398
 21
493.203968
  0
LINE
  5
119
100
AcDbEntity
  8
M4
  6
DASHDOT
370
25
 62
     2
100
AcDbLine
 10
197.008398
 20
494.203968
 11
197.008398
 21
501.203968
  0
LINE
  5
11A
100
AcDbEntity
  8
M4
  6
DASHDOT
370
25
 62
     2
100
AcDbLine
 10
194.648302
 20
496.903968
 11
199.240141
 21
496.903968
  0
LINE
  5
11B
100
AcDbEntity
  8
M4
  6
DASHDOT
370
25
 62
     2
100
AcDbLine
 10
194.648302
 20
498.503968
 11
199.240141
 21
498.503968
  0
LINE
  5
11C
100
AcDbEntity
  8
M4
  6
DASHDOT
370
25
 62
     2
100
AcDbLine
 10
194.648302
 20
490.503968
 11
199.240141
 21
490.503968
  0
LINE
  5
11D
100
AcDbEntity
  8
M4
  6
DASHDOT
370
25
 62
     2
100
AcDbLine
 10
194.308398
 20
341.204066
 11
194.308398
 21
335.804066
  0
LINE
  5
11E
100
AcDbEntity
  8
M4
  6
DASHDOT
370
25
 62
     2
100
AcDbLine
 10
194.308398
 20
334.804066
 11
194.308398
 21
327.804066
  0
LINE
  5
11F
100
AcDbEntity
  8
M4
  6
DASHDOT
370
25
 62
     2
100
AcDbLine
 10
191.948302
 20
332.104066
 11
196.540141
 21
332.104066
  0
LINE
  5
120
100
AcDbEntity
  8
M4
  6
DASHDOT
370
25
 62
     2
100
AcDbLine
 10
191.948302
 20
330.504066
 11
196.540141
 21
330.504066
  0
LINE
  5
121
100
AcDbEntity
  8
M4
  6
DASHDOT
370
25
 62
     2
100
AcDbLine
 10
191.948302
 20
338.504066
 11
196.540141
 21
338.504066
  0
LINE
  5
122
100
AcDbEntity
  8
M5
  6
CONTINUOUS
370
25
 62
     7
100
AcDbLine
 10
194.708398
 20
192.172317
 11
194.708398
 21
208.372317
  0
ARC
  5
123
100
AcDbEntity
  8
M5
  6
CONTINUOUS
370
25
 62
     7
100
AcDbCircle
 10
193.108398
 20
208.372317
 40
1.6
100
AcDbArc
 50
0.0
 51
90.0
  0
LINE
  5
124
100
AcDbEntity
  8
M5
  6
CONTINUOUS
370
25
 62
     7
100
AcDbLine
 10
193.108398
 20
209.972317
 11
180.308398
 21
209.972317
  0
ARC
  5
125
100
AcDbEntity
  8
M5
  6
CONTINUOUS
370
25
 62
     7
100
AcDbCircle
 10
180.308398
 20
208.372317
 40
1.6
100
AcDbArc
 50
90.0
 51
180.0
  0
LINE
  5
126
100
AcDbEntity
  8
M5
  6
CONTINUOUS
370
25
 62
     7
100
AcDbLine
 10
178.708398
 20
208.372317
 11
178.708398
 21
192.172317
  0
ARC
  5
127
100
AcDbEntity
  8
M5
  6
CONTINUOUS
370
25
 62
     7
100
AcDbCircle
 10
180.308398
 20
192.172317
 40
1.6
100
AcDbArc
 50
180.0
 51
270.0
  0
LINE
  5
128
100
AcDbEntity
  8
M5
  6
CONTINUOUS
370
25
 62
     7
100
AcDbLine
 10
180.308398
 20
190.572317
 11
193.108398
 21
190.572317
  0
ARC
  5
129
100
AcDbEntity
  8
M5
  6
CONTINUOUS
370
25
 62
     7
100
AcDbCircle
 10
193.108398
 20
192.172317
 40
1.6
100
AcDbArc
 50
270.0
 51
360.0
  0
LINE
  5
12A
100
AcDbEntity
  8
M5
  6
DASHDOT
370
25
 62
     7
100
AcDbLine
 10
196.707714
 20
151.202883
 11
196.707714
 21
133.257961
  0
LINE
  5
12B
100
AcDbEntity
  8
M5
  6
CONTINUOUS
370
25
 62
     7
100
AcDbLine
 10
189.407714
 20
147.372268
 11
204.007714
 21
147.372268
  0
LINE
  5
12C
100
AcDbEntity
  8
M5
  6
CONTINUOUS
370
25
 62
     7
100
AcDbLine
 10
204.407714
 20
138.372268
 11
204.407714
 21
146.972268
  0
ARC
  5
12D
100
AcDbEntity
  8
M5
  6
CONTINUOUS
370
25
 62
     7
100
AcDbCircle
 10
204.007714
 20
146.972268
 40
0.4
100
AcDbArc
 50
0.0
 51
90.0
  0
ARC
  5
12E
100
AcDbEntity
  8
M5
  6
CONTINUOUS
370
25
 62
     7
100
AcDbCircle
 10
189.407714
 20
146.972268
 40
0.4
100
AcDbArc
 50
90.0
 51
180.0
  0
LINE
  5
12F
100
AcDbEntity
  8
M5
  6
CONTINUOUS
370
25
 62
     7
100
AcDbLine
 10
189.007714
 20
138.372268
 11
189.007714
 21
146.972268
  0
ARC
  5
130
100
AcDbEntity
  8
M5
  6
CONTINUOUS
370
25
 62
     7
100
AcDbCircle
 10
189.407714
 20
138.372268
 40
0.4
100
AcDbArc
 50
180.0
 51
269.992132
  0
LINE
  5
131
100
AcDbEntity
  8
M5
  6
CONTINUOUS
370
25
 62
     7
100
AcDbLine
 10
189.407714
 20
137.972268
 11
204.007714
 21
137.972268
  0
ARC
  5
132
100
AcDbEntity
  8
M5
  6
CONTINUOUS
370
25
 62
     7
100
AcDbCircle
 10
204.007714
 20
138.372268
 40
0.4
100
AcDbArc
 50
269.992132
 51
359.979017
  0
LINE
  5
133
100
AcDbEntity
  8
M5
  6
DASHDOT
370
25
 62
     7
100
AcDbLine
 10
174.257298
 20
200.272317
 11
199.177836
 21
200.272317
  0
LINE
  5
134
100
AcDbEntity
  8
M5
  6
DASHDOT
370
25
 62
     7
100
AcDbLine
 10
186.707714
 20
218.702065
 11
186.707714
 21
181.967347
  0
LINE
  5
135
100
AcDbEntity
  8
M5
  6
DASHDOT
370
25
 62
     7
100
AcDbLine
 10
184.687089
 20
142.672292
 11
206.838678
 21
142.672292
  0
LINE
  5
136
100
AcDbEntity
  8
M6
  6
CONTINUOUS
370
25
100
AcDbLine
 10
218.90205
 20
32.999999
 11
218.90205
 21
0.0
  0
LINE
  5
137
100
AcDbEntity
  8
M6
  6
CONTINUOUS
370
25
100
AcDbLine
 10
4.902053
 20
32.999999
 11
4.902053
 21
0.0
  0
LINE
  5
138
100
AcDbEntity
  8
M6
  6
CONTINUOUS
370
25
100
AcDbLine
 10
4.902053
 20
0.0
 11
218.90205
 21
0.0
  0
LINE
  5
139
100
AcDbEntity
  8
M6
  6
CONTINUOUS
370
25
100
AcDbLine
 10
4.902053
 20
32.999999
 11
218.90205
 21
32.999999
  0
LINE
  5
13A
100
AcDbEntity
  8
M6
  6
CONTINUOUS
370
25
 60
     1
100
AcDbLine
 10
198.90205
 20
22.0
 11
198.90205
 21
32.999999
  0
LINE
  5
13B
100
AcDbEntity
  8
M6
  6
CONTINUOUS
370
25
100
AcDbLine
 10
180.90205
 20
22.0
 11
198.90205
 21
22.0
  0
TEXT
  5
13C
100
AcDbEntity
  8
M6
100
AcDbText
 10
183.023155
 20
25.0
 40
5.0
  1
ＲＥＶ．：
 41
0.666667
  7
STANDARD
100
AcDbText
  0
LINE
  5
13D
100
AcDbEntity
  8
M6
  6
CONTINUOUS
370
25
 60
     1
100
AcDbLine
 10
218.90205
 20
22.0
 11
218.90205
 21
32.999999
  0
LINE
  5
13E
100
AcDbEntity
  8
M6
  6
CONTINUOUS
370
25
100
AcDbLine
 10
198.90205
 20
22.0
 11
218.90205
 21
22.0
  0
TEXT
  5
13F
100
AcDbEntity
  8
M6
100
AcDbText
 10
207.040928
 20
25.0
 40
5.0
  1
００
 41
0.833333
  7
STANDARD
100
AcDbText
  0
LINE
  5
140
100
AcDbEntity
  8
M6
  6
CONTINUOUS
370
25
 60
     1
100
AcDbLine
 10
28.902053
 20
22.0
 11
28.902053
 21
32.999999
  0
LINE
  5
141
100
AcDbEntity
  8
M6
  6
CONTINUOUS
370
25
100
AcDbLine
 10
4.902053
 20
22.0
 11
28.902053
 21
22.0
  0
TEXT
  5
142
100
AcDbEntity
  8
M6
100
AcDbText
 10
7.04094
 20
25.0
 40
5.0
  1
登録名：
 41
0.833333
  7
STANDARD
100
AcDbText
  0
LINE
  5
143
100
AcDbEntity
  8
M6
  6
CONTINUOUS
370
25
 60
     1
100
AcDbLine
 10
218.90205
 20
11.0
 11
218.90205
 21
22.0
  0
LINE
  5
144
100
AcDbEntity
  8
M6
  6
CONTINUOUS
370
25
100
AcDbLine
 10
198.90205
 20
11.0
 11
218.90205
 21
11.0
  0
LINE
  5
145
100
AcDbEntity
  8
M6
  6
CONTINUOUS
370
25
 60
     1
100
AcDbLine
 10
198.90205
 20
11.0
 11
198.90205
 21
22.0
  0
LINE
  5
146
100
AcDbEntity
  8
M6
  6
CONTINUOUS
370
25
100
AcDbLine
 10
28.902053
 20
11.0
 11
198.90205
 21
11.0
  0
TEXT
  5
147
100
AcDbEntity
  8
M6
100
AcDbText
 10
31.04094
 20
14.0
 40
5.0
  1
表面形
 41
0.833333
  7
STANDARD
100
AcDbText
  0
LINE
  5
148
100
AcDbEntity
  8
M6
  6
CONTINUOUS
370
25
 60
     1
100
AcDbLine
 10
28.902053
 20
11.0
 11
28.902053
 21
22.0
  0
LINE
  5
149
100
AcDbEntity
  8
M6
  6
CONTINUOUS
370
25
100
AcDbLine
 10
4.902053
 20
11.0
 11
28.902053
 21
11.0
  0
TEXT
  5
14A
100
AcDbEntity
  8
M6
100
AcDbText
 10
6.027049
 20
14.0
 40
5.0
  1
接続方式：
 41
0.75
  7
STANDARD
100
AcDbText
  0
LINE
  5
14B
100
AcDbEntity
  8
M6
  6
CONTINUOUS
370
25
 60
     1
100
AcDbLine
 10
218.90205
 20
0.0
 11
218.90205
 21
11.0
  0
LINE
  5
14C
100
AcDbEntity
  8
M6
  6
CONTINUOUS
370
25
 60
     1
100
AcDbLine
 10
198.90205
 20
0.0
 11
218.90205
 21
0.0
  0
LINE
  5
14D
100
AcDbEntity
  8
M6
  6
CONTINUOUS
370
25
 60
     1
100
AcDbLine
 10
28.902053
 20
0.0
 11
28.902053
 21
11.0
  0
LINE
  5
14E
100
AcDbEntity
  8
M6
  6
CONTINUOUS
370
25
 60
     1
100
AcDbLine
 10
4.902053
 20
0.0
 11
28.902053
 21
0.0
  0
TEXT
  5
14F
100
AcDbEntity
  8
M6
100
AcDbText
 10
6.027049
 20
3.0
 40
5.0
  1
適用形式：
 41
0.75
  7
STANDARD
100
AcDbText
  0
LINE
  5
150
100
AcDbEntity
  8
M6
  6
CONTINUOUS
370
25
100
AcDbLine
 10
180.90205
 20
22.0
 11
180.90205
 21
32.999999
  0
LINE
  5
151
100
AcDbEntity
  8
M6
  6
CONTINUOUS
370
25
100
AcDbLine
 10
28.902053
 20
22.0
 11
180.90205
 21
22.0
  0
LINE
  5
152
100
AcDbEntity
  8
M6
  6
CONTINUOUS
370
25
 60
     1
100
AcDbLine
 10
198.90205
 20
0.0
 11
198.90205
 21
11.0
  0
LINE
  5
153
100
AcDbEntity
  8
M6
  6
CONTINUOUS
370
25
 60
     1
100
AcDbLine
 10
28.902053
 20
0.0
 11
198.90205
 21
0.0
  0
TEXT
  5
154
100
AcDbEntity
  8
M6
100
AcDbText
 10
31.027061
 20
3.0
 40
5.0
  1
ＲＦ－１０００ＣＢＮ／ＲＦ－１２００ＣＢＮ
 41
0.75
  7
STANDARD
100
AcDbText
  0
TEXT
  5
155
100
AcDbEntity
  8
M6
100
AcDbText
 10
31.04094
 20
25.0
 40
5.0
  1
ＲＦ－１０００ＣＢＮ　３Ｐ
 41
0.833333
  7
STANDARD
100
AcDbText
  0
ENDSEC
  0
SECTION
  2
OBJECTS
  0
DICTIONARY
  5
C
100
AcDbDictionary
  3
ACAD_GROUP
350
D
  3
ACAD_MLINESTYLE
350
E
  0
DICTIONARY
  5
D
102
{ACAD_REACTORS
330
C
102
}
100
AcDbDictionary
  0
DICTIONARY
  5
E
102
{ACAD_REACTORS
330
C
102
}
100
AcDbDictionary
  3
STANDARD
350
13
  0
MLINESTYLE
  5
13
102
{ACAD_REACTORS
330
E
102
}
100
AcDbMlineStyle
  2
STANDARD
 70
     0
  3

 62
     0
 51
90.0
 52
90.0
 71
     2
 49
0.5
 62
   256
  6
BYLAYER
 49
-0.5
 62
   256
  6
BYLAYER
  0
ENDSEC
  0
EOF
