  0
SECTION
  2
HEADER
  9
$ACADVER
  1
AC1015
  9
$INSBASE
 10
0.000000
 20
0.000000
 30
0.0
  9
$VIEWCTR
 10
7.531722
 20
4.5
  9
$VIEWSIZE
 40
9.0
  9
$SNAPMODE
 70
     0
  9
$SNAPUNIT
 10
1.0
 20
1.0
  9
$SNAPBASE
 10
0.0
 20
0.0
  9
$SNAPANG
 50
0.0
  9
$SNAPSTYLE
 70
     0
  9
$SNAPISOPAIR
 70
     0
  9
$GRIDMODE
 70
     0
  9
$GRIDUNIT
 10
0.0
 20
0.0
  9
$ORTHOMODE
 70
     0
  9
$REGENMODE
 70
     1
  9
$FILLMODE
 70
     1
  9
$QTEXTMODE
 70
     0
  9
$DRAGMODE
 70
     2
  9
$LTSCALE
  40
     1.000000
  9
$OSMODE
 70
     0
  9
$ATTMODE
 70
     1
  9
$TEXTSIZE
 40
0.2
  9
$TRACEWID
 40
0.05
  9
$TEXTSTYLE
  7
STANDARD
  9
$CELTYPE
  6
BYLAYER
  9
$CECOLOR
 62
   256
  9
$DIMSCALE
 40
1.0
  9
$DIMASZ
 40
0.18
  9
$DIMEXO
 40
0.0625
  9
$DIMDLI
 40
0.38
  9
$DIMRND
 40
0.0
  9
$DIMDLE
 40
0.0
  9
$DIMEXE
 40
0.18
  9
$DIMTP
 40
0.0
  9
$DIMTM
 40
0.0
  9
$DIMTXT
 40
0.18
  9
$DIMCEN
 40
0.09
  9
$DIMTSZ
 40
0.0
  9
$DIMADEC
 70
     0
  9
$DIMALTRND
 40
0.000000
  9
$DIMAZIN
 70
     0
  9
$DIMDSEP
 70
    46
  9
$DIMATFIT
 70
     3
  9
$DIMFRAC
 70
     0
  9
$DIMLDRBLK
  1

  9
$DIMLUNIT
 70
     2
  9
$DIMLWD
 70
   13
  9
$DIMLWE
 70
   13
  9
$DIMTMOVE
 70
     0
  9
$CELWEIGHT
370
    25
  9
$LWDISPLAY
290
    1
  9
$EXTNAMES
290
    1
  9
$DIMTOL
 70
     0
  9
$DIMLIM
 70
     0
  9
$DIMTIH
 70
     1
  9
$DIMTOH
 70
     1
  9
$DIMSE1
 70
     0
  9
$DIMSE2
 70
     0
  9
$DIMTAD
 70
     0
  9
$DIMZIN
 70
     0
  9
$DIMBLK
  1

  9
$LUNITS
 70
     2
  9
$LUPREC
 70
     4
  9
$AXISMODE
 70
     0
  9
$AXISUNIT
 10
0.0
 20
0.0
  9
$SKETCHINC
 40
0.1
  9
$FILLETRAD
 40
0.0
  9
$AUNITS
 70
     0
  9
$AUPREC
 70
     0
  9
$MENU
  1
ACAD
  9
$ELEVATION
 40
0.0
  9
$THICKNESS
 40
0.0
  9
$VIEWDIR
 10
0.0
 20
0.0
 30
1.0
  9
$LIMCHECK
 70
     0
  9
$BLIPMODE
 70
     1
  9
$CHAMFERA
 40
0.0
  9
$CHAMFERB
 40
0.0
  9
$FASTZOOM
 70
     1
  9
$SKPOLY
 70
     0
  9
$TDCREATE
 40
0000000.0000000000
  9
$TDUPDATE
 40
0000000.0000000000
  9
$TDINDWG
 40
0.0000000000
  9
$TDUSRTIMER
 40
0.0000000000
  9
$USRTIMER
 70
     1
  9
$ANGBASE
 50
0.0
  9
$ANGDIR
 70
     0
  9
$PDMODE
 70
     0
  9
$PDSIZE
 40
0.0
  9
$PLINEWID
 40
0.0
  9
$COORDS
 70
     0
  9
$USERI1
 70
     0
  9
$USERI2
 70
     0
  9
$USERI3
 70
     0
  9
$USERI4
 70
     0
  9
$USERI5
 70
     0
  9
$USERR1
 40
0.0
  9
$USERR2
 40
0.0
  9
$USERR3
 40
0.0
  9
$USERR4
 40
0.0
  9
$USERR5
 40
0.0
  9
$CLAYER
  8
M2
  9
$EXTMIN
 10
0.0
 20
0.0
  9
$EXTMAX
 10
841.0
 20
594.0
  9
$LIMMIN
 10
0.0
 20
0.0
  9
$LIMMAX
 10
841.0
 20
594.0
  9
$HANDSEED
  5
174
  0
ENDSEC
  0
SECTION
  2
CLASSES
  0
CLASS
  1
DIMASSOC
  2
AcDbDimAssoc
  3
"AcDbDimAssoc|Product Desc:     AcDim ARX App For Dimension|Company:          Autodesk, Inc.|WEB Address:      www.autodesk.com"
 90
        0
280
     0
281
     0
  0
ENDSEC
  0
SECTION
  2
TABLES
  0
TABLE
  2
VPORT
  5
8
100
AcDbSymbolTable
 70
     2
  0
VPORT
  5
14
100
AcDbSymbolTableRecord
100
AcDbViewportTableRecord
  2
*ACTIVE
 70
     0
 10
0.0
 20
0.0
 11
1.0
 21
1.0
 12
484.0
 22
297.0
 13
0.0
 23
0.0
 14
1.0
 24
1.0
 15
0.0
 25
0.0
 16
0.0
 26
0.0
 36
1.0
 17
0.0
 27
0.0
 37
0.0
 40
594.0
 41
2.0
 42
50.0
 43
0.0
 44
0.0
 50
0.0
 51
0.0
 71
     0
 72
   100
 73
     1
 74
     1
 75
     0
 76
     0
 77
     0
 78
     0
  0
ENDTAB
  0
TABLE
  2
LTYPE
  5
5
100
AcDbSymbolTable
 70
     5
  0
LTYPE
  5
15
100
AcDbSymbolTableRecord
100
AcDbLinetypeTableRecord
  2
BYBLOCK
 70
     0
  3

 72
    65
 73
     0
 40
0.0
  0
LTYPE
  5
16
100
AcDbSymbolTableRecord
100
AcDbLinetypeTableRecord
  2
BYLAYER
 70
     0
  3

 72
    65
 73
     0
 40
0.0
  0
LTYPE
  5
17
100
AcDbSymbolTableRecord
100
AcDbLinetypeTableRecord
  2
CONTINUOUS
 70
    64
  3
Solid line
 72
    65
 73
     0
 40
0.0
  0
LTYPE
  5
18
100
AcDbSymbolTableRecord
100
AcDbLinetypeTableRecord
  2
DASHED
 70
    64
  3
__ __ __ __ __ __ __ __ __ __ __ __ __ __ __ __
 72
    65
 73
     2
 40
0.75
 49
0.5
 74
     0
 49
-0.25
 74
     0
  0
LTYPE
  5
19
100
AcDbSymbolTableRecord
100
AcDbLinetypeTableRecord
  2
DASHDOT
 70
    64
  3
__ . __ . __ . __ . __ . __ . __ . __ . __ . __
 72
    65
 73
     4
 40
1.0
 49
0.5
 74
     0
 49
-0.25
 74
     0
 49
0.0
 74
     0
 49
-0.25
 74
     0
  0
LTYPE
  5
1A
100
AcDbSymbolTableRecord
100
AcDbLinetypeTableRecord
  2
DIVIDE
 70
    64
  3
____ . . ____ . . ____ . . ____ . . ____ . . __
 72
    65
 73
     6
 40
1.25
 49
0.5
 74
     0
 49
-0.25
 74
     0
 49
0.0
 74
     0
 49
-0.25
 74
     0
 49
0.0
 74
     0
 49
-0.25
 74
     0
  0
LTYPE
  5
1B
100
AcDbSymbolTableRecord
100
AcDbLinetypeTableRecord
  2
DOT
 70
    64
  3
. . . . . . . . . . . . . . . . . . . . . . . .
 72
    65
 73
     2
 40
0.25
 49
0.0
 74
     0
 49
-0.25
 74
     0
  0
ENDTAB
  0
TABLE
  2
LAYER
  5
2
100
AcDbSymbolTable
 70
   102
  0
LAYER
  5
F
100
AcDbSymbolTableRecord
100
AcDbLayerTableRecord
  2
0
 70
     0
 62
     7
  6
CONTINUOUS
370
     -3
390
F
  0
LAYER
  5
1C
100
AcDbSymbolTableRecord
100
AcDbLayerTableRecord
  2
M2
 70
     0
 62
     3
  6
CONTINUOUS
370
     -3
390
F
  0
LAYER
  5
1D
100
AcDbSymbolTableRecord
100
AcDbLayerTableRecord
  2
M3
 70
     0
 62
     3
  6
CONTINUOUS
370
     -3
390
F
  0
LAYER
  5
1E
100
AcDbSymbolTableRecord
100
AcDbLayerTableRecord
  2
M4
 70
     0
 62
     3
  6
CONTINUOUS
370
     -3
390
F
  0
LAYER
  5
1F
100
AcDbSymbolTableRecord
100
AcDbLayerTableRecord
  2
M5
 70
     0
 62
     3
  6
CONTINUOUS
370
     -3
390
F
  0
LAYER
  5
20
100
AcDbSymbolTableRecord
100
AcDbLayerTableRecord
  2
M6
 70
     0
 62
     7
  6
CONTINUOUS
370
     -3
390
F
  0
ENDTAB
  0
TABLE
  2
STYLE
  5
3
100
AcDbSymbolTable
 70
     2
  0
STYLE
  5
10
100
AcDbSymbolTableRecord
100
AcDbTextStyleTableRecord
  2
STANDARD
 70
     0
 40
0.0
 41
1.0
 50
0.0
 71
     0
 42
0.2
  3
txt
  4
BIGFONT
  0
ENDTAB
  0
TABLE
  2
VIEW
  5
6
100
AcDbSymbolTable
 70
     0
  0
ENDTAB
  0
TABLE
  2
UCS
  5
7
100
AcDbSymbolTable
 70
     0
  0
ENDTAB
  0
TABLE
  2
APPID
  5
9
100
AcDbSymbolTable
 70
     1
  0
APPID
  5
11
100
AcDbSymbolTableRecord
100
AcDbRegAppTableRecord
  2
ACAD
 70
     0
  0
ENDTAB
  0
TABLE
  2
DIMSTYLE
  5
A
100
AcDbSymbolTable
 70
     2
100
AcDbDimStyleTable
 71
     1
  0
DIMSTYLE
105
49
100
AcDbSymbolTableRecord
100
AcDbDimStyleTableRecord
  2
STANDARD
 70
     0
  3

  4

  5

  6
_OPEN
  7
_OPEN
 40
1.0
 41
3.0
 42
0.0
 43
8.0
 44
1.5
 45
0.0
 46
0.0
 47
0.0
 48
0.0
140
3.2
141
0.09
142
0.0
143
0.03937
144
1.0
145
0.0
146
1.0
147
1.0
148
0.000000
 71
     0
 72
     0
 73
     1
 74
     1
 75
     0
 76
     0
 77
     3
 78
     8
170
     0
171
     2
172
     0
173
     1
174
     0
175
     0
176
     0
177
     0
178
     0
270
     2
271
     2
272
     4
273
     2
274
     2
340
10
275
     0
278
    46
280
     0
281
     0
282
     0
283
     1
284
     0
285
     0
286
     0
287
     3
288
     0
371
   13
372
   13
  0
DIMSTYLE
105
4A
100
AcDbSymbolTableRecord
100
AcDbDimStyleTableRecord
  2
LEADSTYL
 70
     0
  3

  4

  5

  6
_OPEN
  7
_OPEN
 40
1.0
 41
3.0
 42
0.0625
 43
0.38
 44
0.18
 45
0.0
 46
0.0
 47
0.0
 48
0.0
140
3.2
141
0.09
142
0.0
143
25.4
144
1.0
145
0.0
146
1.0
147
1.0
 71
     0
 72
     0
 73
     1
 74
     1
 75
     0
 76
     0
 77
     0
 78
     0
170
     0
171
     2
172
     0
173
     1
174
     0
175
     0
176
     0
177
     0
178
     0
270
     2
271
     4
272
     4
273
     2
274
     2
340
10
275
     0
280
     0
281
     0
282
     0
283
     1
284
     0
285
     0
286
     0
287
     3
288
     0
  0
ENDTAB
  0
TABLE
  2
BLOCK_RECORD
  5
1
100
AcDbSymbolTable
 70
     6
  0
BLOCK_RECORD
  5
21
100
AcDbSymbolTableRecord
100
AcDbBlockTableRecord
  2
*MODEL_SPACE
  0
BLOCK_RECORD
  5
24
100
AcDbSymbolTableRecord
100
AcDbBlockTableRecord
  2
*PAPER_SPACE
  0
BLOCK_RECORD
  5
27
100
AcDbSymbolTableRecord
100
AcDbBlockTableRecord
  2
_NONE
  0
BLOCK_RECORD
  5
2B
100
AcDbSymbolTableRecord
100
AcDbBlockTableRecord
  2
_OPEN
  0
BLOCK_RECORD
  5
31
100
AcDbSymbolTableRecord
100
AcDbBlockTableRecord
  2
_CLOSED
  0
BLOCK_RECORD
  5
38
100
AcDbSymbolTableRecord
100
AcDbBlockTableRecord
  2
_ORIGIN
  0
BLOCK_RECORD
  5
3D
100
AcDbSymbolTableRecord
100
AcDbBlockTableRecord
  2
_DOT
  0
BLOCK_RECORD
  5
45
100
AcDbSymbolTableRecord
100
AcDbBlockTableRecord
  2
_OBLIQUE
  0
ENDTAB
  0
ENDSEC
  0
SECTION
  2
BLOCKS
  0
BLOCK
  5
22
100
AcDbEntity
  8
0
100
AcDbBlockBegin
  2
*MODEL_SPACE
 70
     0
 10
0.0
 20
0.0
 30
0.0
  3
*MODEL_SPACE
  1

  0
ENDBLK
  5
23
100
AcDbEntity
  8
0
100
AcDbBlockEnd
  0
BLOCK
  5
25
100
AcDbEntity
 67
     1
  8
0
100
AcDbBlockBegin
  2
*PAPER_SPACE
 70
     0
 10
0.0
 20
0.0
 30
0.0
  3
*PAPER_SPACE
  1

  0
ENDBLK
  5
26
100
AcDbEntity
 67
     1
  8
0
100
AcDbBlockEnd
  0
BLOCK
  5
28
100
AcDbEntity
  8
0
100
AcDbBlockBegin
  2
_NONE
 70
     0
 10
0.0
 20
0.0
  0
CIRCLE
  5
29
100
AcDbEntity
  8
0
 62
     0
370
13
100
AcDbCircle
 10
0.0
 20
0.0
 40
0.25
  0
ENDBLK
  5
2A
100
AcDbEntity
  8
0
100
AcDbBlockEnd
  0
BLOCK
  5
2C
100
AcDbEntity
  8
0
100
AcDbBlockBegin
  2
_OPEN
 70
     0
 10
0.0
 20
0.0
  0
LINE
  5
2D
100
AcDbEntity
  8
0
 62
     0
370
13
100
AcDbLine
 10
-0.965926
 20
0.258819
 11
0.0
 21
0.0
  0
LINE
  5
2E
100
AcDbEntity
  8
0
 62
     0
370
13
100
AcDbLine
 10
0.0
 20
0.0
 11
-0.965926
 21
-0.258819
  0
LINE
  5
2F
100
AcDbEntity
  8
0
 62
     0
370
13
100
AcDbLine
 10
0.0
 20
0.0
 11
-1.0
 21
0.0
  0
ENDBLK
  5
30
100
AcDbEntity
  8
0
100
AcDbBlockEnd
  0
BLOCK
  5
32
100
AcDbEntity
  8
0
100
AcDbBlockBegin
  2
_CLOSED
 70
     0
 10
0.0
 20
0.0
  0
LINE
  5
33
100
AcDbEntity
  8
0
 62
     0
370
13
100
AcDbLine
 10
-0.965926
 20
0.258819
 11
0.0
 21
0.0
  0
LINE
  5
34
100
AcDbEntity
  8
0
 62
     0
370
13
100
AcDbLine
 10
0.0
 20
0.0
 11
-0.965926
 21
-0.258819
  0
LINE
  5
35
100
AcDbEntity
  8
0
 62
     0
370
13
100
AcDbLine
 10
-0.965926
 20
0.258819
 11
-0.965926
 21
-0.258819
  0
LINE
  5
36
100
AcDbEntity
  8
0
 62
     0
370
13
100
AcDbLine
 10
0.0
 20
0.0
 11
-1.0
 21
0.0
  0
ENDBLK
  5
37
100
AcDbEntity
  8
0
100
AcDbBlockEnd
  0
BLOCK
  5
39
100
AcDbEntity
  8
0
100
AcDbBlockBegin
  2
_ORIGIN
 70
     0
 10
0.0
 20
0.0
  0
CIRCLE
  5
3A
100
AcDbEntity
  8
0
 62
     0
370
13
100
AcDbCircle
 10
0.0
 20
0.0
 40
0.5
  0
LINE
  5
3B
100
AcDbEntity
  8
0
 62
     0
370
13
100
AcDbLine
 10
0.0
 20
0.0
 11
-1.0
 21
0.0
  0
ENDBLK
  5
3C
100
AcDbEntity
  8
0
100
AcDbBlockEnd
  0
BLOCK
  5
3E
100
AcDbEntity
  8
0
100
AcDbBlockBegin
  2
_DOT
 70
     0
 10
0.0
 20
0.0
  0
POLYLINE
  5
3F
100
AcDbEntity
  8
0
 62
     0
100
AcDb2dPolyline
 66
     1
 70
     1
 40
0.5
 41
0.5
  0
VERTEX
  5
40
100
AcDbEntity
  8
0
 62
     0
100
AcDbVertex
100
AcDb2dVertex
 10
-0.25
 20
0.0
 42
1.0
  0
VERTEX
  5
41
100
AcDbEntity
  8
0
 62
     0
100
AcDbVertex
100
AcDb2dVertex
 10
0.25
 20
0.0
 42
1.0
  0
SEQEND
  5
42
100
AcDbEntity
  8
0
 62
     0
  0
LINE
  5
43
100
AcDbEntity
  8
0
 62
     0
370
13
100
AcDbLine
 10
-0.5
 20
0.0
 11
-1.0
 21
0.0
  0
ENDBLK
  5
44
100
AcDbEntity
  8
0
100
AcDbBlockEnd
  0
BLOCK
  5
46
100
AcDbEntity
  8
0
100
AcDbBlockBegin
  2
_OBLIQUE
 70
     0
 10
0.0
 20
0.0
  0
LINE
  5
47
100
AcDbEntity
  8
0
 62
     0
370
13
100
AcDbLine
 10
-0.353553
 20
-0.353553
 11
0.353553
 21
0.353553
  0
ENDBLK
  5
48
100
AcDbEntity
  8
0
100
AcDbBlockEnd
  0
ENDSEC
  0
SECTION
  2
ENTITIES
  0
ARC
  5
4B
100
AcDbEntity
  8
M2
  6
CONTINUOUS
370
25
 62
     7
100
AcDbCircle
 10
27.25
 20
493.446324
 40
0.25
100
AcDbArc
 50
180.0
 51
270.0
  0
ARC
  5
4C
100
AcDbEntity
  8
M2
  6
CONTINUOUS
370
25
 62
     7
100
AcDbCircle
 10
37.75
 20
493.446324
 40
0.25
100
AcDbArc
 50
270.0
 51
359.984263
  0
LINE
  5
4D
100
AcDbEntity
  8
M2
  6
DASHDOT
370
25
 62
     4
100
AcDbLine
 10
6.25
 20
141.819177
 11
76.25
 21
141.819177
  0
LINE
  5
4E
100
AcDbEntity
  8
M2
  6
DASHDOT
370
25
 62
     4
100
AcDbLine
 10
76.25
 20
141.819177
 11
76.25
 21
286.819177
  0
LINE
  5
4F
100
AcDbEntity
  8
M2
  6
DASHDOT
370
25
 62
     4
100
AcDbLine
 10
76.25
 20
286.819177
 11
6.25
 21
286.819177
  0
LINE
  5
50
100
AcDbEntity
  8
M2
  6
DASHDOT
370
25
 62
     4
100
AcDbLine
 10
6.25
 20
286.819177
 11
6.25
 21
141.819177
  0
LINE
  5
51
100
AcDbEntity
  8
M2
  6
DASHDOT
370
25
 62
     4
100
AcDbLine
 10
-2.842171E-014
 20
214.319177
 11
82.5
 21
214.319177
  0
LINE
  5
52
100
AcDbEntity
  8
M2
  6
DASHDOT
370
25
 62
     4
100
AcDbLine
 10
41.25
 20
298.859553
 11
41.25
 21
131.295374
  0
LINE
  5
53
100
AcDbEntity
  8
M2
  6
CONTINUOUS
370
25
 62
     4
100
AcDbLine
 10
6.25
 20
408.696263
 11
76.25
 21
408.696263
  0
LINE
  5
54
100
AcDbEntity
  8
M2
  6
CONTINUOUS
370
25
 62
     4
100
AcDbLine
 10
76.25
 20
398.696263
 11
76.25
 21
543.696263
  0
LINE
  5
55
100
AcDbEntity
  8
M2
  6
CONTINUOUS
370
25
 62
     4
100
AcDbLine
 10
76.25
 20
533.696263
 11
6.25
 21
533.696263
  0
LINE
  5
56
100
AcDbEntity
  8
M2
  6
CONTINUOUS
370
25
 62
     4
100
AcDbLine
 10
6.25
 20
543.696263
 11
6.25
 21
398.696263
  0
LINE
  5
57
100
AcDbEntity
  8
M2
  6
DASHDOT
370
25
 62
     4
100
AcDbLine
 10
-2.842171E-014
 20
471.196263
 11
82.5
 21
471.196263
  0
LINE
  5
58
100
AcDbEntity
  8
M2
  6
CONTINUOUS
370
25
 62
     4
100
AcDbLine
 10
20.0
 20
533.696202
 11
20.0
 21
553.696202
  0
LINE
  5
59
100
AcDbEntity
  8
M2
  6
CONTINUOUS
370
25
 62
     4
100
AcDbLine
 10
20.0
 20
553.696202
 11
10.0
 21
553.696202
  0
LINE
  5
5A
100
AcDbEntity
  8
M2
  6
CONTINUOUS
370
25
 62
     4
100
AcDbLine
 10
10.0
 20
553.696202
 11
10.0
 21
533.696202
  0
CIRCLE
  5
5B
100
AcDbEntity
  8
M2
  6
CONTINUOUS
370
25
 62
     4
100
AcDbCircle
 10
15.0
 20
539.946202
 40
1.687498
  0
ARC
  5
5C
100
AcDbEntity
  8
M2
  6
CONTINUOUS
370
25
 62
     4
100
AcDbCircle
 10
15.0
 20
547.946141
 40
1.687498
100
AcDbArc
 50
180.0
 51
360.0
  0
ARC
  5
5D
100
AcDbEntity
  8
M2
  6
CONTINUOUS
370
25
 62
     4
100
AcDbCircle
 10
15.0
 20
549.946141
 40
1.687498
100
AcDbArc
 50
0.0
 51
180.0
  0
LINE
  5
5E
100
AcDbEntity
  8
M2
  6
CONTINUOUS
370
25
 62
     4
100
AcDbLine
 10
16.6875
 20
549.946141
 11
16.6875
 21
547.946141
  0
LINE
  5
5F
100
AcDbEntity
  8
M2
  6
CONTINUOUS
370
25
 62
     4
100
AcDbLine
 10
13.3125
 20
549.946141
 11
13.3125
 21
547.946141
  0
LINE
  5
60
100
AcDbEntity
  8
M2
  6
CONTINUOUS
370
25
 62
     4
100
AcDbLine
 10
37.5
 20
533.696202
 11
37.5
 21
553.696202
  0
LINE
  5
61
100
AcDbEntity
  8
M2
  6
CONTINUOUS
370
25
 62
     4
100
AcDbLine
 10
37.5
 20
553.696202
 11
27.5
 21
553.696202
  0
LINE
  5
62
100
AcDbEntity
  8
M2
  6
CONTINUOUS
370
25
 62
     4
100
AcDbLine
 10
27.5
 20
553.696202
 11
27.5
 21
533.696202
  0
CIRCLE
  5
63
100
AcDbEntity
  8
M2
  6
CONTINUOUS
370
25
 62
     4
100
AcDbCircle
 10
32.5
 20
539.946202
 40
1.687498
  0
ARC
  5
64
100
AcDbEntity
  8
M2
  6
CONTINUOUS
370
25
 62
     4
100
AcDbCircle
 10
32.5
 20
547.946141
 40
1.687498
100
AcDbArc
 50
180.0
 51
360.0
  0
ARC
  5
65
100
AcDbEntity
  8
M2
  6
CONTINUOUS
370
25
 62
     4
100
AcDbCircle
 10
32.5
 20
549.946141
 40
1.687498
100
AcDbArc
 50
0.0
 51
180.0
  0
LINE
  5
66
100
AcDbEntity
  8
M2
  6
CONTINUOUS
370
25
 62
     4
100
AcDbLine
 10
34.1875
 20
549.946141
 11
34.1875
 21
547.946141
  0
LINE
  5
67
100
AcDbEntity
  8
M2
  6
CONTINUOUS
370
25
 62
     4
100
AcDbLine
 10
30.8125
 20
549.946141
 11
30.8125
 21
547.946141
  0
LINE
  5
68
100
AcDbEntity
  8
M2
  6
CONTINUOUS
370
25
 62
     4
100
AcDbLine
 10
55.0
 20
533.696202
 11
55.0
 21
553.696202
  0
LINE
  5
69
100
AcDbEntity
  8
M2
  6
CONTINUOUS
370
25
 62
     4
100
AcDbLine
 10
55.0
 20
553.696202
 11
45.0
 21
553.696202
  0
LINE
  5
6A
100
AcDbEntity
  8
M2
  6
CONTINUOUS
370
25
 62
     4
100
AcDbLine
 10
45.0
 20
553.696202
 11
45.0
 21
533.696202
  0
CIRCLE
  5
6B
100
AcDbEntity
  8
M2
  6
CONTINUOUS
370
25
 62
     4
100
AcDbCircle
 10
50.0
 20
539.946202
 40
1.687498
  0
ARC
  5
6C
100
AcDbEntity
  8
M2
  6
CONTINUOUS
370
25
 62
     4
100
AcDbCircle
 10
50.0
 20
547.946141
 40
1.687498
100
AcDbArc
 50
180.0
 51
360.0
  0
ARC
  5
6D
100
AcDbEntity
  8
M2
  6
CONTINUOUS
370
25
 62
     4
100
AcDbCircle
 10
50.0
 20
549.946141
 40
1.687498
100
AcDbArc
 50
0.0
 51
180.0
  0
LINE
  5
6E
100
AcDbEntity
  8
M2
  6
CONTINUOUS
370
25
 62
     4
100
AcDbLine
 10
51.6875
 20
549.946141
 11
51.6875
 21
547.946141
  0
LINE
  5
6F
100
AcDbEntity
  8
M2
  6
CONTINUOUS
370
25
 62
     4
100
AcDbLine
 10
48.3125
 20
549.946141
 11
48.3125
 21
547.946141
  0
LINE
  5
70
100
AcDbEntity
  8
M2
  6
CONTINUOUS
370
25
 62
     4
100
AcDbLine
 10
20.0
 20
408.696324
 11
20.0
 21
388.696324
  0
LINE
  5
71
100
AcDbEntity
  8
M2
  6
CONTINUOUS
370
25
 62
     4
100
AcDbLine
 10
20.0
 20
388.696324
 11
10.0
 21
388.696324
  0
LINE
  5
72
100
AcDbEntity
  8
M2
  6
CONTINUOUS
370
25
 62
     4
100
AcDbLine
 10
10.0
 20
388.696324
 11
10.0
 21
408.696324
  0
CIRCLE
  5
73
100
AcDbEntity
  8
M2
  6
CONTINUOUS
370
25
 62
     4
100
AcDbCircle
 10
15.0
 20
402.446324
 40
1.687498
  0
ARC
  5
74
100
AcDbEntity
  8
M2
  6
CONTINUOUS
370
25
 62
     4
100
AcDbCircle
 10
15.0
 20
394.446385
 40
1.687498
100
AcDbArc
 50
0.0
 51
179.997928
  0
ARC
  5
75
100
AcDbEntity
  8
M2
  6
CONTINUOUS
370
25
 62
     4
100
AcDbCircle
 10
15.0
 20
392.446385
 40
1.687498
100
AcDbArc
 50
179.997928
 51
360.0
  0
LINE
  5
76
100
AcDbEntity
  8
M2
  6
CONTINUOUS
370
25
 62
     4
100
AcDbLine
 10
16.6875
 20
392.446385
 11
16.6875
 21
394.446385
  0
LINE
  5
77
100
AcDbEntity
  8
M2
  6
CONTINUOUS
370
25
 62
     4
100
AcDbLine
 10
13.3125
 20
392.446385
 11
13.3125
 21
394.446385
  0
LINE
  5
78
100
AcDbEntity
  8
M2
  6
CONTINUOUS
370
25
 62
     4
100
AcDbLine
 10
37.5
 20
408.696324
 11
37.5
 21
388.696324
  0
LINE
  5
79
100
AcDbEntity
  8
M2
  6
CONTINUOUS
370
25
 62
     4
100
AcDbLine
 10
37.5
 20
388.696324
 11
27.5
 21
388.696324
  0
LINE
  5
7A
100
AcDbEntity
  8
M2
  6
CONTINUOUS
370
25
 62
     4
100
AcDbLine
 10
27.5
 20
388.696324
 11
27.5
 21
408.696324
  0
CIRCLE
  5
7B
100
AcDbEntity
  8
M2
  6
CONTINUOUS
370
25
 62
     4
100
AcDbCircle
 10
32.5
 20
402.446324
 40
1.687498
  0
ARC
  5
7C
100
AcDbEntity
  8
M2
  6
CONTINUOUS
370
25
 62
     4
100
AcDbCircle
 10
32.5
 20
394.446385
 40
1.687498
100
AcDbArc
 50
0.0
 51
179.997928
  0
ARC
  5
7D
100
AcDbEntity
  8
M2
  6
CONTINUOUS
370
25
 62
     4
100
AcDbCircle
 10
32.5
 20
392.446385
 40
1.687498
100
AcDbArc
 50
179.997928
 51
360.0
  0
LINE
  5
7E
100
AcDbEntity
  8
M2
  6
CONTINUOUS
370
25
 62
     4
100
AcDbLine
 10
34.1875
 20
392.446385
 11
34.1875
 21
394.446385
  0
LINE
  5
7F
100
AcDbEntity
  8
M2
  6
CONTINUOUS
370
25
 62
     4
100
AcDbLine
 10
30.8125
 20
392.446385
 11
30.8125
 21
394.446385
  0
LINE
  5
80
100
AcDbEntity
  8
M2
  6
CONTINUOUS
370
25
 62
     4
100
AcDbLine
 10
55.0
 20
408.696324
 11
55.0
 21
388.696324
  0
LINE
  5
81
100
AcDbEntity
  8
M2
  6
CONTINUOUS
370
25
 62
     4
100
AcDbLine
 10
55.0
 20
388.696324
 11
45.0
 21
388.696324
  0
LINE
  5
82
100
AcDbEntity
  8
M2
  6
CONTINUOUS
370
25
 62
     4
100
AcDbLine
 10
45.0
 20
388.696324
 11
45.0
 21
408.696324
  0
CIRCLE
  5
83
100
AcDbEntity
  8
M2
  6
CONTINUOUS
370
25
 62
     4
100
AcDbCircle
 10
50.0
 20
402.446324
 40
1.687498
  0
ARC
  5
84
100
AcDbEntity
  8
M2
  6
CONTINUOUS
370
25
 62
     4
100
AcDbCircle
 10
50.0
 20
394.446385
 40
1.687498
100
AcDbArc
 50
0.0
 51
179.997928
  0
ARC
  5
85
100
AcDbEntity
  8
M2
  6
CONTINUOUS
370
25
 62
     4
100
AcDbCircle
 10
50.0
 20
392.446385
 40
1.687498
100
AcDbArc
 50
179.997928
 51
360.0
  0
LINE
  5
86
100
AcDbEntity
  8
M2
  6
CONTINUOUS
370
25
 62
     4
100
AcDbLine
 10
51.6875
 20
392.446385
 11
51.6875
 21
394.446385
  0
LINE
  5
87
100
AcDbEntity
  8
M2
  6
CONTINUOUS
370
25
 62
     4
100
AcDbLine
 10
48.3125
 20
392.446385
 11
48.3125
 21
394.446385
  0
LINE
  5
88
100
AcDbEntity
  8
M2
  6
DIVIDE
370
25
 62
     4
100
AcDbLine
 10
18.936248
 20
533.696263
 11
19.486251
 21
533.696263
  0
LINE
  5
89
100
AcDbEntity
  8
M2
  6
DIVIDE
370
25
 62
     4
100
AcDbLine
 10
36.436248
 20
533.696263
 11
36.986251
 21
533.696263
  0
CIRCLE
  5
8A
100
AcDbEntity
  8
M2
  6
CONTINUOUS
370
25
 62
     4
100
AcDbCircle
 10
67.5
 20
402.446324
 40
1.687498
  0
LINE
  5
8B
100
AcDbEntity
  8
M2
  6
CONTINUOUS
370
25
 62
     4
100
AcDbLine
 10
69.1875
 20
392.446385
 11
69.1875
 21
394.446385
  0
ARC
  5
8C
100
AcDbEntity
  8
M2
  6
CONTINUOUS
370
25
 62
     4
100
AcDbCircle
 10
67.5
 20
392.446385
 40
1.687498
100
AcDbArc
 50
180.0
 51
360.002072
  0
ARC
  5
8D
100
AcDbEntity
  8
M2
  6
CONTINUOUS
370
25
 62
     4
100
AcDbCircle
 10
67.5
 20
394.446385
 40
1.687498
100
AcDbArc
 50
0.002072
 51
180.0
  0
LINE
  5
8E
100
AcDbEntity
  8
M2
  6
CONTINUOUS
370
25
 62
     4
100
AcDbLine
 10
62.5
 20
388.696324
 11
72.5
 21
388.696324
  0
LINE
  5
8F
100
AcDbEntity
  8
M2
  6
CONTINUOUS
370
25
 62
     4
100
AcDbLine
 10
62.5
 20
408.696324
 11
62.5
 21
388.696324
  0
LINE
  5
90
100
AcDbEntity
  8
M2
  6
CONTINUOUS
370
25
 62
     4
100
AcDbLine
 10
65.8125
 20
392.446385
 11
65.8125
 21
394.446385
  0
LINE
  5
91
100
AcDbEntity
  8
M2
  6
CONTINUOUS
370
25
 62
     4
100
AcDbLine
 10
72.5
 20
388.696324
 11
72.5
 21
408.696324
  0
CIRCLE
  5
92
100
AcDbEntity
  8
M2
  6
CONTINUOUS
370
25
 62
     4
100
AcDbCircle
 10
67.5
 20
539.946202
 40
1.687498
  0
LINE
  5
93
100
AcDbEntity
  8
M2
  6
CONTINUOUS
370
25
 62
     4
100
AcDbLine
 10
69.1875
 20
549.946141
 11
69.1875
 21
547.946141
  0
ARC
  5
94
100
AcDbEntity
  8
M2
  6
CONTINUOUS
370
25
 62
     4
100
AcDbCircle
 10
67.5
 20
549.946141
 40
1.687498
100
AcDbArc
 50
0.0
 51
180.0
  0
ARC
  5
95
100
AcDbEntity
  8
M2
  6
CONTINUOUS
370
25
 62
     4
100
AcDbCircle
 10
67.5
 20
547.946141
 40
1.687498
100
AcDbArc
 50
180.0
 51
360.0
  0
LINE
  5
96
100
AcDbEntity
  8
M2
  6
CONTINUOUS
370
25
 62
     4
100
AcDbLine
 10
62.5
 20
553.696202
 11
72.5
 21
553.696202
  0
LINE
  5
97
100
AcDbEntity
  8
M2
  6
CONTINUOUS
370
25
 62
     4
100
AcDbLine
 10
62.5
 20
533.696202
 11
62.5
 21
553.696202
  0
LINE
  5
98
100
AcDbEntity
  8
M2
  6
CONTINUOUS
370
25
 62
     4
100
AcDbLine
 10
65.8125
 20
549.946141
 11
65.8125
 21
547.946141
  0
LINE
  5
99
100
AcDbEntity
  8
M2
  6
CONTINUOUS
370
25
 62
     4
100
AcDbLine
 10
72.5
 20
553.696202
 11
72.5
 21
533.696202
  0
LINE
  5
9A
100
AcDbEntity
  8
M2
  6
DASHDOT
370
25
 62
     4
100
AcDbLine
 10
41.25
 20
561.382284
 11
41.25
 21
382.205942
  0
LINE
  5
9B
100
AcDbEntity
  8
M2
  6
CONTINUOUS
370
25
 62
     4
100
AcDbLine
 10
6.250122
 20
515.071263
 11
76.249939
 21
515.071263
  0
LINE
  5
9C
100
AcDbEntity
  8
M2
  6
CONTINUOUS
370
25
 62
     4
100
AcDbLine
 10
6.250122
 20
471.696263
 11
76.249939
 21
471.696263
  0
LINE
  5
9D
100
AcDbEntity
  8
M2
  6
CONTINUOUS
370
25
 62
     4
100
AcDbLine
 10
40.5
 20
511.321324
 11
24.5
 21
511.321263
  0
ARC
  5
9E
100
AcDbEntity
  8
M2
  6
CONTINUOUS
370
25
 62
     4
100
AcDbCircle
 10
24.5
 20
509.571263
 40
1.749984
100
AcDbArc
 50
89.999875
 51
180.0
  0
LINE
  5
9F
100
AcDbEntity
  8
M2
  6
CONTINUOUS
370
25
 62
     4
100
AcDbLine
 10
22.75
 20
509.571263
 11
22.75
 21
489.321324
  0
ARC
  5
A0
100
AcDbEntity
  8
M2
  6
CONTINUOUS
370
25
 62
     4
100
AcDbCircle
 10
24.5
 20
489.321324
 40
1.749984
100
AcDbArc
 50
180.0
 51
270.0
  0
LINE
  5
A1
100
AcDbEntity
  8
M2
  6
CONTINUOUS
370
25
 62
     4
100
AcDbLine
 10
24.5
 20
487.571324
 11
40.5
 21
487.571324
  0
ARC
  5
A2
100
AcDbEntity
  8
M2
  6
CONTINUOUS
370
25
 62
     4
100
AcDbCircle
 10
40.5
 20
489.321324
 40
1.749984
100
AcDbArc
 50
270.0
 51
360.0
  0
LINE
  5
A3
100
AcDbEntity
  8
M2
  6
CONTINUOUS
370
25
 62
     4
100
AcDbLine
 10
42.25
 20
489.321263
 11
42.25
 21
509.571202
  0
ARC
  5
A4
100
AcDbEntity
  8
M2
  6
CONTINUOUS
370
25
 62
     4
100
AcDbCircle
 10
40.5
 20
509.571263
 40
1.749984
100
AcDbArc
 50
0.0
 51
90.0
  0
LINE
  5
A5
100
AcDbEntity
  8
M2
  6
CONTINUOUS
370
25
 62
     4
100
AcDbLine
 10
27.0
 20
507.53629
 11
38.0
 21
507.53629
  0
LINE
  5
A6
100
AcDbEntity
  8
M2
  6
CONTINUOUS
370
25
 62
     4
100
AcDbLine
 10
27.0
 20
504.363805
 11
38.0
 21
504.363805
  0
LINE
  5
A7
100
AcDbEntity
  8
M2
  6
CONTINUOUS
370
25
 62
     4
100
AcDbLine
 10
38.0
 20
493.446263
 11
38.0
 21
507.53629
  0
LINE
  5
A8
100
AcDbEntity
  8
M2
  6
CONTINUOUS
370
25
 62
     4
100
AcDbLine
 10
27.0
 20
493.446324
 11
27.0
 21
507.53629
  0
LINE
  5
A9
100
AcDbEntity
  8
M2
  6
CONTINUOUS
370
25
 62
     4
100
AcDbLine
 10
27.25
 20
493.196324
 11
37.75
 21
493.196324
  0
LINE
  5
AA
100
AcDbEntity
  8
M2
  6
DASHDOT
370
25
 62
     4
100
AcDbLine
 10
17.760119
 20
499.446324
 11
47.064825
 21
499.446324
  0
LINE
  5
AB
100
AcDbEntity
  8
M2
  6
DASHDOT
370
25
 62
     4
100
AcDbLine
 10
32.500061
 20
483.741124
 11
32.500061
 21
517.045059
  0
LINE
  5
AC
100
AcDbEntity
  8
M2
  6
CONTINUOUS
370
25
 62
     4
100
AcDbLine
 10
6.25
 20
543.696263
 11
10.0
 21
543.696263
  0
LINE
  5
AD
100
AcDbEntity
  8
M2
  6
CONTINUOUS
370
25
 62
     4
100
AcDbLine
 10
6.25
 20
398.696263
 11
10.0
 21
398.696263
  0
LINE
  5
AE
100
AcDbEntity
  8
M2
  6
CONTINUOUS
370
25
 62
     4
100
AcDbLine
 10
20.0
 20
543.696263
 11
27.5
 21
543.696263
  0
LINE
  5
AF
100
AcDbEntity
  8
M2
  6
CONTINUOUS
370
25
 62
     4
100
AcDbLine
 10
37.5
 20
543.696263
 11
45.0
 21
543.696263
  0
LINE
  5
B0
100
AcDbEntity
  8
M2
  6
CONTINUOUS
370
25
 62
     4
100
AcDbLine
 10
55.0
 20
543.696263
 11
62.5
 21
543.696263
  0
LINE
  5
B1
100
AcDbEntity
  8
M2
  6
CONTINUOUS
370
25
 62
     4
100
AcDbLine
 10
72.5
 20
543.696263
 11
76.25
 21
543.696263
  0
LINE
  5
B2
100
AcDbEntity
  8
M2
  6
CONTINUOUS
370
25
 62
     4
100
AcDbLine
 10
20.0
 20
398.696263
 11
27.5
 21
398.696263
  0
LINE
  5
B3
100
AcDbEntity
  8
M2
  6
CONTINUOUS
370
25
 62
     4
100
AcDbLine
 10
37.5
 20
398.696263
 11
45.0
 21
398.696263
  0
LINE
  5
B4
100
AcDbEntity
  8
M2
  6
CONTINUOUS
370
25
 62
     4
100
AcDbLine
 10
55.0
 20
398.696263
 11
62.5
 21
398.696263
  0
LINE
  5
B5
100
AcDbEntity
  8
M2
  6
CONTINUOUS
370
25
 62
     4
100
AcDbLine
 10
72.5
 20
398.696263
 11
76.25
 21
398.696263
  0
LINE
  5
B6
100
AcDbEntity
  8
M2
  6
CONTINUOUS
370
25
 62
     4
100
AcDbLine
 10
71.125
 20
442.321202
 11
71.125
 21
453.071202
  0
ARC
  5
B7
100
AcDbEntity
  8
M2
  6
CONTINUOUS
370
25
 62
     4
100
AcDbCircle
 10
70.875
 20
442.321263
 40
0.25
100
AcDbArc
 50
269.999126
 51
359.986012
  0
LINE
  5
B8
100
AcDbEntity
  8
M2
  6
CONTINUOUS
370
25
 62
     4
100
AcDbLine
 10
52.625
 20
442.071263
 11
70.875
 21
442.071263
  0
ARC
  5
B9
100
AcDbEntity
  8
M2
  6
CONTINUOUS
370
25
 62
     4
100
AcDbCircle
 10
70.875
 20
453.071202
 40
0.25
100
AcDbArc
 50
0.0
 51
90.0
  0
LINE
  5
BA
100
AcDbEntity
  8
M2
  6
CONTINUOUS
370
25
 62
     4
100
AcDbLine
 10
70.875
 20
453.321263
 11
52.625
 21
453.321202
  0
LINE
  5
BB
100
AcDbEntity
  8
M2
  6
DASHDOT
370
25
 62
     4
100
AcDbLine
 10
61.75
 20
438.928001
 11
61.75
 21
455.863722
  0
LINE
  5
BC
100
AcDbEntity
  8
M2
  6
CONTINUOUS
370
25
 62
     4
100
AcDbLine
 10
52.375
 20
453.071202
 11
52.375
 21
442.321263
  0
ARC
  5
BD
100
AcDbEntity
  8
M2
  6
CONTINUOUS
370
25
 62
     4
100
AcDbCircle
 10
52.625
 20
453.071202
 40
0.25
100
AcDbArc
 50
90.0
 51
180.0
  0
LINE
  5
BE
100
AcDbEntity
  8
M2
  6
DASHDOT
370
25
 62
     4
100
AcDbLine
 10
48.485255
 20
447.696263
 11
73.716022
 21
447.696263
  0
ARC
  5
BF
100
AcDbEntity
  8
M2
  6
CONTINUOUS
370
25
 62
     4
100
AcDbCircle
 10
52.625
 20
442.321263
 40
0.25
100
AcDbArc
 50
179.999126
 51
269.999126
  0
LINE
  5
C0
100
AcDbEntity
  8
M2
  6
DASHDOT
370
25
 62
     4
100
AcDbLine
 10
165.574711
 20
141.819177
 11
235.574711
 21
141.819177
  0
LINE
  5
C1
100
AcDbEntity
  8
M2
  6
DASHDOT
370
25
 62
     4
100
AcDbLine
 10
235.574711
 20
141.819177
 11
235.574711
 21
286.819177
  0
LINE
  5
C2
100
AcDbEntity
  8
M2
  6
DASHDOT
370
25
 62
     4
100
AcDbLine
 10
235.574711
 20
286.819177
 11
165.574711
 21
286.819177
  0
LINE
  5
C3
100
AcDbEntity
  8
M2
  6
DASHDOT
370
25
 62
     4
100
AcDbLine
 10
165.574711
 20
286.819177
 11
165.574711
 21
141.819177
  0
LINE
  5
C4
100
AcDbEntity
  8
M2
  6
DASHDOT
370
25
 62
     4
100
AcDbLine
 10
159.324711
 20
214.319177
 11
241.824711
 21
214.319177
  0
LINE
  5
C5
100
AcDbEntity
  8
M2
  6
DASHDOT
370
25
 62
     4
100
AcDbLine
 10
200.574711
 20
299.782535
 11
200.574711
 21
128.526425
  0
LINE
  5
C6
100
AcDbEntity
  8
M2
  6
CONTINUOUS
370
25
 62
     4
100
AcDbLine
 10
214.434321
 20
465.196145
 11
238.684321
 21
465.196145
  0
LINE
  5
C7
100
AcDbEntity
  8
M2
  6
CONTINUOUS
370
25
 62
     4
100
AcDbLine
 10
238.684321
 20
465.196145
 11
238.684321
 21
533.696084
  0
LINE
  5
C8
100
AcDbEntity
  8
M2
  6
CONTINUOUS
370
25
 62
     4
100
AcDbLine
 10
238.684321
 20
533.696145
 11
214.434321
 21
533.696145
  0
LINE
  5
C9
100
AcDbEntity
  8
M2
  6
CONTINUOUS
370
25
 62
     4
100
AcDbLine
 10
211.184261
 20
511.321145
 11
211.184261
 21
487.571145
  0
LINE
  5
CA
100
AcDbEntity
  8
M2
  6
CONTINUOUS
370
25
 62
     4
100
AcDbLine
 10
212.934261
 20
471.696145
 11
214.434261
 21
471.696145
  0
LINE
  5
CB
100
AcDbEntity
  8
M2
  6
CONTINUOUS
370
25
 62
     4
100
AcDbLine
 10
214.434261
 20
471.696145
 11
214.434321
 21
465.196145
  0
LINE
  5
CC
100
AcDbEntity
  8
M2
  6
CONTINUOUS
370
25
 62
     4
100
AcDbLine
 10
211.184261
 20
487.571145
 11
212.934261
 21
487.571145
  0
LINE
  5
CD
100
AcDbEntity
  8
M2
  6
CONTINUOUS
370
25
 62
     4
100
AcDbLine
 10
212.934261
 20
489.446145
 11
212.934261
 21
408.696206
  0
LINE
  5
CE
100
AcDbEntity
  8
M2
  6
CONTINUOUS
370
25
 62
     4
100
AcDbLine
 10
214.434321
 20
533.696145
 11
214.434321
 21
471.696145
  0
LINE
  5
CF
100
AcDbEntity
  8
M2
  6
CONTINUOUS
370
25
 62
     4
100
AcDbLine
 10
214.434261
 20
515.071145
 11
212.934261
 21
515.071145
  0
LINE
  5
D0
100
AcDbEntity
  8
M2
  6
CONTINUOUS
370
25
 62
     4
100
AcDbLine
 10
212.934261
 20
515.071145
 11
212.934261
 21
487.571145
  0
LINE
  5
D1
100
AcDbEntity
  8
M2
  6
CONTINUOUS
370
25
 62
     4
100
AcDbLine
 10
212.934261
 20
511.321145
 11
211.184261
 21
511.321145
  0
LINE
  5
D2
100
AcDbEntity
  8
M2
  6
CONTINUOUS
370
25
 62
     4
100
AcDbLine
 10
211.184261
 20
507.338296
 11
211.184261
 21
503.746743
  0
LINE
  5
D3
100
AcDbEntity
  8
M2
  6
CONTINUOUS
370
25
 62
     4
100
AcDbLine
 10
230.934321
 20
533.696145
 11
230.934321
 21
533.696084
  0
LINE
  5
D4
100
AcDbEntity
  8
M2
  6
CONTINUOUS
370
25
 62
     4
100
AcDbLine
 10
229.934321
 20
553.696145
 11
229.934321
 21
533.696145
  0
LINE
  5
D5
100
AcDbEntity
  8
M2
  6
CONTINUOUS
370
25
 62
     4
100
AcDbLine
 10
228.309321
 20
553.696145
 11
228.309321
 21
533.696145
  0
LINE
  5
D6
100
AcDbEntity
  8
M2
  6
CONTINUOUS
370
25
 62
     4
100
AcDbLine
 10
228.309321
 20
553.696145
 11
229.934321
 21
553.696145
  0
LINE
  5
D7
100
AcDbEntity
  8
M2
  6
CONTINUOUS
370
25
 62
     4
100
AcDbLine
 10
227.6842
 20
408.696206
 11
227.6842
 21
388.696206
  0
LINE
  5
D8
100
AcDbEntity
  8
M2
  6
CONTINUOUS
370
25
 62
     4
100
AcDbLine
 10
226.0592
 20
408.696206
 11
226.0592
 21
388.696206
  0
LINE
  5
D9
100
AcDbEntity
  8
M2
  6
CONTINUOUS
370
25
 62
     4
100
AcDbLine
 10
226.0592
 20
388.696206
 11
227.6842
 21
388.696206
  0
ARC
  5
DA
100
AcDbEntity
  8
M2
  6
DASHDOT
370
25
 62
     4
100
AcDbCircle
 10
227.934321
 20
497.571145
 40
24.499939
100
AcDbArc
 50
160.000458
 51
180.0
  0
LINE
  5
DB
100
AcDbEntity
  8
M2
  6
CONTINUOUS
370
25
 62
     4
100
AcDbLine
 10
205.488887
 20
507.53611
 11
204.334529
 21
504.364602
  0
LINE
  5
DC
100
AcDbEntity
  8
M2
  6
CONTINUOUS
370
25
 62
     4
100
AcDbLine
 10
205.488887
 20
507.536171
 11
211.184261
 21
505.463296
  0
LINE
  5
DD
100
AcDbEntity
  8
M2
  6
CONTINUOUS
370
25
 62
     4
100
AcDbLine
 10
204.334529
 20
504.364663
 11
211.184261
 21
501.871682
  0
LINE
  5
DE
100
AcDbEntity
  8
M2
  6
CONTINUOUS
370
25
 62
     4
100
AcDbLine
 10
212.934261
 20
408.696206
 11
243.184383
 21
408.696206
  0
LINE
  5
DF
100
AcDbEntity
  8
M2
  6
CONTINUOUS
370
25
 62
     4
100
AcDbLine
 10
243.184383
 20
398.696206
 11
248.184383
 21
398.696206
  0
LINE
  5
E0
100
AcDbEntity
  8
M2
  6
CONTINUOUS
370
25
 62
     4
100
AcDbLine
 10
248.184383
 20
398.696206
 11
248.184383
 21
543.696206
  0
LINE
  5
E1
100
AcDbEntity
  8
M2
  6
CONTINUOUS
370
25
 62
     4
100
AcDbLine
 10
248.184383
 20
543.696206
 11
243.184383
 21
543.696206
  0
LINE
  5
E2
100
AcDbEntity
  8
M2
  6
CONTINUOUS
370
25
 62
     4
100
AcDbLine
 10
243.184383
 20
543.696206
 11
243.184383
 21
398.696206
  0
LINE
  5
E3
100
AcDbEntity
  8
M2
  6
DASHDOT
370
25
 62
     4
100
AcDbLine
 10
188.832519
 20
471.196202
 11
260.684383
 21
471.196202
  0
LINE
  5
E4
100
AcDbEntity
  8
M2
  6
CONTINUOUS
370
25
 62
     4
100
AcDbLine
 10
238.684383
 20
465.321084
 11
243.184383
 21
465.321084
  0
LINE
  5
E5
100
AcDbEntity
  8
M2
  6
CONTINUOUS
370
25
 62
     4
100
AcDbLine
 10
243.184383
 20
465.321084
 11
243.184383
 21
472.821084
  0
LINE
  5
E6
100
AcDbEntity
  8
M2
  6
CONTINUOUS
370
25
 62
     4
100
AcDbLine
 10
243.184383
 20
472.821084
 11
238.684383
 21
472.821084
  0
LINE
  5
E7
100
AcDbEntity
  8
M2
  6
CONTINUOUS
370
25
 62
     4
100
AcDbLine
 10
238.684383
 20
472.821084
 11
238.684383
 21
465.321084
  0
LINE
  5
E8
100
AcDbEntity
  8
M2
  6
CONTINUOUS
370
25
 62
     4
100
AcDbLine
 10
238.684383
 20
527.320962
 11
243.184383
 21
527.320962
  0
LINE
  5
E9
100
AcDbEntity
  8
M2
  6
CONTINUOUS
370
25
 62
     4
100
AcDbLine
 10
243.184383
 20
527.320962
 11
243.184383
 21
532.320962
  0
LINE
  5
EA
100
AcDbEntity
  8
M2
  6
CONTINUOUS
370
25
 62
     4
100
AcDbLine
 10
243.184383
 20
532.320962
 11
238.684383
 21
532.320962
  0
LINE
  5
EB
100
AcDbEntity
  8
M2
  6
CONTINUOUS
370
25
 62
     4
100
AcDbLine
 10
238.684383
 20
532.320962
 11
238.684383
 21
527.320962
  0
LINE
  5
EC
100
AcDbEntity
  8
M2
  6
CONTINUOUS
370
25
 62
     4
100
AcDbLine
 10
212.684261
 20
442.071202
 11
212.934261
 21
442.071202
  0
LINE
  5
ED
100
AcDbEntity
  8
M2
  6
CONTINUOUS
370
25
 62
     4
100
AcDbLine
 10
212.934261
 20
453.321202
 11
212.684261
 21
453.321202
  0
LINE
  5
EE
100
AcDbEntity
  8
M2
  6
CONTINUOUS
370
25
 62
     4
100
AcDbLine
 10
212.684261
 20
453.321202
 11
212.684261
 21
442.071202
  0
LINE
  5
EF
100
AcDbEntity
  8
M2
  6
DASHDOT
370
25
 62
     4
100
AcDbLine
 10
208.269881
 20
447.696202
 11
216.142417
 21
447.696202
  0
LINE
  5
F0
100
AcDbEntity
  8
M2
  6
DASHDOT
370
25
 62
     4
100
AcDbLine
 10
203.506236
 20
499.446145
 11
222.073175
 21
499.446145
  0
CIRCLE
  5
F1
100
AcDbEntity
  8
M3
  6
CONTINUOUS
370
25
100
AcDbCircle
 10
23.75
 20
539.946263
 40
1.25
  0
CIRCLE
  5
F2
100
AcDbEntity
  8
M3
  6
CONTINUOUS
370
25
100
AcDbCircle
 10
58.75
 20
539.946263
 40
1.25
  0
CIRCLE
  5
F3
100
AcDbEntity
  8
M3
  6
CONTINUOUS
370
25
100
AcDbCircle
 10
58.75
 20
402.446263
 40
1.25
  0
CIRCLE
  5
F4
100
AcDbEntity
  8
M3
  6
CONTINUOUS
370
25
100
AcDbCircle
 10
23.75
 20
402.446263
 40
1.25
  0
LINE
  5
F5
100
AcDbEntity
  8
M3
  6
DASHDOT
370
25
100
AcDbLine
 10
17.5
 20
402.446263
 11
30.0
 21
402.446263
  0
LINE
  5
F6
100
AcDbEntity
  8
M3
  6
DASHDOT
370
25
100
AcDbLine
 10
23.75
 20
396.196263
 11
23.75
 21
408.696263
  0
LINE
  5
F7
100
AcDbEntity
  8
M3
  6
DASHDOT
370
25
100
AcDbLine
 10
52.5
 20
402.446263
 11
65.0
 21
402.446263
  0
LINE
  5
F8
100
AcDbEntity
  8
M3
  6
DASHDOT
370
25
100
AcDbLine
 10
58.75
 20
396.196263
 11
58.75
 21
408.696263
  0
LINE
  5
F9
100
AcDbEntity
  8
M3
  6
DASHDOT
370
25
100
AcDbLine
 10
52.5
 20
539.946263
 11
65.0
 21
539.946263
  0
LINE
  5
FA
100
AcDbEntity
  8
M3
  6
DASHDOT
370
25
100
AcDbLine
 10
58.75
 20
533.696263
 11
58.75
 21
546.196263
  0
LINE
  5
FB
100
AcDbEntity
  8
M3
  6
DASHDOT
370
25
100
AcDbLine
 10
17.5
 20
539.946263
 11
30.0
 21
539.946263
  0
LINE
  5
FC
100
AcDbEntity
  8
M3
  6
DASHDOT
370
25
100
AcDbLine
 10
23.75
 20
533.696263
 11
23.75
 21
546.196263
  0
LINE
  5
FD
100
AcDbEntity
  8
M3
  6
DASHDOT
370
25
100
AcDbLine
 10
243.184383
 20
542.196023
 11
243.184383
 21
537.696023
  0
LINE
  5
FE
100
AcDbEntity
  8
M3
  6
DASHDOT
370
25
100
AcDbLine
 10
239.110561
 20
539.946023
 11
248.184383
 21
539.946023
  0
LINE
  5
FF
100
AcDbEntity
  8
M3
  6
DASHDOT
370
25
100
AcDbLine
 10
243.184383
 20
400.196023
 11
243.184383
 21
404.696023
  0
LINE
  5
100
100
AcDbEntity
  8
M3
  6
DASHDOT
370
25
100
AcDbLine
 10
239.110561
 20
402.446023
 11
248.184383
 21
402.446023
  0
CIRCLE
  5
101
100
AcDbEntity
  8
M3
  6
CONTINUOUS
370
25
100
AcDbCircle
 10
23.75
 20
145.569177
 40
1.25
  0
CIRCLE
  5
102
100
AcDbEntity
  8
M3
  6
CONTINUOUS
370
25
100
AcDbCircle
 10
58.75
 20
145.569177
 40
1.25
  0
CIRCLE
  5
103
100
AcDbEntity
  8
M3
  6
CONTINUOUS
370
25
100
AcDbCircle
 10
58.75
 20
283.069116
 40
1.25
  0
CIRCLE
  5
104
100
AcDbEntity
  8
M3
  6
CONTINUOUS
370
25
100
AcDbCircle
 10
23.75
 20
283.069116
 40
1.25
  0
LINE
  5
105
100
AcDbEntity
  8
M3
  6
DASHDOT
370
25
100
AcDbLine
 10
17.5
 20
283.069116
 11
30.0
 21
283.069116
  0
LINE
  5
106
100
AcDbEntity
  8
M3
  6
DASHDOT
370
25
100
AcDbLine
 10
23.75
 20
276.819116
 11
23.75
 21
289.319116
  0
LINE
  5
107
100
AcDbEntity
  8
M3
  6
DASHDOT
370
25
100
AcDbLine
 10
52.5
 20
283.069116
 11
65.0
 21
283.069116
  0
LINE
  5
108
100
AcDbEntity
  8
M3
  6
DASHDOT
370
25
100
AcDbLine
 10
58.75
 20
276.819116
 11
58.75
 21
289.319116
  0
LINE
  5
109
100
AcDbEntity
  8
M3
  6
DASHDOT
370
25
100
AcDbLine
 10
52.5
 20
145.569177
 11
65.0
 21
145.569177
  0
LINE
  5
10A
100
AcDbEntity
  8
M3
  6
DASHDOT
370
25
100
AcDbLine
 10
58.75
 20
139.319177
 11
58.75
 21
151.819177
  0
LINE
  5
10B
100
AcDbEntity
  8
M3
  6
DASHDOT
370
25
100
AcDbLine
 10
17.5
 20
145.569177
 11
30.0
 21
145.569177
  0
LINE
  5
10C
100
AcDbEntity
  8
M3
  6
DASHDOT
370
25
100
AcDbLine
 10
23.75
 20
139.319177
 11
23.75
 21
151.819177
  0
LINE
  5
10D
100
AcDbEntity
  8
M4
  6
DASHDOT
370
25
 62
     2
100
AcDbLine
 10
50.0
 20
536.696202
 11
50.0
 21
543.196202
  0
LINE
  5
10E
100
AcDbEntity
  8
M4
  6
DASHDOT
370
25
 62
     2
100
AcDbLine
 10
46.75
 20
539.946202
 11
53.25
 21
539.946202
  0
LINE
  5
10F
100
AcDbEntity
  8
M4
  6
DASHDOT
370
25
 62
     2
100
AcDbLine
 10
46.75
 20
547.946141
 11
53.25
 21
547.946141
  0
LINE
  5
110
100
AcDbEntity
  8
M4
  6
DASHDOT
370
25
 62
     2
100
AcDbLine
 10
46.75
 20
549.946141
 11
53.25
 21
549.946141
  0
LINE
  5
111
100
AcDbEntity
  8
M4
  6
DASHDOT
370
25
 62
     2
100
AcDbLine
 10
50.0
 20
544.696141
 11
50.0
 21
552.813557
  0
LINE
  5
112
100
AcDbEntity
  8
M4
  6
DASHDOT
370
25
 62
     2
100
AcDbLine
 10
32.5
 20
536.696202
 11
32.5
 21
543.196202
  0
LINE
  5
113
100
AcDbEntity
  8
M4
  6
DASHDOT
370
25
 62
     2
100
AcDbLine
 10
29.25
 20
539.946202
 11
35.75
 21
539.946202
  0
LINE
  5
114
100
AcDbEntity
  8
M4
  6
DASHDOT
370
25
 62
     2
100
AcDbLine
 10
29.25
 20
547.946141
 11
35.75
 21
547.946141
  0
LINE
  5
115
100
AcDbEntity
  8
M4
  6
DASHDOT
370
25
 62
     2
100
AcDbLine
 10
29.25
 20
549.946141
 11
35.75
 21
549.946141
  0
LINE
  5
116
100
AcDbEntity
  8
M4
  6
DASHDOT
370
25
 62
     2
100
AcDbLine
 10
32.5
 20
544.696141
 11
32.5
 21
552.813557
  0
LINE
  5
117
100
AcDbEntity
  8
M4
  6
DASHDOT
370
25
 62
     2
100
AcDbLine
 10
15.0
 20
536.696202
 11
15.0
 21
543.196202
  0
LINE
  5
118
100
AcDbEntity
  8
M4
  6
DASHDOT
370
25
 62
     2
100
AcDbLine
 10
11.75
 20
539.946202
 11
18.25
 21
539.946202
  0
LINE
  5
119
100
AcDbEntity
  8
M4
  6
DASHDOT
370
25
 62
     2
100
AcDbLine
 10
11.75
 20
547.946141
 11
18.25
 21
547.946141
  0
LINE
  5
11A
100
AcDbEntity
  8
M4
  6
DASHDOT
370
25
 62
     2
100
AcDbLine
 10
11.75
 20
549.946141
 11
18.25
 21
549.946141
  0
LINE
  5
11B
100
AcDbEntity
  8
M4
  6
DASHDOT
370
25
 62
     2
100
AcDbLine
 10
15.0
 20
544.696141
 11
15.0
 21
552.813557
  0
LINE
  5
11C
100
AcDbEntity
  8
M4
  6
DASHDOT
370
25
 62
     2
100
AcDbLine
 10
50.0
 20
405.696324
 11
50.0
 21
399.196324
  0
LINE
  5
11D
100
AcDbEntity
  8
M4
  6
DASHDOT
370
25
 62
     2
100
AcDbLine
 10
46.75
 20
402.446324
 11
53.25
 21
402.446324
  0
LINE
  5
11E
100
AcDbEntity
  8
M4
  6
DASHDOT
370
25
 62
     2
100
AcDbLine
 10
46.75
 20
394.446385
 11
53.25
 21
394.446385
  0
LINE
  5
11F
100
AcDbEntity
  8
M4
  6
DASHDOT
370
25
 62
     2
100
AcDbLine
 10
46.75
 20
392.446385
 11
53.25
 21
392.446385
  0
LINE
  5
120
100
AcDbEntity
  8
M4
  6
DASHDOT
370
25
 62
     2
100
AcDbLine
 10
50.0
 20
397.696385
 11
50.0
 21
389.578969
  0
LINE
  5
121
100
AcDbEntity
  8
M4
  6
DASHDOT
370
25
 62
     2
100
AcDbLine
 10
32.5
 20
405.696324
 11
32.5
 21
399.196324
  0
LINE
  5
122
100
AcDbEntity
  8
M4
  6
DASHDOT
370
25
 62
     2
100
AcDbLine
 10
29.25
 20
402.446324
 11
35.75
 21
402.446324
  0
LINE
  5
123
100
AcDbEntity
  8
M4
  6
DASHDOT
370
25
 62
     2
100
AcDbLine
 10
29.25
 20
394.446385
 11
35.75
 21
394.446385
  0
LINE
  5
124
100
AcDbEntity
  8
M4
  6
DASHDOT
370
25
 62
     2
100
AcDbLine
 10
29.25
 20
392.446385
 11
35.75
 21
392.446385
  0
LINE
  5
125
100
AcDbEntity
  8
M4
  6
DASHDOT
370
25
 62
     2
100
AcDbLine
 10
32.5
 20
397.696385
 11
32.5
 21
389.578969
  0
LINE
  5
126
100
AcDbEntity
  8
M4
  6
DASHDOT
370
25
 62
     2
100
AcDbLine
 10
15.0
 20
405.696324
 11
15.0
 21
399.196324
  0
LINE
  5
127
100
AcDbEntity
  8
M4
  6
DASHDOT
370
25
 62
     2
100
AcDbLine
 10
11.75
 20
402.446324
 11
18.25
 21
402.446324
  0
LINE
  5
128
100
AcDbEntity
  8
M4
  6
DASHDOT
370
25
 62
     2
100
AcDbLine
 10
11.75
 20
394.446385
 11
18.25
 21
394.446385
  0
LINE
  5
129
100
AcDbEntity
  8
M4
  6
DASHDOT
370
25
 62
     2
100
AcDbLine
 10
11.75
 20
392.446385
 11
18.25
 21
392.446385
  0
LINE
  5
12A
100
AcDbEntity
  8
M4
  6
DASHDOT
370
25
 62
     2
100
AcDbLine
 10
15.0
 20
397.696385
 11
15.0
 21
389.578969
  0
LINE
  5
12B
100
AcDbEntity
  8
M4
  6
DASHDOT
370
25
 62
     2
100
AcDbLine
 10
70.75
 20
392.446385
 11
64.25
 21
392.446385
  0
LINE
  5
12C
100
AcDbEntity
  8
M4
  6
DASHDOT
370
25
 62
     2
100
AcDbLine
 10
67.5
 20
397.696385
 11
67.5
 21
389.578969
  0
LINE
  5
12D
100
AcDbEntity
  8
M4
  6
DASHDOT
370
25
 62
     2
100
AcDbLine
 10
70.75
 20
402.446324
 11
64.25
 21
402.446324
  0
LINE
  5
12E
100
AcDbEntity
  8
M4
  6
DASHDOT
370
25
 62
     2
100
AcDbLine
 10
70.75
 20
394.446385
 11
64.25
 21
394.446385
  0
LINE
  5
12F
100
AcDbEntity
  8
M4
  6
DASHDOT
370
25
 62
     2
100
AcDbLine
 10
67.5
 20
405.696324
 11
67.5
 21
399.196324
  0
LINE
  5
130
100
AcDbEntity
  8
M4
  6
DASHDOT
370
25
 62
     2
100
AcDbLine
 10
70.75
 20
549.946141
 11
64.25
 21
549.946141
  0
LINE
  5
131
100
AcDbEntity
  8
M4
  6
DASHDOT
370
25
 62
     2
100
AcDbLine
 10
67.5
 20
544.696141
 11
67.5
 21
552.813557
  0
LINE
  5
132
100
AcDbEntity
  8
M4
  6
DASHDOT
370
25
 62
     2
100
AcDbLine
 10
70.75
 20
539.946202
 11
64.25
 21
539.946202
  0
LINE
  5
133
100
AcDbEntity
  8
M4
  6
DASHDOT
370
25
 62
     2
100
AcDbLine
 10
70.75
 20
547.946141
 11
64.25
 21
547.946141
  0
LINE
  5
134
100
AcDbEntity
  8
M4
  6
DASHDOT
370
25
 62
     2
100
AcDbLine
 10
67.5
 20
536.696202
 11
67.5
 21
543.196202
  0
LINE
  5
135
100
AcDbEntity
  8
M4
  6
DASHDOT
370
25
 62
     2
100
AcDbLine
 10
228.309321
 20
536.571145
 11
228.309321
 21
543.321145
  0
LINE
  5
136
100
AcDbEntity
  8
M4
  6
DASHDOT
370
25
 62
     2
100
AcDbLine
 10
228.309321
 20
544.571145
 11
228.309321
 21
553.321145
  0
LINE
  5
137
100
AcDbEntity
  8
M4
  6
DASHDOT
370
25
 62
     2
100
AcDbLine
 10
225.359201
 20
547.946145
 11
231.099001
 21
547.946145
  0
LINE
  5
138
100
AcDbEntity
  8
M4
  6
DASHDOT
370
25
 62
     2
100
AcDbLine
 10
225.359201
 20
549.946145
 11
231.099001
 21
549.946145
  0
LINE
  5
139
100
AcDbEntity
  8
M4
  6
DASHDOT
370
25
 62
     2
100
AcDbLine
 10
225.359201
 20
539.946145
 11
231.099001
 21
539.946145
  0
LINE
  5
13A
100
AcDbEntity
  8
M4
  6
DASHDOT
370
25
 62
     2
100
AcDbLine
 10
226.059321
 20
405.821267
 11
226.059321
 21
399.071267
  0
LINE
  5
13B
100
AcDbEntity
  8
M4
  6
DASHDOT
370
25
 62
     2
100
AcDbLine
 10
226.059321
 20
397.821267
 11
226.059321
 21
389.071267
  0
LINE
  5
13C
100
AcDbEntity
  8
M4
  6
DASHDOT
370
25
 62
     2
100
AcDbLine
 10
223.109201
 20
394.446267
 11
228.849001
 21
394.446267
  0
LINE
  5
13D
100
AcDbEntity
  8
M4
  6
DASHDOT
370
25
 62
     2
100
AcDbLine
 10
223.109201
 20
392.446267
 11
228.849001
 21
392.446267
  0
LINE
  5
13E
100
AcDbEntity
  8
M4
  6
DASHDOT
370
25
 62
     2
100
AcDbLine
 10
223.109201
 20
402.446267
 11
228.849001
 21
402.446267
  0
LINE
  5
13F
100
AcDbEntity
  8
M5
  6
CONTINUOUS
370
25
 62
     7
100
AcDbLine
 10
201.824711
 20
232.444177
 11
201.824711
 21
252.694177
  0
ARC
  5
140
100
AcDbEntity
  8
M5
  6
CONTINUOUS
370
25
 62
     7
100
AcDbCircle
 10
199.824711
 20
252.694177
 40
2.0
100
AcDbArc
 50
0.0
 51
90.0
  0
LINE
  5
141
100
AcDbEntity
  8
M5
  6
CONTINUOUS
370
25
 62
     7
100
AcDbLine
 10
199.824711
 20
254.694177
 11
183.824711
 21
254.694177
  0
ARC
  5
142
100
AcDbEntity
  8
M5
  6
CONTINUOUS
370
25
 62
     7
100
AcDbCircle
 10
183.824711
 20
252.694177
 40
2.0
100
AcDbArc
 50
90.0
 51
180.0
  0
LINE
  5
143
100
AcDbEntity
  8
M5
  6
CONTINUOUS
370
25
 62
     7
100
AcDbLine
 10
181.824711
 20
252.694177
 11
181.824711
 21
232.444177
  0
ARC
  5
144
100
AcDbEntity
  8
M5
  6
CONTINUOUS
370
25
 62
     7
100
AcDbCircle
 10
183.824711
 20
232.444177
 40
2.0
100
AcDbArc
 50
180.0
 51
270.0
  0
LINE
  5
145
100
AcDbEntity
  8
M5
  6
CONTINUOUS
370
25
 62
     7
100
AcDbLine
 10
183.824711
 20
230.444177
 11
199.824711
 21
230.444177
  0
ARC
  5
146
100
AcDbEntity
  8
M5
  6
CONTINUOUS
370
25
 62
     7
100
AcDbCircle
 10
199.824711
 20
232.444177
 40
2.0
100
AcDbArc
 50
270.0
 51
360.0
  0
ARC
  5
147
100
AcDbEntity
  8
M5
  6
CONTINUOUS
370
25
 62
     7
100
AcDbCircle
 10
211.949406
 20
196.194177
 40
0.5
100
AcDbArc
 50
89.999563
 51
180.0
  0
LINE
  5
148
100
AcDbEntity
  8
M5
  6
CONTINUOUS
370
25
 62
     7
100
AcDbLine
 10
211.449406
 20
196.194177
 11
211.449406
 21
185.444238
  0
LINE
  5
149
100
AcDbEntity
  8
M5
  6
CONTINUOUS
370
25
 62
     7
100
AcDbLine
 10
230.199406
 20
196.694238
 11
211.949406
 21
196.694177
  0
LINE
  5
14A
100
AcDbEntity
  8
M5
  6
CONTINUOUS
370
25
 62
     7
100
AcDbLine
 10
211.949406
 20
184.944238
 11
230.199406
 21
184.944238
  0
ARC
  5
14B
100
AcDbEntity
  8
M5
  6
CONTINUOUS
370
25
 62
     7
100
AcDbCircle
 10
211.949406
 20
185.444238
 40
0.5
100
AcDbArc
 50
180.0
 51
270.0
  0
ARC
  5
14C
100
AcDbEntity
  8
M5
  6
CONTINUOUS
370
25
 62
     7
100
AcDbCircle
 10
230.199406
 20
185.444238
 40
0.5
100
AcDbArc
 50
270.0
 51
359.992569
  0
LINE
  5
14D
100
AcDbEntity
  8
M5
  6
CONTINUOUS
370
25
 62
     7
100
AcDbLine
 10
230.699406
 20
185.444177
 11
230.699406
 21
196.194177
  0
ARC
  5
14E
100
AcDbEntity
  8
M5
  6
CONTINUOUS
370
25
 62
     7
100
AcDbCircle
 10
230.199406
 20
196.194177
 40
0.5
100
AcDbArc
 50
0.0
 51
89.999563
  0
LINE
  5
14F
100
AcDbEntity
  8
M5
  6
DASHDOT
370
25
 62
     7
100
AcDbLine
 10
191.824711
 20
224.202383
 11
191.824711
 21
259.621851
  0
LINE
  5
150
100
AcDbEntity
  8
M5
  6
DASHDOT
370
25
 62
     7
100
AcDbLine
 10
176.650703
 20
242.569238
 11
207.224511
 21
242.569238
  0
LINE
  5
151
100
AcDbEntity
  8
M5
  6
DASHDOT
370
25
 62
     7
100
AcDbLine
 10
221.074406
 20
179.925566
 11
221.074406
 21
201.384917
  0
LINE
  5
152
100
AcDbEntity
  8
M5
  6
DASHDOT
370
25
 62
     7
100
AcDbLine
 10
206.048624
 20
190.819238
 11
233.738111
 21
190.819238
  0
LINE
  5
153
100
AcDbEntity
  8
M6
  6
CONTINUOUS
370
25
100
AcDbLine
 10
211.127564
 20
41.249999
 11
211.127564
 21
-7.105427E-015
  0
LINE
  5
154
100
AcDbEntity
  8
M6
  6
CONTINUOUS
370
25
100
AcDbLine
 10
6.127567
 20
41.249999
 11
6.127567
 21
-7.105427E-015
  0
LINE
  5
155
100
AcDbEntity
  8
M6
  6
CONTINUOUS
370
25
100
AcDbLine
 10
6.127567
 20
-7.105427E-015
 11
211.127564
 21
-7.105427E-015
  0
LINE
  5
156
100
AcDbEntity
  8
M6
  6
CONTINUOUS
370
25
100
AcDbLine
 10
6.127567
 20
41.249999
 11
211.127564
 21
41.249999
  0
LINE
  5
157
100
AcDbEntity
  8
M6
  6
CONTINUOUS
370
25
 60
     1
100
AcDbLine
 10
186.127564
 20
27.499999
 11
186.127564
 21
41.249999
  0
LINE
  5
158
100
AcDbEntity
  8
M6
  6
CONTINUOUS
370
25
100
AcDbLine
 10
163.627564
 20
27.499999
 11
186.127564
 21
27.499999
  0
TEXT
  5
159
100
AcDbEntity
  8
M6
100
AcDbText
 10
166.278967
 20
31.250001
 40
6.25
  1
ＲＥＶ．：
 41
0.666667
  7
STANDARD
100
AcDbText
  0
LINE
  5
15A
100
AcDbEntity
  8
M6
  6
CONTINUOUS
370
25
 60
     1
100
AcDbLine
 10
211.127564
 20
27.499999
 11
211.127564
 21
41.249999
  0
LINE
  5
15B
100
AcDbEntity
  8
M6
  6
CONTINUOUS
370
25
100
AcDbLine
 10
186.127564
 20
27.499999
 11
211.127564
 21
27.499999
  0
TEXT
  5
15C
100
AcDbEntity
  8
M6
100
AcDbText
 10
196.301153
 20
31.250001
 40
6.25
  1
００
 41
0.833333
  7
STANDARD
100
AcDbText
  0
LINE
  5
15D
100
AcDbEntity
  8
M6
  6
CONTINUOUS
370
25
 60
     1
100
AcDbLine
 10
36.127566
 20
27.499999
 11
36.127566
 21
41.249999
  0
LINE
  5
15E
100
AcDbEntity
  8
M6
  6
CONTINUOUS
370
25
100
AcDbLine
 10
6.127567
 20
27.499999
 11
36.127566
 21
27.499999
  0
TEXT
  5
15F
100
AcDbEntity
  8
M6
100
AcDbText
 10
8.801183
 20
31.250001
 40
6.25
  1
登録名：
 41
0.833333
  7
STANDARD
100
AcDbText
  0
LINE
  5
160
100
AcDbEntity
  8
M6
  6
CONTINUOUS
370
25
 60
     1
100
AcDbLine
 10
211.127564
 20
13.75
 11
211.127564
 21
27.499999
  0
LINE
  5
161
100
AcDbEntity
  8
M6
  6
CONTINUOUS
370
25
100
AcDbLine
 10
186.127564
 20
13.75
 11
211.127564
 21
13.75
  0
LINE
  5
162
100
AcDbEntity
  8
M6
  6
CONTINUOUS
370
25
 60
     1
100
AcDbLine
 10
186.127564
 20
13.75
 11
186.127564
 21
27.499999
  0
LINE
  5
163
100
AcDbEntity
  8
M6
  6
CONTINUOUS
370
25
100
AcDbLine
 10
36.127566
 20
13.75
 11
186.127564
 21
13.75
  0
TEXT
  5
164
100
AcDbEntity
  8
M6
100
AcDbText
 10
38.801183
 20
17.500001
 40
6.25
  1
表面形
 41
0.833333
  7
STANDARD
100
AcDbText
  0
LINE
  5
165
100
AcDbEntity
  8
M6
  6
CONTINUOUS
370
25
 60
     1
100
AcDbLine
 10
36.127566
 20
13.75
 11
36.127566
 21
27.499999
  0
LINE
  5
166
100
AcDbEntity
  8
M6
  6
CONTINUOUS
370
25
100
AcDbLine
 10
6.127567
 20
13.75
 11
36.127566
 21
13.75
  0
TEXT
  5
167
100
AcDbEntity
  8
M6
100
AcDbText
 10
7.533819
 20
17.500001
 40
6.25
  1
接続方式：
 41
0.75
  7
STANDARD
100
AcDbText
  0
LINE
  5
168
100
AcDbEntity
  8
M6
  6
CONTINUOUS
370
25
 60
     1
100
AcDbLine
 10
211.127564
 20
-7.105427E-015
 11
211.127564
 21
13.75
  0
LINE
  5
169
100
AcDbEntity
  8
M6
  6
CONTINUOUS
370
25
 60
     1
100
AcDbLine
 10
186.127564
 20
-7.105427E-015
 11
211.127564
 21
-7.105427E-015
  0
LINE
  5
16A
100
AcDbEntity
  8
M6
  6
CONTINUOUS
370
25
 60
     1
100
AcDbLine
 10
186.127564
 20
-7.105427E-015
 11
186.127564
 21
13.75
  0
LINE
  5
16B
100
AcDbEntity
  8
M6
  6
CONTINUOUS
370
25
 60
     1
100
AcDbLine
 10
36.127566
 20
-7.105427E-015
 11
186.127564
 21
-7.105427E-015
  0
TEXT
  5
16C
100
AcDbEntity
  8
M6
100
AcDbText
 10
38.783819
 20
3.750001
 40
6.25
  1
ＲＦ－６００ＦＮ
 41
0.75
  7
STANDARD
100
AcDbText
  0
LINE
  5
16D
100
AcDbEntity
  8
M6
  6
CONTINUOUS
370
25
 60
     1
100
AcDbLine
 10
36.127566
 20
-7.105427E-015
 11
36.127566
 21
13.75
  0
LINE
  5
16E
100
AcDbEntity
  8
M6
  6
CONTINUOUS
370
25
 60
     1
100
AcDbLine
 10
6.127567
 20
-7.105427E-015
 11
36.127566
 21
-7.105427E-015
  0
TEXT
  5
16F
100
AcDbEntity
  8
M6
100
AcDbText
 10
7.533819
 20
3.750001
 40
6.25
  1
適用形式：
 41
0.75
  7
STANDARD
100
AcDbText
  0
LINE
  5
170
100
AcDbEntity
  8
M6
  6
CONTINUOUS
370
25
100
AcDbLine
 10
163.627564
 20
27.499999
 11
163.627564
 21
41.249999
  0
LINE
  5
171
100
AcDbEntity
  8
M6
  6
CONTINUOUS
370
25
100
AcDbLine
 10
36.127566
 20
27.499999
 11
163.627564
 21
27.499999
  0
TEXT
  5
172
100
AcDbEntity
  8
M6
100
AcDbText
 10
38.801183
 20
31.250001
 40
6.25
  1
ＲＦ－６００ＦＮ　４Ｐ
 41
0.833333
  7
STANDARD
100
AcDbText
  0
ENDSEC
  0
SECTION
  2
OBJECTS
  0
DICTIONARY
  5
C
100
AcDbDictionary
  3
ACAD_GROUP
350
D
  3
ACAD_MLINESTYLE
350
E
  0
DICTIONARY
  5
D
102
{ACAD_REACTORS
330
C
102
}
100
AcDbDictionary
  0
DICTIONARY
  5
E
102
{ACAD_REACTORS
330
C
102
}
100
AcDbDictionary
  3
STANDARD
350
13
  0
MLINESTYLE
  5
13
102
{ACAD_REACTORS
330
E
102
}
100
AcDbMlineStyle
  2
STANDARD
 70
     0
  3

 62
     0
 51
90.0
 52
90.0
 71
     2
 49
0.5
 62
   256
  6
BYLAYER
 49
-0.5
 62
   256
  6
BYLAYER
  0
ENDSEC
  0
EOF
