  0
SECTION
  2
HEADER
  9
$ACADVER
  1
AC1015
  9
$INSBASE
 10
0.000000
 20
0.000000
 30
0.0
  9
$VIEWCTR
 10
7.531722
 20
4.5
  9
$VIEWSIZE
 40
9.0
  9
$SNAPMODE
 70
     0
  9
$SNAPUNIT
 10
1.0
 20
1.0
  9
$SNAPBASE
 10
0.0
 20
0.0
  9
$SNAPANG
 50
0.0
  9
$SNAPSTYLE
 70
     0
  9
$SNAPISOPAIR
 70
     0
  9
$GRIDMODE
 70
     0
  9
$GRIDUNIT
 10
0.0
 20
0.0
  9
$ORTHOMODE
 70
     0
  9
$REGENMODE
 70
     1
  9
$FILLMODE
 70
     1
  9
$QTEXTMODE
 70
     0
  9
$DRAGMODE
 70
     2
  9
$LTSCALE
  40
     1.000000
  9
$OSMODE
 70
     0
  9
$ATTMODE
 70
     1
  9
$TEXTSIZE
 40
0.2
  9
$TRACEWID
 40
0.05
  9
$TEXTSTYLE
  7
STANDARD
  9
$CELTYPE
  6
BYLAYER
  9
$CECOLOR
 62
   256
  9
$DIMSCALE
 40
1.0
  9
$DIMASZ
 40
0.18
  9
$DIMEXO
 40
0.0625
  9
$DIMDLI
 40
0.38
  9
$DIMRND
 40
0.0
  9
$DIMDLE
 40
0.0
  9
$DIMEXE
 40
0.18
  9
$DIMTP
 40
0.0
  9
$DIMTM
 40
0.0
  9
$DIMTXT
 40
0.18
  9
$DIMCEN
 40
0.09
  9
$DIMTSZ
 40
0.0
  9
$DIMADEC
 70
     0
  9
$DIMALTRND
 40
0.000000
  9
$DIMAZIN
 70
     0
  9
$DIMDSEP
 70
    46
  9
$DIMATFIT
 70
     3
  9
$DIMFRAC
 70
     0
  9
$DIMLDRBLK
  1

  9
$DIMLUNIT
 70
     2
  9
$DIMLWD
 70
   13
  9
$DIMLWE
 70
   13
  9
$DIMTMOVE
 70
     0
  9
$CELWEIGHT
370
    25
  9
$LWDISPLAY
290
    1
  9
$EXTNAMES
290
    1
  9
$DIMTOL
 70
     0
  9
$DIMLIM
 70
     0
  9
$DIMTIH
 70
     1
  9
$DIMTOH
 70
     1
  9
$DIMSE1
 70
     0
  9
$DIMSE2
 70
     0
  9
$DIMTAD
 70
     0
  9
$DIMZIN
 70
     0
  9
$DIMBLK
  1

  9
$LUNITS
 70
     2
  9
$LUPREC
 70
     4
  9
$AXISMODE
 70
     0
  9
$AXISUNIT
 10
0.0
 20
0.0
  9
$SKETCHINC
 40
0.1
  9
$FILLETRAD
 40
0.0
  9
$AUNITS
 70
     0
  9
$AUPREC
 70
     0
  9
$MENU
  1
ACAD
  9
$ELEVATION
 40
0.0
  9
$THICKNESS
 40
0.0
  9
$VIEWDIR
 10
0.0
 20
0.0
 30
1.0
  9
$LIMCHECK
 70
     0
  9
$BLIPMODE
 70
     1
  9
$CHAMFERA
 40
0.0
  9
$CHAMFERB
 40
0.0
  9
$FASTZOOM
 70
     1
  9
$SKPOLY
 70
     0
  9
$TDCREATE
 40
0000000.0000000000
  9
$TDUPDATE
 40
0000000.0000000000
  9
$TDINDWG
 40
0.0000000000
  9
$TDUSRTIMER
 40
0.0000000000
  9
$USRTIMER
 70
     1
  9
$ANGBASE
 50
0.0
  9
$ANGDIR
 70
     0
  9
$PDMODE
 70
     0
  9
$PDSIZE
 40
0.0
  9
$PLINEWID
 40
0.0
  9
$COORDS
 70
     0
  9
$USERI1
 70
     0
  9
$USERI2
 70
     0
  9
$USERI3
 70
     0
  9
$USERI4
 70
     0
  9
$USERI5
 70
     0
  9
$USERR1
 40
0.0
  9
$USERR2
 40
0.0
  9
$USERR3
 40
0.0
  9
$USERR4
 40
0.0
  9
$USERR5
 40
0.0
  9
$CLAYER
  8
M2
  9
$EXTMIN
 10
0.0
 20
0.0
  9
$EXTMAX
 10
841.0
 20
594.0
  9
$LIMMIN
 10
0.0
 20
0.0
  9
$LIMMAX
 10
841.0
 20
594.0
  9
$HANDSEED
  5
12F
  0
ENDSEC
  0
SECTION
  2
CLASSES
  0
CLASS
  1
DIMASSOC
  2
AcDbDimAssoc
  3
"AcDbDimAssoc|Product Desc:     AcDim ARX App For Dimension|Company:          Autodesk, Inc.|WEB Address:      www.autodesk.com"
 90
        0
280
     0
281
     0
  0
ENDSEC
  0
SECTION
  2
TABLES
  0
TABLE
  2
VPORT
  5
8
100
AcDbSymbolTable
 70
     2
  0
VPORT
  5
14
100
AcDbSymbolTableRecord
100
AcDbViewportTableRecord
  2
*ACTIVE
 70
     0
 10
0.0
 20
0.0
 11
1.0
 21
1.0
 12
484.0
 22
297.0
 13
0.0
 23
0.0
 14
1.0
 24
1.0
 15
0.0
 25
0.0
 16
0.0
 26
0.0
 36
1.0
 17
0.0
 27
0.0
 37
0.0
 40
594.0
 41
2.0
 42
50.0
 43
0.0
 44
0.0
 50
0.0
 51
0.0
 71
     0
 72
   100
 73
     1
 74
     1
 75
     0
 76
     0
 77
     0
 78
     0
  0
ENDTAB
  0
TABLE
  2
LTYPE
  5
5
100
AcDbSymbolTable
 70
     5
  0
LTYPE
  5
15
100
AcDbSymbolTableRecord
100
AcDbLinetypeTableRecord
  2
BYBLOCK
 70
     0
  3

 72
    65
 73
     0
 40
0.0
  0
LTYPE
  5
16
100
AcDbSymbolTableRecord
100
AcDbLinetypeTableRecord
  2
BYLAYER
 70
     0
  3

 72
    65
 73
     0
 40
0.0
  0
LTYPE
  5
17
100
AcDbSymbolTableRecord
100
AcDbLinetypeTableRecord
  2
CONTINUOUS
 70
    64
  3
Solid line
 72
    65
 73
     0
 40
0.0
  0
LTYPE
  5
18
100
AcDbSymbolTableRecord
100
AcDbLinetypeTableRecord
  2
DASHED
 70
    64
  3
__ __ __ __ __ __ __ __ __ __ __ __ __ __ __ __
 72
    65
 73
     2
 40
0.75
 49
0.5
 74
     0
 49
-0.25
 74
     0
  0
LTYPE
  5
19
100
AcDbSymbolTableRecord
100
AcDbLinetypeTableRecord
  2
DASHDOT
 70
    64
  3
__ . __ . __ . __ . __ . __ . __ . __ . __ . __
 72
    65
 73
     4
 40
1.0
 49
0.5
 74
     0
 49
-0.25
 74
     0
 49
0.0
 74
     0
 49
-0.25
 74
     0
  0
LTYPE
  5
1A
100
AcDbSymbolTableRecord
100
AcDbLinetypeTableRecord
  2
DIVIDE
 70
    64
  3
____ . . ____ . . ____ . . ____ . . ____ . . __
 72
    65
 73
     6
 40
1.25
 49
0.5
 74
     0
 49
-0.25
 74
     0
 49
0.0
 74
     0
 49
-0.25
 74
     0
 49
0.0
 74
     0
 49
-0.25
 74
     0
  0
LTYPE
  5
1B
100
AcDbSymbolTableRecord
100
AcDbLinetypeTableRecord
  2
DOT
 70
    64
  3
. . . . . . . . . . . . . . . . . . . . . . . .
 72
    65
 73
     2
 40
0.25
 49
0.0
 74
     0
 49
-0.25
 74
     0
  0
ENDTAB
  0
TABLE
  2
LAYER
  5
2
100
AcDbSymbolTable
 70
   102
  0
LAYER
  5
F
100
AcDbSymbolTableRecord
100
AcDbLayerTableRecord
  2
0
 70
     0
 62
     7
  6
CONTINUOUS
370
     -3
390
F
  0
LAYER
  5
1C
100
AcDbSymbolTableRecord
100
AcDbLayerTableRecord
  2
M2
 70
     0
 62
     3
  6
CONTINUOUS
370
     -3
390
F
  0
LAYER
  5
1D
100
AcDbSymbolTableRecord
100
AcDbLayerTableRecord
  2
M4
 70
     0
 62
     7
  6
CONTINUOUS
370
     -3
390
F
  0
LAYER
  5
1E
100
AcDbSymbolTableRecord
100
AcDbLayerTableRecord
  2
DD0
 70
     0
 62
     4
  6
CONTINUOUS
370
     -3
390
F
  0
ENDTAB
  0
TABLE
  2
STYLE
  5
3
100
AcDbSymbolTable
 70
     2
  0
STYLE
  5
10
100
AcDbSymbolTableRecord
100
AcDbTextStyleTableRecord
  2
STANDARD
 70
     0
 40
0.0
 41
1.0
 50
0.0
 71
     0
 42
0.2
  3
txt
  4
BIGFONT
  0
ENDTAB
  0
TABLE
  2
VIEW
  5
6
100
AcDbSymbolTable
 70
     0
  0
ENDTAB
  0
TABLE
  2
UCS
  5
7
100
AcDbSymbolTable
 70
     0
  0
ENDTAB
  0
TABLE
  2
APPID
  5
9
100
AcDbSymbolTable
 70
     1
  0
APPID
  5
11
100
AcDbSymbolTableRecord
100
AcDbRegAppTableRecord
  2
ACAD
 70
     0
  0
ENDTAB
  0
TABLE
  2
DIMSTYLE
  5
A
100
AcDbSymbolTable
 70
     2
100
AcDbDimStyleTable
 71
     1
  0
DIMSTYLE
105
62
100
AcDbSymbolTableRecord
100
AcDbDimStyleTableRecord
  2
STANDARD
 70
     0
  3

  4

  5

  6
_OPEN
  7
_OPEN
 40
1.0
 41
3.0
 42
0.0
 43
8.0
 44
1.5
 45
0.0
 46
0.0
 47
0.0
 48
0.0
140
3.2
141
0.09
142
0.0
143
0.03937
144
1.0
145
0.0
146
1.0
147
1.0
148
0.000000
 71
     0
 72
     0
 73
     1
 74
     1
 75
     0
 76
     0
 77
     3
 78
     8
170
     0
171
     2
172
     0
173
     1
174
     0
175
     0
176
     0
177
     0
178
     0
270
     2
271
     2
272
     4
273
     2
274
     2
340
10
275
     0
278
    46
280
     0
281
     0
282
     0
283
     1
284
     0
285
     0
286
     0
287
     3
288
     0
371
   13
372
   13
  0
DIMSTYLE
105
63
100
AcDbSymbolTableRecord
100
AcDbDimStyleTableRecord
  2
LEADSTYL
 70
     0
  3

  4

  5

  6
_OPEN
  7
_OPEN
 40
1.0
 41
3.0
 42
0.0625
 43
0.38
 44
0.18
 45
0.0
 46
0.0
 47
0.0
 48
0.0
140
3.2
141
0.09
142
0.0
143
25.4
144
1.0
145
0.0
146
1.0
147
1.0
 71
     0
 72
     0
 73
     1
 74
     1
 75
     0
 76
     0
 77
     0
 78
     0
170
     0
171
     2
172
     0
173
     1
174
     0
175
     0
176
     0
177
     0
178
     0
270
     2
271
     4
272
     4
273
     2
274
     2
340
10
275
     0
280
     0
281
     0
282
     0
283
     1
284
     0
285
     0
286
     0
287
     3
288
     0
  0
ENDTAB
  0
TABLE
  2
BLOCK_RECORD
  5
1
100
AcDbSymbolTable
 70
     9
  0
BLOCK_RECORD
  5
1F
100
AcDbSymbolTableRecord
100
AcDbBlockTableRecord
  2
*MODEL_SPACE
  0
BLOCK_RECORD
  5
22
100
AcDbSymbolTableRecord
100
AcDbBlockTableRecord
  2
*PAPER_SPACE
  0
BLOCK_RECORD
  5
25
100
AcDbSymbolTableRecord
100
AcDbBlockTableRecord
  2
_NONE
  0
BLOCK_RECORD
  5
29
100
AcDbSymbolTableRecord
100
AcDbBlockTableRecord
  2
_OPEN
  0
BLOCK_RECORD
  5
2F
100
AcDbSymbolTableRecord
100
AcDbBlockTableRecord
  2
_CLOSED
  0
BLOCK_RECORD
  5
36
100
AcDbSymbolTableRecord
100
AcDbBlockTableRecord
  2
_ORIGIN
  0
BLOCK_RECORD
  5
3B
100
AcDbSymbolTableRecord
100
AcDbBlockTableRecord
  2
_DOT
  0
BLOCK_RECORD
  5
43
100
AcDbSymbolTableRecord
100
AcDbBlockTableRecord
  2
_OBLIQUE
  0
BLOCK_RECORD
  5
47
100
AcDbSymbolTableRecord
100
AcDbBlockTableRecord
  2
DIMS0
  0
BLOCK_RECORD
  5
50
100
AcDbSymbolTableRecord
100
AcDbBlockTableRecord
  2
DIMS1
  0
BLOCK_RECORD
  5
59
100
AcDbSymbolTableRecord
100
AcDbBlockTableRecord
  2
DIMS2
  0
ENDTAB
  0
ENDSEC
  0
SECTION
  2
BLOCKS
  0
BLOCK
  5
20
100
AcDbEntity
  8
0
100
AcDbBlockBegin
  2
*MODEL_SPACE
 70
     0
 10
0.0
 20
0.0
 30
0.0
  3
*MODEL_SPACE
  1

  0
ENDBLK
  5
21
100
AcDbEntity
  8
0
100
AcDbBlockEnd
  0
BLOCK
  5
23
100
AcDbEntity
 67
     1
  8
0
100
AcDbBlockBegin
  2
*PAPER_SPACE
 70
     0
 10
0.0
 20
0.0
 30
0.0
  3
*PAPER_SPACE
  1

  0
ENDBLK
  5
24
100
AcDbEntity
 67
     1
  8
0
100
AcDbBlockEnd
  0
BLOCK
  5
26
100
AcDbEntity
  8
0
100
AcDbBlockBegin
  2
_NONE
 70
     0
 10
0.0
 20
0.0
  0
CIRCLE
  5
27
100
AcDbEntity
  8
0
 62
     0
370
13
100
AcDbCircle
 10
0.0
 20
0.0
 40
0.25
  0
ENDBLK
  5
28
100
AcDbEntity
  8
0
100
AcDbBlockEnd
  0
BLOCK
  5
2A
100
AcDbEntity
  8
0
100
AcDbBlockBegin
  2
_OPEN
 70
     0
 10
0.0
 20
0.0
  0
LINE
  5
2B
100
AcDbEntity
  8
0
 62
     0
370
13
100
AcDbLine
 10
-0.965926
 20
0.258819
 11
0.0
 21
0.0
  0
LINE
  5
2C
100
AcDbEntity
  8
0
 62
     0
370
13
100
AcDbLine
 10
0.0
 20
0.0
 11
-0.965926
 21
-0.258819
  0
LINE
  5
2D
100
AcDbEntity
  8
0
 62
     0
370
13
100
AcDbLine
 10
0.0
 20
0.0
 11
-1.0
 21
0.0
  0
ENDBLK
  5
2E
100
AcDbEntity
  8
0
100
AcDbBlockEnd
  0
BLOCK
  5
30
100
AcDbEntity
  8
0
100
AcDbBlockBegin
  2
_CLOSED
 70
     0
 10
0.0
 20
0.0
  0
LINE
  5
31
100
AcDbEntity
  8
0
 62
     0
370
13
100
AcDbLine
 10
-0.965926
 20
0.258819
 11
0.0
 21
0.0
  0
LINE
  5
32
100
AcDbEntity
  8
0
 62
     0
370
13
100
AcDbLine
 10
0.0
 20
0.0
 11
-0.965926
 21
-0.258819
  0
LINE
  5
33
100
AcDbEntity
  8
0
 62
     0
370
13
100
AcDbLine
 10
-0.965926
 20
0.258819
 11
-0.965926
 21
-0.258819
  0
LINE
  5
34
100
AcDbEntity
  8
0
 62
     0
370
13
100
AcDbLine
 10
0.0
 20
0.0
 11
-1.0
 21
0.0
  0
ENDBLK
  5
35
100
AcDbEntity
  8
0
100
AcDbBlockEnd
  0
BLOCK
  5
37
100
AcDbEntity
  8
0
100
AcDbBlockBegin
  2
_ORIGIN
 70
     0
 10
0.0
 20
0.0
  0
CIRCLE
  5
38
100
AcDbEntity
  8
0
 62
     0
370
13
100
AcDbCircle
 10
0.0
 20
0.0
 40
0.5
  0
LINE
  5
39
100
AcDbEntity
  8
0
 62
     0
370
13
100
AcDbLine
 10
0.0
 20
0.0
 11
-1.0
 21
0.0
  0
ENDBLK
  5
3A
100
AcDbEntity
  8
0
100
AcDbBlockEnd
  0
BLOCK
  5
3C
100
AcDbEntity
  8
0
100
AcDbBlockBegin
  2
_DOT
 70
     0
 10
0.0
 20
0.0
  0
POLYLINE
  5
3D
100
AcDbEntity
  8
0
 62
     0
100
AcDb2dPolyline
 66
     1
 70
     1
 40
0.5
 41
0.5
  0
VERTEX
  5
3E
100
AcDbEntity
  8
0
 62
     0
100
AcDbVertex
100
AcDb2dVertex
 10
-0.25
 20
0.0
 42
1.0
  0
VERTEX
  5
3F
100
AcDbEntity
  8
0
 62
     0
100
AcDbVertex
100
AcDb2dVertex
 10
0.25
 20
0.0
 42
1.0
  0
SEQEND
  5
40
100
AcDbEntity
  8
0
 62
     0
  0
LINE
  5
41
100
AcDbEntity
  8
0
 62
     0
370
13
100
AcDbLine
 10
-0.5
 20
0.0
 11
-1.0
 21
0.0
  0
ENDBLK
  5
42
100
AcDbEntity
  8
0
100
AcDbBlockEnd
  0
BLOCK
  5
44
100
AcDbEntity
  8
0
100
AcDbBlockBegin
  2
_OBLIQUE
 70
     0
 10
0.0
 20
0.0
  0
LINE
  5
45
100
AcDbEntity
  8
0
 62
     0
370
13
100
AcDbLine
 10
-0.353553
 20
-0.353553
 11
0.353553
 21
0.353553
  0
ENDBLK
  5
46
100
AcDbEntity
  8
0
100
AcDbBlockEnd
  0
BLOCK
  5
48
100
AcDbEntity
  8
DD0
100
AcDbBlockBegin
  2
DIMS0
 70
     0
 10
0.0
 20
0.0
  0
TEXT
  5
49
100
AcDbEntity
  8
DD0
100
AcDbText
 10
132.389077
 20
467.897095
 40
4.0
  1
中央極
 41
0.833333
  7
STANDARD
100
AcDbText
  0
LINE
  5
4A
100
AcDbEntity
  8
DD0
  6
CONTINUOUS
370
13
100
AcDbLine
 10
155.710284
 20
457.658092
 11
158.326797
 21
456.190491
  0
LINE
  5
4B
100
AcDbEntity
  8
DD0
  6
CONTINUOUS
370
13
100
AcDbLine
 10
158.326797
 20
456.190491
 11
156.794631
 21
458.769728
  0
LINE
  5
4C
100
AcDbEntity
  8
DD0
  6
CONTINUOUS
370
13
100
AcDbLine
 10
158.326797
 20
456.190491
 11
147.350754
 21
466.897095
  0
LINE
  5
4D
100
AcDbEntity
  8
DD0
  6
CONTINUOUS
370
13
100
AcDbLine
 10
147.350754
 20
466.897095
 11
128.750763
 21
466.897095
  0
ENDBLK
  5
4E
100
AcDbEntity
  8
DD0
100
AcDbBlockEnd
  0
BLOCK
  5
51
100
AcDbEntity
  8
DD0
100
AcDbBlockBegin
  2
DIMS1
 70
     0
 10
0.0
 20
0.0
  0
TEXT
  5
52
100
AcDbEntity
  8
DD0
100
AcDbText
 10
136.450204
 20
483.77243
 40
4.0
  1
左右極
 41
0.833333
  7
STANDARD
100
AcDbText
  0
LINE
  5
53
100
AcDbEntity
  8
DD0
  6
CONTINUOUS
370
13
100
AcDbLine
 10
166.468799
 20
458.904108
 11
168.726791
 21
456.928894
  0
LINE
  5
54
100
AcDbEntity
  8
DD0
  6
CONTINUOUS
370
13
100
AcDbLine
 10
168.726791
 20
456.928894
 11
167.758919
 21
459.768476
  0
LINE
  5
55
100
AcDbEntity
  8
DD0
  6
CONTINUOUS
370
13
100
AcDbLine
 10
168.726791
 20
456.928894
 11
151.41188
 21
482.77243
  0
LINE
  5
56
100
AcDbEntity
  8
DD0
  6
CONTINUOUS
370
13
100
AcDbLine
 10
151.41188
 20
482.77243
 11
132.81189
 21
482.77243
  0
ENDBLK
  5
57
100
AcDbEntity
  8
DD0
100
AcDbBlockEnd
  0
BLOCK
  5
5A
100
AcDbEntity
  8
DD0
100
AcDbBlockBegin
  2
DIMS2
 70
     0
 10
0.0
 20
0.0
  0
LINE
  5
5B
100
AcDbEntity
  8
DD0
  6
CONTINUOUS
370
13
100
AcDbLine
 10
22.436028
 20
290.742369
 11
22.189331
 21
293.732208
  0
LINE
  5
5C
100
AcDbEntity
  8
DD0
  6
CONTINUOUS
370
13
100
AcDbLine
 10
22.189331
 20
293.732208
 11
20.908057
 21
291.019583
  0
LINE
  5
5D
100
AcDbEntity
  8
DD0
  6
CONTINUOUS
370
13
100
AcDbLine
 10
22.189331
 20
293.732208
 11
19.517263
 21
279.004089
  0
LINE
  5
5E
100
AcDbEntity
  8
DD0
  6
CONTINUOUS
370
13
100
AcDbLine
 10
19.517263
 20
279.004089
 11
0.917264
 21
279.004089
  0
TEXT
  5
5F
100
AcDbEntity
  8
DD0
100
AcDbText
 10
4.555598
 20
280.004089
 40
4.0
  1
φ１１
 41
0.833333
  7
STANDARD
100
AcDbText
  0
ENDBLK
  5
60
100
AcDbEntity
  8
DD0
100
AcDbBlockEnd
  0
ENDSEC
  0
SECTION
  2
ENTITIES
  0
INSERT
  5
4F
100
AcDbEntity
  8
DD0
100
AcDbBlockReference
  2
DIMS0
 10
0.0
 20
0.0
  0
INSERT
  5
58
100
AcDbEntity
  8
DD0
100
AcDbBlockReference
  2
DIMS1
 10
0.0
 20
0.0
  0
INSERT
  5
61
100
AcDbEntity
  8
DD0
100
AcDbBlockReference
  2
DIMS2
 10
0.0
 20
0.0
  0
LINE
  5
64
100
AcDbEntity
  8
M2
  6
CONTINUOUS
370
25
 62
     4
100
AcDbLine
 10
143.923184
 20
391.977337
 11
143.923184
 21
391.977239
  0
LINE
  5
65
100
AcDbEntity
  8
M2
  6
CONTINUOUS
370
25
 62
     4
100
AcDbLine
 10
143.923086
 20
391.977239
 11
143.923184
 21
391.977337
  0
LINE
  5
66
100
AcDbEntity
  8
M2
  6
CONTINUOUS
370
25
 62
     4
100
AcDbLine
 10
144.649258
 20
387.637591
 11
144.649356
 21
387.637688
  0
LINE
  5
67
100
AcDbEntity
  8
M2
  6
CONTINUOUS
370
25
 62
     4
100
AcDbLine
 10
185.526797
 20
304.696868
 11
185.526797
 21
442.696868
  0
LINE
  5
68
100
AcDbEntity
  8
M2
  6
CONTINUOUS
370
25
 62
     4
100
AcDbLine
 10
141.526797
 20
412.696868
 11
141.526797
 21
374.696868
  0
LINE
  5
69
100
AcDbEntity
  8
M2
  6
CONTINUOUS
370
25
 62
     4
100
AcDbLine
 10
144.326797
 20
427.096868
 11
144.326797
 21
329.696868
  0
LINE
  5
6A
100
AcDbEntity
  8
M2
  6
CONTINUOUS
370
25
 62
     4
100
AcDbLine
 10
146.726797
 20
304.696868
 11
146.726797
 21
329.696868
  0
LINE
  5
6B
100
AcDbEntity
  8
M2
  6
CONTINUOUS
370
25
 62
     4
100
AcDbLine
 10
141.526797
 20
412.696868
 11
144.326797
 21
412.696868
  0
LINE
  5
6C
100
AcDbEntity
  8
M2
  6
CONTINUOUS
370
25
 62
     4
100
AcDbLine
 10
141.526797
 20
374.696868
 11
144.326797
 21
374.696868
  0
LINE
  5
6D
100
AcDbEntity
  8
M2
  6
CONTINUOUS
370
25
 62
     4
100
AcDbLine
 10
171.926699
 20
304.69677
 11
168.726699
 21
304.69677
  0
LINE
  5
6E
100
AcDbEntity
  8
M2
  6
CONTINUOUS
370
25
 62
     4
100
AcDbLine
 10
143.726797
 20
412.696868
 11
144.326797
 21
412.696868
  0
LINE
  5
6F
100
AcDbEntity
  8
M2
  6
CONTINUOUS
370
25
 62
     4
100
AcDbLine
 10
143.726797
 20
374.696868
 11
144.326797
 21
374.696868
  0
LINE
  5
70
100
AcDbEntity
  8
M2
  6
CONTINUOUS
370
25
 62
     4
100
AcDbLine
 10
185.526699
 20
442.696868
 11
185.526699
 21
424.496868
  0
LINE
  5
71
100
AcDbEntity
  8
M2
  6
CONTINUOUS
370
25
 62
     4
100
AcDbLine
 10
146.726797
 20
442.696868
 11
185.526699
 21
442.696868
  0
LINE
  5
72
100
AcDbEntity
  8
M2
  6
CONTINUOUS
370
25
 62
     4
100
AcDbLine
 10
185.526699
 20
304.696868
 11
185.526699
 21
322.896868
  0
LINE
  5
73
100
AcDbEntity
  8
M2
  6
CONTINUOUS
370
25
 62
     4
100
AcDbLine
 10
146.726797
 20
304.696868
 11
185.526699
 21
304.696868
  0
LINE
  5
74
100
AcDbEntity
  8
M2
  6
DASHDOT
370
25
 62
     4
100
AcDbLine
 10
122.614818
 20
373.696868
 11
191.427884
 21
373.696868
  0
LINE
  5
75
100
AcDbEntity
  8
M2
  6
CONTINUOUS
370
25
 62
     4
100
AcDbLine
 10
146.726797
 20
427.096868
 11
146.726797
 21
442.69677
  0
LINE
  5
76
100
AcDbEntity
  8
M2
  6
CONTINUOUS
370
25
 62
     4
100
AcDbLine
 10
158.326797
 20
457.896868
 11
161.526797
 21
457.896868
  0
LINE
  5
77
100
AcDbEntity
  8
M2
  6
CONTINUOUS
370
25
 62
     4
100
AcDbLine
 10
168.726797
 20
457.896868
 11
168.726797
 21
442.696868
  0
LINE
  5
78
100
AcDbEntity
  8
M2
  6
CONTINUOUS
370
25
 62
     4
100
AcDbLine
 10
171.926797
 20
457.896868
 11
171.926797
 21
442.696868
  0
LINE
  5
79
100
AcDbEntity
  8
M2
  6
CONTINUOUS
370
25
 62
     4
100
AcDbLine
 10
158.326797
 20
457.896868
 11
158.326797
 21
447.29677
  0
LINE
  5
7A
100
AcDbEntity
  8
M2
  6
CONTINUOUS
370
25
 62
     4
100
AcDbLine
 10
161.526797
 20
457.896868
 11
161.526797
 21
447.296868
  0
LINE
  5
7B
100
AcDbEntity
  8
M2
  6
CONTINUOUS
370
25
 62
     4
100
AcDbLine
 10
162.926797
 20
445.896868
 11
168.726797
 21
445.896868
  0
ARC
  5
7C
100
AcDbEntity
  8
M2
  6
CONTINUOUS
370
25
 62
     4
100
AcDbCircle
 10
162.926797
 20
447.296868
 40
1.4
100
AcDbArc
 50
180.0
 51
270.0
  0
ARC
  5
7D
100
AcDbEntity
  8
M2
  6
CONTINUOUS
370
25
 62
     4
100
AcDbCircle
 10
162.926797
 20
447.29677
 40
4.599994
100
AcDbArc
 50
180.0
 51
269.999943
  0
LINE
  5
7E
100
AcDbEntity
  8
M2
  6
CONTINUOUS
370
25
 62
     4
100
AcDbLine
 10
168.726797
 20
457.896868
 11
171.926797
 21
457.896868
  0
LINE
  5
7F
100
AcDbEntity
  8
M2
  6
CONTINUOUS
370
25
 62
     4
100
AcDbLine
 10
158.326797
 20
289.496868
 11
161.526797
 21
289.496868
  0
LINE
  5
80
100
AcDbEntity
  8
M2
  6
CONTINUOUS
370
25
 62
     4
100
AcDbLine
 10
168.726797
 20
289.496868
 11
168.726797
 21
304.696868
  0
LINE
  5
81
100
AcDbEntity
  8
M2
  6
CONTINUOUS
370
25
 62
     4
100
AcDbLine
 10
171.926797
 20
289.496868
 11
171.926797
 21
304.696868
  0
LINE
  5
82
100
AcDbEntity
  8
M2
  6
CONTINUOUS
370
25
 62
     4
100
AcDbLine
 10
158.326797
 20
289.496868
 11
158.326797
 21
300.096966
  0
LINE
  5
83
100
AcDbEntity
  8
M2
  6
CONTINUOUS
370
25
 62
     4
100
AcDbLine
 10
161.526797
 20
289.496868
 11
161.526797
 21
300.096868
  0
LINE
  5
84
100
AcDbEntity
  8
M2
  6
CONTINUOUS
370
25
 62
     4
100
AcDbLine
 10
162.926797
 20
301.496868
 11
168.726797
 21
301.496868
  0
ARC
  5
85
100
AcDbEntity
  8
M2
  6
CONTINUOUS
370
25
 62
     4
100
AcDbCircle
 10
162.926797
 20
300.096868
 40
1.4
100
AcDbArc
 50
90.0
 51
179.99975
  0
ARC
  5
86
100
AcDbEntity
  8
M2
  6
CONTINUOUS
370
25
 62
     4
100
AcDbCircle
 10
162.926797
 20
300.096966
 40
4.599994
100
AcDbArc
 50
90.0
 51
179.999924
  0
LINE
  5
87
100
AcDbEntity
  8
M2
  6
CONTINUOUS
370
25
 62
     4
100
AcDbLine
 10
168.726797
 20
289.496868
 11
171.926797
 21
289.496868
  0
LINE
  5
88
100
AcDbEntity
  8
M2
  6
CONTINUOUS
370
25
 62
     4
100
AcDbLine
 10
141.526797
 20
397.980071
 11
133.290274
 21
399.58095
  0
LINE
  5
89
100
AcDbEntity
  8
M2
  6
CONTINUOUS
370
25
 62
     4
100
AcDbLine
 10
141.526797
 20
394.72011
 11
132.679629
 21
396.439739
  0
ARC
  5
8A
100
AcDbEntity
  8
M2
  6
CONTINUOUS
370
25
 62
     4
100
AcDbCircle
 10
167.526797
 20
391.296868
 40
35.2
100
AcDbArc
 50
166.395983
 51
171.606651
  0
LINE
  5
8B
100
AcDbEntity
  8
M2
  6
CONTINUOUS
370
25
 62
     4
100
AcDbLine
 10
144.326797
 20
427.096868
 11
146.726797
 21
427.096868
  0
LINE
  5
8C
100
AcDbEntity
  8
M2
  6
CONTINUOUS
370
25
 62
     4
100
AcDbLine
 10
144.326797
 20
329.696868
 11
146.726797
 21
329.696868
  0
LINE
  5
8D
100
AcDbEntity
  8
M2
  6
CONTINUOUS
370
25
 62
     4
100
AcDbLine
 10
62.782055
 20
457.896868
 11
62.782055
 21
442.696868
  0
LINE
  5
8E
100
AcDbEntity
  8
M2
  6
CONTINUOUS
370
25
 62
     4
100
AcDbLine
 10
62.782055
 20
457.896868
 11
52.782055
 21
457.896868
  0
CIRCLE
  5
8F
100
AcDbEntity
  8
M2
  6
CONTINUOUS
370
25
 62
     4
100
AcDbCircle
 10
57.782055
 20
451.496868
 40
2.2
  0
LINE
  5
90
100
AcDbEntity
  8
M2
  6
CONTINUOUS
370
25
 62
     4
100
AcDbLine
 10
52.782055
 20
457.896868
 11
52.782055
 21
442.696868
  0
LINE
  5
91
100
AcDbEntity
  8
M2
  6
CONTINUOUS
370
25
 62
     4
100
AcDbLine
 10
45.182055
 20
457.896868
 11
45.182055
 21
442.696868
  0
LINE
  5
92
100
AcDbEntity
  8
M2
  6
CONTINUOUS
370
25
 62
     4
100
AcDbLine
 10
45.182055
 20
457.896868
 11
35.182055
 21
457.896868
  0
CIRCLE
  5
93
100
AcDbEntity
  8
M2
  6
CONTINUOUS
370
25
 62
     4
100
AcDbCircle
 10
40.182055
 20
451.496868
 40
2.2
  0
LINE
  5
94
100
AcDbEntity
  8
M2
  6
CONTINUOUS
370
25
 62
     4
100
AcDbLine
 10
35.182055
 20
457.896868
 11
35.182055
 21
442.696868
  0
LINE
  5
95
100
AcDbEntity
  8
M2
  6
CONTINUOUS
370
25
 62
     4
100
AcDbLine
 10
17.582055
 20
457.896868
 11
17.582055
 21
442.696868
  0
LINE
  5
96
100
AcDbEntity
  8
M2
  6
CONTINUOUS
370
25
 62
     4
100
AcDbLine
 10
17.582055
 20
457.896868
 11
27.582055
 21
457.896868
  0
CIRCLE
  5
97
100
AcDbEntity
  8
M2
  6
CONTINUOUS
370
25
 62
     4
100
AcDbCircle
 10
22.582055
 20
451.496868
 40
2.2
  0
LINE
  5
98
100
AcDbEntity
  8
M2
  6
CONTINUOUS
370
25
 62
     4
100
AcDbLine
 10
27.582055
 20
457.896868
 11
27.582055
 21
442.696868
  0
LINE
  5
99
100
AcDbEntity
  8
M2
  6
CONTINUOUS
370
25
 62
     4
100
AcDbLine
 10
62.782055
 20
289.496868
 11
62.782055
 21
304.696868
  0
LINE
  5
9A
100
AcDbEntity
  8
M2
  6
CONTINUOUS
370
25
 62
     4
100
AcDbLine
 10
62.782055
 20
289.496868
 11
52.782055
 21
289.496868
  0
CIRCLE
  5
9B
100
AcDbEntity
  8
M2
  6
CONTINUOUS
370
25
 62
     4
100
AcDbCircle
 10
57.782055
 20
295.896868
 40
2.2
  0
LINE
  5
9C
100
AcDbEntity
  8
M2
  6
CONTINUOUS
370
25
 62
     4
100
AcDbLine
 10
52.782055
 20
289.496868
 11
52.782055
 21
304.696868
  0
LINE
  5
9D
100
AcDbEntity
  8
M2
  6
CONTINUOUS
370
25
 62
     4
100
AcDbLine
 10
17.582055
 20
289.496868
 11
17.582055
 21
304.696868
  0
LINE
  5
9E
100
AcDbEntity
  8
M2
  6
CONTINUOUS
370
25
 62
     4
100
AcDbLine
 10
17.582055
 20
289.496868
 11
27.582055
 21
289.496868
  0
CIRCLE
  5
9F
100
AcDbEntity
  8
M2
  6
CONTINUOUS
370
25
 62
     4
100
AcDbCircle
 10
22.582055
 20
295.896868
 40
2.2
  0
LINE
  5
A0
100
AcDbEntity
  8
M2
  6
CONTINUOUS
370
25
 62
     4
100
AcDbLine
 10
27.582055
 20
289.496868
 11
27.582055
 21
304.696868
  0
LINE
  5
A1
100
AcDbEntity
  8
M2
  6
CONTINUOUS
370
25
 62
     4
100
AcDbLine
 10
45.182055
 20
289.496868
 11
45.182055
 21
304.696868
  0
LINE
  5
A2
100
AcDbEntity
  8
M2
  6
CONTINUOUS
370
25
 62
     4
100
AcDbLine
 10
45.182055
 20
289.496868
 11
35.182055
 21
289.496868
  0
CIRCLE
  5
A3
100
AcDbEntity
  8
M2
  6
CONTINUOUS
370
25
 62
     4
100
AcDbCircle
 10
40.182055
 20
295.896868
 40
2.2
  0
LINE
  5
A4
100
AcDbEntity
  8
M2
  6
CONTINUOUS
370
25
 62
     4
100
AcDbLine
 10
35.182055
 20
289.496868
 11
35.182055
 21
304.696868
  0
LINE
  5
A5
100
AcDbEntity
  8
M2
  6
CONTINUOUS
370
25
 62
     4
100
AcDbLine
 10
85.982055
 20
304.696868
 11
85.982055
 21
442.696868
  0
LINE
  5
A6
100
AcDbEntity
  8
M2
  6
CONTINUOUS
370
25
 62
     4
100
AcDbLine
 10
85.982055
 20
442.696868
 11
11.982055
 21
442.696868
  0
LINE
  5
A7
100
AcDbEntity
  8
M2
  6
CONTINUOUS
370
25
 62
     4
100
AcDbLine
 10
11.982055
 20
442.696868
 11
11.982055
 21
304.696868
  0
LINE
  5
A8
100
AcDbEntity
  8
M2
  6
DASHDOT
370
25
 62
     4
100
AcDbLine
 10
2.182055
 20
373.696868
 11
95.982055
 21
373.696868
  0
LINE
  5
A9
100
AcDbEntity
  8
M2
  6
DASHDOT
370
25
 62
     4
100
AcDbLine
 10
48.982055
 20
294.696868
 11
48.982055
 21
452.696868
  0
LINE
  5
AA
100
AcDbEntity
  8
M2
  6
CONTINUOUS
370
25
 62
     4
100
AcDbLine
 10
30.582739
 20
412.696868
 11
49.782739
 21
412.696868
  0
LINE
  5
AB
100
AcDbEntity
  8
M2
  6
CONTINUOUS
370
25
 62
     4
100
AcDbLine
 10
30.582739
 20
374.696868
 11
49.782739
 21
374.696868
  0
LINE
  5
AC
100
AcDbEntity
  8
M2
  6
CONTINUOUS
370
25
 62
     4
100
AcDbLine
 10
11.982055
 20
304.696868
 11
85.982055
 21
304.696868
  0
LINE
  5
AD
100
AcDbEntity
  8
M2
  6
CONTINUOUS
370
25
 62
     4
100
AcDbLine
 10
63.382055
 20
375.696868
 11
63.382055
 21
411.696868
  0
LINE
  5
AE
100
AcDbEntity
  8
M2
  6
CONTINUOUS
370
25
 62
     4
100
AcDbLine
 10
62.382055
 20
412.696868
 11
17.982055
 21
412.696868
  0
LINE
  5
AF
100
AcDbEntity
  8
M2
  6
CONTINUOUS
370
25
 62
     4
100
AcDbLine
 10
16.982055
 20
411.696868
 11
16.982055
 21
375.696868
  0
LINE
  5
B0
100
AcDbEntity
  8
M2
  6
CONTINUOUS
370
25
 62
     4
100
AcDbLine
 10
17.982055
 20
374.696868
 11
62.382055
 21
374.696868
  0
ARC
  5
B1
100
AcDbEntity
  8
M2
  6
CONTINUOUS
370
25
 62
     4
100
AcDbCircle
 10
62.382055
 20
411.696868
 40
1.0
100
AcDbArc
 50
0.0
 51
90.0
  0
ARC
  5
B2
100
AcDbEntity
  8
M2
  6
CONTINUOUS
370
25
 62
     4
100
AcDbCircle
 10
62.382055
 20
375.696868
 40
1.0
100
AcDbArc
 50
270.0
 51
360.0
  0
ARC
  5
B3
100
AcDbEntity
  8
M2
  6
CONTINUOUS
370
25
 62
     4
100
AcDbCircle
 10
17.982055
 20
411.696868
 40
1.0
100
AcDbArc
 50
90.0
 51
180.0
  0
ARC
  5
B4
100
AcDbEntity
  8
M2
  6
CONTINUOUS
370
25
 62
     4
100
AcDbCircle
 10
17.982055
 20
375.696868
 40
1.0
100
AcDbArc
 50
180.0
 51
270.0
  0
LINE
  5
B5
100
AcDbEntity
  8
M2
  6
CONTINUOUS
370
25
 62
     4
100
AcDbLine
 10
44.78254
 20
383.496868
 11
44.78254
 21
399.576848
  0
LINE
  5
B6
100
AcDbEntity
  8
M2
  6
CONTINUOUS
370
25
 62
     4
100
AcDbLine
 10
44.78254
 20
396.43681
 11
35.58254
 21
396.43681
  0
LINE
  5
B7
100
AcDbEntity
  8
M2
  6
CONTINUOUS
370
25
 62
     4
100
AcDbLine
 10
35.58254
 20
399.576848
 11
44.78254
 21
399.576848
  0
LINE
  5
B8
100
AcDbEntity
  8
M2
  6
CONTINUOUS
370
25
 62
     4
100
AcDbLine
 10
35.58254
 20
399.576848
 11
35.58254
 21
383.496868
  0
LINE
  5
B9
100
AcDbEntity
  8
M2
  6
CONTINUOUS
370
25
 62
     4
100
AcDbLine
 10
35.58254
 20
383.496868
 11
44.78254
 21
383.496868
  0
LINE
  5
BA
100
AcDbEntity
  8
M2
  6
CONTINUOUS
370
25
 62
     4
100
AcDbLine
 10
11.982055
 20
329.696868
 11
85.982055
 21
329.696868
  0
LINE
  5
BB
100
AcDbEntity
  8
M2
  6
CONTINUOUS
370
25
 62
     4
100
AcDbLine
 10
11.982055
 20
427.096868
 11
85.982055
 21
427.096868
  0
LINE
  5
BC
100
AcDbEntity
  8
M2
  6
CONTINUOUS
370
25
 62
     4
100
AcDbLine
 10
70.382055
 20
457.896868
 11
70.382055
 21
442.696868
  0
CIRCLE
  5
BD
100
AcDbEntity
  8
M2
  6
CONTINUOUS
370
25
 62
     4
100
AcDbCircle
 10
75.382055
 20
451.496868
 40
2.2
  0
LINE
  5
BE
100
AcDbEntity
  8
M2
  6
CONTINUOUS
370
25
 62
     4
100
AcDbLine
 10
80.382055
 20
457.896868
 11
80.382055
 21
442.696868
  0
LINE
  5
BF
100
AcDbEntity
  8
M2
  6
CONTINUOUS
370
25
 62
     4
100
AcDbLine
 10
80.382055
 20
457.896868
 11
70.382055
 21
457.896868
  0
LINE
  5
C0
100
AcDbEntity
  8
M2
  6
CONTINUOUS
370
25
 62
     4
100
AcDbLine
 10
70.382055
 20
289.496868
 11
70.382055
 21
304.696868
  0
CIRCLE
  5
C1
100
AcDbEntity
  8
M2
  6
CONTINUOUS
370
25
 62
     4
100
AcDbCircle
 10
75.382055
 20
295.896868
 40
2.2
  0
LINE
  5
C2
100
AcDbEntity
  8
M2
  6
CONTINUOUS
370
25
 62
     4
100
AcDbLine
 10
80.382055
 20
289.496868
 11
80.382055
 21
304.696868
  0
LINE
  5
C3
100
AcDbEntity
  8
M2
  6
CONTINUOUS
370
25
 62
     4
100
AcDbLine
 10
80.382055
 20
289.496868
 11
70.382055
 21
289.496868
  0
LINE
  5
C4
100
AcDbEntity
  8
M2
  6
DASHDOT
370
25
 62
     4
100
AcDbLine
 10
40.182055
 20
417.256402
 11
40.182055
 21
368.522907
  0
CIRCLE
  5
C5
100
AcDbEntity
  8
M2
  6
CONTINUOUS
370
25
100
AcDbCircle
 10
66.582055
 20
430.096868
 40
1.4
  0
LINE
  5
C6
100
AcDbEntity
  8
M2
  6
DASHDOT
370
25
100
AcDbLine
 10
66.582055
 20
424.696868
 11
66.582055
 21
435.496868
  0
LINE
  5
C7
100
AcDbEntity
  8
M2
  6
DASHDOT
370
25
100
AcDbLine
 10
71.982055
 20
430.096868
 11
61.182055
 21
430.096868
  0
LINE
  5
C8
100
AcDbEntity
  8
M2
  6
DASHDOT
370
25
100
AcDbLine
 10
25.982055
 20
430.096868
 11
36.782055
 21
430.096868
  0
LINE
  5
C9
100
AcDbEntity
  8
M2
  6
DASHDOT
370
25
100
AcDbLine
 10
31.382055
 20
424.696868
 11
31.382055
 21
435.496868
  0
CIRCLE
  5
CA
100
AcDbEntity
  8
M2
  6
CONTINUOUS
370
25
100
AcDbCircle
 10
31.382055
 20
430.096868
 40
1.4
  0
LINE
  5
CB
100
AcDbEntity
  8
M2
  6
DASHDOT
370
25
100
AcDbLine
 10
66.582055
 20
322.696868
 11
66.582055
 21
311.896868
  0
LINE
  5
CC
100
AcDbEntity
  8
M2
  6
DASHDOT
370
25
100
AcDbLine
 10
71.982055
 20
317.296868
 11
61.182055
 21
317.296868
  0
CIRCLE
  5
CD
100
AcDbEntity
  8
M2
  6
CONTINUOUS
370
25
100
AcDbCircle
 10
66.582055
 20
317.296868
 40
1.4
  0
LINE
  5
CE
100
AcDbEntity
  8
M2
  6
DASHDOT
370
25
100
AcDbLine
 10
31.382055
 20
322.696868
 11
31.382055
 21
311.896868
  0
LINE
  5
CF
100
AcDbEntity
  8
M2
  6
DASHDOT
370
25
100
AcDbLine
 10
25.982055
 20
317.296868
 11
36.782055
 21
317.296868
  0
CIRCLE
  5
D0
100
AcDbEntity
  8
M2
  6
CONTINUOUS
370
25
100
AcDbCircle
 10
31.382055
 20
317.296868
 40
1.4
  0
LINE
  5
D1
100
AcDbEntity
  8
M2
  6
DASHDOT
370
25
 62
     2
100
AcDbLine
 10
51.582055
 20
451.496868
 11
63.982055
 21
451.496868
  0
LINE
  5
D2
100
AcDbEntity
  8
M2
  6
DASHDOT
370
25
 62
     2
100
AcDbLine
 10
57.782055
 20
445.296868
 11
57.782055
 21
457.696868
  0
LINE
  5
D3
100
AcDbEntity
  8
M2
  6
DASHDOT
370
25
 62
     2
100
AcDbLine
 10
33.982055
 20
451.496868
 11
46.382055
 21
451.496868
  0
LINE
  5
D4
100
AcDbEntity
  8
M2
  6
DASHDOT
370
25
 62
     2
100
AcDbLine
 10
40.182055
 20
445.296868
 11
40.182055
 21
457.696868
  0
LINE
  5
D5
100
AcDbEntity
  8
M2
  6
DASHDOT
370
25
 62
     2
100
AcDbLine
 10
28.782055
 20
451.496868
 11
16.382055
 21
451.496868
  0
LINE
  5
D6
100
AcDbEntity
  8
M2
  6
DASHDOT
370
25
 62
     2
100
AcDbLine
 10
22.582055
 20
445.296868
 11
22.582055
 21
457.696868
  0
LINE
  5
D7
100
AcDbEntity
  8
M2
  6
DASHDOT
370
25
 62
     2
100
AcDbLine
 10
22.582055
 20
302.096868
 11
22.582055
 21
289.696868
  0
LINE
  5
D8
100
AcDbEntity
  8
M2
  6
DASHDOT
370
25
 62
     2
100
AcDbLine
 10
28.782055
 20
295.896868
 11
16.382055
 21
295.896868
  0
LINE
  5
D9
100
AcDbEntity
  8
M2
  6
DASHDOT
370
25
 62
     2
100
AcDbLine
 10
40.182055
 20
302.096868
 11
40.182055
 21
289.696868
  0
LINE
  5
DA
100
AcDbEntity
  8
M2
  6
DASHDOT
370
25
 62
     2
100
AcDbLine
 10
33.982055
 20
295.896868
 11
46.382055
 21
295.896868
  0
LINE
  5
DB
100
AcDbEntity
  8
M2
  6
DASHDOT
370
25
 62
     2
100
AcDbLine
 10
57.782055
 20
302.096868
 11
57.782055
 21
289.696868
  0
LINE
  5
DC
100
AcDbEntity
  8
M2
  6
DASHDOT
370
25
 62
     2
100
AcDbLine
 10
51.582055
 20
295.896868
 11
63.982055
 21
295.896868
  0
LINE
  5
DD
100
AcDbEntity
  8
M2
  6
DASHDOT
370
25
 62
     2
100
AcDbLine
 10
75.382055
 20
445.296868
 11
75.382055
 21
457.696868
  0
LINE
  5
DE
100
AcDbEntity
  8
M2
  6
DASHDOT
370
25
 62
     2
100
AcDbLine
 10
69.182055
 20
451.496868
 11
81.582055
 21
451.496868
  0
LINE
  5
DF
100
AcDbEntity
  8
M2
  6
DASHDOT
370
25
 62
     2
100
AcDbLine
 10
69.182055
 20
295.896868
 11
81.582055
 21
295.896868
  0
LINE
  5
E0
100
AcDbEntity
  8
M2
  6
DASHDOT
370
25
 62
     2
100
AcDbLine
 10
75.382055
 20
302.096868
 11
75.382055
 21
289.696868
  0
LINE
  5
E1
100
AcDbEntity
  8
M2
  6
DASHED
370
25
 62
     2
100
AcDbLine
 10
158.326797
 20
455.096868
 11
158.326797
 21
447.896868
  0
LINE
  5
E2
100
AcDbEntity
  8
M2
  6
DASHDOT
370
25
 62
     2
100
AcDbLine
 10
153.890545
 20
451.496868
 11
161.526797
 21
451.496868
  0
LINE
  5
E3
100
AcDbEntity
  8
M2
  6
DASHED
370
25
 62
     2
100
AcDbLine
 10
168.726797
 20
455.096868
 11
168.726797
 21
447.896868
  0
LINE
  5
E4
100
AcDbEntity
  8
M2
  6
DASHDOT
370
25
 62
     2
100
AcDbLine
 10
164.597146
 20
451.496868
 11
171.926797
 21
451.496868
  0
LINE
  5
E5
100
AcDbEntity
  8
M2
  6
DASHED
370
25
 62
     2
100
AcDbLine
 10
158.326797
 20
292.296868
 11
158.326797
 21
299.496868
  0
LINE
  5
E6
100
AcDbEntity
  8
M2
  6
DASHDOT
370
25
 62
     2
100
AcDbLine
 10
153.890545
 20
295.896868
 11
161.526797
 21
295.896868
  0
LINE
  5
E7
100
AcDbEntity
  8
M2
  6
DASHED
370
25
 62
     2
100
AcDbLine
 10
168.726797
 20
292.296868
 11
168.726797
 21
299.496868
  0
LINE
  5
E8
100
AcDbEntity
  8
M2
  6
DASHDOT
370
25
 62
     2
100
AcDbLine
 10
164.597146
 20
295.896868
 11
171.926797
 21
295.896868
  0
LINE
  5
E9
100
AcDbEntity
  8
M2
  6
DASHED
370
25
100
AcDbLine
 10
173.526797
 20
432.596673
 11
173.526797
 21
427.596673
  0
LINE
  5
EA
100
AcDbEntity
  8
M2
  6
DASHDOT
370
25
100
AcDbLine
 10
167.680276
 20
430.096673
 11
185.526797
 21
430.096673
  0
LINE
  5
EB
100
AcDbEntity
  8
M2
  6
DASHED
370
25
100
AcDbLine
 10
173.526797
 20
314.797063
 11
173.526797
 21
319.797063
  0
LINE
  5
EC
100
AcDbEntity
  8
M2
  6
DASHDOT
370
25
100
AcDbLine
 10
167.680276
 20
317.297063
 11
185.526797
 21
317.297063
  0
LINE
  5
ED
100
AcDbEntity
  8
M2
  6
DASHDOT
370
25
 62
     4
100
AcDbLine
 10
11.982055
 20
66.319365
 11
85.982055
 21
66.319365
  0
LINE
  5
EE
100
AcDbEntity
  8
M2
  6
DASHDOT
370
25
 62
     4
100
AcDbLine
 10
85.982055
 20
66.319365
 11
85.982055
 21
204.319268
  0
LINE
  5
EF
100
AcDbEntity
  8
M2
  6
DASHDOT
370
25
 62
     4
100
AcDbLine
 10
11.982055
 20
204.319268
 11
11.982055
 21
66.319365
  0
LINE
  5
F0
100
AcDbEntity
  8
M2
  6
DASHDOT
370
25
 62
     4
100
AcDbLine
 10
48.982055
 20
61.981279
 11
48.982055
 21
209.185186
  0
LINE
  5
F1
100
AcDbEntity
  8
M2
  6
DASHDOT
370
25
 62
     4
100
AcDbLine
 10
7.299926
 20
135.319365
 11
90.716998
 21
135.319365
  0
LINE
  5
F2
100
AcDbEntity
  8
M2
  6
DASHDOT
370
25
 62
     4
100
AcDbLine
 10
11.982153
 20
204.319268
 11
85.982055
 21
204.319268
  0
CIRCLE
  5
F3
100
AcDbEntity
  8
M2
  6
CONTINUOUS
370
25
100
AcDbCircle
 10
66.582055
 20
191.719268
 40
1.4
  0
CIRCLE
  5
F4
100
AcDbEntity
  8
M2
  6
CONTINUOUS
370
25
100
AcDbCircle
 10
31.382055
 20
191.719268
 40
1.4
  0
CIRCLE
  5
F5
100
AcDbEntity
  8
M2
  6
CONTINUOUS
370
25
100
AcDbCircle
 10
31.382055
 20
78.919365
 40
1.4
  0
CIRCLE
  5
F6
100
AcDbEntity
  8
M2
  6
CONTINUOUS
370
25
100
AcDbCircle
 10
66.582055
 20
78.919365
 40
1.4
  0
LINE
  5
F7
100
AcDbEntity
  8
M2
  6
DASHDOT
370
25
100
AcDbLine
 10
61.182055
 20
191.719268
 11
71.982055
 21
191.719268
  0
LINE
  5
F8
100
AcDbEntity
  8
M2
  6
DASHDOT
370
25
100
AcDbLine
 10
66.582055
 20
186.319268
 11
66.582055
 21
197.119268
  0
LINE
  5
F9
100
AcDbEntity
  8
M2
  6
DASHDOT
370
25
100
AcDbLine
 10
25.982055
 20
191.719268
 11
36.782055
 21
191.719268
  0
LINE
  5
FA
100
AcDbEntity
  8
M2
  6
DASHDOT
370
25
100
AcDbLine
 10
31.382055
 20
186.319268
 11
31.382055
 21
197.119268
  0
LINE
  5
FB
100
AcDbEntity
  8
M2
  6
DASHDOT
370
25
100
AcDbLine
 10
25.982055
 20
78.919365
 11
36.782055
 21
78.919365
  0
LINE
  5
FC
100
AcDbEntity
  8
M2
  6
DASHDOT
370
25
100
AcDbLine
 10
31.382055
 20
73.519365
 11
31.382055
 21
84.319365
  0
LINE
  5
FD
100
AcDbEntity
  8
M2
  6
DASHDOT
370
25
100
AcDbLine
 10
61.182055
 20
78.919365
 11
71.982055
 21
78.919365
  0
LINE
  5
FE
100
AcDbEntity
  8
M2
  6
DASHDOT
370
25
100
AcDbLine
 10
66.582055
 20
73.519365
 11
66.582055
 21
84.319365
  0
LINE
  5
FF
100
AcDbEntity
  8
M2
  6
DASHDOT
370
25
 62
     4
100
AcDbLine
 10
166.526797
 20
60.246967
 11
166.526797
 21
212.319268
  0
LINE
  5
100
100
AcDbEntity
  8
M2
  6
DASHDOT
370
25
 62
     4
100
AcDbLine
 10
122.089447
 20
135.319365
 11
208.06174
 21
135.319365
  0
LINE
  5
101
100
AcDbEntity
  8
M2
  6
DASHDOT
370
25
 62
     4
100
AcDbLine
 10
203.326797
 20
66.319365
 11
203.326797
 21
204.319268
  0
LINE
  5
102
100
AcDbEntity
  8
M2
  6
DASHDOT
370
25
 62
     4
100
AcDbLine
 10
129.326895
 20
204.319268
 11
203.326797
 21
204.319268
  0
LINE
  5
103
100
AcDbEntity
  8
M2
  6
DASHDOT
370
25
 62
     4
100
AcDbLine
 10
129.326797
 20
204.319268
 11
129.326797
 21
66.319365
  0
LINE
  5
104
100
AcDbEntity
  8
M2
  6
DASHDOT
370
25
 62
     4
100
AcDbLine
 10
129.326797
 20
66.319365
 11
203.326797
 21
66.319365
  0
LINE
  5
105
100
AcDbEntity
  8
M2
  6
DASHDOT
370
25
 62
     4
100
AcDbLine
 10
157.726797
 20
184.744181
 11
157.726797
 21
123.827312
  0
LINE
  5
106
100
AcDbEntity
  8
M2
  6
CONTINUOUS
370
25
 62
     7
100
AcDbLine
 10
134.126797
 20
173.319365
 11
134.126797
 21
137.319365
  0
LINE
  5
107
100
AcDbEntity
  8
M2
  6
CONTINUOUS
370
25
 62
     7
100
AcDbLine
 10
135.526797
 20
174.719365
 11
179.926797
 21
174.719365
  0
LINE
  5
108
100
AcDbEntity
  8
M2
  6
CONTINUOUS
370
25
 62
     7
100
AcDbLine
 10
135.526797
 20
135.919365
 11
179.926797
 21
135.919365
  0
LINE
  5
109
100
AcDbEntity
  8
M2
  6
CONTINUOUS
370
25
 62
     7
100
AcDbLine
 10
181.326797
 20
173.319365
 11
181.326797
 21
137.319365
  0
ARC
  5
10A
100
AcDbEntity
  8
M2
  6
CONTINUOUS
370
25
 62
     7
100
AcDbCircle
 10
179.926797
 20
173.319365
 40
1.4
100
AcDbArc
 50
0.0
 51
90.0
  0
ARC
  5
10B
100
AcDbEntity
  8
M2
  6
CONTINUOUS
370
25
 62
     7
100
AcDbCircle
 10
135.526797
 20
173.319365
 40
1.4
100
AcDbArc
 50
90.0
 51
180.0
  0
ARC
  5
10C
100
AcDbEntity
  8
M2
  6
CONTINUOUS
370
25
 62
     7
100
AcDbCircle
 10
135.526797
 20
137.319365
 40
1.4
100
AcDbArc
 50
180.0
 51
270.0
  0
ARC
  5
10D
100
AcDbEntity
  8
M2
  6
CONTINUOUS
370
25
 62
     7
100
AcDbCircle
 10
179.926797
 20
137.319365
 40
1.4
100
AcDbArc
 50
270.0
 51
360.0
  0
LINE
  5
10E
100
AcDbEntity
  8
M4
  6
CONTINUOUS
370
25
100
AcDbLine
 10
176.807966
 20
32.999996
 11
176.807966
 21
0.0
  0
LINE
  5
10F
100
AcDbEntity
  8
M4
  6
CONTINUOUS
370
25
100
AcDbLine
 10
12.807976
 20
32.999996
 11
12.807976
 21
0.0
  0
LINE
  5
110
100
AcDbEntity
  8
M4
  6
CONTINUOUS
370
25
100
AcDbLine
 10
12.807976
 20
0.0
 11
176.807966
 21
0.0
  0
LINE
  5
111
100
AcDbEntity
  8
M4
  6
CONTINUOUS
370
25
100
AcDbLine
 10
12.807976
 20
32.999996
 11
176.807966
 21
32.999996
  0
LINE
  5
112
100
AcDbEntity
  8
M4
  6
CONTINUOUS
370
25
100
AcDbLine
 10
138.807982
 20
22.000003
 11
138.807982
 21
32.999996
  0
LINE
  5
113
100
AcDbEntity
  8
M4
  6
CONTINUOUS
370
25
100
AcDbLine
 10
36.807983
 20
22.000003
 11
138.807982
 21
22.000003
  0
LINE
  5
114
100
AcDbEntity
  8
M4
  6
CONTINUOUS
370
25
 60
     1
100
AcDbLine
 10
156.807966
 20
22.000003
 11
156.807966
 21
32.999996
  0
LINE
  5
115
100
AcDbEntity
  8
M4
  6
CONTINUOUS
370
25
100
AcDbLine
 10
138.807982
 20
22.000003
 11
156.807966
 21
22.000003
  0
TEXT
  5
116
100
AcDbEntity
  8
M4
100
AcDbText
 10
140.929094
 20
24.999994
 40
5.0
  1
ＲＥＶ．：
 41
0.666667
  7
STANDARD
100
AcDbText
  0
LINE
  5
117
100
AcDbEntity
  8
M4
  6
CONTINUOUS
370
25
 60
     1
100
AcDbLine
 10
176.807966
 20
22.000003
 11
176.807966
 21
32.999996
  0
LINE
  5
118
100
AcDbEntity
  8
M4
  6
CONTINUOUS
370
25
100
AcDbLine
 10
156.807966
 20
22.000003
 11
176.807966
 21
22.000003
  0
TEXT
  5
119
100
AcDbEntity
  8
M4
100
AcDbText
 10
164.946843
 20
24.999994
 40
5.0
  1
００
 41
0.833333
  7
STANDARD
100
AcDbText
  0
LINE
  5
11A
100
AcDbEntity
  8
M4
  6
CONTINUOUS
370
25
 60
     1
100
AcDbLine
 10
36.807983
 20
22.000003
 11
36.807983
 21
32.999996
  0
LINE
  5
11B
100
AcDbEntity
  8
M4
  6
CONTINUOUS
370
25
100
AcDbLine
 10
12.807976
 20
22.000003
 11
36.807983
 21
22.000003
  0
TEXT
  5
11C
100
AcDbEntity
  8
M4
100
AcDbText
 10
14.946855
 20
24.999994
 40
5.0
  1
登録名：
 41
0.833333
  7
STANDARD
100
AcDbText
  0
LINE
  5
11D
100
AcDbEntity
  8
M4
  6
CONTINUOUS
370
25
 60
     1
100
AcDbLine
 10
176.807966
 20
11.0
 11
176.807966
 21
22.000003
  0
LINE
  5
11E
100
AcDbEntity
  8
M4
  6
CONTINUOUS
370
25
100
AcDbLine
 10
156.807966
 20
11.0
 11
176.807966
 21
11.0
  0
LINE
  5
11F
100
AcDbEntity
  8
M4
  6
CONTINUOUS
370
25
 60
     1
100
AcDbLine
 10
156.807966
 20
11.0
 11
156.807966
 21
22.000003
  0
LINE
  5
120
100
AcDbEntity
  8
M4
  6
CONTINUOUS
370
25
100
AcDbLine
 10
36.807983
 20
11.0
 11
156.807966
 21
11.0
  0
TEXT
  5
121
100
AcDbEntity
  8
M4
100
AcDbText
 10
38.946868
 20
14.000006
 40
5.0
  1
表面形
 41
0.833333
  7
STANDARD
100
AcDbText
  0
LINE
  5
122
100
AcDbEntity
  8
M4
  6
CONTINUOUS
370
25
 60
     1
100
AcDbLine
 10
36.807983
 20
11.0
 11
36.807983
 21
22.000003
  0
LINE
  5
123
100
AcDbEntity
  8
M4
  6
CONTINUOUS
370
25
100
AcDbLine
 10
12.807976
 20
11.0
 11
36.807983
 21
11.0
  0
TEXT
  5
124
100
AcDbEntity
  8
M4
100
AcDbText
 10
13.932976
 20
14.000006
 40
5.0
  1
接続方式：
 41
0.75
  7
STANDARD
100
AcDbText
  0
LINE
  5
125
100
AcDbEntity
  8
M4
  6
CONTINUOUS
370
25
 60
     1
100
AcDbLine
 10
176.807966
 20
0.0
 11
176.807966
 21
11.0
  0
LINE
  5
126
100
AcDbEntity
  8
M4
  6
CONTINUOUS
370
25
 60
     1
100
AcDbLine
 10
156.807966
 20
0.0
 11
176.807966
 21
0.0
  0
LINE
  5
127
100
AcDbEntity
  8
M4
  6
CONTINUOUS
370
25
 60
     1
100
AcDbLine
 10
156.807966
 20
0.0
 11
156.807966
 21
11.0
  0
LINE
  5
128
100
AcDbEntity
  8
M4
  6
CONTINUOUS
370
25
 60
     1
100
AcDbLine
 10
36.807983
 20
0.0
 11
156.807966
 21
0.0
  0
TEXT
  5
129
100
AcDbEntity
  8
M4
100
AcDbText
 10
38.932988
 20
3.0
 40
5.0
  1
ＲＧ－４００ＢＮ／ＲＧ－４００ＢＨ
 41
0.75
  7
STANDARD
100
AcDbText
  0
LINE
  5
12A
100
AcDbEntity
  8
M4
  6
CONTINUOUS
370
25
 60
     1
100
AcDbLine
 10
36.807983
 20
0.0
 11
36.807983
 21
11.0
  0
LINE
  5
12B
100
AcDbEntity
  8
M4
  6
CONTINUOUS
370
25
 60
     1
100
AcDbLine
 10
12.807976
 20
0.0
 11
36.807983
 21
0.0
  0
TEXT
  5
12C
100
AcDbEntity
  8
M4
100
AcDbText
 10
13.932976
 20
3.0
 40
5.0
  1
適用形式：
 41
0.75
  7
STANDARD
100
AcDbText
  0
TEXT
  5
12D
100
AcDbEntity
  8
M4
100
AcDbText
 10
38.946868
 20
24.999994
 40
5.0
  1
ＲＧ－４００ＢＮ　４Ｐ
 41
0.833333
  7
STANDARD
100
AcDbText
  0
ENDSEC
  0
SECTION
  2
OBJECTS
  0
DICTIONARY
  5
C
100
AcDbDictionary
  3
ACAD_GROUP
350
D
  3
ACAD_MLINESTYLE
350
E
  0
DICTIONARY
  5
D
102
{ACAD_REACTORS
330
C
102
}
100
AcDbDictionary
  0
DICTIONARY
  5
E
102
{ACAD_REACTORS
330
C
102
}
100
AcDbDictionary
  3
STANDARD
350
13
  0
MLINESTYLE
  5
13
102
{ACAD_REACTORS
330
E
102
}
100
AcDbMlineStyle
  2
STANDARD
 70
     0
  3

 62
     0
 51
90.0
 52
90.0
 71
     2
 49
0.5
 62
   256
  6
BYLAYER
 49
-0.5
 62
   256
  6
BYLAYER
  0
ENDSEC
  0
EOF
