  0
SECTION
  2
HEADER
  9
$ACADVER
  1
AC1015
  9
$INSBASE
 10
0.000000
 20
0.000000
 30
0.0
  9
$VIEWCTR
 10
7.531722
 20
4.5
  9
$VIEWSIZE
 40
9.0
  9
$SNAPMODE
 70
     0
  9
$SNAPUNIT
 10
1.0
 20
1.0
  9
$SNAPBASE
 10
0.0
 20
0.0
  9
$SNAPANG
 50
0.0
  9
$SNAPSTYLE
 70
     0
  9
$SNAPISOPAIR
 70
     0
  9
$GRIDMODE
 70
     0
  9
$GRIDUNIT
 10
0.0
 20
0.0
  9
$ORTHOMODE
 70
     0
  9
$REGENMODE
 70
     1
  9
$FILLMODE
 70
     1
  9
$QTEXTMODE
 70
     0
  9
$DRAGMODE
 70
     2
  9
$LTSCALE
  40
     1.000000
  9
$OSMODE
 70
     0
  9
$ATTMODE
 70
     1
  9
$TEXTSIZE
 40
0.2
  9
$TRACEWID
 40
0.05
  9
$TEXTSTYLE
  7
STANDARD
  9
$CELTYPE
  6
BYLAYER
  9
$CECOLOR
 62
   256
  9
$DIMSCALE
 40
1.0
  9
$DIMASZ
 40
0.18
  9
$DIMEXO
 40
0.0625
  9
$DIMDLI
 40
0.38
  9
$DIMRND
 40
0.0
  9
$DIMDLE
 40
0.0
  9
$DIMEXE
 40
0.18
  9
$DIMTP
 40
0.0
  9
$DIMTM
 40
0.0
  9
$DIMTXT
 40
0.18
  9
$DIMCEN
 40
0.09
  9
$DIMTSZ
 40
0.0
  9
$DIMADEC
 70
     0
  9
$DIMALTRND
 40
0.000000
  9
$DIMAZIN
 70
     0
  9
$DIMDSEP
 70
    46
  9
$DIMATFIT
 70
     3
  9
$DIMFRAC
 70
     0
  9
$DIMLDRBLK
  1

  9
$DIMLUNIT
 70
     2
  9
$DIMLWD
 70
   13
  9
$DIMLWE
 70
   13
  9
$DIMTMOVE
 70
     0
  9
$CELWEIGHT
370
    25
  9
$LWDISPLAY
290
    1
  9
$EXTNAMES
290
    1
  9
$DIMTOL
 70
     0
  9
$DIMLIM
 70
     0
  9
$DIMTIH
 70
     1
  9
$DIMTOH
 70
     1
  9
$DIMSE1
 70
     0
  9
$DIMSE2
 70
     0
  9
$DIMTAD
 70
     0
  9
$DIMZIN
 70
     0
  9
$DIMBLK
  1

  9
$LUNITS
 70
     2
  9
$LUPREC
 70
     4
  9
$AXISMODE
 70
     0
  9
$AXISUNIT
 10
0.0
 20
0.0
  9
$SKETCHINC
 40
0.1
  9
$FILLETRAD
 40
0.0
  9
$AUNITS
 70
     0
  9
$AUPREC
 70
     0
  9
$MENU
  1
ACAD
  9
$ELEVATION
 40
0.0
  9
$THICKNESS
 40
0.0
  9
$VIEWDIR
 10
0.0
 20
0.0
 30
1.0
  9
$LIMCHECK
 70
     0
  9
$BLIPMODE
 70
     1
  9
$CHAMFERA
 40
0.0
  9
$CHAMFERB
 40
0.0
  9
$FASTZOOM
 70
     1
  9
$SKPOLY
 70
     0
  9
$TDCREATE
 40
0000000.0000000000
  9
$TDUPDATE
 40
0000000.0000000000
  9
$TDINDWG
 40
0.0000000000
  9
$TDUSRTIMER
 40
0.0000000000
  9
$USRTIMER
 70
     1
  9
$ANGBASE
 50
0.0
  9
$ANGDIR
 70
     0
  9
$PDMODE
 70
     0
  9
$PDSIZE
 40
0.0
  9
$PLINEWID
 40
0.0
  9
$COORDS
 70
     0
  9
$USERI1
 70
     0
  9
$USERI2
 70
     0
  9
$USERI3
 70
     0
  9
$USERI4
 70
     0
  9
$USERI5
 70
     0
  9
$USERR1
 40
0.0
  9
$USERR2
 40
0.0
  9
$USERR3
 40
0.0
  9
$USERR4
 40
0.0
  9
$USERR5
 40
0.0
  9
$CLAYER
  8
M2
  9
$EXTMIN
 10
0.0
 20
0.0
  9
$EXTMAX
 10
841.0
 20
594.0
  9
$LIMMIN
 10
0.0
 20
0.0
  9
$LIMMAX
 10
841.0
 20
594.0
  9
$HANDSEED
  5
122
  0
ENDSEC
  0
SECTION
  2
CLASSES
  0
CLASS
  1
DIMASSOC
  2
AcDbDimAssoc
  3
"AcDbDimAssoc|Product Desc:     AcDim ARX App For Dimension|Company:          Autodesk, Inc.|WEB Address:      www.autodesk.com"
 90
        0
280
     0
281
     0
  0
ENDSEC
  0
SECTION
  2
TABLES
  0
TABLE
  2
VPORT
  5
8
100
AcDbSymbolTable
 70
     2
  0
VPORT
  5
14
100
AcDbSymbolTableRecord
100
AcDbViewportTableRecord
  2
*ACTIVE
 70
     0
 10
0.0
 20
0.0
 11
1.0
 21
1.0
 12
484.0
 22
297.0
 13
0.0
 23
0.0
 14
1.0
 24
1.0
 15
0.0
 25
0.0
 16
0.0
 26
0.0
 36
1.0
 17
0.0
 27
0.0
 37
0.0
 40
594.0
 41
2.0
 42
50.0
 43
0.0
 44
0.0
 50
0.0
 51
0.0
 71
     0
 72
   100
 73
     1
 74
     1
 75
     0
 76
     0
 77
     0
 78
     0
  0
ENDTAB
  0
TABLE
  2
LTYPE
  5
5
100
AcDbSymbolTable
 70
     5
  0
LTYPE
  5
15
100
AcDbSymbolTableRecord
100
AcDbLinetypeTableRecord
  2
BYBLOCK
 70
     0
  3

 72
    65
 73
     0
 40
0.0
  0
LTYPE
  5
16
100
AcDbSymbolTableRecord
100
AcDbLinetypeTableRecord
  2
BYLAYER
 70
     0
  3

 72
    65
 73
     0
 40
0.0
  0
LTYPE
  5
17
100
AcDbSymbolTableRecord
100
AcDbLinetypeTableRecord
  2
CONTINUOUS
 70
    64
  3
Solid line
 72
    65
 73
     0
 40
0.0
  0
LTYPE
  5
18
100
AcDbSymbolTableRecord
100
AcDbLinetypeTableRecord
  2
DASHED
 70
    64
  3
__ __ __ __ __ __ __ __ __ __ __ __ __ __ __ __
 72
    65
 73
     2
 40
0.75
 49
0.5
 74
     0
 49
-0.25
 74
     0
  0
LTYPE
  5
19
100
AcDbSymbolTableRecord
100
AcDbLinetypeTableRecord
  2
DASHDOT
 70
    64
  3
__ . __ . __ . __ . __ . __ . __ . __ . __ . __
 72
    65
 73
     4
 40
1.0
 49
0.5
 74
     0
 49
-0.25
 74
     0
 49
0.0
 74
     0
 49
-0.25
 74
     0
  0
LTYPE
  5
1A
100
AcDbSymbolTableRecord
100
AcDbLinetypeTableRecord
  2
DIVIDE
 70
    64
  3
____ . . ____ . . ____ . . ____ . . ____ . . __
 72
    65
 73
     6
 40
1.25
 49
0.5
 74
     0
 49
-0.25
 74
     0
 49
0.0
 74
     0
 49
-0.25
 74
     0
 49
0.0
 74
     0
 49
-0.25
 74
     0
  0
LTYPE
  5
1B
100
AcDbSymbolTableRecord
100
AcDbLinetypeTableRecord
  2
DOT
 70
    64
  3
. . . . . . . . . . . . . . . . . . . . . . . .
 72
    65
 73
     2
 40
0.25
 49
0.0
 74
     0
 49
-0.25
 74
     0
  0
ENDTAB
  0
TABLE
  2
LAYER
  5
2
100
AcDbSymbolTable
 70
   102
  0
LAYER
  5
F
100
AcDbSymbolTableRecord
100
AcDbLayerTableRecord
  2
0
 70
     0
 62
     7
  6
CONTINUOUS
370
     -3
390
F
  0
LAYER
  5
1C
100
AcDbSymbolTableRecord
100
AcDbLayerTableRecord
  2
M2
 70
     0
 62
     3
  6
CONTINUOUS
370
     -3
390
F
  0
LAYER
  5
1D
100
AcDbSymbolTableRecord
100
AcDbLayerTableRecord
  2
M4
 70
     0
 62
     7
  6
CONTINUOUS
370
     -3
390
F
  0
LAYER
  5
1E
100
AcDbSymbolTableRecord
100
AcDbLayerTableRecord
  2
DD0
 70
     0
 62
     4
  6
CONTINUOUS
370
     -3
390
F
  0
ENDTAB
  0
TABLE
  2
STYLE
  5
3
100
AcDbSymbolTable
 70
     2
  0
STYLE
  5
10
100
AcDbSymbolTableRecord
100
AcDbTextStyleTableRecord
  2
STANDARD
 70
     0
 40
0.0
 41
1.0
 50
0.0
 71
     0
 42
0.2
  3
txt
  4
BIGFONT
  0
ENDTAB
  0
TABLE
  2
VIEW
  5
6
100
AcDbSymbolTable
 70
     0
  0
ENDTAB
  0
TABLE
  2
UCS
  5
7
100
AcDbSymbolTable
 70
     0
  0
ENDTAB
  0
TABLE
  2
APPID
  5
9
100
AcDbSymbolTable
 70
     1
  0
APPID
  5
11
100
AcDbSymbolTableRecord
100
AcDbRegAppTableRecord
  2
ACAD
 70
     0
  0
ENDTAB
  0
TABLE
  2
DIMSTYLE
  5
A
100
AcDbSymbolTable
 70
     2
100
AcDbDimStyleTable
 71
     1
  0
DIMSTYLE
105
50
100
AcDbSymbolTableRecord
100
AcDbDimStyleTableRecord
  2
STANDARD
 70
     0
  3

  4

  5

  6
_OPEN
  7
_OPEN
 40
1.0
 41
3.0
 42
0.0
 43
8.0
 44
1.5
 45
0.0
 46
0.0
 47
0.0
 48
0.0
140
3.2
141
0.09
142
0.0
143
0.03937
144
1.0
145
0.0
146
1.0
147
1.0
148
0.000000
 71
     0
 72
     0
 73
     1
 74
     1
 75
     0
 76
     0
 77
     3
 78
     8
170
     0
171
     2
172
     0
173
     1
174
     0
175
     0
176
     0
177
     0
178
     0
270
     2
271
     2
272
     4
273
     2
274
     2
340
10
275
     0
278
    46
280
     0
281
     0
282
     0
283
     1
284
     0
285
     0
286
     0
287
     3
288
     0
371
   13
372
   13
  0
DIMSTYLE
105
51
100
AcDbSymbolTableRecord
100
AcDbDimStyleTableRecord
  2
LEADSTYL
 70
     0
  3

  4

  5

  6
_OPEN
  7
_OPEN
 40
1.0
 41
3.0
 42
0.0625
 43
0.38
 44
0.18
 45
0.0
 46
0.0
 47
0.0
 48
0.0
140
3.2
141
0.09
142
0.0
143
25.4
144
1.0
145
0.0
146
1.0
147
1.0
 71
     0
 72
     0
 73
     1
 74
     1
 75
     0
 76
     0
 77
     0
 78
     0
170
     0
171
     2
172
     0
173
     1
174
     0
175
     0
176
     0
177
     0
178
     0
270
     2
271
     4
272
     4
273
     2
274
     2
340
10
275
     0
280
     0
281
     0
282
     0
283
     1
284
     0
285
     0
286
     0
287
     3
288
     0
  0
ENDTAB
  0
TABLE
  2
BLOCK_RECORD
  5
1
100
AcDbSymbolTable
 70
     7
  0
BLOCK_RECORD
  5
1F
100
AcDbSymbolTableRecord
100
AcDbBlockTableRecord
  2
*MODEL_SPACE
  0
BLOCK_RECORD
  5
22
100
AcDbSymbolTableRecord
100
AcDbBlockTableRecord
  2
*PAPER_SPACE
  0
BLOCK_RECORD
  5
25
100
AcDbSymbolTableRecord
100
AcDbBlockTableRecord
  2
_NONE
  0
BLOCK_RECORD
  5
29
100
AcDbSymbolTableRecord
100
AcDbBlockTableRecord
  2
_OPEN
  0
BLOCK_RECORD
  5
2F
100
AcDbSymbolTableRecord
100
AcDbBlockTableRecord
  2
_CLOSED
  0
BLOCK_RECORD
  5
36
100
AcDbSymbolTableRecord
100
AcDbBlockTableRecord
  2
_ORIGIN
  0
BLOCK_RECORD
  5
3B
100
AcDbSymbolTableRecord
100
AcDbBlockTableRecord
  2
_DOT
  0
BLOCK_RECORD
  5
43
100
AcDbSymbolTableRecord
100
AcDbBlockTableRecord
  2
_OBLIQUE
  0
BLOCK_RECORD
  5
47
100
AcDbSymbolTableRecord
100
AcDbBlockTableRecord
  2
DIMS0
  0
ENDTAB
  0
ENDSEC
  0
SECTION
  2
BLOCKS
  0
BLOCK
  5
20
100
AcDbEntity
  8
0
100
AcDbBlockBegin
  2
*MODEL_SPACE
 70
     0
 10
0.0
 20
0.0
 30
0.0
  3
*MODEL_SPACE
  1

  0
ENDBLK
  5
21
100
AcDbEntity
  8
0
100
AcDbBlockEnd
  0
BLOCK
  5
23
100
AcDbEntity
 67
     1
  8
0
100
AcDbBlockBegin
  2
*PAPER_SPACE
 70
     0
 10
0.0
 20
0.0
 30
0.0
  3
*PAPER_SPACE
  1

  0
ENDBLK
  5
24
100
AcDbEntity
 67
     1
  8
0
100
AcDbBlockEnd
  0
BLOCK
  5
26
100
AcDbEntity
  8
0
100
AcDbBlockBegin
  2
_NONE
 70
     0
 10
0.0
 20
0.0
  0
CIRCLE
  5
27
100
AcDbEntity
  8
0
 62
     0
370
13
100
AcDbCircle
 10
0.0
 20
0.0
 40
0.25
  0
ENDBLK
  5
28
100
AcDbEntity
  8
0
100
AcDbBlockEnd
  0
BLOCK
  5
2A
100
AcDbEntity
  8
0
100
AcDbBlockBegin
  2
_OPEN
 70
     0
 10
0.0
 20
0.0
  0
LINE
  5
2B
100
AcDbEntity
  8
0
 62
     0
370
13
100
AcDbLine
 10
-0.965926
 20
0.258819
 11
0.0
 21
0.0
  0
LINE
  5
2C
100
AcDbEntity
  8
0
 62
     0
370
13
100
AcDbLine
 10
0.0
 20
0.0
 11
-0.965926
 21
-0.258819
  0
LINE
  5
2D
100
AcDbEntity
  8
0
 62
     0
370
13
100
AcDbLine
 10
0.0
 20
0.0
 11
-1.0
 21
0.0
  0
ENDBLK
  5
2E
100
AcDbEntity
  8
0
100
AcDbBlockEnd
  0
BLOCK
  5
30
100
AcDbEntity
  8
0
100
AcDbBlockBegin
  2
_CLOSED
 70
     0
 10
0.0
 20
0.0
  0
LINE
  5
31
100
AcDbEntity
  8
0
 62
     0
370
13
100
AcDbLine
 10
-0.965926
 20
0.258819
 11
0.0
 21
0.0
  0
LINE
  5
32
100
AcDbEntity
  8
0
 62
     0
370
13
100
AcDbLine
 10
0.0
 20
0.0
 11
-0.965926
 21
-0.258819
  0
LINE
  5
33
100
AcDbEntity
  8
0
 62
     0
370
13
100
AcDbLine
 10
-0.965926
 20
0.258819
 11
-0.965926
 21
-0.258819
  0
LINE
  5
34
100
AcDbEntity
  8
0
 62
     0
370
13
100
AcDbLine
 10
0.0
 20
0.0
 11
-1.0
 21
0.0
  0
ENDBLK
  5
35
100
AcDbEntity
  8
0
100
AcDbBlockEnd
  0
BLOCK
  5
37
100
AcDbEntity
  8
0
100
AcDbBlockBegin
  2
_ORIGIN
 70
     0
 10
0.0
 20
0.0
  0
CIRCLE
  5
38
100
AcDbEntity
  8
0
 62
     0
370
13
100
AcDbCircle
 10
0.0
 20
0.0
 40
0.5
  0
LINE
  5
39
100
AcDbEntity
  8
0
 62
     0
370
13
100
AcDbLine
 10
0.0
 20
0.0
 11
-1.0
 21
0.0
  0
ENDBLK
  5
3A
100
AcDbEntity
  8
0
100
AcDbBlockEnd
  0
BLOCK
  5
3C
100
AcDbEntity
  8
0
100
AcDbBlockBegin
  2
_DOT
 70
     0
 10
0.0
 20
0.0
  0
POLYLINE
  5
3D
100
AcDbEntity
  8
0
 62
     0
100
AcDb2dPolyline
 66
     1
 70
     1
 40
0.5
 41
0.5
  0
VERTEX
  5
3E
100
AcDbEntity
  8
0
 62
     0
100
AcDbVertex
100
AcDb2dVertex
 10
-0.25
 20
0.0
 42
1.0
  0
VERTEX
  5
3F
100
AcDbEntity
  8
0
 62
     0
100
AcDbVertex
100
AcDb2dVertex
 10
0.25
 20
0.0
 42
1.0
  0
SEQEND
  5
40
100
AcDbEntity
  8
0
 62
     0
  0
LINE
  5
41
100
AcDbEntity
  8
0
 62
     0
370
13
100
AcDbLine
 10
-0.5
 20
0.0
 11
-1.0
 21
0.0
  0
ENDBLK
  5
42
100
AcDbEntity
  8
0
100
AcDbBlockEnd
  0
BLOCK
  5
44
100
AcDbEntity
  8
0
100
AcDbBlockBegin
  2
_OBLIQUE
 70
     0
 10
0.0
 20
0.0
  0
LINE
  5
45
100
AcDbEntity
  8
0
 62
     0
370
13
100
AcDbLine
 10
-0.353553
 20
-0.353553
 11
0.353553
 21
0.353553
  0
ENDBLK
  5
46
100
AcDbEntity
  8
0
100
AcDbBlockEnd
  0
BLOCK
  5
48
100
AcDbEntity
  8
DD0
100
AcDbBlockBegin
  2
DIMS0
 70
     0
 10
0.0
 20
0.0
  0
LINE
  5
49
100
AcDbEntity
  8
DD0
  6
CONTINUOUS
370
13
100
AcDbLine
 10
18.454832
 20
413.324963
 11
18.489046
 21
416.324768
  0
LINE
  5
4A
100
AcDbEntity
  8
DD0
  6
CONTINUOUS
370
13
100
AcDbLine
 10
18.489046
 20
416.324768
 11
16.959513
 21
413.743968
  0
LINE
  5
4B
100
AcDbEntity
  8
DD0
  6
CONTINUOUS
370
13
100
AcDbLine
 10
18.489046
 20
416.324768
 11
-5.417308
 21
331.009247
  0
LINE
  5
4C
100
AcDbEntity
  8
DD0
  6
CONTINUOUS
370
13
100
AcDbLine
 10
-5.417308
 20
331.009247
 11
-93.917313
 21
331.009247
  0
TEXT
  5
4D
100
AcDbEntity
  8
DD0
100
AcDbText
 10
-90.092313
 20
332.009247
 40
6.3
  1
Ｍ８ねじ（６０－１００Ａ）
 41
0.833333
  7
STANDARD
100
AcDbText
  0
ENDBLK
  5
4E
100
AcDbEntity
  8
DD0
100
AcDbBlockEnd
  0
ENDSEC
  0
SECTION
  2
ENTITIES
  0
INSERT
  5
4F
100
AcDbEntity
  8
DD0
100
AcDbBlockReference
  2
DIMS0
 10
0.0
 20
0.0
  0
LINE
  5
52
100
AcDbEntity
  8
M2
  6
CONTINUOUS
370
25
 62
     4
100
AcDbLine
 10
201.714749
 20
415.71737
 11
281.714749
 21
415.71737
  0
LINE
  5
53
100
AcDbEntity
  8
M2
  6
CONTINUOUS
370
25
 62
     4
100
AcDbLine
 10
281.714749
 20
415.71737
 11
281.714749
 21
535.71737
  0
LINE
  5
54
100
AcDbEntity
  8
M2
  6
CONTINUOUS
370
25
 62
     4
100
AcDbLine
 10
281.714749
 20
535.71737
 11
201.714749
 21
535.717175
  0
LINE
  5
55
100
AcDbEntity
  8
M2
  6
DASHDOT
370
25
 62
     4
100
AcDbLine
 10
172.364553
 20
475.71737
 11
292.892948
 21
475.71737
  0
LINE
  5
56
100
AcDbEntity
  8
M2
  6
CONTINUOUS
370
25
 62
     4
100
AcDbLine
 10
184.665483
 20
490.047644
 11
183.3106
 21
484.613855
  0
LINE
  5
57
100
AcDbEntity
  8
M2
  6
CONTINUOUS
370
25
 62
     4
100
AcDbLine
 10
184.665678
 20
490.047644
 11
195.362749
 21
487.380031
  0
LINE
  5
58
100
AcDbEntity
  8
M2
  6
CONTINUOUS
370
25
 62
     4
100
AcDbLine
 10
183.310795
 20
484.613855
 11
195.362749
 21
481.60835
  0
LINE
  5
59
100
AcDbEntity
  8
M2
  6
CONTINUOUS
370
25
 62
     4
100
AcDbLine
 10
220.914749
 20
415.71737
 11
220.914749
 21
535.717175
  0
LINE
  5
5A
100
AcDbEntity
  8
M2
  6
CONTINUOUS
370
25
 62
     4
100
AcDbLine
 10
201.714749
 20
415.71737
 11
201.714749
 21
535.71698
  0
LINE
  5
5B
100
AcDbEntity
  8
M2
  6
CONTINUOUS
370
25
 62
     4
100
AcDbLine
 10
199.314749
 20
445.31737
 11
199.314749
 21
506.11737
  0
LINE
  5
5C
100
AcDbEntity
  8
M2
  6
CONTINUOUS
370
25
 62
     4
100
AcDbLine
 10
195.314749
 20
495.71737
 11
195.314749
 21
455.71737
  0
LINE
  5
5D
100
AcDbEntity
  8
M2
  6
CONTINUOUS
370
25
 62
     4
100
AcDbLine
 10
195.314749
 20
495.71737
 11
199.314749
 21
495.71737
  0
LINE
  5
5E
100
AcDbEntity
  8
M2
  6
CONTINUOUS
370
25
 62
     4
100
AcDbLine
 10
195.314749
 20
455.71737
 11
199.314749
 21
455.71737
  0
LINE
  5
5F
100
AcDbEntity
  8
M2
  6
CONTINUOUS
370
25
 62
     4
100
AcDbLine
 10
199.314749
 20
506.11737
 11
201.714749
 21
506.11737
  0
LINE
  5
60
100
AcDbEntity
  8
M2
  6
CONTINUOUS
370
25
 62
     4
100
AcDbLine
 10
199.314749
 20
445.31737
 11
201.714749
 21
445.31737
  0
LINE
  5
61
100
AcDbEntity
  8
M2
  6
CONTINUOUS
370
25
 62
     4
100
AcDbLine
 10
104.000025
 20
475.71698
 11
104.000025
 21
415.71698
  0
LINE
  5
62
100
AcDbEntity
  8
M2
  6
CONTINUOUS
370
25
 62
     4
100
AcDbLine
 10
104.000025
 20
415.71698
 11
8.000025
 21
415.71698
  0
LINE
  5
63
100
AcDbEntity
  8
M2
  6
CONTINUOUS
370
25
 62
     4
100
AcDbLine
 10
8.000025
 20
415.71698
 11
8.000025
 21
475.71698
  0
LINE
  5
64
100
AcDbEntity
  8
M2
  6
CONTINUOUS
370
25
 62
     4
100
AcDbLine
 10
39.600037
 20
463.716975
 11
39.600037
 21
475.716968
  0
LINE
  5
65
100
AcDbEntity
  8
M2
  6
CONTINUOUS
370
25
 62
     4
100
AcDbLine
 10
48.400026
 20
463.716975
 11
48.400026
 21
475.716968
  0
LINE
  5
66
100
AcDbEntity
  8
M2
  6
CONTINUOUS
370
25
 62
     4
100
AcDbLine
 10
38.800025
 20
428.51698
 11
49.200025
 21
428.51698
  0
LINE
  5
67
100
AcDbEntity
  8
M2
  6
CONTINUOUS
370
25
 62
     4
100
AcDbLine
 10
50.800025
 20
426.917175
 11
50.800025
 21
415.71698
  0
LINE
  5
68
100
AcDbEntity
  8
M2
  6
CONTINUOUS
370
25
 62
     4
100
AcDbLine
 10
37.200025
 20
415.71698
 11
37.200025
 21
426.91698
  0
LINE
  5
69
100
AcDbEntity
  8
M2
  6
DASHDOT
370
25
 62
     4
100
AcDbLine
 10
44.000025
 20
512.601685
 11
44.000025
 21
440.304128
  0
ARC
  5
6A
100
AcDbEntity
  8
M2
  6
CONTINUOUS
370
25
 62
     4
100
AcDbCircle
 10
38.800025
 20
426.91698
 40
1.6
100
AcDbArc
 50
89.999563
 51
179.999563
  0
ARC
  5
6B
100
AcDbEntity
  8
M2
  6
CONTINUOUS
370
25
 62
     4
100
AcDbCircle
 10
49.200025
 20
426.91698
 40
1.6
100
AcDbArc
 50
0.006994
 51
90.0
  0
LINE
  5
6C
100
AcDbEntity
  8
M2
  6
CONTINUOUS
370
25
 62
     4
100
AcDbLine
 10
46.262757
 20
419.454285
 11
41.737281
 21
423.97987
  0
LINE
  5
6D
100
AcDbEntity
  8
M2
  6
CONTINUOUS
370
25
 62
     4
100
AcDbLine
 10
41.737268
 20
419.454285
 11
46.262769
 21
423.97987
  0
LINE
  5
6E
100
AcDbEntity
  8
M2
  6
CONTINUOUS
370
25
 62
     4
100
AcDbLine
 10
62.800025
 20
428.51698
 11
73.200025
 21
428.51698
  0
LINE
  5
6F
100
AcDbEntity
  8
M2
  6
CONTINUOUS
370
25
 62
     4
100
AcDbLine
 10
74.800025
 20
426.917175
 11
74.800025
 21
415.71698
  0
LINE
  5
70
100
AcDbEntity
  8
M2
  6
CONTINUOUS
370
25
 62
     4
100
AcDbLine
 10
61.200025
 20
415.71698
 11
61.200025
 21
426.91698
  0
ARC
  5
71
100
AcDbEntity
  8
M2
  6
CONTINUOUS
370
25
 62
     4
100
AcDbCircle
 10
62.800025
 20
426.91698
 40
1.6
100
AcDbArc
 50
90.0
 51
179.999563
  0
ARC
  5
72
100
AcDbEntity
  8
M2
  6
CONTINUOUS
370
25
 62
     4
100
AcDbCircle
 10
73.200025
 20
426.91698
 40
1.6
100
AcDbArc
 50
0.006994
 51
90.0
  0
LINE
  5
73
100
AcDbEntity
  8
M2
  6
CONTINUOUS
370
25
 62
     4
100
AcDbLine
 10
70.262757
 20
419.454285
 11
65.737281
 21
423.97987
  0
LINE
  5
74
100
AcDbEntity
  8
M2
  6
CONTINUOUS
370
25
 62
     4
100
AcDbLine
 10
65.737268
 20
419.454285
 11
70.262769
 21
423.97987
  0
LINE
  5
75
100
AcDbEntity
  8
M2
  6
DASHDOT
370
25
 62
     4
100
AcDbLine
 10
4.752808
 20
475.71698
 11
106.20564
 21
475.71698
  0
LINE
  5
76
100
AcDbEntity
  8
M2
  6
CONTINUOUS
370
25
 62
     4
100
AcDbLine
 10
104.000025
 20
475.71698
 11
104.000025
 21
535.71698
  0
LINE
  5
77
100
AcDbEntity
  8
M2
  6
CONTINUOUS
370
25
 62
     4
100
AcDbLine
 10
104.000025
 20
535.71698
 11
57.200025
 21
535.716992
  0
LINE
  5
78
100
AcDbEntity
  8
M2
  6
CONTINUOUS
370
25
 62
     4
100
AcDbLine
 10
8.000025
 20
535.71698
 11
8.000025
 21
475.71698
  0
LINE
  5
79
100
AcDbEntity
  8
M2
  6
CONTINUOUS
370
25
 62
     4
100
AcDbLine
 10
39.600037
 20
490.044898
 11
39.600037
 21
475.716968
  0
LINE
  5
7A
100
AcDbEntity
  8
M2
  6
CONTINUOUS
370
25
 62
     4
100
AcDbLine
 10
48.400026
 20
490.044898
 11
48.400026
 21
475.716968
  0
LINE
  5
7B
100
AcDbEntity
  8
M2
  6
CONTINUOUS
370
25
 62
     4
100
AcDbLine
 10
38.800025
 20
522.91698
 11
49.200025
 21
522.91698
  0
LINE
  5
7C
100
AcDbEntity
  8
M2
  6
CONTINUOUS
370
25
 62
     4
100
AcDbLine
 10
50.800025
 20
524.516785
 11
50.800025
 21
535.71698
  0
LINE
  5
7D
100
AcDbEntity
  8
M2
  6
CONTINUOUS
370
25
 62
     4
100
AcDbLine
 10
37.200025
 20
535.71698
 11
37.200025
 21
524.51698
  0
ARC
  5
7E
100
AcDbEntity
  8
M2
  6
CONTINUOUS
370
25
 62
     4
100
AcDbCircle
 10
38.800025
 20
524.51698
 40
1.6
100
AcDbArc
 50
180.0
 51
270.0
  0
ARC
  5
7F
100
AcDbEntity
  8
M2
  6
CONTINUOUS
370
25
 62
     4
100
AcDbCircle
 10
49.200025
 20
524.51698
 40
1.6
100
AcDbArc
 50
270.0
 51
359.992569
  0
LINE
  5
80
100
AcDbEntity
  8
M2
  6
CONTINUOUS
370
25
 62
     4
100
AcDbLine
 10
46.262757
 20
531.979675
 11
41.737281
 21
527.45409
  0
LINE
  5
81
100
AcDbEntity
  8
M2
  6
CONTINUOUS
370
25
 62
     4
100
AcDbLine
 10
41.737268
 20
531.979675
 11
46.262769
 21
527.45409
  0
LINE
  5
82
100
AcDbEntity
  8
M2
  6
CONTINUOUS
370
25
 62
     4
100
AcDbLine
 10
62.800025
 20
522.91698
 11
73.200025
 21
522.91698
  0
LINE
  5
83
100
AcDbEntity
  8
M2
  6
CONTINUOUS
370
25
 62
     4
100
AcDbLine
 10
74.800025
 20
524.516785
 11
74.800025
 21
535.71698
  0
LINE
  5
84
100
AcDbEntity
  8
M2
  6
CONTINUOUS
370
25
 62
     4
100
AcDbLine
 10
61.200025
 20
535.71698
 11
61.200025
 21
524.51698
  0
ARC
  5
85
100
AcDbEntity
  8
M2
  6
CONTINUOUS
370
25
 62
     4
100
AcDbCircle
 10
62.800025
 20
524.51698
 40
1.6
100
AcDbArc
 50
180.0
 51
270.0
  0
ARC
  5
86
100
AcDbEntity
  8
M2
  6
CONTINUOUS
370
25
 62
     4
100
AcDbCircle
 10
73.200025
 20
524.51698
 40
1.6
100
AcDbArc
 50
269.999563
 51
359.992569
  0
LINE
  5
87
100
AcDbEntity
  8
M2
  6
CONTINUOUS
370
25
 62
     4
100
AcDbLine
 10
70.262757
 20
531.979675
 11
65.737281
 21
527.45409
  0
LINE
  5
88
100
AcDbEntity
  8
M2
  6
CONTINUOUS
370
25
 62
     4
100
AcDbLine
 10
65.737268
 20
531.979675
 11
70.262769
 21
527.45409
  0
LINE
  5
89
100
AcDbEntity
  8
M2
  6
CONTINUOUS
370
25
 62
     4
100
AcDbLine
 10
39.600037
 20
484.652905
 11
48.400026
 21
484.652905
  0
LINE
  5
8A
100
AcDbEntity
  8
M2
  6
CONTINUOUS
370
25
 62
     4
100
AcDbLine
 10
39.600037
 20
490.044898
 11
48.400026
 21
490.044898
  0
LINE
  5
8B
100
AcDbEntity
  8
M2
  6
CONTINUOUS
370
25
 62
     4
100
AcDbLine
 10
39.600037
 20
463.716975
 11
48.400026
 21
463.716975
  0
LINE
  5
8C
100
AcDbEntity
  8
M2
  6
CONTINUOUS
370
25
 62
     4
100
AcDbLine
 10
57.200025
 20
535.716785
 11
8.000025
 21
535.71698
  0
LINE
  5
8D
100
AcDbEntity
  8
M2
  6
CONTINUOUS
370
25
 62
     4
100
AcDbLine
 10
8.000025
 20
506.11698
 11
104.000025
 21
506.11698
  0
LINE
  5
8E
100
AcDbEntity
  8
M2
  6
CONTINUOUS
370
25
 62
     4
100
AcDbLine
 10
8.000025
 20
445.31698
 11
104.000025
 21
445.31698
  0
LINE
  5
8F
100
AcDbEntity
  8
M2
  6
CONTINUOUS
370
25
 62
     4
100
AcDbLine
 10
9.200025
 20
494.91698
 11
9.200025
 21
456.51698
  0
LINE
  5
90
100
AcDbEntity
  8
M2
  6
CONTINUOUS
370
25
 62
     4
100
AcDbLine
 10
10.000025
 20
455.71698
 11
78.000025
 21
455.71698
  0
LINE
  5
91
100
AcDbEntity
  8
M2
  6
CONTINUOUS
370
25
 62
     4
100
AcDbLine
 10
10.000025
 20
495.71698
 11
78.000025
 21
495.71698
  0
LINE
  5
92
100
AcDbEntity
  8
M2
  6
DASHDOT
370
25
 62
     4
100
AcDbLine
 10
56.000025
 20
547.47568
 11
56.000025
 21
405.71698
  0
LINE
  5
93
100
AcDbEntity
  8
M2
  6
CONTINUOUS
370
25
 62
     4
100
AcDbLine
 10
78.800025
 20
494.91698
 11
78.800025
 21
456.51698
  0
LINE
  5
94
100
AcDbEntity
  8
M2
  6
CONTINUOUS
370
25
 62
     4
100
AcDbLine
 10
13.200025
 20
524.516785
 11
13.200025
 21
535.71698
  0
LINE
  5
95
100
AcDbEntity
  8
M2
  6
CONTINUOUS
370
25
 62
     4
100
AcDbLine
 10
26.800025
 20
535.71698
 11
26.800025
 21
524.51698
  0
ARC
  5
96
100
AcDbEntity
  8
M2
  6
CONTINUOUS
370
25
 62
     4
100
AcDbCircle
 10
25.200025
 20
524.51698
 40
1.6
100
AcDbArc
 50
270.0
 51
360.0
  0
LINE
  5
97
100
AcDbEntity
  8
M2
  6
CONTINUOUS
370
25
 62
     4
100
AcDbLine
 10
25.200025
 20
522.91698
 11
14.800025
 21
522.91698
  0
ARC
  5
98
100
AcDbEntity
  8
M2
  6
CONTINUOUS
370
25
 62
     4
100
AcDbCircle
 10
14.800025
 20
524.51698
 40
1.6
100
AcDbArc
 50
180.007431
 51
270.000437
  0
LINE
  5
99
100
AcDbEntity
  8
M2
  6
CONTINUOUS
370
25
 62
     4
100
AcDbLine
 10
17.737293
 20
531.979675
 11
22.262769
 21
527.45409
  0
LINE
  5
9A
100
AcDbEntity
  8
M2
  6
CONTINUOUS
370
25
 62
     4
100
AcDbLine
 10
22.262781
 20
531.979675
 11
17.737281
 21
527.45409
  0
LINE
  5
9B
100
AcDbEntity
  8
M2
  6
CONTINUOUS
370
25
 62
     4
100
AcDbLine
 10
89.737268
 20
531.979675
 11
94.262769
 21
527.45409
  0
LINE
  5
9C
100
AcDbEntity
  8
M2
  6
CONTINUOUS
370
25
 62
     4
100
AcDbLine
 10
94.262757
 20
531.979675
 11
89.737281
 21
527.45409
  0
LINE
  5
9D
100
AcDbEntity
  8
M2
  6
CONTINUOUS
370
25
 62
     4
100
AcDbLine
 10
85.200025
 20
535.71698
 11
85.200025
 21
524.51698
  0
ARC
  5
9E
100
AcDbEntity
  8
M2
  6
CONTINUOUS
370
25
 62
     4
100
AcDbCircle
 10
86.800025
 20
524.51698
 40
1.6
100
AcDbArc
 50
180.0
 51
270.0
  0
LINE
  5
9F
100
AcDbEntity
  8
M2
  6
CONTINUOUS
370
25
 62
     4
100
AcDbLine
 10
86.800025
 20
522.91698
 11
97.200025
 21
522.91698
  0
ARC
  5
A0
100
AcDbEntity
  8
M2
  6
CONTINUOUS
370
25
 62
     4
100
AcDbCircle
 10
97.200025
 20
524.51698
 40
1.6
100
AcDbArc
 50
269.999563
 51
359.992569
  0
LINE
  5
A1
100
AcDbEntity
  8
M2
  6
CONTINUOUS
370
25
 62
     4
100
AcDbLine
 10
98.800025
 20
524.516785
 11
98.800025
 21
535.71698
  0
LINE
  5
A2
100
AcDbEntity
  8
M2
  6
CONTINUOUS
370
25
 62
     4
100
AcDbLine
 10
13.200025
 20
426.917175
 11
13.200025
 21
415.71698
  0
ARC
  5
A3
100
AcDbEntity
  8
M2
  6
CONTINUOUS
370
25
 62
     4
100
AcDbCircle
 10
14.800025
 20
426.91698
 40
1.6
100
AcDbArc
 50
89.999563
 51
179.992569
  0
LINE
  5
A4
100
AcDbEntity
  8
M2
  6
CONTINUOUS
370
25
 62
     4
100
AcDbLine
 10
25.200025
 20
428.51698
 11
14.800025
 21
428.51698
  0
ARC
  5
A5
100
AcDbEntity
  8
M2
  6
CONTINUOUS
370
25
 62
     4
100
AcDbCircle
 10
25.200025
 20
426.91698
 40
1.6
100
AcDbArc
 50
0.0
 51
90.0
  0
LINE
  5
A6
100
AcDbEntity
  8
M2
  6
CONTINUOUS
370
25
 62
     4
100
AcDbLine
 10
26.800025
 20
415.71698
 11
26.800025
 21
426.91698
  0
LINE
  5
A7
100
AcDbEntity
  8
M2
  6
CONTINUOUS
370
25
 62
     4
100
AcDbLine
 10
22.262781
 20
419.454285
 11
17.737281
 21
423.97987
  0
LINE
  5
A8
100
AcDbEntity
  8
M2
  6
CONTINUOUS
370
25
 62
     4
100
AcDbLine
 10
17.737293
 20
419.454285
 11
22.262769
 21
423.97987
  0
LINE
  5
A9
100
AcDbEntity
  8
M2
  6
CONTINUOUS
370
25
 62
     4
100
AcDbLine
 10
85.200025
 20
415.71698
 11
85.200025
 21
426.91698
  0
ARC
  5
AA
100
AcDbEntity
  8
M2
  6
CONTINUOUS
370
25
 62
     4
100
AcDbCircle
 10
86.800025
 20
426.91698
 40
1.6
100
AcDbArc
 50
90.0
 51
180.0
  0
LINE
  5
AB
100
AcDbEntity
  8
M2
  6
CONTINUOUS
370
25
 62
     4
100
AcDbLine
 10
86.800025
 20
428.51698
 11
97.200025
 21
428.51698
  0
ARC
  5
AC
100
AcDbEntity
  8
M2
  6
CONTINUOUS
370
25
 62
     4
100
AcDbCircle
 10
97.200025
 20
426.91698
 40
1.6
100
AcDbArc
 50
0.007431
 51
90.000437
  0
LINE
  5
AD
100
AcDbEntity
  8
M2
  6
CONTINUOUS
370
25
 62
     4
100
AcDbLine
 10
98.800025
 20
426.917175
 11
98.800025
 21
415.71698
  0
LINE
  5
AE
100
AcDbEntity
  8
M2
  6
CONTINUOUS
370
25
 62
     4
100
AcDbLine
 10
94.262757
 20
419.454285
 11
89.737281
 21
423.97987
  0
LINE
  5
AF
100
AcDbEntity
  8
M2
  6
CONTINUOUS
370
25
 62
     4
100
AcDbLine
 10
89.737268
 20
419.454285
 11
94.262769
 21
423.97987
  0
CIRCLE
  5
B0
100
AcDbEntity
  8
M2
  6
CONTINUOUS
370
25
 62
     4
100
AcDbCircle
 10
91.999921
 20
529.71698
 40
5.6
  0
CIRCLE
  5
B1
100
AcDbEntity
  8
M2
  6
CONTINUOUS
370
25
 62
     4
100
AcDbCircle
 10
67.999921
 20
529.71698
 40
5.6
  0
CIRCLE
  5
B2
100
AcDbEntity
  8
M2
  6
CONTINUOUS
370
25
 62
     4
100
AcDbCircle
 10
44.000025
 20
529.716876
 40
5.6
  0
CIRCLE
  5
B3
100
AcDbEntity
  8
M2
  6
CONTINUOUS
370
25
 62
     4
100
AcDbCircle
 10
20.000025
 20
529.716876
 40
5.6
  0
CIRCLE
  5
B4
100
AcDbEntity
  8
M2
  6
CONTINUOUS
370
25
 62
     4
100
AcDbCircle
 10
20.000025
 20
421.717071
 40
5.6
  0
CIRCLE
  5
B5
100
AcDbEntity
  8
M2
  6
CONTINUOUS
370
25
 62
     4
100
AcDbCircle
 10
44.000116
 20
421.71698
 40
5.6
  0
CIRCLE
  5
B6
100
AcDbEntity
  8
M2
  6
CONTINUOUS
370
25
 62
     4
100
AcDbCircle
 10
68.000116
 20
421.71698
 40
5.6
  0
CIRCLE
  5
B7
100
AcDbEntity
  8
M2
  6
CONTINUOUS
370
25
 62
     4
100
AcDbCircle
 10
92.000025
 20
421.717071
 40
5.6
  0
ARC
  5
B8
100
AcDbEntity
  8
M2
  6
CONTINUOUS
370
25
 62
     4
100
AcDbCircle
 10
10.000025
 20
494.91698
 40
0.8
100
AcDbArc
 50
90.0
 51
180.0
  0
ARC
  5
B9
100
AcDbEntity
  8
M2
  6
CONTINUOUS
370
25
 62
     4
100
AcDbCircle
 10
10.000025
 20
456.51698
 40
0.8
100
AcDbArc
 50
180.0
 51
270.0
  0
ARC
  5
BA
100
AcDbEntity
  8
M2
  6
CONTINUOUS
370
25
 62
     4
100
AcDbCircle
 10
78.000025
 20
456.51698
 40
0.8
100
AcDbArc
 50
270.0
 51
360.0
  0
ARC
  5
BB
100
AcDbEntity
  8
M2
  6
CONTINUOUS
370
25
 62
     4
100
AcDbCircle
 10
78.000025
 20
494.91698
 40
0.8
100
AcDbArc
 50
0.0
 51
90.0
  0
LINE
  5
BC
100
AcDbEntity
  8
M2
  6
DASHDOT
370
25
 62
     4
100
AcDbLine
 10
8.0
 20
125.770495
 11
104.0
 21
125.770495
  0
LINE
  5
BD
100
AcDbEntity
  8
M2
  6
DASHDOT
370
25
 62
     4
100
AcDbLine
 10
104.0
 20
125.770495
 11
104.0
 21
245.7703
  0
LINE
  5
BE
100
AcDbEntity
  8
M2
  6
DASHDOT
370
25
 62
     4
100
AcDbLine
 10
104.0
 20
245.7703
 11
8.0
 21
245.7703
  0
LINE
  5
BF
100
AcDbEntity
  8
M2
  6
DASHDOT
370
25
 62
     4
100
AcDbLine
 10
8.0
 20
245.7703
 11
8.0
 21
125.770495
  0
LINE
  5
C0
100
AcDbEntity
  8
M2
  6
DASHDOT
370
25
 62
     4
100
AcDbLine
 10
0.0
 20
185.770495
 11
112.0
 21
185.770495
  0
LINE
  5
C1
100
AcDbEntity
  8
M2
  6
DASHDOT
370
25
 62
     4
100
AcDbLine
 10
56.0
 20
122.068139
 11
56.0
 21
251.741394
  0
CIRCLE
  5
C2
100
AcDbEntity
  8
M2
  6
CONTINUOUS
370
25
100
AcDbCircle
 10
56.000025
 20
527.71698
 40
2.0
  0
CIRCLE
  5
C3
100
AcDbEntity
  8
M2
  6
CONTINUOUS
370
25
100
AcDbCircle
 10
56.000025
 20
423.71698
 40
2.0
  0
LINE
  5
C4
100
AcDbEntity
  8
M2
  6
DASHDOT
370
25
100
AcDbLine
 10
48.666691
 20
527.71698
 11
63.333358
 21
527.71698
  0
LINE
  5
C5
100
AcDbEntity
  8
M2
  6
DASHDOT
370
25
100
AcDbLine
 10
56.000025
 20
520.383646
 11
56.000025
 21
535.050313
  0
LINE
  5
C6
100
AcDbEntity
  8
M2
  6
DASHDOT
370
25
100
AcDbLine
 10
48.666691
 20
423.71698
 11
63.333358
 21
423.71698
  0
LINE
  5
C7
100
AcDbEntity
  8
M2
  6
DASHDOT
370
25
100
AcDbLine
 10
56.000025
 20
416.383646
 11
56.000025
 21
431.050313
  0
CIRCLE
  5
C8
100
AcDbEntity
  8
M2
  6
CONTINUOUS
370
25
100
AcDbCircle
 10
32.000025
 20
527.71698
 40
2.0
  0
LINE
  5
C9
100
AcDbEntity
  8
M2
  6
DASHDOT
370
25
100
AcDbLine
 10
39.333358
 20
527.71698
 11
24.666691
 21
527.71698
  0
LINE
  5
CA
100
AcDbEntity
  8
M2
  6
DASHDOT
370
25
100
AcDbLine
 10
32.000025
 20
520.383646
 11
32.000025
 21
535.050313
  0
CIRCLE
  5
CB
100
AcDbEntity
  8
M2
  6
CONTINUOUS
370
25
100
AcDbCircle
 10
32.000025
 20
423.71698
 40
2.0
  0
LINE
  5
CC
100
AcDbEntity
  8
M2
  6
DASHDOT
370
25
100
AcDbLine
 10
39.333358
 20
423.71698
 11
24.666691
 21
423.71698
  0
LINE
  5
CD
100
AcDbEntity
  8
M2
  6
DASHDOT
370
25
100
AcDbLine
 10
32.000025
 20
416.383646
 11
32.000025
 21
431.050313
  0
LINE
  5
CE
100
AcDbEntity
  8
M2
  6
DASHDOT
370
25
 62
     2
100
AcDbLine
 10
44.000025
 20
411.583655
 11
44.000025
 21
431.850305
  0
LINE
  5
CF
100
AcDbEntity
  8
M2
  6
DASHDOT
370
25
 62
     2
100
AcDbLine
 10
68.000025
 20
411.583655
 11
68.000025
 21
431.850305
  0
LINE
  5
D0
100
AcDbEntity
  8
M2
  6
DASHDOT
370
25
 62
     2
100
AcDbLine
 10
57.8667
 20
421.71698
 11
78.13335
 21
421.71698
  0
LINE
  5
D1
100
AcDbEntity
  8
M2
  6
DASHDOT
370
25
 62
     2
100
AcDbLine
 10
33.8667
 20
421.71698
 11
54.13335
 21
421.71698
  0
LINE
  5
D2
100
AcDbEntity
  8
M2
  6
DASHDOT
370
25
 62
     2
100
AcDbLine
 10
68.000025
 20
519.583655
 11
68.000025
 21
539.850305
  0
LINE
  5
D3
100
AcDbEntity
  8
M2
  6
DASHDOT
370
25
 62
     2
100
AcDbLine
 10
57.8667
 20
529.71698
 11
78.13335
 21
529.71698
  0
LINE
  5
D4
100
AcDbEntity
  8
M2
  6
DASHDOT
370
25
 62
     2
100
AcDbLine
 10
44.000025
 20
519.583655
 11
44.000025
 21
539.850305
  0
LINE
  5
D5
100
AcDbEntity
  8
M2
  6
DASHDOT
370
25
 62
     2
100
AcDbLine
 10
33.8667
 20
529.71698
 11
54.13335
 21
529.71698
  0
LINE
  5
D6
100
AcDbEntity
  8
M2
  6
DASHDOT
370
25
 62
     2
100
AcDbLine
 10
20.000025
 20
519.583655
 11
20.000025
 21
539.850305
  0
LINE
  5
D7
100
AcDbEntity
  8
M2
  6
DASHDOT
370
25
 62
     2
100
AcDbLine
 10
30.13335
 20
529.71698
 11
9.8667
 21
529.71698
  0
LINE
  5
D8
100
AcDbEntity
  8
M2
  6
DASHDOT
370
25
 62
     2
100
AcDbLine
 10
92.000025
 20
519.583655
 11
92.000025
 21
539.850305
  0
LINE
  5
D9
100
AcDbEntity
  8
M2
  6
DASHDOT
370
25
 62
     2
100
AcDbLine
 10
81.8667
 20
529.71698
 11
102.13335
 21
529.71698
  0
LINE
  5
DA
100
AcDbEntity
  8
M2
  6
DASHDOT
370
25
 62
     2
100
AcDbLine
 10
20.000025
 20
431.850305
 11
20.000025
 21
411.583655
  0
LINE
  5
DB
100
AcDbEntity
  8
M2
  6
DASHDOT
370
25
 62
     2
100
AcDbLine
 10
30.13335
 20
421.71698
 11
9.8667
 21
421.71698
  0
LINE
  5
DC
100
AcDbEntity
  8
M2
  6
DASHDOT
370
25
 62
     2
100
AcDbLine
 10
81.8667
 20
421.71698
 11
102.13335
 21
421.71698
  0
LINE
  5
DD
100
AcDbEntity
  8
M2
  6
DASHDOT
370
25
 62
     2
100
AcDbLine
 10
92.000025
 20
431.850305
 11
92.000025
 21
411.583655
  0
LINE
  5
DE
100
AcDbEntity
  8
M2
  6
DASHED
370
25
100
AcDbLine
 10
245.714749
 20
531.11737
 11
245.714749
 21
524.31737
  0
LINE
  5
DF
100
AcDbEntity
  8
M2
  6
DASHDOT
370
25
100
AcDbLine
 10
232.140546
 20
527.71737
 11
281.714749
 21
527.71737
  0
LINE
  5
E0
100
AcDbEntity
  8
M2
  6
DASHED
370
25
100
AcDbLine
 10
245.714749
 20
420.31737
 11
245.714749
 21
427.11737
  0
LINE
  5
E1
100
AcDbEntity
  8
M2
  6
DASHDOT
370
25
100
AcDbLine
 10
232.140546
 20
423.71737
 11
281.714749
 21
423.71737
  0
LINE
  5
E2
100
AcDbEntity
  8
M2
  6
DASHED
370
25
 62
     2
100
AcDbLine
 10
246.114553
 20
535.71737
 11
246.114553
 21
523.269977
  0
LINE
  5
E3
100
AcDbEntity
  8
M2
  6
DASHDOT
370
25
 62
     2
100
AcDbLine
 10
239.581621
 20
529.71737
 11
252.355296
 21
529.71737
  0
LINE
  5
E4
100
AcDbEntity
  8
M2
  6
DASHED
370
25
 62
     2
100
AcDbLine
 10
246.114553
 20
415.71737
 11
246.114553
 21
428.164764
  0
LINE
  5
E5
100
AcDbEntity
  8
M2
  6
DASHDOT
370
25
 62
     2
100
AcDbLine
 10
237.981621
 20
421.71737
 11
252.355296
 21
421.71737
  0
CIRCLE
  5
E6
100
AcDbEntity
  8
M2
  6
CONTINUOUS
370
25
100
AcDbCircle
 10
32.000098
 20
237.7703
 40
2.0
  0
CIRCLE
  5
E7
100
AcDbEntity
  8
M2
  6
CONTINUOUS
370
25
100
AcDbCircle
 10
32.000098
 20
133.770495
 40
2.0
  0
LINE
  5
E8
100
AcDbEntity
  8
M2
  6
DASHDOT
370
25
100
AcDbLine
 10
24.666765
 20
237.7703
 11
39.333431
 21
237.7703
  0
LINE
  5
E9
100
AcDbEntity
  8
M2
  6
DASHDOT
370
25
100
AcDbLine
 10
32.000098
 20
230.436967
 11
32.000098
 21
245.103634
  0
LINE
  5
EA
100
AcDbEntity
  8
M2
  6
DASHDOT
370
25
100
AcDbLine
 10
24.666765
 20
133.770495
 11
39.333431
 21
133.770495
  0
LINE
  5
EB
100
AcDbEntity
  8
M2
  6
DASHDOT
370
25
100
AcDbLine
 10
32.000098
 20
126.437162
 11
32.000098
 21
141.103829
  0
CIRCLE
  5
EC
100
AcDbEntity
  8
M2
  6
CONTINUOUS
370
25
100
AcDbCircle
 10
56.000098
 20
237.7703
 40
2.0
  0
CIRCLE
  5
ED
100
AcDbEntity
  8
M2
  6
CONTINUOUS
370
25
100
AcDbCircle
 10
56.000098
 20
133.770495
 40
2.0
  0
LINE
  5
EE
100
AcDbEntity
  8
M2
  6
DASHDOT
370
25
100
AcDbLine
 10
48.666765
 20
237.7703
 11
63.333431
 21
237.7703
  0
LINE
  5
EF
100
AcDbEntity
  8
M2
  6
DASHDOT
370
25
100
AcDbLine
 10
56.000098
 20
230.436967
 11
56.000098
 21
245.103634
  0
LINE
  5
F0
100
AcDbEntity
  8
M2
  6
DASHDOT
370
25
100
AcDbLine
 10
48.666765
 20
133.770495
 11
63.333431
 21
133.770495
  0
LINE
  5
F1
100
AcDbEntity
  8
M2
  6
DASHDOT
370
25
100
AcDbLine
 10
56.000098
 20
126.437162
 11
56.000098
 21
141.103829
  0
LINE
  5
F2
100
AcDbEntity
  8
M2
  6
CONTINUOUS
370
25
 62
     7
100
AcDbLine
 10
186.114749
 20
204.970495
 11
186.114749
 21
166.570495
  0
LINE
  5
F3
100
AcDbEntity
  8
M2
  6
CONTINUOUS
370
25
 62
     7
100
AcDbLine
 10
187.714749
 20
206.570495
 11
255.714749
 21
206.570495
  0
LINE
  5
F4
100
AcDbEntity
  8
M2
  6
CONTINUOUS
370
25
 62
     7
100
AcDbLine
 10
257.314749
 20
204.970495
 11
257.314749
 21
166.570495
  0
LINE
  5
F5
100
AcDbEntity
  8
M2
  6
CONTINUOUS
370
25
 62
     7
100
AcDbLine
 10
187.714749
 20
164.970495
 11
255.714749
 21
164.970495
  0
ARC
  5
F6
100
AcDbEntity
  8
M2
  6
CONTINUOUS
370
25
 62
     7
100
AcDbCircle
 10
187.714749
 20
204.970495
 40
1.6
100
AcDbArc
 50
90.0
 51
180.0
  0
ARC
  5
F7
100
AcDbEntity
  8
M2
  6
CONTINUOUS
370
25
 62
     7
100
AcDbCircle
 10
187.714749
 20
166.570495
 40
1.6
100
AcDbArc
 50
180.0
 51
270.0
  0
ARC
  5
F8
100
AcDbEntity
  8
M2
  6
CONTINUOUS
370
25
 62
     7
100
AcDbCircle
 10
255.714749
 20
166.570495
 40
1.6
100
AcDbArc
 50
270.0
 51
360.0
  0
ARC
  5
F9
100
AcDbEntity
  8
M2
  6
CONTINUOUS
370
25
 62
     7
100
AcDbCircle
 10
255.714749
 20
204.970495
 40
1.6
100
AcDbArc
 50
0.0
 51
90.0
  0
LINE
  5
FA
100
AcDbEntity
  8
M2
  6
DASHDOT
370
25
 62
     4
100
AcDbLine
 10
281.714749
 20
125.770495
 11
281.714749
 21
245.770483
  0
LINE
  5
FB
100
AcDbEntity
  8
M2
  6
DASHDOT
370
25
 62
     4
100
AcDbLine
 10
185.714749
 20
125.770495
 11
281.714749
 21
125.770495
  0
LINE
  5
FC
100
AcDbEntity
  8
M2
  6
DASHDOT
370
25
 62
     4
100
AcDbLine
 10
281.714749
 20
245.770483
 11
185.714749
 21
245.770483
  0
LINE
  5
FD
100
AcDbEntity
  8
M2
  6
DASHDOT
370
25
 62
     4
100
AcDbLine
 10
177.714749
 20
185.770495
 11
289.714749
 21
185.770495
  0
LINE
  5
FE
100
AcDbEntity
  8
M2
  6
DASHDOT
370
25
 62
     4
100
AcDbLine
 10
185.714749
 20
245.770483
 11
185.714749
 21
125.770495
  0
LINE
  5
FF
100
AcDbEntity
  8
M2
  6
DASHDOT
370
25
 62
     4
100
AcDbLine
 10
221.714749
 20
147.277245
 11
221.714749
 21
223.57716
  0
LINE
  5
100
100
AcDbEntity
  8
M2
  6
DASHDOT
370
25
 62
     4
100
AcDbLine
 10
233.714749
 20
112.326961
 11
233.714749
 21
260.004217
  0
LINE
  5
101
100
AcDbEntity
  8
M4
  6
CONTINUOUS
370
25
100
AcDbLine
 10
228.001794
 20
43.999998
 11
228.001794
 21
0.0
  0
LINE
  5
102
100
AcDbEntity
  8
M4
  6
CONTINUOUS
370
25
100
AcDbLine
 10
9.335136
 20
43.999998
 11
9.335136
 21
0.0
  0
LINE
  5
103
100
AcDbEntity
  8
M4
  6
CONTINUOUS
370
25
100
AcDbLine
 10
9.335136
 20
0.0
 11
228.001794
 21
0.0
  0
LINE
  5
104
100
AcDbEntity
  8
M4
  6
CONTINUOUS
370
25
100
AcDbLine
 10
9.335136
 20
43.999998
 11
228.001794
 21
43.999998
  0
LINE
  5
105
100
AcDbEntity
  8
M4
  6
CONTINUOUS
370
25
100
AcDbLine
 10
177.335129
 20
29.333332
 11
177.335129
 21
43.999998
  0
LINE
  5
106
100
AcDbEntity
  8
M4
  6
CONTINUOUS
370
25
100
AcDbLine
 10
41.335134
 20
29.333332
 11
177.335129
 21
29.333332
  0
TEXT
  5
107
100
AcDbEntity
  8
M4
100
AcDbText
 10
44.186984
 20
33.333331
 40
6.666667
  1
ＲＸ１００　４Ｐ
 41
0.833333
  7
STANDARD
100
AcDbText
  0
LINE
  5
108
100
AcDbEntity
  8
M4
  6
CONTINUOUS
370
25
 60
     1
100
AcDbLine
 10
201.335128
 20
29.333332
 11
201.335128
 21
43.999998
  0
LINE
  5
109
100
AcDbEntity
  8
M4
  6
CONTINUOUS
370
25
100
AcDbLine
 10
177.335129
 20
29.333332
 11
201.335128
 21
29.333332
  0
TEXT
  5
10A
100
AcDbEntity
  8
M4
100
AcDbText
 10
180.16329
 20
33.333331
 40
6.666667
  1
ＲＥＶ．：
 41
0.666667
  7
STANDARD
100
AcDbText
  0
LINE
  5
10B
100
AcDbEntity
  8
M4
  6
CONTINUOUS
370
25
 60
     1
100
AcDbLine
 10
228.001794
 20
29.333332
 11
228.001794
 21
43.999998
  0
LINE
  5
10C
100
AcDbEntity
  8
M4
  6
CONTINUOUS
370
25
100
AcDbLine
 10
201.335128
 20
29.333332
 11
228.001794
 21
29.333332
  0
TEXT
  5
10D
100
AcDbEntity
  8
M4
100
AcDbText
 10
212.186972
 20
33.333331
 40
6.666667
  1
００
 41
0.833333
  7
STANDARD
100
AcDbText
  0
LINE
  5
10E
100
AcDbEntity
  8
M4
  6
CONTINUOUS
370
25
 60
     1
100
AcDbLine
 10
41.335134
 20
29.333332
 11
41.335134
 21
43.999998
  0
LINE
  5
10F
100
AcDbEntity
  8
M4
  6
CONTINUOUS
370
25
100
AcDbLine
 10
9.335136
 20
29.333332
 11
41.335134
 21
29.333332
  0
TEXT
  5
110
100
AcDbEntity
  8
M4
100
AcDbText
 10
12.186984
 20
33.333331
 40
6.666667
  1
登録名：
 41
0.833333
  7
STANDARD
100
AcDbText
  0
LINE
  5
111
100
AcDbEntity
  8
M4
  6
CONTINUOUS
370
25
 60
     1
100
AcDbLine
 10
228.001794
 20
14.666666
 11
228.001794
 21
29.333332
  0
LINE
  5
112
100
AcDbEntity
  8
M4
  6
CONTINUOUS
370
25
100
AcDbLine
 10
201.335128
 20
14.666666
 11
228.001794
 21
14.666666
  0
LINE
  5
113
100
AcDbEntity
  8
M4
  6
CONTINUOUS
370
25
 60
     1
100
AcDbLine
 10
201.335128
 20
14.666666
 11
201.335128
 21
29.333332
  0
LINE
  5
114
100
AcDbEntity
  8
M4
  6
CONTINUOUS
370
25
100
AcDbLine
 10
41.335134
 20
14.666666
 11
201.335128
 21
14.666666
  0
TEXT
  5
115
100
AcDbEntity
  8
M4
100
AcDbText
 10
44.186984
 20
18.666669
 40
6.666667
  1
表面形
 41
0.833333
  7
STANDARD
100
AcDbText
  0
LINE
  5
116
100
AcDbEntity
  8
M4
  6
CONTINUOUS
370
25
 60
     1
100
AcDbLine
 10
41.335134
 20
14.666666
 11
41.335134
 21
29.333332
  0
LINE
  5
117
100
AcDbEntity
  8
M4
  6
CONTINUOUS
370
25
100
AcDbLine
 10
9.335136
 20
14.666666
 11
41.335134
 21
14.666666
  0
TEXT
  5
118
100
AcDbEntity
  8
M4
100
AcDbText
 10
10.835141
 20
18.666669
 40
6.666667
  1
接続方式：
 41
0.75
  7
STANDARD
100
AcDbText
  0
LINE
  5
119
100
AcDbEntity
  8
M4
  6
CONTINUOUS
370
25
 60
     1
100
AcDbLine
 10
228.001794
 20
0.0
 11
228.001794
 21
14.666666
  0
LINE
  5
11A
100
AcDbEntity
  8
M4
  6
CONTINUOUS
370
25
 60
     1
100
AcDbLine
 10
201.335128
 20
0.0
 11
228.001794
 21
0.0
  0
LINE
  5
11B
100
AcDbEntity
  8
M4
  6
CONTINUOUS
370
25
 60
     1
100
AcDbLine
 10
41.335134
 20
0.0
 11
41.335134
 21
14.666666
  0
LINE
  5
11C
100
AcDbEntity
  8
M4
  6
CONTINUOUS
370
25
 60
     1
100
AcDbLine
 10
9.335136
 20
0.0
 11
41.335134
 21
0.0
  0
TEXT
  5
11D
100
AcDbEntity
  8
M4
100
AcDbText
 10
10.835141
 20
4.0
 40
6.666667
  1
適用形式：
 41
0.75
  7
STANDARD
100
AcDbText
  0
LINE
  5
11E
100
AcDbEntity
  8
M4
  6
CONTINUOUS
370
25
 60
     1
100
AcDbLine
 10
201.335128
 20
0.0
 11
201.335128
 21
14.666666
  0
LINE
  5
11F
100
AcDbEntity
  8
M4
  6
CONTINUOUS
370
25
 60
     1
100
AcDbLine
 10
41.335134
 20
0.0
 11
201.335128
 21
0.0
  0
TEXT
  5
120
100
AcDbEntity
  8
M4
100
AcDbText
 10
44.168466
 20
4.0
 40
6.666667
  1
ＲＸ１００
 41
0.75
  7
STANDARD
100
AcDbText
  0
ENDSEC
  0
SECTION
  2
OBJECTS
  0
DICTIONARY
  5
C
100
AcDbDictionary
  3
ACAD_GROUP
350
D
  3
ACAD_MLINESTYLE
350
E
  0
DICTIONARY
  5
D
102
{ACAD_REACTORS
330
C
102
}
100
AcDbDictionary
  0
DICTIONARY
  5
E
102
{ACAD_REACTORS
330
C
102
}
100
AcDbDictionary
  3
STANDARD
350
13
  0
MLINESTYLE
  5
13
102
{ACAD_REACTORS
330
E
102
}
100
AcDbMlineStyle
  2
STANDARD
 70
     0
  3

 62
     0
 51
90.0
 52
90.0
 71
     2
 49
0.5
 62
   256
  6
BYLAYER
 49
-0.5
 62
   256
  6
BYLAYER
  0
ENDSEC
  0
EOF
