  0
SECTION
  2
HEADER
  9
$ACADVER
  1
AC1015
  9
$INSBASE
 10
0.000000
 20
0.000000
 30
0.0
  9
$VIEWCTR
 10
7.531722
 20
4.5
  9
$VIEWSIZE
 40
9.0
  9
$SNAPMODE
 70
     0
  9
$SNAPUNIT
 10
1.0
 20
1.0
  9
$SNAPBASE
 10
0.0
 20
0.0
  9
$SNAPANG
 50
0.0
  9
$SNAPSTYLE
 70
     0
  9
$SNAPISOPAIR
 70
     0
  9
$GRIDMODE
 70
     0
  9
$GRIDUNIT
 10
0.0
 20
0.0
  9
$ORTHOMODE
 70
     0
  9
$REGENMODE
 70
     1
  9
$FILLMODE
 70
     1
  9
$QTEXTMODE
 70
     0
  9
$DRAGMODE
 70
     2
  9
$LTSCALE
  40
     1.000000
  9
$OSMODE
 70
     0
  9
$ATTMODE
 70
     1
  9
$TEXTSIZE
 40
0.2
  9
$TRACEWID
 40
0.05
  9
$TEXTSTYLE
  7
STANDARD
  9
$CELTYPE
  6
BYLAYER
  9
$CECOLOR
 62
   256
  9
$DIMSCALE
 40
1.0
  9
$DIMASZ
 40
0.18
  9
$DIMEXO
 40
0.0625
  9
$DIMDLI
 40
0.38
  9
$DIMRND
 40
0.0
  9
$DIMDLE
 40
0.0
  9
$DIMEXE
 40
0.18
  9
$DIMTP
 40
0.0
  9
$DIMTM
 40
0.0
  9
$DIMTXT
 40
0.18
  9
$DIMCEN
 40
0.09
  9
$DIMTSZ
 40
0.0
  9
$DIMADEC
 70
     0
  9
$DIMALTRND
 40
0.000000
  9
$DIMAZIN
 70
     0
  9
$DIMDSEP
 70
    46
  9
$DIMATFIT
 70
     3
  9
$DIMFRAC
 70
     0
  9
$DIMLDRBLK
  1

  9
$DIMLUNIT
 70
     2
  9
$DIMLWD
 70
   13
  9
$DIMLWE
 70
   13
  9
$DIMTMOVE
 70
     0
  9
$CELWEIGHT
370
    25
  9
$LWDISPLAY
290
    1
  9
$EXTNAMES
290
    1
  9
$DIMTOL
 70
     0
  9
$DIMLIM
 70
     0
  9
$DIMTIH
 70
     1
  9
$DIMTOH
 70
     1
  9
$DIMSE1
 70
     0
  9
$DIMSE2
 70
     0
  9
$DIMTAD
 70
     0
  9
$DIMZIN
 70
     0
  9
$DIMBLK
  1

  9
$LUNITS
 70
     2
  9
$LUPREC
 70
     4
  9
$AXISMODE
 70
     0
  9
$AXISUNIT
 10
0.0
 20
0.0
  9
$SKETCHINC
 40
0.1
  9
$FILLETRAD
 40
0.0
  9
$AUNITS
 70
     0
  9
$AUPREC
 70
     0
  9
$MENU
  1
ACAD
  9
$ELEVATION
 40
0.0
  9
$THICKNESS
 40
0.0
  9
$VIEWDIR
 10
0.0
 20
0.0
 30
1.0
  9
$LIMCHECK
 70
     0
  9
$BLIPMODE
 70
     1
  9
$CHAMFERA
 40
0.0
  9
$CHAMFERB
 40
0.0
  9
$FASTZOOM
 70
     1
  9
$SKPOLY
 70
     0
  9
$TDCREATE
 40
0000000.0000000000
  9
$TDUPDATE
 40
0000000.0000000000
  9
$TDINDWG
 40
0.0000000000
  9
$TDUSRTIMER
 40
0.0000000000
  9
$USRTIMER
 70
     1
  9
$ANGBASE
 50
0.0
  9
$ANGDIR
 70
     0
  9
$PDMODE
 70
     0
  9
$PDSIZE
 40
0.0
  9
$PLINEWID
 40
0.0
  9
$COORDS
 70
     0
  9
$USERI1
 70
     0
  9
$USERI2
 70
     0
  9
$USERI3
 70
     0
  9
$USERI4
 70
     0
  9
$USERI5
 70
     0
  9
$USERR1
 40
0.0
  9
$USERR2
 40
0.0
  9
$USERR3
 40
0.0
  9
$USERR4
 40
0.0
  9
$USERR5
 40
0.0
  9
$CLAYER
  8
M1
  9
$EXTMIN
 10
0.0
 20
0.0
  9
$EXTMAX
 10
841.0
 20
594.0
  9
$LIMMIN
 10
0.0
 20
0.0
  9
$LIMMAX
 10
841.0
 20
594.0
  9
$HANDSEED
  5
3AE
  0
ENDSEC
  0
SECTION
  2
CLASSES
  0
CLASS
  1
DIMASSOC
  2
AcDbDimAssoc
  3
"AcDbDimAssoc|Product Desc:     AcDim ARX App For Dimension|Company:          Autodesk, Inc.|WEB Address:      www.autodesk.com"
 90
        0
280
     0
281
     0
  0
ENDSEC
  0
SECTION
  2
TABLES
  0
TABLE
  2
VPORT
  5
8
100
AcDbSymbolTable
 70
     2
  0
VPORT
  5
14
100
AcDbSymbolTableRecord
100
AcDbViewportTableRecord
  2
*ACTIVE
 70
     0
 10
0.0
 20
0.0
 11
1.0
 21
1.0
 12
484.0
 22
297.0
 13
0.0
 23
0.0
 14
1.0
 24
1.0
 15
0.0
 25
0.0
 16
0.0
 26
0.0
 36
1.0
 17
0.0
 27
0.0
 37
0.0
 40
594.0
 41
2.0
 42
50.0
 43
0.0
 44
0.0
 50
0.0
 51
0.0
 71
     0
 72
   100
 73
     1
 74
     1
 75
     0
 76
     0
 77
     0
 78
     0
  0
ENDTAB
  0
TABLE
  2
LTYPE
  5
5
100
AcDbSymbolTable
 70
     5
  0
LTYPE
  5
15
100
AcDbSymbolTableRecord
100
AcDbLinetypeTableRecord
  2
BYBLOCK
 70
     0
  3

 72
    65
 73
     0
 40
0.0
  0
LTYPE
  5
16
100
AcDbSymbolTableRecord
100
AcDbLinetypeTableRecord
  2
BYLAYER
 70
     0
  3

 72
    65
 73
     0
 40
0.0
  0
LTYPE
  5
17
100
AcDbSymbolTableRecord
100
AcDbLinetypeTableRecord
  2
CONTINUOUS
 70
    64
  3
Solid line
 72
    65
 73
     0
 40
0.0
  0
LTYPE
  5
18
100
AcDbSymbolTableRecord
100
AcDbLinetypeTableRecord
  2
DASHED
 70
    64
  3
__ __ __ __ __ __ __ __ __ __ __ __ __ __ __ __
 72
    65
 73
     2
 40
0.75
 49
0.5
 74
     0
 49
-0.25
 74
     0
  0
LTYPE
  5
19
100
AcDbSymbolTableRecord
100
AcDbLinetypeTableRecord
  2
DASHDOT
 70
    64
  3
__ . __ . __ . __ . __ . __ . __ . __ . __ . __
 72
    65
 73
     4
 40
1.0
 49
0.5
 74
     0
 49
-0.25
 74
     0
 49
0.0
 74
     0
 49
-0.25
 74
     0
  0
LTYPE
  5
1A
100
AcDbSymbolTableRecord
100
AcDbLinetypeTableRecord
  2
DIVIDE
 70
    64
  3
____ . . ____ . . ____ . . ____ . . ____ . . __
 72
    65
 73
     6
 40
1.25
 49
0.5
 74
     0
 49
-0.25
 74
     0
 49
0.0
 74
     0
 49
-0.25
 74
     0
 49
0.0
 74
     0
 49
-0.25
 74
     0
  0
LTYPE
  5
1B
100
AcDbSymbolTableRecord
100
AcDbLinetypeTableRecord
  2
DOT
 70
    64
  3
. . . . . . . . . . . . . . . . . . . . . . . .
 72
    65
 73
     2
 40
0.25
 49
0.0
 74
     0
 49
-0.25
 74
     0
  0
ENDTAB
  0
TABLE
  2
LAYER
  5
2
100
AcDbSymbolTable
 70
   102
  0
LAYER
  5
F
100
AcDbSymbolTableRecord
100
AcDbLayerTableRecord
  2
0
 70
     0
 62
     7
  6
CONTINUOUS
370
     -3
390
F
  0
LAYER
  5
1C
100
AcDbSymbolTableRecord
100
AcDbLayerTableRecord
  2
M1
 70
     0
 62
     3
  6
CONTINUOUS
370
     -3
390
F
  0
LAYER
  5
1D
100
AcDbSymbolTableRecord
100
AcDbLayerTableRecord
  2
M3
 70
     0
 62
     7
  6
CONTINUOUS
370
     -3
390
F
  0
LAYER
  5
1E
100
AcDbSymbolTableRecord
100
AcDbLayerTableRecord
  2
M4
 70
     0
 62
     4
  6
CONTINUOUS
370
     -3
390
F
  0
ENDTAB
  0
TABLE
  2
STYLE
  5
3
100
AcDbSymbolTable
 70
     2
  0
STYLE
  5
10
100
AcDbSymbolTableRecord
100
AcDbTextStyleTableRecord
  2
STANDARD
 70
     0
 40
0.0
 41
1.0
 50
0.0
 71
     0
 42
0.2
  3
txt
  4
BIGFONT
  0
ENDTAB
  0
TABLE
  2
VIEW
  5
6
100
AcDbSymbolTable
 70
     0
  0
ENDTAB
  0
TABLE
  2
UCS
  5
7
100
AcDbSymbolTable
 70
     0
  0
ENDTAB
  0
TABLE
  2
APPID
  5
9
100
AcDbSymbolTable
 70
     1
  0
APPID
  5
11
100
AcDbSymbolTableRecord
100
AcDbRegAppTableRecord
  2
ACAD
 70
     0
  0
ENDTAB
  0
TABLE
  2
DIMSTYLE
  5
A
100
AcDbSymbolTable
 70
     2
100
AcDbDimStyleTable
 71
     1
  0
DIMSTYLE
105
47
100
AcDbSymbolTableRecord
100
AcDbDimStyleTableRecord
  2
STANDARD
 70
     0
  3

  4

  5

  6
_OPEN
  7
_OPEN
 40
1.0
 41
3.0
 42
0.0
 43
8.0
 44
1.5
 45
0.0
 46
0.0
 47
0.0
 48
0.0
140
3.2
141
0.09
142
0.0
143
0.03937
144
1.0
145
0.0
146
1.0
147
1.0
148
0.000000
 71
     0
 72
     0
 73
     1
 74
     1
 75
     0
 76
     0
 77
     3
 78
     8
170
     0
171
     2
172
     0
173
     1
174
     0
175
     0
176
     0
177
     0
178
     0
270
     2
271
     2
272
     4
273
     2
274
     2
340
10
275
     0
278
    46
280
     0
281
     0
282
     0
283
     1
284
     0
285
     0
286
     0
287
     3
288
     0
371
   13
372
   13
  0
DIMSTYLE
105
48
100
AcDbSymbolTableRecord
100
AcDbDimStyleTableRecord
  2
LEADSTYL
 70
     0
  3

  4

  5

  6
_OPEN
  7
_OPEN
 40
1.0
 41
3.0
 42
0.0625
 43
0.38
 44
0.18
 45
0.0
 46
0.0
 47
0.0
 48
0.0
140
3.2
141
0.09
142
0.0
143
25.4
144
1.0
145
0.0
146
1.0
147
1.0
 71
     0
 72
     0
 73
     1
 74
     1
 75
     0
 76
     0
 77
     0
 78
     0
170
     0
171
     2
172
     0
173
     1
174
     0
175
     0
176
     0
177
     0
178
     0
270
     2
271
     4
272
     4
273
     2
274
     2
340
10
275
     0
280
     0
281
     0
282
     0
283
     1
284
     0
285
     0
286
     0
287
     3
288
     0
  0
ENDTAB
  0
TABLE
  2
BLOCK_RECORD
  5
1
100
AcDbSymbolTable
 70
     6
  0
BLOCK_RECORD
  5
1F
100
AcDbSymbolTableRecord
100
AcDbBlockTableRecord
  2
*MODEL_SPACE
  0
BLOCK_RECORD
  5
22
100
AcDbSymbolTableRecord
100
AcDbBlockTableRecord
  2
*PAPER_SPACE
  0
BLOCK_RECORD
  5
25
100
AcDbSymbolTableRecord
100
AcDbBlockTableRecord
  2
_NONE
  0
BLOCK_RECORD
  5
29
100
AcDbSymbolTableRecord
100
AcDbBlockTableRecord
  2
_OPEN
  0
BLOCK_RECORD
  5
2F
100
AcDbSymbolTableRecord
100
AcDbBlockTableRecord
  2
_CLOSED
  0
BLOCK_RECORD
  5
36
100
AcDbSymbolTableRecord
100
AcDbBlockTableRecord
  2
_ORIGIN
  0
BLOCK_RECORD
  5
3B
100
AcDbSymbolTableRecord
100
AcDbBlockTableRecord
  2
_DOT
  0
BLOCK_RECORD
  5
43
100
AcDbSymbolTableRecord
100
AcDbBlockTableRecord
  2
_OBLIQUE
  0
ENDTAB
  0
ENDSEC
  0
SECTION
  2
BLOCKS
  0
BLOCK
  5
20
100
AcDbEntity
  8
0
100
AcDbBlockBegin
  2
*MODEL_SPACE
 70
     0
 10
0.0
 20
0.0
 30
0.0
  3
*MODEL_SPACE
  1

  0
ENDBLK
  5
21
100
AcDbEntity
  8
0
100
AcDbBlockEnd
  0
BLOCK
  5
23
100
AcDbEntity
 67
     1
  8
0
100
AcDbBlockBegin
  2
*PAPER_SPACE
 70
     0
 10
0.0
 20
0.0
 30
0.0
  3
*PAPER_SPACE
  1

  0
ENDBLK
  5
24
100
AcDbEntity
 67
     1
  8
0
100
AcDbBlockEnd
  0
BLOCK
  5
26
100
AcDbEntity
  8
0
100
AcDbBlockBegin
  2
_NONE
 70
     0
 10
0.0
 20
0.0
  0
CIRCLE
  5
27
100
AcDbEntity
  8
0
 62
     0
370
13
100
AcDbCircle
 10
0.0
 20
0.0
 40
0.25
  0
ENDBLK
  5
28
100
AcDbEntity
  8
0
100
AcDbBlockEnd
  0
BLOCK
  5
2A
100
AcDbEntity
  8
0
100
AcDbBlockBegin
  2
_OPEN
 70
     0
 10
0.0
 20
0.0
  0
LINE
  5
2B
100
AcDbEntity
  8
0
 62
     0
370
13
100
AcDbLine
 10
-0.965926
 20
0.258819
 11
0.0
 21
0.0
  0
LINE
  5
2C
100
AcDbEntity
  8
0
 62
     0
370
13
100
AcDbLine
 10
0.0
 20
0.0
 11
-0.965926
 21
-0.258819
  0
LINE
  5
2D
100
AcDbEntity
  8
0
 62
     0
370
13
100
AcDbLine
 10
0.0
 20
0.0
 11
-1.0
 21
0.0
  0
ENDBLK
  5
2E
100
AcDbEntity
  8
0
100
AcDbBlockEnd
  0
BLOCK
  5
30
100
AcDbEntity
  8
0
100
AcDbBlockBegin
  2
_CLOSED
 70
     0
 10
0.0
 20
0.0
  0
LINE
  5
31
100
AcDbEntity
  8
0
 62
     0
370
13
100
AcDbLine
 10
-0.965926
 20
0.258819
 11
0.0
 21
0.0
  0
LINE
  5
32
100
AcDbEntity
  8
0
 62
     0
370
13
100
AcDbLine
 10
0.0
 20
0.0
 11
-0.965926
 21
-0.258819
  0
LINE
  5
33
100
AcDbEntity
  8
0
 62
     0
370
13
100
AcDbLine
 10
-0.965926
 20
0.258819
 11
-0.965926
 21
-0.258819
  0
LINE
  5
34
100
AcDbEntity
  8
0
 62
     0
370
13
100
AcDbLine
 10
0.0
 20
0.0
 11
-1.0
 21
0.0
  0
ENDBLK
  5
35
100
AcDbEntity
  8
0
100
AcDbBlockEnd
  0
BLOCK
  5
37
100
AcDbEntity
  8
0
100
AcDbBlockBegin
  2
_ORIGIN
 70
     0
 10
0.0
 20
0.0
  0
CIRCLE
  5
38
100
AcDbEntity
  8
0
 62
     0
370
13
100
AcDbCircle
 10
0.0
 20
0.0
 40
0.5
  0
LINE
  5
39
100
AcDbEntity
  8
0
 62
     0
370
13
100
AcDbLine
 10
0.0
 20
0.0
 11
-1.0
 21
0.0
  0
ENDBLK
  5
3A
100
AcDbEntity
  8
0
100
AcDbBlockEnd
  0
BLOCK
  5
3C
100
AcDbEntity
  8
0
100
AcDbBlockBegin
  2
_DOT
 70
     0
 10
0.0
 20
0.0
  0
POLYLINE
  5
3D
100
AcDbEntity
  8
0
 62
     0
100
AcDb2dPolyline
 66
     1
 70
     1
 40
0.5
 41
0.5
  0
VERTEX
  5
3E
100
AcDbEntity
  8
0
 62
     0
100
AcDbVertex
100
AcDb2dVertex
 10
-0.25
 20
0.0
 42
1.0
  0
VERTEX
  5
3F
100
AcDbEntity
  8
0
 62
     0
100
AcDbVertex
100
AcDb2dVertex
 10
0.25
 20
0.0
 42
1.0
  0
SEQEND
  5
40
100
AcDbEntity
  8
0
 62
     0
  0
LINE
  5
41
100
AcDbEntity
  8
0
 62
     0
370
13
100
AcDbLine
 10
-0.5
 20
0.0
 11
-1.0
 21
0.0
  0
ENDBLK
  5
42
100
AcDbEntity
  8
0
100
AcDbBlockEnd
  0
BLOCK
  5
44
100
AcDbEntity
  8
0
100
AcDbBlockBegin
  2
_OBLIQUE
 70
     0
 10
0.0
 20
0.0
  0
LINE
  5
45
100
AcDbEntity
  8
0
 62
     0
370
13
100
AcDbLine
 10
-0.353553
 20
-0.353553
 11
0.353553
 21
0.353553
  0
ENDBLK
  5
46
100
AcDbEntity
  8
0
100
AcDbBlockEnd
  0
ENDSEC
  0
SECTION
  2
ENTITIES
  0
LINE
  5
49
100
AcDbEntity
  8
M1
  6
DIVIDE
370
13
 62
     2
100
AcDbLine
 10
117.846974
 20
129.02455
 11
168.246948
 21
129.02455
  0
LINE
  5
4A
100
AcDbEntity
  8
M1
  6
DIVIDE
370
13
 62
     2
100
AcDbLine
 10
168.246948
 20
129.02455
 11
168.246948
 21
227.424506
  0
LINE
  5
4B
100
AcDbEntity
  8
M1
  6
DIVIDE
370
13
 62
     2
100
AcDbLine
 10
168.246948
 20
227.424506
 11
117.846974
 21
227.424506
  0
LINE
  5
4C
100
AcDbEntity
  8
M1
  6
DIVIDE
370
13
 62
     2
100
AcDbLine
 10
117.846974
 20
227.424506
 11
117.846974
 21
129.02455
  0
LINE
  5
4D
100
AcDbEntity
  8
M1
  6
DASHDOT
370
13
 62
     2
100
AcDbLine
 10
111.846976
 20
178.224528
 11
174.246944
 21
178.224528
  0
CIRCLE
  5
4E
100
AcDbEntity
  8
M1
  6
CONTINUOUS
370
25
 62
     2
100
AcDbCircle
 10
134.646964
 20
223.824448
 40
1.2
  0
LINE
  5
4F
100
AcDbEntity
  8
M1
  6
DASHDOT
370
13
 62
     2
100
AcDbLine
 10
127.446968
 20
223.824448
 11
141.84696
 21
223.824448
  0
CIRCLE
  5
50
100
AcDbEntity
  8
M1
  6
CONTINUOUS
370
25
 62
     2
100
AcDbCircle
 10
151.446954
 20
223.824448
 40
1.2
  0
LINE
  5
51
100
AcDbEntity
  8
M1
  6
DASHDOT
370
13
 62
     2
100
AcDbLine
 10
144.246958
 20
223.824448
 11
158.646952
 21
223.824448
  0
CIRCLE
  5
52
100
AcDbEntity
  8
M1
  6
CONTINUOUS
370
25
 62
     2
100
AcDbCircle
 10
134.646964
 20
132.624548
 40
1.2
  0
LINE
  5
53
100
AcDbEntity
  8
M1
  6
DASHDOT
370
13
 62
     2
100
AcDbLine
 10
127.446968
 20
132.624548
 11
141.84696
 21
132.624548
  0
LINE
  5
54
100
AcDbEntity
  8
M1
  6
DASHDOT
370
13
 62
     2
100
AcDbLine
 10
134.646964
 20
125.424552
 11
134.646964
 21
139.824546
  0
CIRCLE
  5
55
100
AcDbEntity
  8
M1
  6
CONTINUOUS
370
25
 62
     2
100
AcDbCircle
 10
151.446954
 20
132.624548
 40
1.2
  0
LINE
  5
56
100
AcDbEntity
  8
M1
  6
DASHDOT
370
13
 62
     2
100
AcDbLine
 10
144.246958
 20
132.624548
 11
158.646952
 21
132.624548
  0
LINE
  5
57
100
AcDbEntity
  8
M1
  6
DASHDOT
370
13
 62
     2
100
AcDbLine
 10
151.446954
 20
125.424552
 11
151.446954
 21
139.824546
  0
LINE
  5
58
100
AcDbEntity
  8
M1
  6
DASHDOT
370
13
 62
     2
100
AcDbLine
 10
143.046958
 20
123.024554
 11
143.046958
 21
233.424502
  0
LINE
  5
59
100
AcDbEntity
  8
M1
  6
DASHDOT
370
13
 62
     2
100
AcDbLine
 10
134.646964
 20
216.624452
 11
134.646964
 21
231.024446
  0
LINE
  5
5A
100
AcDbEntity
  8
M1
  6
DASHDOT
370
13
 62
     2
100
AcDbLine
 10
151.446954
 20
216.624452
 11
151.446954
 21
231.024446
  0
LINE
  5
5B
100
AcDbEntity
  8
M1
  6
CONTINUOUS
370
25
 60
     1
100
AcDbLine
 10
128.382714
 20
410.037996
 11
157.711628
 21
410.037996
  0
LINE
  5
5C
100
AcDbEntity
  8
M1
  6
CONTINUOUS
370
25
 62
     4
100
AcDbLine
 10
117.847204
 20
301.798046
 11
168.247182
 21
301.798046
  0
LINE
  5
5D
100
AcDbEntity
  8
M1
  6
CONTINUOUS
370
25
 62
     4
100
AcDbLine
 10
168.247182
 20
301.798046
 11
168.247182
 21
400.198
  0
LINE
  5
5E
100
AcDbEntity
  8
M1
  6
CONTINUOUS
370
25
 62
     4
100
AcDbLine
 10
168.247182
 20
400.198
 11
117.847204
 21
400.198
  0
LINE
  5
5F
100
AcDbEntity
  8
M1
  6
CONTINUOUS
370
25
 62
     4
100
AcDbLine
 10
117.847204
 20
400.198
 11
117.847204
 21
301.798046
  0
LINE
  5
60
100
AcDbEntity
  8
M1
  6
DASHDOT
370
13
 62
     4
100
AcDbLine
 10
111.847208
 20
350.998024
 11
174.247178
 21
350.998024
  0
LINE
  5
61
100
AcDbEntity
  8
M1
  6
DASHDOT
370
13
 62
     4
100
AcDbLine
 10
143.047192
 20
290.99805
 11
143.047192
 21
425.530412
  0
LINE
  5
62
100
AcDbEntity
  8
M1
  6
CONTINUOUS
370
25
 62
     4
100
AcDbLine
 10
135.367196
 20
339.598028
 11
150.72719
 21
339.598028
  0
LINE
  5
63
100
AcDbEntity
  8
M1
  6
CONTINUOUS
370
25
 62
     4
100
AcDbLine
 10
152.407188
 20
341.27797
 11
152.407188
 21
360.717902
  0
LINE
  5
64
100
AcDbEntity
  8
M1
  6
CONTINUOUS
370
25
 62
     4
100
AcDbLine
 10
150.72719
 20
362.398018
 11
135.367196
 21
362.39796
  0
LINE
  5
65
100
AcDbEntity
  8
M1
  6
CONTINUOUS
370
25
 62
     4
100
AcDbLine
 10
133.687198
 20
360.71796
 11
133.687198
 21
341.278028
  0
ARC
  5
66
100
AcDbEntity
  8
M1
  6
CONTINUOUS
370
25
 62
     4
100
AcDbCircle
 10
135.367196
 20
360.71796
 40
1.68
100
AcDbArc
 50
90.0
 51
180.0
  0
ARC
  5
67
100
AcDbEntity
  8
M1
  6
CONTINUOUS
370
25
 62
     4
100
AcDbCircle
 10
135.367196
 20
341.278028
 40
1.68
100
AcDbArc
 50
179.999875
 51
270.0
  0
ARC
  5
68
100
AcDbEntity
  8
M1
  6
CONTINUOUS
370
25
 62
     4
100
AcDbCircle
 10
150.72719
 20
341.278028
 40
1.68
100
AcDbArc
 50
270.0
 51
360.0
  0
ARC
  5
69
100
AcDbEntity
  8
M1
  6
CONTINUOUS
370
25
 62
     4
100
AcDbCircle
 10
150.72719
 20
360.71796
 40
1.68
100
AcDbArc
 50
0.0
 51
90.0
  0
LINE
  5
6A
100
AcDbEntity
  8
M1
  6
CONTINUOUS
370
25
 62
     4
100
AcDbLine
 10
135.367196
 20
340.798028
 11
150.72719
 21
340.798028
  0
LINE
  5
6B
100
AcDbEntity
  8
M1
  6
CONTINUOUS
370
25
 62
     4
100
AcDbLine
 10
151.20719
 20
341.27797
 11
151.20719
 21
360.71796
  0
LINE
  5
6C
100
AcDbEntity
  8
M1
  6
CONTINUOUS
370
25
 62
     4
100
AcDbLine
 10
150.72719
 20
361.198018
 11
135.367196
 21
361.19796
  0
LINE
  5
6D
100
AcDbEntity
  8
M1
  6
CONTINUOUS
370
25
 62
     4
100
AcDbLine
 10
134.887196
 20
360.71796
 11
134.887196
 21
341.278028
  0
LINE
  5
6E
100
AcDbEntity
  8
M1
  6
CONTINUOUS
370
25
 62
     4
100
AcDbLine
 10
117.847204
 20
392.998004
 11
168.247182
 21
392.998004
  0
LINE
  5
6F
100
AcDbEntity
  8
M1
  6
CONTINUOUS
370
25
 62
     4
100
AcDbLine
 10
168.247182
 20
308.997984
 11
117.847204
 21
308.997984
  0
ARC
  5
70
100
AcDbEntity
  8
M1
  6
CONTINUOUS
370
25
 62
     4
100
AcDbCircle
 10
135.367196
 20
360.71796
 40
0.48
100
AcDbArc
 50
90.0
 51
180.0
  0
ARC
  5
71
100
AcDbEntity
  8
M1
  6
CONTINUOUS
370
25
 62
     4
100
AcDbCircle
 10
135.367196
 20
341.278028
 40
0.48
100
AcDbArc
 50
179.999563
 51
270.0
  0
ARC
  5
72
100
AcDbEntity
  8
M1
  6
CONTINUOUS
370
25
 62
     4
100
AcDbCircle
 10
150.72719
 20
341.278028
 40
0.48
100
AcDbArc
 50
270.0
 51
359.993006
  0
ARC
  5
73
100
AcDbEntity
  8
M1
  6
CONTINUOUS
370
25
 62
     4
100
AcDbCircle
 10
150.72719
 20
360.71796
 40
0.48
100
AcDbArc
 50
0.0
 51
90.0
  0
LINE
  5
74
100
AcDbEntity
  8
M1
  6
CONTINUOUS
370
25
 62
     4
100
AcDbLine
 10
119.287204
 20
317.398038
 11
166.807182
 21
317.398038
  0
LINE
  5
75
100
AcDbEntity
  8
M1
  6
CONTINUOUS
370
25
 62
     4
100
AcDbLine
 10
167.287182
 20
317.87798
 11
167.287182
 21
331.317974
  0
LINE
  5
76
100
AcDbEntity
  8
M1
  6
CONTINUOUS
370
25
 62
     4
100
AcDbLine
 10
166.807182
 20
331.798032
 11
119.287204
 21
331.797974
  0
LINE
  5
77
100
AcDbEntity
  8
M1
  6
CONTINUOUS
370
25
 62
     4
100
AcDbLine
 10
118.807204
 20
331.317974
 11
118.807204
 21
317.878038
  0
ARC
  5
78
100
AcDbEntity
  8
M1
  6
CONTINUOUS
370
25
 62
     4
100
AcDbCircle
 10
119.287204
 20
331.317974
 40
0.48
100
AcDbArc
 50
90.0
 51
179.999563
  0
ARC
  5
79
100
AcDbEntity
  8
M1
  6
CONTINUOUS
370
25
 62
     4
100
AcDbCircle
 10
119.287204
 20
317.878038
 40
0.48
100
AcDbArc
 50
179.999563
 51
270.0
  0
ARC
  5
7A
100
AcDbEntity
  8
M1
  6
CONTINUOUS
370
25
 62
     4
100
AcDbCircle
 10
166.807182
 20
317.878038
 40
0.48
100
AcDbArc
 50
270.0
 51
359.993006
  0
ARC
  5
7B
100
AcDbEntity
  8
M1
  6
CONTINUOUS
370
25
 62
     4
100
AcDbCircle
 10
166.807182
 20
331.317974
 40
0.48
100
AcDbArc
 50
0.0
 51
90.0
  0
LINE
  5
7C
100
AcDbEntity
  8
M1
  6
CONTINUOUS
370
25
 62
     4
100
AcDbLine
 10
120.847204
 20
400.197942
 11
131.647198
 21
400.197942
  0
LINE
  5
7D
100
AcDbEntity
  8
M1
  6
CONTINUOUS
370
25
 62
     4
100
AcDbLine
 10
131.647198
 20
400.197942
 11
131.647198
 21
424.197932
  0
LINE
  5
7E
100
AcDbEntity
  8
M1
  6
CONTINUOUS
370
25
 62
     4
100
AcDbLine
 10
131.647198
 20
424.197932
 11
120.847204
 21
424.197932
  0
LINE
  5
7F
100
AcDbEntity
  8
M1
  6
CONTINUOUS
370
25
 62
     4
100
AcDbLine
 10
120.847204
 20
424.197932
 11
120.847204
 21
400.197942
  0
CIRCLE
  5
80
100
AcDbEntity
  8
M1
  6
CONTINUOUS
370
25
 62
     4
100
AcDbCircle
 10
126.2472
 20
410.997938
 40
1.619996
  0
LINE
  5
81
100
AcDbEntity
  8
M1
  6
DASHDOT
370
13
 62
     4
100
AcDbLine
 10
123.491072
 20
410.997938
 11
129.335972
 21
410.997938
  0
LINE
  5
82
100
AcDbEntity
  8
M1
  6
DASHDOT
370
13
 62
     4
100
AcDbLine
 10
126.2472
 20
398.577942
 11
126.2472
 21
425.857072
  0
ARC
  5
83
100
AcDbEntity
  8
M1
  6
CONTINUOUS
370
25
 62
     4
100
AcDbCircle
 10
126.2472
 20
418.677876
 40
1.619996
100
AcDbArc
 50
180.0
 51
360.0
  0
LINE
  5
84
100
AcDbEntity
  8
M1
  6
DASHDOT
370
13
 62
     4
100
AcDbLine
 10
123.849982
 20
418.677876
 11
129.233484
 21
418.677876
  0
ARC
  5
85
100
AcDbEntity
  8
M1
  6
CONTINUOUS
370
25
 62
     4
100
AcDbCircle
 10
126.2472
 20
420.597874
 40
1.619996
100
AcDbArc
 50
0.0
 51
180.0
  0
LINE
  5
86
100
AcDbEntity
  8
M1
  6
DASHDOT
370
13
 62
     4
100
AcDbLine
 10
123.824324
 20
420.597874
 11
129.259082
 21
420.597874
  0
LINE
  5
87
100
AcDbEntity
  8
M1
  6
CONTINUOUS
370
25
 62
     4
100
AcDbLine
 10
127.8672
 20
420.597874
 11
127.8672
 21
418.677876
  0
LINE
  5
88
100
AcDbEntity
  8
M1
  6
CONTINUOUS
370
25
 62
     4
100
AcDbLine
 10
124.627202
 20
420.597874
 11
124.627202
 21
418.677876
  0
LINE
  5
89
100
AcDbEntity
  8
M1
  6
CONTINUOUS
370
25
 62
     4
100
AcDbLine
 10
137.647196
 20
400.197942
 11
148.44719
 21
400.197942
  0
LINE
  5
8A
100
AcDbEntity
  8
M1
  6
CONTINUOUS
370
25
 62
     4
100
AcDbLine
 10
148.44719
 20
400.197942
 11
148.44719
 21
424.197932
  0
LINE
  5
8B
100
AcDbEntity
  8
M1
  6
CONTINUOUS
370
25
 62
     4
100
AcDbLine
 10
148.44719
 20
424.197932
 11
137.647196
 21
424.197932
  0
LINE
  5
8C
100
AcDbEntity
  8
M1
  6
CONTINUOUS
370
25
 62
     4
100
AcDbLine
 10
137.647196
 20
424.197932
 11
137.647196
 21
400.197942
  0
CIRCLE
  5
8D
100
AcDbEntity
  8
M1
  6
CONTINUOUS
370
25
 62
     4
100
AcDbCircle
 10
143.047192
 20
410.997938
 40
1.619996
  0
LINE
  5
8E
100
AcDbEntity
  8
M1
  6
DASHDOT
370
13
 62
     4
100
AcDbLine
 10
140.179828
 20
410.997938
 11
145.460748
 21
410.997938
  0
ARC
  5
8F
100
AcDbEntity
  8
M1
  6
CONTINUOUS
370
25
 62
     4
100
AcDbCircle
 10
143.047192
 20
418.677876
 40
1.619996
100
AcDbArc
 50
180.0
 51
360.0
  0
LINE
  5
90
100
AcDbEntity
  8
M1
  6
DASHDOT
370
13
 62
     4
100
AcDbLine
 10
140.46181
 20
418.677876
 11
145.563274
 21
418.677876
  0
ARC
  5
91
100
AcDbEntity
  8
M1
  6
CONTINUOUS
370
25
 62
     4
100
AcDbCircle
 10
143.047192
 20
420.597874
 40
1.619996
100
AcDbArc
 50
0.0
 51
180.0
  0
LINE
  5
92
100
AcDbEntity
  8
M1
  6
DASHDOT
370
13
 62
     4
100
AcDbLine
 10
140.384906
 20
420.597874
 11
145.870906
 21
420.597874
  0
LINE
  5
93
100
AcDbEntity
  8
M1
  6
CONTINUOUS
370
25
 62
     4
100
AcDbLine
 10
144.667192
 20
420.597874
 11
144.667192
 21
418.677876
  0
LINE
  5
94
100
AcDbEntity
  8
M1
  6
CONTINUOUS
370
25
 62
     4
100
AcDbLine
 10
141.427194
 20
420.597874
 11
141.427194
 21
418.677876
  0
LINE
  5
95
100
AcDbEntity
  8
M1
  6
CONTINUOUS
370
25
 62
     4
100
AcDbLine
 10
154.447188
 20
400.197942
 11
165.247182
 21
400.197942
  0
LINE
  5
96
100
AcDbEntity
  8
M1
  6
CONTINUOUS
370
25
 62
     4
100
AcDbLine
 10
165.247182
 20
400.197942
 11
165.247182
 21
424.197932
  0
LINE
  5
97
100
AcDbEntity
  8
M1
  6
CONTINUOUS
370
25
 62
     4
100
AcDbLine
 10
165.247182
 20
424.197932
 11
154.447188
 21
424.197932
  0
LINE
  5
98
100
AcDbEntity
  8
M1
  6
CONTINUOUS
370
25
 62
     4
100
AcDbLine
 10
154.447188
 20
424.197932
 11
154.447188
 21
400.197942
  0
CIRCLE
  5
99
100
AcDbEntity
  8
M1
  6
CONTINUOUS
370
25
 62
     4
100
AcDbCircle
 10
159.847186
 20
410.997938
 40
1.619996
  0
LINE
  5
9A
100
AcDbEntity
  8
M1
  6
DASHDOT
370
13
 62
     4
100
AcDbLine
 10
157.150566
 20
410.997938
 11
162.277678
 21
410.997938
  0
LINE
  5
9B
100
AcDbEntity
  8
M1
  6
DASHDOT
370
13
 62
     4
100
AcDbLine
 10
159.847186
 20
398.577942
 11
159.847186
 21
425.857072
  0
ARC
  5
9C
100
AcDbEntity
  8
M1
  6
CONTINUOUS
370
25
 62
     4
100
AcDbCircle
 10
159.847186
 20
418.677876
 40
1.619996
100
AcDbArc
 50
180.0
 51
360.0
  0
LINE
  5
9D
100
AcDbEntity
  8
M1
  6
DASHDOT
370
13
 62
     4
100
AcDbLine
 10
157.176202
 20
418.677876
 11
162.25203
 21
418.677876
  0
ARC
  5
9E
100
AcDbEntity
  8
M1
  6
CONTINUOUS
370
25
 62
     4
100
AcDbCircle
 10
159.847186
 20
420.597874
 40
1.619996
100
AcDbArc
 50
0.0
 51
180.0
  0
LINE
  5
9F
100
AcDbEntity
  8
M1
  6
DASHDOT
370
13
 62
     4
100
AcDbLine
 10
157.201836
 20
420.597874
 11
162.534026
 21
420.597874
  0
LINE
  5
A0
100
AcDbEntity
  8
M1
  6
CONTINUOUS
370
25
 62
     4
100
AcDbLine
 10
161.467184
 20
420.597874
 11
161.467184
 21
418.677876
  0
LINE
  5
A1
100
AcDbEntity
  8
M1
  6
CONTINUOUS
370
25
 62
     4
100
AcDbLine
 10
158.227186
 20
420.597874
 11
158.227186
 21
418.677876
  0
LINE
  5
A2
100
AcDbEntity
  8
M1
  6
CONTINUOUS
370
25
 62
     4
100
AcDbLine
 10
120.847204
 20
301.798104
 11
131.647198
 21
301.798104
  0
LINE
  5
A3
100
AcDbEntity
  8
M1
  6
CONTINUOUS
370
25
 62
     4
100
AcDbLine
 10
131.647198
 20
301.798104
 11
131.647198
 21
277.798116
  0
LINE
  5
A4
100
AcDbEntity
  8
M1
  6
CONTINUOUS
370
25
 62
     4
100
AcDbLine
 10
131.647198
 20
277.798116
 11
120.847204
 21
277.798116
  0
LINE
  5
A5
100
AcDbEntity
  8
M1
  6
CONTINUOUS
370
25
 62
     4
100
AcDbLine
 10
120.847204
 20
277.798116
 11
120.847204
 21
301.798104
  0
CIRCLE
  5
A6
100
AcDbEntity
  8
M1
  6
CONTINUOUS
370
25
 62
     4
100
AcDbCircle
 10
126.2472
 20
290.99811
 40
1.619996
  0
LINE
  5
A7
100
AcDbEntity
  8
M1
  6
DASHDOT
370
13
 62
     4
100
AcDbLine
 10
123.644892
 20
290.99811
 11
129.207798
 21
290.99811
  0
LINE
  5
A8
100
AcDbEntity
  8
M1
  6
DASHDOT
370
13
 62
     4
100
AcDbLine
 10
126.2472
 20
303.418104
 11
126.2472
 21
276.138976
  0
ARC
  5
A9
100
AcDbEntity
  8
M1
  6
CONTINUOUS
370
25
 62
     4
100
AcDbCircle
 10
126.2472
 20
283.318172
 40
1.619996
100
AcDbArc
 50
0.0
 51
179.997928
  0
LINE
  5
AA
100
AcDbEntity
  8
M1
  6
DASHDOT
370
13
 62
     4
100
AcDbLine
 10
123.79869
 20
283.318172
 11
129.10526
 21
283.318172
  0
ARC
  5
AB
100
AcDbEntity
  8
M1
  6
CONTINUOUS
370
25
 62
     4
100
AcDbCircle
 10
126.2472
 20
281.398172
 40
1.619996
100
AcDbArc
 50
179.997928
 51
360.0
  0
LINE
  5
AC
100
AcDbEntity
  8
M1
  6
DASHDOT
370
13
 62
     4
100
AcDbLine
 10
123.721786
 20
281.398172
 11
128.925802
 21
281.398172
  0
LINE
  5
AD
100
AcDbEntity
  8
M1
  6
CONTINUOUS
370
25
 62
     4
100
AcDbLine
 10
127.8672
 20
281.398172
 11
127.8672
 21
283.318172
  0
LINE
  5
AE
100
AcDbEntity
  8
M1
  6
CONTINUOUS
370
25
 62
     4
100
AcDbLine
 10
124.627202
 20
281.398172
 11
124.627202
 21
283.318172
  0
LINE
  5
AF
100
AcDbEntity
  8
M1
  6
CONTINUOUS
370
25
 62
     4
100
AcDbLine
 10
137.647196
 20
301.798104
 11
148.44719
 21
301.798104
  0
LINE
  5
B0
100
AcDbEntity
  8
M1
  6
CONTINUOUS
370
25
 62
     4
100
AcDbLine
 10
148.44719
 20
301.798104
 11
148.44719
 21
277.798116
  0
LINE
  5
B1
100
AcDbEntity
  8
M1
  6
CONTINUOUS
370
25
 62
     4
100
AcDbLine
 10
148.44719
 20
277.798116
 11
137.647196
 21
277.798116
  0
LINE
  5
B2
100
AcDbEntity
  8
M1
  6
CONTINUOUS
370
25
 62
     4
100
AcDbLine
 10
137.647196
 20
277.798116
 11
137.647196
 21
301.798104
  0
CIRCLE
  5
B3
100
AcDbEntity
  8
M1
  6
CONTINUOUS
370
25
 62
     4
100
AcDbCircle
 10
143.047192
 20
290.99811
 40
1.619996
  0
LINE
  5
B4
100
AcDbEntity
  8
M1
  6
DASHDOT
370
13
 62
     4
100
AcDbLine
 10
140.769428
 20
290.99811
 11
145.717082
 21
290.99811
  0
LINE
  5
B5
100
AcDbEntity
  8
M1
  6
DASHDOT
370
13
 62
     4
100
AcDbLine
 10
143.047192
 20
303.418104
 11
143.047192
 21
276.138976
  0
ARC
  5
B6
100
AcDbEntity
  8
M1
  6
CONTINUOUS
370
25
 62
     4
100
AcDbCircle
 10
143.047192
 20
283.318172
 40
1.619996
100
AcDbArc
 50
0.0
 51
179.997928
  0
LINE
  5
B7
100
AcDbEntity
  8
M1
  6
DASHDOT
370
13
 62
     4
100
AcDbLine
 10
140.384906
 20
283.318172
 11
145.742732
 21
283.318172
  0
ARC
  5
B8
100
AcDbEntity
  8
M1
  6
CONTINUOUS
370
25
 62
     4
100
AcDbCircle
 10
143.047192
 20
281.398172
 40
1.619996
100
AcDbArc
 50
179.997928
 51
360.0
  0
LINE
  5
B9
100
AcDbEntity
  8
M1
  6
DASHDOT
370
13
 62
     4
100
AcDbLine
 10
140.436176
 20
281.398172
 11
145.665826
 21
281.398172
  0
LINE
  5
BA
100
AcDbEntity
  8
M1
  6
CONTINUOUS
370
25
 62
     4
100
AcDbLine
 10
144.667192
 20
281.398172
 11
144.667192
 21
283.318172
  0
LINE
  5
BB
100
AcDbEntity
  8
M1
  6
CONTINUOUS
370
25
 62
     4
100
AcDbLine
 10
141.427194
 20
281.398172
 11
141.427194
 21
283.318172
  0
LINE
  5
BC
100
AcDbEntity
  8
M1
  6
CONTINUOUS
370
25
 62
     4
100
AcDbLine
 10
154.447188
 20
301.798104
 11
165.247182
 21
301.798104
  0
LINE
  5
BD
100
AcDbEntity
  8
M1
  6
CONTINUOUS
370
25
 62
     4
100
AcDbLine
 10
165.247182
 20
301.798104
 11
165.247182
 21
277.798116
  0
LINE
  5
BE
100
AcDbEntity
  8
M1
  6
CONTINUOUS
370
25
 62
     4
100
AcDbLine
 10
165.247182
 20
277.798116
 11
154.447188
 21
277.798116
  0
LINE
  5
BF
100
AcDbEntity
  8
M1
  6
CONTINUOUS
370
25
 62
     4
100
AcDbLine
 10
154.447188
 20
277.798116
 11
154.447188
 21
301.798104
  0
CIRCLE
  5
C0
100
AcDbEntity
  8
M1
  6
CONTINUOUS
370
25
 62
     4
100
AcDbCircle
 10
159.847186
 20
290.99811
 40
1.619996
  0
LINE
  5
C1
100
AcDbEntity
  8
M1
  6
DASHDOT
370
13
 62
     4
100
AcDbLine
 10
157.406914
 20
290.99811
 11
162.687834
 21
290.99811
  0
LINE
  5
C2
100
AcDbEntity
  8
M1
  6
DASHDOT
370
13
 62
     4
100
AcDbLine
 10
159.847186
 20
303.418104
 11
159.847186
 21
276.138976
  0
ARC
  5
C3
100
AcDbEntity
  8
M1
  6
CONTINUOUS
370
25
 62
     4
100
AcDbCircle
 10
159.847186
 20
283.318172
 40
1.619996
100
AcDbArc
 50
0.0
 51
179.997928
  0
LINE
  5
C4
100
AcDbEntity
  8
M1
  6
DASHDOT
370
13
 62
     4
100
AcDbLine
 10
157.355644
 20
283.318172
 11
162.55966
 21
283.318172
  0
ARC
  5
C5
100
AcDbEntity
  8
M1
  6
CONTINUOUS
370
25
 62
     4
100
AcDbCircle
 10
159.847186
 20
281.398172
 40
1.619996
100
AcDbArc
 50
179.997928
 51
360.0
  0
LINE
  5
C6
100
AcDbEntity
  8
M1
  6
DASHDOT
370
13
 62
     4
100
AcDbLine
 10
157.406914
 20
281.398172
 11
162.508392
 21
281.398172
  0
LINE
  5
C7
100
AcDbEntity
  8
M1
  6
CONTINUOUS
370
25
 62
     4
100
AcDbLine
 10
161.467184
 20
281.398172
 11
161.467184
 21
283.318172
  0
LINE
  5
C8
100
AcDbEntity
  8
M1
  6
CONTINUOUS
370
25
 62
     4
100
AcDbLine
 10
158.227186
 20
281.398172
 11
158.227186
 21
283.318172
  0
CIRCLE
  5
C9
100
AcDbEntity
  8
M1
  6
CONTINUOUS
370
25
 62
     4
100
AcDbCircle
 10
143.047192
 20
334.19803
 40
1.559998
  0
LINE
  5
CA
100
AcDbEntity
  8
M1
  6
DASHDOT
370
13
 62
     4
100
AcDbLine
 10
135.487196
 20
334.19803
 11
150.60719
 21
334.19803
  0
CIRCLE
  5
CB
100
AcDbEntity
  8
M1
  6
CONTINUOUS
370
25
 62
     4
100
AcDbCircle
 10
134.647196
 20
305.398044
 40
2.519996
  0
LINE
  5
CC
100
AcDbEntity
  8
M1
  6
DASHDOT
370
13
 62
     4
100
AcDbLine
 10
126.1272
 20
305.398044
 11
143.167192
 21
305.398044
  0
LINE
  5
CD
100
AcDbEntity
  8
M1
  6
DASHDOT
370
13
 62
     4
100
AcDbLine
 10
134.647196
 20
296.878048
 11
134.647196
 21
313.91804
  0
CIRCLE
  5
CE
100
AcDbEntity
  8
M1
  6
CONTINUOUS
370
25
 62
     4
100
AcDbCircle
 10
151.44719
 20
305.398044
 40
2.519996
  0
LINE
  5
CF
100
AcDbEntity
  8
M1
  6
DASHDOT
370
13
 62
     4
100
AcDbLine
 10
142.927192
 20
305.398044
 11
159.967186
 21
305.398044
  0
LINE
  5
D0
100
AcDbEntity
  8
M1
  6
DASHDOT
370
13
 62
     4
100
AcDbLine
 10
151.44719
 20
296.878048
 11
151.44719
 21
313.91804
  0
CIRCLE
  5
D1
100
AcDbEntity
  8
M1
  6
CONTINUOUS
370
25
 62
     4
100
AcDbCircle
 10
134.647196
 20
396.598002
 40
2.519996
  0
LINE
  5
D2
100
AcDbEntity
  8
M1
  6
DASHDOT
370
13
 62
     4
100
AcDbLine
 10
126.1272
 20
396.598002
 11
143.167192
 21
396.598002
  0
LINE
  5
D3
100
AcDbEntity
  8
M1
  6
DASHDOT
370
13
 62
     4
100
AcDbLine
 10
134.647196
 20
388.078006
 11
134.647196
 21
409.917996
  0
CIRCLE
  5
D4
100
AcDbEntity
  8
M1
  6
CONTINUOUS
370
25
 62
     4
100
AcDbCircle
 10
151.44719
 20
396.598002
 40
2.519996
  0
LINE
  5
D5
100
AcDbEntity
  8
M1
  6
DASHDOT
370
13
 62
     4
100
AcDbLine
 10
142.927192
 20
396.598002
 11
159.967186
 21
396.598002
  0
LINE
  5
D6
100
AcDbEntity
  8
M1
  6
DASHDOT
370
13
 62
     4
100
AcDbLine
 10
151.44719
 20
388.078006
 11
151.44719
 21
409.917996
  0
LINE
  5
D7
100
AcDbEntity
  8
M1
  6
CONTINUOUS
370
25
 62
     4
100
AcDbLine
 10
137.527196
 20
360.677004
 11
137.527196
 21
343.197968
  0
LINE
  5
D8
100
AcDbEntity
  8
M1
  6
CONTINUOUS
370
25
 62
     4
100
AcDbLine
 10
148.56719
 20
360.677004
 11
148.56719
 21
343.197968
  0
LINE
  5
D9
100
AcDbEntity
  8
M1
  6
CONTINUOUS
370
25
 62
     4
100
AcDbLine
 10
148.56719
 20
343.198026
 11
137.527196
 21
343.198026
  0
LINE
  5
DA
100
AcDbEntity
  8
M1
  6
CONTINUOUS
370
25
 62
     4
100
AcDbLine
 10
139.718366
 20
352.198022
 11
146.486158
 21
352.198022
  0
LINE
  5
DB
100
AcDbEntity
  8
M1
  6
CONTINUOUS
370
25
100
AcDbLine
 10
148.56719
 20
357.406828
 11
137.527196
 21
357.406828
  0
LINE
  5
DC
100
AcDbEntity
  8
M1
  6
CONTINUOUS
370
25
100
AcDbLine
 10
148.56719
 20
360.676944
 11
137.527196
 21
360.676944
  0
LINE
  5
DD
100
AcDbEntity
  8
M1
  6
CONTINUOUS
370
25
 62
     6
100
AcDbLine
 10
323.316584
 20
301.797988
 11
357.876568
 21
301.797988
  0
LINE
  5
DE
100
AcDbEntity
  8
M1
  6
CONTINUOUS
370
25
 62
     6
100
AcDbLine
 10
357.876568
 20
400.197942
 11
323.295314
 21
400.197942
  0
LINE
  5
DF
100
AcDbEntity
  8
M1
  6
CONTINUOUS
370
25
 62
     6
100
AcDbLine
 10
319.476584
 20
362.334034
 11
319.476584
 21
339.815822
  0
LINE
  5
E0
100
AcDbEntity
  8
M1
  6
CONTINUOUS
370
25
 62
     6
100
AcDbLine
 10
321.876526
 20
392.997946
 11
321.876466
 21
308.997984
  0
LINE
  5
E1
100
AcDbEntity
  8
M1
  6
CONTINUOUS
370
25
 62
     6
100
AcDbLine
 10
319.476584
 20
362.39796
 11
321.876584
 21
362.39796
  0
LINE
  5
E2
100
AcDbEntity
  8
M1
  6
CONTINUOUS
370
25
 62
     6
100
AcDbLine
 10
321.876584
 20
339.59797
 11
319.476584
 21
339.59797
  0
LINE
  5
E3
100
AcDbEntity
  8
M1
  6
CONTINUOUS
370
25
 62
     6
100
AcDbLine
 10
321.876466
 20
308.997984
 11
323.316466
 21
308.997984
  0
LINE
  5
E4
100
AcDbEntity
  8
M1
  6
CONTINUOUS
370
25
 62
     6
100
AcDbLine
 10
323.316466
 20
308.997984
 11
323.316584
 21
301.797988
  0
LINE
  5
E5
100
AcDbEntity
  8
M1
  6
CONTINUOUS
370
25
 62
     6
100
AcDbLine
 10
323.316584
 20
400.197942
 11
323.316524
 21
392.997946
  0
LINE
  5
E6
100
AcDbEntity
  8
M1
  6
CONTINUOUS
370
25
 62
     6
100
AcDbLine
 10
323.316524
 20
392.997946
 11
321.876526
 21
392.997946
  0
LINE
  5
E7
100
AcDbEntity
  8
M1
  6
CONTINUOUS
370
25
 62
     6
100
AcDbLine
 10
332.43658
 20
400.197942
 11
332.43658
 21
301.797988
  0
LINE
  5
E8
100
AcDbEntity
  8
M1
  6
DASHDOT
370
13
 62
     6
100
AcDbLine
 10
335.796578
 20
362.39796
 11
335.796578
 21
339.59797
  0
LINE
  5
E9
100
AcDbEntity
  8
M1
  6
DASHDOT
370
13
 62
     6
100
AcDbLine
 10
297.74978
 20
354.996302
 11
335.796578
 21
350.997906
  0
LINE
  5
EA
100
AcDbEntity
  8
M1
  6
DASHDOT
370
13
 62
     6
100
AcDbLine
 10
269.163972
 20
375.249752
 11
335.796578
 21
350.997964
  0
LINE
  5
EB
100
AcDbEntity
  8
M1
  6
DASHDOT
370
13
 62
     6
100
AcDbLine
 10
295.083054
 20
342.343094
 11
335.796578
 21
350.997906
  0
LINE
  5
EC
100
AcDbEntity
  8
M1
  6
DASHDOT
370
13
 62
     6
100
AcDbLine
 10
268.923854
 20
331.821366
 11
335.796578
 21
350.997906
  0
LINE
  5
ED
100
AcDbEntity
  8
M1
  6
CONTINUOUS
370
25
 62
     6
100
AcDbLine
 10
319.476526
 20
358.78929
 11
314.289986
 21
360.677004
  0
LINE
  5
EE
100
AcDbEntity
  8
M1
  6
CONTINUOUS
370
25
 62
     6
100
AcDbLine
 10
319.476526
 20
355.085932
 11
313.099712
 21
357.406888
  0
LINE
  5
EF
100
AcDbEntity
  8
M1
  6
CONTINUOUS
370
25
 62
     6
100
AcDbLine
 10
314.289986
 20
360.677004
 11
313.099712
 21
357.406888
  0
LINE
  5
F0
100
AcDbEntity
  8
M1
  6
CONTINUOUS
370
25
 62
     6
100
AcDbLine
 10
343.836574
 20
400.197884
 11
348.636572
 21
400.197884
  0
LINE
  5
F1
100
AcDbEntity
  8
M1
  6
CONTINUOUS
370
25
 62
     6
100
AcDbLine
 10
348.636572
 20
400.197884
 11
348.636572
 21
419.397874
  0
LINE
  5
F2
100
AcDbEntity
  8
M1
  6
CONTINUOUS
370
25
 62
     6
100
AcDbLine
 10
348.636572
 20
419.397874
 11
343.836574
 21
419.397874
  0
LINE
  5
F3
100
AcDbEntity
  8
M1
  6
CONTINUOUS
370
25
 62
     6
100
AcDbLine
 10
343.836574
 20
419.397874
 11
343.836574
 21
400.197884
  0
LINE
  5
F4
100
AcDbEntity
  8
M1
  6
CONTINUOUS
370
25
 62
     6
100
AcDbLine
 10
348.636572
 20
282.597996
 11
348.636572
 21
301.797988
  0
LINE
  5
F5
100
AcDbEntity
  8
M1
  6
CONTINUOUS
370
25
 62
     6
100
AcDbLine
 10
348.636572
 20
301.797988
 11
343.836574
 21
301.797988
  0
LINE
  5
F6
100
AcDbEntity
  8
M1
  6
CONTINUOUS
370
25
 62
     6
100
AcDbLine
 10
343.836574
 20
301.797988
 11
343.836574
 21
282.597996
  0
LINE
  5
F7
100
AcDbEntity
  8
M1
  6
DIVIDE
370
13
 62
     6
100
AcDbLine
 10
322.356584
 20
392.997886
 11
323.679806
 21
392.997886
  0
LINE
  5
F8
100
AcDbEntity
  8
M1
  6
DIVIDE
370
13
 62
     6
100
AcDbLine
 10
356.436568
 20
400.249036
 11
356.436568
 21
431.39787
  0
LINE
  5
F9
100
AcDbEntity
  8
M1
  6
DIVIDE
370
13
 62
     6
100
AcDbLine
 10
356.436568
 20
431.39787
 11
323.295314
 21
431.39787
  0
LINE
  5
FA
100
AcDbEntity
  8
M1
  6
DIVIDE
370
13
 62
     6
100
AcDbLine
 10
323.295314
 20
431.39787
 11
323.295314
 21
400.197942
  0
LINE
  5
FB
100
AcDbEntity
  8
M1
  6
CONTINUOUS
370
25
 62
     6
100
AcDbLine
 10
357.876568
 20
308.997984
 11
357.876568
 21
301.797988
  0
ARC
  5
FC
100
AcDbEntity
  8
M1
  6
CONTINUOUS
370
13
 62
     6
100
AcDbCircle
 10
335.796578
 20
350.997964
 40
23.519982
100
AcDbArc
 50
160.000408
 51
196.000965
  0
LINE
  5
FD
100
AcDbEntity
  8
M1
  6
DASHDOT
370
13
 62
     6
100
AcDbLine
 10
265.772156
 20
350.997964
 11
365.316564
 21
350.997964
  0
LINE
  5
FE
100
AcDbEntity
  8
M1
  6
DASHED
370
13
 62
     6
100
AcDbLine
 10
309.613856
 20
356.951848
 11
318.409358
 21
353.750522
  0
LINE
  5
FF
100
AcDbEntity
  8
M1
  6
DASHED
370
13
 62
     6
100
AcDbLine
 10
318.4093
 20
353.750522
 11
319.558498
 21
356.907962
  0
LINE
  5
100
100
AcDbEntity
  8
M1
  6
CONTINUOUS
370
25
 62
     6
100
AcDbLine
 10
320.707756
 20
360.065226
 11
320.70764
 21
360.065226
  0
ARC
  5
101
100
AcDbEntity
  8
M1
  6
DASHED
370
13
 62
     6
100
AcDbCircle
 10
294.412416
 20
366.06036
 40
5.39998
100
AcDbArc
 50
12.230846
 51
307.768152
  0
LINE
  5
102
100
AcDbEntity
  8
M1
  6
DASHED
370
13
 62
     6
100
AcDbLine
 10
311.912252
 20
363.266552
 11
309.613856
 21
356.951848
  0
LINE
  5
103
100
AcDbEntity
  8
M1
  6
CONTINUOUS
370
25
 62
     6
100
AcDbLine
 10
314.844048
 20
362.199444
 11
314.84399
 21
362.199386
  0
LINE
  5
104
100
AcDbEntity
  8
M1
  6
DASHED
370
13
 62
     6
100
AcDbLine
 10
299.689778
 20
367.204344
 11
311.912194
 21
363.266494
  0
LINE
  5
105
100
AcDbEntity
  8
M1
  6
DASHED
370
13
 62
     6
100
AcDbLine
 10
297.71974
 20
361.791748
 11
309.613856
 21
356.951848
  0
LINE
  5
106
100
AcDbEntity
  8
M1
  6
CONTINUOUS
370
25
 62
     6
100
AcDbLine
 10
314.289868
 20
360.677004
 11
313.099712
 21
357.406888
  0
LINE
  5
107
100
AcDbEntity
  8
M1
  6
DASHED
370
13
 62
     6
100
AcDbLine
 10
319.476526
 20
360.513292
 11
311.912194
 21
363.266494
  0
ARC
  5
108
100
AcDbEntity
  8
M1
  6
CONTINUOUS
370
13
 62
     6
100
AcDbCircle
 10
335.796578
 20
350.997964
 40
49.439974
100
AcDbArc
 50
160.000406
 51
179.999964
  0
LINE
  5
109
100
AcDbEntity
  8
M1
  6
CONTINUOUS
370
25
 62
     6
100
AcDbLine
 10
343.836574
 20
282.597996
 11
348.636572
 21
282.597996
  0
LINE
  5
10A
100
AcDbEntity
  8
M1
  6
DASHED
370
13
 62
     6
100
AcDbLine
 10
353.07657
 20
398.757884
 11
353.07657
 21
394.437886
  0
LINE
  5
10B
100
AcDbEntity
  8
M1
  6
DASHED
370
13
 62
     6
100
AcDbLine
 10
353.07657
 20
395.517886
 11
357.876568
 21
395.517886
  0
LINE
  5
10C
100
AcDbEntity
  8
M1
  6
CONTINUOUS
370
25
 62
     6
100
AcDbLine
 10
357.876568
 20
395.517886
 11
357.876568
 21
397.677884
  0
LINE
  5
10D
100
AcDbEntity
  8
M1
  6
DASHED
370
13
 62
     6
100
AcDbLine
 10
357.876568
 20
397.677884
 11
353.07657
 21
397.677884
  0
LINE
  5
10E
100
AcDbEntity
  8
M1
  6
DASHDOT
370
13
 62
     6
100
AcDbLine
 10
348.010816
 20
396.597886
 11
360.008266
 21
396.597886
  0
LINE
  5
10F
100
AcDbEntity
  8
M1
  6
CONTINUOUS
370
25
 62
     6
100
AcDbLine
 10
357.876568
 20
301.797988
 11
357.876568
 21
400.197942
  0
LINE
  5
110
100
AcDbEntity
  8
M1
  6
DASHED
370
13
 62
     6
100
AcDbLine
 10
352.830242
 20
398.757884
 11
348.756572
 21
398.757884
  0
LINE
  5
111
100
AcDbEntity
  8
M1
  6
DASHED
370
13
 62
     6
100
AcDbLine
 10
348.756572
 20
394.437886
 11
353.07657
 21
394.437886
  0
CIRCLE
  5
112
100
AcDbEntity
  8
M1
  6
CONTINUOUS
370
25
100
AcDbCircle
 10
125.671192
 20
328.438034
 40
1.2
  0
CIRCLE
  5
113
100
AcDbEntity
  8
M1
  6
CONTINUOUS
370
25
100
AcDbCircle
 10
132.079192
 20
328.438034
 40
1.2
  0
CIRCLE
  5
114
100
AcDbEntity
  8
M1
  6
CONTINUOUS
370
25
100
AcDbCircle
 10
147.943208
 20
328.438034
 40
0.6
  0
LINE
  5
115
100
AcDbEntity
  8
M1
  6
CONTINUOUS
370
25
100
AcDbLine
 10
158.407174
 20
321.022002
 11
153.367178
 21
321.022002
  0
LINE
  5
116
100
AcDbEntity
  8
M1
  6
CONTINUOUS
370
25
100
AcDbLine
 10
158.527174
 20
318.262004
 11
158.527174
 21
320.902002
  0
ARC
  5
117
100
AcDbEntity
  8
M1
  6
CONTINUOUS
370
25
100
AcDbCircle
 10
158.407174
 20
320.902002
 40
0.12
100
AcDbArc
 50
0.0
 51
90.0
  0
LINE
  5
118
100
AcDbEntity
  8
M1
  6
CONTINUOUS
370
25
100
AcDbLine
 10
153.247178
 20
320.902002
 11
153.247178
 21
318.262004
  0
ARC
  5
119
100
AcDbEntity
  8
M1
  6
CONTINUOUS
370
25
100
AcDbCircle
 10
153.367178
 20
320.902002
 40
0.12
100
AcDbArc
 50
90.0
 51
179.972024
  0
LINE
  5
11A
100
AcDbEntity
  8
M1
  6
CONTINUOUS
370
25
100
AcDbLine
 10
153.367178
 20
318.142004
 11
158.407174
 21
318.142004
  0
ARC
  5
11B
100
AcDbEntity
  8
M1
  6
CONTINUOUS
370
25
100
AcDbCircle
 10
153.367178
 20
318.262004
 40
0.12
100
AcDbArc
 50
179.972024
 51
270.0
  0
ARC
  5
11C
100
AcDbEntity
  8
M1
  6
CONTINUOUS
370
25
100
AcDbCircle
 10
158.407174
 20
318.262004
 40
0.12
100
AcDbArc
 50
270.0
 51
360.0
  0
LINE
  5
11D
100
AcDbEntity
  8
M1
  6
DIVIDE
370
13
100
AcDbLine
 10
134.911198
 20
444.59798
 11
134.383198
 21
444.59798
  0
LINE
  5
11E
100
AcDbEntity
  8
M1
  6
DIVIDE
370
13
100
AcDbLine
 10
134.383198
 20
444.59798
 11
134.383198
 21
400.198
  0
LINE
  5
11F
100
AcDbEntity
  8
M1
  6
DIVIDE
370
13
100
AcDbLine
 10
130.025998
 20
400.198
 11
130.554
 21
400.198
  0
LINE
  5
120
100
AcDbEntity
  8
M1
  6
DIVIDE
370
13
100
AcDbLine
 10
134.911198
 20
400.198
 11
134.911198
 21
444.59798
  0
LINE
  5
121
100
AcDbEntity
  8
M1
  6
DIVIDE
370
13
100
AcDbLine
 10
151.71119
 20
444.59798
 11
151.183192
 21
444.59798
  0
LINE
  5
122
100
AcDbEntity
  8
M1
  6
DIVIDE
370
13
100
AcDbLine
 10
151.183192
 20
444.59798
 11
151.183192
 21
400.198
  0
LINE
  5
123
100
AcDbEntity
  8
M1
  6
DIVIDE
370
13
100
AcDbLine
 10
146.82599
 20
400.198
 11
147.353992
 21
400.198
  0
LINE
  5
124
100
AcDbEntity
  8
M1
  6
DIVIDE
370
13
100
AcDbLine
 10
151.71119
 20
400.198
 11
151.71119
 21
444.59798
  0
LINE
  5
125
100
AcDbEntity
  8
M1
  6
DASHDOT
370
13
 62
     6
100
AcDbLine
 10
172.207046
 20
374.278086
 11
168.247048
 21
374.278086
  0
LINE
  5
126
100
AcDbEntity
  8
M1
  6
DASHDOT
370
13
 62
     6
100
AcDbLine
 10
168.247048
 20
359.398092
 11
172.207046
 21
359.398092
  0
CIRCLE
  5
127
100
AcDbEntity
  8
M1
  6
CONTINUOUS
370
13
 62
     6
100
AcDbCircle
 10
169.927046
 20
368.03803
 40
0.72
  0
CIRCLE
  5
128
100
AcDbEntity
  8
M1
  6
CONTINUOUS
370
13
 62
     6
100
AcDbCircle
 10
169.927046
 20
365.638032
 40
0.72
  0
CIRCLE
  5
129
100
AcDbEntity
  8
M1
  6
CONTINUOUS
370
13
 62
     6
100
AcDbCircle
 10
169.927046
 20
372.838028
 40
0.72
  0
CIRCLE
  5
12A
100
AcDbEntity
  8
M1
  6
CONTINUOUS
370
13
 62
     6
100
AcDbCircle
 10
169.927046
 20
360.838034
 40
0.72
  0
LINE
  5
12B
100
AcDbEntity
  8
M1
  6
DASHDOT
370
13
 62
     6
100
AcDbLine
 10
172.207046
 20
359.398092
 11
172.207046
 21
374.278086
  0
CIRCLE
  5
12C
100
AcDbEntity
  8
M1
  6
CONTINUOUS
370
13
 62
     6
100
AcDbCircle
 10
169.927046
 20
370.43803
 40
0.72
  0
CIRCLE
  5
12D
100
AcDbEntity
  8
M1
  6
CONTINUOUS
370
13
 62
     6
100
AcDbCircle
 10
169.927046
 20
363.238032
 40
0.72
  0
CIRCLE
  5
12E
100
AcDbEntity
  8
M1
  6
CONTINUOUS
370
13
 62
     6
100
AcDbCircle
 10
169.927164
 20
319.078052
 40
0.72
  0
CIRCLE
  5
12F
100
AcDbEntity
  8
M1
  6
CONTINUOUS
370
13
 62
     6
100
AcDbCircle
 10
169.927164
 20
316.678054
 40
0.72
  0
CIRCLE
  5
130
100
AcDbEntity
  8
M1
  6
CONTINUOUS
370
13
 62
     6
100
AcDbCircle
 10
169.927164
 20
323.87805
 40
0.72
  0
CIRCLE
  5
131
100
AcDbEntity
  8
M1
  6
CONTINUOUS
370
13
 62
     6
100
AcDbCircle
 10
169.927164
 20
321.478052
 40
0.72
  0
LINE
  5
132
100
AcDbEntity
  8
M1
  6
DASHDOT
370
13
 62
     6
100
AcDbLine
 10
172.207162
 20
325.318108
 11
168.247164
 21
325.318108
  0
LINE
  5
133
100
AcDbEntity
  8
M1
  6
DASHDOT
370
13
 62
     6
100
AcDbLine
 10
168.247164
 20
310.438116
 11
172.207162
 21
310.438116
  0
CIRCLE
  5
134
100
AcDbEntity
  8
M1
  6
CONTINUOUS
370
13
 62
     6
100
AcDbCircle
 10
169.927164
 20
314.278054
 40
0.72
  0
CIRCLE
  5
135
100
AcDbEntity
  8
M1
  6
CONTINUOUS
370
13
 62
     6
100
AcDbCircle
 10
169.927164
 20
311.878056
 40
0.72
  0
LINE
  5
136
100
AcDbEntity
  8
M1
  6
DASHDOT
370
13
 62
     6
100
AcDbLine
 10
172.207162
 20
310.438116
 11
172.207162
 21
325.318108
  0
LINE
  5
137
100
AcDbEntity
  8
M1
  6
DASHDOT
370
13
 62
     6
100
AcDbLine
 10
113.88734
 20
374.278086
 11
117.847338
 21
374.278086
  0
LINE
  5
138
100
AcDbEntity
  8
M1
  6
DASHDOT
370
13
 62
     6
100
AcDbLine
 10
117.847338
 20
359.398092
 11
113.88734
 21
359.398092
  0
CIRCLE
  5
139
100
AcDbEntity
  8
M1
  6
CONTINUOUS
370
13
 62
     6
100
AcDbCircle
 10
116.16734
 20
368.03803
 40
0.72
  0
CIRCLE
  5
13A
100
AcDbEntity
  8
M1
  6
CONTINUOUS
370
13
 62
     6
100
AcDbCircle
 10
116.16734
 20
365.638032
 40
0.72
  0
CIRCLE
  5
13B
100
AcDbEntity
  8
M1
  6
CONTINUOUS
370
13
 62
     6
100
AcDbCircle
 10
116.16734
 20
372.838028
 40
0.72
  0
CIRCLE
  5
13C
100
AcDbEntity
  8
M1
  6
CONTINUOUS
370
13
 62
     6
100
AcDbCircle
 10
116.16734
 20
360.838034
 40
0.72
  0
LINE
  5
13D
100
AcDbEntity
  8
M1
  6
DASHDOT
370
13
 62
     6
100
AcDbLine
 10
113.88734
 20
359.398092
 11
113.88734
 21
374.278086
  0
CIRCLE
  5
13E
100
AcDbEntity
  8
M1
  6
CONTINUOUS
370
13
 62
     6
100
AcDbCircle
 10
116.16734
 20
370.43803
 40
0.72
  0
CIRCLE
  5
13F
100
AcDbEntity
  8
M1
  6
CONTINUOUS
370
13
 62
     6
100
AcDbCircle
 10
116.16734
 20
363.238032
 40
0.72
  0
LINE
  5
140
100
AcDbEntity
  8
M3
  6
CONTINUOUS
370
50
100
AcDbLine
 10
50.0
 20
20.0
 11
400.0
 21
20.0
  0
LINE
  5
141
100
AcDbEntity
  8
M3
  6
CONTINUOUS
370
50
100
AcDbLine
 10
400.0
 20
20.0
 11
400.0
 21
574.0
  0
LINE
  5
142
100
AcDbEntity
  8
M3
  6
CONTINUOUS
370
50
100
AcDbLine
 10
400.0
 20
574.0
 11
50.0
 21
574.0
  0
LINE
  5
143
100
AcDbEntity
  8
M3
  6
CONTINUOUS
370
50
100
AcDbLine
 10
50.0
 20
574.0
 11
50.0
 21
20.0
  0
LINE
  5
144
100
AcDbEntity
  8
M3
  6
CONTINUOUS
370
25
100
AcDbLine
 10
50.0
 20
20.0
 11
50.0
 21
74.0
  0
LINE
  5
145
100
AcDbEntity
  8
M3
  6
CONTINUOUS
370
13
 60
     1
 62
     8
100
AcDbLine
 10
51.0
 20
1.0
 11
56.0
 21
11.0
  0
LINE
  5
146
100
AcDbEntity
  8
M3
  6
CONTINUOUS
370
13
 60
     1
 62
     8
100
AcDbLine
 10
56.0
 20
11.0
 11
61.0
 21
1.0
  0
LINE
  5
147
100
AcDbEntity
  8
M3
  6
CONTINUOUS
370
13
 60
     1
 62
     8
100
AcDbLine
 10
61.0
 20
1.0
 11
51.0
 21
1.0
  0
TEXT
  5
148
100
AcDbEntity
  8
M3
 60
     1
 62
     8
100
AcDbText
 10
53.166668
 20
2.0
 40
6.0
  1
１
 41
0.833333
  7
STANDARD
100
AcDbText
  0
TEXT
  5
149
100
AcDbEntity
  8
M3
 60
     1
 62
     8
100
AcDbText
 10
63.083332
 20
2.0
 40
8.0
  1
２００５－１２－０７
 41
0.3125
  7
STANDARD
100
AcDbText
  0
LINE
  5
14A
100
AcDbEntity
  8
M3
  6
CONTINUOUS
370
25
 60
     1
 62
     8
100
AcDbLine
 10
96.380578
 20
7.2021
 11
97.55643
 21
7.863518
  0
LINE
  5
14B
100
AcDbEntity
  8
M3
  6
CONTINUOUS
370
25
 60
     1
 62
     8
100
AcDbLine
 10
97.55643
 20
7.863518
 11
99.099738
 21
8.304462
  0
LINE
  5
14C
100
AcDbEntity
  8
M3
  6
CONTINUOUS
370
25
 60
     1
 62
     8
100
AcDbLine
 10
97.923884
 20
6.173228
 11
99.32021
 21
4.55643
  0
LINE
  5
14D
100
AcDbEntity
  8
M3
  6
CONTINUOUS
370
25
 60
     1
 62
     8
100
AcDbLine
 10
99.32021
 20
4.55643
 11
99.099738
 21
4.629922
  0
LINE
  5
14E
100
AcDbEntity
  8
M3
  6
CONTINUOUS
370
25
 60
     1
 62
     8
100
AcDbLine
 10
121.0
 20
7.937008
 11
121.587926
 21
7.2021
  0
LINE
  5
14F
100
AcDbEntity
  8
M3
  6
CONTINUOUS
370
25
 60
     1
 62
     8
100
AcDbLine
 10
121.587926
 20
7.2021
 11
122.175854
 21
6.467192
  0
LINE
  5
150
100
AcDbEntity
  8
M3
  6
CONTINUOUS
370
25
 60
     1
 62
     8
100
AcDbLine
 10
122.175854
 20
6.467192
 11
122.469816
 21
5.805774
  0
LINE
  5
151
100
AcDbEntity
  8
M3
  6
CONTINUOUS
370
25
 60
     1
 62
     8
100
AcDbLine
 10
122.469816
 20
5.805774
 11
122.469816
 21
4.335958
  0
LINE
  5
152
100
AcDbEntity
  8
M3
  6
CONTINUOUS
370
25
 60
     1
 62
     8
100
AcDbLine
 10
122.469816
 20
4.335958
 11
121.95538
 21
3.013124
  0
LINE
  5
153
100
AcDbEntity
  8
M3
  6
CONTINUOUS
370
25
 60
     1
 62
     8
100
AcDbLine
 10
121.95538
 20
3.013124
 11
121.440944
 21
2.131234
  0
LINE
  5
154
100
AcDbEntity
  8
M3
  6
CONTINUOUS
370
25
 60
     1
 62
     8
100
AcDbLine
 10
121.440944
 20
2.131234
 11
121.146982
 21
1.76378
  0
LINE
  5
155
100
AcDbEntity
  8
M3
  6
CONTINUOUS
370
25
 60
     1
 62
     8
100
AcDbLine
 10
116.149606
 20
8.230972
 11
116.44357
 21
7.790026
  0
LINE
  5
156
100
AcDbEntity
  8
M3
  6
CONTINUOUS
370
25
 60
     1
 62
     8
100
AcDbLine
 10
116.296588
 20
7.569554
 11
117.47244
 21
7.863518
  0
LINE
  5
157
100
AcDbEntity
  8
M3
  6
CONTINUOUS
370
25
 60
     1
 62
     8
100
AcDbLine
 10
117.47244
 20
7.863518
 11
118.501312
 21
7.863518
  0
LINE
  5
158
100
AcDbEntity
  8
M3
  6
CONTINUOUS
370
25
 60
     1
 62
     8
100
AcDbLine
 10
118.501312
 20
7.863518
 11
118.721784
 21
7.716536
  0
LINE
  5
159
100
AcDbEntity
  8
M3
  6
CONTINUOUS
370
25
 60
     1
 62
     8
100
AcDbLine
 10
118.721784
 20
7.716536
 11
118.868766
 21
7.128608
  0
LINE
  5
15A
100
AcDbEntity
  8
M3
  6
CONTINUOUS
370
25
 60
     1
 62
     8
100
AcDbLine
 10
118.868766
 20
7.128608
 11
118.868766
 21
6.3937
  0
LINE
  5
15B
100
AcDbEntity
  8
M3
  6
CONTINUOUS
370
25
 60
     1
 62
     8
100
AcDbLine
 10
113.062992
 20
2.939632
 11
113.871392
 21
2.204724
  0
LINE
  5
15C
100
AcDbEntity
  8
M3
  6
CONTINUOUS
370
25
 60
     1
 62
     8
100
AcDbLine
 10
115.414698
 20
7.349082
 11
116.296588
 21
7.569554
  0
LINE
  5
15D
100
AcDbEntity
  8
M3
  6
CONTINUOUS
370
25
 60
     1
 62
     8
100
AcDbLine
 10
115.422236
 20
7.350966
 11
115.194226
 21
5.070866
  0
LINE
  5
15E
100
AcDbEntity
  8
M3
  6
CONTINUOUS
370
25
 60
     1
 62
     8
100
AcDbLine
 10
106.134518
 20
5.031624
 11
109.020998
 21
5.217848
  0
LINE
  5
15F
100
AcDbEntity
  8
M3
  6
CONTINUOUS
370
25
 60
     1
 62
     8
100
AcDbLine
 10
116.884514
 20
4.335958
 11
116.958006
 21
2.131234
  0
LINE
  5
160
100
AcDbEntity
  8
M3
  6
CONTINUOUS
370
25
 60
     1
 62
     8
100
AcDbLine
 10
97.568616
 20
8.853558
 11
97.759648
 21
8.019964
  0
LINE
  5
161
100
AcDbEntity
  8
M3
  6
CONTINUOUS
370
25
 60
     1
 62
     8
100
AcDbLine
 10
97.39495
 20
7.082172
 11
97.273384
 21
6.09228
  0
LINE
  5
162
100
AcDbEntity
  8
M3
  6
CONTINUOUS
370
25
 60
     1
 62
     8
100
AcDbLine
 10
97.273384
 20
6.09228
 11
96.04036
 21
2.549508
  0
LINE
  5
163
100
AcDbEntity
  8
M3
  6
CONTINUOUS
370
25
 60
     1
 62
     8
100
AcDbLine
 10
97.759648
 20
8.019964
 11
97.933312
 21
2.810006
  0
LINE
  5
164
100
AcDbEntity
  8
M3
  6
CONTINUOUS
370
25
 60
     1
 62
     8
100
AcDbLine
 10
97.933312
 20
2.810006
 11
97.551248
 21
3.070504
  0
LINE
  5
165
100
AcDbEntity
  8
M3
  6
CONTINUOUS
370
25
 60
     1
 62
     8
100
AcDbLine
 10
99.027404
 20
6.73484
 11
99.079504
 21
4.876622
  0
LINE
  5
166
100
AcDbEntity
  8
M3
  6
CONTINUOUS
370
25
 60
     1
 62
     8
100
AcDbLine
 10
99.079504
 20
4.876622
 11
99.114236
 21
3.869364
  0
LINE
  5
167
100
AcDbEntity
  8
M3
  6
CONTINUOUS
370
25
 60
     1
 62
     8
100
AcDbLine
 10
99.114236
 20
3.869364
 11
99.04477
 21
3.348368
  0
LINE
  5
168
100
AcDbEntity
  8
M3
  6
CONTINUOUS
370
25
 60
     1
 62
     8
100
AcDbLine
 10
99.04477
 20
7.273204
 11
99.079504
 21
7.307936
  0
LINE
  5
169
100
AcDbEntity
  8
M3
  6
CONTINUOUS
370
25
 60
     1
 62
     8
100
AcDbLine
 10
99.079504
 20
7.307936
 11
99.687332
 21
7.776832
  0
LINE
  5
16A
100
AcDbEntity
  8
M3
  6
CONTINUOUS
370
25
 60
     1
 62
     8
100
AcDbLine
 10
99.687332
 20
7.776832
 11
100.34726
 21
8.019964
  0
LINE
  5
16B
100
AcDbEntity
  8
M3
  6
CONTINUOUS
370
25
 60
     1
 62
     8
100
AcDbLine
 10
100.34726
 20
8.019964
 11
101.007188
 21
8.158896
  0
LINE
  5
16C
100
AcDbEntity
  8
M3
  6
CONTINUOUS
370
25
 60
     1
 62
     8
100
AcDbLine
 10
101.007188
 20
8.158896
 11
101.719216
 21
8.19363
  0
LINE
  5
16D
100
AcDbEntity
  8
M3
  6
CONTINUOUS
370
25
 60
     1
 62
     8
100
AcDbLine
 10
101.719216
 20
8.19363
 11
102.413876
 21
8.08943
  0
LINE
  5
16E
100
AcDbEntity
  8
M3
  6
CONTINUOUS
370
25
 60
     1
 62
     8
100
AcDbLine
 10
102.413876
 20
8.08943
 11
102.709108
 21
7.898398
  0
LINE
  5
16F
100
AcDbEntity
  8
M3
  6
CONTINUOUS
370
25
 60
     1
 62
     8
100
AcDbLine
 10
102.709108
 20
7.898398
 11
102.986972
 21
7.516334
  0
LINE
  5
170
100
AcDbEntity
  8
M3
  6
CONTINUOUS
370
25
 60
     1
 62
     8
100
AcDbLine
 10
102.986972
 20
7.516334
 11
103.178004
 21
6.578542
  0
LINE
  5
171
100
AcDbEntity
  8
M3
  6
CONTINUOUS
370
25
 60
     1
 62
     8
100
AcDbLine
 10
103.178004
 20
6.578542
 11
103.490602
 21
4.824522
  0
LINE
  5
172
100
AcDbEntity
  8
M3
  6
CONTINUOUS
370
25
 60
     1
 62
     8
100
AcDbLine
 10
103.490602
 20
4.824522
 11
103.699
 21
2.497408
  0
LINE
  5
173
100
AcDbEntity
  8
M3
  6
CONTINUOUS
370
25
 60
     1
 62
     8
100
AcDbLine
 10
99.691674
 20
6.54905
 11
101.931956
 21
6.89638
  0
LINE
  5
174
100
AcDbEntity
  8
M3
  6
CONTINUOUS
370
25
 60
     1
 62
     8
100
AcDbLine
 10
100.05637
 20
5.342076
 11
101.002846
 21
5.463642
  0
LINE
  5
175
100
AcDbEntity
  8
M3
  6
CONTINUOUS
370
25
 60
     1
 62
     8
100
AcDbLine
 10
101.002846
 20
5.463642
 11
101.497792
 21
5.420226
  0
LINE
  5
176
100
AcDbEntity
  8
M3
  6
CONTINUOUS
370
25
 60
     1
 62
     8
100
AcDbLine
 10
101.871172
 20
5.333392
 11
102.044838
 21
5.177094
  0
LINE
  5
177
100
AcDbEntity
  8
M3
  6
CONTINUOUS
370
25
 60
     1
 62
     8
100
AcDbLine
 10
101.497792
 20
5.420226
 11
101.871172
 21
5.333392
  0
LINE
  5
178
100
AcDbEntity
  8
M3
  6
CONTINUOUS
370
25
 60
     1
 62
     8
100
AcDbLine
 10
102.044838
 20
5.177094
 11
102.15772
 21
4.994746
  0
LINE
  5
179
100
AcDbEntity
  8
M3
  6
CONTINUOUS
370
25
 60
     1
 62
     8
100
AcDbLine
 10
102.15772
 20
4.994746
 11
102.192454
 21
4.656098
  0
LINE
  5
17A
100
AcDbEntity
  8
M3
  6
CONTINUOUS
370
25
 60
     1
 62
     8
100
AcDbLine
 10
102.192454
 20
4.656098
 11
102.122988
 21
4.256668
  0
LINE
  5
17B
100
AcDbEntity
  8
M3
  6
CONTINUOUS
370
25
 60
     1
 62
     8
100
AcDbLine
 10
100.000234
 20
5.334866
 11
100.252294
 21
3.929148
  0
LINE
  5
17C
100
AcDbEntity
  8
M3
  6
CONTINUOUS
370
25
 60
     1
 62
     8
100
AcDbLine
 10
100.252294
 20
3.929148
 11
102.064176
 21
4.008356
  0
LINE
  5
17D
100
AcDbEntity
  8
M3
  6
CONTINUOUS
370
25
 60
     1
 62
     8
100
AcDbLine
 10
102.122988
 20
4.256668
 11
102.064176
 21
4.008356
  0
LINE
  5
17E
100
AcDbEntity
  8
M3
  6
CONTINUOUS
370
25
 60
     1
 62
     8
100
AcDbLine
 10
103.699
 20
2.497408
 11
103.565006
 21
2.569558
  0
LINE
  5
17F
100
AcDbEntity
  8
M3
  6
CONTINUOUS
370
25
 60
     1
 62
     8
100
AcDbLine
 10
105.467562
 20
7.79161
 11
105.597676
 21
6.056774
  0
LINE
  5
180
100
AcDbEntity
  8
M3
  6
CONTINUOUS
370
25
 60
     1
 62
     8
100
AcDbLine
 10
105.597676
 20
6.056774
 11
105.539848
 21
4.480966
  0
LINE
  5
181
100
AcDbEntity
  8
M3
  6
CONTINUOUS
370
25
 60
     1
 62
     8
100
AcDbLine
 10
105.539848
 20
4.480966
 11
105.467562
 21
3.98943
  0
LINE
  5
182
100
AcDbEntity
  8
M3
  6
CONTINUOUS
370
25
 60
     1
 62
     8
100
AcDbLine
 10
105.756702
 20
6.64951
 11
107.419252
 21
6.909736
  0
LINE
  5
183
100
AcDbEntity
  8
M3
  6
CONTINUOUS
370
25
 60
     1
 62
     8
100
AcDbLine
 10
107.419252
 20
6.909736
 11
109.023974
 21
7.083218
  0
LINE
  5
184
100
AcDbEntity
  8
M3
  6
CONTINUOUS
370
25
 60
     1
 62
     8
100
AcDbLine
 10
109.023974
 20
7.083218
 11
109.37094
 21
7.12659
  0
LINE
  5
185
100
AcDbEntity
  8
M3
  6
CONTINUOUS
370
25
 60
     1
 62
     8
100
AcDbLine
 10
107.404794
 20
8.268688
 11
107.534908
 21
5.015874
  0
LINE
  5
186
100
AcDbEntity
  8
M3
  6
CONTINUOUS
370
25
 60
     1
 62
     8
100
AcDbLine
 10
107.534908
 20
5.015874
 11
107.66502
 21
2.905158
  0
LINE
  5
187
100
AcDbEntity
  8
M3
  6
CONTINUOUS
370
25
 60
     1
 62
     8
100
AcDbLine
 10
105.771158
 20
2.818418
 11
107.766218
 21
2.905158
  0
LINE
  5
188
100
AcDbEntity
  8
M3
  6
CONTINUOUS
370
25
 60
     1
 62
     8
100
AcDbLine
 10
107.766218
 20
2.905158
 11
109.89139
 21
2.962986
  0
LINE
  5
189
100
AcDbEntity
  8
M3
  6
CONTINUOUS
370
25
 60
     1
 62
     8
100
AcDbLine
 10
113.520074
 20
7.558036
 11
112.785672
 21
5.99344
  0
LINE
  5
18A
100
AcDbEntity
  8
M3
  6
CONTINUOUS
370
25
 60
     1
 62
     8
100
AcDbLine
 10
112.785672
 20
5.99344
 11
112.610054
 21
5.131316
  0
LINE
  5
18B
100
AcDbEntity
  8
M3
  6
CONTINUOUS
370
25
 60
     1
 62
     8
100
AcDbLine
 10
112.610054
 20
5.131316
 11
112.610054
 21
4.189366
  0
LINE
  5
18C
100
AcDbEntity
  8
M3
  6
CONTINUOUS
370
25
 60
     1
 62
     8
100
AcDbLine
 10
112.610054
 20
4.189366
 11
112.673914
 21
3.550756
  0
LINE
  5
18D
100
AcDbEntity
  8
M3
  6
CONTINUOUS
370
25
 60
     1
 62
     8
100
AcDbLine
 10
112.673914
 20
3.550756
 11
113.05708
 21
2.960042
  0
LINE
  5
18E
100
AcDbEntity
  8
M3
  6
CONTINUOUS
370
25
 60
     1
 62
     8
100
AcDbLine
 10
115.75521
 20
7.010998
 11
117.958416
 21
7.330302
  0
LINE
  5
18F
100
AcDbEntity
  8
M3
  6
CONTINUOUS
370
25
 60
     1
 62
     8
100
AcDbLine
 10
115.978724
 20
6.100978
 11
116.106446
 21
5.574124
  0
LINE
  5
190
100
AcDbEntity
  8
M3
  6
CONTINUOUS
370
25
 60
     1
 62
     8
100
AcDbLine
 10
116.106446
 20
6.212734
 11
116.713126
 21
6.452214
  0
LINE
  5
191
100
AcDbEntity
  8
M3
  6
CONTINUOUS
370
25
 60
     1
 62
     8
100
AcDbLine
 10
116.713126
 20
6.452214
 11
117.192082
 21
6.548006
  0
LINE
  5
192
100
AcDbEntity
  8
M3
  6
CONTINUOUS
370
25
 60
     1
 62
     8
100
AcDbLine
 10
117.192082
 20
6.548006
 11
117.575248
 21
6.56397
  0
LINE
  5
193
100
AcDbEntity
  8
M3
  6
CONTINUOUS
370
25
 60
     1
 62
     8
100
AcDbLine
 10
117.575248
 20
6.56397
 11
117.687006
 21
6.50011
  0
LINE
  5
194
100
AcDbEntity
  8
M3
  6
CONTINUOUS
370
25
 60
     1
 62
     8
100
AcDbLine
 10
116.106446
 20
5.510264
 11
117.734902
 21
5.89343
  0
LINE
  5
195
100
AcDbEntity
  8
M3
  6
CONTINUOUS
370
25
 60
     1
 62
     8
100
AcDbLine
 10
117.798762
 20
6.276596
 11
117.766832
 21
5.829568
  0
LINE
  5
196
100
AcDbEntity
  8
M3
  6
CONTINUOUS
370
25
 60
     1
 62
     8
100
AcDbLine
 10
117.687006
 20
6.50011
 11
117.798762
 21
6.276596
  0
LINE
  5
197
100
AcDbEntity
  8
M3
  6
CONTINUOUS
370
25
 60
     1
 62
     8
100
AcDbLine
 10
115.615514
 20
4.213914
 11
115.767184
 21
3.14424
  0
LINE
  5
198
100
AcDbEntity
  8
M3
  6
CONTINUOUS
370
25
 60
     1
 62
     8
100
AcDbLine
 10
115.767184
 20
3.14424
 11
115.862976
 21
2.042638
  0
LINE
  5
199
100
AcDbEntity
  8
M3
  6
CONTINUOUS
370
25
 60
     1
 62
     8
100
AcDbLine
 10
116.00708
 20
1.978802
 11
118.868766
 21
2.204724
  0
LINE
  5
19A
100
AcDbEntity
  8
M3
  6
CONTINUOUS
370
25
 60
     1
 62
     8
100
AcDbLine
 10
115.603712
 20
4.29714
 11
116.97256
 21
4.636992
  0
LINE
  5
19B
100
AcDbEntity
  8
M3
  6
CONTINUOUS
370
25
 60
     1
 62
     8
100
AcDbLine
 10
116.97256
 20
4.636992
 11
117.754858
 21
4.700854
  0
LINE
  5
19C
100
AcDbEntity
  8
M3
  6
CONTINUOUS
370
25
 60
     1
 62
     8
100
AcDbLine
 10
118.385486
 20
4.668922
 11
118.664878
 21
4.50927
  0
LINE
  5
19D
100
AcDbEntity
  8
M3
  6
CONTINUOUS
370
25
 60
     1
 62
     8
100
AcDbLine
 10
118.664878
 20
4.50927
 11
118.904356
 21
4.174
  0
LINE
  5
19E
100
AcDbEntity
  8
M3
  6
CONTINUOUS
370
25
 60
     1
 62
     8
100
AcDbLine
 10
118.904356
 20
4.174
 11
118.968218
 21
3.695042
  0
LINE
  5
19F
100
AcDbEntity
  8
M3
  6
CONTINUOUS
370
25
 60
     1
 62
     8
100
AcDbLine
 10
118.968218
 20
3.695042
 11
119.000148
 21
3.327842
  0
LINE
  5
1A0
100
AcDbEntity
  8
M3
  6
CONTINUOUS
370
25
 60
     1
 62
     8
100
AcDbLine
 10
115.99868
 20
3.192136
 11
118.609
 21
3.59925
  0
LINE
  5
1A1
100
AcDbEntity
  8
M3
  6
CONTINUOUS
370
25
 60
     1
 62
     8
100
AcDbLine
 10
117.754858
 20
4.700854
 11
118.385486
 21
4.668922
  0
LINE
  5
1A2
100
AcDbEntity
  8
M3
  6
CONTINUOUS
370
25
 60
     1
 62
     8
100
AcDbLine
 10
119.000148
 20
3.327842
 11
119.048044
 21
2.218256
  0
LINE
  5
1A3
100
AcDbEntity
  8
M3
  6
CONTINUOUS
370
25
 60
     1
 62
     8
100
AcDbLine
 10
134.368786
 20
8.098392
 11
134.640962
 21
7.860238
  0
LINE
  5
1A4
100
AcDbEntity
  8
M3
  6
CONTINUOUS
370
25
 60
     1
 62
     8
100
AcDbLine
 10
134.640962
 20
7.860238
 11
134.828084
 21
7.537028
  0
LINE
  5
1A5
100
AcDbEntity
  8
M3
  6
CONTINUOUS
370
25
 60
     1
 62
     8
100
AcDbLine
 10
134.828084
 20
7.537028
 11
134.998194
 21
6.159138
  0
LINE
  5
1A6
100
AcDbEntity
  8
M3
  6
CONTINUOUS
370
25
 60
     1
 62
     8
100
AcDbLine
 10
134.998194
 20
6.159138
 11
134.998194
 21
5.444676
  0
LINE
  5
1A7
100
AcDbEntity
  8
M3
  6
CONTINUOUS
370
25
 60
     1
 62
     8
100
AcDbLine
 10
134.998194
 20
5.444676
 11
134.964172
 21
0.970784
  0
LINE
  5
1A8
100
AcDbEntity
  8
M3
  6
CONTINUOUS
370
25
 60
     1
 62
     8
100
AcDbLine
 10
134.964172
 20
0.970784
 11
134.913138
 21
0.324366
  0
LINE
  5
1A9
100
AcDbEntity
  8
M3
  6
CONTINUOUS
370
25
 60
     1
 62
     8
100
AcDbLine
 10
134.913138
 20
0.324366
 11
133.994544
 21
1.362038
  0
LINE
  5
1AA
100
AcDbEntity
  8
M3
  6
CONTINUOUS
370
25
 60
     1
 62
     8
100
AcDbLine
 10
132.56562
 20
4.049774
 11
132.531598
 21
2.62085
  0
LINE
  5
1AB
100
AcDbEntity
  8
M3
  6
CONTINUOUS
370
25
 60
     1
 62
     8
100
AcDbLine
 10
136.920436
 20
4.917336
 11
137.362722
 21
4.083796
  0
LINE
  5
1AC
100
AcDbEntity
  8
M3
  6
CONTINUOUS
370
25
 60
     1
 62
     8
100
AcDbLine
 10
137.362722
 20
4.083796
 11
137.719952
 21
3.437378
  0
LINE
  5
1AD
100
AcDbEntity
  8
M3
  6
CONTINUOUS
370
25
 60
     1
 62
     8
100
AcDbLine
 10
137.719952
 20
3.437378
 11
138.00914
 21
2.824982
  0
LINE
  5
1AE
100
AcDbEntity
  8
M3
  6
CONTINUOUS
370
25
 60
     1
 62
     8
100
AcDbLine
 10
138.00914
 20
2.824982
 11
138.077184
 21
2.705906
  0
LINE
  5
1AF
100
AcDbEntity
  8
M3
  6
CONTINUOUS
370
25
 60
     1
 62
     8
100
AcDbLine
 10
138.077184
 20
2.705906
 11
137.702942
 21
3.216236
  0
LINE
  5
1B0
100
AcDbEntity
  8
M3
  6
CONTINUOUS
370
25
 60
     1
 62
     8
100
AcDbLine
 10
148.181716
 20
8.604226
 11
148.198726
 21
8.48515
  0
LINE
  5
1B1
100
AcDbEntity
  8
M3
  6
CONTINUOUS
370
25
 60
     1
 62
     8
100
AcDbLine
 10
148.198726
 20
8.48515
 11
146.54866
 21
6.852094
  0
LINE
  5
1B2
100
AcDbEntity
  8
M3
  6
CONTINUOUS
370
25
 60
     1
 62
     8
100
AcDbLine
 10
146.54866
 20
6.852094
 11
146.667736
 21
6.545896
  0
LINE
  5
1B3
100
AcDbEntity
  8
M3
  6
CONTINUOUS
370
25
 60
     1
 62
     8
100
AcDbLine
 10
146.667736
 20
6.545896
 11
146.820836
 21
6.137632
  0
LINE
  5
1B4
100
AcDbEntity
  8
M3
  6
CONTINUOUS
370
25
 60
     1
 62
     8
100
AcDbLine
 10
146.820836
 20
6.137632
 11
146.922902
 21
5.525236
  0
LINE
  5
1B5
100
AcDbEntity
  8
M3
  6
CONTINUOUS
370
25
 60
     1
 62
     8
100
AcDbLine
 10
146.922902
 20
5.525236
 11
146.956924
 21
5.014906
  0
LINE
  5
1B6
100
AcDbEntity
  8
M3
  6
CONTINUOUS
370
25
 60
     1
 62
     8
100
AcDbLine
 10
146.956924
 20
5.014906
 11
146.956924
 21
3.296794
  0
LINE
  5
1B7
100
AcDbEntity
  8
M3
  6
CONTINUOUS
370
25
 60
     1
 62
     8
100
AcDbLine
 10
146.956924
 20
3.296794
 11
146.973934
 21
2.633366
  0
LINE
  5
1B8
100
AcDbEntity
  8
M3
  6
CONTINUOUS
370
25
 60
     1
 62
     8
100
AcDbLine
 10
146.973934
 20
2.633366
 11
146.973934
 21
2.378202
  0
LINE
  5
1B9
100
AcDbEntity
  8
M3
  6
CONTINUOUS
370
25
 60
     1
 62
     8
100
AcDbLine
 10
146.871868
 20
6.052576
 11
147.433232
 21
6.358774
  0
LINE
  5
1BA
100
AcDbEntity
  8
M3
  6
CONTINUOUS
370
25
 60
     1
 62
     8
100
AcDbLine
 10
147.433232
 20
6.358774
 11
148.283782
 21
6.767038
  0
LINE
  5
1BB
100
AcDbEntity
  8
M3
  6
CONTINUOUS
370
25
 60
     1
 62
     8
100
AcDbLine
 10
148.283782
 20
6.767038
 11
148.572968
 21
6.920138
  0
LINE
  5
1BC
100
AcDbEntity
  8
M3
  6
CONTINUOUS
370
25
 60
     1
 62
     8
100
AcDbLine
 10
148.555958
 20
6.46084
 11
148.555958
 21
5.865456
  0
LINE
  5
1BD
100
AcDbEntity
  8
M3
  6
CONTINUOUS
370
25
 60
     1
 62
     8
100
AcDbLine
 10
148.555958
 20
5.865456
 11
148.555958
 21
5.576268
  0
LINE
  5
1BE
100
AcDbEntity
  8
M3
  6
CONTINUOUS
370
25
 60
     1
 62
     8
100
AcDbLine
 10
148.555958
 20
5.576268
 11
148.572968
 21
5.202026
  0
LINE
  5
1BF
100
AcDbEntity
  8
M3
  6
CONTINUOUS
370
25
 60
     1
 62
     8
100
AcDbLine
 10
146.990946
 20
5.338114
 11
148.045628
 21
5.865456
  0
LINE
  5
1C0
100
AcDbEntity
  8
M3
  6
CONTINUOUS
370
25
 60
     1
 62
     8
100
AcDbLine
 10
148.045628
 20
5.865456
 11
148.555958
 21
6.069588
  0
LINE
  5
1C1
100
AcDbEntity
  8
M3
  6
CONTINUOUS
370
25
 60
     1
 62
     8
100
AcDbLine
 10
146.939912
 20
4.436532
 11
147.90954
 21
4.946862
  0
LINE
  5
1C2
100
AcDbEntity
  8
M3
  6
CONTINUOUS
370
25
 60
     1
 62
     8
100
AcDbLine
 10
147.90954
 20
4.946862
 11
148.572968
 21
5.287082
  0
LINE
  5
1C3
100
AcDbEntity
  8
M3
  6
CONTINUOUS
370
25
 60
     1
 62
     8
100
AcDbLine
 10
148.572968
 20
5.287082
 11
147.620352
 21
4.385498
  0
LINE
  5
1C4
100
AcDbEntity
  8
M3
  6
CONTINUOUS
370
25
 60
     1
 62
     8
100
AcDbLine
 10
147.620352
 20
4.385498
 11
146.956924
 21
3.688048
  0
LINE
  5
1C5
100
AcDbEntity
  8
M3
  6
CONTINUOUS
370
25
 60
     1
 62
     8
100
AcDbLine
 10
146.956924
 20
3.688048
 11
147.807474
 21
4.147344
  0
LINE
  5
1C6
100
AcDbEntity
  8
M3
  6
CONTINUOUS
370
25
 60
     1
 62
     8
100
AcDbLine
 10
147.807474
 20
4.147344
 11
148.551704
 21
4.492698
  0
LINE
  5
1C7
100
AcDbEntity
  8
M3
  6
CONTINUOUS
370
25
 60
     1
 62
     8
100
AcDbLine
 10
148.551704
 20
4.492698
 11
147.514034
 21
3.157336
  0
LINE
  5
1C8
100
AcDbEntity
  8
M3
  6
CONTINUOUS
370
25
 60
     1
 62
     8
100
AcDbLine
 10
147.514034
 20
3.157336
 11
146.952672
 21
2.510918
  0
LINE
  5
1C9
100
AcDbEntity
  8
M3
  6
CONTINUOUS
370
25
 60
     1
 62
     8
100
AcDbLine
 10
146.952672
 20
2.510918
 11
148.840892
 21
3.31894
  0
LINE
  5
1CA
100
AcDbEntity
  8
M3
  6
CONTINUOUS
370
25
 60
     1
 62
     8
100
AcDbLine
 10
148.840892
 20
3.31894
 11
150.320848
 21
3.84628
  0
LINE
  5
1CB
100
AcDbEntity
  8
M3
  6
CONTINUOUS
370
25
 60
     1
 62
     8
100
AcDbLine
 10
150.320848
 20
3.84628
 11
150.07419
 21
2.093586
  0
LINE
  5
1CC
100
AcDbEntity
  8
M3
  6
CONTINUOUS
370
25
 60
     1
 62
     8
100
AcDbLine
 10
150.07419
 20
2.093586
 11
149.793508
 21
0.264904
  0
LINE
  5
1CD
100
AcDbEntity
  8
M3
  6
CONTINUOUS
370
25
 60
     1
 62
     8
100
AcDbLine
 10
149.793508
 20
0.264904
 11
148.755836
 21
0.605124
  0
LINE
  5
1CE
100
AcDbEntity
  8
M3
  6
CONTINUOUS
370
25
 60
     1
 62
     8
100
AcDbLine
 10
146.969682
 20
2.25519
 11
146.969682
 21
1.753366
  0
LINE
  5
1CF
100
AcDbEntity
  8
M3
  6
CONTINUOUS
370
25
 60
     1
 62
     8
100
AcDbLine
 10
146.969682
 20
1.753366
 11
146.969682
 21
1.438662
  0
LINE
  5
1D0
100
AcDbEntity
  8
M3
  6
CONTINUOUS
370
25
 60
     1
 62
     8
100
AcDbLine
 10
146.17867
 20
1.83842
 11
146.042582
 21
1.12396
  0
LINE
  5
1D1
100
AcDbEntity
  8
M3
  6
CONTINUOUS
370
25
 60
     1
 62
     8
100
AcDbLine
 10
146.042582
 20
1.12396
 11
145.855462
 21
0.70719
  0
LINE
  5
1D2
100
AcDbEntity
  8
M3
  6
CONTINUOUS
370
25
 60
     1
 62
     8
100
AcDbLine
 10
145.65133
 20
0.588112
 11
146.867616
 21
1.226026
  0
LINE
  5
1D3
100
AcDbEntity
  8
M3
  6
CONTINUOUS
370
25
 60
     1
 62
     8
100
AcDbLine
 10
146.867616
 20
1.226026
 11
147.69265
 21
1.693828
  0
LINE
  5
1D4
100
AcDbEntity
  8
M3
  6
CONTINUOUS
370
25
 60
     1
 62
     8
100
AcDbLine
 10
147.69265
 20
1.693828
 11
147.896782
 21
1.846926
  0
LINE
  5
1D5
100
AcDbEntity
  8
M3
  6
CONTINUOUS
370
25
 60
     1
 62
     8
100
AcDbLine
 10
147.896782
 20
1.846926
 11
147.95632
 21
1.91497
  0
LINE
  5
1D6
100
AcDbEntity
  8
M3
  6
CONTINUOUS
370
25
 60
     1
 62
     8
100
AcDbLine
 10
147.888276
 20
1.983014
 11
148.168958
 21
1.540728
  0
LINE
  5
1D7
100
AcDbEntity
  8
M3
  6
CONTINUOUS
370
25
 60
     1
 62
     8
100
AcDbLine
 10
148.168958
 20
1.540728
 11
148.330562
 21
1.260048
  0
LINE
  5
1D8
100
AcDbEntity
  8
M3
  6
CONTINUOUS
370
25
 60
     1
 62
     8
100
AcDbLine
 10
148.330562
 20
1.260048
 11
148.492166
 21
1.021894
  0
LINE
  5
1D9
100
AcDbEntity
  8
M3
  6
CONTINUOUS
370
25
 60
     1
 62
     8
100
AcDbLine
 10
152.940542
 20
3.324636
 11
152.634344
 21
2.916372
  0
LINE
  5
1DA
100
AcDbEntity
  8
M3
  6
CONTINUOUS
370
25
 60
     1
 62
     8
100
AcDbLine
 10
152.634344
 20
2.916372
 11
152.515268
 21
2.55914
  0
LINE
  5
1DB
100
AcDbEntity
  8
M3
  6
CONTINUOUS
370
25
 60
     1
 62
     8
100
AcDbLine
 10
152.515268
 20
2.55914
 11
152.515268
 21
2.252942
  0
LINE
  5
1DC
100
AcDbEntity
  8
M3
  6
CONTINUOUS
370
25
 60
     1
 62
     8
100
AcDbLine
 10
152.515268
 20
2.252942
 11
152.574806
 21
1.963756
  0
LINE
  5
1DD
100
AcDbEntity
  8
M3
  6
CONTINUOUS
370
25
 60
     1
 62
     8
100
AcDbLine
 10
152.574806
 20
1.963756
 11
152.795948
 21
1.555492
  0
LINE
  5
1DE
100
AcDbEntity
  8
M3
  6
CONTINUOUS
370
25
 60
     1
 62
     8
100
AcDbLine
 10
152.795948
 20
1.555492
 11
153.051114
 21
1.359866
  0
LINE
  5
1DF
100
AcDbEntity
  8
M3
  6
CONTINUOUS
370
25
 60
     1
 62
     8
100
AcDbLine
 10
153.051114
 20
1.359866
 11
153.791092
 21
1.019646
  0
LINE
  5
1E0
100
AcDbEntity
  8
M3
  6
CONTINUOUS
370
25
 60
     1
 62
     8
100
AcDbLine
 10
154.29717
 20
4.531292
 11
154.84152
 21
4.505776
  0
LINE
  5
1E1
100
AcDbEntity
  8
M3
  6
CONTINUOUS
370
25
 60
     1
 62
     8
100
AcDbLine
 10
154.84152
 20
4.505776
 11
155.045652
 21
4.505776
  0
LINE
  5
1E2
100
AcDbEntity
  8
M3
  6
CONTINUOUS
370
25
 60
     1
 62
     8
100
AcDbLine
 10
155.045652
 20
4.505776
 11
155.105192
 21
4.454742
  0
LINE
  5
1E3
100
AcDbEntity
  8
M3
  6
CONTINUOUS
370
25
 60
     1
 62
     8
100
AcDbLine
 10
155.105192
 20
4.454742
 11
155.045652
 21
4.225094
  0
LINE
  5
1E4
100
AcDbEntity
  8
M3
  6
CONTINUOUS
370
25
 60
     1
 62
     8
100
AcDbLine
 10
155.045652
 20
4.225094
 11
154.926576
 21
3.918896
  0
LINE
  5
1E5
100
AcDbEntity
  8
M3
  6
CONTINUOUS
370
25
 60
     1
 62
     8
100
AcDbLine
 10
153.61673
 20
2.311358
 11
155.266796
 21
3.442588
  0
LINE
  5
1E6
100
AcDbEntity
  8
M3
  6
CONTINUOUS
370
25
 60
     1
 62
     8
100
AcDbLine
 10
155.266796
 20
3.442588
 11
155.50495
 21
3.62971
  0
LINE
  5
1E7
100
AcDbEntity
  8
M3
  6
CONTINUOUS
370
25
 60
     1
 62
     8
100
AcDbLine
 10
154.586356
 20
3.757292
 11
154.620378
 21
3.085358
  0
LINE
  5
1E8
100
AcDbEntity
  8
M3
  6
CONTINUOUS
370
25
 60
     1
 62
     8
100
AcDbLine
 10
154.620378
 20
3.085358
 11
154.56084
 21
0.686806
  0
LINE
  5
1E9
100
AcDbEntity
  8
M3
  6
CONTINUOUS
370
25
 60
     1
 62
     8
100
AcDbLine
 10
154.56084
 20
0.686806
 11
154.543828
 21
0.627268
  0
LINE
  5
1EA
100
AcDbEntity
  8
M3
  6
CONTINUOUS
370
25
 60
     1
 62
     8
100
AcDbLine
 10
154.543828
 20
0.627268
 11
154.416246
 21
1.163114
  0
LINE
  5
1EB
100
AcDbEntity
  8
M3
  6
CONTINUOUS
370
25
 60
     1
 62
     8
100
AcDbLine
 10
148.599482
 20
7.135464
 11
148.555958
 21
6.46084
  0
LINE
  5
1EC
100
AcDbEntity
  8
M3
  6
CONTINUOUS
370
25
 60
     1
 62
     8
100
AcDbLine
 10
154.416246
 20
1.163114
 11
154.399236
 21
1.384258
  0
LINE
  5
1ED
100
AcDbEntity
  8
M3
  6
CONTINUOUS
370
25
 60
     1
 62
     8
100
AcDbLine
 10
154.586356
 20
2.94927
 11
154.101542
 21
1.979642
  0
LINE
  5
1EE
100
AcDbEntity
  8
M3
  6
CONTINUOUS
370
25
 60
     1
 62
     8
100
AcDbLine
 10
154.101542
 20
1.979642
 11
153.778334
 21
1.426786
  0
LINE
  5
1EF
100
AcDbEntity
  8
M3
  6
CONTINUOUS
370
25
 60
     1
 62
     8
100
AcDbLine
 10
153.778334
 20
1.426786
 11
153.497652
 21
0.9845
  0
LINE
  5
1F0
100
AcDbEntity
  8
M3
  6
CONTINUOUS
370
25
 60
     1
 62
     8
100
AcDbLine
 10
153.497652
 20
0.9845
 11
153.319036
 21
0.720828
  0
LINE
  5
1F1
100
AcDbEntity
  8
M3
  6
CONTINUOUS
370
25
 60
     1
 62
     8
100
AcDbLine
 10
154.288664
 20
1.85206
 11
154.63739
 21
1.715972
  0
LINE
  5
1F2
100
AcDbEntity
  8
M3
  6
CONTINUOUS
370
25
 60
     1
 62
     8
100
AcDbLine
 10
154.63739
 20
1.715972
 11
154.926576
 21
1.486324
  0
LINE
  5
1F3
100
AcDbEntity
  8
M3
  6
CONTINUOUS
370
25
 60
     1
 62
     8
100
AcDbLine
 10
154.926576
 20
1.486324
 11
155.147718
 21
1.24817
  0
LINE
  5
1F4
100
AcDbEntity
  8
M3
  6
CONTINUOUS
370
25
 60
     1
 62
     8
100
AcDbLine
 10
155.700576
 20
3.323512
 11
155.802642
 21
2.62606
  0
LINE
  5
1F5
100
AcDbEntity
  8
M3
  6
CONTINUOUS
370
25
 60
     1
 62
     8
100
AcDbLine
 10
155.802642
 20
2.62606
 11
155.802642
 21
1.971138
  0
LINE
  5
1F6
100
AcDbEntity
  8
M3
  6
CONTINUOUS
370
25
 60
     1
 62
     8
100
AcDbLine
 10
155.802642
 20
1.971138
 11
155.802642
 21
1.749994
  0
LINE
  5
1F7
100
AcDbEntity
  8
M3
  6
CONTINUOUS
370
25
 60
     1
 62
     8
100
AcDbLine
 10
156.457566
 20
4.514282
 11
156.474576
 21
3.40006
  0
LINE
  5
1F8
100
AcDbEntity
  8
M3
  6
CONTINUOUS
370
25
 60
     1
 62
     8
100
AcDbLine
 10
156.474576
 20
3.40006
 11
156.483082
 21
0.9845
  0
LINE
  5
1F9
100
AcDbEntity
  8
M3
  6
CONTINUOUS
370
25
 60
     1
 62
     8
100
AcDbLine
 10
156.483082
 20
0.9845
 11
156.508598
 21
0.601752
  0
LINE
  5
1FA
100
AcDbEntity
  8
M3
  6
CONTINUOUS
370
25
 60
     1
 62
     8
100
AcDbLine
 10
156.508598
 20
0.601752
 11
156.500094
 21
0.49118
  0
LINE
  5
1FB
100
AcDbEntity
  8
M3
  6
CONTINUOUS
370
25
 60
     1
 62
     8
100
AcDbLine
 10
156.500094
 20
0.49118
 11
155.887698
 21
0.899444
  0
LINE
  5
1FC
100
AcDbEntity
  8
M3
  6
CONTINUOUS
370
25
 60
     1
 62
     8
100
AcDbLine
 10
158.128896
 20
5.219114
 11
158.426588
 21
4.343048
  0
LINE
  5
1FD
100
AcDbEntity
  8
M3
  6
CONTINUOUS
370
25
 60
     1
 62
     8
100
AcDbLine
 10
158.426588
 20
4.343048
 11
158.605204
 21
3.54353
  0
LINE
  5
1FE
100
AcDbEntity
  8
M3
  6
CONTINUOUS
370
25
 60
     1
 62
     8
100
AcDbLine
 10
158.605204
 20
3.54353
 11
158.639226
 21
2.86309
  0
LINE
  5
1FF
100
AcDbEntity
  8
M3
  6
CONTINUOUS
370
25
 60
     1
 62
     8
100
AcDbLine
 10
158.639226
 20
2.86309
 11
158.579688
 21
2.284716
  0
LINE
  5
200
100
AcDbEntity
  8
M3
  6
CONTINUOUS
370
25
 60
     1
 62
     8
100
AcDbLine
 10
158.579688
 20
2.284716
 11
158.341534
 21
1.459684
  0
LINE
  5
201
100
AcDbEntity
  8
M3
  6
CONTINUOUS
370
25
 60
     1
 62
     8
100
AcDbLine
 10
158.341534
 20
1.459684
 11
158.111886
 21
0.923836
  0
LINE
  5
202
100
AcDbEntity
  8
M3
  6
CONTINUOUS
370
25
 60
     1
 62
     8
100
AcDbLine
 10
158.111886
 20
0.923836
 11
157.601556
 21
0.251902
  0
LINE
  5
203
100
AcDbEntity
  8
M3
  6
CONTINUOUS
370
25
 60
     1
 62
     8
100
AcDbLine
 10
168.368786
 20
8.098392
 11
168.640962
 21
7.860238
  0
LINE
  5
204
100
AcDbEntity
  8
M3
  6
CONTINUOUS
370
25
 60
     1
 62
     8
100
AcDbLine
 10
168.640962
 20
7.860238
 11
168.828084
 21
7.537028
  0
LINE
  5
205
100
AcDbEntity
  8
M3
  6
CONTINUOUS
370
25
 60
     1
 62
     8
100
AcDbLine
 10
168.828084
 20
7.537028
 11
168.998194
 21
6.159138
  0
LINE
  5
206
100
AcDbEntity
  8
M3
  6
CONTINUOUS
370
25
 60
     1
 62
     8
100
AcDbLine
 10
168.998194
 20
6.159138
 11
168.998194
 21
5.444676
  0
LINE
  5
207
100
AcDbEntity
  8
M3
  6
CONTINUOUS
370
25
 60
     1
 62
     8
100
AcDbLine
 10
168.998194
 20
5.444676
 11
168.964172
 21
0.970784
  0
LINE
  5
208
100
AcDbEntity
  8
M3
  6
CONTINUOUS
370
25
 60
     1
 62
     8
100
AcDbLine
 10
168.964172
 20
0.970784
 11
168.913138
 21
0.324366
  0
LINE
  5
209
100
AcDbEntity
  8
M3
  6
CONTINUOUS
370
25
 60
     1
 62
     8
100
AcDbLine
 10
168.913138
 20
0.324366
 11
167.994544
 21
1.362038
  0
LINE
  5
20A
100
AcDbEntity
  8
M3
  6
CONTINUOUS
370
25
 60
     1
 62
     8
100
AcDbLine
 10
166.56562
 20
4.049774
 11
166.531598
 21
2.62085
  0
LINE
  5
20B
100
AcDbEntity
  8
M3
  6
CONTINUOUS
370
25
 60
     1
 62
     8
100
AcDbLine
 10
170.920436
 20
4.917336
 11
171.362722
 21
4.083796
  0
LINE
  5
20C
100
AcDbEntity
  8
M3
  6
CONTINUOUS
370
25
 60
     1
 62
     8
100
AcDbLine
 10
171.362722
 20
4.083796
 11
171.719952
 21
3.437378
  0
LINE
  5
20D
100
AcDbEntity
  8
M3
  6
CONTINUOUS
370
25
 60
     1
 62
     8
100
AcDbLine
 10
171.719952
 20
3.437378
 11
172.00914
 21
2.824982
  0
LINE
  5
20E
100
AcDbEntity
  8
M3
  6
CONTINUOUS
370
25
 60
     1
 62
     8
100
AcDbLine
 10
172.00914
 20
2.824982
 11
172.077184
 21
2.705906
  0
LINE
  5
20F
100
AcDbEntity
  8
M3
  6
CONTINUOUS
370
25
 60
     1
 62
     8
100
AcDbLine
 10
172.077184
 20
2.705906
 11
171.702942
 21
3.216236
  0
LINE
  5
210
100
AcDbEntity
  8
M3
  6
CONTINUOUS
370
25
 60
     1
 62
     8
100
AcDbLine
 10
182.181716
 20
8.604226
 11
182.198726
 21
8.48515
  0
LINE
  5
211
100
AcDbEntity
  8
M3
  6
CONTINUOUS
370
25
 60
     1
 62
     8
100
AcDbLine
 10
182.198726
 20
8.48515
 11
180.54866
 21
6.852094
  0
LINE
  5
212
100
AcDbEntity
  8
M3
  6
CONTINUOUS
370
25
 60
     1
 62
     8
100
AcDbLine
 10
180.54866
 20
6.852094
 11
180.667736
 21
6.545896
  0
LINE
  5
213
100
AcDbEntity
  8
M3
  6
CONTINUOUS
370
25
 60
     1
 62
     8
100
AcDbLine
 10
180.667736
 20
6.545896
 11
180.820836
 21
6.137632
  0
LINE
  5
214
100
AcDbEntity
  8
M3
  6
CONTINUOUS
370
25
 60
     1
 62
     8
100
AcDbLine
 10
180.820836
 20
6.137632
 11
180.922902
 21
5.525236
  0
LINE
  5
215
100
AcDbEntity
  8
M3
  6
CONTINUOUS
370
25
 60
     1
 62
     8
100
AcDbLine
 10
180.922902
 20
5.525236
 11
180.956924
 21
5.014906
  0
LINE
  5
216
100
AcDbEntity
  8
M3
  6
CONTINUOUS
370
25
 60
     1
 62
     8
100
AcDbLine
 10
180.956924
 20
5.014906
 11
180.956924
 21
3.296794
  0
LINE
  5
217
100
AcDbEntity
  8
M3
  6
CONTINUOUS
370
25
 60
     1
 62
     8
100
AcDbLine
 10
180.956924
 20
3.296794
 11
180.973934
 21
2.633366
  0
LINE
  5
218
100
AcDbEntity
  8
M3
  6
CONTINUOUS
370
25
 60
     1
 62
     8
100
AcDbLine
 10
180.973934
 20
2.633366
 11
180.973934
 21
2.378202
  0
LINE
  5
219
100
AcDbEntity
  8
M3
  6
CONTINUOUS
370
25
 60
     1
 62
     8
100
AcDbLine
 10
180.871868
 20
6.052576
 11
181.433232
 21
6.358774
  0
LINE
  5
21A
100
AcDbEntity
  8
M3
  6
CONTINUOUS
370
25
 60
     1
 62
     8
100
AcDbLine
 10
181.433232
 20
6.358774
 11
182.283782
 21
6.767038
  0
LINE
  5
21B
100
AcDbEntity
  8
M3
  6
CONTINUOUS
370
25
 60
     1
 62
     8
100
AcDbLine
 10
182.283782
 20
6.767038
 11
182.572968
 21
6.920138
  0
LINE
  5
21C
100
AcDbEntity
  8
M3
  6
CONTINUOUS
370
25
 60
     1
 62
     8
100
AcDbLine
 10
182.555958
 20
6.46084
 11
182.555958
 21
5.865456
  0
LINE
  5
21D
100
AcDbEntity
  8
M3
  6
CONTINUOUS
370
25
 60
     1
 62
     8
100
AcDbLine
 10
182.555958
 20
5.865456
 11
182.555958
 21
5.576268
  0
LINE
  5
21E
100
AcDbEntity
  8
M3
  6
CONTINUOUS
370
25
 60
     1
 62
     8
100
AcDbLine
 10
182.555958
 20
5.576268
 11
182.572968
 21
5.202026
  0
LINE
  5
21F
100
AcDbEntity
  8
M3
  6
CONTINUOUS
370
25
 60
     1
 62
     8
100
AcDbLine
 10
180.990946
 20
5.338114
 11
182.045628
 21
5.865456
  0
LINE
  5
220
100
AcDbEntity
  8
M3
  6
CONTINUOUS
370
25
 60
     1
 62
     8
100
AcDbLine
 10
182.045628
 20
5.865456
 11
182.555958
 21
6.069588
  0
LINE
  5
221
100
AcDbEntity
  8
M3
  6
CONTINUOUS
370
25
 60
     1
 62
     8
100
AcDbLine
 10
180.939912
 20
4.436532
 11
181.90954
 21
4.946862
  0
LINE
  5
222
100
AcDbEntity
  8
M3
  6
CONTINUOUS
370
25
 60
     1
 62
     8
100
AcDbLine
 10
181.90954
 20
4.946862
 11
182.572968
 21
5.287082
  0
LINE
  5
223
100
AcDbEntity
  8
M3
  6
CONTINUOUS
370
25
 60
     1
 62
     8
100
AcDbLine
 10
182.572968
 20
5.287082
 11
181.620352
 21
4.385498
  0
LINE
  5
224
100
AcDbEntity
  8
M3
  6
CONTINUOUS
370
25
 60
     1
 62
     8
100
AcDbLine
 10
181.620352
 20
4.385498
 11
180.956924
 21
3.688048
  0
LINE
  5
225
100
AcDbEntity
  8
M3
  6
CONTINUOUS
370
25
 60
     1
 62
     8
100
AcDbLine
 10
180.956924
 20
3.688048
 11
181.807474
 21
4.147344
  0
LINE
  5
226
100
AcDbEntity
  8
M3
  6
CONTINUOUS
370
25
 60
     1
 62
     8
100
AcDbLine
 10
181.807474
 20
4.147344
 11
182.551704
 21
4.492698
  0
LINE
  5
227
100
AcDbEntity
  8
M3
  6
CONTINUOUS
370
25
 60
     1
 62
     8
100
AcDbLine
 10
182.551704
 20
4.492698
 11
181.514034
 21
3.157336
  0
LINE
  5
228
100
AcDbEntity
  8
M3
  6
CONTINUOUS
370
25
 60
     1
 62
     8
100
AcDbLine
 10
181.514034
 20
3.157336
 11
180.952672
 21
2.510918
  0
LINE
  5
229
100
AcDbEntity
  8
M3
  6
CONTINUOUS
370
25
 60
     1
 62
     8
100
AcDbLine
 10
180.952672
 20
2.510918
 11
182.840892
 21
3.31894
  0
LINE
  5
22A
100
AcDbEntity
  8
M3
  6
CONTINUOUS
370
25
 60
     1
 62
     8
100
AcDbLine
 10
182.840892
 20
3.31894
 11
184.320848
 21
3.84628
  0
LINE
  5
22B
100
AcDbEntity
  8
M3
  6
CONTINUOUS
370
25
 60
     1
 62
     8
100
AcDbLine
 10
184.320848
 20
3.84628
 11
184.07419
 21
2.093586
  0
LINE
  5
22C
100
AcDbEntity
  8
M3
  6
CONTINUOUS
370
25
 60
     1
 62
     8
100
AcDbLine
 10
184.07419
 20
2.093586
 11
183.793508
 21
0.264904
  0
LINE
  5
22D
100
AcDbEntity
  8
M3
  6
CONTINUOUS
370
25
 60
     1
 62
     8
100
AcDbLine
 10
183.793508
 20
0.264904
 11
182.755836
 21
0.605124
  0
LINE
  5
22E
100
AcDbEntity
  8
M3
  6
CONTINUOUS
370
25
 60
     1
 62
     8
100
AcDbLine
 10
180.969682
 20
2.25519
 11
180.969682
 21
1.753366
  0
LINE
  5
22F
100
AcDbEntity
  8
M3
  6
CONTINUOUS
370
25
 60
     1
 62
     8
100
AcDbLine
 10
180.969682
 20
1.753366
 11
180.969682
 21
1.438662
  0
LINE
  5
230
100
AcDbEntity
  8
M3
  6
CONTINUOUS
370
25
 60
     1
 62
     8
100
AcDbLine
 10
180.17867
 20
1.83842
 11
180.042582
 21
1.12396
  0
LINE
  5
231
100
AcDbEntity
  8
M3
  6
CONTINUOUS
370
25
 60
     1
 62
     8
100
AcDbLine
 10
180.042582
 20
1.12396
 11
179.855462
 21
0.70719
  0
LINE
  5
232
100
AcDbEntity
  8
M3
  6
CONTINUOUS
370
25
 60
     1
 62
     8
100
AcDbLine
 10
179.65133
 20
0.588112
 11
180.867616
 21
1.226026
  0
LINE
  5
233
100
AcDbEntity
  8
M3
  6
CONTINUOUS
370
25
 60
     1
 62
     8
100
AcDbLine
 10
180.867616
 20
1.226026
 11
181.69265
 21
1.693828
  0
LINE
  5
234
100
AcDbEntity
  8
M3
  6
CONTINUOUS
370
25
 60
     1
 62
     8
100
AcDbLine
 10
181.69265
 20
1.693828
 11
181.896782
 21
1.846926
  0
LINE
  5
235
100
AcDbEntity
  8
M3
  6
CONTINUOUS
370
25
 60
     1
 62
     8
100
AcDbLine
 10
181.896782
 20
1.846926
 11
181.95632
 21
1.91497
  0
LINE
  5
236
100
AcDbEntity
  8
M3
  6
CONTINUOUS
370
25
 60
     1
 62
     8
100
AcDbLine
 10
181.888276
 20
1.983014
 11
182.168958
 21
1.540728
  0
LINE
  5
237
100
AcDbEntity
  8
M3
  6
CONTINUOUS
370
25
 60
     1
 62
     8
100
AcDbLine
 10
182.168958
 20
1.540728
 11
182.330562
 21
1.260048
  0
LINE
  5
238
100
AcDbEntity
  8
M3
  6
CONTINUOUS
370
25
 60
     1
 62
     8
100
AcDbLine
 10
182.330562
 20
1.260048
 11
182.492166
 21
1.021894
  0
LINE
  5
239
100
AcDbEntity
  8
M3
  6
CONTINUOUS
370
25
 60
     1
 62
     8
100
AcDbLine
 10
186.940542
 20
3.324636
 11
186.634344
 21
2.916372
  0
LINE
  5
23A
100
AcDbEntity
  8
M3
  6
CONTINUOUS
370
25
 60
     1
 62
     8
100
AcDbLine
 10
186.634344
 20
2.916372
 11
186.515268
 21
2.55914
  0
LINE
  5
23B
100
AcDbEntity
  8
M3
  6
CONTINUOUS
370
25
 60
     1
 62
     8
100
AcDbLine
 10
186.515268
 20
2.55914
 11
186.515268
 21
2.252942
  0
LINE
  5
23C
100
AcDbEntity
  8
M3
  6
CONTINUOUS
370
25
 60
     1
 62
     8
100
AcDbLine
 10
186.515268
 20
2.252942
 11
186.574806
 21
1.963756
  0
LINE
  5
23D
100
AcDbEntity
  8
M3
  6
CONTINUOUS
370
25
 60
     1
 62
     8
100
AcDbLine
 10
186.574806
 20
1.963756
 11
186.795948
 21
1.555492
  0
LINE
  5
23E
100
AcDbEntity
  8
M3
  6
CONTINUOUS
370
25
 60
     1
 62
     8
100
AcDbLine
 10
186.795948
 20
1.555492
 11
187.051114
 21
1.359866
  0
LINE
  5
23F
100
AcDbEntity
  8
M3
  6
CONTINUOUS
370
25
 60
     1
 62
     8
100
AcDbLine
 10
187.051114
 20
1.359866
 11
187.791092
 21
1.019646
  0
LINE
  5
240
100
AcDbEntity
  8
M3
  6
CONTINUOUS
370
25
 60
     1
 62
     8
100
AcDbLine
 10
188.29717
 20
4.531292
 11
188.84152
 21
4.505776
  0
LINE
  5
241
100
AcDbEntity
  8
M3
  6
CONTINUOUS
370
25
 60
     1
 62
     8
100
AcDbLine
 10
188.84152
 20
4.505776
 11
189.045652
 21
4.505776
  0
LINE
  5
242
100
AcDbEntity
  8
M3
  6
CONTINUOUS
370
25
 60
     1
 62
     8
100
AcDbLine
 10
189.045652
 20
4.505776
 11
189.105192
 21
4.454742
  0
LINE
  5
243
100
AcDbEntity
  8
M3
  6
CONTINUOUS
370
25
 60
     1
 62
     8
100
AcDbLine
 10
189.105192
 20
4.454742
 11
189.045652
 21
4.225094
  0
LINE
  5
244
100
AcDbEntity
  8
M3
  6
CONTINUOUS
370
25
 60
     1
 62
     8
100
AcDbLine
 10
189.045652
 20
4.225094
 11
188.926576
 21
3.918896
  0
LINE
  5
245
100
AcDbEntity
  8
M3
  6
CONTINUOUS
370
25
 60
     1
 62
     8
100
AcDbLine
 10
187.61673
 20
2.311358
 11
189.266796
 21
3.442588
  0
LINE
  5
246
100
AcDbEntity
  8
M3
  6
CONTINUOUS
370
25
 60
     1
 62
     8
100
AcDbLine
 10
189.266796
 20
3.442588
 11
189.50495
 21
3.62971
  0
LINE
  5
247
100
AcDbEntity
  8
M3
  6
CONTINUOUS
370
25
 60
     1
 62
     8
100
AcDbLine
 10
188.586356
 20
3.757292
 11
188.620378
 21
3.085358
  0
LINE
  5
248
100
AcDbEntity
  8
M3
  6
CONTINUOUS
370
25
 60
     1
 62
     8
100
AcDbLine
 10
188.620378
 20
3.085358
 11
188.56084
 21
0.686806
  0
LINE
  5
249
100
AcDbEntity
  8
M3
  6
CONTINUOUS
370
25
 60
     1
 62
     8
100
AcDbLine
 10
188.56084
 20
0.686806
 11
188.543828
 21
0.627268
  0
LINE
  5
24A
100
AcDbEntity
  8
M3
  6
CONTINUOUS
370
25
 60
     1
 62
     8
100
AcDbLine
 10
188.543828
 20
0.627268
 11
188.416246
 21
1.163114
  0
LINE
  5
24B
100
AcDbEntity
  8
M3
  6
CONTINUOUS
370
25
 60
     1
 62
     8
100
AcDbLine
 10
182.599482
 20
7.135464
 11
182.555958
 21
6.46084
  0
LINE
  5
24C
100
AcDbEntity
  8
M3
  6
CONTINUOUS
370
25
 60
     1
 62
     8
100
AcDbLine
 10
188.416246
 20
1.163114
 11
188.399236
 21
1.384258
  0
LINE
  5
24D
100
AcDbEntity
  8
M3
  6
CONTINUOUS
370
25
 60
     1
 62
     8
100
AcDbLine
 10
188.586356
 20
2.94927
 11
188.101542
 21
1.979642
  0
LINE
  5
24E
100
AcDbEntity
  8
M3
  6
CONTINUOUS
370
25
 60
     1
 62
     8
100
AcDbLine
 10
188.101542
 20
1.979642
 11
187.778334
 21
1.426786
  0
LINE
  5
24F
100
AcDbEntity
  8
M3
  6
CONTINUOUS
370
25
 60
     1
 62
     8
100
AcDbLine
 10
187.778334
 20
1.426786
 11
187.497652
 21
0.9845
  0
LINE
  5
250
100
AcDbEntity
  8
M3
  6
CONTINUOUS
370
25
 60
     1
 62
     8
100
AcDbLine
 10
187.497652
 20
0.9845
 11
187.319036
 21
0.720828
  0
LINE
  5
251
100
AcDbEntity
  8
M3
  6
CONTINUOUS
370
25
 60
     1
 62
     8
100
AcDbLine
 10
188.288664
 20
1.85206
 11
188.63739
 21
1.715972
  0
LINE
  5
252
100
AcDbEntity
  8
M3
  6
CONTINUOUS
370
25
 60
     1
 62
     8
100
AcDbLine
 10
188.63739
 20
1.715972
 11
188.926576
 21
1.486324
  0
LINE
  5
253
100
AcDbEntity
  8
M3
  6
CONTINUOUS
370
25
 60
     1
 62
     8
100
AcDbLine
 10
188.926576
 20
1.486324
 11
189.147718
 21
1.24817
  0
LINE
  5
254
100
AcDbEntity
  8
M3
  6
CONTINUOUS
370
25
 60
     1
 62
     8
100
AcDbLine
 10
189.700576
 20
3.323512
 11
189.802642
 21
2.62606
  0
LINE
  5
255
100
AcDbEntity
  8
M3
  6
CONTINUOUS
370
25
 60
     1
 62
     8
100
AcDbLine
 10
189.802642
 20
2.62606
 11
189.802642
 21
1.971138
  0
LINE
  5
256
100
AcDbEntity
  8
M3
  6
CONTINUOUS
370
25
 60
     1
 62
     8
100
AcDbLine
 10
189.802642
 20
1.971138
 11
189.802642
 21
1.749994
  0
LINE
  5
257
100
AcDbEntity
  8
M3
  6
CONTINUOUS
370
25
 60
     1
 62
     8
100
AcDbLine
 10
190.457566
 20
4.514282
 11
190.474576
 21
3.40006
  0
LINE
  5
258
100
AcDbEntity
  8
M3
  6
CONTINUOUS
370
25
 60
     1
 62
     8
100
AcDbLine
 10
190.474576
 20
3.40006
 11
190.483082
 21
0.9845
  0
LINE
  5
259
100
AcDbEntity
  8
M3
  6
CONTINUOUS
370
25
 60
     1
 62
     8
100
AcDbLine
 10
190.483082
 20
0.9845
 11
190.508598
 21
0.601752
  0
LINE
  5
25A
100
AcDbEntity
  8
M3
  6
CONTINUOUS
370
25
 60
     1
 62
     8
100
AcDbLine
 10
190.508598
 20
0.601752
 11
190.500094
 21
0.49118
  0
LINE
  5
25B
100
AcDbEntity
  8
M3
  6
CONTINUOUS
370
25
 60
     1
 62
     8
100
AcDbLine
 10
190.500094
 20
0.49118
 11
189.887698
 21
0.899444
  0
LINE
  5
25C
100
AcDbEntity
  8
M3
  6
CONTINUOUS
370
25
 60
     1
 62
     8
100
AcDbLine
 10
192.128896
 20
5.219114
 11
192.426588
 21
4.343048
  0
LINE
  5
25D
100
AcDbEntity
  8
M3
  6
CONTINUOUS
370
25
 60
     1
 62
     8
100
AcDbLine
 10
192.426588
 20
4.343048
 11
192.605204
 21
3.54353
  0
LINE
  5
25E
100
AcDbEntity
  8
M3
  6
CONTINUOUS
370
25
 60
     1
 62
     8
100
AcDbLine
 10
192.605204
 20
3.54353
 11
192.639226
 21
2.86309
  0
LINE
  5
25F
100
AcDbEntity
  8
M3
  6
CONTINUOUS
370
25
 60
     1
 62
     8
100
AcDbLine
 10
192.639226
 20
2.86309
 11
192.579688
 21
2.284716
  0
LINE
  5
260
100
AcDbEntity
  8
M3
  6
CONTINUOUS
370
25
 60
     1
 62
     8
100
AcDbLine
 10
192.579688
 20
2.284716
 11
192.341534
 21
1.459684
  0
LINE
  5
261
100
AcDbEntity
  8
M3
  6
CONTINUOUS
370
25
 60
     1
 62
     8
100
AcDbLine
 10
192.341534
 20
1.459684
 11
192.111886
 21
0.923836
  0
LINE
  5
262
100
AcDbEntity
  8
M3
  6
CONTINUOUS
370
25
 60
     1
 62
     8
100
AcDbLine
 10
192.111886
 20
0.923836
 11
191.601556
 21
0.251902
  0
LINE
  5
263
100
AcDbEntity
  8
M3
  6
CONTINUOUS
370
13
 60
     1
 62
     8
100
AcDbLine
 10
51.0
 20
1.0
 11
56.0
 21
11.0
  0
LINE
  5
264
100
AcDbEntity
  8
M3
  6
CONTINUOUS
370
13
 60
     1
 62
     8
100
AcDbLine
 10
56.0
 20
11.0
 11
61.0
 21
1.0
  0
LINE
  5
265
100
AcDbEntity
  8
M3
  6
CONTINUOUS
370
13
 60
     1
 62
     8
100
AcDbLine
 10
61.0
 20
1.0
 11
51.0
 21
1.0
  0
TEXT
  5
266
100
AcDbEntity
  8
M3
 60
     1
 62
     8
100
AcDbText
 10
53.166668
 20
2.0
 40
6.0
  1
２
 41
0.833333
  7
STANDARD
100
AcDbText
  0
TEXT
  5
267
100
AcDbEntity
  8
M3
 60
     1
 62
     8
100
AcDbText
 10
63.083332
 20
2.0
 40
8.0
  1
２００７－０３－０６
 41
0.3125
  7
STANDARD
100
AcDbText
  0
LINE
  5
268
100
AcDbEntity
  8
M3
  6
CONTINUOUS
370
25
 60
     1
 62
     8
100
AcDbLine
 10
99.908136
 20
6.467192
 11
100.055118
 21
5.879266
  0
LINE
  5
269
100
AcDbEntity
  8
M3
  6
CONTINUOUS
370
25
 60
     1
 62
     8
100
AcDbLine
 10
100.055118
 20
5.879266
 11
100.496062
 21
3.307086
  0
LINE
  5
26A
100
AcDbEntity
  8
M3
  6
CONTINUOUS
370
25
 60
     1
 62
     8
100
AcDbLine
 10
120.338582
 20
8.745406
 11
120.559056
 21
7.055118
  0
LINE
  5
26B
100
AcDbEntity
  8
M3
  6
CONTINUOUS
370
25
 60
     1
 62
     8
100
AcDbLine
 10
120.559056
 20
7.055118
 11
120.637108
 21
0.498732
  0
LINE
  5
26C
100
AcDbEntity
  8
M3
  6
CONTINUOUS
370
25
 60
     1
 62
     8
100
AcDbLine
 10
100.644992
 20
6.622986
 11
102.294722
 21
7.646428
  0
LINE
  5
26D
100
AcDbEntity
  8
M3
  6
CONTINUOUS
370
25
 60
     1
 62
     8
100
AcDbLine
 10
102.294722
 20
7.646428
 11
103.089036
 21
8.013034
  0
LINE
  5
26E
100
AcDbEntity
  8
M3
  6
CONTINUOUS
370
25
 60
     1
 62
     8
100
AcDbLine
 10
103.089036
 20
8.013034
 11
103.669496
 21
8.226888
  0
LINE
  5
26F
100
AcDbEntity
  8
M3
  6
CONTINUOUS
370
25
 60
     1
 62
     8
100
AcDbLine
 10
103.669496
 20
8.226888
 11
103.837524
 21
7.570052
  0
LINE
  5
270
100
AcDbEntity
  8
M3
  6
CONTINUOUS
370
25
 60
     1
 62
     8
100
AcDbLine
 10
103.837524
 20
7.570052
 11
103.929176
 21
5.126008
  0
LINE
  5
271
100
AcDbEntity
  8
M3
  6
CONTINUOUS
370
25
 60
     1
 62
     8
100
AcDbLine
 10
103.929176
 20
5.126008
 11
103.88335
 21
4.255318
  0
LINE
  5
272
100
AcDbEntity
  8
M3
  6
CONTINUOUS
370
25
 60
     1
 62
     8
100
AcDbLine
 10
101.210178
 20
4.652476
 11
102.26417
 21
5.523166
  0
LINE
  5
273
100
AcDbEntity
  8
M3
  6
CONTINUOUS
370
25
 60
     1
 62
     8
100
AcDbLine
 10
101.256002
 20
3.552656
 11
102.508576
 21
4.209492
  0
LINE
  5
274
100
AcDbEntity
  8
M3
  6
CONTINUOUS
370
25
 60
     1
 62
     8
100
AcDbLine
 10
99.25671
 20
0.231936
 11
104.051378
 21
2.72779
  0
LINE
  5
275
100
AcDbEntity
  8
M3
  6
CONTINUOUS
370
25
 60
     1
 62
     8
100
AcDbLine
 10
104.051378
 20
2.72779
 11
104.631838
 21
3.002746
  0
LINE
  5
276
100
AcDbEntity
  8
M3
  6
CONTINUOUS
370
25
 60
     1
 62
     8
100
AcDbLine
 10
104.631838
 20
3.002746
 11
105.487254
 21
3.50683
  0
LINE
  5
277
100
AcDbEntity
  8
M3
  6
CONTINUOUS
370
25
 60
     1
 62
     8
100
AcDbLine
 10
105.487254
 20
3.50683
 11
106.648174
 21
4.08729
  0
LINE
  5
278
100
AcDbEntity
  8
M3
  6
CONTINUOUS
370
25
 60
     1
 62
     8
100
AcDbLine
 10
102.65369
 20
3.367334
 11
102.699516
 21
3.229856
  0
LINE
  5
279
100
AcDbEntity
  8
M3
  6
CONTINUOUS
370
25
 60
     1
 62
     8
100
AcDbLine
 10
102.699516
 20
3.229856
 11
102.760618
 21
0.098426
  0
LINE
  5
27A
100
AcDbEntity
  8
M3
  6
CONTINUOUS
370
25
 60
     1
 62
     8
100
AcDbLine
 10
115.559264
 20
5.78005
 11
115.826946
 21
4.918452
  0
LINE
  5
27B
100
AcDbEntity
  8
M3
  6
CONTINUOUS
370
25
 60
     1
 62
     8
100
AcDbLine
 10
115.826946
 20
4.918452
 11
115.78512
 21
3.10324
  0
LINE
  5
27C
100
AcDbEntity
  8
M3
  6
CONTINUOUS
370
25
 60
     1
 62
     8
100
AcDbLine
 10
117.625426
 20
6.06446
 11
117.759268
 21
5.437084
  0
LINE
  5
27D
100
AcDbEntity
  8
M3
  6
CONTINUOUS
370
25
 60
     1
 62
     8
100
AcDbLine
 10
117.759268
 20
5.437084
 11
117.809458
 21
3.981568
  0
LINE
  5
27E
100
AcDbEntity
  8
M3
  6
CONTINUOUS
370
25
 60
     1
 62
     8
100
AcDbLine
 10
133.896062
 20
5.976902
 11
134.924934
 21
6.123884
  0
LINE
  5
27F
100
AcDbEntity
  8
M3
  6
CONTINUOUS
370
25
 60
     1
 62
     8
100
AcDbLine
 10
134.924934
 20
6.123884
 11
137.056168
 21
6.344356
  0
LINE
  5
280
100
AcDbEntity
  8
M3
  6
CONTINUOUS
370
25
 60
     1
 62
     8
100
AcDbLine
 10
137.056168
 20
6.344356
 11
137.350132
 21
5.903412
  0
LINE
  5
281
100
AcDbEntity
  8
M3
  6
CONTINUOUS
370
25
 60
     1
 62
     8
100
AcDbLine
 10
137.350132
 20
5.903412
 11
136.541732
 21
2.743308
  0
LINE
  5
282
100
AcDbEntity
  8
M3
  6
CONTINUOUS
370
25
 60
     1
 62
     8
100
AcDbLine
 10
138.263362
 20
2.824564
 11
140.267896
 21
2.973048
  0
LINE
  5
283
100
AcDbEntity
  8
M3
  6
CONTINUOUS
370
25
 60
     1
 62
     8
100
AcDbLine
 10
151.533858
 20
8.149082
 11
151.68084
 21
7.04672
  0
LINE
  5
284
100
AcDbEntity
  8
M3
  6
CONTINUOUS
370
25
 60
     1
 62
     8
100
AcDbLine
 10
151.68084
 20
7.04672
 11
151.901312
 21
7.1937
  0
LINE
  5
285
100
AcDbEntity
  8
M3
  6
CONTINUOUS
370
25
 60
     1
 62
     8
100
AcDbLine
 10
152.56273
 20
6.826246
 11
152.783202
 21
6.16483
  0
LINE
  5
286
100
AcDbEntity
  8
M3
  6
CONTINUOUS
370
25
 60
     1
 62
     8
100
AcDbLine
 10
153.959056
 20
7.12021
 11
153.44462
 21
6.16483
  0
LINE
  5
287
100
AcDbEntity
  8
M3
  6
CONTINUOUS
370
25
 60
     1
 62
     8
100
AcDbLine
 10
153.51811
 20
5.503412
 11
153.44462
 21
1.68189
  0
LINE
  5
288
100
AcDbEntity
  8
M3
  6
CONTINUOUS
370
25
 60
     1
 62
     8
100
AcDbLine
 10
153.44462
 20
1.68189
 11
153.150656
 21
1.68189
  0
LINE
  5
289
100
AcDbEntity
  8
M3
  6
CONTINUOUS
370
25
 60
     1
 62
     8
100
AcDbLine
 10
152.856692
 20
4.695014
 11
152.56273
 21
3.078216
  0
LINE
  5
28A
100
AcDbEntity
  8
M3
  6
CONTINUOUS
370
25
 60
     1
 62
     8
100
AcDbLine
 10
152.56273
 20
3.078216
 11
152.783202
 21
3.078216
  0
LINE
  5
28B
100
AcDbEntity
  8
M3
  6
CONTINUOUS
370
25
 60
     1
 62
     8
100
AcDbLine
 10
154.914436
 20
4.32756
 11
154.546982
 21
3.739632
  0
LINE
  5
28C
100
AcDbEntity
  8
M3
  6
CONTINUOUS
370
25
 60
     1
 62
     8
100
AcDbLine
 10
154.546982
 20
3.739632
 11
154.47349
 21
3.372178
  0
LINE
  5
28D
100
AcDbEntity
  8
M3
  6
CONTINUOUS
370
25
 60
     1
 62
     8
100
AcDbLine
 10
154.47349
 20
3.372178
 11
154.47349
 21
3.004724
  0
LINE
  5
28E
100
AcDbEntity
  8
M3
  6
CONTINUOUS
370
25
 60
     1
 62
     8
100
AcDbLine
 10
154.47349
 20
3.004724
 11
154.693964
 21
2.63727
  0
LINE
  5
28F
100
AcDbEntity
  8
M3
  6
CONTINUOUS
370
25
 60
     1
 62
     8
100
AcDbLine
 10
154.693964
 20
2.63727
 11
155.35538
 21
2.63727
  0
LINE
  5
290
100
AcDbEntity
  8
M3
  6
CONTINUOUS
370
25
 60
     1
 62
     8
100
AcDbLine
 10
155.35538
 20
2.63727
 11
155.869816
 21
2.857742
  0
LINE
  5
291
100
AcDbEntity
  8
M3
  6
CONTINUOUS
370
25
 60
     1
 62
     8
100
AcDbLine
 10
136.638708
 20
8.241842
 11
135.287326
 21
5.593568
  0
LINE
  5
292
100
AcDbEntity
  8
M3
  6
CONTINUOUS
370
25
 60
     1
 62
     8
100
AcDbLine
 10
135.287326
 20
5.593568
 11
134.589838
 21
4.427456
  0
LINE
  5
293
100
AcDbEntity
  8
M3
  6
CONTINUOUS
370
25
 60
     1
 62
     8
100
AcDbLine
 10
134.589838
 20
4.427456
 11
133.848756
 21
3.337632
  0
LINE
  5
294
100
AcDbEntity
  8
M3
  6
CONTINUOUS
370
25
 60
     1
 62
     8
100
AcDbLine
 10
133.848756
 20
3.337632
 11
132.71534
 21
1.888166
  0
LINE
  5
295
100
AcDbEntity
  8
M3
  6
CONTINUOUS
370
25
 60
     1
 62
     8
100
AcDbLine
 10
136.541732
 20
2.743308
 11
136.366252
 21
2.22601
  0
LINE
  5
296
100
AcDbEntity
  8
M3
  6
CONTINUOUS
370
25
 60
     1
 62
     8
100
AcDbLine
 10
136.366252
 20
2.22601
 11
136.257268
 21
2.10613
  0
LINE
  5
297
100
AcDbEntity
  8
M3
  6
CONTINUOUS
370
25
 60
     1
 62
     8
100
AcDbLine
 10
136.257268
 20
2.10613
 11
135.94122
 21
2.127926
  0
LINE
  5
298
100
AcDbEntity
  8
M3
  6
CONTINUOUS
370
25
 60
     1
 62
     8
100
AcDbLine
 10
135.94122
 20
2.127926
 11
135.734154
 21
2.443976
  0
LINE
  5
299
100
AcDbEntity
  8
M3
  6
CONTINUOUS
370
25
 60
     1
 62
     8
100
AcDbLine
 10
135.734154
 20
2.443976
 11
135.679662
 21
2.651042
  0
LINE
  5
29A
100
AcDbEntity
  8
M3
  6
CONTINUOUS
370
25
 60
     1
 62
     8
100
AcDbLine
 10
138.949136
 20
6.07021
 11
138.66578
 21
5.165656
  0
LINE
  5
29B
100
AcDbEntity
  8
M3
  6
CONTINUOUS
370
25
 60
     1
 62
     8
100
AcDbLine
 10
138.66578
 20
5.165656
 11
138.458714
 21
4.33739
  0
LINE
  5
29C
100
AcDbEntity
  8
M3
  6
CONTINUOUS
370
25
 60
     1
 62
     8
100
AcDbLine
 10
138.458714
 20
4.33739
 11
138.327936
 21
3.552716
  0
LINE
  5
29D
100
AcDbEntity
  8
M3
  6
CONTINUOUS
370
25
 60
     1
 62
     8
100
AcDbLine
 10
138.327936
 20
3.552716
 11
138.263362
 21
2.824564
  0
LINE
  5
29E
100
AcDbEntity
  8
M3
  6
CONTINUOUS
370
25
 60
     1
 62
     8
100
AcDbLine
 10
138.934086
 20
5.81255
 11
139.487178
 21
6.121418
  0
LINE
  5
29F
100
AcDbEntity
  8
M3
  6
CONTINUOUS
370
25
 60
     1
 62
     8
100
AcDbLine
 10
139.487178
 20
6.121418
 11
139.89661
 21
6.300994
  0
LINE
  5
2A0
100
AcDbEntity
  8
M3
  6
CONTINUOUS
370
25
 60
     1
 62
     8
100
AcDbLine
 10
139.89661
 20
6.300994
 11
140.341956
 21
6.401556
  0
LINE
  5
2A1
100
AcDbEntity
  8
M3
  6
CONTINUOUS
370
25
 60
     1
 62
     8
100
AcDbLine
 10
140.341956
 20
6.401556
 11
140.665192
 21
6.415922
  0
LINE
  5
2A2
100
AcDbEntity
  8
M3
  6
CONTINUOUS
370
25
 60
     1
 62
     8
100
AcDbLine
 10
140.665192
 20
6.415922
 11
141.081806
 21
6.351276
  0
LINE
  5
2A3
100
AcDbEntity
  8
M3
  6
CONTINUOUS
370
25
 60
     1
 62
     8
100
AcDbLine
 10
141.081806
 20
6.351276
 11
141.182368
 21
6.207616
  0
LINE
  5
2A4
100
AcDbEntity
  8
M3
  6
CONTINUOUS
370
25
 60
     1
 62
     8
100
AcDbLine
 10
141.182368
 20
6.207616
 11
140.293786
 21
2.801378
  0
LINE
  5
2A5
100
AcDbEntity
  8
M3
  6
CONTINUOUS
370
25
 60
     1
 62
     8
100
AcDbLine
 10
149.996204
 20
7.302116
 11
151.677028
 21
7.345214
  0
LINE
  5
2A6
100
AcDbEntity
  8
M3
  6
CONTINUOUS
370
25
 60
     1
 62
     8
100
AcDbLine
 10
151.677028
 20
7.345214
 11
153.357854
 21
7.445776
  0
LINE
  5
2A7
100
AcDbEntity
  8
M3
  6
CONTINUOUS
370
25
 60
     1
 62
     8
100
AcDbLine
 10
153.357854
 20
7.445776
 11
154.851922
 21
7.589436
  0
LINE
  5
2A8
100
AcDbEntity
  8
M3
  6
CONTINUOUS
370
25
 60
     1
 62
     8
100
AcDbLine
 10
154.851922
 20
7.589436
 11
155.929374
 21
7.776196
  0
LINE
  5
2A9
100
AcDbEntity
  8
M3
  6
CONTINUOUS
370
25
 60
     1
 62
     8
100
AcDbLine
 10
154.295238
 20
8.874248
 11
153.469192
 21
7.99792
  0
LINE
  5
2AA
100
AcDbEntity
  8
M3
  6
CONTINUOUS
370
25
 60
     1
 62
     8
100
AcDbLine
 10
153.469192
 20
7.99792
 11
152.973564
 21
7.52384
  0
LINE
  5
2AB
100
AcDbEntity
  8
M3
  6
CONTINUOUS
370
25
 60
     1
 62
     8
100
AcDbLine
 10
152.973564
 20
7.52384
 11
152.347086
 21
7.09711
  0
LINE
  5
2AC
100
AcDbEntity
  8
M3
  6
CONTINUOUS
370
25
 60
     1
 62
     8
100
AcDbLine
 10
150.815068
 20
6.259092
 11
150.384086
 21
4.046722
  0
LINE
  5
2AD
100
AcDbEntity
  8
M3
  6
CONTINUOUS
370
25
 60
     1
 62
     8
100
AcDbLine
 10
150.384086
 20
4.046722
 11
149.838178
 21
1.934916
  0
LINE
  5
2AE
100
AcDbEntity
  8
M3
  6
CONTINUOUS
370
25
 60
     1
 62
     8
100
AcDbLine
 10
151.088022
 20
6.287824
 11
151.432806
 21
6.359654
  0
LINE
  5
2AF
100
AcDbEntity
  8
M3
  6
CONTINUOUS
370
25
 60
     1
 62
     8
100
AcDbLine
 10
151.432806
 20
6.359654
 11
151.734492
 21
6.359654
  0
LINE
  5
2B0
100
AcDbEntity
  8
M3
  6
CONTINUOUS
370
25
 60
     1
 62
     8
100
AcDbLine
 10
151.734492
 20
6.359654
 11
151.835056
 21
6.072332
  0
LINE
  5
2B1
100
AcDbEntity
  8
M3
  6
CONTINUOUS
370
25
 60
     1
 62
     8
100
AcDbLine
 10
151.835056
 20
6.072332
 11
151.404074
 21
2.150406
  0
LINE
  5
2B2
100
AcDbEntity
  8
M3
  6
CONTINUOUS
370
25
 60
     1
 62
     8
100
AcDbLine
 10
151.404074
 20
2.150406
 11
151.231682
 21
2.365898
  0
LINE
  5
2B3
100
AcDbEntity
  8
M3
  6
CONTINUOUS
370
25
 60
     1
 62
     8
100
AcDbLine
 10
150.621126
 20
5.023612
 11
151.325062
 21
5.052344
  0
LINE
  5
2B4
100
AcDbEntity
  8
M3
  6
CONTINUOUS
370
25
 60
     1
 62
     8
100
AcDbLine
 10
150.405636
 20
3.903062
 11
150.75042
 21
3.859964
  0
LINE
  5
2B5
100
AcDbEntity
  8
M3
  6
CONTINUOUS
370
25
 60
     1
 62
     8
100
AcDbLine
 10
150.75042
 20
3.859964
 11
151.353794
 21
3.917428
  0
LINE
  5
2B6
100
AcDbEntity
  8
M3
  6
CONTINUOUS
370
25
 60
     1
 62
     8
100
AcDbLine
 10
152.388148
 20
5.953608
 11
153.13518
 21
5.881778
  0
LINE
  5
2B7
100
AcDbEntity
  8
M3
  6
CONTINUOUS
370
25
 60
     1
 62
     8
100
AcDbLine
 10
153.13518
 20
5.881778
 11
153.954044
 21
5.953608
  0
LINE
  5
2B8
100
AcDbEntity
  8
M3
  6
CONTINUOUS
370
25
 60
     1
 62
     8
100
AcDbLine
 10
152.201388
 20
5.235306
 11
153.163912
 21
5.264038
  0
LINE
  5
2B9
100
AcDbEntity
  8
M3
  6
CONTINUOUS
370
25
 60
     1
 62
     8
100
AcDbLine
 10
153.163912
 20
5.264038
 11
154.140802
 21
5.22094
  0
LINE
  5
2BA
100
AcDbEntity
  8
M3
  6
CONTINUOUS
370
25
 60
     1
 62
     8
100
AcDbLine
 10
153.264476
 20
6.786838
 11
152.761664
 21
5.867412
  0
LINE
  5
2BB
100
AcDbEntity
  8
M3
  6
CONTINUOUS
370
25
 60
     1
 62
     8
100
AcDbLine
 10
152.761664
 20
5.867412
 11
152.172656
 21
5.134744
  0
LINE
  5
2BC
100
AcDbEntity
  8
M3
  6
CONTINUOUS
370
25
 60
     1
 62
     8
100
AcDbLine
 10
152.172656
 20
5.134744
 11
151.396892
 21
4.31588
  0
LINE
  5
2BD
100
AcDbEntity
  8
M3
  6
CONTINUOUS
370
25
 60
     1
 62
     8
100
AcDbLine
 10
153.286024
 20
5.822416
 11
154.20545
 21
5.104114
  0
LINE
  5
2BE
100
AcDbEntity
  8
M3
  6
CONTINUOUS
370
25
 60
     1
 62
     8
100
AcDbLine
 10
154.20545
 20
5.104114
 11
154.995582
 21
4.673132
  0
LINE
  5
2BF
100
AcDbEntity
  8
M3
  6
CONTINUOUS
370
25
 60
     1
 62
     8
100
AcDbLine
 10
154.995582
 20
4.673132
 11
155.87191
 21
4.342714
  0
LINE
  5
2C0
100
AcDbEntity
  8
M3
  6
CONTINUOUS
370
25
 60
     1
 62
     8
100
AcDbLine
 10
155.87191
 20
4.342714
 11
156.51838
 21
4.184688
  0
LINE
  5
2C1
100
AcDbEntity
  8
M3
  6
CONTINUOUS
370
25
 60
     1
 62
     8
100
AcDbLine
 10
167.896062
 20
5.976902
 11
168.924934
 21
6.123884
  0
LINE
  5
2C2
100
AcDbEntity
  8
M3
  6
CONTINUOUS
370
25
 60
     1
 62
     8
100
AcDbLine
 10
168.924934
 20
6.123884
 11
171.056168
 21
6.344356
  0
LINE
  5
2C3
100
AcDbEntity
  8
M3
  6
CONTINUOUS
370
25
 60
     1
 62
     8
100
AcDbLine
 10
171.056168
 20
6.344356
 11
171.350132
 21
5.903412
  0
LINE
  5
2C4
100
AcDbEntity
  8
M3
  6
CONTINUOUS
370
25
 60
     1
 62
     8
100
AcDbLine
 10
171.350132
 20
5.903412
 11
170.541732
 21
2.743308
  0
LINE
  5
2C5
100
AcDbEntity
  8
M3
  6
CONTINUOUS
370
25
 60
     1
 62
     8
100
AcDbLine
 10
172.263362
 20
2.824564
 11
174.267896
 21
2.973048
  0
LINE
  5
2C6
100
AcDbEntity
  8
M3
  6
CONTINUOUS
370
25
 60
     1
 62
     8
100
AcDbLine
 10
185.533858
 20
8.149082
 11
185.68084
 21
7.04672
  0
LINE
  5
2C7
100
AcDbEntity
  8
M3
  6
CONTINUOUS
370
25
 60
     1
 62
     8
100
AcDbLine
 10
185.68084
 20
7.04672
 11
185.901312
 21
7.1937
  0
LINE
  5
2C8
100
AcDbEntity
  8
M3
  6
CONTINUOUS
370
25
 60
     1
 62
     8
100
AcDbLine
 10
186.56273
 20
6.826246
 11
186.783202
 21
6.16483
  0
LINE
  5
2C9
100
AcDbEntity
  8
M3
  6
CONTINUOUS
370
25
 60
     1
 62
     8
100
AcDbLine
 10
187.959056
 20
7.12021
 11
187.44462
 21
6.16483
  0
LINE
  5
2CA
100
AcDbEntity
  8
M3
  6
CONTINUOUS
370
25
 60
     1
 62
     8
100
AcDbLine
 10
187.51811
 20
5.503412
 11
187.44462
 21
1.68189
  0
LINE
  5
2CB
100
AcDbEntity
  8
M3
  6
CONTINUOUS
370
25
 60
     1
 62
     8
100
AcDbLine
 10
187.44462
 20
1.68189
 11
187.150656
 21
1.68189
  0
LINE
  5
2CC
100
AcDbEntity
  8
M3
  6
CONTINUOUS
370
25
 60
     1
 62
     8
100
AcDbLine
 10
186.856692
 20
4.695014
 11
186.56273
 21
3.078216
  0
LINE
  5
2CD
100
AcDbEntity
  8
M3
  6
CONTINUOUS
370
25
 60
     1
 62
     8
100
AcDbLine
 10
186.56273
 20
3.078216
 11
186.783202
 21
3.078216
  0
LINE
  5
2CE
100
AcDbEntity
  8
M3
  6
CONTINUOUS
370
25
 60
     1
 62
     8
100
AcDbLine
 10
188.914436
 20
4.32756
 11
188.546982
 21
3.739632
  0
LINE
  5
2CF
100
AcDbEntity
  8
M3
  6
CONTINUOUS
370
25
 60
     1
 62
     8
100
AcDbLine
 10
188.546982
 20
3.739632
 11
188.47349
 21
3.372178
  0
LINE
  5
2D0
100
AcDbEntity
  8
M3
  6
CONTINUOUS
370
25
 60
     1
 62
     8
100
AcDbLine
 10
188.47349
 20
3.372178
 11
188.47349
 21
3.004724
  0
LINE
  5
2D1
100
AcDbEntity
  8
M3
  6
CONTINUOUS
370
25
 60
     1
 62
     8
100
AcDbLine
 10
188.47349
 20
3.004724
 11
188.693964
 21
2.63727
  0
LINE
  5
2D2
100
AcDbEntity
  8
M3
  6
CONTINUOUS
370
25
 60
     1
 62
     8
100
AcDbLine
 10
188.693964
 20
2.63727
 11
189.35538
 21
2.63727
  0
LINE
  5
2D3
100
AcDbEntity
  8
M3
  6
CONTINUOUS
370
25
 60
     1
 62
     8
100
AcDbLine
 10
189.35538
 20
2.63727
 11
189.869816
 21
2.857742
  0
LINE
  5
2D4
100
AcDbEntity
  8
M3
  6
CONTINUOUS
370
25
 60
     1
 62
     8
100
AcDbLine
 10
170.638708
 20
8.241842
 11
169.287326
 21
5.593568
  0
LINE
  5
2D5
100
AcDbEntity
  8
M3
  6
CONTINUOUS
370
25
 60
     1
 62
     8
100
AcDbLine
 10
169.287326
 20
5.593568
 11
168.589838
 21
4.427456
  0
LINE
  5
2D6
100
AcDbEntity
  8
M3
  6
CONTINUOUS
370
25
 60
     1
 62
     8
100
AcDbLine
 10
168.589838
 20
4.427456
 11
167.848756
 21
3.337632
  0
LINE
  5
2D7
100
AcDbEntity
  8
M3
  6
CONTINUOUS
370
25
 60
     1
 62
     8
100
AcDbLine
 10
167.848756
 20
3.337632
 11
166.71534
 21
1.888166
  0
LINE
  5
2D8
100
AcDbEntity
  8
M3
  6
CONTINUOUS
370
25
 60
     1
 62
     8
100
AcDbLine
 10
170.541732
 20
2.743308
 11
170.366252
 21
2.22601
  0
LINE
  5
2D9
100
AcDbEntity
  8
M3
  6
CONTINUOUS
370
25
 60
     1
 62
     8
100
AcDbLine
 10
170.366252
 20
2.22601
 11
170.257268
 21
2.10613
  0
LINE
  5
2DA
100
AcDbEntity
  8
M3
  6
CONTINUOUS
370
25
 60
     1
 62
     8
100
AcDbLine
 10
170.257268
 20
2.10613
 11
169.94122
 21
2.127926
  0
LINE
  5
2DB
100
AcDbEntity
  8
M3
  6
CONTINUOUS
370
25
 60
     1
 62
     8
100
AcDbLine
 10
169.94122
 20
2.127926
 11
169.734154
 21
2.443976
  0
LINE
  5
2DC
100
AcDbEntity
  8
M3
  6
CONTINUOUS
370
25
 60
     1
 62
     8
100
AcDbLine
 10
169.734154
 20
2.443976
 11
169.679662
 21
2.651042
  0
LINE
  5
2DD
100
AcDbEntity
  8
M3
  6
CONTINUOUS
370
25
 60
     1
 62
     8
100
AcDbLine
 10
172.949136
 20
6.07021
 11
172.66578
 21
5.165656
  0
LINE
  5
2DE
100
AcDbEntity
  8
M3
  6
CONTINUOUS
370
25
 60
     1
 62
     8
100
AcDbLine
 10
172.66578
 20
5.165656
 11
172.458714
 21
4.33739
  0
LINE
  5
2DF
100
AcDbEntity
  8
M3
  6
CONTINUOUS
370
25
 60
     1
 62
     8
100
AcDbLine
 10
172.458714
 20
4.33739
 11
172.327936
 21
3.552716
  0
LINE
  5
2E0
100
AcDbEntity
  8
M3
  6
CONTINUOUS
370
25
 60
     1
 62
     8
100
AcDbLine
 10
172.327936
 20
3.552716
 11
172.263362
 21
2.824564
  0
LINE
  5
2E1
100
AcDbEntity
  8
M3
  6
CONTINUOUS
370
25
 60
     1
 62
     8
100
AcDbLine
 10
172.934086
 20
5.81255
 11
173.487178
 21
6.121418
  0
LINE
  5
2E2
100
AcDbEntity
  8
M3
  6
CONTINUOUS
370
25
 60
     1
 62
     8
100
AcDbLine
 10
173.487178
 20
6.121418
 11
173.89661
 21
6.300994
  0
LINE
  5
2E3
100
AcDbEntity
  8
M3
  6
CONTINUOUS
370
25
 60
     1
 62
     8
100
AcDbLine
 10
173.89661
 20
6.300994
 11
174.341956
 21
6.401556
  0
LINE
  5
2E4
100
AcDbEntity
  8
M3
  6
CONTINUOUS
370
25
 60
     1
 62
     8
100
AcDbLine
 10
174.341956
 20
6.401556
 11
174.665192
 21
6.415922
  0
LINE
  5
2E5
100
AcDbEntity
  8
M3
  6
CONTINUOUS
370
25
 60
     1
 62
     8
100
AcDbLine
 10
174.665192
 20
6.415922
 11
175.081806
 21
6.351276
  0
LINE
  5
2E6
100
AcDbEntity
  8
M3
  6
CONTINUOUS
370
25
 60
     1
 62
     8
100
AcDbLine
 10
175.081806
 20
6.351276
 11
175.182368
 21
6.207616
  0
LINE
  5
2E7
100
AcDbEntity
  8
M3
  6
CONTINUOUS
370
25
 60
     1
 62
     8
100
AcDbLine
 10
175.182368
 20
6.207616
 11
174.293786
 21
2.801378
  0
LINE
  5
2E8
100
AcDbEntity
  8
M3
  6
CONTINUOUS
370
25
 60
     1
 62
     8
100
AcDbLine
 10
183.996204
 20
7.302116
 11
185.677028
 21
7.345214
  0
LINE
  5
2E9
100
AcDbEntity
  8
M3
  6
CONTINUOUS
370
25
 60
     1
 62
     8
100
AcDbLine
 10
185.677028
 20
7.345214
 11
187.357854
 21
7.445776
  0
LINE
  5
2EA
100
AcDbEntity
  8
M3
  6
CONTINUOUS
370
25
 60
     1
 62
     8
100
AcDbLine
 10
187.357854
 20
7.445776
 11
188.851922
 21
7.589436
  0
LINE
  5
2EB
100
AcDbEntity
  8
M3
  6
CONTINUOUS
370
25
 60
     1
 62
     8
100
AcDbLine
 10
188.851922
 20
7.589436
 11
189.929374
 21
7.776196
  0
LINE
  5
2EC
100
AcDbEntity
  8
M3
  6
CONTINUOUS
370
25
 60
     1
 62
     8
100
AcDbLine
 10
188.295238
 20
8.874248
 11
187.469192
 21
7.99792
  0
LINE
  5
2ED
100
AcDbEntity
  8
M3
  6
CONTINUOUS
370
25
 60
     1
 62
     8
100
AcDbLine
 10
187.469192
 20
7.99792
 11
186.973564
 21
7.52384
  0
LINE
  5
2EE
100
AcDbEntity
  8
M3
  6
CONTINUOUS
370
25
 60
     1
 62
     8
100
AcDbLine
 10
186.973564
 20
7.52384
 11
186.347086
 21
7.09711
  0
LINE
  5
2EF
100
AcDbEntity
  8
M3
  6
CONTINUOUS
370
25
 60
     1
 62
     8
100
AcDbLine
 10
184.815068
 20
6.259092
 11
184.384086
 21
4.046722
  0
LINE
  5
2F0
100
AcDbEntity
  8
M3
  6
CONTINUOUS
370
25
 60
     1
 62
     8
100
AcDbLine
 10
184.384086
 20
4.046722
 11
183.838178
 21
1.934916
  0
LINE
  5
2F1
100
AcDbEntity
  8
M3
  6
CONTINUOUS
370
25
 60
     1
 62
     8
100
AcDbLine
 10
185.088022
 20
6.287824
 11
185.432806
 21
6.359654
  0
LINE
  5
2F2
100
AcDbEntity
  8
M3
  6
CONTINUOUS
370
25
 60
     1
 62
     8
100
AcDbLine
 10
185.432806
 20
6.359654
 11
185.734492
 21
6.359654
  0
LINE
  5
2F3
100
AcDbEntity
  8
M3
  6
CONTINUOUS
370
25
 60
     1
 62
     8
100
AcDbLine
 10
185.734492
 20
6.359654
 11
185.835056
 21
6.072332
  0
LINE
  5
2F4
100
AcDbEntity
  8
M3
  6
CONTINUOUS
370
25
 60
     1
 62
     8
100
AcDbLine
 10
185.835056
 20
6.072332
 11
185.404074
 21
2.150406
  0
LINE
  5
2F5
100
AcDbEntity
  8
M3
  6
CONTINUOUS
370
25
 60
     1
 62
     8
100
AcDbLine
 10
185.404074
 20
2.150406
 11
185.231682
 21
2.365898
  0
LINE
  5
2F6
100
AcDbEntity
  8
M3
  6
CONTINUOUS
370
25
 60
     1
 62
     8
100
AcDbLine
 10
184.621126
 20
5.023612
 11
185.325062
 21
5.052344
  0
LINE
  5
2F7
100
AcDbEntity
  8
M3
  6
CONTINUOUS
370
25
 60
     1
 62
     8
100
AcDbLine
 10
184.405636
 20
3.903062
 11
184.75042
 21
3.859964
  0
LINE
  5
2F8
100
AcDbEntity
  8
M3
  6
CONTINUOUS
370
25
 60
     1
 62
     8
100
AcDbLine
 10
184.75042
 20
3.859964
 11
185.353794
 21
3.917428
  0
LINE
  5
2F9
100
AcDbEntity
  8
M3
  6
CONTINUOUS
370
25
 60
     1
 62
     8
100
AcDbLine
 10
186.388148
 20
5.953608
 11
187.13518
 21
5.881778
  0
LINE
  5
2FA
100
AcDbEntity
  8
M3
  6
CONTINUOUS
370
25
 60
     1
 62
     8
100
AcDbLine
 10
187.13518
 20
5.881778
 11
187.954044
 21
5.953608
  0
LINE
  5
2FB
100
AcDbEntity
  8
M3
  6
CONTINUOUS
370
25
 60
     1
 62
     8
100
AcDbLine
 10
186.201388
 20
5.235306
 11
187.163912
 21
5.264038
  0
LINE
  5
2FC
100
AcDbEntity
  8
M3
  6
CONTINUOUS
370
25
 60
     1
 62
     8
100
AcDbLine
 10
187.163912
 20
5.264038
 11
188.140802
 21
5.22094
  0
LINE
  5
2FD
100
AcDbEntity
  8
M3
  6
CONTINUOUS
370
25
 60
     1
 62
     8
100
AcDbLine
 10
187.264476
 20
6.786838
 11
186.761664
 21
5.867412
  0
LINE
  5
2FE
100
AcDbEntity
  8
M3
  6
CONTINUOUS
370
25
 60
     1
 62
     8
100
AcDbLine
 10
186.761664
 20
5.867412
 11
186.172656
 21
5.134744
  0
LINE
  5
2FF
100
AcDbEntity
  8
M3
  6
CONTINUOUS
370
25
 60
     1
 62
     8
100
AcDbLine
 10
186.172656
 20
5.134744
 11
185.396892
 21
4.31588
  0
LINE
  5
300
100
AcDbEntity
  8
M3
  6
CONTINUOUS
370
25
 60
     1
 62
     8
100
AcDbLine
 10
187.286024
 20
5.822416
 11
188.20545
 21
5.104114
  0
LINE
  5
301
100
AcDbEntity
  8
M3
  6
CONTINUOUS
370
25
 60
     1
 62
     8
100
AcDbLine
 10
188.20545
 20
5.104114
 11
188.995582
 21
4.673132
  0
LINE
  5
302
100
AcDbEntity
  8
M3
  6
CONTINUOUS
370
25
 60
     1
 62
     8
100
AcDbLine
 10
188.995582
 20
4.673132
 11
189.87191
 21
4.342714
  0
LINE
  5
303
100
AcDbEntity
  8
M3
  6
CONTINUOUS
370
25
 60
     1
 62
     8
100
AcDbLine
 10
189.87191
 20
4.342714
 11
190.51838
 21
4.184688
  0
LINE
  5
304
100
AcDbEntity
  8
M3
  6
CONTINUOUS
370
13
 60
     1
 62
     8
100
AcDbLine
 10
51.0
 20
1.0
 11
56.0
 21
11.0
  0
LINE
  5
305
100
AcDbEntity
  8
M3
  6
CONTINUOUS
370
13
 60
     1
 62
     8
100
AcDbLine
 10
56.0
 20
11.0
 11
61.0
 21
1.0
  0
LINE
  5
306
100
AcDbEntity
  8
M3
  6
CONTINUOUS
370
13
 60
     1
 62
     8
100
AcDbLine
 10
61.0
 20
1.0
 11
51.0
 21
1.0
  0
TEXT
  5
307
100
AcDbEntity
  8
M3
 60
     1
 62
     8
100
AcDbText
 10
53.166668
 20
2.0
 40
6.0
  1
３
 41
0.833333
  7
STANDARD
100
AcDbText
  0
TEXT
  5
308
100
AcDbEntity
  8
M3
 60
     1
 62
     8
100
AcDbText
 10
63.083332
 20
2.0
 40
8.0
  1
２００８－０４－０８
 41
0.3125
  7
STANDARD
100
AcDbText
  0
LINE
  5
309
100
AcDbEntity
  8
M3
  6
CONTINUOUS
370
25
 60
     1
 62
     8
100
AcDbLine
 10
96.380578
 20
7.2021
 11
97.55643
 21
7.863518
  0
LINE
  5
30A
100
AcDbEntity
  8
M3
  6
CONTINUOUS
370
25
 60
     1
 62
     8
100
AcDbLine
 10
97.55643
 20
7.863518
 11
99.099738
 21
8.304462
  0
LINE
  5
30B
100
AcDbEntity
  8
M3
  6
CONTINUOUS
370
25
 60
     1
 62
     8
100
AcDbLine
 10
97.923884
 20
6.173228
 11
99.32021
 21
4.55643
  0
LINE
  5
30C
100
AcDbEntity
  8
M3
  6
CONTINUOUS
370
25
 60
     1
 62
     8
100
AcDbLine
 10
99.32021
 20
4.55643
 11
99.099738
 21
4.629922
  0
LINE
  5
30D
100
AcDbEntity
  8
M3
  6
CONTINUOUS
370
25
 60
     1
 62
     8
100
AcDbLine
 10
121.0
 20
7.937008
 11
121.587926
 21
7.2021
  0
LINE
  5
30E
100
AcDbEntity
  8
M3
  6
CONTINUOUS
370
25
 60
     1
 62
     8
100
AcDbLine
 10
121.587926
 20
7.2021
 11
122.175854
 21
6.467192
  0
LINE
  5
30F
100
AcDbEntity
  8
M3
  6
CONTINUOUS
370
25
 60
     1
 62
     8
100
AcDbLine
 10
122.175854
 20
6.467192
 11
122.469816
 21
5.805774
  0
LINE
  5
310
100
AcDbEntity
  8
M3
  6
CONTINUOUS
370
25
 60
     1
 62
     8
100
AcDbLine
 10
122.469816
 20
5.805774
 11
122.469816
 21
4.335958
  0
LINE
  5
311
100
AcDbEntity
  8
M3
  6
CONTINUOUS
370
25
 60
     1
 62
     8
100
AcDbLine
 10
122.469816
 20
4.335958
 11
121.95538
 21
3.013124
  0
LINE
  5
312
100
AcDbEntity
  8
M3
  6
CONTINUOUS
370
25
 60
     1
 62
     8
100
AcDbLine
 10
121.95538
 20
3.013124
 11
121.440944
 21
2.131234
  0
LINE
  5
313
100
AcDbEntity
  8
M3
  6
CONTINUOUS
370
25
 60
     1
 62
     8
100
AcDbLine
 10
121.440944
 20
2.131234
 11
121.146982
 21
1.76378
  0
LINE
  5
314
100
AcDbEntity
  8
M3
  6
CONTINUOUS
370
25
 60
     1
 62
     8
100
AcDbLine
 10
116.149606
 20
8.230972
 11
116.44357
 21
7.790026
  0
LINE
  5
315
100
AcDbEntity
  8
M3
  6
CONTINUOUS
370
25
 60
     1
 62
     8
100
AcDbLine
 10
116.296588
 20
7.569554
 11
117.47244
 21
7.863518
  0
LINE
  5
316
100
AcDbEntity
  8
M3
  6
CONTINUOUS
370
25
 60
     1
 62
     8
100
AcDbLine
 10
117.47244
 20
7.863518
 11
118.501312
 21
7.863518
  0
LINE
  5
317
100
AcDbEntity
  8
M3
  6
CONTINUOUS
370
25
 60
     1
 62
     8
100
AcDbLine
 10
118.501312
 20
7.863518
 11
118.721784
 21
7.716536
  0
LINE
  5
318
100
AcDbEntity
  8
M3
  6
CONTINUOUS
370
25
 60
     1
 62
     8
100
AcDbLine
 10
118.721784
 20
7.716536
 11
118.868766
 21
7.128608
  0
LINE
  5
319
100
AcDbEntity
  8
M3
  6
CONTINUOUS
370
25
 60
     1
 62
     8
100
AcDbLine
 10
118.868766
 20
7.128608
 11
118.868766
 21
6.3937
  0
LINE
  5
31A
100
AcDbEntity
  8
M3
  6
CONTINUOUS
370
25
 60
     1
 62
     8
100
AcDbLine
 10
113.062992
 20
2.939632
 11
113.871392
 21
2.204724
  0
LINE
  5
31B
100
AcDbEntity
  8
M3
  6
CONTINUOUS
370
25
 60
     1
 62
     8
100
AcDbLine
 10
115.414698
 20
7.349082
 11
116.296588
 21
7.569554
  0
LINE
  5
31C
100
AcDbEntity
  8
M3
  6
CONTINUOUS
370
25
 60
     1
 62
     8
100
AcDbLine
 10
115.422236
 20
7.350966
 11
115.194226
 21
5.070866
  0
LINE
  5
31D
100
AcDbEntity
  8
M3
  6
CONTINUOUS
370
25
 60
     1
 62
     8
100
AcDbLine
 10
106.134518
 20
5.031624
 11
109.020998
 21
5.217848
  0
LINE
  5
31E
100
AcDbEntity
  8
M3
  6
CONTINUOUS
370
25
 60
     1
 62
     8
100
AcDbLine
 10
116.884514
 20
4.335958
 11
116.958006
 21
2.131234
  0
LINE
  5
31F
100
AcDbEntity
  8
M3
  6
CONTINUOUS
370
25
 60
     1
 62
     8
100
AcDbLine
 10
97.568616
 20
8.853558
 11
97.759648
 21
8.019964
  0
LINE
  5
320
100
AcDbEntity
  8
M3
  6
CONTINUOUS
370
25
 60
     1
 62
     8
100
AcDbLine
 10
97.39495
 20
7.082172
 11
97.273384
 21
6.09228
  0
LINE
  5
321
100
AcDbEntity
  8
M3
  6
CONTINUOUS
370
25
 60
     1
 62
     8
100
AcDbLine
 10
97.273384
 20
6.09228
 11
96.04036
 21
2.549508
  0
LINE
  5
322
100
AcDbEntity
  8
M3
  6
CONTINUOUS
370
25
 60
     1
 62
     8
100
AcDbLine
 10
97.759648
 20
8.019964
 11
97.933312
 21
2.810006
  0
LINE
  5
323
100
AcDbEntity
  8
M3
  6
CONTINUOUS
370
25
 60
     1
 62
     8
100
AcDbLine
 10
97.933312
 20
2.810006
 11
97.551248
 21
3.070504
  0
LINE
  5
324
100
AcDbEntity
  8
M3
  6
CONTINUOUS
370
25
 60
     1
 62
     8
100
AcDbLine
 10
99.027404
 20
6.73484
 11
99.079504
 21
4.876622
  0
LINE
  5
325
100
AcDbEntity
  8
M3
  6
CONTINUOUS
370
25
 60
     1
 62
     8
100
AcDbLine
 10
99.079504
 20
4.876622
 11
99.114236
 21
3.869364
  0
LINE
  5
326
100
AcDbEntity
  8
M3
  6
CONTINUOUS
370
25
 60
     1
 62
     8
100
AcDbLine
 10
99.114236
 20
3.869364
 11
99.04477
 21
3.348368
  0
LINE
  5
327
100
AcDbEntity
  8
M3
  6
CONTINUOUS
370
25
 60
     1
 62
     8
100
AcDbLine
 10
99.04477
 20
7.273204
 11
99.079504
 21
7.307936
  0
LINE
  5
328
100
AcDbEntity
  8
M3
  6
CONTINUOUS
370
25
 60
     1
 62
     8
100
AcDbLine
 10
99.079504
 20
7.307936
 11
99.687332
 21
7.776832
  0
LINE
  5
329
100
AcDbEntity
  8
M3
  6
CONTINUOUS
370
25
 60
     1
 62
     8
100
AcDbLine
 10
99.687332
 20
7.776832
 11
100.34726
 21
8.019964
  0
LINE
  5
32A
100
AcDbEntity
  8
M3
  6
CONTINUOUS
370
25
 60
     1
 62
     8
100
AcDbLine
 10
100.34726
 20
8.019964
 11
101.007188
 21
8.158896
  0
LINE
  5
32B
100
AcDbEntity
  8
M3
  6
CONTINUOUS
370
25
 60
     1
 62
     8
100
AcDbLine
 10
101.007188
 20
8.158896
 11
101.719216
 21
8.19363
  0
LINE
  5
32C
100
AcDbEntity
  8
M3
  6
CONTINUOUS
370
25
 60
     1
 62
     8
100
AcDbLine
 10
101.719216
 20
8.19363
 11
102.413876
 21
8.08943
  0
LINE
  5
32D
100
AcDbEntity
  8
M3
  6
CONTINUOUS
370
25
 60
     1
 62
     8
100
AcDbLine
 10
102.413876
 20
8.08943
 11
102.709108
 21
7.898398
  0
LINE
  5
32E
100
AcDbEntity
  8
M3
  6
CONTINUOUS
370
25
 60
     1
 62
     8
100
AcDbLine
 10
102.709108
 20
7.898398
 11
102.986972
 21
7.516334
  0
LINE
  5
32F
100
AcDbEntity
  8
M3
  6
CONTINUOUS
370
25
 60
     1
 62
     8
100
AcDbLine
 10
102.986972
 20
7.516334
 11
103.178004
 21
6.578542
  0
LINE
  5
330
100
AcDbEntity
  8
M3
  6
CONTINUOUS
370
25
 60
     1
 62
     8
100
AcDbLine
 10
103.178004
 20
6.578542
 11
103.490602
 21
4.824522
  0
LINE
  5
331
100
AcDbEntity
  8
M3
  6
CONTINUOUS
370
25
 60
     1
 62
     8
100
AcDbLine
 10
103.490602
 20
4.824522
 11
103.699
 21
2.497408
  0
LINE
  5
332
100
AcDbEntity
  8
M3
  6
CONTINUOUS
370
25
 60
     1
 62
     8
100
AcDbLine
 10
99.691674
 20
6.54905
 11
101.931956
 21
6.89638
  0
LINE
  5
333
100
AcDbEntity
  8
M3
  6
CONTINUOUS
370
25
 60
     1
 62
     8
100
AcDbLine
 10
100.05637
 20
5.342076
 11
101.002846
 21
5.463642
  0
LINE
  5
334
100
AcDbEntity
  8
M3
  6
CONTINUOUS
370
25
 60
     1
 62
     8
100
AcDbLine
 10
101.002846
 20
5.463642
 11
101.497792
 21
5.420226
  0
LINE
  5
335
100
AcDbEntity
  8
M3
  6
CONTINUOUS
370
25
 60
     1
 62
     8
100
AcDbLine
 10
101.871172
 20
5.333392
 11
102.044838
 21
5.177094
  0
LINE
  5
336
100
AcDbEntity
  8
M3
  6
CONTINUOUS
370
25
 60
     1
 62
     8
100
AcDbLine
 10
101.497792
 20
5.420226
 11
101.871172
 21
5.333392
  0
LINE
  5
337
100
AcDbEntity
  8
M3
  6
CONTINUOUS
370
25
 60
     1
 62
     8
100
AcDbLine
 10
102.044838
 20
5.177094
 11
102.15772
 21
4.994746
  0
LINE
  5
338
100
AcDbEntity
  8
M3
  6
CONTINUOUS
370
25
 60
     1
 62
     8
100
AcDbLine
 10
102.15772
 20
4.994746
 11
102.192454
 21
4.656098
  0
LINE
  5
339
100
AcDbEntity
  8
M3
  6
CONTINUOUS
370
25
 60
     1
 62
     8
100
AcDbLine
 10
102.192454
 20
4.656098
 11
102.122988
 21
4.256668
  0
LINE
  5
33A
100
AcDbEntity
  8
M3
  6
CONTINUOUS
370
25
 60
     1
 62
     8
100
AcDbLine
 10
100.000234
 20
5.334866
 11
100.252294
 21
3.929148
  0
LINE
  5
33B
100
AcDbEntity
  8
M3
  6
CONTINUOUS
370
25
 60
     1
 62
     8
100
AcDbLine
 10
100.252294
 20
3.929148
 11
102.064176
 21
4.008356
  0
LINE
  5
33C
100
AcDbEntity
  8
M3
  6
CONTINUOUS
370
25
 60
     1
 62
     8
100
AcDbLine
 10
102.122988
 20
4.256668
 11
102.064176
 21
4.008356
  0
LINE
  5
33D
100
AcDbEntity
  8
M3
  6
CONTINUOUS
370
25
 60
     1
 62
     8
100
AcDbLine
 10
103.699
 20
2.497408
 11
103.565006
 21
2.569558
  0
LINE
  5
33E
100
AcDbEntity
  8
M3
  6
CONTINUOUS
370
25
 60
     1
 62
     8
100
AcDbLine
 10
105.467562
 20
7.79161
 11
105.597676
 21
6.056774
  0
LINE
  5
33F
100
AcDbEntity
  8
M3
  6
CONTINUOUS
370
25
 60
     1
 62
     8
100
AcDbLine
 10
105.597676
 20
6.056774
 11
105.539848
 21
4.480966
  0
LINE
  5
340
100
AcDbEntity
  8
M3
  6
CONTINUOUS
370
25
 60
     1
 62
     8
100
AcDbLine
 10
105.539848
 20
4.480966
 11
105.467562
 21
3.98943
  0
LINE
  5
341
100
AcDbEntity
  8
M3
  6
CONTINUOUS
370
25
 60
     1
 62
     8
100
AcDbLine
 10
105.756702
 20
6.64951
 11
107.419252
 21
6.909736
  0
LINE
  5
342
100
AcDbEntity
  8
M3
  6
CONTINUOUS
370
25
 60
     1
 62
     8
100
AcDbLine
 10
107.419252
 20
6.909736
 11
109.023974
 21
7.083218
  0
LINE
  5
343
100
AcDbEntity
  8
M3
  6
CONTINUOUS
370
25
 60
     1
 62
     8
100
AcDbLine
 10
109.023974
 20
7.083218
 11
109.37094
 21
7.12659
  0
LINE
  5
344
100
AcDbEntity
  8
M3
  6
CONTINUOUS
370
25
 60
     1
 62
     8
100
AcDbLine
 10
107.404794
 20
8.268688
 11
107.534908
 21
5.015874
  0
LINE
  5
345
100
AcDbEntity
  8
M3
  6
CONTINUOUS
370
25
 60
     1
 62
     8
100
AcDbLine
 10
107.534908
 20
5.015874
 11
107.66502
 21
2.905158
  0
LINE
  5
346
100
AcDbEntity
  8
M3
  6
CONTINUOUS
370
25
 60
     1
 62
     8
100
AcDbLine
 10
105.771158
 20
2.818418
 11
107.766218
 21
2.905158
  0
LINE
  5
347
100
AcDbEntity
  8
M3
  6
CONTINUOUS
370
25
 60
     1
 62
     8
100
AcDbLine
 10
107.766218
 20
2.905158
 11
109.89139
 21
2.962986
  0
LINE
  5
348
100
AcDbEntity
  8
M3
  6
CONTINUOUS
370
25
 60
     1
 62
     8
100
AcDbLine
 10
113.520074
 20
7.558036
 11
112.785672
 21
5.99344
  0
LINE
  5
349
100
AcDbEntity
  8
M3
  6
CONTINUOUS
370
25
 60
     1
 62
     8
100
AcDbLine
 10
112.785672
 20
5.99344
 11
112.610054
 21
5.131316
  0
LINE
  5
34A
100
AcDbEntity
  8
M3
  6
CONTINUOUS
370
25
 60
     1
 62
     8
100
AcDbLine
 10
112.610054
 20
5.131316
 11
112.610054
 21
4.189366
  0
LINE
  5
34B
100
AcDbEntity
  8
M3
  6
CONTINUOUS
370
25
 60
     1
 62
     8
100
AcDbLine
 10
112.610054
 20
4.189366
 11
112.673914
 21
3.550756
  0
LINE
  5
34C
100
AcDbEntity
  8
M3
  6
CONTINUOUS
370
25
 60
     1
 62
     8
100
AcDbLine
 10
112.673914
 20
3.550756
 11
113.05708
 21
2.960042
  0
LINE
  5
34D
100
AcDbEntity
  8
M3
  6
CONTINUOUS
370
25
 60
     1
 62
     8
100
AcDbLine
 10
115.75521
 20
7.010998
 11
117.958416
 21
7.330302
  0
LINE
  5
34E
100
AcDbEntity
  8
M3
  6
CONTINUOUS
370
25
 60
     1
 62
     8
100
AcDbLine
 10
115.978724
 20
6.100978
 11
116.106446
 21
5.574124
  0
LINE
  5
34F
100
AcDbEntity
  8
M3
  6
CONTINUOUS
370
25
 60
     1
 62
     8
100
AcDbLine
 10
116.106446
 20
6.212734
 11
116.713126
 21
6.452214
  0
LINE
  5
350
100
AcDbEntity
  8
M3
  6
CONTINUOUS
370
25
 60
     1
 62
     8
100
AcDbLine
 10
116.713126
 20
6.452214
 11
117.192082
 21
6.548006
  0
LINE
  5
351
100
AcDbEntity
  8
M3
  6
CONTINUOUS
370
25
 60
     1
 62
     8
100
AcDbLine
 10
117.192082
 20
6.548006
 11
117.575248
 21
6.56397
  0
LINE
  5
352
100
AcDbEntity
  8
M3
  6
CONTINUOUS
370
25
 60
     1
 62
     8
100
AcDbLine
 10
117.575248
 20
6.56397
 11
117.687006
 21
6.50011
  0
LINE
  5
353
100
AcDbEntity
  8
M3
  6
CONTINUOUS
370
25
 60
     1
 62
     8
100
AcDbLine
 10
116.106446
 20
5.510264
 11
117.734902
 21
5.89343
  0
LINE
  5
354
100
AcDbEntity
  8
M3
  6
CONTINUOUS
370
25
 60
     1
 62
     8
100
AcDbLine
 10
117.798762
 20
6.276596
 11
117.766832
 21
5.829568
  0
LINE
  5
355
100
AcDbEntity
  8
M3
  6
CONTINUOUS
370
25
 60
     1
 62
     8
100
AcDbLine
 10
117.687006
 20
6.50011
 11
117.798762
 21
6.276596
  0
LINE
  5
356
100
AcDbEntity
  8
M3
  6
CONTINUOUS
370
25
 60
     1
 62
     8
100
AcDbLine
 10
115.615514
 20
4.213914
 11
115.767184
 21
3.14424
  0
LINE
  5
357
100
AcDbEntity
  8
M3
  6
CONTINUOUS
370
25
 60
     1
 62
     8
100
AcDbLine
 10
115.767184
 20
3.14424
 11
115.862976
 21
2.042638
  0
LINE
  5
358
100
AcDbEntity
  8
M3
  6
CONTINUOUS
370
25
 60
     1
 62
     8
100
AcDbLine
 10
116.00708
 20
1.978802
 11
118.868766
 21
2.204724
  0
LINE
  5
359
100
AcDbEntity
  8
M3
  6
CONTINUOUS
370
25
 60
     1
 62
     8
100
AcDbLine
 10
115.603712
 20
4.29714
 11
116.97256
 21
4.636992
  0
LINE
  5
35A
100
AcDbEntity
  8
M3
  6
CONTINUOUS
370
25
 60
     1
 62
     8
100
AcDbLine
 10
116.97256
 20
4.636992
 11
117.754858
 21
4.700854
  0
LINE
  5
35B
100
AcDbEntity
  8
M3
  6
CONTINUOUS
370
25
 60
     1
 62
     8
100
AcDbLine
 10
118.385486
 20
4.668922
 11
118.664878
 21
4.50927
  0
LINE
  5
35C
100
AcDbEntity
  8
M3
  6
CONTINUOUS
370
25
 60
     1
 62
     8
100
AcDbLine
 10
118.664878
 20
4.50927
 11
118.904356
 21
4.174
  0
LINE
  5
35D
100
AcDbEntity
  8
M3
  6
CONTINUOUS
370
25
 60
     1
 62
     8
100
AcDbLine
 10
118.904356
 20
4.174
 11
118.968218
 21
3.695042
  0
LINE
  5
35E
100
AcDbEntity
  8
M3
  6
CONTINUOUS
370
25
 60
     1
 62
     8
100
AcDbLine
 10
118.968218
 20
3.695042
 11
119.000148
 21
3.327842
  0
LINE
  5
35F
100
AcDbEntity
  8
M3
  6
CONTINUOUS
370
25
 60
     1
 62
     8
100
AcDbLine
 10
115.99868
 20
3.192136
 11
118.609
 21
3.59925
  0
LINE
  5
360
100
AcDbEntity
  8
M3
  6
CONTINUOUS
370
25
 60
     1
 62
     8
100
AcDbLine
 10
117.754858
 20
4.700854
 11
118.385486
 21
4.668922
  0
LINE
  5
361
100
AcDbEntity
  8
M3
  6
CONTINUOUS
370
25
 60
     1
 62
     8
100
AcDbLine
 10
119.000148
 20
3.327842
 11
119.048044
 21
2.218256
  0
LINE
  5
362
100
AcDbEntity
  8
M3
  6
CONTINUOUS
370
25
 60
     1
 62
     8
100
AcDbLine
 10
134.128608
 20
8.304462
 11
138.097112
 21
9.186352
  0
LINE
  5
363
100
AcDbEntity
  8
M3
  6
CONTINUOUS
370
25
 60
     1
 62
     8
100
AcDbLine
 10
135.15748
 20
9.553806
 11
135.451444
 21
7.496062
  0
LINE
  5
364
100
AcDbEntity
  8
M3
  6
CONTINUOUS
370
25
 60
     1
 62
     8
100
AcDbLine
 10
137.288714
 20
10.141732
 11
136.406824
 21
7.937008
  0
LINE
  5
365
100
AcDbEntity
  8
M3
  6
CONTINUOUS
370
25
 60
     1
 62
     8
100
AcDbLine
 10
133.908136
 20
7.128608
 11
136.03937
 21
7.569554
  0
LINE
  5
366
100
AcDbEntity
  8
M3
  6
CONTINUOUS
370
25
 60
     1
 62
     8
100
AcDbLine
 10
134.2021
 20
7.27559
 11
134.128608
 21
4.188976
  0
LINE
  5
367
100
AcDbEntity
  8
M3
  6
CONTINUOUS
370
25
 60
     1
 62
     8
100
AcDbLine
 10
134.128608
 20
4.188976
 11
136.480314
 21
4.629922
  0
LINE
  5
368
100
AcDbEntity
  8
M3
  6
CONTINUOUS
370
25
 60
     1
 62
     8
100
AcDbLine
 10
134.128608
 20
6.173228
 11
136.480314
 21
6.540682
  0
LINE
  5
369
100
AcDbEntity
  8
M3
  6
CONTINUOUS
370
25
 60
     1
 62
     8
100
AcDbLine
 10
136.480314
 20
6.540682
 11
136.186352
 21
5.732284
  0
LINE
  5
36A
100
AcDbEntity
  8
M3
  6
CONTINUOUS
370
25
 60
     1
 62
     8
100
AcDbLine
 10
136.186352
 20
5.732284
 11
134.128608
 21
5.291338
  0
LINE
  5
36B
100
AcDbEntity
  8
M3
  6
CONTINUOUS
370
25
 60
     1
 62
     8
100
AcDbLine
 10
135.451444
 20
7.569554
 11
135.230972
 21
6.540682
  0
LINE
  5
36C
100
AcDbEntity
  8
M3
  6
CONTINUOUS
370
25
 60
     1
 62
     8
100
AcDbLine
 10
135.524934
 20
5.658792
 11
135.230972
 21
4.55643
  0
LINE
  5
36D
100
AcDbEntity
  8
M3
  6
CONTINUOUS
370
25
 60
     1
 62
     8
100
AcDbLine
 10
136.99475
 20
7.937008
 11
136.774278
 21
5.585302
  0
LINE
  5
36E
100
AcDbEntity
  8
M3
  6
CONTINUOUS
370
25
 60
     1
 62
     8
100
AcDbLine
 10
136.92126
 20
7.422572
 11
139.272966
 21
7.790026
  0
LINE
  5
36F
100
AcDbEntity
  8
M3
  6
CONTINUOUS
370
25
 60
     1
 62
     8
100
AcDbLine
 10
137.288714
 20
5.511812
 11
138.83202
 21
5.658792
  0
LINE
  5
370
100
AcDbEntity
  8
M3
  6
CONTINUOUS
370
25
 60
     1
 62
     8
100
AcDbLine
 10
135.230972
 20
1.690288
 11
134.790026
 21
3.454068
  0
LINE
  5
371
100
AcDbEntity
  8
M3
  6
CONTINUOUS
370
25
 60
     1
 62
     8
100
AcDbLine
 10
134.790026
 20
3.454068
 11
138.611548
 21
4.262468
  0
LINE
  5
372
100
AcDbEntity
  8
M3
  6
CONTINUOUS
370
25
 60
     1
 62
     8
100
AcDbLine
 10
138.611548
 20
4.262468
 11
138.170604
 21
1.616798
  0
LINE
  5
373
100
AcDbEntity
  8
M3
  6
CONTINUOUS
370
25
 60
     1
 62
     8
100
AcDbLine
 10
133.614174
 20
1.469816
 11
140.007874
 21
1.984252
  0
LINE
  5
374
100
AcDbEntity
  8
M3
  6
CONTINUOUS
370
25
 60
     1
 62
     8
100
AcDbLine
 10
135.745406
 20
3.821522
 11
135.96588
 21
2.131234
  0
LINE
  5
375
100
AcDbEntity
  8
M3
  6
CONTINUOUS
370
25
 60
     1
 62
     8
100
AcDbLine
 10
137.141732
 20
4.115486
 11
137.141732
 21
3.968504
  0
LINE
  5
376
100
AcDbEntity
  8
M3
  6
CONTINUOUS
370
25
 60
     1
 62
     8
100
AcDbLine
 10
137.141732
 20
3.968504
 11
137.215224
 21
2.71916
  0
LINE
  5
377
100
AcDbEntity
  8
M3
  6
CONTINUOUS
370
25
 60
     1
 62
     8
100
AcDbLine
 10
137.215224
 20
2.71916
 11
136.92126
 21
1.76378
  0
LINE
  5
378
100
AcDbEntity
  8
M3
  6
CONTINUOUS
370
25
 60
     1
 62
     8
100
AcDbLine
 10
151.839896
 20
8.892388
 11
148.973754
 21
8.598426
  0
LINE
  5
379
100
AcDbEntity
  8
M3
  6
CONTINUOUS
370
25
 60
     1
 62
     8
100
AcDbLine
 10
148.973754
 20
8.598426
 11
147.7979
 21
3.821522
  0
LINE
  5
37A
100
AcDbEntity
  8
M3
  6
CONTINUOUS
370
25
 60
     1
 62
     8
100
AcDbLine
 10
147.7979
 20
3.821522
 11
146.695538
 21
1.616798
  0
LINE
  5
37B
100
AcDbEntity
  8
M3
  6
CONTINUOUS
370
25
 60
     1
 62
     8
100
AcDbLine
 10
150.590552
 20
8.524934
 11
150.44357
 21
7.27559
  0
LINE
  5
37C
100
AcDbEntity
  8
M3
  6
CONTINUOUS
370
25
 60
     1
 62
     8
100
AcDbLine
 10
148.900262
 20
4.923884
 11
148.6063
 21
6.687664
  0
LINE
  5
37D
100
AcDbEntity
  8
M3
  6
CONTINUOUS
370
25
 60
     1
 62
     8
100
AcDbLine
 10
148.6063
 20
6.687664
 11
152.501312
 21
7.349082
  0
LINE
  5
37E
100
AcDbEntity
  8
M3
  6
CONTINUOUS
370
25
 60
     1
 62
     8
100
AcDbLine
 10
152.501312
 20
7.349082
 11
152.28084
 21
5.291338
  0
LINE
  5
37F
100
AcDbEntity
  8
M3
  6
CONTINUOUS
370
25
 60
     1
 62
     8
100
AcDbLine
 10
152.28084
 20
5.291338
 11
148.973754
 21
4.997376
  0
LINE
  5
380
100
AcDbEntity
  8
M3
  6
CONTINUOUS
370
25
 60
     1
 62
     8
100
AcDbLine
 10
148.75328
 20
6.026246
 11
151.986876
 21
6.3937
  0
LINE
  5
381
100
AcDbEntity
  8
M3
  6
CONTINUOUS
370
25
 60
     1
 62
     8
100
AcDbLine
 10
150.737532
 20
4.923884
 11
151.104986
 21
0.587926
  0
LINE
  5
382
100
AcDbEntity
  8
M3
  6
CONTINUOUS
370
25
 60
     1
 62
     8
100
AcDbLine
 10
151.104986
 20
0.587926
 11
150.44357
 21
0.95538
  0
LINE
  5
383
100
AcDbEntity
  8
M3
  6
CONTINUOUS
370
25
 60
     1
 62
     8
100
AcDbLine
 10
148.973754
 20
3.821522
 11
148.900262
 21
2.278216
  0
LINE
  5
384
100
AcDbEntity
  8
M3
  6
CONTINUOUS
370
25
 60
     1
 62
     8
100
AcDbLine
 10
148.900262
 20
2.278216
 11
148.459318
 21
1.028872
  0
LINE
  5
385
100
AcDbEntity
  8
M3
  6
CONTINUOUS
370
25
 60
     1
 62
     8
100
AcDbLine
 10
152.721784
 20
3.748032
 11
153.750656
 21
1.984252
  0
LINE
  5
386
100
AcDbEntity
  8
M3
  6
CONTINUOUS
370
25
 60
     1
 62
     8
100
AcDbLine
 10
153.750656
 20
1.984252
 11
153.750656
 21
1.396326
  0
LINE
  5
387
100
AcDbEntity
  8
M3
  6
CONTINUOUS
370
25
 60
     1
 62
     8
100
AcDbLine
 10
168.128608
 20
8.304462
 11
172.097112
 21
9.186352
  0
LINE
  5
388
100
AcDbEntity
  8
M3
  6
CONTINUOUS
370
25
 60
     1
 62
     8
100
AcDbLine
 10
169.15748
 20
9.553806
 11
169.451444
 21
7.496062
  0
LINE
  5
389
100
AcDbEntity
  8
M3
  6
CONTINUOUS
370
25
 60
     1
 62
     8
100
AcDbLine
 10
171.288714
 20
10.141732
 11
170.406824
 21
7.937008
  0
LINE
  5
38A
100
AcDbEntity
  8
M3
  6
CONTINUOUS
370
25
 60
     1
 62
     8
100
AcDbLine
 10
167.908136
 20
7.128608
 11
170.03937
 21
7.569554
  0
LINE
  5
38B
100
AcDbEntity
  8
M3
  6
CONTINUOUS
370
25
 60
     1
 62
     8
100
AcDbLine
 10
168.2021
 20
7.27559
 11
168.128608
 21
4.188976
  0
LINE
  5
38C
100
AcDbEntity
  8
M3
  6
CONTINUOUS
370
25
 60
     1
 62
     8
100
AcDbLine
 10
168.128608
 20
4.188976
 11
170.480314
 21
4.629922
  0
LINE
  5
38D
100
AcDbEntity
  8
M3
  6
CONTINUOUS
370
25
 60
     1
 62
     8
100
AcDbLine
 10
168.128608
 20
6.173228
 11
170.480314
 21
6.540682
  0
LINE
  5
38E
100
AcDbEntity
  8
M3
  6
CONTINUOUS
370
25
 60
     1
 62
     8
100
AcDbLine
 10
170.480314
 20
6.540682
 11
170.186352
 21
5.732284
  0
LINE
  5
38F
100
AcDbEntity
  8
M3
  6
CONTINUOUS
370
25
 60
     1
 62
     8
100
AcDbLine
 10
170.186352
 20
5.732284
 11
168.128608
 21
5.291338
  0
LINE
  5
390
100
AcDbEntity
  8
M3
  6
CONTINUOUS
370
25
 60
     1
 62
     8
100
AcDbLine
 10
169.451444
 20
7.569554
 11
169.230972
 21
6.540682
  0
LINE
  5
391
100
AcDbEntity
  8
M3
  6
CONTINUOUS
370
25
 60
     1
 62
     8
100
AcDbLine
 10
169.524934
 20
5.658792
 11
169.230972
 21
4.55643
  0
LINE
  5
392
100
AcDbEntity
  8
M3
  6
CONTINUOUS
370
25
 60
     1
 62
     8
100
AcDbLine
 10
170.99475
 20
7.937008
 11
170.774278
 21
5.585302
  0
LINE
  5
393
100
AcDbEntity
  8
M3
  6
CONTINUOUS
370
25
 60
     1
 62
     8
100
AcDbLine
 10
170.92126
 20
7.422572
 11
173.272966
 21
7.790026
  0
LINE
  5
394
100
AcDbEntity
  8
M3
  6
CONTINUOUS
370
25
 60
     1
 62
     8
100
AcDbLine
 10
171.288714
 20
5.511812
 11
172.83202
 21
5.658792
  0
LINE
  5
395
100
AcDbEntity
  8
M3
  6
CONTINUOUS
370
25
 60
     1
 62
     8
100
AcDbLine
 10
169.230972
 20
1.690288
 11
168.790026
 21
3.454068
  0
LINE
  5
396
100
AcDbEntity
  8
M3
  6
CONTINUOUS
370
25
 60
     1
 62
     8
100
AcDbLine
 10
168.790026
 20
3.454068
 11
172.611548
 21
4.262468
  0
LINE
  5
397
100
AcDbEntity
  8
M3
  6
CONTINUOUS
370
25
 60
     1
 62
     8
100
AcDbLine
 10
172.611548
 20
4.262468
 11
172.170604
 21
1.616798
  0
LINE
  5
398
100
AcDbEntity
  8
M3
  6
CONTINUOUS
370
25
 60
     1
 62
     8
100
AcDbLine
 10
167.614174
 20
1.469816
 11
174.007874
 21
1.984252
  0
LINE
  5
399
100
AcDbEntity
  8
M3
  6
CONTINUOUS
370
25
 60
     1
 62
     8
100
AcDbLine
 10
169.745406
 20
3.821522
 11
169.96588
 21
2.131234
  0
LINE
  5
39A
100
AcDbEntity
  8
M3
  6
CONTINUOUS
370
25
 60
     1
 62
     8
100
AcDbLine
 10
171.141732
 20
4.115486
 11
171.141732
 21
3.968504
  0
LINE
  5
39B
100
AcDbEntity
  8
M3
  6
CONTINUOUS
370
25
 60
     1
 62
     8
100
AcDbLine
 10
171.141732
 20
3.968504
 11
171.215224
 21
2.71916
  0
LINE
  5
39C
100
AcDbEntity
  8
M3
  6
CONTINUOUS
370
25
 60
     1
 62
     8
100
AcDbLine
 10
171.215224
 20
2.71916
 11
170.92126
 21
1.76378
  0
LINE
  5
39D
100
AcDbEntity
  8
M3
  6
CONTINUOUS
370
25
 60
     1
 62
     8
100
AcDbLine
 10
185.839896
 20
8.892388
 11
182.973754
 21
8.598426
  0
LINE
  5
39E
100
AcDbEntity
  8
M3
  6
CONTINUOUS
370
25
 60
     1
 62
     8
100
AcDbLine
 10
182.973754
 20
8.598426
 11
181.7979
 21
3.821522
  0
LINE
  5
39F
100
AcDbEntity
  8
M3
  6
CONTINUOUS
370
25
 60
     1
 62
     8
100
AcDbLine
 10
181.7979
 20
3.821522
 11
180.695538
 21
1.616798
  0
LINE
  5
3A0
100
AcDbEntity
  8
M3
  6
CONTINUOUS
370
25
 60
     1
 62
     8
100
AcDbLine
 10
184.590552
 20
8.524934
 11
184.44357
 21
7.27559
  0
LINE
  5
3A1
100
AcDbEntity
  8
M3
  6
CONTINUOUS
370
25
 60
     1
 62
     8
100
AcDbLine
 10
182.900262
 20
4.923884
 11
182.6063
 21
6.687664
  0
LINE
  5
3A2
100
AcDbEntity
  8
M3
  6
CONTINUOUS
370
25
 60
     1
 62
     8
100
AcDbLine
 10
182.6063
 20
6.687664
 11
186.501312
 21
7.349082
  0
LINE
  5
3A3
100
AcDbEntity
  8
M3
  6
CONTINUOUS
370
25
 60
     1
 62
     8
100
AcDbLine
 10
186.501312
 20
7.349082
 11
186.28084
 21
5.291338
  0
LINE
  5
3A4
100
AcDbEntity
  8
M3
  6
CONTINUOUS
370
25
 60
     1
 62
     8
100
AcDbLine
 10
186.28084
 20
5.291338
 11
182.973754
 21
4.997376
  0
LINE
  5
3A5
100
AcDbEntity
  8
M3
  6
CONTINUOUS
370
25
 60
     1
 62
     8
100
AcDbLine
 10
182.75328
 20
6.026246
 11
185.986876
 21
6.3937
  0
LINE
  5
3A6
100
AcDbEntity
  8
M3
  6
CONTINUOUS
370
25
 60
     1
 62
     8
100
AcDbLine
 10
184.737532
 20
4.923884
 11
185.104986
 21
0.587926
  0
LINE
  5
3A7
100
AcDbEntity
  8
M3
  6
CONTINUOUS
370
25
 60
     1
 62
     8
100
AcDbLine
 10
185.104986
 20
0.587926
 11
184.44357
 21
0.95538
  0
LINE
  5
3A8
100
AcDbEntity
  8
M3
  6
CONTINUOUS
370
25
 60
     1
 62
     8
100
AcDbLine
 10
182.973754
 20
3.821522
 11
182.900262
 21
2.278216
  0
LINE
  5
3A9
100
AcDbEntity
  8
M3
  6
CONTINUOUS
370
25
 60
     1
 62
     8
100
AcDbLine
 10
182.900262
 20
2.278216
 11
182.459318
 21
1.028872
  0
LINE
  5
3AA
100
AcDbEntity
  8
M3
  6
CONTINUOUS
370
25
 60
     1
 62
     8
100
AcDbLine
 10
186.721784
 20
3.748032
 11
187.750656
 21
1.984252
  0
LINE
  5
3AB
100
AcDbEntity
  8
M3
  6
CONTINUOUS
370
25
 60
     1
 62
     8
100
AcDbLine
 10
187.750656
 20
1.984252
 11
187.750656
 21
1.396326
  0
LINE
  5
3AC
100
AcDbEntity
  8
M4
  6
CONTINUOUS
370
13
 60
     1
100
AcDbLine
 10
362.639282
 20
350.997956
 11
364.639282
 21
350.997956
  0
ENDSEC
  0
SECTION
  2
OBJECTS
  0
DICTIONARY
  5
C
100
AcDbDictionary
  3
ACAD_GROUP
350
D
  3
ACAD_MLINESTYLE
350
E
  0
DICTIONARY
  5
D
102
{ACAD_REACTORS
330
C
102
}
100
AcDbDictionary
  0
DICTIONARY
  5
E
102
{ACAD_REACTORS
330
C
102
}
100
AcDbDictionary
  3
STANDARD
350
13
  0
MLINESTYLE
  5
13
102
{ACAD_REACTORS
330
E
102
}
100
AcDbMlineStyle
  2
STANDARD
 70
     0
  3

 62
     0
 51
90.0
 52
90.0
 71
     2
 49
0.5
 62
   256
  6
BYLAYER
 49
-0.5
 62
   256
  6
BYLAYER
  0
ENDSEC
  0
EOF
