  0
SECTION
  2
HEADER
  9
$ACADVER
  1
AC1015
  9
$INSBASE
 10
0.000000
 20
0.000000
 30
0.0
  9
$VIEWCTR
 10
7.531722
 20
4.5
  9
$VIEWSIZE
 40
9.0
  9
$SNAPMODE
 70
     0
  9
$SNAPUNIT
 10
1.0
 20
1.0
  9
$SNAPBASE
 10
0.0
 20
0.0
  9
$SNAPANG
 50
0.0
  9
$SNAPSTYLE
 70
     0
  9
$SNAPISOPAIR
 70
     0
  9
$GRIDMODE
 70
     0
  9
$GRIDUNIT
 10
0.0
 20
0.0
  9
$ORTHOMODE
 70
     0
  9
$REGENMODE
 70
     1
  9
$FILLMODE
 70
     1
  9
$QTEXTMODE
 70
     0
  9
$DRAGMODE
 70
     2
  9
$LTSCALE
  40
     1.000000
  9
$OSMODE
 70
     0
  9
$ATTMODE
 70
     1
  9
$TEXTSIZE
 40
0.2
  9
$TRACEWID
 40
0.05
  9
$TEXTSTYLE
  7
STANDARD
  9
$CELTYPE
  6
BYLAYER
  9
$CECOLOR
 62
   256
  9
$DIMSCALE
 40
1.0
  9
$DIMASZ
 40
0.18
  9
$DIMEXO
 40
0.0625
  9
$DIMDLI
 40
0.38
  9
$DIMRND
 40
0.0
  9
$DIMDLE
 40
0.0
  9
$DIMEXE
 40
0.18
  9
$DIMTP
 40
0.0
  9
$DIMTM
 40
0.0
  9
$DIMTXT
 40
0.18
  9
$DIMCEN
 40
0.09
  9
$DIMTSZ
 40
0.0
  9
$DIMADEC
 70
     0
  9
$DIMALTRND
 40
0.000000
  9
$DIMAZIN
 70
     0
  9
$DIMDSEP
 70
    46
  9
$DIMATFIT
 70
     3
  9
$DIMFRAC
 70
     0
  9
$DIMLDRBLK
  1

  9
$DIMLUNIT
 70
     2
  9
$DIMLWD
 70
   13
  9
$DIMLWE
 70
   13
  9
$DIMTMOVE
 70
     0
  9
$CELWEIGHT
370
    25
  9
$LWDISPLAY
290
    1
  9
$EXTNAMES
290
    1
  9
$DIMTOL
 70
     0
  9
$DIMLIM
 70
     0
  9
$DIMTIH
 70
     1
  9
$DIMTOH
 70
     1
  9
$DIMSE1
 70
     0
  9
$DIMSE2
 70
     0
  9
$DIMTAD
 70
     0
  9
$DIMZIN
 70
     0
  9
$DIMBLK
  1

  9
$LUNITS
 70
     2
  9
$LUPREC
 70
     4
  9
$AXISMODE
 70
     0
  9
$AXISUNIT
 10
0.0
 20
0.0
  9
$SKETCHINC
 40
0.1
  9
$FILLETRAD
 40
0.0
  9
$AUNITS
 70
     0
  9
$AUPREC
 70
     0
  9
$MENU
  1
ACAD
  9
$ELEVATION
 40
0.0
  9
$THICKNESS
 40
0.0
  9
$VIEWDIR
 10
0.0
 20
0.0
 30
1.0
  9
$LIMCHECK
 70
     0
  9
$BLIPMODE
 70
     1
  9
$CHAMFERA
 40
0.0
  9
$CHAMFERB
 40
0.0
  9
$FASTZOOM
 70
     1
  9
$SKPOLY
 70
     0
  9
$TDCREATE
 40
0000000.0000000000
  9
$TDUPDATE
 40
0000000.0000000000
  9
$TDINDWG
 40
0.0000000000
  9
$TDUSRTIMER
 40
0.0000000000
  9
$USRTIMER
 70
     1
  9
$ANGBASE
 50
0.0
  9
$ANGDIR
 70
     0
  9
$PDMODE
 70
     0
  9
$PDSIZE
 40
0.0
  9
$PLINEWID
 40
0.0
  9
$COORDS
 70
     0
  9
$USERI1
 70
     0
  9
$USERI2
 70
     0
  9
$USERI3
 70
     0
  9
$USERI4
 70
     0
  9
$USERI5
 70
     0
  9
$USERR1
 40
0.0
  9
$USERR2
 40
0.0
  9
$USERR3
 40
0.0
  9
$USERR4
 40
0.0
  9
$USERR5
 40
0.0
  9
$CLAYER
  8
M1
  9
$EXTMIN
 10
0.0
 20
0.0
  9
$EXTMAX
 10
841.0
 20
594.0
  9
$LIMMIN
 10
0.0
 20
0.0
  9
$LIMMAX
 10
841.0
 20
594.0
  9
$HANDSEED
  5
177
  0
ENDSEC
  0
SECTION
  2
CLASSES
  0
CLASS
  1
DIMASSOC
  2
AcDbDimAssoc
  3
"AcDbDimAssoc|Product Desc:     AcDim ARX App For Dimension|Company:          Autodesk, Inc.|WEB Address:      www.autodesk.com"
 90
        0
280
     0
281
     0
  0
ENDSEC
  0
SECTION
  2
TABLES
  0
TABLE
  2
VPORT
  5
8
100
AcDbSymbolTable
 70
     2
  0
VPORT
  5
14
100
AcDbSymbolTableRecord
100
AcDbViewportTableRecord
  2
*ACTIVE
 70
     0
 10
0.0
 20
0.0
 11
1.0
 21
1.0
 12
484.0
 22
297.0
 13
0.0
 23
0.0
 14
1.0
 24
1.0
 15
0.0
 25
0.0
 16
0.0
 26
0.0
 36
1.0
 17
0.0
 27
0.0
 37
0.0
 40
594.0
 41
2.0
 42
50.0
 43
0.0
 44
0.0
 50
0.0
 51
0.0
 71
     0
 72
   100
 73
     1
 74
     1
 75
     0
 76
     0
 77
     0
 78
     0
  0
ENDTAB
  0
TABLE
  2
LTYPE
  5
5
100
AcDbSymbolTable
 70
     5
  0
LTYPE
  5
15
100
AcDbSymbolTableRecord
100
AcDbLinetypeTableRecord
  2
BYBLOCK
 70
     0
  3

 72
    65
 73
     0
 40
0.0
  0
LTYPE
  5
16
100
AcDbSymbolTableRecord
100
AcDbLinetypeTableRecord
  2
BYLAYER
 70
     0
  3

 72
    65
 73
     0
 40
0.0
  0
LTYPE
  5
17
100
AcDbSymbolTableRecord
100
AcDbLinetypeTableRecord
  2
CONTINUOUS
 70
    64
  3
Solid line
 72
    65
 73
     0
 40
0.0
  0
LTYPE
  5
18
100
AcDbSymbolTableRecord
100
AcDbLinetypeTableRecord
  2
DASHED
 70
    64
  3
__ __ __ __ __ __ __ __ __ __ __ __ __ __ __ __
 72
    65
 73
     2
 40
0.75
 49
0.5
 74
     0
 49
-0.25
 74
     0
  0
LTYPE
  5
19
100
AcDbSymbolTableRecord
100
AcDbLinetypeTableRecord
  2
DASHDOT
 70
    64
  3
__ . __ . __ . __ . __ . __ . __ . __ . __ . __
 72
    65
 73
     4
 40
1.0
 49
0.5
 74
     0
 49
-0.25
 74
     0
 49
0.0
 74
     0
 49
-0.25
 74
     0
  0
LTYPE
  5
1A
100
AcDbSymbolTableRecord
100
AcDbLinetypeTableRecord
  2
DIVIDE
 70
    64
  3
____ . . ____ . . ____ . . ____ . . ____ . . __
 72
    65
 73
     6
 40
1.25
 49
0.5
 74
     0
 49
-0.25
 74
     0
 49
0.0
 74
     0
 49
-0.25
 74
     0
 49
0.0
 74
     0
 49
-0.25
 74
     0
  0
LTYPE
  5
1B
100
AcDbSymbolTableRecord
100
AcDbLinetypeTableRecord
  2
DOT
 70
    64
  3
. . . . . . . . . . . . . . . . . . . . . . . .
 72
    65
 73
     2
 40
0.25
 49
0.0
 74
     0
 49
-0.25
 74
     0
  0
ENDTAB
  0
TABLE
  2
LAYER
  5
2
100
AcDbSymbolTable
 70
   102
  0
LAYER
  5
F
100
AcDbSymbolTableRecord
100
AcDbLayerTableRecord
  2
0
 70
     0
 62
     7
  6
CONTINUOUS
370
     -3
390
F
  0
LAYER
  5
1C
100
AcDbSymbolTableRecord
100
AcDbLayerTableRecord
  2
M1
 70
     0
 62
     3
  6
CONTINUOUS
370
     -3
390
F
  0
LAYER
  5
1D
100
AcDbSymbolTableRecord
100
AcDbLayerTableRecord
  2
M3
 70
     0
 62
     7
  6
CONTINUOUS
370
     -3
390
F
  0
LAYER
  5
1E
100
AcDbSymbolTableRecord
100
AcDbLayerTableRecord
  2
M6
 70
     0
 62
     7
  6
CONTINUOUS
370
     -3
390
F
  0
ENDTAB
  0
TABLE
  2
STYLE
  5
3
100
AcDbSymbolTable
 70
     2
  0
STYLE
  5
10
100
AcDbSymbolTableRecord
100
AcDbTextStyleTableRecord
  2
STANDARD
 70
     0
 40
0.0
 41
1.0
 50
0.0
 71
     0
 42
0.2
  3
txt
  4
BIGFONT
  0
ENDTAB
  0
TABLE
  2
VIEW
  5
6
100
AcDbSymbolTable
 70
     0
  0
ENDTAB
  0
TABLE
  2
UCS
  5
7
100
AcDbSymbolTable
 70
     0
  0
ENDTAB
  0
TABLE
  2
APPID
  5
9
100
AcDbSymbolTable
 70
     1
  0
APPID
  5
11
100
AcDbSymbolTableRecord
100
AcDbRegAppTableRecord
  2
ACAD
 70
     0
  0
ENDTAB
  0
TABLE
  2
DIMSTYLE
  5
A
100
AcDbSymbolTable
 70
     2
100
AcDbDimStyleTable
 71
     1
  0
DIMSTYLE
105
47
100
AcDbSymbolTableRecord
100
AcDbDimStyleTableRecord
  2
STANDARD
 70
     0
  3

  4

  5

  6
_OPEN
  7
_OPEN
 40
1.0
 41
3.0
 42
0.0
 43
8.0
 44
1.5
 45
0.0
 46
0.0
 47
0.0
 48
0.0
140
3.2
141
0.09
142
0.0
143
0.03937
144
1.0
145
0.0
146
1.0
147
1.0
148
0.000000
 71
     0
 72
     0
 73
     1
 74
     1
 75
     0
 76
     0
 77
     3
 78
     8
170
     0
171
     2
172
     0
173
     1
174
     0
175
     0
176
     0
177
     0
178
     0
270
     2
271
     2
272
     4
273
     2
274
     2
340
10
275
     0
278
    46
280
     0
281
     0
282
     0
283
     1
284
     0
285
     0
286
     0
287
     3
288
     0
371
   13
372
   13
  0
DIMSTYLE
105
48
100
AcDbSymbolTableRecord
100
AcDbDimStyleTableRecord
  2
LEADSTYL
 70
     0
  3

  4

  5

  6
_OPEN
  7
_OPEN
 40
1.0
 41
3.0
 42
0.0625
 43
0.38
 44
0.18
 45
0.0
 46
0.0
 47
0.0
 48
0.0
140
3.2
141
0.09
142
0.0
143
25.4
144
1.0
145
0.0
146
1.0
147
1.0
 71
     0
 72
     0
 73
     1
 74
     1
 75
     0
 76
     0
 77
     0
 78
     0
170
     0
171
     2
172
     0
173
     1
174
     0
175
     0
176
     0
177
     0
178
     0
270
     2
271
     4
272
     4
273
     2
274
     2
340
10
275
     0
280
     0
281
     0
282
     0
283
     1
284
     0
285
     0
286
     0
287
     3
288
     0
  0
ENDTAB
  0
TABLE
  2
BLOCK_RECORD
  5
1
100
AcDbSymbolTable
 70
     6
  0
BLOCK_RECORD
  5
1F
100
AcDbSymbolTableRecord
100
AcDbBlockTableRecord
  2
*MODEL_SPACE
  0
BLOCK_RECORD
  5
22
100
AcDbSymbolTableRecord
100
AcDbBlockTableRecord
  2
*PAPER_SPACE
  0
BLOCK_RECORD
  5
25
100
AcDbSymbolTableRecord
100
AcDbBlockTableRecord
  2
_NONE
  0
BLOCK_RECORD
  5
29
100
AcDbSymbolTableRecord
100
AcDbBlockTableRecord
  2
_OPEN
  0
BLOCK_RECORD
  5
2F
100
AcDbSymbolTableRecord
100
AcDbBlockTableRecord
  2
_CLOSED
  0
BLOCK_RECORD
  5
36
100
AcDbSymbolTableRecord
100
AcDbBlockTableRecord
  2
_ORIGIN
  0
BLOCK_RECORD
  5
3B
100
AcDbSymbolTableRecord
100
AcDbBlockTableRecord
  2
_DOT
  0
BLOCK_RECORD
  5
43
100
AcDbSymbolTableRecord
100
AcDbBlockTableRecord
  2
_OBLIQUE
  0
ENDTAB
  0
ENDSEC
  0
SECTION
  2
BLOCKS
  0
BLOCK
  5
20
100
AcDbEntity
  8
0
100
AcDbBlockBegin
  2
*MODEL_SPACE
 70
     0
 10
0.0
 20
0.0
 30
0.0
  3
*MODEL_SPACE
  1

  0
ENDBLK
  5
21
100
AcDbEntity
  8
0
100
AcDbBlockEnd
  0
BLOCK
  5
23
100
AcDbEntity
 67
     1
  8
0
100
AcDbBlockBegin
  2
*PAPER_SPACE
 70
     0
 10
0.0
 20
0.0
 30
0.0
  3
*PAPER_SPACE
  1

  0
ENDBLK
  5
24
100
AcDbEntity
 67
     1
  8
0
100
AcDbBlockEnd
  0
BLOCK
  5
26
100
AcDbEntity
  8
0
100
AcDbBlockBegin
  2
_NONE
 70
     0
 10
0.0
 20
0.0
  0
CIRCLE
  5
27
100
AcDbEntity
  8
0
 62
     0
370
13
100
AcDbCircle
 10
0.0
 20
0.0
 40
0.25
  0
ENDBLK
  5
28
100
AcDbEntity
  8
0
100
AcDbBlockEnd
  0
BLOCK
  5
2A
100
AcDbEntity
  8
0
100
AcDbBlockBegin
  2
_OPEN
 70
     0
 10
0.0
 20
0.0
  0
LINE
  5
2B
100
AcDbEntity
  8
0
 62
     0
370
13
100
AcDbLine
 10
-0.965926
 20
0.258819
 11
0.0
 21
0.0
  0
LINE
  5
2C
100
AcDbEntity
  8
0
 62
     0
370
13
100
AcDbLine
 10
0.0
 20
0.0
 11
-0.965926
 21
-0.258819
  0
LINE
  5
2D
100
AcDbEntity
  8
0
 62
     0
370
13
100
AcDbLine
 10
0.0
 20
0.0
 11
-1.0
 21
0.0
  0
ENDBLK
  5
2E
100
AcDbEntity
  8
0
100
AcDbBlockEnd
  0
BLOCK
  5
30
100
AcDbEntity
  8
0
100
AcDbBlockBegin
  2
_CLOSED
 70
     0
 10
0.0
 20
0.0
  0
LINE
  5
31
100
AcDbEntity
  8
0
 62
     0
370
13
100
AcDbLine
 10
-0.965926
 20
0.258819
 11
0.0
 21
0.0
  0
LINE
  5
32
100
AcDbEntity
  8
0
 62
     0
370
13
100
AcDbLine
 10
0.0
 20
0.0
 11
-0.965926
 21
-0.258819
  0
LINE
  5
33
100
AcDbEntity
  8
0
 62
     0
370
13
100
AcDbLine
 10
-0.965926
 20
0.258819
 11
-0.965926
 21
-0.258819
  0
LINE
  5
34
100
AcDbEntity
  8
0
 62
     0
370
13
100
AcDbLine
 10
0.0
 20
0.0
 11
-1.0
 21
0.0
  0
ENDBLK
  5
35
100
AcDbEntity
  8
0
100
AcDbBlockEnd
  0
BLOCK
  5
37
100
AcDbEntity
  8
0
100
AcDbBlockBegin
  2
_ORIGIN
 70
     0
 10
0.0
 20
0.0
  0
CIRCLE
  5
38
100
AcDbEntity
  8
0
 62
     0
370
13
100
AcDbCircle
 10
0.0
 20
0.0
 40
0.5
  0
LINE
  5
39
100
AcDbEntity
  8
0
 62
     0
370
13
100
AcDbLine
 10
0.0
 20
0.0
 11
-1.0
 21
0.0
  0
ENDBLK
  5
3A
100
AcDbEntity
  8
0
100
AcDbBlockEnd
  0
BLOCK
  5
3C
100
AcDbEntity
  8
0
100
AcDbBlockBegin
  2
_DOT
 70
     0
 10
0.0
 20
0.0
  0
POLYLINE
  5
3D
100
AcDbEntity
  8
0
 62
     0
100
AcDb2dPolyline
 66
     1
 70
     1
 40
0.5
 41
0.5
  0
VERTEX
  5
3E
100
AcDbEntity
  8
0
 62
     0
100
AcDbVertex
100
AcDb2dVertex
 10
-0.25
 20
0.0
 42
1.0
  0
VERTEX
  5
3F
100
AcDbEntity
  8
0
 62
     0
100
AcDbVertex
100
AcDb2dVertex
 10
0.25
 20
0.0
 42
1.0
  0
SEQEND
  5
40
100
AcDbEntity
  8
0
 62
     0
  0
LINE
  5
41
100
AcDbEntity
  8
0
 62
     0
370
13
100
AcDbLine
 10
-0.5
 20
0.0
 11
-1.0
 21
0.0
  0
ENDBLK
  5
42
100
AcDbEntity
  8
0
100
AcDbBlockEnd
  0
BLOCK
  5
44
100
AcDbEntity
  8
0
100
AcDbBlockBegin
  2
_OBLIQUE
 70
     0
 10
0.0
 20
0.0
  0
LINE
  5
45
100
AcDbEntity
  8
0
 62
     0
370
13
100
AcDbLine
 10
-0.353553
 20
-0.353553
 11
0.353553
 21
0.353553
  0
ENDBLK
  5
46
100
AcDbEntity
  8
0
100
AcDbBlockEnd
  0
ENDSEC
  0
SECTION
  2
ENTITIES
  0
LINE
  5
49
100
AcDbEntity
  8
M1
  6
DIVIDE
370
13
 62
     2
100
AcDbLine
 10
117.846974
 20
129.02455
 11
185.04694
 21
129.02455
  0
LINE
  5
4A
100
AcDbEntity
  8
M1
  6
DIVIDE
370
13
 62
     2
100
AcDbLine
 10
185.04694
 20
129.02455
 11
185.04694
 21
227.424506
  0
LINE
  5
4B
100
AcDbEntity
  8
M1
  6
DIVIDE
370
13
 62
     2
100
AcDbLine
 10
185.04694
 20
227.424506
 11
117.846974
 21
227.424506
  0
LINE
  5
4C
100
AcDbEntity
  8
M1
  6
DIVIDE
370
13
 62
     2
100
AcDbLine
 10
117.846974
 20
227.424506
 11
117.846974
 21
129.02455
  0
LINE
  5
4D
100
AcDbEntity
  8
M1
  6
DASHDOT
370
13
 62
     2
100
AcDbLine
 10
111.846976
 20
178.224528
 11
192.137132
 21
178.224528
  0
CIRCLE
  5
4E
100
AcDbEntity
  8
M1
  6
CONTINUOUS
370
25
 62
     2
100
AcDbCircle
 10
134.646964
 20
223.824448
 40
1.2
  0
LINE
  5
4F
100
AcDbEntity
  8
M1
  6
DASHDOT
370
13
 62
     2
100
AcDbLine
 10
127.446968
 20
223.824448
 11
141.84696
 21
223.824448
  0
CIRCLE
  5
50
100
AcDbEntity
  8
M1
  6
CONTINUOUS
370
25
 62
     2
100
AcDbCircle
 10
151.446954
 20
223.824448
 40
1.2
  0
LINE
  5
51
100
AcDbEntity
  8
M1
  6
DASHDOT
370
13
 62
     2
100
AcDbLine
 10
144.246958
 20
223.824448
 11
158.646952
 21
223.824448
  0
CIRCLE
  5
52
100
AcDbEntity
  8
M1
  6
CONTINUOUS
370
25
 62
     2
100
AcDbCircle
 10
134.646964
 20
132.624548
 40
1.2
  0
LINE
  5
53
100
AcDbEntity
  8
M1
  6
DASHDOT
370
13
 62
     2
100
AcDbLine
 10
127.446968
 20
132.624548
 11
141.84696
 21
132.624548
  0
LINE
  5
54
100
AcDbEntity
  8
M1
  6
DASHDOT
370
13
 62
     2
100
AcDbLine
 10
134.646964
 20
125.424552
 11
134.646964
 21
139.824546
  0
CIRCLE
  5
55
100
AcDbEntity
  8
M1
  6
CONTINUOUS
370
25
 62
     2
100
AcDbCircle
 10
151.446954
 20
132.624548
 40
1.2
  0
LINE
  5
56
100
AcDbEntity
  8
M1
  6
DASHDOT
370
13
 62
     2
100
AcDbLine
 10
144.246958
 20
132.624548
 11
158.646952
 21
132.624548
  0
LINE
  5
57
100
AcDbEntity
  8
M1
  6
DASHDOT
370
13
 62
     2
100
AcDbLine
 10
151.446954
 20
125.424552
 11
151.446954
 21
139.824546
  0
LINE
  5
58
100
AcDbEntity
  8
M1
  6
DASHDOT
370
13
 62
     2
100
AcDbLine
 10
143.046958
 20
123.024554
 11
143.046958
 21
233.424502
  0
LINE
  5
59
100
AcDbEntity
  8
M1
  6
DASHDOT
370
13
 62
     2
100
AcDbLine
 10
134.646964
 20
216.624452
 11
134.646964
 21
231.024446
  0
LINE
  5
5A
100
AcDbEntity
  8
M1
  6
DASHDOT
370
13
 62
     2
100
AcDbLine
 10
151.446954
 20
216.624452
 11
151.446954
 21
231.024446
  0
LINE
  5
5B
100
AcDbEntity
  8
M1
  6
CONTINUOUS
370
25
 60
     1
100
AcDbLine
 10
128.382714
 20
410.037996
 11
157.711628
 21
410.037996
  0
LINE
  5
5C
100
AcDbEntity
  8
M1
  6
CONTINUOUS
370
25
 62
     4
100
AcDbLine
 10
185.047174
 20
301.798046
 11
185.047174
 21
400.198
  0
LINE
  5
5D
100
AcDbEntity
  8
M1
  6
CONTINUOUS
370
25
 62
     4
100
AcDbLine
 10
117.847204
 20
301.798046
 11
185.047174
 21
301.798046
  0
LINE
  5
5E
100
AcDbEntity
  8
M1
  6
CONTINUOUS
370
25
 62
     4
100
AcDbLine
 10
168.247182
 20
400.198
 11
117.847204
 21
400.198
  0
LINE
  5
5F
100
AcDbEntity
  8
M1
  6
CONTINUOUS
370
25
 62
     4
100
AcDbLine
 10
117.847204
 20
400.198
 11
117.847204
 21
301.798046
  0
LINE
  5
60
100
AcDbEntity
  8
M1
  6
DASHDOT
370
13
 62
     4
100
AcDbLine
 10
111.847208
 20
350.998024
 11
174.247178
 21
350.998024
  0
LINE
  5
61
100
AcDbEntity
  8
M1
  6
DASHDOT
370
13
 62
     4
100
AcDbLine
 10
143.047192
 20
290.99805
 11
143.047192
 21
425.530412
  0
LINE
  5
62
100
AcDbEntity
  8
M1
  6
CONTINUOUS
370
25
 62
     4
100
AcDbLine
 10
135.367196
 20
339.598028
 11
150.72719
 21
339.598028
  0
LINE
  5
63
100
AcDbEntity
  8
M1
  6
CONTINUOUS
370
25
 62
     4
100
AcDbLine
 10
152.407188
 20
341.27797
 11
152.407188
 21
360.717902
  0
LINE
  5
64
100
AcDbEntity
  8
M1
  6
CONTINUOUS
370
25
 62
     4
100
AcDbLine
 10
150.72719
 20
362.398018
 11
135.367196
 21
362.39796
  0
LINE
  5
65
100
AcDbEntity
  8
M1
  6
CONTINUOUS
370
25
 62
     4
100
AcDbLine
 10
133.687198
 20
360.71796
 11
133.687198
 21
341.278028
  0
ARC
  5
66
100
AcDbEntity
  8
M1
  6
CONTINUOUS
370
25
 62
     4
100
AcDbCircle
 10
135.367196
 20
360.71796
 40
1.68
100
AcDbArc
 50
90.0
 51
180.0
  0
ARC
  5
67
100
AcDbEntity
  8
M1
  6
CONTINUOUS
370
25
 62
     4
100
AcDbCircle
 10
135.367196
 20
341.278028
 40
1.68
100
AcDbArc
 50
179.999875
 51
270.0
  0
ARC
  5
68
100
AcDbEntity
  8
M1
  6
CONTINUOUS
370
25
 62
     4
100
AcDbCircle
 10
150.72719
 20
341.278028
 40
1.68
100
AcDbArc
 50
270.0
 51
360.0
  0
ARC
  5
69
100
AcDbEntity
  8
M1
  6
CONTINUOUS
370
25
 62
     4
100
AcDbCircle
 10
150.72719
 20
360.71796
 40
1.68
100
AcDbArc
 50
0.0
 51
90.0
  0
LINE
  5
6A
100
AcDbEntity
  8
M1
  6
CONTINUOUS
370
25
 62
     4
100
AcDbLine
 10
135.367196
 20
340.798028
 11
150.72719
 21
340.798028
  0
LINE
  5
6B
100
AcDbEntity
  8
M1
  6
CONTINUOUS
370
25
 62
     4
100
AcDbLine
 10
151.20719
 20
341.27797
 11
151.20719
 21
360.71796
  0
LINE
  5
6C
100
AcDbEntity
  8
M1
  6
CONTINUOUS
370
25
 62
     4
100
AcDbLine
 10
150.72719
 20
361.198018
 11
135.367196
 21
361.19796
  0
LINE
  5
6D
100
AcDbEntity
  8
M1
  6
CONTINUOUS
370
25
 62
     4
100
AcDbLine
 10
134.887196
 20
360.71796
 11
134.887196
 21
341.278028
  0
LINE
  5
6E
100
AcDbEntity
  8
M1
  6
CONTINUOUS
370
25
 62
     4
100
AcDbLine
 10
117.847204
 20
392.998004
 11
185.047174
 21
392.998004
  0
LINE
  5
6F
100
AcDbEntity
  8
M1
  6
CONTINUOUS
370
25
 62
     4
100
AcDbLine
 10
185.047174
 20
308.997984
 11
117.847204
 21
308.997984
  0
ARC
  5
70
100
AcDbEntity
  8
M1
  6
CONTINUOUS
370
25
 62
     4
100
AcDbCircle
 10
135.367196
 20
360.71796
 40
0.48
100
AcDbArc
 50
90.0
 51
180.0
  0
ARC
  5
71
100
AcDbEntity
  8
M1
  6
CONTINUOUS
370
25
 62
     4
100
AcDbCircle
 10
135.367196
 20
341.278028
 40
0.48
100
AcDbArc
 50
179.999563
 51
270.0
  0
ARC
  5
72
100
AcDbEntity
  8
M1
  6
CONTINUOUS
370
25
 62
     4
100
AcDbCircle
 10
150.72719
 20
341.278028
 40
0.48
100
AcDbArc
 50
270.0
 51
359.993006
  0
ARC
  5
73
100
AcDbEntity
  8
M1
  6
CONTINUOUS
370
25
 62
     4
100
AcDbCircle
 10
150.72719
 20
360.71796
 40
0.48
100
AcDbArc
 50
0.0
 51
90.0
  0
LINE
  5
74
100
AcDbEntity
  8
M1
  6
CONTINUOUS
370
25
 62
     4
100
AcDbLine
 10
119.287204
 20
317.398038
 11
166.807182
 21
317.398038
  0
LINE
  5
75
100
AcDbEntity
  8
M1
  6
CONTINUOUS
370
25
 62
     4
100
AcDbLine
 10
167.287182
 20
317.87798
 11
167.287182
 21
331.317974
  0
LINE
  5
76
100
AcDbEntity
  8
M1
  6
CONTINUOUS
370
25
 62
     4
100
AcDbLine
 10
166.807182
 20
331.798032
 11
119.287204
 21
331.797974
  0
LINE
  5
77
100
AcDbEntity
  8
M1
  6
CONTINUOUS
370
25
 62
     4
100
AcDbLine
 10
118.807204
 20
331.317974
 11
118.807204
 21
317.878038
  0
ARC
  5
78
100
AcDbEntity
  8
M1
  6
CONTINUOUS
370
25
 62
     4
100
AcDbCircle
 10
119.287204
 20
331.317974
 40
0.48
100
AcDbArc
 50
90.0
 51
179.999563
  0
ARC
  5
79
100
AcDbEntity
  8
M1
  6
CONTINUOUS
370
25
 62
     4
100
AcDbCircle
 10
119.287204
 20
317.878038
 40
0.48
100
AcDbArc
 50
179.999563
 51
270.0
  0
ARC
  5
7A
100
AcDbEntity
  8
M1
  6
CONTINUOUS
370
25
 62
     4
100
AcDbCircle
 10
166.807182
 20
317.878038
 40
0.48
100
AcDbArc
 50
270.0
 51
359.993006
  0
ARC
  5
7B
100
AcDbEntity
  8
M1
  6
CONTINUOUS
370
25
 62
     4
100
AcDbCircle
 10
166.807182
 20
331.317974
 40
0.48
100
AcDbArc
 50
0.0
 51
90.0
  0
LINE
  5
7C
100
AcDbEntity
  8
M1
  6
CONTINUOUS
370
25
 62
     4
100
AcDbLine
 10
120.847204
 20
400.197942
 11
131.647198
 21
400.197942
  0
LINE
  5
7D
100
AcDbEntity
  8
M1
  6
CONTINUOUS
370
25
 62
     4
100
AcDbLine
 10
131.647198
 20
400.197942
 11
131.647198
 21
424.197932
  0
LINE
  5
7E
100
AcDbEntity
  8
M1
  6
CONTINUOUS
370
25
 62
     4
100
AcDbLine
 10
131.647198
 20
424.197932
 11
120.847204
 21
424.197932
  0
LINE
  5
7F
100
AcDbEntity
  8
M1
  6
CONTINUOUS
370
25
 62
     4
100
AcDbLine
 10
120.847204
 20
424.197932
 11
120.847204
 21
400.197942
  0
CIRCLE
  5
80
100
AcDbEntity
  8
M1
  6
CONTINUOUS
370
25
 62
     4
100
AcDbCircle
 10
126.2472
 20
410.997938
 40
1.619996
  0
LINE
  5
81
100
AcDbEntity
  8
M1
  6
DASHDOT
370
13
 62
     4
100
AcDbLine
 10
123.491072
 20
410.997938
 11
129.335972
 21
410.997938
  0
LINE
  5
82
100
AcDbEntity
  8
M1
  6
DASHDOT
370
13
 62
     4
100
AcDbLine
 10
126.2472
 20
398.577942
 11
126.2472
 21
425.857072
  0
ARC
  5
83
100
AcDbEntity
  8
M1
  6
CONTINUOUS
370
25
 62
     4
100
AcDbCircle
 10
126.2472
 20
418.677876
 40
1.619996
100
AcDbArc
 50
180.0
 51
360.0
  0
LINE
  5
84
100
AcDbEntity
  8
M1
  6
DASHDOT
370
13
 62
     4
100
AcDbLine
 10
123.849982
 20
418.677876
 11
129.233484
 21
418.677876
  0
ARC
  5
85
100
AcDbEntity
  8
M1
  6
CONTINUOUS
370
25
 62
     4
100
AcDbCircle
 10
126.2472
 20
420.597874
 40
1.619996
100
AcDbArc
 50
0.0
 51
180.0
  0
LINE
  5
86
100
AcDbEntity
  8
M1
  6
DASHDOT
370
13
 62
     4
100
AcDbLine
 10
123.824324
 20
420.597874
 11
129.259082
 21
420.597874
  0
LINE
  5
87
100
AcDbEntity
  8
M1
  6
CONTINUOUS
370
25
 62
     4
100
AcDbLine
 10
127.8672
 20
420.597874
 11
127.8672
 21
418.677876
  0
LINE
  5
88
100
AcDbEntity
  8
M1
  6
CONTINUOUS
370
25
 62
     4
100
AcDbLine
 10
124.627202
 20
420.597874
 11
124.627202
 21
418.677876
  0
LINE
  5
89
100
AcDbEntity
  8
M1
  6
CONTINUOUS
370
25
 62
     4
100
AcDbLine
 10
137.647196
 20
400.197942
 11
148.44719
 21
400.197942
  0
LINE
  5
8A
100
AcDbEntity
  8
M1
  6
CONTINUOUS
370
25
 62
     4
100
AcDbLine
 10
148.44719
 20
400.197942
 11
148.44719
 21
424.197932
  0
LINE
  5
8B
100
AcDbEntity
  8
M1
  6
CONTINUOUS
370
25
 62
     4
100
AcDbLine
 10
148.44719
 20
424.197932
 11
137.647196
 21
424.197932
  0
LINE
  5
8C
100
AcDbEntity
  8
M1
  6
CONTINUOUS
370
25
 62
     4
100
AcDbLine
 10
137.647196
 20
424.197932
 11
137.647196
 21
400.197942
  0
CIRCLE
  5
8D
100
AcDbEntity
  8
M1
  6
CONTINUOUS
370
25
 62
     4
100
AcDbCircle
 10
143.047192
 20
410.997938
 40
1.619996
  0
LINE
  5
8E
100
AcDbEntity
  8
M1
  6
DASHDOT
370
13
 62
     4
100
AcDbLine
 10
140.179828
 20
410.997938
 11
145.460748
 21
410.997938
  0
ARC
  5
8F
100
AcDbEntity
  8
M1
  6
CONTINUOUS
370
25
 62
     4
100
AcDbCircle
 10
143.047192
 20
418.677876
 40
1.619996
100
AcDbArc
 50
180.0
 51
360.0
  0
LINE
  5
90
100
AcDbEntity
  8
M1
  6
DASHDOT
370
13
 62
     4
100
AcDbLine
 10
140.46181
 20
418.677876
 11
145.563274
 21
418.677876
  0
ARC
  5
91
100
AcDbEntity
  8
M1
  6
CONTINUOUS
370
25
 62
     4
100
AcDbCircle
 10
143.047192
 20
420.597874
 40
1.619996
100
AcDbArc
 50
0.0
 51
180.0
  0
LINE
  5
92
100
AcDbEntity
  8
M1
  6
DASHDOT
370
13
 62
     4
100
AcDbLine
 10
140.384906
 20
420.597874
 11
145.870906
 21
420.597874
  0
LINE
  5
93
100
AcDbEntity
  8
M1
  6
CONTINUOUS
370
25
 62
     4
100
AcDbLine
 10
144.667192
 20
420.597874
 11
144.667192
 21
418.677876
  0
LINE
  5
94
100
AcDbEntity
  8
M1
  6
CONTINUOUS
370
25
 62
     4
100
AcDbLine
 10
141.427194
 20
420.597874
 11
141.427194
 21
418.677876
  0
LINE
  5
95
100
AcDbEntity
  8
M1
  6
CONTINUOUS
370
25
 62
     4
100
AcDbLine
 10
154.447188
 20
400.197942
 11
185.047174
 21
400.197942
  0
LINE
  5
96
100
AcDbEntity
  8
M1
  6
CONTINUOUS
370
25
 62
     4
100
AcDbLine
 10
165.247182
 20
400.197942
 11
165.247182
 21
424.197932
  0
LINE
  5
97
100
AcDbEntity
  8
M1
  6
CONTINUOUS
370
25
 62
     4
100
AcDbLine
 10
165.247182
 20
424.197932
 11
154.447188
 21
424.197932
  0
LINE
  5
98
100
AcDbEntity
  8
M1
  6
CONTINUOUS
370
25
 62
     4
100
AcDbLine
 10
154.447188
 20
424.197932
 11
154.447188
 21
400.197942
  0
CIRCLE
  5
99
100
AcDbEntity
  8
M1
  6
CONTINUOUS
370
25
 62
     4
100
AcDbCircle
 10
159.847186
 20
410.997938
 40
1.619996
  0
LINE
  5
9A
100
AcDbEntity
  8
M1
  6
DASHDOT
370
13
 62
     4
100
AcDbLine
 10
157.150566
 20
410.997938
 11
162.277678
 21
410.997938
  0
LINE
  5
9B
100
AcDbEntity
  8
M1
  6
DASHDOT
370
13
 62
     4
100
AcDbLine
 10
159.847186
 20
398.577942
 11
159.847186
 21
425.857072
  0
ARC
  5
9C
100
AcDbEntity
  8
M1
  6
CONTINUOUS
370
25
 62
     4
100
AcDbCircle
 10
159.847186
 20
418.677876
 40
1.619996
100
AcDbArc
 50
180.0
 51
360.0
  0
LINE
  5
9D
100
AcDbEntity
  8
M1
  6
DASHDOT
370
13
 62
     4
100
AcDbLine
 10
157.176202
 20
418.677876
 11
162.25203
 21
418.677876
  0
ARC
  5
9E
100
AcDbEntity
  8
M1
  6
CONTINUOUS
370
25
 62
     4
100
AcDbCircle
 10
159.847186
 20
420.597874
 40
1.619996
100
AcDbArc
 50
0.0
 51
180.0
  0
LINE
  5
9F
100
AcDbEntity
  8
M1
  6
DASHDOT
370
13
 62
     4
100
AcDbLine
 10
157.201836
 20
420.597874
 11
162.534026
 21
420.597874
  0
LINE
  5
A0
100
AcDbEntity
  8
M1
  6
CONTINUOUS
370
25
 62
     4
100
AcDbLine
 10
161.467184
 20
420.597874
 11
161.467184
 21
418.677876
  0
LINE
  5
A1
100
AcDbEntity
  8
M1
  6
CONTINUOUS
370
25
 62
     4
100
AcDbLine
 10
158.227186
 20
420.597874
 11
158.227186
 21
418.677876
  0
LINE
  5
A2
100
AcDbEntity
  8
M1
  6
CONTINUOUS
370
25
 62
     4
100
AcDbLine
 10
120.847204
 20
301.798104
 11
131.647198
 21
301.798104
  0
LINE
  5
A3
100
AcDbEntity
  8
M1
  6
CONTINUOUS
370
25
 62
     4
100
AcDbLine
 10
131.647198
 20
301.798104
 11
131.647198
 21
277.798116
  0
LINE
  5
A4
100
AcDbEntity
  8
M1
  6
CONTINUOUS
370
25
 62
     4
100
AcDbLine
 10
131.647198
 20
277.798116
 11
120.847204
 21
277.798116
  0
LINE
  5
A5
100
AcDbEntity
  8
M1
  6
CONTINUOUS
370
25
 62
     4
100
AcDbLine
 10
120.847204
 20
277.798116
 11
120.847204
 21
301.798104
  0
CIRCLE
  5
A6
100
AcDbEntity
  8
M1
  6
CONTINUOUS
370
25
 62
     4
100
AcDbCircle
 10
126.2472
 20
290.99811
 40
1.619996
  0
LINE
  5
A7
100
AcDbEntity
  8
M1
  6
DASHDOT
370
13
 62
     4
100
AcDbLine
 10
123.644892
 20
290.99811
 11
129.207798
 21
290.99811
  0
LINE
  5
A8
100
AcDbEntity
  8
M1
  6
DASHDOT
370
13
 62
     4
100
AcDbLine
 10
126.2472
 20
303.418104
 11
126.2472
 21
276.138976
  0
ARC
  5
A9
100
AcDbEntity
  8
M1
  6
CONTINUOUS
370
25
 62
     4
100
AcDbCircle
 10
126.2472
 20
283.318172
 40
1.619996
100
AcDbArc
 50
0.0
 51
179.997928
  0
LINE
  5
AA
100
AcDbEntity
  8
M1
  6
DASHDOT
370
13
 62
     4
100
AcDbLine
 10
123.79869
 20
283.318172
 11
129.10526
 21
283.318172
  0
ARC
  5
AB
100
AcDbEntity
  8
M1
  6
CONTINUOUS
370
25
 62
     4
100
AcDbCircle
 10
126.2472
 20
281.398172
 40
1.619996
100
AcDbArc
 50
179.997928
 51
360.0
  0
LINE
  5
AC
100
AcDbEntity
  8
M1
  6
DASHDOT
370
13
 62
     4
100
AcDbLine
 10
123.721786
 20
281.398172
 11
128.925802
 21
281.398172
  0
LINE
  5
AD
100
AcDbEntity
  8
M1
  6
CONTINUOUS
370
25
 62
     4
100
AcDbLine
 10
127.8672
 20
281.398172
 11
127.8672
 21
283.318172
  0
LINE
  5
AE
100
AcDbEntity
  8
M1
  6
CONTINUOUS
370
25
 62
     4
100
AcDbLine
 10
124.627202
 20
281.398172
 11
124.627202
 21
283.318172
  0
LINE
  5
AF
100
AcDbEntity
  8
M1
  6
CONTINUOUS
370
25
 62
     4
100
AcDbLine
 10
137.647196
 20
301.798104
 11
148.44719
 21
301.798104
  0
LINE
  5
B0
100
AcDbEntity
  8
M1
  6
CONTINUOUS
370
25
 62
     4
100
AcDbLine
 10
148.44719
 20
301.798104
 11
148.44719
 21
277.798116
  0
LINE
  5
B1
100
AcDbEntity
  8
M1
  6
CONTINUOUS
370
25
 62
     4
100
AcDbLine
 10
148.44719
 20
277.798116
 11
137.647196
 21
277.798116
  0
LINE
  5
B2
100
AcDbEntity
  8
M1
  6
CONTINUOUS
370
25
 62
     4
100
AcDbLine
 10
137.647196
 20
277.798116
 11
137.647196
 21
301.798104
  0
CIRCLE
  5
B3
100
AcDbEntity
  8
M1
  6
CONTINUOUS
370
25
 62
     4
100
AcDbCircle
 10
143.047192
 20
290.99811
 40
1.619996
  0
LINE
  5
B4
100
AcDbEntity
  8
M1
  6
DASHDOT
370
13
 62
     4
100
AcDbLine
 10
140.769428
 20
290.99811
 11
145.717082
 21
290.99811
  0
LINE
  5
B5
100
AcDbEntity
  8
M1
  6
DASHDOT
370
13
 62
     4
100
AcDbLine
 10
143.047192
 20
303.418104
 11
143.047192
 21
276.138976
  0
ARC
  5
B6
100
AcDbEntity
  8
M1
  6
CONTINUOUS
370
25
 62
     4
100
AcDbCircle
 10
143.047192
 20
283.318172
 40
1.619996
100
AcDbArc
 50
0.0
 51
179.997928
  0
LINE
  5
B7
100
AcDbEntity
  8
M1
  6
DASHDOT
370
13
 62
     4
100
AcDbLine
 10
140.384906
 20
283.318172
 11
145.742732
 21
283.318172
  0
ARC
  5
B8
100
AcDbEntity
  8
M1
  6
CONTINUOUS
370
25
 62
     4
100
AcDbCircle
 10
143.047192
 20
281.398172
 40
1.619996
100
AcDbArc
 50
179.997928
 51
360.0
  0
LINE
  5
B9
100
AcDbEntity
  8
M1
  6
DASHDOT
370
13
 62
     4
100
AcDbLine
 10
140.436176
 20
281.398172
 11
145.665826
 21
281.398172
  0
LINE
  5
BA
100
AcDbEntity
  8
M1
  6
CONTINUOUS
370
25
 62
     4
100
AcDbLine
 10
144.667192
 20
281.398172
 11
144.667192
 21
283.318172
  0
LINE
  5
BB
100
AcDbEntity
  8
M1
  6
CONTINUOUS
370
25
 62
     4
100
AcDbLine
 10
141.427194
 20
281.398172
 11
141.427194
 21
283.318172
  0
LINE
  5
BC
100
AcDbEntity
  8
M1
  6
CONTINUOUS
370
25
 62
     4
100
AcDbLine
 10
154.447188
 20
301.798104
 11
165.247182
 21
301.798104
  0
LINE
  5
BD
100
AcDbEntity
  8
M1
  6
CONTINUOUS
370
25
 62
     4
100
AcDbLine
 10
165.247182
 20
301.798104
 11
165.247182
 21
277.798116
  0
LINE
  5
BE
100
AcDbEntity
  8
M1
  6
CONTINUOUS
370
25
 62
     4
100
AcDbLine
 10
165.247182
 20
277.798116
 11
154.447188
 21
277.798116
  0
LINE
  5
BF
100
AcDbEntity
  8
M1
  6
CONTINUOUS
370
25
 62
     4
100
AcDbLine
 10
154.447188
 20
277.798116
 11
154.447188
 21
301.798104
  0
CIRCLE
  5
C0
100
AcDbEntity
  8
M1
  6
CONTINUOUS
370
25
 62
     4
100
AcDbCircle
 10
159.847186
 20
290.99811
 40
1.619996
  0
LINE
  5
C1
100
AcDbEntity
  8
M1
  6
DASHDOT
370
13
 62
     4
100
AcDbLine
 10
157.406914
 20
290.99811
 11
162.687834
 21
290.99811
  0
LINE
  5
C2
100
AcDbEntity
  8
M1
  6
DASHDOT
370
13
 62
     4
100
AcDbLine
 10
159.847186
 20
303.418104
 11
159.847186
 21
276.138976
  0
ARC
  5
C3
100
AcDbEntity
  8
M1
  6
CONTINUOUS
370
25
 62
     4
100
AcDbCircle
 10
159.847186
 20
283.318172
 40
1.619996
100
AcDbArc
 50
0.0
 51
179.997928
  0
LINE
  5
C4
100
AcDbEntity
  8
M1
  6
DASHDOT
370
13
 62
     4
100
AcDbLine
 10
157.355644
 20
283.318172
 11
162.55966
 21
283.318172
  0
ARC
  5
C5
100
AcDbEntity
  8
M1
  6
CONTINUOUS
370
25
 62
     4
100
AcDbCircle
 10
159.847186
 20
281.398172
 40
1.619996
100
AcDbArc
 50
179.997928
 51
360.0
  0
LINE
  5
C6
100
AcDbEntity
  8
M1
  6
DASHDOT
370
13
 62
     4
100
AcDbLine
 10
157.406914
 20
281.398172
 11
162.508392
 21
281.398172
  0
LINE
  5
C7
100
AcDbEntity
  8
M1
  6
CONTINUOUS
370
25
 62
     4
100
AcDbLine
 10
161.467184
 20
281.398172
 11
161.467184
 21
283.318172
  0
LINE
  5
C8
100
AcDbEntity
  8
M1
  6
CONTINUOUS
370
25
 62
     4
100
AcDbLine
 10
158.227186
 20
281.398172
 11
158.227186
 21
283.318172
  0
CIRCLE
  5
C9
100
AcDbEntity
  8
M1
  6
CONTINUOUS
370
25
 62
     4
100
AcDbCircle
 10
143.047192
 20
334.19803
 40
1.559998
  0
LINE
  5
CA
100
AcDbEntity
  8
M1
  6
DASHDOT
370
13
 62
     4
100
AcDbLine
 10
135.487196
 20
334.19803
 11
150.60719
 21
334.19803
  0
CIRCLE
  5
CB
100
AcDbEntity
  8
M1
  6
CONTINUOUS
370
25
 62
     4
100
AcDbCircle
 10
134.647196
 20
305.398044
 40
2.519996
  0
LINE
  5
CC
100
AcDbEntity
  8
M1
  6
DASHDOT
370
13
 62
     4
100
AcDbLine
 10
126.1272
 20
305.398044
 11
143.167192
 21
305.398044
  0
LINE
  5
CD
100
AcDbEntity
  8
M1
  6
DASHDOT
370
13
 62
     4
100
AcDbLine
 10
134.647196
 20
296.878048
 11
134.647196
 21
313.91804
  0
CIRCLE
  5
CE
100
AcDbEntity
  8
M1
  6
CONTINUOUS
370
25
 62
     4
100
AcDbCircle
 10
151.44719
 20
305.398044
 40
2.519996
  0
LINE
  5
CF
100
AcDbEntity
  8
M1
  6
DASHDOT
370
13
 62
     4
100
AcDbLine
 10
142.927192
 20
305.398044
 11
159.967186
 21
305.398044
  0
LINE
  5
D0
100
AcDbEntity
  8
M1
  6
DASHDOT
370
13
 62
     4
100
AcDbLine
 10
151.44719
 20
296.878048
 11
151.44719
 21
313.91804
  0
CIRCLE
  5
D1
100
AcDbEntity
  8
M1
  6
CONTINUOUS
370
25
 62
     4
100
AcDbCircle
 10
134.647196
 20
396.598002
 40
2.519996
  0
LINE
  5
D2
100
AcDbEntity
  8
M1
  6
DASHDOT
370
13
 62
     4
100
AcDbLine
 10
126.1272
 20
396.598002
 11
143.167192
 21
396.598002
  0
LINE
  5
D3
100
AcDbEntity
  8
M1
  6
DASHDOT
370
13
 62
     4
100
AcDbLine
 10
134.647196
 20
388.078006
 11
134.647196
 21
409.917996
  0
CIRCLE
  5
D4
100
AcDbEntity
  8
M1
  6
CONTINUOUS
370
25
 62
     4
100
AcDbCircle
 10
151.44719
 20
396.598002
 40
2.519996
  0
LINE
  5
D5
100
AcDbEntity
  8
M1
  6
DASHDOT
370
13
 62
     4
100
AcDbLine
 10
142.927192
 20
396.598002
 11
159.967186
 21
396.598002
  0
LINE
  5
D6
100
AcDbEntity
  8
M1
  6
DASHDOT
370
13
 62
     4
100
AcDbLine
 10
151.44719
 20
388.078006
 11
151.44719
 21
409.917996
  0
LINE
  5
D7
100
AcDbEntity
  8
M1
  6
CONTINUOUS
370
25
 62
     4
100
AcDbLine
 10
137.527196
 20
360.677004
 11
137.527196
 21
343.197968
  0
LINE
  5
D8
100
AcDbEntity
  8
M1
  6
CONTINUOUS
370
25
 62
     4
100
AcDbLine
 10
148.56719
 20
360.677004
 11
148.56719
 21
343.197968
  0
LINE
  5
D9
100
AcDbEntity
  8
M1
  6
CONTINUOUS
370
25
 62
     4
100
AcDbLine
 10
148.56719
 20
343.198026
 11
137.527196
 21
343.198026
  0
LINE
  5
DA
100
AcDbEntity
  8
M1
  6
CONTINUOUS
370
25
 62
     4
100
AcDbLine
 10
139.718366
 20
352.198022
 11
146.486158
 21
352.198022
  0
LINE
  5
DB
100
AcDbEntity
  8
M1
  6
CONTINUOUS
370
25
100
AcDbLine
 10
148.56719
 20
357.406828
 11
137.527196
 21
357.406828
  0
LINE
  5
DC
100
AcDbEntity
  8
M1
  6
CONTINUOUS
370
25
100
AcDbLine
 10
148.56719
 20
360.676944
 11
137.527196
 21
360.676944
  0
LINE
  5
DD
100
AcDbEntity
  8
M1
  6
CONTINUOUS
370
25
 62
     4
100
AcDbLine
 10
182.047176
 20
400.197942
 11
182.047176
 21
424.197932
  0
LINE
  5
DE
100
AcDbEntity
  8
M1
  6
CONTINUOUS
370
25
 62
     4
100
AcDbLine
 10
182.047176
 20
424.197932
 11
171.24718
 21
424.197932
  0
LINE
  5
DF
100
AcDbEntity
  8
M1
  6
CONTINUOUS
370
25
 62
     4
100
AcDbLine
 10
171.24718
 20
424.197932
 11
171.24718
 21
400.197942
  0
LINE
  5
E0
100
AcDbEntity
  8
M1
  6
DASHDOT
370
13
 62
     4
100
AcDbLine
 10
173.950558
 20
410.997938
 11
179.07767
 21
410.997938
  0
LINE
  5
E1
100
AcDbEntity
  8
M1
  6
DASHDOT
370
13
 62
     4
100
AcDbLine
 10
176.647178
 20
398.577942
 11
176.647178
 21
425.857072
  0
CIRCLE
  5
E2
100
AcDbEntity
  8
M1
  6
CONTINUOUS
370
25
 62
     4
100
AcDbCircle
 10
176.647178
 20
410.997938
 40
1.619996
  0
LINE
  5
E3
100
AcDbEntity
  8
M1
  6
DASHDOT
370
13
 62
     4
100
AcDbLine
 10
173.976194
 20
418.677876
 11
179.052022
 21
418.677876
  0
LINE
  5
E4
100
AcDbEntity
  8
M1
  6
DASHDOT
370
13
 62
     4
100
AcDbLine
 10
174.001828
 20
420.597874
 11
179.334018
 21
420.597874
  0
LINE
  5
E5
100
AcDbEntity
  8
M1
  6
CONTINUOUS
370
25
 62
     4
100
AcDbLine
 10
178.267176
 20
420.597874
 11
178.267176
 21
418.677876
  0
LINE
  5
E6
100
AcDbEntity
  8
M1
  6
CONTINUOUS
370
25
 62
     4
100
AcDbLine
 10
175.027178
 20
420.597874
 11
175.027178
 21
418.677876
  0
ARC
  5
E7
100
AcDbEntity
  8
M1
  6
CONTINUOUS
370
25
 62
     4
100
AcDbCircle
 10
176.647178
 20
418.677876
 40
1.619996
100
AcDbArc
 50
180.0
 51
360.0
  0
ARC
  5
E8
100
AcDbEntity
  8
M1
  6
CONTINUOUS
370
25
 62
     4
100
AcDbCircle
 10
176.647178
 20
420.597874
 40
1.619996
100
AcDbArc
 50
0.0
 51
180.0
  0
LINE
  5
E9
100
AcDbEntity
  8
M1
  6
CONTINUOUS
370
25
 62
     4
100
AcDbLine
 10
182.047176
 20
301.798104
 11
182.047176
 21
277.798116
  0
LINE
  5
EA
100
AcDbEntity
  8
M1
  6
CONTINUOUS
370
25
 62
     4
100
AcDbLine
 10
182.047176
 20
277.798116
 11
171.24718
 21
277.798116
  0
LINE
  5
EB
100
AcDbEntity
  8
M1
  6
CONTINUOUS
370
25
 62
     4
100
AcDbLine
 10
171.24718
 20
277.798116
 11
171.24718
 21
301.798104
  0
LINE
  5
EC
100
AcDbEntity
  8
M1
  6
DASHDOT
370
13
 62
     4
100
AcDbLine
 10
174.206906
 20
290.99811
 11
179.487826
 21
290.99811
  0
LINE
  5
ED
100
AcDbEntity
  8
M1
  6
DASHDOT
370
13
 62
     4
100
AcDbLine
 10
176.647178
 20
303.418104
 11
176.647178
 21
276.138976
  0
LINE
  5
EE
100
AcDbEntity
  8
M1
  6
DASHDOT
370
13
 62
     4
100
AcDbLine
 10
174.155636
 20
283.318172
 11
179.359654
 21
283.318172
  0
LINE
  5
EF
100
AcDbEntity
  8
M1
  6
DASHDOT
370
13
 62
     4
100
AcDbLine
 10
174.206906
 20
281.398172
 11
179.308384
 21
281.398172
  0
LINE
  5
F0
100
AcDbEntity
  8
M1
  6
CONTINUOUS
370
25
 62
     4
100
AcDbLine
 10
178.267176
 20
281.398172
 11
178.267176
 21
283.318172
  0
LINE
  5
F1
100
AcDbEntity
  8
M1
  6
CONTINUOUS
370
25
 62
     4
100
AcDbLine
 10
175.027178
 20
281.398172
 11
175.027178
 21
283.318172
  0
CIRCLE
  5
F2
100
AcDbEntity
  8
M1
  6
CONTINUOUS
370
25
 62
     4
100
AcDbCircle
 10
176.647178
 20
290.99811
 40
1.619996
  0
ARC
  5
F3
100
AcDbEntity
  8
M1
  6
CONTINUOUS
370
25
 62
     4
100
AcDbCircle
 10
176.647178
 20
283.318172
 40
1.619996
100
AcDbArc
 50
0.0
 51
179.997928
  0
ARC
  5
F4
100
AcDbEntity
  8
M1
  6
CONTINUOUS
370
25
 62
     4
100
AcDbCircle
 10
176.647178
 20
281.398172
 40
1.619996
100
AcDbArc
 50
179.997928
 51
360.0
  0
LINE
  5
F5
100
AcDbEntity
  8
M1
  6
CONTINUOUS
370
25
 62
     6
100
AcDbLine
 10
323.316584
 20
301.797988
 11
357.876568
 21
301.797988
  0
LINE
  5
F6
100
AcDbEntity
  8
M1
  6
CONTINUOUS
370
25
 62
     6
100
AcDbLine
 10
357.876568
 20
400.197942
 11
323.295314
 21
400.197942
  0
LINE
  5
F7
100
AcDbEntity
  8
M1
  6
CONTINUOUS
370
25
 62
     6
100
AcDbLine
 10
319.476584
 20
362.334034
 11
319.476584
 21
339.815822
  0
LINE
  5
F8
100
AcDbEntity
  8
M1
  6
CONTINUOUS
370
25
 62
     6
100
AcDbLine
 10
321.876526
 20
392.997946
 11
321.876466
 21
308.997984
  0
LINE
  5
F9
100
AcDbEntity
  8
M1
  6
CONTINUOUS
370
25
 62
     6
100
AcDbLine
 10
319.476584
 20
362.39796
 11
321.876584
 21
362.39796
  0
LINE
  5
FA
100
AcDbEntity
  8
M1
  6
CONTINUOUS
370
25
 62
     6
100
AcDbLine
 10
321.876584
 20
339.59797
 11
319.476584
 21
339.59797
  0
LINE
  5
FB
100
AcDbEntity
  8
M1
  6
CONTINUOUS
370
25
 62
     6
100
AcDbLine
 10
321.876466
 20
308.997984
 11
323.316466
 21
308.997984
  0
LINE
  5
FC
100
AcDbEntity
  8
M1
  6
CONTINUOUS
370
25
 62
     6
100
AcDbLine
 10
323.316466
 20
308.997984
 11
323.316584
 21
301.797988
  0
LINE
  5
FD
100
AcDbEntity
  8
M1
  6
CONTINUOUS
370
25
 62
     6
100
AcDbLine
 10
323.316584
 20
400.197942
 11
323.316524
 21
392.997946
  0
LINE
  5
FE
100
AcDbEntity
  8
M1
  6
CONTINUOUS
370
25
 62
     6
100
AcDbLine
 10
323.316524
 20
392.997946
 11
321.876526
 21
392.997946
  0
LINE
  5
FF
100
AcDbEntity
  8
M1
  6
CONTINUOUS
370
25
 62
     6
100
AcDbLine
 10
332.43658
 20
400.197942
 11
332.43658
 21
301.797988
  0
LINE
  5
100
100
AcDbEntity
  8
M1
  6
DASHDOT
370
13
 62
     6
100
AcDbLine
 10
335.796578
 20
362.39796
 11
335.796578
 21
339.59797
  0
LINE
  5
101
100
AcDbEntity
  8
M1
  6
DASHDOT
370
13
 62
     6
100
AcDbLine
 10
297.74978
 20
354.996302
 11
335.796578
 21
350.997906
  0
LINE
  5
102
100
AcDbEntity
  8
M1
  6
DASHDOT
370
13
 62
     6
100
AcDbLine
 10
269.163972
 20
375.249752
 11
335.796578
 21
350.997964
  0
LINE
  5
103
100
AcDbEntity
  8
M1
  6
DASHDOT
370
13
 62
     6
100
AcDbLine
 10
295.083054
 20
342.343094
 11
335.796578
 21
350.997906
  0
LINE
  5
104
100
AcDbEntity
  8
M1
  6
DASHDOT
370
13
 62
     6
100
AcDbLine
 10
268.923854
 20
331.821366
 11
335.796578
 21
350.997906
  0
LINE
  5
105
100
AcDbEntity
  8
M1
  6
CONTINUOUS
370
25
 62
     6
100
AcDbLine
 10
319.476526
 20
358.78929
 11
314.289986
 21
360.677004
  0
LINE
  5
106
100
AcDbEntity
  8
M1
  6
CONTINUOUS
370
25
 62
     6
100
AcDbLine
 10
319.476526
 20
355.085932
 11
313.099712
 21
357.406888
  0
LINE
  5
107
100
AcDbEntity
  8
M1
  6
CONTINUOUS
370
25
 62
     6
100
AcDbLine
 10
314.289986
 20
360.677004
 11
313.099712
 21
357.406888
  0
LINE
  5
108
100
AcDbEntity
  8
M1
  6
CONTINUOUS
370
25
 62
     6
100
AcDbLine
 10
343.836574
 20
400.197884
 11
348.636572
 21
400.197884
  0
LINE
  5
109
100
AcDbEntity
  8
M1
  6
CONTINUOUS
370
25
 62
     6
100
AcDbLine
 10
348.636572
 20
400.197884
 11
348.636572
 21
419.397874
  0
LINE
  5
10A
100
AcDbEntity
  8
M1
  6
CONTINUOUS
370
25
 62
     6
100
AcDbLine
 10
348.636572
 20
419.397874
 11
343.836574
 21
419.397874
  0
LINE
  5
10B
100
AcDbEntity
  8
M1
  6
CONTINUOUS
370
25
 62
     6
100
AcDbLine
 10
343.836574
 20
419.397874
 11
343.836574
 21
400.197884
  0
LINE
  5
10C
100
AcDbEntity
  8
M1
  6
CONTINUOUS
370
25
 62
     6
100
AcDbLine
 10
348.636572
 20
282.597996
 11
348.636572
 21
301.797988
  0
LINE
  5
10D
100
AcDbEntity
  8
M1
  6
CONTINUOUS
370
25
 62
     6
100
AcDbLine
 10
348.636572
 20
301.797988
 11
343.836574
 21
301.797988
  0
LINE
  5
10E
100
AcDbEntity
  8
M1
  6
CONTINUOUS
370
25
 62
     6
100
AcDbLine
 10
343.836574
 20
301.797988
 11
343.836574
 21
282.597996
  0
LINE
  5
10F
100
AcDbEntity
  8
M1
  6
DIVIDE
370
13
 62
     6
100
AcDbLine
 10
322.356584
 20
392.997886
 11
323.679806
 21
392.997886
  0
LINE
  5
110
100
AcDbEntity
  8
M1
  6
DIVIDE
370
13
 62
     6
100
AcDbLine
 10
356.436568
 20
400.249036
 11
356.436568
 21
431.39787
  0
LINE
  5
111
100
AcDbEntity
  8
M1
  6
DIVIDE
370
13
 62
     6
100
AcDbLine
 10
356.436568
 20
431.39787
 11
323.295314
 21
431.39787
  0
LINE
  5
112
100
AcDbEntity
  8
M1
  6
DIVIDE
370
13
 62
     6
100
AcDbLine
 10
323.295314
 20
431.39787
 11
323.295314
 21
400.197942
  0
LINE
  5
113
100
AcDbEntity
  8
M1
  6
CONTINUOUS
370
25
 62
     6
100
AcDbLine
 10
357.876568
 20
308.997984
 11
357.876568
 21
301.797988
  0
ARC
  5
114
100
AcDbEntity
  8
M1
  6
CONTINUOUS
370
13
 62
     6
100
AcDbCircle
 10
335.796578
 20
350.997964
 40
23.519982
100
AcDbArc
 50
160.000408
 51
196.000965
  0
LINE
  5
115
100
AcDbEntity
  8
M1
  6
DASHDOT
370
13
 62
     6
100
AcDbLine
 10
265.772156
 20
350.997964
 11
365.316564
 21
350.997964
  0
LINE
  5
116
100
AcDbEntity
  8
M1
  6
DASHED
370
13
 62
     6
100
AcDbLine
 10
309.613856
 20
356.951848
 11
318.409358
 21
353.750522
  0
LINE
  5
117
100
AcDbEntity
  8
M1
  6
DASHED
370
13
 62
     6
100
AcDbLine
 10
318.4093
 20
353.750522
 11
319.558498
 21
356.907962
  0
LINE
  5
118
100
AcDbEntity
  8
M1
  6
CONTINUOUS
370
25
 62
     6
100
AcDbLine
 10
320.707756
 20
360.065226
 11
320.70764
 21
360.065226
  0
ARC
  5
119
100
AcDbEntity
  8
M1
  6
DASHED
370
13
 62
     6
100
AcDbCircle
 10
294.412416
 20
366.06036
 40
5.39998
100
AcDbArc
 50
12.230846
 51
307.768152
  0
LINE
  5
11A
100
AcDbEntity
  8
M1
  6
DASHED
370
13
 62
     6
100
AcDbLine
 10
311.912252
 20
363.266552
 11
309.613856
 21
356.951848
  0
LINE
  5
11B
100
AcDbEntity
  8
M1
  6
CONTINUOUS
370
25
 62
     6
100
AcDbLine
 10
314.844048
 20
362.199444
 11
314.84399
 21
362.199386
  0
LINE
  5
11C
100
AcDbEntity
  8
M1
  6
DASHED
370
13
 62
     6
100
AcDbLine
 10
299.689778
 20
367.204344
 11
311.912194
 21
363.266494
  0
LINE
  5
11D
100
AcDbEntity
  8
M1
  6
DASHED
370
13
 62
     6
100
AcDbLine
 10
297.71974
 20
361.791748
 11
309.613856
 21
356.951848
  0
LINE
  5
11E
100
AcDbEntity
  8
M1
  6
CONTINUOUS
370
25
 62
     6
100
AcDbLine
 10
314.289868
 20
360.677004
 11
313.099712
 21
357.406888
  0
LINE
  5
11F
100
AcDbEntity
  8
M1
  6
DASHED
370
13
 62
     6
100
AcDbLine
 10
319.476526
 20
360.513292
 11
311.912194
 21
363.266494
  0
ARC
  5
120
100
AcDbEntity
  8
M1
  6
CONTINUOUS
370
13
 62
     6
100
AcDbCircle
 10
335.796578
 20
350.997964
 40
49.439974
100
AcDbArc
 50
160.000406
 51
179.999964
  0
LINE
  5
121
100
AcDbEntity
  8
M1
  6
CONTINUOUS
370
25
 62
     6
100
AcDbLine
 10
343.836574
 20
282.597996
 11
348.636572
 21
282.597996
  0
LINE
  5
122
100
AcDbEntity
  8
M1
  6
DASHED
370
13
 62
     6
100
AcDbLine
 10
353.07657
 20
398.757884
 11
353.07657
 21
394.437886
  0
LINE
  5
123
100
AcDbEntity
  8
M1
  6
DASHED
370
13
 62
     6
100
AcDbLine
 10
353.07657
 20
395.517886
 11
357.876568
 21
395.517886
  0
LINE
  5
124
100
AcDbEntity
  8
M1
  6
CONTINUOUS
370
25
 62
     6
100
AcDbLine
 10
357.876568
 20
395.517886
 11
357.876568
 21
397.677884
  0
LINE
  5
125
100
AcDbEntity
  8
M1
  6
DASHED
370
13
 62
     6
100
AcDbLine
 10
357.876568
 20
397.677884
 11
353.07657
 21
397.677884
  0
LINE
  5
126
100
AcDbEntity
  8
M1
  6
DASHDOT
370
13
 62
     6
100
AcDbLine
 10
348.010816
 20
396.597886
 11
360.008266
 21
396.597886
  0
LINE
  5
127
100
AcDbEntity
  8
M1
  6
CONTINUOUS
370
25
 62
     6
100
AcDbLine
 10
357.876568
 20
301.797988
 11
357.876568
 21
400.197942
  0
LINE
  5
128
100
AcDbEntity
  8
M1
  6
DASHED
370
13
 62
     6
100
AcDbLine
 10
352.830242
 20
398.757884
 11
348.756572
 21
398.757884
  0
LINE
  5
129
100
AcDbEntity
  8
M1
  6
DASHED
370
13
 62
     6
100
AcDbLine
 10
348.756572
 20
394.437886
 11
353.07657
 21
394.437886
  0
CIRCLE
  5
12A
100
AcDbEntity
  8
M1
  6
CONTINUOUS
370
25
100
AcDbCircle
 10
125.671192
 20
328.438034
 40
1.2
  0
CIRCLE
  5
12B
100
AcDbEntity
  8
M1
  6
CONTINUOUS
370
25
100
AcDbCircle
 10
132.079192
 20
328.438034
 40
1.2
  0
CIRCLE
  5
12C
100
AcDbEntity
  8
M1
  6
CONTINUOUS
370
25
100
AcDbCircle
 10
147.943208
 20
328.438034
 40
0.6
  0
LINE
  5
12D
100
AcDbEntity
  8
M1
  6
CONTINUOUS
370
25
100
AcDbLine
 10
158.407174
 20
321.022002
 11
153.367178
 21
321.022002
  0
LINE
  5
12E
100
AcDbEntity
  8
M1
  6
CONTINUOUS
370
25
100
AcDbLine
 10
158.527174
 20
318.262004
 11
158.527174
 21
320.902002
  0
ARC
  5
12F
100
AcDbEntity
  8
M1
  6
CONTINUOUS
370
25
100
AcDbCircle
 10
158.407174
 20
320.902002
 40
0.12
100
AcDbArc
 50
0.0
 51
90.0
  0
LINE
  5
130
100
AcDbEntity
  8
M1
  6
CONTINUOUS
370
25
100
AcDbLine
 10
153.247178
 20
320.902002
 11
153.247178
 21
318.262004
  0
ARC
  5
131
100
AcDbEntity
  8
M1
  6
CONTINUOUS
370
25
100
AcDbCircle
 10
153.367178
 20
320.902002
 40
0.12
100
AcDbArc
 50
90.0
 51
179.972024
  0
LINE
  5
132
100
AcDbEntity
  8
M1
  6
CONTINUOUS
370
25
100
AcDbLine
 10
153.367178
 20
318.142004
 11
158.407174
 21
318.142004
  0
ARC
  5
133
100
AcDbEntity
  8
M1
  6
CONTINUOUS
370
25
100
AcDbCircle
 10
153.367178
 20
318.262004
 40
0.12
100
AcDbArc
 50
179.972024
 51
270.0
  0
ARC
  5
134
100
AcDbEntity
  8
M1
  6
CONTINUOUS
370
25
100
AcDbCircle
 10
158.407174
 20
318.262004
 40
0.12
100
AcDbArc
 50
270.0
 51
360.0
  0
LINE
  5
135
100
AcDbEntity
  8
M1
  6
DIVIDE
370
13
100
AcDbLine
 10
134.911198
 20
444.59798
 11
134.383198
 21
444.59798
  0
LINE
  5
136
100
AcDbEntity
  8
M1
  6
DIVIDE
370
13
100
AcDbLine
 10
134.383198
 20
444.59798
 11
134.383198
 21
400.198
  0
LINE
  5
137
100
AcDbEntity
  8
M1
  6
DIVIDE
370
13
100
AcDbLine
 10
130.025998
 20
400.198
 11
130.554
 21
400.198
  0
LINE
  5
138
100
AcDbEntity
  8
M1
  6
DIVIDE
370
13
100
AcDbLine
 10
134.911198
 20
400.198
 11
134.911198
 21
444.59798
  0
LINE
  5
139
100
AcDbEntity
  8
M1
  6
DIVIDE
370
13
100
AcDbLine
 10
151.71119
 20
444.59798
 11
151.183192
 21
444.59798
  0
LINE
  5
13A
100
AcDbEntity
  8
M1
  6
DIVIDE
370
13
100
AcDbLine
 10
151.183192
 20
444.59798
 11
151.183192
 21
400.198
  0
LINE
  5
13B
100
AcDbEntity
  8
M1
  6
DIVIDE
370
13
100
AcDbLine
 10
146.82599
 20
400.198
 11
147.353992
 21
400.198
  0
LINE
  5
13C
100
AcDbEntity
  8
M1
  6
DIVIDE
370
13
100
AcDbLine
 10
151.71119
 20
400.198
 11
151.71119
 21
444.59798
  0
LINE
  5
13D
100
AcDbEntity
  8
M1
  6
DIVIDE
370
13
100
AcDbLine
 10
168.511182
 20
444.59798
 11
167.983184
 21
444.59798
  0
LINE
  5
13E
100
AcDbEntity
  8
M1
  6
DIVIDE
370
13
100
AcDbLine
 10
167.983184
 20
444.59798
 11
167.983184
 21
400.198
  0
LINE
  5
13F
100
AcDbEntity
  8
M1
  6
DIVIDE
370
13
100
AcDbLine
 10
168.511182
 20
400.198
 11
168.511182
 21
444.59798
  0
ARC
  5
140
100
AcDbEntity
  8
M1
  6
CONTINUOUS
370
25
 62
     4
100
AcDbCircle
 10
176.647178
 20
318.59798
 40
2.159992
100
AcDbArc
 50
240.000574
 51
360.0
  0
LINE
  5
141
100
AcDbEntity
  8
M1
  6
CONTINUOUS
370
25
 62
     4
100
AcDbLine
 10
177.607178
 20
317.038038
 11
177.607178
 21
320.157978
  0
LINE
  5
142
100
AcDbEntity
  8
M1
  6
CONTINUOUS
370
25
 62
     4
100
AcDbLine
 10
175.687178
 20
320.157978
 11
175.687178
 21
317.038038
  0
LINE
  5
143
100
AcDbEntity
  8
M1
  6
CONTINUOUS
370
25
 62
     4
100
AcDbLine
 10
177.727178
 20
320.157978
 11
177.487178
 21
320.15792
  0
LINE
  5
144
100
AcDbEntity
  8
M1
  6
CONTINUOUS
370
25
 62
     4
100
AcDbLine
 10
175.567178
 20
317.038038
 11
175.807178
 21
317.038038
  0
LINE
  5
145
100
AcDbEntity
  8
M1
  6
CONTINUOUS
370
25
 62
     4
100
AcDbLine
 10
175.687178
 20
320.158038
 11
177.607178
 21
317.038038
  0
LINE
  5
146
100
AcDbEntity
  8
M1
  6
CONTINUOUS
370
25
 62
     4
100
AcDbLine
 10
175.807178
 20
320.158038
 11
175.807178
 21
317.038038
  0
LINE
  5
147
100
AcDbEntity
  8
M1
  6
CONTINUOUS
370
25
 62
     4
100
AcDbLine
 10
177.487178
 20
320.158038
 11
177.487178
 21
317.038038
  0
LINE
  5
148
100
AcDbEntity
  8
M1
  6
CONTINUOUS
370
25
 62
     4
100
AcDbLine
 10
175.828038
 20
320.157978
 11
177.607118
 21
317.266906
  0
LINE
  5
149
100
AcDbEntity
  8
M1
  6
CONTINUOUS
370
25
 62
     4
100
AcDbLine
 10
175.68712
 20
319.928936
 11
177.466142
 21
317.038038
  0
LINE
  5
14A
100
AcDbEntity
  8
M1
  6
CONTINUOUS
370
25
 62
     4
100
AcDbLine
 10
177.727178
 20
320.158038
 11
177.727178
 21
317.038038
  0
LINE
  5
14B
100
AcDbEntity
  8
M1
  6
CONTINUOUS
370
25
 62
     4
100
AcDbLine
 10
175.567178
 20
320.158038
 11
175.567178
 21
317.038038
  0
CIRCLE
  5
14C
100
AcDbEntity
  8
M1
  6
CONTINUOUS
370
25
 62
     4
100
AcDbCircle
 10
176.647178
 20
318.59798
 40
2.159992
  0
LINE
  5
14D
100
AcDbEntity
  8
M1
  6
CONTINUOUS
370
25
 62
     4
100
AcDbLine
 10
177.487178
 20
317.038038
 11
177.727178
 21
317.038038
  0
LINE
  5
14E
100
AcDbEntity
  8
M1
  6
CONTINUOUS
370
25
 62
     4
100
AcDbLine
 10
175.807178
 20
320.15792
 11
175.567178
 21
320.157978
  0
LINE
  5
14F
100
AcDbEntity
  8
M1
  6
DASHDOT
370
13
 62
     6
100
AcDbLine
 10
189.007038
 20
374.278086
 11
185.04704
 21
374.278086
  0
LINE
  5
150
100
AcDbEntity
  8
M1
  6
DASHDOT
370
13
 62
     6
100
AcDbLine
 10
185.04704
 20
359.398092
 11
189.007038
 21
359.398092
  0
CIRCLE
  5
151
100
AcDbEntity
  8
M1
  6
CONTINUOUS
370
13
 62
     6
100
AcDbCircle
 10
186.727038
 20
368.03803
 40
0.72
  0
CIRCLE
  5
152
100
AcDbEntity
  8
M1
  6
CONTINUOUS
370
13
 62
     6
100
AcDbCircle
 10
186.727038
 20
365.638032
 40
0.72
  0
CIRCLE
  5
153
100
AcDbEntity
  8
M1
  6
CONTINUOUS
370
13
 62
     6
100
AcDbCircle
 10
186.727038
 20
372.838028
 40
0.72
  0
CIRCLE
  5
154
100
AcDbEntity
  8
M1
  6
CONTINUOUS
370
13
 62
     6
100
AcDbCircle
 10
186.727038
 20
360.838034
 40
0.72
  0
LINE
  5
155
100
AcDbEntity
  8
M1
  6
DASHDOT
370
13
 62
     6
100
AcDbLine
 10
189.007038
 20
359.398092
 11
189.007038
 21
374.278086
  0
CIRCLE
  5
156
100
AcDbEntity
  8
M1
  6
CONTINUOUS
370
13
 62
     6
100
AcDbCircle
 10
186.727038
 20
370.43803
 40
0.72
  0
CIRCLE
  5
157
100
AcDbEntity
  8
M1
  6
CONTINUOUS
370
13
 62
     6
100
AcDbCircle
 10
186.727038
 20
363.238032
 40
0.72
  0
CIRCLE
  5
158
100
AcDbEntity
  8
M1
  6
CONTINUOUS
370
13
 62
     6
100
AcDbCircle
 10
186.727156
 20
319.078052
 40
0.72
  0
CIRCLE
  5
159
100
AcDbEntity
  8
M1
  6
CONTINUOUS
370
13
 62
     6
100
AcDbCircle
 10
186.727156
 20
316.678054
 40
0.72
  0
CIRCLE
  5
15A
100
AcDbEntity
  8
M1
  6
CONTINUOUS
370
13
 62
     6
100
AcDbCircle
 10
186.727156
 20
323.87805
 40
0.72
  0
CIRCLE
  5
15B
100
AcDbEntity
  8
M1
  6
CONTINUOUS
370
13
 62
     6
100
AcDbCircle
 10
186.727156
 20
321.478052
 40
0.72
  0
LINE
  5
15C
100
AcDbEntity
  8
M1
  6
DASHDOT
370
13
 62
     6
100
AcDbLine
 10
189.007154
 20
325.318108
 11
185.047156
 21
325.318108
  0
LINE
  5
15D
100
AcDbEntity
  8
M1
  6
DASHDOT
370
13
 62
     6
100
AcDbLine
 10
185.047156
 20
310.438116
 11
189.007154
 21
310.438116
  0
CIRCLE
  5
15E
100
AcDbEntity
  8
M1
  6
CONTINUOUS
370
13
 62
     6
100
AcDbCircle
 10
186.727156
 20
314.278054
 40
0.72
  0
CIRCLE
  5
15F
100
AcDbEntity
  8
M1
  6
CONTINUOUS
370
13
 62
     6
100
AcDbCircle
 10
186.727156
 20
311.878056
 40
0.72
  0
LINE
  5
160
100
AcDbEntity
  8
M1
  6
DASHDOT
370
13
 62
     6
100
AcDbLine
 10
189.007154
 20
310.438116
 11
189.007154
 21
325.318108
  0
LINE
  5
161
100
AcDbEntity
  8
M1
  6
DASHDOT
370
13
 62
     6
100
AcDbLine
 10
113.88734
 20
374.278086
 11
117.847338
 21
374.278086
  0
LINE
  5
162
100
AcDbEntity
  8
M1
  6
DASHDOT
370
13
 62
     6
100
AcDbLine
 10
117.847338
 20
359.398092
 11
113.88734
 21
359.398092
  0
CIRCLE
  5
163
100
AcDbEntity
  8
M1
  6
CONTINUOUS
370
13
 62
     6
100
AcDbCircle
 10
116.16734
 20
368.03803
 40
0.72
  0
CIRCLE
  5
164
100
AcDbEntity
  8
M1
  6
CONTINUOUS
370
13
 62
     6
100
AcDbCircle
 10
116.16734
 20
365.638032
 40
0.72
  0
CIRCLE
  5
165
100
AcDbEntity
  8
M1
  6
CONTINUOUS
370
13
 62
     6
100
AcDbCircle
 10
116.16734
 20
372.838028
 40
0.72
  0
CIRCLE
  5
166
100
AcDbEntity
  8
M1
  6
CONTINUOUS
370
13
 62
     6
100
AcDbCircle
 10
116.16734
 20
360.838034
 40
0.72
  0
LINE
  5
167
100
AcDbEntity
  8
M1
  6
DASHDOT
370
13
 62
     6
100
AcDbLine
 10
113.88734
 20
359.398092
 11
113.88734
 21
374.278086
  0
CIRCLE
  5
168
100
AcDbEntity
  8
M1
  6
CONTINUOUS
370
13
 62
     6
100
AcDbCircle
 10
116.16734
 20
370.43803
 40
0.72
  0
CIRCLE
  5
169
100
AcDbEntity
  8
M1
  6
CONTINUOUS
370
13
 62
     6
100
AcDbCircle
 10
116.16734
 20
363.238032
 40
0.72
  0
LINE
  5
16A
100
AcDbEntity
  8
M3
  6
CONTINUOUS
370
50
100
AcDbLine
 10
50.0
 20
20.0
 11
400.0
 21
20.0
  0
LINE
  5
16B
100
AcDbEntity
  8
M3
  6
CONTINUOUS
370
50
100
AcDbLine
 10
400.0
 20
20.0
 11
400.0
 21
574.0
  0
LINE
  5
16C
100
AcDbEntity
  8
M3
  6
CONTINUOUS
370
50
100
AcDbLine
 10
400.0
 20
574.0
 11
50.0
 21
574.0
  0
LINE
  5
16D
100
AcDbEntity
  8
M3
  6
CONTINUOUS
370
50
100
AcDbLine
 10
50.0
 20
574.0
 11
50.0
 21
20.0
  0
LINE
  5
16E
100
AcDbEntity
  8
M6
  6
CONTINUOUS
370
25
 60
     1
100
AcDbLine
 10
55.860778
 20
486.718658
 11
110.910682
 21
486.718658
  0
LINE
  5
16F
100
AcDbEntity
  8
M6
  6
CONTINUOUS
370
25
 60
     1
100
AcDbLine
 10
110.910682
 20
486.718658
 11
130.100662
 21
486.718658
  0
LINE
  5
170
100
AcDbEntity
  8
M6
  6
CONTINUOUS
370
25
 60
     1
100
AcDbLine
 10
130.100662
 20
486.718658
 11
176.080628
 21
486.718658
  0
LINE
  5
171
100
AcDbEntity
  8
M6
  6
CONTINUOUS
370
25
 60
     1
100
AcDbLine
 10
176.080628
 20
486.718658
 11
232.990586
 21
486.718658
  0
LINE
  5
172
100
AcDbEntity
  8
M6
  6
CONTINUOUS
370
25
 60
     1
100
AcDbLine
 10
394.250518
 20
486.718658
 11
394.250518
 21
513.118652
  0
LINE
  5
173
100
AcDbEntity
  8
M6
  6
CONTINUOUS
370
25
 60
     1
100
AcDbLine
 10
348.270508
 20
486.718658
 11
394.250518
 21
486.718658
  0
LINE
  5
174
100
AcDbEntity
  8
M6
  6
CONTINUOUS
370
25
 60
     1
100
AcDbLine
 10
394.250518
 20
513.118652
 11
394.250518
 21
526.318604
  0
LINE
  5
175
100
AcDbEntity
  8
M6
  6
CONTINUOUS
370
25
 60
     1
100
AcDbLine
 10
232.990586
 20
486.718658
 11
348.270508
 21
486.718658
  0
ENDSEC
  0
SECTION
  2
OBJECTS
  0
DICTIONARY
  5
C
100
AcDbDictionary
  3
ACAD_GROUP
350
D
  3
ACAD_MLINESTYLE
350
E
  0
DICTIONARY
  5
D
102
{ACAD_REACTORS
330
C
102
}
100
AcDbDictionary
  0
DICTIONARY
  5
E
102
{ACAD_REACTORS
330
C
102
}
100
AcDbDictionary
  3
STANDARD
350
13
  0
MLINESTYLE
  5
13
102
{ACAD_REACTORS
330
E
102
}
100
AcDbMlineStyle
  2
STANDARD
 70
     0
  3

 62
     0
 51
90.0
 52
90.0
 71
     2
 49
0.5
 62
   256
  6
BYLAYER
 49
-0.5
 62
   256
  6
BYLAYER
  0
ENDSEC
  0
EOF
