  0
SECTION
  2
HEADER
  9
$ACADVER
  1
AC1015
  9
$INSBASE
 10
0.000000
 20
0.000000
 30
0.0
  9
$VIEWCTR
 10
7.531722
 20
4.5
  9
$VIEWSIZE
 40
9.0
  9
$SNAPMODE
 70
     0
  9
$SNAPUNIT
 10
1.0
 20
1.0
  9
$SNAPBASE
 10
0.0
 20
0.0
  9
$SNAPANG
 50
0.0
  9
$SNAPSTYLE
 70
     0
  9
$SNAPISOPAIR
 70
     0
  9
$GRIDMODE
 70
     0
  9
$GRIDUNIT
 10
0.0
 20
0.0
  9
$ORTHOMODE
 70
     0
  9
$REGENMODE
 70
     1
  9
$FILLMODE
 70
     1
  9
$QTEXTMODE
 70
     0
  9
$DRAGMODE
 70
     2
  9
$LTSCALE
  40
     1.000000
  9
$OSMODE
 70
     0
  9
$ATTMODE
 70
     1
  9
$TEXTSIZE
 40
0.2
  9
$TRACEWID
 40
0.05
  9
$TEXTSTYLE
  7
STANDARD
  9
$CELTYPE
  6
BYLAYER
  9
$CECOLOR
 62
   256
  9
$DIMSCALE
 40
1.0
  9
$DIMASZ
 40
0.18
  9
$DIMEXO
 40
0.0625
  9
$DIMDLI
 40
0.38
  9
$DIMRND
 40
0.0
  9
$DIMDLE
 40
0.0
  9
$DIMEXE
 40
0.18
  9
$DIMTP
 40
0.0
  9
$DIMTM
 40
0.0
  9
$DIMTXT
 40
0.18
  9
$DIMCEN
 40
0.09
  9
$DIMTSZ
 40
0.0
  9
$DIMADEC
 70
     0
  9
$DIMALTRND
 40
0.000000
  9
$DIMAZIN
 70
     0
  9
$DIMDSEP
 70
    46
  9
$DIMATFIT
 70
     3
  9
$DIMFRAC
 70
     0
  9
$DIMLDRBLK
  1

  9
$DIMLUNIT
 70
     2
  9
$DIMLWD
 70
   13
  9
$DIMLWE
 70
   13
  9
$DIMTMOVE
 70
     0
  9
$CELWEIGHT
370
    25
  9
$LWDISPLAY
290
    1
  9
$EXTNAMES
290
    1
  9
$DIMTOL
 70
     0
  9
$DIMLIM
 70
     0
  9
$DIMTIH
 70
     1
  9
$DIMTOH
 70
     1
  9
$DIMSE1
 70
     0
  9
$DIMSE2
 70
     0
  9
$DIMTAD
 70
     0
  9
$DIMZIN
 70
     0
  9
$DIMBLK
  1

  9
$LUNITS
 70
     2
  9
$LUPREC
 70
     4
  9
$AXISMODE
 70
     0
  9
$AXISUNIT
 10
0.0
 20
0.0
  9
$SKETCHINC
 40
0.1
  9
$FILLETRAD
 40
0.0
  9
$AUNITS
 70
     0
  9
$AUPREC
 70
     0
  9
$MENU
  1
ACAD
  9
$ELEVATION
 40
0.0
  9
$THICKNESS
 40
0.0
  9
$VIEWDIR
 10
0.0
 20
0.0
 30
1.0
  9
$LIMCHECK
 70
     0
  9
$BLIPMODE
 70
     1
  9
$CHAMFERA
 40
0.0
  9
$CHAMFERB
 40
0.0
  9
$FASTZOOM
 70
     1
  9
$SKPOLY
 70
     0
  9
$TDCREATE
 40
0000000.0000000000
  9
$TDUPDATE
 40
0000000.0000000000
  9
$TDINDWG
 40
0.0000000000
  9
$TDUSRTIMER
 40
0.0000000000
  9
$USRTIMER
 70
     1
  9
$ANGBASE
 50
0.0
  9
$ANGDIR
 70
     0
  9
$PDMODE
 70
     0
  9
$PDSIZE
 40
0.0
  9
$PLINEWID
 40
0.0
  9
$COORDS
 70
     0
  9
$USERI1
 70
     0
  9
$USERI2
 70
     0
  9
$USERI3
 70
     0
  9
$USERI4
 70
     0
  9
$USERI5
 70
     0
  9
$USERR1
 40
0.0
  9
$USERR2
 40
0.0
  9
$USERR3
 40
0.0
  9
$USERR4
 40
0.0
  9
$USERR5
 40
0.0
  9
$CLAYER
  8
M1
  9
$EXTMIN
 10
0.0
 20
0.0
  9
$EXTMAX
 10
841.0
 20
594.0
  9
$LIMMIN
 10
0.0
 20
0.0
  9
$LIMMAX
 10
841.0
 20
594.0
  9
$HANDSEED
  5
11F
  0
ENDSEC
  0
SECTION
  2
CLASSES
  0
CLASS
  1
DIMASSOC
  2
AcDbDimAssoc
  3
"AcDbDimAssoc|Product Desc:     AcDim ARX App For Dimension|Company:          Autodesk, Inc.|WEB Address:      www.autodesk.com"
 90
        0
280
     0
281
     0
  0
ENDSEC
  0
SECTION
  2
TABLES
  0
TABLE
  2
VPORT
  5
8
100
AcDbSymbolTable
 70
     2
  0
VPORT
  5
14
100
AcDbSymbolTableRecord
100
AcDbViewportTableRecord
  2
*ACTIVE
 70
     0
 10
0.0
 20
0.0
 11
1.0
 21
1.0
 12
484.0
 22
297.0
 13
0.0
 23
0.0
 14
1.0
 24
1.0
 15
0.0
 25
0.0
 16
0.0
 26
0.0
 36
1.0
 17
0.0
 27
0.0
 37
0.0
 40
594.0
 41
2.0
 42
50.0
 43
0.0
 44
0.0
 50
0.0
 51
0.0
 71
     0
 72
   100
 73
     1
 74
     1
 75
     0
 76
     0
 77
     0
 78
     0
  0
ENDTAB
  0
TABLE
  2
LTYPE
  5
5
100
AcDbSymbolTable
 70
     5
  0
LTYPE
  5
15
100
AcDbSymbolTableRecord
100
AcDbLinetypeTableRecord
  2
BYBLOCK
 70
     0
  3

 72
    65
 73
     0
 40
0.0
  0
LTYPE
  5
16
100
AcDbSymbolTableRecord
100
AcDbLinetypeTableRecord
  2
BYLAYER
 70
     0
  3

 72
    65
 73
     0
 40
0.0
  0
LTYPE
  5
17
100
AcDbSymbolTableRecord
100
AcDbLinetypeTableRecord
  2
CONTINUOUS
 70
    64
  3
Solid line
 72
    65
 73
     0
 40
0.0
  0
LTYPE
  5
18
100
AcDbSymbolTableRecord
100
AcDbLinetypeTableRecord
  2
DASHED
 70
    64
  3
__ __ __ __ __ __ __ __ __ __ __ __ __ __ __ __
 72
    65
 73
     2
 40
0.75
 49
0.5
 74
     0
 49
-0.25
 74
     0
  0
LTYPE
  5
19
100
AcDbSymbolTableRecord
100
AcDbLinetypeTableRecord
  2
DASHDOT
 70
    64
  3
__ . __ . __ . __ . __ . __ . __ . __ . __ . __
 72
    65
 73
     4
 40
1.0
 49
0.5
 74
     0
 49
-0.25
 74
     0
 49
0.0
 74
     0
 49
-0.25
 74
     0
  0
LTYPE
  5
1A
100
AcDbSymbolTableRecord
100
AcDbLinetypeTableRecord
  2
DIVIDE
 70
    64
  3
____ . . ____ . . ____ . . ____ . . ____ . . __
 72
    65
 73
     6
 40
1.25
 49
0.5
 74
     0
 49
-0.25
 74
     0
 49
0.0
 74
     0
 49
-0.25
 74
     0
 49
0.0
 74
     0
 49
-0.25
 74
     0
  0
LTYPE
  5
1B
100
AcDbSymbolTableRecord
100
AcDbLinetypeTableRecord
  2
DOT
 70
    64
  3
. . . . . . . . . . . . . . . . . . . . . . . .
 72
    65
 73
     2
 40
0.25
 49
0.0
 74
     0
 49
-0.25
 74
     0
  0
ENDTAB
  0
TABLE
  2
LAYER
  5
2
100
AcDbSymbolTable
 70
   102
  0
LAYER
  5
F
100
AcDbSymbolTableRecord
100
AcDbLayerTableRecord
  2
0
 70
     0
 62
     7
  6
CONTINUOUS
370
     -3
390
F
  0
LAYER
  5
1C
100
AcDbSymbolTableRecord
100
AcDbLayerTableRecord
  2
M1
 70
     0
 62
     3
  6
CONTINUOUS
370
     -3
390
F
  0
LAYER
  5
1D
100
AcDbSymbolTableRecord
100
AcDbLayerTableRecord
  2
M2
 70
     0
 62
     7
  6
CONTINUOUS
370
     -3
390
F
  0
ENDTAB
  0
TABLE
  2
STYLE
  5
3
100
AcDbSymbolTable
 70
     2
  0
STYLE
  5
10
100
AcDbSymbolTableRecord
100
AcDbTextStyleTableRecord
  2
STANDARD
 70
     0
 40
0.0
 41
1.0
 50
0.0
 71
     0
 42
0.2
  3
txt
  4
BIGFONT
  0
ENDTAB
  0
TABLE
  2
VIEW
  5
6
100
AcDbSymbolTable
 70
     0
  0
ENDTAB
  0
TABLE
  2
UCS
  5
7
100
AcDbSymbolTable
 70
     0
  0
ENDTAB
  0
TABLE
  2
APPID
  5
9
100
AcDbSymbolTable
 70
     1
  0
APPID
  5
11
100
AcDbSymbolTableRecord
100
AcDbRegAppTableRecord
  2
ACAD
 70
     0
  0
ENDTAB
  0
TABLE
  2
DIMSTYLE
  5
A
100
AcDbSymbolTable
 70
     2
100
AcDbDimStyleTable
 71
     1
  0
DIMSTYLE
105
46
100
AcDbSymbolTableRecord
100
AcDbDimStyleTableRecord
  2
STANDARD
 70
     0
  3

  4

  5

  6
_OPEN
  7
_OPEN
 40
1.0
 41
3.0
 42
0.0
 43
8.0
 44
1.5
 45
0.0
 46
0.0
 47
0.0
 48
0.0
140
3.2
141
0.09
142
0.0
143
0.03937
144
1.0
145
0.0
146
1.0
147
1.0
148
0.000000
 71
     0
 72
     0
 73
     1
 74
     1
 75
     0
 76
     0
 77
     3
 78
     8
170
     0
171
     2
172
     0
173
     1
174
     0
175
     0
176
     0
177
     0
178
     0
270
     2
271
     2
272
     4
273
     2
274
     2
340
10
275
     0
278
    46
280
     0
281
     0
282
     0
283
     1
284
     0
285
     0
286
     0
287
     3
288
     0
371
   13
372
   13
  0
DIMSTYLE
105
47
100
AcDbSymbolTableRecord
100
AcDbDimStyleTableRecord
  2
LEADSTYL
 70
     0
  3

  4

  5

  6
_OPEN
  7
_OPEN
 40
1.0
 41
3.0
 42
0.0625
 43
0.38
 44
0.18
 45
0.0
 46
0.0
 47
0.0
 48
0.0
140
3.2
141
0.09
142
0.0
143
25.4
144
1.0
145
0.0
146
1.0
147
1.0
 71
     0
 72
     0
 73
     1
 74
     1
 75
     0
 76
     0
 77
     0
 78
     0
170
     0
171
     2
172
     0
173
     1
174
     0
175
     0
176
     0
177
     0
178
     0
270
     2
271
     4
272
     4
273
     2
274
     2
340
10
275
     0
280
     0
281
     0
282
     0
283
     1
284
     0
285
     0
286
     0
287
     3
288
     0
  0
ENDTAB
  0
TABLE
  2
BLOCK_RECORD
  5
1
100
AcDbSymbolTable
 70
     6
  0
BLOCK_RECORD
  5
1E
100
AcDbSymbolTableRecord
100
AcDbBlockTableRecord
  2
*MODEL_SPACE
  0
BLOCK_RECORD
  5
21
100
AcDbSymbolTableRecord
100
AcDbBlockTableRecord
  2
*PAPER_SPACE
  0
BLOCK_RECORD
  5
24
100
AcDbSymbolTableRecord
100
AcDbBlockTableRecord
  2
_NONE
  0
BLOCK_RECORD
  5
28
100
AcDbSymbolTableRecord
100
AcDbBlockTableRecord
  2
_OPEN
  0
BLOCK_RECORD
  5
2E
100
AcDbSymbolTableRecord
100
AcDbBlockTableRecord
  2
_CLOSED
  0
BLOCK_RECORD
  5
35
100
AcDbSymbolTableRecord
100
AcDbBlockTableRecord
  2
_ORIGIN
  0
BLOCK_RECORD
  5
3A
100
AcDbSymbolTableRecord
100
AcDbBlockTableRecord
  2
_DOT
  0
BLOCK_RECORD
  5
42
100
AcDbSymbolTableRecord
100
AcDbBlockTableRecord
  2
_OBLIQUE
  0
ENDTAB
  0
ENDSEC
  0
SECTION
  2
BLOCKS
  0
BLOCK
  5
1F
100
AcDbEntity
  8
0
100
AcDbBlockBegin
  2
*MODEL_SPACE
 70
     0
 10
0.0
 20
0.0
 30
0.0
  3
*MODEL_SPACE
  1

  0
ENDBLK
  5
20
100
AcDbEntity
  8
0
100
AcDbBlockEnd
  0
BLOCK
  5
22
100
AcDbEntity
 67
     1
  8
0
100
AcDbBlockBegin
  2
*PAPER_SPACE
 70
     0
 10
0.0
 20
0.0
 30
0.0
  3
*PAPER_SPACE
  1

  0
ENDBLK
  5
23
100
AcDbEntity
 67
     1
  8
0
100
AcDbBlockEnd
  0
BLOCK
  5
25
100
AcDbEntity
  8
0
100
AcDbBlockBegin
  2
_NONE
 70
     0
 10
0.0
 20
0.0
  0
CIRCLE
  5
26
100
AcDbEntity
  8
0
 62
     0
370
13
100
AcDbCircle
 10
0.0
 20
0.0
 40
0.25
  0
ENDBLK
  5
27
100
AcDbEntity
  8
0
100
AcDbBlockEnd
  0
BLOCK
  5
29
100
AcDbEntity
  8
0
100
AcDbBlockBegin
  2
_OPEN
 70
     0
 10
0.0
 20
0.0
  0
LINE
  5
2A
100
AcDbEntity
  8
0
 62
     0
370
13
100
AcDbLine
 10
-0.965926
 20
0.258819
 11
0.0
 21
0.0
  0
LINE
  5
2B
100
AcDbEntity
  8
0
 62
     0
370
13
100
AcDbLine
 10
0.0
 20
0.0
 11
-0.965926
 21
-0.258819
  0
LINE
  5
2C
100
AcDbEntity
  8
0
 62
     0
370
13
100
AcDbLine
 10
0.0
 20
0.0
 11
-1.0
 21
0.0
  0
ENDBLK
  5
2D
100
AcDbEntity
  8
0
100
AcDbBlockEnd
  0
BLOCK
  5
2F
100
AcDbEntity
  8
0
100
AcDbBlockBegin
  2
_CLOSED
 70
     0
 10
0.0
 20
0.0
  0
LINE
  5
30
100
AcDbEntity
  8
0
 62
     0
370
13
100
AcDbLine
 10
-0.965926
 20
0.258819
 11
0.0
 21
0.0
  0
LINE
  5
31
100
AcDbEntity
  8
0
 62
     0
370
13
100
AcDbLine
 10
0.0
 20
0.0
 11
-0.965926
 21
-0.258819
  0
LINE
  5
32
100
AcDbEntity
  8
0
 62
     0
370
13
100
AcDbLine
 10
-0.965926
 20
0.258819
 11
-0.965926
 21
-0.258819
  0
LINE
  5
33
100
AcDbEntity
  8
0
 62
     0
370
13
100
AcDbLine
 10
0.0
 20
0.0
 11
-1.0
 21
0.0
  0
ENDBLK
  5
34
100
AcDbEntity
  8
0
100
AcDbBlockEnd
  0
BLOCK
  5
36
100
AcDbEntity
  8
0
100
AcDbBlockBegin
  2
_ORIGIN
 70
     0
 10
0.0
 20
0.0
  0
CIRCLE
  5
37
100
AcDbEntity
  8
0
 62
     0
370
13
100
AcDbCircle
 10
0.0
 20
0.0
 40
0.5
  0
LINE
  5
38
100
AcDbEntity
  8
0
 62
     0
370
13
100
AcDbLine
 10
0.0
 20
0.0
 11
-1.0
 21
0.0
  0
ENDBLK
  5
39
100
AcDbEntity
  8
0
100
AcDbBlockEnd
  0
BLOCK
  5
3B
100
AcDbEntity
  8
0
100
AcDbBlockBegin
  2
_DOT
 70
     0
 10
0.0
 20
0.0
  0
POLYLINE
  5
3C
100
AcDbEntity
  8
0
 62
     0
100
AcDb2dPolyline
 66
     1
 70
     1
 40
0.5
 41
0.5
  0
VERTEX
  5
3D
100
AcDbEntity
  8
0
 62
     0
100
AcDbVertex
100
AcDb2dVertex
 10
-0.25
 20
0.0
 42
1.0
  0
VERTEX
  5
3E
100
AcDbEntity
  8
0
 62
     0
100
AcDbVertex
100
AcDb2dVertex
 10
0.25
 20
0.0
 42
1.0
  0
SEQEND
  5
3F
100
AcDbEntity
  8
0
 62
     0
  0
LINE
  5
40
100
AcDbEntity
  8
0
 62
     0
370
13
100
AcDbLine
 10
-0.5
 20
0.0
 11
-1.0
 21
0.0
  0
ENDBLK
  5
41
100
AcDbEntity
  8
0
100
AcDbBlockEnd
  0
BLOCK
  5
43
100
AcDbEntity
  8
0
100
AcDbBlockBegin
  2
_OBLIQUE
 70
     0
 10
0.0
 20
0.0
  0
LINE
  5
44
100
AcDbEntity
  8
0
 62
     0
370
13
100
AcDbLine
 10
-0.353553
 20
-0.353553
 11
0.353553
 21
0.353553
  0
ENDBLK
  5
45
100
AcDbEntity
  8
0
100
AcDbBlockEnd
  0
ENDSEC
  0
SECTION
  2
ENTITIES
  0
LINE
  5
48
100
AcDbEntity
  8
M1
  6
DASHDOT
370
25
100
AcDbLine
 10
42.138893
 20
500.634671
 11
55.638893
 21
500.634671
  0
LINE
  5
49
100
AcDbEntity
  8
M1
  6
DASHDOT
370
25
100
AcDbLine
 10
48.888893
 20
493.884671
 11
48.888893
 21
507.384671
  0
CIRCLE
  5
4A
100
AcDbEntity
  8
M1
  6
CONTINUOUS
370
25
100
AcDbCircle
 10
48.888893
 20
500.634671
 40
1.75
  0
CIRCLE
  5
4B
100
AcDbEntity
  8
M1
  6
CONTINUOUS
370
25
100
AcDbCircle
 10
83.888893
 20
500.634671
 40
1.75
  0
LINE
  5
4C
100
AcDbEntity
  8
M1
  6
DASHDOT
370
25
100
AcDbLine
 10
90.638893
 20
500.634671
 11
77.138893
 21
500.634671
  0
LINE
  5
4D
100
AcDbEntity
  8
M1
  6
DASHDOT
370
25
100
AcDbLine
 10
83.888893
 20
493.884671
 11
83.888893
 21
507.384671
  0
CIRCLE
  5
4E
100
AcDbEntity
  8
M1
  6
CONTINUOUS
370
25
100
AcDbCircle
 10
83.888893
 20
379.134672
 40
1.75
  0
LINE
  5
4F
100
AcDbEntity
  8
M1
  6
DASHDOT
370
25
100
AcDbLine
 10
90.638893
 20
379.134672
 11
77.138893
 21
379.134672
  0
LINE
  5
50
100
AcDbEntity
  8
M1
  6
DASHDOT
370
25
100
AcDbLine
 10
83.888893
 20
385.884671
 11
83.888893
 21
372.384672
  0
CIRCLE
  5
51
100
AcDbEntity
  8
M1
  6
CONTINUOUS
370
25
100
AcDbCircle
 10
48.888893
 20
379.134672
 40
1.75
  0
LINE
  5
52
100
AcDbEntity
  8
M1
  6
DASHDOT
370
25
100
AcDbLine
 10
42.138893
 20
379.134672
 11
55.638893
 21
379.134672
  0
LINE
  5
53
100
AcDbEntity
  8
M1
  6
DASHDOT
370
25
100
AcDbLine
 10
48.888893
 20
385.884671
 11
48.888893
 21
372.384672
  0
LINE
  5
54
100
AcDbEntity
  8
M1
  6
CONTINUOUS
370
25
 62
     4
100
AcDbLine
 10
118.888893
 20
371.384672
 11
118.888893
 21
508.384671
  0
LINE
  5
55
100
AcDbEntity
  8
M1
  6
CONTINUOUS
370
25
 62
     4
100
AcDbLine
 10
118.888893
 20
508.384671
 11
13.888893
 21
508.384671
  0
LINE
  5
56
100
AcDbEntity
  8
M1
  6
CONTINUOUS
370
25
 62
     4
100
AcDbLine
 10
13.888893
 20
508.384671
 11
13.888893
 21
371.384672
  0
LINE
  5
57
100
AcDbEntity
  8
M1
  6
CONTINUOUS
370
25
 62
     4
100
AcDbLine
 10
13.888893
 20
371.384672
 11
118.888893
 21
371.384672
  0
LINE
  5
58
100
AcDbEntity
  8
M1
  6
DASHDOT
370
25
 62
     4
100
AcDbLine
 10
-1.421085E-014
 20
439.884672
 11
132.777786
 21
439.884672
  0
LINE
  5
59
100
AcDbEntity
  8
M1
  6
DASHDOT
370
25
 62
     4
100
AcDbLine
 10
66.388893
 20
357.495779
 11
66.388893
 21
522.273564
  0
LINE
  5
5A
100
AcDbEntity
  8
M1
  6
CONTINUOUS
370
25
 62
     4
100
AcDbLine
 10
82.388893
 20
463.634672
 11
50.388893
 21
463.63455
  0
ARC
  5
5B
100
AcDbEntity
  8
M1
  6
CONTINUOUS
370
25
 62
     4
100
AcDbCircle
 10
82.388893
 20
460.13455
 40
3.49997
100
AcDbArc
 50
0.0
 51
90.0
  0
ARC
  5
5C
100
AcDbEntity
  8
M1
  6
CONTINUOUS
370
25
 62
     4
100
AcDbCircle
 10
50.388893
 20
460.13455
 40
3.49997
100
AcDbArc
 50
90.0
 51
179.999875
  0
LINE
  5
5D
100
AcDbEntity
  8
M1
  6
CONTINUOUS
370
25
 62
     4
100
AcDbLine
 10
46.888893
 20
460.13455
 11
46.888893
 21
419.634672
  0
ARC
  5
5E
100
AcDbEntity
  8
M1
  6
CONTINUOUS
370
25
 62
     4
100
AcDbCircle
 10
50.388893
 20
419.634672
 40
3.49997
100
AcDbArc
 50
179.999875
 51
270.0
  0
LINE
  5
5F
100
AcDbEntity
  8
M1
  6
CONTINUOUS
370
25
 62
     4
100
AcDbLine
 10
50.388893
 20
416.134672
 11
82.388893
 21
416.134672
  0
ARC
  5
60
100
AcDbEntity
  8
M1
  6
CONTINUOUS
370
25
 62
     4
100
AcDbCircle
 10
82.388893
 20
419.634672
 40
3.49997
100
AcDbArc
 50
270.0
 51
360.0
  0
LINE
  5
61
100
AcDbEntity
  8
M1
  6
CONTINUOUS
370
25
 62
     4
100
AcDbLine
 10
85.888893
 20
419.63455
 11
85.888893
 21
460.134427
  0
LINE
  5
62
100
AcDbEntity
  8
M1
  6
CONTINUOUS
370
25
 62
     4
100
AcDbLine
 10
55.388893
 20
427.384672
 11
77.388893
 21
427.384672
  0
LINE
  5
63
100
AcDbEntity
  8
M1
  6
CONTINUOUS
370
25
 62
     4
100
AcDbLine
 10
77.388893
 20
427.384672
 11
77.388893
 21
456.064603
  0
LINE
  5
64
100
AcDbEntity
  8
M1
  6
CONTINUOUS
370
25
 62
     4
100
AcDbLine
 10
55.388893
 20
449.719633
 11
77.388893
 21
449.719633
  0
LINE
  5
65
100
AcDbEntity
  8
M1
  6
CONTINUOUS
370
25
 62
     4
100
AcDbLine
 10
55.388893
 20
456.064603
 11
77.388893
 21
456.064603
  0
LINE
  5
66
100
AcDbEntity
  8
M1
  6
CONTINUOUS
370
25
 62
     4
100
AcDbLine
 10
55.388893
 20
427.384672
 11
55.388893
 21
456.064603
  0
CIRCLE
  5
67
100
AcDbEntity
  8
M1
  6
CONTINUOUS
370
25
 62
     4
100
AcDbCircle
 10
101.389
 20
520.884541
 40
3.375
  0
LINE
  5
68
100
AcDbEntity
  8
M1
  6
CONTINUOUS
370
25
 62
     4
100
AcDbLine
 10
111.389
 20
548.384857
 11
91.389
 21
548.384542
  0
ARC
  5
69
100
AcDbEntity
  8
M1
  6
CONTINUOUS
370
25
 62
     4
100
AcDbCircle
 10
101.389
 20
540.884541
 40
3.375
100
AcDbArc
 50
0.0
 51
180.0
  0
ARC
  5
6A
100
AcDbEntity
  8
M1
  6
CONTINUOUS
370
25
 62
     4
100
AcDbCircle
 10
101.389
 20
536.884541
 40
3.375
100
AcDbArc
 50
180.0
 51
360.0
  0
LINE
  5
6B
100
AcDbEntity
  8
M1
  6
CONTINUOUS
370
25
 62
     4
100
AcDbLine
 10
98.014
 20
540.884541
 11
98.014
 21
536.884541
  0
LINE
  5
6C
100
AcDbEntity
  8
M1
  6
CONTINUOUS
370
25
 62
     4
100
AcDbLine
 10
104.764
 20
536.884541
 11
104.764
 21
540.884541
  0
LINE
  5
6D
100
AcDbEntity
  8
M1
  6
CONTINUOUS
370
25
 62
     4
100
AcDbLine
 10
111.389
 20
508.384671
 11
111.389
 21
548.384857
  0
LINE
  5
6E
100
AcDbEntity
  8
M1
  6
CONTINUOUS
370
25
 62
     4
100
AcDbLine
 10
91.389
 20
548.384542
 11
91.389
 21
508.384671
  0
CIRCLE
  5
6F
100
AcDbEntity
  8
M1
  6
CONTINUOUS
370
25
 62
     4
100
AcDbCircle
 10
66.388893
 20
520.884541
 40
3.375
  0
LINE
  5
70
100
AcDbEntity
  8
M1
  6
CONTINUOUS
370
25
 62
     4
100
AcDbLine
 10
76.388893
 20
548.384857
 11
56.388893
 21
548.384542
  0
ARC
  5
71
100
AcDbEntity
  8
M1
  6
CONTINUOUS
370
25
 62
     4
100
AcDbCircle
 10
66.388893
 20
540.884541
 40
3.375
100
AcDbArc
 50
0.0
 51
180.0
  0
ARC
  5
72
100
AcDbEntity
  8
M1
  6
CONTINUOUS
370
25
 62
     4
100
AcDbCircle
 10
66.388893
 20
536.884541
 40
3.375
100
AcDbArc
 50
180.0
 51
360.0
  0
LINE
  5
73
100
AcDbEntity
  8
M1
  6
CONTINUOUS
370
25
 62
     4
100
AcDbLine
 10
63.013893
 20
540.884541
 11
63.013893
 21
536.884541
  0
LINE
  5
74
100
AcDbEntity
  8
M1
  6
CONTINUOUS
370
25
 62
     4
100
AcDbLine
 10
69.763893
 20
536.884541
 11
69.763893
 21
540.884541
  0
LINE
  5
75
100
AcDbEntity
  8
M1
  6
CONTINUOUS
370
25
 62
     4
100
AcDbLine
 10
76.388893
 20
508.384671
 11
76.388893
 21
548.384857
  0
LINE
  5
76
100
AcDbEntity
  8
M1
  6
CONTINUOUS
370
25
 62
     4
100
AcDbLine
 10
56.388893
 20
548.384542
 11
56.388893
 21
508.384671
  0
CIRCLE
  5
77
100
AcDbEntity
  8
M1
  6
CONTINUOUS
370
25
 62
     4
100
AcDbCircle
 10
31.388786
 20
520.884541
 40
3.375
  0
LINE
  5
78
100
AcDbEntity
  8
M1
  6
CONTINUOUS
370
25
 62
     4
100
AcDbLine
 10
21.388786
 20
548.384857
 11
41.388786
 21
548.384542
  0
ARC
  5
79
100
AcDbEntity
  8
M1
  6
CONTINUOUS
370
25
 62
     4
100
AcDbCircle
 10
31.388786
 20
540.884541
 40
3.375
100
AcDbArc
 50
0.0
 51
180.0
  0
ARC
  5
7A
100
AcDbEntity
  8
M1
  6
CONTINUOUS
370
25
 62
     4
100
AcDbCircle
 10
31.388786
 20
536.884541
 40
3.375
100
AcDbArc
 50
180.0
 51
360.0
  0
LINE
  5
7B
100
AcDbEntity
  8
M1
  6
CONTINUOUS
370
25
 62
     4
100
AcDbLine
 10
34.763786
 20
540.884541
 11
34.763786
 21
536.884541
  0
LINE
  5
7C
100
AcDbEntity
  8
M1
  6
CONTINUOUS
370
25
 62
     4
100
AcDbLine
 10
28.013786
 20
536.884541
 11
28.013786
 21
540.884541
  0
LINE
  5
7D
100
AcDbEntity
  8
M1
  6
CONTINUOUS
370
25
 62
     4
100
AcDbLine
 10
21.388786
 20
508.384671
 11
21.388786
 21
548.384857
  0
LINE
  5
7E
100
AcDbEntity
  8
M1
  6
CONTINUOUS
370
25
 62
     4
100
AcDbLine
 10
41.388786
 20
548.384542
 11
41.388786
 21
508.384671
  0
CIRCLE
  5
7F
100
AcDbEntity
  8
M1
  6
CONTINUOUS
370
25
 62
     4
100
AcDbCircle
 10
31.388786
 20
358.884801
 40
3.375
  0
LINE
  5
80
100
AcDbEntity
  8
M1
  6
CONTINUOUS
370
25
 62
     4
100
AcDbLine
 10
21.388786
 20
331.384486
 11
41.388786
 21
331.384801
  0
ARC
  5
81
100
AcDbEntity
  8
M1
  6
CONTINUOUS
370
25
 62
     4
100
AcDbCircle
 10
31.388786
 20
338.884801
 40
3.375
100
AcDbArc
 50
180.0
 51
360.0
  0
ARC
  5
82
100
AcDbEntity
  8
M1
  6
CONTINUOUS
370
25
 62
     4
100
AcDbCircle
 10
31.388786
 20
342.884801
 40
3.375
100
AcDbArc
 50
0.0
 51
180.0
  0
LINE
  5
83
100
AcDbEntity
  8
M1
  6
CONTINUOUS
370
25
 62
     4
100
AcDbLine
 10
34.763786
 20
338.884801
 11
34.763786
 21
342.884801
  0
LINE
  5
84
100
AcDbEntity
  8
M1
  6
CONTINUOUS
370
25
 62
     4
100
AcDbLine
 10
28.013786
 20
342.884801
 11
28.013786
 21
338.884801
  0
LINE
  5
85
100
AcDbEntity
  8
M1
  6
CONTINUOUS
370
25
 62
     4
100
AcDbLine
 10
21.388786
 20
371.384672
 11
21.388786
 21
331.384486
  0
LINE
  5
86
100
AcDbEntity
  8
M1
  6
CONTINUOUS
370
25
 62
     4
100
AcDbLine
 10
41.388786
 20
331.384801
 11
41.388786
 21
371.384672
  0
CIRCLE
  5
87
100
AcDbEntity
  8
M1
  6
CONTINUOUS
370
25
 62
     4
100
AcDbCircle
 10
66.388893
 20
358.884801
 40
3.375
  0
LINE
  5
88
100
AcDbEntity
  8
M1
  6
CONTINUOUS
370
25
 62
     4
100
AcDbLine
 10
76.388893
 20
331.384486
 11
56.388893
 21
331.384801
  0
ARC
  5
89
100
AcDbEntity
  8
M1
  6
CONTINUOUS
370
25
 62
     4
100
AcDbCircle
 10
66.388893
 20
338.884801
 40
3.375
100
AcDbArc
 50
180.0
 51
360.0
  0
ARC
  5
8A
100
AcDbEntity
  8
M1
  6
CONTINUOUS
370
25
 62
     4
100
AcDbCircle
 10
66.388893
 20
342.884801
 40
3.375
100
AcDbArc
 50
0.0
 51
180.0
  0
LINE
  5
8B
100
AcDbEntity
  8
M1
  6
CONTINUOUS
370
25
 62
     4
100
AcDbLine
 10
63.013893
 20
338.884801
 11
63.013893
 21
342.884801
  0
LINE
  5
8C
100
AcDbEntity
  8
M1
  6
CONTINUOUS
370
25
 62
     4
100
AcDbLine
 10
69.763893
 20
342.884801
 11
69.763893
 21
338.884801
  0
LINE
  5
8D
100
AcDbEntity
  8
M1
  6
CONTINUOUS
370
25
 62
     4
100
AcDbLine
 10
76.388893
 20
371.384672
 11
76.388893
 21
331.384486
  0
LINE
  5
8E
100
AcDbEntity
  8
M1
  6
CONTINUOUS
370
25
 62
     4
100
AcDbLine
 10
56.388893
 20
331.384801
 11
56.388893
 21
371.384672
  0
CIRCLE
  5
8F
100
AcDbEntity
  8
M1
  6
CONTINUOUS
370
25
 62
     4
100
AcDbCircle
 10
101.389
 20
358.884801
 40
3.375
  0
LINE
  5
90
100
AcDbEntity
  8
M1
  6
CONTINUOUS
370
25
 62
     4
100
AcDbLine
 10
111.389
 20
331.384486
 11
91.389
 21
331.384801
  0
ARC
  5
91
100
AcDbEntity
  8
M1
  6
CONTINUOUS
370
25
 62
     4
100
AcDbCircle
 10
101.389
 20
338.884801
 40
3.375
100
AcDbArc
 50
180.0
 51
360.0
  0
ARC
  5
92
100
AcDbEntity
  8
M1
  6
CONTINUOUS
370
25
 62
     4
100
AcDbCircle
 10
101.389
 20
342.884801
 40
3.375
100
AcDbArc
 50
0.0
 51
180.0
  0
LINE
  5
93
100
AcDbEntity
  8
M1
  6
CONTINUOUS
370
25
 62
     4
100
AcDbLine
 10
98.014
 20
338.884801
 11
98.014
 21
342.884801
  0
LINE
  5
94
100
AcDbEntity
  8
M1
  6
CONTINUOUS
370
25
 62
     4
100
AcDbLine
 10
104.764
 20
342.884801
 11
104.764
 21
338.884801
  0
LINE
  5
95
100
AcDbEntity
  8
M1
  6
CONTINUOUS
370
25
 62
     4
100
AcDbLine
 10
111.389
 20
371.384672
 11
111.389
 21
331.384486
  0
LINE
  5
96
100
AcDbEntity
  8
M1
  6
CONTINUOUS
370
25
 62
     4
100
AcDbLine
 10
91.389
 20
331.384801
 11
91.389
 21
371.384672
  0
LINE
  5
97
100
AcDbEntity
  8
M1
  6
CONTINUOUS
370
25
 62
     4
100
AcDbLine
 10
13.888893
 20
471.134671
 11
118.888893
 21
471.134671
  0
LINE
  5
98
100
AcDbEntity
  8
M1
  6
CONTINUOUS
370
25
 62
     4
100
AcDbLine
 10
13.888893
 20
384.384672
 11
118.888893
 21
384.384672
  0
LINE
  5
99
100
AcDbEntity
  8
M1
  6
DASHDOT
370
25
 62
     2
100
AcDbLine
 10
311.572292
 20
520.886132
 11
299.631128
 21
520.885956
  0
LINE
  5
9A
100
AcDbEntity
  8
M1
  6
DASHDOT
370
25
 62
     2
100
AcDbLine
 10
304.88816
 20
524.261039
 11
304.88816
 21
517.511039
  0
LINE
  5
9B
100
AcDbEntity
  8
M1
  6
DASHDOT
370
25
 62
     2
100
AcDbLine
 10
299.630876
 20
536.885956
 11
311.57204
 21
536.886132
  0
LINE
  5
9C
100
AcDbEntity
  8
M1
  6
DASHDOT
370
25
 62
     2
100
AcDbLine
 10
304.88816
 20
544.261039
 11
304.88816
 21
533.511039
  0
LINE
  5
9D
100
AcDbEntity
  8
M1
  6
DASHDOT
370
25
 62
     2
100
AcDbLine
 10
299.630813
 20
540.885956
 11
311.571977
 21
540.886132
  0
LINE
  5
9E
100
AcDbEntity
  8
M1
  6
DASHDOT
370
25
 62
     2
100
AcDbLine
 10
311.572292
 20
358.88321
 11
299.631128
 21
358.883387
  0
LINE
  5
9F
100
AcDbEntity
  8
M1
  6
DASHDOT
370
25
 62
     2
100
AcDbLine
 10
304.88816
 20
355.508304
 11
304.88816
 21
362.258304
  0
LINE
  5
A0
100
AcDbEntity
  8
M1
  6
DASHDOT
370
25
 62
     2
100
AcDbLine
 10
299.630876
 20
342.883387
 11
311.57204
 21
342.88321
  0
LINE
  5
A1
100
AcDbEntity
  8
M1
  6
DASHDOT
370
25
 62
     2
100
AcDbLine
 10
304.88816
 20
335.508304
 11
304.88816
 21
346.258304
  0
LINE
  5
A2
100
AcDbEntity
  8
M1
  6
DASHDOT
370
25
 62
     2
100
AcDbLine
 10
299.630813
 20
338.883387
 11
311.571977
 21
338.88321
  0
CIRCLE
  5
A3
100
AcDbEntity
  8
M1
  6
CONTINUOUS
370
25
100
AcDbCircle
 10
48.888893
 20
106.550261
 40
1.749997
  0
CIRCLE
  5
A4
100
AcDbEntity
  8
M1
  6
CONTINUOUS
370
25
100
AcDbCircle
 10
83.888893
 20
106.550261
 40
1.749997
  0
CIRCLE
  5
A5
100
AcDbEntity
  8
M1
  6
CONTINUOUS
370
25
100
AcDbCircle
 10
48.888893
 20
228.050261
 40
1.749997
  0
CIRCLE
  5
A6
100
AcDbEntity
  8
M1
  6
CONTINUOUS
370
25
100
AcDbCircle
 10
83.888893
 20
228.050261
 40
1.749997
  0
LINE
  5
A7
100
AcDbEntity
  8
M1
  6
DASHDOT
370
25
100
AcDbLine
 10
77.138896
 20
106.550261
 11
90.638889
 21
106.550261
  0
LINE
  5
A8
100
AcDbEntity
  8
M1
  6
DASHDOT
370
25
100
AcDbLine
 10
83.888893
 20
99.800264
 11
83.888893
 21
113.300258
  0
LINE
  5
A9
100
AcDbEntity
  8
M1
  6
DASHDOT
370
25
100
AcDbLine
 10
42.138896
 20
106.550261
 11
55.638889
 21
106.550261
  0
LINE
  5
AA
100
AcDbEntity
  8
M1
  6
DASHDOT
370
25
100
AcDbLine
 10
48.888893
 20
99.800264
 11
48.888893
 21
113.300258
  0
LINE
  5
AB
100
AcDbEntity
  8
M1
  6
DASHDOT
370
25
100
AcDbLine
 10
42.138896
 20
228.050261
 11
55.638889
 21
228.050261
  0
LINE
  5
AC
100
AcDbEntity
  8
M1
  6
DASHDOT
370
25
100
AcDbLine
 10
48.888893
 20
221.300264
 11
48.888893
 21
234.800258
  0
LINE
  5
AD
100
AcDbEntity
  8
M1
  6
DASHDOT
370
25
100
AcDbLine
 10
77.138896
 20
228.050261
 11
90.638889
 21
228.050261
  0
LINE
  5
AE
100
AcDbEntity
  8
M1
  6
DASHDOT
370
25
100
AcDbLine
 10
83.888893
 20
221.300264
 11
83.888893
 21
234.800258
  0
LINE
  5
AF
100
AcDbEntity
  8
M1
  6
CONTINUOUS
370
25
 62
     4
100
AcDbLine
 10
277.88816
 20
371.384672
 11
326.38816
 21
371.384672
  0
LINE
  5
B0
100
AcDbEntity
  8
M1
  6
CONTINUOUS
370
25
 62
     4
100
AcDbLine
 10
326.38816
 20
371.384672
 11
326.38816
 21
508.384549
  0
LINE
  5
B1
100
AcDbEntity
  8
M1
  6
CONTINUOUS
370
25
 62
     4
100
AcDbLine
 10
326.38816
 20
508.384671
 11
277.88816
 21
508.384671
  0
LINE
  5
B2
100
AcDbEntity
  8
M1
  6
CONTINUOUS
370
25
 62
     4
100
AcDbLine
 10
271.388039
 20
463.634672
 11
271.388039
 21
416.134672
  0
LINE
  5
B3
100
AcDbEntity
  8
M1
  6
DASHDOT
370
25
 62
     4
100
AcDbLine
 10
247.044943
 20
439.884672
 11
338.88816
 21
439.884672
  0
LINE
  5
B4
100
AcDbEntity
  8
M1
  6
CONTINUOUS
370
25
 62
     4
100
AcDbLine
 10
274.888039
 20
384.384672
 11
277.888039
 21
384.384672
  0
LINE
  5
B5
100
AcDbEntity
  8
M1
  6
CONTINUOUS
370
25
 62
     4
100
AcDbLine
 10
277.888039
 20
384.384672
 11
277.88816
 21
371.384672
  0
LINE
  5
B6
100
AcDbEntity
  8
M1
  6
CONTINUOUS
370
25
 62
     4
100
AcDbLine
 10
271.388039
 20
416.134672
 11
274.888039
 21
416.134672
  0
LINE
  5
B7
100
AcDbEntity
  8
M1
  6
CONTINUOUS
370
25
 62
     4
100
AcDbLine
 10
274.888039
 20
416.134672
 11
274.888039
 21
384.384672
  0
LINE
  5
B8
100
AcDbEntity
  8
M1
  6
CONTINUOUS
370
25
 62
     4
100
AcDbLine
 10
277.88816
 20
508.384671
 11
277.88816
 21
384.384672
  0
LINE
  5
B9
100
AcDbEntity
  8
M1
  6
CONTINUOUS
370
25
 62
     4
100
AcDbLine
 10
277.888039
 20
471.134671
 11
274.888039
 21
471.134671
  0
LINE
  5
BA
100
AcDbEntity
  8
M1
  6
CONTINUOUS
370
25
 62
     4
100
AcDbLine
 10
274.888039
 20
471.134671
 11
274.888039
 21
416.134672
  0
LINE
  5
BB
100
AcDbEntity
  8
M1
  6
CONTINUOUS
370
25
 62
     4
100
AcDbLine
 10
274.888039
 20
463.634672
 11
271.388039
 21
463.634672
  0
LINE
  5
BC
100
AcDbEntity
  8
M1
  6
CONTINUOUS
370
25
 62
     4
100
AcDbLine
 10
271.388039
 20
455.668973
 11
271.388039
 21
448.485868
  0
LINE
  5
BD
100
AcDbEntity
  8
M1
  6
CONTINUOUS
370
25
 62
     4
100
AcDbLine
 10
310.88816
 20
508.384671
 11
310.88816
 21
508.384549
  0
ARC
  5
BE
100
AcDbEntity
  8
M1
  6
CONTINUOUS
370
25
 62
     4
100
AcDbCircle
 10
304.88816
 20
436.134672
 40
48.999878
100
AcDbArc
 50
160.000562
 51
179.999955
  0
LINE
  5
BF
100
AcDbEntity
  8
M1
  6
CONTINUOUS
370
25
 62
     4
100
AcDbLine
 10
259.997292
 20
456.064603
 11
257.688576
 21
449.721586
  0
LINE
  5
C0
100
AcDbEntity
  8
M1
  6
CONTINUOUS
370
25
 62
     4
100
AcDbLine
 10
259.997292
 20
456.064725
 11
271.388039
 21
451.918973
  0
LINE
  5
C1
100
AcDbEntity
  8
M1
  6
CONTINUOUS
370
25
 62
     4
100
AcDbLine
 10
257.688576
 20
449.721708
 11
271.388039
 21
444.735746
  0
LINE
  5
C2
100
AcDbEntity
  8
M1
  6
CONTINUOUS
370
25
 62
     7
100
AcDbLine
 10
257.88816
 20
191.550261
 11
289.88816
 21
191.550261
  0
LINE
  5
C3
100
AcDbEntity
  8
M1
  6
CONTINUOUS
370
25
 62
     7
100
AcDbLine
 10
257.88816
 20
143.050261
 11
289.88816
 21
143.050261
  0
LINE
  5
C4
100
AcDbEntity
  8
M1
  6
CONTINUOUS
370
25
 62
     7
100
AcDbLine
 10
293.88816
 20
187.550261
 11
293.88816
 21
147.050261
  0
LINE
  5
C5
100
AcDbEntity
  8
M1
  6
CONTINUOUS
370
25
 62
     7
100
AcDbLine
 10
253.88816
 20
187.550261
 11
253.88816
 21
147.050261
  0
ARC
  5
C6
100
AcDbEntity
  8
M1
  6
CONTINUOUS
370
25
 62
     7
100
AcDbCircle
 10
257.88816
 20
187.550261
 40
4.0
100
AcDbArc
 50
90.0
 51
180.0
  0
ARC
  5
C7
100
AcDbEntity
  8
M1
  6
CONTINUOUS
370
25
 62
     7
100
AcDbCircle
 10
257.88816
 20
147.050261
 40
4.0
100
AcDbArc
 50
180.0
 51
270.0
  0
ARC
  5
C8
100
AcDbEntity
  8
M1
  6
CONTINUOUS
370
25
 62
     7
100
AcDbCircle
 10
289.88816
 20
147.050261
 40
4.0
100
AcDbArc
 50
270.0
 51
360.0
  0
ARC
  5
C9
100
AcDbEntity
  8
M1
  6
CONTINUOUS
370
25
 62
     7
100
AcDbCircle
 10
289.88816
 20
187.550261
 40
4.0
100
AcDbArc
 50
0.0
 51
90.0
  0
LINE
  5
CA
100
AcDbEntity
  8
M1
  6
DASHDOT
370
25
 62
     4
100
AcDbLine
 10
273.88816
 20
86.300505
 11
273.88816
 21
245.460563
  0
LINE
  5
CB
100
AcDbEntity
  8
M1
  6
DASHDOT
370
25
 62
     4
100
AcDbLine
 10
208.888527
 20
167.300261
 11
338.88816
 21
167.300261
  0
LINE
  5
CC
100
AcDbEntity
  8
M1
  6
DASHDOT
370
25
 62
     4
100
AcDbLine
 10
326.38816
 20
98.800505
 11
326.38816
 21
235.800016
  0
LINE
  5
CD
100
AcDbEntity
  8
M1
  6
DASHDOT
370
25
 62
     4
100
AcDbLine
 10
326.38816
 20
235.800016
 11
221.388527
 21
235.800016
  0
LINE
  5
CE
100
AcDbEntity
  8
M1
  6
DASHDOT
370
25
 62
     4
100
AcDbLine
 10
221.388527
 20
235.800016
 11
221.388527
 21
98.800505
  0
LINE
  5
CF
100
AcDbEntity
  8
M1
  6
DASHDOT
370
25
 62
     4
100
AcDbLine
 10
221.388527
 20
98.800505
 11
326.38816
 21
98.800505
  0
LINE
  5
D0
100
AcDbEntity
  8
M1
  6
DASHDOT
370
25
 62
     2
100
AcDbLine
 10
101.389
 20
514.384541
 11
101.389
 21
527.384541
  0
LINE
  5
D1
100
AcDbEntity
  8
M1
  6
DASHDOT
370
25
 62
     2
100
AcDbLine
 10
94.889
 20
520.884541
 11
107.889
 21
520.884541
  0
LINE
  5
D2
100
AcDbEntity
  8
M1
  6
DASHDOT
370
25
 62
     2
100
AcDbLine
 10
94.889
 20
536.884541
 11
107.889
 21
536.884541
  0
LINE
  5
D3
100
AcDbEntity
  8
M1
  6
DASHDOT
370
25
 62
     2
100
AcDbLine
 10
94.889
 20
540.884541
 11
107.889
 21
540.884541
  0
LINE
  5
D4
100
AcDbEntity
  8
M1
  6
DASHDOT
370
25
 62
     2
100
AcDbLine
 10
101.389
 20
530.342401
 11
101.389
 21
547.384541
  0
LINE
  5
D5
100
AcDbEntity
  8
M1
  6
DASHDOT
370
25
 62
     2
100
AcDbLine
 10
59.888893
 20
536.884541
 11
72.888893
 21
536.884541
  0
LINE
  5
D6
100
AcDbEntity
  8
M1
  6
DASHDOT
370
25
 62
     2
100
AcDbLine
 10
59.888893
 20
540.884541
 11
72.888893
 21
540.884541
  0
LINE
  5
D7
100
AcDbEntity
  8
M1
  6
DASHDOT
370
25
 62
     2
100
AcDbLine
 10
66.388893
 20
530.342401
 11
66.388893
 21
547.384541
  0
LINE
  5
D8
100
AcDbEntity
  8
M1
  6
DASHDOT
370
25
 62
     2
100
AcDbLine
 10
59.888893
 20
520.884541
 11
72.888893
 21
520.884541
  0
LINE
  5
D9
100
AcDbEntity
  8
M1
  6
DASHDOT
370
25
 62
     2
100
AcDbLine
 10
66.388893
 20
514.384541
 11
66.388893
 21
527.384541
  0
LINE
  5
DA
100
AcDbEntity
  8
M1
  6
DASHDOT
370
25
 62
     2
100
AcDbLine
 10
31.388786
 20
514.384541
 11
31.388786
 21
527.384541
  0
LINE
  5
DB
100
AcDbEntity
  8
M1
  6
DASHDOT
370
25
 62
     2
100
AcDbLine
 10
37.888786
 20
520.884541
 11
24.888786
 21
520.884541
  0
LINE
  5
DC
100
AcDbEntity
  8
M1
  6
DASHDOT
370
25
 62
     2
100
AcDbLine
 10
37.888786
 20
536.884541
 11
24.888786
 21
536.884541
  0
LINE
  5
DD
100
AcDbEntity
  8
M1
  6
DASHDOT
370
25
 62
     2
100
AcDbLine
 10
37.888786
 20
540.884541
 11
24.888786
 21
540.884541
  0
LINE
  5
DE
100
AcDbEntity
  8
M1
  6
DASHDOT
370
25
 62
     2
100
AcDbLine
 10
31.388786
 20
530.342401
 11
31.388786
 21
547.384541
  0
LINE
  5
DF
100
AcDbEntity
  8
M1
  6
DASHED
370
25
100
AcDbLine
 10
310.88816
 20
503.884305
 11
310.88816
 21
497.384305
  0
LINE
  5
E0
100
AcDbEntity
  8
M1
  6
DASHDOT
370
25
100
AcDbLine
 10
300.501543
 20
500.634305
 11
326.38816
 21
500.634305
  0
LINE
  5
E1
100
AcDbEntity
  8
M1
  6
DASHED
370
25
100
AcDbLine
 10
310.88816
 20
375.885038
 11
310.88816
 21
382.385038
  0
LINE
  5
E2
100
AcDbEntity
  8
M1
  6
DASHDOT
370
25
100
AcDbLine
 10
300.501543
 20
379.135038
 11
326.38816
 21
379.135038
  0
LINE
  5
E3
100
AcDbEntity
  8
M1
  6
DASHDOT
370
25
 62
     4
100
AcDbLine
 10
118.888893
 20
98.800505
 11
118.888893
 21
235.800016
  0
LINE
  5
E4
100
AcDbEntity
  8
M1
  6
DASHDOT
370
25
 62
     4
100
AcDbLine
 10
118.888893
 20
235.800016
 11
13.888893
 21
235.800016
  0
LINE
  5
E5
100
AcDbEntity
  8
M1
  6
DASHDOT
370
25
 62
     4
100
AcDbLine
 10
13.888893
 20
235.800016
 11
13.888893
 21
98.800505
  0
LINE
  5
E6
100
AcDbEntity
  8
M1
  6
DASHDOT
370
25
 62
     4
100
AcDbLine
 10
13.888893
 20
98.800505
 11
118.888893
 21
98.800505
  0
LINE
  5
E7
100
AcDbEntity
  8
M1
  6
DASHDOT
370
25
 62
     4
100
AcDbLine
 10
66.388893
 20
79.616118
 11
66.388893
 21
248.300016
  0
LINE
  5
E8
100
AcDbEntity
  8
M1
  6
DASHDOT
370
25
 62
     4
100
AcDbLine
 10
7.057449
 20
167.300261
 11
127.968572
 21
167.300261
  0
LINE
  5
E9
100
AcDbEntity
  8
M1
  6
CONTINUOUS
370
25
 62
     4
100
AcDbLine
 10
308.88816
 20
548.38609
 11
308.88816
 21
508.384671
  0
LINE
  5
EA
100
AcDbEntity
  8
M1
  6
CONTINUOUS
370
25
 62
     4
100
AcDbLine
 10
308.88816
 20
331.383253
 11
308.88816
 21
371.384672
  0
LINE
  5
EB
100
AcDbEntity
  8
M1
  6
DASHDOT
370
25
 62
     2
100
AcDbLine
 10
101.389
 20
365.384801
 11
101.389
 21
352.384801
  0
LINE
  5
EC
100
AcDbEntity
  8
M1
  6
DASHDOT
370
25
 62
     2
100
AcDbLine
 10
94.889
 20
358.884801
 11
107.889
 21
358.884801
  0
LINE
  5
ED
100
AcDbEntity
  8
M1
  6
DASHDOT
370
25
 62
     2
100
AcDbLine
 10
94.889
 20
342.884801
 11
107.889
 21
342.884801
  0
LINE
  5
EE
100
AcDbEntity
  8
M1
  6
DASHDOT
370
25
 62
     2
100
AcDbLine
 10
94.889
 20
338.884801
 11
107.889
 21
338.884801
  0
LINE
  5
EF
100
AcDbEntity
  8
M1
  6
DASHDOT
370
25
 62
     2
100
AcDbLine
 10
101.389
 20
349.426941
 11
101.389
 21
332.384801
  0
LINE
  5
F0
100
AcDbEntity
  8
M1
  6
DASHDOT
370
25
 62
     2
100
AcDbLine
 10
59.888893
 20
342.884801
 11
72.888893
 21
342.884801
  0
LINE
  5
F1
100
AcDbEntity
  8
M1
  6
DASHDOT
370
25
 62
     2
100
AcDbLine
 10
59.888893
 20
338.884801
 11
72.888893
 21
338.884801
  0
LINE
  5
F2
100
AcDbEntity
  8
M1
  6
DASHDOT
370
25
 62
     2
100
AcDbLine
 10
66.388893
 20
349.426941
 11
66.388893
 21
332.384801
  0
LINE
  5
F3
100
AcDbEntity
  8
M1
  6
DASHDOT
370
25
 62
     2
100
AcDbLine
 10
59.888893
 20
358.884801
 11
72.888893
 21
358.884801
  0
LINE
  5
F4
100
AcDbEntity
  8
M1
  6
DASHDOT
370
25
 62
     2
100
AcDbLine
 10
66.388893
 20
365.384801
 11
66.388893
 21
352.384801
  0
LINE
  5
F5
100
AcDbEntity
  8
M1
  6
DASHDOT
370
25
 62
     2
100
AcDbLine
 10
31.388786
 20
365.384801
 11
31.388786
 21
352.384801
  0
LINE
  5
F6
100
AcDbEntity
  8
M1
  6
DASHDOT
370
25
 62
     2
100
AcDbLine
 10
37.888786
 20
358.884801
 11
24.888786
 21
358.884801
  0
LINE
  5
F7
100
AcDbEntity
  8
M1
  6
DASHDOT
370
25
 62
     2
100
AcDbLine
 10
37.888786
 20
342.884801
 11
24.888786
 21
342.884801
  0
LINE
  5
F8
100
AcDbEntity
  8
M1
  6
DASHDOT
370
25
 62
     2
100
AcDbLine
 10
37.888786
 20
338.884801
 11
24.888786
 21
338.884801
  0
LINE
  5
F9
100
AcDbEntity
  8
M1
  6
DASHDOT
370
25
 62
     2
100
AcDbLine
 10
31.388786
 20
349.426941
 11
31.388786
 21
332.384801
  0
LINE
  5
FA
100
AcDbEntity
  8
M1
  6
CONTINUOUS
370
25
 62
     4
100
AcDbLine
 10
304.88816
 20
548.386039
 11
308.88816
 21
548.38609
  0
LINE
  5
FB
100
AcDbEntity
  8
M1
  6
CONTINUOUS
370
25
 62
     4
100
AcDbLine
 10
304.88816
 20
548.386039
 11
304.88816
 21
508.384671
  0
LINE
  5
FC
100
AcDbEntity
  8
M1
  6
CONTINUOUS
370
25
 62
     4
100
AcDbLine
 10
304.88816
 20
331.383304
 11
304.88816
 21
371.384672
  0
LINE
  5
FD
100
AcDbEntity
  8
M1
  6
CONTINUOUS
370
25
 62
     4
100
AcDbLine
 10
304.88816
 20
331.383304
 11
308.88816
 21
331.383253
  0
LINE
  5
FE
100
AcDbEntity
  8
M2
  6
CONTINUOUS
370
25
100
AcDbLine
 10
249.239466
 20
41.250004
 11
249.239466
 21
-7.105427E-015
  0
LINE
  5
FF
100
AcDbEntity
  8
M2
  6
CONTINUOUS
370
25
100
AcDbLine
 10
13.268932
 20
41.250004
 11
13.268932
 21
-7.105427E-015
  0
LINE
  5
100
100
AcDbEntity
  8
M2
  6
CONTINUOUS
370
25
100
AcDbLine
 10
13.268932
 20
-7.105427E-015
 11
249.239466
 21
-7.105427E-015
  0
LINE
  5
101
100
AcDbEntity
  8
M2
  6
CONTINUOUS
370
25
100
AcDbLine
 10
13.268932
 20
41.250004
 11
249.239466
 21
41.250004
  0
LINE
  5
102
100
AcDbEntity
  8
M2
  6
CONTINUOUS
370
25
100
AcDbLine
 10
170.76894
 20
27.499999
 11
170.76894
 21
41.250004
  0
LINE
  5
103
100
AcDbEntity
  8
M2
  6
CONTINUOUS
370
25
100
AcDbLine
 10
43.268932
 20
27.499999
 11
170.76894
 21
27.499999
  0
LINE
  5
104
100
AcDbEntity
  8
M2
  6
CONTINUOUS
370
25
 60
     1
100
AcDbLine
 10
193.268921
 20
27.499999
 11
193.268921
 21
41.250004
  0
LINE
  5
105
100
AcDbEntity
  8
M2
  6
CONTINUOUS
370
25
100
AcDbLine
 10
170.76894
 20
27.499999
 11
193.268921
 21
27.499999
  0
TEXT
  5
106
100
AcDbEntity
  8
M2
100
AcDbText
 10
172.587006
 20
31.250006
 40
6.25
  1
ＲＥＶ．：
 41
0.666667
  7
STANDARD
100
AcDbText
  0
LINE
  5
107
100
AcDbEntity
  8
M2
  6
CONTINUOUS
370
25
 60
     1
100
AcDbLine
 10
218.26892
 20
27.499999
 11
218.26892
 21
41.250004
  0
LINE
  5
108
100
AcDbEntity
  8
M2
  6
CONTINUOUS
370
25
100
AcDbLine
 10
193.268921
 20
27.499999
 11
249.239466
 21
27.499999
  0
TEXT
  5
109
100
AcDbEntity
  8
M2
100
AcDbText
 10
202.400848
 20
31.250006
 40
6.25
  1
００
 41
0.833333
  7
STANDARD
100
AcDbText
  0
LINE
  5
10A
100
AcDbEntity
  8
M2
  6
CONTINUOUS
370
25
 60
     1
100
AcDbLine
 10
43.268932
 20
27.499999
 11
43.268932
 21
41.250004
  0
LINE
  5
10B
100
AcDbEntity
  8
M2
  6
CONTINUOUS
370
25
100
AcDbLine
 10
13.268932
 20
27.499999
 11
43.268932
 21
27.499999
  0
TEXT
  5
10C
100
AcDbEntity
  8
M2
100
AcDbText
 10
14.90088
 20
31.250006
 40
6.25
  1
登録名：
 41
0.833333
  7
STANDARD
100
AcDbText
  0
LINE
  5
10D
100
AcDbEntity
  8
M2
  6
CONTINUOUS
370
25
 60
     1
100
AcDbLine
 10
218.26892
 20
13.749999
 11
218.26892
 21
27.499999
  0
LINE
  5
10E
100
AcDbEntity
  8
M2
  6
CONTINUOUS
370
25
100
AcDbLine
 10
193.268921
 20
13.749999
 11
249.239466
 21
13.749999
  0
LINE
  5
10F
100
AcDbEntity
  8
M2
  6
CONTINUOUS
370
25
 60
     1
100
AcDbLine
 10
193.268921
 20
13.749999
 11
193.268921
 21
27.499999
  0
LINE
  5
110
100
AcDbEntity
  8
M2
  6
CONTINUOUS
370
25
100
AcDbLine
 10
43.268932
 20
13.749999
 11
193.268921
 21
13.749999
  0
TEXT
  5
111
100
AcDbEntity
  8
M2
100
AcDbText
 10
44.900883
 20
17.499998
 40
6.25
  1
表面形
 41
0.833333
  7
STANDARD
100
AcDbText
  0
LINE
  5
112
100
AcDbEntity
  8
M2
  6
CONTINUOUS
370
25
 60
     1
100
AcDbLine
 10
43.268932
 20
13.749999
 11
43.268932
 21
27.499999
  0
LINE
  5
113
100
AcDbEntity
  8
M2
  6
CONTINUOUS
370
25
100
AcDbLine
 10
13.268932
 20
13.749999
 11
43.268932
 21
13.749999
  0
TEXT
  5
114
100
AcDbEntity
  8
M2
100
AcDbText
 10
13.737682
 20
17.499998
 40
6.25
  1
接続方式：
 41
0.75
  7
STANDARD
100
AcDbText
  0
LINE
  5
115
100
AcDbEntity
  8
M2
  6
CONTINUOUS
370
25
 60
     1
100
AcDbLine
 10
218.26892
 20
-7.105427E-015
 11
218.26892
 21
13.749999
  0
LINE
  5
116
100
AcDbEntity
  8
M2
  6
CONTINUOUS
370
25
 60
     1
100
AcDbLine
 10
193.268921
 20
-7.105427E-015
 11
218.26892
 21
-7.105427E-015
  0
LINE
  5
117
100
AcDbEntity
  8
M2
  6
CONTINUOUS
370
25
 60
     1
100
AcDbLine
 10
193.268921
 20
-7.105427E-015
 11
193.268921
 21
13.749999
  0
LINE
  5
118
100
AcDbEntity
  8
M2
  6
CONTINUOUS
370
25
 60
     1
100
AcDbLine
 10
43.268932
 20
-7.105427E-015
 11
193.268921
 21
-7.105427E-015
  0
LINE
  5
119
100
AcDbEntity
  8
M2
  6
CONTINUOUS
370
25
 60
     1
100
AcDbLine
 10
43.268932
 20
-7.105427E-015
 11
43.268932
 21
13.749999
  0
LINE
  5
11A
100
AcDbEntity
  8
M2
  6
CONTINUOUS
370
25
 60
     1
100
AcDbLine
 10
13.268932
 20
-7.105427E-015
 11
43.268932
 21
-7.105427E-015
  0
TEXT
  5
11B
100
AcDbEntity
  8
M2
100
AcDbText
 10
13.737682
 20
3.750002
 40
6.25
  1
適用形式：
 41
0.75
  7
STANDARD
100
AcDbText
  0
TEXT
  5
11C
100
AcDbEntity
  8
M2
100
AcDbText
 10
44.900883
 20
31.250006
 40
6.25
  1
Ｆ－８００ＧＢ　３Ｐ
 41
0.833333
  7
STANDARD
100
AcDbText
  0
TEXT
  5
11D
100
AcDbEntity
  8
M2
100
AcDbText
 10
44.987682
 20
3.750002
 40
6.25
  1
Ｓ－８００Ｓ／Ｆ－８００Ｒ／Ｆ－８００ＲＨ／Ｆ－８００ＧＢ／Ｌ－８００Ｅ
 41
0.75
  7
STANDARD
100
AcDbText
  0
ENDSEC
  0
SECTION
  2
OBJECTS
  0
DICTIONARY
  5
C
100
AcDbDictionary
  3
ACAD_GROUP
350
D
  3
ACAD_MLINESTYLE
350
E
  0
DICTIONARY
  5
D
102
{ACAD_REACTORS
330
C
102
}
100
AcDbDictionary
  0
DICTIONARY
  5
E
102
{ACAD_REACTORS
330
C
102
}
100
AcDbDictionary
  3
STANDARD
350
13
  0
MLINESTYLE
  5
13
102
{ACAD_REACTORS
330
E
102
}
100
AcDbMlineStyle
  2
STANDARD
 70
     0
  3

 62
     0
 51
90.0
 52
90.0
 71
     2
 49
0.5
 62
   256
  6
BYLAYER
 49
-0.5
 62
   256
  6
BYLAYER
  0
ENDSEC
  0
EOF
