  0
SECTION
  2
HEADER
  9
$ACADVER
  1
AC1015
  9
$INSBASE
 10
0.000000
 20
0.000000
 30
0.0
  9
$VIEWCTR
 10
7.531722
 20
4.5
  9
$VIEWSIZE
 40
9.0
  9
$SNAPMODE
 70
     0
  9
$SNAPUNIT
 10
1.0
 20
1.0
  9
$SNAPBASE
 10
0.0
 20
0.0
  9
$SNAPANG
 50
0.0
  9
$SNAPSTYLE
 70
     0
  9
$SNAPISOPAIR
 70
     0
  9
$GRIDMODE
 70
     0
  9
$GRIDUNIT
 10
0.0
 20
0.0
  9
$ORTHOMODE
 70
     0
  9
$REGENMODE
 70
     1
  9
$FILLMODE
 70
     1
  9
$QTEXTMODE
 70
     0
  9
$DRAGMODE
 70
     2
  9
$LTSCALE
  40
     1.000000
  9
$OSMODE
 70
     0
  9
$ATTMODE
 70
     1
  9
$TEXTSIZE
 40
0.2
  9
$TRACEWID
 40
0.05
  9
$TEXTSTYLE
  7
STANDARD
  9
$CELTYPE
  6
BYLAYER
  9
$CECOLOR
 62
   256
  9
$DIMSCALE
 40
1.0
  9
$DIMASZ
 40
0.18
  9
$DIMEXO
 40
0.0625
  9
$DIMDLI
 40
0.38
  9
$DIMRND
 40
0.0
  9
$DIMDLE
 40
0.0
  9
$DIMEXE
 40
0.18
  9
$DIMTP
 40
0.0
  9
$DIMTM
 40
0.0
  9
$DIMTXT
 40
0.18
  9
$DIMCEN
 40
0.09
  9
$DIMTSZ
 40
0.0
  9
$DIMADEC
 70
     0
  9
$DIMALTRND
 40
0.000000
  9
$DIMAZIN
 70
     0
  9
$DIMDSEP
 70
    46
  9
$DIMATFIT
 70
     3
  9
$DIMFRAC
 70
     0
  9
$DIMLDRBLK
  1

  9
$DIMLUNIT
 70
     2
  9
$DIMLWD
 70
   13
  9
$DIMLWE
 70
   13
  9
$DIMTMOVE
 70
     0
  9
$CELWEIGHT
370
    25
  9
$LWDISPLAY
290
    1
  9
$EXTNAMES
290
    1
  9
$DIMTOL
 70
     0
  9
$DIMLIM
 70
     0
  9
$DIMTIH
 70
     1
  9
$DIMTOH
 70
     1
  9
$DIMSE1
 70
     0
  9
$DIMSE2
 70
     0
  9
$DIMTAD
 70
     0
  9
$DIMZIN
 70
     0
  9
$DIMBLK
  1

  9
$LUNITS
 70
     2
  9
$LUPREC
 70
     4
  9
$AXISMODE
 70
     0
  9
$AXISUNIT
 10
0.0
 20
0.0
  9
$SKETCHINC
 40
0.1
  9
$FILLETRAD
 40
0.0
  9
$AUNITS
 70
     0
  9
$AUPREC
 70
     0
  9
$MENU
  1
ACAD
  9
$ELEVATION
 40
0.0
  9
$THICKNESS
 40
0.0
  9
$VIEWDIR
 10
0.0
 20
0.0
 30
1.0
  9
$LIMCHECK
 70
     0
  9
$BLIPMODE
 70
     1
  9
$CHAMFERA
 40
0.0
  9
$CHAMFERB
 40
0.0
  9
$FASTZOOM
 70
     1
  9
$SKPOLY
 70
     0
  9
$TDCREATE
 40
0000000.0000000000
  9
$TDUPDATE
 40
0000000.0000000000
  9
$TDINDWG
 40
0.0000000000
  9
$TDUSRTIMER
 40
0.0000000000
  9
$USRTIMER
 70
     1
  9
$ANGBASE
 50
0.0
  9
$ANGDIR
 70
     0
  9
$PDMODE
 70
     0
  9
$PDSIZE
 40
0.0
  9
$PLINEWID
 40
0.0
  9
$COORDS
 70
     0
  9
$USERI1
 70
     0
  9
$USERI2
 70
     0
  9
$USERI3
 70
     0
  9
$USERI4
 70
     0
  9
$USERI5
 70
     0
  9
$USERR1
 40
0.0
  9
$USERR2
 40
0.0
  9
$USERR3
 40
0.0
  9
$USERR4
 40
0.0
  9
$USERR5
 40
0.0
  9
$CLAYER
  8
M1
  9
$EXTMIN
 10
0.0
 20
0.0
  9
$EXTMAX
 10
841.0
 20
594.0
  9
$LIMMIN
 10
0.0
 20
0.0
  9
$LIMMAX
 10
841.0
 20
594.0
  9
$HANDSEED
  5
2CB
  0
ENDSEC
  0
SECTION
  2
CLASSES
  0
CLASS
  1
DIMASSOC
  2
AcDbDimAssoc
  3
"AcDbDimAssoc|Product Desc:     AcDim ARX App For Dimension|Company:          Autodesk, Inc.|WEB Address:      www.autodesk.com"
 90
        0
280
     0
281
     0
  0
ENDSEC
  0
SECTION
  2
TABLES
  0
TABLE
  2
VPORT
  5
8
100
AcDbSymbolTable
 70
     2
  0
VPORT
  5
14
100
AcDbSymbolTableRecord
100
AcDbViewportTableRecord
  2
*ACTIVE
 70
     0
 10
0.0
 20
0.0
 11
1.0
 21
1.0
 12
484.0
 22
297.0
 13
0.0
 23
0.0
 14
1.0
 24
1.0
 15
0.0
 25
0.0
 16
0.0
 26
0.0
 36
1.0
 17
0.0
 27
0.0
 37
0.0
 40
594.0
 41
2.0
 42
50.0
 43
0.0
 44
0.0
 50
0.0
 51
0.0
 71
     0
 72
   100
 73
     1
 74
     1
 75
     0
 76
     0
 77
     0
 78
     0
  0
ENDTAB
  0
TABLE
  2
LTYPE
  5
5
100
AcDbSymbolTable
 70
     5
  0
LTYPE
  5
15
100
AcDbSymbolTableRecord
100
AcDbLinetypeTableRecord
  2
BYBLOCK
 70
     0
  3

 72
    65
 73
     0
 40
0.0
  0
LTYPE
  5
16
100
AcDbSymbolTableRecord
100
AcDbLinetypeTableRecord
  2
BYLAYER
 70
     0
  3

 72
    65
 73
     0
 40
0.0
  0
LTYPE
  5
17
100
AcDbSymbolTableRecord
100
AcDbLinetypeTableRecord
  2
CONTINUOUS
 70
    64
  3
Solid line
 72
    65
 73
     0
 40
0.0
  0
LTYPE
  5
18
100
AcDbSymbolTableRecord
100
AcDbLinetypeTableRecord
  2
DASHED
 70
    64
  3
__ __ __ __ __ __ __ __ __ __ __ __ __ __ __ __
 72
    65
 73
     2
 40
0.75
 49
0.5
 74
     0
 49
-0.25
 74
     0
  0
LTYPE
  5
19
100
AcDbSymbolTableRecord
100
AcDbLinetypeTableRecord
  2
DASHDOT
 70
    64
  3
__ . __ . __ . __ . __ . __ . __ . __ . __ . __
 72
    65
 73
     4
 40
1.0
 49
0.5
 74
     0
 49
-0.25
 74
     0
 49
0.0
 74
     0
 49
-0.25
 74
     0
  0
LTYPE
  5
1A
100
AcDbSymbolTableRecord
100
AcDbLinetypeTableRecord
  2
DIVIDE
 70
    64
  3
____ . . ____ . . ____ . . ____ . . ____ . . __
 72
    65
 73
     6
 40
1.25
 49
0.5
 74
     0
 49
-0.25
 74
     0
 49
0.0
 74
     0
 49
-0.25
 74
     0
 49
0.0
 74
     0
 49
-0.25
 74
     0
  0
LTYPE
  5
1B
100
AcDbSymbolTableRecord
100
AcDbLinetypeTableRecord
  2
DOT
 70
    64
  3
. . . . . . . . . . . . . . . . . . . . . . . .
 72
    65
 73
     2
 40
0.25
 49
0.0
 74
     0
 49
-0.25
 74
     0
  0
ENDTAB
  0
TABLE
  2
LAYER
  5
2
100
AcDbSymbolTable
 70
   102
  0
LAYER
  5
F
100
AcDbSymbolTableRecord
100
AcDbLayerTableRecord
  2
0
 70
     0
 62
     7
  6
CONTINUOUS
370
     -3
390
F
  0
LAYER
  5
1C
100
AcDbSymbolTableRecord
100
AcDbLayerTableRecord
  2
M1
 70
     0
 62
     3
  6
CONTINUOUS
370
     -3
390
F
  0
LAYER
  5
1D
100
AcDbSymbolTableRecord
100
AcDbLayerTableRecord
  2
M2
 70
     0
 62
     3
  6
CONTINUOUS
370
     -3
390
F
  0
LAYER
  5
1E
100
AcDbSymbolTableRecord
100
AcDbLayerTableRecord
  2
M3
 70
     0
 62
     2
  6
CONTINUOUS
370
     -3
390
F
  0
ENDTAB
  0
TABLE
  2
STYLE
  5
3
100
AcDbSymbolTable
 70
     2
  0
STYLE
  5
10
100
AcDbSymbolTableRecord
100
AcDbTextStyleTableRecord
  2
STANDARD
 70
     0
 40
0.0
 41
1.0
 50
0.0
 71
     0
 42
0.2
  3
txt
  4
BIGFONT
  0
ENDTAB
  0
TABLE
  2
VIEW
  5
6
100
AcDbSymbolTable
 70
     0
  0
ENDTAB
  0
TABLE
  2
UCS
  5
7
100
AcDbSymbolTable
 70
     0
  0
ENDTAB
  0
TABLE
  2
APPID
  5
9
100
AcDbSymbolTable
 70
     1
  0
APPID
  5
11
100
AcDbSymbolTableRecord
100
AcDbRegAppTableRecord
  2
ACAD
 70
     0
  0
ENDTAB
  0
TABLE
  2
DIMSTYLE
  5
A
100
AcDbSymbolTable
 70
     2
100
AcDbDimStyleTable
 71
     1
  0
DIMSTYLE
105
47
100
AcDbSymbolTableRecord
100
AcDbDimStyleTableRecord
  2
STANDARD
 70
     0
  3

  4

  5

  6
_OPEN
  7
_OPEN
 40
1.0
 41
3.0
 42
0.0
 43
8.0
 44
1.5
 45
0.0
 46
0.0
 47
0.0
 48
0.0
140
3.2
141
0.09
142
0.0
143
0.03937
144
1.0
145
0.0
146
1.0
147
1.0
148
0.000000
 71
     0
 72
     0
 73
     1
 74
     1
 75
     0
 76
     0
 77
     3
 78
     8
170
     0
171
     2
172
     0
173
     1
174
     0
175
     0
176
     0
177
     0
178
     0
270
     2
271
     2
272
     4
273
     2
274
     2
340
10
275
     0
278
    46
280
     0
281
     0
282
     0
283
     1
284
     0
285
     0
286
     0
287
     3
288
     0
371
   13
372
   13
  0
DIMSTYLE
105
48
100
AcDbSymbolTableRecord
100
AcDbDimStyleTableRecord
  2
LEADSTYL
 70
     0
  3

  4

  5

  6
_OPEN
  7
_OPEN
 40
1.0
 41
3.0
 42
0.0625
 43
0.38
 44
0.18
 45
0.0
 46
0.0
 47
0.0
 48
0.0
140
3.2
141
0.09
142
0.0
143
25.4
144
1.0
145
0.0
146
1.0
147
1.0
 71
     0
 72
     0
 73
     1
 74
     1
 75
     0
 76
     0
 77
     0
 78
     0
170
     0
171
     2
172
     0
173
     1
174
     0
175
     0
176
     0
177
     0
178
     0
270
     2
271
     4
272
     4
273
     2
274
     2
340
10
275
     0
280
     0
281
     0
282
     0
283
     1
284
     0
285
     0
286
     0
287
     3
288
     0
  0
ENDTAB
  0
TABLE
  2
BLOCK_RECORD
  5
1
100
AcDbSymbolTable
 70
     6
  0
BLOCK_RECORD
  5
1F
100
AcDbSymbolTableRecord
100
AcDbBlockTableRecord
  2
*MODEL_SPACE
  0
BLOCK_RECORD
  5
22
100
AcDbSymbolTableRecord
100
AcDbBlockTableRecord
  2
*PAPER_SPACE
  0
BLOCK_RECORD
  5
25
100
AcDbSymbolTableRecord
100
AcDbBlockTableRecord
  2
_NONE
  0
BLOCK_RECORD
  5
29
100
AcDbSymbolTableRecord
100
AcDbBlockTableRecord
  2
_OPEN
  0
BLOCK_RECORD
  5
2F
100
AcDbSymbolTableRecord
100
AcDbBlockTableRecord
  2
_CLOSED
  0
BLOCK_RECORD
  5
36
100
AcDbSymbolTableRecord
100
AcDbBlockTableRecord
  2
_ORIGIN
  0
BLOCK_RECORD
  5
3B
100
AcDbSymbolTableRecord
100
AcDbBlockTableRecord
  2
_DOT
  0
BLOCK_RECORD
  5
43
100
AcDbSymbolTableRecord
100
AcDbBlockTableRecord
  2
_OBLIQUE
  0
ENDTAB
  0
ENDSEC
  0
SECTION
  2
BLOCKS
  0
BLOCK
  5
20
100
AcDbEntity
  8
0
100
AcDbBlockBegin
  2
*MODEL_SPACE
 70
     0
 10
0.0
 20
0.0
 30
0.0
  3
*MODEL_SPACE
  1

  0
ENDBLK
  5
21
100
AcDbEntity
  8
0
100
AcDbBlockEnd
  0
BLOCK
  5
23
100
AcDbEntity
 67
     1
  8
0
100
AcDbBlockBegin
  2
*PAPER_SPACE
 70
     0
 10
0.0
 20
0.0
 30
0.0
  3
*PAPER_SPACE
  1

  0
ENDBLK
  5
24
100
AcDbEntity
 67
     1
  8
0
100
AcDbBlockEnd
  0
BLOCK
  5
26
100
AcDbEntity
  8
0
100
AcDbBlockBegin
  2
_NONE
 70
     0
 10
0.0
 20
0.0
  0
CIRCLE
  5
27
100
AcDbEntity
  8
0
 62
     0
370
13
100
AcDbCircle
 10
0.0
 20
0.0
 40
0.25
  0
ENDBLK
  5
28
100
AcDbEntity
  8
0
100
AcDbBlockEnd
  0
BLOCK
  5
2A
100
AcDbEntity
  8
0
100
AcDbBlockBegin
  2
_OPEN
 70
     0
 10
0.0
 20
0.0
  0
LINE
  5
2B
100
AcDbEntity
  8
0
 62
     0
370
13
100
AcDbLine
 10
-0.965926
 20
0.258819
 11
0.0
 21
0.0
  0
LINE
  5
2C
100
AcDbEntity
  8
0
 62
     0
370
13
100
AcDbLine
 10
0.0
 20
0.0
 11
-0.965926
 21
-0.258819
  0
LINE
  5
2D
100
AcDbEntity
  8
0
 62
     0
370
13
100
AcDbLine
 10
0.0
 20
0.0
 11
-1.0
 21
0.0
  0
ENDBLK
  5
2E
100
AcDbEntity
  8
0
100
AcDbBlockEnd
  0
BLOCK
  5
30
100
AcDbEntity
  8
0
100
AcDbBlockBegin
  2
_CLOSED
 70
     0
 10
0.0
 20
0.0
  0
LINE
  5
31
100
AcDbEntity
  8
0
 62
     0
370
13
100
AcDbLine
 10
-0.965926
 20
0.258819
 11
0.0
 21
0.0
  0
LINE
  5
32
100
AcDbEntity
  8
0
 62
     0
370
13
100
AcDbLine
 10
0.0
 20
0.0
 11
-0.965926
 21
-0.258819
  0
LINE
  5
33
100
AcDbEntity
  8
0
 62
     0
370
13
100
AcDbLine
 10
-0.965926
 20
0.258819
 11
-0.965926
 21
-0.258819
  0
LINE
  5
34
100
AcDbEntity
  8
0
 62
     0
370
13
100
AcDbLine
 10
0.0
 20
0.0
 11
-1.0
 21
0.0
  0
ENDBLK
  5
35
100
AcDbEntity
  8
0
100
AcDbBlockEnd
  0
BLOCK
  5
37
100
AcDbEntity
  8
0
100
AcDbBlockBegin
  2
_ORIGIN
 70
     0
 10
0.0
 20
0.0
  0
CIRCLE
  5
38
100
AcDbEntity
  8
0
 62
     0
370
13
100
AcDbCircle
 10
0.0
 20
0.0
 40
0.5
  0
LINE
  5
39
100
AcDbEntity
  8
0
 62
     0
370
13
100
AcDbLine
 10
0.0
 20
0.0
 11
-1.0
 21
0.0
  0
ENDBLK
  5
3A
100
AcDbEntity
  8
0
100
AcDbBlockEnd
  0
BLOCK
  5
3C
100
AcDbEntity
  8
0
100
AcDbBlockBegin
  2
_DOT
 70
     0
 10
0.0
 20
0.0
  0
POLYLINE
  5
3D
100
AcDbEntity
  8
0
 62
     0
100
AcDb2dPolyline
 66
     1
 70
     1
 40
0.5
 41
0.5
  0
VERTEX
  5
3E
100
AcDbEntity
  8
0
 62
     0
100
AcDbVertex
100
AcDb2dVertex
 10
-0.25
 20
0.0
 42
1.0
  0
VERTEX
  5
3F
100
AcDbEntity
  8
0
 62
     0
100
AcDbVertex
100
AcDb2dVertex
 10
0.25
 20
0.0
 42
1.0
  0
SEQEND
  5
40
100
AcDbEntity
  8
0
 62
     0
  0
LINE
  5
41
100
AcDbEntity
  8
0
 62
     0
370
13
100
AcDbLine
 10
-0.5
 20
0.0
 11
-1.0
 21
0.0
  0
ENDBLK
  5
42
100
AcDbEntity
  8
0
100
AcDbBlockEnd
  0
BLOCK
  5
44
100
AcDbEntity
  8
0
100
AcDbBlockBegin
  2
_OBLIQUE
 70
     0
 10
0.0
 20
0.0
  0
LINE
  5
45
100
AcDbEntity
  8
0
 62
     0
370
13
100
AcDbLine
 10
-0.353553
 20
-0.353553
 11
0.353553
 21
0.353553
  0
ENDBLK
  5
46
100
AcDbEntity
  8
0
100
AcDbBlockEnd
  0
ENDSEC
  0
SECTION
  2
ENTITIES
  0
LINE
  5
49
100
AcDbEntity
  8
M1
  6
CONTINUOUS
370
25
100
AcDbLine
 10
-27.324297
 20
26.604872
 11
-27.324297
 21
26.494872
  0
LINE
  5
4A
100
AcDbEntity
  8
M1
  6
CONTINUOUS
370
25
100
AcDbLine
 10
-27.324297
 20
26.494872
 11
-27.214297
 21
26.494872
  0
LINE
  5
4B
100
AcDbEntity
  8
M1
  6
DASHDOT
370
13
 62
     4
100
AcDbLine
 10
243.589629
 20
182.220577
 11
243.589629
 21
294.627618
  0
LINE
  5
4C
100
AcDbEntity
  8
M1
  6
DASHDOT
370
13
 62
     4
100
AcDbLine
 10
155.938115
 20
182.220577
 11
155.938115
 21
294.627618
  0
LINE
  5
4D
100
AcDbEntity
  8
M1
  6
CONTINUOUS
370
25
100
AcDbLine
 10
91.422507
 20
476.794193
 11
91.422507
 21
478.59731
  0
LINE
  5
4E
100
AcDbEntity
  8
M1
  6
CONTINUOUS
370
25
100
AcDbLine
 10
87.014888
 20
476.794193
 11
87.014888
 21
478.59731
  0
LINE
  5
4F
100
AcDbEntity
  8
M1
  6
CONTINUOUS
370
25
100
AcDbLine
 10
85.011424
 20
476.794193
 11
85.011424
 21
478.59731
  0
LINE
  5
50
100
AcDbEntity
  8
M1
  6
CONTINUOUS
370
25
100
AcDbLine
 10
93.42597
 20
476.794193
 11
93.42597
 21
478.59731
  0
LINE
  5
51
100
AcDbEntity
  8
M1
  6
CONTINUOUS
370
25
100
AcDbLine
 10
94.628048
 20
476.794193
 11
94.628048
 21
478.59731
  0
LINE
  5
52
100
AcDbEntity
  8
M1
  6
CONTINUOUS
370
25
100
AcDbLine
 10
113.260247
 20
477.595578
 11
112.058164
 21
477.595578
  0
LINE
  5
53
100
AcDbEntity
  8
M1
  6
CONTINUOUS
370
25
100
AcDbLine
 10
116.465783
 20
477.595578
 11
115.26371
 21
477.595578
  0
LINE
  5
54
100
AcDbEntity
  8
M1
  6
CONTINUOUS
370
25
100
AcDbLine
 10
113.260247
 20
476.794193
 11
112.058164
 21
476.794193
  0
LINE
  5
55
100
AcDbEntity
  8
M1
  6
CONTINUOUS
370
25
100
AcDbLine
 10
116.465783
 20
476.794193
 11
115.26371
 21
476.794193
  0
LINE
  5
56
100
AcDbEntity
  8
M1
  6
CONTINUOUS
370
25
100
AcDbLine
 10
116.465783
 20
476.794193
 11
116.465783
 21
478.59731
  0
LINE
  5
57
100
AcDbEntity
  8
M1
  6
CONTINUOUS
370
25
100
AcDbLine
 10
112.058164
 20
476.794193
 11
112.058164
 21
478.59731
  0
LINE
  5
58
100
AcDbEntity
  8
M1
  6
CONTINUOUS
370
25
100
AcDbLine
 10
115.26371
 20
478.59731
 11
115.26371
 21
476.794193
  0
LINE
  5
59
100
AcDbEntity
  8
M1
  6
CONTINUOUS
370
25
100
AcDbLine
 10
113.260247
 20
478.59731
 11
113.260247
 21
476.794193
  0
LINE
  5
5A
100
AcDbEntity
  8
M1
  6
CONTINUOUS
370
25
100
AcDbLine
 10
90.22042
 20
477.595578
 11
91.422507
 21
477.595578
  0
LINE
  5
5B
100
AcDbEntity
  8
M1
  6
CONTINUOUS
370
25
100
AcDbLine
 10
162.144757
 20
476.794193
 11
162.144757
 21
478.59731
  0
LINE
  5
5C
100
AcDbEntity
  8
M1
  6
CONTINUOUS
370
25
100
AcDbLine
 10
90.22042
 20
478.59731
 11
90.22042
 21
476.794193
  0
LINE
  5
5D
100
AcDbEntity
  8
M1
  6
CONTINUOUS
370
25
100
AcDbLine
 10
88.216957
 20
478.59731
 11
88.216957
 21
476.794193
  0
LINE
  5
5E
100
AcDbEntity
  8
M1
  6
CONTINUOUS
370
25
100
AcDbLine
 10
119.671324
 20
477.595578
 11
118.469246
 21
477.595578
  0
LINE
  5
5F
100
AcDbEntity
  8
M1
  6
CONTINUOUS
370
25
100
AcDbLine
 10
119.671324
 20
476.794193
 11
119.671324
 21
478.59731
  0
LINE
  5
60
100
AcDbEntity
  8
M1
  6
CONTINUOUS
370
25
100
AcDbLine
 10
118.469246
 20
476.794193
 11
118.469246
 21
478.59731
  0
ARC
  5
61
100
AcDbEntity
  8
M1
  6
CONTINUOUS
370
25
100
AcDbCircle
 10
124.279303
 20
469.581717
 40
0.500866
100
AcDbArc
 50
0.0
 51
90.0
  0
ARC
  5
62
100
AcDbEntity
  8
M1
  6
CONTINUOUS
370
25
100
AcDbCircle
 10
124.279303
 20
420.496869
 40
0.500866
100
AcDbArc
 50
270.0
 51
360.0
  0
ARC
  5
63
100
AcDbEntity
  8
M1
  6
CONTINUOUS
370
25
100
AcDbCircle
 10
154.331251
 20
420.496869
 40
0.500866
100
AcDbArc
 50
180.0
 51
270.0
  0
ARC
  5
64
100
AcDbEntity
  8
M1
  6
CONTINUOUS
370
25
100
AcDbCircle
 10
79.201381
 20
469.581717
 40
0.500866
100
AcDbArc
 50
90.0
 51
180.0
  0
ARC
  5
65
100
AcDbEntity
  8
M1
  6
CONTINUOUS
370
25
100
AcDbCircle
 10
171.510948
 20
492.120697
 40
0.500866
100
AcDbArc
 50
90.0
 51
180.0
  0
ARC
  5
66
100
AcDbEntity
  8
M1
  6
CONTINUOUS
370
25
100
AcDbCircle
 10
82.056316
 20
398.126582
 40
0.500866
100
AcDbArc
 50
270.0
 51
360.0
  0
ARC
  5
67
100
AcDbEntity
  8
M1
  6
CONTINUOUS
370
25
100
AcDbCircle
 10
226.591329
 20
411.781804
 40
0.300519
100
AcDbArc
 50
270.0
 51
360.0
  0
ARC
  5
68
100
AcDbEntity
  8
M1
  6
CONTINUOUS
370
25
100
AcDbCircle
 10
77.498438
 20
411.781804
 40
0.300519
100
AcDbArc
 50
180.0
 51
270.0
  0
ARC
  5
69
100
AcDbEntity
  8
M1
  6
CONTINUOUS
370
25
100
AcDbCircle
 10
154.331251
 20
469.581717
 40
0.500866
100
AcDbArc
 50
90.0
 51
180.0
  0
ARC
  5
6A
100
AcDbEntity
  8
M1
  6
CONTINUOUS
370
25
100
AcDbCircle
 10
224.452463
 20
420.496869
 40
0.500866
100
AcDbArc
 50
270.0
 51
360.0
  0
ARC
  5
6B
100
AcDbEntity
  8
M1
  6
CONTINUOUS
370
25
100
AcDbCircle
 10
207.272766
 20
398.126583
 40
0.500866
100
AcDbArc
 50
270.0
 51
360.0
  0
ARC
  5
6C
100
AcDbEntity
  8
M1
  6
CONTINUOUS
370
25
100
AcDbCircle
 10
171.510948
 20
398.126583
 40
0.500866
100
AcDbArc
 50
180.0
 51
270.0
  0
ARC
  5
6D
100
AcDbEntity
  8
M1
  6
CONTINUOUS
370
25
100
AcDbCircle
 10
182.379736
 20
398.126583
 40
0.500866
100
AcDbArc
 50
270.0
 51
360.0
  0
ARC
  5
6E
100
AcDbEntity
  8
M1
  6
CONTINUOUS
370
25
100
AcDbCircle
 10
226.390983
 20
492.120697
 40
0.500866
100
AcDbArc
 50
0.0
 51
90.0
  0
ARC
  5
6F
100
AcDbEntity
  8
M1
  6
CONTINUOUS
370
25
100
AcDbCircle
 10
156.750247
 20
492.120697
 40
0.500866
100
AcDbArc
 50
0.0
 51
90.0
  0
ARC
  5
70
100
AcDbEntity
  8
M1
  6
CONTINUOUS
370
25
100
AcDbCircle
 10
222.03345
 20
492.120697
 40
0.500866
100
AcDbArc
 50
90.0
 51
180.0
  0
ARC
  5
71
100
AcDbEntity
  8
M1
  6
CONTINUOUS
370
25
100
AcDbCircle
 10
207.272766
 20
492.120697
 40
0.500866
100
AcDbArc
 50
0.0
 51
90.0
  0
ARC
  5
72
100
AcDbEntity
  8
M1
  6
CONTINUOUS
370
25
100
AcDbCircle
 10
196.403978
 20
398.126583
 40
0.500866
100
AcDbArc
 50
180.0
 51
270.0
  0
ARC
  5
73
100
AcDbEntity
  8
M1
  6
CONTINUOUS
370
25
100
AcDbCircle
 10
182.379736
 20
492.120697
 40
0.500866
100
AcDbArc
 50
0.0
 51
90.0
  0
LINE
  5
74
100
AcDbEntity
  8
M1
  6
CONTINUOUS
370
25
100
AcDbLine
 10
90.22042
 20
476.794193
 11
91.422507
 21
476.794193
  0
LINE
  5
75
100
AcDbEntity
  8
M1
  6
CONTINUOUS
370
25
100
AcDbLine
 10
185.18457
 20
476.794193
 11
185.18457
 21
478.59731
  0
LINE
  5
76
100
AcDbEntity
  8
M1
  6
CONTINUOUS
370
25
100
AcDbLine
 10
188.390117
 20
478.59731
 11
188.390117
 21
476.794193
  0
LINE
  5
77
100
AcDbEntity
  8
M1
  6
CONTINUOUS
370
25
100
AcDbLine
 10
191.595652
 20
476.794193
 11
191.595652
 21
478.59731
  0
LINE
  5
78
100
AcDbEntity
  8
M1
  6
CONTINUOUS
370
25
100
AcDbLine
 10
209.025782
 20
476.794193
 11
209.025782
 21
478.59731
  0
LINE
  5
79
100
AcDbEntity
  8
M1
  6
CONTINUOUS
370
25
100
AcDbLine
 10
193.599116
 20
476.794193
 11
193.599116
 21
478.59731
  0
LINE
  5
7A
100
AcDbEntity
  8
M1
  6
CONTINUOUS
370
25
100
AcDbLine
 10
210.22786
 20
476.794193
 11
209.025782
 21
476.794193
  0
LINE
  5
7B
100
AcDbEntity
  8
M1
  6
CONTINUOUS
370
25
100
AcDbLine
 10
210.22786
 20
477.595578
 11
209.025782
 21
477.595578
  0
LINE
  5
7C
100
AcDbEntity
  8
M1
  6
CONTINUOUS
370
25
100
AcDbLine
 10
194.801194
 20
476.794193
 11
194.801194
 21
478.59731
  0
LINE
  5
7D
100
AcDbEntity
  8
M1
  6
CONTINUOUS
370
25
100
AcDbLine
 10
188.390117
 20
476.794193
 11
187.188033
 21
476.794193
  0
LINE
  5
7E
100
AcDbEntity
  8
M1
  6
CONTINUOUS
370
25
100
AcDbLine
 10
194.801194
 20
476.794193
 11
193.599116
 21
476.794193
  0
LINE
  5
7F
100
AcDbEntity
  8
M1
  6
CONTINUOUS
370
25
100
AcDbLine
 10
194.801194
 20
477.595578
 11
193.599116
 21
477.595578
  0
LINE
  5
80
100
AcDbEntity
  8
M1
  6
CONTINUOUS
370
25
100
AcDbLine
 10
210.22786
 20
476.794193
 11
210.22786
 21
478.59731
  0
LINE
  5
81
100
AcDbEntity
  8
M1
  6
DASHDOT
370
13
 62
     4
100
AcDbLine
 10
201.913493
 20
491.269214
 11
201.913493
 21
474.161976
  0
LINE
  5
82
100
AcDbEntity
  8
M1
  6
CONTINUOUS
370
25
100
AcDbLine
 10
214.936004
 20
491.369388
 11
214.936004
 21
489.336359
  0
LINE
  5
83
100
AcDbEntity
  8
M1
  6
DASHDOT
370
13
 62
     4
100
AcDbLine
 10
176.870204
 20
491.169041
 11
176.870204
 21
474.161976
  0
LINE
  5
84
100
AcDbEntity
  8
M1
  6
DASHDOT
370
13
 62
     4
100
AcDbLine
 10
101.740334
 20
500.413928
 11
101.740334
 21
389.730494
  0
LINE
  5
85
100
AcDbEntity
  8
M1
  6
CONTINUOUS
370
25
100
AcDbLine
 10
185.18457
 20
477.595578
 11
183.982492
 21
477.595578
  0
LINE
  5
86
100
AcDbEntity
  8
M1
  6
CONTINUOUS
370
25
100
AcDbLine
 10
183.982492
 20
476.794193
 11
183.982492
 21
478.59731
  0
LINE
  5
87
100
AcDbEntity
  8
M1
  6
DASHDOT
370
13
 62
     4
100
AcDbLine
 10
176.870204
 20
415.232104
 11
176.870204
 21
398.809394
  0
LINE
  5
88
100
AcDbEntity
  8
M1
  6
DASHDOT
370
13
 62
     4
100
AcDbLine
 10
231.464584
 20
445.03931
 11
147.31913
 21
445.03931
  0
LINE
  5
89
100
AcDbEntity
  8
M1
  6
DASHDOT
370
13
 62
     4
100
AcDbLine
 10
189.391848
 20
500.413928
 11
189.391848
 21
389.730494
  0
LINE
  5
8A
100
AcDbEntity
  8
M1
  6
CONTINUOUS
370
25
100
AcDbLine
 10
165.35029
 20
477.595578
 11
166.552376
 21
477.595578
  0
LINE
  5
8B
100
AcDbEntity
  8
M1
  6
CONTINUOUS
370
25
100
AcDbLine
 10
162.144757
 20
477.595578
 11
163.346827
 21
477.595578
  0
LINE
  5
8C
100
AcDbEntity
  8
M1
  6
CONTINUOUS
370
25
100
AcDbLine
 10
165.35029
 20
476.794193
 11
166.552376
 21
476.794193
  0
LINE
  5
8D
100
AcDbEntity
  8
M1
  6
CONTINUOUS
370
25
100
AcDbLine
 10
162.144757
 20
476.794193
 11
163.346827
 21
476.794193
  0
ARC
  5
8E
100
AcDbEntity
  8
M1
  6
CONTINUOUS
370
25
100
AcDbCircle
 10
196.403978
 20
492.120697
 40
0.500866
100
AcDbArc
 50
90.0
 51
180.0
  0
LINE
  5
8F
100
AcDbEntity
  8
M1
  6
CONTINUOUS
370
25
100
AcDbLine
 10
166.552376
 20
476.794193
 11
166.552376
 21
478.59731
  0
LINE
  5
90
100
AcDbEntity
  8
M1
  6
CONTINUOUS
370
25
100
AcDbLine
 10
163.346827
 20
478.59731
 11
163.346827
 21
476.794193
  0
LINE
  5
91
100
AcDbEntity
  8
M1
  6
CONTINUOUS
370
25
100
AcDbLine
 10
165.35029
 20
478.59731
 11
165.35029
 21
476.794193
  0
LINE
  5
92
100
AcDbEntity
  8
M1
  6
CONTINUOUS
370
25
100
AcDbLine
 10
110.0547
 20
477.595578
 11
108.852623
 21
477.595578
  0
LINE
  5
93
100
AcDbEntity
  8
M1
  6
CONTINUOUS
370
25
100
AcDbLine
 10
108.852623
 20
476.794193
 11
108.852623
 21
478.59731
  0
LINE
  5
94
100
AcDbEntity
  8
M1
  6
CONTINUOUS
370
25
100
AcDbLine
 10
110.0547
 20
476.794193
 11
110.0547
 21
478.59731
  0
LINE
  5
95
100
AcDbEntity
  8
M1
  6
CONTINUOUS
370
25
100
AcDbLine
 10
110.0547
 20
476.794193
 11
108.852623
 21
476.794193
  0
LINE
  5
96
100
AcDbEntity
  8
M1
  6
CONTINUOUS
370
25
100
AcDbLine
 10
158.939216
 20
477.595578
 11
160.141294
 21
477.595578
  0
LINE
  5
97
100
AcDbEntity
  8
M1
  6
CONTINUOUS
370
25
100
AcDbLine
 10
158.939216
 20
476.794193
 11
158.939216
 21
478.59731
  0
LINE
  5
98
100
AcDbEntity
  8
M1
  6
CONTINUOUS
370
25
100
AcDbLine
 10
160.141294
 20
476.794193
 11
160.141294
 21
478.59731
  0
LINE
  5
99
100
AcDbEntity
  8
M1
  6
CONTINUOUS
370
25
100
AcDbLine
 10
158.939216
 20
476.794193
 11
160.141294
 21
476.794193
  0
LINE
  5
9A
100
AcDbEntity
  8
M1
  6
CONTINUOUS
370
25
100
AcDbLine
 10
216.638942
 20
477.595578
 11
215.43687
 21
477.595578
  0
LINE
  5
9B
100
AcDbEntity
  8
M1
  6
CONTINUOUS
370
25
100
AcDbLine
 10
215.43687
 20
478.59731
 11
215.43687
 21
476.794193
  0
LINE
  5
9C
100
AcDbEntity
  8
M1
  6
CONTINUOUS
370
25
100
AcDbLine
 10
213.433407
 20
476.794193
 11
212.231323
 21
476.794193
  0
LINE
  5
9D
100
AcDbEntity
  8
M1
  6
CONTINUOUS
370
25
100
AcDbLine
 10
95.880212
 20
397.957927
 11
95.880212
 21
411.481284
  0
LINE
  5
9E
100
AcDbEntity
  8
M1
  6
CONTINUOUS
370
25
100
AcDbLine
 10
219.844483
 20
477.595578
 11
218.642406
 21
477.595578
  0
LINE
  5
9F
100
AcDbEntity
  8
M1
  6
CONTINUOUS
370
25
100
AcDbLine
 10
219.844483
 20
476.794193
 11
219.844483
 21
478.59731
  0
LINE
  5
A0
100
AcDbEntity
  8
M1
  6
CONTINUOUS
370
25
100
AcDbLine
 10
219.844483
 20
476.794193
 11
218.642406
 21
476.794193
  0
LINE
  5
A1
100
AcDbEntity
  8
M1
  6
CONTINUOUS
370
25
100
AcDbLine
 10
185.18457
 20
476.794193
 11
183.982492
 21
476.794193
  0
LINE
  5
A2
100
AcDbEntity
  8
M1
  6
CONTINUOUS
370
25
100
AcDbLine
 10
216.638942
 20
476.794193
 11
215.43687
 21
476.794193
  0
LINE
  5
A3
100
AcDbEntity
  8
M1
  6
CONTINUOUS
370
25
100
AcDbLine
 10
213.433407
 20
478.59731
 11
213.433407
 21
476.794193
  0
LINE
  5
A4
100
AcDbEntity
  8
M1
  6
CONTINUOUS
370
25
100
AcDbLine
 10
212.231323
 20
476.794193
 11
212.231323
 21
478.59731
  0
LINE
  5
A5
100
AcDbEntity
  8
M1
  6
CONTINUOUS
370
25
100
AcDbLine
 10
82.056316
 20
397.625717
 11
77.698784
 21
397.625717
  0
ARC
  5
A6
100
AcDbEntity
  8
M1
  6
CONTINUOUS
370
25
100
AcDbCircle
 10
125.982247
 20
478.29679
 40
0.300519
100
AcDbArc
 50
0.0
 51
90.0
  0
ARC
  5
A7
100
AcDbEntity
  8
M1
  6
CONTINUOUS
370
25
100
AcDbCircle
 10
121.424368
 20
398.126582
 40
0.500866
100
AcDbArc
 50
180.0
 51
270.0
  0
ARC
  5
A8
100
AcDbEntity
  8
M1
  6
CONTINUOUS
370
25
100
AcDbCircle
 10
222.03345
 20
398.126583
 40
0.500866
100
AcDbArc
 50
180.0
 51
270.0
  0
ARC
  5
A9
100
AcDbEntity
  8
M1
  6
CONTINUOUS
370
25
100
AcDbCircle
 10
125.982247
 20
411.781804
 40
0.300519
100
AcDbArc
 50
270.0
 51
360.0
  0
LINE
  5
AA
100
AcDbEntity
  8
M1
  6
CONTINUOUS
370
25
100
AcDbLine
 10
93.42597
 20
476.794193
 11
94.628048
 21
476.794193
  0
CIRCLE
  5
AB
100
AcDbEntity
  8
M1
  6
CONTINUOUS
370
25
100
AcDbCircle
 10
101.740334
 20
404.970043
 40
4.157186
  0
CIRCLE
  5
AC
100
AcDbEntity
  8
M1
  6
CONTINUOUS
370
25
100
AcDbCircle
 10
101.740334
 20
485.108565
 40
4.157186
  0
ARC
  5
AD
100
AcDbEntity
  8
M1
  6
CONTINUOUS
370
25
100
AcDbCircle
 10
156.750247
 20
398.126583
 40
0.500866
100
AcDbArc
 50
270.0
 51
360.0
  0
ARC
  5
AE
100
AcDbEntity
  8
M1
  6
DASHED
370
13
100
AcDbCircle
 10
304.774133
 20
407.441089
 40
1.001732
100
AcDbArc
 50
90.0
 51
160.425489
  0
ARC
  5
AF
100
AcDbEntity
  8
M1
  6
CONTINUOUS
370
25
100
AcDbCircle
 10
152.392714
 20
492.120697
 40
0.500866
100
AcDbArc
 50
90.0
 51
180.0
  0
LINE
  5
B0
100
AcDbEntity
  8
M1
  6
CONTINUOUS
370
25
100
AcDbLine
 10
120.923502
 20
478.59731
 11
120.923502
 21
492.042432
  0
LINE
  5
B1
100
AcDbEntity
  8
M1
  6
CONTINUOUS
370
25
100
AcDbLine
 10
82.557182
 20
478.59731
 11
82.557182
 21
492.042432
  0
LINE
  5
B2
100
AcDbEntity
  8
M1
  6
CONTINUOUS
370
25
100
AcDbLine
 10
120.923502
 20
397.957927
 11
120.923502
 21
411.481284
  0
LINE
  5
B3
100
AcDbEntity
  8
M1
  6
CONTINUOUS
370
25
100
AcDbLine
 10
125.7819
 20
397.625717
 11
121.424368
 21
397.625717
  0
LINE
  5
B4
100
AcDbEntity
  8
M1
  6
CONTINUOUS
370
25
100
AcDbLine
 10
107.249866
 20
492.621563
 11
96.381078
 21
492.621563
  0
LINE
  5
B5
100
AcDbEntity
  8
M1
  6
CONTINUOUS
370
25
100
AcDbLine
 10
107.750732
 20
397.957927
 11
107.750732
 21
411.481284
  0
LINE
  5
B6
100
AcDbEntity
  8
M1
  6
CONTINUOUS
370
25
100
AcDbLine
 10
107.249866
 20
397.625717
 11
96.381078
 21
397.625717
  0
LINE
  5
B7
100
AcDbEntity
  8
M1
  6
CONTINUOUS
370
25
100
AcDbLine
 10
125.982247
 20
478.59731
 11
77.498438
 21
478.59731
  0
LINE
  5
B8
100
AcDbEntity
  8
M1
  6
CONTINUOUS
370
25
100
AcDbLine
 10
78.700515
 20
420.496869
 11
78.700515
 21
469.581717
  0
LINE
  5
B9
100
AcDbEntity
  8
M1
  6
CONTINUOUS
370
25
100
AcDbLine
 10
95.880212
 20
478.59731
 11
95.880212
 21
492.042432
  0
LINE
  5
BA
100
AcDbEntity
  8
M1
  6
CONTINUOUS
370
25
100
AcDbLine
 10
168.55584
 20
476.794193
 11
169.757918
 21
476.794193
  0
LINE
  5
BB
100
AcDbEntity
  8
M1
  6
CONTINUOUS
370
25
100
AcDbLine
 10
216.638942
 20
476.794193
 11
216.638942
 21
478.59731
  0
LINE
  5
BC
100
AcDbEntity
  8
M1
  6
CONTINUOUS
370
25
100
AcDbLine
 10
168.55584
 20
477.595578
 11
169.757918
 21
477.595578
  0
LINE
  5
BD
100
AcDbEntity
  8
M1
  6
CONTINUOUS
370
25
100
AcDbLine
 10
218.642406
 20
476.794193
 11
218.642406
 21
478.59731
  0
LINE
  5
BE
100
AcDbEntity
  8
M1
  6
CONTINUOUS
370
25
100
AcDbLine
 10
213.433407
 20
477.595578
 11
212.231323
 21
477.595578
  0
LINE
  5
BF
100
AcDbEntity
  8
M1
  6
CONTINUOUS
370
25
100
AcDbLine
 10
126.282766
 20
398.126582
 11
126.282766
 21
492.120697
  0
LINE
  5
C0
100
AcDbEntity
  8
M1
  6
CONTINUOUS
370
25
100
AcDbLine
 10
82.056316
 20
492.621563
 11
77.698784
 21
492.621563
  0
LINE
  5
C1
100
AcDbEntity
  8
M1
  6
CONTINUOUS
370
25
100
AcDbLine
 10
107.750732
 20
478.59731
 11
107.750732
 21
492.042432
  0
LINE
  5
C2
100
AcDbEntity
  8
M1
  6
CONTINUOUS
370
25
100
AcDbLine
 10
125.7819
 20
492.621563
 11
121.424368
 21
492.621563
  0
LINE
  5
C3
100
AcDbEntity
  8
M1
  6
CONTINUOUS
370
25
100
AcDbLine
 10
191.595652
 20
476.794193
 11
190.39358
 21
476.794193
  0
LINE
  5
C4
100
AcDbEntity
  8
M1
  6
CONTINUOUS
370
25
100
AcDbLine
 10
188.390117
 20
477.595578
 11
187.188033
 21
477.595578
  0
CIRCLE
  5
C5
100
AcDbEntity
  8
M1
  6
CONTINUOUS
370
25
100
AcDbCircle
 10
201.913493
 20
404.970043
 40
4.057013
  0
LINE
  5
C6
100
AcDbEntity
  8
M1
  6
CONTINUOUS
370
25
100
AcDbLine
 10
187.188033
 20
476.794193
 11
187.188033
 21
478.59731
  0
CIRCLE
  5
C7
100
AcDbEntity
  8
M1
  6
CONTINUOUS
370
25
100
AcDbCircle
 10
176.870204
 20
485.108565
 40
4.057013
  0
LINE
  5
C8
100
AcDbEntity
  8
M1
  6
CONTINUOUS
370
25
100
AcDbLine
 10
83.809347
 20
476.794193
 11
83.809347
 21
478.59731
  0
LINE
  5
C9
100
AcDbEntity
  8
M1
  6
CONTINUOUS
370
25
100
AcDbLine
 10
207.773632
 20
478.59731
 11
207.773632
 21
492.120697
  0
LINE
  5
CA
100
AcDbEntity
  8
M1
  6
CONTINUOUS
370
25
100
AcDbLine
 10
190.39358
 20
478.59731
 11
190.39358
 21
476.794193
  0
LINE
  5
CB
100
AcDbEntity
  8
M1
  6
CONTINUOUS
370
25
100
AcDbLine
 10
119.671324
 20
476.794193
 11
118.469246
 21
476.794193
  0
LINE
  5
CC
100
AcDbEntity
  8
M1
  6
CONTINUOUS
370
25
100
AcDbLine
 10
191.595652
 20
477.595578
 11
190.39358
 21
477.595578
  0
ARC
  5
CD
100
AcDbEntity
  8
M1
  6
CONTINUOUS
370
25
100
AcDbCircle
 10
121.424368
 20
492.120697
 40
0.500866
100
AcDbArc
 50
90.0
 51
180.0
  0
ARC
  5
CE
100
AcDbEntity
  8
M1
  6
CONTINUOUS
370
25
100
AcDbCircle
 10
107.249866
 20
492.120697
 40
0.500866
100
AcDbArc
 50
0.0
 51
90.0
  0
ARC
  5
CF
100
AcDbEntity
  8
M1
  6
CONTINUOUS
370
25
100
AcDbCircle
 10
125.7819
 20
492.120697
 40
0.500866
100
AcDbArc
 50
0.0
 51
90.0
  0
ARC
  5
D0
100
AcDbEntity
  8
M1
  6
CONTINUOUS
370
25
100
AcDbCircle
 10
96.381078
 20
492.120697
 40
0.500866
100
AcDbArc
 50
90.0
 51
180.0
  0
ARC
  5
D1
100
AcDbEntity
  8
M1
  6
CONTINUOUS
370
25
100
AcDbCircle
 10
224.452463
 20
469.581717
 40
0.500866
100
AcDbArc
 50
0.0
 51
90.0
  0
ARC
  5
D2
100
AcDbEntity
  8
M1
  6
CONTINUOUS
370
25
100
AcDbCircle
 10
107.249866
 20
398.126582
 40
0.500866
100
AcDbArc
 50
270.0
 51
360.0
  0
ARC
  5
D3
100
AcDbEntity
  8
M1
  6
CONTINUOUS
370
25
100
AcDbCircle
 10
96.381078
 20
398.126582
 40
0.500866
100
AcDbArc
 50
180.0
 51
270.0
  0
ARC
  5
D4
100
AcDbEntity
  8
M1
  6
CONTINUOUS
370
25
100
AcDbCircle
 10
82.056316
 20
492.120697
 40
0.500866
100
AcDbArc
 50
0.0
 51
90.0
  0
ARC
  5
D5
100
AcDbEntity
  8
M1
  6
CONTINUOUS
370
25
100
AcDbCircle
 10
77.698784
 20
492.120697
 40
0.500866
100
AcDbArc
 50
90.0
 51
180.0
  0
ARC
  5
D6
100
AcDbEntity
  8
M1
  6
CONTINUOUS
370
25
100
AcDbCircle
 10
125.7819
 20
398.126582
 40
0.500866
100
AcDbArc
 50
270.0
 51
360.0
  0
LINE
  5
D7
100
AcDbEntity
  8
M1
  6
CONTINUOUS
370
25
100
AcDbLine
 10
156.750247
 20
397.625717
 11
152.392714
 21
397.625717
  0
LINE
  5
D8
100
AcDbEntity
  8
M1
  6
CONTINUOUS
370
25
100
AcDbLine
 10
168.55584
 20
476.794193
 11
168.55584
 21
478.59731
  0
LINE
  5
D9
100
AcDbEntity
  8
M1
  6
CONTINUOUS
370
25
100
AcDbLine
 10
182.379736
 20
397.625717
 11
171.510948
 21
397.625717
  0
LINE
  5
DA
100
AcDbEntity
  8
M1
  6
CONTINUOUS
370
25
100
AcDbLine
 10
82.557182
 20
397.957927
 11
82.557182
 21
411.481284
  0
LINE
  5
DB
100
AcDbEntity
  8
M1
  6
CONTINUOUS
370
25
100
AcDbLine
 10
207.272766
 20
397.625717
 11
196.403978
 21
397.625717
  0
LINE
  5
DC
100
AcDbEntity
  8
M1
  6
CONTINUOUS
370
25
100
AcDbLine
 10
182.379736
 20
492.621563
 11
171.510948
 21
492.621563
  0
LINE
  5
DD
100
AcDbEntity
  8
M1
  6
CONTINUOUS
370
25
100
AcDbLine
 10
169.757918
 20
476.794193
 11
169.757918
 21
478.59731
  0
LINE
  5
DE
100
AcDbEntity
  8
M1
  6
CONTINUOUS
370
25
100
AcDbLine
 10
157.251113
 20
478.59731
 11
157.251113
 21
492.120697
  0
LINE
  5
DF
100
AcDbEntity
  8
M1
  6
CONTINUOUS
370
25
100
AcDbLine
 10
207.272766
 20
492.621563
 11
196.403978
 21
492.621563
  0
LINE
  5
E0
100
AcDbEntity
  8
M1
  6
CONTINUOUS
370
25
100
AcDbLine
 10
171.010082
 20
478.59731
 11
171.010082
 21
492.120697
  0
LINE
  5
E1
100
AcDbEntity
  8
M1
  6
CONTINUOUS
370
25
100
AcDbLine
 10
195.903112
 20
478.59731
 11
195.903112
 21
492.120697
  0
LINE
  5
E2
100
AcDbEntity
  8
M1
  6
CONTINUOUS
370
25
100
AcDbLine
 10
87.014888
 20
476.794193
 11
88.216957
 21
476.794193
  0
LINE
  5
E3
100
AcDbEntity
  8
M1
  6
CONTINUOUS
370
25
100
AcDbLine
 10
221.532584
 20
478.59731
 11
221.532584
 21
492.120697
  0
LINE
  5
E4
100
AcDbEntity
  8
M1
  6
CONTINUOUS
370
25
100
AcDbLine
 10
156.750247
 20
492.621563
 11
152.392714
 21
492.621563
  0
LINE
  5
E5
100
AcDbEntity
  8
M1
  6
CONTINUOUS
370
25
100
AcDbLine
 10
182.880601
 20
478.59731
 11
182.880601
 21
492.120697
  0
LINE
  5
E6
100
AcDbEntity
  8
M1
  6
CONTINUOUS
370
25
100
AcDbLine
 10
79.201381
 20
470.082583
 11
124.279303
 21
470.082583
  0
LINE
  5
E7
100
AcDbEntity
  8
M1
  6
CONTINUOUS
370
25
100
AcDbLine
 10
157.251113
 20
398.126583
 11
157.251113
 21
411.481284
  0
LINE
  5
E8
100
AcDbEntity
  8
M1
  6
CONTINUOUS
370
25
100
AcDbLine
 10
154.331251
 20
470.082583
 11
224.452463
 21
470.082583
  0
LINE
  5
E9
100
AcDbEntity
  8
M1
  6
CONTINUOUS
370
25
100
AcDbLine
 10
79.201381
 20
419.996003
 11
124.279303
 21
419.996003
  0
LINE
  5
EA
100
AcDbEntity
  8
M1
  6
CONTINUOUS
370
25
100
AcDbLine
 10
226.390983
 20
492.621563
 11
221.597528
 21
492.621563
  0
LINE
  5
EB
100
AcDbEntity
  8
M1
  6
CONTINUOUS
370
25
100
AcDbLine
 10
171.010082
 20
398.126583
 11
171.010082
 21
411.481284
  0
LINE
  5
EC
100
AcDbEntity
  8
M1
  6
CONTINUOUS
370
25
100
AcDbLine
 10
83.809347
 20
477.595578
 11
85.011424
 21
477.595578
  0
LINE
  5
ED
100
AcDbEntity
  8
M1
  6
CONTINUOUS
370
25
100
AcDbLine
 10
195.903112
 20
398.126583
 11
195.903112
 21
411.481284
  0
LINE
  5
EE
100
AcDbEntity
  8
M1
  6
CONTINUOUS
370
25
100
AcDbLine
 10
93.42597
 20
477.595578
 11
94.628048
 21
477.595578
  0
LINE
  5
EF
100
AcDbEntity
  8
M1
  6
CONTINUOUS
370
25
100
AcDbLine
 10
77.197918
 20
397.957927
 11
77.197918
 21
492.120697
  0
LINE
  5
F0
100
AcDbEntity
  8
M1
  6
CONTINUOUS
370
25
100
AcDbLine
 10
124.780169
 20
420.496869
 11
124.780169
 21
469.581717
  0
LINE
  5
F1
100
AcDbEntity
  8
M1
  6
CONTINUOUS
370
25
100
AcDbLine
 10
225.95506
 20
397.625717
 11
221.597528
 21
397.625717
  0
LINE
  5
F2
100
AcDbEntity
  8
M1
  6
DASHDOT
370
13
 62
     4
100
AcDbLine
 10
201.913493
 20
415.232104
 11
201.913493
 21
398.909567
  0
LINE
  5
F3
100
AcDbEntity
  8
M1
  6
CONTINUOUS
370
25
100
AcDbLine
 10
207.773632
 20
398.126583
 11
207.773632
 21
411.481284
  0
LINE
  5
F4
100
AcDbEntity
  8
M1
  6
CONTINUOUS
370
25
100
AcDbLine
 10
187.904355
 20
487.162713
 11
189.250187
 21
485.816884
  0
LINE
  5
F5
100
AcDbEntity
  8
M1
  6
CONTINUOUS
370
25
100
AcDbLine
 10
185.986582
 20
482.553304
 11
188.683502
 21
485.250227
  0
LINE
  5
F6
100
AcDbEntity
  8
M1
  6
CONTINUOUS
370
25
100
AcDbLine
 10
183.131026
 20
484.607699
 11
185.16406
 21
484.607699
  0
LINE
  5
F7
100
AcDbEntity
  8
M1
  6
CONTINUOUS
370
25
100
AcDbLine
 10
183.131026
 20
478.84774
 11
195.652671
 21
478.84774
  0
LINE
  5
F8
100
AcDbEntity
  8
M1
  6
CONTINUOUS
370
25
100
AcDbLine
 10
193.619648
 20
484.607699
 11
195.652679
 21
484.607699
  0
LINE
  5
F9
100
AcDbEntity
  8
M1
  6
CONTINUOUS
370
25
100
AcDbLine
 10
83.809347
 20
476.794193
 11
85.011424
 21
476.794193
  0
LINE
  5
FA
100
AcDbEntity
  8
M1
  6
CONTINUOUS
370
25
100
AcDbLine
 10
87.014888
 20
477.595578
 11
88.216957
 21
477.595578
  0
LINE
  5
FB
100
AcDbEntity
  8
M1
  6
CONTINUOUS
370
25
100
AcDbLine
 10
186.83659
 20
481.703307
 11
189.533513
 21
484.400232
  0
LINE
  5
FC
100
AcDbEntity
  8
M1
  6
CONTINUOUS
370
25
100
AcDbLine
 10
189.533513
 20
484.400232
 11
190.879345
 21
483.0544
  0
LINE
  5
FD
100
AcDbEntity
  8
M1
  6
CONTINUOUS
370
25
100
AcDbLine
 10
214.576803
 20
484.400232
 11
215.922635
 21
483.0544
  0
CIRCLE
  5
FE
100
AcDbEntity
  8
M1
  6
CONTINUOUS
370
25
100
AcDbCircle
 10
164.348559
 20
485.108565
 40
4.257359
  0
CIRCLE
  5
FF
100
AcDbEntity
  8
M1
  6
CONTINUOUS
370
25
100
AcDbCircle
 10
189.391848
 20
485.108565
 40
4.257359
  0
ARC
  5
100
100
AcDbEntity
  8
M1
  6
CONTINUOUS
370
25
100
AcDbCircle
 10
152.192368
 20
411.781804
 40
0.300519
100
AcDbArc
 50
180.0
 51
270.0
  0
CIRCLE
  5
101
100
AcDbEntity
  8
M1
  6
CONTINUOUS
370
25
100
AcDbCircle
 10
164.348559
 20
404.970043
 40
4.257359
  0
LINE
  5
102
100
AcDbEntity
  8
M1
  6
CONTINUOUS
370
25
100
AcDbLine
 10
226.155406
 20
478.59731
 11
152.628307
 21
478.59731
  0
LINE
  5
103
100
AcDbEntity
  8
M1
  6
CONTINUOUS
370
25
100
AcDbLine
 10
152.192368
 20
411.481284
 11
226.591329
 21
411.481284
  0
LINE
  5
104
100
AcDbEntity
  8
M1
  6
CONTINUOUS
370
25
100
AcDbLine
 10
182.880601
 20
398.126583
 11
182.880601
 21
411.481284
  0
CIRCLE
  5
105
100
AcDbEntity
  8
M1
  6
CONTINUOUS
370
25
100
AcDbCircle
 10
189.391848
 20
485.108565
 40
4.257359
  0
LINE
  5
106
100
AcDbEntity
  8
M1
  6
CONTINUOUS
370
25
100
AcDbLine
 10
151.891848
 20
398.126583
 11
151.891848
 21
492.120697
  0
CIRCLE
  5
107
100
AcDbEntity
  8
M1
  6
CONTINUOUS
370
25
100
AcDbCircle
 10
189.391848
 20
404.970043
 40
4.257359
  0
LINE
  5
108
100
AcDbEntity
  8
M1
  6
CONTINUOUS
370
25
100
AcDbLine
 10
220.695961
 20
491.369388
 11
220.695961
 21
478.84774
  0
LINE
  5
109
100
AcDbEntity
  8
M1
  6
CONTINUOUS
370
25
100
AcDbLine
 10
212.380976
 20
486.596059
 11
212.947645
 21
487.162724
  0
LINE
  5
10A
100
AcDbEntity
  8
M1
  6
CONTINUOUS
370
25
100
AcDbLine
 10
189.892714
 20
480.880771
 11
189.892714
 21
478.847743
  0
LINE
  5
10B
100
AcDbEntity
  8
M1
  6
CONTINUOUS
370
25
100
AcDbLine
 10
193.619648
 20
484.607699
 11
195.652679
 21
484.607699
  0
LINE
  5
10C
100
AcDbEntity
  8
M1
  6
CONTINUOUS
370
25
100
AcDbLine
 10
183.131026
 20
485.609431
 11
185.16406
 21
485.609431
  0
LINE
  5
10D
100
AcDbEntity
  8
M1
  6
CONTINUOUS
370
25
100
AcDbLine
 10
189.250173
 20
485.816895
 11
191.947093
 21
488.513821
  0
LINE
  5
10E
100
AcDbEntity
  8
M1
  6
CONTINUOUS
370
25
100
AcDbLine
 10
188.890983
 20
480.880771
 11
188.890983
 21
478.847743
  0
LINE
  5
10F
100
AcDbEntity
  8
M1
  6
CONTINUOUS
370
25
100
AcDbLine
 10
188.890983
 20
491.369388
 11
188.890983
 21
489.336359
  0
LINE
  5
110
100
AcDbEntity
  8
M1
  6
CONTINUOUS
370
25
100
AcDbLine
 10
183.131026
 20
484.607699
 11
185.16406
 21
484.607699
  0
LINE
  5
111
100
AcDbEntity
  8
M1
  6
CONTINUOUS
370
25
100
AcDbLine
 10
215.922635
 20
483.054398
 11
216.489306
 21
483.621063
  0
LINE
  5
112
100
AcDbEntity
  8
M1
  6
CONTINUOUS
370
25
100
AcDbLine
 10
193.619648
 20
485.609431
 11
195.652679
 21
485.609431
  0
LINE
  5
113
100
AcDbEntity
  8
M1
  6
CONTINUOUS
370
25
100
AcDbLine
 10
188.890983
 20
491.369388
 11
188.890983
 21
489.336359
  0
LINE
  5
114
100
AcDbEntity
  8
M1
  6
CONTINUOUS
370
25
100
AcDbLine
 10
214.293463
 20
485.816895
 11
216.990383
 21
488.513821
  0
LINE
  5
115
100
AcDbEntity
  8
M1
  6
CONTINUOUS
370
25
100
AcDbLine
 10
189.892714
 20
491.369388
 11
189.892714
 21
489.336359
  0
LINE
  5
116
100
AcDbEntity
  8
M1
  6
CONTINUOUS
370
25
100
AcDbLine
 10
190.879345
 20
483.054398
 11
191.446016
 21
483.621063
  0
LINE
  5
117
100
AcDbEntity
  8
M1
  6
CONTINUOUS
370
25
100
AcDbLine
 10
218.662938
 20
484.607699
 11
220.695969
 21
484.607699
  0
LINE
  5
118
100
AcDbEntity
  8
M1
  6
CONTINUOUS
370
25
100
AcDbLine
 10
183.131026
 20
485.609431
 11
185.16406
 21
485.609431
  0
LINE
  5
119
100
AcDbEntity
  8
M1
  6
CONTINUOUS
370
25
100
AcDbLine
 10
187.337687
 20
486.596059
 11
187.904355
 21
487.162724
  0
LINE
  5
11A
100
AcDbEntity
  8
M1
  6
CONTINUOUS
370
25
100
AcDbLine
 10
183.131026
 20
491.369388
 11
195.652671
 21
491.369388
  0
ARC
  5
11B
100
AcDbEntity
  8
M1
  6
CONTINUOUS
370
25
100
AcDbCircle
 10
79.201381
 20
420.496869
 40
0.500866
100
AcDbArc
 50
180.0
 51
270.0
  0
ARC
  5
11C
100
AcDbEntity
  8
M1
  6
CONTINUOUS
370
25
100
AcDbCircle
 10
226.155406
 20
478.29679
 40
0.300519
100
AcDbArc
 50
0.0
 51
90.0
  0
ARC
  5
11D
100
AcDbEntity
  8
M1
  6
CONTINUOUS
370
25
100
AcDbCircle
 10
77.698784
 20
398.126582
 40
0.500866
100
AcDbArc
 50
180.0
 51
270.0
  0
ARC
  5
11E
100
AcDbEntity
  8
M1
  6
CONTINUOUS
370
25
100
AcDbCircle
 10
77.498438
 20
478.29679
 40
0.300519
100
AcDbArc
 50
90.0
 51
180.0
  0
ARC
  5
11F
100
AcDbEntity
  8
M1
  6
CONTINUOUS
370
25
100
AcDbCircle
 10
152.392714
 20
398.126583
 40
0.500866
100
AcDbArc
 50
180.0
 51
270.0
  0
CIRCLE
  5
120
100
AcDbEntity
  8
M1
  6
CONTINUOUS
370
25
100
AcDbCircle
 10
214.435138
 20
485.108565
 40
4.257359
  0
LINE
  5
121
100
AcDbEntity
  8
M1
  6
CONTINUOUS
370
25
100
AcDbLine
 10
189.892714
 20
480.880771
 11
189.892714
 21
478.847743
  0
ARC
  5
122
100
AcDbEntity
  8
M1
  6
CONTINUOUS
370
25
100
AcDbCircle
 10
152.628307
 20
478.29679
 40
0.300519
100
AcDbArc
 50
90.0
 51
180.0
  0
CIRCLE
  5
123
100
AcDbEntity
  8
M1
  6
CONTINUOUS
370
25
100
AcDbCircle
 10
214.435138
 20
404.970043
 40
4.257359
  0
ARC
  5
124
100
AcDbEntity
  8
M1
  6
CONTINUOUS
370
25
100
AcDbCircle
 10
226.390983
 20
398.126583
 40
0.500866
100
AcDbArc
 50
270.0
 51
360.0
  0
LINE
  5
125
100
AcDbEntity
  8
M1
  6
CONTINUOUS
370
25
100
AcDbLine
 10
187.337687
 20
486.596059
 11
188.683519
 21
485.250229
  0
LINE
  5
126
100
AcDbEntity
  8
M1
  6
CONTINUOUS
370
25
100
AcDbLine
 10
187.337687
 20
406.457539
 11
188.683519
 21
405.11171
  0
LINE
  5
127
100
AcDbEntity
  8
M1
  6
CONTINUOUS
370
25
100
AcDbLine
 10
183.131026
 20
491.369388
 11
183.131026
 21
478.84774
  0
LINE
  5
128
100
AcDbEntity
  8
M1
  6
CONTINUOUS
370
25
100
AcDbLine
 10
188.890983
 20
480.880771
 11
188.890983
 21
478.847743
  0
LINE
  5
129
100
AcDbEntity
  8
M1
  6
CONTINUOUS
370
25
100
AcDbLine
 10
190.100181
 20
484.966901
 11
192.797104
 21
487.663824
  0
LINE
  5
12A
100
AcDbEntity
  8
M1
  6
CONTINUOUS
370
25
100
AcDbLine
 10
195.652671
 20
491.369388
 11
195.652671
 21
478.84774
  0
LINE
  5
12B
100
AcDbEntity
  8
M1
  6
CONTINUOUS
370
25
100
AcDbLine
 10
215.143471
 20
484.966901
 11
217.840394
 21
487.663824
  0
LINE
  5
12C
100
AcDbEntity
  8
M1
  6
CONTINUOUS
370
25
100
AcDbLine
 10
213.934273
 20
411.230865
 11
213.934273
 21
409.197837
  0
LINE
  5
12D
100
AcDbEntity
  8
M1
  6
CONTINUOUS
370
25
100
AcDbLine
 10
190.100181
 20
484.966884
 11
191.446016
 21
483.621058
  0
LINE
  5
12E
100
AcDbEntity
  8
M1
  6
CONTINUOUS
370
25
100
AcDbLine
 10
190.879345
 20
402.915878
 11
191.446016
 21
403.482544
  0
LINE
  5
12F
100
AcDbEntity
  8
M1
  6
CONTINUOUS
370
25
100
AcDbLine
 10
211.029871
 20
482.553304
 11
213.726792
 21
485.250227
  0
LINE
  5
130
100
AcDbEntity
  8
M1
  6
CONTINUOUS
370
25
100
AcDbLine
 10
212.947645
 20
487.162713
 11
214.293477
 21
485.816884
  0
LINE
  5
131
100
AcDbEntity
  8
M1
  6
CONTINUOUS
370
25
100
AcDbLine
 10
208.174316
 20
484.607699
 11
210.20735
 21
484.607699
  0
LINE
  5
132
100
AcDbEntity
  8
M1
  6
CONTINUOUS
370
25
100
AcDbLine
 10
221.532584
 20
398.126583
 11
221.532584
 21
411.481284
  0
LINE
  5
133
100
AcDbEntity
  8
M1
  6
CONTINUOUS
370
25
100
AcDbLine
 10
215.143471
 20
484.966884
 11
216.489306
 21
483.621058
  0
LINE
  5
134
100
AcDbEntity
  8
M1
  6
CONTINUOUS
370
25
100
AcDbLine
 10
208.174316
 20
491.369388
 11
208.174316
 21
478.84774
  0
LINE
  5
135
100
AcDbEntity
  8
M1
  6
CONTINUOUS
370
25
100
AcDbLine
 10
187.337687
 20
406.457539
 11
187.904355
 21
407.024205
  0
LINE
  5
136
100
AcDbEntity
  8
M1
  6
CONTINUOUS
370
25
100
AcDbLine
 10
193.619648
 20
485.609431
 11
195.652679
 21
485.609431
  0
LINE
  5
137
100
AcDbEntity
  8
M1
  6
CONTINUOUS
370
25
100
AcDbLine
 10
211.87988
 20
481.703307
 11
214.576803
 21
484.400232
  0
LINE
  5
138
100
AcDbEntity
  8
M1
  6
CONTINUOUS
370
25
100
AcDbLine
 10
212.380976
 20
486.596059
 11
213.726808
 21
485.250229
  0
LINE
  5
139
100
AcDbEntity
  8
M1
  6
CONTINUOUS
370
25
100
AcDbLine
 10
208.174316
 20
398.70922
 11
220.695961
 21
398.70922
  0
LINE
  5
13A
100
AcDbEntity
  8
M1
  6
CONTINUOUS
370
25
100
AcDbLine
 10
189.533513
 20
404.261713
 11
190.879345
 21
402.915881
  0
LINE
  5
13B
100
AcDbEntity
  8
M1
  6
CONTINUOUS
370
25
100
AcDbLine
 10
214.936004
 20
400.742251
 11
214.936004
 21
398.709223
  0
LINE
  5
13C
100
AcDbEntity
  8
M1
  6
CONTINUOUS
370
25
100
AcDbLine
 10
195.652671
 20
411.230865
 11
195.652671
 21
398.70922
  0
LINE
  5
13D
100
AcDbEntity
  8
M1
  6
CONTINUOUS
370
25
100
AcDbLine
 10
186.83659
 20
401.564787
 11
189.533513
 21
404.261713
  0
LINE
  5
13E
100
AcDbEntity
  8
M1
  6
CONTINUOUS
370
25
100
AcDbLine
 10
218.662938
 20
405.470909
 11
220.695969
 21
405.470909
  0
LINE
  5
13F
100
AcDbEntity
  8
M1
  6
CONTINUOUS
370
25
100
AcDbLine
 10
214.936004
 20
411.230865
 11
214.936004
 21
409.197837
  0
LINE
  5
140
100
AcDbEntity
  8
M1
  6
CONTINUOUS
370
25
100
AcDbLine
 10
183.131026
 20
411.230865
 11
183.131026
 21
398.70922
  0
LINE
  5
141
100
AcDbEntity
  8
M1
  6
CONTINUOUS
370
25
100
AcDbLine
 10
213.934273
 20
400.742251
 11
213.934273
 21
398.709223
  0
LINE
  5
142
100
AcDbEntity
  8
M1
  6
CONTINUOUS
370
25
100
AcDbLine
 10
193.619648
 20
404.469177
 11
195.652679
 21
404.469177
  0
LINE
  5
143
100
AcDbEntity
  8
M1
  6
CONTINUOUS
370
25
100
AcDbLine
 10
183.131026
 20
398.70922
 11
195.652671
 21
398.70922
  0
LINE
  5
144
100
AcDbEntity
  8
M1
  6
CONTINUOUS
370
25
100
AcDbLine
 10
183.131026
 20
405.470909
 11
185.16406
 21
405.470909
  0
LINE
  5
145
100
AcDbEntity
  8
M1
  6
CONTINUOUS
370
25
100
AcDbLine
 10
158.087736
 20
484.607699
 11
160.12077
 21
484.607699
  0
LINE
  5
146
100
AcDbEntity
  8
M1
  6
CONTINUOUS
370
25
100
AcDbLine
 10
188.890983
 20
400.742251
 11
188.890983
 21
398.709223
  0
LINE
  5
147
100
AcDbEntity
  8
M1
  6
CONTINUOUS
370
25
100
AcDbLine
 10
163.847693
 20
480.880771
 11
163.847693
 21
478.847743
  0
LINE
  5
148
100
AcDbEntity
  8
M1
  6
CONTINUOUS
370
25
100
AcDbLine
 10
185.986582
 20
402.414784
 11
188.683502
 21
405.111707
  0
LINE
  5
149
100
AcDbEntity
  8
M1
  6
CONTINUOUS
370
25
100
AcDbLine
 10
190.100181
 20
404.828365
 11
191.446016
 21
403.482536
  0
LINE
  5
14A
100
AcDbEntity
  8
M1
  6
CONTINUOUS
370
25
100
AcDbLine
 10
193.619648
 20
405.470909
 11
195.652679
 21
405.470909
  0
LINE
  5
14B
100
AcDbEntity
  8
M1
  6
CONTINUOUS
370
25
100
AcDbLine
 10
208.174316
 20
411.230865
 11
220.695961
 21
411.230865
  0
LINE
  5
14C
100
AcDbEntity
  8
M1
  6
CONTINUOUS
370
25
100
AcDbLine
 10
189.250173
 20
405.678376
 11
191.947093
 21
408.375302
  0
LINE
  5
14D
100
AcDbEntity
  8
M1
  6
CONTINUOUS
370
25
100
AcDbLine
 10
187.904355
 20
407.024194
 11
189.250187
 21
405.678365
  0
LINE
  5
14E
100
AcDbEntity
  8
M1
  6
CONTINUOUS
370
25
100
AcDbLine
 10
213.934273
 20
491.369388
 11
213.934273
 21
489.336359
  0
LINE
  5
14F
100
AcDbEntity
  8
M1
  6
CONTINUOUS
370
25
100
AcDbLine
 10
220.695961
 20
411.230865
 11
220.695961
 21
398.70922
  0
LINE
  5
150
100
AcDbEntity
  8
M1
  6
CONTINUOUS
370
25
100
AcDbLine
 10
208.174316
 20
491.369388
 11
220.695961
 21
491.369388
  0
LINE
  5
151
100
AcDbEntity
  8
M1
  6
CONTINUOUS
370
25
100
AcDbLine
 10
215.922635
 20
402.915878
 11
216.489306
 21
403.482544
  0
LINE
  5
152
100
AcDbEntity
  8
M1
  6
CONTINUOUS
370
25
100
AcDbLine
 10
208.174316
 20
411.230865
 11
208.174316
 21
398.70922
  0
LINE
  5
153
100
AcDbEntity
  8
M1
  6
CONTINUOUS
370
25
100
AcDbLine
 10
154.331251
 20
419.996003
 11
224.452463
 21
419.996003
  0
LINE
  5
154
100
AcDbEntity
  8
M1
  6
CONTINUOUS
370
25
100
AcDbLine
 10
218.662938
 20
485.609431
 11
220.695969
 21
485.609431
  0
LINE
  5
155
100
AcDbEntity
  8
M1
  6
CONTINUOUS
370
25
100
AcDbLine
 10
213.934273
 20
480.880771
 11
213.934273
 21
478.847743
  0
LINE
  5
156
100
AcDbEntity
  8
M1
  6
CONTINUOUS
370
25
100
AcDbLine
 10
214.936004
 20
480.880771
 11
214.936004
 21
478.847743
  0
LINE
  5
157
100
AcDbEntity
  8
M1
  6
CONTINUOUS
370
25
100
AcDbLine
 10
212.380976
 20
406.457539
 11
212.947645
 21
407.024205
  0
LINE
  5
158
100
AcDbEntity
  8
M1
  6
CONTINUOUS
370
25
100
AcDbLine
 10
208.174316
 20
485.609431
 11
210.20735
 21
485.609431
  0
LINE
  5
159
100
AcDbEntity
  8
M1
  6
CONTINUOUS
370
25
100
AcDbLine
 10
214.293463
 20
405.678376
 11
216.990383
 21
408.375302
  0
LINE
  5
15A
100
AcDbEntity
  8
M1
  6
CONTINUOUS
370
25
100
AcDbLine
 10
208.174316
 20
404.469177
 11
210.20735
 21
404.469177
  0
LINE
  5
15B
100
AcDbEntity
  8
M1
  6
CONTINUOUS
370
25
100
AcDbLine
 10
215.143471
 20
404.828381
 11
217.840394
 21
407.525304
  0
LINE
  5
15C
100
AcDbEntity
  8
M1
  6
CONTINUOUS
370
25
100
AcDbLine
 10
208.174316
 20
405.470909
 11
210.20735
 21
405.470909
  0
LINE
  5
15D
100
AcDbEntity
  8
M1
  6
CONTINUOUS
370
25
100
AcDbLine
 10
190.100181
 20
404.828381
 11
192.797104
 21
407.525304
  0
LINE
  5
15E
100
AcDbEntity
  8
M1
  6
CONTINUOUS
370
25
100
AcDbLine
 10
211.029871
 20
402.414784
 11
213.726792
 21
405.111707
  0
LINE
  5
15F
100
AcDbEntity
  8
M1
  6
CONTINUOUS
370
25
100
AcDbLine
 10
214.576803
 20
404.261713
 11
215.922635
 21
402.915881
  0
LINE
  5
160
100
AcDbEntity
  8
M1
  6
DASHDOT
370
13
 62
     4
100
AcDbLine
 10
164.348559
 20
415.232104
 11
164.348559
 21
389.730494
  0
LINE
  5
161
100
AcDbEntity
  8
M1
  6
DASHDOT
370
13
 62
     4
100
AcDbLine
 10
214.435138
 20
500.413928
 11
214.435138
 21
474.161976
  0
LINE
  5
162
100
AcDbEntity
  8
M1
  6
DASHDOT
370
13
 62
     4
100
AcDbLine
 10
89.218689
 20
478.59731
 11
89.218689
 21
389.730494
  0
LINE
  5
163
100
AcDbEntity
  8
M1
  6
DASHDOT
370
13
 62
     4
100
AcDbLine
 10
114.261979
 20
415.232104
 11
114.261979
 21
389.730494
  0
LINE
  5
164
100
AcDbEntity
  8
M1
  6
CONTINUOUS
370
25
100
AcDbLine
 10
170.609381
 20
411.230865
 11
170.609381
 21
398.70922
  0
LINE
  5
165
100
AcDbEntity
  8
M1
  6
CONTINUOUS
370
25
100
AcDbLine
 10
218.662938
 20
404.469177
 11
220.695969
 21
404.469177
  0
LINE
  5
166
100
AcDbEntity
  8
M1
  6
CONTINUOUS
370
25
100
AcDbLine
 10
183.131026
 20
404.469177
 11
185.16406
 21
404.469177
  0
LINE
  5
167
100
AcDbEntity
  8
M1
  6
CONTINUOUS
370
25
100
AcDbLine
 10
212.380976
 20
406.457539
 11
213.726808
 21
405.11171
  0
LINE
  5
168
100
AcDbEntity
  8
M1
  6
CONTINUOUS
370
25
100
AcDbLine
 10
211.87988
 20
401.564787
 11
214.576803
 21
404.261713
  0
LINE
  5
169
100
AcDbEntity
  8
M1
  6
CONTINUOUS
370
25
 62
     4
100
AcDbLine
 10
124.279303
 20
404.970043
 11
79.201381
 21
404.970043
  0
LINE
  5
16A
100
AcDbEntity
  8
M1
  6
CONTINUOUS
370
25
100
AcDbLine
 10
189.892714
 20
491.369388
 11
189.892714
 21
489.336359
  0
LINE
  5
16B
100
AcDbEntity
  8
M1
  6
CONTINUOUS
370
25
100
AcDbLine
 10
224.953328
 20
420.496869
 11
224.953328
 21
469.581717
  0
LINE
  5
16C
100
AcDbEntity
  8
M1
  6
CONTINUOUS
370
25
100
AcDbLine
 10
183.131026
 20
478.84774
 11
195.652671
 21
478.84774
  0
LINE
  5
16D
100
AcDbEntity
  8
M1
  6
CONTINUOUS
370
25
100
AcDbLine
 10
183.131026
 20
491.369388
 11
195.652671
 21
491.369388
  0
LINE
  5
16E
100
AcDbEntity
  8
M1
  6
CONTINUOUS
370
25
100
AcDbLine
 10
226.891848
 20
398.126583
 11
226.891848
 21
492.120697
  0
LINE
  5
16F
100
AcDbEntity
  8
M1
  6
DASHDOT
370
13
 62
     4
100
AcDbLine
 10
214.435138
 20
415.232104
 11
214.435138
 21
389.730494
  0
LINE
  5
170
100
AcDbEntity
  8
M1
  6
CONTINUOUS
370
25
100
AcDbLine
 10
165.836055
 20
402.915881
 11
166.402723
 21
403.482549
  0
LINE
  5
171
100
AcDbEntity
  8
M1
  6
CONTINUOUS
370
25
 62
     4
100
AcDbLine
 10
224.452463
 20
404.970043
 11
154.800554
 21
404.970043
  0
LINE
  5
172
100
AcDbEntity
  8
M1
  6
CONTINUOUS
370
25
100
AcDbLine
 10
158.087736
 20
411.230865
 11
158.087736
 21
398.70922
  0
LINE
  5
173
100
AcDbEntity
  8
M1
  6
CONTINUOUS
370
25
100
AcDbLine
 10
153.830385
 20
420.496869
 11
153.830385
 21
469.581717
  0
LINE
  5
174
100
AcDbEntity
  8
M1
  6
CONTINUOUS
370
25
 62
     4
100
AcDbLine
 10
124.279303
 20
485.108565
 11
79.201381
 21
485.108565
  0
LINE
  5
175
100
AcDbEntity
  8
M1
  6
DASHDOT
370
13
 62
     4
100
AcDbLine
 10
89.218689
 20
500.413928
 11
89.218689
 21
478.847743
  0
LINE
  5
176
100
AcDbEntity
  8
M1
  6
CONTINUOUS
370
25
 62
     4
100
AcDbLine
 10
224.452463
 20
485.108565
 11
154.800554
 21
485.108565
  0
LINE
  5
177
100
AcDbEntity
  8
M1
  6
DASHDOT
370
13
 62
     4
100
AcDbLine
 10
164.348559
 20
500.413928
 11
164.348559
 21
474.161976
  0
LINE
  5
178
100
AcDbEntity
  8
M1
  6
CONTINUOUS
370
25
100
AcDbLine
 10
165.056891
 20
484.966901
 11
167.753814
 21
487.663824
  0
LINE
  5
179
100
AcDbEntity
  8
M1
  6
CONTINUOUS
370
25
100
AcDbLine
 10
158.087736
 20
485.609431
 11
160.12077
 21
485.609431
  0
LINE
  5
17A
100
AcDbEntity
  8
M1
  6
CONTINUOUS
370
25
100
AcDbLine
 10
212.947645
 20
407.024194
 11
214.293477
 21
405.678365
  0
LINE
  5
17B
100
AcDbEntity
  8
M1
  6
CONTINUOUS
370
25
100
AcDbLine
 10
168.576358
 20
485.609431
 11
170.609389
 21
485.609431
  0
LINE
  5
17C
100
AcDbEntity
  8
M1
  6
CONTINUOUS
370
25
100
AcDbLine
 10
164.849424
 20
480.880771
 11
164.849424
 21
478.847743
  0
LINE
  5
17D
100
AcDbEntity
  8
M1
  6
CONTINUOUS
370
25
100
AcDbLine
 10
158.087736
 20
411.230865
 11
170.609381
 21
411.230865
  0
LINE
  5
17E
100
AcDbEntity
  8
M1
  6
CONTINUOUS
370
25
100
AcDbLine
 10
164.490223
 20
404.261713
 11
165.836055
 21
402.915881
  0
LINE
  5
17F
100
AcDbEntity
  8
M1
  6
CONTINUOUS
370
25
100
AcDbLine
 10
215.143471
 20
404.828365
 11
216.489306
 21
403.482536
  0
LINE
  5
180
100
AcDbEntity
  8
M1
  6
CONTINUOUS
370
25
100
AcDbLine
 10
162.294394
 20
406.457539
 11
162.861062
 21
407.024208
  0
LINE
  5
181
100
AcDbEntity
  8
M1
  6
CONTINUOUS
370
25
100
AcDbLine
 10
162.294394
 20
406.457539
 11
163.640229
 21
405.111707
  0
LINE
  5
182
100
AcDbEntity
  8
M1
  6
CONTINUOUS
370
25
100
AcDbLine
 10
208.174316
 20
478.84774
 11
220.695961
 21
478.84774
  0
LINE
  5
183
100
AcDbEntity
  8
M1
  6
CONTINUOUS
370
25
100
AcDbLine
 10
165.056891
 20
484.966884
 11
166.402726
 21
483.621058
  0
LINE
  5
184
100
AcDbEntity
  8
M1
  6
CONTINUOUS
370
25
100
AcDbLine
 10
163.847693
 20
491.369388
 11
163.847693
 21
489.336359
  0
LINE
  5
185
100
AcDbEntity
  8
M1
  6
DASHED
370
13
100
AcDbLine
 10
306.49739
 20
399.427237
 11
306.49739
 21
408.442821
  0
LINE
  5
186
100
AcDbEntity
  8
M1
  6
CONTINUOUS
370
25
100
AcDbLine
 10
160.943292
 20
482.553304
 11
163.640212
 21
485.250227
  0
LINE
  5
187
100
AcDbEntity
  8
M1
  6
CONTINUOUS
370
25
100
AcDbLine
 10
164.849424
 20
491.369388
 11
164.849424
 21
489.336359
  0
LINE
  5
188
100
AcDbEntity
  8
M1
  6
CONTINUOUS
370
25
100
AcDbLine
 10
168.576358
 20
484.607699
 11
170.609389
 21
484.607699
  0
LINE
  5
189
100
AcDbEntity
  8
M1
  6
CONTINUOUS
370
25
100
AcDbLine
 10
161.7933
 20
481.703307
 11
164.490223
 21
484.400232
  0
LINE
  5
18A
100
AcDbEntity
  8
M1
  6
CONTINUOUS
370
25
100
AcDbLine
 10
190.100181
 20
484.966884
 11
191.446016
 21
483.621058
  0
LINE
  5
18B
100
AcDbEntity
  8
M1
  6
CONTINUOUS
370
25
100
AcDbLine
 10
186.83659
 20
481.703307
 11
189.533513
 21
484.400232
  0
LINE
  5
18C
100
AcDbEntity
  8
M1
  6
CONTINUOUS
370
25
100
AcDbLine
 10
189.533513
 20
484.400232
 11
190.879345
 21
483.0544
  0
LINE
  5
18D
100
AcDbEntity
  8
M1
  6
CONTINUOUS
370
25
100
AcDbLine
 10
185.986582
 20
482.553304
 11
188.683502
 21
485.250227
  0
LINE
  5
18E
100
AcDbEntity
  8
M1
  6
CONTINUOUS
370
25
100
AcDbLine
 10
189.250173
 20
485.816895
 11
191.947093
 21
488.513821
  0
LINE
  5
18F
100
AcDbEntity
  8
M1
  6
CONTINUOUS
370
25
100
AcDbLine
 10
187.904355
 20
487.162713
 11
189.250187
 21
485.816884
  0
LINE
  5
190
100
AcDbEntity
  8
M1
  6
CONTINUOUS
370
25
100
AcDbLine
 10
187.337687
 20
486.596059
 11
187.904355
 21
487.162724
  0
LINE
  5
191
100
AcDbEntity
  8
M1
  6
CONTINUOUS
370
25
100
AcDbLine
 10
190.879345
 20
483.054398
 11
191.446016
 21
483.621063
  0
LINE
  5
192
100
AcDbEntity
  8
M1
  6
CONTINUOUS
370
25
100
AcDbLine
 10
164.206883
 20
485.816895
 11
166.903803
 21
488.513821
  0
LINE
  5
193
100
AcDbEntity
  8
M1
  6
CONTINUOUS
370
25
100
AcDbLine
 10
187.337687
 20
486.596059
 11
188.683519
 21
485.250229
  0
LINE
  5
194
100
AcDbEntity
  8
M1
  6
CONTINUOUS
370
25
100
AcDbLine
 10
190.100181
 20
484.966901
 11
192.797104
 21
487.663824
  0
LINE
  5
195
100
AcDbEntity
  8
M1
  6
CONTINUOUS
370
25
100
AcDbLine
 10
108.001156
 20
485.609431
 11
110.03419
 21
485.609431
  0
LINE
  5
196
100
AcDbEntity
  8
M1
  6
CONTINUOUS
370
25
100
AcDbLine
 10
164.849424
 20
400.742254
 11
164.849424
 21
398.709229
  0
LINE
  5
197
100
AcDbEntity
  8
M1
  6
CONTINUOUS
370
25
100
AcDbLine
 10
163.847693
 20
411.230865
 11
163.847693
 21
409.197834
  0
LINE
  5
198
100
AcDbEntity
  8
M1
  6
CONTINUOUS
370
25
100
AcDbLine
 10
164.20688
 20
405.678376
 11
166.903803
 21
408.375299
  0
LINE
  5
199
100
AcDbEntity
  8
M1
  6
CONTINUOUS
370
25
100
AcDbLine
 10
158.087736
 20
404.469177
 11
160.120762
 21
404.469177
  0
LINE
  5
19A
100
AcDbEntity
  8
M1
  6
CONTINUOUS
370
25
100
AcDbLine
 10
168.576358
 20
404.469177
 11
170.609381
 21
404.469177
  0
LINE
  5
19B
100
AcDbEntity
  8
M1
  6
CONTINUOUS
370
25
100
AcDbLine
 10
164.849424
 20
411.230865
 11
164.849424
 21
409.197834
  0
LINE
  5
19C
100
AcDbEntity
  8
M1
  6
CONTINUOUS
370
25
100
AcDbLine
 10
165.056891
 20
404.828367
 11
166.402723
 21
403.482533
  0
LINE
  5
19D
100
AcDbEntity
  8
M1
  6
CONTINUOUS
370
25
100
AcDbLine
 10
161.7933
 20
401.56479
 11
164.490223
 21
404.261713
  0
LINE
  5
19E
100
AcDbEntity
  8
M1
  6
DASHDOT
370
13
 62
     4
100
AcDbLine
 10
114.261979
 20
500.413928
 11
114.261979
 21
474.161976
  0
LINE
  5
19F
100
AcDbEntity
  8
M1
  6
CONTINUOUS
370
25
100
AcDbLine
 10
160.943289
 20
402.414784
 11
163.640212
 21
405.111707
  0
LINE
  5
1A0
100
AcDbEntity
  8
M1
  6
CONTINUOUS
370
25
100
AcDbLine
 10
163.847693
 20
400.742254
 11
163.847693
 21
398.709229
  0
LINE
  5
1A1
100
AcDbEntity
  8
M1
  6
CONTINUOUS
370
25
100
AcDbLine
 10
162.861062
 20
407.024194
 11
164.206897
 21
405.678362
  0
LINE
  5
1A2
100
AcDbEntity
  8
M1
  6
CONTINUOUS
370
25
100
AcDbLine
 10
158.087736
 20
491.369388
 11
158.087736
 21
478.84774
  0
LINE
  5
1A3
100
AcDbEntity
  8
M1
  6
CONTINUOUS
370
25
100
AcDbLine
 10
162.294397
 20
486.596059
 11
163.640229
 21
485.250229
  0
LINE
  5
1A4
100
AcDbEntity
  8
M1
  6
CONTINUOUS
370
25
100
AcDbLine
 10
170.609381
 20
491.369388
 11
170.609381
 21
478.84774
  0
LINE
  5
1A5
100
AcDbEntity
  8
M1
  6
CONTINUOUS
370
25
100
AcDbLine
 10
162.861065
 20
487.162713
 11
164.206897
 21
485.816884
  0
LINE
  5
1A6
100
AcDbEntity
  8
M1
  6
CONTINUOUS
370
25
100
AcDbLine
 10
183.131026
 20
491.369388
 11
183.131026
 21
478.84774
  0
LINE
  5
1A7
100
AcDbEntity
  8
M1
  6
CONTINUOUS
370
25
100
AcDbLine
 10
158.087736
 20
478.84774
 11
170.609381
 21
478.84774
  0
LINE
  5
1A8
100
AcDbEntity
  8
M1
  6
CONTINUOUS
370
25
100
AcDbLine
 10
168.576358
 20
405.470909
 11
170.609381
 21
405.470909
  0
LINE
  5
1A9
100
AcDbEntity
  8
M1
  6
CONTINUOUS
370
25
100
AcDbLine
 10
162.294397
 20
486.596059
 11
162.861065
 21
487.162724
  0
LINE
  5
1AA
100
AcDbEntity
  8
M1
  6
CONTINUOUS
370
25
100
AcDbLine
 10
165.056891
 20
404.828381
 11
167.753814
 21
407.525304
  0
LINE
  5
1AB
100
AcDbEntity
  8
M1
  6
CONTINUOUS
370
25
100
AcDbLine
 10
158.087736
 20
491.369388
 11
170.609381
 21
491.369388
  0
LINE
  5
1AC
100
AcDbEntity
  8
M1
  6
CONTINUOUS
370
25
100
AcDbLine
 10
164.490223
 20
484.400232
 11
165.836055
 21
483.0544
  0
LINE
  5
1AD
100
AcDbEntity
  8
M1
  6
CONTINUOUS
370
25
100
AcDbLine
 10
158.087736
 20
405.470909
 11
160.120762
 21
405.470909
  0
LINE
  5
1AE
100
AcDbEntity
  8
M1
  6
CONTINUOUS
370
25
100
AcDbLine
 10
195.652671
 20
491.369388
 11
195.652671
 21
478.84774
  0
LINE
  5
1AF
100
AcDbEntity
  8
M1
  6
CONTINUOUS
370
25
100
AcDbLine
 10
114.762845
 20
480.880771
 11
114.762845
 21
478.847743
  0
LINE
  5
1B0
100
AcDbEntity
  8
M1
  6
CONTINUOUS
370
25
100
AcDbLine
 10
108.001156
 20
478.84774
 11
120.522801
 21
478.84774
  0
LINE
  5
1B1
100
AcDbEntity
  8
M1
  6
CONTINUOUS
370
25
100
AcDbLine
 10
114.762845
 20
491.369388
 11
114.762845
 21
489.336359
  0
LINE
  5
1B2
100
AcDbEntity
  8
M1
  6
CONTINUOUS
370
25
100
AcDbLine
 10
118.489779
 20
485.609431
 11
120.52281
 21
485.609431
  0
CIRCLE
  5
1B3
100
AcDbEntity
  8
M1
  6
CONTINUOUS
370
25
100
AcDbCircle
 10
89.218689
 20
485.108565
 40
4.257359
  0
LINE
  5
1B4
100
AcDbEntity
  8
M1
  6
CONTINUOUS
370
25
100
AcDbLine
 10
115.749475
 20
483.054398
 11
116.316146
 21
483.621063
  0
CIRCLE
  5
1B5
100
AcDbEntity
  8
M1
  6
CONTINUOUS
370
25
100
AcDbCircle
 10
89.218689
 20
404.970043
 40
4.257359
  0
CIRCLE
  5
1B6
100
AcDbEntity
  8
M1
  6
CONTINUOUS
370
25
100
AcDbCircle
 10
114.261979
 20
485.108565
 40
4.257359
  0
LINE
  5
1B7
100
AcDbEntity
  8
M1
  6
CONTINUOUS
370
25
100
AcDbLine
 10
113.761113
 20
480.880771
 11
113.761113
 21
478.847743
  0
LINE
  5
1B8
100
AcDbEntity
  8
M1
  6
CONTINUOUS
370
25
100
AcDbLine
 10
112.207817
 20
486.596059
 11
112.774485
 21
487.162724
  0
LINE
  5
1B9
100
AcDbEntity
  8
M1
  6
CONTINUOUS
370
25
100
AcDbLine
 10
112.774485
 20
487.162713
 11
114.120317
 21
485.816884
  0
LINE
  5
1BA
100
AcDbEntity
  8
M1
  6
CONTINUOUS
370
25
100
AcDbLine
 10
114.403643
 20
484.400232
 11
115.749475
 21
483.0544
  0
LINE
  5
1BB
100
AcDbEntity
  8
M1
  6
CONTINUOUS
370
25
100
AcDbLine
 10
111.70672
 20
481.703307
 11
114.403643
 21
484.400232
  0
LINE
  5
1BC
100
AcDbEntity
  8
M1
  6
CONTINUOUS
370
25
100
AcDbLine
 10
194.150074
 20
468.549444
 11
194.150074
 21
447.485794
  0
LINE
  5
1BD
100
AcDbEntity
  8
M1
  6
CONTINUOUS
370
25
100
AcDbLine
 10
115.749475
 20
483.054398
 11
116.316146
 21
483.621063
  0
LINE
  5
1BE
100
AcDbEntity
  8
M1
  6
CONTINUOUS
370
25
100
AcDbLine
 10
114.970312
 20
484.966884
 11
116.316146
 21
483.621058
  0
LINE
  5
1BF
100
AcDbEntity
  8
M1
  6
CONTINUOUS
370
25
100
AcDbLine
 10
108.001156
 20
484.607699
 11
110.03419
 21
484.607699
  0
LINE
  5
1C0
100
AcDbEntity
  8
M1
  6
CONTINUOUS
370
25
100
AcDbLine
 10
114.120303
 20
485.816895
 11
116.817224
 21
488.513821
  0
LINE
  5
1C1
100
AcDbEntity
  8
M1
  6
CONTINUOUS
370
25
100
AcDbLine
 10
114.970312
 20
484.966901
 11
117.667235
 21
487.663824
  0
LINE
  5
1C2
100
AcDbEntity
  8
M1
  6
CONTINUOUS
370
25
100
AcDbLine
 10
113.761113
 20
491.369388
 11
113.761113
 21
489.336359
  0
LINE
  5
1C3
100
AcDbEntity
  8
M1
  6
CONTINUOUS
370
25
100
AcDbLine
 10
108.001156
 20
491.369388
 11
120.522801
 21
491.369388
  0
LINE
  5
1C4
100
AcDbEntity
  8
M1
  6
CONTINUOUS
370
25
100
AcDbLine
 10
113.761113
 20
480.880771
 11
113.761113
 21
478.847743
  0
LINE
  5
1C5
100
AcDbEntity
  8
M1
  6
CONTINUOUS
370
25
100
AcDbLine
 10
114.403643
 20
404.261713
 11
115.749475
 21
402.915881
  0
LINE
  5
1C6
100
AcDbEntity
  8
M1
  6
CONTINUOUS
370
25
100
AcDbLine
 10
114.403643
 20
484.400232
 11
115.749475
 21
483.0544
  0
LINE
  5
1C7
100
AcDbEntity
  8
M1
  6
CONTINUOUS
370
25
100
AcDbLine
 10
118.489779
 20
485.609431
 11
120.52281
 21
485.609431
  0
LINE
  5
1C8
100
AcDbEntity
  8
M1
  6
CONTINUOUS
370
25
100
AcDbLine
 10
165.836055
 20
483.054398
 11
166.402726
 21
483.621063
  0
LINE
  5
1C9
100
AcDbEntity
  8
M1
  6
CONTINUOUS
370
25
100
AcDbLine
 10
112.207817
 20
486.596059
 11
113.553649
 21
485.250229
  0
LINE
  5
1CA
100
AcDbEntity
  8
M1
  6
CONTINUOUS
370
25
100
AcDbLine
 10
118.489779
 20
484.607699
 11
120.52281
 21
484.607699
  0
LINE
  5
1CB
100
AcDbEntity
  8
M1
  6
CONTINUOUS
370
25
100
AcDbLine
 10
114.762845
 20
480.880771
 11
114.762845
 21
478.847743
  0
LINE
  5
1CC
100
AcDbEntity
  8
M1
  6
CONTINUOUS
370
25
100
AcDbLine
 10
112.207817
 20
406.457539
 11
112.774485
 21
407.024205
  0
LINE
  5
1CD
100
AcDbEntity
  8
M1
  6
CONTINUOUS
370
25
100
AcDbLine
 10
108.001156
 20
411.230865
 11
108.001156
 21
398.70922
  0
LINE
  5
1CE
100
AcDbEntity
  8
M1
  6
CONTINUOUS
370
25
100
AcDbLine
 10
108.001156
 20
485.609431
 11
110.03419
 21
485.609431
  0
LINE
  5
1CF
100
AcDbEntity
  8
M1
  6
CONTINUOUS
370
25
100
AcDbLine
 10
108.001156
 20
491.369388
 11
120.522801
 21
491.369388
  0
LINE
  5
1D0
100
AcDbEntity
  8
M1
  6
CONTINUOUS
370
25
100
AcDbLine
 10
113.761113
 20
491.369388
 11
113.761113
 21
489.336359
  0
LINE
  5
1D1
100
AcDbEntity
  8
M1
  6
CONTINUOUS
370
25
100
AcDbLine
 10
111.70672
 20
481.703307
 11
114.403643
 21
484.400232
  0
LINE
  5
1D2
100
AcDbEntity
  8
M1
  6
CONTINUOUS
370
25
100
AcDbLine
 10
112.774485
 20
487.162713
 11
114.120317
 21
485.816884
  0
LINE
  5
1D3
100
AcDbEntity
  8
M1
  6
CONTINUOUS
370
25
100
AcDbLine
 10
114.762845
 20
491.369388
 11
114.762845
 21
489.336359
  0
LINE
  5
1D4
100
AcDbEntity
  8
M1
  6
CONTINUOUS
370
25
100
AcDbLine
 10
112.207817
 20
406.457539
 11
113.553649
 21
405.11171
  0
LINE
  5
1D5
100
AcDbEntity
  8
M1
  6
CONTINUOUS
370
25
100
AcDbLine
 10
112.774485
 20
407.024194
 11
114.120317
 21
405.678365
  0
LINE
  5
1D6
100
AcDbEntity
  8
M1
  6
CONTINUOUS
370
25
100
AcDbLine
 10
108.001156
 20
491.369388
 11
108.001156
 21
478.84774
  0
LINE
  5
1D7
100
AcDbEntity
  8
M1
  6
CONTINUOUS
370
25
100
AcDbLine
 10
110.856712
 20
482.553304
 11
113.553632
 21
485.250227
  0
LINE
  5
1D8
100
AcDbEntity
  8
M1
  6
CONTINUOUS
370
25
100
AcDbLine
 10
114.970312
 20
484.966884
 11
116.316146
 21
483.621058
  0
LINE
  5
1D9
100
AcDbEntity
  8
M1
  6
CONTINUOUS
370
25
100
AcDbLine
 10
108.001156
 20
484.607699
 11
110.03419
 21
484.607699
  0
LINE
  5
1DA
100
AcDbEntity
  8
M1
  6
CONTINUOUS
370
25
100
AcDbLine
 10
114.120303
 20
485.816895
 11
116.817224
 21
488.513821
  0
LINE
  5
1DB
100
AcDbEntity
  8
M1
  6
CONTINUOUS
370
25
100
AcDbLine
 10
115.749475
 20
402.915878
 11
116.316146
 21
403.482544
  0
LINE
  5
1DC
100
AcDbEntity
  8
M1
  6
CONTINUOUS
370
25
100
AcDbLine
 10
114.970312
 20
484.966901
 11
117.667235
 21
487.663824
  0
LINE
  5
1DD
100
AcDbEntity
  8
M1
  6
CONTINUOUS
370
25
100
AcDbLine
 10
112.207817
 20
486.596059
 11
113.553649
 21
485.250229
  0
LINE
  5
1DE
100
AcDbEntity
  8
M1
  6
CONTINUOUS
370
25
100
AcDbLine
 10
118.489779
 20
484.607699
 11
120.52281
 21
484.607699
  0
LINE
  5
1DF
100
AcDbEntity
  8
M1
  6
CONTINUOUS
370
25
100
AcDbLine
 10
89.077011
 20
405.678376
 11
91.773934
 21
408.375299
  0
LINE
  5
1E0
100
AcDbEntity
  8
M1
  6
CONTINUOUS
370
25
100
AcDbLine
 10
85.813419
 20
402.414784
 11
88.510342
 21
405.111707
  0
LINE
  5
1E1
100
AcDbEntity
  8
M1
  6
CONTINUOUS
370
25
100
AcDbLine
 10
89.719555
 20
400.742254
 11
89.719555
 21
398.709229
  0
LINE
  5
1E2
100
AcDbEntity
  8
M1
  6
CONTINUOUS
370
25
100
AcDbLine
 10
86.66343
 20
401.56479
 11
89.360353
 21
404.261713
  0
LINE
  5
1E3
100
AcDbEntity
  8
M1
  6
CONTINUOUS
370
25
100
AcDbLine
 10
89.927022
 20
404.828367
 11
91.272854
 21
403.482533
  0
LINE
  5
1E4
100
AcDbEntity
  8
M1
  6
CONTINUOUS
370
25
100
AcDbLine
 10
114.120303
 20
405.678376
 11
116.817224
 21
408.375302
  0
LINE
  5
1E5
100
AcDbEntity
  8
M1
  6
CONTINUOUS
370
25
100
AcDbLine
 10
93.446489
 20
404.469177
 11
95.479511
 21
404.469177
  0
LINE
  5
1E6
100
AcDbEntity
  8
M1
  6
CONTINUOUS
370
25
100
AcDbLine
 10
82.957866
 20
404.469177
 11
84.990892
 21
404.469177
  0
LINE
  5
1E7
100
AcDbEntity
  8
M1
  6
CONTINUOUS
370
25
100
AcDbLine
 10
93.446489
 20
405.470909
 11
95.479511
 21
405.470909
  0
LINE
  5
1E8
100
AcDbEntity
  8
M1
  6
CONTINUOUS
370
25
100
AcDbLine
 10
88.717823
 20
411.230865
 11
88.717823
 21
409.197834
  0
LINE
  5
1E9
100
AcDbEntity
  8
M1
  6
CONTINUOUS
370
25
100
AcDbLine
 10
89.927022
 20
404.828381
 11
92.623945
 21
407.525304
  0
LINE
  5
1EA
100
AcDbEntity
  8
M1
  6
CONTINUOUS
370
25
100
AcDbLine
 10
82.957866
 20
405.470909
 11
84.990892
 21
405.470909
  0
LINE
  5
1EB
100
AcDbEntity
  8
M1
  6
CONTINUOUS
370
25
100
AcDbLine
 10
90.706185
 20
402.915881
 11
91.272854
 21
403.482549
  0
LINE
  5
1EC
100
AcDbEntity
  8
M1
  6
CONTINUOUS
370
25
100
AcDbLine
 10
87.164524
 20
406.457539
 11
87.731193
 21
407.024208
  0
LINE
  5
1ED
100
AcDbEntity
  8
M1
  6
CONTINUOUS
370
25
100
AcDbLine
 10
95.479511
 20
411.230865
 11
95.479511
 21
398.70922
  0
LINE
  5
1EE
100
AcDbEntity
  8
M1
  6
CONTINUOUS
370
25
100
AcDbLine
 10
120.522801
 20
491.369388
 11
120.522801
 21
478.84774
  0
LINE
  5
1EF
100
AcDbEntity
  8
M1
  6
CONTINUOUS
370
25
100
AcDbLine
 10
120.522801
 20
491.369388
 11
120.522801
 21
478.84774
  0
LINE
  5
1F0
100
AcDbEntity
  8
M1
  6
CONTINUOUS
370
25
100
AcDbLine
 10
82.957866
 20
411.230865
 11
95.479511
 21
411.230865
  0
LINE
  5
1F1
100
AcDbEntity
  8
M1
  6
CONTINUOUS
370
25
100
AcDbLine
 10
89.360353
 20
404.261713
 11
90.706185
 21
402.915881
  0
LINE
  5
1F2
100
AcDbEntity
  8
M1
  6
CONTINUOUS
370
25
100
AcDbLine
 10
87.164524
 20
406.457539
 11
88.510359
 21
405.111707
  0
LINE
  5
1F3
100
AcDbEntity
  8
M1
  6
CONTINUOUS
370
25
100
AcDbLine
 10
88.717823
 20
400.742254
 11
88.717823
 21
398.709229
  0
LINE
  5
1F4
100
AcDbEntity
  8
M1
  6
CONTINUOUS
370
25
100
AcDbLine
 10
82.957866
 20
398.70922
 11
95.479511
 21
398.70922
  0
LINE
  5
1F5
100
AcDbEntity
  8
M1
  6
CONTINUOUS
370
25
100
AcDbLine
 10
120.522801
 20
411.230865
 11
120.522801
 21
398.70922
  0
LINE
  5
1F6
100
AcDbEntity
  8
M1
  6
CONTINUOUS
370
25
100
AcDbLine
 10
87.731193
 20
407.024194
 11
89.077027
 21
405.678362
  0
LINE
  5
1F7
100
AcDbEntity
  8
M1
  6
CONTINUOUS
370
25
100
AcDbLine
 10
89.719555
 20
480.880771
 11
89.719555
 21
478.847743
  0
LINE
  5
1F8
100
AcDbEntity
  8
M1
  6
CONTINUOUS
370
25
100
AcDbLine
 10
89.719555
 20
491.369388
 11
89.719555
 21
489.336359
  0
LINE
  5
1F9
100
AcDbEntity
  8
M1
  6
CONTINUOUS
370
25
100
AcDbLine
 10
88.717823
 20
480.880771
 11
88.717823
 21
478.847743
  0
LINE
  5
1FA
100
AcDbEntity
  8
M1
  6
CONTINUOUS
370
25
100
AcDbLine
 10
85.813422
 20
482.553304
 11
88.510342
 21
485.250227
  0
LINE
  5
1FB
100
AcDbEntity
  8
M1
  6
CONTINUOUS
370
25
100
AcDbLine
 10
89.927022
 20
484.966901
 11
92.623945
 21
487.663824
  0
LINE
  5
1FC
100
AcDbEntity
  8
M1
  6
CONTINUOUS
370
25
100
AcDbLine
 10
88.717823
 20
491.369388
 11
88.717823
 21
489.336359
  0
LINE
  5
1FD
100
AcDbEntity
  8
M1
  6
CONTINUOUS
370
25
100
AcDbLine
 10
89.719555
 20
411.230865
 11
89.719555
 21
409.197834
  0
LINE
  5
1FE
100
AcDbEntity
  8
M1
  6
CONTINUOUS
370
25
100
AcDbLine
 10
82.957866
 20
485.609431
 11
84.9909
 21
485.609431
  0
LINE
  5
1FF
100
AcDbEntity
  8
M1
  6
CONTINUOUS
370
25
100
AcDbLine
 10
110.856712
 20
482.553304
 11
113.553632
 21
485.250227
  0
LINE
  5
200
100
AcDbEntity
  8
M1
  6
CONTINUOUS
370
25
100
AcDbLine
 10
82.957866
 20
484.607699
 11
84.9909
 21
484.607699
  0
LINE
  5
201
100
AcDbEntity
  8
M1
  6
CONTINUOUS
370
25
100
AcDbLine
 10
89.077013
 20
485.816895
 11
91.773934
 21
488.513821
  0
LINE
  5
202
100
AcDbEntity
  8
M1
  6
CONTINUOUS
370
25
100
AcDbLine
 10
112.207817
 20
486.596059
 11
112.774485
 21
487.162724
  0
LINE
  5
203
100
AcDbEntity
  8
M1
  6
CONTINUOUS
370
25
100
AcDbLine
 10
95.479511
 20
491.369388
 11
95.479511
 21
478.84774
  0
LINE
  5
204
100
AcDbEntity
  8
M1
  6
CONTINUOUS
370
25
100
AcDbLine
 10
82.957866
 20
491.369388
 11
95.479511
 21
491.369388
  0
LINE
  5
205
100
AcDbEntity
  8
M1
  6
CONTINUOUS
370
25
100
AcDbLine
 10
82.957866
 20
491.369388
 11
82.957866
 21
478.84774
  0
LINE
  5
206
100
AcDbEntity
  8
M1
  6
CONTINUOUS
370
25
100
AcDbLine
 10
87.164527
 20
486.596059
 11
87.731195
 21
487.162724
  0
LINE
  5
207
100
AcDbEntity
  8
M1
  6
CONTINUOUS
370
25
100
AcDbLine
 10
82.957866
 20
411.230865
 11
82.957866
 21
398.70922
  0
LINE
  5
208
100
AcDbEntity
  8
M1
  6
CONTINUOUS
370
25
100
AcDbLine
 10
82.957866
 20
478.84774
 11
95.479511
 21
478.84774
  0
LINE
  5
209
100
AcDbEntity
  8
M1
  6
CONTINUOUS
370
25
100
AcDbLine
 10
89.927022
 20
484.966884
 11
91.272856
 21
483.621058
  0
LINE
  5
20A
100
AcDbEntity
  8
M1
  6
CONTINUOUS
370
25
100
AcDbLine
 10
87.731195
 20
487.162713
 11
89.077027
 21
485.816884
  0
LINE
  5
20B
100
AcDbEntity
  8
M1
  6
CONTINUOUS
370
25
100
AcDbLine
 10
93.446489
 20
484.607699
 11
95.47952
 21
484.607699
  0
LINE
  5
20C
100
AcDbEntity
  8
M1
  6
CONTINUOUS
370
25
100
AcDbLine
 10
87.164527
 20
486.596059
 11
88.510359
 21
485.250229
  0
LINE
  5
20D
100
AcDbEntity
  8
M1
  6
CONTINUOUS
370
25
100
AcDbLine
 10
90.706185
 20
483.054398
 11
91.272856
 21
483.621063
  0
LINE
  5
20E
100
AcDbEntity
  8
M1
  6
CONTINUOUS
370
25
100
AcDbLine
 10
86.66343
 20
481.703307
 11
89.360353
 21
484.400232
  0
LINE
  5
20F
100
AcDbEntity
  8
M1
  6
CONTINUOUS
370
25
100
AcDbLine
 10
89.360353
 20
484.400232
 11
90.706185
 21
483.0544
  0
LINE
  5
210
100
AcDbEntity
  8
M1
  6
CONTINUOUS
370
25
100
AcDbLine
 10
189.892714
 20
411.230865
 11
189.892714
 21
409.197837
  0
LINE
  5
211
100
AcDbEntity
  8
M1
  6
CONTINUOUS
370
25
100
AcDbLine
 10
188.890983
 20
411.230865
 11
188.890983
 21
409.197837
  0
LINE
  5
212
100
AcDbEntity
  8
M1
  6
CONTINUOUS
370
25
100
AcDbLine
 10
189.892714
 20
400.742251
 11
189.892714
 21
398.709223
  0
LINE
  5
213
100
AcDbEntity
  8
M1
  6
CONTINUOUS
370
25
100
AcDbLine
 10
183.131026
 20
411.230865
 11
195.652671
 21
411.230865
  0
LINE
  5
214
100
AcDbEntity
  8
M1
  6
CONTINUOUS
370
25
100
AcDbLine
 10
114.762845
 20
411.230865
 11
114.762845
 21
409.197837
  0
LINE
  5
215
100
AcDbEntity
  8
M1
  6
CONTINUOUS
370
25
100
AcDbLine
 10
108.001156
 20
411.230865
 11
120.522801
 21
411.230865
  0
LINE
  5
216
100
AcDbEntity
  8
M1
  6
CONTINUOUS
370
25
100
AcDbLine
 10
113.761113
 20
411.230865
 11
113.761113
 21
409.197837
  0
LINE
  5
217
100
AcDbEntity
  8
M1
  6
CONTINUOUS
370
25
100
AcDbLine
 10
93.446489
 20
485.609431
 11
95.47952
 21
485.609431
  0
LINE
  5
218
100
AcDbEntity
  8
M1
  6
CONTINUOUS
370
25
100
AcDbLine
 10
110.856712
 20
402.414784
 11
113.553632
 21
405.111707
  0
LINE
  5
219
100
AcDbEntity
  8
M1
  6
CONTINUOUS
370
25
100
AcDbLine
 10
118.489779
 20
404.469177
 11
120.52281
 21
404.469177
  0
LINE
  5
21A
100
AcDbEntity
  8
M1
  6
CONTINUOUS
370
25
100
AcDbLine
 10
111.70672
 20
401.564787
 11
114.403643
 21
404.261713
  0
LINE
  5
21B
100
AcDbEntity
  8
M1
  6
CONTINUOUS
370
25
100
AcDbLine
 10
114.970312
 20
404.828365
 11
116.316146
 21
403.482536
  0
LINE
  5
21C
100
AcDbEntity
  8
M1
  6
CONTINUOUS
370
25
100
AcDbLine
 10
108.001156
 20
404.469177
 11
110.03419
 21
404.469177
  0
LINE
  5
21D
100
AcDbEntity
  8
M1
  6
CONTINUOUS
370
25
100
AcDbLine
 10
108.001156
 20
398.70922
 11
120.522801
 21
398.70922
  0
LINE
  5
21E
100
AcDbEntity
  8
M1
  6
CONTINUOUS
370
25
100
AcDbLine
 10
113.761113
 20
400.742251
 11
113.761113
 21
398.709223
  0
LINE
  5
21F
100
AcDbEntity
  8
M1
  6
CONTINUOUS
370
25
100
AcDbLine
 10
108.001156
 20
405.470909
 11
110.03419
 21
405.470909
  0
LINE
  5
220
100
AcDbEntity
  8
M1
  6
CONTINUOUS
370
25
100
AcDbLine
 10
114.970312
 20
404.828381
 11
117.667235
 21
407.525304
  0
LINE
  5
221
100
AcDbEntity
  8
M1
  6
CONTINUOUS
370
25
100
AcDbLine
 10
114.762845
 20
400.742251
 11
114.762845
 21
398.709223
  0
LINE
  5
222
100
AcDbEntity
  8
M1
  6
CONTINUOUS
370
25
100
AcDbLine
 10
118.489779
 20
405.470909
 11
120.52281
 21
405.470909
  0
LINE
  5
223
100
AcDbEntity
  8
M1
  6
DASHDOT
370
13
 62
     4
100
AcDbLine
 10
283.557725
 20
450.047968
 11
283.557725
 21
474.161976
  0
CIRCLE
  5
224
100
AcDbEntity
  8
M1
  6
CONTINUOUS
370
25
100
AcDbCircle
 10
201.913493
 20
485.108565
 40
1.652857
  0
CIRCLE
  5
225
100
AcDbEntity
  8
M1
  6
CONTINUOUS
370
25
100
AcDbCircle
 10
201.913493
 20
485.108565
 40
3.255628
  0
CIRCLE
  5
226
100
AcDbEntity
  8
M1
  6
CONTINUOUS
370
25
100
AcDbCircle
 10
176.870204
 20
404.970043
 40
3.255628
  0
CIRCLE
  5
227
100
AcDbEntity
  8
M1
  6
CONTINUOUS
370
25
100
AcDbCircle
 10
176.870204
 20
404.970043
 40
1.652857
  0
CIRCLE
  5
228
100
AcDbEntity
  8
M1
  6
CONTINUOUS
370
25
100
AcDbCircle
 10
164.243446
 20
429.012319
 40
4.257359
  0
LINE
  5
229
100
AcDbEntity
  8
M1
  6
DASHED
370
13
100
AcDbLine
 10
310.103613
 20
397.625706
 11
307.799633
 21
397.625706
  0
LINE
  5
22A
100
AcDbEntity
  8
M1
  6
DASHED
370
13
100
AcDbLine
 10
307.799641
 20
399.629169
 11
308.500853
 21
397.625706
  0
CIRCLE
  5
22B
100
AcDbEntity
  8
M1
  6
CONTINUOUS
370
25
100
AcDbCircle
 10
101.740334
 20
404.970043
 40
2.253896
  0
CIRCLE
  5
22C
100
AcDbEntity
  8
M1
  6
CONTINUOUS
370
25
100
AcDbCircle
 10
101.740334
 20
485.108565
 40
2.253896
  0
CIRCLE
  5
22D
100
AcDbEntity
  8
M1
  6
CONTINUOUS
370
25
100
AcDbCircle
 10
201.913493
 20
404.970043
 40
2.253896
  0
CIRCLE
  5
22E
100
AcDbEntity
  8
M1
  6
CONTINUOUS
370
25
100
AcDbCircle
 10
155.938115
 20
197.952602
 40
2.003463
  0
CIRCLE
  5
22F
100
AcDbEntity
  8
M1
  6
CONTINUOUS
370
25
100
AcDbCircle
 10
256.111274
 20
197.952602
 40
2.003463
  0
ARC
  5
230
100
AcDbEntity
  8
M1
  6
CONTINUOUS
370
25
100
AcDbCircle
 10
337.935192
 20
397.625695
 40
2.387586
100
AcDbArc
 50
180.394898
 51
234.518393
  0
CIRCLE
  5
231
100
AcDbEntity
  8
M1
  6
CONTINUOUS
370
25
100
AcDbCircle
 10
231.067984
 20
278.09113
 40
2.003463
  0
ARC
  5
232
100
AcDbEntity
  8
M1
  6
CONTINUOUS
370
25
100
AcDbCircle
 10
337.935192
 20
397.625695
 40
2.387586
100
AcDbArc
 50
125.481607
 51
180.394898
  0
CIRCLE
  5
233
100
AcDbEntity
  8
M1
  6
CONTINUOUS
370
25
100
AcDbCircle
 10
114.261979
 20
429.011604
 40
4.257359
  0
CIRCLE
  5
234
100
AcDbEntity
  8
M1
  6
CONTINUOUS
370
25
100
AcDbCircle
 10
164.243446
 20
429.012319
 40
4.257359
  0
CIRCLE
  5
235
100
AcDbEntity
  8
M1
  6
CONTINUOUS
370
25
100
AcDbCircle
 10
155.938115
 20
278.09113
 40
2.003463
  0
CIRCLE
  5
236
100
AcDbEntity
  8
M1
  6
CONTINUOUS
370
25
100
AcDbCircle
 10
114.261979
 20
404.970043
 40
4.257359
  0
CIRCLE
  5
237
100
AcDbEntity
  8
M1
  6
CONTINUOUS
370
25
100
AcDbCircle
 10
114.261979
 20
485.108565
 40
4.257359
  0
LINE
  5
238
100
AcDbEntity
  8
M1
  6
DASHDOT
370
13
 62
     4
100
AcDbLine
 10
200.291559
 20
238.021866
 11
289.152659
 21
238.021866
  0
LINE
  5
239
100
AcDbEntity
  8
M1
  6
CONTINUOUS
370
25
100
AcDbLine
 10
298.26093
 20
478.59731
 11
281.4541
 21
478.59731
  0
LINE
  5
23A
100
AcDbEntity
  8
M1
  6
DIVIDE
370
13
100
AcDbLine
 10
281.089629
 20
190.521866
 11
281.089629
 21
285.521866
  0
LINE
  5
23B
100
AcDbEntity
  8
M1
  6
DASHDOT
370
13
100
AcDbLine
 10
149.927725
 20
278.09113
 11
161.948504
 21
278.09113
  0
LINE
  5
23C
100
AcDbEntity
  8
M1
  6
DIVIDE
370
13
100
AcDbLine
 10
131.395693
 20
190.521866
 11
180.480539
 21
190.521866
  0
LINE
  5
23D
100
AcDbEntity
  8
M1
  6
CONTINUOUS
370
25
100
AcDbLine
 10
298.26093
 20
411.481284
 11
281.4541
 21
411.481284
  0
LINE
  5
23E
100
AcDbEntity
  8
M1
  6
DASHDOT
370
13
 62
     4
100
AcDbLine
 10
344.407591
 20
485.108565
 11
288.754837
 21
485.108565
  0
LINE
  5
23F
100
AcDbEntity
  8
M1
  6
DASHED
370
13
100
AcDbLine
 10
312.50778
 20
489.265751
 11
298.26093
 21
489.265751
  0
LINE
  5
240
100
AcDbEntity
  8
M1
  6
CONTINUOUS
370
25
100
AcDbLine
 10
108.001156
 20
491.369388
 11
108.001156
 21
478.84774
  0
LINE
  5
241
100
AcDbEntity
  8
M1
  6
DASHED
370
13
100
AcDbLine
 10
312.50778
 20
480.951379
 11
298.26093
 21
480.951379
  0
LINE
  5
242
100
AcDbEntity
  8
M1
  6
DASHED
370
13
100
AcDbLine
 10
308.200325
 20
403.18373
 11
308.200325
 21
404.686328
  0
LINE
  5
243
100
AcDbEntity
  8
M1
  6
DASHED
370
13
100
AcDbLine
 10
309.803107
 20
398.484337
 11
309.803107
 21
409.288711
  0
LINE
  5
244
100
AcDbEntity
  8
M1
  6
DASHED
370
13
100
AcDbLine
 10
309.803107
 20
406.439355
 11
318.518169
 21
406.439355
  0
LINE
  5
245
100
AcDbEntity
  8
M1
  6
DASHED
370
13
100
AcDbLine
 10
309.40242
 20
399.629169
 11
310.103635
 21
397.625706
  0
LINE
  5
246
100
AcDbEntity
  8
M1
  6
DASHED
370
13
100
AcDbLine
 10
309.803107
 20
401.430694
 11
318.518169
 21
401.430694
  0
LINE
  5
247
100
AcDbEntity
  8
M1
  6
DASHDOT
370
13
100
AcDbLine
 10
256.111274
 20
191.942213
 11
256.111274
 21
203.962992
  0
LINE
  5
248
100
AcDbEntity
  8
M1
  6
DIVIDE
370
13
100
AcDbLine
 10
206.525569
 20
190.521866
 11
206.525569
 21
285.521866
  0
LINE
  5
249
100
AcDbEntity
  8
M1
  6
DASHDOT
370
13
100
AcDbLine
 10
225.057595
 20
278.09113
 11
237.078374
 21
278.09113
  0
LINE
  5
24A
100
AcDbEntity
  8
M1
  6
DASHDOT
370
13
100
AcDbLine
 10
250.100885
 20
197.952602
 11
262.121664
 21
197.952602
  0
LINE
  5
24B
100
AcDbEntity
  8
M1
  6
CONTINUOUS
370
25
100
AcDbLine
 10
323.526827
 20
397.625706
 11
298.26093
 21
397.625706
  0
LINE
  5
24C
100
AcDbEntity
  8
M1
  6
DASHDOT
370
13
100
AcDbLine
 10
149.927725
 20
197.952602
 11
161.948504
 21
197.952602
  0
LINE
  5
24D
100
AcDbEntity
  8
M1
  6
CONTINUOUS
370
25
100
AcDbLine
 10
298.26093
 20
397.625706
 11
298.26093
 21
492.62156
  0
LINE
  5
24E
100
AcDbEntity
  8
M1
  6
CONTINUOUS
370
25
100
AcDbLine
 10
326.031156
 20
400.130035
 11
323.526827
 21
397.625706
  0
LINE
  5
24F
100
AcDbEntity
  8
M1
  6
DASHED
370
13
100
AcDbLine
 10
304.774133
 20
408.442821
 11
306.49739
 21
408.442821
  0
LINE
  5
250
100
AcDbEntity
  8
M1
  6
CONTINUOUS
370
25
100
AcDbLine
 10
263.178014
 20
463.355368
 11
276.445442
 21
455.695413
  0
LINE
  5
251
100
AcDbEntity
  8
M1
  6
DASHDOT
370
25
100
AcDbLine
 10
264.692111
 20
465.948692
 11
283.557725
 21
455.056626
  0
LINE
  5
252
100
AcDbEntity
  8
M1
  6
DASHDOT
370
25
100
AcDbLine
 10
266.207225
 20
445.03931
 11
283.557725
 21
455.056626
  0
LINE
  5
253
100
AcDbEntity
  8
M1
  6
CONTINUOUS
370
25
100
AcDbLine
 10
266.207331
 20
468.543937
 11
276.445442
 21
462.632961
  0
LINE
  5
254
100
AcDbEntity
  8
M1
  6
CONTINUOUS
370
25
100
AcDbLine
 10
340.556264
 20
400.130035
 11
326.031156
 21
400.130035
  0
LINE
  5
255
100
AcDbEntity
  8
M1
  6
DASHED
370
13
100
AcDbLine
 10
306.49739
 20
403.935029
 11
307.799641
 21
404.686881
  0
LINE
  5
256
100
AcDbEntity
  8
M1
  6
DASHED
370
13
100
AcDbLine
 10
306.49739
 20
399.752799
 11
307.799641
 21
399.752799
  0
LINE
  5
257
100
AcDbEntity
  8
M1
  6
CONTINUOUS
370
25
100
AcDbLine
 10
77.498438
 20
411.481284
 11
125.982247
 21
411.481284
  0
LINE
  5
258
100
AcDbEntity
  8
M1
  6
DASHED
370
13
100
AcDbLine
 10
306.49739
 20
403.183176
 11
307.799641
 21
403.935026
  0
LINE
  5
259
100
AcDbEntity
  8
M1
  6
CONTINUOUS
370
25
100
AcDbLine
 10
158.087736
 20
398.70922
 11
170.609381
 21
398.70922
  0
LINE
  5
25A
100
AcDbEntity
  8
M1
  6
DASHED
370
13
100
AcDbLine
 10
309.803107
 20
401.7813
 11
318.518169
 21
401.7813
  0
LINE
  5
25B
100
AcDbEntity
  8
M1
  6
DASHED
370
13
100
AcDbLine
 10
304.774133
 20
399.427237
 11
306.49739
 21
399.427237
  0
LINE
  5
25C
100
AcDbEntity
  8
M1
  6
DASHED
370
13
100
AcDbLine
 10
309.803107
 20
406.088749
 11
318.518169
 21
406.088749
  0
LINE
  5
25D
100
AcDbEntity
  8
M1
  6
DASHED
370
13
100
AcDbLine
 10
318.518169
 20
406.439355
 11
318.518169
 21
401.430694
  0
LINE
  5
25E
100
AcDbEntity
  8
M1
  6
DASHED
370
13
100
AcDbLine
 10
307.799641
 20
408.117255
 11
306.49739
 21
408.117255
  0
ARC
  5
25F
100
AcDbEntity
  8
M1
  6
DASHED
370
13
100
AcDbCircle
 10
304.774133
 20
400.428968
 40
1.001732
100
AcDbArc
 50
199.574512
 51
270.0
  0
ARC
  5
260
100
AcDbEntity
  8
M1
  6
CONTINUOUS
370
25
100
AcDbCircle
 10
281.4541
 20
412.483016
 40
1.001732
100
AcDbArc
 50
180.0
 51
270.0
  0
POINT
  5
261
100
AcDbEntity
  8
M1
  6
CONTINUOUS
370
25
100
AcDbPoint
 10
283.557725
 20
455.056626
  0
ARC
  5
262
100
AcDbEntity
  8
M1
  6
DASHED
370
13
100
AcDbCircle
 10
314.634175
 20
403.935029
 40
11.466571
100
AcDbArc
 50
160.425489
 51
199.574512
  0
LINE
  5
263
100
AcDbEntity
  8
M1
  6
DASHED
370
13
100
AcDbLine
 10
309.40242
 20
399.629169
 11
309.40242
 21
403.18373
  0
ARC
  5
264
100
AcDbEntity
  8
M1
  6
CONTINUOUS
370
25
100
AcDbCircle
 10
276.946308
 20
420.496869
 40
0.500866
100
AcDbArc
 50
180.0
 51
270.0
  0
LINE
  5
265
100
AcDbEntity
  8
M1
  6
DASHDOT
370
13
100
AcDbLine
 10
231.067984
 20
272.080741
 11
231.067984
 21
284.10152
  0
ARC
  5
266
100
AcDbEntity
  8
M1
  6
DASHDOT
370
13
 62
     4
100
AcDbCircle
 10
281.256843
 20
455.056626
 40
19.837374
100
AcDbArc
 50
155.358317
 51
180.0
  0
ARC
  5
267
100
AcDbEntity
  8
M1
  6
CONTINUOUS
370
25
100
AcDbCircle
 10
281.4541
 20
477.595578
 40
1.001732
100
AcDbArc
 50
90.0
 51
180.0
  0
ARC
  5
268
100
AcDbEntity
  8
M1
  6
CONTINUOUS
370
25
100
AcDbCircle
 10
276.946308
 20
469.581725
 40
0.500866
100
AcDbArc
 50
90.0
 51
180.0
  0
LINE
  5
269
100
AcDbEntity
  8
M1
  6
DASHED
370
13
100
AcDbLine
 10
307.799641
 20
403.119998
 11
307.799641
 21
410.147351
  0
LINE
  5
26A
100
AcDbEntity
  8
M1
  6
DASHED
370
13
100
AcDbLine
 10
308.200337
 20
404.686328
 11
307.799644
 21
404.686328
  0
LINE
  5
26B
100
AcDbEntity
  8
M1
  6
DASHED
370
13
100
AcDbLine
 10
309.803107
 20
403.18373
 11
309.402412
 21
403.18373
  0
LINE
  5
26C
100
AcDbEntity
  8
M1
  6
DASHED
370
13
100
AcDbLine
 10
308.200337
 20
403.18373
 11
307.799644
 21
403.18373
  0
LINE
  5
26D
100
AcDbEntity
  8
M1
  6
CONTINUOUS
370
25
100
AcDbLine
 10
263.176892
 20
463.353445
 11
266.207331
 21
468.543937
  0
LINE
  5
26E
100
AcDbEntity
  8
M1
  6
DASHED
370
13
100
AcDbLine
 10
309.40242
 20
408.143888
 11
310.103632
 21
410.147359
  0
LINE
  5
26F
100
AcDbEntity
  8
M1
  6
DASHED
370
13
100
AcDbLine
 10
310.103632
 20
410.147359
 11
307.799655
 21
410.147359
  0
LINE
  5
270
100
AcDbEntity
  8
M1
  6
DASHED
370
13
100
AcDbLine
 10
309.40242
 20
404.686328
 11
309.40242
 21
408.143888
  0
LINE
  5
271
100
AcDbEntity
  8
M1
  6
DASHED
370
13
100
AcDbLine
 10
307.799641
 20
397.625706
 11
307.799641
 21
403.18373
  0
LINE
  5
272
100
AcDbEntity
  8
M1
  6
DASHED
370
13
100
AcDbLine
 10
309.803107
 20
404.686328
 11
309.402412
 21
404.686328
  0
LINE
  5
273
100
AcDbEntity
  8
M1
  6
DASHED
370
13
100
AcDbLine
 10
307.799641
 20
408.117255
 11
308.500837
 21
410.147359
  0
LINE
  5
274
100
AcDbEntity
  8
M1
  6
CONTINUOUS
370
25
100
AcDbLine
 10
336.549338
 20
462.569613
 11
336.549338
 21
427.509007
  0
LINE
  5
275
100
AcDbEntity
  8
M1
  6
CONTINUOUS
370
25
100
AcDbLine
 10
337.55107
 20
462.569613
 11
336.549338
 21
462.569613
  0
LINE
  5
276
100
AcDbEntity
  8
M1
  6
CONTINUOUS
370
25
100
AcDbLine
 10
340.556264
 20
427.509007
 11
336.549338
 21
427.509007
  0
LINE
  5
277
100
AcDbEntity
  8
M1
  6
CONTINUOUS
370
25
100
AcDbLine
 10
340.556264
 20
490.117231
 11
340.556264
 21
462.569613
  0
LINE
  5
278
100
AcDbEntity
  8
M1
  6
CONTINUOUS
370
25
100
AcDbLine
 10
340.556264
 20
427.509007
 11
340.556264
 21
400.130035
  0
LINE
  5
279
100
AcDbEntity
  8
M1
  6
CONTINUOUS
370
25
100
AcDbLine
 10
338.552801
 20
427.509007
 11
337.55107
 21
427.509007
  0
LINE
  5
27A
100
AcDbEntity
  8
M1
  6
CONTINUOUS
370
25
100
AcDbLine
 10
340.055399
 20
427.509007
 11
340.556264
 21
427.509007
  0
LINE
  5
27B
100
AcDbEntity
  8
M1
  6
CONTINUOUS
370
25
100
AcDbLine
 10
340.556264
 20
427.509007
 11
340.462394
 21
427.69295
  0
LINE
  5
27C
100
AcDbEntity
  8
M1
  6
CONTINUOUS
370
25
100
AcDbLine
 10
338.552801
 20
427.509007
 11
340.055399
 21
427.509007
  0
LINE
  5
27D
100
AcDbEntity
  8
M1
  6
CONTINUOUS
370
25
100
AcDbLine
 10
338.552801
 20
460.566149
 11
340.055399
 21
460.566149
  0
LINE
  5
27E
100
AcDbEntity
  8
M1
  6
CONTINUOUS
370
25
100
AcDbLine
 10
340.556264
 20
462.569613
 11
340.055399
 21
460.566149
  0
LINE
  5
27F
100
AcDbEntity
  8
M1
  6
CONTINUOUS
370
25
100
AcDbLine
 10
337.55107
 20
462.569613
 11
338.552801
 21
460.566149
  0
LINE
  5
280
100
AcDbEntity
  8
M1
  6
CONTINUOUS
370
25
100
AcDbLine
 10
298.26093
 20
479.098176
 11
298.26093
 21
492.621552
  0
LINE
  5
281
100
AcDbEntity
  8
M1
  6
CONTINUOUS
370
25
100
AcDbLine
 10
196.399971
 20
492.621546
 11
182.383743
 21
492.621546
  0
LINE
  5
282
100
AcDbEntity
  8
M1
  6
CONTINUOUS
370
25
100
AcDbLine
 10
340.556264
 20
395.121377
 11
336.549338
 21
395.121377
  0
LINE
  5
283
100
AcDbEntity
  8
M1
  6
CONTINUOUS
370
25
100
AcDbLine
 10
336.549338
 20
395.121377
 11
336.549338
 21
400.130035
  0
LINE
  5
284
100
AcDbEntity
  8
M1
  6
CONTINUOUS
370
25
100
AcDbLine
 10
335.547606
 20
400.130035
 11
335.547606
 21
404.136961
  0
LINE
  5
285
100
AcDbEntity
  8
M1
  6
CONTINUOUS
370
25
100
AcDbLine
 10
335.547606
 20
404.136961
 11
333.544143
 21
404.136961
  0
LINE
  5
286
100
AcDbEntity
  8
M1
  6
CONTINUOUS
370
25
100
AcDbLine
 10
333.544143
 20
404.136961
 11
333.544143
 21
400.130035
  0
LINE
  5
287
100
AcDbEntity
  8
M1
  6
DASHDOT
370
13
 62
     4
100
AcDbLine
 10
157.186186
 20
429.012319
 11
170.609381
 21
429.012319
  0
LINE
  5
288
100
AcDbEntity
  8
M1
  6
DASHDOT
370
13
 62
     4
100
AcDbLine
 10
164.243446
 20
435.822878
 11
164.243446
 21
422.273776
  0
LINE
  5
289
100
AcDbEntity
  8
M1
  6
DASHDOT
370
13
 62
     4
100
AcDbLine
 10
107.204721
 20
429.011604
 11
120.627916
 21
429.011604
  0
LINE
  5
28A
100
AcDbEntity
  8
M1
  6
DASHDOT
370
13
 62
     4
100
AcDbLine
 10
114.261979
 20
435.822163
 11
114.261979
 21
422.273061
  0
LINE
  5
28B
100
AcDbEntity
  8
M1
  6
CONTINUOUS
370
25
100
AcDbLine
 10
184.633623
 20
468.549444
 11
184.633623
 21
447.485794
  0
LINE
  5
28C
100
AcDbEntity
  8
M1
  6
CONTINUOUS
370
25
100
AcDbLine
 10
184.633623
 20
447.485794
 11
194.150074
 21
447.485794
  0
LINE
  5
28D
100
AcDbEntity
  8
M1
  6
CONTINUOUS
370
25
100
AcDbLine
 10
280.452369
 20
477.595578
 11
280.452369
 21
412.483016
  0
LINE
  5
28E
100
AcDbEntity
  8
M1
  6
CONTINUOUS
370
25
100
AcDbLine
 10
184.633623
 20
468.549444
 11
194.150074
 21
468.549444
  0
LINE
  5
28F
100
AcDbEntity
  8
M1
  6
CONTINUOUS
370
25
100
AcDbLine
 10
194.150074
 20
463.372985
 11
184.633623
 21
463.375667
  0
LINE
  5
290
100
AcDbEntity
  8
M1
  6
CONTINUOUS
370
25
100
AcDbLine
 10
184.633623
 20
455.70092
 11
194.150074
 21
455.70092
  0
LINE
  5
291
100
AcDbEntity
  8
M1
  6
CONTINUOUS
370
25
100
AcDbLine
 10
93.976914
 20
463.401222
 11
84.460464
 21
463.403907
  0
LINE
  5
292
100
AcDbEntity
  8
M1
  6
CONTINUOUS
370
25
100
AcDbLine
 10
84.460464
 20
455.72916
 11
93.976914
 21
455.72916
  0
LINE
  5
293
100
AcDbEntity
  8
M1
  6
CONTINUOUS
370
25
100
AcDbLine
 10
84.460464
 20
468.577684
 11
93.976914
 21
468.577684
  0
LINE
  5
294
100
AcDbEntity
  8
M1
  6
CONTINUOUS
370
25
100
AcDbLine
 10
84.460464
 20
447.514035
 11
93.976914
 21
447.514035
  0
LINE
  5
295
100
AcDbEntity
  8
M1
  6
CONTINUOUS
370
25
100
AcDbLine
 10
93.976914
 20
468.577684
 11
93.976914
 21
447.514035
  0
LINE
  5
296
100
AcDbEntity
  8
M1
  6
CONTINUOUS
370
25
100
AcDbLine
 10
84.460464
 20
468.577684
 11
84.460464
 21
447.514035
  0
LINE
  5
297
100
AcDbEntity
  8
M1
  6
DASHED
370
25
100
AcDbLine
 10
336.549338
 20
427.509007
 11
336.549338
 21
399.569911
  0
LINE
  5
298
100
AcDbEntity
  8
M1
  6
CONTINUOUS
370
25
100
AcDbLine
 10
340.556264
 20
462.569613
 11
340.556264
 21
427.509007
  0
LINE
  5
299
100
AcDbEntity
  8
M1
  6
CONTINUOUS
370
25
100
AcDbLine
 10
280.452369
 20
474.161976
 11
288.754837
 21
474.161976
  0
LINE
  5
29A
100
AcDbEntity
  8
M1
  6
CONTINUOUS
370
25
100
AcDbLine
 10
298.26093
 20
492.621552
 11
323.526827
 21
492.62156
  0
LINE
  5
29B
100
AcDbEntity
  8
M1
  6
CONTINUOUS
370
25
100
AcDbLine
 10
182.129294
 20
395.125717
 11
171.611113
 21
395.125717
  0
LINE
  5
29C
100
AcDbEntity
  8
M1
  6
DIVIDE
370
13
100
AcDbLine
 10
206.52556
 20
190.521866
 11
281.089629
 21
190.521866
  0
LINE
  5
29D
100
AcDbEntity
  8
M1
  6
CONTINUOUS
370
25
100
AcDbLine
 10
106.999425
 20
395.121563
 11
96.481243
 21
395.121563
  0
LINE
  5
29E
100
AcDbEntity
  8
M1
  6
DIVIDE
370
13
100
AcDbLine
 10
180.480539
 20
190.521866
 11
180.480539
 21
285.521866
  0
LINE
  5
29F
100
AcDbEntity
  8
M1
  6
CONTINUOUS
370
25
100
AcDbLine
 10
182.63016
 20
395.626583
 11
182.63016
 21
397.625717
  0
LINE
  5
2A0
100
AcDbEntity
  8
M1
  6
CONTINUOUS
370
25
100
AcDbLine
 10
171.110247
 20
395.626583
 11
171.110247
 21
397.625717
  0
LINE
  5
2A1
100
AcDbEntity
  8
M1
  6
CONTINUOUS
370
25
100
AcDbLine
 10
95.980377
 20
395.622429
 11
95.980377
 21
397.625719
  0
LINE
  5
2A2
100
AcDbEntity
  8
M1
  6
CONTINUOUS
370
25
100
AcDbLine
 10
107.50029
 20
395.622429
 11
107.50029
 21
397.625719
  0
LINE
  5
2A3
100
AcDbEntity
  8
M1
  6
CONTINUOUS
370
25
100
AcDbLine
 10
96.381078
 20
397.625717
 11
82.056316
 21
397.625717
  0
LINE
  5
2A4
100
AcDbEntity
  8
M1
  6
DASHDOT
370
13
 62
     4
100
AcDbLine
 10
266.207225
 20
445.03931
 11
338.653812
 21
445.03931
  0
LINE
  5
2A5
100
AcDbEntity
  8
M1
  6
CONTINUOUS
370
25
100
AcDbLine
 10
326.031156
 20
490.117231
 11
323.526827
 21
492.62156
  0
LINE
  5
2A6
100
AcDbEntity
  8
M1
  6
CONTINUOUS
370
25
100
AcDbLine
 10
276.445442
 20
469.581725
 11
276.445442
 21
420.496869
  0
LINE
  5
2A7
100
AcDbEntity
  8
M1
  6
CONTINUOUS
370
25
100
AcDbLine
 10
280.452369
 20
419.996003
 11
276.946308
 21
419.996003
  0
LINE
  5
2A8
100
AcDbEntity
  8
M1
  6
CONTINUOUS
370
25
100
AcDbLine
 10
276.946308
 20
470.082591
 11
280.452369
 21
470.082591
  0
LINE
  5
2A9
100
AcDbEntity
  8
M1
  6
DIVIDE
370
13
100
AcDbLine
 10
131.395693
 20
285.521866
 11
180.480539
 21
285.521866
  0
LINE
  5
2AA
100
AcDbEntity
  8
M1
  6
DIVIDE
370
13
100
AcDbLine
 10
206.525569
 20
285.521866
 11
281.089629
 21
285.521866
  0
LINE
  5
2AB
100
AcDbEntity
  8
M1
  6
DIVIDE
370
13
100
AcDbLine
 10
131.395693
 20
285.521866
 11
131.395693
 21
190.521866
  0
LINE
  5
2AC
100
AcDbEntity
  8
M1
  6
DASHDOT
370
13
 62
     4
100
AcDbLine
 10
125.245022
 20
238.021866
 11
186.629276
 21
238.021866
  0
LINE
  5
2AD
100
AcDbEntity
  8
M1
  6
CONTINUOUS
370
25
100
AcDbLine
 10
340.556264
 20
490.117231
 11
326.031156
 21
490.117231
  0
LINE
  5
2AE
100
AcDbEntity
  8
M1
  6
CONTINUOUS
370
25
100
AcDbLine
 10
121.274108
 20
397.625717
 11
107.249866
 21
397.625717
  0
LINE
  5
2AF
100
AcDbEntity
  8
M1
  6
CONTINUOUS
370
25
100
AcDbLine
 10
121.270101
 20
492.621549
 11
107.253873
 21
492.621549
  0
LINE
  5
2B0
100
AcDbEntity
  8
M1
  6
CONTINUOUS
370
25
100
AcDbLine
 10
96.377071
 20
492.621549
 11
82.060323
 21
492.621549
  0
LINE
  5
2B1
100
AcDbEntity
  8
M1
  6
CONTINUOUS
370
25
100
AcDbLine
 10
221.597528
 20
397.625717
 11
207.272766
 21
397.625717
  0
LINE
  5
2B2
100
AcDbEntity
  8
M1
  6
CONTINUOUS
370
25
100
AcDbLine
 10
221.593521
 20
492.621546
 11
207.276773
 21
492.621546
  0
LINE
  5
2B3
100
AcDbEntity
  8
M1
  6
CONTINUOUS
370
25
100
AcDbLine
 10
171.506941
 20
492.621546
 11
156.754336
 21
492.621546
  0
LINE
  5
2B4
100
AcDbEntity
  8
M1
  6
CONTINUOUS
370
25
100
AcDbLine
 10
337.55107
 20
427.509007
 11
338.051935
 21
429.51247
  0
LINE
  5
2B5
100
AcDbEntity
  8
M1
  6
CONTINUOUS
370
25
100
AcDbLine
 10
196.403978
 20
397.625717
 11
182.379736
 21
397.625717
  0
LINE
  5
2B6
100
AcDbEntity
  8
M1
  6
CONTINUOUS
370
25
100
AcDbLine
 10
171.510948
 20
397.625717
 11
156.750247
 21
397.625717
  0
LINE
  5
2B7
100
AcDbEntity
  8
M1
  6
DASHED
370
13
100
AcDbLine
 10
312.50778
 20
480.951379
 11
312.50778
 21
489.265751
  0
ARC
  5
2B8
100
AcDbEntity
  8
M1
  6
CONTINUOUS
370
25
100
AcDbCircle
 10
171.611113
 20
395.626583
 40
0.500866
100
AcDbArc
 50
180.0
 51
270.0
  0
ARC
  5
2B9
100
AcDbEntity
  8
M1
  6
CONTINUOUS
370
25
100
AcDbCircle
 10
96.481243
 20
395.622429
 40
0.500866
100
AcDbArc
 50
180.0
 51
270.0
  0
LINE
  5
2BA
100
AcDbEntity
  8
M1
  6
CONTINUOUS
370
25
100
AcDbLine
 10
340.556264
 20
400.130035
 11
340.556264
 21
395.121377
  0
LINE
  5
2BB
100
AcDbEntity
  8
M1
  6
CONTINUOUS
370
25
100
AcDbLine
 10
339.554533
 20
429.51247
 11
338.051935
 21
429.51247
  0
LINE
  5
2BC
100
AcDbEntity
  8
M1
  6
CONTINUOUS
370
25
100
AcDbLine
 10
340.556264
 20
427.509007
 11
339.554533
 21
429.51247
  0
LINE
  5
2BD
100
AcDbEntity
  8
M1
  6
DASHED
370
13
100
AcDbLine
 10
312.50778
 20
487.362461
 11
340.556264
 21
487.362461
  0
LINE
  5
2BE
100
AcDbEntity
  8
M1
  6
DASHED
370
13
100
AcDbLine
 10
312.50778
 20
482.854669
 11
340.556264
 21
482.854669
  0
ARC
  5
2BF
100
AcDbEntity
  8
M1
  6
CONTINUOUS
370
25
100
AcDbCircle
 10
106.999425
 20
395.622429
 40
0.500866
100
AcDbArc
 50
270.0
 51
360.0
  0
CIRCLE
  5
2C0
100
AcDbEntity
  8
M1
  6
CONTINUOUS
370
25
100
AcDbCircle
 10
176.870204
 20
485.108565
 40
2.253896
  0
ARC
  5
2C1
100
AcDbEntity
  8
M1
  6
CONTINUOUS
370
25
100
AcDbCircle
 10
182.129294
 20
395.626583
 40
0.500866
100
AcDbArc
 50
270.0
 51
360.0
  0
LINE
  5
2C2
100
AcDbEntity
  8
M1
  6
CONTINUOUS
370
25
100
AcDbLine
 10
174.616308
 20
492.621563
 11
174.616308
 21
397.621563
  0
LINE
  5
2C3
100
AcDbEntity
  8
M2
  6
CONTINUOUS
370
50
 62
     7
100
AcDbLine
 10
398.680412
 20
19.601204
 11
398.680412
 21
569.601204
  0
LINE
  5
2C4
100
AcDbEntity
  8
M2
  6
CONTINUOUS
370
50
 62
     7
100
AcDbLine
 10
18.680412
 20
569.601204
 11
398.680412
 21
569.601204
  0
LINE
  5
2C5
100
AcDbEntity
  8
M2
  6
CONTINUOUS
370
50
 62
     7
100
AcDbLine
 10
18.680412
 20
569.601204
 11
18.680412
 21
19.601204
  0
LINE
  5
2C6
100
AcDbEntity
  8
M2
  6
CONTINUOUS
370
50
 62
     7
100
AcDbLine
 10
18.680412
 20
19.601204
 11
398.680412
 21
19.601204
  0
LINE
  5
2C7
100
AcDbEntity
  8
M3
  6
CONTINUOUS
370
13
100
AcDbLine
 10
212.011734
 20
149.50557
 11
237.291734
 21
149.50557
  0
LINE
  5
2C8
100
AcDbEntity
  8
M3
  6
CONTINUOUS
370
13
100
AcDbLine
 10
167.011734
 20
149.50557
 11
237.291732
 21
149.50557
  0
TEXT
  5
2C9
100
AcDbEntity
  8
M3
100
AcDbText
 10
167.012848
 20
150.005569
 40
5.0
  1
ＤＲＩＬＬＩＮＧ　ＰＬＡＮ．
 41
0.833333
  7
STANDARD
100
AcDbText
  0
ENDSEC
  0
SECTION
  2
OBJECTS
  0
DICTIONARY
  5
C
100
AcDbDictionary
  3
ACAD_GROUP
350
D
  3
ACAD_MLINESTYLE
350
E
  0
DICTIONARY
  5
D
102
{ACAD_REACTORS
330
C
102
}
100
AcDbDictionary
  0
DICTIONARY
  5
E
102
{ACAD_REACTORS
330
C
102
}
100
AcDbDictionary
  3
STANDARD
350
13
  0
MLINESTYLE
  5
13
102
{ACAD_REACTORS
330
E
102
}
100
AcDbMlineStyle
  2
STANDARD
 70
     0
  3

 62
     0
 51
90.0
 52
90.0
 71
     2
 49
0.5
 62
   256
  6
BYLAYER
 49
-0.5
 62
   256
  6
BYLAYER
  0
ENDSEC
  0
EOF
