  0
SECTION
  2
HEADER
  9
$ACADVER
  1
AC1015
  9
$INSBASE
 10
0.000000
 20
0.000000
 30
0.0
  9
$VIEWCTR
 10
7.531722
 20
4.5
  9
$VIEWSIZE
 40
9.0
  9
$SNAPMODE
 70
     0
  9
$SNAPUNIT
 10
1.0
 20
1.0
  9
$SNAPBASE
 10
0.0
 20
0.0
  9
$SNAPANG
 50
0.0
  9
$SNAPSTYLE
 70
     0
  9
$SNAPISOPAIR
 70
     0
  9
$GRIDMODE
 70
     0
  9
$GRIDUNIT
 10
0.0
 20
0.0
  9
$ORTHOMODE
 70
     0
  9
$REGENMODE
 70
     1
  9
$FILLMODE
 70
     1
  9
$QTEXTMODE
 70
     0
  9
$DRAGMODE
 70
     2
  9
$LTSCALE
  40
     1.000000
  9
$OSMODE
 70
     0
  9
$ATTMODE
 70
     1
  9
$TEXTSIZE
 40
0.2
  9
$TRACEWID
 40
0.05
  9
$TEXTSTYLE
  7
STANDARD
  9
$CELTYPE
  6
BYLAYER
  9
$CECOLOR
 62
   256
  9
$DIMSCALE
 40
1.0
  9
$DIMASZ
 40
0.18
  9
$DIMEXO
 40
0.0625
  9
$DIMDLI
 40
0.38
  9
$DIMRND
 40
0.0
  9
$DIMDLE
 40
0.0
  9
$DIMEXE
 40
0.18
  9
$DIMTP
 40
0.0
  9
$DIMTM
 40
0.0
  9
$DIMTXT
 40
0.18
  9
$DIMCEN
 40
0.09
  9
$DIMTSZ
 40
0.0
  9
$DIMADEC
 70
     0
  9
$DIMALTRND
 40
0.000000
  9
$DIMAZIN
 70
     0
  9
$DIMDSEP
 70
    46
  9
$DIMATFIT
 70
     3
  9
$DIMFRAC
 70
     0
  9
$DIMLDRBLK
  1

  9
$DIMLUNIT
 70
     2
  9
$DIMLWD
 70
   13
  9
$DIMLWE
 70
   13
  9
$DIMTMOVE
 70
     0
  9
$CELWEIGHT
370
    25
  9
$LWDISPLAY
290
    1
  9
$EXTNAMES
290
    1
  9
$DIMTOL
 70
     0
  9
$DIMLIM
 70
     0
  9
$DIMTIH
 70
     1
  9
$DIMTOH
 70
     1
  9
$DIMSE1
 70
     0
  9
$DIMSE2
 70
     0
  9
$DIMTAD
 70
     0
  9
$DIMZIN
 70
     0
  9
$DIMBLK
  1

  9
$LUNITS
 70
     2
  9
$LUPREC
 70
     4
  9
$AXISMODE
 70
     0
  9
$AXISUNIT
 10
0.0
 20
0.0
  9
$SKETCHINC
 40
0.1
  9
$FILLETRAD
 40
0.0
  9
$AUNITS
 70
     0
  9
$AUPREC
 70
     0
  9
$MENU
  1
ACAD
  9
$ELEVATION
 40
0.0
  9
$THICKNESS
 40
0.0
  9
$VIEWDIR
 10
0.0
 20
0.0
 30
1.0
  9
$LIMCHECK
 70
     0
  9
$BLIPMODE
 70
     1
  9
$CHAMFERA
 40
0.0
  9
$CHAMFERB
 40
0.0
  9
$FASTZOOM
 70
     1
  9
$SKPOLY
 70
     0
  9
$TDCREATE
 40
0000000.0000000000
  9
$TDUPDATE
 40
0000000.0000000000
  9
$TDINDWG
 40
0.0000000000
  9
$TDUSRTIMER
 40
0.0000000000
  9
$USRTIMER
 70
     1
  9
$ANGBASE
 50
0.0
  9
$ANGDIR
 70
     0
  9
$PDMODE
 70
     0
  9
$PDSIZE
 40
0.0
  9
$PLINEWID
 40
0.0
  9
$COORDS
 70
     0
  9
$USERI1
 70
     0
  9
$USERI2
 70
     0
  9
$USERI3
 70
     0
  9
$USERI4
 70
     0
  9
$USERI5
 70
     0
  9
$USERR1
 40
0.0
  9
$USERR2
 40
0.0
  9
$USERR3
 40
0.0
  9
$USERR4
 40
0.0
  9
$USERR5
 40
0.0
  9
$CLAYER
  8
M1
  9
$EXTMIN
 10
0.0
 20
0.0
  9
$EXTMAX
 10
841.0
 20
594.0
  9
$LIMMIN
 10
0.0
 20
0.0
  9
$LIMMAX
 10
841.0
 20
594.0
  9
$HANDSEED
  5
4B7
  0
ENDSEC
  0
SECTION
  2
CLASSES
  0
CLASS
  1
DIMASSOC
  2
AcDbDimAssoc
  3
"AcDbDimAssoc|Product Desc:     AcDim ARX App For Dimension|Company:          Autodesk, Inc.|WEB Address:      www.autodesk.com"
 90
        0
280
     0
281
     0
  0
ENDSEC
  0
SECTION
  2
TABLES
  0
TABLE
  2
VPORT
  5
8
100
AcDbSymbolTable
 70
     2
  0
VPORT
  5
14
100
AcDbSymbolTableRecord
100
AcDbViewportTableRecord
  2
*ACTIVE
 70
     0
 10
0.0
 20
0.0
 11
1.0
 21
1.0
 12
484.0
 22
297.0
 13
0.0
 23
0.0
 14
1.0
 24
1.0
 15
0.0
 25
0.0
 16
0.0
 26
0.0
 36
1.0
 17
0.0
 27
0.0
 37
0.0
 40
594.0
 41
2.0
 42
50.0
 43
0.0
 44
0.0
 50
0.0
 51
0.0
 71
     0
 72
   100
 73
     1
 74
     1
 75
     0
 76
     0
 77
     0
 78
     0
  0
ENDTAB
  0
TABLE
  2
LTYPE
  5
5
100
AcDbSymbolTable
 70
     5
  0
LTYPE
  5
15
100
AcDbSymbolTableRecord
100
AcDbLinetypeTableRecord
  2
BYBLOCK
 70
     0
  3

 72
    65
 73
     0
 40
0.0
  0
LTYPE
  5
16
100
AcDbSymbolTableRecord
100
AcDbLinetypeTableRecord
  2
BYLAYER
 70
     0
  3

 72
    65
 73
     0
 40
0.0
  0
LTYPE
  5
17
100
AcDbSymbolTableRecord
100
AcDbLinetypeTableRecord
  2
CONTINUOUS
 70
    64
  3
Solid line
 72
    65
 73
     0
 40
0.0
  0
LTYPE
  5
18
100
AcDbSymbolTableRecord
100
AcDbLinetypeTableRecord
  2
DASHED
 70
    64
  3
__ __ __ __ __ __ __ __ __ __ __ __ __ __ __ __
 72
    65
 73
     2
 40
0.75
 49
0.5
 74
     0
 49
-0.25
 74
     0
  0
LTYPE
  5
19
100
AcDbSymbolTableRecord
100
AcDbLinetypeTableRecord
  2
DASHDOT
 70
    64
  3
__ . __ . __ . __ . __ . __ . __ . __ . __ . __
 72
    65
 73
     4
 40
1.0
 49
0.5
 74
     0
 49
-0.25
 74
     0
 49
0.0
 74
     0
 49
-0.25
 74
     0
  0
LTYPE
  5
1A
100
AcDbSymbolTableRecord
100
AcDbLinetypeTableRecord
  2
DIVIDE
 70
    64
  3
____ . . ____ . . ____ . . ____ . . ____ . . __
 72
    65
 73
     6
 40
1.25
 49
0.5
 74
     0
 49
-0.25
 74
     0
 49
0.0
 74
     0
 49
-0.25
 74
     0
 49
0.0
 74
     0
 49
-0.25
 74
     0
  0
LTYPE
  5
1B
100
AcDbSymbolTableRecord
100
AcDbLinetypeTableRecord
  2
DOT
 70
    64
  3
. . . . . . . . . . . . . . . . . . . . . . . .
 72
    65
 73
     2
 40
0.25
 49
0.0
 74
     0
 49
-0.25
 74
     0
  0
ENDTAB
  0
TABLE
  2
LAYER
  5
2
100
AcDbSymbolTable
 70
   102
  0
LAYER
  5
F
100
AcDbSymbolTableRecord
100
AcDbLayerTableRecord
  2
0
 70
     0
 62
     7
  6
CONTINUOUS
370
     -3
390
F
  0
LAYER
  5
1C
100
AcDbSymbolTableRecord
100
AcDbLayerTableRecord
  2
M1
 70
     0
 62
     7
  6
CONTINUOUS
370
     -3
390
F
  0
LAYER
  5
1D
100
AcDbSymbolTableRecord
100
AcDbLayerTableRecord
  2
M2
 70
     0
 62
     3
  6
CONTINUOUS
370
     -3
390
F
  0
LAYER
  5
1E
100
AcDbSymbolTableRecord
100
AcDbLayerTableRecord
  2
M3
 70
     0
 62
     3
  6
CONTINUOUS
370
     -3
390
F
  0
LAYER
  5
1F
100
AcDbSymbolTableRecord
100
AcDbLayerTableRecord
  2
M4
 70
     0
 62
     3
  6
CONTINUOUS
370
     -3
390
F
  0
LAYER
  5
20
100
AcDbSymbolTableRecord
100
AcDbLayerTableRecord
  2
M5
 70
     0
 62
     3
  6
CONTINUOUS
370
     -3
390
F
  0
ENDTAB
  0
TABLE
  2
STYLE
  5
3
100
AcDbSymbolTable
 70
     2
  0
STYLE
  5
10
100
AcDbSymbolTableRecord
100
AcDbTextStyleTableRecord
  2
STANDARD
 70
     0
 40
0.0
 41
1.0
 50
0.0
 71
     0
 42
0.2
  3
txt
  4
BIGFONT
  0
ENDTAB
  0
TABLE
  2
VIEW
  5
6
100
AcDbSymbolTable
 70
     0
  0
ENDTAB
  0
TABLE
  2
UCS
  5
7
100
AcDbSymbolTable
 70
     0
  0
ENDTAB
  0
TABLE
  2
APPID
  5
9
100
AcDbSymbolTable
 70
     1
  0
APPID
  5
11
100
AcDbSymbolTableRecord
100
AcDbRegAppTableRecord
  2
ACAD
 70
     0
  0
ENDTAB
  0
TABLE
  2
DIMSTYLE
  5
A
100
AcDbSymbolTable
 70
     2
100
AcDbDimStyleTable
 71
     1
  0
DIMSTYLE
105
49
100
AcDbSymbolTableRecord
100
AcDbDimStyleTableRecord
  2
STANDARD
 70
     0
  3

  4

  5

  6
_OPEN
  7
_OPEN
 40
1.0
 41
3.0
 42
0.0
 43
8.0
 44
1.5
 45
0.0
 46
0.0
 47
0.0
 48
0.0
140
3.2
141
0.09
142
0.0
143
0.03937
144
1.0
145
0.0
146
1.0
147
1.0
148
0.000000
 71
     0
 72
     0
 73
     1
 74
     1
 75
     0
 76
     0
 77
     3
 78
     8
170
     0
171
     2
172
     0
173
     1
174
     0
175
     0
176
     0
177
     0
178
     0
270
     2
271
     2
272
     4
273
     2
274
     2
340
10
275
     0
278
    46
280
     0
281
     0
282
     0
283
     1
284
     0
285
     0
286
     0
287
     3
288
     0
371
   13
372
   13
  0
DIMSTYLE
105
4A
100
AcDbSymbolTableRecord
100
AcDbDimStyleTableRecord
  2
LEADSTYL
 70
     0
  3

  4

  5

  6
_OPEN
  7
_OPEN
 40
1.0
 41
3.0
 42
0.0625
 43
0.38
 44
0.18
 45
0.0
 46
0.0
 47
0.0
 48
0.0
140
3.2
141
0.09
142
0.0
143
25.4
144
1.0
145
0.0
146
1.0
147
1.0
 71
     0
 72
     0
 73
     1
 74
     1
 75
     0
 76
     0
 77
     0
 78
     0
170
     0
171
     2
172
     0
173
     1
174
     0
175
     0
176
     0
177
     0
178
     0
270
     2
271
     4
272
     4
273
     2
274
     2
340
10
275
     0
280
     0
281
     0
282
     0
283
     1
284
     0
285
     0
286
     0
287
     3
288
     0
  0
ENDTAB
  0
TABLE
  2
BLOCK_RECORD
  5
1
100
AcDbSymbolTable
 70
     6
  0
BLOCK_RECORD
  5
21
100
AcDbSymbolTableRecord
100
AcDbBlockTableRecord
  2
*MODEL_SPACE
  0
BLOCK_RECORD
  5
24
100
AcDbSymbolTableRecord
100
AcDbBlockTableRecord
  2
*PAPER_SPACE
  0
BLOCK_RECORD
  5
27
100
AcDbSymbolTableRecord
100
AcDbBlockTableRecord
  2
_NONE
  0
BLOCK_RECORD
  5
2B
100
AcDbSymbolTableRecord
100
AcDbBlockTableRecord
  2
_OPEN
  0
BLOCK_RECORD
  5
31
100
AcDbSymbolTableRecord
100
AcDbBlockTableRecord
  2
_CLOSED
  0
BLOCK_RECORD
  5
38
100
AcDbSymbolTableRecord
100
AcDbBlockTableRecord
  2
_ORIGIN
  0
BLOCK_RECORD
  5
3D
100
AcDbSymbolTableRecord
100
AcDbBlockTableRecord
  2
_DOT
  0
BLOCK_RECORD
  5
45
100
AcDbSymbolTableRecord
100
AcDbBlockTableRecord
  2
_OBLIQUE
  0
ENDTAB
  0
ENDSEC
  0
SECTION
  2
BLOCKS
  0
BLOCK
  5
22
100
AcDbEntity
  8
0
100
AcDbBlockBegin
  2
*MODEL_SPACE
 70
     0
 10
0.0
 20
0.0
 30
0.0
  3
*MODEL_SPACE
  1

  0
ENDBLK
  5
23
100
AcDbEntity
  8
0
100
AcDbBlockEnd
  0
BLOCK
  5
25
100
AcDbEntity
 67
     1
  8
0
100
AcDbBlockBegin
  2
*PAPER_SPACE
 70
     0
 10
0.0
 20
0.0
 30
0.0
  3
*PAPER_SPACE
  1

  0
ENDBLK
  5
26
100
AcDbEntity
 67
     1
  8
0
100
AcDbBlockEnd
  0
BLOCK
  5
28
100
AcDbEntity
  8
0
100
AcDbBlockBegin
  2
_NONE
 70
     0
 10
0.0
 20
0.0
  0
CIRCLE
  5
29
100
AcDbEntity
  8
0
 62
     0
370
13
100
AcDbCircle
 10
0.0
 20
0.0
 40
0.25
  0
ENDBLK
  5
2A
100
AcDbEntity
  8
0
100
AcDbBlockEnd
  0
BLOCK
  5
2C
100
AcDbEntity
  8
0
100
AcDbBlockBegin
  2
_OPEN
 70
     0
 10
0.0
 20
0.0
  0
LINE
  5
2D
100
AcDbEntity
  8
0
 62
     0
370
13
100
AcDbLine
 10
-0.965926
 20
0.258819
 11
0.0
 21
0.0
  0
LINE
  5
2E
100
AcDbEntity
  8
0
 62
     0
370
13
100
AcDbLine
 10
0.0
 20
0.0
 11
-0.965926
 21
-0.258819
  0
LINE
  5
2F
100
AcDbEntity
  8
0
 62
     0
370
13
100
AcDbLine
 10
0.0
 20
0.0
 11
-1.0
 21
0.0
  0
ENDBLK
  5
30
100
AcDbEntity
  8
0
100
AcDbBlockEnd
  0
BLOCK
  5
32
100
AcDbEntity
  8
0
100
AcDbBlockBegin
  2
_CLOSED
 70
     0
 10
0.0
 20
0.0
  0
LINE
  5
33
100
AcDbEntity
  8
0
 62
     0
370
13
100
AcDbLine
 10
-0.965926
 20
0.258819
 11
0.0
 21
0.0
  0
LINE
  5
34
100
AcDbEntity
  8
0
 62
     0
370
13
100
AcDbLine
 10
0.0
 20
0.0
 11
-0.965926
 21
-0.258819
  0
LINE
  5
35
100
AcDbEntity
  8
0
 62
     0
370
13
100
AcDbLine
 10
-0.965926
 20
0.258819
 11
-0.965926
 21
-0.258819
  0
LINE
  5
36
100
AcDbEntity
  8
0
 62
     0
370
13
100
AcDbLine
 10
0.0
 20
0.0
 11
-1.0
 21
0.0
  0
ENDBLK
  5
37
100
AcDbEntity
  8
0
100
AcDbBlockEnd
  0
BLOCK
  5
39
100
AcDbEntity
  8
0
100
AcDbBlockBegin
  2
_ORIGIN
 70
     0
 10
0.0
 20
0.0
  0
CIRCLE
  5
3A
100
AcDbEntity
  8
0
 62
     0
370
13
100
AcDbCircle
 10
0.0
 20
0.0
 40
0.5
  0
LINE
  5
3B
100
AcDbEntity
  8
0
 62
     0
370
13
100
AcDbLine
 10
0.0
 20
0.0
 11
-1.0
 21
0.0
  0
ENDBLK
  5
3C
100
AcDbEntity
  8
0
100
AcDbBlockEnd
  0
BLOCK
  5
3E
100
AcDbEntity
  8
0
100
AcDbBlockBegin
  2
_DOT
 70
     0
 10
0.0
 20
0.0
  0
POLYLINE
  5
3F
100
AcDbEntity
  8
0
 62
     0
100
AcDb2dPolyline
 66
     1
 70
     1
 40
0.5
 41
0.5
  0
VERTEX
  5
40
100
AcDbEntity
  8
0
 62
     0
100
AcDbVertex
100
AcDb2dVertex
 10
-0.25
 20
0.0
 42
1.0
  0
VERTEX
  5
41
100
AcDbEntity
  8
0
 62
     0
100
AcDbVertex
100
AcDb2dVertex
 10
0.25
 20
0.0
 42
1.0
  0
SEQEND
  5
42
100
AcDbEntity
  8
0
 62
     0
  0
LINE
  5
43
100
AcDbEntity
  8
0
 62
     0
370
13
100
AcDbLine
 10
-0.5
 20
0.0
 11
-1.0
 21
0.0
  0
ENDBLK
  5
44
100
AcDbEntity
  8
0
100
AcDbBlockEnd
  0
BLOCK
  5
46
100
AcDbEntity
  8
0
100
AcDbBlockBegin
  2
_OBLIQUE
 70
     0
 10
0.0
 20
0.0
  0
LINE
  5
47
100
AcDbEntity
  8
0
 62
     0
370
13
100
AcDbLine
 10
-0.353553
 20
-0.353553
 11
0.353553
 21
0.353553
  0
ENDBLK
  5
48
100
AcDbEntity
  8
0
100
AcDbBlockEnd
  0
ENDSEC
  0
SECTION
  2
ENTITIES
  0
LINE
  5
4B
100
AcDbEntity
  8
M1
  6
DASHDOT
370
13
 62
     3
100
AcDbLine
 10
143.665735
 20
391.290597
 11
143.665735
 21
382.790597
  0
LINE
  5
4C
100
AcDbEntity
  8
M1
  6
CONTINUOUS
370
25
 62
   154
100
AcDbLine
 10
337.077291
 20
423.9406
 11
337.077291
 21
414.2906
  0
ARC
  5
4D
100
AcDbEntity
  8
M1
  6
DIVIDE
370
13
 62
     3
100
AcDbCircle
 10
314.577291
 20
407.290597
 40
58.69523
100
AcDbArc
 50
162.460206
 51
180.0
  0
LINE
  5
4E
100
AcDbEntity
  8
M1
  6
DASHDOT
370
13
 62
     3
100
AcDbLine
 10
139.415735
 20
387.040597
 11
147.915735
 21
387.040597
  0
LINE
  5
4F
100
AcDbEntity
  8
M1
  6
DASHDOT
370
13
 62
     3
100
AcDbLine
 10
314.577291
 20
402.290597
 11
314.577291
 21
412.290597
  0
LINE
  5
50
100
AcDbEntity
  8
M1
  6
DASHDOT
370
13
 62
     3
100
AcDbLine
 10
255.882063
 20
407.290597
 11
341.077291
 21
407.290597
  0
LINE
  5
51
100
AcDbEntity
  8
M1
  6
DASHED
370
13
 62
     3
100
AcDbLine
 10
319.377291
 20
357.290602
 11
319.377291
 21
342.290602
  0
LINE
  5
52
100
AcDbEntity
  8
M1
  6
DASHED
370
13
 62
     3
100
AcDbLine
 10
317.077291
 20
342.290602
 11
317.077291
 21
357.290602
  0
LINE
  5
53
100
AcDbEntity
  8
M1
  6
CONTINUOUS
370
25
 62
   154
100
AcDbLine
 10
337.077291
 20
414.2906
 11
304.577291
 21
414.2906
  0
LINE
  5
54
100
AcDbEntity
  8
M1
  6
DASHDOT
370
13
 62
     3
100
AcDbLine
 10
125.415735
 20
477.290597
 11
125.415735
 21
337.290602
  0
LINE
  5
55
100
AcDbEntity
  8
M1
  6
DASHDOT
370
13
 62
     3
100
AcDbLine
 10
94.415734
 20
407.290597
 11
156.415737
 21
407.290597
  0
LINE
  5
56
100
AcDbEntity
  8
M1
  6
CONTINUOUS
370
25
 62
     3
100
AcDbLine
 10
270.077293
 20
243.183077
 11
270.077293
 21
197.183077
  0
LINE
  5
57
100
AcDbEntity
  8
M1
  6
CONTINUOUS
370
25
 62
     3
100
AcDbLine
 10
321.077293
 20
243.183077
 11
321.077293
 21
197.183077
  0
LINE
  5
58
100
AcDbEntity
  8
M1
  6
CONTINUOUS
370
25
 62
     3
100
AcDbLine
 10
318.077293
 20
194.183077
 11
273.077293
 21
194.183077
  0
LINE
  5
59
100
AcDbEntity
  8
M1
  6
CONTINUOUS
370
25
 62
     3
100
AcDbLine
 10
318.077293
 20
246.183077
 11
273.077293
 21
246.183077
  0
LINE
  5
5A
100
AcDbEntity
  8
M1
  6
DIVIDE
370
13
 62
     3
100
AcDbLine
 10
271.077293
 20
285.183077
 11
323.077293
 21
285.183077
  0
ARC
  5
5B
100
AcDbEntity
  8
M1
  6
CONTINUOUS
370
25
 62
     3
100
AcDbCircle
 10
318.077293
 20
243.183077
 40
3.0
100
AcDbArc
 50
0.0
 51
90.0
  0
ARC
  5
5C
100
AcDbEntity
  8
M1
  6
CONTINUOUS
370
25
 62
     3
100
AcDbCircle
 10
318.077293
 20
197.183077
 40
3.0
100
AcDbArc
 50
270.0
 51
360.0
  0
CIRCLE
  5
5D
100
AcDbEntity
  8
M1
  6
CONTINUOUS
370
25
 62
     3
100
AcDbCircle
 10
128.944741
 20
275.183077
 40
2.0
  0
ARC
  5
5E
100
AcDbEntity
  8
M1
  6
CONTINUOUS
370
25
 62
     3
100
AcDbCircle
 10
273.077293
 20
243.183077
 40
3.0
100
AcDbArc
 50
90.0
 51
180.0
  0
CIRCLE
  5
5F
100
AcDbEntity
  8
M1
  6
CONTINUOUS
370
25
 62
     3
100
AcDbCircle
 10
128.944741
 20
165.183077
 40
2.0
  0
ARC
  5
60
100
AcDbEntity
  8
M1
  6
CONTINUOUS
370
25
 62
     3
100
AcDbCircle
 10
273.077293
 20
197.183077
 40
3.0
100
AcDbArc
 50
180.0
 51
270.0
  0
LINE
  5
61
100
AcDbEntity
  8
M1
  6
DASHDOT
370
13
 62
     3
100
AcDbLine
 10
97.944741
 20
220.183077
 11
159.944741
 21
220.183077
  0
LINE
  5
62
100
AcDbEntity
  8
M1
  6
DASHDOT
370
13
 62
     3
100
AcDbLine
 10
121.944741
 20
275.183077
 11
135.944741
 21
275.183077
  0
LINE
  5
63
100
AcDbEntity
  8
M1
  6
DASHDOT
370
13
 62
     3
100
AcDbLine
 10
121.944741
 20
165.183077
 11
135.944741
 21
165.183077
  0
LINE
  5
64
100
AcDbEntity
  8
M1
  6
DIVIDE
370
13
 62
     3
100
AcDbLine
 10
102.944741
 20
285.183077
 11
154.944741
 21
285.183077
  0
LINE
  5
65
100
AcDbEntity
  8
M1
  6
DIVIDE
370
13
 62
     3
100
AcDbLine
 10
102.944741
 20
285.183077
 11
102.944741
 21
155.183077
  0
LINE
  5
66
100
AcDbEntity
  8
M1
  6
DIVIDE
370
13
 62
     3
100
AcDbLine
 10
154.944741
 20
155.183077
 11
102.944741
 21
155.183077
  0
LINE
  5
67
100
AcDbEntity
  8
M1
  6
DIVIDE
370
13
 62
     3
100
AcDbLine
 10
323.077293
 20
285.183077
 11
323.077293
 21
155.183077
  0
LINE
  5
68
100
AcDbEntity
  8
M1
  6
DIVIDE
370
13
 62
     3
100
AcDbLine
 10
271.077293
 20
285.183077
 11
271.077293
 21
155.183077
  0
LINE
  5
69
100
AcDbEntity
  8
M1
  6
DIVIDE
370
13
 62
     3
100
AcDbLine
 10
323.077293
 20
155.183077
 11
271.077293
 21
155.183077
  0
LINE
  5
6A
100
AcDbEntity
  8
M1
  6
DASHDOT
370
13
 62
     3
100
AcDbLine
 10
266.077293
 20
220.183077
 11
328.077293
 21
220.183077
  0
LINE
  5
6B
100
AcDbEntity
  8
M1
  6
DIVIDE
370
13
 62
     3
100
AcDbLine
 10
154.944741
 20
285.183077
 11
154.944741
 21
155.183077
  0
LINE
  5
6C
100
AcDbEntity
  8
M1
  6
DASHDOT
370
13
 62
     3
100
AcDbLine
 10
128.944741
 20
290.183077
 11
128.944741
 21
150.183077
  0
LINE
  5
6D
100
AcDbEntity
  8
M1
  6
DASHDOT
370
13
 62
     3
100
AcDbLine
 10
297.077293
 20
290.183077
 11
297.077293
 21
150.183077
  0
LINE
  5
6E
100
AcDbEntity
  8
M1
  6
DASHED
370
13
 62
     3
100
AcDbLine
 10
298.577291
 20
465.290597
 11
340.577291
 21
465.290597
  0
LINE
  5
6F
100
AcDbEntity
  8
M1
  6
DASHED
370
13
 62
     3
100
AcDbLine
 10
340.577291
 20
459.790597
 11
298.577291
 21
459.790597
  0
LINE
  5
70
100
AcDbEntity
  8
M1
  6
DASHED
370
13
 62
     3
100
AcDbLine
 10
298.577291
 20
466.790597
 11
298.577291
 21
458.290597
  0
LINE
  5
71
100
AcDbEntity
  8
M1
  6
DASHED
370
13
 62
     3
100
AcDbLine
 10
284.577293
 20
466.790597
 11
298.577291
 21
466.790597
  0
LINE
  5
72
100
AcDbEntity
  8
M1
  6
DASHED
370
13
 62
     3
100
AcDbLine
 10
284.577293
 20
458.290597
 11
298.577291
 21
458.290597
  0
LINE
  5
73
100
AcDbEntity
  8
M1
  6
CONTINUOUS
370
25
100
AcDbLine
 10
258.610928
 20
424.97947
 11
257.945006
 21
421.517147
  0
ARC
  5
74
100
AcDbEntity
  8
M1
  6
CONTINUOUS
370
25
100
AcDbCircle
 10
258.927008
 20
421.328275
 40
1.0
100
AcDbArc
 50
169.113015
 51
257.616705
  0
ARC
  5
75
100
AcDbEntity
  8
M1
  6
CONTINUOUS
370
25
100
AcDbCircle
 10
259.592931
 20
424.790597
 40
1.0
100
AcDbArc
 50
79.113015
 51
169.113015
  0
ARC
  5
76
100
AcDbEntity
  8
M1
  6
CONTINUOUS
370
25
100
AcDbCircle
 10
273.416906
 20
438.425027
 40
15.0
100
AcDbArc
 50
259.113015
 51
268.702659
  0
LINE
  5
77
100
AcDbEntity
  8
M1
  6
CONTINUOUS
370
25
100
AcDbLine
 10
270.583821
 20
423.695002
 11
259.781803
 21
425.7726
  0
LINE
  5
78
100
AcDbEntity
  8
M1
  6
CONTINUOUS
370
25
100
AcDbLine
 10
258.712556
 20
420.35154
 11
273.077293
 21
417.19764
  0
LINE
  5
79
100
AcDbEntity
  8
M1
  6
CONTINUOUS
370
25
 62
   154
100
AcDbLine
 10
340.577291
 20
342.790602
 11
340.577291
 21
342.590602
  0
LINE
  5
7A
100
AcDbEntity
  8
M1
  6
CONTINUOUS
370
25
 62
   154
100
AcDbLine
 10
340.577291
 20
389.190602
 11
340.577291
 21
388.990605
  0
ARC
  5
7B
100
AcDbEntity
  8
M1
  6
CONTINUOUS
370
25
 62
   154
100
AcDbCircle
 10
337.077291
 20
424.240602
 40
0.3
100
AcDbArc
 50
270.0
 51
360.0
  0
ARC
  5
7C
100
AcDbEntity
  8
M1
  6
CONTINUOUS
370
25
 62
   154
100
AcDbCircle
 10
340.277291
 20
466.490602
 40
0.3
100
AcDbArc
 50
0.0
 51
90.0
  0
ARC
  5
7D
100
AcDbEntity
  8
M1
  6
CONTINUOUS
370
25
 62
   154
100
AcDbCircle
 10
340.277291
 20
389.190602
 40
0.3
100
AcDbArc
 50
0.0
 51
90.0
  0
ARC
  5
7E
100
AcDbEntity
  8
M1
  6
CONTINUOUS
370
25
 62
   154
100
AcDbCircle
 10
322.577291
 20
394.290602
 40
5.0
100
AcDbArc
 50
6.513776E-012
 51
90.0
  0
ARC
  5
7F
100
AcDbEntity
  8
M1
  6
CONTINUOUS
370
25
 62
   154
100
AcDbCircle
 10
340.277291
 20
471.990602
 40
0.3
100
AcDbArc
 50
1.085629E-011
 51
90.0
  0
ARC
  5
80
100
AcDbEntity
  8
M1
  6
CONTINUOUS
370
25
 62
   154
100
AcDbCircle
 10
322.577291
 20
352.790602
 40
5.0
100
AcDbArc
 50
270.0
 51
360.0
  0
ARC
  5
81
100
AcDbEntity
  8
M1
  6
CONTINUOUS
370
25
 62
   154
100
AcDbCircle
 10
340.277291
 20
342.590602
 40
0.3
100
AcDbArc
 50
270.0
 51
360.0
  0
ARC
  5
82
100
AcDbEntity
  8
M1
  6
CONTINUOUS
370
25
 62
   154
100
AcDbCircle
 10
340.277291
 20
425.390602
 40
0.3
100
AcDbArc
 50
270.0
 51
360.0
  0
LINE
  5
83
100
AcDbEntity
  8
M1
  6
CONTINUOUS
370
25
 62
   154
100
AcDbLine
 10
341.077291
 20
466.540605
 11
341.077291
 21
466.490605
  0
LINE
  5
84
100
AcDbEntity
  8
M1
  6
CONTINUOUS
370
25
 62
   154
100
AcDbLine
 10
340.577291
 20
342.590602
 11
341.077291
 21
342.590602
  0
LINE
  5
85
100
AcDbEntity
  8
M1
  6
CONTINUOUS
370
25
 62
   154
100
AcDbLine
 10
341.077291
 20
466.540605
 11
340.577291
 21
466.540605
  0
LINE
  5
86
100
AcDbEntity
  8
M1
  6
CONTINUOUS
370
25
 62
   154
100
AcDbLine
 10
304.577291
 20
466.790602
 11
340.277291
 21
466.790602
  0
LINE
  5
87
100
AcDbEntity
  8
M1
  6
CONTINUOUS
370
25
 62
   154
100
AcDbLine
 10
337.377291
 20
425.132342
 11
337.377291
 21
389.490605
  0
LINE
  5
88
100
AcDbEntity
  8
M1
  6
CONTINUOUS
370
25
 62
   154
100
AcDbLine
 10
304.577291
 20
342.290602
 11
304.577291
 21
364.590602
  0
LINE
  5
89
100
AcDbEntity
  8
M1
  6
CONTINUOUS
370
25
 62
   154
100
AcDbLine
 10
340.277291
 20
425.090605
 11
337.377291
 21
425.090605
  0
LINE
  5
8A
100
AcDbEntity
  8
M1
  6
CONTINUOUS
370
25
 62
   154
100
AcDbLine
 10
341.077291
 20
466.490605
 11
340.577291
 21
466.490605
  0
LINE
  5
8B
100
AcDbEntity
  8
M1
  6
CONTINUOUS
370
25
 62
   154
100
AcDbLine
 10
340.577291
 20
459.390602
 11
341.077291
 21
459.390602
  0
LINE
  5
8C
100
AcDbEntity
  8
M1
  6
CONTINUOUS
370
25
 62
   154
100
AcDbLine
 10
298.377291
 20
366.590602
 11
298.377291
 21
395.090602
  0
ARC
  5
8D
100
AcDbEntity
  8
M1
  6
CONTINUOUS
370
25
 62
   154
100
AcDbCircle
 10
337.077291
 20
420.340602
 40
0.3
100
AcDbArc
 50
4.342517E-011
 51
90.0
  0
LINE
  5
8E
100
AcDbEntity
  8
M1
  6
CONTINUOUS
370
25
 62
   154
100
AcDbLine
 10
304.577291
 20
399.290602
 11
322.577291
 21
399.290602
  0
LINE
  5
8F
100
AcDbEntity
  8
M1
  6
CONTINUOUS
370
25
 62
   154
100
AcDbLine
 10
322.577291
 20
347.790602
 11
304.577291
 21
347.790602
  0
LINE
  5
90
100
AcDbEntity
  8
M1
  6
CONTINUOUS
370
25
 62
   154
100
AcDbLine
 10
327.577291
 20
394.290605
 11
327.577291
 21
352.790602
  0
LINE
  5
91
100
AcDbEntity
  8
M1
  6
CONTINUOUS
370
25
 62
   154
100
AcDbLine
 10
304.577291
 20
364.590605
 11
298.377293
 21
366.590602
  0
LINE
  5
92
100
AcDbEntity
  8
M1
  6
CONTINUOUS
370
25
 62
   154
100
AcDbLine
 10
340.277291
 20
342.290602
 11
304.577291
 21
342.290602
  0
LINE
  5
93
100
AcDbEntity
  8
M1
  6
CONTINUOUS
370
25
 62
   154
100
AcDbLine
 10
341.077291
 20
466.490605
 11
341.077291
 21
458.540605
  0
LINE
  5
94
100
AcDbEntity
  8
M1
  6
CONTINUOUS
370
25
 62
   154
100
AcDbLine
 10
306.577288
 20
414.2906
 11
306.577288
 21
399.290602
  0
LINE
  5
95
100
AcDbEntity
  8
M1
  6
CONTINUOUS
370
25
 62
   154
100
AcDbLine
 10
341.077291
 20
356.040602
 11
341.077291
 21
342.590602
  0
LINE
  5
96
100
AcDbEntity
  8
M1
  6
CONTINUOUS
370
25
 62
   154
100
AcDbLine
 10
340.577291
 20
388.990605
 11
340.577291
 21
342.590602
  0
LINE
  5
97
100
AcDbEntity
  8
M1
  6
CONTINUOUS
370
25
 62
   154
100
AcDbLine
 10
337.377291
 20
389.490605
 11
340.277291
 21
389.490605
  0
LINE
  5
98
100
AcDbEntity
  8
M1
  6
CONTINUOUS
370
25
 62
   154
100
AcDbLine
 10
337.677291
 20
419.5906
 11
337.377291
 21
419.090607
  0
LINE
  5
99
100
AcDbEntity
  8
M1
  6
CONTINUOUS
370
25
 62
   154
100
AcDbLine
 10
304.577291
 20
472.290597
 11
340.277291
 21
472.290597
  0
LINE
  5
9A
100
AcDbEntity
  8
M1
  6
CONTINUOUS
370
25
 62
   154
100
AcDbLine
 10
304.577291
 20
397.090602
 11
304.577291
 21
472.290597
  0
LINE
  5
9B
100
AcDbEntity
  8
M1
  6
CONTINUOUS
370
25
 62
   154
100
AcDbLine
 10
337.377291
 20
422.590607
 11
337.677291
 21
421.590605
  0
LINE
  5
9C
100
AcDbEntity
  8
M1
  6
CONTINUOUS
370
25
 62
   154
100
AcDbLine
 10
340.577291
 20
458.540605
 11
341.077291
 21
458.540605
  0
LINE
  5
9D
100
AcDbEntity
  8
M1
  6
CONTINUOUS
370
25
 62
   154
100
AcDbLine
 10
337.677291
 20
421.590605
 11
337.677291
 21
419.5906
  0
LINE
  5
9E
100
AcDbEntity
  8
M1
  6
CONTINUOUS
370
25
 62
   154
100
AcDbLine
 10
341.077291
 20
356.040602
 11
340.577291
 21
356.040602
  0
LINE
  5
9F
100
AcDbEntity
  8
M1
  6
CONTINUOUS
370
25
 62
   154
100
AcDbLine
 10
341.077291
 20
351.990602
 11
340.577291
 21
351.990602
  0
LINE
  5
A0
100
AcDbEntity
  8
M1
  6
CONTINUOUS
370
25
 62
   154
100
AcDbLine
 10
304.577291
 20
397.090602
 11
298.377291
 21
395.090602
  0
LINE
  5
A1
100
AcDbEntity
  8
M1
  6
CONTINUOUS
370
25
 62
   154
100
AcDbLine
 10
340.577291
 20
471.990607
 11
340.577291
 21
425.390602
  0
LINE
  5
A2
100
AcDbEntity
  8
M1
  6
CONTINUOUS
370
25
 62
   154
100
AcDbLine
 10
304.577291
 20
467.590597
 11
285.577293
 21
467.590597
  0
ARC
  5
A3
100
AcDbEntity
  8
M1
  6
CONTINUOUS
370
25
 62
   154
100
AcDbCircle
 10
285.577293
 20
365.290597
 40
1.0
100
AcDbArc
 50
180.0
 51
270.0
  0
LINE
  5
A4
100
AcDbEntity
  8
M1
  6
CONTINUOUS
370
25
 62
   154
100
AcDbLine
 10
292.577293
 20
357.790597
 11
285.577293
 21
357.790597
  0
ARC
  5
A5
100
AcDbEntity
  8
M1
  6
CONTINUOUS
370
25
 62
   154
100
AcDbCircle
 10
298.077293
 20
415.2906
 40
1.0
100
AcDbArc
 50
180.0
 51
270.0
  0
SPLINE
  5
A6
100
AcDbEntity
  8
M1
  6
CONTINUOUS
370
25
 62
   154
100
AcDbSpline
210
0.0
220
0.0
230
-1.0
 70
     8
 71
     3
 72
    29
 73
    25
 43
0.0000001
 40
0.0
 40
0.0
 40
0.0
 40
0.0
 40
1.0
 40
1.0
 40
1.0
 40
2.0
 40
2.0
 40
2.0
 40
3.0
 40
3.0
 40
3.0
 40
4.0
 40
4.0
 40
4.0
 40
5.0
 40
5.0
 40
5.0
 40
6.0
 40
6.0
 40
6.0
 40
7.0
 40
7.0
 40
7.0
 40
8.0
 40
8.0
 40
8.0
 40
8.0
 10
285.560973
 20
471.231905
 10
285.574858
 20
471.22821
 10
285.588748
 20
471.22452
 10
285.603186
 20
471.221012
 10
285.617623
 20
471.217505
 10
285.632618
 20
471.214187
 10
285.647918
 20
471.211067
 10
285.66322
 20
471.207945
 10
285.67884
 20
471.20503
 10
285.694766
 20
471.202372
 10
285.710693
 20
471.199715
 10
285.726933
 20
471.197325
 10
285.743323
 20
471.195235
 10
285.759713
 20
471.193145
 10
285.776261
 20
471.191367
 10
285.792871
 20
471.18987
 10
285.80948
 20
471.188372
 10
285.826158
 20
471.187165
 10
285.842903
 20
471.186197
 10
285.859648
 20
471.185232
 10
285.876466
 20
471.184515
 10
285.893348
 20
471.184092
 10
285.910228
 20
471.183667
 10
285.927178
 20
471.183545
 10
285.944126
 20
471.18342
  0
ARC
  5
A7
100
AcDbEntity
  8
M1
  6
CONTINUOUS
370
25
 62
   154
100
AcDbCircle
 10
285.577293
 20
417.790597
 40
1.0
100
AcDbArc
 50
180.0
 51
270.0
  0
ARC
  5
A8
100
AcDbEntity
  8
M1
  6
CONTINUOUS
370
25
 62
   154
100
AcDbCircle
 10
285.577293
 20
466.590597
 40
1.0
100
AcDbArc
 50
90.0
 51
180.0
  0
ARC
  5
A9
100
AcDbEntity
  8
M1
  6
CONTINUOUS
370
25
 62
   154
100
AcDbCircle
 10
285.577293
 20
470.790597
 40
0.5
100
AcDbArc
 50
131.280533
 51
142.996957
  0
SPLINE
  5
AA
100
AcDbEntity
  8
M1
  6
CONTINUOUS
370
25
 62
   154
100
AcDbSpline
210
0.0
220
0.0
230
-1.0
 70
     8
 71
     3
 72
     8
 73
     4
 43
0.0000001
 40
0.0
 40
0.0
 40
0.0
 40
0.0
 40
1.0
 40
1.0
 40
1.0
 40
1.0
 10
285.123221
 20
469.767595
 10
285.165748
 20
469.75516
 10
285.209171
 20
469.748977
 10
285.253478
 20
469.748977
  0
SPLINE
  5
AB
100
AcDbEntity
  8
M1
  6
CONTINUOUS
370
25
 62
   154
100
AcDbSpline
210
0.0
220
0.0
230
-1.0
 70
     8
 71
     3
 72
   125
 73
   121
 43
0.0000001
 40
0.0
 40
0.0
 40
0.0
 40
0.0
 40
1.0
 40
1.0
 40
1.0
 40
2.0
 40
2.0
 40
2.0
 40
3.0
 40
3.0
 40
3.0
 40
4.0
 40
4.0
 40
4.0
 40
5.0
 40
5.0
 40
5.0
 40
6.0
 40
6.0
 40
6.0
 40
7.0
 40
7.0
 40
7.0
 40
8.0
 40
8.0
 40
8.0
 40
9.0
 40
9.0
 40
9.0
 40
10.0
 40
10.0
 40
10.0
 40
11.0
 40
11.0
 40
11.0
 40
12.0
 40
12.0
 40
12.0
 40
13.0
 40
13.0
 40
13.0
 40
14.0
 40
14.0
 40
14.0
 40
15.0
 40
15.0
 40
15.0
 40
16.0
 40
16.0
 40
16.0
 40
17.0
 40
17.0
 40
17.0
 40
18.0
 40
18.0
 40
18.0
 40
19.0
 40
19.0
 40
19.0
 40
20.0
 40
20.0
 40
20.0
 40
21.0
 40
21.0
 40
21.0
 40
22.0
 40
22.0
 40
22.0
 40
23.0
 40
23.0
 40
23.0
 40
24.0
 40
24.0
 40
24.0
 40
25.0
 40
25.0
 40
25.0
 40
26.0
 40
26.0
 40
26.0
 40
27.0
 40
27.0
 40
27.0
 40
28.0
 40
28.0
 40
28.0
 40
29.0
 40
29.0
 40
29.0
 40
30.0
 40
30.0
 40
30.0
 40
31.0
 40
31.0
 40
31.0
 40
32.0
 40
32.0
 40
32.0
 40
33.0
 40
33.0
 40
33.0
 40
34.0
 40
34.0
 40
34.0
 40
35.0
 40
35.0
 40
35.0
 40
36.0
 40
36.0
 40
36.0
 40
37.0
 40
37.0
 40
37.0
 40
38.0
 40
38.0
 40
38.0
 40
39.0
 40
39.0
 40
39.0
 40
40.0
 40
40.0
 40
40.0
 40
40.0
 10
284.781628
 20
344.202377
 10
284.781503
 20
344.202692
 10
284.781381
 20
344.20301
 10
284.781258
 20
344.203317
 10
284.781138
 20
344.203627
 10
284.78102
 20
344.20393
 10
284.780901
 20
344.204232
 10
284.780783
 20
344.204537
 10
284.780663
 20
344.20484
 10
284.780565
 20
344.205095
 10
284.780466
 20
344.20535
 10
284.780386
 20
344.205555
 10
284.780258
 20
344.20588
 10
284.780081
 20
344.206332
 10
284.779813
 20
344.20702
 10
284.779613
 20
344.20753
 10
284.779415
 20
344.208042
 10
284.779286
 20
344.208377
 10
284.779165
 20
344.208685
 10
284.779046
 20
344.208992
 10
284.778938
 20
344.209272
 10
284.778811
 20
344.20961
 10
284.778681
 20
344.209945
 10
284.778531
 20
344.210337
 10
284.778443
 20
344.210572
 10
284.778416
 20
344.210647
 10
284.778393
 20
344.210705
 10
284.778366
 20
344.210775
 10
284.778341
 20
344.210845
 10
284.778308
 20
344.210925
 10
284.778276
 20
344.21101
 10
284.778243
 20
344.211095
 10
284.778211
 20
344.211182
 10
284.778163
 20
344.211302
 10
284.778118
 20
344.211422
 10
284.77806
 20
344.211575
 10
284.778021
 20
344.211675
 10
284.777991
 20
344.211755
 10
284.777971
 20
344.211802
 10
284.777948
 20
344.211865
 10
284.777923
 20
344.21193
 10
284.777893
 20
344.212005
 10
284.777863
 20
344.212085
 10
284.777833
 20
344.212162
 10
284.777801
 20
344.212245
 10
284.777766
 20
344.21234
 10
284.777728
 20
344.212437
 10
284.777686
 20
344.21255
 10
284.777648
 20
344.212645
 10
284.777613
 20
344.21274
 10
284.777583
 20
344.212817
 10
284.777548
 20
344.212907
 10
284.777516
 20
344.212995
 10
284.777478
 20
344.213092
 10
284.777438
 20
344.213197
 10
284.777398
 20
344.213302
 10
284.777356
 20
344.213415
 10
284.777316
 20
344.21352
 10
284.777275
 20
344.213622
 10
284.777238
 20
344.213722
 10
284.777185
 20
344.213867
 10
284.777128
 20
344.21402
 10
284.777048
 20
344.214225
 10
284.776973
 20
344.214425
 10
284.776898
 20
344.214625
 10
284.776825
 20
344.214822
 10
284.776748
 20
344.215027
 10
284.776671
 20
344.215235
 10
284.776588
 20
344.215452
 10
284.77651
 20
344.21566
 10
284.776433
 20
344.215867
 10
284.776358
 20
344.216065
 10
284.776268
 20
344.21631
 10
284.776003
 20
344.21702
 10
284.775593
 20
344.218127
 10
284.775225
 20
344.219135
 10
284.774856
 20
344.220142
 10
284.774528
 20
344.221055
 10
284.774183
 20
344.222017
 10
284.773841
 20
344.22298
 10
284.773481
 20
344.223995
 10
284.773151
 20
344.224935
 10
284.772821
 20
344.225875
 10
284.772516
 20
344.226745
 10
284.772131
 20
344.227872
 10
284.771233
 20
344.230502
 10
284.769886
 20
344.234547
 10
284.768718
 20
344.23819
 10
284.767548
 20
344.241832
 10
284.766555
 20
344.24508
 10
284.765543
 20
344.248532
 10
284.764528
 20
344.251985
 10
284.763493
 20
344.255645
 10
284.762588
 20
344.258917
 10
284.761683
 20
344.262187
 10
284.760908
 20
344.265085
 10
284.759836
 20
344.269357
 10
284.758526
 20
344.274582
 10
284.756776
 20
344.28187
 10
284.755298
 20
344.28864
 10
284.753818
 20
344.295407
 10
284.752611
 20
344.30167
 10
284.751513
 20
344.308115
 10
284.750413
 20
344.31456
 10
284.749428
 20
344.32119
 10
284.748626
 20
344.327732
 10
284.747823
 20
344.334275
 10
284.747208
 20
344.340737
 10
284.746781
 20
344.34744
 10
284.746353
 20
344.354142
 10
284.746118
 20
344.36109
 10
284.746048
 20
344.367975
 10
284.745978
 20
344.374862
 10
284.746076
 20
344.381692
 10
284.746278
 20
344.388542
 10
284.746481
 20
344.39539
 10
284.74679
 20
344.40226
 10
284.747151
 20
344.409127
 10
284.747513
 20
344.415995
 10
284.747931
 20
344.42286
 10
284.748345
 20
344.429725
  0
LINE
  5
AC
100
AcDbEntity
  8
M1
  6
CONTINUOUS
370
25
 62
   154
100
AcDbLine
 10
276.077291
 20
431.290597
 11
276.077291
 21
383.290597
  0
LINE
  5
AD
100
AcDbEntity
  8
M1
  6
CONTINUOUS
370
25
 62
   154
100
AcDbLine
 10
281.077293
 20
436.790597
 11
281.077293
 21
432.2906
  0
SPLINE
  5
AE
100
AcDbEntity
  8
M1
  6
CONTINUOUS
370
25
 62
   154
100
AcDbSpline
210
0.0
220
0.0
230
-1.0
 70
     8
 71
     3
 72
    65
 73
    61
 43
0.0000001
 40
0.0
 40
0.0
 40
0.0
 40
0.0
 40
1.0
 40
1.0
 40
1.0
 40
2.0
 40
2.0
 40
2.0
 40
3.0
 40
3.0
 40
3.0
 40
4.0
 40
4.0
 40
4.0
 40
5.0
 40
5.0
 40
5.0
 40
6.0
 40
6.0
 40
6.0
 40
7.0
 40
7.0
 40
7.0
 40
8.0
 40
8.0
 40
8.0
 40
9.0
 40
9.0
 40
9.0
 40
10.0
 40
10.0
 40
10.0
 40
11.0
 40
11.0
 40
11.0
 40
12.0
 40
12.0
 40
12.0
 40
13.0
 40
13.0
 40
13.0
 40
14.0
 40
14.0
 40
14.0
 40
15.0
 40
15.0
 40
15.0
 40
16.0
 40
16.0
 40
16.0
 40
17.0
 40
17.0
 40
17.0
 40
18.0
 40
18.0
 40
18.0
 40
19.0
 40
19.0
 40
19.0
 40
20.0
 40
20.0
 40
20.0
 40
20.0
 10
285.123221
 20
344.813592
 10
285.111513
 20
344.809407
 10
285.099806
 20
344.805225
 10
285.088168
 20
344.80096
 10
285.076531
 20
344.796695
 10
285.064958
 20
344.792352
 10
285.05353
 20
344.787852
 10
285.042101
 20
344.78335
 10
285.030811
 20
344.778695
 10
285.019723
 20
344.773797
 10
285.008638
 20
344.7689
 10
284.997751
 20
344.763767
 10
284.987163
 20
344.758325
 10
284.976576
 20
344.752882
 10
284.966281
 20
344.747137
 10
284.956293
 20
344.74112
 10
284.946306
 20
344.735102
 10
284.936618
 20
344.728817
 10
284.927243
 20
344.72227
 10
284.917868
 20
344.715722
 10
284.908798
 20
344.70892
 10
284.900183
 20
344.702012
 10
284.891568
 20
344.695105
 10
284.883401
 20
344.6881
 10
284.875276
 20
344.680585
 10
284.867153
 20
344.67307
 10
284.859063
 20
344.665052
 10
284.851483
 20
344.656982
 10
284.843906
 20
344.648912
 10
284.836828
 20
344.640795
 10
284.830046
 20
344.632455
 10
284.823263
 20
344.624112
 10
284.816765
 20
344.615552
 10
284.810738
 20
344.607115
 10
284.804713
 20
344.598677
 10
284.799148
 20
344.590367
 10
284.793338
 20
344.581075
 10
284.787531
 20
344.571782
 10
284.78147
 20
344.56151
 10
284.776131
 20
344.55122
 10
284.770791
 20
344.54093
 10
284.76616
 20
344.53062
 10
284.762243
 20
344.520442
 10
284.758326
 20
344.510265
 10
284.755113
 20
344.50022
 10
284.752903
 20
344.48856
 10
284.750691
 20
344.4769
 10
284.749478
 20
344.463622
 10
284.749323
 20
344.455385
 10
284.749278
 20
344.453022
 10
284.749321
 20
344.451072
 10
284.749381
 20
344.449002
 10
284.749441
 20
344.446935
 10
284.749521
 20
344.444747
 10
284.749623
 20
344.442585
 10
284.749725
 20
344.440422
 10
284.749853
 20
344.438285
 10
284.749988
 20
344.436137
 10
284.750123
 20
344.433992
 10
284.750268
 20
344.431835
 10
284.750416
 20
344.42968
  0
LINE
  5
AF
100
AcDbEntity
  8
M1
  6
CONTINUOUS
370
25
 62
   154
100
AcDbLine
 10
281.077293
 20
432.2906
 11
274.077293
 21
432.2906
  0
LINE
  5
B0
100
AcDbEntity
  8
M1
  6
CONTINUOUS
370
25
 62
   154
100
AcDbLine
 10
298.377293
 20
366.390602
 11
304.577291
 21
364.390597
  0
LINE
  5
B1
100
AcDbEntity
  8
M1
  6
CONTINUOUS
370
25
 62
   154
100
AcDbLine
 10
273.077293
 20
383.290597
 11
273.077293
 21
431.290597
  0
LINE
  5
B2
100
AcDbEntity
  8
M1
  6
CONTINUOUS
370
25
 62
   154
100
AcDbLine
 10
297.077293
 20
398.290597
 11
297.077293
 21
396.790602
  0
LINE
  5
B3
100
AcDbEntity
  8
M1
  6
CONTINUOUS
370
25
 62
   154
100
AcDbLine
 10
274.077293
 20
382.290595
 11
281.077293
 21
382.290595
  0
LINE
  5
B4
100
AcDbEntity
  8
M1
  6
CONTINUOUS
370
25
 62
   154
100
AcDbLine
 10
304.577291
 20
399.2906
 11
298.077293
 21
399.2906
  0
ARC
  5
B5
100
AcDbEntity
  8
M1
  6
CONTINUOUS
370
25
 62
   154
100
AcDbCircle
 10
287.577293
 20
345.290597
 40
3.0
100
AcDbArc
 50
202.143917
 51
216.454553
  0
ARC
  5
B6
100
AcDbEntity
  8
M1
  6
CONTINUOUS
370
25
 62
   154
100
AcDbCircle
 10
277.077293
 20
383.290597
 40
1.0
100
AcDbArc
 50
180.0
 51
270.0
  0
ARC
  5
B7
100
AcDbEntity
  8
M1
  6
CONTINUOUS
370
25
 62
   154
100
AcDbCircle
 10
277.077293
 20
431.290597
 40
1.0
100
AcDbArc
 50
90.0
 51
180.0
  0
ARC
  5
B8
100
AcDbEntity
  8
M1
  6
CONTINUOUS
370
25
 62
   154
100
AcDbCircle
 10
274.077293
 20
431.290597
 40
1.0
100
AcDbArc
 50
90.0
 51
180.0
  0
LINE
  5
B9
100
AcDbEntity
  8
M1
  6
CONTINUOUS
370
25
 62
   154
100
AcDbLine
 10
304.577291
 20
472.290597
 11
287.577293
 21
472.290597
  0
LINE
  5
BA
100
AcDbEntity
  8
M1
  6
CONTINUOUS
370
25
 62
   154
100
AcDbLine
 10
304.577291
 20
471.790597
 11
304.577291
 21
471.18342
  0
SPLINE
  5
BB
100
AcDbEntity
  8
M1
  6
CONTINUOUS
370
25
 62
   154
100
AcDbSpline
210
0.0
220
0.0
230
-1.0
 70
     8
 71
     3
 72
   113
 73
   109
 43
0.0000001
 40
0.0
 40
0.0
 40
0.0
 40
0.0
 40
1.0
 40
1.0
 40
1.0
 40
2.0
 40
2.0
 40
2.0
 40
3.0
 40
3.0
 40
3.0
 40
4.0
 40
4.0
 40
4.0
 40
5.0
 40
5.0
 40
5.0
 40
6.0
 40
6.0
 40
6.0
 40
7.0
 40
7.0
 40
7.0
 40
8.0
 40
8.0
 40
8.0
 40
9.0
 40
9.0
 40
9.0
 40
10.0
 40
10.0
 40
10.0
 40
11.0
 40
11.0
 40
11.0
 40
12.0
 40
12.0
 40
12.0
 40
13.0
 40
13.0
 40
13.0
 40
14.0
 40
14.0
 40
14.0
 40
15.0
 40
15.0
 40
15.0
 40
16.0
 40
16.0
 40
16.0
 40
17.0
 40
17.0
 40
17.0
 40
18.0
 40
18.0
 40
18.0
 40
19.0
 40
19.0
 40
19.0
 40
20.0
 40
20.0
 40
20.0
 40
21.0
 40
21.0
 40
21.0
 40
22.0
 40
22.0
 40
22.0
 40
23.0
 40
23.0
 40
23.0
 40
24.0
 40
24.0
 40
24.0
 40
25.0
 40
25.0
 40
25.0
 40
26.0
 40
26.0
 40
26.0
 40
27.0
 40
27.0
 40
27.0
 40
28.0
 40
28.0
 40
28.0
 40
29.0
 40
29.0
 40
29.0
 40
30.0
 40
30.0
 40
30.0
 40
31.0
 40
31.0
 40
31.0
 40
32.0
 40
32.0
 40
32.0
 40
33.0
 40
33.0
 40
33.0
 40
34.0
 40
34.0
 40
34.0
 40
35.0
 40
35.0
 40
35.0
 40
36.0
 40
36.0
 40
36.0
 40
36.0
 10
284.780368
 20
470.375577
 10
284.780638
 20
470.376275
 10
284.780906
 20
470.37697
 10
284.78119
 20
470.377705
 10
284.781473
 20
470.37844
 10
284.781773
 20
470.37921
 10
284.782108
 20
470.380075
 10
284.782443
 20
470.380937
 10
284.782815
 20
470.38189
 10
284.783223
 20
470.382932
 10
284.783631
 20
470.383975
 10
284.784073
 20
470.385105
 10
284.784631
 20
470.386522
 10
284.785518
 20
470.388782
 10
284.786693
 20
470.39176
 10
284.788016
 20
470.395095
 10
284.789336
 20
470.39843
 10
284.790803
 20
470.402112
 10
284.792443
 20
470.406205
 10
284.794083
 20
470.410295
 10
284.795896
 20
470.41479
 10
284.79774
 20
470.41934
 10
284.799586
 20
470.42389
 10
284.801463
 20
470.428492
 10
284.80373
 20
470.433992
 10
284.805998
 20
470.439495
 10
284.808653
 20
470.445887
 10
284.811336
 20
470.45228
 10
284.814018
 20
470.458672
 10
284.816726
 20
470.46506
 10
284.819613
 20
470.471792
 10
284.822498
 20
470.478527
 10
284.825561
 20
470.485597
 10
284.828538
 20
470.49241
 10
284.831513
 20
470.499222
 10
284.834398
 20
470.50577
 10
284.838088
 20
470.514012
 10
284.841778
 20
470.522255
 10
284.846268
 20
470.532182
 10
284.850706
 20
470.541855
 10
284.855143
 20
470.55153
 10
284.859523
 20
470.56094
 10
284.864151
 20
470.570735
 10
284.868778
 20
470.58053
 10
284.873646
 20
470.590702
 10
284.878326
 20
470.60037
 10
284.883005
 20
470.61004
 10
284.887496
 20
470.619202
 10
284.893135
 20
470.630485
 10
284.898776
 20
470.641767
 10
284.905563
 20
470.65516
 10
284.912183
 20
470.667987
 10
284.9188
 20
470.680815
 10
284.925253
 20
470.693072
 10
284.931953
 20
470.705587
 10
284.938656
 20
470.7181
 10
284.9456
 20
470.730865
 10
284.95235
 20
470.74308
 10
284.9591
 20
470.755292
 10
284.965648
 20
470.766957
 10
284.973276
 20
470.78026
 10
284.980901
 20
470.79356
 10
284.989603
 20
470.808495
 10
284.998123
 20
470.822832
 10
285.006643
 20
470.837167
 10
285.014983
 20
470.850912
 10
285.023228
 20
470.8643
 10
285.031476
 20
470.877687
 10
285.039631
 20
470.890725
 10
285.048273
 20
470.904262
 10
285.056918
 20
470.9178
 10
285.066053
 20
470.931845
 10
285.072936
 20
470.942317
 10
285.079656
 20
470.952542
 10
285.084235
 20
470.959375
 10
285.089306
 20
470.966882
 10
285.094376
 20
470.97439
 10
285.099943
 20
470.98258
 10
285.105163
 20
470.990182
 10
285.110383
 20
470.997785
 10
285.115263
 20
471.004817
 10
285.120318
 20
471.01202
 10
285.125373
 20
471.019225
 10
285.130606
 20
471.026615
 10
285.134583
 20
471.0322
 10
285.138563
 20
471.037785
 10
285.141296
 20
471.04158
 10
285.144193
 20
471.045587
 10
285.147091
 20
471.049597
 10
285.150161
 20
471.05383
 10
285.152941
 20
471.057645
 10
285.155721
 20
471.06146
 10
285.158216
 20
471.064867
 10
285.160526
 20
471.06801
 10
285.162833
 20
471.07115
 10
285.164958
 20
471.074032
 10
285.166648
 20
471.076317
 10
285.168308
 20
471.078565
 10
285.169551
 20
471.080242
 10
285.170673
 20
471.081755
 10
285.171798
 20
471.083267
 10
285.172803
 20
471.084617
 10
285.173681
 20
471.08579
 10
285.174558
 20
471.086965
 10
285.175308
 20
471.087965
 10
285.176005
 20
471.088892
 10
285.176703
 20
471.08982
 10
285.177348
 20
471.090675
 10
285.177991
 20
471.091527
  0
LINE
  5
BC
100
AcDbEntity
  8
M1
  6
CONTINUOUS
370
25
 62
   154
100
AcDbLine
 10
297.077293
 20
416.790597
 11
297.077293
 21
415.2906
  0
ARC
  5
BD
100
AcDbEntity
  8
M1
  6
CONTINUOUS
370
25
 62
   154
100
AcDbCircle
 10
274.077293
 20
383.290597
 40
1.0
100
AcDbArc
 50
180.0
 51
270.0
  0
SPLINE
  5
BE
100
AcDbEntity
  8
M1
  6
CONTINUOUS
370
25
 62
   154
100
AcDbSpline
210
0.0
220
0.0
230
-1.0
 70
     8
 71
     3
 72
   125
 73
   121
 43
0.0000001
 40
0.0
 40
0.0
 40
0.0
 40
0.0
 40
1.0
 40
1.0
 40
1.0
 40
2.0
 40
2.0
 40
2.0
 40
3.0
 40
3.0
 40
3.0
 40
4.0
 40
4.0
 40
4.0
 40
5.0
 40
5.0
 40
5.0
 40
6.0
 40
6.0
 40
6.0
 40
7.0
 40
7.0
 40
7.0
 40
8.0
 40
8.0
 40
8.0
 40
9.0
 40
9.0
 40
9.0
 40
10.0
 40
10.0
 40
10.0
 40
11.0
 40
11.0
 40
11.0
 40
12.0
 40
12.0
 40
12.0
 40
13.0
 40
13.0
 40
13.0
 40
14.0
 40
14.0
 40
14.0
 40
15.0
 40
15.0
 40
15.0
 40
16.0
 40
16.0
 40
16.0
 40
17.0
 40
17.0
 40
17.0
 40
18.0
 40
18.0
 40
18.0
 40
19.0
 40
19.0
 40
19.0
 40
20.0
 40
20.0
 40
20.0
 40
21.0
 40
21.0
 40
21.0
 40
22.0
 40
22.0
 40
22.0
 40
23.0
 40
23.0
 40
23.0
 40
24.0
 40
24.0
 40
24.0
 40
25.0
 40
25.0
 40
25.0
 40
26.0
 40
26.0
 40
26.0
 40
27.0
 40
27.0
 40
27.0
 40
28.0
 40
28.0
 40
28.0
 40
29.0
 40
29.0
 40
29.0
 40
30.0
 40
30.0
 40
30.0
 40
31.0
 40
31.0
 40
31.0
 40
32.0
 40
32.0
 40
32.0
 40
33.0
 40
33.0
 40
33.0
 40
34.0
 40
34.0
 40
34.0
 40
35.0
 40
35.0
 40
35.0
 40
36.0
 40
36.0
 40
36.0
 40
37.0
 40
37.0
 40
37.0
 40
38.0
 40
38.0
 40
38.0
 40
39.0
 40
39.0
 40
39.0
 40
40.0
 40
40.0
 40
40.0
 40
40.0
 10
285.248218
 20
343.415282
 10
285.245803
 20
343.417375
 10
285.243391
 20
343.419467
 10
285.240985
 20
343.421565
 10
285.238583
 20
343.423665
 10
285.236191
 20
343.425775
 10
285.233813
 20
343.427902
 10
285.231436
 20
343.430032
 10
285.229076
 20
343.432185
 10
285.226753
 20
343.434347
 10
285.224433
 20
343.436512
 10
285.222156
 20
343.438695
 10
285.219868
 20
343.440957
 10
285.217583
 20
343.44322
 10
285.21529
 20
343.445567
 10
285.213031
 20
343.44795
 10
285.210771
 20
343.450335
 10
285.208548
 20
343.452755
 10
285.206393
 20
343.455147
 10
285.204241
 20
343.457542
 10
285.202166
 20
343.459905
 10
285.199916
 20
343.462527
 10
285.197668
 20
343.465147
 10
285.19526
 20
343.468017
 10
285.193558
 20
343.47006
 10
285.192286
 20
343.471587
 10
285.191416
 20
343.472647
 10
285.190433
 20
343.473852
 10
285.189451
 20
343.475057
 10
285.188365
 20
343.476395
 10
285.187346
 20
343.477657
 10
285.186328
 20
343.478922
 10
285.185383
 20
343.48011
 10
285.184321
 20
343.481457
 10
285.183258
 20
343.482805
 10
285.182091
 20
343.484302
 10
285.181376
 20
343.48523
 10
285.181201
 20
343.485457
 10
285.181051
 20
343.485647
 10
285.180898
 20
343.485847
 10
285.180743
 20
343.486047
 10
285.180586
 20
343.486255
 10
285.180433
 20
343.486452
 10
285.18028
 20
343.48665
 10
285.180138
 20
343.486837
 10
285.179991
 20
343.48703
 10
285.179843
 20
343.487225
 10
285.179693
 20
343.487422
 10
285.179581
 20
343.48757
 10
285.179495
 20
343.487682
 10
285.179436
 20
343.487762
 10
285.179371
 20
343.487847
 10
285.179306
 20
343.487932
 10
285.179238
 20
343.488022
 10
285.179173
 20
343.488107
 10
285.179108
 20
343.488192
 10
285.17905
 20
343.488272
 10
285.178991
 20
343.488347
 10
285.178933
 20
343.488425
 10
285.178878
 20
343.4885
 10
285.178825
 20
343.488567
 10
285.178773
 20
343.488635
 10
285.178726
 20
343.488697
 10
285.178681
 20
343.488757
 10
285.178636
 20
343.488817
 10
285.178593
 20
343.488875
 10
285.178551
 20
343.48893
 10
285.178508
 20
343.488985
 10
285.178468
 20
343.489037
 10
285.178433
 20
343.489082
 10
285.178398
 20
343.48913
 10
285.178368
 20
343.489165
 10
285.178326
 20
343.489222
 10
285.178283
 20
343.48928
 10
285.178226
 20
343.489355
 10
285.178175
 20
343.48942
 10
285.178128
 20
343.489485
 10
285.178086
 20
343.489537
 10
285.178046
 20
343.489592
 10
285.178006
 20
343.489645
 10
285.177966
 20
343.489697
 10
285.177933
 20
343.489742
 10
285.177898
 20
343.489787
 10
285.177873
 20
343.489822
 10
285.177831
 20
343.489877
 10
285.177776
 20
343.489952
 10
285.177693
 20
343.49006
 10
285.177628
 20
343.490147
 10
285.177561
 20
343.490237
 10
285.177506
 20
343.490307
 10
285.177453
 20
343.490377
 10
285.177401
 20
343.490447
 10
285.177348
 20
343.490515
 10
285.177303
 20
343.490575
 10
285.177256
 20
343.490637
 10
285.177216
 20
343.49069
 10
285.177163
 20
343.490757
 10
285.177026
 20
343.49094
 10
285.176803
 20
343.491232
 10
285.176608
 20
343.491492
 10
285.176411
 20
343.491752
 10
285.176235
 20
343.491987
 10
285.176036
 20
343.492255
 10
285.175838
 20
343.492522
 10
285.175611
 20
343.492827
 10
285.175366
 20
343.493157
 10
285.175118
 20
343.49349
 10
285.174848
 20
343.493857
 10
285.174506
 20
343.49432
 10
285.174018
 20
343.494977
 10
285.173376
 20
343.495845
 10
285.172668
 20
343.496805
 10
285.171958
 20
343.497765
 10
285.17117
 20
343.498832
 10
285.170328
 20
343.49997
 10
285.169486
 20
343.50111
 10
285.16858
 20
343.502332
 10
285.167653
 20
343.503587
 10
285.166726
 20
343.504842
 10
285.165768
 20
343.50614
 10
285.164813
 20
343.507432
  0
SPLINE
  5
BF
100
AcDbEntity
  8
M1
  6
CONTINUOUS
370
25
 62
   154
100
AcDbSpline
210
0.0
220
0.0
230
-1.0
 70
     8
 71
     3
 72
    65
 73
    61
 43
0.0000001
 40
0.0
 40
0.0
 40
0.0
 40
0.0
 40
1.0
 40
1.0
 40
1.0
 40
2.0
 40
2.0
 40
2.0
 40
3.0
 40
3.0
 40
3.0
 40
4.0
 40
4.0
 40
4.0
 40
5.0
 40
5.0
 40
5.0
 40
6.0
 40
6.0
 40
6.0
 40
7.0
 40
7.0
 40
7.0
 40
8.0
 40
8.0
 40
8.0
 40
9.0
 40
9.0
 40
9.0
 40
10.0
 40
10.0
 40
10.0
 40
11.0
 40
11.0
 40
11.0
 40
12.0
 40
12.0
 40
12.0
 40
13.0
 40
13.0
 40
13.0
 40
14.0
 40
14.0
 40
14.0
 40
15.0
 40
15.0
 40
15.0
 40
16.0
 40
16.0
 40
16.0
 40
17.0
 40
17.0
 40
17.0
 40
18.0
 40
18.0
 40
18.0
 40
19.0
 40
19.0
 40
19.0
 40
20.0
 40
20.0
 40
20.0
 40
20.0
 10
284.750416
 20
470.151535
 10
284.750271
 20
470.149375
 10
284.750126
 20
470.147217
 10
284.749988
 20
470.14507
 10
284.749853
 20
470.142922
 10
284.749725
 20
470.140785
 10
284.749623
 20
470.13862
 10
284.749521
 20
470.136455
 10
284.749441
 20
470.134267
 10
284.749381
 20
470.132197
 10
284.749321
 20
470.130127
 10
284.749278
 20
470.128177
 10
284.749323
 20
470.125812
 10
284.749481
 20
470.11757
 10
284.750691
 20
470.104297
 10
284.752903
 20
470.09264
 10
284.755116
 20
470.08098
 10
284.758326
 20
470.070935
 10
284.762246
 20
470.060755
 10
284.766166
 20
470.050577
 10
284.770786
 20
470.040267
 10
284.776131
 20
470.029977
 10
284.781473
 20
470.019687
 10
284.787528
 20
470.009415
 10
284.793338
 20
470.000122
 10
284.799151
 20
469.99083
 10
284.804708
 20
469.98252
 10
284.810738
 20
469.974085
 10
284.816768
 20
469.96565
 10
284.823261
 20
469.957085
 10
284.830046
 20
469.948747
 10
284.83683
 20
469.940407
 10
284.843903
 20
469.93229
 10
284.851485
 20
469.924222
 10
284.859066
 20
469.916152
 10
284.867151
 20
469.908132
 10
284.875276
 20
469.900617
 10
284.883403
 20
469.893105
 10
284.891565
 20
469.886097
 10
284.900183
 20
469.87919
 10
284.908801
 20
469.872285
 10
284.917866
 20
469.865477
 10
284.927243
 20
469.858932
 10
284.936621
 20
469.852385
 10
284.946303
 20
469.846097
 10
284.956293
 20
469.84008
 10
284.966283
 20
469.834062
 10
284.976573
 20
469.828315
 10
284.987163
 20
469.822875
 10
284.997753
 20
469.817432
 10
285.008635
 20
469.812295
 10
285.019723
 20
469.8074
 10
285.030811
 20
469.802502
 10
285.042101
 20
469.797842
 10
285.05353
 20
469.793342
 10
285.064961
 20
469.788842
 10
285.076528
 20
469.784497
 10
285.088168
 20
469.780232
 10
285.099806
 20
469.775967
 10
285.111511
 20
469.771782
 10
285.123221
 20
469.767597
  0
LINE
  5
C0
100
AcDbEntity
  8
M1
  6
CONTINUOUS
370
25
 62
   154
100
AcDbLine
 10
284.577293
 20
395.7906
 11
284.577293
 21
373.678082
  0
LINE
  5
C1
100
AcDbEntity
  8
M1
  6
CONTINUOUS
370
25
 62
   154
100
AcDbLine
 10
284.577293
 20
365.321972
 11
284.577293
 21
365.290597
  0
ARC
  5
C2
100
AcDbEntity
  8
M1
  6
CONTINUOUS
370
25
 62
   154
100
AcDbCircle
 10
298.077293
 20
398.290597
 40
1.0
100
AcDbArc
 50
90.0
 51
180.0
  0
ARC
  5
C3
100
AcDbEntity
  8
M1
  6
CONTINUOUS
370
25
 62
   154
100
AcDbCircle
 10
283.577293
 20
373.67808
 40
1.0
100
AcDbArc
 50
282.839588
 51
360.0
  0
SPLINE
  5
C4
100
AcDbEntity
  8
M1
  6
CONTINUOUS
370
25
 62
   154
100
AcDbSpline
210
0.0
220
0.0
230
-1.0
 70
     8
 71
     3
 72
    41
 73
    37
 43
0.0000001
 40
0.0
 40
0.0
 40
0.0
 40
0.0
 40
1.0
 40
1.0
 40
1.0
 40
2.0
 40
2.0
 40
2.0
 40
3.0
 40
3.0
 40
3.0
 40
4.0
 40
4.0
 40
4.0
 40
5.0
 40
5.0
 40
5.0
 40
6.0
 40
6.0
 40
6.0
 40
7.0
 40
7.0
 40
7.0
 40
8.0
 40
8.0
 40
8.0
 40
9.0
 40
9.0
 40
9.0
 40
10.0
 40
10.0
 40
10.0
 40
11.0
 40
11.0
 40
11.0
 40
12.0
 40
12.0
 40
12.0
 40
12.0
 10
285.251988
 20
343.419455
 10
285.255943
 20
343.415545
 10
285.259893
 20
343.411632
 10
285.263833
 20
343.407792
 10
285.267773
 20
343.40395
 10
285.271698
 20
343.400177
 10
285.275788
 20
343.39643
 10
285.279876
 20
343.39268
 10
285.284123
 20
343.388952
 10
285.287953
 20
343.385667
 10
285.291783
 20
343.382385
 10
285.295193
 20
343.37954
 10
285.300438
 20
343.37581
 10
285.307583
 20
343.37073
 10
285.318118
 20
343.364002
 10
285.328123
 20
343.358782
 10
285.338128
 20
343.353562
 10
285.347593
 20
343.349842
 10
285.357556
 20
343.346697
 10
285.367515
 20
343.343552
 10
285.37796
 20
343.340975
 10
285.388583
 20
343.339135
 10
285.399206
 20
343.337297
 10
285.409998
 20
343.336185
 10
285.421056
 20
343.335682
 10
285.432116
 20
343.335177
 10
285.443428
 20
343.33527
 10
285.454896
 20
343.335835
 10
285.466366
 20
343.336402
 10
285.477983
 20
343.337432
 10
285.489713
 20
343.338772
 10
285.501443
 20
343.340115
 10
285.513286
 20
343.341762
 10
285.52518
 20
343.343565
 10
285.537076
 20
343.34537
 10
285.549023
 20
343.347327
 10
285.560973
 20
343.349285
  0
LINE
  5
C5
100
AcDbEntity
  8
M1
  6
CONTINUOUS
370
25
 62
   154
100
AcDbLine
 10
297.077293
 20
396.790602
 11
285.577293
 21
396.790602
  0
LINE
  5
C6
100
AcDbEntity
  8
M1
  6
CONTINUOUS
370
25
 62
   154
100
AcDbLine
 10
292.577293
 20
364.290595
 11
292.577293
 21
357.790597
  0
LINE
  5
C7
100
AcDbEntity
  8
M1
  6
CONTINUOUS
370
25
 62
   154
100
AcDbLine
 10
304.577291
 20
343.397775
 11
285.944126
 21
343.397775
  0
LINE
  5
C8
100
AcDbEntity
  8
M1
  6
CONTINUOUS
370
25
 62
   154
100
AcDbLine
 10
298.377293
 20
366.390602
 11
298.377293
 21
395.2906
  0
ARC
  5
C9
100
AcDbEntity
  8
M1
  6
CONTINUOUS
370
25
 62
   154
100
AcDbCircle
 10
284.577293
 20
369.290597
 40
3.5
100
AcDbArc
 50
102.839588
 51
180.0
  0
LINE
  5
CA
100
AcDbEntity
  8
M1
  6
CONTINUOUS
370
25
 62
   154
100
AcDbLine
 10
285.577293
 20
416.790597
 11
297.077293
 21
416.790597
  0
LINE
  5
CB
100
AcDbEntity
  8
M1
  6
CONTINUOUS
370
25
 62
   154
100
AcDbLine
 10
284.577293
 20
365.290597
 11
284.577293
 21
345.290597
  0
LINE
  5
CC
100
AcDbEntity
  8
M1
  6
CONTINUOUS
370
25
 62
   154
100
AcDbLine
 10
304.577291
 20
397.090602
 11
304.577291
 21
472.290597
  0
LINE
  5
CD
100
AcDbEntity
  8
M1
  6
CONTINUOUS
370
25
 62
   154
100
AcDbLine
 10
287.577293
 20
342.290602
 11
304.577291
 21
342.290602
  0
LINE
  5
CE
100
AcDbEntity
  8
M1
  6
CONTINUOUS
370
25
 62
   154
100
AcDbLine
 10
285.253478
 20
344.83222
 11
304.577291
 21
344.83222
  0
SPLINE
  5
CF
100
AcDbEntity
  8
M1
  6
CONTINUOUS
370
25
 62
   154
100
AcDbSpline
210
0.0
220
0.0
230
-1.0
 70
     8
 71
     3
 72
     8
 73
     4
 43
0.0000001
 40
0.0
 40
0.0
 40
0.0
 40
0.0
 40
1.0
 40
1.0
 40
1.0
 40
1.0
 10
285.253478
 20
344.832217
 10
285.209171
 20
344.832217
 10
285.165748
 20
344.826037
 10
285.123221
 20
344.8136
  0
ARC
  5
D0
100
AcDbEntity
  8
M1
  6
CONTINUOUS
370
25
 62
   154
100
AcDbCircle
 10
284.077293
 20
365.321972
 40
0.5
100
AcDbArc
 50
0.0
 51
82.819244
  0
SPLINE
  5
D1
100
AcDbEntity
  8
M1
  6
CONTINUOUS
370
25
 62
   154
100
AcDbSpline
210
0.0
220
0.0
230
-1.0
 70
     8
 71
     3
 72
    29
 73
    25
 43
0.0000001
 40
0.0
 40
0.0
 40
0.0
 40
0.0
 40
1.0
 40
1.0
 40
1.0
 40
2.0
 40
2.0
 40
2.0
 40
3.0
 40
3.0
 40
3.0
 40
4.0
 40
4.0
 40
4.0
 40
5.0
 40
5.0
 40
5.0
 40
6.0
 40
6.0
 40
6.0
 40
7.0
 40
7.0
 40
7.0
 40
8.0
 40
8.0
 40
8.0
 40
8.0
 10
285.944126
 20
343.397777
 10
285.927156
 20
343.397655
 10
285.910188
 20
343.397525
 10
285.893311
 20
343.397105
 10
285.876436
 20
343.396682
 10
285.859655
 20
343.39596
 10
285.842956
 20
343.395002
 10
285.826256
 20
343.394042
 10
285.809643
 20
343.392832
 10
285.793121
 20
343.39135
 10
285.776598
 20
343.389867
 10
285.760168
 20
343.388097
 10
285.743866
 20
343.38603
 10
285.727561
 20
343.38396
 10
285.711391
 20
343.38158
 10
285.695471
 20
343.378932
 10
285.679553
 20
343.376287
 10
285.663893
 20
343.373365
 10
285.648518
 20
343.37024
 10
285.633143
 20
343.367115
 10
285.618061
 20
343.363782
 10
285.603516
 20
343.360257
 10
285.588971
 20
343.356732
 10
285.574976
 20
343.35301
 10
285.560973
 20
343.349292
  0
LINE
  5
D2
100
AcDbEntity
  8
M1
  6
CONTINUOUS
370
25
 62
   154
100
AcDbLine
 10
304.577291
 20
471.18342
 11
285.944126
 21
471.18342
  0
LINE
  5
D3
100
AcDbEntity
  8
M1
  6
CONTINUOUS
370
25
 62
   154
100
AcDbLine
 10
285.253478
 20
469.748977
 11
304.577291
 21
469.748977
  0
ARC
  5
D4
100
AcDbEntity
  8
M1
  6
CONTINUOUS
370
25
 62
   154
100
AcDbCircle
 10
285.577293
 20
356.790597
 40
1.0
100
AcDbArc
 50
90.0
 51
180.0
  0
LINE
  5
D5
100
AcDbEntity
  8
M1
  6
CONTINUOUS
370
25
 62
   154
100
AcDbLine
 10
284.577293
 20
469.290597
 11
284.577293
 21
417.790597
  0
LINE
  5
D6
100
AcDbEntity
  8
M1
  6
CONTINUOUS
370
25
 62
   154
100
AcDbLine
 10
302.577291
 20
399.2906
 11
302.577291
 21
414.2906
  0
LINE
  5
D7
100
AcDbEntity
  8
M1
  6
CONTINUOUS
370
25
 62
   154
100
AcDbLine
 10
285.577293
 20
346.990592
 11
304.577291
 21
346.990592
  0
ARC
  5
D8
100
AcDbEntity
  8
M1
  6
CONTINUOUS
370
25
 62
   154
100
AcDbCircle
 10
287.577293
 20
469.290597
 40
3.0
100
AcDbArc
 50
157.010821
 51
180.0
  0
ARC
  5
D9
100
AcDbEntity
  8
M1
  6
CONTINUOUS
370
25
 62
   154
100
AcDbCircle
 10
285.577293
 20
395.790597
 40
1.0
100
AcDbArc
 50
90.0
 51
180.0
  0
ARC
  5
DA
100
AcDbEntity
  8
M1
  6
CONTINUOUS
370
25
 62
   154
100
AcDbCircle
 10
287.577293
 20
345.290597
 40
3.0
100
AcDbArc
 50
216.379943
 51
270.0
  0
ARC
  5
DB
100
AcDbEntity
  8
M1
  6
CONTINUOUS
370
25
 62
   154
100
AcDbCircle
 10
284.577293
 20
369.290597
 40
3.5
100
AcDbArc
 50
180.0
 51
262.819244
  0
ARC
  5
DC
100
AcDbEntity
  8
M1
  6
CONTINUOUS
370
25
 62
   154
100
AcDbCircle
 10
285.577293
 20
347.990597
 40
1.0
100
AcDbArc
 50
180.0
 51
270.0
  0
SPLINE
  5
DD
100
AcDbEntity
  8
M1
  6
CONTINUOUS
370
25
 62
   154
100
AcDbSpline
210
0.0
220
0.0
230
-1.0
 70
     8
 71
     3
 72
    41
 73
    37
 43
0.0000001
 40
0.0
 40
0.0
 40
0.0
 40
0.0
 40
1.0
 40
1.0
 40
1.0
 40
2.0
 40
2.0
 40
2.0
 40
3.0
 40
3.0
 40
3.0
 40
4.0
 40
4.0
 40
4.0
 40
5.0
 40
5.0
 40
5.0
 40
6.0
 40
6.0
 40
6.0
 40
7.0
 40
7.0
 40
7.0
 40
8.0
 40
8.0
 40
8.0
 40
9.0
 40
9.0
 40
9.0
 40
10.0
 40
10.0
 40
10.0
 40
11.0
 40
11.0
 40
11.0
 40
12.0
 40
12.0
 40
12.0
 40
12.0
 10
285.560973
 20
471.231905
 10
285.548978
 20
471.233865
 10
285.536983
 20
471.235827
 10
285.525043
 20
471.237632
 10
285.513106
 20
471.239435
 10
285.501218
 20
471.241085
 10
285.489443
 20
471.242422
 10
285.477671
 20
471.24376
 10
285.466008
 20
471.244792
 10
285.454501
 20
471.245347
 10
285.442993
 20
471.245902
 10
285.431633
 20
471.24599
 10
285.420541
 20
471.245467
 10
285.409448
 20
471.244945
 10
285.398616
 20
471.24382
 10
285.387961
 20
471.241952
 10
285.377306
 20
471.240082
 10
285.36682
 20
471.23748
 10
285.356836
 20
471.234297
 10
285.346851
 20
471.231115
 10
285.337356
 20
471.22736
 10
285.327321
 20
471.22208
 10
285.317288
 20
471.216797
 10
285.306711
 20
471.209997
 10
285.299571
 20
471.204872
 10
285.294411
 20
471.20117
 10
285.291038
 20
471.198345
 10
285.287258
 20
471.195085
 10
285.283481
 20
471.191822
 10
285.279291
 20
471.18813
 10
285.275261
 20
471.184412
 10
285.271231
 20
471.180697
 10
285.267356
 20
471.17696
 10
285.263468
 20
471.173155
 10
285.259583
 20
471.169347
 10
285.255681
 20
471.165475
 10
285.251783
 20
471.161602
  0
LINE
  5
DE
100
AcDbEntity
  8
M1
  6
CONTINUOUS
370
25
 62
   154
100
AcDbLine
 10
285.577293
 20
364.290595
 11
292.577293
 21
364.290595
  0
ARC
  5
DF
100
AcDbEntity
  8
M1
  6
CONTINUOUS
370
25
 62
   154
100
AcDbCircle
 10
287.577293
 20
469.290597
 40
3.0
100
AcDbArc
 50
90.0
 51
143.620057
  0
ARC
  5
E0
100
AcDbEntity
  8
M1
  6
CONTINUOUS
370
25
 62
   154
100
AcDbCircle
 10
287.577293
 20
345.290597
 40
3.0
100
AcDbArc
 50
180.0
 51
202.989179
  0
LINE
  5
E1
100
AcDbEntity
  8
M1
  6
CONTINUOUS
370
25
 62
   154
100
AcDbLine
 10
281.077293
 20
381.2906
 11
281.077293
 21
380.7906
  0
LINE
  5
E2
100
AcDbEntity
  8
M1
  6
CONTINUOUS
370
25
 62
   154
100
AcDbLine
 10
284.577293
 20
467.290537
 11
284.558768
 21
467.241107
  0
LINE
  5
E3
100
AcDbEntity
  8
M1
  6
CONTINUOUS
370
25
 62
   154
100
AcDbLine
 10
298.077293
 20
414.2906
 11
304.577291
 21
414.2906
  0
LINE
  5
E4
100
AcDbEntity
  8
M1
  6
CONTINUOUS
370
25
 62
   154
100
AcDbLine
 10
304.577291
 20
397.290595
 11
298.377293
 21
395.2906
  0
LINE
  5
E5
100
AcDbEntity
  8
M1
  6
CONTINUOUS
370
25
 62
   154
100
AcDbLine
 10
304.577291
 20
364.390597
 11
304.577291
 21
342.290602
  0
LINE
  5
E6
100
AcDbEntity
  8
M1
  6
CONTINUOUS
370
25
 62
   154
100
AcDbLine
 10
285.162283
 20
471.070412
 11
285.082883
 21
470.95731
  0
LINE
  5
E7
100
AcDbEntity
  8
M1
  6
CONTINUOUS
370
25
 62
   154
100
AcDbLine
 10
285.082883
 20
470.95731
 11
284.826796
 21
470.488417
  0
ARC
  5
E8
100
AcDbEntity
  8
M1
  6
CONTINUOUS
370
25
 62
     6
100
AcDbCircle
 10
291.817201
 20
362.720277
 40
1.0
100
AcDbArc
 50
94.999105
 51
163.742547
  0
ARC
  5
E9
100
AcDbEntity
  8
M1
  6
CONTINUOUS
370
25
 62
     6
100
AcDbCircle
 10
297.577293
 20
361.040597
 40
7.0
100
AcDbArc
 50
163.742886
 51
196.257039
  0
ARC
  5
EA
100
AcDbEntity
  8
M1
  6
CONTINUOUS
370
25
 62
     6
100
AcDbCircle
 10
291.817201
 20
359.360917
 40
1.0
100
AcDbArc
 50
196.257348
 51
265.000019
  0
LINE
  5
EB
100
AcDbEntity
  8
M1
  6
CONTINUOUS
370
25
 62
     6
100
AcDbLine
 10
292.577293
 20
358.290597
 11
292.577293
 21
363.790597
  0
LINE
  5
EC
100
AcDbEntity
  8
M1
  6
CONTINUOUS
370
25
 62
     6
100
AcDbLine
 10
292.577293
 20
358.290597
 11
291.730046
 21
358.364722
  0
LINE
  5
ED
100
AcDbEntity
  8
M1
  6
CONTINUOUS
370
25
 62
     6
100
AcDbLine
 10
292.577293
 20
363.790597
 11
291.730046
 21
363.716472
  0
ARC
  5
EE
100
AcDbEntity
  8
M1
  6
CONTINUOUS
370
25
 62
     2
100
AcDbCircle
 10
277.077293
 20
383.2906
 40
1.0
100
AcDbArc
 50
180.0
 51
270.0
  0
ARC
  5
EF
100
AcDbEntity
  8
M1
  6
CONTINUOUS
370
25
 62
     2
100
AcDbCircle
 10
284.577293
 20
443.7906
 40
1.0
100
AcDbArc
 50
90.0
 51
180.0
  0
ARC
  5
F0
100
AcDbEntity
  8
M1
  6
CONTINUOUS
370
25
 62
     2
100
AcDbCircle
 10
284.577293
 20
436.2906
 40
1.0
100
AcDbArc
 50
180.0
 51
270.0
  0
LINE
  5
F1
100
AcDbEntity
  8
M1
  6
CONTINUOUS
370
25
 62
     2
100
AcDbLine
 10
284.577293
 20
397.7906
 11
287.577293
 21
398.7906
  0
LINE
  5
F2
100
AcDbEntity
  8
M1
  6
CONTINUOUS
370
25
 62
     2
100
AcDbLine
 10
283.577293
 20
437.489697
 11
284.577293
 21
437.489697
  0
LINE
  5
F3
100
AcDbEntity
  8
M1
  6
CONTINUOUS
370
25
 62
     2
100
AcDbLine
 10
284.577293
 20
374.1906
 11
284.577293
 21
397.7906
  0
LINE
  5
F4
100
AcDbEntity
  8
M1
  6
CONTINUOUS
370
25
 62
     2
100
AcDbLine
 10
276.077291
 20
431.2906
 11
276.077291
 21
383.2906
  0
ARC
  5
F5
100
AcDbEntity
  8
M1
  6
CONTINUOUS
370
25
 62
     2
100
AcDbCircle
 10
277.077293
 20
431.2906
 40
1.0
100
AcDbArc
 50
90.0
 51
180.0
  0
ARC
  5
F6
100
AcDbEntity
  8
M1
  6
CONTINUOUS
370
25
 62
     2
100
AcDbCircle
 10
281.077293
 20
372.119027
 40
1.0
100
AcDbArc
 50
321.057559
 51
355.397698
  0
ARC
  5
F7
100
AcDbEntity
  8
M1
  6
CONTINUOUS
370
25
 62
     2
100
AcDbCircle
 10
281.077293
 20
371.95855
 40
1.0
100
AcDbArc
 50
4.602302
 51
60.0
  0
ARC
  5
F8
100
AcDbEntity
  8
M1
  6
CONTINUOUS
370
25
 62
     2
100
AcDbCircle
 10
282.077293
 20
373.6906
 40
1.0
100
AcDbArc
 50
180.0
 51
270.0
  0
ARC
  5
F9
100
AcDbEntity
  8
M1
  6
CONTINUOUS
370
25
 62
     2
100
AcDbCircle
 10
284.577293
 20
369.2906
 40
3.5
100
AcDbArc
 50
141.057559
 51
262.819249
  0
ARC
  5
FA
100
AcDbEntity
  8
M1
  6
CONTINUOUS
370
25
 62
     2
100
AcDbCircle
 10
282.077293
 20
448.2906
 40
1.0
100
AcDbArc
 50
90.0
 51
180.0
  0
LINE
  5
FB
100
AcDbEntity
  8
M1
  6
CONTINUOUS
370
25
 62
     2
100
AcDbLine
 10
284.577293
 20
415.790602
 11
284.577293
 21
449.290597
  0
LINE
  5
FC
100
AcDbEntity
  8
M1
  6
CONTINUOUS
370
25
 62
     2
100
AcDbLine
 10
284.577293
 20
449.290597
 11
282.077293
 21
449.290597
  0
LINE
  5
FD
100
AcDbEntity
  8
M1
  6
CONTINUOUS
370
25
 62
     2
100
AcDbLine
 10
283.577293
 20
436.290602
 11
283.577293
 21
443.790602
  0
LINE
  5
FE
100
AcDbEntity
  8
M1
  6
CONTINUOUS
370
25
 62
     2
100
AcDbLine
 10
277.077293
 20
382.2906
 11
281.077293
 21
382.2906
  0
LINE
  5
FF
100
AcDbEntity
  8
M1
  6
CONTINUOUS
370
25
 62
     2
100
AcDbLine
 10
282.577293
 20
372.6906
 11
284.577293
 21
374.1906
  0
LINE
  5
100
100
AcDbEntity
  8
M1
  6
CONTINUOUS
370
25
 62
     2
100
AcDbLine
 10
287.577293
 20
414.7906
 11
284.577293
 21
415.790602
  0
LINE
  5
101
100
AcDbEntity
  8
M1
  6
CONTINUOUS
370
25
 62
     2
100
AcDbLine
 10
282.077293
 20
372.6906
 11
282.577293
 21
372.6906
  0
LINE
  5
102
100
AcDbEntity
  8
M1
  6
CONTINUOUS
370
25
 62
     2
100
AcDbLine
 10
287.577293
 20
416.790597
 11
287.577293
 21
396.7906
  0
LINE
  5
103
100
AcDbEntity
  8
M1
  6
CONTINUOUS
370
25
 62
     2
100
AcDbLine
 10
281.077293
 20
448.290605
 11
281.077293
 21
373.6906
  0
LINE
  5
104
100
AcDbEntity
  8
M1
  6
CONTINUOUS
370
25
 62
     2
100
AcDbLine
 10
281.077293
 20
432.290602
 11
277.077293
 21
432.290602
  0
CIRCLE
  5
105
100
AcDbEntity
  8
M1
  6
CONTINUOUS
370
25
 62
   154
100
AcDbCircle
 10
125.415735
 20
462.540597
 40
2.75
  0
CIRCLE
  5
106
100
AcDbEntity
  8
M1
  6
CONTINUOUS
370
25
 62
   154
100
AcDbCircle
 10
125.415735
 20
352.040597
 40
2.75
  0
LINE
  5
107
100
AcDbEntity
  8
M1
  6
CONTINUOUS
370
25
 62
   154
100
AcDbLine
 10
129.415735
 20
472.290597
 11
135.131855
 21
472.290597
  0
LINE
  5
108
100
AcDbEntity
  8
M1
  6
CONTINUOUS
370
25
 62
   154
100
AcDbLine
 10
104.415734
 20
472.290597
 11
110.131854
 21
472.290597
  0
LINE
  5
109
100
AcDbEntity
  8
M1
  6
CONTINUOUS
370
25
 62
   154
100
AcDbLine
 10
104.415734
 20
342.290602
 11
110.13184
 21
342.290602
  0
LINE
  5
10A
100
AcDbEntity
  8
M1
  6
CONTINUOUS
370
25
 62
   154
100
AcDbLine
 10
129.415735
 20
342.290602
 11
135.13184
 21
342.290602
  0
LINE
  5
10B
100
AcDbEntity
  8
M1
  6
CONTINUOUS
370
25
 62
   154
100
AcDbLine
 10
115.699617
 20
472.290597
 11
121.415734
 21
472.290597
  0
LINE
  5
10C
100
AcDbEntity
  8
M1
  6
CONTINUOUS
370
25
 62
   154
100
AcDbLine
 10
140.699617
 20
472.290597
 11
146.415735
 21
472.290597
  0
LINE
  5
10D
100
AcDbEntity
  8
M1
  6
CONTINUOUS
370
25
 62
   154
100
AcDbLine
 10
140.69963
 20
342.290602
 11
146.415735
 21
342.290602
  0
LINE
  5
10E
100
AcDbEntity
  8
M1
  6
CONTINUOUS
370
25
 62
   154
100
AcDbLine
 10
115.699629
 20
342.290602
 11
121.415734
 21
342.290602
  0
LINE
  5
10F
100
AcDbEntity
  8
M1
  6
DASHDOT
370
13
 62
     3
100
AcDbLine
 10
117.665734
 20
352.040597
 11
133.165735
 21
352.040597
  0
LINE
  5
110
100
AcDbEntity
  8
M1
  6
DASHDOT
370
13
 62
     3
100
AcDbLine
 10
117.665734
 20
462.540597
 11
133.165735
 21
462.540597
  0
LINE
  5
111
100
AcDbEntity
  8
M1
  6
CONTINUOUS
370
25
 62
     2
100
AcDbLine
 10
102.515735
 20
380.290597
 11
102.515735
 21
365.790597
  0
LINE
  5
112
100
AcDbEntity
  8
M1
  6
CONTINUOUS
370
25
 62
     2
100
AcDbLine
 10
149.415735
 20
372.690597
 11
134.215735
 21
372.690597
  0
LINE
  5
113
100
AcDbEntity
  8
M1
  6
CONTINUOUS
370
25
 62
     2
100
AcDbLine
 10
102.515735
 20
365.790597
 11
109.215735
 21
365.790597
  0
LINE
  5
114
100
AcDbEntity
  8
M1
  6
CONTINUOUS
370
25
 62
     2
100
AcDbLine
 10
109.215735
 20
372.690597
 11
109.215735
 21
365.790597
  0
LINE
  5
115
100
AcDbEntity
  8
M1
  6
CONTINUOUS
370
25
 62
     2
100
AcDbLine
 10
124.915735
 20
380.790597
 11
124.915735
 21
435.790597
  0
LINE
  5
116
100
AcDbEntity
  8
M1
  6
CONTINUOUS
370
25
 62
     2
100
AcDbLine
 10
134.215735
 20
365.790597
 11
134.215735
 21
372.690597
  0
LINE
  5
117
100
AcDbEntity
  8
M1
  6
CONTINUOUS
370
25
 62
     2
100
AcDbLine
 10
126.615735
 20
365.790597
 11
126.615735
 21
372.690597
  0
LINE
  5
118
100
AcDbEntity
  8
M1
  6
CONTINUOUS
370
25
 62
     2
100
AcDbLine
 10
102.515735
 20
372.038785
 11
109.215735
 21
372.038785
  0
LINE
  5
119
100
AcDbEntity
  8
M1
  6
CONTINUOUS
370
25
 62
     2
100
AcDbLine
 10
126.615735
 20
365.790597
 11
134.215735
 21
365.790597
  0
LINE
  5
11A
100
AcDbEntity
  8
M1
  6
CONTINUOUS
370
25
 62
     2
100
AcDbLine
 10
126.615735
 20
372.038785
 11
134.215735
 21
372.038785
  0
ARC
  5
11B
100
AcDbEntity
  8
M1
  6
CONTINUOUS
370
25
 62
     2
100
AcDbCircle
 10
149.415735
 20
448.290597
 40
1.0
100
AcDbArc
 50
0.0
 51
90.0
  0
ARC
  5
11C
100
AcDbEntity
  8
M1
  6
CONTINUOUS
370
25
 62
     2
100
AcDbCircle
 10
124.415735
 20
380.790597
 40
0.5
100
AcDbArc
 50
270.0
 51
360.0
  0
ARC
  5
11D
100
AcDbEntity
  8
M1
  6
CONTINUOUS
370
25
 62
     2
100
AcDbCircle
 10
145.915735
 20
429.790597
 40
1.0
100
AcDbArc
 50
0.0
 51
90.0
  0
ARC
  5
11E
100
AcDbEntity
  8
M1
  6
CONTINUOUS
370
25
 62
     2
100
AcDbCircle
 10
145.915735
 20
429.790597
 40
2.5
100
AcDbArc
 50
0.0
 51
90.0
  0
ARC
  5
11F
100
AcDbEntity
  8
M1
  6
CONTINUOUS
370
25
 62
     2
100
AcDbCircle
 10
145.915735
 20
384.790597
 40
2.5
100
AcDbArc
 50
270.0
 51
360.0
  0
CIRCLE
  5
120
100
AcDbEntity
  8
M1
  6
CONTINUOUS
370
25
 62
     2
100
AcDbCircle
 10
125.415735
 20
443.040597
 40
4.25
  0
LINE
  5
121
100
AcDbEntity
  8
M1
  6
CONTINUOUS
370
25
 62
     2
100
AcDbLine
 10
150.415737
 20
448.2906
 11
150.415737
 21
373.690597
  0
ARC
  5
122
100
AcDbEntity
  8
M1
  6
CONTINUOUS
370
25
 62
     2
100
AcDbCircle
 10
123.415735
 20
435.790597
 40
1.5
100
AcDbArc
 50
0.0
 51
90.0
  0
ARC
  5
123
100
AcDbEntity
  8
M1
  6
CONTINUOUS
370
25
 62
     2
100
AcDbCircle
 10
149.415735
 20
373.690597
 40
1.0
100
AcDbArc
 50
270.0
 51
360.0
  0
LINE
  5
124
100
AcDbEntity
  8
M1
  6
CONTINUOUS
370
25
 62
     2
100
AcDbLine
 10
123.415735
 20
437.2906
 11
102.415734
 21
437.2906
  0
ARC
  5
125
100
AcDbEntity
  8
M1
  6
CONTINUOUS
370
25
 62
     2
100
AcDbCircle
 10
145.915735
 20
384.790597
 40
1.0
100
AcDbArc
 50
270.0
 51
360.0
  0
LINE
  5
126
100
AcDbEntity
  8
M1
  6
CONTINUOUS
370
25
 62
     2
100
AcDbLine
 10
126.615735
 20
372.690597
 11
109.215735
 21
372.690597
  0
LINE
  5
127
100
AcDbEntity
  8
M1
  6
CONTINUOUS
370
25
 62
     2
100
AcDbLine
 10
102.515735
 20
449.290595
 11
102.515735
 21
437.2906
  0
LINE
  5
128
100
AcDbEntity
  8
M1
  6
CONTINUOUS
370
25
 62
     2
100
AcDbLine
 10
124.915735
 20
432.290597
 11
145.915735
 21
432.290597
  0
LINE
  5
129
100
AcDbEntity
  8
M1
  6
CONTINUOUS
370
25
 62
     2
100
AcDbLine
 10
148.415737
 20
429.790597
 11
148.415737
 21
384.790597
  0
LINE
  5
12A
100
AcDbEntity
  8
M1
  6
CONTINUOUS
370
25
 62
     2
100
AcDbLine
 10
145.915735
 20
389.290597
 11
145.915735
 21
384.790597
  0
LINE
  5
12B
100
AcDbEntity
  8
M1
  6
CONTINUOUS
370
25
 62
     2
100
AcDbLine
 10
146.915737
 20
384.790597
 11
146.915737
 21
429.790597
  0
LINE
  5
12C
100
AcDbEntity
  8
M1
  6
CONTINUOUS
370
25
 62
     2
100
AcDbLine
 10
102.515735
 20
449.290595
 11
149.415735
 21
449.290595
  0
LINE
  5
12D
100
AcDbEntity
  8
M1
  6
CONTINUOUS
370
25
 62
     2
100
AcDbLine
 10
102.515735
 20
380.290597
 11
124.415735
 21
380.290597
  0
LINE
  5
12E
100
AcDbEntity
  8
M1
  6
CONTINUOUS
370
25
 62
     2
100
AcDbLine
 10
124.915735
 20
383.790597
 11
145.915735
 21
383.790597
  0
LINE
  5
12F
100
AcDbEntity
  8
M1
  6
CONTINUOUS
370
25
 62
     2
100
AcDbLine
 10
141.415735
 20
384.790597
 11
141.415735
 21
389.290597
  0
LINE
  5
130
100
AcDbEntity
  8
M1
  6
CONTINUOUS
370
25
 62
     2
100
AcDbLine
 10
141.415735
 20
389.290597
 11
145.915735
 21
389.290597
  0
LINE
  5
131
100
AcDbEntity
  8
M1
  6
CONTINUOUS
370
25
 62
     2
100
AcDbLine
 10
145.915735
 20
382.290597
 11
124.915735
 21
382.290597
  0
LINE
  5
132
100
AcDbEntity
  8
M1
  6
CONTINUOUS
370
25
 62
     2
100
AcDbLine
 10
145.915735
 20
430.790597
 11
124.915735
 21
430.790597
  0
LINE
  5
133
100
AcDbEntity
  8
M1
  6
CONTINUOUS
370
25
 62
     2
100
AcDbLine
 10
145.915735
 20
384.790597
 11
141.415735
 21
384.790597
  0
CIRCLE
  5
134
100
AcDbEntity
  8
M1
  6
CONTINUOUS
370
25
100
AcDbCircle
 10
125.415735
 20
443.040597
 40
4.15
  0
CIRCLE
  5
135
100
AcDbEntity
  8
M1
  6
CONTINUOUS
370
25
100
AcDbCircle
 10
125.415735
 20
443.040597
 40
4.25
  0
LINE
  5
136
100
AcDbEntity
  8
M1
  6
CONTINUOUS
370
25
100
AcDbLine
 10
127.254205
 20
444.17196
 11
126.547097
 21
444.879065
  0
LINE
  5
137
100
AcDbEntity
  8
M1
  6
CONTINUOUS
370
25
100
AcDbLine
 10
125.415735
 20
442.33349
 11
126.54714
 21
441.202085
  0
LINE
  5
138
100
AcDbEntity
  8
M1
  6
CONTINUOUS
370
25
100
AcDbLine
 10
126.547097
 20
444.879065
 11
125.415735
 21
443.747705
  0
LINE
  5
139
100
AcDbEntity
  8
M1
  6
CONTINUOUS
370
25
100
AcDbLine
 10
124.284362
 20
441.202117
 11
125.415735
 21
442.33349
  0
LINE
  5
13A
100
AcDbEntity
  8
M1
  6
CONTINUOUS
370
25
100
AcDbLine
 10
123.577257
 20
441.909225
 11
124.284362
 21
441.202117
  0
LINE
  5
13B
100
AcDbEntity
  8
M1
  6
CONTINUOUS
370
25
100
AcDbLine
 10
124.70863
 20
443.040597
 11
123.577257
 21
441.909225
  0
LINE
  5
13C
100
AcDbEntity
  8
M1
  6
CONTINUOUS
370
25
100
AcDbLine
 10
127.254247
 20
441.909192
 11
126.122842
 21
443.040597
  0
LINE
  5
13D
100
AcDbEntity
  8
M1
  6
CONTINUOUS
370
25
100
AcDbLine
 10
126.122842
 20
443.040597
 11
127.254205
 21
444.17196
  0
LINE
  5
13E
100
AcDbEntity
  8
M1
  6
CONTINUOUS
370
25
100
AcDbLine
 10
124.28433
 20
444.87911
 11
123.577225
 21
444.172002
  0
LINE
  5
13F
100
AcDbEntity
  8
M1
  6
CONTINUOUS
370
25
100
AcDbLine
 10
126.54714
 20
441.202085
 11
127.254247
 21
441.909192
  0
LINE
  5
140
100
AcDbEntity
  8
M1
  6
CONTINUOUS
370
25
100
AcDbLine
 10
123.577225
 20
444.172002
 11
124.70863
 21
443.040597
  0
LINE
  5
141
100
AcDbEntity
  8
M1
  6
CONTINUOUS
370
25
100
AcDbLine
 10
125.415735
 20
443.747705
 11
124.28433
 21
444.87911
  0
LINE
  5
142
100
AcDbEntity
  8
M1
  6
CONTINUOUS
370
25
100
AcDbLine
 10
126.440735
 20
453.390597
 11
126.840735
 21
453.390597
  0
CIRCLE
  5
143
100
AcDbEntity
  8
M1
  6
CONTINUOUS
370
25
100
AcDbCircle
 10
125.415735
 20
453.090597
 40
2.75
  0
LINE
  5
144
100
AcDbEntity
  8
M1
  6
CONTINUOUS
370
25
100
AcDbLine
 10
124.015735
 20
452.790597
 11
124.390735
 21
452.790597
  0
LINE
  5
145
100
AcDbEntity
  8
M1
  6
CONTINUOUS
370
25
100
AcDbLine
 10
126.840735
 20
453.390597
 11
126.840735
 21
452.790597
  0
LINE
  5
146
100
AcDbEntity
  8
M1
  6
CONTINUOUS
370
25
100
AcDbLine
 10
124.015735
 20
453.390597
 11
124.390735
 21
453.390597
  0
ARC
  5
147
100
AcDbEntity
  8
M1
  6
CONTINUOUS
370
25
100
AcDbCircle
 10
126.440735
 20
452.065597
 40
0.725
100
AcDbArc
 50
90.0
 51
180.0
  0
ARC
  5
148
100
AcDbEntity
  8
M1
  6
CONTINUOUS
370
25
100
AcDbCircle
 10
124.390735
 20
454.115597
 40
0.725
100
AcDbArc
 50
270.0
 51
360.0
  0
ARC
  5
149
100
AcDbEntity
  8
M1
  6
CONTINUOUS
370
25
100
AcDbCircle
 10
126.440735
 20
454.115597
 40
0.725
100
AcDbArc
 50
180.0
 51
270.0
  0
LINE
  5
14A
100
AcDbEntity
  8
M1
  6
CONTINUOUS
370
25
100
AcDbLine
 10
125.715735
 20
454.490597
 11
125.715735
 21
454.094237
  0
LINE
  5
14B
100
AcDbEntity
  8
M1
  6
CONTINUOUS
370
25
100
AcDbLine
 10
124.015735
 20
453.390597
 11
124.015735
 21
452.790597
  0
LINE
  5
14C
100
AcDbEntity
  8
M1
  6
CONTINUOUS
370
25
100
AcDbLine
 10
125.715735
 20
451.690597
 11
125.715735
 21
452.086957
  0
LINE
  5
14D
100
AcDbEntity
  8
M1
  6
CONTINUOUS
370
25
100
AcDbLine
 10
125.115735
 20
454.490597
 11
125.115735
 21
454.094237
  0
LINE
  5
14E
100
AcDbEntity
  8
M1
  6
CONTINUOUS
370
25
100
AcDbLine
 10
125.115735
 20
451.690597
 11
125.115735
 21
452.086957
  0
LINE
  5
14F
100
AcDbEntity
  8
M1
  6
CONTINUOUS
370
25
100
AcDbLine
 10
125.115735
 20
454.490597
 11
125.715735
 21
454.490597
  0
ARC
  5
150
100
AcDbEntity
  8
M1
  6
CONTINUOUS
370
25
100
AcDbCircle
 10
124.390735
 20
452.065597
 40
0.725
100
AcDbArc
 50
0.0
 51
90.0
  0
LINE
  5
151
100
AcDbEntity
  8
M1
  6
CONTINUOUS
370
25
100
AcDbLine
 10
126.440735
 20
452.790597
 11
126.840735
 21
452.790597
  0
LINE
  5
152
100
AcDbEntity
  8
M1
  6
CONTINUOUS
370
25
100
AcDbLine
 10
125.115735
 20
451.690597
 11
125.715735
 21
451.690597
  0
LINE
  5
153
100
AcDbEntity
  8
M1
  6
CONTINUOUS
370
25
100
AcDbLine
 10
148.640735
 20
361.340597
 11
149.040735
 21
361.340597
  0
CIRCLE
  5
154
100
AcDbEntity
  8
M1
  6
CONTINUOUS
370
25
100
AcDbCircle
 10
147.615735
 20
361.040597
 40
2.75
  0
LINE
  5
155
100
AcDbEntity
  8
M1
  6
CONTINUOUS
370
25
100
AcDbLine
 10
146.215735
 20
360.740597
 11
146.590735
 21
360.740597
  0
LINE
  5
156
100
AcDbEntity
  8
M1
  6
CONTINUOUS
370
25
100
AcDbLine
 10
149.040735
 20
361.340597
 11
149.040735
 21
360.740597
  0
LINE
  5
157
100
AcDbEntity
  8
M1
  6
CONTINUOUS
370
25
100
AcDbLine
 10
146.215735
 20
361.340597
 11
146.590735
 21
361.340597
  0
ARC
  5
158
100
AcDbEntity
  8
M1
  6
CONTINUOUS
370
25
100
AcDbCircle
 10
148.640735
 20
360.015597
 40
0.725
100
AcDbArc
 50
90.0
 51
180.0
  0
ARC
  5
159
100
AcDbEntity
  8
M1
  6
CONTINUOUS
370
25
100
AcDbCircle
 10
146.590735
 20
362.065597
 40
0.725
100
AcDbArc
 50
270.0
 51
360.0
  0
ARC
  5
15A
100
AcDbEntity
  8
M1
  6
CONTINUOUS
370
25
100
AcDbCircle
 10
148.640735
 20
362.065597
 40
0.725
100
AcDbArc
 50
180.0
 51
270.0
  0
LINE
  5
15B
100
AcDbEntity
  8
M1
  6
CONTINUOUS
370
25
100
AcDbLine
 10
147.915735
 20
362.440597
 11
147.915735
 21
362.044237
  0
LINE
  5
15C
100
AcDbEntity
  8
M1
  6
CONTINUOUS
370
25
100
AcDbLine
 10
146.215735
 20
361.340597
 11
146.215735
 21
360.740597
  0
LINE
  5
15D
100
AcDbEntity
  8
M1
  6
CONTINUOUS
370
25
100
AcDbLine
 10
147.915735
 20
359.640597
 11
147.915735
 21
360.036957
  0
LINE
  5
15E
100
AcDbEntity
  8
M1
  6
CONTINUOUS
370
25
100
AcDbLine
 10
147.315735
 20
362.440597
 11
147.315735
 21
362.044237
  0
LINE
  5
15F
100
AcDbEntity
  8
M1
  6
CONTINUOUS
370
25
100
AcDbLine
 10
147.315735
 20
359.640597
 11
147.315735
 21
360.036957
  0
LINE
  5
160
100
AcDbEntity
  8
M1
  6
CONTINUOUS
370
25
100
AcDbLine
 10
147.315735
 20
362.440597
 11
147.915735
 21
362.440597
  0
ARC
  5
161
100
AcDbEntity
  8
M1
  6
CONTINUOUS
370
25
100
AcDbCircle
 10
146.590735
 20
360.015597
 40
0.725
100
AcDbArc
 50
0.0
 51
90.0
  0
LINE
  5
162
100
AcDbEntity
  8
M1
  6
CONTINUOUS
370
25
100
AcDbLine
 10
148.640735
 20
360.740597
 11
149.040735
 21
360.740597
  0
LINE
  5
163
100
AcDbEntity
  8
M1
  6
CONTINUOUS
370
25
100
AcDbLine
 10
147.315735
 20
359.640597
 11
147.915735
 21
359.640597
  0
LINE
  5
164
100
AcDbEntity
  8
M1
  6
CONTINUOUS
370
25
100
AcDbLine
 10
104.240734
 20
361.340597
 11
104.640735
 21
361.340597
  0
CIRCLE
  5
165
100
AcDbEntity
  8
M1
  6
CONTINUOUS
370
25
100
AcDbCircle
 10
103.215735
 20
361.040597
 40
2.75
  0
LINE
  5
166
100
AcDbEntity
  8
M1
  6
CONTINUOUS
370
25
100
AcDbLine
 10
101.815735
 20
360.740597
 11
102.190735
 21
360.740597
  0
LINE
  5
167
100
AcDbEntity
  8
M1
  6
CONTINUOUS
370
25
100
AcDbLine
 10
104.640735
 20
361.340597
 11
104.640735
 21
360.740597
  0
LINE
  5
168
100
AcDbEntity
  8
M1
  6
CONTINUOUS
370
25
100
AcDbLine
 10
101.815735
 20
361.340597
 11
102.190735
 21
361.340597
  0
ARC
  5
169
100
AcDbEntity
  8
M1
  6
CONTINUOUS
370
25
100
AcDbCircle
 10
104.240734
 20
360.015597
 40
0.725
100
AcDbArc
 50
90.0
 51
180.0
  0
ARC
  5
16A
100
AcDbEntity
  8
M1
  6
CONTINUOUS
370
25
100
AcDbCircle
 10
102.190735
 20
362.065597
 40
0.725
100
AcDbArc
 50
270.0
 51
360.0
  0
ARC
  5
16B
100
AcDbEntity
  8
M1
  6
CONTINUOUS
370
25
100
AcDbCircle
 10
104.240734
 20
362.065597
 40
0.725
100
AcDbArc
 50
180.0
 51
270.0
  0
LINE
  5
16C
100
AcDbEntity
  8
M1
  6
CONTINUOUS
370
25
100
AcDbLine
 10
103.515735
 20
362.440597
 11
103.515735
 21
362.044237
  0
LINE
  5
16D
100
AcDbEntity
  8
M1
  6
CONTINUOUS
370
25
100
AcDbLine
 10
101.815735
 20
361.340597
 11
101.815735
 21
360.740597
  0
LINE
  5
16E
100
AcDbEntity
  8
M1
  6
CONTINUOUS
370
25
100
AcDbLine
 10
103.515735
 20
359.640597
 11
103.515735
 21
360.036957
  0
LINE
  5
16F
100
AcDbEntity
  8
M1
  6
CONTINUOUS
370
25
100
AcDbLine
 10
102.915734
 20
362.440597
 11
102.915734
 21
362.044237
  0
LINE
  5
170
100
AcDbEntity
  8
M1
  6
CONTINUOUS
370
25
100
AcDbLine
 10
102.915734
 20
359.640597
 11
102.915734
 21
360.036957
  0
LINE
  5
171
100
AcDbEntity
  8
M1
  6
CONTINUOUS
370
25
100
AcDbLine
 10
102.915734
 20
362.440597
 11
103.515735
 21
362.440597
  0
ARC
  5
172
100
AcDbEntity
  8
M1
  6
CONTINUOUS
370
25
100
AcDbCircle
 10
102.190735
 20
360.015597
 40
0.725
100
AcDbArc
 50
0.0
 51
90.0
  0
LINE
  5
173
100
AcDbEntity
  8
M1
  6
CONTINUOUS
370
25
100
AcDbLine
 10
104.240734
 20
360.740597
 11
104.640735
 21
360.740597
  0
LINE
  5
174
100
AcDbEntity
  8
M1
  6
CONTINUOUS
370
25
100
AcDbLine
 10
102.915734
 20
359.640597
 11
103.515735
 21
359.640597
  0
LINE
  5
175
100
AcDbEntity
  8
M1
  6
CONTINUOUS
370
25
 62
   234
100
AcDbLine
 10
149.851625
 20
372.790597
 11
150.415737
 21
372.790597
  0
LINE
  5
176
100
AcDbEntity
  8
M1
  6
CONTINUOUS
370
25
 62
   234
100
AcDbLine
 10
151.415735
 20
397.290595
 11
151.415735
 21
398.290597
  0
ARC
  5
177
100
AcDbEntity
  8
M1
  6
CONTINUOUS
370
25
 62
   234
100
AcDbCircle
 10
100.415734
 20
448.290597
 40
1.0
100
AcDbArc
 50
90.0
 51
180.0
  0
LINE
  5
178
100
AcDbEntity
  8
M1
  6
CONTINUOUS
370
25
 62
   234
100
AcDbLine
 10
102.415734
 20
449.290597
 11
102.415734
 21
436.790595
  0
LINE
  5
179
100
AcDbEntity
  8
M1
  6
CONTINUOUS
370
25
 62
   234
100
AcDbLine
 10
100.415734
 20
449.290597
 11
102.415734
 21
449.290597
  0
LINE
  5
17A
100
AcDbEntity
  8
M1
  6
CONTINUOUS
370
25
 62
   234
100
AcDbLine
 10
99.415734
 20
347.490597
 11
99.415734
 21
467.090597
  0
LINE
  5
17B
100
AcDbEntity
  8
M1
  6
CONTINUOUS
370
25
 62
   234
100
AcDbLine
 10
102.415734
 20
380.7906
 11
102.415734
 21
365.7906
  0
ARC
  5
17C
100
AcDbEntity
  8
M1
  6
CONTINUOUS
370
25
 62
   234
100
AcDbCircle
 10
100.415734
 20
383.290595
 40
1.0
100
AcDbArc
 50
180.0
 51
270.0
  0
SPLINE
  5
17D
100
AcDbEntity
  8
M1
  6
CONTINUOUS
370
25
 62
   234
100
AcDbSpline
210
0.0
220
0.0
230
-1.0
 70
     8
 71
     3
 72
    65
 73
    61
 43
0.0000001
 40
0.0
 40
0.0
 40
0.0
 40
0.0
 40
1.0
 40
1.0
 40
1.0
 40
2.0
 40
2.0
 40
2.0
 40
3.0
 40
3.0
 40
3.0
 40
4.0
 40
4.0
 40
4.0
 40
5.0
 40
5.0
 40
5.0
 40
6.0
 40
6.0
 40
6.0
 40
7.0
 40
7.0
 40
7.0
 40
8.0
 40
8.0
 40
8.0
 40
9.0
 40
9.0
 40
9.0
 40
10.0
 40
10.0
 40
10.0
 40
11.0
 40
11.0
 40
11.0
 40
12.0
 40
12.0
 40
12.0
 40
13.0
 40
13.0
 40
13.0
 40
14.0
 40
14.0
 40
14.0
 40
15.0
 40
15.0
 40
15.0
 40
16.0
 40
16.0
 40
16.0
 40
17.0
 40
17.0
 40
17.0
 40
18.0
 40
18.0
 40
18.0
 40
19.0
 40
19.0
 40
19.0
 40
20.0
 40
20.0
 40
20.0
 40
20.0
 10
144.892025
 20
359.267492
 10
144.916665
 20
359.230567
 10
144.941305
 20
359.193647
 10
144.966797
 20
359.157555
 10
144.992287
 20
359.12146
 10
145.018625
 20
359.086207
 10
145.044795
 20
359.05234
 10
145.070965
 20
359.018472
 10
145.096967
 20
358.986002
 10
145.126142
 20
358.951422
 10
145.15532
 20
358.916842
 10
145.187667
 20
358.880165
 10
145.210965
 20
358.854375
 10
145.228425
 20
358.835045
 10
145.2408
 20
358.821837
 10
145.254752
 20
358.807152
 10
145.268705
 20
358.792467
 10
145.284232
 20
358.776315
 10
145.299567
 20
358.760707
 10
145.314902
 20
358.745102
 10
145.330047
 20
358.730045
 10
145.34547
 20
358.714997
 10
145.360892
 20
358.69995
 10
145.376592
 20
358.684917
 10
145.392527
 20
358.669977
 10
145.40846
 20
358.655037
 10
145.42463
 20
358.640192
 10
145.440882
 20
358.625552
 10
145.457135
 20
358.610912
 10
145.473477
 20
358.596477
 10
145.49044
 20
358.581842
 10
145.5074
 20
358.567207
 10
145.52499
 20
358.55237
 10
145.540885
 20
358.539115
 10
145.556777
 20
358.52586
 10
145.570987
 20
358.51418
 10
145.591907
 20
358.497642
 10
145.61947
 20
358.475855
 10
145.65869
 20
358.445632
 10
145.695152
 20
358.418752
 10
145.731612
 20
358.391872
 10
145.76533
 20
358.368332
 10
145.80021
 20
358.344907
 10
145.83509
 20
358.321485
 10
145.87114
 20
358.29818
 10
145.907345
 20
358.2758
 10
145.94355
 20
358.253417
 10
145.97992
 20
358.231957
 10
146.016815
 20
358.211117
 10
146.05371
 20
358.190277
 10
146.091135
 20
358.170065
 10
146.129062
 20
358.150557
 10
146.16699
 20
358.131052
 10
146.205427
 20
358.112257
 10
146.244327
 20
358.09411
 10
146.283227
 20
358.075965
 10
146.322592
 20
358.058472
 10
146.362575
 20
358.041912
 10
146.402557
 20
358.025352
 10
146.443162
 20
358.009727
 10
146.483767
 20
357.9941
  0
SPLINE
  5
17E
100
AcDbEntity
  8
M1
  6
CONTINUOUS
370
25
 62
   234
100
AcDbSpline
210
0.0
220
0.0
230
-1.0
 70
     8
 71
     3
 72
     8
 73
     4
 43
0.0000001
 40
0.0
 40
0.0
 40
0.0
 40
0.0
 40
1.0
 40
1.0
 40
1.0
 40
1.0
 10
129.415735
 20
354.602335
 10
129.451757
 20
354.54609
 10
129.484875
 20
354.488225
 10
129.515735
 20
354.429092
  0
SPLINE
  5
17F
100
AcDbEntity
  8
M1
  6
CONTINUOUS
370
25
 62
   234
100
AcDbSpline
210
0.0
220
0.0
230
-1.0
 70
     8
 71
     3
 72
     8
 73
     4
 43
0.0000001
 40
0.0
 40
0.0
 40
0.0
 40
0.0
 40
1.0
 40
1.0
 40
1.0
 40
1.0
 10
121.315735
 20
354.429092
 10
121.346595
 20
354.488225
 10
121.379715
 20
354.54609
 10
121.415734
 20
354.602335
  0
ARC
  5
180
100
AcDbEntity
  8
M1
  6
CONTINUOUS
370
25
 62
   234
100
AcDbCircle
 10
150.915737
 20
357.290595
 40
0.5
100
AcDbArc
 50
0.0
 51
90.0
  0
ARC
  5
181
100
AcDbEntity
  8
M1
  6
CONTINUOUS
370
25
 62
   234
100
AcDbCircle
 10
125.415735
 20
352.040597
 40
4.25
100
AcDbArc
 50
15.26773
 51
164.73227
  0
LINE
  5
182
100
AcDbEntity
  8
M1
  6
CONTINUOUS
370
25
 62
   234
100
AcDbLine
 10
150.915735
 20
346.990592
 11
150.065737
 21
346.990592
  0
LINE
  5
183
100
AcDbEntity
  8
M1
  6
CONTINUOUS
370
25
 62
   234
100
AcDbLine
 10
126.265735
 20
346.990592
 11
124.565735
 21
346.990592
  0
LINE
  5
184
100
AcDbEntity
  8
M1
  6
CONTINUOUS
370
25
 62
   234
100
AcDbLine
 10
124.065735
 20
346.490597
 11
124.065735
 21
345.290592
  0
LINE
  5
185
100
AcDbEntity
  8
M1
  6
CONTINUOUS
370
25
 62
   234
100
AcDbLine
 10
121.315735
 20
354.429095
 11
121.315735
 21
349.652102
  0
LINE
  5
186
100
AcDbEntity
  8
M1
  6
CONTINUOUS
370
25
 62
   234
100
AcDbLine
 10
120.415735
 20
343.290597
 11
120.415735
 21
355.7906
  0
LINE
  5
187
100
AcDbEntity
  8
M1
  6
CONTINUOUS
370
25
 62
   234
100
AcDbLine
 10
105.415735
 20
355.7906
 11
105.415735
 21
343.290597
  0
LINE
  5
188
100
AcDbEntity
  8
M1
  6
CONTINUOUS
370
25
 62
   234
100
AcDbLine
 10
129.515735
 20
349.652102
 11
129.515735
 21
354.429095
  0
LINE
  5
189
100
AcDbEntity
  8
M1
  6
CONTINUOUS
370
25
 62
   234
100
AcDbLine
 10
130.415735
 20
355.7906
 11
130.415735
 21
343.290597
  0
ARC
  5
18A
100
AcDbEntity
  8
M1
  6
CONTINUOUS
370
25
 62
   234
100
AcDbCircle
 10
150.915737
 20
364.790595
 40
0.5
100
AcDbArc
 50
270.0
 51
360.0
  0
LINE
  5
18B
100
AcDbEntity
  8
M1
  6
CONTINUOUS
370
25
 62
   234
100
AcDbLine
 10
118.415734
 20
357.790597
 11
107.415734
 21
357.790597
  0
LINE
  5
18C
100
AcDbEntity
  8
M1
  6
CONTINUOUS
370
25
 62
   234
100
AcDbLine
 10
147.615735
 20
357.790597
 11
150.915737
 21
357.790597
  0
LINE
  5
18D
100
AcDbEntity
  8
M1
  6
CONTINUOUS
370
25
 62
   234
100
AcDbLine
 10
143.415737
 20
357.790597
 11
132.415737
 21
357.790597
  0
ARC
  5
18E
100
AcDbEntity
  8
M1
  6
CONTINUOUS
370
25
 62
   234
100
AcDbCircle
 10
107.415734
 20
355.790597
 40
2.0
100
AcDbArc
 50
90.0
 51
180.0
  0
ARC
  5
18F
100
AcDbEntity
  8
M1
  6
CONTINUOUS
370
25
 62
   234
100
AcDbCircle
 10
143.415735
 20
355.790597
 40
2.0
100
AcDbArc
 50
0.0
 51
90.0
  0
ARC
  5
190
100
AcDbEntity
  8
M1
  6
CONTINUOUS
370
25
 62
   234
100
AcDbCircle
 10
147.615735
 20
361.040597
 40
3.25
100
AcDbArc
 50
249.61673
 51
270.0
  0
ARC
  5
191
100
AcDbEntity
  8
M1
  6
CONTINUOUS
370
25
 62
   234
100
AcDbCircle
 10
118.415734
 20
355.790597
 40
2.0
100
AcDbArc
 50
0.0
 51
90.0
  0
ARC
  5
192
100
AcDbEntity
  8
M1
  6
CONTINUOUS
370
25
 62
   234
100
AcDbCircle
 10
132.415735
 20
355.790597
 40
2.0
100
AcDbArc
 50
90.0
 51
180.0
  0
LINE
  5
193
100
AcDbEntity
  8
M1
  6
CONTINUOUS
370
25
 62
   234
100
AcDbLine
 10
126.765735
 20
345.290592
 11
126.765735
 21
346.490597
  0
LINE
  5
194
100
AcDbEntity
  8
M1
  6
CONTINUOUS
370
25
 62
   234
100
AcDbLine
 10
101.165734
 20
342.290602
 11
104.415734
 21
342.290602
  0
ARC
  5
195
100
AcDbEntity
  8
M1
  6
CONTINUOUS
370
25
 62
   234
100
AcDbCircle
 10
150.915735
 20
347.490597
 40
0.5
100
AcDbArc
 50
270.0
 51
360.0
  0
CIRCLE
  5
196
100
AcDbEntity
  8
M1
  6
CONTINUOUS
370
25
 62
   234
100
AcDbCircle
 10
125.415735
 20
453.090597
 40
3.25
  0
ARC
  5
197
100
AcDbEntity
  8
M1
  6
CONTINUOUS
370
25
 62
   234
100
AcDbCircle
 10
143.415735
 20
459.290597
 40
2.0
100
AcDbArc
 50
270.0
 51
360.0
  0
ARC
  5
198
100
AcDbEntity
  8
M1
  6
CONTINUOUS
370
25
 62
   234
100
AcDbCircle
 10
132.415735
 20
459.290597
 40
2.0
100
AcDbArc
 50
180.0
 51
270.0
  0
LINE
  5
199
100
AcDbEntity
  8
M1
  6
CONTINUOUS
370
25
 62
   234
100
AcDbLine
 10
126.415737
 20
372.690597
 11
126.415737
 21
365.7906
  0
LINE
  5
19A
100
AcDbEntity
  8
M1
  6
CONTINUOUS
370
25
 62
   234
100
AcDbLine
 10
150.915737
 20
364.290595
 11
147.615735
 21
364.290595
  0
LINE
  5
19B
100
AcDbEntity
  8
M1
  6
CONTINUOUS
370
25
 62
   234
100
AcDbLine
 10
134.415737
 20
372.690597
 11
134.415737
 21
365.7906
  0
LINE
  5
19C
100
AcDbEntity
  8
M1
  6
CONTINUOUS
370
25
 62
   234
100
AcDbLine
 10
109.415734
 20
372.690597
 11
109.415734
 21
365.7906
  0
ARC
  5
19D
100
AcDbEntity
  8
M1
  6
CONTINUOUS
370
25
 62
   234
100
AcDbCircle
 10
125.415735
 20
352.040597
 40
4.75
100
AcDbArc
 50
32.636898
 51
147.363102
  0
ARC
  5
19E
100
AcDbEntity
  8
M1
  6
CONTINUOUS
370
25
 62
   234
100
AcDbCircle
 10
147.615735
 20
361.040597
 40
3.25
100
AcDbArc
 50
90.0
 51
213.063653
  0
LINE
  5
19F
100
AcDbEntity
  8
M1
  6
CONTINUOUS
370
25
 62
   234
100
AcDbLine
 10
102.515735
 20
378.2906
 11
102.415734
 21
378.2906
  0
ARC
  5
1A0
100
AcDbEntity
  8
M1
  6
CONTINUOUS
370
25
 62
   234
100
AcDbCircle
 10
123.665735
 20
471.790597
 40
0.5
100
AcDbArc
 50
0.0
 51
90.0
  0
ARC
  5
1A1
100
AcDbEntity
  8
M1
  6
CONTINUOUS
370
25
 62
   234
100
AcDbCircle
 10
127.165735
 20
342.790597
 40
0.5
100
AcDbArc
 50
180.0
 51
270.0
  0
ARC
  5
1A2
100
AcDbEntity
  8
M1
  6
CONTINUOUS
370
25
 62
   234
100
AcDbCircle
 10
149.665735
 20
471.790597
 40
0.5
100
AcDbArc
 50
0.0
 51
90.0
  0
ARC
  5
1A3
100
AcDbEntity
  8
M1
  6
CONTINUOUS
370
25
 62
   234
100
AcDbCircle
 10
127.165735
 20
471.790597
 40
0.5
100
AcDbArc
 50
90.0
 51
180.0
  0
ARC
  5
1A4
100
AcDbEntity
  8
M1
  6
CONTINUOUS
370
25
 62
   234
100
AcDbCircle
 10
123.665735
 20
342.790597
 40
0.5
100
AcDbArc
 50
270.0
 51
360.0
  0
ARC
  5
1A5
100
AcDbEntity
  8
M1
  6
CONTINUOUS
370
25
 62
   234
100
AcDbCircle
 10
149.665735
 20
342.790597
 40
0.5
100
AcDbArc
 50
270.0
 51
360.0
  0
LINE
  5
1A6
100
AcDbEntity
  8
M1
  6
CONTINUOUS
370
25
 62
   234
100
AcDbLine
 10
123.665737
 20
342.290602
 11
121.415737
 21
342.290602
  0
LINE
  5
1A7
100
AcDbEntity
  8
M1
  6
CONTINUOUS
370
25
 62
   234
100
AcDbLine
 10
126.765735
 20
344.832217
 11
126.765735
 21
345.290592
  0
LINE
  5
1A8
100
AcDbEntity
  8
M1
  6
CONTINUOUS
370
25
 62
   234
100
AcDbLine
 10
149.665735
 20
342.290602
 11
146.415737
 21
342.290602
  0
ARC
  5
1A9
100
AcDbEntity
  8
M1
  6
CONTINUOUS
370
25
 62
   234
100
AcDbCircle
 10
129.415735
 20
343.290597
 40
1.0
100
AcDbArc
 50
270.0
 51
360.0
  0
LINE
  5
1AA
100
AcDbEntity
  8
M1
  6
CONTINUOUS
370
25
 62
   234
100
AcDbLine
 10
150.065737
 20
346.990592
 11
150.065737
 21
344.832222
  0
ARC
  5
1AB
100
AcDbEntity
  8
M1
  6
CONTINUOUS
370
25
 62
   234
100
AcDbCircle
 10
121.415734
 20
343.290597
 40
1.0
100
AcDbArc
 50
180.0
 51
270.0
  0
LINE
  5
1AC
100
AcDbEntity
  8
M1
  6
CONTINUOUS
370
25
 62
   234
100
AcDbLine
 10
129.415735
 20
342.290602
 11
127.165735
 21
342.290602
  0
ARC
  5
1AD
100
AcDbEntity
  8
M1
  6
CONTINUOUS
370
25
 62
   234
100
AcDbCircle
 10
104.415734
 20
343.290597
 40
1.0
100
AcDbArc
 50
270.0
 51
360.0
  0
ARC
  5
1AE
100
AcDbEntity
  8
M1
  6
CONTINUOUS
370
25
 62
   234
100
AcDbCircle
 10
146.415735
 20
343.290597
 40
1.0
100
AcDbArc
 50
180.0
 51
270.0
  0
LINE
  5
1AF
100
AcDbEntity
  8
M1
  6
CONTINUOUS
370
25
 62
   234
100
AcDbLine
 10
124.065735
 20
345.290592
 11
124.065735
 21
344.832217
  0
LINE
  5
1B0
100
AcDbEntity
  8
M1
  6
CONTINUOUS
370
25
 62
   234
100
AcDbLine
 10
128.609872
 20
452.490597
 11
128.569167
 21
452.490597
  0
LINE
  5
1B1
100
AcDbEntity
  8
M1
  6
CONTINUOUS
370
25
 62
   234
100
AcDbLine
 10
128.569167
 20
452.30423
 11
128.569167
 21
452.490597
  0
LINE
  5
1B2
100
AcDbEntity
  8
M1
  6
CONTINUOUS
370
25
 62
   234
100
AcDbLine
 10
126.665735
 20
471.183417
 11
126.665735
 21
471.790597
  0
LINE
  5
1B3
100
AcDbEntity
  8
M1
  6
CONTINUOUS
370
25
 62
   234
100
AcDbLine
 10
124.165737
 20
343.397772
 11
124.165737
 21
342.790595
  0
LINE
  5
1B4
100
AcDbEntity
  8
M1
  6
CONTINUOUS
370
25
 62
   234
100
AcDbLine
 10
126.665735
 20
342.790595
 11
126.665735
 21
343.397772
  0
LINE
  5
1B5
100
AcDbEntity
  8
M1
  6
CONTINUOUS
370
25
 62
   234
100
AcDbLine
 10
150.165735
 20
471.790597
 11
150.165735
 21
471.183417
  0
LINE
  5
1B6
100
AcDbEntity
  8
M1
  6
CONTINUOUS
370
25
 62
   234
100
AcDbLine
 10
150.165735
 20
343.39778
 11
150.165735
 21
342.790595
  0
LINE
  5
1B7
100
AcDbEntity
  8
M1
  6
CONTINUOUS
370
25
 62
   234
100
AcDbLine
 10
124.165737
 20
471.790597
 11
124.165737
 21
471.183417
  0
ARC
  5
1B8
100
AcDbEntity
  8
M1
  6
CONTINUOUS
370
25
 62
   234
100
AcDbCircle
 10
125.415735
 20
352.040597
 40
4.25
100
AcDbArc
 50
195.26773
 51
344.73227
  0
ARC
  5
1B9
100
AcDbEntity
  8
M1
  6
CONTINUOUS
370
25
 62
   234
100
AcDbCircle
 10
125.415735
 20
352.040597
 40
4.75
100
AcDbArc
 50
212.636898
 51
255.717979
  0
SPLINE
  5
1BA
100
AcDbEntity
  8
M1
  6
CONTINUOUS
370
25
 62
   234
100
AcDbSpline
210
0.0
220
0.0
230
-1.0
 70
     8
 71
     3
 72
    29
 73
    25
 43
0.0000001
 40
0.0
 40
0.0
 40
0.0
 40
0.0
 40
1.0
 40
1.0
 40
1.0
 40
2.0
 40
2.0
 40
2.0
 40
3.0
 40
3.0
 40
3.0
 40
4.0
 40
4.0
 40
4.0
 40
5.0
 40
5.0
 40
5.0
 40
6.0
 40
6.0
 40
6.0
 40
7.0
 40
7.0
 40
7.0
 40
8.0
 40
8.0
 40
8.0
 40
8.0
 10
126.265735
 20
347.379885
 10
126.195235
 20
347.370312
 10
126.124732
 20
347.360747
 10
126.054122
 20
347.352985
 10
125.983512
 20
347.345222
 10
125.912795
 20
347.339272
 10
125.842005
 20
347.334515
 10
125.771215
 20
347.329755
 10
125.700355
 20
347.326197
 10
125.629407
 20
347.32387
 10
125.558462
 20
347.32154
 10
125.48743
 20
347.320447
 10
125.416355
 20
347.32044
 10
125.345282
 20
347.320435
 10
125.274167
 20
347.321525
 10
125.2031
 20
347.323847
 10
125.132032
 20
347.32617
 10
125.061012
 20
347.32974
 10
124.99006
 20
347.334497
 10
124.919107
 20
347.339257
 10
124.848222
 20
347.345217
 10
124.777512
 20
347.35298
 10
124.706805
 20
347.360742
 10
124.63627
 20
347.370317
 10
124.565735
 20
347.379885
  0
SPLINE
  5
1BB
100
AcDbEntity
  8
M1
  6
CONTINUOUS
370
25
 62
   234
100
AcDbSpline
210
0.0
220
0.0
230
-1.0
 70
     8
 71
     3
 72
     8
 73
     4
 43
0.0000001
 40
0.0
 40
0.0
 40
0.0
 40
0.0
 40
1.0
 40
1.0
 40
1.0
 40
1.0
 10
124.565735
 20
347.379885
 10
124.45788
 20
347.395865
 10
124.349965
 20
347.410412
 10
124.243935
 20
347.437405
  0
SPLINE
  5
1BC
100
AcDbEntity
  8
M1
  6
CONTINUOUS
370
25
 62
   234
100
AcDbSpline
210
0.0
220
0.0
230
-1.0
 70
     8
 71
     3
 72
     8
 73
     4
 43
0.0000001
 40
0.0
 40
0.0
 40
0.0
 40
0.0
 40
1.0
 40
1.0
 40
1.0
 40
1.0
 10
129.515735
 20
349.652102
 10
129.484875
 20
349.592967
 10
129.451757
 20
349.535105
 10
129.415735
 20
349.47886
  0
SPLINE
  5
1BD
100
AcDbEntity
  8
M1
  6
CONTINUOUS
370
25
 62
   234
100
AcDbSpline
210
0.0
220
0.0
230
-1.0
 70
     8
 71
     3
 72
     8
 73
     4
 43
0.0000001
 40
0.0
 40
0.0
 40
0.0
 40
0.0
 40
1.0
 40
1.0
 40
1.0
 40
1.0
 10
121.415734
 20
349.47886
 10
121.379715
 20
349.535105
 10
121.346595
 20
349.592967
 10
121.315735
 20
349.652102
  0
ARC
  5
1BE
100
AcDbEntity
  8
M1
  6
CONTINUOUS
370
25
 62
   234
100
AcDbCircle
 10
124.565735
 20
346.490597
 40
0.5
100
AcDbArc
 50
90.0
 51
180.0
  0
ARC
  5
1BF
100
AcDbEntity
  8
M1
  6
CONTINUOUS
370
25
 62
   234
100
AcDbCircle
 10
126.265735
 20
346.490597
 40
0.5
100
AcDbArc
 50
0.0
 51
90.0
  0
LINE
  5
1C0
100
AcDbEntity
  8
M1
  6
CONTINUOUS
370
25
 62
   234
100
AcDbLine
 10
145.415735
 20
459.290597
 11
145.415735
 21
471.290597
  0
ARC
  5
1C1
100
AcDbEntity
  8
M1
  6
CONTINUOUS
370
25
 62
   234
100
AcDbCircle
 10
125.415735
 20
352.040597
 40
4.75
100
AcDbArc
 50
284.282021
 51
327.363102
  0
SPLINE
  5
1C2
100
AcDbEntity
  8
M1
  6
CONTINUOUS
370
25
 62
   234
100
AcDbSpline
210
0.0
220
0.0
230
-1.0
 70
     8
 71
     3
 72
     8
 73
     4
 43
0.0000001
 40
0.0
 40
0.0
 40
0.0
 40
0.0
 40
1.0
 40
1.0
 40
1.0
 40
1.0
 10
126.587537
 20
347.437405
 10
126.481507
 20
347.410412
 10
126.373592
 20
347.395865
 10
126.265735
 20
347.379885
  0
LINE
  5
1C3
100
AcDbEntity
  8
M1
  6
CONTINUOUS
370
25
 62
   234
100
AcDbLine
 10
124.915735
 20
382.290595
 11
100.415734
 21
382.290595
  0
LINE
  5
1C4
100
AcDbEntity
  8
M1
  6
CONTINUOUS
370
25
 62
   234
100
AcDbLine
 10
117.165734
 20
386.9906
 11
117.165734
 21
392.490595
  0
LINE
  5
1C5
100
AcDbEntity
  8
M1
  6
CONTINUOUS
370
25
 62
   234
100
AcDbLine
 10
108.665734
 20
386.9906
 11
117.165734
 21
386.9906
  0
LINE
  5
1C6
100
AcDbEntity
  8
M1
  6
CONTINUOUS
370
25
 62
   234
100
AcDbLine
 10
117.165734
 20
392.490595
 11
108.665734
 21
392.490595
  0
LINE
  5
1C7
100
AcDbEntity
  8
M1
  6
CONTINUOUS
370
25
 62
   234
100
AcDbLine
 10
123.915735
 20
430.290597
 11
123.915735
 21
384.290597
  0
LINE
  5
1C8
100
AcDbEntity
  8
M1
  6
CONTINUOUS
370
25
 62
   234
100
AcDbLine
 10
120.415735
 20
396.213247
 11
120.415735
 21
425.790597
  0
LINE
  5
1C9
100
AcDbEntity
  8
M1
  6
CONTINUOUS
370
25
 62
   234
100
AcDbLine
 10
120.415735
 20
396.213247
 11
105.415735
 21
396.213247
  0
LINE
  5
1CA
100
AcDbEntity
  8
M1
  6
CONTINUOUS
370
25
 62
   234
100
AcDbLine
 10
120.415735
 20
425.790597
 11
105.415735
 21
425.790597
  0
LINE
  5
1CB
100
AcDbEntity
  8
M1
  6
CONTINUOUS
370
25
 62
   234
100
AcDbLine
 10
108.665734
 20
392.490595
 11
108.665734
 21
386.9906
  0
LINE
  5
1CC
100
AcDbEntity
  8
M1
  6
CONTINUOUS
370
25
 62
   234
100
AcDbLine
 10
105.415735
 20
396.213247
 11
105.415735
 21
425.790597
  0
LINE
  5
1CD
100
AcDbEntity
  8
M1
  6
CONTINUOUS
370
25
 62
   234
100
AcDbLine
 10
101.915734
 20
384.290597
 11
101.915734
 21
430.290597
  0
LINE
  5
1CE
100
AcDbEntity
  8
M1
  6
CONTINUOUS
370
25
 62
   234
100
AcDbLine
 10
100.415734
 20
432.290597
 11
124.915735
 21
432.290597
  0
LINE
  5
1CF
100
AcDbEntity
  8
M1
  6
CONTINUOUS
370
25
 62
   234
100
AcDbLine
 10
105.415735
 20
396.7906
 11
120.415735
 21
396.7906
  0
ARC
  5
1D0
100
AcDbEntity
  8
M1
  6
CONTINUOUS
370
25
 62
   234
100
AcDbCircle
 10
124.415735
 20
381.290597
 40
0.5
100
AcDbArc
 50
270.0
 51
360.0
  0
ARC
  5
1D1
100
AcDbEntity
  8
M1
  6
CONTINUOUS
370
25
 62
   234
100
AcDbCircle
 10
123.915735
 20
435.790597
 40
1.0
100
AcDbArc
 50
0.0
 51
90.0
  0
LINE
  5
1D2
100
AcDbEntity
  8
M1
  6
CONTINUOUS
370
25
 62
   234
100
AcDbLine
 10
102.415734
 20
436.790595
 11
123.915735
 21
436.790595
  0
LINE
  5
1D3
100
AcDbEntity
  8
M1
  6
CONTINUOUS
370
25
 62
   234
100
AcDbLine
 10
124.915735
 20
435.790597
 11
124.915735
 21
380.790597
  0
LINE
  5
1D4
100
AcDbEntity
  8
M1
  6
CONTINUOUS
370
25
 62
   234
100
AcDbLine
 10
102.415734
 20
380.790597
 11
124.415735
 21
380.790597
  0
ARC
  5
1D5
100
AcDbEntity
  8
M1
  6
CONTINUOUS
370
25
 62
   234
100
AcDbCircle
 10
103.915734
 20
384.290597
 40
2.0
100
AcDbArc
 50
180.0
 51
270.0
  0
ARC
  5
1D6
100
AcDbEntity
  8
M1
  6
CONTINUOUS
370
25
 62
   234
100
AcDbCircle
 10
121.915735
 20
384.290597
 40
2.0
100
AcDbArc
 50
270.0
 51
360.0
  0
ARC
  5
1D7
100
AcDbEntity
  8
M1
  6
CONTINUOUS
370
25
 62
   234
100
AcDbCircle
 10
103.915734
 20
430.290597
 40
2.0
100
AcDbArc
 50
90.0
 51
180.0
  0
ARC
  5
1D8
100
AcDbEntity
  8
M1
  6
CONTINUOUS
370
25
 62
   234
100
AcDbCircle
 10
121.915735
 20
430.290597
 40
2.0
100
AcDbArc
 50
0.0
 51
90.0
  0
LINE
  5
1D9
100
AcDbEntity
  8
M1
  6
CONTINUOUS
370
25
 62
   234
100
AcDbLine
 10
150.065737
 20
467.590597
 11
150.915735
 21
467.590597
  0
ARC
  5
1DA
100
AcDbEntity
  8
M1
  6
CONTINUOUS
370
25
 62
   234
100
AcDbCircle
 10
124.565735
 20
468.090597
 40
0.5
100
AcDbArc
 50
180.0
 51
251.228127
  0
ARC
  5
1DB
100
AcDbEntity
  8
M1
  6
CONTINUOUS
370
25
 62
   234
100
AcDbCircle
 10
126.265735
 20
468.090597
 40
0.5
100
AcDbArc
 50
288.771873
 51
360.0
  0
LINE
  5
1DC
100
AcDbEntity
  8
M1
  6
CONTINUOUS
370
25
 62
   234
100
AcDbLine
 10
120.415735
 20
459.290597
 11
120.415735
 21
471.290597
  0
LINE
  5
1DD
100
AcDbEntity
  8
M1
  6
CONTINUOUS
370
25
 62
   234
100
AcDbLine
 10
129.515735
 20
460.14216
 11
129.515735
 21
464.929092
  0
LINE
  5
1DE
100
AcDbEntity
  8
M1
  6
CONTINUOUS
370
25
 62
   234
100
AcDbLine
 10
121.315735
 20
464.929092
 11
121.315735
 21
460.14216
  0
LINE
  5
1DF
100
AcDbEntity
  8
M1
  6
CONTINUOUS
370
25
 62
   234
100
AcDbLine
 10
126.765735
 20
468.090597
 11
126.765735
 21
469.748972
  0
LINE
  5
1E0
100
AcDbEntity
  8
M1
  6
CONTINUOUS
370
25
 62
   234
100
AcDbLine
 10
130.415735
 20
471.290597
 11
130.415735
 21
459.290597
  0
LINE
  5
1E1
100
AcDbEntity
  8
M1
  6
CONTINUOUS
370
25
 62
   234
100
AcDbLine
 10
124.065735
 20
469.748972
 11
124.065735
 21
468.090597
  0
SPLINE
  5
1E2
100
AcDbEntity
  8
M1
  6
CONTINUOUS
370
25
 62
   234
100
AcDbSpline
210
0.0
220
0.0
230
-1.0
 70
     8
 71
     3
 72
     8
 73
     4
 43
0.0000001
 40
0.0
 40
0.0
 40
0.0
 40
0.0
 40
1.0
 40
1.0
 40
1.0
 40
1.0
 10
129.415735
 20
465.102335
 10
129.451757
 20
465.04609
 10
129.484875
 20
464.988225
 10
129.515735
 20
464.929092
  0
LINE
  5
1E3
100
AcDbEntity
  8
M1
  6
CONTINUOUS
370
25
 62
   234
100
AcDbLine
 10
105.415735
 20
471.290597
 11
105.415735
 21
459.290597
  0
ARC
  5
1E4
100
AcDbEntity
  8
M1
  6
CONTINUOUS
370
25
 62
   234
100
AcDbCircle
 10
125.415735
 20
462.540597
 40
4.75
100
AcDbArc
 50
32.636898
 51
149.673029
  0
ARC
  5
1E5
100
AcDbEntity
  8
M1
  6
CONTINUOUS
370
25
 62
   234
100
AcDbCircle
 10
107.415734
 20
459.290597
 40
2.0
100
AcDbArc
 50
180.0
 51
270.0
  0
ARC
  5
1E6
100
AcDbEntity
  8
M1
  6
CONTINUOUS
370
25
 62
   234
100
AcDbCircle
 10
118.415734
 20
459.290597
 40
2.0
100
AcDbArc
 50
270.0
 51
360.0
  0
ARC
  5
1E7
100
AcDbEntity
  8
M1
  6
CONTINUOUS
370
25
 62
   234
100
AcDbCircle
 10
150.915735
 20
467.090597
 40
0.5
100
AcDbArc
 50
0.0
 51
90.0
  0
ARC
  5
1E8
100
AcDbEntity
  8
M1
  6
CONTINUOUS
370
25
 62
   234
100
AcDbCircle
 10
125.415735
 20
462.540597
 40
4.25
100
AcDbArc
 50
195.26773
 51
344.73227
  0
ARC
  5
1E9
100
AcDbEntity
  8
M1
  6
CONTINUOUS
370
25
 62
   234
100
AcDbCircle
 10
125.415735
 20
462.540597
 40
4.25
100
AcDbArc
 50
15.26773
 51
164.73227
  0
LINE
  5
1EA
100
AcDbEntity
  8
M1
  6
CONTINUOUS
370
25
 62
   234
100
AcDbLine
 10
132.415737
 20
457.290597
 11
143.415737
 21
457.290597
  0
LINE
  5
1EB
100
AcDbEntity
  8
M1
  6
CONTINUOUS
370
25
 62
   234
100
AcDbLine
 10
107.415734
 20
457.290597
 11
118.415734
 21
457.290597
  0
SPLINE
  5
1EC
100
AcDbEntity
  8
M1
  6
CONTINUOUS
370
25
 62
   234
100
AcDbSpline
210
0.0
220
0.0
230
-1.0
 70
     8
 71
     3
 72
     8
 73
     4
 43
0.0000001
 40
0.0
 40
0.0
 40
0.0
 40
0.0
 40
1.0
 40
1.0
 40
1.0
 40
1.0
 10
124.404835
 20
467.617192
 10
124.457245
 20
467.59938
 10
124.510827
 20
467.590597
 10
124.565735
 20
467.590597
  0
SPLINE
  5
1ED
100
AcDbEntity
  8
M1
  6
CONTINUOUS
370
25
 62
   234
100
AcDbSpline
210
0.0
220
0.0
230
-1.0
 70
     8
 71
     3
 72
     8
 73
     4
 43
0.0000001
 40
0.0
 40
0.0
 40
0.0
 40
0.0
 40
1.0
 40
1.0
 40
1.0
 40
1.0
 10
126.265735
 20
467.590597
 10
126.320645
 20
467.590597
 10
126.374227
 20
467.59938
 10
126.426637
 20
467.617192
  0
SPLINE
  5
1EE
100
AcDbEntity
  8
M1
  6
CONTINUOUS
370
25
 62
   234
100
AcDbSpline
210
0.0
220
0.0
230
-1.0
 70
     8
 71
     3
 72
    29
 73
    25
 43
0.0000001
 40
0.0
 40
0.0
 40
0.0
 40
0.0
 40
1.0
 40
1.0
 40
1.0
 40
2.0
 40
2.0
 40
2.0
 40
3.0
 40
3.0
 40
3.0
 40
4.0
 40
4.0
 40
4.0
 40
5.0
 40
5.0
 40
5.0
 40
6.0
 40
6.0
 40
6.0
 40
7.0
 40
7.0
 40
7.0
 40
8.0
 40
8.0
 40
8.0
 40
8.0
 10
124.565735
 20
467.590597
 10
124.636527
 20
467.590597
 10
124.707315
 20
467.590597
 10
124.77811
 20
467.590597
 10
124.848907
 20
467.590597
 10
124.919702
 20
467.590597
 10
124.990512
 20
467.590597
 10
125.061322
 20
467.590597
 10
125.132137
 20
467.590597
 10
125.202977
 20
467.590597
 10
125.273817
 20
467.590597
 10
125.344672
 20
467.590597
 10
125.41554
 20
467.590597
 10
125.486407
 20
467.590597
 10
125.557282
 20
467.590597
 10
125.62815
 20
467.590597
 10
125.699015
 20
467.590597
 10
125.769872
 20
467.590597
 10
125.840722
 20
467.590597
 10
125.911575
 20
467.590597
 10
125.982422
 20
467.590597
 10
126.053255
 20
467.590597
 10
126.124087
 20
467.590597
 10
126.194912
 20
467.590597
 10
126.265735
 20
467.590597
  0
ARC
  5
1EF
100
AcDbEntity
  8
M1
  6
CONTINUOUS
370
25
 62
   234
100
AcDbCircle
 10
125.415735
 20
462.540597
 40
4.75
100
AcDbArc
 50
210.326971
 51
329.673016
  0
LINE
  5
1F0
100
AcDbEntity
  8
M1
  6
CONTINUOUS
370
25
 62
   234
100
AcDbLine
 10
145.415735
 20
343.290597
 11
145.415735
 21
355.7906
  0
ARC
  5
1F1
100
AcDbEntity
  8
M1
  6
CONTINUOUS
370
25
 62
   234
100
AcDbCircle
 10
129.415735
 20
471.290597
 40
1.0
100
AcDbArc
 50
0.0
 51
90.0
  0
ARC
  5
1F2
100
AcDbEntity
  8
M1
  6
CONTINUOUS
370
25
 62
   234
100
AcDbCircle
 10
121.415734
 20
471.290597
 40
1.0
100
AcDbArc
 50
90.0
 51
180.0
  0
LINE
  5
1F3
100
AcDbEntity
  8
M1
  6
CONTINUOUS
370
25
 62
   234
100
AcDbLine
 10
121.415737
 20
472.290597
 11
123.665737
 21
472.290597
  0
ARC
  5
1F4
100
AcDbEntity
  8
M1
  6
CONTINUOUS
370
25
 62
   234
100
AcDbCircle
 10
104.415734
 20
471.290597
 40
1.0
100
AcDbArc
 50
0.0
 51
90.0
  0
ARC
  5
1F5
100
AcDbEntity
  8
M1
  6
CONTINUOUS
370
25
 62
   234
100
AcDbCircle
 10
146.415735
 20
471.290597
 40
1.0
100
AcDbArc
 50
90.0
 51
180.0
  0
LINE
  5
1F6
100
AcDbEntity
  8
M1
  6
CONTINUOUS
370
25
 62
   234
100
AcDbLine
 10
150.065737
 20
469.748972
 11
150.065737
 21
467.590597
  0
LINE
  5
1F7
100
AcDbEntity
  8
M1
  6
CONTINUOUS
370
25
 62
   234
100
AcDbLine
 10
127.165735
 20
472.290597
 11
129.415735
 21
472.290597
  0
LINE
  5
1F8
100
AcDbEntity
  8
M1
  6
CONTINUOUS
370
25
 62
   234
100
AcDbLine
 10
146.415737
 20
472.290597
 11
149.665735
 21
472.290597
  0
LINE
  5
1F9
100
AcDbEntity
  8
M1
  6
CONTINUOUS
370
25
 62
   234
100
AcDbLine
 10
104.415734
 20
472.290597
 11
102.165734
 21
472.290597
  0
CIRCLE
  5
1FA
100
AcDbEntity
  8
M1
  6
CONTINUOUS
370
25
 62
   234
100
AcDbCircle
 10
147.915735
 20
352.290597
 40
1.25
  0
CIRCLE
  5
1FB
100
AcDbEntity
  8
M1
  6
CONTINUOUS
370
25
 62
   234
100
AcDbCircle
 10
147.915735
 20
352.290597
 40
1.55
  0
CIRCLE
  5
1FC
100
AcDbEntity
  8
M1
  6
CONTINUOUS
370
25
 62
   234
100
AcDbCircle
 10
147.915735
 20
462.290597
 40
1.25
  0
CIRCLE
  5
1FD
100
AcDbEntity
  8
M1
  6
CONTINUOUS
370
25
 62
   234
100
AcDbCircle
 10
147.915735
 20
462.290597
 40
1.55
  0
ARC
  5
1FE
100
AcDbEntity
  8
M1
  6
CONTINUOUS
370
25
 62
   234
100
AcDbCircle
 10
127.065735
 20
344.090602
 40
0.8
100
AcDbArc
 50
112.024326
 51
240.0
  0
ARC
  5
1FF
100
AcDbEntity
  8
M1
  6
CONTINUOUS
370
25
 62
   234
100
AcDbCircle
 10
123.765735
 20
344.090602
 40
0.8
100
AcDbArc
 50
300.0
 51
427.975674
  0
ARC
  5
200
100
AcDbEntity
  8
M1
  6
CONTINUOUS
370
25
 62
   234
100
AcDbCircle
 10
149.765737
 20
344.090602
 40
0.8
100
AcDbArc
 50
300.0
 51
427.975674
  0
ARC
  5
201
100
AcDbEntity
  8
M1
  6
CONTINUOUS
370
25
 62
   234
100
AcDbCircle
 10
149.765737
 20
470.490592
 40
0.8
100
AcDbArc
 50
292.024326
 51
420.0
  0
ARC
  5
202
100
AcDbEntity
  8
M1
  6
CONTINUOUS
370
25
 62
   234
100
AcDbCircle
 10
127.065735
 20
470.490592
 40
0.8
100
AcDbArc
 50
120.0
 51
247.975674
  0
ARC
  5
203
100
AcDbEntity
  8
M1
  6
CONTINUOUS
370
25
 62
   234
100
AcDbCircle
 10
123.765735
 20
470.490592
 40
0.8
100
AcDbArc
 50
292.024326
 51
420.0
  0
LINE
  5
204
100
AcDbEntity
  8
M1
  6
CONTINUOUS
370
25
 62
   234
100
AcDbLine
 10
150.415737
 20
365.7906
 11
100.415734
 21
365.7906
  0
LINE
  5
205
100
AcDbEntity
  8
M1
  6
CONTINUOUS
370
25
 62
   234
100
AcDbLine
 10
151.415737
 20
467.090597
 11
151.415737
 21
347.490597
  0
ARC
  5
206
100
AcDbEntity
  8
M1
  6
CONTINUOUS
370
25
 62
   234
100
AcDbCircle
 10
101.165734
 20
342.790597
 40
0.5
100
AcDbArc
 50
180.0
 51
270.0
  0
ARC
  5
207
100
AcDbEntity
  8
M1
  6
CONTINUOUS
370
25
 62
   234
100
AcDbCircle
 10
101.065735
 20
344.090602
 40
0.8
100
AcDbArc
 50
112.024326
 51
240.0
  0
ARC
  5
208
100
AcDbEntity
  8
M1
  6
CONTINUOUS
370
25
 62
   234
100
AcDbCircle
 10
99.915734
 20
347.490597
 40
0.5
100
AcDbArc
 50
180.0
 51
270.0
  0
LINE
  5
209
100
AcDbEntity
  8
M1
  6
CONTINUOUS
370
25
 62
   234
100
AcDbLine
 10
99.915734
 20
346.990592
 11
100.765735
 21
346.990592
  0
LINE
  5
20A
100
AcDbEntity
  8
M1
  6
CONTINUOUS
370
25
 62
   234
100
AcDbLine
 10
100.665737
 20
343.39778
 11
100.665737
 21
342.790595
  0
LINE
  5
20B
100
AcDbEntity
  8
M1
  6
CONTINUOUS
370
25
 62
   234
100
AcDbLine
 10
100.765735
 20
346.990592
 11
100.765735
 21
344.832222
  0
LINE
  5
20C
100
AcDbEntity
  8
M1
  6
CONTINUOUS
370
25
 62
   234
100
AcDbLine
 10
99.915734
 20
364.290595
 11
103.215737
 21
364.290595
  0
SPLINE
  5
20D
100
AcDbEntity
  8
M1
  6
CONTINUOUS
370
25
 62
   234
100
AcDbSpline
210
0.0
220
0.0
230
-1.0
 70
     8
 71
     3
 72
    65
 73
    61
 43
0.0000001
 40
0.0
 40
0.0
 40
0.0
 40
0.0
 40
1.0
 40
1.0
 40
1.0
 40
2.0
 40
2.0
 40
2.0
 40
3.0
 40
3.0
 40
3.0
 40
4.0
 40
4.0
 40
4.0
 40
5.0
 40
5.0
 40
5.0
 40
6.0
 40
6.0
 40
6.0
 40
7.0
 40
7.0
 40
7.0
 40
8.0
 40
8.0
 40
8.0
 40
9.0
 40
9.0
 40
9.0
 40
10.0
 40
10.0
 40
10.0
 40
11.0
 40
11.0
 40
11.0
 40
12.0
 40
12.0
 40
12.0
 40
13.0
 40
13.0
 40
13.0
 40
14.0
 40
14.0
 40
14.0
 40
15.0
 40
15.0
 40
15.0
 40
16.0
 40
16.0
 40
16.0
 40
17.0
 40
17.0
 40
17.0
 40
18.0
 40
18.0
 40
18.0
 40
19.0
 40
19.0
 40
19.0
 40
20.0
 40
20.0
 40
20.0
 40
20.0
 10
105.939447
 20
359.267492
 10
105.914807
 20
359.230567
 10
105.890165
 20
359.193647
 10
105.864675
 20
359.157555
 10
105.839184
 20
359.12146
 10
105.812847
 20
359.086207
 10
105.786677
 20
359.05234
 10
105.760507
 20
359.018472
 10
105.734505
 20
358.986002
 10
105.705327
 20
358.951422
 10
105.676152
 20
358.916842
 10
105.643805
 20
358.880165
 10
105.620507
 20
358.854375
 10
105.603047
 20
358.835045
 10
105.590672
 20
358.821837
 10
105.57672
 20
358.807152
 10
105.562765
 20
358.792467
 10
105.547239
 20
358.776315
 10
105.531905
 20
358.760707
 10
105.51657
 20
358.745102
 10
105.501424
 20
358.730045
 10
105.486002
 20
358.714997
 10
105.470579
 20
358.69995
 10
105.45488
 20
358.684917
 10
105.438945
 20
358.669977
 10
105.423012
 20
358.655037
 10
105.40684
 20
358.640192
 10
105.390587
 20
358.625552
 10
105.374334
 20
358.610912
 10
105.357994
 20
358.596477
 10
105.341032
 20
358.581842
 10
105.32407
 20
358.567207
 10
105.306482
 20
358.55237
 10
105.290587
 20
358.539115
 10
105.274695
 20
358.52586
 10
105.260485
 20
358.51418
 10
105.239562
 20
358.497642
 10
105.212002
 20
358.475855
 10
105.172782
 20
358.445632
 10
105.136319
 20
358.418752
 10
105.09986
 20
358.391872
 10
105.06614
 20
358.368332
 10
105.031259
 20
358.344907
 10
104.996379
 20
358.321485
 10
104.96033
 20
358.29818
 10
104.924127
 20
358.2758
 10
104.887922
 20
358.253417
 10
104.851549
 20
358.231957
 10
104.814655
 20
358.211117
 10
104.777762
 20
358.190277
 10
104.740337
 20
358.170065
 10
104.702409
 20
358.150557
 10
104.664482
 20
358.131052
 10
104.626042
 20
358.112257
 10
104.587144
 20
358.09411
 10
104.548245
 20
358.075965
 10
104.508879
 20
358.058472
 10
104.468897
 20
358.041912
 10
104.428914
 20
358.025352
 10
104.38831
 20
358.009727
 10
104.347705
 20
357.9941
  0
ARC
  5
20E
100
AcDbEntity
  8
M1
  6
CONTINUOUS
370
25
 62
   234
100
AcDbCircle
 10
103.215735
 20
361.040597
 40
3.25
100
AcDbArc
 50
326.936347
 51
450.0
  0
ARC
  5
20F
100
AcDbEntity
  8
M1
  6
CONTINUOUS
370
25
 62
   234
100
AcDbCircle
 10
99.915734
 20
357.290595
 40
0.5
100
AcDbArc
 50
90.0
 51
180.0
  0
LINE
  5
210
100
AcDbEntity
  8
M1
  6
CONTINUOUS
370
25
 62
   234
100
AcDbLine
 10
103.215737
 20
357.790597
 11
99.915734
 21
357.790597
  0
ARC
  5
211
100
AcDbEntity
  8
M1
  6
CONTINUOUS
370
25
 62
   234
100
AcDbCircle
 10
103.215735
 20
361.040597
 40
3.25
100
AcDbArc
 50
270.0
 51
290.38327
  0
ARC
  5
212
100
AcDbEntity
  8
M1
  6
CONTINUOUS
370
25
 62
   234
100
AcDbCircle
 10
99.915734
 20
364.790595
 40
0.5
100
AcDbArc
 50
180.0
 51
270.0
  0
CIRCLE
  5
213
100
AcDbEntity
  8
M1
  6
CONTINUOUS
370
25
 62
   234
100
AcDbCircle
 10
102.915734
 20
462.290597
 40
1.55
  0
CIRCLE
  5
214
100
AcDbEntity
  8
M1
  6
CONTINUOUS
370
25
 62
   234
100
AcDbCircle
 10
102.915734
 20
462.290597
 40
1.25
  0
ARC
  5
215
100
AcDbEntity
  8
M1
  6
CONTINUOUS
370
25
 62
   234
100
AcDbCircle
 10
101.065735
 20
470.490592
 40
0.8
100
AcDbArc
 50
120.0
 51
247.975674
  0
LINE
  5
216
100
AcDbEntity
  8
M1
  6
CONTINUOUS
370
25
 62
   234
100
AcDbLine
 10
100.665737
 20
471.790597
 11
100.665737
 21
471.183417
  0
ARC
  5
217
100
AcDbEntity
  8
M1
  6
CONTINUOUS
370
25
 62
   234
100
AcDbCircle
 10
101.165734
 20
471.790597
 40
0.5
100
AcDbArc
 50
90.0
 51
180.0
  0
LINE
  5
218
100
AcDbEntity
  8
M1
  6
CONTINUOUS
370
25
 62
   234
100
AcDbLine
 10
100.765735
 20
467.590597
 11
99.915734
 21
467.590597
  0
LINE
  5
219
100
AcDbEntity
  8
M1
  6
CONTINUOUS
370
25
 62
   234
100
AcDbLine
 10
100.765735
 20
469.748972
 11
100.765735
 21
467.590597
  0
ARC
  5
21A
100
AcDbEntity
  8
M1
  6
CONTINUOUS
370
25
 62
   234
100
AcDbCircle
 10
99.915734
 20
467.090597
 40
0.5
100
AcDbArc
 50
90.0
 51
180.0
  0
LINE
  5
21B
100
AcDbEntity
  8
M1
  6
CONTINUOUS
370
25
 62
   234
100
AcDbLine
 10
104.415734
 20
472.290597
 11
101.165734
 21
472.290597
  0
CIRCLE
  5
21C
100
AcDbEntity
  8
M1
  6
CONTINUOUS
370
25
 62
   234
100
AcDbCircle
 10
102.915734
 20
352.290597
 40
1.25
  0
CIRCLE
  5
21D
100
AcDbEntity
  8
M1
  6
CONTINUOUS
370
25
 62
   234
100
AcDbCircle
 10
102.915734
 20
352.290597
 40
1.55
  0
ARC
  5
21E
100
AcDbEntity
  8
M1
  6
CONTINUOUS
370
25
 62
   234
100
AcDbCircle
 10
100.415734
 20
431.290597
 40
1.0
100
AcDbArc
 50
90.0
 51
180.0
  0
ARC
  5
21F
100
AcDbEntity
  8
M1
  6
CONTINUOUS
370
25
 62
   234
100
AcDbCircle
 10
100.415734
 20
366.7906
 40
1.0
100
AcDbArc
 50
180.0
 51
270.0
  0
ARC
  5
220
100
AcDbEntity
  8
M1
  6
CONTINUOUS
370
25
 62
   234
100
AcDbCircle
 10
150.415737
 20
366.7906
 40
1.0
100
AcDbArc
 50
270.0
 51
360.0
  0
ARC
  5
221
100
AcDbEntity
  8
M1
  6
CONTINUOUS
370
25
 62
   234
100
AcDbCircle
 10
150.415737
 20
371.790597
 40
1.0
100
AcDbArc
 50
0.0
 51
90.0
  0
CIRCLE
  5
222
100
AcDbEntity
  8
M1
  6
CONTINUOUS
370
25
 62
   114
100
AcDbCircle
 10
137.915735
 20
464.790597
 40
7.0
  0
LINE
  5
223
100
AcDbEntity
  8
M1
  6
CONTINUOUS
370
25
 62
   114
100
AcDbLine
 10
139.047175
 20
464.790597
 11
143.39876
 21
469.14218
  0
LINE
  5
224
100
AcDbEntity
  8
M1
  6
CONTINUOUS
370
25
 62
   114
100
AcDbLine
 10
133.564142
 20
459.307562
 11
137.915907
 21
463.65933
  0
LINE
  5
225
100
AcDbEntity
  8
M1
  6
CONTINUOUS
370
25
 62
   114
100
AcDbLine
 10
136.78448
 20
464.79076
 11
132.432712
 21
460.438992
  0
LINE
  5
226
100
AcDbEntity
  8
M1
  6
CONTINUOUS
370
25
 62
   114
100
AcDbLine
 10
142.26732
 20
470.27362
 11
137.915747
 21
465.922027
  0
LINE
  5
227
100
AcDbEntity
  8
M1
  6
CONTINUOUS
370
25
 62
   114
100
AcDbLine
 10
137.915735
 20
465.922037
 11
135.759025
 21
468.078747
  0
LINE
  5
228
100
AcDbEntity
  8
M1
  6
CONTINUOUS
370
25
 62
   114
100
AcDbLine
 10
141.203712
 20
462.63406
 11
139.047175
 21
464.790597
  0
LINE
  5
229
100
AcDbEntity
  8
M1
  6
CONTINUOUS
370
25
 62
   114
100
AcDbLine
 10
137.915907
 20
463.65933
 11
140.072445
 21
461.502792
  0
LINE
  5
22A
100
AcDbEntity
  8
M1
  6
CONTINUOUS
370
25
 62
   114
100
AcDbLine
 10
134.627757
 20
466.94748
 11
136.784467
 21
464.79077
  0
LINE
  5
22B
100
AcDbEntity
  8
M1
  6
CONTINUOUS
370
25
 62
   114
100
AcDbLine
 10
140.072445
 20
461.502792
 11
141.203712
 21
462.63406
  0
LINE
  5
22C
100
AcDbEntity
  8
M1
  6
CONTINUOUS
370
25
 62
   114
100
AcDbLine
 10
135.759025
 20
468.078747
 11
134.627757
 21
466.94748
  0
ARC
  5
22D
100
AcDbEntity
  8
M1
  6
CONTINUOUS
370
25
 62
   114
100
AcDbCircle
 10
137.915735
 20
464.790597
 40
8.0
100
AcDbArc
 50
20.364159
 51
159.635864
  0
ARC
  5
22E
100
AcDbEntity
  8
M1
  6
CONTINUOUS
370
25
 62
   114
100
AcDbCircle
 10
137.915735
 20
464.790597
 40
8.0
100
AcDbArc
 50
290.364142
 51
339.635841
  0
ARC
  5
22F
100
AcDbEntity
  8
M1
  6
CONTINUOUS
370
25
 62
   114
100
AcDbCircle
 10
137.915735
 20
464.790597
 40
8.0
100
AcDbArc
 50
200.364136
 51
249.635858
  0
LINE
  5
230
100
AcDbEntity
  8
M1
  6
DASHDOT
370
13
 62
   114
100
AcDbLine
 10
137.915735
 20
451.790597
 11
137.915735
 21
477.790597
  0
LINE
  5
231
100
AcDbEntity
  8
M1
  6
CONTINUOUS
370
25
100
AcDbLine
 10
105.415735
 20
397.340217
 11
120.415735
 21
397.340217
  0
LINE
  5
232
100
AcDbEntity
  8
M1
  6
CONTINUOUS
370
25
100
AcDbLine
 10
107.515734
 20
398.170212
 11
118.315735
 21
398.170212
  0
LINE
  5
233
100
AcDbEntity
  8
M1
  6
CONTINUOUS
370
25
100
AcDbLine
 10
107.515734
 20
398.211797
 11
118.315735
 21
398.211797
  0
LINE
  5
234
100
AcDbEntity
  8
M1
  6
CONTINUOUS
370
25
100
AcDbLine
 10
120.415735
 20
397.602872
 11
105.415735
 21
397.602872
  0
LINE
  5
235
100
AcDbEntity
  8
M1
  6
CONTINUOUS
370
25
100
AcDbLine
 10
107.515734
 20
398.170212
 11
107.515734
 21
407.440762
  0
LINE
  5
236
100
AcDbEntity
  8
M1
  6
CONTINUOUS
370
25
100
AcDbLine
 10
108.515735
 20
408.440762
 11
107.513562
 21
407.43859
  0
LINE
  5
237
100
AcDbEntity
  8
M1
  6
CONTINUOUS
370
25
100
AcDbLine
 10
105.915734
 20
422.240762
 11
105.915734
 21
424.790597
  0
LINE
  5
238
100
AcDbEntity
  8
M1
  6
CONTINUOUS
370
25
100
AcDbLine
 10
118.915734
 20
425.790597
 11
106.915734
 21
425.790597
  0
ARC
  5
239
100
AcDbEntity
  8
M1
  6
CONTINUOUS
370
25
100
AcDbCircle
 10
106.915734
 20
424.790597
 40
1.0
100
AcDbArc
 50
90.0
 51
180.0
  0
ARC
  5
23A
100
AcDbEntity
  8
M1
  6
CONTINUOUS
370
25
100
AcDbCircle
 10
118.915734
 20
424.790597
 40
1.0
100
AcDbArc
 50
0.0
 51
90.0
  0
ARC
  5
23B
100
AcDbEntity
  8
M1
  6
CONTINUOUS
370
25
100
AcDbCircle
 10
106.915565
 20
418.292545
 40
0.99983
100
AcDbArc
 50
180.009772
 51
270.009769
  0
ARC
  5
23C
100
AcDbEntity
  8
M1
  6
CONTINUOUS
370
25
100
AcDbCircle
 10
118.915907
 20
418.292545
 40
0.99983
100
AcDbArc
 50
269.990231
 51
359.990228
  0
LINE
  5
23D
100
AcDbEntity
  8
M1
  6
CONTINUOUS
370
25
100
AcDbLine
 10
119.915734
 20
422.240762
 11
119.915734
 21
424.790597
  0
LINE
  5
23E
100
AcDbEntity
  8
M1
  6
CONTINUOUS
370
25
100
AcDbLine
 10
105.915734
 20
418.714982
 11
105.915734
 21
422.240762
  0
LINE
  5
23F
100
AcDbEntity
  8
M1
  6
CONTINUOUS
370
25
100
AcDbLine
 10
106.915734
 20
417.292715
 11
118.915734
 21
417.292715
  0
LINE
  5
240
100
AcDbEntity
  8
M1
  6
CONTINUOUS
370
25
100
AcDbLine
 10
105.915734
 20
418.292375
 11
105.915734
 21
418.714982
  0
ARC
  5
241
100
AcDbEntity
  8
M1
  6
CONTINUOUS
370
25
100
AcDbCircle
 10
106.915565
 20
421.264987
 40
0.99983
100
AcDbArc
 50
180.009772
 51
270.009769
  0
LINE
  5
242
100
AcDbEntity
  8
M1
  6
CONTINUOUS
370
25
100
AcDbLine
 10
119.915734
 20
418.292375
 11
119.915734
 21
418.714982
  0
ARC
  5
243
100
AcDbEntity
  8
M1
  6
CONTINUOUS
370
25
100
AcDbCircle
 10
118.915907
 20
421.264987
 40
0.99983
100
AcDbArc
 50
269.990231
 51
359.990228
  0
LINE
  5
244
100
AcDbEntity
  8
M1
  6
CONTINUOUS
370
25
100
AcDbLine
 10
119.915734
 20
418.714982
 11
119.915734
 21
422.240762
  0
LINE
  5
245
100
AcDbEntity
  8
M1
  6
CONTINUOUS
370
25
100
AcDbLine
 10
118.915734
 20
420.265157
 11
106.915734
 21
420.265157
  0
LINE
  5
246
100
AcDbEntity
  8
M1
  6
CONTINUOUS
370
25
100
AcDbLine
 10
120.415735
 20
408.440762
 11
105.415735
 21
408.440762
  0
LINE
  5
247
100
AcDbEntity
  8
M1
  6
CONTINUOUS
370
25
100
AcDbLine
 10
118.315735
 20
398.170212
 11
118.315735
 21
408.440762
  0
CIRCLE
  5
248
100
AcDbEntity
  8
M1
  6
CONTINUOUS
370
25
 62
   114
100
AcDbCircle
 10
112.915735
 20
349.790597
 40
7.0
  0
LINE
  5
249
100
AcDbEntity
  8
M1
  6
CONTINUOUS
370
25
 62
   114
100
AcDbLine
 10
114.047174
 20
349.790597
 11
118.398759
 21
354.14218
  0
LINE
  5
24A
100
AcDbEntity
  8
M1
  6
CONTINUOUS
370
25
 62
   114
100
AcDbLine
 10
108.564142
 20
344.307562
 11
112.915907
 21
348.65933
  0
LINE
  5
24B
100
AcDbEntity
  8
M1
  6
CONTINUOUS
370
25
 62
   114
100
AcDbLine
 10
111.784479
 20
349.79076
 11
107.432712
 21
345.438992
  0
LINE
  5
24C
100
AcDbEntity
  8
M1
  6
CONTINUOUS
370
25
 62
   114
100
AcDbLine
 10
117.26732
 20
355.27362
 11
112.915747
 21
350.922027
  0
LINE
  5
24D
100
AcDbEntity
  8
M1
  6
CONTINUOUS
370
25
 62
   114
100
AcDbLine
 10
112.915735
 20
350.922037
 11
110.759025
 21
353.078747
  0
LINE
  5
24E
100
AcDbEntity
  8
M1
  6
CONTINUOUS
370
25
 62
   114
100
AcDbLine
 10
116.203712
 20
347.63406
 11
114.047174
 21
349.790597
  0
LINE
  5
24F
100
AcDbEntity
  8
M1
  6
CONTINUOUS
370
25
 62
   114
100
AcDbLine
 10
112.915907
 20
348.65933
 11
115.072445
 21
346.502792
  0
LINE
  5
250
100
AcDbEntity
  8
M1
  6
CONTINUOUS
370
25
 62
   114
100
AcDbLine
 10
109.627757
 20
351.94748
 11
111.784467
 21
349.79077
  0
LINE
  5
251
100
AcDbEntity
  8
M1
  6
CONTINUOUS
370
25
 62
   114
100
AcDbLine
 10
115.072445
 20
346.502792
 11
116.203712
 21
347.63406
  0
LINE
  5
252
100
AcDbEntity
  8
M1
  6
CONTINUOUS
370
25
 62
   114
100
AcDbLine
 10
110.759025
 20
353.078747
 11
109.627757
 21
351.94748
  0
ARC
  5
253
100
AcDbEntity
  8
M1
  6
CONTINUOUS
370
25
 62
   114
100
AcDbCircle
 10
112.915735
 20
349.790597
 40
8.0
100
AcDbArc
 50
20.364138
 51
159.635862
  0
ARC
  5
254
100
AcDbEntity
  8
M1
  6
CONTINUOUS
370
25
 62
   114
100
AcDbCircle
 10
112.915735
 20
349.790597
 40
8.0
100
AcDbArc
 50
200.364138
 51
339.635862
  0
LINE
  5
255
100
AcDbEntity
  8
M1
  6
DASHDOT
370
13
 62
   114
100
AcDbLine
 10
99.915734
 20
349.790597
 11
150.915727
 21
349.790597
  0
LINE
  5
256
100
AcDbEntity
  8
M1
  6
DASHDOT
370
13
 62
   114
100
AcDbLine
 10
112.915735
 20
336.790597
 11
112.915735
 21
362.790597
  0
CIRCLE
  5
257
100
AcDbEntity
  8
M1
  6
CONTINUOUS
370
25
 62
   114
100
AcDbCircle
 10
137.915735
 20
349.790597
 40
7.0
  0
LINE
  5
258
100
AcDbEntity
  8
M1
  6
CONTINUOUS
370
25
 62
   114
100
AcDbLine
 10
139.047175
 20
349.790597
 11
143.39876
 21
354.14218
  0
LINE
  5
259
100
AcDbEntity
  8
M1
  6
CONTINUOUS
370
25
 62
   114
100
AcDbLine
 10
133.564142
 20
344.307562
 11
137.915907
 21
348.65933
  0
LINE
  5
25A
100
AcDbEntity
  8
M1
  6
CONTINUOUS
370
25
 62
   114
100
AcDbLine
 10
136.78448
 20
349.79076
 11
132.432712
 21
345.438992
  0
LINE
  5
25B
100
AcDbEntity
  8
M1
  6
CONTINUOUS
370
25
 62
   114
100
AcDbLine
 10
142.26732
 20
355.27362
 11
137.915747
 21
350.922027
  0
LINE
  5
25C
100
AcDbEntity
  8
M1
  6
CONTINUOUS
370
25
 62
   114
100
AcDbLine
 10
137.915735
 20
350.922037
 11
135.759025
 21
353.078747
  0
LINE
  5
25D
100
AcDbEntity
  8
M1
  6
CONTINUOUS
370
25
 62
   114
100
AcDbLine
 10
141.203712
 20
347.63406
 11
139.047175
 21
349.790597
  0
LINE
  5
25E
100
AcDbEntity
  8
M1
  6
CONTINUOUS
370
25
 62
   114
100
AcDbLine
 10
137.915907
 20
348.65933
 11
140.072445
 21
346.502792
  0
LINE
  5
25F
100
AcDbEntity
  8
M1
  6
CONTINUOUS
370
25
 62
   114
100
AcDbLine
 10
134.627757
 20
351.94748
 11
136.784467
 21
349.79077
  0
LINE
  5
260
100
AcDbEntity
  8
M1
  6
CONTINUOUS
370
25
 62
   114
100
AcDbLine
 10
140.072445
 20
346.502792
 11
141.203712
 21
347.63406
  0
LINE
  5
261
100
AcDbEntity
  8
M1
  6
CONTINUOUS
370
25
 62
   114
100
AcDbLine
 10
135.759025
 20
353.078747
 11
134.627757
 21
351.94748
  0
ARC
  5
262
100
AcDbEntity
  8
M1
  6
CONTINUOUS
370
25
 62
   114
100
AcDbCircle
 10
137.915735
 20
349.790597
 40
8.0
100
AcDbArc
 50
20.364159
 51
159.635864
  0
ARC
  5
263
100
AcDbEntity
  8
M1
  6
CONTINUOUS
370
25
 62
   114
100
AcDbCircle
 10
137.915735
 20
349.790597
 40
8.0
100
AcDbArc
 50
200.364136
 51
339.635841
  0
LINE
  5
264
100
AcDbEntity
  8
M1
  6
DASHDOT
370
13
 62
   114
100
AcDbLine
 10
137.915735
 20
336.790597
 11
137.915735
 21
362.790597
  0
CIRCLE
  5
265
100
AcDbEntity
  8
M1
  6
CONTINUOUS
370
25
 62
   114
100
AcDbCircle
 10
112.915735
 20
464.790597
 40
7.0
  0
LINE
  5
266
100
AcDbEntity
  8
M1
  6
CONTINUOUS
370
25
 62
   114
100
AcDbLine
 10
114.047174
 20
464.790597
 11
118.398759
 21
469.14218
  0
LINE
  5
267
100
AcDbEntity
  8
M1
  6
CONTINUOUS
370
25
 62
   114
100
AcDbLine
 10
108.564142
 20
459.307562
 11
112.915907
 21
463.65933
  0
LINE
  5
268
100
AcDbEntity
  8
M1
  6
CONTINUOUS
370
25
 62
   114
100
AcDbLine
 10
111.784479
 20
464.79076
 11
107.432712
 21
460.438992
  0
LINE
  5
269
100
AcDbEntity
  8
M1
  6
CONTINUOUS
370
25
 62
   114
100
AcDbLine
 10
117.26732
 20
470.27362
 11
112.915747
 21
465.922027
  0
LINE
  5
26A
100
AcDbEntity
  8
M1
  6
CONTINUOUS
370
25
 62
   114
100
AcDbLine
 10
112.915735
 20
465.922037
 11
110.759025
 21
468.078747
  0
LINE
  5
26B
100
AcDbEntity
  8
M1
  6
CONTINUOUS
370
25
 62
   114
100
AcDbLine
 10
116.203712
 20
462.63406
 11
114.047174
 21
464.790597
  0
LINE
  5
26C
100
AcDbEntity
  8
M1
  6
CONTINUOUS
370
25
 62
   114
100
AcDbLine
 10
112.915907
 20
463.65933
 11
115.072445
 21
461.502792
  0
LINE
  5
26D
100
AcDbEntity
  8
M1
  6
CONTINUOUS
370
25
 62
   114
100
AcDbLine
 10
109.627757
 20
466.94748
 11
111.784467
 21
464.79077
  0
LINE
  5
26E
100
AcDbEntity
  8
M1
  6
CONTINUOUS
370
25
 62
   114
100
AcDbLine
 10
115.072445
 20
461.502792
 11
116.203712
 21
462.63406
  0
LINE
  5
26F
100
AcDbEntity
  8
M1
  6
CONTINUOUS
370
25
 62
   114
100
AcDbLine
 10
110.759025
 20
468.078747
 11
109.627757
 21
466.94748
  0
ARC
  5
270
100
AcDbEntity
  8
M1
  6
CONTINUOUS
370
25
 62
   114
100
AcDbCircle
 10
112.915735
 20
464.790597
 40
8.0
100
AcDbArc
 50
20.364138
 51
159.635862
  0
ARC
  5
271
100
AcDbEntity
  8
M1
  6
CONTINUOUS
370
25
 62
   114
100
AcDbCircle
 10
112.915735
 20
464.790597
 40
8.0
100
AcDbArc
 50
290.364142
 51
339.635862
  0
ARC
  5
272
100
AcDbEntity
  8
M1
  6
CONTINUOUS
370
25
 62
   114
100
AcDbCircle
 10
112.915735
 20
464.790597
 40
8.0
100
AcDbArc
 50
200.364138
 51
249.635858
  0
LINE
  5
273
100
AcDbEntity
  8
M1
  6
DASHDOT
370
13
 62
   114
100
AcDbLine
 10
99.915734
 20
464.790597
 11
150.915735
 21
464.790597
  0
LINE
  5
274
100
AcDbEntity
  8
M1
  6
DASHDOT
370
13
 62
   114
100
AcDbLine
 10
112.915735
 20
451.790597
 11
112.915735
 21
477.790597
  0
LINE
  5
275
100
AcDbEntity
  8
M1
  6
DIVIDE
370
13
 62
     3
100
AcDbLine
 10
127.915735
 20
474.290597
 11
127.915735
 21
472.290597
  0
LINE
  5
276
100
AcDbEntity
  8
M1
  6
DIVIDE
370
13
 62
     3
100
AcDbLine
 10
126.415735
 20
474.290597
 11
127.915735
 21
474.290597
  0
LINE
  5
277
100
AcDbEntity
  8
M1
  6
DIVIDE
370
13
 62
     3
100
AcDbLine
 10
126.415735
 20
474.290597
 11
126.415735
 21
522.290597
  0
LINE
  5
278
100
AcDbEntity
  8
M1
  6
DIVIDE
370
13
 62
     3
100
AcDbLine
 10
124.415735
 20
474.290597
 11
124.415735
 21
522.290597
  0
LINE
  5
279
100
AcDbEntity
  8
M1
  6
DIVIDE
370
13
 62
     3
100
AcDbLine
 10
122.915735
 20
474.290597
 11
122.915735
 21
472.290597
  0
LINE
  5
27A
100
AcDbEntity
  8
M1
  6
DIVIDE
370
13
 62
     3
100
AcDbLine
 10
122.915735
 20
474.290597
 11
124.415735
 21
474.290597
  0
LINE
  5
27B
100
AcDbEntity
  8
M1
  6
DIVIDE
370
13
 62
     3
100
AcDbLine
 10
124.415735
 20
522.290597
 11
126.415735
 21
522.290597
  0
LINE
  5
27C
100
AcDbEntity
  8
M2
  6
CONTINUOUS
370
25
100
AcDbLine
 10
-99.361082
 20
96.744992
 11
-99.361082
 21
96.344992
  0
LINE
  5
27D
100
AcDbEntity
  8
M2
  6
CONTINUOUS
370
25
100
AcDbLine
 10
-99.361082
 20
96.344992
 11
-98.961082
 21
96.344992
  0
LINE
  5
27E
100
AcDbEntity
  8
M3
  6
CONTINUOUS
370
50
 62
     7
100
AcDbLine
 10
398.680412
 20
19.601204
 11
398.680412
 21
569.601204
  0
LINE
  5
27F
100
AcDbEntity
  8
M3
  6
CONTINUOUS
370
50
 62
     7
100
AcDbLine
 10
18.680412
 20
569.601204
 11
398.680412
 21
569.601204
  0
LINE
  5
280
100
AcDbEntity
  8
M3
  6
CONTINUOUS
370
50
 62
     7
100
AcDbLine
 10
18.680412
 20
569.601204
 11
18.680412
 21
19.601204
  0
LINE
  5
281
100
AcDbEntity
  8
M3
  6
CONTINUOUS
370
50
 62
     7
100
AcDbLine
 10
18.680412
 20
19.601204
 11
398.680412
 21
19.601204
  0
LINE
  5
282
100
AcDbEntity
  8
M4
  6
DASHDOT
370
13
100
AcDbLine
 10
143.665735
 20
391.290597
 11
143.665735
 21
382.790597
  0
LINE
  5
283
100
AcDbEntity
  8
M4
  6
CONTINUOUS
370
25
 62
   154
100
AcDbLine
 10
337.077291
 20
423.9406
 11
337.077291
 21
414.2906
  0
ARC
  5
284
100
AcDbEntity
  8
M4
  6
DIVIDE
370
13
100
AcDbCircle
 10
314.577291
 20
407.290597
 40
58.69523
100
AcDbArc
 50
162.460206
 51
180.0
  0
LINE
  5
285
100
AcDbEntity
  8
M4
  6
DASHDOT
370
13
100
AcDbLine
 10
139.415735
 20
387.040597
 11
147.915735
 21
387.040597
  0
LINE
  5
286
100
AcDbEntity
  8
M4
  6
DASHDOT
370
13
100
AcDbLine
 10
314.577291
 20
402.290597
 11
314.577291
 21
412.290597
  0
LINE
  5
287
100
AcDbEntity
  8
M4
  6
DASHDOT
370
13
100
AcDbLine
 10
255.882063
 20
407.290597
 11
341.077291
 21
407.290597
  0
LINE
  5
288
100
AcDbEntity
  8
M4
  6
DASHED
370
13
100
AcDbLine
 10
319.377291
 20
357.290602
 11
319.377291
 21
342.290602
  0
LINE
  5
289
100
AcDbEntity
  8
M4
  6
DASHED
370
13
100
AcDbLine
 10
317.077291
 20
342.290602
 11
317.077291
 21
357.290602
  0
LINE
  5
28A
100
AcDbEntity
  8
M4
  6
CONTINUOUS
370
25
 62
   154
100
AcDbLine
 10
337.077291
 20
414.2906
 11
304.577291
 21
414.2906
  0
LINE
  5
28B
100
AcDbEntity
  8
M4
  6
DASHDOT
370
13
100
AcDbLine
 10
125.415735
 20
477.290597
 11
125.415735
 21
337.290602
  0
LINE
  5
28C
100
AcDbEntity
  8
M4
  6
DASHDOT
370
13
100
AcDbLine
 10
94.415734
 20
407.290597
 11
156.415737
 21
407.290597
  0
LINE
  5
28D
100
AcDbEntity
  8
M4
  6
CONTINUOUS
370
25
100
AcDbLine
 10
270.077293
 20
243.183077
 11
270.077293
 21
197.183077
  0
LINE
  5
28E
100
AcDbEntity
  8
M4
  6
CONTINUOUS
370
25
100
AcDbLine
 10
321.077293
 20
243.183077
 11
321.077293
 21
197.183077
  0
LINE
  5
28F
100
AcDbEntity
  8
M4
  6
CONTINUOUS
370
25
100
AcDbLine
 10
318.077293
 20
194.183077
 11
273.077293
 21
194.183077
  0
LINE
  5
290
100
AcDbEntity
  8
M4
  6
CONTINUOUS
370
25
100
AcDbLine
 10
318.077293
 20
246.183077
 11
273.077293
 21
246.183077
  0
LINE
  5
291
100
AcDbEntity
  8
M4
  6
DIVIDE
370
13
100
AcDbLine
 10
271.077293
 20
285.183077
 11
323.077293
 21
285.183077
  0
ARC
  5
292
100
AcDbEntity
  8
M4
  6
CONTINUOUS
370
25
100
AcDbCircle
 10
318.077293
 20
243.183077
 40
3.0
100
AcDbArc
 50
0.0
 51
90.0
  0
ARC
  5
293
100
AcDbEntity
  8
M4
  6
CONTINUOUS
370
25
100
AcDbCircle
 10
318.077293
 20
197.183077
 40
3.0
100
AcDbArc
 50
270.0
 51
360.0
  0
CIRCLE
  5
294
100
AcDbEntity
  8
M4
  6
CONTINUOUS
370
25
100
AcDbCircle
 10
128.944741
 20
275.183077
 40
2.0
  0
ARC
  5
295
100
AcDbEntity
  8
M4
  6
CONTINUOUS
370
25
100
AcDbCircle
 10
273.077293
 20
243.183077
 40
3.0
100
AcDbArc
 50
90.0
 51
180.0
  0
CIRCLE
  5
296
100
AcDbEntity
  8
M4
  6
CONTINUOUS
370
25
100
AcDbCircle
 10
128.944741
 20
165.183077
 40
2.0
  0
ARC
  5
297
100
AcDbEntity
  8
M4
  6
CONTINUOUS
370
25
100
AcDbCircle
 10
273.077293
 20
197.183077
 40
3.0
100
AcDbArc
 50
180.0
 51
270.0
  0
LINE
  5
298
100
AcDbEntity
  8
M4
  6
DASHDOT
370
13
100
AcDbLine
 10
121.944741
 20
275.183077
 11
135.944741
 21
275.183077
  0
LINE
  5
299
100
AcDbEntity
  8
M4
  6
DASHDOT
370
13
100
AcDbLine
 10
121.944741
 20
165.183077
 11
135.944741
 21
165.183077
  0
LINE
  5
29A
100
AcDbEntity
  8
M4
  6
DIVIDE
370
13
100
AcDbLine
 10
102.944741
 20
285.183077
 11
154.944741
 21
285.183077
  0
LINE
  5
29B
100
AcDbEntity
  8
M4
  6
DIVIDE
370
13
100
AcDbLine
 10
102.944741
 20
285.183077
 11
102.944741
 21
155.183077
  0
LINE
  5
29C
100
AcDbEntity
  8
M4
  6
DIVIDE
370
13
100
AcDbLine
 10
154.944741
 20
155.183077
 11
102.944741
 21
155.183077
  0
LINE
  5
29D
100
AcDbEntity
  8
M4
  6
DIVIDE
370
13
100
AcDbLine
 10
323.077293
 20
285.183077
 11
323.077293
 21
155.183077
  0
LINE
  5
29E
100
AcDbEntity
  8
M4
  6
DIVIDE
370
13
100
AcDbLine
 10
271.077293
 20
285.183077
 11
271.077293
 21
155.183077
  0
LINE
  5
29F
100
AcDbEntity
  8
M4
  6
DIVIDE
370
13
100
AcDbLine
 10
323.077293
 20
155.183077
 11
271.077293
 21
155.183077
  0
LINE
  5
2A0
100
AcDbEntity
  8
M4
  6
DASHDOT
370
13
100
AcDbLine
 10
266.077293
 20
220.183077
 11
328.077293
 21
220.183077
  0
LINE
  5
2A1
100
AcDbEntity
  8
M4
  6
DIVIDE
370
13
100
AcDbLine
 10
154.944741
 20
285.183077
 11
154.944741
 21
155.183077
  0
LINE
  5
2A2
100
AcDbEntity
  8
M4
  6
DASHDOT
370
13
100
AcDbLine
 10
128.944741
 20
290.183077
 11
128.944741
 21
150.183077
  0
LINE
  5
2A3
100
AcDbEntity
  8
M4
  6
DASHDOT
370
13
100
AcDbLine
 10
297.077293
 20
290.183077
 11
297.077293
 21
150.183077
  0
LINE
  5
2A4
100
AcDbEntity
  8
M4
  6
DASHED
370
13
100
AcDbLine
 10
298.577291
 20
465.290597
 11
340.577291
 21
465.290597
  0
LINE
  5
2A5
100
AcDbEntity
  8
M4
  6
DASHED
370
13
100
AcDbLine
 10
340.577291
 20
459.790597
 11
298.577291
 21
459.790597
  0
LINE
  5
2A6
100
AcDbEntity
  8
M4
  6
DASHED
370
13
100
AcDbLine
 10
298.577291
 20
466.790597
 11
298.577291
 21
458.290597
  0
LINE
  5
2A7
100
AcDbEntity
  8
M4
  6
DASHED
370
13
100
AcDbLine
 10
284.577293
 20
466.790597
 11
298.577291
 21
466.790597
  0
LINE
  5
2A8
100
AcDbEntity
  8
M4
  6
DASHED
370
13
100
AcDbLine
 10
284.577293
 20
458.290597
 11
298.577291
 21
458.290597
  0
LINE
  5
2A9
100
AcDbEntity
  8
M4
  6
CONTINUOUS
370
25
 62
     7
100
AcDbLine
 10
258.610928
 20
424.97947
 11
257.945006
 21
421.517147
  0
ARC
  5
2AA
100
AcDbEntity
  8
M4
  6
CONTINUOUS
370
25
 62
     7
100
AcDbCircle
 10
258.927008
 20
421.328275
 40
1.0
100
AcDbArc
 50
169.113015
 51
257.616705
  0
ARC
  5
2AB
100
AcDbEntity
  8
M4
  6
CONTINUOUS
370
25
 62
     7
100
AcDbCircle
 10
259.592931
 20
424.790597
 40
1.0
100
AcDbArc
 50
79.113015
 51
169.113015
  0
ARC
  5
2AC
100
AcDbEntity
  8
M4
  6
CONTINUOUS
370
25
 62
     7
100
AcDbCircle
 10
273.416906
 20
438.425027
 40
15.0
100
AcDbArc
 50
259.113015
 51
268.702659
  0
LINE
  5
2AD
100
AcDbEntity
  8
M4
  6
CONTINUOUS
370
25
 62
     7
100
AcDbLine
 10
270.583821
 20
423.695002
 11
259.781803
 21
425.7726
  0
LINE
  5
2AE
100
AcDbEntity
  8
M4
  6
CONTINUOUS
370
25
 62
     7
100
AcDbLine
 10
258.712556
 20
420.35154
 11
273.077293
 21
417.19764
  0
LINE
  5
2AF
100
AcDbEntity
  8
M4
  6
CONTINUOUS
370
25
 62
   154
100
AcDbLine
 10
340.577291
 20
342.790602
 11
340.577291
 21
342.590602
  0
LINE
  5
2B0
100
AcDbEntity
  8
M4
  6
CONTINUOUS
370
25
 62
   154
100
AcDbLine
 10
340.577291
 20
389.190602
 11
340.577291
 21
388.990605
  0
ARC
  5
2B1
100
AcDbEntity
  8
M4
  6
CONTINUOUS
370
25
 62
   154
100
AcDbCircle
 10
337.077291
 20
424.240602
 40
0.3
100
AcDbArc
 50
270.0
 51
360.0
  0
ARC
  5
2B2
100
AcDbEntity
  8
M4
  6
CONTINUOUS
370
25
 62
   154
100
AcDbCircle
 10
340.277291
 20
466.490602
 40
0.3
100
AcDbArc
 50
0.0
 51
90.0
  0
ARC
  5
2B3
100
AcDbEntity
  8
M4
  6
CONTINUOUS
370
25
 62
   154
100
AcDbCircle
 10
340.277291
 20
389.190602
 40
0.3
100
AcDbArc
 50
0.0
 51
90.0
  0
ARC
  5
2B4
100
AcDbEntity
  8
M4
  6
CONTINUOUS
370
25
 62
   154
100
AcDbCircle
 10
322.577291
 20
394.290602
 40
5.0
100
AcDbArc
 50
6.513776E-012
 51
90.0
  0
ARC
  5
2B5
100
AcDbEntity
  8
M4
  6
CONTINUOUS
370
25
 62
   154
100
AcDbCircle
 10
340.277291
 20
471.990602
 40
0.3
100
AcDbArc
 50
1.085629E-011
 51
90.0
  0
ARC
  5
2B6
100
AcDbEntity
  8
M4
  6
CONTINUOUS
370
25
 62
   154
100
AcDbCircle
 10
322.577291
 20
352.790602
 40
5.0
100
AcDbArc
 50
270.0
 51
360.0
  0
ARC
  5
2B7
100
AcDbEntity
  8
M4
  6
CONTINUOUS
370
25
 62
   154
100
AcDbCircle
 10
340.277291
 20
342.590602
 40
0.3
100
AcDbArc
 50
270.0
 51
360.0
  0
ARC
  5
2B8
100
AcDbEntity
  8
M4
  6
CONTINUOUS
370
25
 62
   154
100
AcDbCircle
 10
340.277291
 20
425.390602
 40
0.3
100
AcDbArc
 50
270.0
 51
360.0
  0
LINE
  5
2B9
100
AcDbEntity
  8
M4
  6
CONTINUOUS
370
25
 62
   154
100
AcDbLine
 10
341.077291
 20
466.540605
 11
341.077291
 21
466.490605
  0
LINE
  5
2BA
100
AcDbEntity
  8
M4
  6
CONTINUOUS
370
25
 62
   154
100
AcDbLine
 10
340.577291
 20
342.590602
 11
341.077291
 21
342.590602
  0
LINE
  5
2BB
100
AcDbEntity
  8
M4
  6
CONTINUOUS
370
25
 62
   154
100
AcDbLine
 10
341.077291
 20
466.540605
 11
340.577291
 21
466.540605
  0
LINE
  5
2BC
100
AcDbEntity
  8
M4
  6
CONTINUOUS
370
25
 62
   154
100
AcDbLine
 10
304.577291
 20
466.790602
 11
340.277291
 21
466.790602
  0
LINE
  5
2BD
100
AcDbEntity
  8
M4
  6
CONTINUOUS
370
25
 62
   154
100
AcDbLine
 10
337.377291
 20
425.132342
 11
337.377291
 21
389.490605
  0
LINE
  5
2BE
100
AcDbEntity
  8
M4
  6
CONTINUOUS
370
25
 62
   154
100
AcDbLine
 10
304.577291
 20
342.290602
 11
304.577291
 21
364.590602
  0
LINE
  5
2BF
100
AcDbEntity
  8
M4
  6
CONTINUOUS
370
25
 62
   154
100
AcDbLine
 10
340.277291
 20
425.090605
 11
337.377291
 21
425.090605
  0
LINE
  5
2C0
100
AcDbEntity
  8
M4
  6
CONTINUOUS
370
25
 62
   154
100
AcDbLine
 10
341.077291
 20
466.490605
 11
340.577291
 21
466.490605
  0
LINE
  5
2C1
100
AcDbEntity
  8
M4
  6
CONTINUOUS
370
25
 62
   154
100
AcDbLine
 10
340.577291
 20
459.390602
 11
341.077291
 21
459.390602
  0
LINE
  5
2C2
100
AcDbEntity
  8
M4
  6
CONTINUOUS
370
25
 62
   154
100
AcDbLine
 10
298.377291
 20
366.590602
 11
298.377291
 21
395.090602
  0
ARC
  5
2C3
100
AcDbEntity
  8
M4
  6
CONTINUOUS
370
25
 62
   154
100
AcDbCircle
 10
337.077291
 20
420.340602
 40
0.3
100
AcDbArc
 50
4.342517E-011
 51
90.0
  0
LINE
  5
2C4
100
AcDbEntity
  8
M4
  6
CONTINUOUS
370
25
 62
   154
100
AcDbLine
 10
304.577291
 20
399.290602
 11
322.577291
 21
399.290602
  0
LINE
  5
2C5
100
AcDbEntity
  8
M4
  6
CONTINUOUS
370
25
 62
   154
100
AcDbLine
 10
322.577291
 20
347.790602
 11
304.577291
 21
347.790602
  0
LINE
  5
2C6
100
AcDbEntity
  8
M4
  6
CONTINUOUS
370
25
 62
   154
100
AcDbLine
 10
327.577291
 20
394.290605
 11
327.577291
 21
352.790602
  0
LINE
  5
2C7
100
AcDbEntity
  8
M4
  6
CONTINUOUS
370
25
 62
   154
100
AcDbLine
 10
304.577291
 20
364.590605
 11
298.377293
 21
366.590602
  0
LINE
  5
2C8
100
AcDbEntity
  8
M4
  6
CONTINUOUS
370
25
 62
   154
100
AcDbLine
 10
340.277291
 20
342.290602
 11
304.577291
 21
342.290602
  0
LINE
  5
2C9
100
AcDbEntity
  8
M4
  6
CONTINUOUS
370
25
 62
   154
100
AcDbLine
 10
341.077291
 20
466.490605
 11
341.077291
 21
458.540605
  0
LINE
  5
2CA
100
AcDbEntity
  8
M4
  6
CONTINUOUS
370
25
 62
   154
100
AcDbLine
 10
306.577288
 20
414.2906
 11
306.577288
 21
399.290602
  0
LINE
  5
2CB
100
AcDbEntity
  8
M4
  6
CONTINUOUS
370
25
 62
   154
100
AcDbLine
 10
341.077291
 20
356.040602
 11
341.077291
 21
342.590602
  0
LINE
  5
2CC
100
AcDbEntity
  8
M4
  6
CONTINUOUS
370
25
 62
   154
100
AcDbLine
 10
340.577291
 20
388.990605
 11
340.577291
 21
342.590602
  0
LINE
  5
2CD
100
AcDbEntity
  8
M4
  6
CONTINUOUS
370
25
 62
   154
100
AcDbLine
 10
337.377291
 20
389.490605
 11
340.277291
 21
389.490605
  0
LINE
  5
2CE
100
AcDbEntity
  8
M4
  6
CONTINUOUS
370
25
 62
   154
100
AcDbLine
 10
337.677291
 20
419.5906
 11
337.377291
 21
419.090607
  0
LINE
  5
2CF
100
AcDbEntity
  8
M4
  6
CONTINUOUS
370
25
 62
   154
100
AcDbLine
 10
304.577291
 20
472.290597
 11
340.277291
 21
472.290597
  0
LINE
  5
2D0
100
AcDbEntity
  8
M4
  6
CONTINUOUS
370
25
 62
   154
100
AcDbLine
 10
304.577291
 20
397.090602
 11
304.577291
 21
472.290597
  0
LINE
  5
2D1
100
AcDbEntity
  8
M4
  6
CONTINUOUS
370
25
 62
   154
100
AcDbLine
 10
337.377291
 20
422.590607
 11
337.677291
 21
421.590605
  0
LINE
  5
2D2
100
AcDbEntity
  8
M4
  6
CONTINUOUS
370
25
 62
   154
100
AcDbLine
 10
340.577291
 20
458.540605
 11
341.077291
 21
458.540605
  0
LINE
  5
2D3
100
AcDbEntity
  8
M4
  6
CONTINUOUS
370
25
 62
   154
100
AcDbLine
 10
337.677291
 20
421.590605
 11
337.677291
 21
419.5906
  0
LINE
  5
2D4
100
AcDbEntity
  8
M4
  6
CONTINUOUS
370
25
 62
   154
100
AcDbLine
 10
341.077291
 20
356.040602
 11
340.577291
 21
356.040602
  0
LINE
  5
2D5
100
AcDbEntity
  8
M4
  6
CONTINUOUS
370
25
 62
   154
100
AcDbLine
 10
341.077291
 20
351.990602
 11
340.577291
 21
351.990602
  0
LINE
  5
2D6
100
AcDbEntity
  8
M4
  6
CONTINUOUS
370
25
 62
   154
100
AcDbLine
 10
304.577291
 20
397.090602
 11
298.377291
 21
395.090602
  0
LINE
  5
2D7
100
AcDbEntity
  8
M4
  6
CONTINUOUS
370
25
 62
   154
100
AcDbLine
 10
340.577291
 20
471.990607
 11
340.577291
 21
425.390602
  0
LINE
  5
2D8
100
AcDbEntity
  8
M4
  6
CONTINUOUS
370
25
 62
   154
100
AcDbLine
 10
304.577291
 20
467.590597
 11
285.577293
 21
467.590597
  0
ARC
  5
2D9
100
AcDbEntity
  8
M4
  6
CONTINUOUS
370
25
 62
   154
100
AcDbCircle
 10
285.577293
 20
365.290597
 40
1.0
100
AcDbArc
 50
180.0
 51
270.0
  0
LINE
  5
2DA
100
AcDbEntity
  8
M4
  6
CONTINUOUS
370
25
 62
   154
100
AcDbLine
 10
292.577293
 20
357.790597
 11
285.577293
 21
357.790597
  0
ARC
  5
2DB
100
AcDbEntity
  8
M4
  6
CONTINUOUS
370
25
 62
   154
100
AcDbCircle
 10
298.077293
 20
415.2906
 40
1.0
100
AcDbArc
 50
180.0
 51
270.0
  0
SPLINE
  5
2DC
100
AcDbEntity
  8
M4
  6
CONTINUOUS
370
25
 62
   154
100
AcDbSpline
210
0.0
220
0.0
230
-1.0
 70
     8
 71
     3
 72
    29
 73
    25
 43
0.0000001
 40
0.0
 40
0.0
 40
0.0
 40
0.0
 40
1.0
 40
1.0
 40
1.0
 40
2.0
 40
2.0
 40
2.0
 40
3.0
 40
3.0
 40
3.0
 40
4.0
 40
4.0
 40
4.0
 40
5.0
 40
5.0
 40
5.0
 40
6.0
 40
6.0
 40
6.0
 40
7.0
 40
7.0
 40
7.0
 40
8.0
 40
8.0
 40
8.0
 40
8.0
 10
285.560973
 20
471.231905
 10
285.574858
 20
471.22821
 10
285.588748
 20
471.22452
 10
285.603186
 20
471.221012
 10
285.617623
 20
471.217505
 10
285.632618
 20
471.214187
 10
285.647918
 20
471.211067
 10
285.66322
 20
471.207945
 10
285.67884
 20
471.20503
 10
285.694766
 20
471.202372
 10
285.710693
 20
471.199715
 10
285.726933
 20
471.197325
 10
285.743323
 20
471.195235
 10
285.759713
 20
471.193145
 10
285.776261
 20
471.191367
 10
285.792871
 20
471.18987
 10
285.809481
 20
471.188372
 10
285.826158
 20
471.187165
 10
285.842903
 20
471.186197
 10
285.859648
 20
471.185232
 10
285.876466
 20
471.184515
 10
285.893348
 20
471.184092
 10
285.910228
 20
471.183667
 10
285.927178
 20
471.183545
 10
285.944126
 20
471.18342
  0
ARC
  5
2DD
100
AcDbEntity
  8
M4
  6
CONTINUOUS
370
25
 62
   154
100
AcDbCircle
 10
285.577293
 20
417.790597
 40
1.0
100
AcDbArc
 50
180.0
 51
270.0
  0
ARC
  5
2DE
100
AcDbEntity
  8
M4
  6
CONTINUOUS
370
25
 62
   154
100
AcDbCircle
 10
285.577293
 20
466.590597
 40
1.0
100
AcDbArc
 50
90.0
 51
180.0
  0
ARC
  5
2DF
100
AcDbEntity
  8
M4
  6
CONTINUOUS
370
25
 62
   154
100
AcDbCircle
 10
285.577293
 20
470.790597
 40
0.5
100
AcDbArc
 50
131.280533
 51
142.996957
  0
SPLINE
  5
2E0
100
AcDbEntity
  8
M4
  6
CONTINUOUS
370
25
 62
   154
100
AcDbSpline
210
0.0
220
0.0
230
-1.0
 70
     8
 71
     3
 72
     8
 73
     4
 43
0.0000001
 40
0.0
 40
0.0
 40
0.0
 40
0.0
 40
1.0
 40
1.0
 40
1.0
 40
1.0
 10
285.123221
 20
469.767595
 10
285.165748
 20
469.75516
 10
285.209171
 20
469.748977
 10
285.253478
 20
469.748977
  0
SPLINE
  5
2E1
100
AcDbEntity
  8
M4
  6
CONTINUOUS
370
25
 62
   154
100
AcDbSpline
210
0.0
220
0.0
230
-1.0
 70
     8
 71
     3
 72
   125
 73
   121
 43
0.0000001
 40
0.0
 40
0.0
 40
0.0
 40
0.0
 40
1.0
 40
1.0
 40
1.0
 40
2.0
 40
2.0
 40
2.0
 40
3.0
 40
3.0
 40
3.0
 40
4.0
 40
4.0
 40
4.0
 40
5.0
 40
5.0
 40
5.0
 40
6.0
 40
6.0
 40
6.0
 40
7.0
 40
7.0
 40
7.0
 40
8.0
 40
8.0
 40
8.0
 40
9.0
 40
9.0
 40
9.0
 40
10.0
 40
10.0
 40
10.0
 40
11.0
 40
11.0
 40
11.0
 40
12.0
 40
12.0
 40
12.0
 40
13.0
 40
13.0
 40
13.0
 40
14.0
 40
14.0
 40
14.0
 40
15.0
 40
15.0
 40
15.0
 40
16.0
 40
16.0
 40
16.0
 40
17.0
 40
17.0
 40
17.0
 40
18.0
 40
18.0
 40
18.0
 40
19.0
 40
19.0
 40
19.0
 40
20.0
 40
20.0
 40
20.0
 40
21.0
 40
21.0
 40
21.0
 40
22.0
 40
22.0
 40
22.0
 40
23.0
 40
23.0
 40
23.0
 40
24.0
 40
24.0
 40
24.0
 40
25.0
 40
25.0
 40
25.0
 40
26.0
 40
26.0
 40
26.0
 40
27.0
 40
27.0
 40
27.0
 40
28.0
 40
28.0
 40
28.0
 40
29.0
 40
29.0
 40
29.0
 40
30.0
 40
30.0
 40
30.0
 40
31.0
 40
31.0
 40
31.0
 40
32.0
 40
32.0
 40
32.0
 40
33.0
 40
33.0
 40
33.0
 40
34.0
 40
34.0
 40
34.0
 40
35.0
 40
35.0
 40
35.0
 40
36.0
 40
36.0
 40
36.0
 40
37.0
 40
37.0
 40
37.0
 40
38.0
 40
38.0
 40
38.0
 40
39.0
 40
39.0
 40
39.0
 40
40.0
 40
40.0
 40
40.0
 40
40.0
 10
284.781628
 20
344.202377
 10
284.781503
 20
344.202692
 10
284.781381
 20
344.20301
 10
284.781258
 20
344.203317
 10
284.781138
 20
344.203627
 10
284.781021
 20
344.20393
 10
284.780901
 20
344.204232
 10
284.780783
 20
344.204537
 10
284.780663
 20
344.20484
 10
284.780566
 20
344.205095
 10
284.780466
 20
344.20535
 10
284.780386
 20
344.205555
 10
284.780258
 20
344.20588
 10
284.780081
 20
344.206332
 10
284.779813
 20
344.20702
 10
284.779613
 20
344.20753
 10
284.779416
 20
344.208042
 10
284.779286
 20
344.208377
 10
284.779165
 20
344.208685
 10
284.779046
 20
344.208992
 10
284.778938
 20
344.209272
 10
284.778811
 20
344.20961
 10
284.778681
 20
344.209945
 10
284.778531
 20
344.210337
 10
284.778443
 20
344.210572
 10
284.778416
 20
344.210647
 10
284.778393
 20
344.210705
 10
284.778366
 20
344.210775
 10
284.778341
 20
344.210845
 10
284.778308
 20
344.210925
 10
284.778276
 20
344.21101
 10
284.778243
 20
344.211095
 10
284.778211
 20
344.211182
 10
284.778163
 20
344.211302
 10
284.778118
 20
344.211422
 10
284.778061
 20
344.211575
 10
284.778021
 20
344.211675
 10
284.777991
 20
344.211755
 10
284.777971
 20
344.211802
 10
284.777948
 20
344.211865
 10
284.777923
 20
344.21193
 10
284.777893
 20
344.212005
 10
284.777863
 20
344.212085
 10
284.777833
 20
344.212162
 10
284.777801
 20
344.212245
 10
284.777766
 20
344.21234
 10
284.777728
 20
344.212437
 10
284.777686
 20
344.21255
 10
284.777648
 20
344.212645
 10
284.777613
 20
344.21274
 10
284.777583
 20
344.212817
 10
284.777548
 20
344.212907
 10
284.777516
 20
344.212995
 10
284.777478
 20
344.213092
 10
284.777438
 20
344.213197
 10
284.777398
 20
344.213302
 10
284.777356
 20
344.213415
 10
284.777316
 20
344.21352
 10
284.777275
 20
344.213622
 10
284.777238
 20
344.213722
 10
284.777186
 20
344.213867
 10
284.777128
 20
344.21402
 10
284.777048
 20
344.214225
 10
284.776973
 20
344.214425
 10
284.776898
 20
344.214625
 10
284.776825
 20
344.214822
 10
284.776748
 20
344.215027
 10
284.776671
 20
344.215235
 10
284.776588
 20
344.215452
 10
284.776511
 20
344.21566
 10
284.776433
 20
344.215867
 10
284.776358
 20
344.216065
 10
284.776268
 20
344.21631
 10
284.776003
 20
344.21702
 10
284.775593
 20
344.218127
 10
284.775225
 20
344.219135
 10
284.774856
 20
344.220142
 10
284.774528
 20
344.221055
 10
284.774183
 20
344.222017
 10
284.773841
 20
344.22298
 10
284.773481
 20
344.223995
 10
284.773151
 20
344.224935
 10
284.772821
 20
344.225875
 10
284.772516
 20
344.226745
 10
284.772131
 20
344.227872
 10
284.771233
 20
344.230502
 10
284.769886
 20
344.234547
 10
284.768718
 20
344.23819
 10
284.767548
 20
344.241832
 10
284.766555
 20
344.24508
 10
284.765543
 20
344.248532
 10
284.764528
 20
344.251985
 10
284.763493
 20
344.255645
 10
284.762588
 20
344.258917
 10
284.761683
 20
344.262187
 10
284.760908
 20
344.265085
 10
284.759836
 20
344.269357
 10
284.758526
 20
344.274582
 10
284.756776
 20
344.28187
 10
284.755298
 20
344.28864
 10
284.753818
 20
344.295407
 10
284.752611
 20
344.30167
 10
284.751513
 20
344.308115
 10
284.750413
 20
344.31456
 10
284.749428
 20
344.32119
 10
284.748626
 20
344.327732
 10
284.747823
 20
344.334275
 10
284.747208
 20
344.340737
 10
284.746781
 20
344.34744
 10
284.746353
 20
344.354142
 10
284.746118
 20
344.36109
 10
284.746048
 20
344.367975
 10
284.745978
 20
344.374862
 10
284.746076
 20
344.381692
 10
284.746278
 20
344.388542
 10
284.746481
 20
344.39539
 10
284.746791
 20
344.40226
 10
284.747151
 20
344.409127
 10
284.747513
 20
344.415995
 10
284.747931
 20
344.42286
 10
284.748346
 20
344.429725
  0
LINE
  5
2E2
100
AcDbEntity
  8
M4
  6
CONTINUOUS
370
25
 62
   154
100
AcDbLine
 10
276.077291
 20
431.290597
 11
276.077291
 21
383.290597
  0
LINE
  5
2E3
100
AcDbEntity
  8
M4
  6
CONTINUOUS
370
25
 62
   154
100
AcDbLine
 10
281.077293
 20
436.790597
 11
281.077293
 21
432.2906
  0
SPLINE
  5
2E4
100
AcDbEntity
  8
M4
  6
CONTINUOUS
370
25
 62
   154
100
AcDbSpline
210
0.0
220
0.0
230
-1.0
 70
     8
 71
     3
 72
    65
 73
    61
 43
0.0000001
 40
0.0
 40
0.0
 40
0.0
 40
0.0
 40
1.0
 40
1.0
 40
1.0
 40
2.0
 40
2.0
 40
2.0
 40
3.0
 40
3.0
 40
3.0
 40
4.0
 40
4.0
 40
4.0
 40
5.0
 40
5.0
 40
5.0
 40
6.0
 40
6.0
 40
6.0
 40
7.0
 40
7.0
 40
7.0
 40
8.0
 40
8.0
 40
8.0
 40
9.0
 40
9.0
 40
9.0
 40
10.0
 40
10.0
 40
10.0
 40
11.0
 40
11.0
 40
11.0
 40
12.0
 40
12.0
 40
12.0
 40
13.0
 40
13.0
 40
13.0
 40
14.0
 40
14.0
 40
14.0
 40
15.0
 40
15.0
 40
15.0
 40
16.0
 40
16.0
 40
16.0
 40
17.0
 40
17.0
 40
17.0
 40
18.0
 40
18.0
 40
18.0
 40
19.0
 40
19.0
 40
19.0
 40
20.0
 40
20.0
 40
20.0
 40
20.0
 10
285.123221
 20
344.813592
 10
285.111513
 20
344.809407
 10
285.099806
 20
344.805225
 10
285.088168
 20
344.80096
 10
285.076531
 20
344.796695
 10
285.064958
 20
344.792352
 10
285.05353
 20
344.787852
 10
285.042101
 20
344.78335
 10
285.030811
 20
344.778695
 10
285.019723
 20
344.773797
 10
285.008638
 20
344.7689
 10
284.997751
 20
344.763767
 10
284.987163
 20
344.758325
 10
284.976576
 20
344.752882
 10
284.966281
 20
344.747137
 10
284.956293
 20
344.74112
 10
284.946306
 20
344.735102
 10
284.936618
 20
344.728817
 10
284.927243
 20
344.72227
 10
284.917868
 20
344.715722
 10
284.908798
 20
344.70892
 10
284.900183
 20
344.702012
 10
284.891568
 20
344.695105
 10
284.883401
 20
344.6881
 10
284.875276
 20
344.680585
 10
284.867153
 20
344.67307
 10
284.859063
 20
344.665052
 10
284.851483
 20
344.656982
 10
284.843906
 20
344.648912
 10
284.836828
 20
344.640795
 10
284.830046
 20
344.632455
 10
284.823263
 20
344.624112
 10
284.816765
 20
344.615552
 10
284.810738
 20
344.607115
 10
284.804713
 20
344.598677
 10
284.799148
 20
344.590367
 10
284.793338
 20
344.581075
 10
284.787531
 20
344.571782
 10
284.781471
 20
344.56151
 10
284.776131
 20
344.55122
 10
284.770791
 20
344.54093
 10
284.766161
 20
344.53062
 10
284.762243
 20
344.520442
 10
284.758326
 20
344.510265
 10
284.755113
 20
344.50022
 10
284.752903
 20
344.48856
 10
284.750691
 20
344.4769
 10
284.749478
 20
344.463622
 10
284.749323
 20
344.455385
 10
284.749278
 20
344.453022
 10
284.749321
 20
344.451072
 10
284.749381
 20
344.449002
 10
284.749441
 20
344.446935
 10
284.749521
 20
344.444747
 10
284.749623
 20
344.442585
 10
284.749726
 20
344.440422
 10
284.749853
 20
344.438285
 10
284.749988
 20
344.436137
 10
284.750123
 20
344.433992
 10
284.750268
 20
344.431835
 10
284.750416
 20
344.42968
  0
LINE
  5
2E5
100
AcDbEntity
  8
M4
  6
CONTINUOUS
370
25
 62
   154
100
AcDbLine
 10
281.077293
 20
432.2906
 11
274.077293
 21
432.2906
  0
LINE
  5
2E6
100
AcDbEntity
  8
M4
  6
CONTINUOUS
370
25
 62
   154
100
AcDbLine
 10
298.377293
 20
366.390602
 11
304.577291
 21
364.390597
  0
LINE
  5
2E7
100
AcDbEntity
  8
M4
  6
CONTINUOUS
370
25
 62
   154
100
AcDbLine
 10
273.077293
 20
383.290597
 11
273.077293
 21
431.290597
  0
LINE
  5
2E8
100
AcDbEntity
  8
M4
  6
CONTINUOUS
370
25
 62
   154
100
AcDbLine
 10
297.077293
 20
398.290597
 11
297.077293
 21
396.790602
  0
LINE
  5
2E9
100
AcDbEntity
  8
M4
  6
CONTINUOUS
370
25
 62
   154
100
AcDbLine
 10
274.077293
 20
382.290595
 11
281.077293
 21
382.290595
  0
LINE
  5
2EA
100
AcDbEntity
  8
M4
  6
CONTINUOUS
370
25
 62
   154
100
AcDbLine
 10
304.577291
 20
399.2906
 11
298.077293
 21
399.2906
  0
ARC
  5
2EB
100
AcDbEntity
  8
M4
  6
CONTINUOUS
370
25
 62
   154
100
AcDbCircle
 10
287.577293
 20
345.290597
 40
3.0
100
AcDbArc
 50
202.143917
 51
216.454553
  0
ARC
  5
2EC
100
AcDbEntity
  8
M4
  6
CONTINUOUS
370
25
 62
   154
100
AcDbCircle
 10
277.077293
 20
383.290597
 40
1.0
100
AcDbArc
 50
180.0
 51
270.0
  0
ARC
  5
2ED
100
AcDbEntity
  8
M4
  6
CONTINUOUS
370
25
 62
   154
100
AcDbCircle
 10
277.077293
 20
431.290597
 40
1.0
100
AcDbArc
 50
90.0
 51
180.0
  0
ARC
  5
2EE
100
AcDbEntity
  8
M4
  6
CONTINUOUS
370
25
 62
   154
100
AcDbCircle
 10
274.077293
 20
431.290597
 40
1.0
100
AcDbArc
 50
90.0
 51
180.0
  0
LINE
  5
2EF
100
AcDbEntity
  8
M4
  6
CONTINUOUS
370
25
 62
   154
100
AcDbLine
 10
304.577291
 20
472.290597
 11
287.577293
 21
472.290597
  0
LINE
  5
2F0
100
AcDbEntity
  8
M4
  6
CONTINUOUS
370
25
 62
   154
100
AcDbLine
 10
304.577291
 20
471.790597
 11
304.577291
 21
471.18342
  0
SPLINE
  5
2F1
100
AcDbEntity
  8
M4
  6
CONTINUOUS
370
25
 62
   154
100
AcDbSpline
210
0.0
220
0.0
230
-1.0
 70
     8
 71
     3
 72
   113
 73
   109
 43
0.0000001
 40
0.0
 40
0.0
 40
0.0
 40
0.0
 40
1.0
 40
1.0
 40
1.0
 40
2.0
 40
2.0
 40
2.0
 40
3.0
 40
3.0
 40
3.0
 40
4.0
 40
4.0
 40
4.0
 40
5.0
 40
5.0
 40
5.0
 40
6.0
 40
6.0
 40
6.0
 40
7.0
 40
7.0
 40
7.0
 40
8.0
 40
8.0
 40
8.0
 40
9.0
 40
9.0
 40
9.0
 40
10.0
 40
10.0
 40
10.0
 40
11.0
 40
11.0
 40
11.0
 40
12.0
 40
12.0
 40
12.0
 40
13.0
 40
13.0
 40
13.0
 40
14.0
 40
14.0
 40
14.0
 40
15.0
 40
15.0
 40
15.0
 40
16.0
 40
16.0
 40
16.0
 40
17.0
 40
17.0
 40
17.0
 40
18.0
 40
18.0
 40
18.0
 40
19.0
 40
19.0
 40
19.0
 40
20.0
 40
20.0
 40
20.0
 40
21.0
 40
21.0
 40
21.0
 40
22.0
 40
22.0
 40
22.0
 40
23.0
 40
23.0
 40
23.0
 40
24.0
 40
24.0
 40
24.0
 40
25.0
 40
25.0
 40
25.0
 40
26.0
 40
26.0
 40
26.0
 40
27.0
 40
27.0
 40
27.0
 40
28.0
 40
28.0
 40
28.0
 40
29.0
 40
29.0
 40
29.0
 40
30.0
 40
30.0
 40
30.0
 40
31.0
 40
31.0
 40
31.0
 40
32.0
 40
32.0
 40
32.0
 40
33.0
 40
33.0
 40
33.0
 40
34.0
 40
34.0
 40
34.0
 40
35.0
 40
35.0
 40
35.0
 40
36.0
 40
36.0
 40
36.0
 40
36.0
 10
284.780368
 20
470.375577
 10
284.780638
 20
470.376275
 10
284.780906
 20
470.37697
 10
284.78119
 20
470.377705
 10
284.781473
 20
470.37844
 10
284.781773
 20
470.37921
 10
284.782108
 20
470.380075
 10
284.782443
 20
470.380937
 10
284.782816
 20
470.38189
 10
284.783223
 20
470.382932
 10
284.783631
 20
470.383975
 10
284.784073
 20
470.385105
 10
284.784631
 20
470.386522
 10
284.785518
 20
470.388782
 10
284.786693
 20
470.39176
 10
284.788016
 20
470.395095
 10
284.789336
 20
470.39843
 10
284.790803
 20
470.402112
 10
284.792443
 20
470.406205
 10
284.794083
 20
470.410295
 10
284.795896
 20
470.41479
 10
284.79774
 20
470.41934
 10
284.799586
 20
470.42389
 10
284.801463
 20
470.428492
 10
284.803731
 20
470.433992
 10
284.805998
 20
470.439495
 10
284.808653
 20
470.445887
 10
284.811336
 20
470.45228
 10
284.814018
 20
470.458672
 10
284.816726
 20
470.46506
 10
284.819613
 20
470.471792
 10
284.822498
 20
470.478527
 10
284.825561
 20
470.485597
 10
284.828538
 20
470.49241
 10
284.831513
 20
470.499222
 10
284.834398
 20
470.50577
 10
284.838088
 20
470.514012
 10
284.841778
 20
470.522255
 10
284.846268
 20
470.532182
 10
284.850706
 20
470.541855
 10
284.855143
 20
470.55153
 10
284.859523
 20
470.56094
 10
284.864151
 20
470.570735
 10
284.868778
 20
470.58053
 10
284.873646
 20
470.590702
 10
284.878326
 20
470.60037
 10
284.883006
 20
470.61004
 10
284.887496
 20
470.619202
 10
284.893136
 20
470.630485
 10
284.898776
 20
470.641767
 10
284.905563
 20
470.65516
 10
284.912183
 20
470.667987
 10
284.918801
 20
470.680815
 10
284.925253
 20
470.693072
 10
284.931953
 20
470.705587
 10
284.938656
 20
470.7181
 10
284.945601
 20
470.730865
 10
284.952351
 20
470.74308
 10
284.959101
 20
470.755292
 10
284.965648
 20
470.766957
 10
284.973276
 20
470.78026
 10
284.980901
 20
470.79356
 10
284.989603
 20
470.808495
 10
284.998123
 20
470.822832
 10
285.006643
 20
470.837167
 10
285.014983
 20
470.850912
 10
285.023228
 20
470.8643
 10
285.031476
 20
470.877687
 10
285.039631
 20
470.890725
 10
285.048273
 20
470.904262
 10
285.056918
 20
470.9178
 10
285.066053
 20
470.931845
 10
285.072936
 20
470.942317
 10
285.079656
 20
470.952542
 10
285.084235
 20
470.959375
 10
285.089306
 20
470.966882
 10
285.094376
 20
470.97439
 10
285.099943
 20
470.98258
 10
285.105163
 20
470.990182
 10
285.110383
 20
470.997785
 10
285.115263
 20
471.004817
 10
285.120318
 20
471.01202
 10
285.125373
 20
471.019225
 10
285.130606
 20
471.026615
 10
285.134583
 20
471.0322
 10
285.138563
 20
471.037785
 10
285.141296
 20
471.04158
 10
285.144193
 20
471.045587
 10
285.147091
 20
471.049597
 10
285.150161
 20
471.05383
 10
285.152941
 20
471.057645
 10
285.155721
 20
471.06146
 10
285.158216
 20
471.064867
 10
285.160526
 20
471.06801
 10
285.162833
 20
471.07115
 10
285.164958
 20
471.074032
 10
285.166648
 20
471.076317
 10
285.168308
 20
471.078565
 10
285.169551
 20
471.080242
 10
285.170673
 20
471.081755
 10
285.171798
 20
471.083267
 10
285.172803
 20
471.084617
 10
285.173681
 20
471.08579
 10
285.174558
 20
471.086965
 10
285.175308
 20
471.087965
 10
285.176005
 20
471.088892
 10
285.176703
 20
471.08982
 10
285.177348
 20
471.090675
 10
285.177991
 20
471.091527
  0
LINE
  5
2F2
100
AcDbEntity
  8
M4
  6
CONTINUOUS
370
25
 62
   154
100
AcDbLine
 10
297.077293
 20
416.790597
 11
297.077293
 21
415.2906
  0
ARC
  5
2F3
100
AcDbEntity
  8
M4
  6
CONTINUOUS
370
25
 62
   154
100
AcDbCircle
 10
274.077293
 20
383.290597
 40
1.0
100
AcDbArc
 50
180.0
 51
270.0
  0
SPLINE
  5
2F4
100
AcDbEntity
  8
M4
  6
CONTINUOUS
370
25
 62
   154
100
AcDbSpline
210
0.0
220
0.0
230
-1.0
 70
     8
 71
     3
 72
   125
 73
   121
 43
0.0000001
 40
0.0
 40
0.0
 40
0.0
 40
0.0
 40
1.0
 40
1.0
 40
1.0
 40
2.0
 40
2.0
 40
2.0
 40
3.0
 40
3.0
 40
3.0
 40
4.0
 40
4.0
 40
4.0
 40
5.0
 40
5.0
 40
5.0
 40
6.0
 40
6.0
 40
6.0
 40
7.0
 40
7.0
 40
7.0
 40
8.0
 40
8.0
 40
8.0
 40
9.0
 40
9.0
 40
9.0
 40
10.0
 40
10.0
 40
10.0
 40
11.0
 40
11.0
 40
11.0
 40
12.0
 40
12.0
 40
12.0
 40
13.0
 40
13.0
 40
13.0
 40
14.0
 40
14.0
 40
14.0
 40
15.0
 40
15.0
 40
15.0
 40
16.0
 40
16.0
 40
16.0
 40
17.0
 40
17.0
 40
17.0
 40
18.0
 40
18.0
 40
18.0
 40
19.0
 40
19.0
 40
19.0
 40
20.0
 40
20.0
 40
20.0
 40
21.0
 40
21.0
 40
21.0
 40
22.0
 40
22.0
 40
22.0
 40
23.0
 40
23.0
 40
23.0
 40
24.0
 40
24.0
 40
24.0
 40
25.0
 40
25.0
 40
25.0
 40
26.0
 40
26.0
 40
26.0
 40
27.0
 40
27.0
 40
27.0
 40
28.0
 40
28.0
 40
28.0
 40
29.0
 40
29.0
 40
29.0
 40
30.0
 40
30.0
 40
30.0
 40
31.0
 40
31.0
 40
31.0
 40
32.0
 40
32.0
 40
32.0
 40
33.0
 40
33.0
 40
33.0
 40
34.0
 40
34.0
 40
34.0
 40
35.0
 40
35.0
 40
35.0
 40
36.0
 40
36.0
 40
36.0
 40
37.0
 40
37.0
 40
37.0
 40
38.0
 40
38.0
 40
38.0
 40
39.0
 40
39.0
 40
39.0
 40
40.0
 40
40.0
 40
40.0
 40
40.0
 10
285.248218
 20
343.415282
 10
285.245803
 20
343.417375
 10
285.243391
 20
343.419467
 10
285.240986
 20
343.421565
 10
285.238583
 20
343.423665
 10
285.236191
 20
343.425775
 10
285.233813
 20
343.427902
 10
285.231436
 20
343.430032
 10
285.229076
 20
343.432185
 10
285.226753
 20
343.434347
 10
285.224433
 20
343.436512
 10
285.222156
 20
343.438695
 10
285.219868
 20
343.440957
 10
285.217583
 20
343.44322
 10
285.215291
 20
343.445567
 10
285.213031
 20
343.44795
 10
285.210771
 20
343.450335
 10
285.208548
 20
343.452755
 10
285.206393
 20
343.455147
 10
285.204241
 20
343.457542
 10
285.202166
 20
343.459905
 10
285.199916
 20
343.462527
 10
285.197668
 20
343.465147
 10
285.195261
 20
343.468017
 10
285.193558
 20
343.47006
 10
285.192286
 20
343.471587
 10
285.191416
 20
343.472647
 10
285.190433
 20
343.473852
 10
285.189451
 20
343.475057
 10
285.188365
 20
343.476395
 10
285.187346
 20
343.477657
 10
285.186328
 20
343.478922
 10
285.185383
 20
343.48011
 10
285.184321
 20
343.481457
 10
285.183258
 20
343.482805
 10
285.182091
 20
343.484302
 10
285.181376
 20
343.48523
 10
285.181201
 20
343.485457
 10
285.181051
 20
343.485647
 10
285.180898
 20
343.485847
 10
285.180743
 20
343.486047
 10
285.180586
 20
343.486255
 10
285.180433
 20
343.486452
 10
285.18028
 20
343.48665
 10
285.180138
 20
343.486837
 10
285.179991
 20
343.48703
 10
285.179843
 20
343.487225
 10
285.179693
 20
343.487422
 10
285.179581
 20
343.48757
 10
285.179496
 20
343.487682
 10
285.179436
 20
343.487762
 10
285.179371
 20
343.487847
 10
285.179306
 20
343.487932
 10
285.179238
 20
343.488022
 10
285.179173
 20
343.488107
 10
285.179108
 20
343.488192
 10
285.179051
 20
343.488272
 10
285.178991
 20
343.488347
 10
285.178933
 20
343.488425
 10
285.178878
 20
343.4885
 10
285.178826
 20
343.488567
 10
285.178773
 20
343.488635
 10
285.178726
 20
343.488697
 10
285.178681
 20
343.488757
 10
285.178636
 20
343.488817
 10
285.178593
 20
343.488875
 10
285.178551
 20
343.48893
 10
285.178508
 20
343.488985
 10
285.178468
 20
343.489037
 10
285.178433
 20
343.489082
 10
285.178398
 20
343.48913
 10
285.178368
 20
343.489165
 10
285.178326
 20
343.489222
 10
285.178283
 20
343.48928
 10
285.178226
 20
343.489355
 10
285.178176
 20
343.48942
 10
285.178128
 20
343.489485
 10
285.178086
 20
343.489537
 10
285.178046
 20
343.489592
 10
285.178006
 20
343.489645
 10
285.177966
 20
343.489697
 10
285.177933
 20
343.489742
 10
285.177898
 20
343.489787
 10
285.177873
 20
343.489822
 10
285.177831
 20
343.489877
 10
285.177776
 20
343.489952
 10
285.177693
 20
343.49006
 10
285.177628
 20
343.490147
 10
285.177561
 20
343.490237
 10
285.177506
 20
343.490307
 10
285.177453
 20
343.490377
 10
285.177401
 20
343.490447
 10
285.177348
 20
343.490515
 10
285.177303
 20
343.490575
 10
285.177256
 20
343.490637
 10
285.177216
 20
343.49069
 10
285.177163
 20
343.490757
 10
285.177026
 20
343.49094
 10
285.176803
 20
343.491232
 10
285.176608
 20
343.491492
 10
285.176411
 20
343.491752
 10
285.176235
 20
343.491987
 10
285.176036
 20
343.492255
 10
285.175838
 20
343.492522
 10
285.175611
 20
343.492827
 10
285.175366
 20
343.493157
 10
285.175118
 20
343.49349
 10
285.174848
 20
343.493857
 10
285.174506
 20
343.49432
 10
285.174018
 20
343.494977
 10
285.173376
 20
343.495845
 10
285.172668
 20
343.496805
 10
285.171958
 20
343.497765
 10
285.171171
 20
343.498832
 10
285.170328
 20
343.49997
 10
285.169486
 20
343.50111
 10
285.16858
 20
343.502332
 10
285.167653
 20
343.503587
 10
285.166726
 20
343.504842
 10
285.165768
 20
343.50614
 10
285.164813
 20
343.507432
  0
SPLINE
  5
2F5
100
AcDbEntity
  8
M4
  6
CONTINUOUS
370
25
 62
   154
100
AcDbSpline
210
0.0
220
0.0
230
-1.0
 70
     8
 71
     3
 72
    65
 73
    61
 43
0.0000001
 40
0.0
 40
0.0
 40
0.0
 40
0.0
 40
1.0
 40
1.0
 40
1.0
 40
2.0
 40
2.0
 40
2.0
 40
3.0
 40
3.0
 40
3.0
 40
4.0
 40
4.0
 40
4.0
 40
5.0
 40
5.0
 40
5.0
 40
6.0
 40
6.0
 40
6.0
 40
7.0
 40
7.0
 40
7.0
 40
8.0
 40
8.0
 40
8.0
 40
9.0
 40
9.0
 40
9.0
 40
10.0
 40
10.0
 40
10.0
 40
11.0
 40
11.0
 40
11.0
 40
12.0
 40
12.0
 40
12.0
 40
13.0
 40
13.0
 40
13.0
 40
14.0
 40
14.0
 40
14.0
 40
15.0
 40
15.0
 40
15.0
 40
16.0
 40
16.0
 40
16.0
 40
17.0
 40
17.0
 40
17.0
 40
18.0
 40
18.0
 40
18.0
 40
19.0
 40
19.0
 40
19.0
 40
20.0
 40
20.0
 40
20.0
 40
20.0
 10
284.750416
 20
470.151535
 10
284.750271
 20
470.149375
 10
284.750126
 20
470.147217
 10
284.749988
 20
470.14507
 10
284.749853
 20
470.142922
 10
284.749726
 20
470.140785
 10
284.749623
 20
470.13862
 10
284.749521
 20
470.136455
 10
284.749441
 20
470.134267
 10
284.749381
 20
470.132197
 10
284.749321
 20
470.130127
 10
284.749278
 20
470.128177
 10
284.749323
 20
470.125812
 10
284.749481
 20
470.11757
 10
284.750691
 20
470.104297
 10
284.752903
 20
470.09264
 10
284.755116
 20
470.08098
 10
284.758326
 20
470.070935
 10
284.762246
 20
470.060755
 10
284.766166
 20
470.050577
 10
284.770786
 20
470.040267
 10
284.776131
 20
470.029977
 10
284.781473
 20
470.019687
 10
284.787528
 20
470.009415
 10
284.793338
 20
470.000122
 10
284.799151
 20
469.99083
 10
284.804708
 20
469.98252
 10
284.810738
 20
469.974085
 10
284.816768
 20
469.96565
 10
284.823261
 20
469.957085
 10
284.830046
 20
469.948747
 10
284.836831
 20
469.940407
 10
284.843903
 20
469.93229
 10
284.851486
 20
469.924222
 10
284.859066
 20
469.916152
 10
284.867151
 20
469.908132
 10
284.875276
 20
469.900617
 10
284.883403
 20
469.893105
 10
284.891566
 20
469.886097
 10
284.900183
 20
469.87919
 10
284.908801
 20
469.872285
 10
284.917866
 20
469.865477
 10
284.927243
 20
469.858932
 10
284.936621
 20
469.852385
 10
284.946303
 20
469.846097
 10
284.956293
 20
469.84008
 10
284.966283
 20
469.834062
 10
284.976573
 20
469.828315
 10
284.987163
 20
469.822875
 10
284.997753
 20
469.817432
 10
285.008636
 20
469.812295
 10
285.019723
 20
469.8074
 10
285.030811
 20
469.802502
 10
285.042101
 20
469.797842
 10
285.05353
 20
469.793342
 10
285.064961
 20
469.788842
 10
285.076528
 20
469.784497
 10
285.088168
 20
469.780232
 10
285.099806
 20
469.775967
 10
285.111511
 20
469.771782
 10
285.123221
 20
469.767597
  0
LINE
  5
2F6
100
AcDbEntity
  8
M4
  6
CONTINUOUS
370
25
 62
   154
100
AcDbLine
 10
284.577293
 20
395.7906
 11
284.577293
 21
373.678082
  0
LINE
  5
2F7
100
AcDbEntity
  8
M4
  6
CONTINUOUS
370
25
 62
   154
100
AcDbLine
 10
284.577293
 20
365.321972
 11
284.577293
 21
365.290597
  0
ARC
  5
2F8
100
AcDbEntity
  8
M4
  6
CONTINUOUS
370
25
 62
   154
100
AcDbCircle
 10
298.077293
 20
398.290597
 40
1.0
100
AcDbArc
 50
90.0
 51
180.0
  0
ARC
  5
2F9
100
AcDbEntity
  8
M4
  6
CONTINUOUS
370
25
 62
   154
100
AcDbCircle
 10
283.577293
 20
373.67808
 40
1.0
100
AcDbArc
 50
282.839588
 51
360.0
  0
SPLINE
  5
2FA
100
AcDbEntity
  8
M4
  6
CONTINUOUS
370
25
 62
   154
100
AcDbSpline
210
0.0
220
0.0
230
-1.0
 70
     8
 71
     3
 72
    41
 73
    37
 43
0.0000001
 40
0.0
 40
0.0
 40
0.0
 40
0.0
 40
1.0
 40
1.0
 40
1.0
 40
2.0
 40
2.0
 40
2.0
 40
3.0
 40
3.0
 40
3.0
 40
4.0
 40
4.0
 40
4.0
 40
5.0
 40
5.0
 40
5.0
 40
6.0
 40
6.0
 40
6.0
 40
7.0
 40
7.0
 40
7.0
 40
8.0
 40
8.0
 40
8.0
 40
9.0
 40
9.0
 40
9.0
 40
10.0
 40
10.0
 40
10.0
 40
11.0
 40
11.0
 40
11.0
 40
12.0
 40
12.0
 40
12.0
 40
12.0
 10
285.251988
 20
343.419455
 10
285.255943
 20
343.415545
 10
285.259893
 20
343.411632
 10
285.263833
 20
343.407792
 10
285.267773
 20
343.40395
 10
285.271698
 20
343.400177
 10
285.275788
 20
343.39643
 10
285.279876
 20
343.39268
 10
285.284123
 20
343.388952
 10
285.287953
 20
343.385667
 10
285.291783
 20
343.382385
 10
285.295193
 20
343.37954
 10
285.300438
 20
343.37581
 10
285.307583
 20
343.37073
 10
285.318118
 20
343.364002
 10
285.328123
 20
343.358782
 10
285.338128
 20
343.353562
 10
285.347593
 20
343.349842
 10
285.357556
 20
343.346697
 10
285.367516
 20
343.343552
 10
285.37796
 20
343.340975
 10
285.388583
 20
343.339135
 10
285.399206
 20
343.337297
 10
285.409998
 20
343.336185
 10
285.421056
 20
343.335682
 10
285.432116
 20
343.335177
 10
285.443428
 20
343.33527
 10
285.454896
 20
343.335835
 10
285.466366
 20
343.336402
 10
285.477983
 20
343.337432
 10
285.489713
 20
343.338772
 10
285.501443
 20
343.340115
 10
285.513286
 20
343.341762
 10
285.52518
 20
343.343565
 10
285.537076
 20
343.34537
 10
285.549023
 20
343.347327
 10
285.560973
 20
343.349285
  0
LINE
  5
2FB
100
AcDbEntity
  8
M4
  6
CONTINUOUS
370
25
 62
   154
100
AcDbLine
 10
297.077293
 20
396.790602
 11
285.577293
 21
396.790602
  0
LINE
  5
2FC
100
AcDbEntity
  8
M4
  6
CONTINUOUS
370
25
 62
   154
100
AcDbLine
 10
292.577293
 20
364.290595
 11
292.577293
 21
357.790597
  0
LINE
  5
2FD
100
AcDbEntity
  8
M4
  6
CONTINUOUS
370
25
 62
   154
100
AcDbLine
 10
304.577291
 20
343.397775
 11
285.944126
 21
343.397775
  0
LINE
  5
2FE
100
AcDbEntity
  8
M4
  6
CONTINUOUS
370
25
 62
   154
100
AcDbLine
 10
298.377293
 20
366.390602
 11
298.377293
 21
395.2906
  0
ARC
  5
2FF
100
AcDbEntity
  8
M4
  6
CONTINUOUS
370
25
 62
   154
100
AcDbCircle
 10
284.577293
 20
369.290597
 40
3.5
100
AcDbArc
 50
102.839588
 51
180.0
  0
LINE
  5
300
100
AcDbEntity
  8
M4
  6
CONTINUOUS
370
25
 62
   154
100
AcDbLine
 10
285.577293
 20
416.790597
 11
297.077293
 21
416.790597
  0
LINE
  5
301
100
AcDbEntity
  8
M4
  6
CONTINUOUS
370
25
 62
   154
100
AcDbLine
 10
284.577293
 20
365.290597
 11
284.577293
 21
345.290597
  0
LINE
  5
302
100
AcDbEntity
  8
M4
  6
CONTINUOUS
370
25
 62
   154
100
AcDbLine
 10
304.577291
 20
397.090602
 11
304.577291
 21
472.290597
  0
LINE
  5
303
100
AcDbEntity
  8
M4
  6
CONTINUOUS
370
25
 62
   154
100
AcDbLine
 10
287.577293
 20
342.290602
 11
304.577291
 21
342.290602
  0
LINE
  5
304
100
AcDbEntity
  8
M4
  6
CONTINUOUS
370
25
 62
   154
100
AcDbLine
 10
285.253478
 20
344.83222
 11
304.577291
 21
344.83222
  0
SPLINE
  5
305
100
AcDbEntity
  8
M4
  6
CONTINUOUS
370
25
 62
   154
100
AcDbSpline
210
0.0
220
0.0
230
-1.0
 70
     8
 71
     3
 72
     8
 73
     4
 43
0.0000001
 40
0.0
 40
0.0
 40
0.0
 40
0.0
 40
1.0
 40
1.0
 40
1.0
 40
1.0
 10
285.253478
 20
344.832217
 10
285.209171
 20
344.832217
 10
285.165748
 20
344.826037
 10
285.123221
 20
344.8136
  0
ARC
  5
306
100
AcDbEntity
  8
M4
  6
CONTINUOUS
370
25
 62
   154
100
AcDbCircle
 10
284.077293
 20
365.321972
 40
0.5
100
AcDbArc
 50
0.0
 51
82.819244
  0
SPLINE
  5
307
100
AcDbEntity
  8
M4
  6
CONTINUOUS
370
25
 62
   154
100
AcDbSpline
210
0.0
220
0.0
230
-1.0
 70
     8
 71
     3
 72
    29
 73
    25
 43
0.0000001
 40
0.0
 40
0.0
 40
0.0
 40
0.0
 40
1.0
 40
1.0
 40
1.0
 40
2.0
 40
2.0
 40
2.0
 40
3.0
 40
3.0
 40
3.0
 40
4.0
 40
4.0
 40
4.0
 40
5.0
 40
5.0
 40
5.0
 40
6.0
 40
6.0
 40
6.0
 40
7.0
 40
7.0
 40
7.0
 40
8.0
 40
8.0
 40
8.0
 40
8.0
 10
285.944126
 20
343.397777
 10
285.927156
 20
343.397655
 10
285.910188
 20
343.397525
 10
285.893311
 20
343.397105
 10
285.876436
 20
343.396682
 10
285.859656
 20
343.39596
 10
285.842956
 20
343.395002
 10
285.826256
 20
343.394042
 10
285.809643
 20
343.392832
 10
285.793121
 20
343.39135
 10
285.776598
 20
343.389867
 10
285.760168
 20
343.388097
 10
285.743866
 20
343.38603
 10
285.727561
 20
343.38396
 10
285.711391
 20
343.38158
 10
285.695471
 20
343.378932
 10
285.679553
 20
343.376287
 10
285.663893
 20
343.373365
 10
285.648518
 20
343.37024
 10
285.633143
 20
343.367115
 10
285.618061
 20
343.363782
 10
285.603516
 20
343.360257
 10
285.588971
 20
343.356732
 10
285.574976
 20
343.35301
 10
285.560973
 20
343.349292
  0
LINE
  5
308
100
AcDbEntity
  8
M4
  6
CONTINUOUS
370
25
 62
   154
100
AcDbLine
 10
304.577291
 20
471.18342
 11
285.944126
 21
471.18342
  0
LINE
  5
309
100
AcDbEntity
  8
M4
  6
CONTINUOUS
370
25
 62
   154
100
AcDbLine
 10
285.253478
 20
469.748977
 11
304.577291
 21
469.748977
  0
ARC
  5
30A
100
AcDbEntity
  8
M4
  6
CONTINUOUS
370
25
 62
   154
100
AcDbCircle
 10
285.577293
 20
356.790597
 40
1.0
100
AcDbArc
 50
90.0
 51
180.0
  0
LINE
  5
30B
100
AcDbEntity
  8
M4
  6
CONTINUOUS
370
25
 62
   154
100
AcDbLine
 10
284.577293
 20
469.290597
 11
284.577293
 21
417.790597
  0
LINE
  5
30C
100
AcDbEntity
  8
M4
  6
CONTINUOUS
370
25
 62
   154
100
AcDbLine
 10
302.577291
 20
399.2906
 11
302.577291
 21
414.2906
  0
LINE
  5
30D
100
AcDbEntity
  8
M4
  6
CONTINUOUS
370
25
 62
   154
100
AcDbLine
 10
285.577293
 20
346.990592
 11
304.577291
 21
346.990592
  0
ARC
  5
30E
100
AcDbEntity
  8
M4
  6
CONTINUOUS
370
25
 62
   154
100
AcDbCircle
 10
287.577293
 20
469.290597
 40
3.0
100
AcDbArc
 50
157.010821
 51
180.0
  0
ARC
  5
30F
100
AcDbEntity
  8
M4
  6
CONTINUOUS
370
25
 62
   154
100
AcDbCircle
 10
285.577293
 20
395.790597
 40
1.0
100
AcDbArc
 50
90.0
 51
180.0
  0
ARC
  5
310
100
AcDbEntity
  8
M4
  6
CONTINUOUS
370
25
 62
   154
100
AcDbCircle
 10
287.577293
 20
345.290597
 40
3.0
100
AcDbArc
 50
216.379943
 51
270.0
  0
ARC
  5
311
100
AcDbEntity
  8
M4
  6
CONTINUOUS
370
25
 62
   154
100
AcDbCircle
 10
284.577293
 20
369.290597
 40
3.5
100
AcDbArc
 50
180.0
 51
262.819244
  0
ARC
  5
312
100
AcDbEntity
  8
M4
  6
CONTINUOUS
370
25
 62
   154
100
AcDbCircle
 10
285.577293
 20
347.990597
 40
1.0
100
AcDbArc
 50
180.0
 51
270.0
  0
SPLINE
  5
313
100
AcDbEntity
  8
M4
  6
CONTINUOUS
370
25
 62
   154
100
AcDbSpline
210
0.0
220
0.0
230
-1.0
 70
     8
 71
     3
 72
    41
 73
    37
 43
0.0000001
 40
0.0
 40
0.0
 40
0.0
 40
0.0
 40
1.0
 40
1.0
 40
1.0
 40
2.0
 40
2.0
 40
2.0
 40
3.0
 40
3.0
 40
3.0
 40
4.0
 40
4.0
 40
4.0
 40
5.0
 40
5.0
 40
5.0
 40
6.0
 40
6.0
 40
6.0
 40
7.0
 40
7.0
 40
7.0
 40
8.0
 40
8.0
 40
8.0
 40
9.0
 40
9.0
 40
9.0
 40
10.0
 40
10.0
 40
10.0
 40
11.0
 40
11.0
 40
11.0
 40
12.0
 40
12.0
 40
12.0
 40
12.0
 10
285.560973
 20
471.231905
 10
285.548978
 20
471.233865
 10
285.536983
 20
471.235827
 10
285.525043
 20
471.237632
 10
285.513106
 20
471.239435
 10
285.501218
 20
471.241085
 10
285.489443
 20
471.242422
 10
285.477671
 20
471.24376
 10
285.466008
 20
471.244792
 10
285.454501
 20
471.245347
 10
285.442993
 20
471.245902
 10
285.431633
 20
471.24599
 10
285.420541
 20
471.245467
 10
285.409448
 20
471.244945
 10
285.398616
 20
471.24382
 10
285.387961
 20
471.241952
 10
285.377306
 20
471.240082
 10
285.366821
 20
471.23748
 10
285.356836
 20
471.234297
 10
285.346851
 20
471.231115
 10
285.337356
 20
471.22736
 10
285.327321
 20
471.22208
 10
285.317288
 20
471.216797
 10
285.306711
 20
471.209997
 10
285.299571
 20
471.204872
 10
285.294411
 20
471.20117
 10
285.291038
 20
471.198345
 10
285.287258
 20
471.195085
 10
285.283481
 20
471.191822
 10
285.279291
 20
471.18813
 10
285.275261
 20
471.184412
 10
285.271231
 20
471.180697
 10
285.267356
 20
471.17696
 10
285.263468
 20
471.173155
 10
285.259583
 20
471.169347
 10
285.255681
 20
471.165475
 10
285.251783
 20
471.161602
  0
LINE
  5
314
100
AcDbEntity
  8
M4
  6
CONTINUOUS
370
25
 62
   154
100
AcDbLine
 10
285.577293
 20
364.290595
 11
292.577293
 21
364.290595
  0
ARC
  5
315
100
AcDbEntity
  8
M4
  6
CONTINUOUS
370
25
 62
   154
100
AcDbCircle
 10
287.577293
 20
469.290597
 40
3.0
100
AcDbArc
 50
90.0
 51
143.620057
  0
ARC
  5
316
100
AcDbEntity
  8
M4
  6
CONTINUOUS
370
25
 62
   154
100
AcDbCircle
 10
287.577293
 20
345.290597
 40
3.0
100
AcDbArc
 50
180.0
 51
202.989179
  0
LINE
  5
317
100
AcDbEntity
  8
M4
  6
CONTINUOUS
370
25
 62
   154
100
AcDbLine
 10
281.077293
 20
381.2906
 11
281.077293
 21
380.7906
  0
LINE
  5
318
100
AcDbEntity
  8
M4
  6
CONTINUOUS
370
25
 62
   154
100
AcDbLine
 10
284.577293
 20
467.290537
 11
284.558768
 21
467.241107
  0
LINE
  5
319
100
AcDbEntity
  8
M4
  6
CONTINUOUS
370
25
 62
   154
100
AcDbLine
 10
298.077293
 20
414.2906
 11
304.577291
 21
414.2906
  0
LINE
  5
31A
100
AcDbEntity
  8
M4
  6
CONTINUOUS
370
25
 62
   154
100
AcDbLine
 10
304.577291
 20
397.290595
 11
298.377293
 21
395.2906
  0
LINE
  5
31B
100
AcDbEntity
  8
M4
  6
CONTINUOUS
370
25
 62
   154
100
AcDbLine
 10
304.577291
 20
364.390597
 11
304.577291
 21
342.290602
  0
LINE
  5
31C
100
AcDbEntity
  8
M4
  6
CONTINUOUS
370
25
 62
   154
100
AcDbLine
 10
285.162283
 20
471.070412
 11
285.082883
 21
470.95731
  0
LINE
  5
31D
100
AcDbEntity
  8
M4
  6
CONTINUOUS
370
25
 62
   154
100
AcDbLine
 10
285.082883
 20
470.95731
 11
284.826796
 21
470.488417
  0
ARC
  5
31E
100
AcDbEntity
  8
M4
  6
CONTINUOUS
370
25
 62
     6
100
AcDbCircle
 10
291.817201
 20
362.720277
 40
1.0
100
AcDbArc
 50
94.999105
 51
163.742547
  0
ARC
  5
31F
100
AcDbEntity
  8
M4
  6
CONTINUOUS
370
25
 62
     6
100
AcDbCircle
 10
297.577293
 20
361.040597
 40
7.0
100
AcDbArc
 50
163.742886
 51
196.257039
  0
ARC
  5
320
100
AcDbEntity
  8
M4
  6
CONTINUOUS
370
25
 62
     6
100
AcDbCircle
 10
291.817201
 20
359.360917
 40
1.0
100
AcDbArc
 50
196.257348
 51
265.000019
  0
LINE
  5
321
100
AcDbEntity
  8
M4
  6
CONTINUOUS
370
25
 62
     6
100
AcDbLine
 10
292.577293
 20
358.290597
 11
292.577293
 21
363.790597
  0
LINE
  5
322
100
AcDbEntity
  8
M4
  6
CONTINUOUS
370
25
 62
     6
100
AcDbLine
 10
292.577293
 20
358.290597
 11
291.730046
 21
358.364722
  0
LINE
  5
323
100
AcDbEntity
  8
M4
  6
CONTINUOUS
370
25
 62
     6
100
AcDbLine
 10
292.577293
 20
363.790597
 11
291.730046
 21
363.716472
  0
ARC
  5
324
100
AcDbEntity
  8
M4
  6
CONTINUOUS
370
25
 62
     2
100
AcDbCircle
 10
277.077293
 20
383.2906
 40
1.0
100
AcDbArc
 50
180.0
 51
270.0
  0
ARC
  5
325
100
AcDbEntity
  8
M4
  6
CONTINUOUS
370
25
 62
     2
100
AcDbCircle
 10
284.577293
 20
443.7906
 40
1.0
100
AcDbArc
 50
90.0
 51
180.0
  0
ARC
  5
326
100
AcDbEntity
  8
M4
  6
CONTINUOUS
370
25
 62
     2
100
AcDbCircle
 10
284.577293
 20
436.2906
 40
1.0
100
AcDbArc
 50
180.0
 51
270.0
  0
LINE
  5
327
100
AcDbEntity
  8
M4
  6
CONTINUOUS
370
25
 62
     2
100
AcDbLine
 10
284.577293
 20
397.7906
 11
287.577293
 21
398.7906
  0
LINE
  5
328
100
AcDbEntity
  8
M4
  6
CONTINUOUS
370
25
 62
     2
100
AcDbLine
 10
283.577293
 20
437.489697
 11
284.577293
 21
437.489697
  0
LINE
  5
329
100
AcDbEntity
  8
M4
  6
CONTINUOUS
370
25
 62
     2
100
AcDbLine
 10
284.577293
 20
374.1906
 11
284.577293
 21
397.7906
  0
LINE
  5
32A
100
AcDbEntity
  8
M4
  6
CONTINUOUS
370
25
 62
     2
100
AcDbLine
 10
276.077291
 20
431.2906
 11
276.077291
 21
383.2906
  0
ARC
  5
32B
100
AcDbEntity
  8
M4
  6
CONTINUOUS
370
25
 62
     2
100
AcDbCircle
 10
277.077293
 20
431.2906
 40
1.0
100
AcDbArc
 50
90.0
 51
180.0
  0
ARC
  5
32C
100
AcDbEntity
  8
M4
  6
CONTINUOUS
370
25
 62
     2
100
AcDbCircle
 10
281.077293
 20
372.119027
 40
1.0
100
AcDbArc
 50
321.057559
 51
355.397698
  0
ARC
  5
32D
100
AcDbEntity
  8
M4
  6
CONTINUOUS
370
25
 62
     2
100
AcDbCircle
 10
281.077293
 20
371.95855
 40
1.0
100
AcDbArc
 50
4.602302
 51
60.0
  0
ARC
  5
32E
100
AcDbEntity
  8
M4
  6
CONTINUOUS
370
25
 62
     2
100
AcDbCircle
 10
282.077293
 20
373.6906
 40
1.0
100
AcDbArc
 50
180.0
 51
270.0
  0
ARC
  5
32F
100
AcDbEntity
  8
M4
  6
CONTINUOUS
370
25
 62
     2
100
AcDbCircle
 10
284.577293
 20
369.2906
 40
3.5
100
AcDbArc
 50
141.057559
 51
262.819249
  0
ARC
  5
330
100
AcDbEntity
  8
M4
  6
CONTINUOUS
370
25
 62
     2
100
AcDbCircle
 10
282.077293
 20
448.2906
 40
1.0
100
AcDbArc
 50
90.0
 51
180.0
  0
LINE
  5
331
100
AcDbEntity
  8
M4
  6
CONTINUOUS
370
25
 62
     2
100
AcDbLine
 10
284.577293
 20
415.790602
 11
284.577293
 21
449.290597
  0
LINE
  5
332
100
AcDbEntity
  8
M4
  6
CONTINUOUS
370
25
 62
     2
100
AcDbLine
 10
284.577293
 20
449.290597
 11
282.077293
 21
449.290597
  0
LINE
  5
333
100
AcDbEntity
  8
M4
  6
CONTINUOUS
370
25
 62
     2
100
AcDbLine
 10
283.577293
 20
436.290602
 11
283.577293
 21
443.790602
  0
LINE
  5
334
100
AcDbEntity
  8
M4
  6
CONTINUOUS
370
25
 62
     2
100
AcDbLine
 10
277.077293
 20
382.2906
 11
281.077293
 21
382.2906
  0
LINE
  5
335
100
AcDbEntity
  8
M4
  6
CONTINUOUS
370
25
 62
     2
100
AcDbLine
 10
282.577293
 20
372.6906
 11
284.577293
 21
374.1906
  0
LINE
  5
336
100
AcDbEntity
  8
M4
  6
CONTINUOUS
370
25
 62
     2
100
AcDbLine
 10
287.577293
 20
414.7906
 11
284.577293
 21
415.790602
  0
LINE
  5
337
100
AcDbEntity
  8
M4
  6
CONTINUOUS
370
25
 62
     2
100
AcDbLine
 10
282.077293
 20
372.6906
 11
282.577293
 21
372.6906
  0
LINE
  5
338
100
AcDbEntity
  8
M4
  6
CONTINUOUS
370
25
 62
     2
100
AcDbLine
 10
287.577293
 20
416.790597
 11
287.577293
 21
396.7906
  0
LINE
  5
339
100
AcDbEntity
  8
M4
  6
CONTINUOUS
370
25
 62
     2
100
AcDbLine
 10
281.077293
 20
448.290605
 11
281.077293
 21
373.6906
  0
LINE
  5
33A
100
AcDbEntity
  8
M4
  6
CONTINUOUS
370
25
 62
     2
100
AcDbLine
 10
281.077293
 20
432.290602
 11
277.077293
 21
432.290602
  0
CIRCLE
  5
33B
100
AcDbEntity
  8
M4
  6
CONTINUOUS
370
25
 62
   154
100
AcDbCircle
 10
125.415735
 20
462.540597
 40
2.75
  0
CIRCLE
  5
33C
100
AcDbEntity
  8
M4
  6
CONTINUOUS
370
25
 62
   154
100
AcDbCircle
 10
125.415735
 20
352.040597
 40
2.75
  0
LINE
  5
33D
100
AcDbEntity
  8
M4
  6
CONTINUOUS
370
25
 62
   154
100
AcDbLine
 10
129.415735
 20
472.290597
 11
135.131855
 21
472.290597
  0
LINE
  5
33E
100
AcDbEntity
  8
M4
  6
CONTINUOUS
370
25
 62
   154
100
AcDbLine
 10
104.415734
 20
472.290597
 11
110.131854
 21
472.290597
  0
LINE
  5
33F
100
AcDbEntity
  8
M4
  6
CONTINUOUS
370
25
 62
   154
100
AcDbLine
 10
104.415734
 20
342.290602
 11
110.13184
 21
342.290602
  0
LINE
  5
340
100
AcDbEntity
  8
M4
  6
CONTINUOUS
370
25
 62
   154
100
AcDbLine
 10
129.415735
 20
342.290602
 11
135.13184
 21
342.290602
  0
LINE
  5
341
100
AcDbEntity
  8
M4
  6
CONTINUOUS
370
25
 62
   154
100
AcDbLine
 10
115.699617
 20
472.290597
 11
121.415734
 21
472.290597
  0
LINE
  5
342
100
AcDbEntity
  8
M4
  6
CONTINUOUS
370
25
 62
   154
100
AcDbLine
 10
140.699617
 20
472.290597
 11
146.415735
 21
472.290597
  0
LINE
  5
343
100
AcDbEntity
  8
M4
  6
CONTINUOUS
370
25
 62
   154
100
AcDbLine
 10
140.69963
 20
342.290602
 11
146.415735
 21
342.290602
  0
LINE
  5
344
100
AcDbEntity
  8
M4
  6
CONTINUOUS
370
25
 62
   154
100
AcDbLine
 10
115.699629
 20
342.290602
 11
121.415734
 21
342.290602
  0
LINE
  5
345
100
AcDbEntity
  8
M4
  6
DASHDOT
370
13
100
AcDbLine
 10
117.665734
 20
352.040597
 11
133.165735
 21
352.040597
  0
LINE
  5
346
100
AcDbEntity
  8
M4
  6
DASHDOT
370
13
100
AcDbLine
 10
117.665734
 20
462.540597
 11
133.165735
 21
462.540597
  0
LINE
  5
347
100
AcDbEntity
  8
M4
  6
CONTINUOUS
370
25
 62
     2
100
AcDbLine
 10
102.515735
 20
380.290597
 11
102.515735
 21
365.790597
  0
LINE
  5
348
100
AcDbEntity
  8
M4
  6
CONTINUOUS
370
25
 62
     2
100
AcDbLine
 10
149.415735
 20
372.690597
 11
134.215735
 21
372.690597
  0
LINE
  5
349
100
AcDbEntity
  8
M4
  6
CONTINUOUS
370
25
 62
     2
100
AcDbLine
 10
102.515735
 20
365.790597
 11
109.215735
 21
365.790597
  0
LINE
  5
34A
100
AcDbEntity
  8
M4
  6
CONTINUOUS
370
25
 62
     2
100
AcDbLine
 10
109.215735
 20
372.690597
 11
109.215735
 21
365.790597
  0
LINE
  5
34B
100
AcDbEntity
  8
M4
  6
CONTINUOUS
370
25
 62
     2
100
AcDbLine
 10
124.915735
 20
380.790597
 11
124.915735
 21
435.790597
  0
LINE
  5
34C
100
AcDbEntity
  8
M4
  6
CONTINUOUS
370
25
 62
     2
100
AcDbLine
 10
134.215735
 20
365.790597
 11
134.215735
 21
372.690597
  0
LINE
  5
34D
100
AcDbEntity
  8
M4
  6
CONTINUOUS
370
25
 62
     2
100
AcDbLine
 10
126.615735
 20
365.790597
 11
126.615735
 21
372.690597
  0
LINE
  5
34E
100
AcDbEntity
  8
M4
  6
CONTINUOUS
370
25
 62
     2
100
AcDbLine
 10
102.515735
 20
372.038785
 11
109.215735
 21
372.038785
  0
LINE
  5
34F
100
AcDbEntity
  8
M4
  6
CONTINUOUS
370
25
 62
     2
100
AcDbLine
 10
126.615735
 20
365.790597
 11
134.215735
 21
365.790597
  0
LINE
  5
350
100
AcDbEntity
  8
M4
  6
CONTINUOUS
370
25
 62
     2
100
AcDbLine
 10
126.615735
 20
372.038785
 11
134.215735
 21
372.038785
  0
ARC
  5
351
100
AcDbEntity
  8
M4
  6
CONTINUOUS
370
25
 62
     2
100
AcDbCircle
 10
149.415735
 20
448.290597
 40
1.0
100
AcDbArc
 50
0.0
 51
90.0
  0
ARC
  5
352
100
AcDbEntity
  8
M4
  6
CONTINUOUS
370
25
 62
     2
100
AcDbCircle
 10
124.415735
 20
380.790597
 40
0.5
100
AcDbArc
 50
270.0
 51
360.0
  0
ARC
  5
353
100
AcDbEntity
  8
M4
  6
CONTINUOUS
370
25
 62
     2
100
AcDbCircle
 10
145.915735
 20
429.790597
 40
1.0
100
AcDbArc
 50
0.0
 51
90.0
  0
ARC
  5
354
100
AcDbEntity
  8
M4
  6
CONTINUOUS
370
25
 62
     2
100
AcDbCircle
 10
145.915735
 20
429.790597
 40
2.5
100
AcDbArc
 50
0.0
 51
90.0
  0
ARC
  5
355
100
AcDbEntity
  8
M4
  6
CONTINUOUS
370
25
 62
     2
100
AcDbCircle
 10
145.915735
 20
384.790597
 40
2.5
100
AcDbArc
 50
270.0
 51
360.0
  0
CIRCLE
  5
356
100
AcDbEntity
  8
M4
  6
CONTINUOUS
370
25
 62
     2
100
AcDbCircle
 10
125.415735
 20
443.040597
 40
4.25
  0
LINE
  5
357
100
AcDbEntity
  8
M4
  6
CONTINUOUS
370
25
 62
     2
100
AcDbLine
 10
150.415737
 20
448.2906
 11
150.415737
 21
373.690597
  0
ARC
  5
358
100
AcDbEntity
  8
M4
  6
CONTINUOUS
370
25
 62
     2
100
AcDbCircle
 10
123.415735
 20
435.790597
 40
1.5
100
AcDbArc
 50
0.0
 51
90.0
  0
ARC
  5
359
100
AcDbEntity
  8
M4
  6
CONTINUOUS
370
25
 62
     2
100
AcDbCircle
 10
149.415735
 20
373.690597
 40
1.0
100
AcDbArc
 50
270.0
 51
360.0
  0
LINE
  5
35A
100
AcDbEntity
  8
M4
  6
CONTINUOUS
370
25
 62
     2
100
AcDbLine
 10
123.415735
 20
437.2906
 11
102.415734
 21
437.2906
  0
ARC
  5
35B
100
AcDbEntity
  8
M4
  6
CONTINUOUS
370
25
 62
     2
100
AcDbCircle
 10
145.915735
 20
384.790597
 40
1.0
100
AcDbArc
 50
270.0
 51
360.0
  0
LINE
  5
35C
100
AcDbEntity
  8
M4
  6
CONTINUOUS
370
25
 62
     2
100
AcDbLine
 10
126.615735
 20
372.690597
 11
109.215735
 21
372.690597
  0
LINE
  5
35D
100
AcDbEntity
  8
M4
  6
CONTINUOUS
370
25
 62
     2
100
AcDbLine
 10
102.515735
 20
449.290595
 11
102.515735
 21
437.2906
  0
LINE
  5
35E
100
AcDbEntity
  8
M4
  6
CONTINUOUS
370
25
 62
     2
100
AcDbLine
 10
124.915735
 20
432.290597
 11
145.915735
 21
432.290597
  0
LINE
  5
35F
100
AcDbEntity
  8
M4
  6
CONTINUOUS
370
25
 62
     2
100
AcDbLine
 10
148.415737
 20
429.790597
 11
148.415737
 21
384.790597
  0
LINE
  5
360
100
AcDbEntity
  8
M4
  6
CONTINUOUS
370
25
 62
     2
100
AcDbLine
 10
145.915735
 20
389.290597
 11
145.915735
 21
384.790597
  0
LINE
  5
361
100
AcDbEntity
  8
M4
  6
CONTINUOUS
370
25
 62
     2
100
AcDbLine
 10
146.915737
 20
384.790597
 11
146.915737
 21
429.790597
  0
LINE
  5
362
100
AcDbEntity
  8
M4
  6
CONTINUOUS
370
25
 62
     2
100
AcDbLine
 10
102.515735
 20
449.290595
 11
149.415735
 21
449.290595
  0
LINE
  5
363
100
AcDbEntity
  8
M4
  6
CONTINUOUS
370
25
 62
     2
100
AcDbLine
 10
102.515735
 20
380.290597
 11
124.415735
 21
380.290597
  0
LINE
  5
364
100
AcDbEntity
  8
M4
  6
CONTINUOUS
370
25
 62
     2
100
AcDbLine
 10
124.915735
 20
383.790597
 11
145.915735
 21
383.790597
  0
LINE
  5
365
100
AcDbEntity
  8
M4
  6
CONTINUOUS
370
25
 62
     2
100
AcDbLine
 10
141.415735
 20
384.790597
 11
141.415735
 21
389.290597
  0
LINE
  5
366
100
AcDbEntity
  8
M4
  6
CONTINUOUS
370
25
 62
     2
100
AcDbLine
 10
141.415735
 20
389.290597
 11
145.915735
 21
389.290597
  0
LINE
  5
367
100
AcDbEntity
  8
M4
  6
CONTINUOUS
370
25
 62
     2
100
AcDbLine
 10
145.915735
 20
382.290597
 11
124.915735
 21
382.290597
  0
LINE
  5
368
100
AcDbEntity
  8
M4
  6
CONTINUOUS
370
25
 62
     2
100
AcDbLine
 10
145.915735
 20
430.790597
 11
124.915735
 21
430.790597
  0
LINE
  5
369
100
AcDbEntity
  8
M4
  6
CONTINUOUS
370
25
 62
     2
100
AcDbLine
 10
145.915735
 20
384.790597
 11
141.415735
 21
384.790597
  0
CIRCLE
  5
36A
100
AcDbEntity
  8
M4
  6
CONTINUOUS
370
25
 62
     7
100
AcDbCircle
 10
125.415735
 20
443.040597
 40
4.15
  0
CIRCLE
  5
36B
100
AcDbEntity
  8
M4
  6
CONTINUOUS
370
25
 62
     7
100
AcDbCircle
 10
125.415735
 20
443.040597
 40
4.25
  0
LINE
  5
36C
100
AcDbEntity
  8
M4
  6
CONTINUOUS
370
25
 62
     7
100
AcDbLine
 10
127.254205
 20
444.17196
 11
126.547097
 21
444.879065
  0
LINE
  5
36D
100
AcDbEntity
  8
M4
  6
CONTINUOUS
370
25
 62
     7
100
AcDbLine
 10
125.415735
 20
442.33349
 11
126.54714
 21
441.202085
  0
LINE
  5
36E
100
AcDbEntity
  8
M4
  6
CONTINUOUS
370
25
 62
     7
100
AcDbLine
 10
126.547097
 20
444.879065
 11
125.415735
 21
443.747705
  0
LINE
  5
36F
100
AcDbEntity
  8
M4
  6
CONTINUOUS
370
25
 62
     7
100
AcDbLine
 10
124.284362
 20
441.202117
 11
125.415735
 21
442.33349
  0
LINE
  5
370
100
AcDbEntity
  8
M4
  6
CONTINUOUS
370
25
 62
     7
100
AcDbLine
 10
123.577257
 20
441.909225
 11
124.284362
 21
441.202117
  0
LINE
  5
371
100
AcDbEntity
  8
M4
  6
CONTINUOUS
370
25
 62
     7
100
AcDbLine
 10
124.70863
 20
443.040597
 11
123.577257
 21
441.909225
  0
LINE
  5
372
100
AcDbEntity
  8
M4
  6
CONTINUOUS
370
25
 62
     7
100
AcDbLine
 10
127.254247
 20
441.909192
 11
126.122842
 21
443.040597
  0
LINE
  5
373
100
AcDbEntity
  8
M4
  6
CONTINUOUS
370
25
 62
     7
100
AcDbLine
 10
126.122842
 20
443.040597
 11
127.254205
 21
444.17196
  0
LINE
  5
374
100
AcDbEntity
  8
M4
  6
CONTINUOUS
370
25
 62
     7
100
AcDbLine
 10
124.28433
 20
444.87911
 11
123.577225
 21
444.172002
  0
LINE
  5
375
100
AcDbEntity
  8
M4
  6
CONTINUOUS
370
25
 62
     7
100
AcDbLine
 10
126.54714
 20
441.202085
 11
127.254247
 21
441.909192
  0
LINE
  5
376
100
AcDbEntity
  8
M4
  6
CONTINUOUS
370
25
 62
     7
100
AcDbLine
 10
123.577225
 20
444.172002
 11
124.70863
 21
443.040597
  0
LINE
  5
377
100
AcDbEntity
  8
M4
  6
CONTINUOUS
370
25
 62
     7
100
AcDbLine
 10
125.415735
 20
443.747705
 11
124.28433
 21
444.87911
  0
LINE
  5
378
100
AcDbEntity
  8
M4
  6
CONTINUOUS
370
25
 62
     7
100
AcDbLine
 10
126.440735
 20
453.390597
 11
126.840735
 21
453.390597
  0
CIRCLE
  5
379
100
AcDbEntity
  8
M4
  6
CONTINUOUS
370
25
 62
     7
100
AcDbCircle
 10
125.415735
 20
453.090597
 40
2.75
  0
LINE
  5
37A
100
AcDbEntity
  8
M4
  6
CONTINUOUS
370
25
 62
     7
100
AcDbLine
 10
124.015735
 20
452.790597
 11
124.390735
 21
452.790597
  0
LINE
  5
37B
100
AcDbEntity
  8
M4
  6
CONTINUOUS
370
25
 62
     7
100
AcDbLine
 10
126.840735
 20
453.390597
 11
126.840735
 21
452.790597
  0
LINE
  5
37C
100
AcDbEntity
  8
M4
  6
CONTINUOUS
370
25
 62
     7
100
AcDbLine
 10
124.015735
 20
453.390597
 11
124.390735
 21
453.390597
  0
ARC
  5
37D
100
AcDbEntity
  8
M4
  6
CONTINUOUS
370
25
 62
     7
100
AcDbCircle
 10
126.440735
 20
452.065597
 40
0.725
100
AcDbArc
 50
90.0
 51
180.0
  0
ARC
  5
37E
100
AcDbEntity
  8
M4
  6
CONTINUOUS
370
25
 62
     7
100
AcDbCircle
 10
124.390735
 20
454.115597
 40
0.725
100
AcDbArc
 50
270.0
 51
360.0
  0
ARC
  5
37F
100
AcDbEntity
  8
M4
  6
CONTINUOUS
370
25
 62
     7
100
AcDbCircle
 10
126.440735
 20
454.115597
 40
0.725
100
AcDbArc
 50
180.0
 51
270.0
  0
LINE
  5
380
100
AcDbEntity
  8
M4
  6
CONTINUOUS
370
25
 62
     7
100
AcDbLine
 10
125.715735
 20
454.490597
 11
125.715735
 21
454.094237
  0
LINE
  5
381
100
AcDbEntity
  8
M4
  6
CONTINUOUS
370
25
 62
     7
100
AcDbLine
 10
124.015735
 20
453.390597
 11
124.015735
 21
452.790597
  0
LINE
  5
382
100
AcDbEntity
  8
M4
  6
CONTINUOUS
370
25
 62
     7
100
AcDbLine
 10
125.715735
 20
451.690597
 11
125.715735
 21
452.086957
  0
LINE
  5
383
100
AcDbEntity
  8
M4
  6
CONTINUOUS
370
25
 62
     7
100
AcDbLine
 10
125.115735
 20
454.490597
 11
125.115735
 21
454.094237
  0
LINE
  5
384
100
AcDbEntity
  8
M4
  6
CONTINUOUS
370
25
 62
     7
100
AcDbLine
 10
125.115735
 20
451.690597
 11
125.115735
 21
452.086957
  0
LINE
  5
385
100
AcDbEntity
  8
M4
  6
CONTINUOUS
370
25
 62
     7
100
AcDbLine
 10
125.115735
 20
454.490597
 11
125.715735
 21
454.490597
  0
ARC
  5
386
100
AcDbEntity
  8
M4
  6
CONTINUOUS
370
25
 62
     7
100
AcDbCircle
 10
124.390735
 20
452.065597
 40
0.725
100
AcDbArc
 50
0.0
 51
90.0
  0
LINE
  5
387
100
AcDbEntity
  8
M4
  6
CONTINUOUS
370
25
 62
     7
100
AcDbLine
 10
126.440735
 20
452.790597
 11
126.840735
 21
452.790597
  0
LINE
  5
388
100
AcDbEntity
  8
M4
  6
CONTINUOUS
370
25
 62
     7
100
AcDbLine
 10
125.115735
 20
451.690597
 11
125.715735
 21
451.690597
  0
LINE
  5
389
100
AcDbEntity
  8
M4
  6
CONTINUOUS
370
25
 62
     7
100
AcDbLine
 10
148.640735
 20
361.340597
 11
149.040735
 21
361.340597
  0
CIRCLE
  5
38A
100
AcDbEntity
  8
M4
  6
CONTINUOUS
370
25
 62
     7
100
AcDbCircle
 10
147.615735
 20
361.040597
 40
2.75
  0
LINE
  5
38B
100
AcDbEntity
  8
M4
  6
CONTINUOUS
370
25
 62
     7
100
AcDbLine
 10
146.215735
 20
360.740597
 11
146.590735
 21
360.740597
  0
LINE
  5
38C
100
AcDbEntity
  8
M4
  6
CONTINUOUS
370
25
 62
     7
100
AcDbLine
 10
149.040735
 20
361.340597
 11
149.040735
 21
360.740597
  0
LINE
  5
38D
100
AcDbEntity
  8
M4
  6
CONTINUOUS
370
25
 62
     7
100
AcDbLine
 10
146.215735
 20
361.340597
 11
146.590735
 21
361.340597
  0
ARC
  5
38E
100
AcDbEntity
  8
M4
  6
CONTINUOUS
370
25
 62
     7
100
AcDbCircle
 10
148.640735
 20
360.015597
 40
0.725
100
AcDbArc
 50
90.0
 51
180.0
  0
ARC
  5
38F
100
AcDbEntity
  8
M4
  6
CONTINUOUS
370
25
 62
     7
100
AcDbCircle
 10
146.590735
 20
362.065597
 40
0.725
100
AcDbArc
 50
270.0
 51
360.0
  0
ARC
  5
390
100
AcDbEntity
  8
M4
  6
CONTINUOUS
370
25
 62
     7
100
AcDbCircle
 10
148.640735
 20
362.065597
 40
0.725
100
AcDbArc
 50
180.0
 51
270.0
  0
LINE
  5
391
100
AcDbEntity
  8
M4
  6
CONTINUOUS
370
25
 62
     7
100
AcDbLine
 10
147.915735
 20
362.440597
 11
147.915735
 21
362.044237
  0
LINE
  5
392
100
AcDbEntity
  8
M4
  6
CONTINUOUS
370
25
 62
     7
100
AcDbLine
 10
146.215735
 20
361.340597
 11
146.215735
 21
360.740597
  0
LINE
  5
393
100
AcDbEntity
  8
M4
  6
CONTINUOUS
370
25
 62
     7
100
AcDbLine
 10
147.915735
 20
359.640597
 11
147.915735
 21
360.036957
  0
LINE
  5
394
100
AcDbEntity
  8
M4
  6
CONTINUOUS
370
25
 62
     7
100
AcDbLine
 10
147.315735
 20
362.440597
 11
147.315735
 21
362.044237
  0
LINE
  5
395
100
AcDbEntity
  8
M4
  6
CONTINUOUS
370
25
 62
     7
100
AcDbLine
 10
147.315735
 20
359.640597
 11
147.315735
 21
360.036957
  0
LINE
  5
396
100
AcDbEntity
  8
M4
  6
CONTINUOUS
370
25
 62
     7
100
AcDbLine
 10
147.315735
 20
362.440597
 11
147.915735
 21
362.440597
  0
ARC
  5
397
100
AcDbEntity
  8
M4
  6
CONTINUOUS
370
25
 62
     7
100
AcDbCircle
 10
146.590735
 20
360.015597
 40
0.725
100
AcDbArc
 50
0.0
 51
90.0
  0
LINE
  5
398
100
AcDbEntity
  8
M4
  6
CONTINUOUS
370
25
 62
     7
100
AcDbLine
 10
148.640735
 20
360.740597
 11
149.040735
 21
360.740597
  0
LINE
  5
399
100
AcDbEntity
  8
M4
  6
CONTINUOUS
370
25
 62
     7
100
AcDbLine
 10
147.315735
 20
359.640597
 11
147.915735
 21
359.640597
  0
LINE
  5
39A
100
AcDbEntity
  8
M4
  6
CONTINUOUS
370
25
 62
     7
100
AcDbLine
 10
104.240734
 20
361.340597
 11
104.640735
 21
361.340597
  0
CIRCLE
  5
39B
100
AcDbEntity
  8
M4
  6
CONTINUOUS
370
25
 62
     7
100
AcDbCircle
 10
103.215735
 20
361.040597
 40
2.75
  0
LINE
  5
39C
100
AcDbEntity
  8
M4
  6
CONTINUOUS
370
25
 62
     7
100
AcDbLine
 10
101.815735
 20
360.740597
 11
102.190735
 21
360.740597
  0
LINE
  5
39D
100
AcDbEntity
  8
M4
  6
CONTINUOUS
370
25
 62
     7
100
AcDbLine
 10
104.640735
 20
361.340597
 11
104.640735
 21
360.740597
  0
LINE
  5
39E
100
AcDbEntity
  8
M4
  6
CONTINUOUS
370
25
 62
     7
100
AcDbLine
 10
101.815735
 20
361.340597
 11
102.190735
 21
361.340597
  0
ARC
  5
39F
100
AcDbEntity
  8
M4
  6
CONTINUOUS
370
25
 62
     7
100
AcDbCircle
 10
104.240734
 20
360.015597
 40
0.725
100
AcDbArc
 50
90.0
 51
180.0
  0
ARC
  5
3A0
100
AcDbEntity
  8
M4
  6
CONTINUOUS
370
25
 62
     7
100
AcDbCircle
 10
102.190735
 20
362.065597
 40
0.725
100
AcDbArc
 50
270.0
 51
360.0
  0
ARC
  5
3A1
100
AcDbEntity
  8
M4
  6
CONTINUOUS
370
25
 62
     7
100
AcDbCircle
 10
104.240734
 20
362.065597
 40
0.725
100
AcDbArc
 50
180.0
 51
270.0
  0
LINE
  5
3A2
100
AcDbEntity
  8
M4
  6
CONTINUOUS
370
25
 62
     7
100
AcDbLine
 10
103.515735
 20
362.440597
 11
103.515735
 21
362.044237
  0
LINE
  5
3A3
100
AcDbEntity
  8
M4
  6
CONTINUOUS
370
25
 62
     7
100
AcDbLine
 10
101.815735
 20
361.340597
 11
101.815735
 21
360.740597
  0
LINE
  5
3A4
100
AcDbEntity
  8
M4
  6
CONTINUOUS
370
25
 62
     7
100
AcDbLine
 10
103.515735
 20
359.640597
 11
103.515735
 21
360.036957
  0
LINE
  5
3A5
100
AcDbEntity
  8
M4
  6
CONTINUOUS
370
25
 62
     7
100
AcDbLine
 10
102.915734
 20
362.440597
 11
102.915734
 21
362.044237
  0
LINE
  5
3A6
100
AcDbEntity
  8
M4
  6
CONTINUOUS
370
25
 62
     7
100
AcDbLine
 10
102.915734
 20
359.640597
 11
102.915734
 21
360.036957
  0
LINE
  5
3A7
100
AcDbEntity
  8
M4
  6
CONTINUOUS
370
25
 62
     7
100
AcDbLine
 10
102.915734
 20
362.440597
 11
103.515735
 21
362.440597
  0
ARC
  5
3A8
100
AcDbEntity
  8
M4
  6
CONTINUOUS
370
25
 62
     7
100
AcDbCircle
 10
102.190735
 20
360.015597
 40
0.725
100
AcDbArc
 50
0.0
 51
90.0
  0
LINE
  5
3A9
100
AcDbEntity
  8
M4
  6
CONTINUOUS
370
25
 62
     7
100
AcDbLine
 10
104.240734
 20
360.740597
 11
104.640735
 21
360.740597
  0
LINE
  5
3AA
100
AcDbEntity
  8
M4
  6
CONTINUOUS
370
25
 62
     7
100
AcDbLine
 10
102.915734
 20
359.640597
 11
103.515735
 21
359.640597
  0
LINE
  5
3AB
100
AcDbEntity
  8
M4
  6
CONTINUOUS
370
25
 62
   234
100
AcDbLine
 10
149.851625
 20
372.790597
 11
150.415737
 21
372.790597
  0
LINE
  5
3AC
100
AcDbEntity
  8
M4
  6
CONTINUOUS
370
25
 62
   234
100
AcDbLine
 10
151.415735
 20
397.290595
 11
151.415735
 21
398.290597
  0
ARC
  5
3AD
100
AcDbEntity
  8
M4
  6
CONTINUOUS
370
25
 62
   234
100
AcDbCircle
 10
100.415734
 20
448.290597
 40
1.0
100
AcDbArc
 50
90.0
 51
180.0
  0
LINE
  5
3AE
100
AcDbEntity
  8
M4
  6
CONTINUOUS
370
25
 62
   234
100
AcDbLine
 10
102.415734
 20
449.290597
 11
102.415734
 21
436.790595
  0
LINE
  5
3AF
100
AcDbEntity
  8
M4
  6
CONTINUOUS
370
25
 62
   234
100
AcDbLine
 10
100.415734
 20
449.290597
 11
102.415734
 21
449.290597
  0
LINE
  5
3B0
100
AcDbEntity
  8
M4
  6
CONTINUOUS
370
25
 62
   234
100
AcDbLine
 10
99.415734
 20
347.490597
 11
99.415734
 21
467.090597
  0
LINE
  5
3B1
100
AcDbEntity
  8
M4
  6
CONTINUOUS
370
25
 62
   234
100
AcDbLine
 10
102.415734
 20
380.7906
 11
102.415734
 21
365.7906
  0
ARC
  5
3B2
100
AcDbEntity
  8
M4
  6
CONTINUOUS
370
25
 62
   234
100
AcDbCircle
 10
100.415734
 20
383.290595
 40
1.0
100
AcDbArc
 50
180.0
 51
270.0
  0
SPLINE
  5
3B3
100
AcDbEntity
  8
M4
  6
CONTINUOUS
370
25
 62
   234
100
AcDbSpline
210
0.0
220
0.0
230
-1.0
 70
     8
 71
     3
 72
    65
 73
    61
 43
0.0000001
 40
0.0
 40
0.0
 40
0.0
 40
0.0
 40
1.0
 40
1.0
 40
1.0
 40
2.0
 40
2.0
 40
2.0
 40
3.0
 40
3.0
 40
3.0
 40
4.0
 40
4.0
 40
4.0
 40
5.0
 40
5.0
 40
5.0
 40
6.0
 40
6.0
 40
6.0
 40
7.0
 40
7.0
 40
7.0
 40
8.0
 40
8.0
 40
8.0
 40
9.0
 40
9.0
 40
9.0
 40
10.0
 40
10.0
 40
10.0
 40
11.0
 40
11.0
 40
11.0
 40
12.0
 40
12.0
 40
12.0
 40
13.0
 40
13.0
 40
13.0
 40
14.0
 40
14.0
 40
14.0
 40
15.0
 40
15.0
 40
15.0
 40
16.0
 40
16.0
 40
16.0
 40
17.0
 40
17.0
 40
17.0
 40
18.0
 40
18.0
 40
18.0
 40
19.0
 40
19.0
 40
19.0
 40
20.0
 40
20.0
 40
20.0
 40
20.0
 10
144.892025
 20
359.267492
 10
144.916665
 20
359.230567
 10
144.941305
 20
359.193647
 10
144.966797
 20
359.157555
 10
144.992287
 20
359.12146
 10
145.018625
 20
359.086207
 10
145.044795
 20
359.05234
 10
145.070965
 20
359.018472
 10
145.096967
 20
358.986002
 10
145.126142
 20
358.951422
 10
145.15532
 20
358.916842
 10
145.187667
 20
358.880165
 10
145.210965
 20
358.854375
 10
145.228425
 20
358.835045
 10
145.2408
 20
358.821837
 10
145.254752
 20
358.807152
 10
145.268705
 20
358.792467
 10
145.284232
 20
358.776315
 10
145.299567
 20
358.760707
 10
145.314902
 20
358.745102
 10
145.330047
 20
358.730045
 10
145.34547
 20
358.714997
 10
145.360892
 20
358.69995
 10
145.376592
 20
358.684917
 10
145.392527
 20
358.669977
 10
145.40846
 20
358.655037
 10
145.42463
 20
358.640192
 10
145.440882
 20
358.625552
 10
145.457135
 20
358.610912
 10
145.473477
 20
358.596477
 10
145.49044
 20
358.581842
 10
145.5074
 20
358.567207
 10
145.52499
 20
358.55237
 10
145.540885
 20
358.539115
 10
145.556777
 20
358.52586
 10
145.570987
 20
358.51418
 10
145.591907
 20
358.497642
 10
145.61947
 20
358.475855
 10
145.65869
 20
358.445632
 10
145.695152
 20
358.418752
 10
145.731612
 20
358.391872
 10
145.76533
 20
358.368332
 10
145.80021
 20
358.344907
 10
145.83509
 20
358.321485
 10
145.87114
 20
358.29818
 10
145.907345
 20
358.2758
 10
145.94355
 20
358.253417
 10
145.97992
 20
358.231957
 10
146.016815
 20
358.211117
 10
146.05371
 20
358.190277
 10
146.091135
 20
358.170065
 10
146.129062
 20
358.150557
 10
146.16699
 20
358.131052
 10
146.205427
 20
358.112257
 10
146.244327
 20
358.09411
 10
146.283227
 20
358.075965
 10
146.322592
 20
358.058472
 10
146.362575
 20
358.041912
 10
146.402557
 20
358.025352
 10
146.443162
 20
358.009727
 10
146.483767
 20
357.9941
  0
SPLINE
  5
3B4
100
AcDbEntity
  8
M4
  6
CONTINUOUS
370
25
 62
   234
100
AcDbSpline
210
0.0
220
0.0
230
-1.0
 70
     8
 71
     3
 72
     8
 73
     4
 43
0.0000001
 40
0.0
 40
0.0
 40
0.0
 40
0.0
 40
1.0
 40
1.0
 40
1.0
 40
1.0
 10
129.415735
 20
354.602335
 10
129.451757
 20
354.54609
 10
129.484875
 20
354.488225
 10
129.515735
 20
354.429092
  0
SPLINE
  5
3B5
100
AcDbEntity
  8
M4
  6
CONTINUOUS
370
25
 62
   234
100
AcDbSpline
210
0.0
220
0.0
230
-1.0
 70
     8
 71
     3
 72
     8
 73
     4
 43
0.0000001
 40
0.0
 40
0.0
 40
0.0
 40
0.0
 40
1.0
 40
1.0
 40
1.0
 40
1.0
 10
121.315735
 20
354.429092
 10
121.346595
 20
354.488225
 10
121.379715
 20
354.54609
 10
121.415734
 20
354.602335
  0
ARC
  5
3B6
100
AcDbEntity
  8
M4
  6
CONTINUOUS
370
25
 62
   234
100
AcDbCircle
 10
150.915737
 20
357.290595
 40
0.5
100
AcDbArc
 50
0.0
 51
90.0
  0
ARC
  5
3B7
100
AcDbEntity
  8
M4
  6
CONTINUOUS
370
25
 62
   234
100
AcDbCircle
 10
125.415735
 20
352.040597
 40
4.25
100
AcDbArc
 50
15.26773
 51
164.73227
  0
LINE
  5
3B8
100
AcDbEntity
  8
M4
  6
CONTINUOUS
370
25
 62
   234
100
AcDbLine
 10
150.915735
 20
346.990592
 11
150.065737
 21
346.990592
  0
LINE
  5
3B9
100
AcDbEntity
  8
M4
  6
CONTINUOUS
370
25
 62
   234
100
AcDbLine
 10
126.265735
 20
346.990592
 11
124.565735
 21
346.990592
  0
LINE
  5
3BA
100
AcDbEntity
  8
M4
  6
CONTINUOUS
370
25
 62
   234
100
AcDbLine
 10
124.065735
 20
346.490597
 11
124.065735
 21
345.290592
  0
LINE
  5
3BB
100
AcDbEntity
  8
M4
  6
CONTINUOUS
370
25
 62
   234
100
AcDbLine
 10
121.315735
 20
354.429095
 11
121.315735
 21
349.652102
  0
LINE
  5
3BC
100
AcDbEntity
  8
M4
  6
CONTINUOUS
370
25
 62
   234
100
AcDbLine
 10
120.415735
 20
343.290597
 11
120.415735
 21
355.7906
  0
LINE
  5
3BD
100
AcDbEntity
  8
M4
  6
CONTINUOUS
370
25
 62
   234
100
AcDbLine
 10
105.415735
 20
355.7906
 11
105.415735
 21
343.290597
  0
LINE
  5
3BE
100
AcDbEntity
  8
M4
  6
CONTINUOUS
370
25
 62
   234
100
AcDbLine
 10
129.515735
 20
349.652102
 11
129.515735
 21
354.429095
  0
LINE
  5
3BF
100
AcDbEntity
  8
M4
  6
CONTINUOUS
370
25
 62
   234
100
AcDbLine
 10
130.415735
 20
355.7906
 11
130.415735
 21
343.290597
  0
ARC
  5
3C0
100
AcDbEntity
  8
M4
  6
CONTINUOUS
370
25
 62
   234
100
AcDbCircle
 10
150.915737
 20
364.790595
 40
0.5
100
AcDbArc
 50
270.0
 51
360.0
  0
LINE
  5
3C1
100
AcDbEntity
  8
M4
  6
CONTINUOUS
370
25
 62
   234
100
AcDbLine
 10
118.415734
 20
357.790597
 11
107.415734
 21
357.790597
  0
LINE
  5
3C2
100
AcDbEntity
  8
M4
  6
CONTINUOUS
370
25
 62
   234
100
AcDbLine
 10
147.615735
 20
357.790597
 11
150.915737
 21
357.790597
  0
LINE
  5
3C3
100
AcDbEntity
  8
M4
  6
CONTINUOUS
370
25
 62
   234
100
AcDbLine
 10
143.415737
 20
357.790597
 11
132.415737
 21
357.790597
  0
ARC
  5
3C4
100
AcDbEntity
  8
M4
  6
CONTINUOUS
370
25
 62
   234
100
AcDbCircle
 10
107.415734
 20
355.790597
 40
2.0
100
AcDbArc
 50
90.0
 51
180.0
  0
ARC
  5
3C5
100
AcDbEntity
  8
M4
  6
CONTINUOUS
370
25
 62
   234
100
AcDbCircle
 10
143.415735
 20
355.790597
 40
2.0
100
AcDbArc
 50
0.0
 51
90.0
  0
ARC
  5
3C6
100
AcDbEntity
  8
M4
  6
CONTINUOUS
370
25
 62
   234
100
AcDbCircle
 10
147.615735
 20
361.040597
 40
3.25
100
AcDbArc
 50
249.61673
 51
270.0
  0
ARC
  5
3C7
100
AcDbEntity
  8
M4
  6
CONTINUOUS
370
25
 62
   234
100
AcDbCircle
 10
118.415734
 20
355.790597
 40
2.0
100
AcDbArc
 50
0.0
 51
90.0
  0
ARC
  5
3C8
100
AcDbEntity
  8
M4
  6
CONTINUOUS
370
25
 62
   234
100
AcDbCircle
 10
132.415735
 20
355.790597
 40
2.0
100
AcDbArc
 50
90.0
 51
180.0
  0
LINE
  5
3C9
100
AcDbEntity
  8
M4
  6
CONTINUOUS
370
25
 62
   234
100
AcDbLine
 10
126.765735
 20
345.290592
 11
126.765735
 21
346.490597
  0
LINE
  5
3CA
100
AcDbEntity
  8
M4
  6
CONTINUOUS
370
25
 62
   234
100
AcDbLine
 10
101.165734
 20
342.290602
 11
104.415734
 21
342.290602
  0
ARC
  5
3CB
100
AcDbEntity
  8
M4
  6
CONTINUOUS
370
25
 62
   234
100
AcDbCircle
 10
150.915735
 20
347.490597
 40
0.5
100
AcDbArc
 50
270.0
 51
360.0
  0
CIRCLE
  5
3CC
100
AcDbEntity
  8
M4
  6
CONTINUOUS
370
25
 62
   234
100
AcDbCircle
 10
125.415735
 20
453.090597
 40
3.25
  0
ARC
  5
3CD
100
AcDbEntity
  8
M4
  6
CONTINUOUS
370
25
 62
   234
100
AcDbCircle
 10
143.415735
 20
459.290597
 40
2.0
100
AcDbArc
 50
270.0
 51
360.0
  0
ARC
  5
3CE
100
AcDbEntity
  8
M4
  6
CONTINUOUS
370
25
 62
   234
100
AcDbCircle
 10
132.415735
 20
459.290597
 40
2.0
100
AcDbArc
 50
180.0
 51
270.0
  0
LINE
  5
3CF
100
AcDbEntity
  8
M4
  6
CONTINUOUS
370
25
 62
   234
100
AcDbLine
 10
126.415737
 20
372.690597
 11
126.415737
 21
365.7906
  0
LINE
  5
3D0
100
AcDbEntity
  8
M4
  6
CONTINUOUS
370
25
 62
   234
100
AcDbLine
 10
150.915737
 20
364.290595
 11
147.615735
 21
364.290595
  0
LINE
  5
3D1
100
AcDbEntity
  8
M4
  6
CONTINUOUS
370
25
 62
   234
100
AcDbLine
 10
134.415737
 20
372.690597
 11
134.415737
 21
365.7906
  0
LINE
  5
3D2
100
AcDbEntity
  8
M4
  6
CONTINUOUS
370
25
 62
   234
100
AcDbLine
 10
109.415734
 20
372.690597
 11
109.415734
 21
365.7906
  0
ARC
  5
3D3
100
AcDbEntity
  8
M4
  6
CONTINUOUS
370
25
 62
   234
100
AcDbCircle
 10
125.415735
 20
352.040597
 40
4.75
100
AcDbArc
 50
32.636898
 51
147.363102
  0
ARC
  5
3D4
100
AcDbEntity
  8
M4
  6
CONTINUOUS
370
25
 62
   234
100
AcDbCircle
 10
147.615735
 20
361.040597
 40
3.25
100
AcDbArc
 50
90.0
 51
213.063653
  0
LINE
  5
3D5
100
AcDbEntity
  8
M4
  6
CONTINUOUS
370
25
 62
   234
100
AcDbLine
 10
102.515735
 20
378.2906
 11
102.415734
 21
378.2906
  0
ARC
  5
3D6
100
AcDbEntity
  8
M4
  6
CONTINUOUS
370
25
 62
   234
100
AcDbCircle
 10
123.665735
 20
471.790597
 40
0.5
100
AcDbArc
 50
0.0
 51
90.0
  0
ARC
  5
3D7
100
AcDbEntity
  8
M4
  6
CONTINUOUS
370
25
 62
   234
100
AcDbCircle
 10
127.165735
 20
342.790597
 40
0.5
100
AcDbArc
 50
180.0
 51
270.0
  0
ARC
  5
3D8
100
AcDbEntity
  8
M4
  6
CONTINUOUS
370
25
 62
   234
100
AcDbCircle
 10
149.665735
 20
471.790597
 40
0.5
100
AcDbArc
 50
0.0
 51
90.0
  0
ARC
  5
3D9
100
AcDbEntity
  8
M4
  6
CONTINUOUS
370
25
 62
   234
100
AcDbCircle
 10
127.165735
 20
471.790597
 40
0.5
100
AcDbArc
 50
90.0
 51
180.0
  0
ARC
  5
3DA
100
AcDbEntity
  8
M4
  6
CONTINUOUS
370
25
 62
   234
100
AcDbCircle
 10
123.665735
 20
342.790597
 40
0.5
100
AcDbArc
 50
270.0
 51
360.0
  0
ARC
  5
3DB
100
AcDbEntity
  8
M4
  6
CONTINUOUS
370
25
 62
   234
100
AcDbCircle
 10
149.665735
 20
342.790597
 40
0.5
100
AcDbArc
 50
270.0
 51
360.0
  0
LINE
  5
3DC
100
AcDbEntity
  8
M4
  6
CONTINUOUS
370
25
 62
   234
100
AcDbLine
 10
123.665737
 20
342.290602
 11
121.415737
 21
342.290602
  0
LINE
  5
3DD
100
AcDbEntity
  8
M4
  6
CONTINUOUS
370
25
 62
   234
100
AcDbLine
 10
126.765735
 20
344.832217
 11
126.765735
 21
345.290592
  0
LINE
  5
3DE
100
AcDbEntity
  8
M4
  6
CONTINUOUS
370
25
 62
   234
100
AcDbLine
 10
149.665735
 20
342.290602
 11
146.415737
 21
342.290602
  0
ARC
  5
3DF
100
AcDbEntity
  8
M4
  6
CONTINUOUS
370
25
 62
   234
100
AcDbCircle
 10
129.415735
 20
343.290597
 40
1.0
100
AcDbArc
 50
270.0
 51
360.0
  0
LINE
  5
3E0
100
AcDbEntity
  8
M4
  6
CONTINUOUS
370
25
 62
   234
100
AcDbLine
 10
150.065737
 20
346.990592
 11
150.065737
 21
344.832222
  0
ARC
  5
3E1
100
AcDbEntity
  8
M4
  6
CONTINUOUS
370
25
 62
   234
100
AcDbCircle
 10
121.415734
 20
343.290597
 40
1.0
100
AcDbArc
 50
180.0
 51
270.0
  0
LINE
  5
3E2
100
AcDbEntity
  8
M4
  6
CONTINUOUS
370
25
 62
   234
100
AcDbLine
 10
129.415735
 20
342.290602
 11
127.165735
 21
342.290602
  0
ARC
  5
3E3
100
AcDbEntity
  8
M4
  6
CONTINUOUS
370
25
 62
   234
100
AcDbCircle
 10
104.415734
 20
343.290597
 40
1.0
100
AcDbArc
 50
270.0
 51
360.0
  0
ARC
  5
3E4
100
AcDbEntity
  8
M4
  6
CONTINUOUS
370
25
 62
   234
100
AcDbCircle
 10
146.415735
 20
343.290597
 40
1.0
100
AcDbArc
 50
180.0
 51
270.0
  0
LINE
  5
3E5
100
AcDbEntity
  8
M4
  6
CONTINUOUS
370
25
 62
   234
100
AcDbLine
 10
124.065735
 20
345.290592
 11
124.065735
 21
344.832217
  0
LINE
  5
3E6
100
AcDbEntity
  8
M4
  6
CONTINUOUS
370
25
 62
   234
100
AcDbLine
 10
128.609872
 20
452.490597
 11
128.569167
 21
452.490597
  0
LINE
  5
3E7
100
AcDbEntity
  8
M4
  6
CONTINUOUS
370
25
 62
   234
100
AcDbLine
 10
128.569167
 20
452.30423
 11
128.569167
 21
452.490597
  0
LINE
  5
3E8
100
AcDbEntity
  8
M4
  6
CONTINUOUS
370
25
 62
   234
100
AcDbLine
 10
126.665735
 20
471.183417
 11
126.665735
 21
471.790597
  0
LINE
  5
3E9
100
AcDbEntity
  8
M4
  6
CONTINUOUS
370
25
 62
   234
100
AcDbLine
 10
124.165737
 20
343.397772
 11
124.165737
 21
342.790595
  0
LINE
  5
3EA
100
AcDbEntity
  8
M4
  6
CONTINUOUS
370
25
 62
   234
100
AcDbLine
 10
126.665735
 20
342.790595
 11
126.665735
 21
343.397772
  0
LINE
  5
3EB
100
AcDbEntity
  8
M4
  6
CONTINUOUS
370
25
 62
   234
100
AcDbLine
 10
150.165735
 20
471.790597
 11
150.165735
 21
471.183417
  0
LINE
  5
3EC
100
AcDbEntity
  8
M4
  6
CONTINUOUS
370
25
 62
   234
100
AcDbLine
 10
150.165735
 20
343.39778
 11
150.165735
 21
342.790595
  0
LINE
  5
3ED
100
AcDbEntity
  8
M4
  6
CONTINUOUS
370
25
 62
   234
100
AcDbLine
 10
124.165737
 20
471.790597
 11
124.165737
 21
471.183417
  0
ARC
  5
3EE
100
AcDbEntity
  8
M4
  6
CONTINUOUS
370
25
 62
   234
100
AcDbCircle
 10
125.415735
 20
352.040597
 40
4.25
100
AcDbArc
 50
195.26773
 51
344.73227
  0
ARC
  5
3EF
100
AcDbEntity
  8
M4
  6
CONTINUOUS
370
25
 62
   234
100
AcDbCircle
 10
125.415735
 20
352.040597
 40
4.75
100
AcDbArc
 50
212.636898
 51
255.717979
  0
SPLINE
  5
3F0
100
AcDbEntity
  8
M4
  6
CONTINUOUS
370
25
 62
   234
100
AcDbSpline
210
0.0
220
0.0
230
-1.0
 70
     8
 71
     3
 72
    29
 73
    25
 43
0.0000001
 40
0.0
 40
0.0
 40
0.0
 40
0.0
 40
1.0
 40
1.0
 40
1.0
 40
2.0
 40
2.0
 40
2.0
 40
3.0
 40
3.0
 40
3.0
 40
4.0
 40
4.0
 40
4.0
 40
5.0
 40
5.0
 40
5.0
 40
6.0
 40
6.0
 40
6.0
 40
7.0
 40
7.0
 40
7.0
 40
8.0
 40
8.0
 40
8.0
 40
8.0
 10
126.265735
 20
347.379885
 10
126.195235
 20
347.370312
 10
126.124732
 20
347.360747
 10
126.054122
 20
347.352985
 10
125.983512
 20
347.345222
 10
125.912795
 20
347.339272
 10
125.842005
 20
347.334515
 10
125.771215
 20
347.329755
 10
125.700355
 20
347.326197
 10
125.629407
 20
347.32387
 10
125.558462
 20
347.32154
 10
125.48743
 20
347.320447
 10
125.416355
 20
347.32044
 10
125.345282
 20
347.320435
 10
125.274167
 20
347.321525
 10
125.2031
 20
347.323847
 10
125.132032
 20
347.32617
 10
125.061012
 20
347.32974
 10
124.99006
 20
347.334497
 10
124.919107
 20
347.339257
 10
124.848222
 20
347.345217
 10
124.777512
 20
347.35298
 10
124.706805
 20
347.360742
 10
124.63627
 20
347.370317
 10
124.565735
 20
347.379885
  0
SPLINE
  5
3F1
100
AcDbEntity
  8
M4
  6
CONTINUOUS
370
25
 62
   234
100
AcDbSpline
210
0.0
220
0.0
230
-1.0
 70
     8
 71
     3
 72
     8
 73
     4
 43
0.0000001
 40
0.0
 40
0.0
 40
0.0
 40
0.0
 40
1.0
 40
1.0
 40
1.0
 40
1.0
 10
124.565735
 20
347.379885
 10
124.45788
 20
347.395865
 10
124.349965
 20
347.410412
 10
124.243935
 20
347.437405
  0
SPLINE
  5
3F2
100
AcDbEntity
  8
M4
  6
CONTINUOUS
370
25
 62
   234
100
AcDbSpline
210
0.0
220
0.0
230
-1.0
 70
     8
 71
     3
 72
     8
 73
     4
 43
0.0000001
 40
0.0
 40
0.0
 40
0.0
 40
0.0
 40
1.0
 40
1.0
 40
1.0
 40
1.0
 10
129.515735
 20
349.652102
 10
129.484875
 20
349.592967
 10
129.451757
 20
349.535105
 10
129.415735
 20
349.47886
  0
SPLINE
  5
3F3
100
AcDbEntity
  8
M4
  6
CONTINUOUS
370
25
 62
   234
100
AcDbSpline
210
0.0
220
0.0
230
-1.0
 70
     8
 71
     3
 72
     8
 73
     4
 43
0.0000001
 40
0.0
 40
0.0
 40
0.0
 40
0.0
 40
1.0
 40
1.0
 40
1.0
 40
1.0
 10
121.415734
 20
349.47886
 10
121.379715
 20
349.535105
 10
121.346595
 20
349.592967
 10
121.315735
 20
349.652102
  0
ARC
  5
3F4
100
AcDbEntity
  8
M4
  6
CONTINUOUS
370
25
 62
   234
100
AcDbCircle
 10
124.565735
 20
346.490597
 40
0.5
100
AcDbArc
 50
90.0
 51
180.0
  0
ARC
  5
3F5
100
AcDbEntity
  8
M4
  6
CONTINUOUS
370
25
 62
   234
100
AcDbCircle
 10
126.265735
 20
346.490597
 40
0.5
100
AcDbArc
 50
0.0
 51
90.0
  0
LINE
  5
3F6
100
AcDbEntity
  8
M4
  6
CONTINUOUS
370
25
 62
   234
100
AcDbLine
 10
145.415735
 20
459.290597
 11
145.415735
 21
471.290597
  0
ARC
  5
3F7
100
AcDbEntity
  8
M4
  6
CONTINUOUS
370
25
 62
   234
100
AcDbCircle
 10
125.415735
 20
352.040597
 40
4.75
100
AcDbArc
 50
284.282021
 51
327.363102
  0
SPLINE
  5
3F8
100
AcDbEntity
  8
M4
  6
CONTINUOUS
370
25
 62
   234
100
AcDbSpline
210
0.0
220
0.0
230
-1.0
 70
     8
 71
     3
 72
     8
 73
     4
 43
0.0000001
 40
0.0
 40
0.0
 40
0.0
 40
0.0
 40
1.0
 40
1.0
 40
1.0
 40
1.0
 10
126.587537
 20
347.437405
 10
126.481507
 20
347.410412
 10
126.373592
 20
347.395865
 10
126.265735
 20
347.379885
  0
LINE
  5
3F9
100
AcDbEntity
  8
M4
  6
CONTINUOUS
370
25
 62
   234
100
AcDbLine
 10
124.915735
 20
382.290595
 11
100.415734
 21
382.290595
  0
LINE
  5
3FA
100
AcDbEntity
  8
M4
  6
CONTINUOUS
370
25
 62
   234
100
AcDbLine
 10
117.165734
 20
386.9906
 11
117.165734
 21
392.490595
  0
LINE
  5
3FB
100
AcDbEntity
  8
M4
  6
CONTINUOUS
370
25
 62
   234
100
AcDbLine
 10
108.665734
 20
386.9906
 11
117.165734
 21
386.9906
  0
LINE
  5
3FC
100
AcDbEntity
  8
M4
  6
CONTINUOUS
370
25
 62
   234
100
AcDbLine
 10
117.165734
 20
392.490595
 11
108.665734
 21
392.490595
  0
LINE
  5
3FD
100
AcDbEntity
  8
M4
  6
CONTINUOUS
370
25
 62
   234
100
AcDbLine
 10
123.915735
 20
430.290597
 11
123.915735
 21
384.290597
  0
LINE
  5
3FE
100
AcDbEntity
  8
M4
  6
CONTINUOUS
370
25
 62
   234
100
AcDbLine
 10
120.415735
 20
396.213247
 11
120.415735
 21
425.790597
  0
LINE
  5
3FF
100
AcDbEntity
  8
M4
  6
CONTINUOUS
370
25
 62
   234
100
AcDbLine
 10
120.415735
 20
396.213247
 11
105.415735
 21
396.213247
  0
LINE
  5
400
100
AcDbEntity
  8
M4
  6
CONTINUOUS
370
25
 62
   234
100
AcDbLine
 10
120.415735
 20
425.790597
 11
105.415735
 21
425.790597
  0
LINE
  5
401
100
AcDbEntity
  8
M4
  6
CONTINUOUS
370
25
 62
   234
100
AcDbLine
 10
108.665734
 20
392.490595
 11
108.665734
 21
386.9906
  0
LINE
  5
402
100
AcDbEntity
  8
M4
  6
CONTINUOUS
370
25
 62
   234
100
AcDbLine
 10
105.415735
 20
396.213247
 11
105.415735
 21
425.790597
  0
LINE
  5
403
100
AcDbEntity
  8
M4
  6
CONTINUOUS
370
25
 62
   234
100
AcDbLine
 10
101.915734
 20
384.290597
 11
101.915734
 21
430.290597
  0
LINE
  5
404
100
AcDbEntity
  8
M4
  6
CONTINUOUS
370
25
 62
   234
100
AcDbLine
 10
100.415734
 20
432.290597
 11
124.915735
 21
432.290597
  0
LINE
  5
405
100
AcDbEntity
  8
M4
  6
CONTINUOUS
370
25
 62
   234
100
AcDbLine
 10
105.415735
 20
396.7906
 11
120.415735
 21
396.7906
  0
ARC
  5
406
100
AcDbEntity
  8
M4
  6
CONTINUOUS
370
25
 62
   234
100
AcDbCircle
 10
124.415735
 20
381.290597
 40
0.5
100
AcDbArc
 50
270.0
 51
360.0
  0
ARC
  5
407
100
AcDbEntity
  8
M4
  6
CONTINUOUS
370
25
 62
   234
100
AcDbCircle
 10
123.915735
 20
435.790597
 40
1.0
100
AcDbArc
 50
0.0
 51
90.0
  0
LINE
  5
408
100
AcDbEntity
  8
M4
  6
CONTINUOUS
370
25
 62
   234
100
AcDbLine
 10
102.415734
 20
436.790595
 11
123.915735
 21
436.790595
  0
LINE
  5
409
100
AcDbEntity
  8
M4
  6
CONTINUOUS
370
25
 62
   234
100
AcDbLine
 10
124.915735
 20
435.790597
 11
124.915735
 21
380.790597
  0
LINE
  5
40A
100
AcDbEntity
  8
M4
  6
CONTINUOUS
370
25
 62
   234
100
AcDbLine
 10
102.415734
 20
380.790597
 11
124.415735
 21
380.790597
  0
ARC
  5
40B
100
AcDbEntity
  8
M4
  6
CONTINUOUS
370
25
 62
   234
100
AcDbCircle
 10
103.915734
 20
384.290597
 40
2.0
100
AcDbArc
 50
180.0
 51
270.0
  0
ARC
  5
40C
100
AcDbEntity
  8
M4
  6
CONTINUOUS
370
25
 62
   234
100
AcDbCircle
 10
121.915735
 20
384.290597
 40
2.0
100
AcDbArc
 50
270.0
 51
360.0
  0
ARC
  5
40D
100
AcDbEntity
  8
M4
  6
CONTINUOUS
370
25
 62
   234
100
AcDbCircle
 10
103.915734
 20
430.290597
 40
2.0
100
AcDbArc
 50
90.0
 51
180.0
  0
ARC
  5
40E
100
AcDbEntity
  8
M4
  6
CONTINUOUS
370
25
 62
   234
100
AcDbCircle
 10
121.915735
 20
430.290597
 40
2.0
100
AcDbArc
 50
0.0
 51
90.0
  0
LINE
  5
40F
100
AcDbEntity
  8
M4
  6
CONTINUOUS
370
25
 62
   234
100
AcDbLine
 10
150.065737
 20
467.590597
 11
150.915735
 21
467.590597
  0
ARC
  5
410
100
AcDbEntity
  8
M4
  6
CONTINUOUS
370
25
 62
   234
100
AcDbCircle
 10
124.565735
 20
468.090597
 40
0.5
100
AcDbArc
 50
180.0
 51
251.228127
  0
ARC
  5
411
100
AcDbEntity
  8
M4
  6
CONTINUOUS
370
25
 62
   234
100
AcDbCircle
 10
126.265735
 20
468.090597
 40
0.5
100
AcDbArc
 50
288.771873
 51
360.0
  0
LINE
  5
412
100
AcDbEntity
  8
M4
  6
CONTINUOUS
370
25
 62
   234
100
AcDbLine
 10
120.415735
 20
459.290597
 11
120.415735
 21
471.290597
  0
LINE
  5
413
100
AcDbEntity
  8
M4
  6
CONTINUOUS
370
25
 62
   234
100
AcDbLine
 10
129.515735
 20
460.14216
 11
129.515735
 21
464.929092
  0
LINE
  5
414
100
AcDbEntity
  8
M4
  6
CONTINUOUS
370
25
 62
   234
100
AcDbLine
 10
121.315735
 20
464.929092
 11
121.315735
 21
460.14216
  0
LINE
  5
415
100
AcDbEntity
  8
M4
  6
CONTINUOUS
370
25
 62
   234
100
AcDbLine
 10
126.765735
 20
468.090597
 11
126.765735
 21
469.748972
  0
LINE
  5
416
100
AcDbEntity
  8
M4
  6
CONTINUOUS
370
25
 62
   234
100
AcDbLine
 10
130.415735
 20
471.290597
 11
130.415735
 21
459.290597
  0
LINE
  5
417
100
AcDbEntity
  8
M4
  6
CONTINUOUS
370
25
 62
   234
100
AcDbLine
 10
124.065735
 20
469.748972
 11
124.065735
 21
468.090597
  0
SPLINE
  5
418
100
AcDbEntity
  8
M4
  6
CONTINUOUS
370
25
 62
   234
100
AcDbSpline
210
0.0
220
0.0
230
-1.0
 70
     8
 71
     3
 72
     8
 73
     4
 43
0.0000001
 40
0.0
 40
0.0
 40
0.0
 40
0.0
 40
1.0
 40
1.0
 40
1.0
 40
1.0
 10
129.415735
 20
465.102335
 10
129.451757
 20
465.04609
 10
129.484875
 20
464.988225
 10
129.515735
 20
464.929092
  0
LINE
  5
419
100
AcDbEntity
  8
M4
  6
CONTINUOUS
370
25
 62
   234
100
AcDbLine
 10
105.415735
 20
471.290597
 11
105.415735
 21
459.290597
  0
ARC
  5
41A
100
AcDbEntity
  8
M4
  6
CONTINUOUS
370
25
 62
   234
100
AcDbCircle
 10
125.415735
 20
462.540597
 40
4.75
100
AcDbArc
 50
32.636898
 51
149.673029
  0
ARC
  5
41B
100
AcDbEntity
  8
M4
  6
CONTINUOUS
370
25
 62
   234
100
AcDbCircle
 10
107.415734
 20
459.290597
 40
2.0
100
AcDbArc
 50
180.0
 51
270.0
  0
ARC
  5
41C
100
AcDbEntity
  8
M4
  6
CONTINUOUS
370
25
 62
   234
100
AcDbCircle
 10
118.415734
 20
459.290597
 40
2.0
100
AcDbArc
 50
270.0
 51
360.0
  0
ARC
  5
41D
100
AcDbEntity
  8
M4
  6
CONTINUOUS
370
25
 62
   234
100
AcDbCircle
 10
150.915735
 20
467.090597
 40
0.5
100
AcDbArc
 50
0.0
 51
90.0
  0
ARC
  5
41E
100
AcDbEntity
  8
M4
  6
CONTINUOUS
370
25
 62
   234
100
AcDbCircle
 10
125.415735
 20
462.540597
 40
4.25
100
AcDbArc
 50
195.26773
 51
344.73227
  0
ARC
  5
41F
100
AcDbEntity
  8
M4
  6
CONTINUOUS
370
25
 62
   234
100
AcDbCircle
 10
125.415735
 20
462.540597
 40
4.25
100
AcDbArc
 50
15.26773
 51
164.73227
  0
LINE
  5
420
100
AcDbEntity
  8
M4
  6
CONTINUOUS
370
25
 62
   234
100
AcDbLine
 10
132.415737
 20
457.290597
 11
143.415737
 21
457.290597
  0
LINE
  5
421
100
AcDbEntity
  8
M4
  6
CONTINUOUS
370
25
 62
   234
100
AcDbLine
 10
107.415734
 20
457.290597
 11
118.415734
 21
457.290597
  0
SPLINE
  5
422
100
AcDbEntity
  8
M4
  6
CONTINUOUS
370
25
 62
   234
100
AcDbSpline
210
0.0
220
0.0
230
-1.0
 70
     8
 71
     3
 72
     8
 73
     4
 43
0.0000001
 40
0.0
 40
0.0
 40
0.0
 40
0.0
 40
1.0
 40
1.0
 40
1.0
 40
1.0
 10
124.404835
 20
467.617192
 10
124.457245
 20
467.59938
 10
124.510827
 20
467.590597
 10
124.565735
 20
467.590597
  0
SPLINE
  5
423
100
AcDbEntity
  8
M4
  6
CONTINUOUS
370
25
 62
   234
100
AcDbSpline
210
0.0
220
0.0
230
-1.0
 70
     8
 71
     3
 72
     8
 73
     4
 43
0.0000001
 40
0.0
 40
0.0
 40
0.0
 40
0.0
 40
1.0
 40
1.0
 40
1.0
 40
1.0
 10
126.265735
 20
467.590597
 10
126.320645
 20
467.590597
 10
126.374227
 20
467.59938
 10
126.426637
 20
467.617192
  0
SPLINE
  5
424
100
AcDbEntity
  8
M4
  6
CONTINUOUS
370
25
 62
   234
100
AcDbSpline
210
0.0
220
0.0
230
-1.0
 70
     8
 71
     3
 72
    29
 73
    25
 43
0.0000001
 40
0.0
 40
0.0
 40
0.0
 40
0.0
 40
1.0
 40
1.0
 40
1.0
 40
2.0
 40
2.0
 40
2.0
 40
3.0
 40
3.0
 40
3.0
 40
4.0
 40
4.0
 40
4.0
 40
5.0
 40
5.0
 40
5.0
 40
6.0
 40
6.0
 40
6.0
 40
7.0
 40
7.0
 40
7.0
 40
8.0
 40
8.0
 40
8.0
 40
8.0
 10
124.565735
 20
467.590597
 10
124.636527
 20
467.590597
 10
124.707315
 20
467.590597
 10
124.77811
 20
467.590597
 10
124.848907
 20
467.590597
 10
124.919702
 20
467.590597
 10
124.990512
 20
467.590597
 10
125.061322
 20
467.590597
 10
125.132137
 20
467.590597
 10
125.202977
 20
467.590597
 10
125.273817
 20
467.590597
 10
125.344672
 20
467.590597
 10
125.41554
 20
467.590597
 10
125.486407
 20
467.590597
 10
125.557282
 20
467.590597
 10
125.62815
 20
467.590597
 10
125.699015
 20
467.590597
 10
125.769872
 20
467.590597
 10
125.840722
 20
467.590597
 10
125.911575
 20
467.590597
 10
125.982422
 20
467.590597
 10
126.053255
 20
467.590597
 10
126.124087
 20
467.590597
 10
126.194912
 20
467.590597
 10
126.265735
 20
467.590597
  0
ARC
  5
425
100
AcDbEntity
  8
M4
  6
CONTINUOUS
370
25
 62
   234
100
AcDbCircle
 10
125.415735
 20
462.540597
 40
4.75
100
AcDbArc
 50
210.326971
 51
329.673016
  0
LINE
  5
426
100
AcDbEntity
  8
M4
  6
CONTINUOUS
370
25
 62
   234
100
AcDbLine
 10
145.415735
 20
343.290597
 11
145.415735
 21
355.7906
  0
ARC
  5
427
100
AcDbEntity
  8
M4
  6
CONTINUOUS
370
25
 62
   234
100
AcDbCircle
 10
129.415735
 20
471.290597
 40
1.0
100
AcDbArc
 50
0.0
 51
90.0
  0
ARC
  5
428
100
AcDbEntity
  8
M4
  6
CONTINUOUS
370
25
 62
   234
100
AcDbCircle
 10
121.415734
 20
471.290597
 40
1.0
100
AcDbArc
 50
90.0
 51
180.0
  0
LINE
  5
429
100
AcDbEntity
  8
M4
  6
CONTINUOUS
370
25
 62
   234
100
AcDbLine
 10
121.415737
 20
472.290597
 11
123.665737
 21
472.290597
  0
ARC
  5
42A
100
AcDbEntity
  8
M4
  6
CONTINUOUS
370
25
 62
   234
100
AcDbCircle
 10
104.415734
 20
471.290597
 40
1.0
100
AcDbArc
 50
0.0
 51
90.0
  0
ARC
  5
42B
100
AcDbEntity
  8
M4
  6
CONTINUOUS
370
25
 62
   234
100
AcDbCircle
 10
146.415735
 20
471.290597
 40
1.0
100
AcDbArc
 50
90.0
 51
180.0
  0
LINE
  5
42C
100
AcDbEntity
  8
M4
  6
CONTINUOUS
370
25
 62
   234
100
AcDbLine
 10
150.065737
 20
469.748972
 11
150.065737
 21
467.590597
  0
LINE
  5
42D
100
AcDbEntity
  8
M4
  6
CONTINUOUS
370
25
 62
   234
100
AcDbLine
 10
127.165735
 20
472.290597
 11
129.415735
 21
472.290597
  0
LINE
  5
42E
100
AcDbEntity
  8
M4
  6
CONTINUOUS
370
25
 62
   234
100
AcDbLine
 10
146.415737
 20
472.290597
 11
149.665735
 21
472.290597
  0
LINE
  5
42F
100
AcDbEntity
  8
M4
  6
CONTINUOUS
370
25
 62
   234
100
AcDbLine
 10
104.415734
 20
472.290597
 11
102.165734
 21
472.290597
  0
CIRCLE
  5
430
100
AcDbEntity
  8
M4
  6
CONTINUOUS
370
25
 62
   234
100
AcDbCircle
 10
147.915735
 20
352.290597
 40
1.25
  0
CIRCLE
  5
431
100
AcDbEntity
  8
M4
  6
CONTINUOUS
370
25
 62
   234
100
AcDbCircle
 10
147.915735
 20
352.290597
 40
1.55
  0
CIRCLE
  5
432
100
AcDbEntity
  8
M4
  6
CONTINUOUS
370
25
 62
   234
100
AcDbCircle
 10
147.915735
 20
462.290597
 40
1.25
  0
CIRCLE
  5
433
100
AcDbEntity
  8
M4
  6
CONTINUOUS
370
25
 62
   234
100
AcDbCircle
 10
147.915735
 20
462.290597
 40
1.55
  0
ARC
  5
434
100
AcDbEntity
  8
M4
  6
CONTINUOUS
370
25
 62
   234
100
AcDbCircle
 10
127.065735
 20
344.090602
 40
0.8
100
AcDbArc
 50
112.024326
 51
240.0
  0
ARC
  5
435
100
AcDbEntity
  8
M4
  6
CONTINUOUS
370
25
 62
   234
100
AcDbCircle
 10
123.765735
 20
344.090602
 40
0.8
100
AcDbArc
 50
300.0
 51
427.975674
  0
ARC
  5
436
100
AcDbEntity
  8
M4
  6
CONTINUOUS
370
25
 62
   234
100
AcDbCircle
 10
149.765737
 20
344.090602
 40
0.8
100
AcDbArc
 50
300.0
 51
427.975674
  0
ARC
  5
437
100
AcDbEntity
  8
M4
  6
CONTINUOUS
370
25
 62
   234
100
AcDbCircle
 10
149.765737
 20
470.490592
 40
0.8
100
AcDbArc
 50
292.024326
 51
420.0
  0
ARC
  5
438
100
AcDbEntity
  8
M4
  6
CONTINUOUS
370
25
 62
   234
100
AcDbCircle
 10
127.065735
 20
470.490592
 40
0.8
100
AcDbArc
 50
120.0
 51
247.975674
  0
ARC
  5
439
100
AcDbEntity
  8
M4
  6
CONTINUOUS
370
25
 62
   234
100
AcDbCircle
 10
123.765735
 20
470.490592
 40
0.8
100
AcDbArc
 50
292.024326
 51
420.0
  0
LINE
  5
43A
100
AcDbEntity
  8
M4
  6
CONTINUOUS
370
25
 62
   234
100
AcDbLine
 10
150.415737
 20
365.7906
 11
100.415734
 21
365.7906
  0
LINE
  5
43B
100
AcDbEntity
  8
M4
  6
CONTINUOUS
370
25
 62
   234
100
AcDbLine
 10
151.415737
 20
467.090597
 11
151.415737
 21
347.490597
  0
ARC
  5
43C
100
AcDbEntity
  8
M4
  6
CONTINUOUS
370
25
 62
   234
100
AcDbCircle
 10
101.165734
 20
342.790597
 40
0.5
100
AcDbArc
 50
180.0
 51
270.0
  0
ARC
  5
43D
100
AcDbEntity
  8
M4
  6
CONTINUOUS
370
25
 62
   234
100
AcDbCircle
 10
101.065735
 20
344.090602
 40
0.8
100
AcDbArc
 50
112.024326
 51
240.0
  0
ARC
  5
43E
100
AcDbEntity
  8
M4
  6
CONTINUOUS
370
25
 62
   234
100
AcDbCircle
 10
99.915734
 20
347.490597
 40
0.5
100
AcDbArc
 50
180.0
 51
270.0
  0
LINE
  5
43F
100
AcDbEntity
  8
M4
  6
CONTINUOUS
370
25
 62
   234
100
AcDbLine
 10
99.915734
 20
346.990592
 11
100.765735
 21
346.990592
  0
LINE
  5
440
100
AcDbEntity
  8
M4
  6
CONTINUOUS
370
25
 62
   234
100
AcDbLine
 10
100.665737
 20
343.39778
 11
100.665737
 21
342.790595
  0
LINE
  5
441
100
AcDbEntity
  8
M4
  6
CONTINUOUS
370
25
 62
   234
100
AcDbLine
 10
100.765735
 20
346.990592
 11
100.765735
 21
344.832222
  0
LINE
  5
442
100
AcDbEntity
  8
M4
  6
CONTINUOUS
370
25
 62
   234
100
AcDbLine
 10
99.915734
 20
364.290595
 11
103.215737
 21
364.290595
  0
SPLINE
  5
443
100
AcDbEntity
  8
M4
  6
CONTINUOUS
370
25
 62
   234
100
AcDbSpline
210
0.0
220
0.0
230
-1.0
 70
     8
 71
     3
 72
    65
 73
    61
 43
0.0000001
 40
0.0
 40
0.0
 40
0.0
 40
0.0
 40
1.0
 40
1.0
 40
1.0
 40
2.0
 40
2.0
 40
2.0
 40
3.0
 40
3.0
 40
3.0
 40
4.0
 40
4.0
 40
4.0
 40
5.0
 40
5.0
 40
5.0
 40
6.0
 40
6.0
 40
6.0
 40
7.0
 40
7.0
 40
7.0
 40
8.0
 40
8.0
 40
8.0
 40
9.0
 40
9.0
 40
9.0
 40
10.0
 40
10.0
 40
10.0
 40
11.0
 40
11.0
 40
11.0
 40
12.0
 40
12.0
 40
12.0
 40
13.0
 40
13.0
 40
13.0
 40
14.0
 40
14.0
 40
14.0
 40
15.0
 40
15.0
 40
15.0
 40
16.0
 40
16.0
 40
16.0
 40
17.0
 40
17.0
 40
17.0
 40
18.0
 40
18.0
 40
18.0
 40
19.0
 40
19.0
 40
19.0
 40
20.0
 40
20.0
 40
20.0
 40
20.0
 10
105.939447
 20
359.267492
 10
105.914807
 20
359.230567
 10
105.890165
 20
359.193647
 10
105.864675
 20
359.157555
 10
105.839184
 20
359.12146
 10
105.812847
 20
359.086207
 10
105.786677
 20
359.05234
 10
105.760507
 20
359.018472
 10
105.734505
 20
358.986002
 10
105.705327
 20
358.951422
 10
105.676152
 20
358.916842
 10
105.643805
 20
358.880165
 10
105.620507
 20
358.854375
 10
105.603047
 20
358.835045
 10
105.590672
 20
358.821837
 10
105.57672
 20
358.807152
 10
105.562765
 20
358.792467
 10
105.547239
 20
358.776315
 10
105.531905
 20
358.760707
 10
105.51657
 20
358.745102
 10
105.501424
 20
358.730045
 10
105.486002
 20
358.714997
 10
105.470579
 20
358.69995
 10
105.45488
 20
358.684917
 10
105.438945
 20
358.669977
 10
105.423012
 20
358.655037
 10
105.40684
 20
358.640192
 10
105.390587
 20
358.625552
 10
105.374334
 20
358.610912
 10
105.357994
 20
358.596477
 10
105.341032
 20
358.581842
 10
105.32407
 20
358.567207
 10
105.306482
 20
358.55237
 10
105.290587
 20
358.539115
 10
105.274695
 20
358.52586
 10
105.260485
 20
358.51418
 10
105.239562
 20
358.497642
 10
105.212002
 20
358.475855
 10
105.172782
 20
358.445632
 10
105.136319
 20
358.418752
 10
105.09986
 20
358.391872
 10
105.06614
 20
358.368332
 10
105.031259
 20
358.344907
 10
104.996379
 20
358.321485
 10
104.96033
 20
358.29818
 10
104.924127
 20
358.2758
 10
104.887922
 20
358.253417
 10
104.851549
 20
358.231957
 10
104.814655
 20
358.211117
 10
104.777762
 20
358.190277
 10
104.740337
 20
358.170065
 10
104.702409
 20
358.150557
 10
104.664482
 20
358.131052
 10
104.626042
 20
358.112257
 10
104.587144
 20
358.09411
 10
104.548245
 20
358.075965
 10
104.508879
 20
358.058472
 10
104.468897
 20
358.041912
 10
104.428914
 20
358.025352
 10
104.38831
 20
358.009727
 10
104.347705
 20
357.9941
  0
ARC
  5
444
100
AcDbEntity
  8
M4
  6
CONTINUOUS
370
25
 62
   234
100
AcDbCircle
 10
103.215735
 20
361.040597
 40
3.25
100
AcDbArc
 50
326.936347
 51
450.0
  0
ARC
  5
445
100
AcDbEntity
  8
M4
  6
CONTINUOUS
370
25
 62
   234
100
AcDbCircle
 10
99.915734
 20
357.290595
 40
0.5
100
AcDbArc
 50
90.0
 51
180.0
  0
LINE
  5
446
100
AcDbEntity
  8
M4
  6
CONTINUOUS
370
25
 62
   234
100
AcDbLine
 10
103.215737
 20
357.790597
 11
99.915734
 21
357.790597
  0
ARC
  5
447
100
AcDbEntity
  8
M4
  6
CONTINUOUS
370
25
 62
   234
100
AcDbCircle
 10
103.215735
 20
361.040597
 40
3.25
100
AcDbArc
 50
270.0
 51
290.38327
  0
ARC
  5
448
100
AcDbEntity
  8
M4
  6
CONTINUOUS
370
25
 62
   234
100
AcDbCircle
 10
99.915734
 20
364.790595
 40
0.5
100
AcDbArc
 50
180.0
 51
270.0
  0
CIRCLE
  5
449
100
AcDbEntity
  8
M4
  6
CONTINUOUS
370
25
 62
   234
100
AcDbCircle
 10
102.915734
 20
462.290597
 40
1.55
  0
CIRCLE
  5
44A
100
AcDbEntity
  8
M4
  6
CONTINUOUS
370
25
 62
   234
100
AcDbCircle
 10
102.915734
 20
462.290597
 40
1.25
  0
ARC
  5
44B
100
AcDbEntity
  8
M4
  6
CONTINUOUS
370
25
 62
   234
100
AcDbCircle
 10
101.065735
 20
470.490592
 40
0.8
100
AcDbArc
 50
120.0
 51
247.975674
  0
LINE
  5
44C
100
AcDbEntity
  8
M4
  6
CONTINUOUS
370
25
 62
   234
100
AcDbLine
 10
100.665737
 20
471.790597
 11
100.665737
 21
471.183417
  0
ARC
  5
44D
100
AcDbEntity
  8
M4
  6
CONTINUOUS
370
25
 62
   234
100
AcDbCircle
 10
101.165734
 20
471.790597
 40
0.5
100
AcDbArc
 50
90.0
 51
180.0
  0
LINE
  5
44E
100
AcDbEntity
  8
M4
  6
CONTINUOUS
370
25
 62
   234
100
AcDbLine
 10
100.765735
 20
467.590597
 11
99.915734
 21
467.590597
  0
LINE
  5
44F
100
AcDbEntity
  8
M4
  6
CONTINUOUS
370
25
 62
   234
100
AcDbLine
 10
100.765735
 20
469.748972
 11
100.765735
 21
467.590597
  0
ARC
  5
450
100
AcDbEntity
  8
M4
  6
CONTINUOUS
370
25
 62
   234
100
AcDbCircle
 10
99.915734
 20
467.090597
 40
0.5
100
AcDbArc
 50
90.0
 51
180.0
  0
LINE
  5
451
100
AcDbEntity
  8
M4
  6
CONTINUOUS
370
25
 62
   234
100
AcDbLine
 10
104.415734
 20
472.290597
 11
101.165734
 21
472.290597
  0
CIRCLE
  5
452
100
AcDbEntity
  8
M4
  6
CONTINUOUS
370
25
 62
   234
100
AcDbCircle
 10
102.915734
 20
352.290597
 40
1.25
  0
CIRCLE
  5
453
100
AcDbEntity
  8
M4
  6
CONTINUOUS
370
25
 62
   234
100
AcDbCircle
 10
102.915734
 20
352.290597
 40
1.55
  0
ARC
  5
454
100
AcDbEntity
  8
M4
  6
CONTINUOUS
370
25
 62
   234
100
AcDbCircle
 10
100.415734
 20
431.290597
 40
1.0
100
AcDbArc
 50
90.0
 51
180.0
  0
ARC
  5
455
100
AcDbEntity
  8
M4
  6
CONTINUOUS
370
25
 62
   234
100
AcDbCircle
 10
100.415734
 20
366.7906
 40
1.0
100
AcDbArc
 50
180.0
 51
270.0
  0
ARC
  5
456
100
AcDbEntity
  8
M4
  6
CONTINUOUS
370
25
 62
   234
100
AcDbCircle
 10
150.415737
 20
366.7906
 40
1.0
100
AcDbArc
 50
270.0
 51
360.0
  0
ARC
  5
457
100
AcDbEntity
  8
M4
  6
CONTINUOUS
370
25
 62
   234
100
AcDbCircle
 10
150.415737
 20
371.790597
 40
1.0
100
AcDbArc
 50
0.0
 51
90.0
  0
CIRCLE
  5
458
100
AcDbEntity
  8
M4
  6
CONTINUOUS
370
25
 62
   114
100
AcDbCircle
 10
137.915735
 20
464.790597
 40
7.0
  0
LINE
  5
459
100
AcDbEntity
  8
M4
  6
CONTINUOUS
370
25
 62
   114
100
AcDbLine
 10
139.047175
 20
464.790597
 11
143.39876
 21
469.14218
  0
LINE
  5
45A
100
AcDbEntity
  8
M4
  6
CONTINUOUS
370
25
 62
   114
100
AcDbLine
 10
133.564142
 20
459.307562
 11
137.915907
 21
463.65933
  0
LINE
  5
45B
100
AcDbEntity
  8
M4
  6
CONTINUOUS
370
25
 62
   114
100
AcDbLine
 10
136.78448
 20
464.79076
 11
132.432712
 21
460.438992
  0
LINE
  5
45C
100
AcDbEntity
  8
M4
  6
CONTINUOUS
370
25
 62
   114
100
AcDbLine
 10
142.26732
 20
470.27362
 11
137.915747
 21
465.922027
  0
LINE
  5
45D
100
AcDbEntity
  8
M4
  6
CONTINUOUS
370
25
 62
   114
100
AcDbLine
 10
137.915735
 20
465.922037
 11
135.759025
 21
468.078747
  0
LINE
  5
45E
100
AcDbEntity
  8
M4
  6
CONTINUOUS
370
25
 62
   114
100
AcDbLine
 10
141.203712
 20
462.63406
 11
139.047175
 21
464.790597
  0
LINE
  5
45F
100
AcDbEntity
  8
M4
  6
CONTINUOUS
370
25
 62
   114
100
AcDbLine
 10
137.915907
 20
463.65933
 11
140.072445
 21
461.502792
  0
LINE
  5
460
100
AcDbEntity
  8
M4
  6
CONTINUOUS
370
25
 62
   114
100
AcDbLine
 10
134.627757
 20
466.94748
 11
136.784467
 21
464.79077
  0
LINE
  5
461
100
AcDbEntity
  8
M4
  6
CONTINUOUS
370
25
 62
   114
100
AcDbLine
 10
140.072445
 20
461.502792
 11
141.203712
 21
462.63406
  0
LINE
  5
462
100
AcDbEntity
  8
M4
  6
CONTINUOUS
370
25
 62
   114
100
AcDbLine
 10
135.759025
 20
468.078747
 11
134.627757
 21
466.94748
  0
ARC
  5
463
100
AcDbEntity
  8
M4
  6
CONTINUOUS
370
25
 62
   114
100
AcDbCircle
 10
137.915735
 20
464.790597
 40
8.0
100
AcDbArc
 50
20.364159
 51
159.635864
  0
ARC
  5
464
100
AcDbEntity
  8
M4
  6
CONTINUOUS
370
25
 62
   114
100
AcDbCircle
 10
137.915735
 20
464.790597
 40
8.0
100
AcDbArc
 50
290.364142
 51
339.635841
  0
ARC
  5
465
100
AcDbEntity
  8
M4
  6
CONTINUOUS
370
25
 62
   114
100
AcDbCircle
 10
137.915735
 20
464.790597
 40
8.0
100
AcDbArc
 50
200.364136
 51
249.635858
  0
LINE
  5
466
100
AcDbEntity
  8
M4
  6
DASHDOT
370
13
 62
   114
100
AcDbLine
 10
137.915735
 20
451.790597
 11
137.915735
 21
477.790597
  0
LINE
  5
467
100
AcDbEntity
  8
M4
  6
CONTINUOUS
370
25
 62
     7
100
AcDbLine
 10
105.415735
 20
397.340217
 11
120.415735
 21
397.340217
  0
LINE
  5
468
100
AcDbEntity
  8
M4
  6
CONTINUOUS
370
25
 62
     7
100
AcDbLine
 10
107.515734
 20
398.170212
 11
118.315735
 21
398.170212
  0
LINE
  5
469
100
AcDbEntity
  8
M4
  6
CONTINUOUS
370
25
 62
     7
100
AcDbLine
 10
107.515734
 20
398.211797
 11
118.315735
 21
398.211797
  0
LINE
  5
46A
100
AcDbEntity
  8
M4
  6
CONTINUOUS
370
25
 62
     7
100
AcDbLine
 10
120.415735
 20
397.602872
 11
105.415735
 21
397.602872
  0
LINE
  5
46B
100
AcDbEntity
  8
M4
  6
CONTINUOUS
370
25
 62
     7
100
AcDbLine
 10
107.515734
 20
398.170212
 11
107.515734
 21
407.440762
  0
LINE
  5
46C
100
AcDbEntity
  8
M4
  6
CONTINUOUS
370
25
 62
     7
100
AcDbLine
 10
108.515735
 20
408.440762
 11
107.513562
 21
407.43859
  0
LINE
  5
46D
100
AcDbEntity
  8
M4
  6
CONTINUOUS
370
25
 62
     7
100
AcDbLine
 10
105.915734
 20
422.240762
 11
105.915734
 21
424.790597
  0
LINE
  5
46E
100
AcDbEntity
  8
M4
  6
CONTINUOUS
370
25
 62
     7
100
AcDbLine
 10
118.915734
 20
425.790597
 11
106.915734
 21
425.790597
  0
ARC
  5
46F
100
AcDbEntity
  8
M4
  6
CONTINUOUS
370
25
 62
     7
100
AcDbCircle
 10
106.915734
 20
424.790597
 40
1.0
100
AcDbArc
 50
90.0
 51
180.0
  0
ARC
  5
470
100
AcDbEntity
  8
M4
  6
CONTINUOUS
370
25
 62
     7
100
AcDbCircle
 10
118.915734
 20
424.790597
 40
1.0
100
AcDbArc
 50
0.0
 51
90.0
  0
ARC
  5
471
100
AcDbEntity
  8
M4
  6
CONTINUOUS
370
25
 62
     7
100
AcDbCircle
 10
106.915565
 20
418.292545
 40
0.99983
100
AcDbArc
 50
180.009772
 51
270.009769
  0
ARC
  5
472
100
AcDbEntity
  8
M4
  6
CONTINUOUS
370
25
 62
     7
100
AcDbCircle
 10
118.915907
 20
418.292545
 40
0.99983
100
AcDbArc
 50
269.990231
 51
359.990228
  0
LINE
  5
473
100
AcDbEntity
  8
M4
  6
CONTINUOUS
370
25
 62
     7
100
AcDbLine
 10
119.915734
 20
422.240762
 11
119.915734
 21
424.790597
  0
LINE
  5
474
100
AcDbEntity
  8
M4
  6
CONTINUOUS
370
25
 62
     7
100
AcDbLine
 10
105.915734
 20
418.714982
 11
105.915734
 21
422.240762
  0
LINE
  5
475
100
AcDbEntity
  8
M4
  6
CONTINUOUS
370
25
 62
     7
100
AcDbLine
 10
106.915734
 20
417.292715
 11
118.915734
 21
417.292715
  0
LINE
  5
476
100
AcDbEntity
  8
M4
  6
CONTINUOUS
370
25
 62
     7
100
AcDbLine
 10
105.915734
 20
418.292375
 11
105.915734
 21
418.714982
  0
ARC
  5
477
100
AcDbEntity
  8
M4
  6
CONTINUOUS
370
25
 62
     7
100
AcDbCircle
 10
106.915565
 20
421.264987
 40
0.99983
100
AcDbArc
 50
180.009772
 51
270.009769
  0
LINE
  5
478
100
AcDbEntity
  8
M4
  6
CONTINUOUS
370
25
 62
     7
100
AcDbLine
 10
119.915734
 20
418.292375
 11
119.915734
 21
418.714982
  0
ARC
  5
479
100
AcDbEntity
  8
M4
  6
CONTINUOUS
370
25
 62
     7
100
AcDbCircle
 10
118.915907
 20
421.264987
 40
0.99983
100
AcDbArc
 50
269.990231
 51
359.990228
  0
LINE
  5
47A
100
AcDbEntity
  8
M4
  6
CONTINUOUS
370
25
 62
     7
100
AcDbLine
 10
119.915734
 20
418.714982
 11
119.915734
 21
422.240762
  0
LINE
  5
47B
100
AcDbEntity
  8
M4
  6
CONTINUOUS
370
25
 62
     7
100
AcDbLine
 10
118.915734
 20
420.265157
 11
106.915734
 21
420.265157
  0
LINE
  5
47C
100
AcDbEntity
  8
M4
  6
CONTINUOUS
370
25
 62
     7
100
AcDbLine
 10
120.415735
 20
408.440762
 11
105.415735
 21
408.440762
  0
LINE
  5
47D
100
AcDbEntity
  8
M4
  6
CONTINUOUS
370
25
 62
     7
100
AcDbLine
 10
118.315735
 20
398.170212
 11
118.315735
 21
408.440762
  0
CIRCLE
  5
47E
100
AcDbEntity
  8
M4
  6
CONTINUOUS
370
25
 62
   114
100
AcDbCircle
 10
112.915735
 20
349.790597
 40
7.0
  0
LINE
  5
47F
100
AcDbEntity
  8
M4
  6
CONTINUOUS
370
25
 62
   114
100
AcDbLine
 10
114.047174
 20
349.790597
 11
118.398759
 21
354.14218
  0
LINE
  5
480
100
AcDbEntity
  8
M4
  6
CONTINUOUS
370
25
 62
   114
100
AcDbLine
 10
108.564142
 20
344.307562
 11
112.915907
 21
348.65933
  0
LINE
  5
481
100
AcDbEntity
  8
M4
  6
CONTINUOUS
370
25
 62
   114
100
AcDbLine
 10
111.784479
 20
349.79076
 11
107.432712
 21
345.438992
  0
LINE
  5
482
100
AcDbEntity
  8
M4
  6
CONTINUOUS
370
25
 62
   114
100
AcDbLine
 10
117.26732
 20
355.27362
 11
112.915747
 21
350.922027
  0
LINE
  5
483
100
AcDbEntity
  8
M4
  6
CONTINUOUS
370
25
 62
   114
100
AcDbLine
 10
112.915735
 20
350.922037
 11
110.759025
 21
353.078747
  0
LINE
  5
484
100
AcDbEntity
  8
M4
  6
CONTINUOUS
370
25
 62
   114
100
AcDbLine
 10
116.203712
 20
347.63406
 11
114.047174
 21
349.790597
  0
LINE
  5
485
100
AcDbEntity
  8
M4
  6
CONTINUOUS
370
25
 62
   114
100
AcDbLine
 10
112.915907
 20
348.65933
 11
115.072445
 21
346.502792
  0
LINE
  5
486
100
AcDbEntity
  8
M4
  6
CONTINUOUS
370
25
 62
   114
100
AcDbLine
 10
109.627757
 20
351.94748
 11
111.784467
 21
349.79077
  0
LINE
  5
487
100
AcDbEntity
  8
M4
  6
CONTINUOUS
370
25
 62
   114
100
AcDbLine
 10
115.072445
 20
346.502792
 11
116.203712
 21
347.63406
  0
LINE
  5
488
100
AcDbEntity
  8
M4
  6
CONTINUOUS
370
25
 62
   114
100
AcDbLine
 10
110.759025
 20
353.078747
 11
109.627757
 21
351.94748
  0
ARC
  5
489
100
AcDbEntity
  8
M4
  6
CONTINUOUS
370
25
 62
   114
100
AcDbCircle
 10
112.915735
 20
349.790597
 40
8.0
100
AcDbArc
 50
20.364138
 51
159.635862
  0
ARC
  5
48A
100
AcDbEntity
  8
M4
  6
CONTINUOUS
370
25
 62
   114
100
AcDbCircle
 10
112.915735
 20
349.790597
 40
8.0
100
AcDbArc
 50
200.364138
 51
339.635862
  0
LINE
  5
48B
100
AcDbEntity
  8
M4
  6
DASHDOT
370
13
 62
   114
100
AcDbLine
 10
99.915734
 20
349.790597
 11
150.915727
 21
349.790597
  0
LINE
  5
48C
100
AcDbEntity
  8
M4
  6
DASHDOT
370
13
 62
   114
100
AcDbLine
 10
112.915735
 20
336.790597
 11
112.915735
 21
362.790597
  0
CIRCLE
  5
48D
100
AcDbEntity
  8
M4
  6
CONTINUOUS
370
25
 62
   114
100
AcDbCircle
 10
137.915735
 20
349.790597
 40
7.0
  0
LINE
  5
48E
100
AcDbEntity
  8
M4
  6
CONTINUOUS
370
25
 62
   114
100
AcDbLine
 10
139.047175
 20
349.790597
 11
143.39876
 21
354.14218
  0
LINE
  5
48F
100
AcDbEntity
  8
M4
  6
CONTINUOUS
370
25
 62
   114
100
AcDbLine
 10
133.564142
 20
344.307562
 11
137.915907
 21
348.65933
  0
LINE
  5
490
100
AcDbEntity
  8
M4
  6
CONTINUOUS
370
25
 62
   114
100
AcDbLine
 10
136.78448
 20
349.79076
 11
132.432712
 21
345.438992
  0
LINE
  5
491
100
AcDbEntity
  8
M4
  6
CONTINUOUS
370
25
 62
   114
100
AcDbLine
 10
142.26732
 20
355.27362
 11
137.915747
 21
350.922027
  0
LINE
  5
492
100
AcDbEntity
  8
M4
  6
CONTINUOUS
370
25
 62
   114
100
AcDbLine
 10
137.915735
 20
350.922037
 11
135.759025
 21
353.078747
  0
LINE
  5
493
100
AcDbEntity
  8
M4
  6
CONTINUOUS
370
25
 62
   114
100
AcDbLine
 10
141.203712
 20
347.63406
 11
139.047175
 21
349.790597
  0
LINE
  5
494
100
AcDbEntity
  8
M4
  6
CONTINUOUS
370
25
 62
   114
100
AcDbLine
 10
137.915907
 20
348.65933
 11
140.072445
 21
346.502792
  0
LINE
  5
495
100
AcDbEntity
  8
M4
  6
CONTINUOUS
370
25
 62
   114
100
AcDbLine
 10
134.627757
 20
351.94748
 11
136.784467
 21
349.79077
  0
LINE
  5
496
100
AcDbEntity
  8
M4
  6
CONTINUOUS
370
25
 62
   114
100
AcDbLine
 10
140.072445
 20
346.502792
 11
141.203712
 21
347.63406
  0
LINE
  5
497
100
AcDbEntity
  8
M4
  6
CONTINUOUS
370
25
 62
   114
100
AcDbLine
 10
135.759025
 20
353.078747
 11
134.627757
 21
351.94748
  0
ARC
  5
498
100
AcDbEntity
  8
M4
  6
CONTINUOUS
370
25
 62
   114
100
AcDbCircle
 10
137.915735
 20
349.790597
 40
8.0
100
AcDbArc
 50
20.364159
 51
159.635864
  0
ARC
  5
499
100
AcDbEntity
  8
M4
  6
CONTINUOUS
370
25
 62
   114
100
AcDbCircle
 10
137.915735
 20
349.790597
 40
8.0
100
AcDbArc
 50
200.364136
 51
339.635841
  0
LINE
  5
49A
100
AcDbEntity
  8
M4
  6
DASHDOT
370
13
 62
   114
100
AcDbLine
 10
137.915735
 20
336.790597
 11
137.915735
 21
362.790597
  0
CIRCLE
  5
49B
100
AcDbEntity
  8
M4
  6
CONTINUOUS
370
25
 62
   114
100
AcDbCircle
 10
112.915735
 20
464.790597
 40
7.0
  0
LINE
  5
49C
100
AcDbEntity
  8
M4
  6
CONTINUOUS
370
25
 62
   114
100
AcDbLine
 10
114.047174
 20
464.790597
 11
118.398759
 21
469.14218
  0
LINE
  5
49D
100
AcDbEntity
  8
M4
  6
CONTINUOUS
370
25
 62
   114
100
AcDbLine
 10
108.564142
 20
459.307562
 11
112.915907
 21
463.65933
  0
LINE
  5
49E
100
AcDbEntity
  8
M4
  6
CONTINUOUS
370
25
 62
   114
100
AcDbLine
 10
111.784479
 20
464.79076
 11
107.432712
 21
460.438992
  0
LINE
  5
49F
100
AcDbEntity
  8
M4
  6
CONTINUOUS
370
25
 62
   114
100
AcDbLine
 10
117.26732
 20
470.27362
 11
112.915747
 21
465.922027
  0
LINE
  5
4A0
100
AcDbEntity
  8
M4
  6
CONTINUOUS
370
25
 62
   114
100
AcDbLine
 10
112.915735
 20
465.922037
 11
110.759025
 21
468.078747
  0
LINE
  5
4A1
100
AcDbEntity
  8
M4
  6
CONTINUOUS
370
25
 62
   114
100
AcDbLine
 10
116.203712
 20
462.63406
 11
114.047174
 21
464.790597
  0
LINE
  5
4A2
100
AcDbEntity
  8
M4
  6
CONTINUOUS
370
25
 62
   114
100
AcDbLine
 10
112.915907
 20
463.65933
 11
115.072445
 21
461.502792
  0
LINE
  5
4A3
100
AcDbEntity
  8
M4
  6
CONTINUOUS
370
25
 62
   114
100
AcDbLine
 10
109.627757
 20
466.94748
 11
111.784467
 21
464.79077
  0
LINE
  5
4A4
100
AcDbEntity
  8
M4
  6
CONTINUOUS
370
25
 62
   114
100
AcDbLine
 10
115.072445
 20
461.502792
 11
116.203712
 21
462.63406
  0
LINE
  5
4A5
100
AcDbEntity
  8
M4
  6
CONTINUOUS
370
25
 62
   114
100
AcDbLine
 10
110.759025
 20
468.078747
 11
109.627757
 21
466.94748
  0
ARC
  5
4A6
100
AcDbEntity
  8
M4
  6
CONTINUOUS
370
25
 62
   114
100
AcDbCircle
 10
112.915735
 20
464.790597
 40
8.0
100
AcDbArc
 50
20.364138
 51
159.635862
  0
ARC
  5
4A7
100
AcDbEntity
  8
M4
  6
CONTINUOUS
370
25
 62
   114
100
AcDbCircle
 10
112.915735
 20
464.790597
 40
8.0
100
AcDbArc
 50
290.364142
 51
339.635862
  0
ARC
  5
4A8
100
AcDbEntity
  8
M4
  6
CONTINUOUS
370
25
 62
   114
100
AcDbCircle
 10
112.915735
 20
464.790597
 40
8.0
100
AcDbArc
 50
200.364138
 51
249.635858
  0
LINE
  5
4A9
100
AcDbEntity
  8
M4
  6
DASHDOT
370
13
 62
   114
100
AcDbLine
 10
99.915734
 20
464.790597
 11
150.915735
 21
464.790597
  0
LINE
  5
4AA
100
AcDbEntity
  8
M4
  6
DASHDOT
370
13
 62
   114
100
AcDbLine
 10
112.915735
 20
451.790597
 11
112.915735
 21
477.790597
  0
LINE
  5
4AB
100
AcDbEntity
  8
M4
  6
DIVIDE
370
13
100
AcDbLine
 10
127.915735
 20
474.290597
 11
127.915735
 21
472.290597
  0
LINE
  5
4AC
100
AcDbEntity
  8
M4
  6
DIVIDE
370
13
100
AcDbLine
 10
126.415735
 20
474.290597
 11
127.915735
 21
474.290597
  0
LINE
  5
4AD
100
AcDbEntity
  8
M4
  6
DIVIDE
370
13
100
AcDbLine
 10
126.415735
 20
474.290597
 11
126.415735
 21
522.290597
  0
LINE
  5
4AE
100
AcDbEntity
  8
M4
  6
DIVIDE
370
13
100
AcDbLine
 10
124.415735
 20
474.290597
 11
124.415735
 21
522.290597
  0
LINE
  5
4AF
100
AcDbEntity
  8
M4
  6
DIVIDE
370
13
100
AcDbLine
 10
122.915735
 20
474.290597
 11
122.915735
 21
472.290597
  0
LINE
  5
4B0
100
AcDbEntity
  8
M4
  6
DIVIDE
370
13
100
AcDbLine
 10
122.915735
 20
474.290597
 11
124.415735
 21
474.290597
  0
LINE
  5
4B1
100
AcDbEntity
  8
M4
  6
DIVIDE
370
13
100
AcDbLine
 10
124.415735
 20
522.290597
 11
126.415735
 21
522.290597
  0
LINE
  5
4B2
100
AcDbEntity
  8
M5
  6
CONTINUOUS
370
50
100
AcDbLine
 10
120.591595
 20
130.51473
 11
134.871593
 21
130.51473
  0
TEXT
  5
4B3
100
AcDbEntity
  8
M5
100
AcDbText
 10
121.256593
 20
131.354721
 40
8.4
  1
２Ｐ
 41
0.625
  7
STANDARD
100
AcDbText
  0
LINE
  5
4B4
100
AcDbEntity
  8
M5
  6
CONTINUOUS
370
50
100
AcDbLine
 10
285.97223
 20
130.51473
 11
300.25223
 21
130.51473
  0
TEXT
  5
4B5
100
AcDbEntity
  8
M5
100
AcDbText
 10
286.637231
 20
131.354721
 40
8.4
  1
２Ｐ
 41
0.625
  7
STANDARD
100
AcDbText
  0
ENDSEC
  0
SECTION
  2
OBJECTS
  0
DICTIONARY
  5
C
100
AcDbDictionary
  3
ACAD_GROUP
350
D
  3
ACAD_MLINESTYLE
350
E
  0
DICTIONARY
  5
D
102
{ACAD_REACTORS
330
C
102
}
100
AcDbDictionary
  0
DICTIONARY
  5
E
102
{ACAD_REACTORS
330
C
102
}
100
AcDbDictionary
  3
STANDARD
350
13
  0
MLINESTYLE
  5
13
102
{ACAD_REACTORS
330
E
102
}
100
AcDbMlineStyle
  2
STANDARD
 70
     0
  3

 62
     0
 51
90.0
 52
90.0
 71
     2
 49
0.5
 62
   256
  6
BYLAYER
 49
-0.5
 62
   256
  6
BYLAYER
  0
ENDSEC
  0
EOF
