  0
SECTION
  2
HEADER
  9
$ACADVER
  1
AC1014
  9
$INSBASE
 10
0.000000
 20
0.000000
 30
0.0
  9
$VIEWCTR
 10
7.531722
 20
4.5
  9
$VIEWSIZE
 40
9.0
  9
$SNAPMODE
 70
     0
  9
$SNAPUNIT
 10
1.0
 20
1.0
  9
$SNAPBASE
 10
0.0
 20
0.0
  9
$SNAPANG
 50
0.0
  9
$SNAPSTYLE
 70
     0
  9
$SNAPISOPAIR
 70
     0
  9
$GRIDMODE
 70
     0
  9
$GRIDUNIT
 10
0.0
 20
0.0
  9
$ORTHOMODE
 70
     0
  9
$REGENMODE
 70
     1
  9
$FILLMODE
 70
     1
  9
$QTEXTMODE
 70
     0
  9
$DRAGMODE
 70
     2
  9
$LTSCALE
  40
     1.000000
  9
$OSMODE
 70
     0
  9
$ATTMODE
 70
     1
  9
$TEXTSIZE
 40
0.2
  9
$TRACEWID
 40
0.05
  9
$TEXTSTYLE
  7
STANDARD
  9
$CELTYPE
  6
BYLAYER
  9
$CECOLOR
 62
   256
  9
$DIMSCALE
 40
1.0
  9
$DIMASZ
 40
0.18
  9
$DIMEXO
 40
0.0625
  9
$DIMDLI
 40
0.38
  9
$DIMRND
 40
0.0
  9
$DIMDLE
 40
0.0
  9
$DIMEXE
 40
0.18
  9
$DIMTP
 40
0.0
  9
$DIMTM
 40
0.0
  9
$DIMTXT
 40
0.18
  9
$DIMCEN
 40
0.09
  9
$DIMTSZ
 40
0.0
  9
$DIMTOL
 70
     0
  9
$DIMLIM
 70
     0
  9
$DIMTIH
 70
     1
  9
$DIMTOH
 70
     1
  9
$DIMSE1
 70
     0
  9
$DIMSE2
 70
     0
  9
$DIMTAD
 70
     0
  9
$DIMZIN
 70
     0
  9
$DIMBLK
  1

  9
$LUNITS
 70
     2
  9
$LUPREC
 70
     4
  9
$AXISMODE
 70
     0
  9
$AXISUNIT
 10
0.0
 20
0.0
  9
$SKETCHINC
 40
0.1
  9
$FILLETRAD
 40
0.0
  9
$AUNITS
 70
     0
  9
$AUPREC
 70
     0
  9
$MENU
  1
ACAD
  9
$ELEVATION
 40
0.0
  9
$THICKNESS
 40
0.0
  9
$VIEWDIR
 10
0.0
 20
0.0
 30
1.0
  9
$LIMCHECK
 70
     0
  9
$BLIPMODE
 70
     1
  9
$CHAMFERA
 40
0.0
  9
$CHAMFERB
 40
0.0
  9
$FASTZOOM
 70
     1
  9
$SKPOLY
 70
     0
  9
$TDCREATE
 40
0000000.0000000000
  9
$TDUPDATE
 40
0000000.0000000000
  9
$TDINDWG
 40
0.0000000000
  9
$TDUSRTIMER
 40
0.0000000000
  9
$USRTIMER
 70
     1
  9
$ANGBASE
 50
0.0
  9
$ANGDIR
 70
     0
  9
$PDMODE
 70
     0
  9
$PDSIZE
 40
0.0
  9
$PLINEWID
 40
0.0
  9
$COORDS
 70
     0
  9
$USERI1
 70
     0
  9
$USERI2
 70
     0
  9
$USERI3
 70
     0
  9
$USERI4
 70
     0
  9
$USERI5
 70
     0
  9
$USERR1
 40
0.0
  9
$USERR2
 40
0.0
  9
$USERR3
 40
0.0
  9
$USERR4
 40
0.0
  9
$USERR5
 40
0.0
  9
$CLAYER
  8
M0
  9
$EXTMIN
 10
22.222223
 20
22.222223
  9
$EXTMAX
 10
444.444456
 20
633.33335
  9
$LIMMIN
 10
0.0
 20
0.0
  9
$LIMMAX
 10
210.0
 20
297.0
  9
$HANDSEED
  5
521
  0
ENDSEC
  0
SECTION
  2
CLASSES
  0
ENDSEC
  0
SECTION
  2
TABLES
  0
TABLE
  2
VPORT
  5
8
100
AcDbSymbolTable
 70
     2
  0
VPORT
  5
14
100
AcDbSymbolTableRecord
100
AcDbViewportTableRecord
  2
*ACTIVE
 70
     0
 10
0.0
 20
0.0
 11
1.0
 21
1.0
 12
484.0
 22
297.0
 13
0.0
 23
0.0
 14
1.0
 24
1.0
 15
0.0
 25
0.0
 16
0.0
 26
0.0
 36
1.0
 17
0.0
 27
0.0
 37
0.0
 40
594.0
 41
2.0
 42
50.0
 43
0.0
 44
0.0
 50
0.0
 51
0.0
 71
     0
 72
   100
 73
     1
 74
     1
 75
     0
 76
     0
 77
     0
 78
     0
  0
ENDTAB
  0
TABLE
  2
LTYPE
  5
5
100
AcDbSymbolTable
 70
     5
  0
LTYPE
  5
15
100
AcDbSymbolTableRecord
100
AcDbLinetypeTableRecord
  2
BYBLOCK
 70
     0
  3

 72
    65
 73
     0
 40
0.0
  0
LTYPE
  5
16
100
AcDbSymbolTableRecord
100
AcDbLinetypeTableRecord
  2
BYLAYER
 70
     0
  3

 72
    65
 73
     0
 40
0.0
  0
LTYPE
  5
17
100
AcDbSymbolTableRecord
100
AcDbLinetypeTableRecord
  2
CONTINUOUS
 70
    64
  3
Solid line
 72
    65
 73
     0
 40
0.0
  0
LTYPE
  5
18
100
AcDbSymbolTableRecord
100
AcDbLinetypeTableRecord
  2
DASHED
 70
    64
  3
__ __ __ __ __ __ __ __ __ __ __ __ __ __ __ __
 72
    65
 73
     2
 40
0.75
 49
0.5
 74
     0
 49
-0.25
 74
     0
  0
LTYPE
  5
19
100
AcDbSymbolTableRecord
100
AcDbLinetypeTableRecord
  2
DASHDOT
 70
    64
  3
__ . __ . __ . __ . __ . __ . __ . __ . __ . __
 72
    65
 73
     4
 40
1.0
 49
0.5
 74
     0
 49
-0.25
 74
     0
 49
0.0
 74
     0
 49
-0.25
 74
     0
  0
LTYPE
  5
1A
100
AcDbSymbolTableRecord
100
AcDbLinetypeTableRecord
  2
DIVIDE
 70
    64
  3
____ . . ____ . . ____ . . ____ . . ____ . . __
 72
    65
 73
     6
 40
1.25
 49
0.5
 74
     0
 49
-0.25
 74
     0
 49
0.0
 74
     0
 49
-0.25
 74
     0
 49
0.0
 74
     0
 49
-0.25
 74
     0
  0
LTYPE
  5
1B
100
AcDbSymbolTableRecord
100
AcDbLinetypeTableRecord
  2
DOT
 70
    64
  3
. . . . . . . . . . . . . . . . . . . . . . . .
 72
    65
 73
     2
 40
0.25
 49
0.0
 74
     0
 49
-0.25
 74
     0
  0
ENDTAB
  0
TABLE
  2
LAYER
  5
2
100
AcDbSymbolTable
 70
   102
  0
LAYER
  5
F
100
AcDbSymbolTableRecord
100
AcDbLayerTableRecord
  2
0
 70
     0
 62
     7
  6
CONTINUOUS
  0
LAYER
  5
1C
100
AcDbSymbolTableRecord
100
AcDbLayerTableRecord
  2
DEFPOINTS
 70
     0
 62
     7
  6
CONTINUOUS
  0
LAYER
  5
1D
100
AcDbSymbolTableRecord
100
AcDbLayerTableRecord
  2
M0
 70
     0
 62
     3
  6
CONTINUOUS
  0
LAYER
  5
1E
100
AcDbSymbolTableRecord
100
AcDbLayerTableRecord
  2
M1
 70
     0
 62
     3
  6
CONTINUOUS
  0
LAYER
  5
1F
100
AcDbSymbolTableRecord
100
AcDbLayerTableRecord
  2
DD0
 70
     0
 62
     4
  6
CONTINUOUS
  0
LAYER
  5
20
100
AcDbSymbolTableRecord
100
AcDbLayerTableRecord
  2
DN0
 70
     0
 62
     2
  6
CONTINUOUS
  0
ENDTAB
  0
TABLE
  2
STYLE
  5
3
100
AcDbSymbolTable
 70
     2
  0
STYLE
  5
10
100
AcDbSymbolTableRecord
100
AcDbTextStyleTableRecord
  2
STANDARD
 70
     0
 40
0.0
 41
1.0
 50
0.0
 71
     0
 42
0.2
  3
txt
  4
BIGFONT
  0
ENDTAB
  0
TABLE
  2
VIEW
  5
6
100
AcDbSymbolTable
 70
     0
  0
ENDTAB
  0
TABLE
  2
UCS
  5
7
100
AcDbSymbolTable
 70
     0
  0
ENDTAB
  0
TABLE
  2
APPID
  5
9
100
AcDbSymbolTable
 70
     1
  0
APPID
  5
11
100
AcDbSymbolTableRecord
100
AcDbRegAppTableRecord
  2
ACAD
 70
     0
  0
ENDTAB
  0
TABLE
  2
DIMSTYLE
  5
A
100
AcDbSymbolTable
 70
     2
  0
DIMSTYLE
105
27
100
AcDbSymbolTableRecord
100
AcDbDimStyleTableRecord
  2
STANDARD
 70
     0
  3

  4

  5

  6
_OPEN
  7
_OPEN
 40
1.0
 41
6.666667
 42
1.0
 43
8.0
 44
1.0
 45
0.0
 46
0.0
 47
0.0
 48
0.0
140
7.0
141
0.09
142
0.0
143
0.03937
144
1.0
145
0.0
146
1.0
147
0.6
 71
     0
 72
     0
 73
     1
 74
     1
 75
     0
 76
     0
 77
     3
 78
     8
170
     0
171
     2
172
     0
173
     1
174
     0
175
     0
176
     0
177
     0
178
     0
270
     2
271
     2
272
     4
273
     2
274
     2
340
10
275
     0
280
     0
281
     0
282
     0
283
     1
284
     0
285
     0
286
     0
287
     3
288
     0
  0
DIMSTYLE
105
28
100
AcDbSymbolTableRecord
100
AcDbDimStyleTableRecord
  2
LEADSTYL
 70
     0
  3

  4

  5

  6
_OPEN
  7
_OPEN
 40
1.0
 41
6.666667
 42
0.0625
 43
0.38
 44
0.18
 45
0.0
 46
0.0
 47
0.0
 48
0.0
140
7.0
141
0.09
142
0.0
143
25.4
144
1.0
145
0.0
146
1.0
147
0.6
 71
     0
 72
     0
 73
     1
 74
     1
 75
     0
 76
     0
 77
     0
 78
     0
170
     0
171
     2
172
     0
173
     1
174
     0
175
     0
176
     0
177
     0
178
     0
270
     2
271
     4
272
     4
273
     2
274
     2
340
10
275
     0
280
     0
281
     0
282
     0
283
     1
284
     0
285
     0
286
     0
287
     3
288
     0
  0
ENDTAB
  0
TABLE
  2
BLOCK_RECORD
  5
1
100
AcDbSymbolTable
 70
    18
  0
BLOCK_RECORD
  5
21
100
AcDbSymbolTableRecord
100
AcDbBlockTableRecord
  2
*MODEL_SPACE
  0
BLOCK_RECORD
  5
24
100
AcDbSymbolTableRecord
100
AcDbBlockTableRecord
  2
*PAPER_SPACE
  0
BLOCK_RECORD
  5
29
100
AcDbSymbolTableRecord
100
AcDbBlockTableRecord
  2
_NONE
  0
BLOCK_RECORD
  5
2D
100
AcDbSymbolTableRecord
100
AcDbBlockTableRecord
  2
_OPEN
  0
BLOCK_RECORD
  5
33
100
AcDbSymbolTableRecord
100
AcDbBlockTableRecord
  2
_CLOSED
  0
BLOCK_RECORD
  5
3A
100
AcDbSymbolTableRecord
100
AcDbBlockTableRecord
  2
_ORIGIN
  0
BLOCK_RECORD
  5
3F
100
AcDbSymbolTableRecord
100
AcDbBlockTableRecord
  2
_DOT
  0
BLOCK_RECORD
  5
47
100
AcDbSymbolTableRecord
100
AcDbBlockTableRecord
  2
_OBLIQUE
  0
BLOCK_RECORD
  5
4B
100
AcDbSymbolTableRecord
100
AcDbBlockTableRecord
  2
DIMS0
  0
BLOCK_RECORD
  5
57
100
AcDbSymbolTableRecord
100
AcDbBlockTableRecord
  2
DIMS1
  0
BLOCK_RECORD
  5
63
100
AcDbSymbolTableRecord
100
AcDbBlockTableRecord
  2
DIMS2
  0
BLOCK_RECORD
  5
6F
100
AcDbSymbolTableRecord
100
AcDbBlockTableRecord
  2
DIMS3
  0
BLOCK_RECORD
  5
7B
100
AcDbSymbolTableRecord
100
AcDbBlockTableRecord
  2
DIMS4
  0
BLOCK_RECORD
  5
87
100
AcDbSymbolTableRecord
100
AcDbBlockTableRecord
  2
DIMS5
  0
BLOCK_RECORD
  5
93
100
AcDbSymbolTableRecord
100
AcDbBlockTableRecord
  2
DIMS6
  0
BLOCK_RECORD
  5
9C
100
AcDbSymbolTableRecord
100
AcDbBlockTableRecord
  2
DIMS7
  0
BLOCK_RECORD
  5
A8
100
AcDbSymbolTableRecord
100
AcDbBlockTableRecord
  2
DIMS8
  0
BLOCK_RECORD
  5
B4
100
AcDbSymbolTableRecord
100
AcDbBlockTableRecord
  2
DIMS9
  0
BLOCK_RECORD
  5
BA
100
AcDbSymbolTableRecord
100
AcDbBlockTableRecord
  2
DIMS10
  0
BLOCK_RECORD
  5
C3
100
AcDbSymbolTableRecord
100
AcDbBlockTableRecord
  2
DIMS11
  0
ENDTAB
  0
ENDSEC
  0
SECTION
  2
BLOCKS
  0
BLOCK
  5
22
100
AcDbEntity
  8
0
100
AcDbBlockBegin
  2
*MODEL_SPACE
 70
     0
 10
0.0
 20
0.0
 30
0.0
  3
*MODEL_SPACE
  1

  0
ENDBLK
  5
23
100
AcDbEntity
  8
0
100
AcDbBlockEnd
  0
BLOCK
  5
25
100
AcDbEntity
 67
     1
  8
0
100
AcDbBlockBegin
  2
*PAPER_SPACE
 70
     0
 10
0.0
 20
0.0
 30
0.0
  3
*PAPER_SPACE
  1

  0
ENDBLK
  5
26
100
AcDbEntity
 67
     1
  8
0
100
AcDbBlockEnd
  0
BLOCK
  5
2A
100
AcDbEntity
  8
0
100
AcDbBlockBegin
  2
_NONE
 70
     0
 10
0.0
 20
0.0
  0
CIRCLE
  5
2B
100
AcDbEntity
  8
0
 62
     0
100
AcDbCircle
 10
0.0
 20
0.0
 40
0.25
  0
ENDBLK
  5
2C
100
AcDbEntity
  8
0
100
AcDbBlockEnd
  0
BLOCK
  5
2E
100
AcDbEntity
  8
0
100
AcDbBlockBegin
  2
_OPEN
 70
     0
 10
0.0
 20
0.0
  0
LINE
  5
2F
100
AcDbEntity
  8
0
 62
     0
100
AcDbLine
 10
-0.965926
 20
0.258819
 11
0.0
 21
0.0
  0
LINE
  5
30
100
AcDbEntity
  8
0
 62
     0
100
AcDbLine
 10
0.0
 20
0.0
 11
-0.965926
 21
-0.258819
  0
LINE
  5
31
100
AcDbEntity
  8
0
 62
     0
100
AcDbLine
 10
0.0
 20
0.0
 11
-1.0
 21
0.0
  0
ENDBLK
  5
32
100
AcDbEntity
  8
0
100
AcDbBlockEnd
  0
BLOCK
  5
34
100
AcDbEntity
  8
0
100
AcDbBlockBegin
  2
_CLOSED
 70
     0
 10
0.0
 20
0.0
  0
LINE
  5
35
100
AcDbEntity
  8
0
 62
     0
100
AcDbLine
 10
-0.965926
 20
0.258819
 11
0.0
 21
0.0
  0
LINE
  5
36
100
AcDbEntity
  8
0
 62
     0
100
AcDbLine
 10
0.0
 20
0.0
 11
-0.965926
 21
-0.258819
  0
LINE
  5
37
100
AcDbEntity
  8
0
 62
     0
100
AcDbLine
 10
-0.965926
 20
0.258819
 11
-0.965926
 21
-0.258819
  0
LINE
  5
38
100
AcDbEntity
  8
0
 62
     0
100
AcDbLine
 10
0.0
 20
0.0
 11
-1.0
 21
0.0
  0
ENDBLK
  5
39
100
AcDbEntity
  8
0
100
AcDbBlockEnd
  0
BLOCK
  5
3B
100
AcDbEntity
  8
0
100
AcDbBlockBegin
  2
_ORIGIN
 70
     0
 10
0.0
 20
0.0
  0
CIRCLE
  5
3C
100
AcDbEntity
  8
0
 62
     0
100
AcDbCircle
 10
0.0
 20
0.0
 40
0.5
  0
LINE
  5
3D
100
AcDbEntity
  8
0
 62
     0
100
AcDbLine
 10
0.0
 20
0.0
 11
-1.0
 21
0.0
  0
ENDBLK
  5
3E
100
AcDbEntity
  8
0
100
AcDbBlockEnd
  0
BLOCK
  5
40
100
AcDbEntity
  8
0
100
AcDbBlockBegin
  2
_DOT
 70
     0
 10
0.0
 20
0.0
  0
POLYLINE
  5
41
100
AcDbEntity
  8
0
 62
     0
100
AcDb2dPolyline
 66
     1
 70
     1
 40
0.5
 41
0.5
  0
VERTEX
  5
42
100
AcDbEntity
  8
0
 62
     0
100
AcDbVertex
100
AcDb2dVertex
 10
-0.25
 20
0.0
 42
1.0
  0
VERTEX
  5
43
100
AcDbEntity
  8
0
 62
     0
100
AcDbVertex
100
AcDb2dVertex
 10
0.25
 20
0.0
 42
1.0
  0
SEQEND
  5
44
100
AcDbEntity
  8
0
 62
     0
  0
LINE
  5
45
100
AcDbEntity
  8
0
 62
     0
100
AcDbLine
 10
-0.5
 20
0.0
 11
-1.0
 21
0.0
  0
ENDBLK
  5
46
100
AcDbEntity
  8
0
100
AcDbBlockEnd
  0
BLOCK
  5
48
100
AcDbEntity
  8
0
100
AcDbBlockBegin
  2
_OBLIQUE
 70
     0
 10
0.0
 20
0.0
  0
LINE
  5
49
100
AcDbEntity
  8
0
 62
     0
100
AcDbLine
 10
-0.353553
 20
-0.353553
 11
0.353553
 21
0.353553
  0
ENDBLK
  5
4A
100
AcDbEntity
  8
0
100
AcDbBlockEnd
  0
BLOCK
  5
4C
100
AcDbEntity
  8
DD0
100
AcDbBlockBegin
  2
DIMS0
 70
     0
 10
0.0
 20
0.0
  0
LINE
  5
4D
100
AcDbEntity
  8
DD0
100
AcDbLine
 10
75.989204
 20
476.158629
 11
75.989204
 21
540.42587
  0
LINE
  5
4E
100
AcDbEntity
  8
DD0
100
AcDbLine
 10
175.989198
 20
476.159375
 11
175.989198
 21
540.42587
  0
LINE
  5
4F
100
AcDbEntity
  8
DD0
100
AcDbLine
 10
82.42871
 20
539.929108
 11
75.989204
 21
538.203648
  0
LINE
  5
50
100
AcDbEntity
  8
DD0
100
AcDbLine
 10
75.989204
 20
538.203648
 11
82.42871
 21
536.478187
  0
LINE
  5
51
100
AcDbEntity
  8
DD0
100
AcDbLine
 10
169.549692
 20
536.478187
 11
175.989198
 21
538.203648
  0
LINE
  5
52
100
AcDbEntity
  8
DD0
100
AcDbLine
 10
175.989198
 20
538.203648
 11
169.549692
 21
539.929108
  0
LINE
  5
53
100
AcDbEntity
  8
DD0
100
AcDbLine
 10
75.989204
 20
538.203648
 11
175.989198
 21
538.203648
  0
TEXT
  5
54
100
AcDbEntity
  8
DD0
100
AcDbText
 10
112.561423
 20
539.536995
 40
7.0
  1
※１００
 41
0.833333
  7
STANDARD
100
AcDbText
  0
ENDBLK
  5
55
100
AcDbEntity
  8
DD0
100
AcDbBlockEnd
  0
BLOCK
  5
58
100
AcDbEntity
  8
DD0
100
AcDbBlockBegin
  2
DIMS1
 70
     0
 10
0.0
 20
0.0
  0
LINE
  5
59
100
AcDbEntity
  8
DD0
100
AcDbLine
 10
399.059561
 20
499.677578
 11
399.059561
 21
540.42587
  0
LINE
  5
5A
100
AcDbEntity
  8
DD0
100
AcDbLine
 10
245.559716
 20
485.677062
 11
245.559716
 21
540.42587
  0
LINE
  5
5B
100
AcDbEntity
  8
DD0
100
AcDbLine
 10
392.620055
 20
536.478187
 11
399.059561
 21
538.203648
  0
LINE
  5
5C
100
AcDbEntity
  8
DD0
100
AcDbLine
 10
399.059561
 20
538.203648
 11
392.620055
 21
539.929108
  0
LINE
  5
5D
100
AcDbEntity
  8
DD0
100
AcDbLine
 10
251.999222
 20
539.929108
 11
245.559716
 21
538.203648
  0
LINE
  5
5E
100
AcDbEntity
  8
DD0
100
AcDbLine
 10
245.559716
 20
538.203648
 11
251.999222
 21
536.478187
  0
LINE
  5
5F
100
AcDbEntity
  8
DD0
100
AcDbLine
 10
399.059561
 20
538.203648
 11
245.559716
 21
538.203648
  0
TEXT
  5
60
100
AcDbEntity
  8
DD0
100
AcDbText
 10
312.381858
 20
539.536995
 40
7.0
  1
１５４
 41
0.833333
  7
STANDARD
100
AcDbText
  0
ENDBLK
  5
61
100
AcDbEntity
  8
DD0
100
AcDbBlockEnd
  0
BLOCK
  5
64
100
AcDbEntity
  8
DD0
100
AcDbBlockBegin
  2
DIMS2
 70
     0
 10
0.0
 20
0.0
  0
LINE
  5
65
100
AcDbEntity
  8
DD0
100
AcDbLine
 10
381.55956
 20
499.635905
 11
381.55956
 21
520.085734
  0
LINE
  5
66
100
AcDbEntity
  8
DD0
100
AcDbLine
 10
399.059561
 20
499.677578
 11
399.059561
 21
520.085734
  0
LINE
  5
67
100
AcDbEntity
  8
DD0
100
AcDbLine
 10
387.999066
 20
519.588972
 11
381.55956
 21
517.863512
  0
LINE
  5
68
100
AcDbEntity
  8
DD0
100
AcDbLine
 10
381.55956
 20
517.863512
 11
387.999066
 21
516.138052
  0
LINE
  5
69
100
AcDbEntity
  8
DD0
100
AcDbLine
 10
392.620055
 20
516.138052
 11
399.059561
 21
517.863512
  0
LINE
  5
6A
100
AcDbEntity
  8
DD0
100
AcDbLine
 10
399.059561
 20
517.863512
 11
392.620055
 21
519.588972
  0
LINE
  5
6B
100
AcDbEntity
  8
DD0
100
AcDbLine
 10
381.55956
 20
517.863512
 11
399.059561
 21
517.863512
  0
TEXT
  5
6C
100
AcDbEntity
  8
DD0
100
AcDbText
 10
371.652828
 20
520.129883
 40
7.0
  1
１７．５
 50
-0.000222
 41
0.833333
  7
STANDARD
100
AcDbText
  0
ENDBLK
  5
6D
100
AcDbEntity
  8
DD0
100
AcDbBlockEnd
  0
BLOCK
  5
70
100
AcDbEntity
  8
DD0
100
AcDbBlockBegin
  2
DIMS3
 70
     0
 10
0.0
 20
0.0
  0
LINE
  5
71
100
AcDbEntity
  8
DD0
100
AcDbLine
 10
106.766801
 20
524.937114
 11
55.081009
 21
524.937114
  0
LINE
  5
72
100
AcDbEntity
  8
DD0
 60
     1
100
AcDbLine
 10
80.766714
 20
504.937045
 11
55.081009
 21
504.937045
  0
LINE
  5
73
100
AcDbEntity
  8
DD0
100
AcDbLine
 10
59.028691
 20
518.497608
 11
57.303231
 21
524.937114
  0
LINE
  5
74
100
AcDbEntity
  8
DD0
100
AcDbLine
 10
57.303231
 20
524.937114
 11
55.577771
 21
518.497608
  0
LINE
  5
75
100
AcDbEntity
  8
DD0
100
AcDbLine
 10
55.577771
 20
511.376551
 11
57.303231
 21
504.937045
  0
LINE
  5
76
100
AcDbEntity
  8
DD0
100
AcDbLine
 10
57.303231
 20
504.937045
 11
59.028691
 21
511.376551
  0
LINE
  5
77
100
AcDbEntity
  8
DD0
100
AcDbLine
 10
57.303231
 20
524.937114
 11
57.303231
 21
504.937045
  0
TEXT
  5
78
100
AcDbEntity
  8
DD0
100
AcDbText
 10
55.969897
 20
508.509318
 40
7.0
  1
４３
 50
90.000003
 41
0.833333
  7
STANDARD
100
AcDbText
  0
ENDBLK
  5
79
100
AcDbEntity
  8
DD0
100
AcDbBlockEnd
  0
BLOCK
  5
7C
100
AcDbEntity
  8
DD0
100
AcDbBlockBegin
  2
DIMS4
 70
     0
 10
0.0
 20
0.0
  0
LINE
  5
7D
100
AcDbEntity
  8
DD0
100
AcDbLine
 10
80.766714
 20
504.937045
 11
55.081009
 21
504.937045
  0
LINE
  5
7E
100
AcDbEntity
  8
DD0
100
AcDbLine
 10
80.766739
 20
368.937116
 11
55.081009
 21
368.937116
  0
LINE
  5
7F
100
AcDbEntity
  8
DD0
100
AcDbLine
 10
59.028691
 20
498.49754
 11
57.303231
 21
504.937045
  0
LINE
  5
80
100
AcDbEntity
  8
DD0
100
AcDbLine
 10
57.303231
 20
504.937045
 11
55.577771
 21
498.49754
  0
LINE
  5
81
100
AcDbEntity
  8
DD0
100
AcDbLine
 10
55.577771
 20
375.376622
 11
57.303231
 21
368.937116
  0
LINE
  5
82
100
AcDbEntity
  8
DD0
100
AcDbLine
 10
57.303231
 20
368.937116
 11
59.028691
 21
375.376622
  0
LINE
  5
83
100
AcDbEntity
  8
DD0
100
AcDbLine
 10
57.303231
 20
504.937045
 11
57.303231
 21
368.937116
  0
TEXT
  5
84
100
AcDbEntity
  8
DD0
100
AcDbText
 10
55.969897
 20
427.009275
 40
7.0
  1
１３６
 50
90.000003
 41
0.833333
  7
STANDARD
100
AcDbText
  0
ENDBLK
  5
85
100
AcDbEntity
  8
DD0
100
AcDbBlockEnd
  0
BLOCK
  5
88
100
AcDbEntity
  8
DD0
100
AcDbBlockBegin
  2
DIMS5
 70
     0
 10
0.0
 20
0.0
  0
LINE
  5
89
100
AcDbEntity
  8
DD0
 60
     1
100
AcDbLine
 10
80.766739
 20
368.937116
 11
55.081009
 21
368.937116
  0
LINE
  5
8A
100
AcDbEntity
  8
DD0
100
AcDbLine
 10
106.766801
 20
348.93715
 11
55.081009
 21
348.93715
  0
LINE
  5
8B
100
AcDbEntity
  8
DD0
100
AcDbLine
 10
59.028691
 20
362.497611
 11
57.303231
 21
368.937116
  0
LINE
  5
8C
100
AcDbEntity
  8
DD0
100
AcDbLine
 10
57.303231
 20
368.937116
 11
55.577771
 21
362.497611
  0
LINE
  5
8D
100
AcDbEntity
  8
DD0
100
AcDbLine
 10
55.577771
 20
355.376655
 11
57.303231
 21
348.93715
  0
LINE
  5
8E
100
AcDbEntity
  8
DD0
100
AcDbLine
 10
57.303231
 20
348.93715
 11
59.028691
 21
355.376655
  0
LINE
  5
8F
100
AcDbEntity
  8
DD0
100
AcDbLine
 10
57.303231
 20
368.937116
 11
57.303231
 21
348.93715
  0
TEXT
  5
90
100
AcDbEntity
  8
DD0
100
AcDbText
 10
55.969897
 20
352.509354
 40
7.0
  1
４３
 50
90.000003
 41
0.833333
  7
STANDARD
100
AcDbText
  0
ENDBLK
  5
91
100
AcDbEntity
  8
DD0
100
AcDbBlockEnd
  0
BLOCK
  5
94
100
AcDbEntity
  8
DD0
100
AcDbBlockBegin
  2
DIMS6
 70
     0
 10
0.0
 20
0.0
  0
TEXT
  5
95
100
AcDbEntity
  8
DD0
100
AcDbText
 10
154.991496
 20
344.667198
 40
7.0
  1
相間バリア
 41
0.833333
  7
STANDARD
100
AcDbText
  0
LINE
  5
96
100
AcDbEntity
  8
DD0
100
AcDbLine
 10
147.564299
 20
355.55977
 11
142.989014
 21
360.408606
  0
LINE
  5
97
100
AcDbEntity
  8
DD0
100
AcDbLine
 10
142.989014
 20
360.408606
 11
144.526909
 21
353.921748
  0
LINE
  5
98
100
AcDbEntity
  8
DD0
100
AcDbLine
 10
142.989014
 20
360.408606
 11
152.197151
 21
343.333919
  0
LINE
  5
99
100
AcDbEntity
  8
DD0
100
AcDbLine
 10
152.197151
 20
343.333919
 11
191.641563
 21
343.333817
  0
ENDBLK
  5
9A
100
AcDbEntity
  8
DD0
100
AcDbBlockEnd
  0
BLOCK
  5
9D
100
AcDbEntity
  8
DD0
100
AcDbBlockBegin
  2
DIMS7
 70
     0
 10
0.0
 20
0.0
  0
LINE
  5
9E
100
AcDbEntity
  8
DD0
100
AcDbLine
 10
170.216849
 20
284.08092
 11
206.215758
 21
284.08092
  0
LINE
  5
9F
100
AcDbEntity
  8
DD0
100
AcDbLine
 10
188.383523
 20
271.080923
 11
206.215758
 21
271.080923
  0
LINE
  5
A0
100
AcDbEntity
  8
DD0
100
AcDbLine
 10
202.268075
 20
290.520425
 11
203.993536
 21
284.08092
  0
LINE
  5
A1
100
AcDbEntity
  8
DD0
100
AcDbLine
 10
203.993536
 20
284.08092
 11
205.718996
 21
290.520425
  0
LINE
  5
A2
100
AcDbEntity
  8
DD0
100
AcDbLine
 10
205.718996
 20
264.641417
 11
203.993536
 21
271.080923
  0
LINE
  5
A3
100
AcDbEntity
  8
DD0
100
AcDbLine
 10
203.993536
 20
271.080923
 11
202.268075
 21
264.641417
  0
LINE
  5
A4
100
AcDbEntity
  8
DD0
100
AcDbLine
 10
203.993536
 20
301.773215
 11
203.993536
 21
263.747589
  0
TEXT
  5
A5
100
AcDbEntity
  8
DD0
100
AcDbText
 10
202.125893
 20
286.123176
 40
7.0
  1
１３
 50
90.000651
 41
0.833333
  7
STANDARD
100
AcDbText
  0
ENDBLK
  5
A6
100
AcDbEntity
  8
DD0
100
AcDbBlockEnd
  0
BLOCK
  5
A9
100
AcDbEntity
  8
DD0
100
AcDbBlockBegin
  2
DIMS8
 70
     0
 10
0.0
 20
0.0
  0
LINE
  5
AA
100
AcDbEntity
  8
DD0
 60
     1
100
AcDbLine
 10
188.383523
 20
271.080923
 11
206.215758
 21
271.080923
  0
LINE
  5
AB
100
AcDbEntity
  8
DD0
100
AcDbLine
 10
104.383548
 20
161.080937
 11
206.215758
 21
161.080937
  0
LINE
  5
AC
100
AcDbEntity
  8
DD0
100
AcDbLine
 10
205.718996
 20
264.641417
 11
203.993536
 21
271.080923
  0
LINE
  5
AD
100
AcDbEntity
  8
DD0
100
AcDbLine
 10
203.993536
 20
271.080923
 11
202.268075
 21
264.641417
  0
LINE
  5
AE
100
AcDbEntity
  8
DD0
100
AcDbLine
 10
202.268075
 20
167.520443
 11
203.993536
 21
161.080937
  0
LINE
  5
AF
100
AcDbEntity
  8
DD0
100
AcDbLine
 10
203.993536
 20
161.080937
 11
205.718996
 21
167.520443
  0
LINE
  5
B0
100
AcDbEntity
  8
DD0
100
AcDbLine
 10
203.993536
 20
271.080923
 11
203.993536
 21
161.080937
  0
TEXT
  5
B1
100
AcDbEntity
  8
DD0
100
AcDbText
 10
202.660206
 20
206.153166
 40
7.0
  1
１１０
 50
90.000003
 41
0.833333
  7
STANDARD
100
AcDbText
  0
ENDBLK
  5
B2
100
AcDbEntity
  8
DD0
100
AcDbBlockEnd
  0
BLOCK
  5
B5
100
AcDbEntity
  8
DD0
100
AcDbBlockBegin
  2
DIMS9
 70
     0
 10
0.0
 20
0.0
  0
LINE
  5
B6
100
AcDbEntity
  8
DD0
100
AcDbLine
 10
42.346535
 20
132.573775
 11
78.413203
 21
132.573775
  0
TEXT
  5
B7
100
AcDbEntity
  8
DD0
100
AcDbText
 10
43.342831
 20
133.462664
 40
8.888889
  1
せん孔図
 41
0.833333
  7
STANDARD
100
AcDbText
  0
ENDBLK
  5
B8
100
AcDbEntity
  8
DD0
100
AcDbBlockEnd
  0
BLOCK
  5
BB
100
AcDbEntity
  8
DD0
100
AcDbBlockBegin
  2
DIMS10
 70
     0
 10
0.0
 20
0.0
  0
TEXT
  5
BC
100
AcDbEntity
  8
DD0
100
AcDbText
 10
102.478161
 20
121.727875
 40
7.0
  1
２－Ｍ５ねじ穴
 41
0.833333
  7
STANDARD
100
AcDbText
  0
LINE
  5
BD
100
AcDbEntity
  8
DD0
100
AcDbLine
 10
88.617616
 20
153.856563
 11
84.689113
 21
159.242778
  0
LINE
  5
BE
100
AcDbEntity
  8
DD0
100
AcDbLine
 10
84.689113
 20
159.242778
 11
85.398188
 21
152.613928
  0
LINE
  5
BF
100
AcDbEntity
  8
DD0
100
AcDbLine
 10
84.689113
 20
159.242778
 11
99.683747
 21
120.394587
  0
LINE
  5
C0
100
AcDbEntity
  8
DD0
100
AcDbLine
 10
99.683747
 20
120.394579
 11
153.128124
 21
120.394545
  0
ENDBLK
  5
C1
100
AcDbEntity
  8
DD0
100
AcDbBlockEnd
  0
BLOCK
  5
C4
100
AcDbEntity
  8
DD0
100
AcDbBlockBegin
  2
DIMS11
 70
     0
 10
0.0
 20
0.0
  0
LINE
  5
C5
100
AcDbEntity
  8
DD0
100
AcDbLine
 10
166.994633
 20
292.469829
 11
166.994633
 21
310.046124
  0
LINE
  5
C6
100
AcDbEntity
  8
DD0
100
AcDbLine
 10
82.99465
 20
182.469826
 11
82.99465
 21
310.046124
  0
LINE
  5
C7
100
AcDbEntity
  8
DD0
100
AcDbLine
 10
160.555128
 20
306.098441
 11
166.994633
 21
307.823901
  0
LINE
  5
C8
100
AcDbEntity
  8
DD0
100
AcDbLine
 10
166.994633
 20
307.823901
 11
160.555128
 21
309.549362
  0
LINE
  5
C9
100
AcDbEntity
  8
DD0
100
AcDbLine
 10
89.434155
 20
309.549362
 11
82.99465
 21
307.823901
  0
LINE
  5
CA
100
AcDbEntity
  8
DD0
100
AcDbLine
 10
82.99465
 20
307.823901
 11
89.434155
 21
306.098441
  0
LINE
  5
CB
100
AcDbEntity
  8
DD0
100
AcDbLine
 10
166.994633
 20
307.823901
 11
82.99465
 21
307.823901
  0
TEXT
  5
CC
100
AcDbEntity
  8
DD0
100
AcDbText
 10
94.066872
 20
309.157248
 40
7.0
  1
８４（８０も可能）
 41
0.833333
  7
STANDARD
100
AcDbText
  0
ENDBLK
  5
CD
100
AcDbEntity
  8
DD0
100
AcDbBlockEnd
  0
ENDSEC
  0
SECTION
  2
ENTITIES
  0
INSERT
  5
56
100
AcDbEntity
  8
DD0
100
AcDbBlockReference
  2
DIMS0
 10
0.0
 20
0.0
  0
INSERT
  5
62
100
AcDbEntity
  8
DD0
100
AcDbBlockReference
  2
DIMS1
 10
0.0
 20
0.0
  0
INSERT
  5
6E
100
AcDbEntity
  8
DD0
100
AcDbBlockReference
  2
DIMS2
 10
0.0
 20
0.0
  0
INSERT
  5
7A
100
AcDbEntity
  8
DD0
100
AcDbBlockReference
  2
DIMS3
 10
0.0
 20
0.0
  0
INSERT
  5
86
100
AcDbEntity
  8
DD0
100
AcDbBlockReference
  2
DIMS4
 10
0.0
 20
0.0
  0
INSERT
  5
92
100
AcDbEntity
  8
DD0
100
AcDbBlockReference
  2
DIMS5
 10
0.0
 20
0.0
  0
INSERT
  5
9B
100
AcDbEntity
  8
DD0
100
AcDbBlockReference
  2
DIMS6
 10
0.0
 20
0.0
  0
INSERT
  5
A7
100
AcDbEntity
  8
DD0
100
AcDbBlockReference
  2
DIMS7
 10
0.0
 20
0.0
  0
INSERT
  5
B3
100
AcDbEntity
  8
DD0
100
AcDbBlockReference
  2
DIMS8
 10
0.0
 20
0.0
  0
INSERT
  5
B9
100
AcDbEntity
  8
DD0
100
AcDbBlockReference
  2
DIMS9
 10
0.0
 20
0.0
  0
INSERT
  5
C2
100
AcDbEntity
  8
DD0
100
AcDbBlockReference
  2
DIMS10
 10
0.0
 20
0.0
  0
INSERT
  5
CE
100
AcDbEntity
  8
DD0
100
AcDbBlockReference
  2
DIMS11
 10
0.0
 20
0.0
  0
ARC
  5
CF
100
AcDbEntity
  8
M0
 62
     4
100
AcDbCircle
 10
114.489462
 20
480.937507
 40
4.5
100
AcDbArc
 50
180.0
 51
360.0
  0
ARC
  5
D0
100
AcDbEntity
  8
M0
 62
     4
100
AcDbCircle
 10
137.489462
 20
392.937522
 40
4.5
100
AcDbArc
 50
0.0
 51
180.0
  0
LINE
  5
D1
100
AcDbEntity
  8
M0
 62
     4
100
AcDbLine
 10
162.489218
 20
395.437492
 11
162.489218
 21
478.437278
  0
LINE
  5
D2
100
AcDbEntity
  8
M0
 62
     4
100
AcDbLine
 10
148.988806
 20
485.937034
 11
141.489218
 21
485.937034
  0
LINE
  5
D3
100
AcDbEntity
  8
M0
 62
     4
100
AcDbLine
 10
89.489218
 20
478.437278
 11
89.489218
 21
395.437507
  0
LINE
  5
D4
100
AcDbEntity
  8
M0
 62
     4
100
AcDbLine
 10
91.489218
 20
480.437278
 11
106.989218
 21
480.437278
  0
LINE
  5
D5
100
AcDbEntity
  8
M0
 62
     4
100
AcDbLine
 10
91.489218
 20
393.437507
 11
106.489279
 21
393.437507
  0
CIRCLE
  5
D6
100
AcDbEntity
  8
M0
 62
     4
100
AcDbCircle
 10
157.989218
 20
466.437278
 40
1.5
  0
LINE
  5
D7
100
AcDbEntity
  8
M0
  6
DASHDOT
 62
     4
100
AcDbLine
 10
157.989218
 20
459.937278
 11
157.989218
 21
472.937278
  0
CIRCLE
  5
D8
100
AcDbEntity
  8
M0
 62
     4
100
AcDbCircle
 10
157.989218
 20
466.437278
 40
1.0
  0
CIRCLE
  5
D9
100
AcDbEntity
  8
M0
 62
     4
100
AcDbCircle
 10
157.989218
 20
407.437507
 40
1.5
  0
LINE
  5
DA
100
AcDbEntity
  8
M0
  6
DASHDOT
 62
     4
100
AcDbLine
 10
151.489218
 20
407.437507
 11
164.489218
 21
407.437507
  0
LINE
  5
DB
100
AcDbEntity
  8
M0
  6
DASHDOT
 62
     4
100
AcDbLine
 10
157.989218
 20
413.937507
 11
157.989218
 21
400.937507
  0
CIRCLE
  5
DC
100
AcDbEntity
  8
M0
 62
     4
100
AcDbCircle
 10
157.989218
 20
407.437507
 40
1.0
  0
CIRCLE
  5
DD
100
AcDbEntity
  8
M0
 62
     4
100
AcDbCircle
 10
93.989249
 20
466.437278
 40
1.5
  0
LINE
  5
DE
100
AcDbEntity
  8
M0
  6
DASHDOT
 62
     4
100
AcDbLine
 10
100.489233
 20
466.437278
 11
87.489249
 21
466.437278
  0
LINE
  5
DF
100
AcDbEntity
  8
M0
  6
DASHDOT
 62
     4
100
AcDbLine
 10
93.989233
 20
459.937278
 11
93.989249
 21
472.937034
  0
CIRCLE
  5
E0
100
AcDbEntity
  8
M0
 62
     4
100
AcDbCircle
 10
93.989249
 20
466.437278
 40
1.0
  0
CIRCLE
  5
E1
100
AcDbEntity
  8
M0
 62
     4
100
AcDbCircle
 10
93.989249
 20
407.437507
 40
1.5
  0
LINE
  5
E2
100
AcDbEntity
  8
M0
  6
DASHDOT
 62
     4
100
AcDbLine
 10
100.489233
 20
407.437507
 11
87.489249
 21
407.437492
  0
LINE
  5
E3
100
AcDbEntity
  8
M0
  6
DASHDOT
 62
     4
100
AcDbLine
 10
93.989233
 20
413.937492
 11
93.989249
 21
400.937507
  0
CIRCLE
  5
E4
100
AcDbEntity
  8
M0
 62
     4
100
AcDbCircle
 10
93.989249
 20
407.437507
 40
1.0
  0
LINE
  5
E5
100
AcDbEntity
  8
M0
  6
DASHDOT
 62
     4
100
AcDbLine
 10
148.989218
 20
474.788596
 11
148.989218
 21
490.937278
  0
LINE
  5
E6
100
AcDbEntity
  8
M0
 62
     4
100
AcDbLine
 10
152.989218
 20
479.937278
 11
152.989218
 21
477.437278
  0
LINE
  5
E7
100
AcDbEntity
  8
M0
 62
     4
100
AcDbLine
 10
144.989218
 20
485.43679
 11
144.989218
 21
477.437278
  0
LINE
  5
E8
100
AcDbEntity
  8
M0
 62
     4
100
AcDbLine
 10
140.989218
 20
485.43679
 11
140.989218
 21
480.437278
  0
LINE
  5
E9
100
AcDbEntity
  8
M0
 62
     4
100
AcDbLine
 10
148.989218
 20
485.937034
 11
157.989218
 21
480.437278
  0
LINE
  5
EA
100
AcDbEntity
  8
M0
 62
     4
100
AcDbLine
 10
121.989218
 20
485.43679
 11
121.989218
 21
477.437278
  0
LINE
  5
EB
100
AcDbEntity
  8
M0
 62
     4
100
AcDbLine
 10
121.489218
 20
485.937034
 11
102.989615
 21
485.93679
  0
LINE
  5
EC
100
AcDbEntity
  8
M0
 62
     4
100
AcDbLine
 10
106.989218
 20
485.43679
 11
106.989218
 21
477.437278
  0
LINE
  5
ED
100
AcDbEntity
  8
M0
 62
     4
100
AcDbLine
 10
102.989218
 20
485.93679
 11
93.989218
 21
480.437278
  0
ARC
  5
EE
100
AcDbEntity
  8
M0
 62
     4
100
AcDbCircle
 10
91.489218
 20
478.437278
 40
2.0
100
AcDbArc
 50
90.0
 51
180.0
  0
ARC
  5
EF
100
AcDbEntity
  8
M0
 62
     4
100
AcDbCircle
 10
160.489218
 20
478.437278
 40
2.0
100
AcDbArc
 50
0.0
 51
90.0
  0
LINE
  5
F0
100
AcDbEntity
  8
M0
  6
DASHDOT
 62
     4
100
AcDbLine
 10
102.989218
 20
488.492698
 11
102.989218
 21
474.29885
  0
LINE
  5
F1
100
AcDbEntity
  8
M0
 62
     4
100
AcDbLine
 10
121.989218
 20
480.437278
 11
140.989218
 21
480.437278
  0
LINE
  5
F2
100
AcDbEntity
  8
M0
 62
     4
100
AcDbLine
 10
110.989279
 20
388.437736
 11
110.989279
 21
392.937507
  0
LINE
  5
F3
100
AcDbEntity
  8
M0
 62
     4
100
AcDbLine
 10
106.989279
 20
388.437751
 11
106.989279
 21
396.437507
  0
LINE
  5
F4
100
AcDbEntity
  8
M0
 62
     4
100
AcDbLine
 10
102.989279
 20
387.937751
 11
93.989264
 21
393.437522
  0
LINE
  5
F5
100
AcDbEntity
  8
M0
 62
     4
100
AcDbLine
 10
102.989691
 20
387.937751
 11
110.489279
 21
387.937751
  0
LINE
  5
F6
100
AcDbEntity
  8
M0
 62
     4
100
AcDbLine
 10
130.489218
 20
387.937751
 11
148.989203
 21
387.937751
  0
LINE
  5
F7
100
AcDbEntity
  8
M0
 62
     4
100
AcDbLine
 10
148.989218
 20
387.937751
 11
157.989218
 21
393.437507
  0
ARC
  5
F8
100
AcDbEntity
  8
M0
 62
     4
100
AcDbCircle
 10
160.489218
 20
395.437507
 40
2.0
100
AcDbArc
 50
269.999563
 51
360.0
  0
LINE
  5
F9
100
AcDbEntity
  8
M0
 62
     4
100
AcDbLine
 10
144.989218
 20
396.437507
 11
144.989218
 21
388.437751
  0
LINE
  5
FA
100
AcDbEntity
  8
M0
 62
     4
100
AcDbLine
 10
129.989218
 20
396.437507
 11
129.989218
 21
388.437751
  0
LINE
  5
FB
100
AcDbEntity
  8
M0
 62
     4
100
AcDbLine
 10
145.489218
 20
393.437507
 11
160.489218
 21
393.437507
  0
ARC
  5
FC
100
AcDbEntity
  8
M0
 62
     4
100
AcDbCircle
 10
91.489218
 20
395.437507
 40
2.0
100
AcDbArc
 50
180.0
 51
269.999563
  0
LINE
  5
FD
100
AcDbEntity
  8
M0
  6
DASHDOT
 62
     4
100
AcDbLine
 10
148.989218
 20
384.529609
 11
148.989218
 21
400.971641
  0
LINE
  5
FE
100
AcDbEntity
  8
M0
 62
     4
100
AcDbLine
 10
118.989218
 20
485.43679
 11
118.989218
 21
480.937278
  0
LINE
  5
FF
100
AcDbEntity
  8
M0
 62
     4
100
AcDbLine
 10
109.989218
 20
485.43679
 11
109.989218
 21
480.937278
  0
LINE
  5
100
100
AcDbEntity
  8
M0
 62
     4
100
AcDbLine
 10
141.989218
 20
392.937507
 11
141.989218
 21
388.437751
  0
LINE
  5
101
100
AcDbEntity
  8
M0
 62
     4
100
AcDbLine
 10
132.989218
 20
392.937492
 11
132.989218
 21
388.437736
  0
CIRCLE
  5
102
100
AcDbEntity
  8
M0
 62
     4
100
AcDbCircle
 10
137.489218
 20
392.937507
 40
2.75
  0
LINE
  5
103
100
AcDbEntity
  8
M0
  6
DASHDOT
 62
     4
100
AcDbLine
 10
129.739218
 20
392.937507
 11
145.239218
 21
392.937507
  0
CIRCLE
  5
104
100
AcDbEntity
  8
M0
 62
     4
100
AcDbCircle
 10
114.489218
 20
480.937278
 40
2.75
  0
CIRCLE
  5
105
100
AcDbEntity
  8
M0
 62
     4
100
AcDbCircle
 10
114.489218
 20
480.937278
 40
2.0
  0
LINE
  5
106
100
AcDbEntity
  8
M0
  6
DASHDOT
 62
     4
100
AcDbLine
 10
107.489218
 20
480.937278
 11
121.489218
 21
480.937278
  0
CIRCLE
  5
107
100
AcDbEntity
  8
M0
 62
     4
100
AcDbCircle
 10
137.489218
 20
392.937507
 40
2.0
  0
LINE
  5
108
100
AcDbEntity
  8
M0
  6
DASHDOT
 62
     4
100
AcDbLine
 10
130.489218
 20
392.937507
 11
144.489218
 21
392.937507
  0
LINE
  5
109
100
AcDbEntity
  8
M0
  6
DASHDOT
 62
     4
100
AcDbLine
 10
137.489218
 20
385.937507
 11
137.489218
 21
399.937507
  0
LINE
  5
10A
100
AcDbEntity
  8
M0
 62
     4
100
AcDbLine
 10
121.989218
 20
477.437278
 11
129.989218
 21
477.437278
  0
LINE
  5
10B
100
AcDbEntity
  8
M0
 62
     4
100
AcDbLine
 10
98.989218
 20
477.437278
 11
106.989218
 21
477.437278
  0
LINE
  5
10C
100
AcDbEntity
  8
M0
 62
     4
100
AcDbLine
 10
129.989218
 20
479.937278
 11
129.989218
 21
477.437278
  0
LINE
  5
10D
100
AcDbEntity
  8
M0
 62
     4
100
AcDbLine
 10
144.989218
 20
477.437278
 11
152.989218
 21
477.437278
  0
LINE
  5
10E
100
AcDbEntity
  8
M0
 62
     4
100
AcDbLine
 10
98.989218
 20
479.937278
 11
98.989218
 21
477.437278
  0
LINE
  5
10F
100
AcDbEntity
  8
M0
 62
     4
100
AcDbLine
 10
98.989172
 20
393.937492
 11
98.989172
 21
396.437507
  0
LINE
  5
110
100
AcDbEntity
  8
M0
 62
     4
100
AcDbLine
 10
98.989172
 20
396.437507
 11
106.989172
 21
396.437507
  0
LINE
  5
111
100
AcDbEntity
  8
M0
 62
     4
100
AcDbLine
 10
121.989172
 20
396.437507
 11
129.989172
 21
396.437507
  0
LINE
  5
112
100
AcDbEntity
  8
M0
 62
     4
100
AcDbLine
 10
121.989157
 20
393.937492
 11
121.989172
 21
396.437507
  0
LINE
  5
113
100
AcDbEntity
  8
M0
 62
     4
100
AcDbLine
 10
152.989172
 20
393.937507
 11
152.989172
 21
396.437507
  0
LINE
  5
114
100
AcDbEntity
  8
M0
 62
     4
100
AcDbLine
 10
144.989172
 20
396.437507
 11
152.989172
 21
396.437507
  0
ARC
  5
115
100
AcDbEntity
  8
M0
 62
     4
100
AcDbCircle
 10
141.489218
 20
485.43679
 40
0.5
100
AcDbArc
 50
90.0
 51
180.0
  0
ARC
  5
116
100
AcDbEntity
  8
M0
 62
     4
100
AcDbCircle
 10
121.489218
 20
485.43679
 40
0.5
100
AcDbArc
 50
0.0
 51
90.0
  0
ARC
  5
117
100
AcDbEntity
  8
M0
 62
     4
100
AcDbCircle
 10
144.489218
 20
485.43679
 40
0.5
100
AcDbArc
 50
0.0
 51
90.0
  0
ARC
  5
118
100
AcDbEntity
  8
M0
 62
     4
100
AcDbCircle
 10
109.489218
 20
485.43679
 40
0.5
100
AcDbArc
 50
0.0
 51
90.0
  0
ARC
  5
119
100
AcDbEntity
  8
M0
 62
     4
100
AcDbCircle
 10
119.489218
 20
485.43679
 40
0.5
100
AcDbArc
 50
90.0
 51
180.0
  0
ARC
  5
11A
100
AcDbEntity
  8
M0
 62
     4
100
AcDbCircle
 10
107.489218
 20
485.43679
 40
0.5
100
AcDbArc
 50
90.0
 51
180.0
  0
ARC
  5
11B
100
AcDbEntity
  8
M0
 62
     4
100
AcDbCircle
 10
153.489172
 20
393.937507
 40
0.5
100
AcDbArc
 50
180.0
 51
269.998251
  0
ARC
  5
11C
100
AcDbEntity
  8
M0
 62
     4
100
AcDbCircle
 10
145.489218
 20
392.937507
 40
0.5
100
AcDbArc
 50
90.0
 51
180.0
  0
ARC
  5
11D
100
AcDbEntity
  8
M0
 62
     4
100
AcDbCircle
 10
144.489218
 20
388.437751
 40
0.5
100
AcDbArc
 50
269.998251
 51
360.0
  0
ARC
  5
11E
100
AcDbEntity
  8
M0
 62
     4
100
AcDbCircle
 10
142.489218
 20
388.437751
 40
0.5
100
AcDbArc
 50
180.0
 51
269.998251
  0
ARC
  5
11F
100
AcDbEntity
  8
M0
 62
     4
100
AcDbCircle
 10
132.489218
 20
388.437736
 40
0.5
100
AcDbArc
 50
269.998251
 51
360.0
  0
ARC
  5
120
100
AcDbEntity
  8
M0
 62
     4
100
AcDbCircle
 10
130.489218
 20
388.437751
 40
0.5
100
AcDbArc
 50
180.0
 51
269.998251
  0
ARC
  5
121
100
AcDbEntity
  8
M0
 62
     4
100
AcDbCircle
 10
110.489279
 20
388.437751
 40
0.5
100
AcDbArc
 50
269.998251
 51
360.0
  0
ARC
  5
122
100
AcDbEntity
  8
M0
 62
     4
100
AcDbCircle
 10
107.489279
 20
388.437751
 40
0.5
100
AcDbArc
 50
180.0
 51
269.998251
  0
LINE
  5
123
100
AcDbEntity
  8
M0
  6
DASHDOT
 62
     4
100
AcDbLine
 10
102.989279
 20
384.511451
 11
102.989279
 21
398.814399
  0
LINE
  5
124
100
AcDbEntity
  8
M0
 62
     4
100
AcDbLine
 10
144.989218
 20
480.437278
 11
160.489218
 21
480.437278
  0
ARC
  5
125
100
AcDbEntity
  8
M0
 62
     4
100
AcDbCircle
 10
98.489218
 20
479.937278
 40
0.5
100
AcDbArc
 50
0.0
 51
90.0
  0
ARC
  5
126
100
AcDbEntity
  8
M0
 62
     4
100
AcDbCircle
 10
129.489218
 20
392.937507
 40
0.5
100
AcDbArc
 50
0.0
 51
90.0
  0
ARC
  5
127
100
AcDbEntity
  8
M0
 62
     4
100
AcDbCircle
 10
121.489157
 20
393.937507
 40
0.5
100
AcDbArc
 50
269.998251
 51
360.0
  0
LINE
  5
128
100
AcDbEntity
  8
M0
 62
     4
100
AcDbLine
 10
111.489279
 20
393.437507
 11
129.489218
 21
393.437507
  0
ARC
  5
129
100
AcDbEntity
  8
M0
 62
     4
100
AcDbCircle
 10
111.489279
 20
392.937507
 40
0.5
100
AcDbArc
 50
90.0
 51
180.0
  0
ARC
  5
12A
100
AcDbEntity
  8
M0
 62
     4
100
AcDbCircle
 10
106.489279
 20
392.937507
 40
0.5
100
AcDbArc
 50
0.0
 51
90.0
  0
ARC
  5
12B
100
AcDbEntity
  8
M0
 62
     4
100
AcDbCircle
 10
98.489172
 20
393.937507
 40
0.5
100
AcDbArc
 50
269.998251
 51
360.0
  0
ARC
  5
12C
100
AcDbEntity
  8
M0
 62
     4
100
AcDbCircle
 10
130.489218
 20
479.937278
 40
0.5
100
AcDbArc
 50
90.0
 51
180.0
  0
ARC
  5
12D
100
AcDbEntity
  8
M0
 62
     4
100
AcDbCircle
 10
153.489218
 20
479.937278
 40
0.5
100
AcDbArc
 50
90.0
 51
180.0
  0
LINE
  5
12E
100
AcDbEntity
  8
M0
  6
DASHDOT
 62
     4
100
AcDbLine
 10
151.488776
 20
466.437247
 11
164.48876
 21
466.437232
  0
LINE
  5
12F
100
AcDbEntity
  8
M0
 62
     2
100
AcDbLine
 10
91.489249
 20
387.437141
 11
131.489142
 21
387.437141
  0
LINE
  5
130
100
AcDbEntity
  8
M0
 62
     2
100
AcDbLine
 10
175.989203
 20
399.937125
 11
175.989203
 21
473.937141
  0
LINE
  5
131
100
AcDbEntity
  8
M0
 62
     2
100
AcDbLine
 10
160.489203
 20
486.436896
 11
131.489035
 21
486.436713
  0
LINE
  5
132
100
AcDbEntity
  8
M0
 62
     2
100
AcDbLine
 10
75.989203
 20
473.936408
 11
75.989203
 21
399.937125
  0
LINE
  5
133
100
AcDbEntity
  8
M0
  6
DASHDOT
 62
     2
100
AcDbLine
 10
69.157996
 20
436.937141
 11
125.989203
 21
436.937141
  0
LINE
  5
134
100
AcDbEntity
  8
M0
 62
     2
100
AcDbLine
 10
161.489203
 20
480.169364
 11
161.489203
 21
485.436652
  0
ARC
  5
135
100
AcDbEntity
  8
M0
 62
     2
100
AcDbCircle
 10
160.489203
 20
485.436652
 40
1.0
100
AcDbArc
 50
0.0
 51
90.0
  0
LINE
  5
136
100
AcDbEntity
  8
M0
 62
     2
100
AcDbLine
 10
162.489203
 20
474.437141
 11
175.489203
 21
474.437141
  0
LINE
  5
137
100
AcDbEntity
  8
M0
 62
     2
100
AcDbLine
 10
118.989203
 20
488.936652
 11
109.989203
 21
488.936652
  0
LINE
  5
138
100
AcDbEntity
  8
M0
 62
     2
100
AcDbLine
 10
108.489203
 20
486.436652
 11
91.489264
 21
486.436652
  0
ARC
  5
139
100
AcDbEntity
  8
M0
 62
     2
100
AcDbCircle
 10
118.989203
 20
487.936408
 40
1.0
100
AcDbArc
 50
0.0
 51
90.0
  0
ARC
  5
13A
100
AcDbEntity
  8
M0
 62
     2
100
AcDbCircle
 10
109.989203
 20
487.936408
 40
1.0
100
AcDbArc
 50
90.0
 51
180.013988
  0
LINE
  5
13B
100
AcDbEntity
  8
M0
 62
     2
100
AcDbLine
 10
162.489157
 20
399.437141
 11
175.489203
 21
399.437141
  0
LINE
  5
13C
100
AcDbEntity
  8
M0
 62
     2
100
AcDbLine
 10
161.489157
 20
393.705436
 11
161.489157
 21
388.437629
  0
ARC
  5
13D
100
AcDbEntity
  8
M0
 62
     2
100
AcDbCircle
 10
160.489157
 20
388.437629
 40
1.0
100
AcDbArc
 50
-90.000874
 51
0.0
  0
ARC
  5
13E
100
AcDbEntity
  8
M0
 62
     2
100
AcDbCircle
 10
91.489264
 20
485.436652
 40
1.0
100
AcDbArc
 50
90.0
 51
180.0
  0
ARC
  5
13F
100
AcDbEntity
  8
M0
 62
     2
100
AcDbCircle
 10
91.489249
 20
388.437644
 40
1.0
100
AcDbArc
 50
180.0
 51
269.999126
  0
LINE
  5
140
100
AcDbEntity
  8
M0
 62
     2
100
AcDbLine
 10
90.489249
 20
480.169364
 11
90.489264
 21
485.436652
  0
LINE
  5
141
100
AcDbEntity
  8
M0
 62
     2
100
AcDbLine
 10
132.489203
 20
480.937141
 11
137.739386
 21
480.937141
  0
ARC
  5
142
100
AcDbEntity
  8
M0
 62
     2
100
AcDbCircle
 10
137.739386
 20
479.437141
 40
1.5
100
AcDbArc
 50
41.81873
 51
90.0
  0
LINE
  5
143
100
AcDbEntity
  8
M0
 62
     2
100
AcDbLine
 10
114.239004
 20
392.937141
 11
119.489142
 21
392.937141
  0
ARC
  5
144
100
AcDbEntity
  8
M0
 62
     2
100
AcDbCircle
 10
114.239004
 20
394.437141
 40
1.5
100
AcDbArc
 50
221.790314
 51
269.999417
  0
LINE
  5
145
100
AcDbEntity
  8
M0
 62
     2
100
AcDbLine
 10
133.739035
 20
384.937141
 11
141.989142
 21
384.937141
  0
LINE
  5
146
100
AcDbEntity
  8
M0
 62
     2
100
AcDbLine
 10
143.489142
 20
387.437141
 11
160.489157
 21
387.437141
  0
ARC
  5
147
100
AcDbEntity
  8
M0
 62
     2
100
AcDbCircle
 10
141.989142
 20
385.937141
 40
1.0
100
AcDbArc
 50
269.999126
 51
360.0
  0
LINE
  5
148
100
AcDbEntity
  8
M0
 62
     2
100
AcDbLine
 10
90.489233
 20
393.437537
 11
90.489249
 21
388.437644
  0
LINE
  5
149
100
AcDbEntity
  8
M0
 62
     2
100
AcDbLine
 10
89.489233
 20
474.436652
 11
76.489203
 21
474.436652
  0
LINE
  5
14A
100
AcDbEntity
  8
M0
 62
     2
100
AcDbLine
 10
89.489233
 20
399.437141
 11
76.489203
 21
399.437125
  0
LINE
  5
14B
100
AcDbEntity
  8
M0
 62
     2
100
AcDbLine
 10
172.489203
 20
464.437141
 11
175.989203
 21
464.437141
  0
LINE
  5
14C
100
AcDbEntity
  8
M0
 62
     2
100
AcDbLine
 10
173.489203
 20
474.437141
 11
173.489203
 21
464.437141
  0
LINE
  5
14D
100
AcDbEntity
  8
M0
 62
     2
100
AcDbLine
 10
173.489203
 20
471.937141
 11
175.989203
 21
471.937141
  0
ARC
  5
14E
100
AcDbEntity
  8
M0
 62
     2
100
AcDbCircle
 10
175.489203
 20
473.937141
 40
0.5
100
AcDbArc
 50
0.0
 51
90.0
  0
ARC
  5
14F
100
AcDbEntity
  8
M0
 62
     2
100
AcDbCircle
 10
76.489203
 20
473.936408
 40
0.5
100
AcDbArc
 50
90.0
 51
180.0
  0
ARC
  5
150
100
AcDbEntity
  8
M0
 62
     2
100
AcDbCircle
 10
76.489203
 20
399.937125
 40
0.5
100
AcDbArc
 50
180.0
 51
269.998251
  0
ARC
  5
151
100
AcDbEntity
  8
M0
 62
     2
100
AcDbCircle
 10
175.489203
 20
399.937141
 40
0.5
100
AcDbArc
 50
269.998251
 51
360.0
  0
LINE
  5
152
100
AcDbEntity
  8
M0
 62
     2
100
AcDbLine
 10
76.489203
 20
419.437141
 11
79.489203
 21
419.437141
  0
LINE
  5
153
100
AcDbEntity
  8
M0
 62
     2
100
AcDbLine
 10
79.989203
 20
422.437141
 11
81.046469
 21
422.437141
  0
LINE
  5
154
100
AcDbEntity
  8
M0
 62
     2
100
AcDbLine
 10
79.989203
 20
411.437141
 11
89.489233
 21
411.437141
  0
LINE
  5
155
100
AcDbEntity
  8
M0
 62
     2
100
AcDbLine
 10
76.489203
 20
409.437141
 11
79.489203
 21
409.437141
  0
LINE
  5
156
100
AcDbEntity
  8
M0
 62
     2
100
AcDbLine
 10
78.489203
 20
409.437141
 11
78.489203
 21
399.437141
  0
LINE
  5
157
100
AcDbEntity
  8
M0
 62
     2
100
AcDbLine
 10
75.989203
 20
401.937141
 11
78.489203
 21
401.937141
  0
LINE
  5
158
100
AcDbEntity
  8
M0
 62
     2
100
AcDbLine
 10
88.489203
 20
420.437141
 11
89.489233
 21
420.437141
  0
ARC
  5
159
100
AcDbEntity
  8
M0
 62
     2
100
AcDbCircle
 10
79.489203
 20
409.937141
 40
0.5
100
AcDbArc
 50
269.998251
 51
360.0
  0
ARC
  5
15A
100
AcDbEntity
  8
M0
 62
     2
100
AcDbCircle
 10
76.489203
 20
409.937141
 40
0.5
100
AcDbArc
 50
180.0
 51
269.998251
  0
ARC
  5
15B
100
AcDbEntity
  8
M0
 62
     2
100
AcDbCircle
 10
76.489203
 20
419.937141
 40
0.5
100
AcDbArc
 50
180.0
 51
269.998251
  0
ARC
  5
15C
100
AcDbEntity
  8
M0
 62
     2
100
AcDbCircle
 10
79.489203
 20
419.937141
 40
0.5
100
AcDbArc
 50
269.998251
 51
360.0
  0
LINE
  5
15D
100
AcDbEntity
  8
M0
 62
     2
100
AcDbLine
 10
76.489203
 20
454.436896
 11
79.489203
 21
454.436896
  0
ARC
  5
15E
100
AcDbEntity
  8
M0
 62
     2
100
AcDbCircle
 10
79.489203
 20
453.936896
 40
0.5
100
AcDbArc
 50
0.0
 51
90.0
  0
LINE
  5
15F
100
AcDbEntity
  8
M0
 62
     2
100
AcDbLine
 10
88.489203
 20
453.436896
 11
89.489233
 21
453.436896
  0
LINE
  5
160
100
AcDbEntity
  8
M0
 62
     2
100
AcDbLine
 10
78.489203
 20
464.436896
 11
78.489203
 21
474.436896
  0
LINE
  5
161
100
AcDbEntity
  8
M0
 62
     2
100
AcDbLine
 10
75.989203
 20
471.936896
 11
78.489203
 21
471.936896
  0
LINE
  5
162
100
AcDbEntity
  8
M0
 62
     2
100
AcDbLine
 10
76.489203
 20
464.436896
 11
79.489203
 21
464.436896
  0
ARC
  5
163
100
AcDbEntity
  8
M0
 62
     2
100
AcDbCircle
 10
79.489203
 20
463.936896
 40
0.5
100
AcDbArc
 50
0.0
 51
90.0
  0
LINE
  5
164
100
AcDbEntity
  8
M0
 62
     2
100
AcDbLine
 10
79.989203
 20
462.436896
 11
89.489233
 21
462.436896
  0
ARC
  5
165
100
AcDbEntity
  8
M0
 62
     2
100
AcDbCircle
 10
76.489203
 20
453.936896
 40
0.5
100
AcDbArc
 50
90.0
 51
180.0
  0
ARC
  5
166
100
AcDbEntity
  8
M0
 62
     2
100
AcDbCircle
 10
76.489203
 20
463.936896
 40
0.5
100
AcDbArc
 50
90.0
 51
180.0
  0
LINE
  5
167
100
AcDbEntity
  8
M0
 62
     2
100
AcDbLine
 10
171.989203
 20
422.436896
 11
170.931479
 21
422.436896
  0
LINE
  5
168
100
AcDbEntity
  8
M0
 62
     2
100
AcDbLine
 10
175.489203
 20
419.436896
 11
172.489203
 21
419.436896
  0
LINE
  5
169
100
AcDbEntity
  8
M0
 62
     2
100
AcDbLine
 10
163.489203
 20
420.436896
 11
162.489233
 21
420.436896
  0
ARC
  5
16A
100
AcDbEntity
  8
M0
 62
     2
100
AcDbCircle
 10
172.489203
 20
419.936896
 40
0.5
100
AcDbArc
 50
180.0
 51
269.998251
  0
ARC
  5
16B
100
AcDbEntity
  8
M0
 62
     2
100
AcDbCircle
 10
175.489203
 20
419.936896
 40
0.5
100
AcDbArc
 50
-90.001749
 51
0.0
  0
LINE
  5
16C
100
AcDbEntity
  8
M0
 62
     2
100
AcDbLine
 10
171.989203
 20
411.436896
 11
162.489233
 21
411.436896
  0
ARC
  5
16D
100
AcDbEntity
  8
M0
 62
     2
100
AcDbCircle
 10
172.489203
 20
409.936896
 40
0.5
100
AcDbArc
 50
180.0
 51
269.998251
  0
LINE
  5
16E
100
AcDbEntity
  8
M0
 62
     2
100
AcDbLine
 10
175.489203
 20
409.436896
 11
172.489203
 21
409.436896
  0
LINE
  5
16F
100
AcDbEntity
  8
M0
 62
     2
100
AcDbLine
 10
173.489203
 20
409.436896
 11
173.489203
 21
399.437125
  0
LINE
  5
170
100
AcDbEntity
  8
M0
 62
     2
100
AcDbLine
 10
175.989203
 20
401.93711
 11
173.489203
 21
401.937125
  0
LINE
  5
171
100
AcDbEntity
  8
M0
 62
     2
100
AcDbLine
 10
171.989203
 20
451.437141
 11
170.931433
 21
451.437141
  0
LINE
  5
172
100
AcDbEntity
  8
M0
 62
     2
100
AcDbLine
 10
163.489203
 20
453.437141
 11
162.489233
 21
453.437141
  0
ARC
  5
173
100
AcDbEntity
  8
M0
 62
     2
100
AcDbCircle
 10
172.489203
 20
453.937141
 40
0.5
100
AcDbArc
 50
90.0
 51
180.0
  0
LINE
  5
174
100
AcDbEntity
  8
M0
 62
     2
100
AcDbLine
 10
175.489203
 20
454.437141
 11
172.489203
 21
454.437141
  0
ARC
  5
175
100
AcDbEntity
  8
M0
 62
     2
100
AcDbCircle
 10
175.489203
 20
453.937141
 40
0.5
100
AcDbArc
 50
0.0
 51
90.0
  0
LINE
  5
176
100
AcDbEntity
  8
M0
 62
     2
100
AcDbLine
 10
171.989203
 20
462.437141
 11
162.489233
 21
462.437141
  0
ARC
  5
177
100
AcDbEntity
  8
M0
 62
     2
100
AcDbCircle
 10
172.489203
 20
463.937141
 40
0.5
100
AcDbArc
 50
90.0
 51
180.0
  0
ARC
  5
178
100
AcDbEntity
  8
M0
 62
     2
100
AcDbCircle
 10
175.489203
 20
409.936896
 40
0.5
100
AcDbArc
 50
-90.001749
 51
0.0
  0
LINE
  5
179
100
AcDbEntity
  8
M0
 62
     2
100
AcDbLine
 10
75.989203
 20
440.687141
 11
82.989203
 21
440.687141
  0
LINE
  5
17A
100
AcDbEntity
  8
M0
 62
     2
100
AcDbLine
 10
75.989203
 20
433.187141
 11
82.989203
 21
433.187141
  0
LINE
  5
17B
100
AcDbEntity
  8
M0
 62
     2
100
AcDbLine
 10
83.989203
 20
439.687141
 11
83.989203
 21
434.187141
  0
ARC
  5
17C
100
AcDbEntity
  8
M0
 62
     2
100
AcDbCircle
 10
82.989203
 20
434.187141
 40
1.0
100
AcDbArc
 50
269.999126
 51
360.0
  0
ARC
  5
17D
100
AcDbEntity
  8
M0
 62
     2
100
AcDbCircle
 10
82.989203
 20
439.687141
 40
1.0
100
AcDbArc
 50
0.0
 51
90.0
  0
LINE
  5
17E
100
AcDbEntity
  8
M0
 62
     2
100
AcDbLine
 10
79.989203
 20
440.687141
 11
79.989203
 21
439.687141
  0
LINE
  5
17F
100
AcDbEntity
  8
M0
 62
     2
100
AcDbLine
 10
75.989203
 20
439.687141
 11
79.989203
 21
439.687141
  0
LINE
  5
180
100
AcDbEntity
  8
M0
 62
     2
100
AcDbLine
 10
75.989203
 20
434.187141
 11
79.989203
 21
434.187141
  0
LINE
  5
181
100
AcDbEntity
  8
M0
 62
     2
100
AcDbLine
 10
79.989203
 20
434.187141
 11
79.989203
 21
433.187141
  0
LINE
  5
182
100
AcDbEntity
  8
M0
 62
     2
100
AcDbLine
 10
175.989233
 20
440.686896
 11
168.989233
 21
440.686896
  0
LINE
  5
183
100
AcDbEntity
  8
M0
 62
     2
100
AcDbLine
 10
175.989233
 20
439.686896
 11
171.989233
 21
439.686896
  0
LINE
  5
184
100
AcDbEntity
  8
M0
 62
     2
100
AcDbLine
 10
171.989233
 20
440.686896
 11
171.989233
 21
439.686896
  0
ARC
  5
185
100
AcDbEntity
  8
M0
 62
     2
100
AcDbCircle
 10
168.989233
 20
439.686896
 40
1.0
100
AcDbArc
 50
90.0
 51
180.0
  0
LINE
  5
186
100
AcDbEntity
  8
M0
 62
     2
100
AcDbLine
 10
167.989233
 20
439.686896
 11
167.989233
 21
434.186896
  0
ARC
  5
187
100
AcDbEntity
  8
M0
 62
     2
100
AcDbCircle
 10
168.989233
 20
434.186896
 40
1.0
100
AcDbArc
 50
180.0
 51
269.999126
  0
LINE
  5
188
100
AcDbEntity
  8
M0
 62
     2
100
AcDbLine
 10
175.989233
 20
433.186896
 11
168.989233
 21
433.186896
  0
LINE
  5
189
100
AcDbEntity
  8
M0
 62
     2
100
AcDbLine
 10
175.989233
 20
434.186896
 11
171.989233
 21
434.186896
  0
LINE
  5
18A
100
AcDbEntity
  8
M0
 62
     2
100
AcDbLine
 10
171.989233
 20
434.186896
 11
171.989233
 21
433.186896
  0
LINE
  5
18B
100
AcDbEntity
  8
M0
 62
     2
100
AcDbLine
 10
116.689139
 20
389.937141
 11
119.489142
 21
389.937141
  0
LINE
  5
18C
100
AcDbEntity
  8
M0
 62
     2
100
AcDbLine
 10
116.189139
 20
389.437141
 11
116.189139
 21
387.437141
  0
LINE
  5
18D
100
AcDbEntity
  8
M0
  6
DASHDOT
 62
     2
100
AcDbLine
 10
125.989203
 20
436.937141
 11
186.557639
 21
436.937141
  0
ARC
  5
18E
100
AcDbEntity
  8
M0
 62
     2
100
AcDbCircle
 10
120.489203
 20
485.936652
 40
0.5
100
AcDbArc
 50
90.0
 51
180.0
  0
ARC
  5
18F
100
AcDbEntity
  8
M0
 62
     2
100
AcDbCircle
 10
108.489203
 20
485.936408
 40
0.5
100
AcDbArc
 50
0.0
 51
90.0
  0
LINE
  5
190
100
AcDbEntity
  8
M0
 62
     2
100
AcDbLine
 10
135.789191
 20
486.436652
 11
135.789191
 21
484.436896
  0
LINE
  5
191
100
AcDbEntity
  8
M0
 62
     2
100
AcDbLine
 10
132.489203
 20
483.936896
 11
135.289191
 21
483.936896
  0
ARC
  5
192
100
AcDbEntity
  8
M0
 62
     2
100
AcDbCircle
 10
135.289191
 20
484.436896
 40
0.5
100
AcDbArc
 50
269.998251
 51
360.0
  0
ARC
  5
193
100
AcDbEntity
  8
M0
 62
     2
100
AcDbCircle
 10
132.489203
 20
483.436896
 40
0.5
100
AcDbArc
 50
90.0
 51
180.0
  0
ARC
  5
194
100
AcDbEntity
  8
M0
 62
     2
100
AcDbCircle
 10
132.489203
 20
481.437141
 40
0.5
100
AcDbArc
 50
180.0
 51
269.998251
  0
ARC
  5
195
100
AcDbEntity
  8
M0
 62
     2
100
AcDbCircle
 10
116.689139
 20
389.437141
 40
0.5
100
AcDbArc
 50
90.0
 51
180.0
  0
ARC
  5
196
100
AcDbEntity
  8
M0
 62
     2
100
AcDbCircle
 10
119.489142
 20
390.437141
 40
0.5
100
AcDbArc
 50
269.998251
 51
360.0
  0
ARC
  5
197
100
AcDbEntity
  8
M0
 62
     2
100
AcDbCircle
 10
119.489142
 20
392.437141
 40
0.5
100
AcDbArc
 50
0.0
 51
90.0
  0
LINE
  5
198
100
AcDbEntity
  8
M0
 62
     2
100
AcDbLine
 10
79.489203
 20
440.687141
 11
79.489203
 21
439.687141
  0
LINE
  5
199
100
AcDbEntity
  8
M0
 62
     2
100
AcDbLine
 10
79.489203
 20
434.187141
 11
79.489203
 21
433.187141
  0
LINE
  5
19A
100
AcDbEntity
  8
M0
 62
     2
100
AcDbLine
 10
172.489233
 20
440.686896
 11
172.489233
 21
439.686896
  0
LINE
  5
19B
100
AcDbEntity
  8
M0
 62
     2
100
AcDbLine
 10
172.489233
 20
434.186896
 11
172.489233
 21
433.186896
  0
LINE
  5
19C
100
AcDbEntity
  8
M0
  6
DASHDOT
 62
     2
100
AcDbLine
 10
142.1892
 20
478.937141
 11
155.789191
 21
478.937141
  0
LINE
  5
19D
100
AcDbEntity
  8
M0
  6
DASHDOT
 62
     2
100
AcDbLine
 10
142.189154
 20
394.937141
 11
155.789145
 21
394.937141
  0
LINE
  5
19E
100
AcDbEntity
  8
M0
  6
DASHDOT
 62
     2
100
AcDbLine
 10
109.789236
 20
478.937141
 11
96.189246
 21
478.937141
  0
LINE
  5
19F
100
AcDbEntity
  8
M0
  6
DASHDOT
 62
     2
100
AcDbLine
 10
109.789191
 20
394.937141
 11
96.1892
 21
394.937141
  0
LINE
  5
1A0
100
AcDbEntity
  8
M0
  6
DASHDOT
 62
     2
100
AcDbLine
 10
119.189017
 20
478.936896
 11
132.789008
 21
478.936896
  0
LINE
  5
1A1
100
AcDbEntity
  8
M0
  6
DASHDOT
 62
     2
100
AcDbLine
 10
119.188971
 20
394.937385
 11
132.788962
 21
394.937385
  0
LINE
  5
1A2
100
AcDbEntity
  8
M0
 62
     2
100
AcDbLine
 10
119.989096
 20
487.950812
 11
119.989096
 21
486.436896
  0
LINE
  5
1A3
100
AcDbEntity
  8
M0
 62
     2
100
AcDbLine
 10
108.989096
 20
487.936408
 11
108.989096
 21
486.436896
  0
LINE
  5
1A4
100
AcDbEntity
  8
M0
  6
DASHDOT
 62
     2
100
AcDbLine
 10
76.989203
 20
416.937141
 11
90.989203
 21
416.937141
  0
LINE
  5
1A5
100
AcDbEntity
  8
M0
  6
DASHDOT
 62
     2
100
AcDbLine
 10
83.989203
 20
409.937141
 11
83.989203
 21
423.937141
  0
LINE
  5
1A6
100
AcDbEntity
  8
M0
 62
     2
100
AcDbLine
 10
87.989203
 20
430.437141
 11
87.989203
 21
411.437141
  0
LINE
  5
1A7
100
AcDbEntity
  8
M0
 62
     2
100
AcDbLine
 10
79.989203
 20
430.437141
 11
79.989203
 21
409.937141
  0
ARC
  5
1A8
100
AcDbEntity
  8
M0
 62
     2
100
AcDbCircle
 10
86.989203
 20
430.437141
 40
1.0
100
AcDbArc
 50
0.0
 51
90.0
  0
ARC
  5
1A9
100
AcDbEntity
  8
M0
 62
     2
100
AcDbCircle
 10
88.489203
 20
420.937141
 40
0.5
100
AcDbArc
 50
180.0
 51
269.998251
  0
ARC
  5
1AA
100
AcDbEntity
  8
M0
 62
     2
100
AcDbCircle
 10
86.989203
 20
443.436896
 40
1.0
100
AcDbArc
 50
-90.000874
 51
0.0
  0
LINE
  5
1AB
100
AcDbEntity
  8
M0
 62
     2
100
AcDbLine
 10
79.989203
 20
443.436896
 11
79.989203
 21
463.936896
  0
LINE
  5
1AC
100
AcDbEntity
  8
M0
 62
     2
100
AcDbLine
 10
87.989203
 20
443.436896
 11
87.989203
 21
462.436896
  0
LINE
  5
1AD
100
AcDbEntity
  8
M0
  6
DASHDOT
 62
     2
100
AcDbLine
 10
76.989203
 20
456.936896
 11
90.989203
 21
456.936896
  0
ARC
  5
1AE
100
AcDbEntity
  8
M0
 62
     2
100
AcDbCircle
 10
88.489203
 20
452.936896
 40
0.5
100
AcDbArc
 50
90.0
 51
180.0
  0
ARC
  5
1AF
100
AcDbEntity
  8
M0
 62
     2
100
AcDbCircle
 10
164.989203
 20
430.436896
 40
1.0
100
AcDbArc
 50
90.0
 51
180.0
  0
LINE
  5
1B0
100
AcDbEntity
  8
M0
  6
DASHDOT
 62
     2
100
AcDbLine
 10
83.989203
 20
463.936896
 11
83.989203
 21
449.936896
  0
LINE
  5
1B1
100
AcDbEntity
  8
M0
 62
     2
100
AcDbLine
 10
171.989203
 20
430.436896
 11
171.989203
 21
409.936896
  0
LINE
  5
1B2
100
AcDbEntity
  8
M0
 62
     2
100
AcDbLine
 10
163.989203
 20
430.436896
 11
163.989203
 21
411.436896
  0
ARC
  5
1B3
100
AcDbEntity
  8
M0
 62
     2
100
AcDbCircle
 10
163.489203
 20
420.936896
 40
0.5
100
AcDbArc
 50
-90.001749
 51
0.0
  0
ARC
  5
1B4
100
AcDbEntity
  8
M0
 62
     2
100
AcDbCircle
 10
164.989203
 20
443.437141
 40
1.0
100
AcDbArc
 50
180.0
 51
269.999126
  0
LINE
  5
1B5
100
AcDbEntity
  8
M0
 62
     2
100
AcDbLine
 10
163.989203
 20
443.437141
 11
163.989203
 21
462.437141
  0
LINE
  5
1B6
100
AcDbEntity
  8
M0
 62
     2
100
AcDbLine
 10
171.989203
 20
443.437141
 11
171.989203
 21
463.937141
  0
LINE
  5
1B7
100
AcDbEntity
  8
M0
 62
     2
100
AcDbLine
 10
163.989203
 20
443.437141
 11
163.989203
 21
462.437141
  0
LINE
  5
1B8
100
AcDbEntity
  8
M0
  6
DASHDOT
 62
     2
100
AcDbLine
 10
174.989203
 20
456.936652
 11
160.989203
 21
456.936652
  0
LINE
  5
1B9
100
AcDbEntity
  8
M0
  6
DASHDOT
 62
     2
100
AcDbLine
 10
174.989172
 20
416.937629
 11
160.989172
 21
416.937629
  0
LINE
  5
1BA
100
AcDbEntity
  8
M0
 62
     2
100
AcDbLine
 10
163.989203
 20
461.036506
 11
165.077246
 21
461.036506
  0
LINE
  5
1BB
100
AcDbEntity
  8
M0
 62
     2
100
AcDbLine
 10
163.989172
 20
412.837775
 11
165.077322
 21
412.837775
  0
LINE
  5
1BC
100
AcDbEntity
  8
M0
 62
     2
100
AcDbLine
 10
163.989203
 20
443.437141
 11
163.989203
 21
462.437141
  0
ARC
  5
1BD
100
AcDbEntity
  8
M0
 62
     2
100
AcDbCircle
 10
163.489203
 20
452.937141
 40
0.5
100
AcDbArc
 50
0.0
 51
90.0
  0
LINE
  5
1BE
100
AcDbEntity
  8
M0
 62
     2
100
AcDbLine
 10
87.989233
 20
461.036506
 11
86.900717
 21
461.036506
  0
LINE
  5
1BF
100
AcDbEntity
  8
M0
 62
     2
100
AcDbLine
 10
87.989233
 20
412.837775
 11
86.900793
 21
412.837775
  0
LINE
  5
1C0
100
AcDbEntity
  8
M0
  6
DASHDOT
 62
     2
100
AcDbLine
 10
76.989203
 20
426.437141
 11
90.989203
 21
426.437141
  0
LINE
  5
1C1
100
AcDbEntity
  8
M0
  6
DASHDOT
 62
     2
100
AcDbLine
 10
83.989203
 20
419.437141
 11
83.989203
 21
433.437141
  0
LINE
  5
1C2
100
AcDbEntity
  8
M0
 62
     2
100
AcDbLine
 10
80.989203
 20
431.437141
 11
86.989203
 21
431.437141
  0
ARC
  5
1C3
100
AcDbEntity
  8
M0
 62
     2
100
AcDbCircle
 10
80.989203
 20
430.437141
 40
1.0
100
AcDbArc
 50
90.0
 51
180.0
  0
LINE
  5
1C4
100
AcDbEntity
  8
M0
 62
     2
100
AcDbLine
 10
80.989203
 20
442.436896
 11
86.989203
 21
442.436896
  0
ARC
  5
1C5
100
AcDbEntity
  8
M0
 62
     2
100
AcDbCircle
 10
80.989203
 20
443.436896
 40
1.0
100
AcDbArc
 50
180.0
 51
269.999126
  0
LINE
  5
1C6
100
AcDbEntity
  8
M0
  6
DASHDOT
 62
     2
100
AcDbLine
 10
83.989203
 20
454.436896
 11
83.989203
 21
440.436896
  0
LINE
  5
1C7
100
AcDbEntity
  8
M0
  6
DASHDOT
 62
     2
100
AcDbLine
 10
76.989203
 20
447.436896
 11
90.989203
 21
447.436896
  0
ARC
  5
1C8
100
AcDbEntity
  8
M0
 62
     2
100
AcDbCircle
 10
170.989203
 20
430.436896
 40
1.0
100
AcDbArc
 50
0.0
 51
90.0
  0
LINE
  5
1C9
100
AcDbEntity
  8
M0
 62
     2
100
AcDbLine
 10
170.989233
 20
431.436896
 11
164.989233
 21
431.436896
  0
LINE
  5
1CA
100
AcDbEntity
  8
M0
  6
DASHDOT
 62
     2
100
AcDbLine
 10
174.989203
 20
426.436896
 11
160.989203
 21
426.436896
  0
LINE
  5
1CB
100
AcDbEntity
  8
M0
 62
     2
100
AcDbLine
 10
170.989233
 20
442.437141
 11
164.989233
 21
442.437141
  0
ARC
  5
1CC
100
AcDbEntity
  8
M0
 62
     2
100
AcDbCircle
 10
170.989203
 20
443.437141
 40
1.0
100
AcDbArc
 50
269.999126
 51
360.0
  0
LINE
  5
1CD
100
AcDbEntity
  8
M0
  6
DASHDOT
 62
     2
100
AcDbLine
 10
174.989203
 20
447.437141
 11
160.989203
 21
447.437141
  0
LINE
  5
1CE
100
AcDbEntity
  8
M0
  6
DASHDOT
 62
     2
100
AcDbLine
 10
174.989203
 20
447.436652
 11
160.989203
 21
447.436652
  0
LINE
  5
1CF
100
AcDbEntity
  8
M0
  6
DASHDOT
 62
     2
100
AcDbLine
 10
78.239203
 20
406.937141
 11
92.739203
 21
406.937141
  0
LINE
  5
1D0
100
AcDbEntity
  8
M0
  6
DASHDOT
 62
     2
100
AcDbLine
 10
85.489203
 20
399.687141
 11
85.489203
 21
414.187141
  0
LINE
  5
1D1
100
AcDbEntity
  8
M0
  6
DASHDOT
 62
     2
100
AcDbLine
 10
170.489233
 20
466.936652
 11
162.489233
 21
466.936652
  0
LINE
  5
1D2
100
AcDbEntity
  8
M0
  6
DASHDOT
 62
     2
100
AcDbLine
 10
128.664084
 20
392.937141
 11
146.314093
 21
392.937141
  0
LINE
  5
1D3
100
AcDbEntity
  8
M0
  6
DASHDOT
 62
     2
100
AcDbLine
 10
105.664084
 20
480.937141
 11
123.314093
 21
480.937141
  0
LINE
  5
1D4
100
AcDbEntity
  8
M0
  6
DASHDOT
 62
     2
100
AcDbLine
 10
114.489096
 20
472.111945
 11
114.489096
 21
489.762092
  0
LINE
  5
1D5
100
AcDbEntity
  8
M0
 62
     2
100
AcDbLine
 10
79.989233
 20
451.437141
 11
81.046545
 21
451.437141
  0
ARC
  5
1D6
100
AcDbEntity
  8
M0
 62
     2
100
AcDbCircle
 10
143.489142
 20
387.937141
 40
0.5
100
AcDbArc
 50
180.0
 51
269.998251
  0
ARC
  5
1D7
100
AcDbEntity
  8
M0
 62
     2
100
AcDbCircle
 10
131.489142
 20
387.937141
 40
0.5
100
AcDbArc
 50
269.998251
 51
360.0
  0
LINE
  5
1D8
100
AcDbEntity
  8
M0
 62
     2
100
AcDbLine
 10
131.989203
 20
483.436896
 11
131.989203
 21
481.437141
  0
LINE
  5
1D9
100
AcDbEntity
  8
M0
 62
     2
100
AcDbLine
 10
119.989142
 20
392.437125
 11
119.989142
 21
390.437125
  0
LINE
  5
1DA
100
AcDbEntity
  8
M0
 62
     2
100
AcDbLine
 10
81.077185
 20
461.036506
 11
79.989233
 21
461.036506
  0
LINE
  5
1DB
100
AcDbEntity
  8
M0
 62
     2
100
AcDbLine
 10
86.931357
 20
451.437141
 11
87.989233
 21
451.437141
  0
LINE
  5
1DC
100
AcDbEntity
  8
M0
 62
     2
100
AcDbLine
 10
86.931433
 20
422.437141
 11
87.989203
 21
422.437141
  0
LINE
  5
1DD
100
AcDbEntity
  8
M0
 62
     2
100
AcDbLine
 10
81.077109
 20
412.837775
 11
79.989233
 21
412.837775
  0
LINE
  5
1DE
100
AcDbEntity
  8
M0
 62
     2
100
AcDbLine
 10
170.90061
 20
461.036506
 11
171.989203
 21
461.036506
  0
LINE
  5
1DF
100
AcDbEntity
  8
M0
 62
     2
100
AcDbLine
 10
165.046469
 20
451.437141
 11
163.989203
 21
451.437141
  0
LINE
  5
1E0
100
AcDbEntity
  8
M0
 62
     2
100
AcDbLine
 10
165.046515
 20
422.436896
 11
163.989203
 21
422.436896
  0
LINE
  5
1E1
100
AcDbEntity
  8
M0
 62
     2
100
AcDbLine
 10
170.900702
 20
412.837775
 11
171.989172
 21
412.837775
  0
ARC
  5
1E2
100
AcDbEntity
  8
M0
 62
     2
100
AcDbCircle
 10
102.989188
 20
394.937141
 40
2.799999
100
AcDbArc
 50
212.382922
 51
327.616911
  0
ARC
  5
1E3
100
AcDbEntity
  8
M0
 62
     2
100
AcDbCircle
 10
102.989188
 20
394.937141
 40
1.799999
100
AcDbArc
 50
236.419989
 51
303.579606
  0
ARC
  5
1E4
100
AcDbEntity
  8
M0
 62
     2
100
AcDbCircle
 10
125.988974
 20
394.937385
 40
1.799999
100
AcDbArc
 50
236.433999
 51
303.565596
  0
ARC
  5
1E5
100
AcDbEntity
  8
M0
 62
     2
100
AcDbCircle
 10
125.988974
 20
394.937385
 40
2.799999
100
AcDbArc
 50
212.38855
 51
327.611019
  0
ARC
  5
1E6
100
AcDbEntity
  8
M0
 62
     2
100
AcDbCircle
 10
148.989157
 20
394.937141
 40
2.799999
100
AcDbArc
 50
212.382922
 51
327.616911
  0
ARC
  5
1E7
100
AcDbEntity
  8
M0
 62
     2
100
AcDbCircle
 10
148.989157
 20
394.937141
 40
1.799999
100
AcDbArc
 50
236.419989
 51
303.579606
  0
ARC
  5
1E8
100
AcDbEntity
  8
M0
 62
     2
100
AcDbCircle
 10
102.989233
 20
478.937141
 40
2.799999
100
AcDbArc
 50
32.396332
 51
147.603835
  0
ARC
  5
1E9
100
AcDbEntity
  8
M0
 62
     2
100
AcDbCircle
 10
102.989233
 20
478.937141
 40
1.799999
100
AcDbArc
 50
56.452457
 51
123.548353
  0
ARC
  5
1EA
100
AcDbEntity
  8
M0
 62
     2
100
AcDbCircle
 10
125.98902
 20
478.936896
 40
2.799999
100
AcDbArc
 50
32.402223
 51
147.597944
  0
ARC
  5
1EB
100
AcDbEntity
  8
M0
 62
     2
100
AcDbCircle
 10
125.98902
 20
478.936896
 40
1.799999
100
AcDbArc
 50
56.466467
 51
123.533938
  0
ARC
  5
1EC
100
AcDbEntity
  8
M0
 62
     2
100
AcDbCircle
 10
148.989203
 20
478.937141
 40
2.799999
100
AcDbArc
 50
32.396332
 51
147.603835
  0
ARC
  5
1ED
100
AcDbEntity
  8
M0
 62
     2
100
AcDbCircle
 10
148.989203
 20
478.937141
 40
1.799999
100
AcDbArc
 50
56.452457
 51
123.548353
  0
LINE
  5
1EE
100
AcDbEntity
  8
M0
100
AcDbLine
 10
134.288992
 20
426.737037
 11
133.989004
 21
426.737037
  0
LINE
  5
1EF
100
AcDbEntity
  8
M0
 62
     4
100
AcDbLine
 10
247.559714
 20
387.455543
 11
313.859518
 21
387.455543
  0
LINE
  5
1F0
100
AcDbEntity
  8
M0
 62
     4
100
AcDbLine
 10
313.859518
 20
485.45507
 11
247.559714
 21
485.454856
  0
LINE
  5
1F1
100
AcDbEntity
  8
M0
 62
     4
100
AcDbLine
 10
313.859518
 20
387.455543
 11
313.859518
 21
408.955344
  0
LINE
  5
1F2
100
AcDbEntity
  8
M0
 62
     4
100
AcDbLine
 10
247.559714
 20
392.955543
 11
313.859518
 21
392.955543
  0
LINE
  5
1F3
100
AcDbEntity
  8
M0
 62
     4
100
AcDbLine
 10
247.559714
 20
479.954856
 11
313.859518
 21
479.954856
  0
LINE
  5
1F4
100
AcDbEntity
  8
M0
 62
     4
100
AcDbLine
 10
279.759665
 20
421.823951
 11
279.759665
 21
451.086173
  0
LINE
  5
1F5
100
AcDbEntity
  8
M0
 62
     4
100
AcDbLine
 10
305.259665
 20
411.455543
 11
305.259665
 21
414.533088
  0
LINE
  5
1F6
100
AcDbEntity
  8
M0
 62
     4
100
AcDbLine
 10
306.259665
 20
410.455543
 11
307.759665
 21
410.455543
  0
LINE
  5
1F7
100
AcDbEntity
  8
M0
 62
     4
100
AcDbLine
 10
306.259665
 20
462.455314
 11
307.759665
 21
462.455314
  0
ARC
  5
1F8
100
AcDbEntity
  8
M0
 62
     4
100
AcDbCircle
 10
306.259665
 20
461.455314
 40
1.0
100
AcDbArc
 50
90.0
 51
180.0
  0
ARC
  5
1F9
100
AcDbEntity
  8
M0
 62
     4
100
AcDbCircle
 10
306.259665
 20
411.455543
 40
1.0
100
AcDbArc
 50
180.0
 51
269.999126
  0
LINE
  5
1FA
100
AcDbEntity
  8
M0
 62
     4
100
AcDbLine
 10
305.259665
 20
458.376701
 11
305.259665
 21
461.455314
  0
LINE
  5
1FB
100
AcDbEntity
  8
M0
 62
     4
100
AcDbLine
 10
305.259665
 20
392.955543
 11
305.259665
 21
387.455543
  0
LINE
  5
1FC
100
AcDbEntity
  8
M0
 62
     4
100
AcDbLine
 10
305.259665
 20
485.45507
 11
305.259665
 21
479.95507
  0
LINE
  5
1FD
100
AcDbEntity
  8
M0
 62
     4
100
AcDbLine
 10
313.859518
 20
463.955344
 11
313.859518
 21
485.955131
  0
ARC
  5
1FE
100
AcDbEntity
  8
M0
 62
     4
100
AcDbCircle
 10
300.259665
 20
414.533103
 40
5.0
100
AcDbArc
 50
0.0
 51
89.101917
  0
ARC
  5
1FF
100
AcDbEntity
  8
M0
 62
     4
100
AcDbCircle
 10
300.259665
 20
458.376945
 40
5.0
100
AcDbArc
 50
270.89808
 51
360.0
  0
LINE
  5
200
100
AcDbEntity
  8
M0
  6
DASHDOT
 62
     4
100
AcDbLine
 10
239.281515
 20
436.455344
 11
328.759665
 21
436.455344
  0
LINE
  5
201
100
AcDbEntity
  8
M0
 62
     4
100
AcDbLine
 10
245.559714
 20
483.454856
 11
245.559714
 21
389.455543
  0
ARC
  5
202
100
AcDbEntity
  8
M0
 62
     4
100
AcDbCircle
 10
247.559714
 20
483.454856
 40
2.0
100
AcDbArc
 50
90.0
 51
180.0
  0
ARC
  5
203
100
AcDbEntity
  8
M0
 62
     4
100
AcDbCircle
 10
247.559714
 20
389.455543
 40
2.0
100
AcDbArc
 50
180.0
 51
269.999563
  0
ARC
  5
204
100
AcDbEntity
  8
M0
 62
     4
100
AcDbCircle
 10
247.559714
 20
394.955543
 40
2.0
100
AcDbArc
 50
180.0
 51
269.999563
  0
ARC
  5
205
100
AcDbEntity
  8
M0
 62
     4
100
AcDbCircle
 10
247.559714
 20
477.954856
 40
2.0
100
AcDbArc
 50
90.0
 51
180.0
  0
LINE
  5
206
100
AcDbEntity
  8
M0
100
AcDbLine
 10
343.259665
 20
445.955238
 11
345.759665
 21
450.455482
  0
LINE
  5
207
100
AcDbEntity
  8
M0
100
AcDbLine
 10
309.759665
 20
386.955482
 11
345.759665
 21
386.955482
  0
LINE
  5
208
100
AcDbEntity
  8
M0
100
AcDbLine
 10
345.759665
 20
386.955482
 11
345.759665
 21
417.956107
  0
LINE
  5
209
100
AcDbEntity
  8
M0
100
AcDbLine
 10
345.759665
 20
485.955482
 11
309.759665
 21
485.955238
  0
LINE
  5
20A
100
AcDbEntity
  8
M0
100
AcDbLine
 10
279.759665
 20
451.955482
 11
279.759665
 21
420.955482
  0
LINE
  5
20B
100
AcDbEntity
  8
M0
100
AcDbLine
 10
307.759665
 20
461.955482
 11
307.759665
 21
457.955482
  0
LINE
  5
20C
100
AcDbEntity
  8
M0
100
AcDbLine
 10
281.759665
 20
418.955482
 11
299.759665
 21
418.955482
  0
LINE
  5
20D
100
AcDbEntity
  8
M0
100
AcDbLine
 10
281.759665
 20
453.955482
 11
299.759665
 21
453.955482
  0
LINE
  5
20E
100
AcDbEntity
  8
M0
100
AcDbLine
 10
307.759665
 20
414.955482
 11
307.759665
 21
410.955482
  0
ARC
  5
20F
100
AcDbEntity
  8
M0
100
AcDbCircle
 10
303.759665
 20
414.955482
 40
4.0
100
AcDbArc
 50
0.0
 51
90.0
  0
ARC
  5
210
100
AcDbEntity
  8
M0
100
AcDbCircle
 10
303.759665
 20
457.955482
 40
4.0
100
AcDbArc
 50
269.999781
 51
360.0
  0
LINE
  5
211
100
AcDbEntity
  8
M0
100
AcDbLine
 10
332.759421
 20
473.955482
 11
345.759665
 21
473.955482
  0
LINE
  5
212
100
AcDbEntity
  8
M0
100
AcDbLine
 10
332.759177
 20
398.955482
 11
345.759665
 21
398.955482
  0
LINE
  5
213
100
AcDbEntity
  8
M0
100
AcDbLine
 10
309.759665
 20
463.955482
 11
320.759665
 21
463.955482
  0
LINE
  5
214
100
AcDbEntity
  8
M0
100
AcDbLine
 10
309.759665
 20
408.955482
 11
320.759421
 21
408.955482
  0
LINE
  5
215
100
AcDbEntity
  8
M0
100
AcDbLine
 10
329.759665
 20
471.455482
 11
329.759665
 21
462.955482
  0
LINE
  5
216
100
AcDbEntity
  8
M0
100
AcDbLine
 10
321.759665
 20
462.955482
 11
329.759665
 21
462.955482
  0
LINE
  5
217
100
AcDbEntity
  8
M0
100
AcDbLine
 10
321.759421
 20
409.955482
 11
329.759421
 21
409.955482
  0
LINE
  5
218
100
AcDbEntity
  8
M0
100
AcDbLine
 10
329.759665
 20
471.455482
 11
332.759665
 21
473.955482
  0
ARC
  5
219
100
AcDbEntity
  8
M0
100
AcDbCircle
 10
309.759665
 20
461.955482
 40
2.0
100
AcDbArc
 50
90.0
 51
180.0
  0
LINE
  5
21A
100
AcDbEntity
  8
M0
100
AcDbLine
 10
329.759421
 20
401.455482
 11
332.759421
 21
398.955482
  0
LINE
  5
21B
100
AcDbEntity
  8
M0
100
AcDbLine
 10
329.759421
 20
401.455482
 11
329.759421
 21
409.955482
  0
ARC
  5
21C
100
AcDbEntity
  8
M0
100
AcDbCircle
 10
309.759665
 20
410.955482
 40
2.0
100
AcDbArc
 50
180.0
 51
269.999563
  0
ARC
  5
21D
100
AcDbEntity
  8
M0
100
AcDbCircle
 10
281.759665
 20
451.955482
 40
2.0
100
AcDbArc
 50
90.0
 51
180.0
  0
ARC
  5
21E
100
AcDbEntity
  8
M0
100
AcDbCircle
 10
281.759665
 20
420.955482
 40
2.0
100
AcDbArc
 50
180.0
 51
269.999563
  0
ARC
  5
21F
100
AcDbEntity
  8
M0
100
AcDbCircle
 10
309.759665
 20
483.955238
 40
2.0
100
AcDbArc
 50
90.0
 51
131.412097
  0
ARC
  5
220
100
AcDbEntity
  8
M0
100
AcDbCircle
 10
309.759665
 20
388.955482
 40
2.0
100
AcDbArc
 50
228.581695
 51
269.999563
  0
LINE
  5
221
100
AcDbEntity
  8
M0
100
AcDbLine
 10
286.259421
 20
440.205482
 11
286.259421
 21
432.705482
  0
LINE
  5
222
100
AcDbEntity
  8
M0
100
AcDbLine
 10
279.759665
 20
440.205482
 11
286.259421
 21
440.205482
  0
LINE
  5
223
100
AcDbEntity
  8
M0
100
AcDbLine
 10
279.759665
 20
432.705482
 11
286.259421
 21
432.705482
  0
LINE
  5
224
100
AcDbEntity
  8
M0
100
AcDbLine
 10
303.759665
 20
453.955482
 11
303.759665
 21
451.455482
  0
LINE
  5
225
100
AcDbEntity
  8
M0
100
AcDbLine
 10
299.759665
 20
453.955482
 11
299.759665
 21
451.455482
  0
LINE
  5
226
100
AcDbEntity
  8
M0
100
AcDbLine
 10
299.759665
 20
451.455482
 11
303.759665
 21
451.455482
  0
LINE
  5
227
100
AcDbEntity
  8
M0
100
AcDbLine
 10
299.759665
 20
421.455482
 11
303.759665
 21
421.455482
  0
LINE
  5
228
100
AcDbEntity
  8
M0
100
AcDbLine
 10
299.759665
 20
421.455482
 11
299.759665
 21
418.955482
  0
LINE
  5
229
100
AcDbEntity
  8
M0
100
AcDbLine
 10
303.759665
 20
421.455482
 11
303.759665
 21
418.955482
  0
LINE
  5
22A
100
AcDbEntity
  8
M0
100
AcDbLine
 10
284.759421
 20
440.205482
 11
284.759421
 21
439.205482
  0
LINE
  5
22B
100
AcDbEntity
  8
M0
100
AcDbLine
 10
284.759421
 20
439.205482
 11
286.259421
 21
439.205482
  0
LINE
  5
22C
100
AcDbEntity
  8
M0
100
AcDbLine
 10
284.759421
 20
433.705482
 11
286.259421
 21
433.705482
  0
LINE
  5
22D
100
AcDbEntity
  8
M0
100
AcDbLine
 10
284.759421
 20
433.705482
 11
284.759421
 21
432.705482
  0
LINE
  5
22E
100
AcDbEntity
  8
M0
100
AcDbLine
 10
299.759665
 20
452.937415
 11
303.759665
 21
452.937415
  0
LINE
  5
22F
100
AcDbEntity
  8
M0
100
AcDbLine
 10
299.759421
 20
419.973548
 11
303.759421
 21
419.973548
  0
LINE
  5
230
100
AcDbEntity
  8
M0
  6
DASHDOT
100
AcDbLine
 10
338.048239
 20
456.705482
 11
347.456442
 21
456.705482
  0
LINE
  5
231
100
AcDbEntity
  8
M0
  6
DASHDOT
100
AcDbLine
 10
339.679587
 20
416.205482
 11
347.492575
 21
416.205482
  0
LINE
  5
232
100
AcDbEntity
  8
M0
100
AcDbLine
 10
343.259665
 20
459.205482
 11
345.759665
 21
459.205482
  0
LINE
  5
233
100
AcDbEntity
  8
M0
100
AcDbLine
 10
343.259665
 20
454.205482
 11
345.759665
 21
454.205482
  0
LINE
  5
234
100
AcDbEntity
  8
M0
100
AcDbLine
 10
343.259665
 20
418.705482
 11
345.759665
 21
418.705482
  0
LINE
  5
235
100
AcDbEntity
  8
M0
100
AcDbLine
 10
343.259665
 20
413.705482
 11
345.759665
 21
413.705482
  0
ARC
  5
236
100
AcDbEntity
  8
M0
100
AcDbCircle
 10
343.259665
 20
456.705482
 40
2.5
100
AcDbArc
 50
90.0
 51
269.99965
  0
ARC
  5
237
100
AcDbEntity
  8
M0
100
AcDbCircle
 10
343.259665
 20
416.205482
 40
2.5
100
AcDbArc
 50
90.0
 51
269.99965
  0
LINE
  5
238
100
AcDbEntity
  8
M0
100
AcDbLine
 10
330.259665
 20
432.455482
 11
330.259665
 21
434.455482
  0
LINE
  5
239
100
AcDbEntity
  8
M0
100
AcDbLine
 10
332.259665
 20
430.455482
 11
345.759665
 21
430.455482
  0
LINE
  5
23A
100
AcDbEntity
  8
M0
100
AcDbLine
 10
332.259665
 20
442.455482
 11
343.259665
 21
442.455482
  0
LINE
  5
23B
100
AcDbEntity
  8
M0
100
AcDbLine
 10
330.527487
 20
431.455482
 11
342.759665
 21
431.455482
  0
LINE
  5
23C
100
AcDbEntity
  8
M0
100
AcDbLine
 10
330.527487
 20
441.455482
 11
340.281638
 21
441.455482
  0
LINE
  5
23D
100
AcDbEntity
  8
M0
100
AcDbLine
 10
343.259665
 20
445.955238
 11
343.259665
 21
442.455238
  0
ARC
  5
23E
100
AcDbEntity
  8
M0
100
AcDbCircle
 10
342.759665
 20
430.455482
 40
1.0
100
AcDbArc
 50
0.0
 51
90.0
  0
ARC
  5
23F
100
AcDbEntity
  8
M0
100
AcDbCircle
 10
340.259665
 20
442.455238
 40
1.0
100
AcDbArc
 50
269.999126
 51
360.0
  0
LINE
  5
240
100
AcDbEntity
  8
M0
100
AcDbLine
 10
331.259665
 20
437.455482
 11
331.259665
 21
435.455482
  0
LINE
  5
241
100
AcDbEntity
  8
M0
100
AcDbLine
 10
330.259665
 20
438.455482
 11
331.259665
 21
437.455482
  0
LINE
  5
242
100
AcDbEntity
  8
M0
100
AcDbLine
 10
330.259665
 20
434.455482
 11
331.259665
 21
435.455482
  0
LINE
  5
243
100
AcDbEntity
  8
M0
100
AcDbLine
 10
330.259665
 20
438.455482
 11
330.259665
 21
440.455482
  0
LINE
  5
244
100
AcDbEntity
  8
M0
100
AcDbLine
 10
345.759665
 20
450.455482
 11
345.759665
 21
454.205482
  0
LINE
  5
245
100
AcDbEntity
  8
M0
100
AcDbLine
 10
316.759665
 20
485.955238
 11
316.759665
 21
477.455482
  0
LINE
  5
246
100
AcDbEntity
  8
M0
100
AcDbLine
 10
313.859518
 20
477.455482
 11
316.759665
 21
477.455482
  0
LINE
  5
247
100
AcDbEntity
  8
M0
100
AcDbLine
 10
313.859518
 20
395.455482
 11
316.259421
 21
395.455482
  0
ARC
  5
248
100
AcDbEntity
  8
M0
100
AcDbCircle
 10
321.759665
 20
463.955482
 40
1.0
100
AcDbArc
 50
180.0
 51
269.999126
  0
ARC
  5
249
100
AcDbEntity
  8
M0
100
AcDbCircle
 10
321.759421
 20
408.955482
 40
1.0
100
AcDbArc
 50
90.0
 51
180.0
  0
ARC
  5
24A
100
AcDbEntity
  8
M0
100
AcDbCircle
 10
332.259665
 20
432.455482
 40
2.0
100
AcDbArc
 50
180.0
 51
269.999563
  0
ARC
  5
24B
100
AcDbEntity
  8
M0
100
AcDbCircle
 10
332.259665
 20
440.455482
 40
2.0
100
AcDbArc
 50
90.0
 51
180.0
  0
LINE
  5
24C
100
AcDbEntity
  8
M0
100
AcDbLine
 10
345.759665
 20
403.456931
 11
346.459616
 21
403.456931
  0
LINE
  5
24D
100
AcDbEntity
  8
M0
100
AcDbLine
 10
345.759665
 20
409.456931
 11
346.459616
 21
409.456931
  0
LINE
  5
24E
100
AcDbEntity
  8
M0
100
AcDbLine
 10
346.459616
 20
409.456931
 11
346.459616
 21
403.456931
  0
LINE
  5
24F
100
AcDbEntity
  8
M0
100
AcDbLine
 10
346.459616
 20
463.454017
 11
346.459616
 21
469.454017
  0
LINE
  5
250
100
AcDbEntity
  8
M0
100
AcDbLine
 10
345.759665
 20
469.454017
 11
346.459616
 21
469.454017
  0
LINE
  5
251
100
AcDbEntity
  8
M0
100
AcDbLine
 10
345.759665
 20
463.454017
 11
346.459616
 21
463.454017
  0
LINE
  5
252
100
AcDbEntity
  8
M0
100
AcDbLine
 10
345.759665
 20
418.705482
 11
345.759665
 21
430.455482
  0
LINE
  5
253
100
AcDbEntity
  8
M0
100
AcDbLine
 10
345.759665
 20
455.657386
 11
345.759665
 21
485.955482
  0
LINE
  5
254
100
AcDbEntity
  8
M0
100
AcDbLine
 10
340.989889
 20
455.657386
 11
345.759665
 21
455.657386
  0
LINE
  5
255
100
AcDbEntity
  8
M0
100
AcDbLine
 10
341.474753
 20
417.956107
 11
345.759665
 21
417.956107
  0
LINE
  5
256
100
AcDbEntity
  8
M0
100
AcDbLine
 10
137.288992
 20
420.737144
 11
137.288992
 21
423.737144
  0
LINE
  5
257
100
AcDbEntity
  8
M0
100
AcDbLine
 10
114.688986
 20
423.737144
 11
114.688986
 21
420.737144
  0
LINE
  5
258
100
AcDbEntity
  8
M0
100
AcDbLine
 10
114.688986
 20
420.737144
 11
137.288992
 21
420.737144
  0
ARC
  5
259
100
AcDbEntity
  8
M0
100
AcDbCircle
 10
134.288992
 20
423.737144
 40
3.0
100
AcDbArc
 50
0.0
 51
90.0
  0
ARC
  5
25A
100
AcDbEntity
  8
M0
100
AcDbCircle
 10
117.688986
 20
423.737144
 40
3.0
100
AcDbArc
 50
84.260757
 51
180.0
  0
LINE
  5
25B
100
AcDbEntity
  8
M0
100
AcDbLine
 10
133.988989
 20
426.737144
 11
133.988989
 21
430.737144
  0
LINE
  5
25C
100
AcDbEntity
  8
M0
100
AcDbLine
 10
134.288992
 20
430.737144
 11
133.988989
 21
430.737144
  0
LINE
  5
25D
100
AcDbEntity
  8
M0
100
AcDbLine
 10
117.988989
 20
430.737144
 11
117.988989
 21
426.737144
  0
LINE
  5
25E
100
AcDbEntity
  8
M0
100
AcDbLine
 10
117.688986
 20
447.037147
 11
121.988989
 21
447.037147
  0
LINE
  5
25F
100
AcDbEntity
  8
M0
100
AcDbLine
 10
124.489004
 20
452.737144
 11
127.489004
 21
452.737144
  0
LINE
  5
260
100
AcDbEntity
  8
M0
100
AcDbLine
 10
137.288992
 20
444.037147
 11
137.288992
 21
433.737144
  0
LINE
  5
261
100
AcDbEntity
  8
M0
100
AcDbLine
 10
114.688986
 20
444.037147
 11
114.688986
 21
433.737144
  0
LINE
  5
262
100
AcDbEntity
  8
M0
100
AcDbLine
 10
128.489004
 20
451.737144
 11
128.488989
 21
448.737144
  0
LINE
  5
263
100
AcDbEntity
  8
M0
100
AcDbLine
 10
123.489004
 20
451.737144
 11
123.488989
 21
448.737144
  0
LINE
  5
264
100
AcDbEntity
  8
M0
100
AcDbLine
 10
129.988989
 20
449.437141
 11
129.988989
 21
447.037147
  0
LINE
  5
265
100
AcDbEntity
  8
M0
100
AcDbLine
 10
121.988989
 20
449.437141
 11
121.988989
 21
447.037147
  0
ARC
  5
266
100
AcDbEntity
  8
M0
100
AcDbCircle
 10
127.489004
 20
451.737144
 40
1.0
100
AcDbArc
 50
0.0
 51
90.0
  0
ARC
  5
267
100
AcDbEntity
  8
M0
100
AcDbCircle
 10
124.489004
 20
451.737144
 40
1.0
100
AcDbArc
 50
90.0
 51
180.0
  0
LINE
  5
268
100
AcDbEntity
  8
M0
100
AcDbLine
 10
129.988989
 20
448.737144
 11
128.488989
 21
448.737144
  0
LINE
  5
269
100
AcDbEntity
  8
M0
100
AcDbLine
 10
129.988989
 20
449.437141
 11
128.488989
 21
449.437141
  0
LINE
  5
26A
100
AcDbEntity
  8
M0
100
AcDbLine
 10
123.488989
 20
448.737144
 11
121.988989
 21
448.737144
  0
LINE
  5
26B
100
AcDbEntity
  8
M0
100
AcDbLine
 10
123.488989
 20
449.437141
 11
121.988989
 21
449.437141
  0
ARC
  5
26C
100
AcDbEntity
  8
M0
100
AcDbCircle
 10
134.288992
 20
444.037147
 40
3.0
100
AcDbArc
 50
0.0
 51
90.0
  0
ARC
  5
26D
100
AcDbEntity
  8
M0
100
AcDbCircle
 10
117.688986
 20
444.037147
 40
3.0
100
AcDbArc
 50
90.0
 51
180.0
  0
ARC
  5
26E
100
AcDbEntity
  8
M0
100
AcDbCircle
 10
117.688986
 20
433.737144
 40
3.0
100
AcDbArc
 50
180.0
 51
269.999709
  0
ARC
  5
26F
100
AcDbEntity
  8
M0
100
AcDbCircle
 10
134.288992
 20
433.737144
 40
3.0
100
AcDbArc
 50
269.999709
 51
360.0
  0
LINE
  5
270
100
AcDbEntity
  8
M0
100
AcDbLine
 10
129.988989
 20
447.037147
 11
134.288992
 21
447.037147
  0
LINE
  5
271
100
AcDbEntity
  8
M0
100
AcDbLine
 10
117.988989
 20
430.737144
 11
117.688986
 21
430.737144
  0
LINE
  5
272
100
AcDbEntity
  8
M0
100
AcDbLine
 10
122.98902
 20
434.686988
 11
128.98902
 21
434.686988
  0
LINE
  5
273
100
AcDbEntity
  8
M0
100
AcDbLine
 10
128.98902
 20
434.686988
 11
128.98902
 21
439.186988
  0
LINE
  5
274
100
AcDbEntity
  8
M0
100
AcDbLine
 10
128.98902
 20
439.186988
 11
122.98902
 21
439.186988
  0
LINE
  5
275
100
AcDbEntity
  8
M0
100
AcDbLine
 10
122.98902
 20
439.186988
 11
122.98902
 21
434.686988
  0
LINE
  5
276
100
AcDbEntity
  8
M0
100
AcDbLine
 10
398.559561
 20
498.455344
 11
382.559561
 21
498.455344
  0
LINE
  5
277
100
AcDbEntity
  8
M0
  6
DASHDOT
100
AcDbLine
 10
335.659567
 20
436.455344
 11
408.559561
 21
436.455344
  0
LINE
  5
278
100
AcDbEntity
  8
M0
100
AcDbLine
 10
399.059561
 20
497.455344
 11
399.059561
 21
485.455344
  0
LINE
  5
279
100
AcDbEntity
  8
M0
100
AcDbLine
 10
381.559561
 20
497.413673
 11
381.559561
 21
485.455344
  0
LINE
  5
27A
100
AcDbEntity
  8
M0
100
AcDbLine
 10
382.559561
 20
498.455344
 11
382.559561
 21
486.455344
  0
ARC
  5
27B
100
AcDbEntity
  8
M0
100
AcDbCircle
 10
358.259558
 20
441.455344
 40
2.0
100
AcDbArc
 50
0.0
 51
90.0
  0
LINE
  5
27C
100
AcDbEntity
  8
M0
100
AcDbLine
 10
380.559561
 20
484.455344
 11
345.759558
 21
484.455344
  0
LINE
  5
27D
100
AcDbEntity
  8
M0
100
AcDbLine
 10
370.559561
 20
485.955344
 11
345.759558
 21
485.955344
  0
LINE
  5
27E
100
AcDbEntity
  8
M0
100
AcDbLine
 10
370.559561
 20
485.955344
 11
382.559561
 21
498.455344
  0
ARC
  5
27F
100
AcDbEntity
  8
M0
100
AcDbCircle
 10
380.559561
 20
485.455344
 40
1.0
100
AcDbArc
 50
269.999126
 51
360.0
  0
ARC
  5
280
100
AcDbEntity
  8
M0
100
AcDbCircle
 10
380.559561
 20
486.455344
 40
2.0
100
AcDbArc
 50
269.999563
 51
360.0
  0
LINE
  5
281
100
AcDbEntity
  8
M0
100
AcDbLine
 10
398.559561
 20
469.455344
 11
399.059561
 21
469.455344
  0
LINE
  5
282
100
AcDbEntity
  8
M0
100
AcDbLine
 10
398.559561
 20
479.455344
 11
399.059561
 21
479.455344
  0
LINE
  5
283
100
AcDbEntity
  8
M0
100
AcDbLine
 10
398.559561
 20
485.455344
 11
399.059561
 21
485.455344
  0
LINE
  5
284
100
AcDbEntity
  8
M0
100
AcDbLine
 10
398.559561
 20
497.455344
 11
399.059561
 21
497.455344
  0
LINE
  5
285
100
AcDbEntity
  8
M0
100
AcDbLine
 10
399.059561
 20
479.455344
 11
399.059561
 21
469.455344
  0
LINE
  5
286
100
AcDbEntity
  8
M0
100
AcDbLine
 10
398.559561
 20
436.455344
 11
398.559561
 21
498.455344
  0
LINE
  5
287
100
AcDbEntity
  8
M0
100
AcDbLine
 10
360.259558
 20
436.455344
 11
360.259558
 21
441.455344
  0
LINE
  5
288
100
AcDbEntity
  8
M0
100
AcDbLine
 10
343.759558
 20
443.455344
 11
358.259558
 21
443.455344
  0
LINE
  5
289
100
AcDbEntity
  8
M0
100
AcDbLine
 10
343.759558
 20
445.455344
 11
345.759558
 21
449.955344
  0
LINE
  5
28A
100
AcDbEntity
  8
M0
100
AcDbLine
 10
345.759558
 20
485.955344
 11
345.759558
 21
449.955344
  0
LINE
  5
28B
100
AcDbEntity
  8
M0
100
AcDbLine
 10
343.759558
 20
443.455344
 11
343.759558
 21
445.455344
  0
LINE
  5
28C
100
AcDbEntity
  8
M0
100
AcDbLine
 10
398.559561
 20
374.455344
 11
382.559561
 21
374.455344
  0
LINE
  5
28D
100
AcDbEntity
  8
M0
  6
DASHDOT
100
AcDbLine
 10
335.659567
 20
436.455344
 11
408.559561
 21
436.455344
  0
LINE
  5
28E
100
AcDbEntity
  8
M0
100
AcDbLine
 10
399.059561
 20
375.455344
 11
399.059561
 21
387.455344
  0
LINE
  5
28F
100
AcDbEntity
  8
M0
100
AcDbLine
 10
381.559561
 20
375.497016
 11
381.559561
 21
387.455344
  0
LINE
  5
290
100
AcDbEntity
  8
M0
100
AcDbLine
 10
382.559561
 20
374.455344
 11
382.559561
 21
386.455344
  0
ARC
  5
291
100
AcDbEntity
  8
M0
100
AcDbCircle
 10
358.259558
 20
431.455344
 40
2.0
100
AcDbArc
 50
-90.000437
 51
0.0
  0
LINE
  5
292
100
AcDbEntity
  8
M0
100
AcDbLine
 10
380.559561
 20
388.455344
 11
345.759558
 21
388.455344
  0
LINE
  5
293
100
AcDbEntity
  8
M0
100
AcDbLine
 10
370.559561
 20
386.955344
 11
345.759558
 21
386.955344
  0
LINE
  5
294
100
AcDbEntity
  8
M0
100
AcDbLine
 10
370.559561
 20
386.955344
 11
382.559561
 21
374.455344
  0
ARC
  5
295
100
AcDbEntity
  8
M0
100
AcDbCircle
 10
380.559561
 20
387.455344
 40
1.0
100
AcDbArc
 50
0.0
 51
90.0
  0
ARC
  5
296
100
AcDbEntity
  8
M0
100
AcDbCircle
 10
380.559561
 20
386.455344
 40
2.0
100
AcDbArc
 50
0.0
 51
90.0
  0
LINE
  5
297
100
AcDbEntity
  8
M0
100
AcDbLine
 10
398.559561
 20
403.455344
 11
399.059561
 21
403.455344
  0
LINE
  5
298
100
AcDbEntity
  8
M0
100
AcDbLine
 10
398.559561
 20
393.455344
 11
399.059561
 21
393.455344
  0
LINE
  5
299
100
AcDbEntity
  8
M0
100
AcDbLine
 10
398.559561
 20
387.455344
 11
399.059561
 21
387.455344
  0
LINE
  5
29A
100
AcDbEntity
  8
M0
100
AcDbLine
 10
398.559561
 20
375.455344
 11
399.059561
 21
375.455344
  0
LINE
  5
29B
100
AcDbEntity
  8
M0
100
AcDbLine
 10
399.059561
 20
393.455344
 11
399.059561
 21
403.455344
  0
LINE
  5
29C
100
AcDbEntity
  8
M0
100
AcDbLine
 10
398.559561
 20
436.455344
 11
398.559561
 21
374.455344
  0
LINE
  5
29D
100
AcDbEntity
  8
M0
100
AcDbLine
 10
360.259558
 20
436.455344
 11
360.259558
 21
431.455344
  0
LINE
  5
29E
100
AcDbEntity
  8
M0
100
AcDbLine
 10
345.759558
 20
429.455344
 11
358.259558
 21
429.455344
  0
LINE
  5
29F
100
AcDbEntity
  8
M0
100
AcDbLine
 10
345.759558
 20
386.955344
 11
345.759558
 21
429.455344
  0
ARC
  5
2A0
100
AcDbEntity
  8
M0
100
AcDbCircle
 10
168.73902
 20
491.937034
 40
7.0
100
AcDbArc
 50
0.0
 51
90.0
  0
ARC
  5
2A1
100
AcDbEntity
  8
M0
100
AcDbCircle
 10
83.23902
 20
491.937034
 40
7.0
100
AcDbArc
 50
90.0
 51
180.0
  0
LINE
  5
2A2
100
AcDbEntity
  8
M0
100
AcDbLine
 10
76.23902
 20
491.937034
 11
76.23902
 21
474.436546
  0
ARC
  5
2A3
100
AcDbEntity
  8
M0
100
AcDbCircle
 10
83.23902
 20
381.937034
 40
7.0
100
AcDbArc
 50
180.0
 51
269.999875
  0
LINE
  5
2A4
100
AcDbEntity
  8
M0
100
AcDbLine
 10
175.73902
 20
381.937034
 11
175.73902
 21
399.503928
  0
ARC
  5
2A5
100
AcDbEntity
  8
M0
100
AcDbCircle
 10
168.73902
 20
381.937034
 40
7.0
100
AcDbArc
 50
269.999875
 51
360.0
  0
LINE
  5
2A6
100
AcDbEntity
  8
M0
100
AcDbLine
 10
152.98902
 20
486.437034
 11
131.48902
 21
486.437034
  0
LINE
  5
2A7
100
AcDbEntity
  8
M0
100
AcDbLine
 10
152.98902
 20
387.437034
 11
98.98902
 21
387.437034
  0
ARC
  5
2A8
100
AcDbEntity
  8
M0
100
AcDbCircle
 10
169.23902
 20
491.937034
 40
2.75
100
AcDbArc
 50
269.999682
 51
450.0
  0
LINE
  5
2A9
100
AcDbEntity
  8
M0
100
AcDbLine
 10
169.23902
 20
494.687034
 11
168.98902
 21
494.687034
  0
LINE
  5
2AA
100
AcDbEntity
  8
M0
100
AcDbLine
 10
167.0371
 20
489.187034
 11
169.23902
 21
489.187034
  0
LINE
  5
2AB
100
AcDbEntity
  8
M0
  6
DASHDOT
100
AcDbLine
 10
153.98902
 20
491.937034
 11
181.98902
 21
491.937034
  0
LINE
  5
2AC
100
AcDbEntity
  8
M0
  6
DASHDOT
100
AcDbLine
 10
167.98902
 20
479.187034
 11
167.98902
 21
504.687034
  0
LINE
  5
2AD
100
AcDbEntity
  8
M0
100
AcDbLine
 10
84.940939
 20
384.687034
 11
82.73902
 21
384.687034
  0
ARC
  5
2AE
100
AcDbEntity
  8
M0
100
AcDbCircle
 10
82.73902
 20
381.937034
 40
2.75
100
AcDbArc
 50
90.0
 51
269.999682
  0
LINE
  5
2AF
100
AcDbEntity
  8
M0
100
AcDbLine
 10
82.73902
 20
379.187034
 11
82.988974
 21
379.187034
  0
LINE
  5
2B0
100
AcDbEntity
  8
M0
  6
DASHDOT
100
AcDbLine
 10
69.98902
 20
381.937034
 11
97.98902
 21
381.937034
  0
LINE
  5
2B1
100
AcDbEntity
  8
M0
  6
DASHDOT
100
AcDbLine
 10
83.98902
 20
369.187034
 11
83.98902
 21
394.687034
  0
LINE
  5
2B2
100
AcDbEntity
  8
M0
100
AcDbLine
 10
175.73902
 20
474.370155
 11
175.73902
 21
491.937034
  0
LINE
  5
2B3
100
AcDbEntity
  8
M0
100
AcDbLine
 10
76.23902
 20
399.437019
 11
76.23902
 21
381.937034
  0
LINE
  5
2B4
100
AcDbEntity
  8
M0
100
AcDbLine
 10
120.48902
 20
486.437034
 11
98.98902
 21
486.437034
  0
LINE
  5
2B5
100
AcDbEntity
  8
M0
100
AcDbLine
 10
135.989063
 20
504.937007
 11
115.989063
 21
504.937014
  0
LINE
  5
2B6
100
AcDbEntity
  8
M0
  6
DASHDOT
100
AcDbLine
 10
125.989016
 20
354.019171
 11
125.989066
 21
514.93701
  0
LINE
  5
2B7
100
AcDbEntity
  8
M0
100
AcDbLine
 10
120.153425
 20
487.235352
 11
115.989059
 21
490.937014
  0
ARC
  5
2B8
100
AcDbEntity
  8
M0
100
AcDbCircle
 10
119.489057
 20
486.487946
 40
1.0
100
AcDbArc
 50
359.999108
 51
408.365571
  0
ARC
  5
2B9
100
AcDbEntity
  8
M0
100
AcDbCircle
 10
132.489057
 20
486.487942
 40
1.0
100
AcDbArc
 50
131.634393
 51
179.999982
  0
LINE
  5
2BA
100
AcDbEntity
  8
M0
100
AcDbLine
 10
115.989063
 20
504.937014
 11
115.989059
 21
490.937014
  0
LINE
  5
2BB
100
AcDbEntity
  8
M0
100
AcDbLine
 10
131.82469
 20
487.235348
 11
135.989059
 21
490.937007
  0
LINE
  5
2BC
100
AcDbEntity
  8
M0
100
AcDbLine
 10
135.989059
 20
490.937007
 11
135.989063
 21
504.937007
  0
LINE
  5
2BD
100
AcDbEntity
  8
M0
100
AcDbLine
 10
120.489057
 20
485.936921
 11
120.489057
 21
486.487946
  0
LINE
  5
2BE
100
AcDbEntity
  8
M0
100
AcDbLine
 10
131.489055
 20
480.437177
 11
131.489057
 21
486.487943
  0
LINE
  5
2BF
100
AcDbEntity
  8
M0
  6
DASHDOT
100
AcDbLine
 10
138.989061
 20
496.937006
 11
112.989061
 21
496.937015
  0
ARC
  5
2C0
100
AcDbEntity
  8
M0
100
AcDbCircle
 10
125.989055
 20
478.93701
 40
2.0
100
AcDbArc
 50
48.597506
 51
131.402785
  0
LINE
  5
2C1
100
AcDbEntity
  8
M0
100
AcDbLine
 10
135.988905
 20
368.93722
 11
115.988905
 21
368.937201
  0
LINE
  5
2C2
100
AcDbEntity
  8
M0
100
AcDbLine
 10
120.153256
 20
386.638865
 11
115.988891
 21
382.937201
  0
ARC
  5
2C3
100
AcDbEntity
  8
M0
100
AcDbCircle
 10
119.488887
 20
387.386271
 40
1.0
100
AcDbArc
 50
311.632649
 51
359.99918
  0
ARC
  5
2C4
100
AcDbEntity
  8
M0
100
AcDbCircle
 10
132.488887
 20
387.386283
 40
1.0
100
AcDbArc
 50
180.000054
 51
228.365571
  0
LINE
  5
2C5
100
AcDbEntity
  8
M0
100
AcDbLine
 10
115.988905
 20
368.937201
 11
115.988891
 21
382.937201
  0
LINE
  5
2C6
100
AcDbEntity
  8
M0
100
AcDbLine
 10
131.82452
 20
386.638876
 11
135.988891
 21
382.93722
  0
LINE
  5
2C7
100
AcDbEntity
  8
M0
100
AcDbLine
 10
135.988891
 20
382.93722
 11
135.988905
 21
368.93722
  0
LINE
  5
2C8
100
AcDbEntity
  8
M0
100
AcDbLine
 10
120.488887
 20
387.437205
 11
120.488887
 21
387.386272
  0
LINE
  5
2C9
100
AcDbEntity
  8
M0
  6
DASHDOT
100
AcDbLine
 10
138.988897
 20
376.937223
 11
112.988897
 21
376.937198
  0
ARC
  5
2CA
100
AcDbEntity
  8
M0
100
AcDbCircle
 10
125.98888
 20
394.937211
 40
2.0
100
AcDbArc
 50
228.573361
 51
311.426419
  0
LINE
  5
2CB
100
AcDbEntity
  8
M0
100
AcDbLine
 10
142.989127
 20
385.937141
 11
142.989127
 21
387.437141
  0
LINE
  5
2CC
100
AcDbEntity
  8
M0
100
AcDbLine
 10
313.559531
 20
504.937125
 11
316.759482
 21
504.937125
  0
LINE
  5
2CD
100
AcDbEntity
  8
M0
100
AcDbLine
 10
313.559531
 20
504.937125
 11
313.559531
 21
485.955192
  0
LINE
  5
2CE
100
AcDbEntity
  8
M0
100
AcDbLine
 10
316.759482
 20
504.937125
 11
316.759482
 21
485.955192
  0
LINE
  5
2CF
100
AcDbEntity
  8
M0
100
AcDbLine
 10
319.759482
 20
367.973823
 11
319.759482
 21
386.95568
  0
LINE
  5
2D0
100
AcDbEntity
  8
M0
100
AcDbLine
 10
316.559531
 20
367.973823
 11
319.759482
 21
367.973823
  0
LINE
  5
2D1
100
AcDbEntity
  8
M0
100
AcDbLine
 10
316.559531
 20
367.973823
 11
316.559531
 21
386.955695
  0
LINE
  5
2D2
100
AcDbEntity
  8
M0
  6
DASHED
100
AcDbLine
 10
141.48902
 20
524.937125
 11
141.48902
 21
486.436637
  0
LINE
  5
2D3
100
AcDbEntity
  8
M0
  6
DASHED
100
AcDbLine
 10
110.48902
 20
524.937125
 11
110.48902
 21
486.436393
  0
LINE
  5
2D4
100
AcDbEntity
  8
M0
  6
DASHED
100
AcDbLine
 10
108.98902
 20
524.937125
 11
108.98902
 21
486.436393
  0
LINE
  5
2D5
100
AcDbEntity
  8
M0
  6
DASHED
100
AcDbLine
 10
142.98902
 20
524.937125
 11
142.98902
 21
486.436637
  0
LINE
  5
2D6
100
AcDbEntity
  8
M0
  6
DASHED
100
AcDbLine
 10
108.98902
 20
524.937125
 11
110.48902
 21
524.937125
  0
LINE
  5
2D7
100
AcDbEntity
  8
M0
  6
DASHED
100
AcDbLine
 10
108.98902
 20
348.937141
 11
110.48902
 21
348.937141
  0
LINE
  5
2D8
100
AcDbEntity
  8
M0
  6
DASHED
100
AcDbLine
 10
141.48902
 20
348.937141
 11
142.98902
 21
348.937141
  0
LINE
  5
2D9
100
AcDbEntity
  8
M0
  6
DASHED
100
AcDbLine
 10
141.48902
 20
524.937125
 11
142.98902
 21
524.937125
  0
LINE
  5
2DA
100
AcDbEntity
  8
M0
  6
DASHED
100
AcDbLine
 10
108.98902
 20
387.437141
 11
108.98902
 21
348.937141
  0
LINE
  5
2DB
100
AcDbEntity
  8
M0
  6
DASHED
100
AcDbLine
 10
110.48902
 20
387.437141
 11
110.48902
 21
348.937141
  0
LINE
  5
2DC
100
AcDbEntity
  8
M0
  6
DASHED
100
AcDbLine
 10
141.48902
 20
387.437141
 11
141.48902
 21
348.937141
  0
LINE
  5
2DD
100
AcDbEntity
  8
M0
  6
DASHED
100
AcDbLine
 10
142.98902
 20
387.437141
 11
142.98902
 21
348.937141
  0
LINE
  5
2DE
100
AcDbEntity
  8
M0
100
AcDbLine
 10
168.989075
 20
504.937006
 11
148.989075
 21
504.937012
  0
LINE
  5
2DF
100
AcDbEntity
  8
M0
100
AcDbLine
 10
145.89509
 20
486.436677
 11
148.98907
 21
490.937012
  0
LINE
  5
2E0
100
AcDbEntity
  8
M0
100
AcDbLine
 10
168.98907
 20
490.937006
 11
168.989075
 21
504.937006
  0
LINE
  5
2E1
100
AcDbEntity
  8
M0
100
AcDbLine
 10
148.989075
 20
504.937012
 11
148.98907
 21
490.937012
  0
LINE
  5
2E2
100
AcDbEntity
  8
M0
100
AcDbLine
 10
161.489236
 20
484.213025
 11
168.98907
 21
490.937006
  0
LINE
  5
2E3
100
AcDbEntity
  8
M0
  6
DASHDOT
100
AcDbLine
 10
158.989068
 20
483.937009
 11
158.989076
 21
509.937009
  0
LINE
  5
2E4
100
AcDbEntity
  8
M0
  6
DASHDOT
100
AcDbLine
 10
171.989072
 20
496.937005
 11
145.989072
 21
496.937013
  0
LINE
  5
2E5
100
AcDbEntity
  8
M0
  6
DASHDOT
100
AcDbLine
 10
148.989063
 20
466.937012
 11
148.98907
 21
490.937012
  0
LINE
  5
2E6
100
AcDbEntity
  8
M0
  6
DASHDOT
100
AcDbLine
 10
160.989067
 20
478.937008
 11
136.989067
 21
478.937016
  0
ARC
  5
2E7
100
AcDbEntity
  8
M0
100
AcDbCircle
 10
148.989067
 20
478.937012
 40
2.0
100
AcDbArc
 50
48.597506
 51
131.402785
  0
LINE
  5
2E8
100
AcDbEntity
  8
M0
100
AcDbLine
 10
82.988934
 20
504.937053
 11
102.988934
 21
504.937059
  0
LINE
  5
2E9
100
AcDbEntity
  8
M0
100
AcDbLine
 10
106.083041
 20
486.436541
 11
102.988939
 21
490.937059
  0
LINE
  5
2EA
100
AcDbEntity
  8
M0
100
AcDbLine
 10
82.988939
 20
490.937053
 11
82.988934
 21
504.937053
  0
LINE
  5
2EB
100
AcDbEntity
  8
M0
100
AcDbLine
 10
102.988934
 20
504.937059
 11
102.988939
 21
490.937059
  0
LINE
  5
2EC
100
AcDbEntity
  8
M0
100
AcDbLine
 10
90.488773
 20
484.213071
 11
82.988939
 21
490.937053
  0
LINE
  5
2ED
100
AcDbEntity
  8
M0
  6
DASHDOT
100
AcDbLine
 10
92.988941
 20
483.937056
 11
92.988933
 21
509.937056
  0
LINE
  5
2EE
100
AcDbEntity
  8
M0
  6
DASHDOT
100
AcDbLine
 10
79.988937
 20
496.937052
 11
105.988937
 21
496.93706
  0
LINE
  5
2EF
100
AcDbEntity
  8
M0
  6
DASHDOT
100
AcDbLine
 10
102.988946
 20
466.937059
 11
102.988939
 21
490.937059
  0
LINE
  5
2F0
100
AcDbEntity
  8
M0
  6
DASHDOT
100
AcDbLine
 10
90.988942
 20
478.937055
 11
114.988942
 21
478.937063
  0
ARC
  5
2F1
100
AcDbEntity
  8
M0
100
AcDbCircle
 10
102.988942
 20
478.937059
 40
2.0
100
AcDbArc
 50
48.596308
 51
131.404055
  0
LINE
  5
2F2
100
AcDbEntity
  8
M0
100
AcDbLine
 10
82.988962
 20
368.937129
 11
102.988962
 21
368.937135
  0
LINE
  5
2F3
100
AcDbEntity
  8
M0
100
AcDbLine
 10
106.082722
 20
387.437167
 11
102.988958
 21
382.937135
  0
LINE
  5
2F4
100
AcDbEntity
  8
M0
100
AcDbLine
 10
82.988958
 20
382.937129
 11
82.988962
 21
368.937129
  0
LINE
  5
2F5
100
AcDbEntity
  8
M0
100
AcDbLine
 10
102.988962
 20
368.937135
 11
102.988958
 21
382.937135
  0
LINE
  5
2F6
100
AcDbEntity
  8
M0
100
AcDbLine
 10
90.488788
 20
389.661115
 11
82.988958
 21
382.937129
  0
LINE
  5
2F7
100
AcDbEntity
  8
M0
  6
DASHDOT
100
AcDbLine
 10
92.988956
 20
389.937132
 11
92.988964
 21
363.937132
  0
LINE
  5
2F8
100
AcDbEntity
  8
M0
  6
DASHDOT
100
AcDbLine
 10
79.98896
 20
376.937128
 11
105.98896
 21
376.937136
  0
LINE
  5
2F9
100
AcDbEntity
  8
M0
  6
DASHDOT
100
AcDbLine
 10
102.988951
 20
406.937135
 11
102.988958
 21
382.937135
  0
LINE
  5
2FA
100
AcDbEntity
  8
M0
  6
DASHDOT
100
AcDbLine
 10
90.988954
 20
394.937131
 11
114.988954
 21
394.937139
  0
ARC
  5
2FB
100
AcDbEntity
  8
M0
100
AcDbCircle
 10
102.988954
 20
394.937135
 40
2.0
100
AcDbArc
 50
228.572091
 51
311.427617
  0
LINE
  5
2FC
100
AcDbEntity
  8
M0
100
AcDbLine
 10
168.988939
 20
368.937224
 11
148.988939
 21
368.937205
  0
LINE
  5
2FD
100
AcDbEntity
  8
M0
100
AcDbLine
 10
144.989119
 20
388.755103
 11
148.988926
 21
382.937205
  0
LINE
  5
2FE
100
AcDbEntity
  8
M0
100
AcDbLine
 10
168.988926
 20
382.937224
 11
168.988939
 21
368.937224
  0
LINE
  5
2FF
100
AcDbEntity
  8
M0
100
AcDbLine
 10
148.988939
 20
368.937205
 11
148.988926
 21
382.937205
  0
LINE
  5
300
100
AcDbEntity
  8
M0
100
AcDbLine
 10
161.489088
 20
389.661201
 11
168.988926
 21
382.937224
  0
LINE
  5
301
100
AcDbEntity
  8
M0
  6
DASHDOT
100
AcDbLine
 10
158.98892
 20
389.937215
 11
158.988944
 21
363.937215
  0
LINE
  5
302
100
AcDbEntity
  8
M0
  6
DASHDOT
100
AcDbLine
 10
171.988932
 20
376.937227
 11
145.988932
 21
376.937203
  0
LINE
  5
303
100
AcDbEntity
  8
M0
  6
DASHDOT
100
AcDbLine
 10
148.988904
 20
406.937205
 11
148.988926
 21
382.937205
  0
LINE
  5
304
100
AcDbEntity
  8
M0
  6
DASHDOT
100
AcDbLine
 10
160.988915
 20
394.937217
 11
136.988915
 21
394.937194
  0
ARC
  5
305
100
AcDbEntity
  8
M0
100
AcDbCircle
 10
148.988915
 20
394.937205
 40
2.0
100
AcDbArc
 50
228.573361
 51
311.426419
  0
LINE
  5
306
100
AcDbEntity
  8
M0
  6
DASHDOT
100
AcDbLine
 10
83.989203
 20
450.099174
 11
83.988577
 21
462.828696
  0
LINE
  5
307
100
AcDbEntity
  8
M0
100
AcDbLine
 10
85.389105
 20
453.836631
 11
87.209174
 21
453.836631
  0
LINE
  5
308
100
AcDbEntity
  8
M0
100
AcDbLine
 10
82.589056
 20
453.836631
 11
80.768988
 21
453.836631
  0
LINE
  5
309
100
AcDbEntity
  8
M0
100
AcDbLine
 10
81.508246
 20
452.63668
 11
86.469916
 21
452.63668
  0
LINE
  5
30A
100
AcDbEntity
  8
M0
100
AcDbLine
 10
85.389105
 20
453.836631
 11
85.389105
 21
454.283408
  0
LINE
  5
30B
100
AcDbEntity
  8
M0
100
AcDbLine
 10
82.589056
 20
453.836631
 11
82.589056
 21
454.283408
  0
ARC
  5
30C
100
AcDbEntity
  8
M0
100
AcDbCircle
 10
81.508246
 20
453.13668
 40
0.5
100
AcDbArc
 50
197.11777
 51
269.998251
  0
ARC
  5
30D
100
AcDbEntity
  8
M0
100
AcDbCircle
 10
86.469916
 20
453.13668
 40
0.5
100
AcDbArc
 50
269.998251
 51
342.874517
  0
LINE
  5
30E
100
AcDbEntity
  8
M0
  6
DASHDOT
 62
     6
100
AcDbLine
 10
77.665366
 20
456.936729
 11
90.101157
 21
456.936729
  0
CIRCLE
  5
30F
100
AcDbEntity
  8
M0
100
AcDbCircle
 10
83.989203
 20
456.936729
 40
3.0
  0
LINE
  5
310
100
AcDbEntity
  8
M0
100
AcDbLine
 10
81.030218
 20
460.883994
 11
80.214056
 21
458.236777
  0
LINE
  5
311
100
AcDbEntity
  8
M0
100
AcDbLine
 10
81.030218
 20
452.989463
 11
80.214056
 21
455.63668
  0
LINE
  5
312
100
AcDbEntity
  8
M0
100
AcDbLine
 10
86.947699
 20
460.883994
 11
87.764105
 21
458.236777
  0
LINE
  5
313
100
AcDbEntity
  8
M0
100
AcDbLine
 10
86.947699
 20
452.989463
 11
87.764105
 21
455.63668
  0
LINE
  5
314
100
AcDbEntity
  8
M0
100
AcDbLine
 10
85.389105
 20
460.036582
 11
87.209174
 21
460.036582
  0
LINE
  5
315
100
AcDbEntity
  8
M0
100
AcDbLine
 10
86.310736
 20
458.836631
 11
87.579047
 21
458.836631
  0
LINE
  5
316
100
AcDbEntity
  8
M0
100
AcDbLine
 10
86.310736
 20
455.036582
 11
87.579047
 21
455.036582
  0
LINE
  5
317
100
AcDbEntity
  8
M0
100
AcDbLine
 10
82.589056
 20
460.036582
 11
80.768988
 21
460.036582
  0
LINE
  5
318
100
AcDbEntity
  8
M0
100
AcDbLine
 10
81.667425
 20
458.836631
 11
80.399115
 21
458.836631
  0
LINE
  5
319
100
AcDbEntity
  8
M0
100
AcDbLine
 10
81.667425
 20
455.036582
 11
80.399115
 21
455.036582
  0
LINE
  5
31A
100
AcDbEntity
  8
M0
100
AcDbLine
 10
87.764105
 20
455.63668
 11
87.764105
 21
458.236777
  0
LINE
  5
31B
100
AcDbEntity
  8
M0
100
AcDbLine
 10
86.469916
 20
461.236777
 11
81.508246
 21
461.236533
  0
LINE
  5
31C
100
AcDbEntity
  8
M0
100
AcDbLine
 10
80.214056
 20
458.236777
 11
80.214056
 21
455.63668
  0
LINE
  5
31D
100
AcDbEntity
  8
M0
100
AcDbLine
 10
85.389105
 20
459.590049
 11
85.389105
 21
460.036582
  0
LINE
  5
31E
100
AcDbEntity
  8
M0
100
AcDbLine
 10
82.589056
 20
459.590049
 11
82.589056
 21
460.036582
  0
LINE
  5
31F
100
AcDbEntity
  8
M0
100
AcDbLine
 10
85.579779
 20
455.345908
 11
82.398138
 21
458.527549
  0
LINE
  5
320
100
AcDbEntity
  8
M0
100
AcDbLine
 10
84.342474
 20
458.350791
 11
82.574896
 21
456.583213
  0
LINE
  5
321
100
AcDbEntity
  8
M0
100
AcDbLine
 10
85.403021
 20
457.290244
 11
83.635443
 21
455.522666
  0
ARC
  5
322
100
AcDbEntity
  8
M0
100
AcDbCircle
 10
81.508246
 20
460.736533
 40
0.5
100
AcDbArc
 50
90.0
 51
162.856778
  0
ARC
  5
323
100
AcDbEntity
  8
M0
100
AcDbCircle
 10
86.469916
 20
460.736533
 40
0.5
100
AcDbArc
 50
17.151452
 51
90.0
  0
LINE
  5
324
100
AcDbEntity
  8
M0
  6
DASHDOT
100
AcDbLine
 10
83.989203
 20
440.599174
 11
83.988577
 21
453.328696
  0
LINE
  5
325
100
AcDbEntity
  8
M0
100
AcDbLine
 10
85.389105
 20
444.336631
 11
87.209174
 21
444.336631
  0
LINE
  5
326
100
AcDbEntity
  8
M0
100
AcDbLine
 10
82.589056
 20
444.336631
 11
80.768988
 21
444.336631
  0
LINE
  5
327
100
AcDbEntity
  8
M0
100
AcDbLine
 10
81.508246
 20
443.13668
 11
86.469916
 21
443.13668
  0
LINE
  5
328
100
AcDbEntity
  8
M0
100
AcDbLine
 10
85.389105
 20
444.336631
 11
85.389105
 21
444.783408
  0
LINE
  5
329
100
AcDbEntity
  8
M0
100
AcDbLine
 10
82.589056
 20
444.336631
 11
82.589056
 21
444.783408
  0
ARC
  5
32A
100
AcDbEntity
  8
M0
100
AcDbCircle
 10
81.508246
 20
443.63668
 40
0.5
100
AcDbArc
 50
197.11777
 51
269.998251
  0
ARC
  5
32B
100
AcDbEntity
  8
M0
100
AcDbCircle
 10
86.469916
 20
443.63668
 40
0.5
100
AcDbArc
 50
269.998251
 51
342.874517
  0
LINE
  5
32C
100
AcDbEntity
  8
M0
  6
DASHDOT
 62
     6
100
AcDbLine
 10
77.665366
 20
447.436729
 11
90.101157
 21
447.436729
  0
CIRCLE
  5
32D
100
AcDbEntity
  8
M0
100
AcDbCircle
 10
83.989203
 20
447.436729
 40
3.0
  0
LINE
  5
32E
100
AcDbEntity
  8
M0
100
AcDbLine
 10
81.030218
 20
451.383994
 11
80.214056
 21
448.736777
  0
LINE
  5
32F
100
AcDbEntity
  8
M0
100
AcDbLine
 10
81.030218
 20
443.489463
 11
80.214056
 21
446.13668
  0
LINE
  5
330
100
AcDbEntity
  8
M0
100
AcDbLine
 10
86.947699
 20
451.383994
 11
87.764105
 21
448.736777
  0
LINE
  5
331
100
AcDbEntity
  8
M0
100
AcDbLine
 10
86.947699
 20
443.489463
 11
87.764105
 21
446.13668
  0
LINE
  5
332
100
AcDbEntity
  8
M0
100
AcDbLine
 10
85.389105
 20
450.536582
 11
87.209174
 21
450.536582
  0
LINE
  5
333
100
AcDbEntity
  8
M0
100
AcDbLine
 10
86.310736
 20
449.336631
 11
87.579047
 21
449.336631
  0
LINE
  5
334
100
AcDbEntity
  8
M0
100
AcDbLine
 10
86.310736
 20
445.536582
 11
87.579047
 21
445.536582
  0
LINE
  5
335
100
AcDbEntity
  8
M0
100
AcDbLine
 10
82.589056
 20
450.536582
 11
80.768988
 21
450.536582
  0
LINE
  5
336
100
AcDbEntity
  8
M0
100
AcDbLine
 10
81.667425
 20
449.336631
 11
80.399115
 21
449.336631
  0
LINE
  5
337
100
AcDbEntity
  8
M0
100
AcDbLine
 10
81.667425
 20
445.536582
 11
80.399115
 21
445.536582
  0
LINE
  5
338
100
AcDbEntity
  8
M0
100
AcDbLine
 10
87.764105
 20
446.13668
 11
87.764105
 21
448.736777
  0
LINE
  5
339
100
AcDbEntity
  8
M0
100
AcDbLine
 10
86.469916
 20
451.736777
 11
81.508246
 21
451.736533
  0
LINE
  5
33A
100
AcDbEntity
  8
M0
100
AcDbLine
 10
80.214056
 20
448.736777
 11
80.214056
 21
446.13668
  0
LINE
  5
33B
100
AcDbEntity
  8
M0
100
AcDbLine
 10
85.389105
 20
450.090049
 11
85.389105
 21
450.536582
  0
LINE
  5
33C
100
AcDbEntity
  8
M0
100
AcDbLine
 10
82.589056
 20
450.090049
 11
82.589056
 21
450.536582
  0
LINE
  5
33D
100
AcDbEntity
  8
M0
100
AcDbLine
 10
85.579779
 20
445.845908
 11
82.398138
 21
449.027549
  0
LINE
  5
33E
100
AcDbEntity
  8
M0
100
AcDbLine
 10
84.342474
 20
448.850791
 11
82.574896
 21
447.083213
  0
LINE
  5
33F
100
AcDbEntity
  8
M0
100
AcDbLine
 10
85.403021
 20
447.790244
 11
83.635443
 21
446.022666
  0
ARC
  5
340
100
AcDbEntity
  8
M0
100
AcDbCircle
 10
81.508246
 20
451.236533
 40
0.5
100
AcDbArc
 50
90.0
 51
162.856778
  0
ARC
  5
341
100
AcDbEntity
  8
M0
100
AcDbCircle
 10
86.469916
 20
451.236533
 40
0.5
100
AcDbArc
 50
17.151452
 51
90.0
  0
LINE
  5
342
100
AcDbEntity
  8
M0
  6
DASHDOT
100
AcDbLine
 10
83.989203
 20
419.599418
 11
83.988577
 21
432.328941
  0
LINE
  5
343
100
AcDbEntity
  8
M0
100
AcDbLine
 10
85.389105
 20
423.336875
 11
87.209174
 21
423.336875
  0
LINE
  5
344
100
AcDbEntity
  8
M0
100
AcDbLine
 10
82.589056
 20
423.336875
 11
80.768988
 21
423.336875
  0
LINE
  5
345
100
AcDbEntity
  8
M0
100
AcDbLine
 10
81.508246
 20
422.136924
 11
86.469916
 21
422.136924
  0
LINE
  5
346
100
AcDbEntity
  8
M0
100
AcDbLine
 10
85.389105
 20
423.336875
 11
85.389105
 21
423.783652
  0
LINE
  5
347
100
AcDbEntity
  8
M0
100
AcDbLine
 10
82.589056
 20
423.336875
 11
82.589056
 21
423.783652
  0
ARC
  5
348
100
AcDbEntity
  8
M0
100
AcDbCircle
 10
81.508246
 20
422.636924
 40
0.5
100
AcDbArc
 50
197.11777
 51
269.998251
  0
ARC
  5
349
100
AcDbEntity
  8
M0
100
AcDbCircle
 10
86.469916
 20
422.636924
 40
0.5
100
AcDbArc
 50
269.998251
 51
342.874517
  0
LINE
  5
34A
100
AcDbEntity
  8
M0
  6
DASHDOT
 62
     6
100
AcDbLine
 10
77.665366
 20
426.436973
 11
90.101157
 21
426.436973
  0
CIRCLE
  5
34B
100
AcDbEntity
  8
M0
100
AcDbCircle
 10
83.989203
 20
426.436973
 40
3.0
  0
LINE
  5
34C
100
AcDbEntity
  8
M0
100
AcDbLine
 10
81.030218
 20
430.384238
 11
80.214056
 21
427.737022
  0
LINE
  5
34D
100
AcDbEntity
  8
M0
100
AcDbLine
 10
81.030218
 20
422.489707
 11
80.214056
 21
425.136924
  0
LINE
  5
34E
100
AcDbEntity
  8
M0
100
AcDbLine
 10
86.947699
 20
430.384238
 11
87.764105
 21
427.737022
  0
LINE
  5
34F
100
AcDbEntity
  8
M0
100
AcDbLine
 10
86.947699
 20
422.489707
 11
87.764105
 21
425.136924
  0
LINE
  5
350
100
AcDbEntity
  8
M0
100
AcDbLine
 10
85.389105
 20
429.536826
 11
87.209174
 21
429.536826
  0
LINE
  5
351
100
AcDbEntity
  8
M0
100
AcDbLine
 10
86.310736
 20
428.336875
 11
87.579047
 21
428.336875
  0
LINE
  5
352
100
AcDbEntity
  8
M0
100
AcDbLine
 10
86.310736
 20
424.536826
 11
87.579047
 21
424.536826
  0
LINE
  5
353
100
AcDbEntity
  8
M0
100
AcDbLine
 10
82.589056
 20
429.536826
 11
80.768988
 21
429.536826
  0
LINE
  5
354
100
AcDbEntity
  8
M0
100
AcDbLine
 10
81.667425
 20
428.336875
 11
80.399115
 21
428.336875
  0
LINE
  5
355
100
AcDbEntity
  8
M0
100
AcDbLine
 10
81.667425
 20
424.536826
 11
80.399115
 21
424.536826
  0
LINE
  5
356
100
AcDbEntity
  8
M0
100
AcDbLine
 10
87.764105
 20
425.136924
 11
87.764105
 21
427.737022
  0
LINE
  5
357
100
AcDbEntity
  8
M0
100
AcDbLine
 10
86.469916
 20
430.737022
 11
81.508246
 21
430.736777
  0
LINE
  5
358
100
AcDbEntity
  8
M0
100
AcDbLine
 10
80.214056
 20
427.737022
 11
80.214056
 21
425.136924
  0
LINE
  5
359
100
AcDbEntity
  8
M0
100
AcDbLine
 10
85.389105
 20
429.090293
 11
85.389105
 21
429.536826
  0
LINE
  5
35A
100
AcDbEntity
  8
M0
100
AcDbLine
 10
82.589056
 20
429.090293
 11
82.589056
 21
429.536826
  0
LINE
  5
35B
100
AcDbEntity
  8
M0
100
AcDbLine
 10
85.579779
 20
424.846152
 11
82.398138
 21
428.027793
  0
LINE
  5
35C
100
AcDbEntity
  8
M0
100
AcDbLine
 10
84.342474
 20
427.851035
 11
82.574896
 21
426.083457
  0
LINE
  5
35D
100
AcDbEntity
  8
M0
100
AcDbLine
 10
85.403021
 20
426.790488
 11
83.635443
 21
425.02291
  0
ARC
  5
35E
100
AcDbEntity
  8
M0
100
AcDbCircle
 10
81.508246
 20
430.236777
 40
0.5
100
AcDbArc
 50
90.0
 51
162.856778
  0
ARC
  5
35F
100
AcDbEntity
  8
M0
100
AcDbCircle
 10
86.469916
 20
430.236777
 40
0.5
100
AcDbArc
 50
17.151452
 51
90.0
  0
LINE
  5
360
100
AcDbEntity
  8
M0
  6
DASHDOT
100
AcDbLine
 10
83.989203
 20
410.099418
 11
83.988577
 21
422.828941
  0
LINE
  5
361
100
AcDbEntity
  8
M0
100
AcDbLine
 10
85.389105
 20
413.836875
 11
87.209174
 21
413.836875
  0
LINE
  5
362
100
AcDbEntity
  8
M0
100
AcDbLine
 10
82.589056
 20
413.836875
 11
80.768988
 21
413.836875
  0
LINE
  5
363
100
AcDbEntity
  8
M0
100
AcDbLine
 10
81.508246
 20
412.636924
 11
86.469916
 21
412.636924
  0
LINE
  5
364
100
AcDbEntity
  8
M0
100
AcDbLine
 10
85.389105
 20
413.836875
 11
85.389105
 21
414.283652
  0
LINE
  5
365
100
AcDbEntity
  8
M0
100
AcDbLine
 10
82.589056
 20
413.836875
 11
82.589056
 21
414.283652
  0
ARC
  5
366
100
AcDbEntity
  8
M0
100
AcDbCircle
 10
81.508246
 20
413.136924
 40
0.5
100
AcDbArc
 50
197.11777
 51
269.998251
  0
ARC
  5
367
100
AcDbEntity
  8
M0
100
AcDbCircle
 10
86.469916
 20
413.136924
 40
0.5
100
AcDbArc
 50
269.998251
 51
342.874517
  0
LINE
  5
368
100
AcDbEntity
  8
M0
  6
DASHDOT
 62
     6
100
AcDbLine
 10
77.665366
 20
416.936973
 11
90.101157
 21
416.936973
  0
CIRCLE
  5
369
100
AcDbEntity
  8
M0
100
AcDbCircle
 10
83.989203
 20
416.936973
 40
3.0
  0
LINE
  5
36A
100
AcDbEntity
  8
M0
100
AcDbLine
 10
81.030218
 20
420.884238
 11
80.214056
 21
418.237022
  0
LINE
  5
36B
100
AcDbEntity
  8
M0
100
AcDbLine
 10
81.030218
 20
412.989707
 11
80.214056
 21
415.636924
  0
LINE
  5
36C
100
AcDbEntity
  8
M0
100
AcDbLine
 10
86.947699
 20
420.884238
 11
87.764105
 21
418.237022
  0
LINE
  5
36D
100
AcDbEntity
  8
M0
100
AcDbLine
 10
86.947699
 20
412.989707
 11
87.764105
 21
415.636924
  0
LINE
  5
36E
100
AcDbEntity
  8
M0
100
AcDbLine
 10
85.389105
 20
420.036826
 11
87.209174
 21
420.036826
  0
LINE
  5
36F
100
AcDbEntity
  8
M0
100
AcDbLine
 10
86.310736
 20
418.836875
 11
87.579047
 21
418.836875
  0
LINE
  5
370
100
AcDbEntity
  8
M0
100
AcDbLine
 10
86.310736
 20
415.036826
 11
87.579047
 21
415.036826
  0
LINE
  5
371
100
AcDbEntity
  8
M0
100
AcDbLine
 10
82.589056
 20
420.036826
 11
80.768988
 21
420.036826
  0
LINE
  5
372
100
AcDbEntity
  8
M0
100
AcDbLine
 10
81.667425
 20
418.836875
 11
80.399115
 21
418.836875
  0
LINE
  5
373
100
AcDbEntity
  8
M0
100
AcDbLine
 10
81.667425
 20
415.036826
 11
80.399115
 21
415.036826
  0
LINE
  5
374
100
AcDbEntity
  8
M0
100
AcDbLine
 10
87.764105
 20
415.636924
 11
87.764105
 21
418.237022
  0
LINE
  5
375
100
AcDbEntity
  8
M0
100
AcDbLine
 10
86.469916
 20
421.237022
 11
81.508246
 21
421.236777
  0
LINE
  5
376
100
AcDbEntity
  8
M0
100
AcDbLine
 10
80.214056
 20
418.237022
 11
80.214056
 21
415.636924
  0
LINE
  5
377
100
AcDbEntity
  8
M0
100
AcDbLine
 10
85.389105
 20
419.590293
 11
85.389105
 21
420.036826
  0
LINE
  5
378
100
AcDbEntity
  8
M0
100
AcDbLine
 10
82.589056
 20
419.590293
 11
82.589056
 21
420.036826
  0
LINE
  5
379
100
AcDbEntity
  8
M0
100
AcDbLine
 10
85.579779
 20
415.346152
 11
82.398138
 21
418.527793
  0
LINE
  5
37A
100
AcDbEntity
  8
M0
100
AcDbLine
 10
84.342474
 20
418.351035
 11
82.574896
 21
416.583457
  0
LINE
  5
37B
100
AcDbEntity
  8
M0
100
AcDbLine
 10
85.403021
 20
417.290488
 11
83.635443
 21
415.52291
  0
ARC
  5
37C
100
AcDbEntity
  8
M0
100
AcDbCircle
 10
81.508246
 20
420.736777
 40
0.5
100
AcDbArc
 50
90.0
 51
162.856778
  0
ARC
  5
37D
100
AcDbEntity
  8
M0
100
AcDbCircle
 10
86.469916
 20
420.736777
 40
0.5
100
AcDbArc
 50
17.151452
 51
90.0
  0
LINE
  5
37E
100
AcDbEntity
  8
M0
  6
DASHDOT
100
AcDbLine
 10
167.989172
 20
450.09893
 11
167.988547
 21
462.828452
  0
LINE
  5
37F
100
AcDbEntity
  8
M0
100
AcDbLine
 10
169.389075
 20
453.836387
 11
171.209143
 21
453.836387
  0
LINE
  5
380
100
AcDbEntity
  8
M0
100
AcDbLine
 10
166.589026
 20
453.836387
 11
164.768957
 21
453.836387
  0
LINE
  5
381
100
AcDbEntity
  8
M0
100
AcDbLine
 10
165.508215
 20
452.636436
 11
170.469885
 21
452.636436
  0
LINE
  5
382
100
AcDbEntity
  8
M0
100
AcDbLine
 10
169.389075
 20
453.836387
 11
169.389075
 21
454.283164
  0
LINE
  5
383
100
AcDbEntity
  8
M0
100
AcDbLine
 10
166.589026
 20
453.836387
 11
166.589026
 21
454.283164
  0
ARC
  5
384
100
AcDbEntity
  8
M0
100
AcDbCircle
 10
165.508215
 20
453.136436
 40
0.5
100
AcDbArc
 50
197.11777
 51
269.998251
  0
ARC
  5
385
100
AcDbEntity
  8
M0
100
AcDbCircle
 10
170.469885
 20
453.136436
 40
0.5
100
AcDbArc
 50
269.998251
 51
342.874517
  0
LINE
  5
386
100
AcDbEntity
  8
M0
  6
DASHDOT
 62
     6
100
AcDbLine
 10
161.665335
 20
456.936484
 11
174.101126
 21
456.936484
  0
CIRCLE
  5
387
100
AcDbEntity
  8
M0
100
AcDbCircle
 10
167.989172
 20
456.936484
 40
3.0
  0
LINE
  5
388
100
AcDbEntity
  8
M0
100
AcDbLine
 10
165.030188
 20
460.88375
 11
164.214026
 21
458.236533
  0
LINE
  5
389
100
AcDbEntity
  8
M0
100
AcDbLine
 10
165.030188
 20
452.989219
 11
164.214026
 21
455.636436
  0
LINE
  5
38A
100
AcDbEntity
  8
M0
100
AcDbLine
 10
170.947668
 20
460.88375
 11
171.764075
 21
458.236533
  0
LINE
  5
38B
100
AcDbEntity
  8
M0
100
AcDbLine
 10
170.947668
 20
452.989219
 11
171.764075
 21
455.636436
  0
LINE
  5
38C
100
AcDbEntity
  8
M0
100
AcDbLine
 10
169.389075
 20
460.036338
 11
171.209143
 21
460.036338
  0
LINE
  5
38D
100
AcDbEntity
  8
M0
100
AcDbLine
 10
170.310706
 20
458.836387
 11
171.579016
 21
458.836387
  0
LINE
  5
38E
100
AcDbEntity
  8
M0
100
AcDbLine
 10
170.310706
 20
455.036338
 11
171.579016
 21
455.036338
  0
LINE
  5
38F
100
AcDbEntity
  8
M0
100
AcDbLine
 10
166.589026
 20
460.036338
 11
164.768957
 21
460.036338
  0
LINE
  5
390
100
AcDbEntity
  8
M0
100
AcDbLine
 10
165.667395
 20
458.836387
 11
164.399084
 21
458.836387
  0
LINE
  5
391
100
AcDbEntity
  8
M0
100
AcDbLine
 10
165.667395
 20
455.036338
 11
164.399084
 21
455.036338
  0
LINE
  5
392
100
AcDbEntity
  8
M0
100
AcDbLine
 10
171.764075
 20
455.636436
 11
171.764075
 21
458.236533
  0
LINE
  5
393
100
AcDbEntity
  8
M0
100
AcDbLine
 10
170.469885
 20
461.236533
 11
165.508215
 21
461.236289
  0
LINE
  5
394
100
AcDbEntity
  8
M0
100
AcDbLine
 10
164.214026
 20
458.236533
 11
164.214026
 21
455.636436
  0
LINE
  5
395
100
AcDbEntity
  8
M0
100
AcDbLine
 10
169.389075
 20
459.589805
 11
169.389075
 21
460.036338
  0
LINE
  5
396
100
AcDbEntity
  8
M0
100
AcDbLine
 10
166.589026
 20
459.589805
 11
166.589026
 21
460.036338
  0
LINE
  5
397
100
AcDbEntity
  8
M0
100
AcDbLine
 10
169.579748
 20
455.345664
 11
166.398108
 21
458.527305
  0
LINE
  5
398
100
AcDbEntity
  8
M0
100
AcDbLine
 10
168.342444
 20
458.350547
 11
166.574866
 21
456.582969
  0
LINE
  5
399
100
AcDbEntity
  8
M0
100
AcDbLine
 10
169.402991
 20
457.29
 11
167.635413
 21
455.522422
  0
ARC
  5
39A
100
AcDbEntity
  8
M0
100
AcDbCircle
 10
165.508215
 20
460.736289
 40
0.5
100
AcDbArc
 50
90.0
 51
162.856778
  0
ARC
  5
39B
100
AcDbEntity
  8
M0
100
AcDbCircle
 10
170.469885
 20
460.736289
 40
0.5
100
AcDbArc
 50
17.151452
 51
90.0
  0
LINE
  5
39C
100
AcDbEntity
  8
M0
  6
DASHDOT
100
AcDbLine
 10
167.989203
 20
440.599418
 11
167.988577
 21
453.328941
  0
LINE
  5
39D
100
AcDbEntity
  8
M0
100
AcDbLine
 10
169.389105
 20
444.336875
 11
171.209174
 21
444.336875
  0
LINE
  5
39E
100
AcDbEntity
  8
M0
100
AcDbLine
 10
166.589056
 20
444.336875
 11
164.768988
 21
444.336875
  0
LINE
  5
39F
100
AcDbEntity
  8
M0
100
AcDbLine
 10
165.508246
 20
443.136924
 11
170.469916
 21
443.136924
  0
LINE
  5
3A0
100
AcDbEntity
  8
M0
100
AcDbLine
 10
169.389105
 20
444.336875
 11
169.389105
 21
444.783652
  0
LINE
  5
3A1
100
AcDbEntity
  8
M0
100
AcDbLine
 10
166.589056
 20
444.336875
 11
166.589056
 21
444.783652
  0
ARC
  5
3A2
100
AcDbEntity
  8
M0
100
AcDbCircle
 10
165.508246
 20
443.636924
 40
0.5
100
AcDbArc
 50
197.11777
 51
269.998251
  0
ARC
  5
3A3
100
AcDbEntity
  8
M0
100
AcDbCircle
 10
170.469916
 20
443.636924
 40
0.5
100
AcDbArc
 50
269.998251
 51
342.874517
  0
LINE
  5
3A4
100
AcDbEntity
  8
M0
  6
DASHDOT
 62
     6
100
AcDbLine
 10
161.665366
 20
447.436973
 11
174.101157
 21
447.436973
  0
CIRCLE
  5
3A5
100
AcDbEntity
  8
M0
100
AcDbCircle
 10
167.989203
 20
447.436973
 40
3.0
  0
LINE
  5
3A6
100
AcDbEntity
  8
M0
100
AcDbLine
 10
165.030218
 20
451.384238
 11
164.214056
 21
448.737022
  0
LINE
  5
3A7
100
AcDbEntity
  8
M0
100
AcDbLine
 10
165.030218
 20
443.489707
 11
164.214056
 21
446.136924
  0
LINE
  5
3A8
100
AcDbEntity
  8
M0
100
AcDbLine
 10
170.947699
 20
451.384238
 11
171.764105
 21
448.737022
  0
LINE
  5
3A9
100
AcDbEntity
  8
M0
100
AcDbLine
 10
170.947699
 20
443.489707
 11
171.764105
 21
446.136924
  0
LINE
  5
3AA
100
AcDbEntity
  8
M0
100
AcDbLine
 10
169.389105
 20
450.536826
 11
171.209174
 21
450.536826
  0
LINE
  5
3AB
100
AcDbEntity
  8
M0
100
AcDbLine
 10
170.310736
 20
449.336875
 11
171.579047
 21
449.336875
  0
LINE
  5
3AC
100
AcDbEntity
  8
M0
100
AcDbLine
 10
170.310736
 20
445.536826
 11
171.579047
 21
445.536826
  0
LINE
  5
3AD
100
AcDbEntity
  8
M0
100
AcDbLine
 10
166.589056
 20
450.536826
 11
164.768988
 21
450.536826
  0
LINE
  5
3AE
100
AcDbEntity
  8
M0
100
AcDbLine
 10
165.667425
 20
449.336875
 11
164.399115
 21
449.336875
  0
LINE
  5
3AF
100
AcDbEntity
  8
M0
100
AcDbLine
 10
165.667425
 20
445.536826
 11
164.399115
 21
445.536826
  0
LINE
  5
3B0
100
AcDbEntity
  8
M0
100
AcDbLine
 10
171.764105
 20
446.136924
 11
171.764105
 21
448.737022
  0
LINE
  5
3B1
100
AcDbEntity
  8
M0
100
AcDbLine
 10
170.469916
 20
451.737022
 11
165.508246
 21
451.736777
  0
LINE
  5
3B2
100
AcDbEntity
  8
M0
100
AcDbLine
 10
164.214056
 20
448.737022
 11
164.214056
 21
446.136924
  0
LINE
  5
3B3
100
AcDbEntity
  8
M0
100
AcDbLine
 10
169.389105
 20
450.090293
 11
169.389105
 21
450.536826
  0
LINE
  5
3B4
100
AcDbEntity
  8
M0
100
AcDbLine
 10
166.589056
 20
450.090293
 11
166.589056
 21
450.536826
  0
LINE
  5
3B5
100
AcDbEntity
  8
M0
100
AcDbLine
 10
169.579779
 20
445.846152
 11
166.398138
 21
449.027793
  0
LINE
  5
3B6
100
AcDbEntity
  8
M0
100
AcDbLine
 10
168.342474
 20
448.851035
 11
166.574896
 21
447.083457
  0
LINE
  5
3B7
100
AcDbEntity
  8
M0
100
AcDbLine
 10
169.403021
 20
447.790488
 11
167.635443
 21
446.02291
  0
ARC
  5
3B8
100
AcDbEntity
  8
M0
100
AcDbCircle
 10
165.508246
 20
451.236777
 40
0.5
100
AcDbArc
 50
90.0
 51
162.856778
  0
ARC
  5
3B9
100
AcDbEntity
  8
M0
100
AcDbCircle
 10
170.469916
 20
451.236777
 40
0.5
100
AcDbArc
 50
17.151452
 51
90.0
  0
LINE
  5
3BA
100
AcDbEntity
  8
M0
  6
DASHDOT
100
AcDbLine
 10
167.989249
 20
419.599174
 11
167.988623
 21
432.328696
  0
LINE
  5
3BB
100
AcDbEntity
  8
M0
100
AcDbLine
 10
169.389151
 20
423.336631
 11
171.209219
 21
423.336631
  0
LINE
  5
3BC
100
AcDbEntity
  8
M0
100
AcDbLine
 10
166.589102
 20
423.336631
 11
164.769034
 21
423.336631
  0
LINE
  5
3BD
100
AcDbEntity
  8
M0
100
AcDbLine
 10
165.508292
 20
422.13668
 11
170.469962
 21
422.13668
  0
LINE
  5
3BE
100
AcDbEntity
  8
M0
100
AcDbLine
 10
169.389151
 20
423.336631
 11
169.389151
 21
423.783408
  0
LINE
  5
3BF
100
AcDbEntity
  8
M0
100
AcDbLine
 10
166.589102
 20
423.336631
 11
166.589102
 21
423.783408
  0
ARC
  5
3C0
100
AcDbEntity
  8
M0
100
AcDbCircle
 10
165.508292
 20
422.63668
 40
0.5
100
AcDbArc
 50
197.11777
 51
269.998251
  0
ARC
  5
3C1
100
AcDbEntity
  8
M0
100
AcDbCircle
 10
170.469962
 20
422.63668
 40
0.5
100
AcDbArc
 50
269.998251
 51
342.874517
  0
LINE
  5
3C2
100
AcDbEntity
  8
M0
  6
DASHDOT
 62
     6
100
AcDbLine
 10
161.665411
 20
426.436729
 11
174.101202
 21
426.436729
  0
CIRCLE
  5
3C3
100
AcDbEntity
  8
M0
100
AcDbCircle
 10
167.989249
 20
426.436729
 40
3.0
  0
LINE
  5
3C4
100
AcDbEntity
  8
M0
100
AcDbLine
 10
165.030264
 20
430.383994
 11
164.214102
 21
427.736777
  0
LINE
  5
3C5
100
AcDbEntity
  8
M0
100
AcDbLine
 10
165.030264
 20
422.489463
 11
164.214102
 21
425.13668
  0
LINE
  5
3C6
100
AcDbEntity
  8
M0
100
AcDbLine
 10
170.947745
 20
430.383994
 11
171.764151
 21
427.736777
  0
LINE
  5
3C7
100
AcDbEntity
  8
M0
100
AcDbLine
 10
170.947745
 20
422.489463
 11
171.764151
 21
425.13668
  0
LINE
  5
3C8
100
AcDbEntity
  8
M0
100
AcDbLine
 10
169.389151
 20
429.536582
 11
171.209219
 21
429.536582
  0
LINE
  5
3C9
100
AcDbEntity
  8
M0
100
AcDbLine
 10
170.310782
 20
428.336631
 11
171.579092
 21
428.336631
  0
LINE
  5
3CA
100
AcDbEntity
  8
M0
100
AcDbLine
 10
170.310782
 20
424.536582
 11
171.579092
 21
424.536582
  0
LINE
  5
3CB
100
AcDbEntity
  8
M0
100
AcDbLine
 10
166.589102
 20
429.536582
 11
164.769034
 21
429.536582
  0
LINE
  5
3CC
100
AcDbEntity
  8
M0
100
AcDbLine
 10
165.667471
 20
428.336631
 11
164.399161
 21
428.336631
  0
LINE
  5
3CD
100
AcDbEntity
  8
M0
100
AcDbLine
 10
165.667471
 20
424.536582
 11
164.399161
 21
424.536582
  0
LINE
  5
3CE
100
AcDbEntity
  8
M0
100
AcDbLine
 10
171.764151
 20
425.13668
 11
171.764151
 21
427.736777
  0
LINE
  5
3CF
100
AcDbEntity
  8
M0
100
AcDbLine
 10
170.469962
 20
430.736777
 11
165.508292
 21
430.736533
  0
LINE
  5
3D0
100
AcDbEntity
  8
M0
100
AcDbLine
 10
164.214102
 20
427.736777
 11
164.214102
 21
425.13668
  0
LINE
  5
3D1
100
AcDbEntity
  8
M0
100
AcDbLine
 10
169.389151
 20
429.090049
 11
169.389151
 21
429.536582
  0
LINE
  5
3D2
100
AcDbEntity
  8
M0
100
AcDbLine
 10
166.589102
 20
429.090049
 11
166.589102
 21
429.536582
  0
LINE
  5
3D3
100
AcDbEntity
  8
M0
100
AcDbLine
 10
169.579825
 20
424.845908
 11
166.398184
 21
428.027549
  0
LINE
  5
3D4
100
AcDbEntity
  8
M0
100
AcDbLine
 10
168.34252
 20
427.850791
 11
166.574942
 21
426.083213
  0
LINE
  5
3D5
100
AcDbEntity
  8
M0
100
AcDbLine
 10
169.403067
 20
426.790244
 11
167.635489
 21
425.022666
  0
ARC
  5
3D6
100
AcDbEntity
  8
M0
100
AcDbCircle
 10
165.508292
 20
430.236533
 40
0.5
100
AcDbArc
 50
90.0
 51
162.856778
  0
ARC
  5
3D7
100
AcDbEntity
  8
M0
100
AcDbCircle
 10
170.469962
 20
430.236533
 40
0.5
100
AcDbArc
 50
17.151452
 51
90.0
  0
LINE
  5
3D8
100
AcDbEntity
  8
M0
  6
DASHDOT
100
AcDbLine
 10
167.989264
 20
410.099906
 11
167.988638
 21
422.829429
  0
LINE
  5
3D9
100
AcDbEntity
  8
M0
100
AcDbLine
 10
169.389166
 20
413.837363
 11
171.209235
 21
413.837363
  0
LINE
  5
3DA
100
AcDbEntity
  8
M0
100
AcDbLine
 10
166.589117
 20
413.837363
 11
164.769049
 21
413.837363
  0
LINE
  5
3DB
100
AcDbEntity
  8
M0
100
AcDbLine
 10
165.508307
 20
412.637412
 11
170.469977
 21
412.637412
  0
LINE
  5
3DC
100
AcDbEntity
  8
M0
100
AcDbLine
 10
169.389166
 20
413.837363
 11
169.389166
 21
414.284141
  0
LINE
  5
3DD
100
AcDbEntity
  8
M0
100
AcDbLine
 10
166.589117
 20
413.837363
 11
166.589117
 21
414.284141
  0
ARC
  5
3DE
100
AcDbEntity
  8
M0
100
AcDbCircle
 10
165.508307
 20
413.137412
 40
0.5
100
AcDbArc
 50
197.11777
 51
269.998251
  0
ARC
  5
3DF
100
AcDbEntity
  8
M0
100
AcDbCircle
 10
170.469977
 20
413.137412
 40
0.5
100
AcDbArc
 50
269.998251
 51
342.874517
  0
LINE
  5
3E0
100
AcDbEntity
  8
M0
  6
DASHDOT
 62
     6
100
AcDbLine
 10
161.665427
 20
416.937461
 11
174.101218
 21
416.937461
  0
CIRCLE
  5
3E1
100
AcDbEntity
  8
M0
100
AcDbCircle
 10
167.989264
 20
416.937461
 40
3.0
  0
LINE
  5
3E2
100
AcDbEntity
  8
M0
100
AcDbLine
 10
165.030279
 20
420.884727
 11
164.214117
 21
418.23751
  0
LINE
  5
3E3
100
AcDbEntity
  8
M0
100
AcDbLine
 10
165.030279
 20
412.990195
 11
164.214117
 21
415.637412
  0
LINE
  5
3E4
100
AcDbEntity
  8
M0
100
AcDbLine
 10
170.94776
 20
420.884727
 11
171.764166
 21
418.23751
  0
LINE
  5
3E5
100
AcDbEntity
  8
M0
100
AcDbLine
 10
170.94776
 20
412.990195
 11
171.764166
 21
415.637412
  0
LINE
  5
3E6
100
AcDbEntity
  8
M0
100
AcDbLine
 10
169.389166
 20
420.037315
 11
171.209235
 21
420.037315
  0
LINE
  5
3E7
100
AcDbEntity
  8
M0
100
AcDbLine
 10
170.310797
 20
418.837363
 11
171.579108
 21
418.837363
  0
LINE
  5
3E8
100
AcDbEntity
  8
M0
100
AcDbLine
 10
170.310797
 20
415.037315
 11
171.579108
 21
415.037315
  0
LINE
  5
3E9
100
AcDbEntity
  8
M0
100
AcDbLine
 10
166.589117
 20
420.037315
 11
164.769049
 21
420.037315
  0
LINE
  5
3EA
100
AcDbEntity
  8
M0
100
AcDbLine
 10
165.667487
 20
418.837363
 11
164.399176
 21
418.837363
  0
LINE
  5
3EB
100
AcDbEntity
  8
M0
100
AcDbLine
 10
165.667487
 20
415.037315
 11
164.399176
 21
415.037315
  0
LINE
  5
3EC
100
AcDbEntity
  8
M0
100
AcDbLine
 10
171.764166
 20
415.637412
 11
171.764166
 21
418.23751
  0
LINE
  5
3ED
100
AcDbEntity
  8
M0
100
AcDbLine
 10
170.469977
 20
421.23751
 11
165.508307
 21
421.237266
  0
LINE
  5
3EE
100
AcDbEntity
  8
M0
100
AcDbLine
 10
164.214117
 20
418.23751
 11
164.214117
 21
415.637412
  0
LINE
  5
3EF
100
AcDbEntity
  8
M0
100
AcDbLine
 10
169.389166
 20
419.590781
 11
169.389166
 21
420.037315
  0
LINE
  5
3F0
100
AcDbEntity
  8
M0
100
AcDbLine
 10
166.589117
 20
419.590781
 11
166.589117
 21
420.037315
  0
LINE
  5
3F1
100
AcDbEntity
  8
M0
100
AcDbLine
 10
169.57984
 20
415.346641
 11
166.398199
 21
418.528281
  0
LINE
  5
3F2
100
AcDbEntity
  8
M0
100
AcDbLine
 10
168.342535
 20
418.351524
 11
166.574957
 21
416.583945
  0
LINE
  5
3F3
100
AcDbEntity
  8
M0
100
AcDbLine
 10
169.403082
 20
417.290977
 11
167.635504
 21
415.523399
  0
ARC
  5
3F4
100
AcDbEntity
  8
M0
100
AcDbCircle
 10
165.508307
 20
420.737266
 40
0.5
100
AcDbArc
 50
90.0
 51
162.856778
  0
ARC
  5
3F5
100
AcDbEntity
  8
M0
100
AcDbCircle
 10
170.469977
 20
420.737266
 40
0.5
100
AcDbArc
 50
17.151452
 51
90.0
  0
LINE
  5
3F6
100
AcDbEntity
  8
M0
  6
DASHDOT
 62
     6
100
AcDbLine
 10
160.165381
 20
466.936484
 11
172.601172
 21
466.936484
  0
CIRCLE
  5
3F7
100
AcDbEntity
  8
M0
100
AcDbCircle
 10
166.489218
 20
466.936484
 40
3.0
  0
LINE
  5
3F8
100
AcDbEntity
  8
M0
100
AcDbLine
 10
168.079794
 20
465.345664
 11
164.898154
 21
468.527305
  0
LINE
  5
3F9
100
AcDbEntity
  8
M0
100
AcDbLine
 10
166.84249
 20
468.350547
 11
165.074911
 21
466.582969
  0
LINE
  5
3FA
100
AcDbEntity
  8
M0
100
AcDbLine
 10
167.903036
 20
467.29
 11
166.135458
 21
465.522422
  0
LINE
  5
3FB
100
AcDbEntity
  8
M0
  6
DASHDOT
100
AcDbLine
 10
85.489203
 20
400.099418
 11
85.488577
 21
412.828941
  0
LINE
  5
3FC
100
AcDbEntity
  8
M0
  6
DASHDOT
 62
     6
100
AcDbLine
 10
79.165366
 20
406.936973
 11
91.601157
 21
406.936973
  0
CIRCLE
  5
3FD
100
AcDbEntity
  8
M0
100
AcDbCircle
 10
85.489203
 20
406.936973
 40
3.0
  0
LINE
  5
3FE
100
AcDbEntity
  8
M0
100
AcDbLine
 10
87.079779
 20
405.346152
 11
83.898138
 21
408.527793
  0
LINE
  5
3FF
100
AcDbEntity
  8
M0
100
AcDbLine
 10
85.842474
 20
408.351035
 11
84.074896
 21
406.583457
  0
LINE
  5
400
100
AcDbEntity
  8
M0
100
AcDbLine
 10
86.903021
 20
407.290488
 11
85.135443
 21
405.52291
  0
CIRCLE
  5
401
100
AcDbEntity
  8
M0
100
AcDbCircle
 10
83.98902
 20
478.936988
 40
2.0
  0
LINE
  5
402
100
AcDbEntity
  8
M0
  6
DASHDOT
100
AcDbLine
 10
71.98902
 20
478.936988
 11
95.98902
 21
478.936988
  0
LINE
  5
403
100
AcDbEntity
  8
M0
  6
DASHDOT
100
AcDbLine
 10
83.98902
 20
466.936988
 11
83.98902
 21
490.936988
  0
LINE
  5
404
100
AcDbEntity
  8
M0
100
AcDbLine
 10
87.98902
 20
486.4365
 11
87.98902
 21
474.4365
  0
LINE
  5
405
100
AcDbEntity
  8
M0
100
AcDbLine
 10
79.98902
 20
486.4365
 11
79.98902
 21
474.4365
  0
LINE
  5
406
100
AcDbEntity
  8
M0
100
AcDbLine
 10
81.73902
 20
475.936988
 11
86.23902
 21
475.936988
  0
LINE
  5
407
100
AcDbEntity
  8
M0
100
AcDbLine
 10
86.73902
 20
482.937019
 11
86.73902
 21
476.436988
  0
LINE
  5
408
100
AcDbEntity
  8
M0
100
AcDbLine
 10
81.23902
 20
482.937019
 11
81.23902
 21
476.436988
  0
ARC
  5
409
100
AcDbEntity
  8
M0
100
AcDbCircle
 10
81.73902
 20
476.436988
 40
0.5
100
AcDbArc
 50
180.0
 51
269.998251
  0
ARC
  5
40A
100
AcDbEntity
  8
M0
100
AcDbCircle
 10
86.23902
 20
476.436988
 40
0.5
100
AcDbArc
 50
269.998251
 51
360.0
  0
LINE
  5
40B
100
AcDbEntity
  8
M0
100
AcDbLine
 10
79.98902
 20
482.937019
 11
87.98902
 21
482.937019
  0
LINE
  5
40C
100
AcDbEntity
  8
M0
100
AcDbLine
 10
76.23902
 20
486.4365
 11
88.00878
 21
486.4365
  0
LINE
  5
40D
100
AcDbEntity
  8
M0
100
AcDbLine
 10
76.23902
 20
486.4365
 11
88.00878
 21
486.4365
  0
LINE
  5
40E
100
AcDbEntity
  8
M0
100
AcDbLine
 10
163.98902
 20
486.4365
 11
163.98902
 21
474.4365
  0
LINE
  5
40F
100
AcDbEntity
  8
M0
100
AcDbLine
 10
171.98902
 20
486.4365
 11
171.98902
 21
474.4365
  0
LINE
  5
410
100
AcDbEntity
  8
M0
100
AcDbLine
 10
171.98902
 20
482.937019
 11
170.931235
 21
482.937019
  0
LINE
  5
411
100
AcDbEntity
  8
M0
  6
DASHDOT
100
AcDbLine
 10
167.98902
 20
466.936988
 11
167.98902
 21
490.936988
  0
LINE
  5
412
100
AcDbEntity
  8
M0
  6
DASHDOT
100
AcDbLine
 10
179.98902
 20
478.936988
 11
155.98902
 21
478.936988
  0
LINE
  5
413
100
AcDbEntity
  8
M0
100
AcDbLine
 10
175.73902
 20
486.4365
 11
163.969244
 21
486.4365
  0
LINE
  5
414
100
AcDbEntity
  8
M0
100
AcDbLine
 10
87.98902
 20
387.437476
 11
87.98902
 21
399.437476
  0
LINE
  5
415
100
AcDbEntity
  8
M0
100
AcDbLine
 10
79.98902
 20
387.437476
 11
79.98902
 21
399.437476
  0
LINE
  5
416
100
AcDbEntity
  8
M0
100
AcDbLine
 10
79.98902
 20
390.936958
 11
81.046301
 21
390.936958
  0
LINE
  5
417
100
AcDbEntity
  8
M0
  6
DASHDOT
100
AcDbLine
 10
83.98902
 20
406.936988
 11
83.98902
 21
382.936988
  0
LINE
  5
418
100
AcDbEntity
  8
M0
  6
DASHDOT
100
AcDbLine
 10
71.98902
 20
394.936988
 11
95.98902
 21
394.936988
  0
LINE
  5
419
100
AcDbEntity
  8
M0
100
AcDbLine
 10
76.23902
 20
387.437476
 11
88.00878
 21
387.437476
  0
LINE
  5
41A
100
AcDbEntity
  8
M0
100
AcDbLine
 10
163.98902
 20
387.437476
 11
163.98902
 21
399.437476
  0
LINE
  5
41B
100
AcDbEntity
  8
M0
100
AcDbLine
 10
171.98902
 20
387.437476
 11
171.98902
 21
399.437476
  0
LINE
  5
41C
100
AcDbEntity
  8
M0
100
AcDbLine
 10
171.98902
 20
390.936958
 11
163.98902
 21
390.936958
  0
LINE
  5
41D
100
AcDbEntity
  8
M0
100
AcDbLine
 10
165.23902
 20
390.936958
 11
165.23902
 21
397.436988
  0
ARC
  5
41E
100
AcDbEntity
  8
M0
100
AcDbCircle
 10
165.73902
 20
397.436988
 40
0.5
100
AcDbArc
 50
90.0
 51
179.998251
  0
LINE
  5
41F
100
AcDbEntity
  8
M0
100
AcDbLine
 10
170.23902
 20
397.936988
 11
165.73902
 21
397.936988
  0
ARC
  5
420
100
AcDbEntity
  8
M0
100
AcDbCircle
 10
170.23902
 20
397.436988
 40
0.5
100
AcDbArc
 50
0.0
 51
90.0
  0
LINE
  5
421
100
AcDbEntity
  8
M0
100
AcDbLine
 10
170.73902
 20
390.936958
 11
170.73902
 21
397.436988
  0
LINE
  5
422
100
AcDbEntity
  8
M0
100
AcDbLine
 10
175.73902
 20
387.437476
 11
163.969244
 21
387.437476
  0
LINE
  5
423
100
AcDbEntity
  8
M0
100
AcDbLine
 10
86.931235
 20
390.936958
 11
87.98902
 21
390.936958
  0
LINE
  5
424
100
AcDbEntity
  8
M0
100
AcDbLine
 10
165.046301
 20
482.937019
 11
163.98902
 21
482.937019
  0
LINE
  5
425
100
AcDbEntity
  8
M0
100
AcDbLine
 10
399.059561
 20
498.455344
 11
399.059561
 21
374.455344
  0
LINE
  5
426
100
AcDbEntity
  8
M0
100
AcDbLine
 10
316.259268
 20
395.455344
 11
316.259268
 21
386.955344
  0
LINE
  5
427
100
AcDbEntity
  8
M0
  6
DASHDOT
100
AcDbLine
 10
179.98902
 20
478.936988
 11
155.98902
 21
478.936988
  0
LINE
  5
428
100
AcDbEntity
  8
M0
  6
DASHDOT
100
AcDbLine
 10
167.98902
 20
466.936988
 11
167.98902
 21
490.936988
  0
CIRCLE
  5
429
100
AcDbEntity
  8
M0
100
AcDbCircle
 10
167.988995
 20
394.93701
 40
2.0
  0
LINE
  5
42A
100
AcDbEntity
  8
M0
  6
DASHDOT
100
AcDbLine
 10
179.988995
 20
394.937017
 11
155.988995
 21
394.937002
  0
LINE
  5
42B
100
AcDbEntity
  8
M0
  6
DASHDOT
100
AcDbLine
 10
167.988987
 20
406.93701
 11
167.989002
 21
382.93701
  0
LINE
  5
42C
100
AcDbEntity
  8
M0
  6
DASHDOT
100
AcDbLine
 10
71.988995
 20
394.937002
 11
95.988995
 21
394.937017
  0
LINE
  5
42D
100
AcDbEntity
  8
M0
  6
DASHDOT
100
AcDbLine
 10
83.988987
 20
406.93701
 11
83.989002
 21
382.93701
  0
LINE
  5
42E
100
AcDbEntity
  8
M0
  6
DASHDOT
100
AcDbLine
 10
83.989035
 20
388.099418
 11
83.988409
 21
400.828941
  0
LINE
  5
42F
100
AcDbEntity
  8
M0
100
AcDbLine
 10
85.388937
 20
391.836875
 11
87.209006
 21
391.836875
  0
LINE
  5
430
100
AcDbEntity
  8
M0
100
AcDbLine
 10
82.588889
 20
391.836875
 11
80.76882
 21
391.836875
  0
LINE
  5
431
100
AcDbEntity
  8
M0
100
AcDbLine
 10
81.508078
 20
390.636924
 11
86.469748
 21
390.636924
  0
LINE
  5
432
100
AcDbEntity
  8
M0
100
AcDbLine
 10
85.388937
 20
391.836875
 11
85.388937
 21
392.283652
  0
LINE
  5
433
100
AcDbEntity
  8
M0
100
AcDbLine
 10
82.588889
 20
391.836875
 11
82.588889
 21
392.283652
  0
ARC
  5
434
100
AcDbEntity
  8
M0
100
AcDbCircle
 10
81.508078
 20
391.136924
 40
0.5
100
AcDbArc
 50
197.11777
 51
269.998251
  0
ARC
  5
435
100
AcDbEntity
  8
M0
100
AcDbCircle
 10
86.469748
 20
391.136924
 40
0.5
100
AcDbArc
 50
269.998251
 51
342.874517
  0
LINE
  5
436
100
AcDbEntity
  8
M0
  6
DASHDOT
 62
     6
100
AcDbLine
 10
77.665198
 20
394.936973
 11
90.100989
 21
394.936973
  0
CIRCLE
  5
437
100
AcDbEntity
  8
M0
100
AcDbCircle
 10
83.989035
 20
394.936973
 40
3.0
  0
LINE
  5
438
100
AcDbEntity
  8
M0
100
AcDbLine
 10
81.030051
 20
398.884238
 11
80.213889
 21
396.237022
  0
LINE
  5
439
100
AcDbEntity
  8
M0
100
AcDbLine
 10
81.030051
 20
390.989707
 11
80.213889
 21
393.636924
  0
LINE
  5
43A
100
AcDbEntity
  8
M0
100
AcDbLine
 10
86.947531
 20
398.884238
 11
87.763937
 21
396.237022
  0
LINE
  5
43B
100
AcDbEntity
  8
M0
100
AcDbLine
 10
86.947531
 20
390.989707
 11
87.763937
 21
393.636924
  0
LINE
  5
43C
100
AcDbEntity
  8
M0
100
AcDbLine
 10
85.388937
 20
398.036826
 11
87.209006
 21
398.036826
  0
LINE
  5
43D
100
AcDbEntity
  8
M0
100
AcDbLine
 10
86.310568
 20
396.836875
 11
87.578879
 21
396.836875
  0
LINE
  5
43E
100
AcDbEntity
  8
M0
100
AcDbLine
 10
86.310568
 20
393.036826
 11
87.578879
 21
393.036826
  0
LINE
  5
43F
100
AcDbEntity
  8
M0
100
AcDbLine
 10
82.588889
 20
398.036826
 11
80.76882
 21
398.036826
  0
LINE
  5
440
100
AcDbEntity
  8
M0
100
AcDbLine
 10
81.667258
 20
396.836875
 11
80.398947
 21
396.836875
  0
LINE
  5
441
100
AcDbEntity
  8
M0
100
AcDbLine
 10
81.667258
 20
393.036826
 11
80.398947
 21
393.036826
  0
LINE
  5
442
100
AcDbEntity
  8
M0
100
AcDbLine
 10
87.763937
 20
393.636924
 11
87.763937
 21
396.237022
  0
LINE
  5
443
100
AcDbEntity
  8
M0
100
AcDbLine
 10
86.469748
 20
399.237022
 11
81.508078
 21
399.236777
  0
LINE
  5
444
100
AcDbEntity
  8
M0
100
AcDbLine
 10
80.213889
 20
396.237022
 11
80.213889
 21
393.636924
  0
LINE
  5
445
100
AcDbEntity
  8
M0
100
AcDbLine
 10
85.388937
 20
397.590293
 11
85.388937
 21
398.036826
  0
LINE
  5
446
100
AcDbEntity
  8
M0
100
AcDbLine
 10
82.588889
 20
397.590293
 11
82.588889
 21
398.036826
  0
LINE
  5
447
100
AcDbEntity
  8
M0
100
AcDbLine
 10
85.579611
 20
393.346152
 11
82.397971
 21
396.527793
  0
LINE
  5
448
100
AcDbEntity
  8
M0
100
AcDbLine
 10
84.342306
 20
396.351035
 11
82.574728
 21
394.583457
  0
LINE
  5
449
100
AcDbEntity
  8
M0
100
AcDbLine
 10
85.402853
 20
395.290488
 11
83.635275
 21
393.52291
  0
ARC
  5
44A
100
AcDbEntity
  8
M0
100
AcDbCircle
 10
81.508078
 20
398.736777
 40
0.5
100
AcDbArc
 50
90.0
 51
162.856778
  0
ARC
  5
44B
100
AcDbEntity
  8
M0
100
AcDbCircle
 10
86.469748
 20
398.736777
 40
0.5
100
AcDbArc
 50
17.151452
 51
90.0
  0
LINE
  5
44C
100
AcDbEntity
  8
M0
  6
DASHDOT
100
AcDbLine
 10
167.989035
 20
472.099418
 11
167.988409
 21
484.828941
  0
LINE
  5
44D
100
AcDbEntity
  8
M0
100
AcDbLine
 10
169.388937
 20
475.836875
 11
171.209006
 21
475.836875
  0
LINE
  5
44E
100
AcDbEntity
  8
M0
100
AcDbLine
 10
166.588889
 20
475.836875
 11
164.76882
 21
475.836875
  0
LINE
  5
44F
100
AcDbEntity
  8
M0
100
AcDbLine
 10
165.508078
 20
474.636924
 11
170.469748
 21
474.636924
  0
LINE
  5
450
100
AcDbEntity
  8
M0
100
AcDbLine
 10
169.388937
 20
475.836875
 11
169.388937
 21
476.283652
  0
LINE
  5
451
100
AcDbEntity
  8
M0
100
AcDbLine
 10
166.588889
 20
475.836875
 11
166.588889
 21
476.283652
  0
ARC
  5
452
100
AcDbEntity
  8
M0
100
AcDbCircle
 10
165.508078
 20
475.136924
 40
0.5
100
AcDbArc
 50
197.11777
 51
269.998251
  0
ARC
  5
453
100
AcDbEntity
  8
M0
100
AcDbCircle
 10
170.469748
 20
475.136924
 40
0.5
100
AcDbArc
 50
269.998251
 51
342.874517
  0
LINE
  5
454
100
AcDbEntity
  8
M0
  6
DASHDOT
 62
     6
100
AcDbLine
 10
161.665198
 20
478.936973
 11
174.100989
 21
478.936973
  0
CIRCLE
  5
455
100
AcDbEntity
  8
M0
100
AcDbCircle
 10
167.989035
 20
478.936973
 40
3.0
  0
LINE
  5
456
100
AcDbEntity
  8
M0
100
AcDbLine
 10
165.030051
 20
482.884238
 11
164.213889
 21
480.237022
  0
LINE
  5
457
100
AcDbEntity
  8
M0
100
AcDbLine
 10
165.030051
 20
474.989707
 11
164.213889
 21
477.636924
  0
LINE
  5
458
100
AcDbEntity
  8
M0
100
AcDbLine
 10
170.947531
 20
482.884238
 11
171.763937
 21
480.237022
  0
LINE
  5
459
100
AcDbEntity
  8
M0
100
AcDbLine
 10
170.947531
 20
474.989707
 11
171.763937
 21
477.636924
  0
LINE
  5
45A
100
AcDbEntity
  8
M0
100
AcDbLine
 10
169.388937
 20
482.036826
 11
171.209006
 21
482.036826
  0
LINE
  5
45B
100
AcDbEntity
  8
M0
100
AcDbLine
 10
170.310568
 20
480.836875
 11
171.578879
 21
480.836875
  0
LINE
  5
45C
100
AcDbEntity
  8
M0
100
AcDbLine
 10
170.310568
 20
477.036826
 11
171.578879
 21
477.036826
  0
LINE
  5
45D
100
AcDbEntity
  8
M0
100
AcDbLine
 10
166.588889
 20
482.036826
 11
164.76882
 21
482.036826
  0
LINE
  5
45E
100
AcDbEntity
  8
M0
100
AcDbLine
 10
165.667258
 20
480.836875
 11
164.398947
 21
480.836875
  0
LINE
  5
45F
100
AcDbEntity
  8
M0
100
AcDbLine
 10
165.667258
 20
477.036826
 11
164.398947
 21
477.036826
  0
LINE
  5
460
100
AcDbEntity
  8
M0
100
AcDbLine
 10
171.763937
 20
477.636924
 11
171.763937
 21
480.237022
  0
LINE
  5
461
100
AcDbEntity
  8
M0
100
AcDbLine
 10
170.469748
 20
483.237022
 11
165.508078
 21
483.236777
  0
LINE
  5
462
100
AcDbEntity
  8
M0
100
AcDbLine
 10
164.213889
 20
480.237022
 11
164.213889
 21
477.636924
  0
LINE
  5
463
100
AcDbEntity
  8
M0
100
AcDbLine
 10
169.388937
 20
481.590293
 11
169.388937
 21
482.036826
  0
LINE
  5
464
100
AcDbEntity
  8
M0
100
AcDbLine
 10
166.588889
 20
481.590293
 11
166.588889
 21
482.036826
  0
LINE
  5
465
100
AcDbEntity
  8
M0
100
AcDbLine
 10
169.579611
 20
477.346152
 11
166.397971
 21
480.527793
  0
LINE
  5
466
100
AcDbEntity
  8
M0
100
AcDbLine
 10
168.342306
 20
480.351035
 11
166.574728
 21
478.583457
  0
LINE
  5
467
100
AcDbEntity
  8
M0
100
AcDbLine
 10
169.402853
 20
479.290488
 11
167.635275
 21
477.52291
  0
ARC
  5
468
100
AcDbEntity
  8
M0
100
AcDbCircle
 10
165.508078
 20
482.736777
 40
0.5
100
AcDbArc
 50
90.0
 51
162.856778
  0
ARC
  5
469
100
AcDbEntity
  8
M0
100
AcDbCircle
 10
170.469748
 20
482.736777
 40
0.5
100
AcDbArc
 50
17.151452
 51
90.0
  0
LINE
  5
46A
100
AcDbEntity
  8
M0
  6
DASHDOT
100
AcDbLine
 10
307.804602
 20
376.936988
 11
329.722525
 21
376.936988
  0
LINE
  5
46B
100
AcDbEntity
  8
M0
100
AcDbLine
 10
316.559653
 20
370.436988
 11
316.559653
 21
383.436988
  0
LINE
  5
46C
100
AcDbEntity
  8
M0
  6
DASHDOT
100
AcDbLine
 10
312.559637
 20
376.936973
 11
319.559653
 21
376.936988
  0
LINE
  5
46D
100
AcDbEntity
  8
M0
  6
DASHDOT
100
AcDbLine
 10
309.059653
 20
376.936988
 11
320.559653
 21
376.936988
  0
LINE
  5
46E
100
AcDbEntity
  8
M0
  6
DASHDOT
100
AcDbLine
 10
304.804577
 20
495.973642
 11
326.7225
 21
495.973655
  0
LINE
  5
46F
100
AcDbEntity
  8
M0
100
AcDbLine
 10
313.559623
 20
502.473647
 11
313.559632
 21
489.473647
  0
LINE
  5
470
100
AcDbEntity
  8
M0
  6
DASHDOT
100
AcDbLine
 10
309.559612
 20
495.97366
 11
316.559628
 21
495.973649
  0
LINE
  5
471
100
AcDbEntity
  8
M0
  6
DASHDOT
100
AcDbLine
 10
306.059628
 20
495.973642
 11
317.559628
 21
495.97365
  0
LINE
  5
472
100
AcDbEntity
  8
M0
 62
     4
100
AcDbLine
 10
299.759528
 20
372.936988
 11
299.759528
 21
380.936988
  0
LINE
  5
473
100
AcDbEntity
  8
M0
 62
     4
100
AcDbLine
 10
299.759528
 20
380.936988
 11
306.958072
 21
380.936988
  0
LINE
  5
474
100
AcDbEntity
  8
M0
 62
     4
100
AcDbLine
 10
325.259528
 20
372.936988
 11
319.759528
 21
372.936988
  0
LINE
  5
475
100
AcDbEntity
  8
M0
  6
DASHDOT
 62
     4
100
AcDbLine
 10
329.001501
 20
376.936988
 11
297.547964
 21
376.936988
  0
LINE
  5
476
100
AcDbEntity
  8
M0
 62
     4
100
AcDbLine
 10
319.759528
 20
369.435981
 11
319.759528
 21
384.43798
  0
LINE
  5
477
100
AcDbEntity
  8
M0
 62
     4
100
AcDbLine
 10
319.759528
 20
384.43798
 11
325.259528
 21
384.43798
  0
LINE
  5
478
100
AcDbEntity
  8
M0
 62
     4
100
AcDbLine
 10
325.259528
 20
384.43798
 11
325.259528
 21
369.435981
  0
LINE
  5
479
100
AcDbEntity
  8
M0
 62
     4
100
AcDbLine
 10
325.259528
 20
369.435981
 11
319.759528
 21
369.435981
  0
LINE
  5
47A
100
AcDbEntity
  8
M0
 62
     4
100
AcDbLine
 10
319.759528
 20
380.936988
 11
325.259528
 21
380.936988
  0
LINE
  5
47B
100
AcDbEntity
  8
M0
 62
     4
100
AcDbLine
 10
306.958072
 20
372.936988
 11
299.759528
 21
372.936988
  0
LINE
  5
47C
100
AcDbEntity
  8
M0
 62
     4
100
AcDbLine
 10
296.759525
 20
499.973597
 11
296.75953
 21
491.973597
  0
LINE
  5
47D
100
AcDbEntity
  8
M0
 62
     4
100
AcDbLine
 10
296.75953
 20
491.973597
 11
303.458075
 21
491.973601
  0
LINE
  5
47E
100
AcDbEntity
  8
M0
 62
     4
100
AcDbLine
 10
322.259525
 20
499.973613
 11
316.759525
 21
499.973609
  0
LINE
  5
47F
100
AcDbEntity
  8
M0
  6
DASHDOT
 62
     4
100
AcDbLine
 10
326.001501
 20
495.973615
 11
294.547964
 21
495.973595
  0
LINE
  5
480
100
AcDbEntity
  8
M0
 62
     4
100
AcDbLine
 10
316.759523
 20
503.474616
 11
316.759532
 21
488.472617
  0
LINE
  5
481
100
AcDbEntity
  8
M0
 62
     4
100
AcDbLine
 10
316.759532
 20
488.472617
 11
322.259532
 21
488.472621
  0
LINE
  5
482
100
AcDbEntity
  8
M0
 62
     4
100
AcDbLine
 10
322.259532
 20
488.472621
 11
322.259523
 21
503.47462
  0
LINE
  5
483
100
AcDbEntity
  8
M0
 62
     4
100
AcDbLine
 10
322.259523
 20
503.47462
 11
316.759523
 21
503.474616
  0
LINE
  5
484
100
AcDbEntity
  8
M0
 62
     4
100
AcDbLine
 10
316.75953
 20
491.973609
 11
322.25953
 21
491.973613
  0
LINE
  5
485
100
AcDbEntity
  8
M0
 62
     4
100
AcDbLine
 10
303.45807
 20
499.973601
 11
296.759525
 21
499.973597
  0
LINE
  5
486
100
AcDbEntity
  8
M0
 62
     6
100
AcDbLine
 10
311.959586
 20
486.973609
 11
313.559576
 21
486.973609
  0
LINE
  5
487
100
AcDbEntity
  8
M0
 62
     6
100
AcDbLine
 10
313.559576
 20
486.973609
 11
313.559576
 21
504.973609
  0
LINE
  5
488
100
AcDbEntity
  8
M0
 62
     6
100
AcDbLine
 10
313.559576
 20
504.973609
 11
311.959586
 21
504.973609
  0
LINE
  5
489
100
AcDbEntity
  8
M0
 62
     6
100
AcDbLine
 10
311.959586
 20
504.973609
 11
311.959586
 21
486.973609
  0
LINE
  5
48A
100
AcDbEntity
  8
M0
  6
DASHDOT
 62
     6
100
AcDbLine
 10
308.95957
 20
495.973594
 11
316.559576
 21
495.973609
  0
LINE
  5
48B
100
AcDbEntity
  8
M0
 62
     7
100
AcDbLine
 10
309.959479
 20
488.273612
 11
311.959479
 21
488.273612
  0
LINE
  5
48C
100
AcDbEntity
  8
M0
 62
     7
100
AcDbLine
 10
311.959479
 20
488.273612
 11
311.959479
 21
503.673621
  0
LINE
  5
48D
100
AcDbEntity
  8
M0
 62
     7
100
AcDbLine
 10
311.959479
 20
503.673621
 11
309.959479
 21
503.673621
  0
LINE
  5
48E
100
AcDbEntity
  8
M0
 62
     7
100
AcDbLine
 10
309.959479
 20
503.673621
 11
309.959479
 21
488.273612
  0
LINE
  5
48F
100
AcDbEntity
  8
M0
  6
DASHDOT
 62
     7
100
AcDbLine
 10
304.959479
 20
495.973624
 11
316.959479
 21
495.973624
  0
LINE
  5
490
100
AcDbEntity
  8
M0
 62
     7
100
AcDbLine
 10
309.959479
 20
495.973609
 11
311.959479
 21
494.818916
  0
LINE
  5
491
100
AcDbEntity
  8
M0
 62
     7
100
AcDbLine
 10
309.959479
 20
497.128303
 11
311.959479
 21
495.973609
  0
LINE
  5
492
100
AcDbEntity
  8
M0
 62
     6
100
AcDbLine
 10
303.458014
 20
488.463534
 11
309.959479
 21
488.463534
  0
LINE
  5
493
100
AcDbEntity
  8
M0
 62
     6
100
AcDbLine
 10
309.959479
 20
488.463534
 11
309.959479
 21
503.483563
  0
LINE
  5
494
100
AcDbEntity
  8
M0
 62
     6
100
AcDbLine
 10
309.959479
 20
503.483563
 11
303.458014
 21
503.483257
  0
LINE
  5
495
100
AcDbEntity
  8
M0
 62
     6
100
AcDbLine
 10
303.458014
 20
488.463534
 11
303.458014
 21
503.483257
  0
LINE
  5
496
100
AcDbEntity
  8
M0
  6
DASHDOT
 62
     6
100
AcDbLine
 10
298.813956
 20
495.973609
 11
313.707526
 21
495.973624
  0
LINE
  5
497
100
AcDbEntity
  8
M0
 62
     6
100
AcDbLine
 10
303.458014
 20
499.726524
 11
309.959479
 21
499.726524
  0
LINE
  5
498
100
AcDbEntity
  8
M0
 62
     6
100
AcDbLine
 10
303.458014
 20
492.220878
 11
309.959479
 21
492.220878
  0
LINE
  5
499
100
AcDbEntity
  8
M0
 62
     6
100
AcDbLine
 10
306.458009
 20
384.447062
 11
312.959474
 21
384.447066
  0
LINE
  5
49A
100
AcDbEntity
  8
M0
 62
     6
100
AcDbLine
 10
312.959474
 20
384.447066
 11
312.959483
 21
369.427037
  0
LINE
  5
49B
100
AcDbEntity
  8
M0
 62
     6
100
AcDbLine
 10
312.959483
 20
369.427037
 11
306.458019
 21
369.427338
  0
LINE
  5
49C
100
AcDbEntity
  8
M0
 62
     6
100
AcDbLine
 10
306.458009
 20
384.447062
 11
306.458019
 21
369.427338
  0
LINE
  5
49D
100
AcDbEntity
  8
M0
  6
DASHDOT
 62
     6
100
AcDbLine
 10
301.813956
 20
376.936983
 11
316.707526
 21
376.936977
  0
LINE
  5
49E
100
AcDbEntity
  8
M0
 62
     6
100
AcDbLine
 10
306.458016
 20
373.184072
 11
312.959481
 21
373.184076
  0
LINE
  5
49F
100
AcDbEntity
  8
M0
 62
     6
100
AcDbLine
 10
306.458012
 20
380.689717
 11
312.959476
 21
380.689722
  0
LINE
  5
4A0
100
AcDbEntity
  8
M0
 62
     7
100
AcDbLine
 10
312.959474
 20
384.636986
 11
314.959474
 21
384.636987
  0
LINE
  5
4A1
100
AcDbEntity
  8
M0
 62
     7
100
AcDbLine
 10
314.959474
 20
384.636987
 11
314.959484
 21
369.236978
  0
LINE
  5
4A2
100
AcDbEntity
  8
M0
 62
     7
100
AcDbLine
 10
314.959484
 20
369.236978
 11
312.959484
 21
369.236977
  0
LINE
  5
4A3
100
AcDbEntity
  8
M0
 62
     7
100
AcDbLine
 10
312.959484
 20
369.236977
 11
312.959474
 21
384.636986
  0
LINE
  5
4A4
100
AcDbEntity
  8
M0
  6
DASHDOT
 62
     7
100
AcDbLine
 10
307.959479
 20
376.936971
 11
319.959479
 21
376.936978
  0
LINE
  5
4A5
100
AcDbEntity
  8
M0
 62
     7
100
AcDbLine
 10
312.959479
 20
376.936989
 11
314.959478
 21
378.091684
  0
LINE
  5
4A6
100
AcDbEntity
  8
M0
 62
     7
100
AcDbLine
 10
312.959479
 20
375.782295
 11
314.959479
 21
376.93699
  0
LINE
  5
4A7
100
AcDbEntity
  8
M0
 62
     6
100
AcDbLine
 10
314.95958
 20
385.936989
 11
316.559571
 21
385.93699
  0
LINE
  5
4A8
100
AcDbEntity
  8
M0
 62
     6
100
AcDbLine
 10
316.559571
 20
385.93699
 11
316.559582
 21
367.93699
  0
LINE
  5
4A9
100
AcDbEntity
  8
M0
 62
     6
100
AcDbLine
 10
316.559582
 20
367.93699
 11
314.959591
 21
367.936989
  0
LINE
  5
4AA
100
AcDbEntity
  8
M0
 62
     6
100
AcDbLine
 10
314.959591
 20
367.936989
 11
314.95958
 21
385.936989
  0
LINE
  5
4AB
100
AcDbEntity
  8
M0
  6
DASHDOT
 62
     6
100
AcDbLine
 10
311.95957
 20
376.937003
 11
319.559576
 21
376.936992
  0
LINE
  5
4AC
100
AcDbEntity
  8
M0
 62
     6
100
AcDbLine
 10
125.989035
 20
384.442344
 11
132.490485
 21
380.68975
  0
LINE
  5
4AD
100
AcDbEntity
  8
M0
 62
     6
100
AcDbLine
 10
132.490485
 20
380.68975
 11
132.490485
 21
373.184104
  0
LINE
  5
4AE
100
AcDbEntity
  8
M0
 62
     6
100
AcDbLine
 10
132.490485
 20
373.184104
 11
125.989035
 21
369.431358
  0
LINE
  5
4AF
100
AcDbEntity
  8
M0
 62
     6
100
AcDbLine
 10
125.989035
 20
369.431358
 11
119.490012
 21
373.184104
  0
LINE
  5
4B0
100
AcDbEntity
  8
M0
 62
     6
100
AcDbLine
 10
119.490012
 20
373.184104
 11
119.490012
 21
380.68975
  0
LINE
  5
4B1
100
AcDbEntity
  8
M0
 62
     6
100
AcDbLine
 10
119.490012
 20
380.68975
 11
125.989035
 21
384.442344
  0
CIRCLE
  5
4B2
100
AcDbEntity
  8
M0
 62
     6
100
AcDbCircle
 10
125.989035
 20
376.937003
 40
4.0
  0
LINE
  5
4B3
100
AcDbEntity
  8
M0
  6
DASHDOT
 62
     6
100
AcDbLine
 10
136.141363
 20
376.937003
 11
115.836707
 21
376.937003
  0
LINE
  5
4B4
100
AcDbEntity
  8
M0
  6
DASHDOT
 62
     6
100
AcDbLine
 10
125.98902
 20
387.089332
 11
125.989035
 21
366.784675
  0
LINE
  5
4B5
100
AcDbEntity
  8
M0
 62
     6
100
AcDbLine
 10
158.989035
 20
384.442344
 11
165.490485
 21
380.68975
  0
LINE
  5
4B6
100
AcDbEntity
  8
M0
 62
     6
100
AcDbLine
 10
165.490485
 20
380.68975
 11
165.490485
 21
373.184104
  0
LINE
  5
4B7
100
AcDbEntity
  8
M0
 62
     6
100
AcDbLine
 10
165.490485
 20
373.184104
 11
158.989035
 21
369.431358
  0
LINE
  5
4B8
100
AcDbEntity
  8
M0
 62
     6
100
AcDbLine
 10
158.989035
 20
369.431358
 11
152.490012
 21
373.184104
  0
LINE
  5
4B9
100
AcDbEntity
  8
M0
 62
     6
100
AcDbLine
 10
152.490012
 20
373.184104
 11
152.490012
 21
380.68975
  0
LINE
  5
4BA
100
AcDbEntity
  8
M0
 62
     6
100
AcDbLine
 10
152.490012
 20
380.68975
 11
158.989035
 21
384.442344
  0
CIRCLE
  5
4BB
100
AcDbEntity
  8
M0
 62
     6
100
AcDbCircle
 10
158.989035
 20
376.937003
 40
4.0
  0
LINE
  5
4BC
100
AcDbEntity
  8
M0
  6
DASHDOT
 62
     6
100
AcDbLine
 10
169.141363
 20
376.937003
 11
148.836707
 21
376.937003
  0
LINE
  5
4BD
100
AcDbEntity
  8
M0
  6
DASHDOT
 62
     6
100
AcDbLine
 10
158.98902
 20
387.089332
 11
158.989035
 21
366.784675
  0
LINE
  5
4BE
100
AcDbEntity
  8
M0
 62
     6
100
AcDbLine
 10
92.989004
 20
384.442344
 11
99.490454
 21
380.68975
  0
LINE
  5
4BF
100
AcDbEntity
  8
M0
 62
     6
100
AcDbLine
 10
99.490454
 20
380.68975
 11
99.490454
 21
373.184104
  0
LINE
  5
4C0
100
AcDbEntity
  8
M0
 62
     6
100
AcDbLine
 10
99.490454
 20
373.184104
 11
92.989004
 21
369.431358
  0
LINE
  5
4C1
100
AcDbEntity
  8
M0
 62
     6
100
AcDbLine
 10
92.989004
 20
369.431358
 11
86.489981
 21
373.184104
  0
LINE
  5
4C2
100
AcDbEntity
  8
M0
 62
     6
100
AcDbLine
 10
86.489981
 20
373.184104
 11
86.489981
 21
380.68975
  0
LINE
  5
4C3
100
AcDbEntity
  8
M0
 62
     6
100
AcDbLine
 10
86.489981
 20
380.68975
 11
92.989004
 21
384.442344
  0
CIRCLE
  5
4C4
100
AcDbEntity
  8
M0
 62
     6
100
AcDbCircle
 10
92.989004
 20
376.937003
 40
4.0
  0
LINE
  5
4C5
100
AcDbEntity
  8
M0
  6
DASHDOT
 62
     6
100
AcDbLine
 10
103.141333
 20
376.937003
 11
82.836676
 21
376.937003
  0
LINE
  5
4C6
100
AcDbEntity
  8
M0
  6
DASHDOT
 62
     6
100
AcDbLine
 10
92.988989
 20
387.089332
 11
92.989004
 21
366.784675
  0
LINE
  5
4C7
100
AcDbEntity
  8
M0
 62
     6
100
AcDbLine
 10
125.989035
 20
504.442344
 11
132.490485
 21
500.68975
  0
LINE
  5
4C8
100
AcDbEntity
  8
M0
 62
     6
100
AcDbLine
 10
132.490485
 20
500.68975
 11
132.490485
 21
493.184104
  0
LINE
  5
4C9
100
AcDbEntity
  8
M0
 62
     6
100
AcDbLine
 10
132.490485
 20
493.184104
 11
125.989035
 21
489.431358
  0
LINE
  5
4CA
100
AcDbEntity
  8
M0
 62
     6
100
AcDbLine
 10
125.989035
 20
489.431358
 11
119.490012
 21
493.184104
  0
LINE
  5
4CB
100
AcDbEntity
  8
M0
 62
     6
100
AcDbLine
 10
119.490012
 20
493.184104
 11
119.490012
 21
500.68975
  0
LINE
  5
4CC
100
AcDbEntity
  8
M0
 62
     6
100
AcDbLine
 10
119.490012
 20
500.68975
 11
125.989035
 21
504.442344
  0
CIRCLE
  5
4CD
100
AcDbEntity
  8
M0
 62
     6
100
AcDbCircle
 10
125.989035
 20
496.937003
 40
4.0
  0
LINE
  5
4CE
100
AcDbEntity
  8
M0
  6
DASHDOT
 62
     6
100
AcDbLine
 10
136.141363
 20
496.937003
 11
115.836707
 21
496.937003
  0
LINE
  5
4CF
100
AcDbEntity
  8
M0
  6
DASHDOT
 62
     6
100
AcDbLine
 10
125.98902
 20
507.089332
 11
125.989035
 21
486.784675
  0
LINE
  5
4D0
100
AcDbEntity
  8
M0
 62
     6
100
AcDbLine
 10
158.989035
 20
504.442344
 11
165.490485
 21
500.68975
  0
LINE
  5
4D1
100
AcDbEntity
  8
M0
 62
     6
100
AcDbLine
 10
165.490485
 20
500.68975
 11
165.490485
 21
493.184104
  0
LINE
  5
4D2
100
AcDbEntity
  8
M0
 62
     6
100
AcDbLine
 10
165.490485
 20
493.184104
 11
158.989035
 21
489.431358
  0
LINE
  5
4D3
100
AcDbEntity
  8
M0
 62
     6
100
AcDbLine
 10
158.989035
 20
489.431358
 11
152.490012
 21
493.184104
  0
LINE
  5
4D4
100
AcDbEntity
  8
M0
 62
     6
100
AcDbLine
 10
152.490012
 20
493.184104
 11
152.490012
 21
500.68975
  0
LINE
  5
4D5
100
AcDbEntity
  8
M0
 62
     6
100
AcDbLine
 10
152.490012
 20
500.68975
 11
158.989035
 21
504.442344
  0
CIRCLE
  5
4D6
100
AcDbEntity
  8
M0
 62
     6
100
AcDbCircle
 10
158.989035
 20
496.937003
 40
4.0
  0
LINE
  5
4D7
100
AcDbEntity
  8
M0
  6
DASHDOT
 62
     6
100
AcDbLine
 10
169.141363
 20
496.937003
 11
148.836707
 21
496.937003
  0
LINE
  5
4D8
100
AcDbEntity
  8
M0
  6
DASHDOT
 62
     6
100
AcDbLine
 10
158.98902
 20
507.089332
 11
158.989035
 21
486.784675
  0
LINE
  5
4D9
100
AcDbEntity
  8
M0
 62
     6
100
AcDbLine
 10
92.989004
 20
504.442344
 11
99.490454
 21
500.68975
  0
LINE
  5
4DA
100
AcDbEntity
  8
M0
 62
     6
100
AcDbLine
 10
99.490454
 20
500.68975
 11
99.490454
 21
493.184104
  0
LINE
  5
4DB
100
AcDbEntity
  8
M0
 62
     6
100
AcDbLine
 10
99.490454
 20
493.184104
 11
92.989004
 21
489.431358
  0
LINE
  5
4DC
100
AcDbEntity
  8
M0
 62
     6
100
AcDbLine
 10
92.989004
 20
489.431358
 11
86.489981
 21
493.184104
  0
LINE
  5
4DD
100
AcDbEntity
  8
M0
 62
     6
100
AcDbLine
 10
86.489981
 20
493.184104
 11
86.489981
 21
500.68975
  0
LINE
  5
4DE
100
AcDbEntity
  8
M0
 62
     6
100
AcDbLine
 10
86.489981
 20
500.68975
 11
92.989004
 21
504.442344
  0
CIRCLE
  5
4DF
100
AcDbEntity
  8
M0
 62
     6
100
AcDbCircle
 10
92.989004
 20
496.937003
 40
4.0
  0
LINE
  5
4E0
100
AcDbEntity
  8
M0
  6
DASHDOT
 62
     6
100
AcDbLine
 10
103.141333
 20
496.937003
 11
82.836676
 21
496.937003
  0
LINE
  5
4E1
100
AcDbEntity
  8
M0
  6
DASHDOT
 62
     6
100
AcDbLine
 10
92.988989
 20
507.089332
 11
92.989004
 21
486.784675
  0
ARC
  5
4E2
100
AcDbEntity
  8
M0
  6
DIVIDE
100
AcDbCircle
 10
82.24465
 20
271.08092
 40
7.0
100
AcDbArc
 50
92.046839
 51
180.0
  0
LINE
  5
4E3
100
AcDbEntity
  8
M0
  6
DIVIDE
100
AcDbLine
 10
81.99462
 20
278.076465
 11
81.99462
 21
284.080966
  0
LINE
  5
4E4
100
AcDbEntity
  8
M0
  6
DIVIDE
100
AcDbLine
 10
81.99462
 20
284.080966
 11
101.99462
 21
284.080966
  0
LINE
  5
4E5
100
AcDbEntity
  8
M0
  6
DIVIDE
100
AcDbLine
 10
101.99462
 20
284.080966
 11
101.99462
 21
270.080966
  0
LINE
  5
4E6
100
AcDbEntity
  8
M0
  6
DIVIDE
100
AcDbLine
 10
105.088721
 20
265.580432
 11
101.99462
 21
270.080966
  0
LINE
  5
4E7
100
AcDbEntity
  8
M0
  6
DIVIDE
100
AcDbLine
 10
119.49465
 20
265.58092
 11
120.05715
 21
265.58092
  0
LINE
  5
4E8
100
AcDbEntity
  8
M0
  6
DIVIDE
100
AcDbLine
 10
120.05715
 20
265.58092
 11
114.994651
 21
270.08092
  0
LINE
  5
4E9
100
AcDbEntity
  8
M0
  6
DIVIDE
100
AcDbLine
 10
114.994651
 20
284.08092
 11
114.994651
 21
270.08092
  0
LINE
  5
4EA
100
AcDbEntity
  8
M0
  6
DIVIDE
100
AcDbLine
 10
134.99465
 20
284.08092
 11
114.994651
 21
284.08092
  0
LINE
  5
4EB
100
AcDbEntity
  8
M0
  6
DIVIDE
100
AcDbLine
 10
134.99465
 20
270.08092
 11
134.99465
 21
284.08092
  0
LINE
  5
4EC
100
AcDbEntity
  8
M0
  6
DIVIDE
100
AcDbLine
 10
129.931672
 20
265.580508
 11
134.99465
 21
270.08092
  0
LINE
  5
4ED
100
AcDbEntity
  8
M0
  6
DIVIDE
100
AcDbLine
 10
144.900656
 20
265.5806
 11
129.931672
 21
265.580508
  0
LINE
  5
4EE
100
AcDbEntity
  8
M0
  6
DIVIDE
100
AcDbLine
 10
144.900656
 20
265.5806
 11
147.994635
 21
270.08092
  0
LINE
  5
4EF
100
AcDbEntity
  8
M0
  6
DIVIDE
100
AcDbLine
 10
147.994635
 20
284.08092
 11
147.994635
 21
270.08092
  0
LINE
  5
4F0
100
AcDbEntity
  8
M0
  6
DIVIDE
100
AcDbLine
 10
167.994635
 20
284.08092
 11
147.994635
 21
284.08092
  0
LINE
  5
4F1
100
AcDbEntity
  8
M0
  6
DIVIDE
100
AcDbLine
 10
167.994635
 20
278.076465
 11
167.994635
 21
284.08092
  0
ARC
  5
4F2
100
AcDbEntity
  8
M0
  6
DIVIDE
100
AcDbCircle
 10
167.74465
 20
271.08092
 40
7.0
100
AcDbArc
 50
0.0
 51
87.95341
  0
LINE
  5
4F3
100
AcDbEntity
  8
M0
  6
DIVIDE
100
AcDbLine
 10
174.74465
 20
161.080936
 11
174.74465
 21
271.08092
  0
ARC
  5
4F4
100
AcDbEntity
  8
M0
  6
DIVIDE
100
AcDbCircle
 10
167.74465
 20
161.080936
 40
7.0
100
AcDbArc
 50
272.046465
 51
360.0
  0
LINE
  5
4F5
100
AcDbEntity
  8
M0
  6
DIVIDE
100
AcDbLine
 10
167.994635
 20
154.085406
 11
167.994635
 21
148.080936
  0
LINE
  5
4F6
100
AcDbEntity
  8
M0
  6
DIVIDE
100
AcDbLine
 10
167.994635
 20
148.080936
 11
147.994635
 21
148.080936
  0
LINE
  5
4F7
100
AcDbEntity
  8
M0
  6
DIVIDE
100
AcDbLine
 10
147.994635
 20
148.080936
 11
147.994635
 21
162.080936
  0
LINE
  5
4F8
100
AcDbEntity
  8
M0
  6
DIVIDE
100
AcDbLine
 10
144.900885
 20
166.580936
 11
147.994635
 21
162.080936
  0
LINE
  5
4F9
100
AcDbEntity
  8
M0
  6
DIVIDE
100
AcDbLine
 10
129.932149
 20
166.580936
 11
134.99465
 21
162.080936
  0
LINE
  5
4FA
100
AcDbEntity
  8
M0
  6
DIVIDE
100
AcDbLine
 10
134.99465
 20
162.080936
 11
134.99465
 21
148.080936
  0
LINE
  5
4FB
100
AcDbEntity
  8
M0
  6
DIVIDE
100
AcDbLine
 10
134.99465
 20
148.080936
 11
114.99465
 21
148.080936
  0
LINE
  5
4FC
100
AcDbEntity
  8
M0
  6
DIVIDE
100
AcDbLine
 10
114.99465
 20
148.080936
 11
114.99465
 21
162.080936
  0
LINE
  5
4FD
100
AcDbEntity
  8
M0
  6
DIVIDE
100
AcDbLine
 10
120.05715
 20
166.580936
 11
114.99465
 21
162.080936
  0
LINE
  5
4FE
100
AcDbEntity
  8
M0
  6
DIVIDE
100
AcDbLine
 10
105.088385
 20
166.580936
 11
120.05715
 21
166.580936
  0
LINE
  5
4FF
100
AcDbEntity
  8
M0
  6
DIVIDE
100
AcDbLine
 10
105.088385
 20
166.580936
 11
101.99462
 21
162.080905
  0
LINE
  5
500
100
AcDbEntity
  8
M0
  6
DIVIDE
100
AcDbLine
 10
101.99462
 20
148.080905
 11
101.99462
 21
162.080905
  0
LINE
  5
501
100
AcDbEntity
  8
M0
  6
DIVIDE
100
AcDbLine
 10
81.99462
 20
148.080905
 11
101.99462
 21
148.080905
  0
LINE
  5
502
100
AcDbEntity
  8
M0
  6
DIVIDE
100
AcDbLine
 10
81.99462
 20
154.085406
 11
81.99462
 21
148.080905
  0
ARC
  5
503
100
AcDbEntity
  8
M0
  6
DIVIDE
100
AcDbCircle
 10
82.24465
 20
161.080936
 40
7.0
100
AcDbArc
 50
179.999875
 51
267.953036
  0
LINE
  5
504
100
AcDbEntity
  8
M0
  6
DIVIDE
100
AcDbLine
 10
75.24465
 20
271.08092
 11
75.24465
 21
161.080936
  0
LINE
  5
505
100
AcDbEntity
  8
M0
  6
DIVIDE
100
AcDbLine
 10
120.057696
 20
265.580447
 11
105.088782
 21
265.580356
  0
LINE
  5
506
100
AcDbEntity
  8
M0
  6
DIVIDE
100
AcDbLine
 10
129.932149
 20
166.580936
 11
144.900885
 21
166.580936
  0
LINE
  5
507
100
AcDbEntity
  8
M0
  6
DASHDOT
100
AcDbLine
 10
189.252203
 20
216.080936
 11
66.429251
 21
216.080936
  0
LINE
  5
508
100
AcDbEntity
  8
M0
  6
DASHDOT
100
AcDbLine
 10
124.99465
 20
137.430423
 11
124.99465
 21
293.367404
  0
CIRCLE
  5
509
100
AcDbEntity
  8
M0
100
AcDbCircle
 10
166.994635
 20
271.08092
 40
2.5
  0
LINE
  5
50A
100
AcDbEntity
  8
M0
  6
DASHDOT
100
AcDbLine
 10
147.827978
 20
271.08092
 11
186.161307
 21
271.08092
  0
LINE
  5
50B
100
AcDbEntity
  8
M0
  6
DASHDOT
100
AcDbLine
 10
166.994635
 20
251.914264
 11
166.994635
 21
290.247592
  0
CIRCLE
  5
50C
100
AcDbEntity
  8
M0
100
AcDbCircle
 10
82.99465
 20
161.080936
 40
2.5
  0
LINE
  5
50D
100
AcDbEntity
  8
M0
  6
DASHDOT
100
AcDbLine
 10
63.827994
 20
161.080936
 11
102.161322
 21
161.080936
  0
LINE
  5
50E
100
AcDbEntity
  8
M0
  6
DASHDOT
100
AcDbLine
 10
82.99465
 20
141.914279
 11
82.99465
 21
180.247607
  0
CIRCLE
  5
50F
100
AcDbEntity
  8
M0
100
AcDbCircle
 10
166.994635
 20
271.08092
 40
1.5
  0
CIRCLE
  5
510
100
AcDbEntity
  8
M0
100
AcDbCircle
 10
82.99465
 20
161.080936
 40
1.5
  0
LINE
  5
511
100
AcDbEntity
  8
M1
 62
     2
100
AcDbLine
 10
22.222223
 20
22.222223
 11
22.222223
 21
633.33335
  0
LINE
  5
512
100
AcDbEntity
  8
M1
 62
     2
100
AcDbLine
 10
22.222223
 20
633.33335
 11
444.444456
 21
633.33335
  0
LINE
  5
513
100
AcDbEntity
  8
M1
 62
     2
100
AcDbLine
 10
444.444456
 20
633.33335
 11
444.444456
 21
22.222223
  0
LINE
  5
514
100
AcDbEntity
  8
M1
 62
     2
100
AcDbLine
 10
444.444456
 20
22.222223
 11
22.222223
 21
22.222223
  0
LINE
  5
515
100
AcDbEntity
  8
M1
 62
     2
100
AcDbLine
 10
444.444456
 20
44.444446
 11
222.222228
 21
44.444446
  0
LINE
  5
516
100
AcDbEntity
  8
M1
 62
     2
100
AcDbLine
 10
444.444456
 20
66.666668
 11
222.222228
 21
66.666668
  0
LINE
  5
517
100
AcDbEntity
  8
M1
 62
     2
100
AcDbLine
 10
444.444456
 20
88.888891
 11
222.222228
 21
88.888891
  0
LINE
  5
518
100
AcDbEntity
  8
M1
 62
     2
100
AcDbLine
 10
222.222228
 20
22.222223
 11
222.222228
 21
88.888891
  0
TEXT
  5
519
100
AcDbEntity
  8
M1
 62
     2
100
AcDbText
 10
227.777784
 20
27.777779
 40
11.111112
  1
適　用；
  7
STANDARD
100
AcDbText
  0
TEXT
  5
51A
100
AcDbEntity
  8
M1
 62
     2
100
AcDbText
 10
227.777784
 20
72.222224
 40
11.111112
  1
登録名：
  7
STANDARD
100
AcDbText
  0
TEXT
  5
51B
100
AcDbEntity
  8
M1
 62
     2
100
AcDbText
 10
281.111119
 20
72.222224
 40
11.111112
  1
ＤＭＨ１００ＣＲ００
 41
0.5
  7
STANDARD
100
AcDbText
  0
TEXT
  5
51C
100
AcDbEntity
  8
M1
 62
     2
100
AcDbText
 10
227.777784
 20
50.000001
 40
11.111112
  1
形　式；
  7
STANDARD
100
AcDbText
  0
TEXT
  5
51D
100
AcDbEntity
  8
M1
 62
     2
100
AcDbText
 10
281.111119
 20
50.000001
 40
11.111112
  1
Ｈ１００Ｃ，Ｈ１００Ｃ－Ｇ，Ｈ１２５Ｃ，Ｈ１２５Ｃ－Ｇ
 41
0.25
  7
STANDARD
100
AcDbText
  0
LINE
  5
51E
100
AcDbEntity
  8
DN0
100
AcDbLine
 10
50.852397
 20
588.931724
 11
221.430181
 21
588.931724
  0
TEXT
  5
51F
100
AcDbEntity
  8
DN0
100
AcDbText
 10
51.974619
 20
589.931724
 40
10.0
  1
※補助接点４ａ４ｂ付の場合は１２４
 41
0.833333
  7
STANDARD
100
AcDbText
  0
ENDSEC
  0
SECTION
  2
OBJECTS
  0
DICTIONARY
  5
C
100
AcDbDictionary
  3
ACAD_GROUP
350
D
  3
ACAD_MLINESTYLE
350
E
  0
DICTIONARY
  5
D
102
{ACAD_REACTORS
330
C
102
}
100
AcDbDictionary
  0
DICTIONARY
  5
E
102
{ACAD_REACTORS
330
C
102
}
100
AcDbDictionary
  3
STANDARD
350
13
  0
MLINESTYLE
  5
13
102
{ACAD_REACTORS
330
E
102
}
100
AcDbMlineStyle
  2
STANDARD
 70
     0
  3

 62
     0
 51
90.0
 52
90.0
 71
     2
 49
0.5
 62
   256
  6
BYLAYER
 49
-0.5
 62
   256
  6
BYLAYER
  0
ENDSEC
  0
EOF
