  0
SECTION
  2
HEADER
  9
$ACADVER
  1
AC1014
  9
$INSBASE
 10
0.000000
 20
0.000000
 30
0.0
  9
$VIEWCTR
 10
7.531722
 20
4.5
  9
$VIEWSIZE
 40
9.0
  9
$SNAPMODE
 70
     0
  9
$SNAPUNIT
 10
1.0
 20
1.0
  9
$SNAPBASE
 10
0.0
 20
0.0
  9
$SNAPANG
 50
0.0
  9
$SNAPSTYLE
 70
     0
  9
$SNAPISOPAIR
 70
     0
  9
$GRIDMODE
 70
     0
  9
$GRIDUNIT
 10
0.0
 20
0.0
  9
$ORTHOMODE
 70
     0
  9
$REGENMODE
 70
     1
  9
$FILLMODE
 70
     1
  9
$QTEXTMODE
 70
     0
  9
$DRAGMODE
 70
     2
  9
$LTSCALE
  40
     1.000000
  9
$OSMODE
 70
     0
  9
$ATTMODE
 70
     1
  9
$TEXTSIZE
 40
0.2
  9
$TRACEWID
 40
0.05
  9
$TEXTSTYLE
  7
STANDARD
  9
$CELTYPE
  6
BYLAYER
  9
$CECOLOR
 62
   256
  9
$DIMSCALE
 40
1.0
  9
$DIMASZ
 40
0.18
  9
$DIMEXO
 40
0.0625
  9
$DIMDLI
 40
0.38
  9
$DIMRND
 40
0.0
  9
$DIMDLE
 40
0.0
  9
$DIMEXE
 40
0.18
  9
$DIMTP
 40
0.0
  9
$DIMTM
 40
0.0
  9
$DIMTXT
 40
0.18
  9
$DIMCEN
 40
0.09
  9
$DIMTSZ
 40
0.0
  9
$DIMTOL
 70
     0
  9
$DIMLIM
 70
     0
  9
$DIMTIH
 70
     1
  9
$DIMTOH
 70
     1
  9
$DIMSE1
 70
     0
  9
$DIMSE2
 70
     0
  9
$DIMTAD
 70
     0
  9
$DIMZIN
 70
     0
  9
$DIMBLK
  1

  9
$LUNITS
 70
     2
  9
$LUPREC
 70
     4
  9
$AXISMODE
 70
     0
  9
$AXISUNIT
 10
0.0
 20
0.0
  9
$SKETCHINC
 40
0.1
  9
$FILLETRAD
 40
0.0
  9
$AUNITS
 70
     0
  9
$AUPREC
 70
     0
  9
$MENU
  1
ACAD
  9
$ELEVATION
 40
0.0
  9
$THICKNESS
 40
0.0
  9
$VIEWDIR
 10
0.0
 20
0.0
 30
1.0
  9
$LIMCHECK
 70
     0
  9
$BLIPMODE
 70
     1
  9
$CHAMFERA
 40
0.0
  9
$CHAMFERB
 40
0.0
  9
$FASTZOOM
 70
     1
  9
$SKPOLY
 70
     0
  9
$TDCREATE
 40
0000000.0000000000
  9
$TDUPDATE
 40
0000000.0000000000
  9
$TDINDWG
 40
0.0000000000
  9
$TDUSRTIMER
 40
0.0000000000
  9
$USRTIMER
 70
     1
  9
$ANGBASE
 50
0.0
  9
$ANGDIR
 70
     0
  9
$PDMODE
 70
     0
  9
$PDSIZE
 40
0.0
  9
$PLINEWID
 40
0.0
  9
$COORDS
 70
     0
  9
$USERI1
 70
     0
  9
$USERI2
 70
     0
  9
$USERI3
 70
     0
  9
$USERI4
 70
     0
  9
$USERI5
 70
     0
  9
$USERR1
 40
0.0
  9
$USERR2
 40
0.0
  9
$USERR3
 40
0.0
  9
$USERR4
 40
0.0
  9
$USERR5
 40
0.0
  9
$CLAYER
  8
M0
  9
$EXTMIN
 10
22.222223
 20
22.222223
  9
$EXTMAX
 10
444.444456
 20
633.33335
  9
$LIMMIN
 10
0.0
 20
0.0
  9
$LIMMAX
 10
210.0
 20
297.0
  9
$HANDSEED
  5
764
  0
ENDSEC
  0
SECTION
  2
CLASSES
  0
ENDSEC
  0
SECTION
  2
TABLES
  0
TABLE
  2
VPORT
  5
8
100
AcDbSymbolTable
 70
     2
  0
VPORT
  5
14
100
AcDbSymbolTableRecord
100
AcDbViewportTableRecord
  2
*ACTIVE
 70
     0
 10
0.0
 20
0.0
 11
1.0
 21
1.0
 12
484.0
 22
297.0
 13
0.0
 23
0.0
 14
1.0
 24
1.0
 15
0.0
 25
0.0
 16
0.0
 26
0.0
 36
1.0
 17
0.0
 27
0.0
 37
0.0
 40
594.0
 41
2.0
 42
50.0
 43
0.0
 44
0.0
 50
0.0
 51
0.0
 71
     0
 72
   100
 73
     1
 74
     1
 75
     0
 76
     0
 77
     0
 78
     0
  0
ENDTAB
  0
TABLE
  2
LTYPE
  5
5
100
AcDbSymbolTable
 70
     5
  0
LTYPE
  5
15
100
AcDbSymbolTableRecord
100
AcDbLinetypeTableRecord
  2
BYBLOCK
 70
     0
  3

 72
    65
 73
     0
 40
0.0
  0
LTYPE
  5
16
100
AcDbSymbolTableRecord
100
AcDbLinetypeTableRecord
  2
BYLAYER
 70
     0
  3

 72
    65
 73
     0
 40
0.0
  0
LTYPE
  5
17
100
AcDbSymbolTableRecord
100
AcDbLinetypeTableRecord
  2
CONTINUOUS
 70
    64
  3
Solid line
 72
    65
 73
     0
 40
0.0
  0
LTYPE
  5
18
100
AcDbSymbolTableRecord
100
AcDbLinetypeTableRecord
  2
DASHED
 70
    64
  3
__ __ __ __ __ __ __ __ __ __ __ __ __ __ __ __
 72
    65
 73
     2
 40
0.75
 49
0.5
 74
     0
 49
-0.25
 74
     0
  0
LTYPE
  5
19
100
AcDbSymbolTableRecord
100
AcDbLinetypeTableRecord
  2
DASHDOT
 70
    64
  3
__ . __ . __ . __ . __ . __ . __ . __ . __ . __
 72
    65
 73
     4
 40
1.0
 49
0.5
 74
     0
 49
-0.25
 74
     0
 49
0.0
 74
     0
 49
-0.25
 74
     0
  0
LTYPE
  5
1A
100
AcDbSymbolTableRecord
100
AcDbLinetypeTableRecord
  2
DIVIDE
 70
    64
  3
____ . . ____ . . ____ . . ____ . . ____ . . __
 72
    65
 73
     6
 40
1.25
 49
0.5
 74
     0
 49
-0.25
 74
     0
 49
0.0
 74
     0
 49
-0.25
 74
     0
 49
0.0
 74
     0
 49
-0.25
 74
     0
  0
LTYPE
  5
1B
100
AcDbSymbolTableRecord
100
AcDbLinetypeTableRecord
  2
DOT
 70
    64
  3
. . . . . . . . . . . . . . . . . . . . . . . .
 72
    65
 73
     2
 40
0.25
 49
0.0
 74
     0
 49
-0.25
 74
     0
  0
ENDTAB
  0
TABLE
  2
LAYER
  5
2
100
AcDbSymbolTable
 70
   102
  0
LAYER
  5
F
100
AcDbSymbolTableRecord
100
AcDbLayerTableRecord
  2
0
 70
     0
 62
     7
  6
CONTINUOUS
  0
LAYER
  5
1C
100
AcDbSymbolTableRecord
100
AcDbLayerTableRecord
  2
DEFPOINTS
 70
     0
 62
     7
  6
CONTINUOUS
  0
LAYER
  5
1D
100
AcDbSymbolTableRecord
100
AcDbLayerTableRecord
  2
M0
 70
     0
 62
     3
  6
CONTINUOUS
  0
LAYER
  5
1E
100
AcDbSymbolTableRecord
100
AcDbLayerTableRecord
  2
M1
 70
     0
 62
     3
  6
CONTINUOUS
  0
LAYER
  5
1F
100
AcDbSymbolTableRecord
100
AcDbLayerTableRecord
  2
DD0
 70
     0
 62
     4
  6
CONTINUOUS
  0
LAYER
  5
20
100
AcDbSymbolTableRecord
100
AcDbLayerTableRecord
  2
DN0
 70
     0
 62
     2
  6
CONTINUOUS
  0
ENDTAB
  0
TABLE
  2
STYLE
  5
3
100
AcDbSymbolTable
 70
     2
  0
STYLE
  5
10
100
AcDbSymbolTableRecord
100
AcDbTextStyleTableRecord
  2
STANDARD
 70
     0
 40
0.0
 41
1.0
 50
0.0
 71
     0
 42
0.2
  3
txt
  4
BIGFONT
  0
ENDTAB
  0
TABLE
  2
VIEW
  5
6
100
AcDbSymbolTable
 70
     0
  0
ENDTAB
  0
TABLE
  2
UCS
  5
7
100
AcDbSymbolTable
 70
     0
  0
ENDTAB
  0
TABLE
  2
APPID
  5
9
100
AcDbSymbolTable
 70
     1
  0
APPID
  5
11
100
AcDbSymbolTableRecord
100
AcDbRegAppTableRecord
  2
ACAD
 70
     0
  0
ENDTAB
  0
TABLE
  2
DIMSTYLE
  5
A
100
AcDbSymbolTable
 70
     2
  0
DIMSTYLE
105
27
100
AcDbSymbolTableRecord
100
AcDbDimStyleTableRecord
  2
STANDARD
 70
     0
  3

  4

  5

  6
_OPEN
  7
_OPEN
 40
1.0
 41
6.666667
 42
1.0
 43
8.0
 44
1.0
 45
0.0
 46
0.0
 47
0.0
 48
0.0
140
7.0
141
0.09
142
0.0
143
0.03937
144
1.0
145
0.0
146
1.0
147
0.6
 71
     0
 72
     0
 73
     1
 74
     1
 75
     0
 76
     0
 77
     3
 78
     8
170
     0
171
     2
172
     0
173
     1
174
     0
175
     0
176
     0
177
     0
178
     0
270
     2
271
     2
272
     4
273
     2
274
     2
340
10
275
     0
280
     0
281
     0
282
     0
283
     1
284
     0
285
     0
286
     0
287
     3
288
     0
  0
DIMSTYLE
105
28
100
AcDbSymbolTableRecord
100
AcDbDimStyleTableRecord
  2
LEADSTYL
 70
     0
  3

  4

  5

  6
_OPEN
  7
_OPEN
 40
1.0
 41
6.666667
 42
0.0625
 43
0.38
 44
0.18
 45
0.0
 46
0.0
 47
0.0
 48
0.0
140
7.0
141
0.09
142
0.0
143
25.4
144
1.0
145
0.0
146
1.0
147
0.6
 71
     0
 72
     0
 73
     1
 74
     1
 75
     0
 76
     0
 77
     0
 78
     0
170
     0
171
     2
172
     0
173
     1
174
     0
175
     0
176
     0
177
     0
178
     0
270
     2
271
     4
272
     4
273
     2
274
     2
340
10
275
     0
280
     0
281
     0
282
     0
283
     1
284
     0
285
     0
286
     0
287
     3
288
     0
  0
ENDTAB
  0
TABLE
  2
BLOCK_RECORD
  5
1
100
AcDbSymbolTable
 70
    18
  0
BLOCK_RECORD
  5
21
100
AcDbSymbolTableRecord
100
AcDbBlockTableRecord
  2
*MODEL_SPACE
  0
BLOCK_RECORD
  5
24
100
AcDbSymbolTableRecord
100
AcDbBlockTableRecord
  2
*PAPER_SPACE
  0
BLOCK_RECORD
  5
29
100
AcDbSymbolTableRecord
100
AcDbBlockTableRecord
  2
_NONE
  0
BLOCK_RECORD
  5
2D
100
AcDbSymbolTableRecord
100
AcDbBlockTableRecord
  2
_OPEN
  0
BLOCK_RECORD
  5
33
100
AcDbSymbolTableRecord
100
AcDbBlockTableRecord
  2
_CLOSED
  0
BLOCK_RECORD
  5
3A
100
AcDbSymbolTableRecord
100
AcDbBlockTableRecord
  2
_ORIGIN
  0
BLOCK_RECORD
  5
3F
100
AcDbSymbolTableRecord
100
AcDbBlockTableRecord
  2
_DOT
  0
BLOCK_RECORD
  5
47
100
AcDbSymbolTableRecord
100
AcDbBlockTableRecord
  2
_OBLIQUE
  0
BLOCK_RECORD
  5
4B
100
AcDbSymbolTableRecord
100
AcDbBlockTableRecord
  2
DIMS0
  0
BLOCK_RECORD
  5
57
100
AcDbSymbolTableRecord
100
AcDbBlockTableRecord
  2
DIMS1
  0
BLOCK_RECORD
  5
63
100
AcDbSymbolTableRecord
100
AcDbBlockTableRecord
  2
DIMS2
  0
BLOCK_RECORD
  5
6F
100
AcDbSymbolTableRecord
100
AcDbBlockTableRecord
  2
DIMS3
  0
BLOCK_RECORD
  5
78
100
AcDbSymbolTableRecord
100
AcDbBlockTableRecord
  2
DIMS4
  0
BLOCK_RECORD
  5
80
100
AcDbSymbolTableRecord
100
AcDbBlockTableRecord
  2
DIMS5
  0
BLOCK_RECORD
  5
8C
100
AcDbSymbolTableRecord
100
AcDbBlockTableRecord
  2
DIMS6
  0
BLOCK_RECORD
  5
98
100
AcDbSymbolTableRecord
100
AcDbBlockTableRecord
  2
DIMS7
  0
BLOCK_RECORD
  5
A4
100
AcDbSymbolTableRecord
100
AcDbBlockTableRecord
  2
DIMS8
  0
BLOCK_RECORD
  5
B0
100
AcDbSymbolTableRecord
100
AcDbBlockTableRecord
  2
DIMS9
  0
BLOCK_RECORD
  5
B9
100
AcDbSymbolTableRecord
100
AcDbBlockTableRecord
  2
DIMS10
  0
BLOCK_RECORD
  5
C5
100
AcDbSymbolTableRecord
100
AcDbBlockTableRecord
  2
DIMS11
  0
ENDTAB
  0
ENDSEC
  0
SECTION
  2
BLOCKS
  0
BLOCK
  5
22
100
AcDbEntity
  8
0
100
AcDbBlockBegin
  2
*MODEL_SPACE
 70
     0
 10
0.0
 20
0.0
 30
0.0
  3
*MODEL_SPACE
  1

  0
ENDBLK
  5
23
100
AcDbEntity
  8
0
100
AcDbBlockEnd
  0
BLOCK
  5
25
100
AcDbEntity
 67
     1
  8
0
100
AcDbBlockBegin
  2
*PAPER_SPACE
 70
     0
 10
0.0
 20
0.0
 30
0.0
  3
*PAPER_SPACE
  1

  0
ENDBLK
  5
26
100
AcDbEntity
 67
     1
  8
0
100
AcDbBlockEnd
  0
BLOCK
  5
2A
100
AcDbEntity
  8
0
100
AcDbBlockBegin
  2
_NONE
 70
     0
 10
0.0
 20
0.0
  0
CIRCLE
  5
2B
100
AcDbEntity
  8
0
 62
     0
100
AcDbCircle
 10
0.0
 20
0.0
 40
0.25
  0
ENDBLK
  5
2C
100
AcDbEntity
  8
0
100
AcDbBlockEnd
  0
BLOCK
  5
2E
100
AcDbEntity
  8
0
100
AcDbBlockBegin
  2
_OPEN
 70
     0
 10
0.0
 20
0.0
  0
LINE
  5
2F
100
AcDbEntity
  8
0
 62
     0
100
AcDbLine
 10
-0.965926
 20
0.258819
 11
0.0
 21
0.0
  0
LINE
  5
30
100
AcDbEntity
  8
0
 62
     0
100
AcDbLine
 10
0.0
 20
0.0
 11
-0.965926
 21
-0.258819
  0
LINE
  5
31
100
AcDbEntity
  8
0
 62
     0
100
AcDbLine
 10
0.0
 20
0.0
 11
-1.0
 21
0.0
  0
ENDBLK
  5
32
100
AcDbEntity
  8
0
100
AcDbBlockEnd
  0
BLOCK
  5
34
100
AcDbEntity
  8
0
100
AcDbBlockBegin
  2
_CLOSED
 70
     0
 10
0.0
 20
0.0
  0
LINE
  5
35
100
AcDbEntity
  8
0
 62
     0
100
AcDbLine
 10
-0.965926
 20
0.258819
 11
0.0
 21
0.0
  0
LINE
  5
36
100
AcDbEntity
  8
0
 62
     0
100
AcDbLine
 10
0.0
 20
0.0
 11
-0.965926
 21
-0.258819
  0
LINE
  5
37
100
AcDbEntity
  8
0
 62
     0
100
AcDbLine
 10
-0.965926
 20
0.258819
 11
-0.965926
 21
-0.258819
  0
LINE
  5
38
100
AcDbEntity
  8
0
 62
     0
100
AcDbLine
 10
0.0
 20
0.0
 11
-1.0
 21
0.0
  0
ENDBLK
  5
39
100
AcDbEntity
  8
0
100
AcDbBlockEnd
  0
BLOCK
  5
3B
100
AcDbEntity
  8
0
100
AcDbBlockBegin
  2
_ORIGIN
 70
     0
 10
0.0
 20
0.0
  0
CIRCLE
  5
3C
100
AcDbEntity
  8
0
 62
     0
100
AcDbCircle
 10
0.0
 20
0.0
 40
0.5
  0
LINE
  5
3D
100
AcDbEntity
  8
0
 62
     0
100
AcDbLine
 10
0.0
 20
0.0
 11
-1.0
 21
0.0
  0
ENDBLK
  5
3E
100
AcDbEntity
  8
0
100
AcDbBlockEnd
  0
BLOCK
  5
40
100
AcDbEntity
  8
0
100
AcDbBlockBegin
  2
_DOT
 70
     0
 10
0.0
 20
0.0
  0
POLYLINE
  5
41
100
AcDbEntity
  8
0
 62
     0
100
AcDb2dPolyline
 66
     1
 70
     1
 40
0.5
 41
0.5
  0
VERTEX
  5
42
100
AcDbEntity
  8
0
 62
     0
100
AcDbVertex
100
AcDb2dVertex
 10
-0.25
 20
0.0
 42
1.0
  0
VERTEX
  5
43
100
AcDbEntity
  8
0
 62
     0
100
AcDbVertex
100
AcDb2dVertex
 10
0.25
 20
0.0
 42
1.0
  0
SEQEND
  5
44
100
AcDbEntity
  8
0
 62
     0
  0
LINE
  5
45
100
AcDbEntity
  8
0
 62
     0
100
AcDbLine
 10
-0.5
 20
0.0
 11
-1.0
 21
0.0
  0
ENDBLK
  5
46
100
AcDbEntity
  8
0
100
AcDbBlockEnd
  0
BLOCK
  5
48
100
AcDbEntity
  8
0
100
AcDbBlockBegin
  2
_OBLIQUE
 70
     0
 10
0.0
 20
0.0
  0
LINE
  5
49
100
AcDbEntity
  8
0
 62
     0
100
AcDbLine
 10
-0.353553
 20
-0.353553
 11
0.353553
 21
0.353553
  0
ENDBLK
  5
4A
100
AcDbEntity
  8
0
100
AcDbBlockEnd
  0
BLOCK
  5
4C
100
AcDbEntity
  8
DD0
100
AcDbBlockBegin
  2
DIMS0
 70
     0
 10
0.0
 20
0.0
  0
LINE
  5
4D
100
AcDbEntity
  8
DD0
100
AcDbLine
 10
151.107351
 20
537.631443
 11
203.980905
 21
537.631443
  0
LINE
  5
4E
100
AcDbEntity
  8
DD0
100
AcDbLine
 10
178.107372
 20
393.132029
 11
203.980905
 21
393.132029
  0
LINE
  5
4F
100
AcDbEntity
  8
DD0
100
AcDbLine
 10
203.484143
 20
531.191938
 11
201.758683
 21
537.631443
  0
LINE
  5
50
100
AcDbEntity
  8
DD0
100
AcDbLine
 10
201.758683
 20
537.631443
 11
200.033222
 21
531.191938
  0
LINE
  5
51
100
AcDbEntity
  8
DD0
100
AcDbLine
 10
200.033222
 20
399.571535
 11
201.758683
 21
393.132029
  0
LINE
  5
52
100
AcDbEntity
  8
DD0
100
AcDbLine
 10
201.758683
 20
393.132029
 11
203.484143
 21
399.571535
  0
LINE
  5
53
100
AcDbEntity
  8
DD0
100
AcDbLine
 10
201.758683
 20
537.631443
 11
201.758683
 21
393.132029
  0
TEXT
  5
54
100
AcDbEntity
  8
DD0
100
AcDbText
 10
200.203134
 20
457.448406
 40
7.0
  1
１４５
 50
90.000003
 41
0.666667
  7
STANDARD
100
AcDbText
  0
ENDBLK
  5
55
100
AcDbEntity
  8
DD0
100
AcDbBlockEnd
  0
BLOCK
  5
58
100
AcDbEntity
  8
DD0
100
AcDbBlockBegin
  2
DIMS1
 70
     0
 10
0.0
 20
0.0
  0
LINE
  5
59
100
AcDbEntity
  8
DD0
100
AcDbLine
 10
114.177173
 20
383.132606
 11
203.980905
 21
383.132606
  0
LINE
  5
5A
100
AcDbEntity
  8
DD0
100
AcDbLine
 10
178.107372
 20
393.132029
 11
203.980905
 21
393.132029
  0
LINE
  5
5B
100
AcDbEntity
  8
DD0
100
AcDbLine
 10
203.484143
 20
376.6931
 11
201.758683
 21
383.132606
  0
LINE
  5
5C
100
AcDbEntity
  8
DD0
100
AcDbLine
 10
201.758683
 20
383.132606
 11
200.033222
 21
376.6931
  0
LINE
  5
5D
100
AcDbEntity
  8
DD0
100
AcDbLine
 10
200.033222
 20
399.571535
 11
201.758683
 21
393.132029
  0
LINE
  5
5E
100
AcDbEntity
  8
DD0
100
AcDbLine
 10
201.758683
 20
393.132029
 11
203.484143
 21
399.571535
  0
LINE
  5
5F
100
AcDbEntity
  8
DD0
100
AcDbLine
 10
201.758683
 20
367.97705
 11
201.758683
 21
400.465363
  0
TEXT
  5
60
100
AcDbEntity
  8
DD0
100
AcDbText
 10
200.203134
 20
369.865939
 40
7.0
  1
８
 50
90.000003
 41
0.666667
  7
STANDARD
100
AcDbText
  0
ENDBLK
  5
61
100
AcDbEntity
  8
DD0
100
AcDbBlockEnd
  0
BLOCK
  5
64
100
AcDbEntity
  8
DD0
100
AcDbBlockBegin
  2
DIMS2
 70
     0
 10
0.0
 20
0.0
  0
LINE
  5
65
100
AcDbEntity
  8
DD0
100
AcDbLine
 10
175.88515
 20
523.554261
 11
175.88515
 21
565.573983
  0
LINE
  5
66
100
AcDbEntity
  8
DD0
100
AcDbLine
 10
68.885144
 20
523.554261
 11
68.885144
 21
565.573983
  0
LINE
  5
67
100
AcDbEntity
  8
DD0
100
AcDbLine
 10
169.445644
 20
561.6263
 11
175.88515
 21
563.351761
  0
LINE
  5
68
100
AcDbEntity
  8
DD0
100
AcDbLine
 10
175.88515
 20
563.351761
 11
169.445644
 21
565.077221
  0
LINE
  5
69
100
AcDbEntity
  8
DD0
100
AcDbLine
 10
75.324649
 20
565.077221
 11
68.885144
 21
563.351761
  0
LINE
  5
6A
100
AcDbEntity
  8
DD0
100
AcDbLine
 10
68.885144
 20
563.351761
 11
75.324649
 21
561.6263
  0
LINE
  5
6B
100
AcDbEntity
  8
DD0
100
AcDbLine
 10
175.88515
 20
563.351761
 11
68.885144
 21
563.351761
  0
TEXT
  5
6C
100
AcDbEntity
  8
DD0
100
AcDbText
 10
114.451817
 20
564.907309
 40
7.0
  1
１０７
 41
0.666667
  7
STANDARD
100
AcDbText
  0
ENDBLK
  5
6D
100
AcDbEntity
  8
DD0
100
AcDbBlockEnd
  0
BLOCK
  5
70
100
AcDbEntity
  8
DD0
100
AcDbBlockBegin
  2
DIMS3
 70
     0
 10
0.0
 20
0.0
  0
TEXT
  5
71
100
AcDbEntity
  8
DD0
100
AcDbText
 10
62.969708
 20
596.072064
 40
7.0
  1
サージアブソーバ
 41
0.666667
  7
STANDARD
100
AcDbText
  0
TEXT
  5
72
100
AcDbEntity
  8
DD0
100
AcDbText
 10
62.969708
 20
585.960912
 40
7.0
  1
（直流操作の場合）
 41
0.666667
  7
STANDARD
100
AcDbText
  0
LINE
  5
73
100
AcDbEntity
  8
DD0
100
AcDbLine
 10
79.91351
 20
544.885979
 11
81.135493
 21
538.332263
  0
LINE
  5
74
100
AcDbEntity
  8
DD0
100
AcDbLine
 10
81.135493
 20
538.332263
 11
83.354084
 21
544.618939
  0
LINE
  5
75
100
AcDbEntity
  8
DD0
100
AcDbLine
 10
81.135493
 20
538.332263
 11
84.543883
 21
582.246313
  0
ENDBLK
  5
76
100
AcDbEntity
  8
DD0
100
AcDbBlockEnd
  0
BLOCK
  5
79
100
AcDbEntity
  8
DD0
100
AcDbBlockBegin
  2
DIMS4
 70
     0
 10
0.0
 20
0.0
  0
TEXT
  5
7A
100
AcDbEntity
  8
DD0
100
AcDbText
 10
87.006494
 20
583.801895
 40
7.0
  1
　
 41
0.666667
  7
STANDARD
100
AcDbText
  0
LINE
  5
7B
100
AcDbEntity
  8
DD0
100
AcDbLine
 10
132.985833
 20
541.995477
 11
138.555869
 21
538.332263
  0
LINE
  5
7C
100
AcDbEntity
  8
DD0
100
AcDbLine
 10
138.555869
 20
538.332263
 11
135.563684
 21
544.289718
  0
LINE
  5
7D
100
AcDbEntity
  8
DD0
100
AcDbLine
 10
138.555869
 20
538.332263
 11
99.473159
 21
582.246313
  0
ENDBLK
  5
7E
100
AcDbEntity
  8
DD0
100
AcDbBlockEnd
  0
BLOCK
  5
81
100
AcDbEntity
  8
DD0
100
AcDbBlockBegin
  2
DIMS5
 70
     0
 10
0.0
 20
0.0
  0
LINE
  5
82
100
AcDbEntity
  8
DD0
100
AcDbLine
 10
151.107063
 20
270.264188
 11
205.541625
 21
270.264188
  0
LINE
  5
83
100
AcDbEntity
  8
DD0
100
AcDbLine
 10
175.107054
 20
244.764784
 11
205.541625
 21
244.764784
  0
LINE
  5
84
100
AcDbEntity
  8
DD0
100
AcDbLine
 10
205.044863
 20
263.824682
 11
203.319402
 21
270.264188
  0
LINE
  5
85
100
AcDbEntity
  8
DD0
100
AcDbLine
 10
203.319402
 20
270.264188
 11
201.593942
 21
263.824682
  0
LINE
  5
86
100
AcDbEntity
  8
DD0
100
AcDbLine
 10
201.593942
 20
251.204289
 11
203.319402
 21
244.764784
  0
LINE
  5
87
100
AcDbEntity
  8
DD0
100
AcDbLine
 10
203.319402
 20
244.764784
 11
205.044863
 21
251.204289
  0
LINE
  5
88
100
AcDbEntity
  8
DD0
100
AcDbLine
 10
203.319402
 20
302.219744
 11
203.319402
 21
244.764784
  0
TEXT
  5
89
100
AcDbEntity
  8
DD0
100
AcDbText
 10
201.763854
 20
278.064195
 40
7.0
  1
２５．５
 50
90.000003
 41
0.666667
  7
STANDARD
100
AcDbText
  0
ENDBLK
  5
8A
100
AcDbEntity
  8
DD0
100
AcDbBlockEnd
  0
BLOCK
  5
8D
100
AcDbEntity
  8
DD0
100
AcDbBlockBegin
  2
DIMS6
 70
     0
 10
0.0
 20
0.0
  0
LINE
  5
8E
100
AcDbEntity
  8
DD0
 60
     1
100
AcDbLine
 10
175.107054
 20
244.764784
 11
205.541625
 21
244.764784
  0
LINE
  5
8F
100
AcDbEntity
  8
DD0
100
AcDbLine
 10
91.107061
 20
134.764789
 11
205.541625
 21
134.764789
  0
LINE
  5
90
100
AcDbEntity
  8
DD0
100
AcDbLine
 10
205.044863
 20
238.325278
 11
203.319402
 21
244.764784
  0
LINE
  5
91
100
AcDbEntity
  8
DD0
100
AcDbLine
 10
203.319402
 20
244.764784
 11
201.593942
 21
238.325278
  0
LINE
  5
92
100
AcDbEntity
  8
DD0
100
AcDbLine
 10
201.593942
 20
141.204295
 11
203.319402
 21
134.764789
  0
LINE
  5
93
100
AcDbEntity
  8
DD0
100
AcDbLine
 10
203.319402
 20
134.764789
 11
205.044863
 21
141.204295
  0
LINE
  5
94
100
AcDbEntity
  8
DD0
100
AcDbLine
 10
203.319402
 20
244.764784
 11
203.319402
 21
134.764789
  0
TEXT
  5
95
100
AcDbEntity
  8
DD0
100
AcDbText
 10
201.763854
 20
181.831452
 40
7.0
  1
１１０
 50
90.000003
 41
0.666667
  7
STANDARD
100
AcDbText
  0
ENDBLK
  5
96
100
AcDbEntity
  8
DD0
100
AcDbBlockEnd
  0
BLOCK
  5
99
100
AcDbEntity
  8
DD0
100
AcDbBlockBegin
  2
DIMS7
 70
     0
 10
0.0
 20
0.0
  0
LINE
  5
9A
100
AcDbEntity
  8
DD0
100
AcDbLine
 10
175.884862
 20
260.086762
 11
175.884862
 21
306.786575
  0
LINE
  5
9B
100
AcDbEntity
  8
DD0
100
AcDbLine
 10
160.884844
 20
258.98701
 11
160.884844
 21
306.786575
  0
LINE
  5
9C
100
AcDbEntity
  8
DD0
100
AcDbLine
 10
182.324368
 20
306.289813
 11
175.884862
 21
304.564353
  0
LINE
  5
9D
100
AcDbEntity
  8
DD0
100
AcDbLine
 10
175.884862
 20
304.564353
 11
182.324368
 21
302.838892
  0
LINE
  5
9E
100
AcDbEntity
  8
DD0
100
AcDbLine
 10
154.445339
 20
302.838892
 11
160.884844
 21
304.564353
  0
LINE
  5
9F
100
AcDbEntity
  8
DD0
100
AcDbLine
 10
160.884844
 20
304.564353
 11
154.445339
 21
306.289813
  0
LINE
  5
A0
100
AcDbEntity
  8
DD0
100
AcDbLine
 10
192.185435
 20
304.564353
 11
153.551511
 21
304.564353
  0
TEXT
  5
A1
100
AcDbEntity
  8
DD0
100
AcDbText
 10
179.22988
 20
306.119902
 40
7.0
  1
１５
 41
0.666667
  7
STANDARD
100
AcDbText
  0
ENDBLK
  5
A2
100
AcDbEntity
  8
DD0
100
AcDbBlockEnd
  0
BLOCK
  5
A5
100
AcDbEntity
  8
DD0
100
AcDbBlockBegin
  2
DIMS8
 70
     0
 10
0.0
 20
0.0
  0
LINE
  5
A6
100
AcDbEntity
  8
DD0
 60
     1
100
AcDbLine
 10
160.884844
 20
258.98701
 11
160.884844
 21
306.786575
  0
LINE
  5
A7
100
AcDbEntity
  8
DD0
100
AcDbLine
 10
76.884835
 20
148.987007
 11
76.884835
 21
306.786575
  0
LINE
  5
A8
100
AcDbEntity
  8
DD0
100
AcDbLine
 10
154.445339
 20
302.838892
 11
160.884844
 21
304.564353
  0
LINE
  5
A9
100
AcDbEntity
  8
DD0
100
AcDbLine
 10
160.884844
 20
304.564353
 11
154.445339
 21
306.289813
  0
LINE
  5
AA
100
AcDbEntity
  8
DD0
100
AcDbLine
 10
83.324341
 20
306.289813
 11
76.884835
 21
304.564353
  0
LINE
  5
AB
100
AcDbEntity
  8
DD0
100
AcDbLine
 10
76.884835
 20
304.564353
 11
83.324341
 21
302.838892
  0
LINE
  5
AC
100
AcDbEntity
  8
DD0
100
AcDbLine
 10
160.884844
 20
304.564353
 11
76.884835
 21
304.564353
  0
TEXT
  5
AD
100
AcDbEntity
  8
DD0
100
AcDbText
 10
94.151506
 20
306.119902
 40
7.0
  1
８４（８０も可能）
 41
0.666667
  7
STANDARD
100
AcDbText
  0
ENDBLK
  5
AE
100
AcDbEntity
  8
DD0
100
AcDbBlockEnd
  0
BLOCK
  5
B1
100
AcDbEntity
  8
DD0
100
AcDbBlockBegin
  2
DIMS9
 70
     0
 10
0.0
 20
0.0
  0
TEXT
  5
B2
100
AcDbEntity
  8
DD0
100
AcDbText
 10
72.250795
 20
93.80991
 40
7.0
  1
２－Ｍ５ねじ穴
 41
0.666667
  7
STANDARD
100
AcDbText
  0
LINE
  5
B3
100
AcDbEntity
  8
DD0
100
AcDbLine
 10
74.021862
 20
125.542099
 11
73.810808
 21
132.205424
  0
LINE
  5
B4
100
AcDbEntity
  8
DD0
100
AcDbLine
 10
73.810808
 20
132.205424
 11
70.661923
 21
126.329288
  0
LINE
  5
B5
100
AcDbEntity
  8
DD0
100
AcDbLine
 10
73.810808
 20
132.205424
 11
64.450796
 21
92.254353
  0
LINE
  5
B6
100
AcDbEntity
  8
DD0
100
AcDbLine
 10
64.450796
 20
92.254353
 11
118.317467
 21
92.254353
  0
ENDBLK
  5
B7
100
AcDbEntity
  8
DD0
100
AcDbBlockEnd
  0
BLOCK
  5
BA
100
AcDbEntity
  8
DD0
100
AcDbBlockBegin
  2
DIMS10
 70
     0
 10
0.0
 20
0.0
  0
LINE
  5
BB
100
AcDbEntity
  8
DD0
100
AcDbLine
 10
412.233965
 20
521.454482
 11
412.233965
 21
565.573983
  0
LINE
  5
BC
100
AcDbEntity
  8
DD0
100
AcDbLine
 10
224.934071
 20
506.453769
 11
224.934071
 21
565.573983
  0
LINE
  5
BD
100
AcDbEntity
  8
DD0
100
AcDbLine
 10
405.79446
 20
561.6263
 11
412.233965
 21
563.351761
  0
LINE
  5
BE
100
AcDbEntity
  8
DD0
100
AcDbLine
 10
412.233965
 20
563.351761
 11
405.79446
 21
565.077221
  0
LINE
  5
BF
100
AcDbEntity
  8
DD0
100
AcDbLine
 10
231.373577
 20
565.077221
 11
224.934071
 21
563.351761
  0
LINE
  5
C0
100
AcDbEntity
  8
DD0
100
AcDbLine
 10
224.934071
 20
563.351761
 11
231.373577
 21
561.6263
  0
LINE
  5
C1
100
AcDbEntity
  8
DD0
100
AcDbLine
 10
412.233965
 20
563.351761
 11
224.934071
 21
563.351761
  0
TEXT
  5
C2
100
AcDbEntity
  8
DD0
100
AcDbText
 10
308.656238
 20
564.685107
 40
7.0
  1
１８８
 41
0.833333
  7
STANDARD
100
AcDbText
  0
ENDBLK
  5
C3
100
AcDbEntity
  8
DD0
100
AcDbBlockEnd
  0
BLOCK
  5
C6
100
AcDbEntity
  8
DD0
100
AcDbBlockBegin
  2
DIMS11
 70
     0
 10
0.0
 20
0.0
  0
LINE
  5
C7
100
AcDbEntity
  8
DD0
100
AcDbLine
 10
412.233965
 20
393.010027
 11
412.233965
 21
353.055938
  0
LINE
  5
C8
100
AcDbEntity
  8
DD0
100
AcDbLine
 10
360.933915
 20
394.05149
 11
360.933915
 21
353.055938
  0
LINE
  5
C9
100
AcDbEntity
  8
DD0
100
AcDbLine
 10
405.79446
 20
353.5527
 11
412.233965
 21
355.27816
  0
LINE
  5
CA
100
AcDbEntity
  8
DD0
100
AcDbLine
 10
412.233965
 20
355.27816
 11
405.79446
 21
357.003621
  0
LINE
  5
CB
100
AcDbEntity
  8
DD0
100
AcDbLine
 10
367.373421
 20
357.003621
 11
360.933915
 21
355.27816
  0
LINE
  5
CC
100
AcDbEntity
  8
DD0
100
AcDbLine
 10
360.933915
 20
355.27816
 11
367.373421
 21
353.5527
  0
LINE
  5
CD
100
AcDbEntity
  8
DD0
100
AcDbLine
 10
412.233965
 20
355.27816
 11
360.933915
 21
355.27816
  0
TEXT
  5
CE
100
AcDbEntity
  8
DD0
100
AcDbText
 10
366.156172
 20
356.611507
 40
7.0
  1
５１（取付）
 41
0.833333
  7
STANDARD
100
AcDbText
  0
ENDBLK
  5
CF
100
AcDbEntity
  8
DD0
100
AcDbBlockEnd
  0
ENDSEC
  0
SECTION
  2
ENTITIES
  0
INSERT
  5
56
100
AcDbEntity
  8
DD0
100
AcDbBlockReference
  2
DIMS0
 10
0.0
 20
0.0
  0
INSERT
  5
62
100
AcDbEntity
  8
DD0
100
AcDbBlockReference
  2
DIMS1
 10
0.0
 20
0.0
  0
INSERT
  5
6E
100
AcDbEntity
  8
DD0
100
AcDbBlockReference
  2
DIMS2
 10
0.0
 20
0.0
  0
INSERT
  5
77
100
AcDbEntity
  8
DD0
100
AcDbBlockReference
  2
DIMS3
 10
0.0
 20
0.0
  0
INSERT
  5
7F
100
AcDbEntity
  8
DD0
100
AcDbBlockReference
  2
DIMS4
 10
0.0
 20
0.0
  0
INSERT
  5
8B
100
AcDbEntity
  8
DD0
100
AcDbBlockReference
  2
DIMS5
 10
0.0
 20
0.0
  0
INSERT
  5
97
100
AcDbEntity
  8
DD0
100
AcDbBlockReference
  2
DIMS6
 10
0.0
 20
0.0
  0
INSERT
  5
A3
100
AcDbEntity
  8
DD0
100
AcDbBlockReference
  2
DIMS7
 10
0.0
 20
0.0
  0
INSERT
  5
AF
100
AcDbEntity
  8
DD0
100
AcDbBlockReference
  2
DIMS8
 10
0.0
 20
0.0
  0
INSERT
  5
B8
100
AcDbEntity
  8
DD0
100
AcDbBlockReference
  2
DIMS9
 10
0.0
 20
0.0
  0
INSERT
  5
C4
100
AcDbEntity
  8
DD0
100
AcDbBlockReference
  2
DIMS10
 10
0.0
 20
0.0
  0
INSERT
  5
D0
100
AcDbEntity
  8
DD0
100
AcDbBlockReference
  2
DIMS11
 10
0.0
 20
0.0
  0
LINE
  5
D1
100
AcDbEntity
  8
M0
 62
     5
100
AcDbLine
 10
131.092222
 20
413.232264
 11
133.188154
 21
415.328211
  0
LINE
  5
D2
100
AcDbEntity
  8
M0
 62
     5
100
AcDbLine
 10
128.289182
 20
410.429224
 11
130.385114
 21
412.525172
  0
LINE
  5
D3
100
AcDbEntity
  8
M0
 62
     5
100
AcDbLine
 10
129.678022
 20
413.232279
 11
127.582075
 21
411.136332
  0
LINE
  5
D4
100
AcDbEntity
  8
M0
 62
     5
100
AcDbLine
 10
132.481062
 20
416.035304
 11
130.385129
 21
413.939372
  0
LINE
  5
D5
100
AcDbEntity
  8
M0
 62
     5
100
AcDbLine
 10
130.385129
 20
413.939372
 11
129.289075
 21
415.035426
  0
LINE
  5
D6
100
AcDbEntity
  8
M0
 62
     5
100
AcDbLine
 10
132.188276
 20
412.136225
 11
131.092222
 21
413.232264
  0
LINE
  5
D7
100
AcDbEntity
  8
M0
 62
     5
100
AcDbLine
 10
130.385114
 20
412.525172
 11
131.481168
 21
411.429118
  0
LINE
  5
D8
100
AcDbEntity
  8
M0
 62
     5
100
AcDbLine
 10
128.581968
 20
414.328318
 11
129.678022
 21
413.232279
  0
CIRCLE
  5
D9
100
AcDbEntity
  8
M0
 62
     5
100
AcDbCircle
 10
130.385129
 20
413.232279
 40
3.5
  0
LINE
  5
DA
100
AcDbEntity
  8
M0
 62
     5
100
AcDbLine
 10
131.481168
 20
411.429118
 11
132.188276
 21
412.136225
  0
LINE
  5
DB
100
AcDbEntity
  8
M0
 62
     5
100
AcDbLine
 10
129.289075
 20
415.035426
 11
128.581968
 21
414.328318
  0
CIRCLE
  5
DC
100
AcDbEntity
  8
M0
 62
     5
100
AcDbCircle
 10
130.385129
 20
413.232279
 40
4.0
  0
LINE
  5
DD
100
AcDbEntity
  8
M0
 62
     5
100
AcDbLine
 10
108.092222
 20
501.232264
 11
110.188154
 21
503.328211
  0
LINE
  5
DE
100
AcDbEntity
  8
M0
 62
     5
100
AcDbLine
 10
105.289182
 20
498.429224
 11
107.385114
 21
500.525172
  0
LINE
  5
DF
100
AcDbEntity
  8
M0
 62
     5
100
AcDbLine
 10
106.678022
 20
501.232279
 11
104.582075
 21
499.136332
  0
LINE
  5
E0
100
AcDbEntity
  8
M0
 62
     5
100
AcDbLine
 10
109.481062
 20
504.035304
 11
107.385129
 21
501.939372
  0
LINE
  5
E1
100
AcDbEntity
  8
M0
 62
     5
100
AcDbLine
 10
107.385129
 20
501.939372
 11
106.289075
 21
503.035426
  0
LINE
  5
E2
100
AcDbEntity
  8
M0
 62
     5
100
AcDbLine
 10
109.188276
 20
500.136225
 11
108.092222
 21
501.232264
  0
LINE
  5
E3
100
AcDbEntity
  8
M0
 62
     5
100
AcDbLine
 10
107.385114
 20
500.525172
 11
108.481168
 21
499.429118
  0
LINE
  5
E4
100
AcDbEntity
  8
M0
 62
     5
100
AcDbLine
 10
105.581968
 20
502.328318
 11
106.678022
 21
501.232279
  0
CIRCLE
  5
E5
100
AcDbEntity
  8
M0
 62
     5
100
AcDbCircle
 10
107.385129
 20
501.232279
 40
3.5
  0
LINE
  5
E6
100
AcDbEntity
  8
M0
 62
     5
100
AcDbLine
 10
108.481168
 20
499.429118
 11
109.188276
 21
500.136225
  0
LINE
  5
E7
100
AcDbEntity
  8
M0
 62
     5
100
AcDbLine
 10
106.289075
 20
503.035426
 11
105.581968
 21
502.328318
  0
CIRCLE
  5
E8
100
AcDbEntity
  8
M0
 62
     5
100
AcDbCircle
 10
107.385129
 20
501.232279
 40
4.0
  0
LINE
  5
E9
100
AcDbEntity
  8
M0
  6
DASHDOT
 62
     5
100
AcDbLine
 10
107.385114
 20
495.708308
 11
107.385129
 21
506.756236
  0
LINE
  5
EA
100
AcDbEntity
  8
M0
100
AcDbLine
 10
98.885099
 20
400.232035
 11
105.885099
 21
400.232035
  0
LINE
  5
EB
100
AcDbEntity
  8
M0
100
AcDbLine
 10
155.385114
 20
415.731791
 11
155.385114
 21
498.731791
  0
LINE
  5
EC
100
AcDbEntity
  8
M0
100
AcDbLine
 10
82.385114
 20
498.731791
 11
82.385114
 21
415.732035
  0
LINE
  5
ED
100
AcDbEntity
  8
M0
100
AcDbLine
 10
100.385114
 20
408.232035
 11
103.385114
 21
408.232035
  0
LINE
  5
EE
100
AcDbEntity
  8
M0
100
AcDbLine
 10
137.385114
 20
506.231791
 11
134.385114
 21
506.231791
  0
LINE
  5
EF
100
AcDbEntity
  8
M0
100
AcDbLine
 10
153.385114
 20
500.732035
 11
137.885114
 21
500.731791
  0
LINE
  5
F0
100
AcDbEntity
  8
M0
100
AcDbLine
 10
84.385114
 20
413.732035
 11
99.385114
 21
413.732035
  0
LINE
  5
F1
100
AcDbEntity
  8
M0
100
AcDbLine
 10
140.885114
 20
413.232035
 11
140.885114
 21
403.232035
  0
LINE
  5
F2
100
AcDbEntity
  8
M0
100
AcDbLine
 10
129.885114
 20
407.732035
 11
129.885114
 21
403.232035
  0
LINE
  5
F3
100
AcDbEntity
  8
M0
100
AcDbLine
 10
107.885114
 20
413.231791
 11
107.885114
 21
403.232035
  0
LINE
  5
F4
100
AcDbEntity
  8
M0
100
AcDbLine
 10
96.885114
 20
413.232035
 11
96.885114
 21
403.232035
  0
LINE
  5
F5
100
AcDbEntity
  8
M0
100
AcDbLine
 10
129.885114
 20
403.232035
 11
131.885114
 21
400.232035
  0
LINE
  5
F6
100
AcDbEntity
  8
M0
100
AcDbLine
 10
140.885114
 20
403.23202
 11
138.885114
 21
400.23202
  0
LINE
  5
F7
100
AcDbEntity
  8
M0
100
AcDbLine
 10
107.885114
 20
403.232035
 11
105.885114
 21
400.232035
  0
LINE
  5
F8
100
AcDbEntity
  8
M0
100
AcDbLine
 10
96.885114
 20
403.23202
 11
98.885114
 21
400.23202
  0
LINE
  5
F9
100
AcDbEntity
  8
M0
100
AcDbLine
 10
136.385114
 20
400.232035
 11
136.385114
 21
402.732035
  0
LINE
  5
FA
100
AcDbEntity
  8
M0
100
AcDbLine
 10
134.385114
 20
400.232035
 11
134.385114
 21
402.732035
  0
LINE
  5
FB
100
AcDbEntity
  8
M0
100
AcDbLine
 10
137.885114
 20
403.23202
 11
137.885114
 21
404.731791
  0
LINE
  5
FC
100
AcDbEntity
  8
M0
100
AcDbLine
 10
132.885114
 20
403.232035
 11
132.885114
 21
404.732035
  0
LINE
  5
FD
100
AcDbEntity
  8
M0
100
AcDbLine
 10
133.385114
 20
402.732035
 11
134.385114
 21
402.732035
  0
LINE
  5
FE
100
AcDbEntity
  8
M0
100
AcDbLine
 10
133.385114
 20
405.232035
 11
137.385114
 21
405.232035
  0
LINE
  5
FF
100
AcDbEntity
  8
M0
100
AcDbLine
 10
136.385114
 20
402.732035
 11
137.385114
 21
402.732035
  0
ARC
  5
100
100
AcDbEntity
  8
M0
100
AcDbCircle
 10
137.385114
 20
403.232035
 40
0.5
100
AcDbArc
 50
269.998251
 51
360.0
  0
ARC
  5
101
100
AcDbEntity
  8
M0
100
AcDbCircle
 10
137.385114
 20
404.732035
 40
0.5
100
AcDbArc
 50
359.972023
 51
450.0
  0
ARC
  5
102
100
AcDbEntity
  8
M0
100
AcDbCircle
 10
133.385114
 20
404.732035
 40
0.5
100
AcDbArc
 50
90.0
 51
179.998251
  0
ARC
  5
103
100
AcDbEntity
  8
M0
100
AcDbCircle
 10
133.385114
 20
403.232035
 40
0.5
100
AcDbArc
 50
179.998251
 51
270.0
  0
LINE
  5
104
100
AcDbEntity
  8
M0
100
AcDbLine
 10
131.885114
 20
406.232035
 11
133.031553
 21
405.085551
  0
LINE
  5
105
100
AcDbEntity
  8
M0
100
AcDbLine
 10
131.885114
 20
401.732035
 11
133.031553
 21
402.878474
  0
LINE
  5
106
100
AcDbEntity
  8
M0
100
AcDbLine
 10
138.885114
 20
401.73202
 11
137.738676
 21
402.878458
  0
LINE
  5
107
100
AcDbEntity
  8
M0
100
AcDbLine
 10
138.885114
 20
406.231791
 11
137.73866
 21
405.084818
  0
LINE
  5
108
100
AcDbEntity
  8
M0
100
AcDbLine
 10
103.385114
 20
400.232035
 11
103.385114
 21
402.732035
  0
LINE
  5
109
100
AcDbEntity
  8
M0
100
AcDbLine
 10
104.385114
 20
402.732035
 11
103.385114
 21
402.732035
  0
LINE
  5
10A
100
AcDbEntity
  8
M0
100
AcDbLine
 10
105.885114
 20
401.732035
 11
104.738676
 21
402.878474
  0
LINE
  5
10B
100
AcDbEntity
  8
M0
100
AcDbLine
 10
104.885114
 20
403.232035
 11
104.885114
 21
404.732035
  0
LINE
  5
10C
100
AcDbEntity
  8
M0
100
AcDbLine
 10
105.885114
 20
406.232035
 11
104.738676
 21
405.085551
  0
LINE
  5
10D
100
AcDbEntity
  8
M0
100
AcDbLine
 10
104.385114
 20
405.232035
 11
100.385114
 21
405.232035
  0
LINE
  5
10E
100
AcDbEntity
  8
M0
100
AcDbLine
 10
98.885114
 20
406.231791
 11
100.031568
 21
405.084818
  0
LINE
  5
10F
100
AcDbEntity
  8
M0
100
AcDbLine
 10
99.885114
 20
403.23202
 11
99.885114
 21
404.731791
  0
LINE
  5
110
100
AcDbEntity
  8
M0
100
AcDbLine
 10
98.885114
 20
401.73202
 11
100.031553
 21
402.878458
  0
LINE
  5
111
100
AcDbEntity
  8
M0
100
AcDbLine
 10
101.385114
 20
402.732035
 11
100.385114
 21
402.732035
  0
LINE
  5
112
100
AcDbEntity
  8
M0
100
AcDbLine
 10
101.385114
 20
400.232035
 11
101.385114
 21
402.732035
  0
ARC
  5
113
100
AcDbEntity
  8
M0
100
AcDbCircle
 10
104.385114
 20
403.232035
 40
0.5
100
AcDbArc
 50
-90.0
 51
0.0
  0
ARC
  5
114
100
AcDbEntity
  8
M0
100
AcDbCircle
 10
104.385114
 20
404.732035
 40
0.5
100
AcDbArc
 50
0.0
 51
90.0
  0
ARC
  5
115
100
AcDbEntity
  8
M0
100
AcDbCircle
 10
100.385114
 20
404.732035
 40
0.5
100
AcDbArc
 50
89.998251
 51
180.02448
  0
ARC
  5
116
100
AcDbEntity
  8
M0
100
AcDbCircle
 10
100.385114
 20
403.232035
 40
0.5
100
AcDbArc
 50
179.998251
 51
270.0
  0
LINE
  5
117
100
AcDbEntity
  8
M0
100
AcDbLine
 10
131.885099
 20
400.232035
 11
138.885114
 21
400.232035
  0
ARC
  5
118
100
AcDbEntity
  8
M0
100
AcDbCircle
 10
129.385114
 20
407.732035
 40
0.5
100
AcDbArc
 50
0.0
 51
90.0
  0
LINE
  5
119
100
AcDbEntity
  8
M0
100
AcDbLine
 10
129.885129
 20
501.231547
 11
129.885129
 21
511.231791
  0
LINE
  5
11A
100
AcDbEntity
  8
M0
100
AcDbLine
 10
129.885129
 20
511.231791
 11
131.885129
 21
514.231791
  0
LINE
  5
11B
100
AcDbEntity
  8
M0
100
AcDbLine
 10
131.885114
 20
514.231791
 11
138.885129
 21
514.231791
  0
LINE
  5
11C
100
AcDbEntity
  8
M0
100
AcDbLine
 10
140.885129
 20
511.232035
 11
138.885129
 21
514.232035
  0
LINE
  5
11D
100
AcDbEntity
  8
M0
100
AcDbLine
 10
140.885129
 20
501.231791
 11
140.885129
 21
511.231791
  0
LINE
  5
11E
100
AcDbEntity
  8
M0
100
AcDbLine
 10
136.385129
 20
514.231791
 11
136.385129
 21
511.731791
  0
LINE
  5
11F
100
AcDbEntity
  8
M0
100
AcDbLine
 10
136.385129
 20
511.731791
 11
137.385129
 21
511.731791
  0
ARC
  5
120
100
AcDbEntity
  8
M0
100
AcDbCircle
 10
137.385129
 20
511.231791
 40
0.5
100
AcDbArc
 50
0.026229
 51
90.0
  0
LINE
  5
121
100
AcDbEntity
  8
M0
100
AcDbLine
 10
137.885129
 20
511.232035
 11
137.885129
 21
509.732035
  0
ARC
  5
122
100
AcDbEntity
  8
M0
100
AcDbCircle
 10
137.385129
 20
509.731791
 40
0.5
100
AcDbArc
 50
-90.001749
 51
0.026229
  0
LINE
  5
123
100
AcDbEntity
  8
M0
100
AcDbLine
 10
133.385129
 20
509.231791
 11
137.385129
 21
509.231791
  0
ARC
  5
124
100
AcDbEntity
  8
M0
100
AcDbCircle
 10
133.385129
 20
509.731791
 40
0.5
100
AcDbArc
 50
180.0
 51
270.0
  0
LINE
  5
125
100
AcDbEntity
  8
M0
100
AcDbLine
 10
132.885129
 20
511.231791
 11
132.885129
 21
509.731791
  0
ARC
  5
126
100
AcDbEntity
  8
M0
100
AcDbCircle
 10
133.385129
 20
511.231791
 40
0.5
100
AcDbArc
 50
90.0
 51
180.0
  0
LINE
  5
127
100
AcDbEntity
  8
M0
100
AcDbLine
 10
133.385129
 20
511.731791
 11
134.385129
 21
511.731791
  0
LINE
  5
128
100
AcDbEntity
  8
M0
100
AcDbLine
 10
134.385129
 20
514.231791
 11
134.385129
 21
511.731791
  0
LINE
  5
129
100
AcDbEntity
  8
M0
100
AcDbLine
 10
131.885129
 20
512.731791
 11
133.031568
 21
511.585551
  0
LINE
  5
12A
100
AcDbEntity
  8
M0
100
AcDbLine
 10
131.885129
 20
508.231791
 11
133.031568
 21
509.378275
  0
LINE
  5
12B
100
AcDbEntity
  8
M0
100
AcDbLine
 10
138.885129
 20
508.232035
 11
137.738676
 21
509.379008
  0
LINE
  5
12C
100
AcDbEntity
  8
M0
100
AcDbLine
 10
138.885129
 20
512.732035
 11
137.738691
 21
511.585551
  0
LINE
  5
12D
100
AcDbEntity
  8
M0
100
AcDbLine
 10
96.88516
 20
506.231791
 11
96.88516
 21
511.231791
  0
LINE
  5
12E
100
AcDbEntity
  8
M0
100
AcDbLine
 10
96.88516
 20
511.232035
 11
98.88516
 21
514.232035
  0
LINE
  5
12F
100
AcDbEntity
  8
M0
100
AcDbLine
 10
105.885175
 20
514.231791
 11
98.88516
 21
514.231791
  0
LINE
  5
130
100
AcDbEntity
  8
M0
100
AcDbLine
 10
107.88516
 20
511.231791
 11
105.88516
 21
514.231791
  0
LINE
  5
131
100
AcDbEntity
  8
M0
100
AcDbLine
 10
107.88516
 20
506.731547
 11
107.88516
 21
511.231791
  0
LINE
  5
132
100
AcDbEntity
  8
M0
100
AcDbLine
 10
98.88516
 20
508.232035
 11
100.031614
 21
509.379008
  0
LINE
  5
133
100
AcDbEntity
  8
M0
100
AcDbLine
 10
98.88516
 20
512.732035
 11
100.031599
 21
511.585551
  0
LINE
  5
134
100
AcDbEntity
  8
M0
100
AcDbLine
 10
105.88516
 20
512.731791
 11
104.738721
 21
511.585551
  0
LINE
  5
135
100
AcDbEntity
  8
M0
100
AcDbLine
 10
105.88516
 20
508.231791
 11
104.738721
 21
509.378275
  0
ARC
  5
136
100
AcDbEntity
  8
M0
100
AcDbCircle
 10
104.38516
 20
509.731791
 40
0.5
100
AcDbArc
 50
270.0
 51
360.0
  0
LINE
  5
137
100
AcDbEntity
  8
M0
100
AcDbLine
 10
104.38516
 20
509.231791
 11
100.38516
 21
509.231791
  0
ARC
  5
138
100
AcDbEntity
  8
M0
100
AcDbCircle
 10
100.38516
 20
509.731791
 40
0.5
100
AcDbArc
 50
179.972023
 51
270.0
  0
LINE
  5
139
100
AcDbEntity
  8
M0
100
AcDbLine
 10
99.88516
 20
511.232035
 11
99.88516
 21
509.732035
  0
ARC
  5
13A
100
AcDbEntity
  8
M0
100
AcDbCircle
 10
100.38516
 20
511.231791
 40
0.5
100
AcDbArc
 50
89.998251
 51
179.972023
  0
LINE
  5
13B
100
AcDbEntity
  8
M0
100
AcDbLine
 10
101.38516
 20
511.731791
 11
100.38516
 21
511.731791
  0
LINE
  5
13C
100
AcDbEntity
  8
M0
100
AcDbLine
 10
101.38516
 20
514.231791
 11
101.38516
 21
511.731791
  0
LINE
  5
13D
100
AcDbEntity
  8
M0
100
AcDbLine
 10
103.38516
 20
514.231791
 11
103.38516
 21
511.731791
  0
LINE
  5
13E
100
AcDbEntity
  8
M0
100
AcDbLine
 10
104.38516
 20
511.731791
 11
103.38516
 21
511.731791
  0
ARC
  5
13F
100
AcDbEntity
  8
M0
100
AcDbCircle
 10
104.38516
 20
511.231791
 40
0.5
100
AcDbArc
 50
0.0
 51
90.0
  0
LINE
  5
140
100
AcDbEntity
  8
M0
100
AcDbLine
 10
104.88516
 20
511.231791
 11
104.88516
 21
509.731791
  0
ARC
  5
141
100
AcDbEntity
  8
M0
100
AcDbCircle
 10
141.385114
 20
413.232035
 40
0.5
100
AcDbArc
 50
90.0
 51
179.998251
  0
LINE
  5
142
100
AcDbEntity
  8
M0
100
AcDbLine
 10
145.885114
 20
414.232035
 11
145.885114
 21
416.732035
  0
LINE
  5
143
100
AcDbEntity
  8
M0
100
AcDbLine
 10
137.885114
 20
416.732035
 11
145.885114
 21
416.732035
  0
ARC
  5
144
100
AcDbEntity
  8
M0
100
AcDbCircle
 10
146.385114
 20
414.232035
 40
0.5
100
AcDbArc
 50
179.998251
 51
269.998251
  0
LINE
  5
145
100
AcDbEntity
  8
M0
100
AcDbLine
 10
140.885114
 20
408.232035
 11
141.885099
 21
408.232035
  0
ARC
  5
146
100
AcDbEntity
  8
M0
100
AcDbCircle
 10
138.385114
 20
413.232035
 40
0.5
100
AcDbArc
 50
90.0
 51
179.998251
  0
LINE
  5
147
100
AcDbEntity
  8
M0
100
AcDbLine
 10
137.885114
 20
408.731791
 11
137.885114
 21
416.732035
  0
LINE
  5
148
100
AcDbEntity
  8
M0
100
AcDbLine
 10
141.885114
 20
408.232035
 11
150.885114
 21
413.732035
  0
ARC
  5
149
100
AcDbEntity
  8
M0
100
AcDbCircle
 10
153.385114
 20
415.732035
 40
2.0
100
AcDbArc
 50
269.999563
 51
359.993006
  0
LINE
  5
14A
100
AcDbEntity
  8
M0
100
AcDbLine
 10
99.885099
 20
408.732035
 11
99.885114
 21
416.732035
  0
LINE
  5
14B
100
AcDbEntity
  8
M0
100
AcDbLine
 10
99.885114
 20
416.732035
 11
91.885114
 21
416.732035
  0
LINE
  5
14C
100
AcDbEntity
  8
M0
100
AcDbLine
 10
91.885114
 20
414.232035
 11
91.885114
 21
416.732035
  0
ARC
  5
14D
100
AcDbEntity
  8
M0
100
AcDbCircle
 10
91.385114
 20
414.232035
 40
0.5
100
AcDbArc
 50
-90.0
 51
0.0
  0
ARC
  5
14E
100
AcDbEntity
  8
M0
100
AcDbCircle
 10
99.385114
 20
413.232035
 40
0.5
100
AcDbArc
 50
0.0
 51
89.998251
  0
ARC
  5
14F
100
AcDbEntity
  8
M0
100
AcDbCircle
 10
96.385114
 20
413.232035
 40
0.5
100
AcDbArc
 50
0.0
 51
89.998251
  0
LINE
  5
150
100
AcDbEntity
  8
M0
100
AcDbLine
 10
96.885114
 20
408.232035
 11
95.885129
 21
408.232035
  0
LINE
  5
151
100
AcDbEntity
  8
M0
100
AcDbLine
 10
95.885114
 20
408.232035
 11
86.885114
 21
413.732035
  0
LINE
  5
152
100
AcDbEntity
  8
M0
100
AcDbLine
 10
123.385114
 20
408.232035
 11
137.385114
 21
408.232035
  0
ARC
  5
153
100
AcDbEntity
  8
M0
100
AcDbCircle
 10
108.385114
 20
413.232035
 40
0.5
100
AcDbArc
 50
90.0
 51
180.024479
  0
LINE
  5
154
100
AcDbEntity
  8
M0
100
AcDbLine
 10
103.885114
 20
408.731791
 11
103.885114
 21
413.232035
  0
ARC
  5
155
100
AcDbEntity
  8
M0
100
AcDbCircle
 10
100.385114
 20
408.732035
 40
0.5
100
AcDbArc
 50
179.998251
 51
270.0
  0
ARC
  5
156
100
AcDbEntity
  8
M0
100
AcDbCircle
 10
103.385114
 20
408.732035
 40
0.5
100
AcDbArc
 50
270.0
 51
359.972024
  0
ARC
  5
157
100
AcDbEntity
  8
M0
100
AcDbCircle
 10
104.385114
 20
413.232035
 40
0.5
100
AcDbArc
 50
90.0
 51
179.998251
  0
ARC
  5
158
100
AcDbEntity
  8
M0
100
AcDbCircle
 10
84.385114
 20
415.732035
 40
2.0
100
AcDbArc
 50
179.999563
 51
270.0
  0
LINE
  5
159
100
AcDbEntity
  8
M0
100
AcDbLine
 10
104.385114
 20
413.732035
 11
122.385114
 21
413.732035
  0
LINE
  5
15A
100
AcDbEntity
  8
M0
100
AcDbLine
 10
122.885114
 20
408.732035
 11
122.885114
 21
416.732035
  0
LINE
  5
15B
100
AcDbEntity
  8
M0
100
AcDbLine
 10
114.885114
 20
414.231791
 11
114.885114
 21
416.732035
  0
LINE
  5
15C
100
AcDbEntity
  8
M0
100
AcDbLine
 10
114.885114
 20
416.732035
 11
122.885114
 21
416.732035
  0
ARC
  5
15D
100
AcDbEntity
  8
M0
100
AcDbCircle
 10
114.385114
 20
414.232035
 40
0.5
100
AcDbArc
 50
270.0
 51
359.972024
  0
LINE
  5
15E
100
AcDbEntity
  8
M0
100
AcDbLine
 10
125.885114
 20
408.731791
 11
125.885114
 21
413.232035
  0
LINE
  5
15F
100
AcDbEntity
  8
M0
100
AcDbLine
 10
134.885114
 20
408.732035
 11
134.885114
 21
413.232035
  0
LINE
  5
160
100
AcDbEntity
  8
M0
100
AcDbLine
 10
138.385114
 20
413.732035
 11
153.385114
 21
413.732035
  0
ARC
  5
161
100
AcDbEntity
  8
M0
100
AcDbCircle
 10
125.385114
 20
408.732035
 40
0.5
100
AcDbArc
 50
270.0
 51
359.972023
  0
ARC
  5
162
100
AcDbEntity
  8
M0
100
AcDbCircle
 10
135.385114
 20
408.732035
 40
0.5
100
AcDbArc
 50
179.998251
 51
269.998251
  0
ARC
  5
163
100
AcDbEntity
  8
M0
100
AcDbCircle
 10
123.385114
 20
408.732035
 40
0.5
100
AcDbArc
 50
179.998251
 51
270.0
  0
ARC
  5
164
100
AcDbEntity
  8
M0
100
AcDbCircle
 10
137.385114
 20
408.732035
 40
0.5
100
AcDbArc
 50
269.998251
 51
359.972023
  0
ARC
  5
165
100
AcDbEntity
  8
M0
100
AcDbCircle
 10
153.385114
 20
498.731791
 40
2.0
100
AcDbArc
 50
0.0
 51
90.0
  0
ARC
  5
166
100
AcDbEntity
  8
M0
100
AcDbCircle
 10
84.385114
 20
498.731791
 40
2.0
100
AcDbArc
 50
89.999563
 51
180.0
  0
LINE
  5
167
100
AcDbEntity
  8
M0
100
AcDbLine
 10
95.885129
 20
506.231791
 11
86.885114
 21
500.731791
  0
LINE
  5
168
100
AcDbEntity
  8
M0
100
AcDbLine
 10
96.885129
 20
506.231791
 11
95.885145
 21
506.231791
  0
LINE
  5
169
100
AcDbEntity
  8
M0
100
AcDbLine
 10
140.885129
 20
506.231791
 11
141.885114
 21
506.231791
  0
LINE
  5
16A
100
AcDbEntity
  8
M0
100
AcDbLine
 10
141.885129
 20
506.231791
 11
150.885114
 21
500.731791
  0
ARC
  5
16B
100
AcDbEntity
  8
M0
100
AcDbCircle
 10
122.385114
 20
413.232035
 40
0.5
100
AcDbArc
 50
359.972023
 51
450.0
  0
LINE
  5
16C
100
AcDbEntity
  8
M0
100
AcDbLine
 10
145.885114
 20
500.231791
 11
145.885114
 21
497.731791
  0
LINE
  5
16D
100
AcDbEntity
  8
M0
100
AcDbLine
 10
137.885114
 20
497.731791
 11
145.885114
 21
497.731791
  0
LINE
  5
16E
100
AcDbEntity
  8
M0
100
AcDbLine
 10
137.885114
 20
505.731547
 11
137.885114
 21
497.731791
  0
LINE
  5
16F
100
AcDbEntity
  8
M0
100
AcDbLine
 10
114.885114
 20
497.731791
 11
122.885114
 21
497.731791
  0
LINE
  5
170
100
AcDbEntity
  8
M0
100
AcDbLine
 10
99.885099
 20
505.731547
 11
99.885114
 21
497.731791
  0
LINE
  5
171
100
AcDbEntity
  8
M0
100
AcDbLine
 10
99.885114
 20
497.731791
 11
91.885114
 21
497.731791
  0
LINE
  5
172
100
AcDbEntity
  8
M0
100
AcDbLine
 10
91.885114
 20
500.231791
 11
91.885114
 21
497.731791
  0
ARC
  5
173
100
AcDbEntity
  8
M0
100
AcDbCircle
 10
146.385114
 20
500.231791
 40
0.5
100
AcDbArc
 50
90.0
 51
180.0
  0
ARC
  5
174
100
AcDbEntity
  8
M0
100
AcDbCircle
 10
91.385114
 20
500.231791
 40
0.5
100
AcDbArc
 50
0.0
 51
89.998251
  0
LINE
  5
175
100
AcDbEntity
  8
M0
100
AcDbLine
 10
122.885175
 20
500.231791
 11
122.885175
 21
497.731547
  0
LINE
  5
176
100
AcDbEntity
  8
M0
100
AcDbLine
 10
114.885175
 20
505.731303
 11
114.885175
 21
497.731791
  0
ARC
  5
177
100
AcDbEntity
  8
M0
100
AcDbCircle
 10
123.385175
 20
500.231791
 40
0.5
100
AcDbArc
 50
90.0
 51
180.0
  0
ARC
  5
178
100
AcDbEntity
  8
M0
100
AcDbCircle
 10
137.385114
 20
505.731547
 40
0.5
100
AcDbArc
 50
0.0
 51
90.0
  0
ARC
  5
179
100
AcDbEntity
  8
M0
100
AcDbCircle
 10
100.385099
 20
505.731547
 40
0.5
100
AcDbArc
 50
89.998251
 51
180.0
  0
ARC
  5
17A
100
AcDbEntity
  8
M0
100
AcDbCircle
 10
108.38516
 20
506.731547
 40
0.5
100
AcDbArc
 50
180.0
 51
270.0
  0
ARC
  5
17B
100
AcDbEntity
  8
M0
100
AcDbCircle
 10
129.385129
 20
501.231791
 40
0.5
100
AcDbArc
 50
270.0
 51
359.968526
  0
LINE
  5
17C
100
AcDbEntity
  8
M0
100
AcDbLine
 10
114.385175
 20
506.231547
 11
100.385099
 21
506.231547
  0
ARC
  5
17D
100
AcDbEntity
  8
M0
100
AcDbCircle
 10
114.385175
 20
505.731303
 40
0.5
100
AcDbArc
 50
0.0
 51
90.0
  0
LINE
  5
17E
100
AcDbEntity
  8
M0
100
AcDbLine
 10
133.885114
 20
505.731547
 11
133.885114
 21
501.231547
  0
LINE
  5
17F
100
AcDbEntity
  8
M0
100
AcDbLine
 10
133.385114
 20
500.731791
 11
115.36955
 21
500.731791
  0
ARC
  5
180
100
AcDbEntity
  8
M0
100
AcDbCircle
 10
134.385114
 20
505.731547
 40
0.5
100
AcDbArc
 50
90.0
 51
180.0
  0
ARC
  5
181
100
AcDbEntity
  8
M0
100
AcDbCircle
 10
141.385129
 20
501.231791
 40
0.5
100
AcDbArc
 50
180.0
 51
269.998251
  0
ARC
  5
182
100
AcDbEntity
  8
M0
100
AcDbCircle
 10
115.385175
 20
501.231547
 40
0.5
100
AcDbArc
 50
180.0
 51
270.0
  0
LINE
  5
183
100
AcDbEntity
  8
M0
100
AcDbLine
 10
99.385099
 20
500.731547
 11
84.385114
 21
500.731791
  0
ARC
  5
184
100
AcDbEntity
  8
M0
100
AcDbCircle
 10
99.385099
 20
501.231303
 40
0.5
100
AcDbArc
 50
270.0
 51
360.0
  0
ARC
  5
185
100
AcDbEntity
  8
M0
100
AcDbCircle
 10
133.385114
 20
501.231547
 40
0.5
100
AcDbArc
 50
270.0
 51
360.0
  0
LINE
  5
186
100
AcDbEntity
  8
M0
100
AcDbLine
 10
111.885175
 20
505.731303
 11
111.885175
 21
501.231791
  0
LINE
  5
187
100
AcDbEntity
  8
M0
100
AcDbLine
 10
102.885175
 20
505.731303
 11
102.885175
 21
501.231791
  0
ARC
  5
188
100
AcDbEntity
  8
M0
100
AcDbCircle
 10
112.385175
 20
505.731303
 40
0.5
100
AcDbArc
 50
90.0
 51
180.0
  0
ARC
  5
189
100
AcDbEntity
  8
M0
100
AcDbCircle
 10
102.385175
 20
505.731303
 40
0.5
100
AcDbArc
 50
0.0
 51
89.998251
  0
LINE
  5
18A
100
AcDbEntity
  8
M0
100
AcDbLine
 10
130.185102
 20
441.53184
 11
130.185102
 21
444.031596
  0
LINE
  5
18B
100
AcDbEntity
  8
M0
100
AcDbLine
 10
107.585111
 20
441.53184
 11
107.585111
 21
444.03184
  0
LINE
  5
18C
100
AcDbEntity
  8
M0
100
AcDbLine
 10
110.585111
 20
447.03184
 11
127.185102
 21
447.03184
  0
LINE
  5
18D
100
AcDbEntity
  8
M0
100
AcDbLine
 10
108.349042
 20
446.03184
 11
129.421155
 21
446.03184
  0
LINE
  5
18E
100
AcDbEntity
  8
M0
100
AcDbLine
 10
108.085111
 20
441.03184
 11
129.685102
 21
441.03184
  0
ARC
  5
18F
100
AcDbEntity
  8
M0
100
AcDbCircle
 10
129.685102
 20
441.53184
 40
0.5
100
AcDbArc
 50
270.0
 51
360.0
  0
ARC
  5
190
100
AcDbEntity
  8
M0
100
AcDbCircle
 10
108.085111
 20
441.53184
 40
0.5
100
AcDbArc
 50
179.999891
 51
270.0
  0
LINE
  5
191
100
AcDbEntity
  8
M0
100
AcDbLine
 10
110.585111
 20
451.03184
 11
110.885114
 21
451.03184
  0
LINE
  5
192
100
AcDbEntity
  8
M0
100
AcDbLine
 10
107.585111
 20
454.03184
 11
107.585111
 21
464.331644
  0
LINE
  5
193
100
AcDbEntity
  8
M0
100
AcDbLine
 10
130.185102
 20
454.031596
 11
130.185102
 21
464.3314
  0
ARC
  5
194
100
AcDbEntity
  8
M0
100
AcDbCircle
 10
127.185102
 20
444.03184
 40
3.0
100
AcDbArc
 50
0.0
 51
90.0
  0
ARC
  5
195
100
AcDbEntity
  8
M0
100
AcDbCircle
 10
110.585111
 20
444.03184
 40
3.0
100
AcDbArc
 50
90.0
 51
179.999964
  0
ARC
  5
196
100
AcDbEntity
  8
M0
100
AcDbCircle
 10
110.585111
 20
454.03184
 40
3.0
100
AcDbArc
 50
179.999964
 51
270.0
  0
ARC
  5
197
100
AcDbEntity
  8
M0
100
AcDbCircle
 10
127.185102
 20
454.03184
 40
3.0
100
AcDbArc
 50
270.0
 51
360.0
  0
LINE
  5
198
100
AcDbEntity
  8
M0
100
AcDbLine
 10
116.885114
 20
473.03184
 11
120.885114
 21
473.03184
  0
ARC
  5
199
100
AcDbEntity
  8
M0
100
AcDbCircle
 10
127.185102
 20
464.331644
 40
3.0
100
AcDbArc
 50
0.0
 51
90.0
  0
ARC
  5
19A
100
AcDbEntity
  8
M0
100
AcDbCircle
 10
110.585111
 20
464.331644
 40
3.0
100
AcDbArc
 50
90.0
 51
179.999982
  0
ARC
  5
19B
100
AcDbEntity
  8
M0
100
AcDbCircle
 10
129.685102
 20
464.531596
 40
0.5
100
AcDbArc
 50
359.971805
 51
436.021458
  0
ARC
  5
19C
100
AcDbEntity
  8
M0
100
AcDbCircle
 10
108.085111
 20
464.531596
 40
0.5
100
AcDbArc
 50
103.981802
 51
180.0
  0
LINE
  5
19D
100
AcDbEntity
  8
M0
100
AcDbLine
 10
126.885114
 20
451.03184
 11
126.885114
 21
447.03184
  0
LINE
  5
19E
100
AcDbEntity
  8
M0
100
AcDbLine
 10
110.885114
 20
451.03184
 11
110.885114
 21
447.03184
  0
LINE
  5
19F
100
AcDbEntity
  8
M0
100
AcDbLine
 10
126.885114
 20
451.03184
 11
127.185102
 21
451.03184
  0
LINE
  5
1A0
100
AcDbEntity
  8
M0
100
AcDbLine
 10
126.73509
 20
450.03184
 11
126.885114
 21
450.03184
  0
LINE
  5
1A1
100
AcDbEntity
  8
M0
100
AcDbLine
 10
126.73509
 20
448.03184
 11
126.885114
 21
448.03184
  0
LINE
  5
1A2
100
AcDbEntity
  8
M0
100
AcDbLine
 10
110.885114
 20
450.03184
 11
111.035093
 21
450.03184
  0
LINE
  5
1A3
100
AcDbEntity
  8
M0
100
AcDbLine
 10
110.885114
 20
448.03184
 11
111.035093
 21
448.03184
  0
LINE
  5
1A4
100
AcDbEntity
  8
M0
100
AcDbLine
 10
110.035108
 20
451.75474
 11
110.035108
 21
451.082621
  0
LINE
  5
1A5
100
AcDbEntity
  8
M0
100
AcDbLine
 10
127.735105
 20
451.75474
 11
127.735105
 21
451.082621
  0
LINE
  5
1A6
100
AcDbEntity
  8
M0
100
AcDbLine
 10
122.885114
 20
469.731547
 11
122.885114
 21
467.331644
  0
LINE
  5
1A7
100
AcDbEntity
  8
M0
100
AcDbLine
 10
114.885114
 20
469.731791
 11
114.885114
 21
467.331644
  0
LINE
  5
1A8
100
AcDbEntity
  8
M0
100
AcDbLine
 10
121.385114
 20
472.53184
 11
121.385114
 21
469.031596
  0
LINE
  5
1A9
100
AcDbEntity
  8
M0
100
AcDbLine
 10
116.385114
 20
472.53184
 11
116.385114
 21
469.03184
  0
LINE
  5
1AA
100
AcDbEntity
  8
M0
100
AcDbLine
 10
114.885114
 20
469.03184
 11
116.385114
 21
469.03184
  0
LINE
  5
1AB
100
AcDbEntity
  8
M0
100
AcDbLine
 10
122.885114
 20
469.03184
 11
121.385114
 21
469.03184
  0
LINE
  5
1AC
100
AcDbEntity
  8
M0
100
AcDbLine
 10
114.885114
 20
469.731791
 11
116.385114
 21
469.731791
  0
LINE
  5
1AD
100
AcDbEntity
  8
M0
100
AcDbLine
 10
122.885114
 20
469.731791
 11
121.385114
 21
469.731791
  0
ARC
  5
1AE
100
AcDbEntity
  8
M0
100
AcDbCircle
 10
120.885114
 20
472.53184
 40
0.5
100
AcDbArc
 50
0.0
 51
90.0
  0
ARC
  5
1AF
100
AcDbEntity
  8
M0
100
AcDbCircle
 10
116.885114
 20
472.53184
 40
0.5
100
AcDbArc
 50
90.0
 51
180.0
  0
ARC
  5
1B0
100
AcDbEntity
  8
M0
100
AcDbCircle
 10
130.385114
 20
413.232035
 40
4.5
100
AcDbArc
 50
0.0
 51
179.999806
  0
ARC
  5
1B1
100
AcDbEntity
  8
M0
100
AcDbCircle
 10
107.385114
 20
501.232035
 40
4.5
100
AcDbArc
 50
180.0
 51
360.0
  0
CIRCLE
  5
1B2
100
AcDbEntity
  8
M0
100
AcDbCircle
 10
150.885114
 20
494.232035
 40
1.86
  0
CIRCLE
  5
1B3
100
AcDbEntity
  8
M0
100
AcDbCircle
 10
150.885114
 20
420.232035
 40
1.86
  0
CIRCLE
  5
1B4
100
AcDbEntity
  8
M0
100
AcDbCircle
 10
86.885114
 20
420.232035
 40
1.86
  0
CIRCLE
  5
1B5
100
AcDbEntity
  8
M0
100
AcDbCircle
 10
86.885114
 20
494.232035
 40
1.86
  0
CIRCLE
  5
1B6
100
AcDbEntity
  8
M0
100
AcDbCircle
 10
150.885114
 20
420.232035
 40
1.36
  0
CIRCLE
  5
1B7
100
AcDbEntity
  8
M0
100
AcDbCircle
 10
86.885114
 20
420.232035
 40
1.36
  0
CIRCLE
  5
1B8
100
AcDbEntity
  8
M0
100
AcDbCircle
 10
86.885114
 20
494.232035
 40
1.36
  0
CIRCLE
  5
1B9
100
AcDbEntity
  8
M0
100
AcDbCircle
 10
150.885114
 20
494.232035
 40
1.36
  0
LINE
  5
1BA
100
AcDbEntity
  8
M0
 62
     4
100
AcDbLine
 10
126.634977
 20
405.232035
 11
129.885145
 21
405.232035
  0
LINE
  5
1BB
100
AcDbEntity
  8
M0
 62
     4
100
AcDbLine
 10
111.135328
 20
509.231547
 11
107.885145
 21
509.231547
  0
LINE
  5
1BC
100
AcDbEntity
  8
M0
 62
     4
100
AcDbLine
 10
68.885145
 20
494.232035
 11
68.885145
 21
420.232035
  0
LINE
  5
1BD
100
AcDbEntity
  8
M0
 62
     4
100
AcDbLine
 10
124.885145
 20
406.787211
 11
124.885145
 21
408.232035
  0
LINE
  5
1BE
100
AcDbEntity
  8
M0
 62
     4
100
AcDbLine
 10
154.385145
 20
504.50767
 11
154.385145
 21
500.46348
  0
LINE
  5
1BF
100
AcDbEntity
  8
M0
 62
     4
100
AcDbLine
 10
83.385145
 20
504.50767
 11
83.385145
 21
500.463725
  0
LINE
  5
1C0
100
AcDbEntity
  8
M0
 62
     4
100
AcDbLine
 10
154.385145
 20
414.000102
 11
154.385145
 21
409.955912
  0
LINE
  5
1C1
100
AcDbEntity
  8
M0
 62
     4
100
AcDbLine
 10
83.385145
 20
413.999857
 11
83.385145
 21
409.956156
  0
LINE
  5
1C2
100
AcDbEntity
  8
M0
 62
     4
100
AcDbLine
 10
107.885145
 20
407.732035
 11
113.385099
 21
407.732035
  0
LINE
  5
1C3
100
AcDbEntity
  8
M0
 62
     4
100
AcDbLine
 10
129.885145
 20
506.731791
 11
124.385114
 21
506.731547
  0
LINE
  5
1C4
100
AcDbEntity
  8
M0
 62
     4
100
AcDbLine
 10
112.885145
 20
507.676371
 11
112.885145
 21
506.231303
  0
ARC
  5
1C5
100
AcDbEntity
  8
M0
 62
     4
100
AcDbCircle
 10
113.385145
 20
506.231547
 40
0.5
100
AcDbArc
 50
90.0
 51
180.0
  0
ARC
  5
1C6
100
AcDbEntity
  8
M0
 62
     4
100
AcDbCircle
 10
124.385145
 20
408.232035
 40
0.5
100
AcDbArc
 50
270.0
 51
360.0
  0
LINE
  5
1C7
100
AcDbEntity
  8
M0
 62
     4
100
AcDbLine
 10
109.085096
 20
407.732035
 11
109.085096
 21
409.732035
  0
LINE
  5
1C8
100
AcDbEntity
  8
M0
 62
     4
100
AcDbLine
 10
109.585096
 20
410.232035
 11
112.385145
 21
410.232035
  0
LINE
  5
1C9
100
AcDbEntity
  8
M0
 62
     4
100
AcDbLine
 10
112.885145
 20
413.732035
 11
112.885145
 21
410.732035
  0
ARC
  5
1CA
100
AcDbEntity
  8
M0
 62
     4
100
AcDbCircle
 10
112.385145
 20
410.732035
 40
0.5
100
AcDbArc
 50
270.0
 51
360.0
  0
ARC
  5
1CB
100
AcDbEntity
  8
M0
 62
     4
100
AcDbCircle
 10
109.585096
 20
409.732035
 40
0.5
100
AcDbArc
 50
90.0
 51
179.998251
  0
LINE
  5
1CC
100
AcDbEntity
  8
M0
 62
     4
100
AcDbLine
 10
107.885145
 20
413.232035
 11
112.385145
 21
413.232035
  0
ARC
  5
1CD
100
AcDbEntity
  8
M0
 62
     4
100
AcDbCircle
 10
112.385145
 20
412.732035
 40
0.5
100
AcDbArc
 50
0.0
 51
90.0
  0
LINE
  5
1CE
100
AcDbEntity
  8
M0
 62
     4
100
AcDbLine
 10
128.184949
 20
504.231547
 11
125.385145
 21
504.231547
  0
LINE
  5
1CF
100
AcDbEntity
  8
M0
 62
     4
100
AcDbLine
 10
124.885145
 20
503.731303
 11
124.885145
 21
500.731547
  0
LINE
  5
1D0
100
AcDbEntity
  8
M0
 62
     4
100
AcDbLine
 10
128.684949
 20
506.731791
 11
128.684949
 21
504.731303
  0
LINE
  5
1D1
100
AcDbEntity
  8
M0
 62
     4
100
AcDbLine
 10
125.385145
 20
501.232035
 11
129.885145
 21
501.232035
  0
ARC
  5
1D2
100
AcDbEntity
  8
M0
 62
     4
100
AcDbCircle
 10
125.385145
 20
503.731303
 40
0.5
100
AcDbArc
 50
90.0
 51
180.0
  0
ARC
  5
1D3
100
AcDbEntity
  8
M0
 62
     4
100
AcDbCircle
 10
128.184949
 20
504.731303
 40
0.5
100
AcDbArc
 50
270.0
 51
360.0
  0
ARC
  5
1D4
100
AcDbEntity
  8
M0
 62
     4
100
AcDbCircle
 10
125.385145
 20
501.732035
 40
0.5
100
AcDbArc
 50
180.0
 51
270.0
  0
LINE
  5
1D5
100
AcDbEntity
  8
M0
 62
     4
100
AcDbLine
 10
69.385145
 20
494.732035
 11
82.385145
 21
494.732035
  0
LINE
  5
1D6
100
AcDbEntity
  8
M0
 62
     4
100
AcDbLine
 10
69.385145
 20
419.732035
 11
82.385145
 21
419.732035
  0
ARC
  5
1D7
100
AcDbEntity
  8
M0
 62
     4
100
AcDbCircle
 10
69.385145
 20
494.232035
 40
0.5
100
AcDbArc
 50
89.998251
 51
180.0
  0
ARC
  5
1D8
100
AcDbEntity
  8
M0
 62
     4
100
AcDbCircle
 10
69.385145
 20
420.232035
 40
0.5
100
AcDbArc
 50
179.998251
 51
270.0
  0
LINE
  5
1D9
100
AcDbEntity
  8
M0
 62
     4
100
AcDbLine
 10
168.385145
 20
419.731791
 11
155.385145
 21
419.731791
  0
LINE
  5
1DA
100
AcDbEntity
  8
M0
 62
     4
100
AcDbLine
 10
168.885145
 20
494.231547
 11
168.885145
 21
420.231547
  0
LINE
  5
1DB
100
AcDbEntity
  8
M0
 62
     4
100
AcDbLine
 10
168.385145
 20
494.731791
 11
155.385145
 21
494.731791
  0
ARC
  5
1DC
100
AcDbEntity
  8
M0
 62
     4
100
AcDbCircle
 10
168.385145
 20
420.231547
 40
0.5
100
AcDbArc
 50
269.998251
 51
360.0
  0
ARC
  5
1DD
100
AcDbEntity
  8
M0
 62
     4
100
AcDbCircle
 10
168.385145
 20
494.231547
 40
0.5
100
AcDbArc
 50
0.0
 51
90.0
  0
LINE
  5
1DE
100
AcDbEntity
  8
M0
 62
     4
100
AcDbLine
 10
80.885145
 20
432.232035
 11
80.885145
 21
450.232035
  0
LINE
  5
1DF
100
AcDbEntity
  8
M0
 62
     4
100
AcDbLine
 10
72.885145
 20
430.231791
 11
72.885145
 21
450.232035
  0
LINE
  5
1E0
100
AcDbEntity
  8
M0
 62
     4
100
AcDbLine
 10
69.385145
 20
484.732035
 11
72.385145
 21
484.732035
  0
LINE
  5
1E1
100
AcDbEntity
  8
M0
 62
     4
100
AcDbLine
 10
69.385145
 20
429.732035
 11
72.385145
 21
429.732035
  0
LINE
  5
1E2
100
AcDbEntity
  8
M0
 62
     4
100
AcDbLine
 10
72.885145
 20
482.232035
 11
73.735136
 21
482.232035
  0
LINE
  5
1E3
100
AcDbEntity
  8
M0
 62
     4
100
AcDbLine
 10
72.885145
 20
432.232035
 11
73.735136
 21
432.232035
  0
LINE
  5
1E4
100
AcDbEntity
  8
M0
 62
     4
100
AcDbLine
 10
69.385145
 20
474.732035
 11
72.385145
 21
474.732035
  0
LINE
  5
1E5
100
AcDbEntity
  8
M0
 62
     4
100
AcDbLine
 10
69.385145
 20
439.732035
 11
72.385145
 21
439.732035
  0
LINE
  5
1E6
100
AcDbEntity
  8
M0
 62
     4
100
AcDbLine
 10
168.385145
 20
429.731791
 11
165.385145
 21
429.731791
  0
LINE
  5
1E7
100
AcDbEntity
  8
M0
 62
     4
100
AcDbLine
 10
168.385145
 20
439.731791
 11
165.385145
 21
439.731791
  0
LINE
  5
1E8
100
AcDbEntity
  8
M0
 62
     4
100
AcDbLine
 10
168.385145
 20
474.731791
 11
165.385145
 21
474.731791
  0
LINE
  5
1E9
100
AcDbEntity
  8
M0
 62
     4
100
AcDbLine
 10
168.385145
 20
484.731791
 11
165.385145
 21
484.731791
  0
LINE
  5
1EA
100
AcDbEntity
  8
M0
 62
     4
100
AcDbLine
 10
164.885145
 20
482.231791
 11
164.285123
 21
482.231547
  0
LINE
  5
1EB
100
AcDbEntity
  8
M0
 62
     4
100
AcDbLine
 10
164.885145
 20
432.231791
 11
164.285123
 21
432.231547
  0
LINE
  5
1EC
100
AcDbEntity
  8
M0
 62
     4
100
AcDbLine
 10
156.885145
 20
432.231791
 11
156.885145
 21
450.232035
  0
LINE
  5
1ED
100
AcDbEntity
  8
M0
 62
     4
100
AcDbLine
 10
164.885145
 20
430.231547
 11
164.885145
 21
450.232035
  0
LINE
  5
1EE
100
AcDbEntity
  8
M0
 62
     4
100
AcDbLine
 10
68.885145
 20
460.982035
 11
75.885145
 21
460.982035
  0
LINE
  5
1EF
100
AcDbEntity
  8
M0
 62
     4
100
AcDbLine
 10
68.885145
 20
453.482035
 11
75.885145
 21
453.482035
  0
LINE
  5
1F0
100
AcDbEntity
  8
M0
 62
     4
100
AcDbLine
 10
161.885145
 20
460.982035
 11
168.885145
 21
460.982035
  0
LINE
  5
1F1
100
AcDbEntity
  8
M0
 62
     4
100
AcDbLine
 10
161.885145
 20
453.482035
 11
168.885145
 21
453.482035
  0
LINE
  5
1F2
100
AcDbEntity
  8
M0
 62
     4
100
AcDbLine
 10
76.885145
 20
459.982035
 11
76.885145
 21
454.482035
  0
LINE
  5
1F3
100
AcDbEntity
  8
M0
 62
     4
100
AcDbLine
 10
160.885145
 20
459.982035
 11
160.885145
 21
454.482035
  0
LINE
  5
1F4
100
AcDbEntity
  8
M0
 62
     4
100
AcDbLine
 10
164.885145
 20
459.982035
 11
168.885145
 21
459.982035
  0
LINE
  5
1F5
100
AcDbEntity
  8
M0
 62
     4
100
AcDbLine
 10
164.885145
 20
454.482035
 11
168.885145
 21
454.482035
  0
LINE
  5
1F6
100
AcDbEntity
  8
M0
 62
     4
100
AcDbLine
 10
68.885145
 20
459.982035
 11
72.885145
 21
459.982035
  0
LINE
  5
1F7
100
AcDbEntity
  8
M0
 62
     4
100
AcDbLine
 10
68.885145
 20
454.482035
 11
72.885145
 21
454.482035
  0
LINE
  5
1F8
100
AcDbEntity
  8
M0
 62
     4
100
AcDbLine
 10
72.885145
 20
459.982035
 11
72.885145
 21
460.982035
  0
LINE
  5
1F9
100
AcDbEntity
  8
M0
 62
     4
100
AcDbLine
 10
164.885145
 20
459.982035
 11
164.885145
 21
460.982035
  0
LINE
  5
1FA
100
AcDbEntity
  8
M0
 62
     4
100
AcDbLine
 10
165.385145
 20
460.982035
 11
165.385145
 21
459.982035
  0
LINE
  5
1FB
100
AcDbEntity
  8
M0
 62
     4
100
AcDbLine
 10
165.385145
 20
454.482035
 11
165.385145
 21
453.482035
  0
LINE
  5
1FC
100
AcDbEntity
  8
M0
 62
     4
100
AcDbLine
 10
72.385145
 20
460.982035
 11
72.385145
 21
459.982035
  0
LINE
  5
1FD
100
AcDbEntity
  8
M0
 62
     4
100
AcDbLine
 10
72.385145
 20
454.482035
 11
72.385145
 21
453.482035
  0
LINE
  5
1FE
100
AcDbEntity
  8
M0
 62
     4
100
AcDbLine
 10
73.885145
 20
463.232035
 11
79.885145
 21
463.232035
  0
LINE
  5
1FF
100
AcDbEntity
  8
M0
 62
     4
100
AcDbLine
 10
73.885145
 20
451.232035
 11
79.885145
 21
451.232035
  0
LINE
  5
200
100
AcDbEntity
  8
M0
 62
     4
100
AcDbLine
 10
157.885145
 20
463.232035
 11
163.885145
 21
463.232035
  0
LINE
  5
201
100
AcDbEntity
  8
M0
 62
     4
100
AcDbLine
 10
157.885145
 20
451.232035
 11
163.885145
 21
451.232035
  0
LINE
  5
202
100
AcDbEntity
  8
M0
 62
     4
100
AcDbLine
 10
72.885145
 20
464.232035
 11
72.885145
 21
484.232035
  0
LINE
  5
203
100
AcDbEntity
  8
M0
 62
     4
100
AcDbLine
 10
72.885145
 20
453.482035
 11
72.885145
 21
454.482035
  0
LINE
  5
204
100
AcDbEntity
  8
M0
 62
     4
100
AcDbLine
 10
164.885145
 20
464.231791
 11
164.885145
 21
484.231547
  0
LINE
  5
205
100
AcDbEntity
  8
M0
 62
     4
100
AcDbLine
 10
164.885145
 20
453.482035
 11
164.885145
 21
454.482035
  0
LINE
  5
206
100
AcDbEntity
  8
M0
 62
     4
100
AcDbLine
 10
80.885145
 20
464.231791
 11
80.885145
 21
482.232035
  0
LINE
  5
207
100
AcDbEntity
  8
M0
 62
     4
100
AcDbLine
 10
156.885145
 20
464.232035
 11
156.885145
 21
482.231791
  0
ARC
  5
208
100
AcDbEntity
  8
M0
 62
     4
100
AcDbCircle
 10
73.885145
 20
464.232035
 40
1.0
100
AcDbArc
 50
180.0
 51
270.0
  0
ARC
  5
209
100
AcDbEntity
  8
M0
 62
     4
100
AcDbCircle
 10
79.885145
 20
464.232035
 40
1.0
100
AcDbArc
 50
270.0
 51
359.985902
  0
ARC
  5
20A
100
AcDbEntity
  8
M0
 62
     4
100
AcDbCircle
 10
79.885145
 20
450.232035
 40
1.0
100
AcDbArc
 50
0.0
 51
89.999126
  0
ARC
  5
20B
100
AcDbEntity
  8
M0
 62
     4
100
AcDbCircle
 10
73.885145
 20
450.232035
 40
1.0
100
AcDbArc
 50
89.999126
 51
179.999945
  0
ARC
  5
20C
100
AcDbEntity
  8
M0
 62
     4
100
AcDbCircle
 10
163.885145
 20
450.232035
 40
1.0
100
AcDbArc
 50
0.0
 51
90.0
  0
ARC
  5
20D
100
AcDbEntity
  8
M0
 62
     4
100
AcDbCircle
 10
157.885145
 20
450.232035
 40
1.0
100
AcDbArc
 50
90.0
 51
179.999945
  0
ARC
  5
20E
100
AcDbEntity
  8
M0
 62
     4
100
AcDbCircle
 10
157.885145
 20
464.232035
 40
1.0
100
AcDbArc
 50
180.0
 51
269.999126
  0
ARC
  5
20F
100
AcDbEntity
  8
M0
 62
     4
100
AcDbCircle
 10
163.885145
 20
464.232035
 40
1.0
100
AcDbArc
 50
269.999126
 51
359.985902
  0
ARC
  5
210
100
AcDbEntity
  8
M0
 62
     4
100
AcDbCircle
 10
165.385145
 20
484.231547
 40
0.5
100
AcDbArc
 50
90.0
 51
180.0
  0
ARC
  5
211
100
AcDbEntity
  8
M0
 62
     4
100
AcDbCircle
 10
72.385145
 20
484.232035
 40
0.5
100
AcDbArc
 50
0.0
 51
89.998251
  0
ARC
  5
212
100
AcDbEntity
  8
M0
 62
     4
100
AcDbCircle
 10
72.385145
 20
430.232035
 40
0.5
100
AcDbArc
 50
270.0
 51
359.972024
  0
ARC
  5
213
100
AcDbEntity
  8
M0
 62
     4
100
AcDbCircle
 10
69.385145
 20
440.232035
 40
0.5
100
AcDbArc
 50
179.998251
 51
270.0
  0
ARC
  5
214
100
AcDbEntity
  8
M0
 62
     4
100
AcDbCircle
 10
69.385145
 20
430.232035
 40
0.5
100
AcDbArc
 50
179.998251
 51
270.0
  0
ARC
  5
215
100
AcDbEntity
  8
M0
 62
     4
100
AcDbCircle
 10
72.385145
 20
474.232035
 40
0.5
100
AcDbArc
 50
359.968526
 51
449.998251
  0
ARC
  5
216
100
AcDbEntity
  8
M0
 62
     4
100
AcDbCircle
 10
168.385145
 20
484.231547
 40
0.5
100
AcDbArc
 50
0.0
 51
90.0
  0
ARC
  5
217
100
AcDbEntity
  8
M0
 62
     4
100
AcDbCircle
 10
168.385145
 20
474.231547
 40
0.5
100
AcDbArc
 50
0.0
 51
90.0
  0
ARC
  5
218
100
AcDbEntity
  8
M0
 62
     4
100
AcDbCircle
 10
165.385145
 20
440.231547
 40
0.5
100
AcDbArc
 50
179.998251
 51
269.998251
  0
ARC
  5
219
100
AcDbEntity
  8
M0
 62
     4
100
AcDbCircle
 10
165.385145
 20
430.231547
 40
0.5
100
AcDbArc
 50
179.998251
 51
269.998251
  0
ARC
  5
21A
100
AcDbEntity
  8
M0
 62
     4
100
AcDbCircle
 10
168.385145
 20
440.231547
 40
0.5
100
AcDbArc
 50
269.998251
 51
360.0
  0
ARC
  5
21B
100
AcDbEntity
  8
M0
 62
     4
100
AcDbCircle
 10
168.385145
 20
430.231547
 40
0.5
100
AcDbArc
 50
269.998251
 51
360.0
  0
ARC
  5
21C
100
AcDbEntity
  8
M0
 62
     4
100
AcDbCircle
 10
165.385145
 20
474.231547
 40
0.5
100
AcDbArc
 50
90.0
 51
180.0
  0
ARC
  5
21D
100
AcDbEntity
  8
M0
 62
     4
100
AcDbCircle
 10
69.385145
 20
484.232035
 40
0.5
100
AcDbArc
 50
89.998251
 51
180.0
  0
ARC
  5
21E
100
AcDbEntity
  8
M0
 62
     4
100
AcDbCircle
 10
69.385145
 20
474.232035
 40
0.5
100
AcDbArc
 50
89.998251
 51
180.0
  0
ARC
  5
21F
100
AcDbEntity
  8
M0
 62
     4
100
AcDbCircle
 10
72.385145
 20
440.232035
 40
0.5
100
AcDbArc
 50
270.0
 51
359.972024
  0
ARC
  5
220
100
AcDbEntity
  8
M0
 62
     4
100
AcDbCircle
 10
75.885145
 20
454.482035
 40
1.0
100
AcDbArc
 50
270.0
 51
360.0
  0
ARC
  5
221
100
AcDbEntity
  8
M0
 62
     4
100
AcDbCircle
 10
75.885145
 20
459.982035
 40
1.0
100
AcDbArc
 50
0.0
 51
89.999126
  0
LINE
  5
222
100
AcDbEntity
  8
M0
 62
     4
100
AcDbLine
 10
81.385145
 20
473.732035
 11
82.385145
 21
473.732035
  0
LINE
  5
223
100
AcDbEntity
  8
M0
 62
     4
100
AcDbLine
 10
81.385145
 20
440.732035
 11
82.385145
 21
440.732035
  0
ARC
  5
224
100
AcDbEntity
  8
M0
 62
     4
100
AcDbCircle
 10
81.385145
 20
441.232035
 40
0.5
100
AcDbArc
 50
179.999891
 51
270.0
  0
ARC
  5
225
100
AcDbEntity
  8
M0
 62
     4
100
AcDbCircle
 10
81.385145
 20
473.232035
 40
0.5
100
AcDbArc
 50
89.998251
 51
180.0
  0
ARC
  5
226
100
AcDbEntity
  8
M0
 62
     4
100
AcDbCircle
 10
161.885145
 20
459.982035
 40
1.0
100
AcDbArc
 50
90.0
 51
180.0
  0
ARC
  5
227
100
AcDbEntity
  8
M0
 62
     4
100
AcDbCircle
 10
161.885145
 20
454.482035
 40
1.0
100
AcDbArc
 50
179.999945
 51
269.999126
  0
LINE
  5
228
100
AcDbEntity
  8
M0
 62
     4
100
AcDbLine
 10
155.384901
 20
440.732035
 11
156.385145
 21
440.732035
  0
LINE
  5
229
100
AcDbEntity
  8
M0
 62
     4
100
AcDbLine
 10
155.384901
 20
473.732035
 11
156.385145
 21
473.732035
  0
ARC
  5
22A
100
AcDbEntity
  8
M0
 62
     4
100
AcDbCircle
 10
156.385145
 20
473.232035
 40
0.5
100
AcDbArc
 50
359.971804
 51
450.0
  0
ARC
  5
22B
100
AcDbEntity
  8
M0
 62
     4
100
AcDbCircle
 10
156.385145
 20
441.232035
 40
0.5
100
AcDbArc
 50
269.998251
 51
359.972023
  0
LINE
  5
22C
100
AcDbEntity
  8
M0
 62
     4
100
AcDbLine
 10
156.885145
 20
471.732035
 11
157.635267
 21
471.732035
  0
LINE
  5
22D
100
AcDbEntity
  8
M0
 62
     4
100
AcDbLine
 10
156.885145
 20
442.732035
 11
157.635084
 21
442.732035
  0
LINE
  5
22E
100
AcDbEntity
  8
M0
 62
     4
100
AcDbLine
 10
72.885145
 20
471.732035
 11
73.635267
 21
471.732035
  0
LINE
  5
22F
100
AcDbEntity
  8
M0
 62
     4
100
AcDbLine
 10
72.885145
 20
442.732035
 11
73.635084
 21
442.732035
  0
LINE
  5
230
100
AcDbEntity
  8
M0
 62
     4
100
AcDbLine
 10
156.885145
 20
481.331889
 11
157.693403
 21
481.331889
  0
LINE
  5
231
100
AcDbEntity
  8
M0
 62
     4
100
AcDbLine
 10
156.885145
 20
433.131937
 11
157.693403
 21
433.131937
  0
LINE
  5
232
100
AcDbEntity
  8
M0
 62
     4
100
AcDbLine
 10
72.885145
 20
433.131937
 11
73.693403
 21
433.131937
  0
LINE
  5
233
100
AcDbEntity
  8
M0
 62
     4
100
AcDbLine
 10
72.885145
 20
481.331889
 11
73.693403
 21
481.331889
  0
LINE
  5
234
100
AcDbEntity
  8
M0
 62
     4
100
AcDbLine
 10
72.885145
 20
465.232035
 11
72.935133
 21
465.232035
  0
LINE
  5
235
100
AcDbEntity
  8
M0
 62
     4
100
AcDbLine
 10
80.835142
 20
465.232035
 11
80.885145
 21
465.232035
  0
LINE
  5
236
100
AcDbEntity
  8
M0
 62
     4
100
AcDbLine
 10
72.885145
 20
466.732035
 11
72.935133
 21
466.581889
  0
LINE
  5
237
100
AcDbEntity
  8
M0
 62
     4
100
AcDbLine
 10
80.885145
 20
466.732035
 11
80.835142
 21
466.581889
  0
ARC
  5
238
100
AcDbEntity
  8
M0
 62
     4
100
AcDbCircle
 10
79.385145
 20
464.232035
 40
1.0
100
AcDbArc
 50
270.0
 51
337.67525
  0
ARC
  5
239
100
AcDbEntity
  8
M0
 62
     4
100
AcDbCircle
 10
74.385145
 20
464.232035
 40
1.0
100
AcDbArc
 50
202.324981
 51
270.0
  0
ARC
  5
23A
100
AcDbEntity
  8
M0
 62
     4
100
AcDbCircle
 10
74.384901
 20
450.232035
 40
1.0
100
AcDbArc
 50
89.999126
 51
157.702205
  0
LINE
  5
23B
100
AcDbEntity
  8
M0
 62
     4
100
AcDbLine
 10
72.884901
 20
449.232035
 11
72.935133
 21
449.232035
  0
LINE
  5
23C
100
AcDbEntity
  8
M0
 62
     4
100
AcDbLine
 10
72.884901
 20
447.732035
 11
72.935133
 21
447.88267
  0
LINE
  5
23D
100
AcDbEntity
  8
M0
 62
     4
100
AcDbLine
 10
80.884901
 20
447.732035
 11
80.835142
 21
447.881205
  0
LINE
  5
23E
100
AcDbEntity
  8
M0
 62
     4
100
AcDbLine
 10
80.835142
 20
449.232035
 11
80.884901
 21
449.232035
  0
ARC
  5
23F
100
AcDbEntity
  8
M0
 62
     4
100
AcDbCircle
 10
79.384901
 20
450.232035
 40
1.0
100
AcDbArc
 50
22.313081
 51
89.999126
  0
ARC
  5
240
100
AcDbEntity
  8
M0
 62
     4
100
AcDbCircle
 10
163.385145
 20
464.231791
 40
1.0
100
AcDbArc
 50
269.999126
 51
337.703851
  0
LINE
  5
241
100
AcDbEntity
  8
M0
 62
     4
100
AcDbLine
 10
164.885145
 20
465.231791
 11
164.835142
 21
465.231547
  0
LINE
  5
242
100
AcDbEntity
  8
M0
 62
     4
100
AcDbLine
 10
164.885145
 20
466.731791
 11
164.835142
 21
466.581644
  0
LINE
  5
243
100
AcDbEntity
  8
M0
 62
     4
100
AcDbLine
 10
156.885145
 20
466.731791
 11
156.935133
 21
466.581644
  0
LINE
  5
244
100
AcDbEntity
  8
M0
 62
     4
100
AcDbLine
 10
156.935133
 20
465.231547
 11
156.885145
 21
465.231791
  0
ARC
  5
245
100
AcDbEntity
  8
M0
 62
     4
100
AcDbCircle
 10
158.385145
 20
464.231791
 40
1.0
100
AcDbArc
 50
202.295463
 51
269.999126
  0
LINE
  5
246
100
AcDbEntity
  8
M0
 62
     4
100
AcDbLine
 10
156.885389
 20
447.731791
 11
156.935133
 21
447.880961
  0
LINE
  5
247
100
AcDbEntity
  8
M0
 62
     4
100
AcDbLine
 10
156.935133
 20
449.231547
 11
156.885389
 21
449.231791
  0
ARC
  5
248
100
AcDbEntity
  8
M0
 62
     4
100
AcDbCircle
 10
158.385389
 20
450.231791
 40
1.0
100
AcDbArc
 50
90.0
 51
157.65857
  0
ARC
  5
249
100
AcDbEntity
  8
M0
 62
     4
100
AcDbCircle
 10
163.385389
 20
450.231791
 40
1.0
100
AcDbArc
 50
22.313717
 51
90.0
  0
LINE
  5
24A
100
AcDbEntity
  8
M0
 62
     4
100
AcDbLine
 10
164.885389
 20
449.231791
 11
164.835142
 21
449.231547
  0
LINE
  5
24B
100
AcDbEntity
  8
M0
 62
     4
100
AcDbLine
 10
164.885389
 20
447.731791
 11
164.835142
 21
447.882426
  0
LINE
  5
24C
100
AcDbEntity
  8
M0
 62
     4
100
AcDbLine
 10
73.635145
 20
472.232035
 11
73.735136
 21
472.232035
  0
LINE
  5
24D
100
AcDbEntity
  8
M0
 62
     4
100
AcDbLine
 10
73.635145
 20
442.232035
 11
73.735136
 21
442.232035
  0
LINE
  5
24E
100
AcDbEntity
  8
M0
 62
     4
100
AcDbLine
 10
157.635145
 20
472.232035
 11
157.735136
 21
472.232035
  0
LINE
  5
24F
100
AcDbEntity
  8
M0
 62
     4
100
AcDbLine
 10
157.635145
 20
442.232035
 11
157.735136
 21
442.232035
  0
LINE
  5
250
100
AcDbEntity
  8
M0
 62
     4
100
AcDbLine
 10
80.135145
 20
442.232035
 11
80.135145
 21
442.732035
  0
LINE
  5
251
100
AcDbEntity
  8
M0
 62
     4
100
AcDbLine
 10
73.635145
 20
441.731791
 11
73.635145
 21
442.732035
  0
LINE
  5
252
100
AcDbEntity
  8
M0
 62
     4
100
AcDbLine
 10
72.885145
 20
473.232035
 11
73.735136
 21
473.232035
  0
LINE
  5
253
100
AcDbEntity
  8
M0
 62
     4
100
AcDbLine
 10
80.035139
 20
473.232035
 11
80.885145
 21
473.232035
  0
LINE
  5
254
100
AcDbEntity
  8
M0
 62
     4
100
AcDbLine
 10
73.635145
 20
471.732035
 11
73.635145
 21
472.731791
  0
LINE
  5
255
100
AcDbEntity
  8
M0
 62
     4
100
AcDbLine
 10
80.135145
 20
471.732035
 11
80.135145
 21
472.232035
  0
LINE
  5
256
100
AcDbEntity
  8
M0
 62
     4
100
AcDbLine
 10
72.885145
 20
441.232035
 11
73.735136
 21
441.232035
  0
LINE
  5
257
100
AcDbEntity
  8
M0
 62
     4
100
AcDbLine
 10
80.285123
 20
441.232035
 11
80.885145
 21
441.232035
  0
ARC
  5
258
100
AcDbEntity
  8
M0
 62
     4
100
AcDbCircle
 10
73.135145
 20
441.732035
 40
0.5
100
AcDbArc
 50
270.0
 51
359.972024
  0
ARC
  5
259
100
AcDbEntity
  8
M0
 62
     4
100
AcDbCircle
 10
80.635145
 20
441.732035
 40
0.5
100
AcDbArc
 50
225.5812
 51
270.0
  0
ARC
  5
25A
100
AcDbEntity
  8
M0
 62
     4
100
AcDbCircle
 10
73.135145
 20
472.732035
 40
0.5
100
AcDbArc
 50
359.971805
 51
449.998251
  0
ARC
  5
25B
100
AcDbEntity
  8
M0
 62
     4
100
AcDbCircle
 10
80.635145
 20
472.732035
 40
0.5
100
AcDbArc
 50
89.998251
 51
134.438276
  0
LINE
  5
25C
100
AcDbEntity
  8
M0
 62
     4
100
AcDbLine
 10
164.135145
 20
471.731791
 11
164.135145
 21
472.232035
  0
ARC
  5
25D
100
AcDbEntity
  8
M0
 62
     4
100
AcDbCircle
 10
164.635145
 20
472.731791
 40
0.5
100
AcDbArc
 50
90.0
 51
134.440136
  0
LINE
  5
25E
100
AcDbEntity
  8
M0
 62
     4
100
AcDbLine
 10
164.885145
 20
473.231791
 11
164.285123
 21
473.231547
  0
LINE
  5
25F
100
AcDbEntity
  8
M0
 62
     4
100
AcDbLine
 10
157.735136
 20
473.231547
 11
156.885145
 21
473.231791
  0
ARC
  5
260
100
AcDbEntity
  8
M0
 62
     4
100
AcDbCircle
 10
157.135145
 20
472.731791
 40
0.5
100
AcDbArc
 50
0.0
 51
90.0
  0
LINE
  5
261
100
AcDbEntity
  8
M0
 62
     4
100
AcDbLine
 10
157.635145
 20
471.731791
 11
157.635145
 21
472.731791
  0
LINE
  5
262
100
AcDbEntity
  8
M0
 62
     4
100
AcDbLine
 10
157.945921
 20
441.231791
 11
156.885145
 21
441.231791
  0
ARC
  5
263
100
AcDbEntity
  8
M0
 62
     4
100
AcDbCircle
 10
157.135145
 20
441.731791
 40
0.5
100
AcDbArc
 50
-90.001749
 51
0.0
  0
LINE
  5
264
100
AcDbEntity
  8
M0
 62
     4
100
AcDbLine
 10
157.635145
 20
441.731791
 11
157.635145
 21
442.731791
  0
LINE
  5
265
100
AcDbEntity
  8
M0
 62
     4
100
AcDbLine
 10
164.135145
 20
442.232035
 11
164.135145
 21
442.731791
  0
ARC
  5
266
100
AcDbEntity
  8
M0
 62
     4
100
AcDbCircle
 10
164.635145
 20
441.731791
 40
0.5
100
AcDbArc
 50
225.579339
 51
269.998251
  0
LINE
  5
267
100
AcDbEntity
  8
M0
 62
     4
100
AcDbLine
 10
164.885145
 20
441.231791
 11
163.824338
 21
441.231791
  0
LINE
  5
268
100
AcDbEntity
  8
M0
 62
     4
100
AcDbLine
 10
80.385145
 20
441.066752
 11
80.385145
 21
441.232035
  0
LINE
  5
269
100
AcDbEntity
  8
M0
 62
     4
100
AcDbLine
 10
73.385145
 20
441.066752
 11
73.385145
 21
441.232035
  0
LINE
  5
26A
100
AcDbEntity
  8
M0
 62
     4
100
AcDbLine
 10
80.835142
 20
474.831889
 11
80.885145
 21
474.831889
  0
LINE
  5
26B
100
AcDbEntity
  8
M0
 62
     4
100
AcDbLine
 10
72.885145
 20
474.831889
 11
72.935133
 21
474.831889
  0
LINE
  5
26C
100
AcDbEntity
  8
M0
 62
     4
100
AcDbLine
 10
72.885145
 20
439.631937
 11
72.935133
 21
439.631937
  0
LINE
  5
26D
100
AcDbEntity
  8
M0
 62
     4
100
AcDbLine
 10
80.835142
 20
439.631937
 11
80.885145
 21
439.631937
  0
LINE
  5
26E
100
AcDbEntity
  8
M0
 62
     4
100
AcDbLine
 10
73.385145
 20
473.232035
 11
73.385145
 21
473.397074
  0
LINE
  5
26F
100
AcDbEntity
  8
M0
 62
     4
100
AcDbLine
 10
80.385145
 20
473.232035
 11
80.385145
 21
473.397074
  0
LINE
  5
270
100
AcDbEntity
  8
M0
 62
     4
100
AcDbLine
 10
72.885145
 20
438.131937
 11
72.935133
 21
438.28184
  0
LINE
  5
271
100
AcDbEntity
  8
M0
 62
     4
100
AcDbLine
 10
80.835142
 20
438.28184
 11
80.885145
 21
438.131937
  0
LINE
  5
272
100
AcDbEntity
  8
M0
 62
     4
100
AcDbLine
 10
72.885145
 20
476.331889
 11
72.935133
 21
476.181742
  0
LINE
  5
273
100
AcDbEntity
  8
M0
 62
     4
100
AcDbLine
 10
80.885145
 20
476.331889
 11
80.835142
 21
476.181742
  0
LINE
  5
274
100
AcDbEntity
  8
M0
 62
     4
100
AcDbLine
 10
164.885145
 20
438.131693
 11
164.835142
 21
438.281596
  0
LINE
  5
275
100
AcDbEntity
  8
M0
 62
     4
100
AcDbLine
 10
164.885145
 20
439.631693
 11
164.835142
 21
439.631449
  0
LINE
  5
276
100
AcDbEntity
  8
M0
 62
     4
100
AcDbLine
 10
164.385145
 20
441.066752
 11
164.385145
 21
441.231791
  0
LINE
  5
277
100
AcDbEntity
  8
M0
 62
     4
100
AcDbLine
 10
156.935133
 20
438.281596
 11
156.885145
 21
438.131693
  0
LINE
  5
278
100
AcDbEntity
  8
M0
 62
     4
100
AcDbLine
 10
156.935133
 20
439.631449
 11
156.885145
 21
439.631693
  0
LINE
  5
279
100
AcDbEntity
  8
M0
 62
     4
100
AcDbLine
 10
157.385145
 20
441.066752
 11
157.385145
 21
441.231791
  0
LINE
  5
27A
100
AcDbEntity
  8
M0
 62
     4
100
AcDbLine
 10
156.935133
 20
474.8314
 11
156.885145
 21
474.831644
  0
LINE
  5
27B
100
AcDbEntity
  8
M0
 62
     4
100
AcDbLine
 10
156.885145
 20
476.331644
 11
156.935133
 21
476.181498
  0
LINE
  5
27C
100
AcDbEntity
  8
M0
 62
     4
100
AcDbLine
 10
157.385145
 20
473.231791
 11
157.385145
 21
473.397074
  0
LINE
  5
27D
100
AcDbEntity
  8
M0
 62
     4
100
AcDbLine
 10
164.385145
 20
473.231791
 11
164.385145
 21
473.397074
  0
LINE
  5
27E
100
AcDbEntity
  8
M0
 62
     4
100
AcDbLine
 10
164.885145
 20
476.331644
 11
164.835142
 21
476.181498
  0
LINE
  5
27F
100
AcDbEntity
  8
M0
 62
     4
100
AcDbLine
 10
164.885145
 20
474.831644
 11
164.835142
 21
474.8314
  0
LINE
  5
280
100
AcDbEntity
  8
M0
 62
     4
100
AcDbLine
 10
71.385145
 20
429.732035
 11
71.385145
 21
419.732035
  0
LINE
  5
281
100
AcDbEntity
  8
M0
 62
     4
100
AcDbLine
 10
71.385145
 20
494.732035
 11
71.385145
 21
484.732035
  0
LINE
  5
282
100
AcDbEntity
  8
M0
 62
     4
100
AcDbLine
 10
166.385145
 20
494.731791
 11
166.385145
 21
484.731791
  0
LINE
  5
283
100
AcDbEntity
  8
M0
 62
     4
100
AcDbLine
 10
166.385145
 20
429.731791
 11
166.385145
 21
419.731791
  0
LINE
  5
284
100
AcDbEntity
  8
M0
 62
     4
100
AcDbLine
 10
68.885145
 20
422.232035
 11
71.385145
 21
422.232035
  0
LINE
  5
285
100
AcDbEntity
  8
M0
 62
     4
100
AcDbLine
 10
68.885145
 20
492.232035
 11
71.385145
 21
492.232035
  0
LINE
  5
286
100
AcDbEntity
  8
M0
 62
     4
100
AcDbLine
 10
166.385145
 20
492.231791
 11
168.885145
 21
492.231791
  0
LINE
  5
287
100
AcDbEntity
  8
M0
 62
     4
100
AcDbLine
 10
166.385145
 20
422.231791
 11
168.885145
 21
422.231791
  0
LINE
  5
288
100
AcDbEntity
  8
M0
 62
     4
100
AcDbLine
 10
157.735136
 20
432.231547
 11
155.384901
 21
432.231547
  0
LINE
  5
289
100
AcDbEntity
  8
M0
 62
     4
100
AcDbLine
 10
164.076856
 20
433.131937
 11
164.885145
 21
433.131937
  0
LINE
  5
28A
100
AcDbEntity
  8
M0
 62
     4
100
AcDbLine
 10
164.135175
 20
442.732035
 11
164.885145
 21
442.732035
  0
LINE
  5
28B
100
AcDbEntity
  8
M0
 62
     4
100
AcDbLine
 10
80.135175
 20
442.732035
 11
80.885145
 21
442.732035
  0
LINE
  5
28C
100
AcDbEntity
  8
M0
 62
     4
100
AcDbLine
 10
80.076856
 20
433.131937
 11
80.885145
 21
433.131937
  0
LINE
  5
28D
100
AcDbEntity
  8
M0
 62
     4
100
AcDbLine
 10
80.285123
 20
432.232035
 11
82.385145
 21
432.232035
  0
LINE
  5
28E
100
AcDbEntity
  8
M0
 62
     4
100
AcDbLine
 10
164.134992
 20
471.732035
 11
164.885145
 21
471.732035
  0
LINE
  5
28F
100
AcDbEntity
  8
M0
 62
     4
100
AcDbLine
 10
164.076856
 20
481.331889
 11
164.885145
 21
481.331889
  0
LINE
  5
290
100
AcDbEntity
  8
M0
 62
     4
100
AcDbLine
 10
157.735136
 20
482.231547
 11
155.384901
 21
482.231547
  0
LINE
  5
291
100
AcDbEntity
  8
M0
 62
     4
100
AcDbLine
 10
80.076856
 20
481.331889
 11
80.885145
 21
481.331889
  0
LINE
  5
292
100
AcDbEntity
  8
M0
 62
     4
100
AcDbLine
 10
80.285123
 20
482.232035
 11
82.385145
 21
482.232035
  0
LINE
  5
293
100
AcDbEntity
  8
M0
 62
     4
100
AcDbLine
 10
80.134992
 20
471.732035
 11
80.885145
 21
471.732035
  0
LINE
  5
294
100
AcDbEntity
  8
M0
100
AcDbLine
 10
161.885145
 20
525.231791
 11
141.885145
 21
525.231547
  0
LINE
  5
295
100
AcDbEntity
  8
M0
100
AcDbLine
 10
140.885129
 20
509.777445
 11
141.885145
 21
511.232035
  0
LINE
  5
296
100
AcDbEntity
  8
M0
100
AcDbLine
 10
150.461851
 20
500.990336
 11
161.885145
 21
511.232035
  0
LINE
  5
297
100
AcDbEntity
  8
M0
100
AcDbLine
 10
161.885145
 20
511.232035
 11
161.885145
 21
525.231547
  0
LINE
  5
298
100
AcDbEntity
  8
M0
100
AcDbLine
 10
141.885145
 20
511.232035
 11
141.885145
 21
525.231547
  0
LINE
  5
299
100
AcDbEntity
  8
M0
  6
DASHDOT
100
AcDbLine
 10
143.885145
 20
517.232035
 11
159.885145
 21
517.232035
  0
LINE
  5
29A
100
AcDbEntity
  8
M0
  6
DASHDOT
100
AcDbLine
 10
151.885145
 20
509.232035
 11
151.885145
 21
525.232035
  0
LINE
  5
29B
100
AcDbEntity
  8
M0
100
AcDbLine
 10
75.885206
 20
525.231821
 11
95.885194
 21
525.231516
  0
LINE
  5
29C
100
AcDbEntity
  8
M0
100
AcDbLine
 10
96.88516
 20
509.777201
 11
95.88516
 21
511.231791
  0
LINE
  5
29D
100
AcDbEntity
  8
M0
100
AcDbLine
 10
87.308408
 20
500.990336
 11
75.885175
 21
511.232035
  0
LINE
  5
29E
100
AcDbEntity
  8
M0
100
AcDbLine
 10
75.885175
 20
511.232071
 11
75.885206
 21
525.231577
  0
LINE
  5
29F
100
AcDbEntity
  8
M0
100
AcDbLine
 10
95.885167
 20
511.232033
 11
95.885194
 21
525.231516
  0
LINE
  5
2A0
100
AcDbEntity
  8
M0
  6
DASHDOT
100
AcDbLine
 10
93.885179
 20
517.232035
 11
77.885206
 21
517.232066
  0
LINE
  5
2A1
100
AcDbEntity
  8
M0
  6
DASHDOT
100
AcDbLine
 10
85.885164
 20
509.232052
 11
85.885194
 21
525.232035
  0
LINE
  5
2A2
100
AcDbEntity
  8
M0
100
AcDbLine
 10
161.885145
 20
389.232279
 11
141.885145
 21
389.232523
  0
LINE
  5
2A3
100
AcDbEntity
  8
M0
100
AcDbLine
 10
140.885114
 20
404.686381
 11
141.885145
 21
403.232035
  0
LINE
  5
2A4
100
AcDbEntity
  8
M0
100
AcDbLine
 10
150.462003
 20
413.473246
 11
161.885145
 21
403.232035
  0
LINE
  5
2A5
100
AcDbEntity
  8
M0
100
AcDbLine
 10
161.885145
 20
403.232035
 11
161.885145
 21
389.232523
  0
LINE
  5
2A6
100
AcDbEntity
  8
M0
100
AcDbLine
 10
141.885145
 20
403.232035
 11
141.885145
 21
389.232523
  0
LINE
  5
2A7
100
AcDbEntity
  8
M0
  6
DASHDOT
100
AcDbLine
 10
143.885145
 20
397.232035
 11
159.885145
 21
397.232035
  0
LINE
  5
2A8
100
AcDbEntity
  8
M0
  6
DASHDOT
100
AcDbLine
 10
151.885145
 20
405.232035
 11
151.885145
 21
389.232035
  0
LINE
  5
2A9
100
AcDbEntity
  8
M0
100
AcDbLine
 10
75.885145
 20
389.23231
 11
95.885128
 21
389.232554
  0
LINE
  5
2AA
100
AcDbEntity
  8
M0
100
AcDbLine
 10
96.885114
 20
404.686381
 11
95.885129
 21
403.232035
  0
LINE
  5
2AB
100
AcDbEntity
  8
M0
100
AcDbLine
 10
87.308271
 20
413.473246
 11
75.885145
 21
403.232035
  0
LINE
  5
2AC
100
AcDbEntity
  8
M0
100
AcDbLine
 10
75.885145
 20
403.232048
 11
75.885145
 21
389.232554
  0
LINE
  5
2AD
100
AcDbEntity
  8
M0
100
AcDbLine
 10
95.885137
 20
403.232037
 11
95.885128
 21
389.232554
  0
LINE
  5
2AE
100
AcDbEntity
  8
M0
  6
DASHDOT
100
AcDbLine
 10
93.885135
 20
397.232066
 11
77.885145
 21
397.232066
  0
LINE
  5
2AF
100
AcDbEntity
  8
M0
  6
DASHDOT
100
AcDbLine
 10
85.885139
 20
405.232043
 11
85.885129
 21
389.232066
  0
LINE
  5
2B0
100
AcDbEntity
  8
M0
100
AcDbLine
 10
128.885114
 20
511.232035
 11
128.885114
 21
525.232035
  0
LINE
  5
2B1
100
AcDbEntity
  8
M0
100
AcDbLine
 10
128.885114
 20
525.232035
 11
108.885114
 21
525.232035
  0
LINE
  5
2B2
100
AcDbEntity
  8
M0
100
AcDbLine
 10
108.885114
 20
525.232035
 11
108.885114
 21
511.231791
  0
LINE
  5
2B3
100
AcDbEntity
  8
M0
100
AcDbLine
 10
124.385114
 20
506.782572
 11
124.385114
 21
500.731547
  0
LINE
  5
2B4
100
AcDbEntity
  8
M0
100
AcDbLine
 10
113.385114
 20
506.782572
 11
113.385114
 21
506.231303
  0
LINE
  5
2B5
100
AcDbEntity
  8
M0
100
AcDbLine
 10
108.885114
 20
511.232035
 11
113.049665
 21
507.530131
  0
LINE
  5
2B6
100
AcDbEntity
  8
M0
100
AcDbLine
 10
128.885114
 20
511.232035
 11
124.720609
 21
507.529887
  0
ARC
  5
2B7
100
AcDbEntity
  8
M0
100
AcDbCircle
 10
112.385114
 20
506.782572
 40
1.0
100
AcDbArc
 50
0.0
 51
48.364042
  0
ARC
  5
2B8
100
AcDbEntity
  8
M0
100
AcDbCircle
 10
125.385114
 20
506.782572
 40
1.0
100
AcDbArc
 50
131.643196
 51
180.0
  0
LINE
  5
2B9
100
AcDbEntity
  8
M0
  6
DASHDOT
100
AcDbLine
 10
110.885114
 20
517.232035
 11
126.885114
 21
517.232035
  0
LINE
  5
2BA
100
AcDbEntity
  8
M0
  6
DASHDOT
100
AcDbLine
 10
118.885114
 20
509.232035
 11
118.885114
 21
525.232035
  0
LINE
  5
2BB
100
AcDbEntity
  8
M0
100
AcDbLine
 10
108.885107
 20
403.232041
 11
108.885098
 21
389.232041
  0
LINE
  5
2BC
100
AcDbEntity
  8
M0
100
AcDbLine
 10
108.885098
 20
389.232041
 11
128.885098
 21
389.232029
  0
LINE
  5
2BD
100
AcDbEntity
  8
M0
100
AcDbLine
 10
128.885098
 20
389.232029
 11
128.885107
 21
403.232273
  0
LINE
  5
2BE
100
AcDbEntity
  8
M0
100
AcDbLine
 10
113.385094
 20
407.681501
 11
113.385098
 21
413.732039
  0
LINE
  5
2BF
100
AcDbEntity
  8
M0
100
AcDbLine
 10
124.385094
 20
407.68125
 11
124.385095
 21
408.232032
  0
LINE
  5
2C0
100
AcDbEntity
  8
M0
100
AcDbLine
 10
128.885107
 20
403.232029
 11
124.720558
 21
406.933936
  0
LINE
  5
2C1
100
AcDbEntity
  8
M0
100
AcDbLine
 10
108.885107
 20
403.232041
 11
113.049614
 21
406.934187
  0
ARC
  5
2C2
100
AcDbEntity
  8
M0
100
AcDbCircle
 10
125.385109
 20
407.681494
 40
1.0
100
AcDbArc
 50
179.999964
 51
228.364006
  0
ARC
  5
2C3
100
AcDbEntity
  8
M0
100
AcDbCircle
 10
112.385109
 20
407.681502
 40
1.0
100
AcDbArc
 50
311.64316
 51
359.999964
  0
LINE
  5
2C4
100
AcDbEntity
  8
M0
  6
DASHDOT
100
AcDbLine
 10
126.885103
 20
397.23203
 11
110.885103
 21
397.23204
  0
LINE
  5
2C5
100
AcDbEntity
  8
M0
  6
DASHDOT
100
AcDbLine
 10
118.885108
 20
405.232035
 11
118.885098
 21
389.232035
  0
LINE
  5
2C6
100
AcDbEntity
  8
M0
100
AcDbLine
 10
168.635114
 20
402.23202
 11
168.635114
 21
419.731547
  0
LINE
  5
2C7
100
AcDbEntity
  8
M0
100
AcDbLine
 10
69.135114
 20
512.231791
 11
69.135114
 21
494.732035
  0
LINE
  5
2C8
100
AcDbEntity
  8
M0
  6
DASHDOT
100
AcDbLine
 10
118.885114
 20
390.232035
 11
118.885114
 21
524.232035
  0
ARC
  5
2C9
100
AcDbEntity
  8
M0
100
AcDbCircle
 10
161.635114
 20
402.232035
 40
7.0
100
AcDbArc
 50
272.046465
 51
360.0
  0
ARC
  5
2CA
100
AcDbEntity
  8
M0
100
AcDbCircle
 10
161.635114
 20
512.231791
 40
7.0
100
AcDbArc
 50
0.0
 51
87.953285
  0
ARC
  5
2CB
100
AcDbEntity
  8
M0
100
AcDbCircle
 10
76.135114
 20
512.231791
 40
7.0
100
AcDbArc
 50
92.04659
 51
180.0
  0
ARC
  5
2CC
100
AcDbEntity
  8
M0
100
AcDbCircle
 10
76.135114
 20
402.232035
 40
7.0
100
AcDbArc
 50
179.999875
 51
267.953285
  0
LINE
  5
2CD
100
AcDbEntity
  8
M0
100
AcDbLine
 10
69.135114
 20
419.732035
 11
69.135114
 21
402.232035
  0
LINE
  5
2CE
100
AcDbEntity
  8
M0
100
AcDbLine
 10
168.635114
 20
494.731547
 11
168.635114
 21
512.231547
  0
LINE
  5
2CF
100
AcDbEntity
  8
M0
100
AcDbLine
 10
155.885114
 20
409.232035
 11
168.635114
 21
409.232035
  0
LINE
  5
2D0
100
AcDbEntity
  8
M0
100
AcDbLine
 10
69.135114
 20
409.232035
 11
81.885114
 21
409.232035
  0
LINE
  5
2D1
100
AcDbEntity
  8
M0
100
AcDbLine
 10
155.885114
 20
505.232035
 11
168.635114
 21
505.232035
  0
LINE
  5
2D2
100
AcDbEntity
  8
M0
100
AcDbLine
 10
69.135114
 20
505.232035
 11
81.885129
 21
505.232035
  0
ARC
  5
2D3
100
AcDbEntity
  8
M0
100
AcDbCircle
 10
155.885114
 20
405.232035
 40
4.0
100
AcDbArc
 50
90.0
 51
99.152407
  0
ARC
  5
2D4
100
AcDbEntity
  8
M0
100
AcDbCircle
 10
81.885114
 20
405.23205
 40
4.0
100
AcDbArc
 50
80.847377
 51
89.999781
  0
ARC
  5
2D5
100
AcDbEntity
  8
M0
100
AcDbCircle
 10
81.885129
 20
509.231791
 40
4.0
100
AcDbArc
 50
270.0
 51
279.152192
  0
ARC
  5
2D6
100
AcDbEntity
  8
M0
100
AcDbCircle
 10
155.885114
 20
509.231791
 40
4.0
100
AcDbArc
 50
260.847161
 51
269.999781
  0
LINE
  5
2D7
100
AcDbEntity
  8
M0
100
AcDbLine
 10
167.635114
 20
402.23202
 11
167.635114
 21
409.232035
  0
LINE
  5
2D8
100
AcDbEntity
  8
M0
100
AcDbLine
 10
70.135114
 20
409.232035
 11
70.135114
 21
402.232035
  0
ARC
  5
2D9
100
AcDbEntity
  8
M0
100
AcDbCircle
 10
161.635114
 20
402.232035
 40
6.0
100
AcDbArc
 50
272.387727
 51
360.0
  0
ARC
  5
2DA
100
AcDbEntity
  8
M0
100
AcDbCircle
 10
76.135114
 20
402.232035
 40
6.0
100
AcDbArc
 50
179.999854
 51
267.611981
  0
LINE
  5
2DB
100
AcDbEntity
  8
M0
100
AcDbLine
 10
70.135114
 20
512.231791
 11
70.135114
 21
505.232035
  0
LINE
  5
2DC
100
AcDbEntity
  8
M0
100
AcDbLine
 10
167.635114
 20
505.232035
 11
167.635114
 21
512.231547
  0
ARC
  5
2DD
100
AcDbEntity
  8
M0
100
AcDbCircle
 10
76.135114
 20
512.231791
 40
6.0
100
AcDbArc
 50
92.387873
 51
180.0
  0
ARC
  5
2DE
100
AcDbEntity
  8
M0
100
AcDbCircle
 10
161.635114
 20
512.231791
 40
6.0
100
AcDbArc
 50
0.0
 51
87.611981
  0
ARC
  5
2DF
100
AcDbEntity
  8
M0
100
AcDbCircle
 10
79.885114
 20
495.232035
 40
1.0
100
AcDbArc
 50
329.999312
 51
360.0
  0
ARC
  5
2E0
100
AcDbEntity
  8
M0
100
AcDbCircle
 10
157.885114
 20
495.231791
 40
1.0
100
AcDbArc
 50
180.0
 51
209.994833
  0
ARC
  5
2E1
100
AcDbEntity
  8
M0
100
AcDbCircle
 10
79.885068
 20
419.232035
 40
1.0
100
AcDbArc
 50
0.0
 51
30.000688
  0
ARC
  5
2E2
100
AcDbEntity
  8
M0
100
AcDbCircle
 10
157.88487
 20
419.232279
 40
1.0
100
AcDbArc
 50
150.005167
 51
179.999126
  0
CIRCLE
  5
2E3
100
AcDbEntity
  8
M0
100
AcDbCircle
 10
160.885114
 20
415.232035
 40
2.0
  0
CIRCLE
  5
2E4
100
AcDbEntity
  8
M0
100
AcDbCircle
 10
76.885114
 20
499.232035
 40
2.0
  0
LINE
  5
2E5
100
AcDbEntity
  8
M0
100
AcDbLine
 10
72.885114
 20
505.232035
 11
72.885114
 21
495.232035
  0
LINE
  5
2E6
100
AcDbEntity
  8
M0
100
AcDbLine
 10
80.885114
 20
505.232035
 11
80.885114
 21
495.232035
  0
ARC
  5
2E7
100
AcDbEntity
  8
M0
100
AcDbCircle
 10
73.885114
 20
495.232035
 40
1.0
100
AcDbArc
 50
180.0
 51
210.001125
  0
LINE
  5
2E8
100
AcDbEntity
  8
M0
100
AcDbLine
 10
74.635114
 20
496.232035
 11
79.135114
 21
496.232035
  0
LINE
  5
2E9
100
AcDbEntity
  8
M0
100
AcDbLine
 10
79.635114
 20
503.232035
 11
79.635114
 21
496.732035
  0
LINE
  5
2EA
100
AcDbEntity
  8
M0
100
AcDbLine
 10
74.135114
 20
503.232035
 11
74.135114
 21
496.732035
  0
LINE
  5
2EB
100
AcDbEntity
  8
M0
100
AcDbLine
 10
72.885114
 20
503.232035
 11
80.885114
 21
503.232035
  0
ARC
  5
2EC
100
AcDbEntity
  8
M0
100
AcDbCircle
 10
74.635114
 20
496.732035
 40
0.5
100
AcDbArc
 50
180.0
 51
270.0
  0
ARC
  5
2ED
100
AcDbEntity
  8
M0
100
AcDbCircle
 10
79.135114
 20
496.732035
 40
0.5
100
AcDbArc
 50
270.0
 51
360.0
  0
ARC
  5
2EE
100
AcDbEntity
  8
M0
100
AcDbCircle
 10
163.885114
 20
495.231791
 40
1.0
100
AcDbArc
 50
-30.003076
 51
0.0
  0
LINE
  5
2EF
100
AcDbEntity
  8
M0
100
AcDbLine
 10
164.885114
 20
505.231791
 11
164.885114
 21
495.231791
  0
LINE
  5
2F0
100
AcDbEntity
  8
M0
100
AcDbLine
 10
164.885114
 20
503.231791
 11
164.135145
 21
503.231791
  0
LINE
  5
2F1
100
AcDbEntity
  8
M0
100
AcDbLine
 10
156.885114
 20
505.231791
 11
156.885114
 21
495.231791
  0
ARC
  5
2F2
100
AcDbEntity
  8
M0
100
AcDbCircle
 10
73.885068
 20
419.232035
 40
1.0
100
AcDbArc
 50
149.998875
 51
179.999126
  0
LINE
  5
2F3
100
AcDbEntity
  8
M0
100
AcDbLine
 10
72.885068
 20
409.232035
 11
72.885068
 21
419.232035
  0
LINE
  5
2F4
100
AcDbEntity
  8
M0
100
AcDbLine
 10
72.885068
 20
411.232035
 11
73.635053
 21
411.232035
  0
LINE
  5
2F5
100
AcDbEntity
  8
M0
100
AcDbLine
 10
80.885068
 20
409.232035
 11
80.885068
 21
419.232035
  0
LINE
  5
2F6
100
AcDbEntity
  8
M0
100
AcDbLine
 10
164.88487
 20
411.232279
 11
156.88487
 21
411.232279
  0
LINE
  5
2F7
100
AcDbEntity
  8
M0
100
AcDbLine
 10
158.13487
 20
411.232279
 11
158.13487
 21
417.732279
  0
LINE
  5
2F8
100
AcDbEntity
  8
M0
100
AcDbLine
 10
156.88487
 20
409.232279
 11
156.88487
 21
419.232279
  0
LINE
  5
2F9
100
AcDbEntity
  8
M0
100
AcDbLine
 10
163.63487
 20
411.232279
 11
163.63487
 21
417.732279
  0
LINE
  5
2FA
100
AcDbEntity
  8
M0
100
AcDbLine
 10
164.88487
 20
409.232279
 11
164.88487
 21
419.232279
  0
LINE
  5
2FB
100
AcDbEntity
  8
M0
100
AcDbLine
 10
163.13487
 20
418.232279
 11
158.63487
 21
418.232279
  0
ARC
  5
2FC
100
AcDbEntity
  8
M0
100
AcDbCircle
 10
163.88487
 20
419.232279
 40
1.0
100
AcDbArc
 50
0.0
 51
30.003076
  0
ARC
  5
2FD
100
AcDbEntity
  8
M0
100
AcDbCircle
 10
163.13487
 20
417.732279
 40
0.5
100
AcDbArc
 50
0.0
 51
90.0
  0
ARC
  5
2FE
100
AcDbEntity
  8
M0
100
AcDbCircle
 10
158.63487
 20
417.732279
 40
0.5
100
AcDbArc
 50
90.0
 51
179.998251
  0
LINE
  5
2FF
100
AcDbEntity
  8
M0
100
AcDbLine
 10
155.38487
 20
496.842875
 11
155.773054
 21
497.231059
  0
LINE
  5
300
100
AcDbEntity
  8
M0
100
AcDbLine
 10
156.885114
 20
501.231303
 11
155.773298
 21
497.231303
  0
ARC
  5
301
100
AcDbEntity
  8
M0
100
AcDbCircle
 10
160.885114
 20
499.232035
 40
4.299999
100
AcDbArc
 50
338.468918
 51
381.527608
  0
LINE
  5
302
100
AcDbEntity
  8
M0
100
AcDbLine
 10
80.885358
 20
413.232768
 11
81.997175
 21
417.232768
  0
LINE
  5
303
100
AcDbEntity
  8
M0
100
AcDbLine
 10
82.385603
 20
417.621195
 11
81.997419
 21
417.233012
  0
ARC
  5
304
100
AcDbEntity
  8
M0
100
AcDbCircle
 10
76.885358
 20
415.232035
 40
4.299999
100
AcDbArc
 50
158.468918
 51
201.527419
  0
ARC
  5
305
100
AcDbEntity
  8
M0
100
AcDbCircle
 10
161.385114
 20
512.232035
 40
2.75
100
AcDbArc
 50
269.999682
 51
439.524315
  0
ARC
  5
306
100
AcDbEntity
  8
M0
100
AcDbCircle
 10
76.385114
 20
402.232035
 40
2.75
100
AcDbArc
 50
89.999682
 51
259.524628
  0
LINE
  5
307
100
AcDbEntity
  8
M0
100
AcDbLine
 10
159.932722
 20
509.481791
 11
161.38487
 21
509.481791
  0
LINE
  5
308
100
AcDbEntity
  8
M0
100
AcDbLine
 10
76.385129
 20
404.982005
 11
77.837064
 21
404.982005
  0
LINE
  5
309
100
AcDbEntity
  8
M0
100
AcDbLine
 10
80.135145
 20
411.232035
 11
80.885068
 21
411.232035
  0
LINE
  5
30A
100
AcDbEntity
  8
M0
100
AcDbLine
 10
157.635053
 20
503.231791
 11
156.885114
 21
503.231791
  0
LINE
  5
30B
100
AcDbEntity
  8
M0
 62
     5
100
AcDbLine
 10
79.092252
 20
427.23202
 11
81.188184
 21
429.327967
  0
LINE
  5
30C
100
AcDbEntity
  8
M0
 62
     5
100
AcDbLine
 10
76.289213
 20
424.42898
 11
78.385145
 21
426.524928
  0
LINE
  5
30D
100
AcDbEntity
  8
M0
 62
     5
100
AcDbLine
 10
77.678052
 20
427.232035
 11
75.582105
 21
425.136088
  0
LINE
  5
30E
100
AcDbEntity
  8
M0
 62
     5
100
AcDbLine
 10
80.481092
 20
430.035059
 11
78.38516
 21
427.939127
  0
LINE
  5
30F
100
AcDbEntity
  8
M0
 62
     5
100
AcDbLine
 10
78.38516
 20
427.939127
 11
77.289106
 21
429.035181
  0
LINE
  5
310
100
AcDbEntity
  8
M0
 62
     5
100
AcDbLine
 10
80.188306
 20
426.135981
 11
79.092252
 21
427.23202
  0
LINE
  5
311
100
AcDbEntity
  8
M0
 62
     5
100
AcDbLine
 10
78.385145
 20
426.524928
 11
79.481199
 21
425.428873
  0
LINE
  5
312
100
AcDbEntity
  8
M0
 62
     5
100
AcDbLine
 10
76.581998
 20
428.328074
 11
77.678052
 21
427.232035
  0
CIRCLE
  5
313
100
AcDbEntity
  8
M0
 62
     5
100
AcDbCircle
 10
78.38516
 20
427.232035
 40
3.5
  0
LINE
  5
314
100
AcDbEntity
  8
M0
 62
     5
100
AcDbLine
 10
79.481199
 20
425.428873
 11
80.188306
 21
426.135981
  0
LINE
  5
315
100
AcDbEntity
  8
M0
 62
     5
100
AcDbLine
 10
77.289106
 20
429.035181
 11
76.581998
 21
428.328074
  0
LINE
  5
316
100
AcDbEntity
  8
M0
 62
     5
100
AcDbLine
 10
160.092252
 20
487.23202
 11
162.188184
 21
489.327967
  0
LINE
  5
317
100
AcDbEntity
  8
M0
 62
     5
100
AcDbLine
 10
157.289213
 20
484.42898
 11
159.385145
 21
486.524928
  0
LINE
  5
318
100
AcDbEntity
  8
M0
 62
     5
100
AcDbLine
 10
158.678052
 20
487.232035
 11
156.582105
 21
485.136088
  0
LINE
  5
319
100
AcDbEntity
  8
M0
 62
     5
100
AcDbLine
 10
161.481092
 20
490.035059
 11
159.38516
 21
487.939127
  0
LINE
  5
31A
100
AcDbEntity
  8
M0
 62
     5
100
AcDbLine
 10
159.38516
 20
487.939127
 11
158.289106
 21
489.035181
  0
LINE
  5
31B
100
AcDbEntity
  8
M0
 62
     5
100
AcDbLine
 10
161.188306
 20
486.135981
 11
160.092252
 21
487.23202
  0
LINE
  5
31C
100
AcDbEntity
  8
M0
 62
     5
100
AcDbLine
 10
159.385145
 20
486.524928
 11
160.481199
 21
485.428873
  0
LINE
  5
31D
100
AcDbEntity
  8
M0
 62
     5
100
AcDbLine
 10
157.581998
 20
488.328074
 11
158.678052
 21
487.232035
  0
CIRCLE
  5
31E
100
AcDbEntity
  8
M0
 62
     5
100
AcDbCircle
 10
159.38516
 20
487.232035
 40
3.5
  0
LINE
  5
31F
100
AcDbEntity
  8
M0
 62
     5
100
AcDbLine
 10
160.481199
 20
485.428873
 11
161.188306
 21
486.135981
  0
LINE
  5
320
100
AcDbEntity
  8
M0
 62
     5
100
AcDbLine
 10
158.289106
 20
489.035181
 11
157.581998
 21
488.328074
  0
LINE
  5
321
100
AcDbEntity
  8
M0
100
AcDbLine
 10
161.885145
 20
393.132044
 11
175.885145
 21
393.132044
  0
LINE
  5
322
100
AcDbEntity
  8
M0
100
AcDbLine
 10
128.8851
 20
393.132044
 11
141.885145
 21
393.132044
  0
LINE
  5
323
100
AcDbEntity
  8
M0
100
AcDbLine
 10
161.885145
 20
394.73205
 11
175.885145
 21
394.73205
  0
LINE
  5
324
100
AcDbEntity
  8
M0
100
AcDbLine
 10
128.885101
 20
394.73205
 11
141.885145
 21
394.73205
  0
LINE
  5
325
100
AcDbEntity
  8
M0
100
AcDbLine
 10
95.885145
 20
393.132044
 11
108.885101
 21
393.132044
  0
LINE
  5
326
100
AcDbEntity
  8
M0
100
AcDbLine
 10
95.885145
 20
394.73205
 11
108.885102
 21
394.73205
  0
LINE
  5
327
100
AcDbEntity
  8
M0
100
AcDbLine
 10
68.885145
 20
393.132044
 11
75.885145
 21
393.132044
  0
LINE
  5
328
100
AcDbEntity
  8
M0
100
AcDbLine
 10
68.885145
 20
394.73205
 11
75.885145
 21
394.73205
  0
LINE
  5
329
100
AcDbEntity
  8
M0
100
AcDbLine
 10
70.885145
 20
394.73205
 11
70.885145
 21
393.132044
  0
LINE
  5
32A
100
AcDbEntity
  8
M0
100
AcDbLine
 10
173.885145
 20
394.73205
 11
173.885145
 21
393.132044
  0
LINE
  5
32B
100
AcDbEntity
  8
M0
100
AcDbLine
 10
75.885206
 20
521.332026
 11
68.885145
 21
521.332026
  0
LINE
  5
32C
100
AcDbEntity
  8
M0
100
AcDbLine
 10
108.885114
 20
521.332026
 11
99.384901
 21
521.332026
  0
LINE
  5
32D
100
AcDbEntity
  8
M0
100
AcDbLine
 10
75.885206
 20
519.73202
 11
68.885145
 21
519.73202
  0
LINE
  5
32E
100
AcDbEntity
  8
M0
100
AcDbLine
 10
108.885114
 20
519.73202
 11
95.885191
 21
519.73202
  0
LINE
  5
32F
100
AcDbEntity
  8
M0
100
AcDbLine
 10
141.885145
 20
519.73202
 11
128.885114
 21
519.73202
  0
LINE
  5
330
100
AcDbEntity
  8
M0
100
AcDbLine
 10
141.885145
 20
521.332026
 11
132.385145
 21
521.332026
  0
LINE
  5
331
100
AcDbEntity
  8
M0
100
AcDbLine
 10
175.885145
 20
521.332026
 11
161.885145
 21
521.332026
  0
LINE
  5
332
100
AcDbEntity
  8
M0
100
AcDbLine
 10
175.885145
 20
519.73202
 11
161.885145
 21
519.73202
  0
LINE
  5
333
100
AcDbEntity
  8
M0
100
AcDbLine
 10
70.885145
 20
521.332026
 11
70.885145
 21
519.73202
  0
LINE
  5
334
100
AcDbEntity
  8
M0
100
AcDbLine
 10
173.885145
 20
521.332026
 11
173.885145
 21
519.73202
  0
LINE
  5
335
100
AcDbEntity
  8
M0
  6
DASHDOT
100
AcDbLine
 10
63.885145
 20
457.232035
 11
180.885145
 21
457.232035
  0
LINE
  5
336
100
AcDbEntity
  8
M0
100
AcDbLine
 10
68.885145
 20
521.332026
 11
68.885145
 21
393.132044
  0
LINE
  5
337
100
AcDbEntity
  8
M0
100
AcDbLine
 10
175.885145
 20
393.132044
 11
175.885145
 21
460.982035
  0
LINE
  5
338
100
AcDbEntity
  8
M0
100
AcDbLine
 10
175.885145
 20
460.982035
 11
175.885145
 21
521.332026
  0
LINE
  5
339
100
AcDbEntity
  8
M0
100
AcDbLine
 10
168.485105
 20
395.232035
 11
168.485105
 21
400.79069
  0
LINE
  5
33A
100
AcDbEntity
  8
M0
100
AcDbLine
 10
168.485105
 20
519.232035
 11
161.885114
 21
519.232035
  0
LINE
  5
33B
100
AcDbEntity
  8
M0
100
AcDbLine
 10
69.285123
 20
519.232035
 11
69.285123
 21
513.673136
  0
LINE
  5
33C
100
AcDbEntity
  8
M0
100
AcDbLine
 10
69.285123
 20
395.232035
 11
75.885114
 21
395.232035
  0
LINE
  5
33D
100
AcDbEntity
  8
M0
  6
DASHDOT
100
AcDbLine
 10
118.885114
 20
390.232035
 11
118.885114
 21
524.232035
  0
LINE
  5
33E
100
AcDbEntity
  8
M0
100
AcDbLine
 10
168.485105
 20
513.673136
 11
168.485105
 21
519.232035
  0
LINE
  5
33F
100
AcDbEntity
  8
M0
100
AcDbLine
 10
141.885114
 20
519.232035
 11
128.885114
 21
519.232035
  0
LINE
  5
340
100
AcDbEntity
  8
M0
100
AcDbLine
 10
108.885114
 20
519.232035
 11
95.88487
 21
519.232035
  0
LINE
  5
341
100
AcDbEntity
  8
M0
100
AcDbLine
 10
75.885114
 20
519.232035
 11
69.285123
 21
519.232035
  0
LINE
  5
342
100
AcDbEntity
  8
M0
100
AcDbLine
 10
69.285123
 20
400.79069
 11
69.285123
 21
395.232035
  0
LINE
  5
343
100
AcDbEntity
  8
M0
100
AcDbLine
 10
95.88487
 20
395.232035
 11
108.885114
 21
395.232035
  0
LINE
  5
344
100
AcDbEntity
  8
M0
100
AcDbLine
 10
128.885114
 20
395.232035
 11
141.885114
 21
395.232035
  0
LINE
  5
345
100
AcDbEntity
  8
M0
100
AcDbLine
 10
161.885114
 20
395.232035
 11
168.485105
 21
395.232035
  0
LINE
  5
346
100
AcDbEntity
  8
M0
 62
     2
100
AcDbLine
 10
157.735136
 20
431.732035
 11
164.285123
 21
431.732035
  0
LINE
  5
347
100
AcDbEntity
  8
M0
 62
     2
100
AcDbLine
 10
164.835142
 20
433.632014
 11
164.835142
 21
440.231547
  0
LINE
  5
348
100
AcDbEntity
  8
M0
 62
     2
100
AcDbLine
 10
156.935133
 20
440.231791
 11
156.935133
 21
433.632029
  0
LINE
  5
349
100
AcDbEntity
  8
M0
 62
     2
100
AcDbLine
 10
157.135129
 20
433.432032
 11
157.235136
 21
433.432032
  0
LINE
  5
34A
100
AcDbEntity
  8
M0
 62
     2
100
AcDbLine
 10
164.035139
 20
432.932032
 11
164.035139
 21
431.732035
  0
LINE
  5
34B
100
AcDbEntity
  8
M0
 62
     2
100
AcDbLine
 10
157.735136
 20
432.932032
 11
157.735136
 21
431.732035
  0
LINE
  5
34C
100
AcDbEntity
  8
M0
 62
     2
100
AcDbLine
 10
164.535139
 20
433.432032
 11
164.635129
 21
433.432032
  0
LINE
  5
34D
100
AcDbEntity
  8
M0
 62
     2
100
AcDbLine
 10
164.285123
 20
432.732035
 11
164.285123
 21
431.732035
  0
LINE
  5
34E
100
AcDbEntity
  8
M0
 62
     2
100
AcDbLine
 10
164.035139
 20
432.732035
 11
164.285123
 21
432.732035
  0
ARC
  5
34F
100
AcDbEntity
  8
M0
 62
     2
100
AcDbCircle
 10
164.535139
 20
432.932032
 40
0.5
100
AcDbArc
 50
90.0
 51
179.999891
  0
ARC
  5
350
100
AcDbEntity
  8
M0
 62
     2
100
AcDbCircle
 10
157.235136
 20
432.932032
 40
0.5
100
AcDbArc
 50
0.0
 51
90.0
  0
ARC
  5
351
100
AcDbEntity
  8
M0
 62
     2
100
AcDbCircle
 10
163.835142
 20
440.231791
 40
1.0
100
AcDbArc
 50
359.985902
 51
450.0
  0
ARC
  5
352
100
AcDbEntity
  8
M0
 62
     2
100
AcDbCircle
 10
157.935133
 20
440.231791
 40
1.0
100
AcDbArc
 50
90.0
 51
180.0
  0
ARC
  5
353
100
AcDbEntity
  8
M0
 62
     2
100
AcDbCircle
 10
157.135129
 20
433.632029
 40
0.2
100
AcDbArc
 50
179.999727
 51
270.0
  0
ARC
  5
354
100
AcDbEntity
  8
M0
 62
     2
100
AcDbCircle
 10
164.635129
 20
433.632029
 40
0.2
100
AcDbArc
 50
270.0
 51
360.0
  0
LINE
  5
355
100
AcDbEntity
  8
M0
 62
     2
100
AcDbLine
 10
157.735136
 20
441.232035
 11
157.946027
 21
441.232035
  0
LINE
  5
356
100
AcDbEntity
  8
M0
 62
     2
100
AcDbLine
 10
164.835142
 20
443.132014
 11
164.835142
 21
449.731547
  0
LINE
  5
357
100
AcDbEntity
  8
M0
 62
     2
100
AcDbLine
 10
156.935133
 20
449.731791
 11
156.935133
 21
443.132029
  0
LINE
  5
358
100
AcDbEntity
  8
M0
 62
     2
100
AcDbLine
 10
157.135129
 20
442.932032
 11
157.235136
 21
442.932032
  0
LINE
  5
359
100
AcDbEntity
  8
M0
 62
     2
100
AcDbLine
 10
164.035139
 20
442.432032
 11
164.035139
 21
441.232035
  0
LINE
  5
35A
100
AcDbEntity
  8
M0
 62
     2
100
AcDbLine
 10
157.735136
 20
442.432032
 11
157.735136
 21
441.232035
  0
LINE
  5
35B
100
AcDbEntity
  8
M0
 62
     2
100
AcDbLine
 10
164.535139
 20
442.932032
 11
164.635129
 21
442.932032
  0
LINE
  5
35C
100
AcDbEntity
  8
M0
 62
     2
100
AcDbLine
 10
164.285123
 20
442.232035
 11
164.285123
 21
441.232035
  0
LINE
  5
35D
100
AcDbEntity
  8
M0
 62
     2
100
AcDbLine
 10
164.035139
 20
442.232035
 11
164.285123
 21
442.232035
  0
ARC
  5
35E
100
AcDbEntity
  8
M0
 62
     2
100
AcDbCircle
 10
164.535139
 20
442.432032
 40
0.5
100
AcDbArc
 50
90.0
 51
179.999891
  0
ARC
  5
35F
100
AcDbEntity
  8
M0
 62
     2
100
AcDbCircle
 10
157.235136
 20
442.432032
 40
0.5
100
AcDbArc
 50
0.0
 51
90.0
  0
ARC
  5
360
100
AcDbEntity
  8
M0
 62
     2
100
AcDbCircle
 10
163.835142
 20
449.731791
 40
1.0
100
AcDbArc
 50
359.985902
 51
450.0
  0
ARC
  5
361
100
AcDbEntity
  8
M0
 62
     2
100
AcDbCircle
 10
157.935133
 20
449.731791
 40
1.0
100
AcDbArc
 50
90.0
 51
180.0
  0
ARC
  5
362
100
AcDbEntity
  8
M0
 62
     2
100
AcDbCircle
 10
157.135129
 20
443.132029
 40
0.2
100
AcDbArc
 50
179.999727
 51
270.0
  0
ARC
  5
363
100
AcDbEntity
  8
M0
 62
     2
100
AcDbCircle
 10
164.635129
 20
443.132029
 40
0.2
100
AcDbArc
 50
270.0
 51
360.0
  0
LINE
  5
364
100
AcDbEntity
  8
M0
 62
     2
100
AcDbLine
 10
163.824232
 20
441.232035
 11
164.285123
 21
441.232035
  0
LINE
  5
365
100
AcDbEntity
  8
M0
 62
     2
100
AcDbLine
 10
73.735136
 20
441.232035
 11
73.946027
 21
441.232035
  0
LINE
  5
366
100
AcDbEntity
  8
M0
 62
     2
100
AcDbLine
 10
80.835142
 20
443.132014
 11
80.835142
 21
449.731547
  0
LINE
  5
367
100
AcDbEntity
  8
M0
 62
     2
100
AcDbLine
 10
72.935133
 20
449.731791
 11
72.935133
 21
443.132029
  0
LINE
  5
368
100
AcDbEntity
  8
M0
 62
     2
100
AcDbLine
 10
73.135129
 20
442.932032
 11
73.235136
 21
442.932032
  0
LINE
  5
369
100
AcDbEntity
  8
M0
 62
     2
100
AcDbLine
 10
80.035139
 20
442.432032
 11
80.035139
 21
441.232035
  0
LINE
  5
36A
100
AcDbEntity
  8
M0
 62
     2
100
AcDbLine
 10
73.735136
 20
442.432032
 11
73.735136
 21
441.232035
  0
LINE
  5
36B
100
AcDbEntity
  8
M0
 62
     2
100
AcDbLine
 10
80.535139
 20
442.932032
 11
80.635129
 21
442.932032
  0
LINE
  5
36C
100
AcDbEntity
  8
M0
 62
     2
100
AcDbLine
 10
80.285123
 20
442.232035
 11
80.285123
 21
441.232035
  0
LINE
  5
36D
100
AcDbEntity
  8
M0
 62
     2
100
AcDbLine
 10
80.035139
 20
442.232035
 11
80.285123
 21
442.232035
  0
ARC
  5
36E
100
AcDbEntity
  8
M0
 62
     2
100
AcDbCircle
 10
80.535139
 20
442.432032
 40
0.5
100
AcDbArc
 50
90.0
 51
179.999891
  0
ARC
  5
36F
100
AcDbEntity
  8
M0
 62
     2
100
AcDbCircle
 10
73.235136
 20
442.432032
 40
0.5
100
AcDbArc
 50
0.0
 51
90.0
  0
ARC
  5
370
100
AcDbEntity
  8
M0
 62
     2
100
AcDbCircle
 10
79.835142
 20
449.731791
 40
1.0
100
AcDbArc
 50
359.985902
 51
450.0
  0
ARC
  5
371
100
AcDbEntity
  8
M0
 62
     2
100
AcDbCircle
 10
73.935133
 20
449.731791
 40
1.0
100
AcDbArc
 50
90.0
 51
180.0
  0
ARC
  5
372
100
AcDbEntity
  8
M0
 62
     2
100
AcDbCircle
 10
73.135129
 20
443.132029
 40
0.2
100
AcDbArc
 50
179.999727
 51
270.0
  0
ARC
  5
373
100
AcDbEntity
  8
M0
 62
     2
100
AcDbCircle
 10
80.635129
 20
443.132029
 40
0.2
100
AcDbArc
 50
270.0
 51
360.0
  0
LINE
  5
374
100
AcDbEntity
  8
M0
 62
     2
100
AcDbLine
 10
79.824232
 20
441.232035
 11
80.285123
 21
441.232035
  0
LINE
  5
375
100
AcDbEntity
  8
M0
 62
     2
100
AcDbLine
 10
73.735136
 20
431.732035
 11
80.285123
 21
431.732035
  0
LINE
  5
376
100
AcDbEntity
  8
M0
 62
     2
100
AcDbLine
 10
80.835142
 20
433.632014
 11
80.835142
 21
440.231547
  0
LINE
  5
377
100
AcDbEntity
  8
M0
 62
     2
100
AcDbLine
 10
72.935133
 20
440.231791
 11
72.935133
 21
433.632029
  0
LINE
  5
378
100
AcDbEntity
  8
M0
 62
     2
100
AcDbLine
 10
73.135129
 20
433.432032
 11
73.235136
 21
433.432032
  0
LINE
  5
379
100
AcDbEntity
  8
M0
 62
     2
100
AcDbLine
 10
80.035139
 20
432.932032
 11
80.035139
 21
431.732035
  0
LINE
  5
37A
100
AcDbEntity
  8
M0
 62
     2
100
AcDbLine
 10
73.735136
 20
432.932032
 11
73.735136
 21
431.732035
  0
LINE
  5
37B
100
AcDbEntity
  8
M0
 62
     2
100
AcDbLine
 10
80.535139
 20
433.432032
 11
80.635129
 21
433.432032
  0
LINE
  5
37C
100
AcDbEntity
  8
M0
 62
     2
100
AcDbLine
 10
80.285123
 20
432.732035
 11
80.285123
 21
431.732035
  0
LINE
  5
37D
100
AcDbEntity
  8
M0
 62
     2
100
AcDbLine
 10
80.035139
 20
432.732035
 11
80.285123
 21
432.732035
  0
ARC
  5
37E
100
AcDbEntity
  8
M0
 62
     2
100
AcDbCircle
 10
80.535139
 20
432.932032
 40
0.5
100
AcDbArc
 50
90.0
 51
179.999891
  0
ARC
  5
37F
100
AcDbEntity
  8
M0
 62
     2
100
AcDbCircle
 10
73.235136
 20
432.932032
 40
0.5
100
AcDbArc
 50
0.0
 51
90.0
  0
ARC
  5
380
100
AcDbEntity
  8
M0
 62
     2
100
AcDbCircle
 10
79.835142
 20
440.231791
 40
1.0
100
AcDbArc
 50
359.985902
 51
450.0
  0
ARC
  5
381
100
AcDbEntity
  8
M0
 62
     2
100
AcDbCircle
 10
73.935133
 20
440.231791
 40
1.0
100
AcDbArc
 50
90.0
 51
180.0
  0
ARC
  5
382
100
AcDbEntity
  8
M0
 62
     2
100
AcDbCircle
 10
73.135129
 20
433.632029
 40
0.2
100
AcDbArc
 50
179.999727
 51
270.0
  0
ARC
  5
383
100
AcDbEntity
  8
M0
 62
     2
100
AcDbCircle
 10
80.635129
 20
433.632029
 40
0.2
100
AcDbArc
 50
270.0
 51
360.0
  0
LINE
  5
384
100
AcDbEntity
  8
M0
 62
     2
100
AcDbLine
 10
73.735136
 20
473.232035
 11
73.945921
 21
473.232035
  0
LINE
  5
385
100
AcDbEntity
  8
M0
 62
     2
100
AcDbLine
 10
80.835142
 20
471.332056
 11
80.835142
 21
464.732523
  0
LINE
  5
386
100
AcDbEntity
  8
M0
 62
     2
100
AcDbLine
 10
72.935133
 20
464.732279
 11
72.935133
 21
471.332041
  0
LINE
  5
387
100
AcDbEntity
  8
M0
 62
     2
100
AcDbLine
 10
73.135129
 20
471.532038
 11
73.235136
 21
471.532038
  0
LINE
  5
388
100
AcDbEntity
  8
M0
 62
     2
100
AcDbLine
 10
80.035139
 20
472.032038
 11
80.035139
 21
473.232035
  0
LINE
  5
389
100
AcDbEntity
  8
M0
 62
     2
100
AcDbLine
 10
73.735136
 20
472.032038
 11
73.735136
 21
473.232035
  0
LINE
  5
38A
100
AcDbEntity
  8
M0
 62
     2
100
AcDbLine
 10
80.535139
 20
471.532038
 11
80.635129
 21
471.532038
  0
LINE
  5
38B
100
AcDbEntity
  8
M0
 62
     2
100
AcDbLine
 10
80.285123
 20
472.232035
 11
80.285123
 21
473.232035
  0
LINE
  5
38C
100
AcDbEntity
  8
M0
 62
     2
100
AcDbLine
 10
80.035139
 20
472.232035
 11
80.285123
 21
472.232035
  0
ARC
  5
38D
100
AcDbEntity
  8
M0
 62
     2
100
AcDbCircle
 10
80.535139
 20
472.032038
 40
0.5
100
AcDbArc
 50
180.0
 51
270.0
  0
ARC
  5
38E
100
AcDbEntity
  8
M0
 62
     2
100
AcDbCircle
 10
73.235136
 20
472.032038
 40
0.5
100
AcDbArc
 50
-90.0
 51
0.0
  0
ARC
  5
38F
100
AcDbEntity
  8
M0
 62
     2
100
AcDbCircle
 10
79.835142
 20
464.732279
 40
1.0
100
AcDbArc
 50
-90.0
 51
0.013988
  0
ARC
  5
390
100
AcDbEntity
  8
M0
 62
     2
100
AcDbCircle
 10
73.935133
 20
464.732279
 40
1.0
100
AcDbArc
 50
179.999945
 51
270.0
  0
ARC
  5
391
100
AcDbEntity
  8
M0
 62
     2
100
AcDbCircle
 10
73.135129
 20
471.332041
 40
0.2
100
AcDbArc
 50
90.0
 51
180.0
  0
ARC
  5
392
100
AcDbEntity
  8
M0
 62
     2
100
AcDbCircle
 10
80.635129
 20
471.332041
 40
0.2
100
AcDbArc
 50
0.0
 51
90.0
  0
LINE
  5
393
100
AcDbEntity
  8
M0
 62
     2
100
AcDbLine
 10
79.824338
 20
473.232035
 11
80.285123
 21
473.232035
  0
LINE
  5
394
100
AcDbEntity
  8
M0
 62
     2
100
AcDbLine
 10
73.735136
 20
482.732035
 11
80.285123
 21
482.732035
  0
LINE
  5
395
100
AcDbEntity
  8
M0
 62
     2
100
AcDbLine
 10
80.835142
 20
480.832056
 11
80.835142
 21
474.232523
  0
LINE
  5
396
100
AcDbEntity
  8
M0
 62
     2
100
AcDbLine
 10
72.935133
 20
474.232279
 11
72.935133
 21
480.832041
  0
LINE
  5
397
100
AcDbEntity
  8
M0
 62
     2
100
AcDbLine
 10
73.135129
 20
481.032038
 11
73.235136
 21
481.032038
  0
LINE
  5
398
100
AcDbEntity
  8
M0
 62
     2
100
AcDbLine
 10
80.035139
 20
481.532038
 11
80.035139
 21
482.732035
  0
LINE
  5
399
100
AcDbEntity
  8
M0
 62
     2
100
AcDbLine
 10
73.735136
 20
481.532038
 11
73.735136
 21
482.732035
  0
LINE
  5
39A
100
AcDbEntity
  8
M0
 62
     2
100
AcDbLine
 10
80.535139
 20
481.032038
 11
80.635129
 21
481.032038
  0
LINE
  5
39B
100
AcDbEntity
  8
M0
 62
     2
100
AcDbLine
 10
80.285123
 20
481.732035
 11
80.285123
 21
482.732035
  0
LINE
  5
39C
100
AcDbEntity
  8
M0
 62
     2
100
AcDbLine
 10
80.035139
 20
481.732035
 11
80.285123
 21
481.732035
  0
ARC
  5
39D
100
AcDbEntity
  8
M0
 62
     2
100
AcDbCircle
 10
80.535139
 20
481.532038
 40
0.5
100
AcDbArc
 50
180.0
 51
270.0
  0
ARC
  5
39E
100
AcDbEntity
  8
M0
 62
     2
100
AcDbCircle
 10
73.235136
 20
481.532038
 40
0.5
100
AcDbArc
 50
-90.0
 51
0.0
  0
ARC
  5
39F
100
AcDbEntity
  8
M0
 62
     2
100
AcDbCircle
 10
79.835142
 20
474.232279
 40
1.0
100
AcDbArc
 50
-90.0
 51
0.013988
  0
ARC
  5
3A0
100
AcDbEntity
  8
M0
 62
     2
100
AcDbCircle
 10
73.935133
 20
474.232279
 40
1.0
100
AcDbArc
 50
179.999945
 51
270.0
  0
ARC
  5
3A1
100
AcDbEntity
  8
M0
 62
     2
100
AcDbCircle
 10
73.135129
 20
480.832041
 40
0.2
100
AcDbArc
 50
90.0
 51
180.0
  0
ARC
  5
3A2
100
AcDbEntity
  8
M0
 62
     2
100
AcDbCircle
 10
80.635129
 20
480.832041
 40
0.2
100
AcDbArc
 50
0.0
 51
90.0
  0
LINE
  5
3A3
100
AcDbEntity
  8
M0
 62
     2
100
AcDbLine
 10
157.735136
 20
473.232035
 11
157.945921
 21
473.232035
  0
LINE
  5
3A4
100
AcDbEntity
  8
M0
 62
     2
100
AcDbLine
 10
164.835142
 20
471.332056
 11
164.835142
 21
464.732523
  0
LINE
  5
3A5
100
AcDbEntity
  8
M0
 62
     2
100
AcDbLine
 10
163.835142
 20
463.732035
 11
163.824338
 21
463.732035
  0
LINE
  5
3A6
100
AcDbEntity
  8
M0
 62
     2
100
AcDbLine
 10
156.935133
 20
464.732279
 11
156.935133
 21
471.332041
  0
LINE
  5
3A7
100
AcDbEntity
  8
M0
 62
     2
100
AcDbLine
 10
157.135129
 20
471.532038
 11
157.235136
 21
471.532038
  0
LINE
  5
3A8
100
AcDbEntity
  8
M0
 62
     2
100
AcDbLine
 10
164.035139
 20
472.032038
 11
164.035139
 21
473.232035
  0
LINE
  5
3A9
100
AcDbEntity
  8
M0
 62
     2
100
AcDbLine
 10
157.735136
 20
472.032038
 11
157.735136
 21
473.232035
  0
LINE
  5
3AA
100
AcDbEntity
  8
M0
 62
     2
100
AcDbLine
 10
164.535139
 20
471.532038
 11
164.635129
 21
471.532038
  0
LINE
  5
3AB
100
AcDbEntity
  8
M0
 62
     2
100
AcDbLine
 10
164.285123
 20
472.232035
 11
164.285123
 21
473.232035
  0
LINE
  5
3AC
100
AcDbEntity
  8
M0
 62
     2
100
AcDbLine
 10
164.035139
 20
472.232035
 11
164.285123
 21
472.232035
  0
ARC
  5
3AD
100
AcDbEntity
  8
M0
 62
     2
100
AcDbCircle
 10
164.535139
 20
472.032038
 40
0.5
100
AcDbArc
 50
180.0
 51
270.0
  0
ARC
  5
3AE
100
AcDbEntity
  8
M0
 62
     2
100
AcDbCircle
 10
157.235136
 20
472.032038
 40
0.5
100
AcDbArc
 50
-90.0
 51
0.0
  0
ARC
  5
3AF
100
AcDbEntity
  8
M0
 62
     2
100
AcDbCircle
 10
163.835142
 20
464.732279
 40
1.0
100
AcDbArc
 50
-90.0
 51
0.013988
  0
ARC
  5
3B0
100
AcDbEntity
  8
M0
 62
     2
100
AcDbCircle
 10
157.935133
 20
464.732279
 40
1.0
100
AcDbArc
 50
179.999945
 51
270.0
  0
ARC
  5
3B1
100
AcDbEntity
  8
M0
 62
     2
100
AcDbCircle
 10
157.135129
 20
471.332041
 40
0.2
100
AcDbArc
 50
90.0
 51
180.0
  0
ARC
  5
3B2
100
AcDbEntity
  8
M0
 62
     2
100
AcDbCircle
 10
164.635129
 20
471.332041
 40
0.2
100
AcDbArc
 50
0.0
 51
90.0
  0
LINE
  5
3B3
100
AcDbEntity
  8
M0
 62
     2
100
AcDbLine
 10
163.824338
 20
473.232035
 11
164.285123
 21
473.232035
  0
LINE
  5
3B4
100
AcDbEntity
  8
M0
 62
     2
100
AcDbLine
 10
157.945921
 20
463.732035
 11
157.935133
 21
463.732035
  0
LINE
  5
3B5
100
AcDbEntity
  8
M0
 62
     2
100
AcDbLine
 10
157.735136
 20
482.732035
 11
164.285123
 21
482.732035
  0
LINE
  5
3B6
100
AcDbEntity
  8
M0
 62
     2
100
AcDbLine
 10
164.835142
 20
480.832056
 11
164.835142
 21
474.232523
  0
LINE
  5
3B7
100
AcDbEntity
  8
M0
 62
     2
100
AcDbLine
 10
163.835142
 20
473.232035
 11
163.824338
 21
473.232035
  0
LINE
  5
3B8
100
AcDbEntity
  8
M0
 62
     2
100
AcDbLine
 10
156.935133
 20
474.232279
 11
156.935133
 21
480.832041
  0
LINE
  5
3B9
100
AcDbEntity
  8
M0
 62
     2
100
AcDbLine
 10
157.135129
 20
481.032038
 11
157.235136
 21
481.032038
  0
LINE
  5
3BA
100
AcDbEntity
  8
M0
 62
     2
100
AcDbLine
 10
164.035139
 20
481.532038
 11
164.035139
 21
482.732035
  0
LINE
  5
3BB
100
AcDbEntity
  8
M0
 62
     2
100
AcDbLine
 10
157.735136
 20
481.532038
 11
157.735136
 21
482.732035
  0
LINE
  5
3BC
100
AcDbEntity
  8
M0
 62
     2
100
AcDbLine
 10
164.535139
 20
481.032038
 11
164.635129
 21
481.032038
  0
LINE
  5
3BD
100
AcDbEntity
  8
M0
 62
     2
100
AcDbLine
 10
164.285123
 20
481.732035
 11
164.285123
 21
482.732035
  0
LINE
  5
3BE
100
AcDbEntity
  8
M0
 62
     2
100
AcDbLine
 10
164.035139
 20
481.732035
 11
164.285123
 21
481.732035
  0
ARC
  5
3BF
100
AcDbEntity
  8
M0
 62
     2
100
AcDbCircle
 10
164.535139
 20
481.532038
 40
0.5
100
AcDbArc
 50
180.0
 51
270.0
  0
ARC
  5
3C0
100
AcDbEntity
  8
M0
 62
     2
100
AcDbCircle
 10
157.235136
 20
481.532038
 40
0.5
100
AcDbArc
 50
-90.0
 51
0.0
  0
ARC
  5
3C1
100
AcDbEntity
  8
M0
 62
     2
100
AcDbCircle
 10
163.835142
 20
474.232279
 40
1.0
100
AcDbArc
 50
-90.0
 51
0.013988
  0
ARC
  5
3C2
100
AcDbEntity
  8
M0
 62
     2
100
AcDbCircle
 10
157.935133
 20
474.232279
 40
1.0
100
AcDbArc
 50
179.999945
 51
270.0
  0
ARC
  5
3C3
100
AcDbEntity
  8
M0
 62
     2
100
AcDbCircle
 10
157.135129
 20
480.832041
 40
0.2
100
AcDbArc
 50
90.0
 51
180.0
  0
ARC
  5
3C4
100
AcDbEntity
  8
M0
 62
     2
100
AcDbCircle
 10
164.635129
 20
480.832041
 40
0.2
100
AcDbArc
 50
0.0
 51
90.0
  0
LINE
  5
3C5
100
AcDbEntity
  8
M0
 62
     2
100
AcDbLine
 10
157.945921
 20
473.232035
 11
157.935133
 21
473.232035
  0
LINE
  5
3C6
100
AcDbEntity
  8
M0
 62
     5
100
AcDbLine
 10
159.485136
 20
474.131937
 11
157.665144
 21
474.131937
  0
LINE
  5
3C7
100
AcDbEntity
  8
M0
 62
     5
100
AcDbLine
 10
164.105131
 20
474.131937
 11
162.285139
 21
474.131937
  0
LINE
  5
3C8
100
AcDbEntity
  8
M0
 62
     5
100
AcDbLine
 10
158.563505
 20
475.331889
 11
157.295133
 21
475.331889
  0
LINE
  5
3C9
100
AcDbEntity
  8
M0
 62
     5
100
AcDbLine
 10
164.475141
 20
475.331889
 11
163.20677
 21
475.331889
  0
LINE
  5
3CA
100
AcDbEntity
  8
M0
 62
     5
100
AcDbLine
 10
158.563505
 20
479.131937
 11
157.295133
 21
479.131937
  0
LINE
  5
3CB
100
AcDbEntity
  8
M0
 62
     5
100
AcDbLine
 10
164.475141
 20
479.131937
 11
163.20677
 21
479.131937
  0
LINE
  5
3CC
100
AcDbEntity
  8
M0
 62
     5
100
AcDbLine
 10
159.485136
 20
480.331889
 11
157.665144
 21
480.331889
  0
LINE
  5
3CD
100
AcDbEntity
  8
M0
 62
     5
100
AcDbLine
 10
164.105131
 20
480.331889
 11
162.285139
 21
480.331889
  0
LINE
  5
3CE
100
AcDbEntity
  8
M0
 62
     5
100
AcDbLine
 10
159.485136
 20
479.885111
 11
159.485136
 21
480.331889
  0
LINE
  5
3CF
100
AcDbEntity
  8
M0
 62
     5
100
AcDbLine
 10
159.485136
 20
474.131937
 11
159.485136
 21
474.578715
  0
LINE
  5
3D0
100
AcDbEntity
  8
M0
 62
     5
100
AcDbLine
 10
162.285139
 20
479.885111
 11
162.285139
 21
480.331889
  0
LINE
  5
3D1
100
AcDbEntity
  8
M0
 62
     5
100
AcDbLine
 10
162.285139
 20
474.131937
 11
162.285139
 21
474.578715
  0
ARC
  5
3D2
100
AcDbEntity
  8
M0
 62
     5
100
AcDbCircle
 10
163.366071
 20
473.431986
 40
0.5
100
AcDbArc
 50
270.0
 51
342.848967
  0
LINE
  5
3D3
100
AcDbEntity
  8
M0
 62
     5
100
AcDbLine
 10
163.843885
 20
473.284525
 11
164.660139
 21
475.931986
  0
LINE
  5
3D4
100
AcDbEntity
  8
M0
 62
     5
100
AcDbLine
 10
158.404203
 20
472.931986
 11
163.366071
 21
472.931986
  0
ARC
  5
3D5
100
AcDbEntity
  8
M0
 62
     5
100
AcDbCircle
 10
158.404203
 20
473.431986
 40
0.5
100
AcDbArc
 50
197.150824
 51
270.0
  0
LINE
  5
3D6
100
AcDbEntity
  8
M0
 62
     5
100
AcDbLine
 10
157.110136
 20
475.931986
 11
157.926389
 21
473.284525
  0
ARC
  5
3D7
100
AcDbEntity
  8
M0
 62
     5
100
AcDbCircle
 10
158.404203
 20
481.03184
 40
0.5
100
AcDbArc
 50
90.0
 51
162.848967
  0
LINE
  5
3D8
100
AcDbEntity
  8
M0
 62
     5
100
AcDbLine
 10
157.926389
 20
481.179301
 11
157.110136
 21
478.53184
  0
LINE
  5
3D9
100
AcDbEntity
  8
M0
 62
     5
100
AcDbLine
 10
163.366071
 20
481.53184
 11
158.404203
 21
481.53184
  0
ARC
  5
3DA
100
AcDbEntity
  8
M0
 62
     5
100
AcDbCircle
 10
163.366071
 20
481.03184
 40
0.5
100
AcDbArc
 50
17.151033
 51
90.0
  0
LINE
  5
3DB
100
AcDbEntity
  8
M0
 62
     5
100
AcDbLine
 10
164.660139
 20
478.53184
 11
163.843885
 21
481.179301
  0
LINE
  5
3DC
100
AcDbEntity
  8
M0
 62
     5
100
AcDbLine
 10
157.110136
 20
478.53184
 11
157.110136
 21
475.931986
  0
LINE
  5
3DD
100
AcDbEntity
  8
M0
 62
     5
100
AcDbLine
 10
164.660139
 20
475.931986
 11
164.660139
 21
478.53184
  0
CIRCLE
  5
3DE
100
AcDbEntity
  8
M0
 62
     5
100
AcDbCircle
 10
160.88516
 20
477.232035
 40
3.0
  0
LINE
  5
3DF
100
AcDbEntity
  8
M0
 62
     5
100
AcDbLine
 10
161.875104
 20
475.534769
 11
162.582212
 21
476.242045
  0
LINE
  5
3E0
100
AcDbEntity
  8
M0
 62
     5
100
AcDbLine
 10
162.582212
 20
476.242045
 11
161.592252
 21
477.231791
  0
LINE
  5
3E1
100
AcDbEntity
  8
M0
 62
     5
100
AcDbLine
 10
159.8952
 20
478.929057
 11
159.188108
 21
478.221781
  0
LINE
  5
3E2
100
AcDbEntity
  8
M0
 62
     5
100
AcDbLine
 10
159.188108
 20
478.221781
 11
160.178052
 21
477.232035
  0
LINE
  5
3E3
100
AcDbEntity
  8
M0
 62
     5
100
AcDbLine
 10
158.439939
 20
475.493754
 11
160.178052
 21
477.232035
  0
LINE
  5
3E4
100
AcDbEntity
  8
M0
 62
     5
100
AcDbLine
 10
159.147047
 20
474.786723
 11
160.885145
 21
476.52476
  0
LINE
  5
3E5
100
AcDbEntity
  8
M0
 62
     5
100
AcDbLine
 10
163.33035
 20
478.970072
 11
161.592252
 21
477.231791
  0
LINE
  5
3E6
100
AcDbEntity
  8
M0
 62
     5
100
AcDbLine
 10
162.623243
 20
479.677103
 11
160.88516
 21
477.939066
  0
LINE
  5
3E7
100
AcDbEntity
  8
M0
 62
     5
100
AcDbLine
 10
161.875104
 20
475.534769
 11
160.885145
 21
476.52476
  0
LINE
  5
3E8
100
AcDbEntity
  8
M0
 62
     5
100
AcDbLine
 10
159.8952
 20
478.929057
 11
160.88516
 21
477.939066
  0
LINE
  5
3E9
100
AcDbEntity
  8
M0
 62
     5
100
AcDbLine
 10
159.485136
 20
464.631937
 11
157.665144
 21
464.631937
  0
LINE
  5
3EA
100
AcDbEntity
  8
M0
 62
     5
100
AcDbLine
 10
164.105131
 20
464.631937
 11
162.285139
 21
464.631937
  0
LINE
  5
3EB
100
AcDbEntity
  8
M0
 62
     5
100
AcDbLine
 10
158.563505
 20
465.831889
 11
157.295133
 21
465.831889
  0
LINE
  5
3EC
100
AcDbEntity
  8
M0
 62
     5
100
AcDbLine
 10
164.475141
 20
465.831889
 11
163.20677
 21
465.831889
  0
LINE
  5
3ED
100
AcDbEntity
  8
M0
 62
     5
100
AcDbLine
 10
158.563505
 20
469.631937
 11
157.295133
 21
469.631937
  0
LINE
  5
3EE
100
AcDbEntity
  8
M0
 62
     5
100
AcDbLine
 10
164.475141
 20
469.631937
 11
163.20677
 21
469.631937
  0
LINE
  5
3EF
100
AcDbEntity
  8
M0
 62
     5
100
AcDbLine
 10
159.485136
 20
470.831889
 11
157.665144
 21
470.831889
  0
LINE
  5
3F0
100
AcDbEntity
  8
M0
 62
     5
100
AcDbLine
 10
164.105131
 20
470.831889
 11
162.285139
 21
470.831889
  0
LINE
  5
3F1
100
AcDbEntity
  8
M0
 62
     5
100
AcDbLine
 10
159.485136
 20
470.385111
 11
159.485136
 21
470.831889
  0
LINE
  5
3F2
100
AcDbEntity
  8
M0
 62
     5
100
AcDbLine
 10
159.485136
 20
464.631937
 11
159.485136
 21
465.078715
  0
LINE
  5
3F3
100
AcDbEntity
  8
M0
 62
     5
100
AcDbLine
 10
162.285139
 20
470.385111
 11
162.285139
 21
470.831889
  0
LINE
  5
3F4
100
AcDbEntity
  8
M0
 62
     5
100
AcDbLine
 10
162.285139
 20
464.631937
 11
162.285139
 21
465.078715
  0
ARC
  5
3F5
100
AcDbEntity
  8
M0
 62
     5
100
AcDbCircle
 10
163.366071
 20
463.931986
 40
0.5
100
AcDbArc
 50
270.0
 51
342.848967
  0
LINE
  5
3F6
100
AcDbEntity
  8
M0
 62
     5
100
AcDbLine
 10
163.843885
 20
463.784525
 11
164.660139
 21
466.431986
  0
LINE
  5
3F7
100
AcDbEntity
  8
M0
 62
     5
100
AcDbLine
 10
158.404203
 20
463.431986
 11
163.366071
 21
463.431986
  0
ARC
  5
3F8
100
AcDbEntity
  8
M0
 62
     5
100
AcDbCircle
 10
158.404203
 20
463.931986
 40
0.5
100
AcDbArc
 50
197.150824
 51
270.0
  0
LINE
  5
3F9
100
AcDbEntity
  8
M0
 62
     5
100
AcDbLine
 10
157.110136
 20
466.431986
 11
157.926389
 21
463.784525
  0
ARC
  5
3FA
100
AcDbEntity
  8
M0
 62
     5
100
AcDbCircle
 10
158.404203
 20
471.53184
 40
0.5
100
AcDbArc
 50
90.0
 51
162.848967
  0
LINE
  5
3FB
100
AcDbEntity
  8
M0
 62
     5
100
AcDbLine
 10
157.926389
 20
471.679301
 11
157.110136
 21
469.03184
  0
LINE
  5
3FC
100
AcDbEntity
  8
M0
 62
     5
100
AcDbLine
 10
163.366071
 20
472.03184
 11
158.404203
 21
472.03184
  0
ARC
  5
3FD
100
AcDbEntity
  8
M0
 62
     5
100
AcDbCircle
 10
163.366071
 20
471.53184
 40
0.5
100
AcDbArc
 50
17.151033
 51
90.0
  0
LINE
  5
3FE
100
AcDbEntity
  8
M0
 62
     5
100
AcDbLine
 10
164.660139
 20
469.03184
 11
163.843885
 21
471.679301
  0
LINE
  5
3FF
100
AcDbEntity
  8
M0
 62
     5
100
AcDbLine
 10
157.110136
 20
469.03184
 11
157.110136
 21
466.431986
  0
LINE
  5
400
100
AcDbEntity
  8
M0
 62
     5
100
AcDbLine
 10
164.660139
 20
466.431986
 11
164.660139
 21
469.03184
  0
CIRCLE
  5
401
100
AcDbEntity
  8
M0
 62
     5
100
AcDbCircle
 10
160.88516
 20
467.732035
 40
3.0
  0
LINE
  5
402
100
AcDbEntity
  8
M0
 62
     5
100
AcDbLine
 10
161.875104
 20
466.034769
 11
162.582212
 21
466.742045
  0
LINE
  5
403
100
AcDbEntity
  8
M0
 62
     5
100
AcDbLine
 10
162.582212
 20
466.742045
 11
161.592252
 21
467.731791
  0
LINE
  5
404
100
AcDbEntity
  8
M0
 62
     5
100
AcDbLine
 10
159.8952
 20
469.429057
 11
159.188108
 21
468.721781
  0
LINE
  5
405
100
AcDbEntity
  8
M0
 62
     5
100
AcDbLine
 10
159.188108
 20
468.721781
 11
160.178052
 21
467.732035
  0
LINE
  5
406
100
AcDbEntity
  8
M0
 62
     5
100
AcDbLine
 10
158.439939
 20
465.993754
 11
160.178052
 21
467.732035
  0
LINE
  5
407
100
AcDbEntity
  8
M0
 62
     5
100
AcDbLine
 10
159.147047
 20
465.286723
 11
160.885145
 21
467.02476
  0
LINE
  5
408
100
AcDbEntity
  8
M0
 62
     5
100
AcDbLine
 10
163.33035
 20
469.470072
 11
161.592252
 21
467.731791
  0
LINE
  5
409
100
AcDbEntity
  8
M0
 62
     5
100
AcDbLine
 10
162.623243
 20
470.177103
 11
160.88516
 21
468.439066
  0
LINE
  5
40A
100
AcDbEntity
  8
M0
 62
     5
100
AcDbLine
 10
161.875104
 20
466.034769
 11
160.885145
 21
467.02476
  0
LINE
  5
40B
100
AcDbEntity
  8
M0
 62
     5
100
AcDbLine
 10
159.8952
 20
469.429057
 11
160.88516
 21
468.439066
  0
LINE
  5
40C
100
AcDbEntity
  8
M0
 62
     5
100
AcDbLine
 10
159.485136
 20
443.631937
 11
157.665144
 21
443.631937
  0
LINE
  5
40D
100
AcDbEntity
  8
M0
 62
     5
100
AcDbLine
 10
164.105131
 20
443.631937
 11
162.285139
 21
443.631937
  0
LINE
  5
40E
100
AcDbEntity
  8
M0
 62
     5
100
AcDbLine
 10
158.563505
 20
444.831889
 11
157.295133
 21
444.831889
  0
LINE
  5
40F
100
AcDbEntity
  8
M0
 62
     5
100
AcDbLine
 10
164.475141
 20
444.831889
 11
163.20677
 21
444.831889
  0
LINE
  5
410
100
AcDbEntity
  8
M0
 62
     5
100
AcDbLine
 10
158.563505
 20
448.631937
 11
157.295133
 21
448.631937
  0
LINE
  5
411
100
AcDbEntity
  8
M0
 62
     5
100
AcDbLine
 10
164.475141
 20
448.631937
 11
163.20677
 21
448.631937
  0
LINE
  5
412
100
AcDbEntity
  8
M0
 62
     5
100
AcDbLine
 10
159.485136
 20
449.831889
 11
157.665144
 21
449.831889
  0
LINE
  5
413
100
AcDbEntity
  8
M0
 62
     5
100
AcDbLine
 10
164.105131
 20
449.831889
 11
162.285139
 21
449.831889
  0
LINE
  5
414
100
AcDbEntity
  8
M0
 62
     5
100
AcDbLine
 10
159.485136
 20
449.385111
 11
159.485136
 21
449.831889
  0
LINE
  5
415
100
AcDbEntity
  8
M0
 62
     5
100
AcDbLine
 10
159.485136
 20
443.631937
 11
159.485136
 21
444.078715
  0
LINE
  5
416
100
AcDbEntity
  8
M0
 62
     5
100
AcDbLine
 10
162.285139
 20
449.385111
 11
162.285139
 21
449.831889
  0
LINE
  5
417
100
AcDbEntity
  8
M0
 62
     5
100
AcDbLine
 10
162.285139
 20
443.631937
 11
162.285139
 21
444.078715
  0
ARC
  5
418
100
AcDbEntity
  8
M0
 62
     5
100
AcDbCircle
 10
163.366071
 20
442.931986
 40
0.5
100
AcDbArc
 50
270.0
 51
342.848967
  0
LINE
  5
419
100
AcDbEntity
  8
M0
 62
     5
100
AcDbLine
 10
163.843885
 20
442.784525
 11
164.660139
 21
445.431986
  0
LINE
  5
41A
100
AcDbEntity
  8
M0
 62
     5
100
AcDbLine
 10
158.404203
 20
442.431986
 11
163.366071
 21
442.431986
  0
ARC
  5
41B
100
AcDbEntity
  8
M0
 62
     5
100
AcDbCircle
 10
158.404203
 20
442.931986
 40
0.5
100
AcDbArc
 50
197.150824
 51
270.0
  0
LINE
  5
41C
100
AcDbEntity
  8
M0
 62
     5
100
AcDbLine
 10
157.110136
 20
445.431986
 11
157.926389
 21
442.784525
  0
ARC
  5
41D
100
AcDbEntity
  8
M0
 62
     5
100
AcDbCircle
 10
158.404203
 20
450.53184
 40
0.5
100
AcDbArc
 50
90.0
 51
162.848967
  0
LINE
  5
41E
100
AcDbEntity
  8
M0
 62
     5
100
AcDbLine
 10
157.926389
 20
450.679301
 11
157.110136
 21
448.03184
  0
LINE
  5
41F
100
AcDbEntity
  8
M0
 62
     5
100
AcDbLine
 10
163.366071
 20
451.03184
 11
158.404203
 21
451.03184
  0
ARC
  5
420
100
AcDbEntity
  8
M0
 62
     5
100
AcDbCircle
 10
163.366071
 20
450.53184
 40
0.5
100
AcDbArc
 50
17.151033
 51
90.0
  0
LINE
  5
421
100
AcDbEntity
  8
M0
 62
     5
100
AcDbLine
 10
164.660139
 20
448.03184
 11
163.843885
 21
450.679301
  0
LINE
  5
422
100
AcDbEntity
  8
M0
 62
     5
100
AcDbLine
 10
157.110136
 20
448.03184
 11
157.110136
 21
445.431986
  0
LINE
  5
423
100
AcDbEntity
  8
M0
 62
     5
100
AcDbLine
 10
164.660139
 20
445.431986
 11
164.660139
 21
448.03184
  0
CIRCLE
  5
424
100
AcDbEntity
  8
M0
 62
     5
100
AcDbCircle
 10
160.88516
 20
446.732035
 40
3.0
  0
LINE
  5
425
100
AcDbEntity
  8
M0
 62
     5
100
AcDbLine
 10
161.875104
 20
445.034769
 11
162.582212
 21
445.742045
  0
LINE
  5
426
100
AcDbEntity
  8
M0
 62
     5
100
AcDbLine
 10
162.582212
 20
445.742045
 11
161.592252
 21
446.731791
  0
LINE
  5
427
100
AcDbEntity
  8
M0
 62
     5
100
AcDbLine
 10
159.8952
 20
448.429057
 11
159.188108
 21
447.721781
  0
LINE
  5
428
100
AcDbEntity
  8
M0
 62
     5
100
AcDbLine
 10
159.188108
 20
447.721781
 11
160.178052
 21
446.732035
  0
LINE
  5
429
100
AcDbEntity
  8
M0
 62
     5
100
AcDbLine
 10
158.439939
 20
444.993754
 11
160.178052
 21
446.732035
  0
LINE
  5
42A
100
AcDbEntity
  8
M0
 62
     5
100
AcDbLine
 10
159.147047
 20
444.286723
 11
160.885145
 21
446.02476
  0
LINE
  5
42B
100
AcDbEntity
  8
M0
 62
     5
100
AcDbLine
 10
163.33035
 20
448.470072
 11
161.592252
 21
446.731791
  0
LINE
  5
42C
100
AcDbEntity
  8
M0
 62
     5
100
AcDbLine
 10
162.623243
 20
449.177103
 11
160.88516
 21
447.439066
  0
LINE
  5
42D
100
AcDbEntity
  8
M0
 62
     5
100
AcDbLine
 10
161.875104
 20
445.034769
 11
160.885145
 21
446.02476
  0
LINE
  5
42E
100
AcDbEntity
  8
M0
 62
     5
100
AcDbLine
 10
159.8952
 20
448.429057
 11
160.88516
 21
447.439066
  0
LINE
  5
42F
100
AcDbEntity
  8
M0
 62
     5
100
AcDbLine
 10
159.485136
 20
434.131937
 11
157.665144
 21
434.131937
  0
LINE
  5
430
100
AcDbEntity
  8
M0
 62
     5
100
AcDbLine
 10
164.105131
 20
434.131937
 11
162.285139
 21
434.131937
  0
LINE
  5
431
100
AcDbEntity
  8
M0
 62
     5
100
AcDbLine
 10
158.563505
 20
435.331889
 11
157.295133
 21
435.331889
  0
LINE
  5
432
100
AcDbEntity
  8
M0
 62
     5
100
AcDbLine
 10
164.475141
 20
435.331889
 11
163.20677
 21
435.331889
  0
LINE
  5
433
100
AcDbEntity
  8
M0
 62
     5
100
AcDbLine
 10
158.563505
 20
439.131937
 11
157.295133
 21
439.131937
  0
LINE
  5
434
100
AcDbEntity
  8
M0
 62
     5
100
AcDbLine
 10
164.475141
 20
439.131937
 11
163.20677
 21
439.131937
  0
LINE
  5
435
100
AcDbEntity
  8
M0
 62
     5
100
AcDbLine
 10
159.485136
 20
440.331889
 11
157.665144
 21
440.331889
  0
LINE
  5
436
100
AcDbEntity
  8
M0
 62
     5
100
AcDbLine
 10
164.105131
 20
440.331889
 11
162.285139
 21
440.331889
  0
LINE
  5
437
100
AcDbEntity
  8
M0
 62
     5
100
AcDbLine
 10
159.485136
 20
439.885111
 11
159.485136
 21
440.331889
  0
LINE
  5
438
100
AcDbEntity
  8
M0
 62
     5
100
AcDbLine
 10
159.485136
 20
434.131937
 11
159.485136
 21
434.578715
  0
LINE
  5
439
100
AcDbEntity
  8
M0
 62
     5
100
AcDbLine
 10
162.285139
 20
439.885111
 11
162.285139
 21
440.331889
  0
LINE
  5
43A
100
AcDbEntity
  8
M0
 62
     5
100
AcDbLine
 10
162.285139
 20
434.131937
 11
162.285139
 21
434.578715
  0
ARC
  5
43B
100
AcDbEntity
  8
M0
 62
     5
100
AcDbCircle
 10
163.366071
 20
433.431986
 40
0.5
100
AcDbArc
 50
270.0
 51
342.848967
  0
LINE
  5
43C
100
AcDbEntity
  8
M0
 62
     5
100
AcDbLine
 10
163.843885
 20
433.284525
 11
164.660139
 21
435.931986
  0
LINE
  5
43D
100
AcDbEntity
  8
M0
 62
     5
100
AcDbLine
 10
158.404203
 20
432.931986
 11
163.366071
 21
432.931986
  0
ARC
  5
43E
100
AcDbEntity
  8
M0
 62
     5
100
AcDbCircle
 10
158.404203
 20
433.431986
 40
0.5
100
AcDbArc
 50
197.150824
 51
270.0
  0
LINE
  5
43F
100
AcDbEntity
  8
M0
 62
     5
100
AcDbLine
 10
157.110136
 20
435.931986
 11
157.926389
 21
433.284525
  0
ARC
  5
440
100
AcDbEntity
  8
M0
 62
     5
100
AcDbCircle
 10
158.404203
 20
441.03184
 40
0.5
100
AcDbArc
 50
90.0
 51
162.848967
  0
LINE
  5
441
100
AcDbEntity
  8
M0
 62
     5
100
AcDbLine
 10
157.926389
 20
441.179301
 11
157.110136
 21
438.53184
  0
LINE
  5
442
100
AcDbEntity
  8
M0
 62
     5
100
AcDbLine
 10
163.366071
 20
441.53184
 11
158.404203
 21
441.53184
  0
ARC
  5
443
100
AcDbEntity
  8
M0
 62
     5
100
AcDbCircle
 10
163.366071
 20
441.03184
 40
0.5
100
AcDbArc
 50
17.151033
 51
90.0
  0
LINE
  5
444
100
AcDbEntity
  8
M0
 62
     5
100
AcDbLine
 10
164.660139
 20
438.53184
 11
163.843885
 21
441.179301
  0
LINE
  5
445
100
AcDbEntity
  8
M0
 62
     5
100
AcDbLine
 10
157.110136
 20
438.53184
 11
157.110136
 21
435.931986
  0
LINE
  5
446
100
AcDbEntity
  8
M0
 62
     5
100
AcDbLine
 10
164.660139
 20
435.931986
 11
164.660139
 21
438.53184
  0
CIRCLE
  5
447
100
AcDbEntity
  8
M0
 62
     5
100
AcDbCircle
 10
160.88516
 20
437.232035
 40
3.0
  0
LINE
  5
448
100
AcDbEntity
  8
M0
 62
     5
100
AcDbLine
 10
161.875104
 20
435.534769
 11
162.582212
 21
436.242045
  0
LINE
  5
449
100
AcDbEntity
  8
M0
 62
     5
100
AcDbLine
 10
162.582212
 20
436.242045
 11
161.592252
 21
437.231791
  0
LINE
  5
44A
100
AcDbEntity
  8
M0
 62
     5
100
AcDbLine
 10
159.8952
 20
438.929057
 11
159.188108
 21
438.221781
  0
LINE
  5
44B
100
AcDbEntity
  8
M0
 62
     5
100
AcDbLine
 10
159.188108
 20
438.221781
 11
160.178052
 21
437.232035
  0
LINE
  5
44C
100
AcDbEntity
  8
M0
 62
     5
100
AcDbLine
 10
158.439939
 20
435.493754
 11
160.178052
 21
437.232035
  0
LINE
  5
44D
100
AcDbEntity
  8
M0
 62
     5
100
AcDbLine
 10
159.147047
 20
434.786723
 11
160.885145
 21
436.52476
  0
LINE
  5
44E
100
AcDbEntity
  8
M0
 62
     5
100
AcDbLine
 10
163.33035
 20
438.970072
 11
161.592252
 21
437.231791
  0
LINE
  5
44F
100
AcDbEntity
  8
M0
 62
     5
100
AcDbLine
 10
162.623243
 20
439.677103
 11
160.88516
 21
437.939066
  0
LINE
  5
450
100
AcDbEntity
  8
M0
 62
     5
100
AcDbLine
 10
161.875104
 20
435.534769
 11
160.885145
 21
436.52476
  0
LINE
  5
451
100
AcDbEntity
  8
M0
 62
     5
100
AcDbLine
 10
159.8952
 20
438.929057
 11
160.88516
 21
437.939066
  0
LINE
  5
452
100
AcDbEntity
  8
M0
 62
     5
100
AcDbLine
 10
75.485136
 20
474.131937
 11
73.665144
 21
474.131937
  0
LINE
  5
453
100
AcDbEntity
  8
M0
 62
     5
100
AcDbLine
 10
80.105131
 20
474.131937
 11
78.285139
 21
474.131937
  0
LINE
  5
454
100
AcDbEntity
  8
M0
 62
     5
100
AcDbLine
 10
74.563505
 20
475.331889
 11
73.295133
 21
475.331889
  0
LINE
  5
455
100
AcDbEntity
  8
M0
 62
     5
100
AcDbLine
 10
80.475141
 20
475.331889
 11
79.20677
 21
475.331889
  0
LINE
  5
456
100
AcDbEntity
  8
M0
 62
     5
100
AcDbLine
 10
74.563505
 20
479.131937
 11
73.295133
 21
479.131937
  0
LINE
  5
457
100
AcDbEntity
  8
M0
 62
     5
100
AcDbLine
 10
80.475141
 20
479.131937
 11
79.20677
 21
479.131937
  0
LINE
  5
458
100
AcDbEntity
  8
M0
 62
     5
100
AcDbLine
 10
75.485136
 20
480.331889
 11
73.665144
 21
480.331889
  0
LINE
  5
459
100
AcDbEntity
  8
M0
 62
     5
100
AcDbLine
 10
80.105131
 20
480.331889
 11
78.285139
 21
480.331889
  0
LINE
  5
45A
100
AcDbEntity
  8
M0
 62
     5
100
AcDbLine
 10
75.485136
 20
479.885111
 11
75.485136
 21
480.331889
  0
LINE
  5
45B
100
AcDbEntity
  8
M0
 62
     5
100
AcDbLine
 10
75.485136
 20
474.131937
 11
75.485136
 21
474.578715
  0
LINE
  5
45C
100
AcDbEntity
  8
M0
 62
     5
100
AcDbLine
 10
78.285139
 20
479.885111
 11
78.285139
 21
480.331889
  0
LINE
  5
45D
100
AcDbEntity
  8
M0
 62
     5
100
AcDbLine
 10
78.285139
 20
474.131937
 11
78.285139
 21
474.578715
  0
ARC
  5
45E
100
AcDbEntity
  8
M0
 62
     5
100
AcDbCircle
 10
79.366071
 20
473.431986
 40
0.5
100
AcDbArc
 50
270.0
 51
342.848967
  0
LINE
  5
45F
100
AcDbEntity
  8
M0
 62
     5
100
AcDbLine
 10
79.843885
 20
473.284525
 11
80.660139
 21
475.931986
  0
LINE
  5
460
100
AcDbEntity
  8
M0
 62
     5
100
AcDbLine
 10
74.404203
 20
472.931986
 11
79.366071
 21
472.931986
  0
ARC
  5
461
100
AcDbEntity
  8
M0
 62
     5
100
AcDbCircle
 10
74.404203
 20
473.431986
 40
0.5
100
AcDbArc
 50
197.150824
 51
270.0
  0
LINE
  5
462
100
AcDbEntity
  8
M0
 62
     5
100
AcDbLine
 10
73.110136
 20
475.931986
 11
73.926389
 21
473.284525
  0
ARC
  5
463
100
AcDbEntity
  8
M0
 62
     5
100
AcDbCircle
 10
74.404203
 20
481.03184
 40
0.5
100
AcDbArc
 50
90.0
 51
162.848967
  0
LINE
  5
464
100
AcDbEntity
  8
M0
 62
     5
100
AcDbLine
 10
73.926389
 20
481.179301
 11
73.110136
 21
478.53184
  0
LINE
  5
465
100
AcDbEntity
  8
M0
 62
     5
100
AcDbLine
 10
79.366071
 20
481.53184
 11
74.404203
 21
481.53184
  0
ARC
  5
466
100
AcDbEntity
  8
M0
 62
     5
100
AcDbCircle
 10
79.366071
 20
481.03184
 40
0.5
100
AcDbArc
 50
17.151033
 51
90.0
  0
LINE
  5
467
100
AcDbEntity
  8
M0
 62
     5
100
AcDbLine
 10
80.660139
 20
478.53184
 11
79.843885
 21
481.179301
  0
LINE
  5
468
100
AcDbEntity
  8
M0
 62
     5
100
AcDbLine
 10
73.110136
 20
478.53184
 11
73.110136
 21
475.931986
  0
LINE
  5
469
100
AcDbEntity
  8
M0
 62
     5
100
AcDbLine
 10
80.660139
 20
475.931986
 11
80.660139
 21
478.53184
  0
CIRCLE
  5
46A
100
AcDbEntity
  8
M0
 62
     5
100
AcDbCircle
 10
76.88516
 20
477.232035
 40
3.0
  0
LINE
  5
46B
100
AcDbEntity
  8
M0
 62
     5
100
AcDbLine
 10
77.875104
 20
475.534769
 11
78.582212
 21
476.242045
  0
LINE
  5
46C
100
AcDbEntity
  8
M0
 62
     5
100
AcDbLine
 10
78.582212
 20
476.242045
 11
77.592252
 21
477.231791
  0
LINE
  5
46D
100
AcDbEntity
  8
M0
 62
     5
100
AcDbLine
 10
75.8952
 20
478.929057
 11
75.188108
 21
478.221781
  0
LINE
  5
46E
100
AcDbEntity
  8
M0
 62
     5
100
AcDbLine
 10
75.188108
 20
478.221781
 11
76.178052
 21
477.232035
  0
LINE
  5
46F
100
AcDbEntity
  8
M0
 62
     5
100
AcDbLine
 10
74.439939
 20
475.493754
 11
76.178052
 21
477.232035
  0
LINE
  5
470
100
AcDbEntity
  8
M0
 62
     5
100
AcDbLine
 10
75.147047
 20
474.786723
 11
76.885145
 21
476.52476
  0
LINE
  5
471
100
AcDbEntity
  8
M0
 62
     5
100
AcDbLine
 10
79.33035
 20
478.970072
 11
77.592252
 21
477.231791
  0
LINE
  5
472
100
AcDbEntity
  8
M0
 62
     5
100
AcDbLine
 10
78.623243
 20
479.677103
 11
76.88516
 21
477.939066
  0
LINE
  5
473
100
AcDbEntity
  8
M0
 62
     5
100
AcDbLine
 10
77.875104
 20
475.534769
 11
76.885145
 21
476.52476
  0
LINE
  5
474
100
AcDbEntity
  8
M0
 62
     5
100
AcDbLine
 10
75.8952
 20
478.929057
 11
76.88516
 21
477.939066
  0
LINE
  5
475
100
AcDbEntity
  8
M0
 62
     5
100
AcDbLine
 10
75.485136
 20
464.631937
 11
73.665144
 21
464.631937
  0
LINE
  5
476
100
AcDbEntity
  8
M0
 62
     5
100
AcDbLine
 10
80.105131
 20
464.631937
 11
78.285139
 21
464.631937
  0
LINE
  5
477
100
AcDbEntity
  8
M0
 62
     5
100
AcDbLine
 10
74.563505
 20
465.831889
 11
73.295133
 21
465.831889
  0
LINE
  5
478
100
AcDbEntity
  8
M0
 62
     5
100
AcDbLine
 10
80.475141
 20
465.831889
 11
79.20677
 21
465.831889
  0
LINE
  5
479
100
AcDbEntity
  8
M0
 62
     5
100
AcDbLine
 10
74.563505
 20
469.631937
 11
73.295133
 21
469.631937
  0
LINE
  5
47A
100
AcDbEntity
  8
M0
 62
     5
100
AcDbLine
 10
80.475141
 20
469.631937
 11
79.20677
 21
469.631937
  0
LINE
  5
47B
100
AcDbEntity
  8
M0
 62
     5
100
AcDbLine
 10
75.485136
 20
470.831889
 11
73.665144
 21
470.831889
  0
LINE
  5
47C
100
AcDbEntity
  8
M0
 62
     5
100
AcDbLine
 10
80.105131
 20
470.831889
 11
78.285139
 21
470.831889
  0
LINE
  5
47D
100
AcDbEntity
  8
M0
 62
     5
100
AcDbLine
 10
75.485136
 20
470.385111
 11
75.485136
 21
470.831889
  0
LINE
  5
47E
100
AcDbEntity
  8
M0
 62
     5
100
AcDbLine
 10
75.485136
 20
464.631937
 11
75.485136
 21
465.078715
  0
LINE
  5
47F
100
AcDbEntity
  8
M0
 62
     5
100
AcDbLine
 10
78.285139
 20
470.385111
 11
78.285139
 21
470.831889
  0
LINE
  5
480
100
AcDbEntity
  8
M0
 62
     5
100
AcDbLine
 10
78.285139
 20
464.631937
 11
78.285139
 21
465.078715
  0
ARC
  5
481
100
AcDbEntity
  8
M0
 62
     5
100
AcDbCircle
 10
79.366071
 20
463.931986
 40
0.5
100
AcDbArc
 50
270.0
 51
342.848967
  0
LINE
  5
482
100
AcDbEntity
  8
M0
 62
     5
100
AcDbLine
 10
79.843885
 20
463.784525
 11
80.660139
 21
466.431986
  0
LINE
  5
483
100
AcDbEntity
  8
M0
 62
     5
100
AcDbLine
 10
74.404203
 20
463.431986
 11
79.366071
 21
463.431986
  0
ARC
  5
484
100
AcDbEntity
  8
M0
 62
     5
100
AcDbCircle
 10
74.404203
 20
463.931986
 40
0.5
100
AcDbArc
 50
197.150824
 51
270.0
  0
LINE
  5
485
100
AcDbEntity
  8
M0
 62
     5
100
AcDbLine
 10
73.110136
 20
466.431986
 11
73.926389
 21
463.784525
  0
ARC
  5
486
100
AcDbEntity
  8
M0
 62
     5
100
AcDbCircle
 10
74.404203
 20
471.53184
 40
0.5
100
AcDbArc
 50
90.0
 51
162.848967
  0
LINE
  5
487
100
AcDbEntity
  8
M0
 62
     5
100
AcDbLine
 10
73.926389
 20
471.679301
 11
73.110136
 21
469.03184
  0
LINE
  5
488
100
AcDbEntity
  8
M0
 62
     5
100
AcDbLine
 10
79.366071
 20
472.03184
 11
74.404203
 21
472.03184
  0
ARC
  5
489
100
AcDbEntity
  8
M0
 62
     5
100
AcDbCircle
 10
79.366071
 20
471.53184
 40
0.5
100
AcDbArc
 50
17.151033
 51
90.0
  0
LINE
  5
48A
100
AcDbEntity
  8
M0
 62
     5
100
AcDbLine
 10
80.660139
 20
469.03184
 11
79.843885
 21
471.679301
  0
LINE
  5
48B
100
AcDbEntity
  8
M0
 62
     5
100
AcDbLine
 10
73.110136
 20
469.03184
 11
73.110136
 21
466.431986
  0
LINE
  5
48C
100
AcDbEntity
  8
M0
 62
     5
100
AcDbLine
 10
80.660139
 20
466.431986
 11
80.660139
 21
469.03184
  0
CIRCLE
  5
48D
100
AcDbEntity
  8
M0
 62
     5
100
AcDbCircle
 10
76.88516
 20
467.732035
 40
3.0
  0
LINE
  5
48E
100
AcDbEntity
  8
M0
 62
     5
100
AcDbLine
 10
77.875104
 20
466.034769
 11
78.582212
 21
466.742045
  0
LINE
  5
48F
100
AcDbEntity
  8
M0
 62
     5
100
AcDbLine
 10
78.582212
 20
466.742045
 11
77.592252
 21
467.731791
  0
LINE
  5
490
100
AcDbEntity
  8
M0
 62
     5
100
AcDbLine
 10
75.8952
 20
469.429057
 11
75.188108
 21
468.721781
  0
LINE
  5
491
100
AcDbEntity
  8
M0
 62
     5
100
AcDbLine
 10
75.188108
 20
468.721781
 11
76.178052
 21
467.732035
  0
LINE
  5
492
100
AcDbEntity
  8
M0
 62
     5
100
AcDbLine
 10
74.439939
 20
465.993754
 11
76.178052
 21
467.732035
  0
LINE
  5
493
100
AcDbEntity
  8
M0
 62
     5
100
AcDbLine
 10
75.147047
 20
465.286723
 11
76.885145
 21
467.02476
  0
LINE
  5
494
100
AcDbEntity
  8
M0
 62
     5
100
AcDbLine
 10
79.33035
 20
469.470072
 11
77.592252
 21
467.731791
  0
LINE
  5
495
100
AcDbEntity
  8
M0
 62
     5
100
AcDbLine
 10
78.623243
 20
470.177103
 11
76.88516
 21
468.439066
  0
LINE
  5
496
100
AcDbEntity
  8
M0
 62
     5
100
AcDbLine
 10
77.875104
 20
466.034769
 11
76.885145
 21
467.02476
  0
LINE
  5
497
100
AcDbEntity
  8
M0
 62
     5
100
AcDbLine
 10
75.8952
 20
469.429057
 11
76.88516
 21
468.439066
  0
LINE
  5
498
100
AcDbEntity
  8
M0
 62
     5
100
AcDbLine
 10
75.485136
 20
443.631937
 11
73.665144
 21
443.631937
  0
LINE
  5
499
100
AcDbEntity
  8
M0
 62
     5
100
AcDbLine
 10
80.105131
 20
443.631937
 11
78.285139
 21
443.631937
  0
LINE
  5
49A
100
AcDbEntity
  8
M0
 62
     5
100
AcDbLine
 10
74.563505
 20
444.831889
 11
73.295133
 21
444.831889
  0
LINE
  5
49B
100
AcDbEntity
  8
M0
 62
     5
100
AcDbLine
 10
80.475141
 20
444.831889
 11
79.20677
 21
444.831889
  0
LINE
  5
49C
100
AcDbEntity
  8
M0
 62
     5
100
AcDbLine
 10
74.563505
 20
448.631937
 11
73.295133
 21
448.631937
  0
LINE
  5
49D
100
AcDbEntity
  8
M0
 62
     5
100
AcDbLine
 10
80.475141
 20
448.631937
 11
79.20677
 21
448.631937
  0
LINE
  5
49E
100
AcDbEntity
  8
M0
 62
     5
100
AcDbLine
 10
75.485136
 20
449.831889
 11
73.665144
 21
449.831889
  0
LINE
  5
49F
100
AcDbEntity
  8
M0
 62
     5
100
AcDbLine
 10
80.105131
 20
449.831889
 11
78.285139
 21
449.831889
  0
LINE
  5
4A0
100
AcDbEntity
  8
M0
 62
     5
100
AcDbLine
 10
75.485136
 20
449.385111
 11
75.485136
 21
449.831889
  0
LINE
  5
4A1
100
AcDbEntity
  8
M0
 62
     5
100
AcDbLine
 10
75.485136
 20
443.631937
 11
75.485136
 21
444.078715
  0
LINE
  5
4A2
100
AcDbEntity
  8
M0
 62
     5
100
AcDbLine
 10
78.285139
 20
449.385111
 11
78.285139
 21
449.831889
  0
LINE
  5
4A3
100
AcDbEntity
  8
M0
 62
     5
100
AcDbLine
 10
78.285139
 20
443.631937
 11
78.285139
 21
444.078715
  0
ARC
  5
4A4
100
AcDbEntity
  8
M0
 62
     5
100
AcDbCircle
 10
79.366071
 20
442.931986
 40
0.5
100
AcDbArc
 50
270.0
 51
342.848967
  0
LINE
  5
4A5
100
AcDbEntity
  8
M0
 62
     5
100
AcDbLine
 10
79.843885
 20
442.784525
 11
80.660139
 21
445.431986
  0
LINE
  5
4A6
100
AcDbEntity
  8
M0
 62
     5
100
AcDbLine
 10
74.404203
 20
442.431986
 11
79.366071
 21
442.431986
  0
ARC
  5
4A7
100
AcDbEntity
  8
M0
 62
     5
100
AcDbCircle
 10
74.404203
 20
442.931986
 40
0.5
100
AcDbArc
 50
197.150824
 51
270.0
  0
LINE
  5
4A8
100
AcDbEntity
  8
M0
 62
     5
100
AcDbLine
 10
73.110136
 20
445.431986
 11
73.926389
 21
442.784525
  0
ARC
  5
4A9
100
AcDbEntity
  8
M0
 62
     5
100
AcDbCircle
 10
74.404203
 20
450.53184
 40
0.5
100
AcDbArc
 50
90.0
 51
162.848967
  0
LINE
  5
4AA
100
AcDbEntity
  8
M0
 62
     5
100
AcDbLine
 10
73.926389
 20
450.679301
 11
73.110136
 21
448.03184
  0
LINE
  5
4AB
100
AcDbEntity
  8
M0
 62
     5
100
AcDbLine
 10
79.366071
 20
451.03184
 11
74.404203
 21
451.03184
  0
ARC
  5
4AC
100
AcDbEntity
  8
M0
 62
     5
100
AcDbCircle
 10
79.366071
 20
450.53184
 40
0.5
100
AcDbArc
 50
17.151033
 51
90.0
  0
LINE
  5
4AD
100
AcDbEntity
  8
M0
 62
     5
100
AcDbLine
 10
80.660139
 20
448.03184
 11
79.843885
 21
450.679301
  0
LINE
  5
4AE
100
AcDbEntity
  8
M0
 62
     5
100
AcDbLine
 10
73.110136
 20
448.03184
 11
73.110136
 21
445.431986
  0
LINE
  5
4AF
100
AcDbEntity
  8
M0
 62
     5
100
AcDbLine
 10
80.660139
 20
445.431986
 11
80.660139
 21
448.03184
  0
CIRCLE
  5
4B0
100
AcDbEntity
  8
M0
 62
     5
100
AcDbCircle
 10
76.88516
 20
446.732035
 40
3.0
  0
LINE
  5
4B1
100
AcDbEntity
  8
M0
 62
     5
100
AcDbLine
 10
77.875104
 20
445.034769
 11
78.582212
 21
445.742045
  0
LINE
  5
4B2
100
AcDbEntity
  8
M0
 62
     5
100
AcDbLine
 10
78.582212
 20
445.742045
 11
77.592252
 21
446.731791
  0
LINE
  5
4B3
100
AcDbEntity
  8
M0
 62
     5
100
AcDbLine
 10
75.8952
 20
448.429057
 11
75.188108
 21
447.721781
  0
LINE
  5
4B4
100
AcDbEntity
  8
M0
 62
     5
100
AcDbLine
 10
75.188108
 20
447.721781
 11
76.178052
 21
446.732035
  0
LINE
  5
4B5
100
AcDbEntity
  8
M0
 62
     5
100
AcDbLine
 10
74.439939
 20
444.993754
 11
76.178052
 21
446.732035
  0
LINE
  5
4B6
100
AcDbEntity
  8
M0
 62
     5
100
AcDbLine
 10
75.147047
 20
444.286723
 11
76.885145
 21
446.02476
  0
LINE
  5
4B7
100
AcDbEntity
  8
M0
 62
     5
100
AcDbLine
 10
79.33035
 20
448.470072
 11
77.592252
 21
446.731791
  0
LINE
  5
4B8
100
AcDbEntity
  8
M0
 62
     5
100
AcDbLine
 10
78.623243
 20
449.177103
 11
76.88516
 21
447.439066
  0
LINE
  5
4B9
100
AcDbEntity
  8
M0
 62
     5
100
AcDbLine
 10
77.875104
 20
445.034769
 11
76.885145
 21
446.02476
  0
LINE
  5
4BA
100
AcDbEntity
  8
M0
 62
     5
100
AcDbLine
 10
75.8952
 20
448.429057
 11
76.88516
 21
447.439066
  0
LINE
  5
4BB
100
AcDbEntity
  8
M0
 62
     5
100
AcDbLine
 10
75.485136
 20
434.131937
 11
73.665144
 21
434.131937
  0
LINE
  5
4BC
100
AcDbEntity
  8
M0
 62
     5
100
AcDbLine
 10
80.105131
 20
434.131937
 11
78.285139
 21
434.131937
  0
LINE
  5
4BD
100
AcDbEntity
  8
M0
 62
     5
100
AcDbLine
 10
74.563505
 20
435.331889
 11
73.295133
 21
435.331889
  0
LINE
  5
4BE
100
AcDbEntity
  8
M0
 62
     5
100
AcDbLine
 10
80.475141
 20
435.331889
 11
79.20677
 21
435.331889
  0
LINE
  5
4BF
100
AcDbEntity
  8
M0
 62
     5
100
AcDbLine
 10
74.563505
 20
439.131937
 11
73.295133
 21
439.131937
  0
LINE
  5
4C0
100
AcDbEntity
  8
M0
 62
     5
100
AcDbLine
 10
80.475141
 20
439.131937
 11
79.20677
 21
439.131937
  0
LINE
  5
4C1
100
AcDbEntity
  8
M0
 62
     5
100
AcDbLine
 10
75.485136
 20
440.331889
 11
73.665144
 21
440.331889
  0
LINE
  5
4C2
100
AcDbEntity
  8
M0
 62
     5
100
AcDbLine
 10
80.105131
 20
440.331889
 11
78.285139
 21
440.331889
  0
LINE
  5
4C3
100
AcDbEntity
  8
M0
 62
     5
100
AcDbLine
 10
75.485136
 20
439.885111
 11
75.485136
 21
440.331889
  0
LINE
  5
4C4
100
AcDbEntity
  8
M0
 62
     5
100
AcDbLine
 10
75.485136
 20
434.131937
 11
75.485136
 21
434.578715
  0
LINE
  5
4C5
100
AcDbEntity
  8
M0
 62
     5
100
AcDbLine
 10
78.285139
 20
439.885111
 11
78.285139
 21
440.331889
  0
LINE
  5
4C6
100
AcDbEntity
  8
M0
 62
     5
100
AcDbLine
 10
78.285139
 20
434.131937
 11
78.285139
 21
434.578715
  0
ARC
  5
4C7
100
AcDbEntity
  8
M0
 62
     5
100
AcDbCircle
 10
79.366071
 20
433.431986
 40
0.5
100
AcDbArc
 50
270.0
 51
342.848967
  0
LINE
  5
4C8
100
AcDbEntity
  8
M0
 62
     5
100
AcDbLine
 10
79.843885
 20
433.284525
 11
80.660139
 21
435.931986
  0
LINE
  5
4C9
100
AcDbEntity
  8
M0
 62
     5
100
AcDbLine
 10
74.404203
 20
432.931986
 11
79.366071
 21
432.931986
  0
ARC
  5
4CA
100
AcDbEntity
  8
M0
 62
     5
100
AcDbCircle
 10
74.404203
 20
433.431986
 40
0.5
100
AcDbArc
 50
197.150824
 51
270.0
  0
LINE
  5
4CB
100
AcDbEntity
  8
M0
 62
     5
100
AcDbLine
 10
73.110136
 20
435.931986
 11
73.926389
 21
433.284525
  0
ARC
  5
4CC
100
AcDbEntity
  8
M0
 62
     5
100
AcDbCircle
 10
74.404203
 20
441.03184
 40
0.5
100
AcDbArc
 50
90.0
 51
162.848967
  0
LINE
  5
4CD
100
AcDbEntity
  8
M0
 62
     5
100
AcDbLine
 10
73.926389
 20
441.179301
 11
73.110136
 21
438.53184
  0
LINE
  5
4CE
100
AcDbEntity
  8
M0
 62
     5
100
AcDbLine
 10
79.366071
 20
441.53184
 11
74.404203
 21
441.53184
  0
ARC
  5
4CF
100
AcDbEntity
  8
M0
 62
     5
100
AcDbCircle
 10
79.366071
 20
441.03184
 40
0.5
100
AcDbArc
 50
17.151033
 51
90.0
  0
LINE
  5
4D0
100
AcDbEntity
  8
M0
 62
     5
100
AcDbLine
 10
80.660139
 20
438.53184
 11
79.843885
 21
441.179301
  0
LINE
  5
4D1
100
AcDbEntity
  8
M0
 62
     5
100
AcDbLine
 10
73.110136
 20
438.53184
 11
73.110136
 21
435.931986
  0
LINE
  5
4D2
100
AcDbEntity
  8
M0
 62
     5
100
AcDbLine
 10
80.660139
 20
435.931986
 11
80.660139
 21
438.53184
  0
CIRCLE
  5
4D3
100
AcDbEntity
  8
M0
 62
     5
100
AcDbCircle
 10
76.88516
 20
437.232035
 40
3.0
  0
LINE
  5
4D4
100
AcDbEntity
  8
M0
 62
     5
100
AcDbLine
 10
77.875104
 20
435.534769
 11
78.582212
 21
436.242045
  0
LINE
  5
4D5
100
AcDbEntity
  8
M0
 62
     5
100
AcDbLine
 10
78.582212
 20
436.242045
 11
77.592252
 21
437.231791
  0
LINE
  5
4D6
100
AcDbEntity
  8
M0
 62
     5
100
AcDbLine
 10
75.8952
 20
438.929057
 11
75.188108
 21
438.221781
  0
LINE
  5
4D7
100
AcDbEntity
  8
M0
 62
     5
100
AcDbLine
 10
75.188108
 20
438.221781
 11
76.178052
 21
437.232035
  0
LINE
  5
4D8
100
AcDbEntity
  8
M0
 62
     5
100
AcDbLine
 10
74.439939
 20
435.493754
 11
76.178052
 21
437.232035
  0
LINE
  5
4D9
100
AcDbEntity
  8
M0
 62
     5
100
AcDbLine
 10
75.147047
 20
434.786723
 11
76.885145
 21
436.52476
  0
LINE
  5
4DA
100
AcDbEntity
  8
M0
 62
     5
100
AcDbLine
 10
79.33035
 20
438.970072
 11
77.592252
 21
437.231791
  0
LINE
  5
4DB
100
AcDbEntity
  8
M0
 62
     5
100
AcDbLine
 10
78.623243
 20
439.677103
 11
76.88516
 21
437.939066
  0
LINE
  5
4DC
100
AcDbEntity
  8
M0
 62
     5
100
AcDbLine
 10
77.875104
 20
435.534769
 11
76.885145
 21
436.52476
  0
LINE
  5
4DD
100
AcDbEntity
  8
M0
 62
     5
100
AcDbLine
 10
75.8952
 20
438.929057
 11
76.88516
 21
437.939066
  0
LINE
  5
4DE
100
AcDbEntity
  8
M0
 62
     2
100
AcDbLine
 10
73.735105
 20
409.732035
 11
80.285093
 21
409.732035
  0
LINE
  5
4DF
100
AcDbEntity
  8
M0
 62
     2
100
AcDbLine
 10
80.835111
 20
411.632014
 11
80.835111
 21
418.231547
  0
LINE
  5
4E0
100
AcDbEntity
  8
M0
 62
     2
100
AcDbLine
 10
72.935102
 20
418.231791
 11
72.935102
 21
411.632029
  0
LINE
  5
4E1
100
AcDbEntity
  8
M0
 62
     2
100
AcDbLine
 10
73.135099
 20
411.432032
 11
73.235105
 21
411.432032
  0
LINE
  5
4E2
100
AcDbEntity
  8
M0
 62
     2
100
AcDbLine
 10
80.035108
 20
410.932032
 11
80.035108
 21
409.732035
  0
LINE
  5
4E3
100
AcDbEntity
  8
M0
 62
     2
100
AcDbLine
 10
73.735105
 20
410.932032
 11
73.735105
 21
409.732035
  0
LINE
  5
4E4
100
AcDbEntity
  8
M0
 62
     2
100
AcDbLine
 10
80.535108
 20
411.432032
 11
80.635099
 21
411.432032
  0
LINE
  5
4E5
100
AcDbEntity
  8
M0
 62
     2
100
AcDbLine
 10
80.285093
 20
410.732035
 11
80.285093
 21
409.732035
  0
LINE
  5
4E6
100
AcDbEntity
  8
M0
 62
     2
100
AcDbLine
 10
80.035108
 20
410.732035
 11
80.285093
 21
410.732035
  0
ARC
  5
4E7
100
AcDbEntity
  8
M0
 62
     2
100
AcDbCircle
 10
80.535108
 20
410.932032
 40
0.5
100
AcDbArc
 50
90.0
 51
179.999891
  0
ARC
  5
4E8
100
AcDbEntity
  8
M0
 62
     2
100
AcDbCircle
 10
73.235105
 20
410.932032
 40
0.5
100
AcDbArc
 50
0.0
 51
90.0
  0
ARC
  5
4E9
100
AcDbEntity
  8
M0
 62
     2
100
AcDbCircle
 10
79.835111
 20
418.231791
 40
1.0
100
AcDbArc
 50
359.985902
 51
450.0
  0
ARC
  5
4EA
100
AcDbEntity
  8
M0
 62
     2
100
AcDbCircle
 10
73.935102
 20
418.231791
 40
1.0
100
AcDbArc
 50
90.0
 51
180.0
  0
ARC
  5
4EB
100
AcDbEntity
  8
M0
 62
     2
100
AcDbCircle
 10
73.135099
 20
411.632029
 40
0.2
100
AcDbArc
 50
179.999727
 51
270.0
  0
ARC
  5
4EC
100
AcDbEntity
  8
M0
 62
     2
100
AcDbCircle
 10
80.635099
 20
411.632029
 40
0.2
100
AcDbArc
 50
270.0
 51
360.0
  0
LINE
  5
4ED
100
AcDbEntity
  8
M0
 62
     5
100
AcDbLine
 10
75.485105
 20
412.131937
 11
73.665113
 21
412.131937
  0
LINE
  5
4EE
100
AcDbEntity
  8
M0
 62
     5
100
AcDbLine
 10
80.1051
 20
412.131937
 11
78.285108
 21
412.131937
  0
LINE
  5
4EF
100
AcDbEntity
  8
M0
 62
     5
100
AcDbLine
 10
74.563474
 20
413.331889
 11
73.295103
 21
413.331889
  0
LINE
  5
4F0
100
AcDbEntity
  8
M0
 62
     5
100
AcDbLine
 10
80.475111
 20
413.331889
 11
79.206739
 21
413.331889
  0
LINE
  5
4F1
100
AcDbEntity
  8
M0
 62
     5
100
AcDbLine
 10
74.563474
 20
417.131937
 11
73.295103
 21
417.131937
  0
LINE
  5
4F2
100
AcDbEntity
  8
M0
 62
     5
100
AcDbLine
 10
80.475111
 20
417.131937
 11
79.206739
 21
417.131937
  0
LINE
  5
4F3
100
AcDbEntity
  8
M0
 62
     5
100
AcDbLine
 10
75.485105
 20
418.331889
 11
73.665113
 21
418.331889
  0
LINE
  5
4F4
100
AcDbEntity
  8
M0
 62
     5
100
AcDbLine
 10
80.1051
 20
418.331889
 11
78.285108
 21
418.331889
  0
LINE
  5
4F5
100
AcDbEntity
  8
M0
 62
     5
100
AcDbLine
 10
75.485105
 20
417.885111
 11
75.485105
 21
418.331889
  0
LINE
  5
4F6
100
AcDbEntity
  8
M0
 62
     5
100
AcDbLine
 10
75.485105
 20
412.131937
 11
75.485105
 21
412.578715
  0
LINE
  5
4F7
100
AcDbEntity
  8
M0
 62
     5
100
AcDbLine
 10
78.285108
 20
417.885111
 11
78.285108
 21
418.331889
  0
LINE
  5
4F8
100
AcDbEntity
  8
M0
 62
     5
100
AcDbLine
 10
78.285108
 20
412.131937
 11
78.285108
 21
412.578715
  0
ARC
  5
4F9
100
AcDbEntity
  8
M0
 62
     5
100
AcDbCircle
 10
79.366041
 20
411.431986
 40
0.5
100
AcDbArc
 50
270.0
 51
342.848967
  0
LINE
  5
4FA
100
AcDbEntity
  8
M0
 62
     5
100
AcDbLine
 10
79.843854
 20
411.284525
 11
80.660108
 21
413.931986
  0
LINE
  5
4FB
100
AcDbEntity
  8
M0
 62
     5
100
AcDbLine
 10
74.404172
 20
410.931986
 11
79.366041
 21
410.931986
  0
ARC
  5
4FC
100
AcDbEntity
  8
M0
 62
     5
100
AcDbCircle
 10
74.404172
 20
411.431986
 40
0.5
100
AcDbArc
 50
197.150824
 51
270.0
  0
LINE
  5
4FD
100
AcDbEntity
  8
M0
 62
     5
100
AcDbLine
 10
73.110105
 20
413.931986
 11
73.926359
 21
411.284525
  0
ARC
  5
4FE
100
AcDbEntity
  8
M0
 62
     5
100
AcDbCircle
 10
74.404172
 20
419.03184
 40
0.5
100
AcDbArc
 50
90.0
 51
162.848967
  0
LINE
  5
4FF
100
AcDbEntity
  8
M0
 62
     5
100
AcDbLine
 10
73.926359
 20
419.179301
 11
73.110105
 21
416.53184
  0
LINE
  5
500
100
AcDbEntity
  8
M0
 62
     5
100
AcDbLine
 10
79.366041
 20
419.53184
 11
74.404172
 21
419.53184
  0
ARC
  5
501
100
AcDbEntity
  8
M0
 62
     5
100
AcDbCircle
 10
79.366041
 20
419.03184
 40
0.5
100
AcDbArc
 50
17.151033
 51
90.0
  0
LINE
  5
502
100
AcDbEntity
  8
M0
 62
     5
100
AcDbLine
 10
80.660108
 20
416.53184
 11
79.843854
 21
419.179301
  0
LINE
  5
503
100
AcDbEntity
  8
M0
 62
     5
100
AcDbLine
 10
73.110105
 20
416.53184
 11
73.110105
 21
413.931986
  0
LINE
  5
504
100
AcDbEntity
  8
M0
 62
     5
100
AcDbLine
 10
80.660108
 20
413.931986
 11
80.660108
 21
416.53184
  0
CIRCLE
  5
505
100
AcDbEntity
  8
M0
 62
     5
100
AcDbCircle
 10
76.885129
 20
415.232035
 40
3.0
  0
LINE
  5
506
100
AcDbEntity
  8
M0
 62
     5
100
AcDbLine
 10
77.875074
 20
413.534769
 11
78.582181
 21
414.242045
  0
LINE
  5
507
100
AcDbEntity
  8
M0
 62
     5
100
AcDbLine
 10
78.582181
 20
414.242045
 11
77.592222
 21
415.231791
  0
LINE
  5
508
100
AcDbEntity
  8
M0
 62
     5
100
AcDbLine
 10
75.89517
 20
416.929057
 11
75.188077
 21
416.221781
  0
LINE
  5
509
100
AcDbEntity
  8
M0
 62
     5
100
AcDbLine
 10
75.188077
 20
416.221781
 11
76.178022
 21
415.232035
  0
LINE
  5
50A
100
AcDbEntity
  8
M0
 62
     5
100
AcDbLine
 10
74.439909
 20
413.493754
 11
76.178022
 21
415.232035
  0
LINE
  5
50B
100
AcDbEntity
  8
M0
 62
     5
100
AcDbLine
 10
75.147016
 20
412.786723
 11
76.885114
 21
414.52476
  0
LINE
  5
50C
100
AcDbEntity
  8
M0
 62
     5
100
AcDbLine
 10
79.33032
 20
416.970072
 11
77.592222
 21
415.231791
  0
LINE
  5
50D
100
AcDbEntity
  8
M0
 62
     5
100
AcDbLine
 10
78.623212
 20
417.677103
 11
76.885129
 21
415.939066
  0
LINE
  5
50E
100
AcDbEntity
  8
M0
 62
     5
100
AcDbLine
 10
77.875074
 20
413.534769
 11
76.885114
 21
414.52476
  0
LINE
  5
50F
100
AcDbEntity
  8
M0
 62
     5
100
AcDbLine
 10
75.89517
 20
416.929057
 11
76.885129
 21
415.939066
  0
LINE
  5
510
100
AcDbEntity
  8
M0
 62
     2
100
AcDbLine
 10
157.735105
 20
504.732035
 11
164.285093
 21
504.732035
  0
LINE
  5
511
100
AcDbEntity
  8
M0
 62
     2
100
AcDbLine
 10
164.835111
 20
502.832056
 11
164.835111
 21
496.232523
  0
LINE
  5
512
100
AcDbEntity
  8
M0
 62
     2
100
AcDbLine
 10
163.835111
 20
495.232035
 11
163.824308
 21
495.232035
  0
LINE
  5
513
100
AcDbEntity
  8
M0
 62
     2
100
AcDbLine
 10
156.935102
 20
496.232279
 11
156.935102
 21
502.832041
  0
LINE
  5
514
100
AcDbEntity
  8
M0
 62
     2
100
AcDbLine
 10
157.135099
 20
503.032038
 11
157.235105
 21
503.032038
  0
LINE
  5
515
100
AcDbEntity
  8
M0
 62
     2
100
AcDbLine
 10
164.035108
 20
503.532038
 11
164.035108
 21
504.732035
  0
LINE
  5
516
100
AcDbEntity
  8
M0
 62
     2
100
AcDbLine
 10
157.735105
 20
503.532038
 11
157.735105
 21
504.732035
  0
LINE
  5
517
100
AcDbEntity
  8
M0
 62
     2
100
AcDbLine
 10
164.535108
 20
503.032038
 11
164.635099
 21
503.032038
  0
LINE
  5
518
100
AcDbEntity
  8
M0
 62
     2
100
AcDbLine
 10
164.285093
 20
503.732035
 11
164.285093
 21
504.732035
  0
LINE
  5
519
100
AcDbEntity
  8
M0
 62
     2
100
AcDbLine
 10
164.035108
 20
503.732035
 11
164.285093
 21
503.732035
  0
ARC
  5
51A
100
AcDbEntity
  8
M0
 62
     2
100
AcDbCircle
 10
164.535108
 20
503.532038
 40
0.5
100
AcDbArc
 50
180.0
 51
270.0
  0
ARC
  5
51B
100
AcDbEntity
  8
M0
 62
     2
100
AcDbCircle
 10
157.235105
 20
503.532038
 40
0.5
100
AcDbArc
 50
-90.0
 51
0.0
  0
ARC
  5
51C
100
AcDbEntity
  8
M0
 62
     2
100
AcDbCircle
 10
163.835111
 20
496.232279
 40
1.0
100
AcDbArc
 50
-90.0
 51
0.013988
  0
ARC
  5
51D
100
AcDbEntity
  8
M0
 62
     2
100
AcDbCircle
 10
157.935102
 20
496.232279
 40
1.0
100
AcDbArc
 50
179.999945
 51
270.0
  0
ARC
  5
51E
100
AcDbEntity
  8
M0
 62
     2
100
AcDbCircle
 10
157.135099
 20
502.832041
 40
0.2
100
AcDbArc
 50
90.0
 51
180.0
  0
ARC
  5
51F
100
AcDbEntity
  8
M0
 62
     2
100
AcDbCircle
 10
164.635099
 20
502.832041
 40
0.2
100
AcDbArc
 50
0.0
 51
90.0
  0
LINE
  5
520
100
AcDbEntity
  8
M0
 62
     2
100
AcDbLine
 10
157.94589
 20
495.232035
 11
157.935102
 21
495.232035
  0
LINE
  5
521
100
AcDbEntity
  8
M0
 62
     5
100
AcDbLine
 10
159.485105
 20
496.131937
 11
157.665113
 21
496.131937
  0
LINE
  5
522
100
AcDbEntity
  8
M0
 62
     5
100
AcDbLine
 10
164.1051
 20
496.131937
 11
162.285108
 21
496.131937
  0
LINE
  5
523
100
AcDbEntity
  8
M0
 62
     5
100
AcDbLine
 10
158.563474
 20
497.331889
 11
157.295103
 21
497.331889
  0
LINE
  5
524
100
AcDbEntity
  8
M0
 62
     5
100
AcDbLine
 10
164.475111
 20
497.331889
 11
163.206739
 21
497.331889
  0
LINE
  5
525
100
AcDbEntity
  8
M0
 62
     5
100
AcDbLine
 10
158.563474
 20
501.131937
 11
157.295103
 21
501.131937
  0
LINE
  5
526
100
AcDbEntity
  8
M0
 62
     5
100
AcDbLine
 10
164.475111
 20
501.131937
 11
163.206739
 21
501.131937
  0
LINE
  5
527
100
AcDbEntity
  8
M0
 62
     5
100
AcDbLine
 10
159.485105
 20
502.331889
 11
157.665113
 21
502.331889
  0
LINE
  5
528
100
AcDbEntity
  8
M0
 62
     5
100
AcDbLine
 10
164.1051
 20
502.331889
 11
162.285108
 21
502.331889
  0
LINE
  5
529
100
AcDbEntity
  8
M0
 62
     5
100
AcDbLine
 10
159.485105
 20
501.885111
 11
159.485105
 21
502.331889
  0
LINE
  5
52A
100
AcDbEntity
  8
M0
 62
     5
100
AcDbLine
 10
159.485105
 20
496.131937
 11
159.485105
 21
496.578715
  0
LINE
  5
52B
100
AcDbEntity
  8
M0
 62
     5
100
AcDbLine
 10
162.285108
 20
501.885111
 11
162.285108
 21
502.331889
  0
LINE
  5
52C
100
AcDbEntity
  8
M0
 62
     5
100
AcDbLine
 10
162.285108
 20
496.131937
 11
162.285108
 21
496.578715
  0
ARC
  5
52D
100
AcDbEntity
  8
M0
 62
     5
100
AcDbCircle
 10
163.366041
 20
495.431986
 40
0.5
100
AcDbArc
 50
270.0
 51
342.848967
  0
LINE
  5
52E
100
AcDbEntity
  8
M0
 62
     5
100
AcDbLine
 10
163.843854
 20
495.284525
 11
164.660108
 21
497.931986
  0
LINE
  5
52F
100
AcDbEntity
  8
M0
 62
     5
100
AcDbLine
 10
158.404172
 20
494.931986
 11
163.366041
 21
494.931986
  0
ARC
  5
530
100
AcDbEntity
  8
M0
 62
     5
100
AcDbCircle
 10
158.404172
 20
495.431986
 40
0.5
100
AcDbArc
 50
197.150824
 51
270.0
  0
LINE
  5
531
100
AcDbEntity
  8
M0
 62
     5
100
AcDbLine
 10
157.110105
 20
497.931986
 11
157.926359
 21
495.284525
  0
ARC
  5
532
100
AcDbEntity
  8
M0
 62
     5
100
AcDbCircle
 10
158.404172
 20
503.03184
 40
0.5
100
AcDbArc
 50
90.0
 51
162.848967
  0
LINE
  5
533
100
AcDbEntity
  8
M0
 62
     5
100
AcDbLine
 10
157.926359
 20
503.179301
 11
157.110105
 21
500.53184
  0
LINE
  5
534
100
AcDbEntity
  8
M0
 62
     5
100
AcDbLine
 10
163.366041
 20
503.53184
 11
158.404172
 21
503.53184
  0
ARC
  5
535
100
AcDbEntity
  8
M0
 62
     5
100
AcDbCircle
 10
163.366041
 20
503.03184
 40
0.5
100
AcDbArc
 50
17.151033
 51
90.0
  0
LINE
  5
536
100
AcDbEntity
  8
M0
 62
     5
100
AcDbLine
 10
164.660108
 20
500.53184
 11
163.843854
 21
503.179301
  0
LINE
  5
537
100
AcDbEntity
  8
M0
 62
     5
100
AcDbLine
 10
157.110105
 20
500.53184
 11
157.110105
 21
497.931986
  0
LINE
  5
538
100
AcDbEntity
  8
M0
 62
     5
100
AcDbLine
 10
164.660108
 20
497.931986
 11
164.660108
 21
500.53184
  0
CIRCLE
  5
539
100
AcDbEntity
  8
M0
 62
     5
100
AcDbCircle
 10
160.885129
 20
499.232035
 40
3.0
  0
LINE
  5
53A
100
AcDbEntity
  8
M0
 62
     5
100
AcDbLine
 10
161.875074
 20
497.534769
 11
162.582181
 21
498.242045
  0
LINE
  5
53B
100
AcDbEntity
  8
M0
 62
     5
100
AcDbLine
 10
162.582181
 20
498.242045
 11
161.592222
 21
499.231791
  0
LINE
  5
53C
100
AcDbEntity
  8
M0
 62
     5
100
AcDbLine
 10
159.89517
 20
500.929057
 11
159.188077
 21
500.221781
  0
LINE
  5
53D
100
AcDbEntity
  8
M0
 62
     5
100
AcDbLine
 10
159.188077
 20
500.221781
 11
160.178022
 21
499.232035
  0
LINE
  5
53E
100
AcDbEntity
  8
M0
 62
     5
100
AcDbLine
 10
158.439909
 20
497.493754
 11
160.178022
 21
499.232035
  0
LINE
  5
53F
100
AcDbEntity
  8
M0
 62
     5
100
AcDbLine
 10
159.147016
 20
496.786723
 11
160.885114
 21
498.52476
  0
LINE
  5
540
100
AcDbEntity
  8
M0
 62
     5
100
AcDbLine
 10
163.33032
 20
500.970072
 11
161.592222
 21
499.231791
  0
LINE
  5
541
100
AcDbEntity
  8
M0
 62
     5
100
AcDbLine
 10
162.623212
 20
501.677103
 11
160.885129
 21
499.939066
  0
LINE
  5
542
100
AcDbEntity
  8
M0
 62
     5
100
AcDbLine
 10
161.875074
 20
497.534769
 11
160.885114
 21
498.52476
  0
LINE
  5
543
100
AcDbEntity
  8
M0
 62
     5
100
AcDbLine
 10
159.89517
 20
500.929057
 11
160.885129
 21
499.939066
  0
LINE
  5
544
100
AcDbEntity
  8
M0
 62
     7
100
AcDbLine
 10
129.885099
 20
454.631937
 11
129.885099
 21
464.331889
  0
LINE
  5
545
100
AcDbEntity
  8
M0
 62
     7
100
AcDbLine
 10
122.635099
 20
468.231888
 11
115.135101
 21
468.231888
  0
LINE
  5
546
100
AcDbEntity
  8
M0
 62
     7
100
AcDbLine
 10
107.885099
 20
464.331889
 11
107.885099
 21
454.631937
  0
LINE
  5
547
100
AcDbEntity
  8
M0
 62
     7
100
AcDbLine
 10
111.535093
 20
447.03184
 11
126.23509
 21
447.03184
  0
LINE
  5
548
100
AcDbEntity
  8
M0
 62
     7
100
AcDbLine
 10
121.885099
 20
457.331889
 11
115.885099
 21
457.331889
  0
LINE
  5
549
100
AcDbEntity
  8
M0
 62
     7
100
AcDbLine
 10
121.885099
 20
461.831889
 11
115.885099
 21
461.831889
  0
LINE
  5
54A
100
AcDbEntity
  8
M0
 62
     7
100
AcDbLine
 10
115.885099
 20
457.331889
 11
115.885099
 21
461.831889
  0
LINE
  5
54B
100
AcDbEntity
  8
M0
 62
     7
100
AcDbLine
 10
121.885099
 20
457.331889
 11
121.885099
 21
461.831889
  0
LINE
  5
54C
100
AcDbEntity
  8
M0
 62
     7
100
AcDbLine
 10
126.885099
 20
451.631937
 11
126.73509
 21
451.631937
  0
LINE
  5
54D
100
AcDbEntity
  8
M0
 62
     7
100
AcDbLine
 10
111.035093
 20
451.631937
 11
111.035093
 21
447.53184
  0
LINE
  5
54E
100
AcDbEntity
  8
M0
 62
     7
100
AcDbLine
 10
126.73509
 20
451.631937
 11
126.73509
 21
447.53184
  0
ARC
  5
54F
100
AcDbEntity
  8
M0
 62
     7
100
AcDbCircle
 10
126.885099
 20
454.631937
 40
3.0
100
AcDbArc
 50
270.0
 51
360.0
  0
ARC
  5
550
100
AcDbEntity
  8
M0
 62
     7
100
AcDbCircle
 10
110.885099
 20
454.631937
 40
3.0
100
AcDbArc
 50
179.999964
 51
270.0
  0
LINE
  5
551
100
AcDbEntity
  8
M0
 62
     7
100
AcDbLine
 10
111.035093
 20
451.631937
 11
110.885099
 21
451.631937
  0
ARC
  5
552
100
AcDbEntity
  8
M0
 62
     7
100
AcDbCircle
 10
111.535093
 20
447.53184
 40
0.5
100
AcDbArc
 50
179.999891
 51
270.0
  0
ARC
  5
553
100
AcDbEntity
  8
M0
 62
     7
100
AcDbCircle
 10
126.23509
 20
447.53184
 40
0.5
100
AcDbArc
 50
270.0
 51
360.0
  0
LINE
  5
554
100
AcDbEntity
  8
M0
 62
     7
100
AcDbLine
 10
110.885099
 20
467.331889
 11
115.135099
 21
467.331889
  0
LINE
  5
555
100
AcDbEntity
  8
M0
 62
     7
100
AcDbLine
 10
122.635099
 20
467.331889
 11
122.635099
 21
468.831889
  0
LINE
  5
556
100
AcDbEntity
  8
M0
 62
     7
100
AcDbLine
 10
115.135099
 20
467.331889
 11
115.135099
 21
468.831889
  0
LINE
  5
557
100
AcDbEntity
  8
M0
 62
     7
100
AcDbLine
 10
122.635099
 20
467.331889
 11
126.885099
 21
467.331889
  0
ARC
  5
558
100
AcDbEntity
  8
M0
 62
     7
100
AcDbCircle
 10
126.885099
 20
464.331889
 40
3.0
100
AcDbArc
 50
0.0
 51
90.0
  0
ARC
  5
559
100
AcDbEntity
  8
M0
 62
     7
100
AcDbCircle
 10
110.885099
 20
464.331889
 40
3.0
100
AcDbArc
 50
90.0
 51
179.999982
  0
LINE
  5
55A
100
AcDbEntity
  8
M0
 62
     7
100
AcDbLine
 10
121.135099
 20
470.431595
 11
116.635101
 21
470.431595
  0
LINE
  5
55B
100
AcDbEntity
  8
M0
  6
DASHDOT
 62
     7
100
AcDbLine
 10
118.885099
 20
442.331889
 11
118.885099
 21
476.03184
  0
LINE
  5
55C
100
AcDbEntity
  8
M0
 62
     7
100
AcDbLine
 10
122.635099
 20
468.7314
 11
115.135101
 21
468.7314
  0
LINE
  5
55D
100
AcDbEntity
  8
M0
 62
     7
100
AcDbLine
 10
121.135099
 20
470.431839
 11
121.135099
 21
468.731644
  0
LINE
  5
55E
100
AcDbEntity
  8
M0
 62
     7
100
AcDbLine
 10
116.635101
 20
470.431839
 11
116.635101
 21
468.731644
  0
LINE
  5
55F
100
AcDbEntity
  8
M0
 62
     7
100
AcDbLine
 10
122.635099
 20
469.031596
 11
122.635099
 21
468.831644
  0
LINE
  5
560
100
AcDbEntity
  8
M0
 62
     7
100
AcDbLine
 10
115.135099
 20
469.03184
 11
115.135099
 21
468.831644
  0
LINE
  5
561
100
AcDbEntity
  8
M0
 62
     7
100
AcDbLine
 10
121.135099
 20
469.7314
 11
122.635099
 21
469.7314
  0
LINE
  5
562
100
AcDbEntity
  8
M0
 62
     7
100
AcDbLine
 10
115.135101
 20
469.7314
 11
116.635101
 21
469.7314
  0
LINE
  5
563
100
AcDbEntity
  8
M0
 62
     7
100
AcDbLine
 10
148.885135
 20
537.63143
 11
138.385135
 21
537.631437
  0
LINE
  5
564
100
AcDbEntity
  8
M0
 62
     7
100
AcDbLine
 10
88.88515
 20
537.631468
 11
88.885142
 21
525.23181
  0
LINE
  5
565
100
AcDbEntity
  8
M0
 62
     7
100
AcDbLine
 10
95.885155
 20
521.631464
 11
108.885109
 21
521.631455
  0
LINE
  5
566
100
AcDbEntity
  8
M0
 62
     7
100
AcDbLine
 10
148.885111
 20
525.231528
 11
148.885135
 21
537.631186
  0
LINE
  5
567
100
AcDbEntity
  8
M0
  6
DASHDOT
 62
     7
100
AcDbLine
 10
118.885138
 20
542.631449
 11
118.885121
 21
516.631449
  0
LINE
  5
568
100
AcDbEntity
  8
M0
 62
     7
100
AcDbLine
 10
95.885156
 20
522.631708
 11
97.885125
 21
522.631951
  0
LINE
  5
569
100
AcDbEntity
  8
M0
 62
     7
100
AcDbLine
 10
112.885111
 20
525.231795
 11
112.885135
 21
537.631453
  0
LINE
  5
56A
100
AcDbEntity
  8
M0
 62
     7
100
AcDbLine
 10
124.885111
 20
525.231787
 11
124.885135
 21
537.631201
  0
LINE
  5
56B
100
AcDbEntity
  8
M0
 62
     7
100
AcDbLine
 10
109.885111
 20
525.231797
 11
109.885135
 21
537.631455
  0
LINE
  5
56C
100
AcDbEntity
  8
M0
 62
     7
100
AcDbLine
 10
127.885111
 20
525.231785
 11
127.885135
 21
537.631199
  0
LINE
  5
56D
100
AcDbEntity
  8
M0
 62
     7
100
AcDbLine
 10
97.885125
 20
522.631462
 11
97.885135
 21
537.631462
  0
LINE
  5
56E
100
AcDbEntity
  8
M0
 62
     7
100
AcDbLine
 10
139.885125
 20
522.631436
 11
139.885135
 21
537.631436
  0
LINE
  5
56F
100
AcDbEntity
  8
M0
 62
     7
100
AcDbLine
 10
94.885127
 20
525.231806
 11
94.88515
 21
537.631464
  0
LINE
  5
570
100
AcDbEntity
  8
M0
 62
     7
100
AcDbLine
 10
142.885111
 20
525.231532
 11
142.885135
 21
537.63119
  0
LINE
  5
571
100
AcDbEntity
  8
M0
 62
     7
100
AcDbLine
 10
139.88511
 20
522.63168
 11
141.88514
 21
522.631679
  0
LINE
  5
572
100
AcDbEntity
  8
M0
 62
     7
100
AcDbLine
 10
99.385135
 20
537.631461
 11
99.385133
 21
535.631461
  0
LINE
  5
573
100
AcDbEntity
  8
M0
 62
     7
100
AcDbLine
 10
108.385135
 20
537.631456
 11
108.385133
 21
535.631456
  0
LINE
  5
574
100
AcDbEntity
  8
M0
 62
     7
100
AcDbLine
 10
114.385135
 20
537.631452
 11
114.385133
 21
535.631696
  0
LINE
  5
575
100
AcDbEntity
  8
M0
 62
     7
100
AcDbLine
 10
123.385135
 20
537.631446
 11
123.385133
 21
535.63169
  0
LINE
  5
576
100
AcDbEntity
  8
M0
 62
     7
100
AcDbLine
 10
129.385135
 20
537.631443
 11
129.385133
 21
535.631687
  0
LINE
  5
577
100
AcDbEntity
  8
M0
 62
     7
100
AcDbLine
 10
138.385135
 20
537.631437
 11
138.385133
 21
535.631681
  0
LINE
  5
578
100
AcDbEntity
  8
M0
 62
     7
100
AcDbLine
 10
108.385133
 20
535.631456
 11
108.135377
 21
535.631456
  0
LINE
  5
579
100
AcDbEntity
  8
M0
 62
     7
100
AcDbLine
 10
129.385133
 20
535.631443
 11
129.635133
 21
535.631687
  0
LINE
  5
57A
100
AcDbEntity
  8
M0
 62
     7
100
AcDbLine
 10
129.385135
 20
537.631443
 11
123.385135
 21
537.631446
  0
LINE
  5
57B
100
AcDbEntity
  8
M0
 62
     7
100
AcDbLine
 10
114.385135
 20
537.631452
 11
108.385135
 21
537.631456
  0
LINE
  5
57C
100
AcDbEntity
  8
M0
 62
     7
100
AcDbLine
 10
99.385135
 20
537.631461
 11
88.885135
 21
537.631468
  0
LINE
  5
57D
100
AcDbEntity
  8
M0
 62
     7
100
AcDbLine
 10
108.385128
 20
527.131456
 11
108.135372
 21
527.131456
  0
LINE
  5
57E
100
AcDbEntity
  8
M0
 62
     7
100
AcDbLine
 10
138.385128
 20
527.131437
 11
138.135128
 21
527.131437
  0
LINE
  5
57F
100
AcDbEntity
  8
M0
 62
     7
100
AcDbLine
 10
99.385127
 20
525.631461
 11
97.885127
 21
525.631462
  0
LINE
  5
580
100
AcDbEntity
  8
M0
 62
     7
100
AcDbLine
 10
109.885127
 20
525.631455
 11
108.385127
 21
525.631456
  0
LINE
  5
581
100
AcDbEntity
  8
M0
 62
     7
100
AcDbLine
 10
114.385127
 20
525.631452
 11
112.885127
 21
525.631453
  0
LINE
  5
582
100
AcDbEntity
  8
M0
 62
     7
100
AcDbLine
 10
124.885127
 20
525.631445
 11
123.385127
 21
525.631446
  0
LINE
  5
583
100
AcDbEntity
  8
M0
 62
     7
100
AcDbLine
 10
129.385127
 20
525.631443
 11
127.885127
 21
525.631444
  0
LINE
  5
584
100
AcDbEntity
  8
M0
 62
     7
100
AcDbLine
 10
139.885127
 20
525.631436
 11
138.385127
 21
525.631437
  0
LINE
  5
585
100
AcDbEntity
  8
M0
 62
     7
100
AcDbLine
 10
138.385128
 20
527.131437
 11
138.385127
 21
525.631437
  0
LINE
  5
586
100
AcDbEntity
  8
M0
 62
     7
100
AcDbLine
 10
129.385128
 20
527.131443
 11
129.385127
 21
525.631443
  0
LINE
  5
587
100
AcDbEntity
  8
M0
 62
     7
100
AcDbLine
 10
123.385128
 20
527.13169
 11
123.385127
 21
525.631446
  0
LINE
  5
588
100
AcDbEntity
  8
M0
 62
     7
100
AcDbLine
 10
114.385128
 20
527.131696
 11
114.385127
 21
525.631452
  0
LINE
  5
589
100
AcDbEntity
  8
M0
 62
     7
100
AcDbLine
 10
108.385128
 20
527.131456
 11
108.385127
 21
525.631456
  0
LINE
  5
58A
100
AcDbEntity
  8
M0
 62
     7
100
AcDbLine
 10
99.385128
 20
527.131461
 11
99.385127
 21
525.631461
  0
LINE
  5
58B
100
AcDbEntity
  8
M0
 62
     7
100
AcDbLine
 10
138.135133
 20
535.631681
 11
138.385133
 21
535.631437
  0
LINE
  5
58C
100
AcDbEntity
  8
M0
 62
     7
100
AcDbLine
 10
129.635128
 20
527.131442
 11
129.385128
 21
527.131443
  0
LINE
  5
58D
100
AcDbEntity
  8
M0
 62
     7
100
AcDbLine
 10
114.385128
 20
527.140485
 11
123.385128
 21
527.131446
  0
LINE
  5
58E
100
AcDbEntity
  8
M0
 62
     7
100
AcDbLine
 10
114.385133
 20
535.640485
 11
123.385133
 21
535.631446
  0
LINE
  5
58F
100
AcDbEntity
  8
M0
 62
     7
100
AcDbLine
 10
99.635128
 20
527.131461
 11
99.385128
 21
527.131461
  0
LINE
  5
590
100
AcDbEntity
  8
M0
 62
     7
100
AcDbLine
 10
99.635133
 20
535.631461
 11
99.385133
 21
535.631461
  0
LINE
  5
591
100
AcDbEntity
  8
M0
 62
     7
100
AcDbLine
 10
129.635134
 20
536.631198
 11
129.635132
 21
533.131687
  0
LINE
  5
592
100
AcDbEntity
  8
M0
 62
     7
100
AcDbLine
 10
138.135126
 20
523.631437
 11
138.135129
 21
528.099699
  0
LINE
  5
593
100
AcDbEntity
  8
M0
 62
     7
100
AcDbLine
 10
138.135134
 20
536.631193
 11
129.635134
 21
536.631198
  0
LINE
  5
594
100
AcDbEntity
  8
M0
 62
     7
100
AcDbLine
 10
129.635126
 20
523.631198
 11
138.135126
 21
523.631193
  0
LINE
  5
595
100
AcDbEntity
  8
M0
 62
     7
100
AcDbLine
 10
129.635126
 20
524.631198
 11
138.135126
 21
524.631193
  0
LINE
  5
596
100
AcDbEntity
  8
M0
 62
     7
100
AcDbLine
 10
131.385126
 20
523.631197
 11
131.385126
 21
524.631197
  0
LINE
  5
597
100
AcDbEntity
  8
M0
 62
     7
100
AcDbLine
 10
136.385126
 20
523.631194
 11
136.385126
 21
524.631194
  0
LINE
  5
598
100
AcDbEntity
  8
M0
 62
     7
100
AcDbLine
 10
138.135132
 20
533.131437
 11
138.135134
 21
536.631193
  0
LINE
  5
599
100
AcDbEntity
  8
M0
 62
     7
100
AcDbLine
 10
129.635129
 20
528.099948
 11
129.635126
 21
523.631442
  0
LINE
  5
59A
100
AcDbEntity
  8
M0
 62
     7
100
AcDbLine
 10
99.635134
 20
536.631217
 11
99.635132
 21
533.131705
  0
LINE
  5
59B
100
AcDbEntity
  8
M0
 62
     7
100
AcDbLine
 10
108.135126
 20
523.631456
 11
108.135129
 21
528.099718
  0
LINE
  5
59C
100
AcDbEntity
  8
M0
 62
     7
100
AcDbLine
 10
108.135134
 20
536.631212
 11
99.635134
 21
536.631217
  0
LINE
  5
59D
100
AcDbEntity
  8
M0
 62
     7
100
AcDbLine
 10
99.635126
 20
523.631217
 11
108.135126
 21
523.631212
  0
LINE
  5
59E
100
AcDbEntity
  8
M0
 62
     7
100
AcDbLine
 10
99.635126
 20
524.631217
 11
108.135126
 21
524.631212
  0
LINE
  5
59F
100
AcDbEntity
  8
M0
 62
     7
100
AcDbLine
 10
101.385126
 20
523.631216
 11
101.385126
 21
524.631216
  0
LINE
  5
5A0
100
AcDbEntity
  8
M0
 62
     7
100
AcDbLine
 10
106.385126
 20
523.631213
 11
106.385126
 21
524.631213
  0
LINE
  5
5A1
100
AcDbEntity
  8
M0
 62
     7
100
AcDbLine
 10
108.135132
 20
533.131456
 11
108.135134
 21
536.631212
  0
LINE
  5
5A2
100
AcDbEntity
  8
M0
 62
     7
100
AcDbLine
 10
99.635129
 20
528.099967
 11
99.635126
 21
523.631461
  0
LINE
  5
5A3
100
AcDbEntity
  8
M0
 62
     7
100
AcDbLine
 10
135.385133
 20
535.131439
 11
132.385377
 21
535.131441
  0
LINE
  5
5A4
100
AcDbEntity
  8
M0
 62
     7
100
AcDbLine
 10
128.135376
 20
533.131443
 11
128.135129
 21
528.131688
  0
LINE
  5
5A5
100
AcDbEntity
  8
M0
 62
     7
100
AcDbLine
 10
130.385127
 20
526.13193
 11
137.385127
 21
526.131682
  0
LINE
  5
5A6
100
AcDbEntity
  8
M0
 62
     7
100
AcDbLine
 10
139.635129
 20
528.131436
 11
139.635132
 21
533.131436
  0
LINE
  5
5A7
100
AcDbEntity
  8
M0
 62
     7
100
AcDbLine
 10
139.635132
 20
533.131436
 11
136.885132
 21
533.131438
  0
LINE
  5
5A8
100
AcDbEntity
  8
M0
 62
     7
100
AcDbLine
 10
130.385128
 20
527.131686
 11
130.385127
 21
526.132174
  0
LINE
  5
5A9
100
AcDbEntity
  8
M0
 62
     7
100
AcDbLine
 10
137.385128
 20
527.131682
 11
137.385127
 21
526.131926
  0
LINE
  5
5AA
100
AcDbEntity
  8
M0
 62
     7
100
AcDbLine
 10
129.385129
 20
528.131687
 11
128.135129
 21
528.131688
  0
LINE
  5
5AB
100
AcDbEntity
  8
M0
 62
     7
100
AcDbLine
 10
139.635129
 20
528.131436
 11
138.385129
 21
528.131437
  0
ARC
  5
5AC
100
AcDbEntity
  8
M0
 62
     7
100
AcDbCircle
 10
138.385128
 20
527.131437
 40
1.0
100
AcDbArc
 50
90.0
 51
179.985867
  0
ARC
  5
5AD
100
AcDbEntity
  8
M0
 62
     7
100
AcDbCircle
 10
129.385128
 20
527.131687
 40
1.0
100
AcDbArc
 50
359.999964
 51
450.0
  0
LINE
  5
5AE
100
AcDbEntity
  8
M0
 62
     7
100
AcDbLine
 10
132.385377
 20
534.631441
 11
132.385377
 21
535.131441
  0
LINE
  5
5AF
100
AcDbEntity
  8
M0
 62
     7
100
AcDbLine
 10
135.385133
 20
534.631439
 11
135.385133
 21
535.131439
  0
LINE
  5
5B0
100
AcDbEntity
  8
M0
 62
     7
100
AcDbLine
 10
130.885376
 20
533.131442
 11
128.135376
 21
533.131443
  0
LINE
  5
5B1
100
AcDbEntity
  8
M0
 62
     7
100
AcDbLine
 10
135.385132
 20
533.131439
 11
132.385376
 21
533.131441
  0
ARC
  5
5B2
100
AcDbEntity
  8
M0
 62
     7
100
AcDbCircle
 10
130.885377
 20
534.631442
 40
1.5
100
AcDbArc
 50
270.0
 51
359.999928
  0
ARC
  5
5B3
100
AcDbEntity
  8
M0
 62
     7
100
AcDbCircle
 10
136.885133
 20
534.631438
 40
1.5
100
AcDbArc
 50
179.999964
 51
269.999381
  0
LINE
  5
5B4
100
AcDbEntity
  8
M0
 62
     7
100
AcDbLine
 10
105.385133
 20
535.131458
 11
102.385377
 21
535.13146
  0
LINE
  5
5B5
100
AcDbEntity
  8
M0
 62
     7
100
AcDbLine
 10
98.135376
 20
533.131462
 11
98.135129
 21
528.131706
  0
LINE
  5
5B6
100
AcDbEntity
  8
M0
 62
     7
100
AcDbLine
 10
100.385127
 20
526.131949
 11
107.385127
 21
526.131701
  0
LINE
  5
5B7
100
AcDbEntity
  8
M0
 62
     7
100
AcDbLine
 10
109.635129
 20
528.131455
 11
109.635132
 21
533.131455
  0
LINE
  5
5B8
100
AcDbEntity
  8
M0
 62
     7
100
AcDbLine
 10
109.635132
 20
533.131455
 11
106.885132
 21
533.131457
  0
LINE
  5
5B9
100
AcDbEntity
  8
M0
 62
     7
100
AcDbLine
 10
100.385128
 20
527.131705
 11
100.385127
 21
526.132193
  0
LINE
  5
5BA
100
AcDbEntity
  8
M0
 62
     7
100
AcDbLine
 10
107.385128
 20
527.131701
 11
107.385127
 21
526.131945
  0
LINE
  5
5BB
100
AcDbEntity
  8
M0
 62
     7
100
AcDbLine
 10
99.385129
 20
528.131706
 11
98.135129
 21
528.131706
  0
LINE
  5
5BC
100
AcDbEntity
  8
M0
 62
     7
100
AcDbLine
 10
109.635129
 20
528.131455
 11
108.385129
 21
528.131456
  0
ARC
  5
5BD
100
AcDbEntity
  8
M0
 62
     7
100
AcDbCircle
 10
108.385128
 20
527.131456
 40
1.0
100
AcDbArc
 50
90.0
 51
179.985867
  0
ARC
  5
5BE
100
AcDbEntity
  8
M0
 62
     7
100
AcDbCircle
 10
99.385128
 20
527.131706
 40
1.0
100
AcDbArc
 50
359.999964
 51
449.99909
  0
LINE
  5
5BF
100
AcDbEntity
  8
M0
 62
     7
100
AcDbLine
 10
102.385377
 20
534.63146
 11
102.385377
 21
535.13146
  0
LINE
  5
5C0
100
AcDbEntity
  8
M0
 62
     7
100
AcDbLine
 10
105.385133
 20
534.631458
 11
105.385133
 21
535.131458
  0
LINE
  5
5C1
100
AcDbEntity
  8
M0
 62
     7
100
AcDbLine
 10
100.885376
 20
533.13146
 11
98.135376
 21
533.131462
  0
LINE
  5
5C2
100
AcDbEntity
  8
M0
 62
     7
100
AcDbLine
 10
105.385132
 20
533.131458
 11
102.385376
 21
533.13146
  0
ARC
  5
5C3
100
AcDbEntity
  8
M0
 62
     7
100
AcDbCircle
 10
100.885377
 20
534.63146
 40
1.5
100
AcDbArc
 50
270.0
 51
359.999928
  0
ARC
  5
5C4
100
AcDbEntity
  8
M0
 62
     7
100
AcDbCircle
 10
106.885133
 20
534.631457
 40
1.5
100
AcDbArc
 50
179.999964
 51
270.0
  0
LINE
  5
5C5
100
AcDbEntity
  8
M0
 62
     7
100
AcDbLine
 10
128.885109
 20
521.631443
 11
141.88514
 21
521.631435
  0
LINE
  5
5C6
100
AcDbEntity
  8
M0
100
AcDbLine
 10
95.88516
 20
521.331889
 11
108.885114
 21
521.331889
  0
LINE
  5
5C7
100
AcDbEntity
  8
M0
100
AcDbLine
 10
141.885145
 20
521.631693
 11
128.885114
 21
521.631693
  0
LINE
  5
5C8
100
AcDbEntity
  8
M0
  6
DASHDOT
100
AcDbLine
 10
118.885114
 20
516.332036
 11
118.885114
 21
526.632035
  0
LINE
  5
5C9
100
AcDbEntity
  8
M0
100
AcDbLine
 10
128.885114
 20
521.331889
 11
141.885145
 21
521.331889
  0
LINE
  5
5CA
100
AcDbEntity
  8
M0
100
AcDbLine
 10
108.885114
 20
521.631693
 11
95.88516
 21
521.631449
  0
CIRCLE
  5
5CB
100
AcDbEntity
  8
M0
 62
     5
100
AcDbCircle
 10
103.885129
 20
529.63122
 40
3.299995
  0
CIRCLE
  5
5CC
100
AcDbEntity
  8
M0
 62
     5
100
AcDbCircle
 10
133.885129
 20
529.63122
 40
3.299995
  0
CIRCLE
  5
5CD
100
AcDbEntity
  8
M0
 62
     5
100
AcDbCircle
 10
133.885145
 20
529.631205
 40
3.0
  0
LINE
  5
5CE
100
AcDbEntity
  8
M0
 62
     5
100
AcDbLine
 10
134.875089
 20
527.934138
 11
135.582197
 21
528.641245
  0
LINE
  5
5CF
100
AcDbEntity
  8
M0
 62
     5
100
AcDbLine
 10
135.582197
 20
528.641245
 11
134.592237
 21
529.63119
  0
LINE
  5
5D0
100
AcDbEntity
  8
M0
 62
     5
100
AcDbLine
 10
132.895185
 20
531.328242
 11
132.188093
 21
530.621149
  0
LINE
  5
5D1
100
AcDbEntity
  8
M0
 62
     5
100
AcDbLine
 10
132.188093
 20
530.621149
 11
133.178037
 21
529.631205
  0
LINE
  5
5D2
100
AcDbEntity
  8
M0
 62
     5
100
AcDbLine
 10
131.439924
 20
527.893092
 11
133.178037
 21
529.631205
  0
LINE
  5
5D3
100
AcDbEntity
  8
M0
 62
     5
100
AcDbLine
 10
132.147031
 20
527.185984
 11
133.885129
 21
528.924097
  0
LINE
  5
5D4
100
AcDbEntity
  8
M0
 62
     5
100
AcDbLine
 10
136.330335
 20
531.369288
 11
134.592237
 21
529.63119
  0
LINE
  5
5D5
100
AcDbEntity
  8
M0
 62
     5
100
AcDbLine
 10
135.623228
 20
532.076395
 11
133.885145
 21
530.338297
  0
LINE
  5
5D6
100
AcDbEntity
  8
M0
 62
     5
100
AcDbLine
 10
134.875089
 20
527.934138
 11
133.885129
 21
528.924097
  0
LINE
  5
5D7
100
AcDbEntity
  8
M0
 62
     5
100
AcDbLine
 10
132.895185
 20
531.328242
 11
133.885145
 21
530.338297
  0
LINE
  5
5D8
100
AcDbEntity
  8
M0
  6
DASHDOT
 62
     5
100
AcDbLine
 10
128.684995
 20
529.631205
 11
139.085279
 21
529.63119
  0
LINE
  5
5D9
100
AcDbEntity
  8
M0
  6
DASHDOT
 62
     5
100
AcDbLine
 10
133.885129
 20
524.431056
 11
133.885145
 21
534.831339
  0
CIRCLE
  5
5DA
100
AcDbEntity
  8
M0
 62
     5
100
AcDbCircle
 10
103.885145
 20
529.631205
 40
3.0
  0
LINE
  5
5DB
100
AcDbEntity
  8
M0
 62
     5
100
AcDbLine
 10
104.875089
 20
527.934138
 11
105.582197
 21
528.641245
  0
LINE
  5
5DC
100
AcDbEntity
  8
M0
 62
     5
100
AcDbLine
 10
105.582197
 20
528.641245
 11
104.592237
 21
529.63119
  0
LINE
  5
5DD
100
AcDbEntity
  8
M0
 62
     5
100
AcDbLine
 10
102.895185
 20
531.328242
 11
102.188093
 21
530.621149
  0
LINE
  5
5DE
100
AcDbEntity
  8
M0
 62
     5
100
AcDbLine
 10
102.188093
 20
530.621149
 11
103.178037
 21
529.631205
  0
LINE
  5
5DF
100
AcDbEntity
  8
M0
 62
     5
100
AcDbLine
 10
101.439924
 20
527.893092
 11
103.178037
 21
529.631205
  0
LINE
  5
5E0
100
AcDbEntity
  8
M0
 62
     5
100
AcDbLine
 10
102.147031
 20
527.185984
 11
103.885129
 21
528.924097
  0
LINE
  5
5E1
100
AcDbEntity
  8
M0
 62
     5
100
AcDbLine
 10
106.330335
 20
531.369288
 11
104.592237
 21
529.63119
  0
LINE
  5
5E2
100
AcDbEntity
  8
M0
 62
     5
100
AcDbLine
 10
105.623228
 20
532.076395
 11
103.885145
 21
530.338297
  0
LINE
  5
5E3
100
AcDbEntity
  8
M0
 62
     5
100
AcDbLine
 10
104.875089
 20
527.934138
 11
103.885129
 21
528.924097
  0
LINE
  5
5E4
100
AcDbEntity
  8
M0
 62
     5
100
AcDbLine
 10
102.895185
 20
531.328242
 11
103.885145
 21
530.338297
  0
LINE
  5
5E5
100
AcDbEntity
  8
M0
  6
DASHDOT
 62
     5
100
AcDbLine
 10
98.684995
 20
529.631205
 11
109.085279
 21
529.63119
  0
LINE
  5
5E6
100
AcDbEntity
  8
M0
  6
DASHDOT
 62
     5
100
AcDbLine
 10
103.885129
 20
524.431056
 11
103.885145
 21
534.831339
  0
LINE
  5
5E7
100
AcDbEntity
  8
M0
 62
     4
100
AcDbLine
 10
226.934065
 20
408.232233
 11
293.233869
 21
408.232233
  0
LINE
  5
5E8
100
AcDbEntity
  8
M0
 62
     4
100
AcDbLine
 10
293.233869
 20
506.23176
 11
226.934065
 21
506.231547
  0
LINE
  5
5E9
100
AcDbEntity
  8
M0
 62
     4
100
AcDbLine
 10
293.233869
 20
408.232233
 11
293.233869
 21
429.732035
  0
LINE
  5
5EA
100
AcDbEntity
  8
M0
 62
     4
100
AcDbLine
 10
226.934065
 20
413.732233
 11
293.233869
 21
413.732233
  0
LINE
  5
5EB
100
AcDbEntity
  8
M0
 62
     4
100
AcDbLine
 10
226.934065
 20
500.731547
 11
293.233869
 21
500.731547
  0
LINE
  5
5EC
100
AcDbEntity
  8
M0
 62
     4
100
AcDbLine
 10
284.634016
 20
432.232233
 11
284.634016
 21
435.309779
  0
LINE
  5
5ED
100
AcDbEntity
  8
M0
 62
     4
100
AcDbLine
 10
285.634016
 20
431.232233
 11
287.134016
 21
431.232233
  0
LINE
  5
5EE
100
AcDbEntity
  8
M0
 62
     4
100
AcDbLine
 10
285.634016
 20
483.232005
 11
287.134016
 21
483.232005
  0
ARC
  5
5EF
100
AcDbEntity
  8
M0
 62
     4
100
AcDbCircle
 10
285.634016
 20
482.232005
 40
1.0
100
AcDbArc
 50
90.0
 51
180.0
  0
ARC
  5
5F0
100
AcDbEntity
  8
M0
 62
     4
100
AcDbCircle
 10
285.634016
 20
432.232233
 40
1.0
100
AcDbArc
 50
180.0
 51
269.999126
  0
LINE
  5
5F1
100
AcDbEntity
  8
M0
 62
     4
100
AcDbLine
 10
284.634016
 20
479.153391
 11
284.634016
 21
482.232005
  0
LINE
  5
5F2
100
AcDbEntity
  8
M0
 62
     4
100
AcDbLine
 10
284.634016
 20
413.732233
 11
284.634016
 21
408.232233
  0
LINE
  5
5F3
100
AcDbEntity
  8
M0
 62
     4
100
AcDbLine
 10
284.634016
 20
506.23176
 11
284.634016
 21
500.73176
  0
LINE
  5
5F4
100
AcDbEntity
  8
M0
 62
     4
100
AcDbLine
 10
293.233869
 20
484.732035
 11
293.233869
 21
506.731821
  0
ARC
  5
5F5
100
AcDbEntity
  8
M0
 62
     4
100
AcDbCircle
 10
279.634016
 20
435.309794
 40
5.0
100
AcDbArc
 50
0.0
 51
89.101917
  0
ARC
  5
5F6
100
AcDbEntity
  8
M0
 62
     4
100
AcDbCircle
 10
279.634016
 20
479.153635
 40
5.0
100
AcDbArc
 50
270.89808
 51
360.0
  0
LINE
  5
5F7
100
AcDbEntity
  8
M0
  6
DASHDOT
 62
     4
100
AcDbLine
 10
218.655866
 20
457.232035
 11
433.178472
 21
457.232035
  0
LINE
  5
5F8
100
AcDbEntity
  8
M0
 62
     4
100
AcDbLine
 10
224.934065
 20
504.231547
 11
224.934065
 21
410.232233
  0
ARC
  5
5F9
100
AcDbEntity
  8
M0
 62
     4
100
AcDbCircle
 10
226.934065
 20
504.231547
 40
2.0
100
AcDbArc
 50
90.0
 51
180.0
  0
ARC
  5
5FA
100
AcDbEntity
  8
M0
 62
     4
100
AcDbCircle
 10
226.934065
 20
410.232233
 40
2.0
100
AcDbArc
 50
180.0
 51
269.999563
  0
ARC
  5
5FB
100
AcDbEntity
  8
M0
 62
     4
100
AcDbCircle
 10
226.934065
 20
415.732233
 40
2.0
100
AcDbArc
 50
180.0
 51
269.999563
  0
ARC
  5
5FC
100
AcDbEntity
  8
M0
 62
     4
100
AcDbCircle
 10
226.934065
 20
498.731547
 40
2.0
100
AcDbArc
 50
90.0
 51
180.0
  0
LINE
  5
5FD
100
AcDbEntity
  8
M0
100
AcDbLine
 10
292.933882
 20
525.713816
 11
296.133833
 21
525.713816
  0
LINE
  5
5FE
100
AcDbEntity
  8
M0
100
AcDbLine
 10
292.933882
 20
525.713816
 11
292.933882
 21
506.731883
  0
LINE
  5
5FF
100
AcDbEntity
  8
M0
100
AcDbLine
 10
296.133833
 20
525.713816
 11
296.133833
 21
506.731883
  0
LINE
  5
600
100
AcDbEntity
  8
M0
100
AcDbLine
 10
292.933974
 20
523.250338
 11
292.933983
 21
510.250338
  0
LINE
  5
601
100
AcDbEntity
  8
M0
 62
     4
100
AcDbLine
 10
259.134016
 20
442.600642
 11
259.134016
 21
471.862864
  0
LINE
  5
602
100
AcDbEntity
  8
M0
100
AcDbLine
 10
259.134016
 20
472.732172
 11
259.134016
 21
441.732172
  0
LINE
  5
603
100
AcDbEntity
  8
M0
100
AcDbLine
 10
261.134016
 20
439.732172
 11
279.134016
 21
439.732172
  0
ARC
  5
604
100
AcDbEntity
  8
M0
100
AcDbCircle
 10
261.134016
 20
441.732172
 40
2.0
100
AcDbArc
 50
180.0
 51
269.999563
  0
LINE
  5
605
100
AcDbEntity
  8
M0
100
AcDbLine
 10
265.633772
 20
460.982172
 11
265.633772
 21
453.482172
  0
LINE
  5
606
100
AcDbEntity
  8
M0
100
AcDbLine
 10
259.134016
 20
453.482172
 11
265.633772
 21
453.482172
  0
LINE
  5
607
100
AcDbEntity
  8
M0
100
AcDbLine
 10
264.133772
 20
454.482172
 11
265.633772
 21
454.482172
  0
LINE
  5
608
100
AcDbEntity
  8
M0
100
AcDbLine
 10
264.133772
 20
454.482172
 11
264.133772
 21
453.482172
  0
LINE
  5
609
100
AcDbEntity
  8
M0
  6
DASHED
100
AcDbLine
 10
267.434019
 20
439.732035
 11
267.434019
 21
451.381822
  0
LINE
  5
60A
100
AcDbEntity
  8
M0
  6
DASHED
100
AcDbLine
 10
271.434019
 20
439.732035
 11
271.434019
 21
451.381822
  0
LINE
  5
60B
100
AcDbEntity
  8
M0
100
AcDbLine
 10
261.134016
 20
474.732172
 11
279.134016
 21
474.732172
  0
ARC
  5
60C
100
AcDbEntity
  8
M0
100
AcDbCircle
 10
261.134016
 20
472.732172
 40
2.0
100
AcDbArc
 50
90.0
 51
180.0
  0
LINE
  5
60D
100
AcDbEntity
  8
M0
100
AcDbLine
 10
259.134016
 20
460.982172
 11
265.633772
 21
460.982172
  0
LINE
  5
60E
100
AcDbEntity
  8
M0
100
AcDbLine
 10
264.133772
 20
460.982172
 11
264.133772
 21
459.982172
  0
LINE
  5
60F
100
AcDbEntity
  8
M0
100
AcDbLine
 10
264.133772
 20
459.982172
 11
265.633772
 21
459.982172
  0
LINE
  5
610
100
AcDbEntity
  8
M0
100
AcDbLine
 10
279.134016
 20
474.732172
 11
279.134016
 21
472.232172
  0
LINE
  5
611
100
AcDbEntity
  8
M0
100
AcDbLine
 10
279.134016
 20
472.232172
 11
283.134016
 21
472.232172
  0
LINE
  5
612
100
AcDbEntity
  8
M0
100
AcDbLine
 10
279.134016
 20
473.714106
 11
283.134016
 21
473.714106
  0
LINE
  5
613
100
AcDbEntity
  8
M0
100
AcDbLine
 10
283.134016
 20
474.732172
 11
283.134016
 21
472.232172
  0
ARC
  5
614
100
AcDbEntity
  8
M0
100
AcDbCircle
 10
283.134016
 20
478.732172
 40
4.0
100
AcDbArc
 50
269.999781
 51
360.0
  0
LINE
  5
615
100
AcDbEntity
  8
M0
100
AcDbLine
 10
287.134016
 20
482.732172
 11
287.134016
 21
478.732172
  0
ARC
  5
616
100
AcDbEntity
  8
M0
100
AcDbCircle
 10
289.134016
 20
482.732172
 40
2.0
100
AcDbArc
 50
90.0
 51
180.0
  0
LINE
  5
617
100
AcDbEntity
  8
M0
100
AcDbLine
 10
289.134016
 20
484.732172
 11
300.134016
 21
484.732172
  0
LINE
  5
618
100
AcDbEntity
  8
M0
100
AcDbLine
 10
301.134016
 20
483.732172
 11
309.134016
 21
483.732172
  0
ARC
  5
619
100
AcDbEntity
  8
M0
100
AcDbCircle
 10
301.134016
 20
484.732172
 40
1.0
100
AcDbArc
 50
180.0
 51
269.999126
  0
LINE
  5
61A
100
AcDbEntity
  8
M0
100
AcDbLine
 10
309.134016
 20
492.232172
 11
309.134016
 21
483.732172
  0
LINE
  5
61B
100
AcDbEntity
  8
M0
100
AcDbLine
 10
309.134016
 20
492.232172
 11
312.134016
 21
494.732172
  0
LINE
  5
61C
100
AcDbEntity
  8
M0
100
AcDbLine
 10
312.133772
 20
494.732172
 11
325.134016
 21
494.732172
  0
LINE
  5
61D
100
AcDbEntity
  8
M0
100
AcDbLine
 10
279.134016
 20
442.232172
 11
279.134016
 21
439.732172
  0
LINE
  5
61E
100
AcDbEntity
  8
M0
100
AcDbLine
 10
279.134016
 20
442.232172
 11
283.134016
 21
442.232172
  0
LINE
  5
61F
100
AcDbEntity
  8
M0
100
AcDbLine
 10
279.133772
 20
440.750239
 11
283.133772
 21
440.750239
  0
LINE
  5
620
100
AcDbEntity
  8
M0
100
AcDbLine
 10
283.134016
 20
442.232172
 11
283.134016
 21
439.732172
  0
ARC
  5
621
100
AcDbEntity
  8
M0
100
AcDbCircle
 10
283.134016
 20
435.732172
 40
4.0
100
AcDbArc
 50
0.0
 51
90.0
  0
LINE
  5
622
100
AcDbEntity
  8
M0
100
AcDbLine
 10
287.134016
 20
435.732172
 11
287.134016
 21
431.732172
  0
ARC
  5
623
100
AcDbEntity
  8
M0
100
AcDbCircle
 10
289.134016
 20
431.732172
 40
2.0
100
AcDbArc
 50
180.0
 51
269.999563
  0
LINE
  5
624
100
AcDbEntity
  8
M0
100
AcDbLine
 10
289.134016
 20
429.732172
 11
300.133772
 21
429.732172
  0
ARC
  5
625
100
AcDbEntity
  8
M0
100
AcDbCircle
 10
301.133772
 20
429.732172
 40
1.0
100
AcDbArc
 50
90.0
 51
180.0
  0
LINE
  5
626
100
AcDbEntity
  8
M0
  6
DASHED
100
AcDbLine
 10
295.933683
 20
429.731989
 11
295.933683
 21
440.328181
  0
LINE
  5
627
100
AcDbEntity
  8
M0
  6
DASHED
100
AcDbLine
 10
299.933683
 20
440.328181
 11
299.933683
 21
429.731989
  0
LINE
  5
628
100
AcDbEntity
  8
M0
100
AcDbLine
 10
301.133772
 20
430.732172
 11
309.133772
 21
430.732172
  0
LINE
  5
629
100
AcDbEntity
  8
M0
100
AcDbLine
 10
309.133772
 20
422.232172
 11
309.133772
 21
430.732172
  0
LINE
  5
62A
100
AcDbEntity
  8
M0
100
AcDbLine
 10
309.133772
 20
422.232172
 11
312.133772
 21
419.732172
  0
LINE
  5
62B
100
AcDbEntity
  8
M0
100
AcDbLine
 10
312.133528
 20
419.732172
 11
325.134016
 21
419.732172
  0
LINE
  5
62C
100
AcDbEntity
  8
M0
100
AcDbLine
 10
289.134016
 20
407.732172
 11
325.134016
 21
407.732172
  0
LINE
  5
62D
100
AcDbEntity
  8
M0
100
AcDbLine
 10
325.134016
 20
407.732172
 11
325.134016
 21
438.732798
  0
LINE
  5
62E
100
AcDbEntity
  8
M0
  6
DASHDOT
100
AcDbLine
 10
319.053938
 20
436.982172
 11
326.866926
 21
436.982172
  0
LINE
  5
62F
100
AcDbEntity
  8
M0
100
AcDbLine
 10
322.634016
 20
439.482172
 11
325.134016
 21
439.482172
  0
LINE
  5
630
100
AcDbEntity
  8
M0
100
AcDbLine
 10
322.634016
 20
434.482172
 11
325.134016
 21
434.482172
  0
ARC
  5
631
100
AcDbEntity
  8
M0
100
AcDbCircle
 10
322.634016
 20
436.982172
 40
2.5
100
AcDbArc
 50
90.0
 51
269.99965
  0
LINE
  5
632
100
AcDbEntity
  8
M0
100
AcDbLine
 10
309.634016
 20
453.232172
 11
309.634016
 21
455.232172
  0
LINE
  5
633
100
AcDbEntity
  8
M0
100
AcDbLine
 10
311.634016
 20
451.232172
 11
325.134016
 21
451.232172
  0
LINE
  5
634
100
AcDbEntity
  8
M0
100
AcDbLine
 10
309.901838
 20
452.232172
 11
322.134016
 21
452.232172
  0
ARC
  5
635
100
AcDbEntity
  8
M0
100
AcDbCircle
 10
322.134016
 20
451.232172
 40
1.0
100
AcDbArc
 50
0.0
 51
90.0
  0
ARC
  5
636
100
AcDbEntity
  8
M0
100
AcDbCircle
 10
311.634016
 20
453.232172
 40
2.0
100
AcDbArc
 50
180.0
 51
269.999563
  0
LINE
  5
637
100
AcDbEntity
  8
M0
100
AcDbLine
 10
325.134016
 20
424.233622
 11
325.833967
 21
424.233622
  0
LINE
  5
638
100
AcDbEntity
  8
M0
100
AcDbLine
 10
325.134016
 20
430.233622
 11
325.833967
 21
430.233622
  0
LINE
  5
639
100
AcDbEntity
  8
M0
100
AcDbLine
 10
325.833967
 20
430.233622
 11
325.833967
 21
424.233622
  0
LINE
  5
63A
100
AcDbEntity
  8
M0
100
AcDbLine
 10
325.134016
 20
439.482172
 11
325.134016
 21
451.232172
  0
LINE
  5
63B
100
AcDbEntity
  8
M0
100
AcDbLine
 10
320.849104
 20
438.732798
 11
325.134016
 21
438.732798
  0
LINE
  5
63C
100
AcDbEntity
  8
M0
100
AcDbLine
 10
377.933912
 20
395.232035
 11
361.933912
 21
395.232035
  0
LINE
  5
63D
100
AcDbEntity
  8
M0
100
AcDbLine
 10
360.933912
 20
396.273707
 11
360.933912
 21
408.232035
  0
LINE
  5
63E
100
AcDbEntity
  8
M0
100
AcDbLine
 10
361.933912
 20
395.232035
 11
361.933912
 21
407.232035
  0
ARC
  5
63F
100
AcDbEntity
  8
M0
100
AcDbCircle
 10
337.633909
 20
452.232035
 40
2.0
100
AcDbArc
 50
-90.000437
 51
0.0
  0
LINE
  5
640
100
AcDbEntity
  8
M0
100
AcDbLine
 10
359.933912
 20
409.232035
 11
325.133909
 21
409.232035
  0
LINE
  5
641
100
AcDbEntity
  8
M0
100
AcDbLine
 10
349.933912
 20
407.732035
 11
325.133909
 21
407.732035
  0
LINE
  5
642
100
AcDbEntity
  8
M0
100
AcDbLine
 10
349.933912
 20
407.732035
 11
361.933912
 21
395.232035
  0
ARC
  5
643
100
AcDbEntity
  8
M0
100
AcDbCircle
 10
359.933912
 20
408.232035
 40
1.0
100
AcDbArc
 50
0.0
 51
90.0
  0
ARC
  5
644
100
AcDbEntity
  8
M0
100
AcDbCircle
 10
359.933912
 20
407.232035
 40
2.0
100
AcDbArc
 50
0.0
 51
90.0
  0
LINE
  5
645
100
AcDbEntity
  8
M0
100
AcDbLine
 10
339.633909
 20
457.232035
 11
339.633909
 21
452.232035
  0
LINE
  5
646
100
AcDbEntity
  8
M0
100
AcDbLine
 10
325.133909
 20
450.232035
 11
337.633909
 21
450.232035
  0
LINE
  5
647
100
AcDbEntity
  8
M0
100
AcDbLine
 10
325.133909
 20
407.732035
 11
325.133909
 21
450.232035
  0
LINE
  5
648
100
AcDbEntity
  8
M0
100
AcDbLine
 10
322.634016
 20
466.731928
 11
325.134016
 21
471.232172
  0
LINE
  5
649
100
AcDbEntity
  8
M0
100
AcDbLine
 10
325.134016
 20
506.732172
 11
289.134016
 21
506.731928
  0
LINE
  5
64A
100
AcDbEntity
  8
M0
  6
DASHDOT
100
AcDbLine
 10
317.42259
 20
477.482172
 11
326.830793
 21
477.482172
  0
LINE
  5
64B
100
AcDbEntity
  8
M0
100
AcDbLine
 10
322.634016
 20
479.982172
 11
325.134016
 21
479.982172
  0
LINE
  5
64C
100
AcDbEntity
  8
M0
100
AcDbLine
 10
322.634016
 20
474.982172
 11
325.134016
 21
474.982172
  0
ARC
  5
64D
100
AcDbEntity
  8
M0
100
AcDbCircle
 10
322.634016
 20
477.482172
 40
2.5
100
AcDbArc
 50
90.0
 51
269.99965
  0
LINE
  5
64E
100
AcDbEntity
  8
M0
100
AcDbLine
 10
311.634016
 20
463.232172
 11
322.634016
 21
463.232172
  0
LINE
  5
64F
100
AcDbEntity
  8
M0
100
AcDbLine
 10
309.901838
 20
462.232172
 11
319.655989
 21
462.232172
  0
LINE
  5
650
100
AcDbEntity
  8
M0
100
AcDbLine
 10
322.634016
 20
466.731928
 11
322.634016
 21
463.231928
  0
ARC
  5
651
100
AcDbEntity
  8
M0
100
AcDbCircle
 10
319.634016
 20
463.231928
 40
1.0
100
AcDbArc
 50
269.999126
 51
360.0
  0
LINE
  5
652
100
AcDbEntity
  8
M0
100
AcDbLine
 10
310.634016
 20
458.232172
 11
310.634016
 21
456.232172
  0
LINE
  5
653
100
AcDbEntity
  8
M0
100
AcDbLine
 10
309.634016
 20
459.232172
 11
310.634016
 21
458.232172
  0
LINE
  5
654
100
AcDbEntity
  8
M0
100
AcDbLine
 10
309.634016
 20
455.232172
 11
310.634016
 21
456.232172
  0
LINE
  5
655
100
AcDbEntity
  8
M0
100
AcDbLine
 10
309.634016
 20
459.232172
 11
309.634016
 21
461.232172
  0
LINE
  5
656
100
AcDbEntity
  8
M0
100
AcDbLine
 10
325.134016
 20
471.232172
 11
325.134016
 21
474.982172
  0
ARC
  5
657
100
AcDbEntity
  8
M0
100
AcDbCircle
 10
311.634016
 20
461.232172
 40
2.0
100
AcDbArc
 50
90.0
 51
180.0
  0
LINE
  5
658
100
AcDbEntity
  8
M0
100
AcDbLine
 10
325.833967
 20
484.230708
 11
325.833967
 21
490.230708
  0
LINE
  5
659
100
AcDbEntity
  8
M0
100
AcDbLine
 10
325.134016
 20
490.230708
 11
325.833967
 21
490.230708
  0
LINE
  5
65A
100
AcDbEntity
  8
M0
100
AcDbLine
 10
325.134016
 20
484.230708
 11
325.833967
 21
484.230708
  0
LINE
  5
65B
100
AcDbEntity
  8
M0
100
AcDbLine
 10
325.134016
 20
476.434077
 11
325.134016
 21
506.732172
  0
LINE
  5
65C
100
AcDbEntity
  8
M0
100
AcDbLine
 10
320.36424
 20
476.434077
 11
325.134016
 21
476.434077
  0
LINE
  5
65D
100
AcDbEntity
  8
M0
100
AcDbLine
 10
377.933912
 20
519.232035
 11
361.933912
 21
519.232035
  0
LINE
  5
65E
100
AcDbEntity
  8
M0
100
AcDbLine
 10
360.933912
 20
518.190363
 11
360.933912
 21
506.232035
  0
LINE
  5
65F
100
AcDbEntity
  8
M0
100
AcDbLine
 10
361.933912
 20
519.232035
 11
361.933912
 21
507.232035
  0
ARC
  5
660
100
AcDbEntity
  8
M0
100
AcDbCircle
 10
337.633909
 20
462.232035
 40
2.0
100
AcDbArc
 50
0.0
 51
90.0
  0
LINE
  5
661
100
AcDbEntity
  8
M0
100
AcDbLine
 10
359.933912
 20
505.232035
 11
325.133909
 21
505.232035
  0
LINE
  5
662
100
AcDbEntity
  8
M0
100
AcDbLine
 10
349.933912
 20
506.732035
 11
325.133909
 21
506.732035
  0
LINE
  5
663
100
AcDbEntity
  8
M0
100
AcDbLine
 10
349.933912
 20
506.732035
 11
361.933912
 21
519.232035
  0
ARC
  5
664
100
AcDbEntity
  8
M0
100
AcDbCircle
 10
359.933912
 20
506.232035
 40
1.0
100
AcDbArc
 50
269.999126
 51
360.0
  0
ARC
  5
665
100
AcDbEntity
  8
M0
100
AcDbCircle
 10
359.933912
 20
507.232035
 40
2.0
100
AcDbArc
 50
269.999563
 51
360.0
  0
LINE
  5
666
100
AcDbEntity
  8
M0
100
AcDbLine
 10
339.633909
 20
457.232035
 11
339.633909
 21
462.232035
  0
LINE
  5
667
100
AcDbEntity
  8
M0
100
AcDbLine
 10
323.133909
 20
464.232035
 11
337.633909
 21
464.232035
  0
LINE
  5
668
100
AcDbEntity
  8
M0
100
AcDbLine
 10
323.133909
 20
466.232035
 11
325.133909
 21
470.732035
  0
LINE
  5
669
100
AcDbEntity
  8
M0
100
AcDbLine
 10
325.133909
 20
506.732035
 11
325.133909
 21
470.732035
  0
LINE
  5
66A
100
AcDbEntity
  8
M0
100
AcDbLine
 10
323.133909
 20
464.232035
 11
323.133909
 21
466.232035
  0
LINE
  5
66B
100
AcDbEntity
  8
M0
  6
DASHED
100
AcDbLine
 10
331.933882
 20
505.232127
 11
331.933882
 21
490.361033
  0
LINE
  5
66C
100
AcDbEntity
  8
M0
  6
DASHED
100
AcDbLine
 10
334.933912
 20
490.361079
 11
334.933912
 21
506.73202
  0
ARC
  5
66D
100
AcDbEntity
  8
M0
100
AcDbCircle
 10
289.134016
 20
504.731928
 40
2.0
100
AcDbArc
 50
90.0
 51
131.412097
  0
LINE
  5
66E
100
AcDbEntity
  8
M0
100
AcDbLine
 10
296.134016
 20
506.731928
 11
296.134016
 21
498.232172
  0
LINE
  5
66F
100
AcDbEntity
  8
M0
100
AcDbLine
 10
293.233869
 20
498.232172
 11
296.134016
 21
498.232172
  0
LINE
  5
670
100
AcDbEntity
  8
M0
100
AcDbLine
 10
293.233869
 20
416.232172
 11
295.633772
 21
416.232172
  0
LINE
  5
671
100
AcDbEntity
  8
M0
100
AcDbLine
 10
295.633772
 20
407.732417
 11
295.633772
 21
416.232172
  0
ARC
  5
672
100
AcDbEntity
  8
M0
100
AcDbCircle
 10
289.134016
 20
409.732172
 40
2.0
100
AcDbArc
 50
228.581695
 51
269.999563
  0
LINE
  5
673
100
AcDbEntity
  8
M0
100
AcDbLine
 10
377.933912
 20
457.232035
 11
377.933912
 21
395.232035
  0
LINE
  5
674
100
AcDbEntity
  8
M0
100
AcDbLine
 10
377.933912
 20
457.232035
 11
377.933912
 21
519.232035
  0
LINE
  5
675
100
AcDbEntity
  8
M0
100
AcDbLine
 10
377.933912
 20
500.232035
 11
378.433912
 21
500.232035
  0
LINE
  5
676
100
AcDbEntity
  8
M0
100
AcDbLine
 10
377.933912
 20
506.232035
 11
378.433912
 21
506.232035
  0
LINE
  5
677
100
AcDbEntity
  8
M0
100
AcDbLine
 10
377.933912
 20
518.232035
 11
378.433912
 21
518.232035
  0
LINE
  5
678
100
AcDbEntity
  8
M0
100
AcDbLine
 10
377.933912
 20
490.232035
 11
378.433912
 21
490.232035
  0
LINE
  5
679
100
AcDbEntity
  8
M0
100
AcDbLine
 10
377.933912
 20
424.232035
 11
378.433912
 21
424.232035
  0
LINE
  5
67A
100
AcDbEntity
  8
M0
100
AcDbLine
 10
377.933912
 20
414.232035
 11
378.433912
 21
414.232035
  0
LINE
  5
67B
100
AcDbEntity
  8
M0
100
AcDbLine
 10
377.933912
 20
408.232035
 11
378.433912
 21
408.232035
  0
LINE
  5
67C
100
AcDbEntity
  8
M0
100
AcDbLine
 10
377.933912
 20
396.232035
 11
378.433912
 21
396.232035
  0
LINE
  5
67D
100
AcDbEntity
  8
M0
100
AcDbLine
 10
412.233961
 20
395.232264
 11
412.233961
 21
519.232249
  0
LINE
  5
67E
100
AcDbEntity
  8
M0
100
AcDbLine
 10
410.133863
 20
521.33227
 11
328.632961
 21
521.33227
  0
LINE
  5
67F
100
AcDbEntity
  8
M0
100
AcDbLine
 10
328.632961
 20
521.33227
 11
328.632961
 21
519.732249
  0
LINE
  5
680
100
AcDbEntity
  8
M0
100
AcDbLine
 10
410.633863
 20
395.232264
 11
410.633863
 21
519.232249
  0
LINE
  5
681
100
AcDbEntity
  8
M0
100
AcDbLine
 10
410.133863
 20
519.732264
 11
328.632961
 21
519.732264
  0
ARC
  5
682
100
AcDbEntity
  8
M0
100
AcDbCircle
 10
410.133863
 20
395.232279
 40
0.5
100
AcDbArc
 50
270.0
 51
360.0
  0
ARC
  5
683
100
AcDbEntity
  8
M0
100
AcDbCircle
 10
410.133863
 20
519.232249
 40
0.5
100
AcDbArc
 50
0.0
 51
90.0
  0
ARC
  5
684
100
AcDbEntity
  8
M0
100
AcDbCircle
 10
410.133863
 20
395.232279
 40
2.099999
100
AcDbArc
 50
270.0
 51
360.0
  0
ARC
  5
685
100
AcDbEntity
  8
M0
100
AcDbCircle
 10
410.133863
 20
519.232249
 40
2.099999
100
AcDbArc
 50
0.0
 51
90.0
  0
LINE
  5
686
100
AcDbEntity
  8
M0
  6
DASHED
100
AcDbLine
 10
361.633863
 20
521.33227
 11
361.633863
 21
519.732264
  0
LINE
  5
687
100
AcDbEntity
  8
M0
  6
DASHED
100
AcDbLine
 10
403.633863
 20
521.33227
 11
403.633863
 21
519.732264
  0
LINE
  5
688
100
AcDbEntity
  8
M0
  6
DASHED
100
AcDbLine
 10
385.633863
 20
521.33227
 11
385.633863
 21
519.732264
  0
LINE
  5
689
100
AcDbEntity
  8
M0
100
AcDbLine
 10
378.633863
 20
394.732279
 11
378.633863
 21
393.132288
  0
LINE
  5
68A
100
AcDbEntity
  8
M0
100
AcDbLine
 10
398.633863
 20
394.732279
 11
398.633863
 21
393.132288
  0
LINE
  5
68B
100
AcDbEntity
  8
M0
100
AcDbLine
 10
378.633863
 20
394.732279
 11
410.133863
 21
394.732279
  0
LINE
  5
68C
100
AcDbEntity
  8
M0
100
AcDbLine
 10
378.633863
 20
393.132288
 11
410.133863
 21
393.132288
  0
LINE
  5
68D
100
AcDbEntity
  8
M0
 62
     7
100
AcDbLine
 10
410.633863
 20
395.232279
 11
410.633863
 21
519.232279
  0
LINE
  5
68E
100
AcDbEntity
  8
M0
 62
     7
100
AcDbLine
 10
410.633863
 20
519.232279
 11
378.433912
 21
519.232279
  0
LINE
  5
68F
100
AcDbEntity
  8
M0
 62
     7
100
AcDbLine
 10
378.433912
 20
519.232279
 11
378.433912
 21
395.232279
  0
LINE
  5
690
100
AcDbEntity
  8
M0
 62
     7
100
AcDbLine
 10
378.433912
 20
395.232279
 11
410.633863
 21
395.232279
  0
LINE
  5
691
100
AcDbEntity
  8
M0
 62
     2
100
AcDbLine
 10
394.733815
 20
385.232279
 11
397.233864
 21
385.232279
  0
LINE
  5
692
100
AcDbEntity
  8
M0
 62
     2
100
AcDbLine
 10
397.233864
 20
385.232279
 11
397.233864
 21
393.132288
  0
LINE
  5
693
100
AcDbEntity
  8
M0
 62
     2
100
AcDbLine
 10
394.733815
 20
393.132288
 11
394.733815
 21
385.232279
  0
LINE
  5
694
100
AcDbEntity
  8
M0
 62
     2
100
AcDbLine
 10
113.093068
 20
389.302008
 11
112.977042
 21
384.11001
  0
ARC
  5
695
100
AcDbEntity
  8
M0
 62
     2
100
AcDbCircle
 10
102.979543
 20
384.263425
 40
1.0
100
AcDbArc
 50
178.719396
 51
268.720309
  0
LINE
  5
696
100
AcDbEntity
  8
M0
 62
     2
100
AcDbLine
 10
101.979801
 20
384.285773
 11
102.177485
 21
393.132043
  0
ARC
  5
697
100
AcDbEntity
  8
M0
 62
     2
100
AcDbCircle
 10
111.977292
 20
384.132358
 40
1.0
100
AcDbArc
 50
268.719818
 51
358.717672
  0
LINE
  5
698
100
AcDbEntity
  8
M0
 62
     2
100
AcDbLine
 10
111.95495
 20
383.132602
 11
102.95721
 21
383.263683
  0
LINE
  5
699
100
AcDbEntity
  8
M0
100
AcDbLine
 10
292.933882
 20
388.750514
 11
296.133833
 21
388.750514
  0
LINE
  5
69A
100
AcDbEntity
  8
M0
100
AcDbLine
 10
296.134016
 20
388.750514
 11
296.134016
 21
407.732371
  0
LINE
  5
69B
100
AcDbEntity
  8
M0
100
AcDbLine
 10
292.933882
 20
388.750514
 11
292.933882
 21
407.732386
  0
LINE
  5
69C
100
AcDbEntity
  8
M0
 62
   234
100
AcDbLine
 10
401.633863
 20
521.33227
 11
401.633863
 21
538.33227
  0
LINE
  5
69D
100
AcDbEntity
  8
M0
 62
   234
100
AcDbLine
 10
401.633863
 20
538.33227
 11
355.633863
 21
538.33227
  0
LINE
  5
69E
100
AcDbEntity
  8
M0
 62
   234
100
AcDbLine
 10
355.633863
 20
538.33227
 11
355.633863
 21
521.33227
  0
LINE
  5
69F
100
AcDbEntity
  8
M0
 62
   234
100
AcDbLine
 10
355.633863
 20
521.33227
 11
401.633863
 21
521.33227
  0
LINE
  5
6A0
100
AcDbEntity
  8
M0
 62
   234
100
AcDbLine
 10
395.977009
 20
521.33227
 11
401.633863
 21
526.989124
  0
LINE
  5
6A1
100
AcDbEntity
  8
M0
 62
   234
100
AcDbLine
 10
390.320155
 20
521.33227
 11
401.633863
 21
532.645979
  0
LINE
  5
6A2
100
AcDbEntity
  8
M0
 62
   234
100
AcDbLine
 10
384.663301
 20
521.33227
 11
401.633863
 21
538.302833
  0
LINE
  5
6A3
100
AcDbEntity
  8
M0
 62
   234
100
AcDbLine
 10
379.006446
 20
521.33227
 11
396.006446
 21
538.33227
  0
LINE
  5
6A4
100
AcDbEntity
  8
M0
 62
   234
100
AcDbLine
 10
373.349592
 20
521.33227
 11
390.349592
 21
538.33227
  0
LINE
  5
6A5
100
AcDbEntity
  8
M0
 62
   234
100
AcDbLine
 10
367.692738
 20
521.33227
 11
384.692738
 21
538.33227
  0
LINE
  5
6A6
100
AcDbEntity
  8
M0
 62
   234
100
AcDbLine
 10
362.035884
 20
521.33227
 11
379.035884
 21
538.33227
  0
LINE
  5
6A7
100
AcDbEntity
  8
M0
 62
   234
100
AcDbLine
 10
356.379029
 20
521.33227
 11
373.379029
 21
538.33227
  0
LINE
  5
6A8
100
AcDbEntity
  8
M0
 62
   234
100
AcDbLine
 10
355.633863
 20
526.243958
 11
367.722175
 21
538.33227
  0
LINE
  5
6A9
100
AcDbEntity
  8
M0
 62
   234
100
AcDbLine
 10
355.633863
 20
531.900813
 11
362.065321
 21
538.33227
  0
LINE
  5
6AA
100
AcDbEntity
  8
M0
 62
   234
100
AcDbLine
 10
355.633863
 20
537.557667
 11
356.408467
 21
538.33227
  0
LINE
  5
6AB
100
AcDbEntity
  8
M0
 62
   234
100
AcDbLine
 10
175.885114
 20
521.33227
 11
175.885114
 21
538.33227
  0
LINE
  5
6AC
100
AcDbEntity
  8
M0
 62
   234
100
AcDbLine
 10
175.885114
 20
538.33227
 11
131.885114
 21
538.33227
  0
LINE
  5
6AD
100
AcDbEntity
  8
M0
 62
   234
100
AcDbLine
 10
131.885114
 20
538.33227
 11
131.885114
 21
536.631197
  0
LINE
  5
6AE
100
AcDbEntity
  8
M0
 62
   234
100
AcDbLine
 10
161.885145
 20
521.33227
 11
175.885114
 21
521.33227
  0
LINE
  5
6AF
100
AcDbEntity
  8
M0
 62
   234
100
AcDbLine
 10
170.22826
 20
521.332026
 11
175.885114
 21
526.98888
  0
LINE
  5
6B0
100
AcDbEntity
  8
M0
 62
   234
100
AcDbLine
 10
164.571406
 20
521.332026
 11
175.885114
 21
532.645734
  0
LINE
  5
6B1
100
AcDbEntity
  8
M0
 62
   234
100
AcDbLine
 10
161.885145
 20
524.302619
 11
175.885114
 21
538.302589
  0
LINE
  5
6B2
100
AcDbEntity
  8
M0
 62
   234
100
AcDbLine
 10
157.157405
 20
525.231733
 11
170.257941
 21
538.33227
  0
LINE
  5
6B3
100
AcDbEntity
  8
M0
 62
   234
100
AcDbLine
 10
151.500481
 20
525.231664
 11
164.601087
 21
538.33227
  0
LINE
  5
6B4
100
AcDbEntity
  8
M0
 62
   234
100
AcDbLine
 10
148.885117
 20
528.273154
 11
158.944233
 21
538.33227
  0
LINE
  5
6B5
100
AcDbEntity
  8
M0
 62
   234
100
AcDbLine
 10
148.885128
 20
533.930019
 11
153.287379
 21
538.33227
  0
LINE
  5
6B6
100
AcDbEntity
  8
M0
 62
   234
100
AcDbLine
 10
146.929686
 20
537.631432
 11
147.630524
 21
538.33227
  0
LINE
  5
6B7
100
AcDbEntity
  8
M0
 62
   234
100
AcDbLine
 10
141.272835
 20
537.631435
 11
141.97367
 21
538.33227
  0
LINE
  5
6B8
100
AcDbEntity
  8
M0
 62
   234
100
AcDbLine
 10
134.615741
 20
536.631195
 11
136.316816
 21
538.33227
  0
LINE
  5
6B9
100
AcDbEntity
  8
M0
 62
   234
100
AcDbLine
 10
68.885145
 20
521.33227
 11
68.885145
 21
538.33227
  0
LINE
  5
6BA
100
AcDbEntity
  8
M0
 62
   234
100
AcDbLine
 10
68.885145
 20
538.33227
 11
112.885145
 21
538.33227
  0
LINE
  5
6BB
100
AcDbEntity
  8
M0
 62
   234
100
AcDbLine
 10
112.885145
 20
538.33227
 11
112.885145
 21
537.631453
  0
LINE
  5
6BC
100
AcDbEntity
  8
M0
 62
   234
100
AcDbLine
 10
75.885197
 20
521.33227
 11
68.885145
 21
521.33227
  0
LINE
  5
6BD
100
AcDbEntity
  8
M0
 62
   234
100
AcDbLine
 10
106.228051
 20
536.631213
 11
107.929108
 21
538.33227
  0
LINE
  5
6BE
100
AcDbEntity
  8
M0
 62
   234
100
AcDbLine
 10
99.571445
 20
535.631461
 11
99.635133
 21
535.69515
  0
LINE
  5
6BF
100
AcDbEntity
  8
M0
 62
   234
100
AcDbLine
 10
100.5712
 20
536.631217
 11
102.272253
 21
538.33227
  0
LINE
  5
6C0
100
AcDbEntity
  8
M0
 62
   234
100
AcDbLine
 10
83.514834
 20
525.231705
 11
88.885145
 21
530.602016
  0
LINE
  5
6C1
100
AcDbEntity
  8
M0
 62
   234
100
AcDbLine
 10
95.914593
 20
537.631464
 11
96.615399
 21
538.33227
  0
LINE
  5
6C2
100
AcDbEntity
  8
M0
 62
   234
100
AcDbLine
 10
73.958301
 20
521.332026
 11
75.885201
 21
523.258927
  0
LINE
  5
6C3
100
AcDbEntity
  8
M0
 62
   234
100
AcDbLine
 10
77.858066
 20
525.231791
 11
88.885149
 21
536.258874
  0
LINE
  5
6C4
100
AcDbEntity
  8
M0
 62
   234
100
AcDbLine
 10
90.257742
 20
537.631467
 11
90.958545
 21
538.33227
  0
LINE
  5
6C5
100
AcDbEntity
  8
M0
 62
   234
100
AcDbLine
 10
68.885145
 20
521.915724
 11
85.301691
 21
538.33227
  0
LINE
  5
6C6
100
AcDbEntity
  8
M0
 62
   234
100
AcDbLine
 10
68.885145
 20
527.572578
 11
79.644836
 21
538.33227
  0
LINE
  5
6C7
100
AcDbEntity
  8
M0
 62
   234
100
AcDbLine
 10
68.885145
 20
533.229433
 11
73.987982
 21
538.33227
  0
LINE
  5
6C8
100
AcDbEntity
  8
M0
100
AcDbLine
 10
349.233961
 20
538.03227
 11
327.233961
 21
538.03227
  0
LINE
  5
6C9
100
AcDbEntity
  8
M0
100
AcDbLine
 10
323.233961
 20
521.33227
 11
353.233961
 21
521.33227
  0
LINE
  5
6CA
100
AcDbEntity
  8
M0
100
AcDbLine
 10
353.233961
 20
521.33227
 11
353.233961
 21
534.03227
  0
LINE
  5
6CB
100
AcDbEntity
  8
M0
100
AcDbLine
 10
323.233961
 20
534.03227
 11
323.233961
 21
521.33227
  0
ARC
  5
6CC
100
AcDbEntity
  8
M0
100
AcDbCircle
 10
327.233961
 20
534.03227
 40
4.0
100
AcDbArc
 50
90.0
 51
180.0
  0
ARC
  5
6CD
100
AcDbEntity
  8
M0
100
AcDbCircle
 10
349.233961
 20
534.03227
 40
4.0
100
AcDbArc
 50
0.0
 51
90.0
  0
LINE
  5
6CE
100
AcDbEntity
  8
M0
  6
DASHED
100
AcDbLine
 10
327.733961
 20
538.032362
 11
327.733961
 21
526.113306
  0
LINE
  5
6CF
100
AcDbEntity
  8
M0
  6
DASHED
100
AcDbLine
 10
330.733991
 20
526.113306
 11
330.733991
 21
538.03227
  0
LINE
  5
6D0
100
AcDbEntity
  8
M0
 62
     6
100
AcDbLine
 10
85.885179
 20
404.737277
 11
92.386628
 21
400.984683
  0
LINE
  5
6D1
100
AcDbEntity
  8
M0
 62
     6
100
AcDbLine
 10
92.386628
 20
400.984683
 11
92.386628
 21
393.479038
  0
LINE
  5
6D2
100
AcDbEntity
  8
M0
 62
     6
100
AcDbLine
 10
92.386628
 20
393.479038
 11
85.885179
 21
389.726291
  0
LINE
  5
6D3
100
AcDbEntity
  8
M0
 62
     6
100
AcDbLine
 10
85.885179
 20
389.726291
 11
79.386155
 21
393.479038
  0
LINE
  5
6D4
100
AcDbEntity
  8
M0
 62
     6
100
AcDbLine
 10
79.386155
 20
393.479038
 11
79.386155
 21
400.984683
  0
LINE
  5
6D5
100
AcDbEntity
  8
M0
 62
     6
100
AcDbLine
 10
79.386155
 20
400.984683
 11
85.885179
 21
404.737277
  0
CIRCLE
  5
6D6
100
AcDbEntity
  8
M0
 62
     6
100
AcDbCircle
 10
85.885179
 20
397.231937
 40
4.0
  0
LINE
  5
6D7
100
AcDbEntity
  8
M0
  6
DASHDOT
 62
     6
100
AcDbLine
 10
96.037507
 20
397.231937
 11
75.73285
 21
397.231937
  0
LINE
  5
6D8
100
AcDbEntity
  8
M0
  6
DASHDOT
 62
     6
100
AcDbLine
 10
85.885164
 20
407.384265
 11
85.885179
 21
387.079608
  0
LINE
  5
6D9
100
AcDbEntity
  8
M0
 62
     6
100
AcDbLine
 10
118.885147
 20
404.737247
 11
125.386597
 21
400.984653
  0
LINE
  5
6DA
100
AcDbEntity
  8
M0
 62
     6
100
AcDbLine
 10
125.386597
 20
400.984653
 11
125.386597
 21
393.479007
  0
LINE
  5
6DB
100
AcDbEntity
  8
M0
 62
     6
100
AcDbLine
 10
125.386597
 20
393.479007
 11
118.885147
 21
389.726261
  0
LINE
  5
6DC
100
AcDbEntity
  8
M0
 62
     6
100
AcDbLine
 10
118.885147
 20
389.726261
 11
112.386124
 21
393.479007
  0
LINE
  5
6DD
100
AcDbEntity
  8
M0
 62
     6
100
AcDbLine
 10
112.386124
 20
393.479007
 11
112.386124
 21
400.984653
  0
LINE
  5
6DE
100
AcDbEntity
  8
M0
 62
     6
100
AcDbLine
 10
112.386124
 20
400.984653
 11
118.885147
 21
404.737247
  0
CIRCLE
  5
6DF
100
AcDbEntity
  8
M0
 62
     6
100
AcDbCircle
 10
118.885147
 20
397.231906
 40
4.0
  0
LINE
  5
6E0
100
AcDbEntity
  8
M0
  6
DASHDOT
 62
     6
100
AcDbLine
 10
129.037476
 20
397.231906
 11
108.732819
 21
397.231906
  0
LINE
  5
6E1
100
AcDbEntity
  8
M0
  6
DASHDOT
 62
     6
100
AcDbLine
 10
118.885132
 20
407.384235
 11
118.885147
 21
387.079578
  0
LINE
  5
6E2
100
AcDbEntity
  8
M0
 62
     6
100
AcDbLine
 10
151.885189
 20
404.737247
 11
158.386639
 21
400.984653
  0
LINE
  5
6E3
100
AcDbEntity
  8
M0
 62
     6
100
AcDbLine
 10
158.386639
 20
400.984653
 11
158.386639
 21
393.479007
  0
LINE
  5
6E4
100
AcDbEntity
  8
M0
 62
     6
100
AcDbLine
 10
158.386639
 20
393.479007
 11
151.885189
 21
389.726261
  0
LINE
  5
6E5
100
AcDbEntity
  8
M0
 62
     6
100
AcDbLine
 10
151.885189
 20
389.726261
 11
145.386166
 21
393.479007
  0
LINE
  5
6E6
100
AcDbEntity
  8
M0
 62
     6
100
AcDbLine
 10
145.386166
 20
393.479007
 11
145.386166
 21
400.984653
  0
LINE
  5
6E7
100
AcDbEntity
  8
M0
 62
     6
100
AcDbLine
 10
145.386166
 20
400.984653
 11
151.885189
 21
404.737247
  0
CIRCLE
  5
6E8
100
AcDbEntity
  8
M0
 62
     6
100
AcDbCircle
 10
151.885189
 20
397.231906
 40
4.0
  0
LINE
  5
6E9
100
AcDbEntity
  8
M0
  6
DASHDOT
 62
     6
100
AcDbLine
 10
162.037518
 20
397.231906
 11
141.732861
 21
397.231906
  0
LINE
  5
6EA
100
AcDbEntity
  8
M0
  6
DASHDOT
 62
     6
100
AcDbLine
 10
151.885174
 20
407.384235
 11
151.885189
 21
387.079578
  0
LINE
  5
6EB
100
AcDbEntity
  8
M0
 62
     6
100
AcDbLine
 10
85.885224
 20
524.737262
 11
92.386673
 21
520.984668
  0
LINE
  5
6EC
100
AcDbEntity
  8
M0
 62
     6
100
AcDbLine
 10
92.386673
 20
520.984668
 11
92.386673
 21
513.479022
  0
LINE
  5
6ED
100
AcDbEntity
  8
M0
 62
     6
100
AcDbLine
 10
92.386673
 20
513.479022
 11
85.885224
 21
509.726276
  0
LINE
  5
6EE
100
AcDbEntity
  8
M0
 62
     6
100
AcDbLine
 10
85.885224
 20
509.726276
 11
79.3862
 21
513.479022
  0
LINE
  5
6EF
100
AcDbEntity
  8
M0
 62
     6
100
AcDbLine
 10
79.3862
 20
513.479022
 11
79.3862
 21
520.984668
  0
LINE
  5
6F0
100
AcDbEntity
  8
M0
 62
     6
100
AcDbLine
 10
79.3862
 20
520.984668
 11
85.885224
 21
524.737262
  0
CIRCLE
  5
6F1
100
AcDbEntity
  8
M0
 62
     6
100
AcDbCircle
 10
85.885224
 20
517.231922
 40
4.0
  0
LINE
  5
6F2
100
AcDbEntity
  8
M0
  6
DASHDOT
 62
     6
100
AcDbLine
 10
96.037552
 20
517.231922
 11
75.732895
 21
517.231922
  0
LINE
  5
6F3
100
AcDbEntity
  8
M0
  6
DASHDOT
 62
     6
100
AcDbLine
 10
85.885208
 20
527.38425
 11
85.885224
 21
507.079593
  0
LINE
  5
6F4
100
AcDbEntity
  8
M0
 62
     6
100
AcDbLine
 10
118.885159
 20
524.737247
 11
125.386608
 21
520.984653
  0
LINE
  5
6F5
100
AcDbEntity
  8
M0
 62
     6
100
AcDbLine
 10
125.386608
 20
520.984653
 11
125.386608
 21
513.479007
  0
LINE
  5
6F6
100
AcDbEntity
  8
M0
 62
     6
100
AcDbLine
 10
125.386608
 20
513.479007
 11
118.885159
 21
509.726261
  0
LINE
  5
6F7
100
AcDbEntity
  8
M0
 62
     6
100
AcDbLine
 10
118.885159
 20
509.726261
 11
112.386135
 21
513.479007
  0
LINE
  5
6F8
100
AcDbEntity
  8
M0
 62
     6
100
AcDbLine
 10
112.386135
 20
513.479007
 11
112.386135
 21
520.984653
  0
LINE
  5
6F9
100
AcDbEntity
  8
M0
 62
     6
100
AcDbLine
 10
112.386135
 20
520.984653
 11
118.885159
 21
524.737247
  0
CIRCLE
  5
6FA
100
AcDbEntity
  8
M0
 62
     6
100
AcDbCircle
 10
118.885159
 20
517.231906
 40
4.0
  0
LINE
  5
6FB
100
AcDbEntity
  8
M0
  6
DASHDOT
 62
     6
100
AcDbLine
 10
129.037487
 20
517.231906
 11
108.73283
 21
517.231906
  0
LINE
  5
6FC
100
AcDbEntity
  8
M0
  6
DASHDOT
 62
     6
100
AcDbLine
 10
118.885144
 20
527.384235
 11
118.885159
 21
507.079578
  0
LINE
  5
6FD
100
AcDbEntity
  8
M0
 62
     6
100
AcDbLine
 10
151.885189
 20
524.737247
 11
158.386639
 21
520.984653
  0
LINE
  5
6FE
100
AcDbEntity
  8
M0
 62
     6
100
AcDbLine
 10
158.386639
 20
520.984653
 11
158.386639
 21
513.479007
  0
LINE
  5
6FF
100
AcDbEntity
  8
M0
 62
     6
100
AcDbLine
 10
158.386639
 20
513.479007
 11
151.885189
 21
509.726261
  0
LINE
  5
700
100
AcDbEntity
  8
M0
 62
     6
100
AcDbLine
 10
151.885189
 20
509.726261
 11
145.386166
 21
513.479007
  0
LINE
  5
701
100
AcDbEntity
  8
M0
 62
     6
100
AcDbLine
 10
145.386166
 20
513.479007
 11
145.386166
 21
520.984653
  0
LINE
  5
702
100
AcDbEntity
  8
M0
 62
     6
100
AcDbLine
 10
145.386166
 20
520.984653
 11
151.885189
 21
524.737247
  0
CIRCLE
  5
703
100
AcDbEntity
  8
M0
 62
     6
100
AcDbCircle
 10
151.885189
 20
517.231906
 40
4.0
  0
LINE
  5
704
100
AcDbEntity
  8
M0
  6
DASHDOT
 62
     6
100
AcDbLine
 10
162.037518
 20
517.231906
 11
141.732861
 21
517.231906
  0
LINE
  5
705
100
AcDbEntity
  8
M0
  6
DASHDOT
 62
     6
100
AcDbLine
 10
151.885174
 20
527.384235
 11
151.885189
 21
507.079578
  0
LINE
  5
706
100
AcDbEntity
  8
M0
 62
     4
100
AcDbLine
 10
276.133876
 20
521.231982
 11
276.133881
 21
513.231982
  0
LINE
  5
707
100
AcDbEntity
  8
M0
 62
     4
100
AcDbLine
 10
276.133881
 20
513.231982
 11
282.832426
 21
513.231987
  0
LINE
  5
708
100
AcDbEntity
  8
M0
 62
     4
100
AcDbLine
 10
301.633876
 20
521.231998
 11
296.133876
 21
521.231995
  0
LINE
  5
709
100
AcDbEntity
  8
M0
  6
DASHDOT
 62
     4
100
AcDbLine
 10
305.375852
 20
517.232001
 11
273.922315
 21
517.231981
  0
LINE
  5
70A
100
AcDbEntity
  8
M0
 62
     4
100
AcDbLine
 10
296.133874
 20
524.733002
 11
296.133883
 21
509.731003
  0
LINE
  5
70B
100
AcDbEntity
  8
M0
 62
     4
100
AcDbLine
 10
296.133883
 20
509.731003
 11
301.633883
 21
509.731007
  0
LINE
  5
70C
100
AcDbEntity
  8
M0
 62
     4
100
AcDbLine
 10
301.633883
 20
509.731007
 11
301.633874
 21
524.733006
  0
LINE
  5
70D
100
AcDbEntity
  8
M0
 62
     4
100
AcDbLine
 10
301.633874
 20
524.733006
 11
296.133874
 21
524.733002
  0
LINE
  5
70E
100
AcDbEntity
  8
M0
 62
     4
100
AcDbLine
 10
296.133881
 20
513.231995
 11
301.633881
 21
513.231998
  0
LINE
  5
70F
100
AcDbEntity
  8
M0
 62
     4
100
AcDbLine
 10
282.832421
 20
521.231987
 11
276.133876
 21
521.231982
  0
LINE
  5
710
100
AcDbEntity
  8
M0
 62
     6
100
AcDbLine
 10
282.832365
 20
509.721919
 11
289.33383
 21
509.721919
  0
LINE
  5
711
100
AcDbEntity
  8
M0
 62
     6
100
AcDbLine
 10
289.33383
 20
509.721919
 11
289.33383
 21
524.741949
  0
LINE
  5
712
100
AcDbEntity
  8
M0
 62
     6
100
AcDbLine
 10
289.33383
 20
524.741949
 11
282.832365
 21
524.741643
  0
LINE
  5
713
100
AcDbEntity
  8
M0
 62
     6
100
AcDbLine
 10
282.832365
 20
509.721919
 11
282.832365
 21
524.741643
  0
LINE
  5
714
100
AcDbEntity
  8
M0
  6
DASHDOT
 62
     6
100
AcDbLine
 10
278.188307
 20
517.231995
 11
293.081877
 21
517.23201
  0
LINE
  5
715
100
AcDbEntity
  8
M0
 62
     6
100
AcDbLine
 10
282.832365
 20
520.984909
 11
289.33383
 21
520.984909
  0
LINE
  5
716
100
AcDbEntity
  8
M0
 62
     6
100
AcDbLine
 10
282.832365
 20
513.479264
 11
289.33383
 21
513.479264
  0
LINE
  5
717
100
AcDbEntity
  8
M0
 62
     7
100
AcDbLine
 10
289.33383
 20
509.531998
 11
291.33383
 21
509.531998
  0
LINE
  5
718
100
AcDbEntity
  8
M0
 62
     7
100
AcDbLine
 10
291.33383
 20
509.531998
 11
291.33383
 21
524.932007
  0
LINE
  5
719
100
AcDbEntity
  8
M0
 62
     7
100
AcDbLine
 10
291.33383
 20
524.932007
 11
289.33383
 21
524.932007
  0
LINE
  5
71A
100
AcDbEntity
  8
M0
 62
     7
100
AcDbLine
 10
289.33383
 20
524.932007
 11
289.33383
 21
509.531998
  0
LINE
  5
71B
100
AcDbEntity
  8
M0
  6
DASHDOT
 62
     7
100
AcDbLine
 10
284.33383
 20
517.23201
 11
296.33383
 21
517.23201
  0
LINE
  5
71C
100
AcDbEntity
  8
M0
 62
     7
100
AcDbLine
 10
289.33383
 20
517.231995
 11
291.33383
 21
516.077301
  0
LINE
  5
71D
100
AcDbEntity
  8
M0
 62
     7
100
AcDbLine
 10
289.33383
 20
518.386689
 11
291.33383
 21
517.231995
  0
LINE
  5
71E
100
AcDbEntity
  8
M0
 62
     6
100
AcDbLine
 10
291.333937
 20
508.231995
 11
292.933927
 21
508.231995
  0
LINE
  5
71F
100
AcDbEntity
  8
M0
 62
     6
100
AcDbLine
 10
292.933927
 20
508.231995
 11
292.933927
 21
526.231995
  0
LINE
  5
720
100
AcDbEntity
  8
M0
 62
     6
100
AcDbLine
 10
292.933927
 20
526.231995
 11
291.333937
 21
526.231995
  0
LINE
  5
721
100
AcDbEntity
  8
M0
 62
     6
100
AcDbLine
 10
291.333937
 20
526.231995
 11
291.333937
 21
508.231995
  0
LINE
  5
722
100
AcDbEntity
  8
M0
  6
DASHDOT
 62
     6
100
AcDbLine
 10
288.333921
 20
517.23198
 11
295.933927
 21
517.231995
  0
LINE
  5
723
100
AcDbEntity
  8
M0
 62
     4
100
AcDbLine
 10
276.133876
 20
393.232088
 11
276.133881
 21
401.232088
  0
LINE
  5
724
100
AcDbEntity
  8
M0
 62
     4
100
AcDbLine
 10
276.133881
 20
401.232088
 11
282.832426
 21
401.232084
  0
LINE
  5
725
100
AcDbEntity
  8
M0
 62
     4
100
AcDbLine
 10
301.633876
 20
393.232072
 11
296.133876
 21
393.232075
  0
LINE
  5
726
100
AcDbEntity
  8
M0
  6
DASHDOT
 62
     4
100
AcDbLine
 10
305.375852
 20
397.232069
 11
273.922315
 21
397.232089
  0
LINE
  5
727
100
AcDbEntity
  8
M0
 62
     4
100
AcDbLine
 10
296.133874
 20
389.731068
 11
296.133883
 21
404.733067
  0
LINE
  5
728
100
AcDbEntity
  8
M0
 62
     4
100
AcDbLine
 10
296.133883
 20
404.733067
 11
301.633883
 21
404.733064
  0
LINE
  5
729
100
AcDbEntity
  8
M0
 62
     4
100
AcDbLine
 10
301.633883
 20
404.733064
 11
301.633874
 21
389.731065
  0
LINE
  5
72A
100
AcDbEntity
  8
M0
 62
     4
100
AcDbLine
 10
301.633874
 20
389.731065
 11
296.133874
 21
389.731068
  0
LINE
  5
72B
100
AcDbEntity
  8
M0
 62
     4
100
AcDbLine
 10
296.133881
 20
401.232075
 11
301.633881
 21
401.232072
  0
LINE
  5
72C
100
AcDbEntity
  8
M0
 62
     4
100
AcDbLine
 10
282.832421
 20
393.232084
 11
276.133876
 21
393.232088
  0
LINE
  5
72D
100
AcDbEntity
  8
M0
 62
     7
100
AcDbLine
 10
289.33383
 20
404.932072
 11
291.33383
 21
404.932072
  0
LINE
  5
72E
100
AcDbEntity
  8
M0
 62
     7
100
AcDbLine
 10
291.33383
 20
404.932072
 11
291.33383
 21
389.532063
  0
LINE
  5
72F
100
AcDbEntity
  8
M0
 62
     7
100
AcDbLine
 10
291.33383
 20
389.532063
 11
289.33383
 21
389.532063
  0
LINE
  5
730
100
AcDbEntity
  8
M0
 62
     7
100
AcDbLine
 10
289.33383
 20
389.532063
 11
289.33383
 21
404.932072
  0
LINE
  5
731
100
AcDbEntity
  8
M0
  6
DASHDOT
 62
     7
100
AcDbLine
 10
284.33383
 20
397.23206
 11
296.33383
 21
397.23206
  0
LINE
  5
732
100
AcDbEntity
  8
M0
 62
     7
100
AcDbLine
 10
289.33383
 20
397.232075
 11
291.33383
 21
398.386769
  0
LINE
  5
733
100
AcDbEntity
  8
M0
 62
     7
100
AcDbLine
 10
289.33383
 20
396.077382
 11
291.33383
 21
397.232075
  0
LINE
  5
734
100
AcDbEntity
  8
M0
 62
     6
100
AcDbLine
 10
282.832365
 20
404.742151
 11
289.33383
 21
404.742151
  0
LINE
  5
735
100
AcDbEntity
  8
M0
 62
     6
100
AcDbLine
 10
289.33383
 20
404.742151
 11
289.33383
 21
389.722122
  0
LINE
  5
736
100
AcDbEntity
  8
M0
 62
     6
100
AcDbLine
 10
289.33383
 20
389.722122
 11
282.832365
 21
389.722427
  0
LINE
  5
737
100
AcDbEntity
  8
M0
 62
     6
100
AcDbLine
 10
282.832365
 20
404.742151
 11
282.832365
 21
389.722427
  0
LINE
  5
738
100
AcDbEntity
  8
M0
  6
DASHDOT
 62
     6
100
AcDbLine
 10
278.188307
 20
397.232075
 11
293.081877
 21
397.23206
  0
LINE
  5
739
100
AcDbEntity
  8
M0
 62
     6
100
AcDbLine
 10
282.832365
 20
393.479161
 11
289.33383
 21
393.479161
  0
LINE
  5
73A
100
AcDbEntity
  8
M0
 62
     6
100
AcDbLine
 10
282.832365
 20
400.984807
 11
289.33383
 21
400.984807
  0
LINE
  5
73B
100
AcDbEntity
  8
M0
 62
     6
100
AcDbLine
 10
291.333937
 20
406.232075
 11
292.933927
 21
406.232075
  0
LINE
  5
73C
100
AcDbEntity
  8
M0
 62
     6
100
AcDbLine
 10
292.933927
 20
406.232075
 11
292.933927
 21
388.232075
  0
LINE
  5
73D
100
AcDbEntity
  8
M0
 62
     6
100
AcDbLine
 10
292.933927
 20
388.232075
 11
291.333937
 21
388.232075
  0
LINE
  5
73E
100
AcDbEntity
  8
M0
 62
     6
100
AcDbLine
 10
291.333937
 20
388.232075
 11
291.333937
 21
406.232075
  0
LINE
  5
73F
100
AcDbEntity
  8
M0
  6
DASHDOT
 62
     6
100
AcDbLine
 10
288.333921
 20
397.23209
 11
295.933927
 21
397.232075
  0
CIRCLE
  5
740
100
AcDbEntity
  8
M0
 62
     5
100
AcDbCircle
 10
160.884837
 20
244.764786
 40
4.0
  0
LINE
  5
741
100
AcDbEntity
  8
M0
  6
DASHDOT
 62
     5
100
AcDbLine
 10
172.884837
 20
244.764786
 11
148.884837
 21
244.764786
  0
LINE
  5
742
100
AcDbEntity
  8
M0
  6
DASHDOT
 62
     5
100
AcDbLine
 10
160.884837
 20
232.764786
 11
160.884837
 21
256.764786
  0
CIRCLE
  5
743
100
AcDbEntity
  8
M0
 62
     5
100
AcDbCircle
 10
160.884837
 20
244.764786
 40
2.799999
  0
LINE
  5
744
100
AcDbEntity
  8
M0
  6
DASHDOT
 62
     5
100
AcDbLine
 10
64.884837
 20
134.764786
 11
88.884837
 21
134.764786
  0
LINE
  5
745
100
AcDbEntity
  8
M0
  6
DASHDOT
 62
     5
100
AcDbLine
 10
76.884837
 20
122.764786
 11
76.884837
 21
146.764786
  0
CIRCLE
  5
746
100
AcDbEntity
  8
M0
 62
     5
100
AcDbCircle
 10
76.884837
 20
134.764786
 40
4.0
  0
CIRCLE
  5
747
100
AcDbEntity
  8
M0
 62
     5
100
AcDbCircle
 10
76.884837
 20
134.764786
 40
2.799999
  0
LINE
  5
748
100
AcDbEntity
  8
M0
  6
DIVIDE
 62
     5
100
AcDbLine
 10
148.884835
 20
270.264194
 11
88.884873
 21
270.264194
  0
LINE
  5
749
100
AcDbEntity
  8
M0
  6
DIVIDE
 62
     5
100
AcDbLine
 10
175.884868
 20
257.864542
 11
175.884868
 21
121.865274
  0
LINE
  5
74A
100
AcDbEntity
  8
M0
  6
DIVIDE
 62
     5
100
AcDbLine
 10
175.884868
 20
257.864542
 11
148.884835
 21
257.864542
  0
LINE
  5
74B
100
AcDbEntity
  8
M0
  6
DIVIDE
 62
     5
100
AcDbLine
 10
175.884868
 20
121.865274
 11
113.091228
 21
121.865274
  0
LINE
  5
74C
100
AcDbEntity
  8
M0
  6
DIVIDE
 62
     5
100
AcDbLine
 10
113.091228
 20
115.765239
 11
101.979524
 21
115.765239
  0
LINE
  5
74D
100
AcDbEntity
  8
M0
  6
DIVIDE
 62
     5
100
AcDbLine
 10
68.884868
 20
121.865274
 11
68.884868
 21
257.864542
  0
LINE
  5
74E
100
AcDbEntity
  8
M0
  6
DIVIDE
 62
     5
100
AcDbLine
 10
88.884873
 20
257.864542
 11
68.884868
 21
257.864542
  0
LINE
  5
74F
100
AcDbEntity
  8
M0
  6
DIVIDE
 62
     5
100
AcDbLine
 10
101.979524
 20
121.865274
 11
68.884868
 21
121.865274
  0
LINE
  5
750
100
AcDbEntity
  8
M0
  6
DIVIDE
 62
     5
100
AcDbLine
 10
148.884835
 20
270.264194
 11
148.884835
 21
257.864542
  0
LINE
  5
751
100
AcDbEntity
  8
M0
  6
DIVIDE
 62
     5
100
AcDbLine
 10
88.884873
 20
257.864542
 11
88.884873
 21
270.264194
  0
LINE
  5
752
100
AcDbEntity
  8
M0
  6
DIVIDE
 62
     5
100
AcDbLine
 10
101.979524
 20
121.865274
 11
101.979524
 21
115.765239
  0
LINE
  5
753
100
AcDbEntity
  8
M0
  6
DIVIDE
 62
     5
100
AcDbLine
 10
113.091228
 20
115.765239
 11
113.091228
 21
121.865274
  0
LINE
  5
754
100
AcDbEntity
  8
M1
 62
     2
100
AcDbLine
 10
22.222223
 20
22.222223
 11
22.222223
 21
633.33335
  0
LINE
  5
755
100
AcDbEntity
  8
M1
 62
     2
100
AcDbLine
 10
22.222223
 20
633.33335
 11
444.444456
 21
633.33335
  0
LINE
  5
756
100
AcDbEntity
  8
M1
 62
     2
100
AcDbLine
 10
444.444456
 20
633.33335
 11
444.444456
 21
22.222223
  0
LINE
  5
757
100
AcDbEntity
  8
M1
 62
     2
100
AcDbLine
 10
444.444456
 20
22.222223
 11
22.222223
 21
22.222223
  0
LINE
  5
758
100
AcDbEntity
  8
M1
 62
     2
100
AcDbLine
 10
444.444456
 20
44.444446
 11
222.222228
 21
44.444446
  0
LINE
  5
759
100
AcDbEntity
  8
M1
 62
     2
100
AcDbLine
 10
444.444456
 20
66.666668
 11
222.222228
 21
66.666668
  0
LINE
  5
75A
100
AcDbEntity
  8
M1
 62
     2
100
AcDbLine
 10
444.444456
 20
88.888891
 11
222.222228
 21
88.888891
  0
LINE
  5
75B
100
AcDbEntity
  8
M1
 62
     2
100
AcDbLine
 10
222.222228
 20
22.222223
 11
222.222228
 21
88.888891
  0
TEXT
  5
75C
100
AcDbEntity
  8
M1
 62
     2
100
AcDbText
 10
227.777784
 20
27.777779
 40
11.111112
  1
適　用；
  7
STANDARD
100
AcDbText
  0
TEXT
  5
75D
100
AcDbEntity
  8
M1
 62
     2
100
AcDbText
 10
227.777784
 20
72.222224
 40
11.111112
  1
登録名：
  7
STANDARD
100
AcDbText
  0
TEXT
  5
75E
100
AcDbEntity
  8
M1
 62
     2
100
AcDbText
 10
281.111119
 20
72.222224
 40
11.111112
  1
ＤＭＨ１００ＣＬＲ００
 41
0.5
  7
STANDARD
100
AcDbText
  0
TEXT
  5
75F
100
AcDbEntity
  8
M1
 62
     2
100
AcDbText
 10
227.777784
 20
50.000001
 40
11.111112
  1
形　式；
  7
STANDARD
100
AcDbText
  0
TEXT
  5
760
100
AcDbEntity
  8
M1
 62
     2
100
AcDbText
 10
281.111119
 20
50.000001
 40
11.111112
  1
Ｈ１００Ｃ－Ｌ，Ｈ１２５Ｃ－Ｌ，Ｈ１００Ｃ－ＬＧ，Ｈ１２５Ｃ－ＬＧ
 41
0.25
  7
STANDARD
100
AcDbText
  0
LINE
  5
761
100
AcDbEntity
  8
DN0
100
AcDbLine
 10
110.28375
 20
67.515991
 11
150.861522
 21
67.515991
  0
TEXT
  5
762
100
AcDbEntity
  8
DN0
100
AcDbText
 10
111.405972
 20
68.515991
 40
10.0
  1
せん孔図
 41
0.833333
  7
STANDARD
100
AcDbText
  0
ENDSEC
  0
SECTION
  2
OBJECTS
  0
DICTIONARY
  5
C
100
AcDbDictionary
  3
ACAD_GROUP
350
D
  3
ACAD_MLINESTYLE
350
E
  0
DICTIONARY
  5
D
102
{ACAD_REACTORS
330
C
102
}
100
AcDbDictionary
  0
DICTIONARY
  5
E
102
{ACAD_REACTORS
330
C
102
}
100
AcDbDictionary
  3
STANDARD
350
13
  0
MLINESTYLE
  5
13
102
{ACAD_REACTORS
330
E
102
}
100
AcDbMlineStyle
  2
STANDARD
 70
     0
  3

 62
     0
 51
90.0
 52
90.0
 71
     2
 49
0.5
 62
   256
  6
BYLAYER
 49
-0.5
 62
   256
  6
BYLAYER
  0
ENDSEC
  0
EOF
