  0
SECTION
  2
HEADER
  9
$ACADVER
  1
AC1014
  9
$INSBASE
 10
0.000000
 20
0.000000
 30
0.0
  9
$VIEWCTR
 10
7.531722
 20
4.5
  9
$VIEWSIZE
 40
9.0
  9
$SNAPMODE
 70
     0
  9
$SNAPUNIT
 10
1.0
 20
1.0
  9
$SNAPBASE
 10
0.0
 20
0.0
  9
$SNAPANG
 50
0.0
  9
$SNAPSTYLE
 70
     0
  9
$SNAPISOPAIR
 70
     0
  9
$GRIDMODE
 70
     0
  9
$GRIDUNIT
 10
0.0
 20
0.0
  9
$ORTHOMODE
 70
     0
  9
$REGENMODE
 70
     1
  9
$FILLMODE
 70
     1
  9
$QTEXTMODE
 70
     0
  9
$DRAGMODE
 70
     2
  9
$LTSCALE
  40
     1.000000
  9
$OSMODE
 70
     0
  9
$ATTMODE
 70
     1
  9
$TEXTSIZE
 40
0.2
  9
$TRACEWID
 40
0.05
  9
$TEXTSTYLE
  7
STANDARD
  9
$CELTYPE
  6
BYLAYER
  9
$CECOLOR
 62
   256
  9
$DIMSCALE
 40
1.0
  9
$DIMASZ
 40
0.18
  9
$DIMEXO
 40
0.0625
  9
$DIMDLI
 40
0.38
  9
$DIMRND
 40
0.0
  9
$DIMDLE
 40
0.0
  9
$DIMEXE
 40
0.18
  9
$DIMTP
 40
0.0
  9
$DIMTM
 40
0.0
  9
$DIMTXT
 40
0.18
  9
$DIMCEN
 40
0.09
  9
$DIMTSZ
 40
0.0
  9
$DIMTOL
 70
     0
  9
$DIMLIM
 70
     0
  9
$DIMTIH
 70
     1
  9
$DIMTOH
 70
     1
  9
$DIMSE1
 70
     0
  9
$DIMSE2
 70
     0
  9
$DIMTAD
 70
     0
  9
$DIMZIN
 70
     0
  9
$DIMBLK
  1

  9
$LUNITS
 70
     2
  9
$LUPREC
 70
     4
  9
$AXISMODE
 70
     0
  9
$AXISUNIT
 10
0.0
 20
0.0
  9
$SKETCHINC
 40
0.1
  9
$FILLETRAD
 40
0.0
  9
$AUNITS
 70
     0
  9
$AUPREC
 70
     0
  9
$MENU
  1
ACAD
  9
$ELEVATION
 40
0.0
  9
$THICKNESS
 40
0.0
  9
$VIEWDIR
 10
0.0
 20
0.0
 30
1.0
  9
$LIMCHECK
 70
     0
  9
$BLIPMODE
 70
     1
  9
$CHAMFERA
 40
0.0
  9
$CHAMFERB
 40
0.0
  9
$FASTZOOM
 70
     1
  9
$SKPOLY
 70
     0
  9
$TDCREATE
 40
0000000.0000000000
  9
$TDUPDATE
 40
0000000.0000000000
  9
$TDINDWG
 40
0.0000000000
  9
$TDUSRTIMER
 40
0.0000000000
  9
$USRTIMER
 70
     1
  9
$ANGBASE
 50
0.0
  9
$ANGDIR
 70
     0
  9
$PDMODE
 70
     0
  9
$PDSIZE
 40
0.0
  9
$PLINEWID
 40
0.0
  9
$COORDS
 70
     0
  9
$USERI1
 70
     0
  9
$USERI2
 70
     0
  9
$USERI3
 70
     0
  9
$USERI4
 70
     0
  9
$USERI5
 70
     0
  9
$USERR1
 40
0.0
  9
$USERR2
 40
0.0
  9
$USERR3
 40
0.0
  9
$USERR4
 40
0.0
  9
$USERR5
 40
0.0
  9
$CLAYER
  8
M0
  9
$EXTMIN
 10
33.333332
 20
33.333332
  9
$EXTMAX
 10
666.66664
 20
949.999962
  9
$LIMMIN
 10
0.0
 20
0.0
  9
$LIMMAX
 10
210.0
 20
297.0
  9
$HANDSEED
  5
954
  0
ENDSEC
  0
SECTION
  2
CLASSES
  0
ENDSEC
  0
SECTION
  2
TABLES
  0
TABLE
  2
VPORT
  5
8
100
AcDbSymbolTable
 70
     2
  0
VPORT
  5
14
100
AcDbSymbolTableRecord
100
AcDbViewportTableRecord
  2
*ACTIVE
 70
     0
 10
0.0
 20
0.0
 11
1.0
 21
1.0
 12
484.0
 22
297.0
 13
0.0
 23
0.0
 14
1.0
 24
1.0
 15
0.0
 25
0.0
 16
0.0
 26
0.0
 36
1.0
 17
0.0
 27
0.0
 37
0.0
 40
594.0
 41
2.0
 42
50.0
 43
0.0
 44
0.0
 50
0.0
 51
0.0
 71
     0
 72
   100
 73
     1
 74
     1
 75
     0
 76
     0
 77
     0
 78
     0
  0
ENDTAB
  0
TABLE
  2
LTYPE
  5
5
100
AcDbSymbolTable
 70
     5
  0
LTYPE
  5
15
100
AcDbSymbolTableRecord
100
AcDbLinetypeTableRecord
  2
BYBLOCK
 70
     0
  3

 72
    65
 73
     0
 40
0.0
  0
LTYPE
  5
16
100
AcDbSymbolTableRecord
100
AcDbLinetypeTableRecord
  2
BYLAYER
 70
     0
  3

 72
    65
 73
     0
 40
0.0
  0
LTYPE
  5
17
100
AcDbSymbolTableRecord
100
AcDbLinetypeTableRecord
  2
CONTINUOUS
 70
    64
  3
Solid line
 72
    65
 73
     0
 40
0.0
  0
LTYPE
  5
18
100
AcDbSymbolTableRecord
100
AcDbLinetypeTableRecord
  2
DASHED
 70
    64
  3
__ __ __ __ __ __ __ __ __ __ __ __ __ __ __ __
 72
    65
 73
     2
 40
0.75
 49
0.5
 74
     0
 49
-0.25
 74
     0
  0
LTYPE
  5
19
100
AcDbSymbolTableRecord
100
AcDbLinetypeTableRecord
  2
DASHDOT
 70
    64
  3
__ . __ . __ . __ . __ . __ . __ . __ . __ . __
 72
    65
 73
     4
 40
1.0
 49
0.5
 74
     0
 49
-0.25
 74
     0
 49
0.0
 74
     0
 49
-0.25
 74
     0
  0
LTYPE
  5
1A
100
AcDbSymbolTableRecord
100
AcDbLinetypeTableRecord
  2
DIVIDE
 70
    64
  3
____ . . ____ . . ____ . . ____ . . ____ . . __
 72
    65
 73
     6
 40
1.25
 49
0.5
 74
     0
 49
-0.25
 74
     0
 49
0.0
 74
     0
 49
-0.25
 74
     0
 49
0.0
 74
     0
 49
-0.25
 74
     0
  0
LTYPE
  5
1B
100
AcDbSymbolTableRecord
100
AcDbLinetypeTableRecord
  2
DOT
 70
    64
  3
. . . . . . . . . . . . . . . . . . . . . . . .
 72
    65
 73
     2
 40
0.25
 49
0.0
 74
     0
 49
-0.25
 74
     0
  0
ENDTAB
  0
TABLE
  2
LAYER
  5
2
100
AcDbSymbolTable
 70
   102
  0
LAYER
  5
F
100
AcDbSymbolTableRecord
100
AcDbLayerTableRecord
  2
0
 70
     0
 62
     7
  6
CONTINUOUS
  0
LAYER
  5
1C
100
AcDbSymbolTableRecord
100
AcDbLayerTableRecord
  2
DEFPOINTS
 70
     0
 62
     7
  6
CONTINUOUS
  0
LAYER
  5
1D
100
AcDbSymbolTableRecord
100
AcDbLayerTableRecord
  2
M0
 70
     0
 62
     3
  6
CONTINUOUS
  0
LAYER
  5
1E
100
AcDbSymbolTableRecord
100
AcDbLayerTableRecord
  2
M1
 70
     0
 62
     3
  6
CONTINUOUS
  0
LAYER
  5
1F
100
AcDbSymbolTableRecord
100
AcDbLayerTableRecord
  2
DD0
 70
     0
 62
     4
  6
CONTINUOUS
  0
LAYER
  5
20
100
AcDbSymbolTableRecord
100
AcDbLayerTableRecord
  2
DN0
 70
     0
 62
     2
  6
CONTINUOUS
  0
ENDTAB
  0
TABLE
  2
STYLE
  5
3
100
AcDbSymbolTable
 70
     2
  0
STYLE
  5
10
100
AcDbSymbolTableRecord
100
AcDbTextStyleTableRecord
  2
STANDARD
 70
     0
 40
0.0
 41
1.0
 50
0.0
 71
     0
 42
0.2
  3
txt
  4
BIGFONT
  0
ENDTAB
  0
TABLE
  2
VIEW
  5
6
100
AcDbSymbolTable
 70
     0
  0
ENDTAB
  0
TABLE
  2
UCS
  5
7
100
AcDbSymbolTable
 70
     0
  0
ENDTAB
  0
TABLE
  2
APPID
  5
9
100
AcDbSymbolTable
 70
     1
  0
APPID
  5
11
100
AcDbSymbolTableRecord
100
AcDbRegAppTableRecord
  2
ACAD
 70
     0
  0
ENDTAB
  0
TABLE
  2
DIMSTYLE
  5
A
100
AcDbSymbolTable
 70
     2
  0
DIMSTYLE
105
27
100
AcDbSymbolTableRecord
100
AcDbDimStyleTableRecord
  2
STANDARD
 70
     0
  3

  4

  5

  6
_OPEN
  7
_OPEN
 40
1.0
 41
10.0
 42
1.0
 43
8.0
 44
1.0
 45
0.0
 46
0.0
 47
0.0
 48
0.0
140
10.5
141
0.09
142
0.0
143
0.03937
144
1.0
145
0.0
146
1.0
147
0.6
 71
     0
 72
     0
 73
     1
 74
     1
 75
     0
 76
     0
 77
     3
 78
     8
170
     0
171
     2
172
     0
173
     1
174
     0
175
     0
176
     0
177
     0
178
     0
270
     2
271
     2
272
     4
273
     2
274
     2
340
10
275
     0
280
     0
281
     0
282
     0
283
     1
284
     0
285
     0
286
     0
287
     3
288
     0
  0
DIMSTYLE
105
28
100
AcDbSymbolTableRecord
100
AcDbDimStyleTableRecord
  2
LEADSTYL
 70
     0
  3

  4

  5

  6
_OPEN
  7
_OPEN
 40
1.0
 41
10.0
 42
0.0625
 43
0.38
 44
0.18
 45
0.0
 46
0.0
 47
0.0
 48
0.0
140
10.5
141
0.09
142
0.0
143
25.4
144
1.0
145
0.0
146
1.0
147
0.6
 71
     0
 72
     0
 73
     1
 74
     1
 75
     0
 76
     0
 77
     0
 78
     0
170
     0
171
     2
172
     0
173
     1
174
     0
175
     0
176
     0
177
     0
178
     0
270
     2
271
     4
272
     4
273
     2
274
     2
340
10
275
     0
280
     0
281
     0
282
     0
283
     1
284
     0
285
     0
286
     0
287
     3
288
     0
  0
ENDTAB
  0
TABLE
  2
BLOCK_RECORD
  5
1
100
AcDbSymbolTable
 70
    17
  0
BLOCK_RECORD
  5
21
100
AcDbSymbolTableRecord
100
AcDbBlockTableRecord
  2
*MODEL_SPACE
  0
BLOCK_RECORD
  5
24
100
AcDbSymbolTableRecord
100
AcDbBlockTableRecord
  2
*PAPER_SPACE
  0
BLOCK_RECORD
  5
29
100
AcDbSymbolTableRecord
100
AcDbBlockTableRecord
  2
_NONE
  0
BLOCK_RECORD
  5
2D
100
AcDbSymbolTableRecord
100
AcDbBlockTableRecord
  2
_OPEN
  0
BLOCK_RECORD
  5
33
100
AcDbSymbolTableRecord
100
AcDbBlockTableRecord
  2
_CLOSED
  0
BLOCK_RECORD
  5
3A
100
AcDbSymbolTableRecord
100
AcDbBlockTableRecord
  2
_ORIGIN
  0
BLOCK_RECORD
  5
3F
100
AcDbSymbolTableRecord
100
AcDbBlockTableRecord
  2
_DOT
  0
BLOCK_RECORD
  5
47
100
AcDbSymbolTableRecord
100
AcDbBlockTableRecord
  2
_OBLIQUE
  0
BLOCK_RECORD
  5
4B
100
AcDbSymbolTableRecord
100
AcDbBlockTableRecord
  2
DIMS0
  0
BLOCK_RECORD
  5
57
100
AcDbSymbolTableRecord
100
AcDbBlockTableRecord
  2
DIMS1
  0
BLOCK_RECORD
  5
63
100
AcDbSymbolTableRecord
100
AcDbBlockTableRecord
  2
DIMS2
  0
BLOCK_RECORD
  5
6F
100
AcDbSymbolTableRecord
100
AcDbBlockTableRecord
  2
DIMS3
  0
BLOCK_RECORD
  5
7B
100
AcDbSymbolTableRecord
100
AcDbBlockTableRecord
  2
DIMS4
  0
BLOCK_RECORD
  5
87
100
AcDbSymbolTableRecord
100
AcDbBlockTableRecord
  2
DIMS5
  0
BLOCK_RECORD
  5
90
100
AcDbSymbolTableRecord
100
AcDbBlockTableRecord
  2
DIMS6
  0
BLOCK_RECORD
  5
9C
100
AcDbSymbolTableRecord
100
AcDbBlockTableRecord
  2
DIMS7
  0
BLOCK_RECORD
  5
A6
100
AcDbSymbolTableRecord
100
AcDbBlockTableRecord
  2
DIMS8
  0
BLOCK_RECORD
  5
B2
100
AcDbSymbolTableRecord
100
AcDbBlockTableRecord
  2
DIMS9
  0
BLOCK_RECORD
  5
BE
100
AcDbSymbolTableRecord
100
AcDbBlockTableRecord
  2
DIMS10
  0
ENDTAB
  0
ENDSEC
  0
SECTION
  2
BLOCKS
  0
BLOCK
  5
22
100
AcDbEntity
  8
0
100
AcDbBlockBegin
  2
*MODEL_SPACE
 70
     0
 10
0.0
 20
0.0
 30
0.0
  3
*MODEL_SPACE
  1

  0
ENDBLK
  5
23
100
AcDbEntity
  8
0
100
AcDbBlockEnd
  0
BLOCK
  5
25
100
AcDbEntity
 67
     1
  8
0
100
AcDbBlockBegin
  2
*PAPER_SPACE
 70
     0
 10
0.0
 20
0.0
 30
0.0
  3
*PAPER_SPACE
  1

  0
ENDBLK
  5
26
100
AcDbEntity
 67
     1
  8
0
100
AcDbBlockEnd
  0
BLOCK
  5
2A
100
AcDbEntity
  8
0
100
AcDbBlockBegin
  2
_NONE
 70
     0
 10
0.0
 20
0.0
  0
CIRCLE
  5
2B
100
AcDbEntity
  8
0
 62
     0
100
AcDbCircle
 10
0.0
 20
0.0
 40
0.25
  0
ENDBLK
  5
2C
100
AcDbEntity
  8
0
100
AcDbBlockEnd
  0
BLOCK
  5
2E
100
AcDbEntity
  8
0
100
AcDbBlockBegin
  2
_OPEN
 70
     0
 10
0.0
 20
0.0
  0
LINE
  5
2F
100
AcDbEntity
  8
0
 62
     0
100
AcDbLine
 10
-0.965926
 20
0.258819
 11
0.0
 21
0.0
  0
LINE
  5
30
100
AcDbEntity
  8
0
 62
     0
100
AcDbLine
 10
0.0
 20
0.0
 11
-0.965926
 21
-0.258819
  0
LINE
  5
31
100
AcDbEntity
  8
0
 62
     0
100
AcDbLine
 10
0.0
 20
0.0
 11
-1.0
 21
0.0
  0
ENDBLK
  5
32
100
AcDbEntity
  8
0
100
AcDbBlockEnd
  0
BLOCK
  5
34
100
AcDbEntity
  8
0
100
AcDbBlockBegin
  2
_CLOSED
 70
     0
 10
0.0
 20
0.0
  0
LINE
  5
35
100
AcDbEntity
  8
0
 62
     0
100
AcDbLine
 10
-0.965926
 20
0.258819
 11
0.0
 21
0.0
  0
LINE
  5
36
100
AcDbEntity
  8
0
 62
     0
100
AcDbLine
 10
0.0
 20
0.0
 11
-0.965926
 21
-0.258819
  0
LINE
  5
37
100
AcDbEntity
  8
0
 62
     0
100
AcDbLine
 10
-0.965926
 20
0.258819
 11
-0.965926
 21
-0.258819
  0
LINE
  5
38
100
AcDbEntity
  8
0
 62
     0
100
AcDbLine
 10
0.0
 20
0.0
 11
-1.0
 21
0.0
  0
ENDBLK
  5
39
100
AcDbEntity
  8
0
100
AcDbBlockEnd
  0
BLOCK
  5
3B
100
AcDbEntity
  8
0
100
AcDbBlockBegin
  2
_ORIGIN
 70
     0
 10
0.0
 20
0.0
  0
CIRCLE
  5
3C
100
AcDbEntity
  8
0
 62
     0
100
AcDbCircle
 10
0.0
 20
0.0
 40
0.5
  0
LINE
  5
3D
100
AcDbEntity
  8
0
 62
     0
100
AcDbLine
 10
0.0
 20
0.0
 11
-1.0
 21
0.0
  0
ENDBLK
  5
3E
100
AcDbEntity
  8
0
100
AcDbBlockEnd
  0
BLOCK
  5
40
100
AcDbEntity
  8
0
100
AcDbBlockBegin
  2
_DOT
 70
     0
 10
0.0
 20
0.0
  0
POLYLINE
  5
41
100
AcDbEntity
  8
0
 62
     0
100
AcDb2dPolyline
 66
     1
 70
     1
 40
0.5
 41
0.5
  0
VERTEX
  5
42
100
AcDbEntity
  8
0
 62
     0
100
AcDbVertex
100
AcDb2dVertex
 10
-0.25
 20
0.0
 42
1.0
  0
VERTEX
  5
43
100
AcDbEntity
  8
0
 62
     0
100
AcDbVertex
100
AcDb2dVertex
 10
0.25
 20
0.0
 42
1.0
  0
SEQEND
  5
44
100
AcDbEntity
  8
0
 62
     0
  0
LINE
  5
45
100
AcDbEntity
  8
0
 62
     0
100
AcDbLine
 10
-0.5
 20
0.0
 11
-1.0
 21
0.0
  0
ENDBLK
  5
46
100
AcDbEntity
  8
0
100
AcDbBlockEnd
  0
BLOCK
  5
48
100
AcDbEntity
  8
0
100
AcDbBlockBegin
  2
_OBLIQUE
 70
     0
 10
0.0
 20
0.0
  0
LINE
  5
49
100
AcDbEntity
  8
0
 62
     0
100
AcDbLine
 10
-0.353553
 20
-0.353553
 11
0.353553
 21
0.353553
  0
ENDBLK
  5
4A
100
AcDbEntity
  8
0
100
AcDbBlockEnd
  0
BLOCK
  5
4C
100
AcDbEntity
  8
DD0
100
AcDbBlockBegin
  2
DIMS0
 70
     0
 10
0.0
 20
0.0
  0
LINE
  5
4D
100
AcDbEntity
  8
DD0
 60
     1
100
AcDbLine
 10
346.617901
 20
630.289688
 11
394.990727
 21
630.289688
  0
LINE
  5
4E
100
AcDbEntity
  8
DD0
100
AcDbLine
 10
346.617901
 20
800.289478
 11
394.990727
 21
800.289478
  0
LINE
  5
4F
100
AcDbEntity
  8
DD0
100
AcDbLine
 10
389.069204
 20
639.948946
 11
391.657394
 21
630.289688
  0
LINE
  5
50
100
AcDbEntity
  8
DD0
100
AcDbLine
 10
391.657394
 20
630.289688
 11
394.245585
 21
639.948946
  0
LINE
  5
51
100
AcDbEntity
  8
DD0
100
AcDbLine
 10
394.245585
 20
790.63022
 11
391.657394
 21
800.289478
  0
LINE
  5
52
100
AcDbEntity
  8
DD0
100
AcDbLine
 10
391.657394
 20
800.289478
 11
389.069204
 21
790.63022
  0
LINE
  5
53
100
AcDbEntity
  8
DD0
100
AcDbLine
 10
391.657394
 20
630.289688
 11
391.657394
 21
800.289478
  0
TEXT
  5
54
100
AcDbEntity
  8
DD0
100
AcDbText
 10
389.657399
 20
700.397901
 40
10.5
  1
１７０
 50
90.000003
 41
0.833333
  7
STANDARD
100
AcDbText
  0
ENDBLK
  5
55
100
AcDbEntity
  8
DD0
100
AcDbBlockEnd
  0
BLOCK
  5
58
100
AcDbEntity
  8
DD0
100
AcDbBlockBegin
  2
DIMS1
 70
     0
 10
0.0
 20
0.0
  0
LINE
  5
59
100
AcDbEntity
  8
DD0
100
AcDbLine
 10
346.617901
 20
630.289688
 11
394.990727
 21
630.289688
  0
LINE
  5
5A
100
AcDbEntity
  8
DD0
100
AcDbLine
 10
308.118121
 20
604.290239
 11
394.990727
 21
604.290239
  0
LINE
  5
5B
100
AcDbEntity
  8
DD0
100
AcDbLine
 10
394.245585
 20
620.630431
 11
391.657394
 21
630.289688
  0
LINE
  5
5C
100
AcDbEntity
  8
DD0
100
AcDbLine
 10
391.657394
 20
630.289688
 11
389.069204
 21
620.630431
  0
LINE
  5
5D
100
AcDbEntity
  8
DD0
100
AcDbLine
 10
389.069204
 20
613.949497
 11
391.657394
 21
604.290239
  0
LINE
  5
5E
100
AcDbEntity
  8
DD0
100
AcDbLine
 10
391.657394
 20
604.290239
 11
394.245585
 21
613.949497
  0
LINE
  5
5F
100
AcDbEntity
  8
DD0
100
AcDbLine
 10
391.657394
 20
630.289688
 11
391.657394
 21
604.290239
  0
TEXT
  5
60
100
AcDbEntity
  8
DD0
100
AcDbText
 10
389.657399
 20
607.648322
 40
10.5
  1
２６
 50
90.000003
 41
0.833333
  7
STANDARD
100
AcDbText
  0
ENDBLK
  5
61
100
AcDbEntity
  8
DD0
100
AcDbBlockEnd
  0
BLOCK
  5
64
100
AcDbEntity
  8
DD0
100
AcDbBlockBegin
  2
DIMS2
 70
     0
 10
0.0
 20
0.0
  0
LINE
  5
65
100
AcDbEntity
  8
DD0
100
AcDbLine
 10
346.617901
 20
800.289478
 11
394.990727
 21
800.289478
  0
LINE
  5
66
100
AcDbEntity
  8
DD0
100
AcDbLine
 10
308.118121
 20
826.29025
 11
394.990727
 21
826.29025
  0
LINE
  5
67
100
AcDbEntity
  8
DD0
100
AcDbLine
 10
389.069204
 20
809.948736
 11
391.657394
 21
800.289478
  0
LINE
  5
68
100
AcDbEntity
  8
DD0
100
AcDbLine
 10
391.657394
 20
800.289478
 11
394.245585
 21
809.948736
  0
LINE
  5
69
100
AcDbEntity
  8
DD0
100
AcDbLine
 10
394.245585
 20
816.630993
 11
391.657394
 21
826.29025
  0
LINE
  5
6A
100
AcDbEntity
  8
DD0
100
AcDbLine
 10
391.657394
 20
826.29025
 11
389.069204
 21
816.630993
  0
LINE
  5
6B
100
AcDbEntity
  8
DD0
100
AcDbLine
 10
391.657394
 20
800.289478
 11
391.657394
 21
826.29025
  0
TEXT
  5
6C
100
AcDbEntity
  8
DD0
100
AcDbText
 10
389.657399
 20
803.648222
 40
10.5
  1
２６
 50
90.000003
 41
0.833333
  7
STANDARD
100
AcDbText
  0
ENDBLK
  5
6D
100
AcDbEntity
  8
DD0
100
AcDbBlockEnd
  0
BLOCK
  5
70
100
AcDbEntity
  8
DD0
100
AcDbBlockBegin
  2
DIMS3
 70
     0
 10
0.0
 20
0.0
  0
LINE
  5
71
100
AcDbEntity
  8
DD0
100
AcDbLine
 10
105.784755
 20
748.623526
 11
105.784755
 21
884.918279
  0
LINE
  5
72
100
AcDbEntity
  8
DD0
100
AcDbLine
 10
350.784313
 20
748.623577
 11
350.784313
 21
884.918279
  0
LINE
  5
73
100
AcDbEntity
  8
DD0
100
AcDbLine
 10
115.444013
 20
884.173137
 11
105.784755
 21
881.584946
  0
LINE
  5
74
100
AcDbEntity
  8
DD0
100
AcDbLine
 10
105.784755
 20
881.584946
 11
115.444013
 21
878.996756
  0
LINE
  5
75
100
AcDbEntity
  8
DD0
100
AcDbLine
 10
341.125055
 20
878.996756
 11
350.784313
 21
881.584946
  0
LINE
  5
76
100
AcDbEntity
  8
DD0
100
AcDbLine
 10
350.784313
 20
881.584946
 11
341.125055
 21
884.173137
  0
LINE
  5
77
100
AcDbEntity
  8
DD0
100
AcDbLine
 10
105.784755
 20
881.584946
 11
350.784313
 21
881.584946
  0
TEXT
  5
78
100
AcDbEntity
  8
DD0
100
AcDbText
 10
129.392878
 20
883.584967
 40
10.5
  1
２４３（追加補助接点ユニット付の場合）
 41
0.833333
  7
STANDARD
100
AcDbText
  0
ENDBLK
  5
79
100
AcDbEntity
  8
DD0
100
AcDbBlockEnd
  0
BLOCK
  5
7C
100
AcDbEntity
  8
DD0
100
AcDbBlockBegin
  2
DIMS4
 70
     0
 10
0.0
 20
0.0
  0
LINE
  5
7D
100
AcDbEntity
  8
DD0
100
AcDbLine
 10
108.284539
 20
798.622812
 11
108.284539
 21
852.114682
  0
LINE
  5
7E
100
AcDbEntity
  8
DD0
100
AcDbLine
 10
348.284313
 20
798.622812
 11
348.284313
 21
852.114682
  0
LINE
  5
7F
100
AcDbEntity
  8
DD0
100
AcDbLine
 10
117.943797
 20
851.369539
 11
108.284539
 21
848.781349
  0
LINE
  5
80
100
AcDbEntity
  8
DD0
100
AcDbLine
 10
108.284539
 20
848.781349
 11
117.943797
 21
846.193158
  0
LINE
  5
81
100
AcDbEntity
  8
DD0
100
AcDbLine
 10
338.625055
 20
846.193158
 11
348.284313
 21
848.781349
  0
LINE
  5
82
100
AcDbEntity
  8
DD0
100
AcDbLine
 10
348.284313
 20
848.781349
 11
338.625055
 21
851.369539
  0
LINE
  5
83
100
AcDbEntity
  8
DD0
100
AcDbLine
 10
108.284539
 20
848.781349
 11
348.284313
 21
848.781349
  0
TEXT
  5
84
100
AcDbEntity
  8
DD0
100
AcDbText
 10
213.392763
 20
850.781369
 40
10.5
  1
２４０
 41
0.833333
  7
STANDARD
100
AcDbText
  0
ENDBLK
  5
85
100
AcDbEntity
  8
DD0
100
AcDbBlockEnd
  0
BLOCK
  5
88
100
AcDbEntity
  8
DD0
100
AcDbBlockBegin
  2
DIMS5
 70
     0
 10
0.0
 20
0.0
  0
TEXT
  5
89
100
AcDbEntity
  8
DD0
100
AcDbText
 10
262.701055
 20
286.376993
 40
10.5
  1
３－Ｍ６ねじ穴
 41
0.833333
  7
STANDARD
100
AcDbText
  0
LINE
  5
8A
100
AcDbEntity
  8
DD0
100
AcDbLine
 10
239.939749
 20
316.410516
 11
232.380184
 21
322.956734
  0
LINE
  5
8B
100
AcDbEntity
  8
DD0
100
AcDbLine
 10
232.380184
 20
322.956734
 11
235.65385
 21
313.50776
  0
LINE
  5
8C
100
AcDbEntity
  8
DD0
100
AcDbLine
 10
232.380184
 20
322.956734
 11
258.509435
 21
284.377074
  0
LINE
  5
8D
100
AcDbEntity
  8
DD0
100
AcDbLine
 10
258.509435
 20
284.377049
 11
338.676058
 21
284.377049
  0
ENDBLK
  5
8E
100
AcDbEntity
  8
DD0
100
AcDbBlockEnd
  0
BLOCK
  5
91
100
AcDbEntity
  8
DD0
100
AcDbBlockBegin
  2
DIMS6
 70
     0
 10
0.0
 20
0.0
  0
LINE
  5
92
100
AcDbEntity
  8
DD0
100
AcDbLine
 10
351.617901
 20
487.341493
 11
394.990727
 21
487.341493
  0
LINE
  5
93
100
AcDbEntity
  8
DD0
100
AcDbLine
 10
366.840094
 20
477.341239
 11
394.990727
 21
477.341239
  0
LINE
  5
94
100
AcDbEntity
  8
DD0
100
AcDbLine
 10
389.069204
 20
497.000751
 11
391.657394
 21
487.341493
  0
LINE
  5
95
100
AcDbEntity
  8
DD0
100
AcDbLine
 10
391.657394
 20
487.341493
 11
394.245585
 21
497.000751
  0
LINE
  5
96
100
AcDbEntity
  8
DD0
100
AcDbLine
 10
394.245585
 20
467.681981
 11
391.657394
 21
477.341239
  0
LINE
  5
97
100
AcDbEntity
  8
DD0
100
AcDbLine
 10
391.657394
 20
477.341239
 11
389.069204
 21
467.681981
  0
LINE
  5
98
100
AcDbEntity
  8
DD0
100
AcDbLine
 10
391.657394
 20
522.674826
 11
391.657394
 21
466.341239
  0
TEXT
  5
99
100
AcDbEntity
  8
DD0
100
AcDbText
 10
389.657399
 20
499.19984
 40
10.5
  1
１０
 50
90.000003
 41
0.833333
  7
STANDARD
100
AcDbText
  0
ENDBLK
  5
9A
100
AcDbEntity
  8
DD0
100
AcDbBlockEnd
  0
BLOCK
  5
9D
100
AcDbEntity
  8
DD0
100
AcDbBlockBegin
  2
DIMS7
 70
     0
 10
0.0
 20
0.0
  0
LINE
  5
9E
100
AcDbEntity
  8
DD0
 60
     1
100
AcDbLine
 10
366.840094
 20
477.341239
 11
394.990702
 21
477.341239
  0
LINE
  5
9F
100
AcDbEntity
  8
DD0
100
AcDbLine
 10
256.840073
 20
327.341448
 11
394.990702
 21
327.341448
  0
LINE
  5
A0
100
AcDbEntity
  8
DD0
100
AcDbLine
 10
389.069178
 20
337.000706
 11
391.657369
 21
327.341448
  0
LINE
  5
A1
100
AcDbEntity
  8
DD0
100
AcDbLine
 10
391.657369
 20
327.341448
 11
394.245559
 21
337.000706
  0
LINE
  5
A2
100
AcDbEntity
  8
DD0
100
AcDbLine
 10
391.657369
 20
477.341239
 11
391.657369
 21
327.341448
  0
TEXT
  5
A3
100
AcDbEntity
  8
DD0
100
AcDbText
 10
389.657374
 20
387.449686
 40
10.5
  1
１５０
 50
90.000003
 41
0.833333
  7
STANDARD
100
AcDbText
  0
ENDBLK
  5
A4
100
AcDbEntity
  8
DD0
100
AcDbBlockEnd
  0
BLOCK
  5
A7
100
AcDbEntity
  8
DD0
100
AcDbBlockBegin
  2
DIMS8
 70
     0
 10
0.0
 20
0.0
  0
LINE
  5
A8
100
AcDbEntity
  8
DD0
100
AcDbLine
 10
118.284539
 20
505.896739
 11
118.284539
 21
526.082285
  0
LINE
  5
A9
100
AcDbEntity
  8
DD0
100
AcDbLine
 10
338.284568
 20
505.896739
 11
338.284568
 21
526.082285
  0
LINE
  5
AA
100
AcDbEntity
  8
DD0
100
AcDbLine
 10
127.943797
 20
525.337142
 11
118.284539
 21
522.748952
  0
LINE
  5
AB
100
AcDbEntity
  8
DD0
100
AcDbLine
 10
118.284539
 20
522.748952
 11
127.943797
 21
520.160761
  0
LINE
  5
AC
100
AcDbEntity
  8
DD0
100
AcDbLine
 10
328.62531
 20
520.160761
 11
338.284568
 21
522.748952
  0
LINE
  5
AD
100
AcDbEntity
  8
DD0
100
AcDbLine
 10
338.284568
 20
522.748952
 11
328.62531
 21
525.337142
  0
LINE
  5
AE
100
AcDbEntity
  8
DD0
100
AcDbLine
 10
118.284539
 20
522.748952
 11
338.284568
 21
522.748952
  0
TEXT
  5
AF
100
AcDbEntity
  8
DD0
100
AcDbText
 10
213.39289
 20
524.748972
 40
10.5
  1
２２０
 41
0.833333
  7
STANDARD
100
AcDbText
  0
ENDBLK
  5
B0
100
AcDbEntity
  8
DD0
100
AcDbBlockEnd
  0
BLOCK
  5
B3
100
AcDbEntity
  8
DD0
100
AcDbBlockBegin
  2
DIMS9
 70
     0
 10
0.0
 20
0.0
  0
LINE
  5
B4
100
AcDbEntity
  8
DD0
100
AcDbLine
 10
603.406348
 20
803.141651
 11
603.406348
 21
852.114682
  0
LINE
  5
B5
100
AcDbEntity
  8
DD0
100
AcDbLine
 10
443.806491
 20
765.141419
 11
443.806491
 21
852.114682
  0
LINE
  5
B6
100
AcDbEntity
  8
DD0
100
AcDbLine
 10
593.74709
 20
846.193158
 11
603.406348
 21
848.781349
  0
LINE
  5
B7
100
AcDbEntity
  8
DD0
100
AcDbLine
 10
603.406348
 20
848.781349
 11
593.74709
 21
851.369539
  0
LINE
  5
B8
100
AcDbEntity
  8
DD0
100
AcDbLine
 10
453.465749
 20
851.369539
 11
443.806491
 21
848.781349
  0
LINE
  5
B9
100
AcDbEntity
  8
DD0
100
AcDbLine
 10
443.806491
 20
848.781349
 11
453.465749
 21
846.193158
  0
LINE
  5
BA
100
AcDbEntity
  8
DD0
100
AcDbLine
 10
603.406348
 20
848.781349
 11
443.806491
 21
848.781349
  0
TEXT
  5
BB
100
AcDbEntity
  8
DD0
100
AcDbText
 10
508.714762
 20
850.781369
 40
10.5
  1
１６０
 41
0.833333
  7
STANDARD
100
AcDbText
  0
ENDBLK
  5
BC
100
AcDbEntity
  8
DD0
100
AcDbBlockEnd
  0
BLOCK
  5
BF
100
AcDbEntity
  8
DD0
100
AcDbBlockBegin
  2
DIMS10
 70
     0
 10
0.0
 20
0.0
  0
LINE
  5
C0
100
AcDbEntity
  8
DD0
100
AcDbLine
 10
603.406348
 20
803.141651
 11
603.406348
 21
829.623584
  0
LINE
  5
C1
100
AcDbEntity
  8
DD0
100
AcDbLine
 10
601.806464
 20
803.141651
 11
601.806464
 21
829.623584
  0
LINE
  5
C2
100
AcDbEntity
  8
DD0
100
AcDbLine
 10
613.065606
 20
828.878441
 11
603.406348
 21
826.29025
  0
LINE
  5
C3
100
AcDbEntity
  8
DD0
100
AcDbLine
 10
603.406348
 20
826.29025
 11
613.065606
 21
823.70206
  0
LINE
  5
C4
100
AcDbEntity
  8
DD0
100
AcDbLine
 10
592.147206
 20
823.70206
 11
601.806464
 21
826.29025
  0
LINE
  5
C5
100
AcDbEntity
  8
DD0
100
AcDbLine
 10
601.806464
 20
826.29025
 11
592.147206
 21
828.878441
  0
LINE
  5
C6
100
AcDbEntity
  8
DD0
100
AcDbLine
 10
649.239683
 20
826.29025
 11
590.806465
 21
826.29025
  0
TEXT
  5
C7
100
AcDbEntity
  8
DD0
100
AcDbText
 10
615.264695
 20
828.290271
 40
10.5
  1
１．６
 41
0.833333
  7
STANDARD
100
AcDbText
  0
ENDBLK
  5
C8
100
AcDbEntity
  8
DD0
100
AcDbBlockEnd
  0
ENDSEC
  0
SECTION
  2
ENTITIES
  0
INSERT
  5
56
100
AcDbEntity
  8
DD0
100
AcDbBlockReference
  2
DIMS0
 10
0.0
 20
0.0
  0
INSERT
  5
62
100
AcDbEntity
  8
DD0
100
AcDbBlockReference
  2
DIMS1
 10
0.0
 20
0.0
  0
INSERT
  5
6E
100
AcDbEntity
  8
DD0
100
AcDbBlockReference
  2
DIMS2
 10
0.0
 20
0.0
  0
INSERT
  5
7A
100
AcDbEntity
  8
DD0
100
AcDbBlockReference
  2
DIMS3
 10
0.0
 20
0.0
  0
INSERT
  5
86
100
AcDbEntity
  8
DD0
100
AcDbBlockReference
  2
DIMS4
 10
0.0
 20
0.0
  0
INSERT
  5
8F
100
AcDbEntity
  8
DD0
100
AcDbBlockReference
  2
DIMS5
 10
0.0
 20
0.0
  0
INSERT
  5
9B
100
AcDbEntity
  8
DD0
100
AcDbBlockReference
  2
DIMS6
 10
0.0
 20
0.0
  0
INSERT
  5
A5
100
AcDbEntity
  8
DD0
100
AcDbBlockReference
  2
DIMS7
 10
0.0
 20
0.0
  0
INSERT
  5
B1
100
AcDbEntity
  8
DD0
100
AcDbBlockReference
  2
DIMS8
 10
0.0
 20
0.0
  0
INSERT
  5
BD
100
AcDbEntity
  8
DD0
100
AcDbBlockReference
  2
DIMS9
 10
0.0
 20
0.0
  0
INSERT
  5
C9
100
AcDbEntity
  8
DD0
100
AcDbBlockReference
  2
DIMS10
 10
0.0
 20
0.0
  0
ARC
  5
CA
100
AcDbEntity
  8
M0
 62
     4
100
AcDbCircle
 10
276.285075
 20
759.290751
 40
4.5
100
AcDbArc
 50
180.0
 51
360.0
  0
ARC
  5
CB
100
AcDbEntity
  8
M0
 62
     4
100
AcDbCircle
 10
299.285075
 20
671.290766
 40
4.5
100
AcDbArc
 50
0.0
 51
180.0
  0
LINE
  5
CC
100
AcDbEntity
  8
M0
 62
     4
100
AcDbLine
 10
324.284831
 20
673.790735
 11
324.284831
 21
756.790522
  0
LINE
  5
CD
100
AcDbEntity
  8
M0
 62
     4
100
AcDbLine
 10
310.784419
 20
764.290278
 11
303.284831
 21
764.290278
  0
LINE
  5
CE
100
AcDbEntity
  8
M0
 62
     4
100
AcDbLine
 10
251.284831
 20
756.790522
 11
251.284831
 21
673.790751
  0
LINE
  5
CF
100
AcDbEntity
  8
M0
 62
     4
100
AcDbLine
 10
253.284831
 20
758.790522
 11
268.784831
 21
758.790522
  0
LINE
  5
D0
100
AcDbEntity
  8
M0
 62
     4
100
AcDbLine
 10
253.284831
 20
671.790751
 11
268.284892
 21
671.790751
  0
CIRCLE
  5
D1
100
AcDbEntity
  8
M0
 62
     4
100
AcDbCircle
 10
319.784831
 20
744.790522
 40
1.5
  0
LINE
  5
D2
100
AcDbEntity
  8
M0
  6
DASHDOT
 62
     4
100
AcDbLine
 10
319.784831
 20
738.290522
 11
319.784831
 21
751.290522
  0
CIRCLE
  5
D3
100
AcDbEntity
  8
M0
 62
     4
100
AcDbCircle
 10
319.784831
 20
744.790522
 40
1.0
  0
CIRCLE
  5
D4
100
AcDbEntity
  8
M0
 62
     4
100
AcDbCircle
 10
319.784831
 20
685.790751
 40
1.5
  0
LINE
  5
D5
100
AcDbEntity
  8
M0
  6
DASHDOT
 62
     4
100
AcDbLine
 10
313.284831
 20
685.790751
 11
326.284831
 21
685.790751
  0
LINE
  5
D6
100
AcDbEntity
  8
M0
  6
DASHDOT
 62
     4
100
AcDbLine
 10
319.784831
 20
692.290751
 11
319.784831
 21
679.290751
  0
CIRCLE
  5
D7
100
AcDbEntity
  8
M0
 62
     4
100
AcDbCircle
 10
319.784831
 20
685.790751
 40
1.0
  0
CIRCLE
  5
D8
100
AcDbEntity
  8
M0
 62
     4
100
AcDbCircle
 10
255.784861
 20
744.790522
 40
1.5
  0
LINE
  5
D9
100
AcDbEntity
  8
M0
  6
DASHDOT
 62
     4
100
AcDbLine
 10
262.284846
 20
744.790522
 11
249.284861
 21
744.790522
  0
LINE
  5
DA
100
AcDbEntity
  8
M0
  6
DASHDOT
 62
     4
100
AcDbLine
 10
255.784846
 20
738.290522
 11
255.784861
 21
751.290278
  0
CIRCLE
  5
DB
100
AcDbEntity
  8
M0
 62
     4
100
AcDbCircle
 10
255.784861
 20
744.790522
 40
1.0
  0
CIRCLE
  5
DC
100
AcDbEntity
  8
M0
 62
     4
100
AcDbCircle
 10
255.784861
 20
685.790751
 40
1.5
  0
LINE
  5
DD
100
AcDbEntity
  8
M0
  6
DASHDOT
 62
     4
100
AcDbLine
 10
262.284846
 20
685.790751
 11
249.284861
 21
685.790735
  0
LINE
  5
DE
100
AcDbEntity
  8
M0
  6
DASHDOT
 62
     4
100
AcDbLine
 10
255.784846
 20
692.290735
 11
255.784861
 21
679.290751
  0
CIRCLE
  5
DF
100
AcDbEntity
  8
M0
 62
     4
100
AcDbCircle
 10
255.784861
 20
685.790751
 40
1.0
  0
LINE
  5
E0
100
AcDbEntity
  8
M0
  6
DASHDOT
 62
     4
100
AcDbLine
 10
310.784831
 20
753.14184
 11
310.784831
 21
769.290522
  0
LINE
  5
E1
100
AcDbEntity
  8
M0
 62
     4
100
AcDbLine
 10
314.784831
 20
758.290522
 11
314.784831
 21
755.790522
  0
LINE
  5
E2
100
AcDbEntity
  8
M0
 62
     4
100
AcDbLine
 10
306.784831
 20
763.790033
 11
306.784831
 21
755.790522
  0
LINE
  5
E3
100
AcDbEntity
  8
M0
 62
     4
100
AcDbLine
 10
302.784831
 20
763.790033
 11
302.784831
 21
758.790522
  0
LINE
  5
E4
100
AcDbEntity
  8
M0
 62
     4
100
AcDbLine
 10
310.784831
 20
764.290278
 11
319.784831
 21
758.790522
  0
LINE
  5
E5
100
AcDbEntity
  8
M0
 62
     4
100
AcDbLine
 10
283.784831
 20
763.790033
 11
283.784831
 21
755.790522
  0
LINE
  5
E6
100
AcDbEntity
  8
M0
 62
     4
100
AcDbLine
 10
283.284831
 20
764.290278
 11
264.785227
 21
764.290033
  0
LINE
  5
E7
100
AcDbEntity
  8
M0
 62
     4
100
AcDbLine
 10
268.784831
 20
763.790033
 11
268.784831
 21
755.790522
  0
LINE
  5
E8
100
AcDbEntity
  8
M0
 62
     4
100
AcDbLine
 10
264.784831
 20
764.290033
 11
255.784831
 21
758.790522
  0
ARC
  5
E9
100
AcDbEntity
  8
M0
 62
     4
100
AcDbCircle
 10
253.284831
 20
756.790522
 40
2.0
100
AcDbArc
 50
90.0
 51
180.0
  0
ARC
  5
EA
100
AcDbEntity
  8
M0
 62
     4
100
AcDbCircle
 10
322.284831
 20
756.790522
 40
2.0
100
AcDbArc
 50
0.0
 51
90.0
  0
LINE
  5
EB
100
AcDbEntity
  8
M0
  6
DASHDOT
 62
     4
100
AcDbLine
 10
264.784831
 20
766.845942
 11
264.784831
 21
752.652094
  0
LINE
  5
EC
100
AcDbEntity
  8
M0
 62
     4
100
AcDbLine
 10
283.784831
 20
758.790522
 11
302.784831
 21
758.790522
  0
LINE
  5
ED
100
AcDbEntity
  8
M0
 62
     4
100
AcDbLine
 10
272.784892
 20
666.790979
 11
272.784892
 21
671.290751
  0
LINE
  5
EE
100
AcDbEntity
  8
M0
 62
     4
100
AcDbLine
 10
268.784892
 20
666.790995
 11
268.784892
 21
674.790751
  0
LINE
  5
EF
100
AcDbEntity
  8
M0
 62
     4
100
AcDbLine
 10
264.784892
 20
666.290995
 11
255.784876
 21
671.790766
  0
LINE
  5
F0
100
AcDbEntity
  8
M0
 62
     4
100
AcDbLine
 10
264.785304
 20
666.290995
 11
272.284892
 21
666.290995
  0
LINE
  5
F1
100
AcDbEntity
  8
M0
 62
     4
100
AcDbLine
 10
292.284831
 20
666.290995
 11
310.784815
 21
666.290995
  0
LINE
  5
F2
100
AcDbEntity
  8
M0
 62
     4
100
AcDbLine
 10
310.784831
 20
666.290995
 11
319.784831
 21
671.790751
  0
ARC
  5
F3
100
AcDbEntity
  8
M0
 62
     4
100
AcDbCircle
 10
322.284831
 20
673.790751
 40
2.0
100
AcDbArc
 50
269.999563
 51
360.0
  0
LINE
  5
F4
100
AcDbEntity
  8
M0
 62
     4
100
AcDbLine
 10
306.784831
 20
674.790751
 11
306.784831
 21
666.790995
  0
LINE
  5
F5
100
AcDbEntity
  8
M0
 62
     4
100
AcDbLine
 10
291.784831
 20
674.790751
 11
291.784831
 21
666.790995
  0
LINE
  5
F6
100
AcDbEntity
  8
M0
 62
     4
100
AcDbLine
 10
307.284831
 20
671.790751
 11
322.284831
 21
671.790751
  0
ARC
  5
F7
100
AcDbEntity
  8
M0
 62
     4
100
AcDbCircle
 10
253.284831
 20
673.790751
 40
2.0
100
AcDbArc
 50
180.0
 51
269.999563
  0
LINE
  5
F8
100
AcDbEntity
  8
M0
  6
DASHDOT
 62
     4
100
AcDbLine
 10
310.784831
 20
662.882853
 11
310.784831
 21
679.324884
  0
LINE
  5
F9
100
AcDbEntity
  8
M0
 62
     4
100
AcDbLine
 10
280.784831
 20
763.790033
 11
280.784831
 21
759.290522
  0
LINE
  5
FA
100
AcDbEntity
  8
M0
 62
     4
100
AcDbLine
 10
271.784831
 20
763.790033
 11
271.784831
 21
759.290522
  0
LINE
  5
FB
100
AcDbEntity
  8
M0
 62
     4
100
AcDbLine
 10
303.784831
 20
671.290751
 11
303.784831
 21
666.790995
  0
LINE
  5
FC
100
AcDbEntity
  8
M0
 62
     4
100
AcDbLine
 10
294.784831
 20
671.290735
 11
294.784831
 21
666.790979
  0
CIRCLE
  5
FD
100
AcDbEntity
  8
M0
 62
     4
100
AcDbCircle
 10
299.284831
 20
671.290751
 40
2.75
  0
LINE
  5
FE
100
AcDbEntity
  8
M0
  6
DASHDOT
 62
     4
100
AcDbLine
 10
291.534831
 20
671.290751
 11
307.034831
 21
671.290751
  0
CIRCLE
  5
FF
100
AcDbEntity
  8
M0
 62
     4
100
AcDbCircle
 10
276.284831
 20
759.290522
 40
2.75
  0
CIRCLE
  5
100
100
AcDbEntity
  8
M0
 62
     4
100
AcDbCircle
 10
276.284831
 20
759.290522
 40
2.0
  0
LINE
  5
101
100
AcDbEntity
  8
M0
  6
DASHDOT
 62
     4
100
AcDbLine
 10
269.284831
 20
759.290522
 11
283.284831
 21
759.290522
  0
CIRCLE
  5
102
100
AcDbEntity
  8
M0
 62
     4
100
AcDbCircle
 10
299.284831
 20
671.290751
 40
2.0
  0
LINE
  5
103
100
AcDbEntity
  8
M0
  6
DASHDOT
 62
     4
100
AcDbLine
 10
292.284831
 20
671.290751
 11
306.284831
 21
671.290751
  0
LINE
  5
104
100
AcDbEntity
  8
M0
  6
DASHDOT
 62
     4
100
AcDbLine
 10
299.284831
 20
664.290751
 11
299.284831
 21
678.290751
  0
LINE
  5
105
100
AcDbEntity
  8
M0
 62
     4
100
AcDbLine
 10
283.784831
 20
755.790522
 11
291.784831
 21
755.790522
  0
LINE
  5
106
100
AcDbEntity
  8
M0
 62
     4
100
AcDbLine
 10
260.784831
 20
755.790522
 11
268.784831
 21
755.790522
  0
LINE
  5
107
100
AcDbEntity
  8
M0
 62
     4
100
AcDbLine
 10
291.784831
 20
758.290522
 11
291.784831
 21
755.790522
  0
LINE
  5
108
100
AcDbEntity
  8
M0
 62
     4
100
AcDbLine
 10
306.784831
 20
755.790522
 11
314.784831
 21
755.790522
  0
LINE
  5
109
100
AcDbEntity
  8
M0
 62
     4
100
AcDbLine
 10
260.784831
 20
758.290522
 11
260.784831
 21
755.790522
  0
LINE
  5
10A
100
AcDbEntity
  8
M0
 62
     4
100
AcDbLine
 10
260.784785
 20
672.290735
 11
260.784785
 21
674.790751
  0
LINE
  5
10B
100
AcDbEntity
  8
M0
 62
     4
100
AcDbLine
 10
260.784785
 20
674.790751
 11
268.784785
 21
674.790751
  0
LINE
  5
10C
100
AcDbEntity
  8
M0
 62
     4
100
AcDbLine
 10
283.784785
 20
674.790751
 11
291.784785
 21
674.790751
  0
LINE
  5
10D
100
AcDbEntity
  8
M0
 62
     4
100
AcDbLine
 10
283.78477
 20
672.290735
 11
283.784785
 21
674.790751
  0
LINE
  5
10E
100
AcDbEntity
  8
M0
 62
     4
100
AcDbLine
 10
314.784785
 20
672.290751
 11
314.784785
 21
674.790751
  0
LINE
  5
10F
100
AcDbEntity
  8
M0
 62
     4
100
AcDbLine
 10
306.784785
 20
674.790751
 11
314.784785
 21
674.790751
  0
ARC
  5
110
100
AcDbEntity
  8
M0
 62
     4
100
AcDbCircle
 10
303.284831
 20
763.790033
 40
0.5
100
AcDbArc
 50
90.0
 51
180.0
  0
ARC
  5
111
100
AcDbEntity
  8
M0
 62
     4
100
AcDbCircle
 10
283.284831
 20
763.790033
 40
0.5
100
AcDbArc
 50
0.0
 51
90.0
  0
ARC
  5
112
100
AcDbEntity
  8
M0
 62
     4
100
AcDbCircle
 10
306.284831
 20
763.790033
 40
0.5
100
AcDbArc
 50
0.0
 51
90.0
  0
ARC
  5
113
100
AcDbEntity
  8
M0
 62
     4
100
AcDbCircle
 10
271.284831
 20
763.790033
 40
0.5
100
AcDbArc
 50
0.0
 51
90.0
  0
ARC
  5
114
100
AcDbEntity
  8
M0
 62
     4
100
AcDbCircle
 10
281.284831
 20
763.790033
 40
0.5
100
AcDbArc
 50
90.0
 51
180.0
  0
ARC
  5
115
100
AcDbEntity
  8
M0
 62
     4
100
AcDbCircle
 10
269.284831
 20
763.790033
 40
0.5
100
AcDbArc
 50
90.0
 51
180.0
  0
ARC
  5
116
100
AcDbEntity
  8
M0
 62
     4
100
AcDbCircle
 10
315.284785
 20
672.290751
 40
0.5
100
AcDbArc
 50
180.0
 51
269.998251
  0
ARC
  5
117
100
AcDbEntity
  8
M0
 62
     4
100
AcDbCircle
 10
307.284831
 20
671.290751
 40
0.5
100
AcDbArc
 50
90.0
 51
180.0
  0
ARC
  5
118
100
AcDbEntity
  8
M0
 62
     4
100
AcDbCircle
 10
306.284831
 20
666.790995
 40
0.5
100
AcDbArc
 50
269.998251
 51
360.0
  0
ARC
  5
119
100
AcDbEntity
  8
M0
 62
     4
100
AcDbCircle
 10
304.284831
 20
666.790995
 40
0.5
100
AcDbArc
 50
180.0
 51
269.998251
  0
ARC
  5
11A
100
AcDbEntity
  8
M0
 62
     4
100
AcDbCircle
 10
294.284831
 20
666.790979
 40
0.5
100
AcDbArc
 50
269.998251
 51
360.0
  0
ARC
  5
11B
100
AcDbEntity
  8
M0
 62
     4
100
AcDbCircle
 10
292.284831
 20
666.790995
 40
0.5
100
AcDbArc
 50
180.0
 51
269.998251
  0
ARC
  5
11C
100
AcDbEntity
  8
M0
 62
     4
100
AcDbCircle
 10
272.284892
 20
666.790995
 40
0.5
100
AcDbArc
 50
269.998251
 51
360.0
  0
ARC
  5
11D
100
AcDbEntity
  8
M0
 62
     4
100
AcDbCircle
 10
269.284892
 20
666.790995
 40
0.5
100
AcDbArc
 50
180.0
 51
269.998251
  0
LINE
  5
11E
100
AcDbEntity
  8
M0
  6
DASHDOT
 62
     4
100
AcDbLine
 10
264.784892
 20
662.864695
 11
264.784892
 21
677.167643
  0
LINE
  5
11F
100
AcDbEntity
  8
M0
 62
     4
100
AcDbLine
 10
306.784831
 20
758.790522
 11
322.284831
 21
758.790522
  0
ARC
  5
120
100
AcDbEntity
  8
M0
 62
     4
100
AcDbCircle
 10
260.284831
 20
758.290522
 40
0.5
100
AcDbArc
 50
0.0
 51
90.0
  0
ARC
  5
121
100
AcDbEntity
  8
M0
 62
     4
100
AcDbCircle
 10
291.284831
 20
671.290751
 40
0.5
100
AcDbArc
 50
0.0
 51
90.0
  0
ARC
  5
122
100
AcDbEntity
  8
M0
 62
     4
100
AcDbCircle
 10
283.28477
 20
672.290751
 40
0.5
100
AcDbArc
 50
269.998251
 51
360.0
  0
LINE
  5
123
100
AcDbEntity
  8
M0
 62
     4
100
AcDbLine
 10
273.284892
 20
671.790751
 11
291.284831
 21
671.790751
  0
ARC
  5
124
100
AcDbEntity
  8
M0
 62
     4
100
AcDbCircle
 10
273.284892
 20
671.290751
 40
0.5
100
AcDbArc
 50
90.0
 51
180.0
  0
ARC
  5
125
100
AcDbEntity
  8
M0
 62
     4
100
AcDbCircle
 10
268.284892
 20
671.290751
 40
0.5
100
AcDbArc
 50
0.0
 51
90.0
  0
ARC
  5
126
100
AcDbEntity
  8
M0
 62
     4
100
AcDbCircle
 10
260.284785
 20
672.290751
 40
0.5
100
AcDbArc
 50
269.998251
 51
360.0
  0
ARC
  5
127
100
AcDbEntity
  8
M0
 62
     4
100
AcDbCircle
 10
292.284831
 20
758.290522
 40
0.5
100
AcDbArc
 50
90.0
 51
180.0
  0
ARC
  5
128
100
AcDbEntity
  8
M0
 62
     4
100
AcDbCircle
 10
315.284831
 20
758.290522
 40
0.5
100
AcDbArc
 50
90.0
 51
180.0
  0
LINE
  5
129
100
AcDbEntity
  8
M0
  6
DASHDOT
 62
     4
100
AcDbLine
 10
313.284388
 20
744.790491
 11
326.284373
 21
744.790476
  0
LINE
  5
12A
100
AcDbEntity
  8
M0
 62
     7
100
AcDbLine
 10
253.284998
 20
665.790232
 11
293.284892
 21
665.790232
  0
LINE
  5
12B
100
AcDbEntity
  8
M0
 62
     7
100
AcDbLine
 10
337.784953
 20
678.290216
 11
337.784953
 21
752.290232
  0
LINE
  5
12C
100
AcDbEntity
  8
M0
 62
     7
100
AcDbLine
 10
322.284953
 20
764.789988
 11
293.284785
 21
764.789805
  0
LINE
  5
12D
100
AcDbEntity
  8
M0
 62
     7
100
AcDbLine
 10
237.784953
 20
752.289499
 11
237.784953
 21
678.290216
  0
LINE
  5
12E
100
AcDbEntity
  8
M0
  6
DASHDOT
 62
     7
100
AcDbLine
 10
230.953745
 20
715.290232
 11
287.784953
 21
715.290232
  0
LINE
  5
12F
100
AcDbEntity
  8
M0
 62
     7
100
AcDbLine
 10
323.284953
 20
758.522455
 11
323.284953
 21
763.789743
  0
ARC
  5
130
100
AcDbEntity
  8
M0
 62
     7
100
AcDbCircle
 10
322.284953
 20
763.789743
 40
1.0
100
AcDbArc
 50
0.0
 51
90.0
  0
LINE
  5
131
100
AcDbEntity
  8
M0
 62
     7
100
AcDbLine
 10
324.284953
 20
752.790232
 11
337.284953
 21
752.790232
  0
LINE
  5
132
100
AcDbEntity
  8
M0
 62
     7
100
AcDbLine
 10
280.784953
 20
767.289743
 11
271.784953
 21
767.289743
  0
LINE
  5
133
100
AcDbEntity
  8
M0
 62
     7
100
AcDbLine
 10
270.284953
 20
764.789743
 11
253.285014
 21
764.789743
  0
ARC
  5
134
100
AcDbEntity
  8
M0
 62
     7
100
AcDbCircle
 10
280.784953
 20
766.289499
 40
1.0
100
AcDbArc
 50
0.0
 51
90.0
  0
ARC
  5
135
100
AcDbEntity
  8
M0
 62
     7
100
AcDbCircle
 10
271.784953
 20
766.289499
 40
1.0
100
AcDbArc
 50
90.0
 51
180.013988
  0
LINE
  5
136
100
AcDbEntity
  8
M0
 62
     7
100
AcDbLine
 10
324.284907
 20
677.790232
 11
337.284953
 21
677.790232
  0
LINE
  5
137
100
AcDbEntity
  8
M0
 62
     7
100
AcDbLine
 10
323.284907
 20
672.058527
 11
323.284907
 21
666.79072
  0
ARC
  5
138
100
AcDbEntity
  8
M0
 62
     7
100
AcDbCircle
 10
322.284907
 20
666.79072
 40
1.0
100
AcDbArc
 50
-90.000874
 51
0.0
  0
ARC
  5
139
100
AcDbEntity
  8
M0
 62
     7
100
AcDbCircle
 10
253.285014
 20
763.789743
 40
1.0
100
AcDbArc
 50
90.0
 51
180.0
  0
ARC
  5
13A
100
AcDbEntity
  8
M0
 62
     7
100
AcDbCircle
 10
253.284998
 20
666.790735
 40
1.0
100
AcDbArc
 50
180.0
 51
269.999126
  0
LINE
  5
13B
100
AcDbEntity
  8
M0
 62
     7
100
AcDbLine
 10
252.284998
 20
758.522455
 11
252.285014
 21
763.789743
  0
LINE
  5
13C
100
AcDbEntity
  8
M0
 62
     7
100
AcDbLine
 10
294.284953
 20
759.290232
 11
299.535136
 21
759.290232
  0
ARC
  5
13D
100
AcDbEntity
  8
M0
 62
     7
100
AcDbCircle
 10
299.535136
 20
757.790232
 40
1.5
100
AcDbArc
 50
41.81873
 51
90.0
  0
LINE
  5
13E
100
AcDbEntity
  8
M0
 62
     7
100
AcDbLine
 10
276.034754
 20
671.290232
 11
281.284892
 21
671.290232
  0
ARC
  5
13F
100
AcDbEntity
  8
M0
 62
     7
100
AcDbCircle
 10
276.034754
 20
672.790232
 40
1.5
100
AcDbArc
 50
221.790314
 51
269.999417
  0
LINE
  5
140
100
AcDbEntity
  8
M0
 62
     7
100
AcDbLine
 10
295.534785
 20
663.290232
 11
303.784892
 21
663.290232
  0
LINE
  5
141
100
AcDbEntity
  8
M0
 62
     7
100
AcDbLine
 10
305.284892
 20
665.790232
 11
322.284907
 21
665.790232
  0
ARC
  5
142
100
AcDbEntity
  8
M0
 62
     7
100
AcDbCircle
 10
303.784892
 20
664.290232
 40
1.0
100
AcDbArc
 50
269.999126
 51
360.0
  0
LINE
  5
143
100
AcDbEntity
  8
M0
 62
     7
100
AcDbLine
 10
252.284983
 20
671.790628
 11
252.284998
 21
666.790735
  0
LINE
  5
144
100
AcDbEntity
  8
M0
 62
     7
100
AcDbLine
 10
251.284983
 20
752.789743
 11
238.284953
 21
752.789743
  0
LINE
  5
145
100
AcDbEntity
  8
M0
 62
     7
100
AcDbLine
 10
251.284983
 20
677.790232
 11
238.284953
 21
677.790216
  0
LINE
  5
146
100
AcDbEntity
  8
M0
 62
     7
100
AcDbLine
 10
334.284953
 20
742.790232
 11
337.784953
 21
742.790232
  0
LINE
  5
147
100
AcDbEntity
  8
M0
 62
     7
100
AcDbLine
 10
335.284953
 20
752.790232
 11
335.284953
 21
742.790232
  0
LINE
  5
148
100
AcDbEntity
  8
M0
 62
     7
100
AcDbLine
 10
335.284953
 20
750.290232
 11
337.784953
 21
750.290232
  0
ARC
  5
149
100
AcDbEntity
  8
M0
 62
     7
100
AcDbCircle
 10
337.284953
 20
752.290232
 40
0.5
100
AcDbArc
 50
0.0
 51
90.0
  0
ARC
  5
14A
100
AcDbEntity
  8
M0
 62
     7
100
AcDbCircle
 10
238.284953
 20
752.289499
 40
0.5
100
AcDbArc
 50
90.0
 51
180.0
  0
ARC
  5
14B
100
AcDbEntity
  8
M0
 62
     7
100
AcDbCircle
 10
238.284953
 20
678.290216
 40
0.5
100
AcDbArc
 50
180.0
 51
269.998251
  0
ARC
  5
14C
100
AcDbEntity
  8
M0
 62
     7
100
AcDbCircle
 10
337.284953
 20
678.290232
 40
0.5
100
AcDbArc
 50
269.998251
 51
360.0
  0
LINE
  5
14D
100
AcDbEntity
  8
M0
 62
     7
100
AcDbLine
 10
238.284953
 20
697.790232
 11
241.284953
 21
697.790232
  0
LINE
  5
14E
100
AcDbEntity
  8
M0
 62
     7
100
AcDbLine
 10
241.784953
 20
700.790232
 11
242.842219
 21
700.790232
  0
LINE
  5
14F
100
AcDbEntity
  8
M0
 62
     7
100
AcDbLine
 10
241.784953
 20
689.790232
 11
251.284983
 21
689.790232
  0
LINE
  5
150
100
AcDbEntity
  8
M0
 62
     7
100
AcDbLine
 10
238.284953
 20
687.790232
 11
241.284953
 21
687.790232
  0
LINE
  5
151
100
AcDbEntity
  8
M0
 62
     7
100
AcDbLine
 10
240.284953
 20
687.790232
 11
240.284953
 21
677.790232
  0
LINE
  5
152
100
AcDbEntity
  8
M0
 62
     7
100
AcDbLine
 10
237.784953
 20
680.290232
 11
240.284953
 21
680.290232
  0
LINE
  5
153
100
AcDbEntity
  8
M0
 62
     7
100
AcDbLine
 10
250.284953
 20
698.790232
 11
251.284983
 21
698.790232
  0
ARC
  5
154
100
AcDbEntity
  8
M0
 62
     7
100
AcDbCircle
 10
241.284953
 20
688.290232
 40
0.5
100
AcDbArc
 50
269.998251
 51
360.0
  0
ARC
  5
155
100
AcDbEntity
  8
M0
 62
     7
100
AcDbCircle
 10
238.284953
 20
688.290232
 40
0.5
100
AcDbArc
 50
180.0
 51
269.998251
  0
ARC
  5
156
100
AcDbEntity
  8
M0
 62
     7
100
AcDbCircle
 10
238.284953
 20
698.290232
 40
0.5
100
AcDbArc
 50
180.0
 51
269.998251
  0
ARC
  5
157
100
AcDbEntity
  8
M0
 62
     7
100
AcDbCircle
 10
241.284953
 20
698.290232
 40
0.5
100
AcDbArc
 50
269.998251
 51
360.0
  0
LINE
  5
158
100
AcDbEntity
  8
M0
 62
     7
100
AcDbLine
 10
238.284953
 20
732.789988
 11
241.284953
 21
732.789988
  0
ARC
  5
159
100
AcDbEntity
  8
M0
 62
     7
100
AcDbCircle
 10
241.284953
 20
732.289988
 40
0.5
100
AcDbArc
 50
0.0
 51
90.0
  0
LINE
  5
15A
100
AcDbEntity
  8
M0
 62
     7
100
AcDbLine
 10
250.284953
 20
731.789988
 11
251.284983
 21
731.789988
  0
LINE
  5
15B
100
AcDbEntity
  8
M0
 62
     7
100
AcDbLine
 10
240.284953
 20
742.789988
 11
240.284953
 21
752.789988
  0
LINE
  5
15C
100
AcDbEntity
  8
M0
 62
     7
100
AcDbLine
 10
237.784953
 20
750.289988
 11
240.284953
 21
750.289988
  0
LINE
  5
15D
100
AcDbEntity
  8
M0
 62
     7
100
AcDbLine
 10
238.284953
 20
742.789988
 11
241.284953
 21
742.789988
  0
ARC
  5
15E
100
AcDbEntity
  8
M0
 62
     7
100
AcDbCircle
 10
241.284953
 20
742.289988
 40
0.5
100
AcDbArc
 50
0.0
 51
90.0
  0
LINE
  5
15F
100
AcDbEntity
  8
M0
 62
     7
100
AcDbLine
 10
241.784953
 20
740.789988
 11
251.284983
 21
740.789988
  0
ARC
  5
160
100
AcDbEntity
  8
M0
 62
     7
100
AcDbCircle
 10
238.284953
 20
732.289988
 40
0.5
100
AcDbArc
 50
90.0
 51
180.0
  0
ARC
  5
161
100
AcDbEntity
  8
M0
 62
     7
100
AcDbCircle
 10
238.284953
 20
742.289988
 40
0.5
100
AcDbArc
 50
90.0
 51
180.0
  0
LINE
  5
162
100
AcDbEntity
  8
M0
 62
     7
100
AcDbLine
 10
333.784953
 20
700.789988
 11
332.727229
 21
700.789988
  0
LINE
  5
163
100
AcDbEntity
  8
M0
 62
     7
100
AcDbLine
 10
337.284953
 20
697.789988
 11
334.284953
 21
697.789988
  0
LINE
  5
164
100
AcDbEntity
  8
M0
 62
     7
100
AcDbLine
 10
325.284953
 20
698.789988
 11
324.284983
 21
698.789988
  0
ARC
  5
165
100
AcDbEntity
  8
M0
 62
     7
100
AcDbCircle
 10
334.284953
 20
698.289988
 40
0.5
100
AcDbArc
 50
180.0
 51
269.998251
  0
ARC
  5
166
100
AcDbEntity
  8
M0
 62
     7
100
AcDbCircle
 10
337.284953
 20
698.289988
 40
0.5
100
AcDbArc
 50
-90.001749
 51
0.0
  0
LINE
  5
167
100
AcDbEntity
  8
M0
 62
     7
100
AcDbLine
 10
333.784953
 20
689.789988
 11
324.284983
 21
689.789988
  0
ARC
  5
168
100
AcDbEntity
  8
M0
 62
     7
100
AcDbCircle
 10
334.284953
 20
688.289988
 40
0.5
100
AcDbArc
 50
180.0
 51
269.998251
  0
LINE
  5
169
100
AcDbEntity
  8
M0
 62
     7
100
AcDbLine
 10
337.284953
 20
687.789988
 11
334.284953
 21
687.789988
  0
LINE
  5
16A
100
AcDbEntity
  8
M0
 62
     7
100
AcDbLine
 10
335.284953
 20
687.789988
 11
335.284953
 21
677.790216
  0
LINE
  5
16B
100
AcDbEntity
  8
M0
 62
     7
100
AcDbLine
 10
337.784953
 20
680.290201
 11
335.284953
 21
680.290216
  0
LINE
  5
16C
100
AcDbEntity
  8
M0
 62
     7
100
AcDbLine
 10
333.784953
 20
729.790232
 11
332.727183
 21
729.790232
  0
LINE
  5
16D
100
AcDbEntity
  8
M0
 62
     7
100
AcDbLine
 10
325.284953
 20
731.790232
 11
324.284983
 21
731.790232
  0
ARC
  5
16E
100
AcDbEntity
  8
M0
 62
     7
100
AcDbCircle
 10
334.284953
 20
732.290232
 40
0.5
100
AcDbArc
 50
90.0
 51
180.0
  0
LINE
  5
16F
100
AcDbEntity
  8
M0
 62
     7
100
AcDbLine
 10
337.284953
 20
732.790232
 11
334.284953
 21
732.790232
  0
ARC
  5
170
100
AcDbEntity
  8
M0
 62
     7
100
AcDbCircle
 10
337.284953
 20
732.290232
 40
0.5
100
AcDbArc
 50
0.0
 51
90.0
  0
LINE
  5
171
100
AcDbEntity
  8
M0
 62
     7
100
AcDbLine
 10
333.784953
 20
740.790232
 11
324.284983
 21
740.790232
  0
ARC
  5
172
100
AcDbEntity
  8
M0
 62
     7
100
AcDbCircle
 10
334.284953
 20
742.290232
 40
0.5
100
AcDbArc
 50
90.0
 51
180.0
  0
ARC
  5
173
100
AcDbEntity
  8
M0
 62
     7
100
AcDbCircle
 10
337.284953
 20
688.289988
 40
0.5
100
AcDbArc
 50
-90.001749
 51
0.0
  0
LINE
  5
174
100
AcDbEntity
  8
M0
 62
     7
100
AcDbLine
 10
237.784953
 20
719.040232
 11
244.784953
 21
719.040232
  0
LINE
  5
175
100
AcDbEntity
  8
M0
 62
     7
100
AcDbLine
 10
237.784953
 20
711.540232
 11
244.784953
 21
711.540232
  0
LINE
  5
176
100
AcDbEntity
  8
M0
 62
     7
100
AcDbLine
 10
245.784953
 20
718.040232
 11
245.784953
 21
712.540232
  0
ARC
  5
177
100
AcDbEntity
  8
M0
 62
     7
100
AcDbCircle
 10
244.784953
 20
712.540232
 40
1.0
100
AcDbArc
 50
269.999126
 51
360.0
  0
ARC
  5
178
100
AcDbEntity
  8
M0
 62
     7
100
AcDbCircle
 10
244.784953
 20
718.040232
 40
1.0
100
AcDbArc
 50
0.0
 51
90.0
  0
LINE
  5
179
100
AcDbEntity
  8
M0
 62
     7
100
AcDbLine
 10
241.784953
 20
719.040232
 11
241.784953
 21
718.040232
  0
LINE
  5
17A
100
AcDbEntity
  8
M0
 62
     7
100
AcDbLine
 10
237.784953
 20
718.040232
 11
241.784953
 21
718.040232
  0
LINE
  5
17B
100
AcDbEntity
  8
M0
 62
     7
100
AcDbLine
 10
237.784953
 20
712.540232
 11
241.784953
 21
712.540232
  0
LINE
  5
17C
100
AcDbEntity
  8
M0
 62
     7
100
AcDbLine
 10
241.784953
 20
712.540232
 11
241.784953
 21
711.540232
  0
LINE
  5
17D
100
AcDbEntity
  8
M0
 62
     7
100
AcDbLine
 10
337.784983
 20
719.039988
 11
330.784983
 21
719.039988
  0
LINE
  5
17E
100
AcDbEntity
  8
M0
 62
     7
100
AcDbLine
 10
337.784983
 20
718.039988
 11
333.784983
 21
718.039988
  0
LINE
  5
17F
100
AcDbEntity
  8
M0
 62
     7
100
AcDbLine
 10
333.784983
 20
719.039988
 11
333.784983
 21
718.039988
  0
ARC
  5
180
100
AcDbEntity
  8
M0
 62
     7
100
AcDbCircle
 10
330.784983
 20
718.039988
 40
1.0
100
AcDbArc
 50
90.0
 51
180.0
  0
LINE
  5
181
100
AcDbEntity
  8
M0
 62
     7
100
AcDbLine
 10
329.784983
 20
718.039988
 11
329.784983
 21
712.539988
  0
ARC
  5
182
100
AcDbEntity
  8
M0
 62
     7
100
AcDbCircle
 10
330.784983
 20
712.539988
 40
1.0
100
AcDbArc
 50
180.0
 51
269.999126
  0
LINE
  5
183
100
AcDbEntity
  8
M0
 62
     7
100
AcDbLine
 10
337.784983
 20
711.539988
 11
330.784983
 21
711.539988
  0
LINE
  5
184
100
AcDbEntity
  8
M0
 62
     7
100
AcDbLine
 10
337.784983
 20
712.539988
 11
333.784983
 21
712.539988
  0
LINE
  5
185
100
AcDbEntity
  8
M0
 62
     7
100
AcDbLine
 10
333.784983
 20
712.539988
 11
333.784983
 21
711.539988
  0
LINE
  5
186
100
AcDbEntity
  8
M0
 62
     7
100
AcDbLine
 10
278.484889
 20
668.290232
 11
281.284892
 21
668.290232
  0
LINE
  5
187
100
AcDbEntity
  8
M0
 62
     7
100
AcDbLine
 10
277.984889
 20
667.790232
 11
277.984889
 21
665.790232
  0
LINE
  5
188
100
AcDbEntity
  8
M0
  6
DASHDOT
 62
     7
100
AcDbLine
 10
287.784953
 20
715.290232
 11
348.353388
 21
715.290232
  0
ARC
  5
189
100
AcDbEntity
  8
M0
 62
     7
100
AcDbCircle
 10
282.284953
 20
764.289743
 40
0.5
100
AcDbArc
 50
90.0
 51
180.0
  0
ARC
  5
18A
100
AcDbEntity
  8
M0
 62
     7
100
AcDbCircle
 10
270.284953
 20
764.289499
 40
0.5
100
AcDbArc
 50
0.0
 51
90.0
  0
LINE
  5
18B
100
AcDbEntity
  8
M0
 62
     7
100
AcDbLine
 10
297.58494
 20
764.789743
 11
297.58494
 21
762.789988
  0
LINE
  5
18C
100
AcDbEntity
  8
M0
 62
     7
100
AcDbLine
 10
294.284953
 20
762.289988
 11
297.08494
 21
762.289988
  0
ARC
  5
18D
100
AcDbEntity
  8
M0
 62
     7
100
AcDbCircle
 10
297.08494
 20
762.789988
 40
0.5
100
AcDbArc
 50
269.998251
 51
360.0
  0
ARC
  5
18E
100
AcDbEntity
  8
M0
 62
     7
100
AcDbCircle
 10
294.284953
 20
761.789988
 40
0.5
100
AcDbArc
 50
90.0
 51
180.0
  0
ARC
  5
18F
100
AcDbEntity
  8
M0
 62
     7
100
AcDbCircle
 10
294.284953
 20
759.790232
 40
0.5
100
AcDbArc
 50
180.0
 51
269.998251
  0
ARC
  5
190
100
AcDbEntity
  8
M0
 62
     7
100
AcDbCircle
 10
278.484889
 20
667.790232
 40
0.5
100
AcDbArc
 50
90.0
 51
180.0
  0
ARC
  5
191
100
AcDbEntity
  8
M0
 62
     7
100
AcDbCircle
 10
281.284892
 20
668.790232
 40
0.5
100
AcDbArc
 50
269.998251
 51
360.0
  0
ARC
  5
192
100
AcDbEntity
  8
M0
 62
     7
100
AcDbCircle
 10
281.284892
 20
670.790232
 40
0.5
100
AcDbArc
 50
0.0
 51
90.0
  0
LINE
  5
193
100
AcDbEntity
  8
M0
 62
     7
100
AcDbLine
 10
241.284953
 20
719.040232
 11
241.284953
 21
718.040232
  0
LINE
  5
194
100
AcDbEntity
  8
M0
 62
     7
100
AcDbLine
 10
241.284953
 20
712.540232
 11
241.284953
 21
711.540232
  0
LINE
  5
195
100
AcDbEntity
  8
M0
 62
     7
100
AcDbLine
 10
334.284983
 20
719.039988
 11
334.284983
 21
718.039988
  0
LINE
  5
196
100
AcDbEntity
  8
M0
 62
     7
100
AcDbLine
 10
334.284983
 20
712.539988
 11
334.284983
 21
711.539988
  0
LINE
  5
197
100
AcDbEntity
  8
M0
  6
DASHDOT
 62
     7
100
AcDbLine
 10
303.98495
 20
757.290232
 11
317.58494
 21
757.290232
  0
LINE
  5
198
100
AcDbEntity
  8
M0
  6
DASHDOT
 62
     7
100
AcDbLine
 10
303.984904
 20
673.290232
 11
317.584895
 21
673.290232
  0
LINE
  5
199
100
AcDbEntity
  8
M0
  6
DASHDOT
 62
     7
100
AcDbLine
 10
271.584986
 20
757.290232
 11
257.984995
 21
757.290232
  0
LINE
  5
19A
100
AcDbEntity
  8
M0
  6
DASHDOT
 62
     7
100
AcDbLine
 10
271.58494
 20
673.290232
 11
257.98495
 21
673.290232
  0
LINE
  5
19B
100
AcDbEntity
  8
M0
  6
DASHDOT
 62
     7
100
AcDbLine
 10
280.984766
 20
757.289988
 11
294.584757
 21
757.289988
  0
LINE
  5
19C
100
AcDbEntity
  8
M0
  6
DASHDOT
 62
     7
100
AcDbLine
 10
280.984721
 20
673.290476
 11
294.584712
 21
673.290476
  0
LINE
  5
19D
100
AcDbEntity
  8
M0
 62
     7
100
AcDbLine
 10
281.784846
 20
766.303904
 11
281.784846
 21
764.789988
  0
LINE
  5
19E
100
AcDbEntity
  8
M0
 62
     7
100
AcDbLine
 10
270.784846
 20
766.289499
 11
270.784846
 21
764.789988
  0
LINE
  5
19F
100
AcDbEntity
  8
M0
  6
DASHDOT
 62
     7
100
AcDbLine
 10
238.784953
 20
695.290232
 11
252.784953
 21
695.290232
  0
LINE
  5
1A0
100
AcDbEntity
  8
M0
  6
DASHDOT
 62
     7
100
AcDbLine
 10
245.784953
 20
688.290232
 11
245.784953
 21
702.290232
  0
LINE
  5
1A1
100
AcDbEntity
  8
M0
 62
     7
100
AcDbLine
 10
249.784953
 20
708.790232
 11
249.784953
 21
689.790232
  0
LINE
  5
1A2
100
AcDbEntity
  8
M0
 62
     7
100
AcDbLine
 10
241.784953
 20
708.790232
 11
241.784953
 21
688.290232
  0
ARC
  5
1A3
100
AcDbEntity
  8
M0
 62
     7
100
AcDbCircle
 10
248.784953
 20
708.790232
 40
1.0
100
AcDbArc
 50
0.0
 51
90.0
  0
ARC
  5
1A4
100
AcDbEntity
  8
M0
 62
     7
100
AcDbCircle
 10
250.284953
 20
699.290232
 40
0.5
100
AcDbArc
 50
180.0
 51
269.998251
  0
ARC
  5
1A5
100
AcDbEntity
  8
M0
 62
     7
100
AcDbCircle
 10
248.784953
 20
721.789988
 40
1.0
100
AcDbArc
 50
-90.000874
 51
0.0
  0
LINE
  5
1A6
100
AcDbEntity
  8
M0
 62
     7
100
AcDbLine
 10
241.784953
 20
721.789988
 11
241.784953
 21
742.289988
  0
LINE
  5
1A7
100
AcDbEntity
  8
M0
 62
     7
100
AcDbLine
 10
249.784953
 20
721.789988
 11
249.784953
 21
740.789988
  0
LINE
  5
1A8
100
AcDbEntity
  8
M0
  6
DASHDOT
 62
     7
100
AcDbLine
 10
238.784953
 20
735.289988
 11
252.784953
 21
735.289988
  0
ARC
  5
1A9
100
AcDbEntity
  8
M0
 62
     7
100
AcDbCircle
 10
250.284953
 20
731.289988
 40
0.5
100
AcDbArc
 50
90.0
 51
180.0
  0
ARC
  5
1AA
100
AcDbEntity
  8
M0
 62
     7
100
AcDbCircle
 10
326.784953
 20
708.789988
 40
1.0
100
AcDbArc
 50
90.0
 51
180.0
  0
LINE
  5
1AB
100
AcDbEntity
  8
M0
  6
DASHDOT
 62
     7
100
AcDbLine
 10
245.784953
 20
742.289988
 11
245.784953
 21
728.289988
  0
LINE
  5
1AC
100
AcDbEntity
  8
M0
 62
     7
100
AcDbLine
 10
333.784953
 20
708.789988
 11
333.784953
 21
688.289988
  0
LINE
  5
1AD
100
AcDbEntity
  8
M0
 62
     7
100
AcDbLine
 10
325.784953
 20
708.789988
 11
325.784953
 21
689.789988
  0
ARC
  5
1AE
100
AcDbEntity
  8
M0
 62
     7
100
AcDbCircle
 10
325.284953
 20
699.289988
 40
0.5
100
AcDbArc
 50
-90.001749
 51
0.0
  0
ARC
  5
1AF
100
AcDbEntity
  8
M0
 62
     7
100
AcDbCircle
 10
326.784953
 20
721.790232
 40
1.0
100
AcDbArc
 50
180.0
 51
269.999126
  0
LINE
  5
1B0
100
AcDbEntity
  8
M0
 62
     7
100
AcDbLine
 10
325.784953
 20
721.790232
 11
325.784953
 21
740.790232
  0
LINE
  5
1B1
100
AcDbEntity
  8
M0
 62
     7
100
AcDbLine
 10
333.784953
 20
721.790232
 11
333.784953
 21
742.290232
  0
LINE
  5
1B2
100
AcDbEntity
  8
M0
 62
     7
100
AcDbLine
 10
325.784953
 20
721.790232
 11
325.784953
 21
740.790232
  0
LINE
  5
1B3
100
AcDbEntity
  8
M0
  6
DASHDOT
 62
     7
100
AcDbLine
 10
336.784953
 20
735.289743
 11
322.784953
 21
735.289743
  0
LINE
  5
1B4
100
AcDbEntity
  8
M0
  6
DASHDOT
 62
     7
100
AcDbLine
 10
336.784922
 20
695.29072
 11
322.784922
 21
695.29072
  0
LINE
  5
1B5
100
AcDbEntity
  8
M0
 62
     7
100
AcDbLine
 10
325.784953
 20
739.389597
 11
326.872996
 21
739.389597
  0
LINE
  5
1B6
100
AcDbEntity
  8
M0
 62
     7
100
AcDbLine
 10
325.784922
 20
691.190867
 11
326.873072
 21
691.190867
  0
LINE
  5
1B7
100
AcDbEntity
  8
M0
 62
     7
100
AcDbLine
 10
325.784953
 20
721.790232
 11
325.784953
 21
740.790232
  0
ARC
  5
1B8
100
AcDbEntity
  8
M0
 62
     7
100
AcDbCircle
 10
325.284953
 20
731.290232
 40
0.5
100
AcDbArc
 50
0.0
 51
90.0
  0
LINE
  5
1B9
100
AcDbEntity
  8
M0
 62
     7
100
AcDbLine
 10
249.784983
 20
739.389597
 11
248.696467
 21
739.389597
  0
LINE
  5
1BA
100
AcDbEntity
  8
M0
 62
     7
100
AcDbLine
 10
249.784983
 20
691.190867
 11
248.696543
 21
691.190867
  0
LINE
  5
1BB
100
AcDbEntity
  8
M0
  6
DASHDOT
 62
     7
100
AcDbLine
 10
238.784953
 20
704.790232
 11
252.784953
 21
704.790232
  0
LINE
  5
1BC
100
AcDbEntity
  8
M0
  6
DASHDOT
 62
     7
100
AcDbLine
 10
245.784953
 20
697.790232
 11
245.784953
 21
711.790232
  0
LINE
  5
1BD
100
AcDbEntity
  8
M0
 62
     7
100
AcDbLine
 10
242.784953
 20
709.790232
 11
248.784953
 21
709.790232
  0
ARC
  5
1BE
100
AcDbEntity
  8
M0
 62
     7
100
AcDbCircle
 10
242.784953
 20
708.790232
 40
1.0
100
AcDbArc
 50
90.0
 51
180.0
  0
LINE
  5
1BF
100
AcDbEntity
  8
M0
 62
     7
100
AcDbLine
 10
242.784953
 20
720.789988
 11
248.784953
 21
720.789988
  0
ARC
  5
1C0
100
AcDbEntity
  8
M0
 62
     7
100
AcDbCircle
 10
242.784953
 20
721.789988
 40
1.0
100
AcDbArc
 50
180.0
 51
269.999126
  0
LINE
  5
1C1
100
AcDbEntity
  8
M0
  6
DASHDOT
 62
     7
100
AcDbLine
 10
245.784953
 20
732.789988
 11
245.784953
 21
718.789988
  0
LINE
  5
1C2
100
AcDbEntity
  8
M0
  6
DASHDOT
 62
     7
100
AcDbLine
 10
238.784953
 20
725.789988
 11
252.784953
 21
725.789988
  0
ARC
  5
1C3
100
AcDbEntity
  8
M0
 62
     7
100
AcDbCircle
 10
332.784953
 20
708.789988
 40
1.0
100
AcDbArc
 50
0.0
 51
90.0
  0
LINE
  5
1C4
100
AcDbEntity
  8
M0
 62
     7
100
AcDbLine
 10
332.784983
 20
709.789988
 11
326.784983
 21
709.789988
  0
LINE
  5
1C5
100
AcDbEntity
  8
M0
  6
DASHDOT
 62
     7
100
AcDbLine
 10
336.784953
 20
704.789988
 11
322.784953
 21
704.789988
  0
LINE
  5
1C6
100
AcDbEntity
  8
M0
 62
     7
100
AcDbLine
 10
332.784983
 20
720.790232
 11
326.784983
 21
720.790232
  0
ARC
  5
1C7
100
AcDbEntity
  8
M0
 62
     7
100
AcDbCircle
 10
332.784953
 20
721.790232
 40
1.0
100
AcDbArc
 50
269.999126
 51
360.0
  0
LINE
  5
1C8
100
AcDbEntity
  8
M0
  6
DASHDOT
 62
     7
100
AcDbLine
 10
336.784953
 20
725.790232
 11
322.784953
 21
725.790232
  0
LINE
  5
1C9
100
AcDbEntity
  8
M0
  6
DASHDOT
 62
     7
100
AcDbLine
 10
336.784953
 20
725.789743
 11
322.784953
 21
725.789743
  0
LINE
  5
1CA
100
AcDbEntity
  8
M0
  6
DASHDOT
 62
     7
100
AcDbLine
 10
240.034953
 20
685.290232
 11
254.534953
 21
685.290232
  0
LINE
  5
1CB
100
AcDbEntity
  8
M0
  6
DASHDOT
 62
     7
100
AcDbLine
 10
247.284953
 20
678.040232
 11
247.284953
 21
692.540232
  0
LINE
  5
1CC
100
AcDbEntity
  8
M0
  6
DASHDOT
 62
     7
100
AcDbLine
 10
332.284983
 20
745.289743
 11
324.284983
 21
745.289743
  0
LINE
  5
1CD
100
AcDbEntity
  8
M0
  6
DASHDOT
 62
     7
100
AcDbLine
 10
290.459834
 20
671.290232
 11
308.109843
 21
671.290232
  0
LINE
  5
1CE
100
AcDbEntity
  8
M0
  6
DASHDOT
 62
     7
100
AcDbLine
 10
267.459834
 20
759.290232
 11
285.109843
 21
759.290232
  0
LINE
  5
1CF
100
AcDbEntity
  8
M0
  6
DASHDOT
 62
     7
100
AcDbLine
 10
276.284846
 20
750.465036
 11
276.284846
 21
768.115183
  0
LINE
  5
1D0
100
AcDbEntity
  8
M0
 62
     7
100
AcDbLine
 10
241.784983
 20
729.790232
 11
242.842295
 21
729.790232
  0
ARC
  5
1D1
100
AcDbEntity
  8
M0
 62
     7
100
AcDbCircle
 10
305.284892
 20
666.290232
 40
0.5
100
AcDbArc
 50
180.0
 51
269.998251
  0
ARC
  5
1D2
100
AcDbEntity
  8
M0
 62
     7
100
AcDbCircle
 10
293.284892
 20
666.290232
 40
0.5
100
AcDbArc
 50
269.998251
 51
360.0
  0
LINE
  5
1D3
100
AcDbEntity
  8
M0
 62
     7
100
AcDbLine
 10
293.784953
 20
761.789988
 11
293.784953
 21
759.790232
  0
LINE
  5
1D4
100
AcDbEntity
  8
M0
 62
     7
100
AcDbLine
 10
281.784892
 20
670.790216
 11
281.784892
 21
668.790216
  0
LINE
  5
1D5
100
AcDbEntity
  8
M0
 62
     7
100
AcDbLine
 10
242.872935
 20
739.389597
 11
241.784983
 21
739.389597
  0
LINE
  5
1D6
100
AcDbEntity
  8
M0
 62
     7
100
AcDbLine
 10
248.727107
 20
729.790232
 11
249.784983
 21
729.790232
  0
LINE
  5
1D7
100
AcDbEntity
  8
M0
 62
     7
100
AcDbLine
 10
248.727183
 20
700.790232
 11
249.784953
 21
700.790232
  0
LINE
  5
1D8
100
AcDbEntity
  8
M0
 62
     7
100
AcDbLine
 10
242.872859
 20
691.190867
 11
241.784983
 21
691.190867
  0
LINE
  5
1D9
100
AcDbEntity
  8
M0
 62
     7
100
AcDbLine
 10
332.69636
 20
739.389597
 11
333.784953
 21
739.389597
  0
LINE
  5
1DA
100
AcDbEntity
  8
M0
 62
     7
100
AcDbLine
 10
326.842219
 20
729.790232
 11
325.784953
 21
729.790232
  0
LINE
  5
1DB
100
AcDbEntity
  8
M0
 62
     7
100
AcDbLine
 10
326.842265
 20
700.789988
 11
325.784953
 21
700.789988
  0
LINE
  5
1DC
100
AcDbEntity
  8
M0
 62
     7
100
AcDbLine
 10
332.696452
 20
691.190867
 11
333.784922
 21
691.190867
  0
ARC
  5
1DD
100
AcDbEntity
  8
M0
 62
     7
100
AcDbCircle
 10
264.784937
 20
673.290232
 40
2.799999
100
AcDbArc
 50
212.382922
 51
327.616911
  0
ARC
  5
1DE
100
AcDbEntity
  8
M0
 62
     7
100
AcDbCircle
 10
264.784937
 20
673.290232
 40
1.799999
100
AcDbArc
 50
236.419989
 51
303.579606
  0
ARC
  5
1DF
100
AcDbEntity
  8
M0
 62
     7
100
AcDbCircle
 10
287.784724
 20
673.290476
 40
1.799999
100
AcDbArc
 50
236.433999
 51
303.565596
  0
ARC
  5
1E0
100
AcDbEntity
  8
M0
 62
     7
100
AcDbCircle
 10
287.784724
 20
673.290476
 40
2.799999
100
AcDbArc
 50
212.38855
 51
327.611019
  0
ARC
  5
1E1
100
AcDbEntity
  8
M0
 62
     7
100
AcDbCircle
 10
310.784907
 20
673.290232
 40
2.799999
100
AcDbArc
 50
212.382922
 51
327.616911
  0
ARC
  5
1E2
100
AcDbEntity
  8
M0
 62
     7
100
AcDbCircle
 10
310.784907
 20
673.290232
 40
1.799999
100
AcDbArc
 50
236.419989
 51
303.579606
  0
ARC
  5
1E3
100
AcDbEntity
  8
M0
 62
     7
100
AcDbCircle
 10
264.784983
 20
757.290232
 40
2.799999
100
AcDbArc
 50
32.396332
 51
147.603835
  0
ARC
  5
1E4
100
AcDbEntity
  8
M0
 62
     7
100
AcDbCircle
 10
264.784983
 20
757.290232
 40
1.799999
100
AcDbArc
 50
56.452457
 51
123.548353
  0
ARC
  5
1E5
100
AcDbEntity
  8
M0
 62
     7
100
AcDbCircle
 10
287.78477
 20
757.289988
 40
2.799999
100
AcDbArc
 50
32.402223
 51
147.597944
  0
ARC
  5
1E6
100
AcDbEntity
  8
M0
 62
     7
100
AcDbCircle
 10
287.78477
 20
757.289988
 40
1.799999
100
AcDbArc
 50
56.466467
 51
123.533938
  0
ARC
  5
1E7
100
AcDbEntity
  8
M0
 62
     7
100
AcDbCircle
 10
310.784953
 20
757.290232
 40
2.799999
100
AcDbArc
 50
32.396332
 51
147.603835
  0
ARC
  5
1E8
100
AcDbEntity
  8
M0
 62
     7
100
AcDbCircle
 10
310.784953
 20
757.290232
 40
1.799999
100
AcDbArc
 50
56.452457
 51
123.548353
  0
LINE
  5
1E9
100
AcDbEntity
  8
M0
 62
     4
100
AcDbLine
 10
445.806468
 20
665.808786
 11
512.106272
 21
665.808786
  0
LINE
  5
1EA
100
AcDbEntity
  8
M0
 62
     4
100
AcDbLine
 10
512.106272
 20
763.808313
 11
445.806468
 21
763.8081
  0
LINE
  5
1EB
100
AcDbEntity
  8
M0
 62
     4
100
AcDbLine
 10
512.106272
 20
665.808786
 11
512.106272
 21
687.308588
  0
LINE
  5
1EC
100
AcDbEntity
  8
M0
 62
     4
100
AcDbLine
 10
445.806468
 20
671.308786
 11
512.106272
 21
671.308786
  0
LINE
  5
1ED
100
AcDbEntity
  8
M0
 62
     4
100
AcDbLine
 10
445.806468
 20
758.3081
 11
512.106272
 21
758.3081
  0
LINE
  5
1EE
100
AcDbEntity
  8
M0
 62
     4
100
AcDbLine
 10
478.006419
 20
700.177195
 11
478.006419
 21
729.439417
  0
LINE
  5
1EF
100
AcDbEntity
  8
M0
 62
     4
100
AcDbLine
 10
503.506419
 20
689.808786
 11
503.506419
 21
692.886332
  0
LINE
  5
1F0
100
AcDbEntity
  8
M0
 62
     4
100
AcDbLine
 10
504.506419
 20
688.808786
 11
506.006419
 21
688.808786
  0
LINE
  5
1F1
100
AcDbEntity
  8
M0
 62
     4
100
AcDbLine
 10
504.506419
 20
740.808558
 11
506.006419
 21
740.808558
  0
ARC
  5
1F2
100
AcDbEntity
  8
M0
 62
     4
100
AcDbCircle
 10
504.506419
 20
739.808558
 40
1.0
100
AcDbArc
 50
90.0
 51
180.0
  0
ARC
  5
1F3
100
AcDbEntity
  8
M0
 62
     4
100
AcDbCircle
 10
504.506419
 20
689.808786
 40
1.0
100
AcDbArc
 50
180.0
 51
269.999126
  0
LINE
  5
1F4
100
AcDbEntity
  8
M0
 62
     4
100
AcDbLine
 10
503.506419
 20
736.729944
 11
503.506419
 21
739.808558
  0
LINE
  5
1F5
100
AcDbEntity
  8
M0
 62
     4
100
AcDbLine
 10
503.506419
 20
671.308786
 11
503.506419
 21
665.808786
  0
LINE
  5
1F6
100
AcDbEntity
  8
M0
 62
     4
100
AcDbLine
 10
503.506419
 20
763.808313
 11
503.506419
 21
758.308313
  0
LINE
  5
1F7
100
AcDbEntity
  8
M0
 62
     4
100
AcDbLine
 10
512.106272
 20
742.308588
 11
512.106272
 21
764.308374
  0
ARC
  5
1F8
100
AcDbEntity
  8
M0
 62
     4
100
AcDbCircle
 10
498.506419
 20
692.886347
 40
5.0
100
AcDbArc
 50
0.0
 51
89.101917
  0
ARC
  5
1F9
100
AcDbEntity
  8
M0
 62
     4
100
AcDbCircle
 10
498.506419
 20
736.730188
 40
5.0
100
AcDbArc
 50
270.89808
 51
360.0
  0
LINE
  5
1FA
100
AcDbEntity
  8
M0
  6
DASHDOT
 62
     4
100
AcDbLine
 10
437.528269
 20
714.808588
 11
527.006419
 21
714.808588
  0
LINE
  5
1FB
100
AcDbEntity
  8
M0
 62
     4
100
AcDbLine
 10
443.806468
 20
761.8081
 11
443.806468
 21
667.808786
  0
ARC
  5
1FC
100
AcDbEntity
  8
M0
 62
     4
100
AcDbCircle
 10
445.806468
 20
761.8081
 40
2.0
100
AcDbArc
 50
90.0
 51
180.0
  0
ARC
  5
1FD
100
AcDbEntity
  8
M0
 62
     4
100
AcDbCircle
 10
445.806468
 20
667.808786
 40
2.0
100
AcDbArc
 50
180.0
 51
269.999563
  0
ARC
  5
1FE
100
AcDbEntity
  8
M0
 62
     4
100
AcDbCircle
 10
445.806468
 20
673.308786
 40
2.0
100
AcDbArc
 50
180.0
 51
269.999563
  0
ARC
  5
1FF
100
AcDbEntity
  8
M0
 62
     4
100
AcDbCircle
 10
445.806468
 20
756.3081
 40
2.0
100
AcDbArc
 50
90.0
 51
180.0
  0
LINE
  5
200
100
AcDbEntity
  8
M0
100
AcDbLine
 10
541.506419
 20
724.308344
 11
544.006419
 21
728.808588
  0
LINE
  5
201
100
AcDbEntity
  8
M0
100
AcDbLine
 10
508.006419
 20
665.308588
 11
544.006419
 21
665.308588
  0
LINE
  5
202
100
AcDbEntity
  8
M0
100
AcDbLine
 10
544.006419
 20
665.308588
 11
544.006419
 21
696.309214
  0
LINE
  5
203
100
AcDbEntity
  8
M0
100
AcDbLine
 10
544.006419
 20
764.308588
 11
508.006419
 21
764.308344
  0
LINE
  5
204
100
AcDbEntity
  8
M0
100
AcDbLine
 10
478.006419
 20
730.308588
 11
478.006419
 21
699.308588
  0
LINE
  5
205
100
AcDbEntity
  8
M0
100
AcDbLine
 10
506.006419
 20
740.308588
 11
506.006419
 21
736.308588
  0
LINE
  5
206
100
AcDbEntity
  8
M0
100
AcDbLine
 10
480.006419
 20
697.308588
 11
498.006419
 21
697.308588
  0
LINE
  5
207
100
AcDbEntity
  8
M0
100
AcDbLine
 10
480.006419
 20
732.308588
 11
498.006419
 21
732.308588
  0
LINE
  5
208
100
AcDbEntity
  8
M0
100
AcDbLine
 10
506.006419
 20
693.308588
 11
506.006419
 21
689.308588
  0
ARC
  5
209
100
AcDbEntity
  8
M0
100
AcDbCircle
 10
502.006419
 20
693.308588
 40
4.0
100
AcDbArc
 50
0.0
 51
90.0
  0
ARC
  5
20A
100
AcDbEntity
  8
M0
100
AcDbCircle
 10
502.006419
 20
736.308588
 40
4.0
100
AcDbArc
 50
269.999781
 51
360.0
  0
LINE
  5
20B
100
AcDbEntity
  8
M0
100
AcDbLine
 10
531.006175
 20
752.308588
 11
544.006419
 21
752.308588
  0
LINE
  5
20C
100
AcDbEntity
  8
M0
100
AcDbLine
 10
531.00593
 20
677.308588
 11
544.006419
 21
677.308588
  0
LINE
  5
20D
100
AcDbEntity
  8
M0
100
AcDbLine
 10
508.006419
 20
742.308588
 11
519.006419
 21
742.308588
  0
LINE
  5
20E
100
AcDbEntity
  8
M0
100
AcDbLine
 10
508.006419
 20
687.308588
 11
519.006175
 21
687.308588
  0
LINE
  5
20F
100
AcDbEntity
  8
M0
100
AcDbLine
 10
528.006419
 20
749.808588
 11
528.006419
 21
741.308588
  0
LINE
  5
210
100
AcDbEntity
  8
M0
100
AcDbLine
 10
520.006419
 20
741.308588
 11
528.006419
 21
741.308588
  0
LINE
  5
211
100
AcDbEntity
  8
M0
100
AcDbLine
 10
520.006175
 20
688.308588
 11
528.006175
 21
688.308588
  0
LINE
  5
212
100
AcDbEntity
  8
M0
100
AcDbLine
 10
528.006419
 20
749.808588
 11
531.006419
 21
752.308588
  0
ARC
  5
213
100
AcDbEntity
  8
M0
100
AcDbCircle
 10
508.006419
 20
740.308588
 40
2.0
100
AcDbArc
 50
90.0
 51
180.0
  0
LINE
  5
214
100
AcDbEntity
  8
M0
100
AcDbLine
 10
528.006175
 20
679.808588
 11
531.006175
 21
677.308588
  0
LINE
  5
215
100
AcDbEntity
  8
M0
100
AcDbLine
 10
528.006175
 20
679.808588
 11
528.006175
 21
688.308588
  0
ARC
  5
216
100
AcDbEntity
  8
M0
100
AcDbCircle
 10
508.006419
 20
689.308588
 40
2.0
100
AcDbArc
 50
180.0
 51
269.999563
  0
ARC
  5
217
100
AcDbEntity
  8
M0
100
AcDbCircle
 10
480.006419
 20
730.308588
 40
2.0
100
AcDbArc
 50
90.0
 51
180.0
  0
ARC
  5
218
100
AcDbEntity
  8
M0
100
AcDbCircle
 10
480.006419
 20
699.308588
 40
2.0
100
AcDbArc
 50
180.0
 51
269.999563
  0
ARC
  5
219
100
AcDbEntity
  8
M0
100
AcDbCircle
 10
508.006419
 20
762.308344
 40
2.0
100
AcDbArc
 50
90.0
 51
131.412097
  0
ARC
  5
21A
100
AcDbEntity
  8
M0
100
AcDbCircle
 10
508.006419
 20
667.308588
 40
2.0
100
AcDbArc
 50
228.581695
 51
269.999563
  0
LINE
  5
21B
100
AcDbEntity
  8
M0
100
AcDbLine
 10
484.506175
 20
718.558588
 11
484.506175
 21
711.058588
  0
LINE
  5
21C
100
AcDbEntity
  8
M0
100
AcDbLine
 10
478.006419
 20
718.558588
 11
484.506175
 21
718.558588
  0
LINE
  5
21D
100
AcDbEntity
  8
M0
100
AcDbLine
 10
478.006419
 20
711.058588
 11
484.506175
 21
711.058588
  0
LINE
  5
21E
100
AcDbEntity
  8
M0
100
AcDbLine
 10
502.006419
 20
732.308588
 11
502.006419
 21
729.808588
  0
LINE
  5
21F
100
AcDbEntity
  8
M0
100
AcDbLine
 10
498.006419
 20
732.308588
 11
498.006419
 21
729.808588
  0
LINE
  5
220
100
AcDbEntity
  8
M0
100
AcDbLine
 10
498.006419
 20
729.808588
 11
502.006419
 21
729.808588
  0
LINE
  5
221
100
AcDbEntity
  8
M0
100
AcDbLine
 10
498.006419
 20
699.808588
 11
502.006419
 21
699.808588
  0
LINE
  5
222
100
AcDbEntity
  8
M0
100
AcDbLine
 10
498.006419
 20
699.808588
 11
498.006419
 21
697.308588
  0
LINE
  5
223
100
AcDbEntity
  8
M0
100
AcDbLine
 10
502.006419
 20
699.808588
 11
502.006419
 21
697.308588
  0
LINE
  5
224
100
AcDbEntity
  8
M0
100
AcDbLine
 10
483.006175
 20
718.558588
 11
483.006175
 21
717.558588
  0
LINE
  5
225
100
AcDbEntity
  8
M0
100
AcDbLine
 10
483.006175
 20
717.558588
 11
484.506175
 21
717.558588
  0
LINE
  5
226
100
AcDbEntity
  8
M0
100
AcDbLine
 10
483.006175
 20
712.058588
 11
484.506175
 21
712.058588
  0
LINE
  5
227
100
AcDbEntity
  8
M0
100
AcDbLine
 10
483.006175
 20
712.058588
 11
483.006175
 21
711.058588
  0
LINE
  5
228
100
AcDbEntity
  8
M0
100
AcDbLine
 10
498.006419
 20
731.290522
 11
502.006419
 21
731.290522
  0
LINE
  5
229
100
AcDbEntity
  8
M0
100
AcDbLine
 10
498.006175
 20
698.326654
 11
502.006175
 21
698.326654
  0
LINE
  5
22A
100
AcDbEntity
  8
M0
  6
DASHDOT
100
AcDbLine
 10
536.294993
 20
735.058588
 11
545.703196
 21
735.058588
  0
LINE
  5
22B
100
AcDbEntity
  8
M0
  6
DASHDOT
100
AcDbLine
 10
537.926341
 20
694.558588
 11
545.739329
 21
694.558588
  0
LINE
  5
22C
100
AcDbEntity
  8
M0
100
AcDbLine
 10
541.506419
 20
737.558588
 11
544.006419
 21
737.558588
  0
LINE
  5
22D
100
AcDbEntity
  8
M0
100
AcDbLine
 10
541.506419
 20
732.558588
 11
544.006419
 21
732.558588
  0
LINE
  5
22E
100
AcDbEntity
  8
M0
100
AcDbLine
 10
541.506419
 20
697.058588
 11
544.006419
 21
697.058588
  0
LINE
  5
22F
100
AcDbEntity
  8
M0
100
AcDbLine
 10
541.506419
 20
692.058588
 11
544.006419
 21
692.058588
  0
ARC
  5
230
100
AcDbEntity
  8
M0
100
AcDbCircle
 10
541.506419
 20
735.058588
 40
2.5
100
AcDbArc
 50
90.0
 51
269.99965
  0
ARC
  5
231
100
AcDbEntity
  8
M0
100
AcDbCircle
 10
541.506419
 20
694.558588
 40
2.5
100
AcDbArc
 50
90.0
 51
269.99965
  0
LINE
  5
232
100
AcDbEntity
  8
M0
100
AcDbLine
 10
528.506419
 20
710.808588
 11
528.506419
 21
712.808588
  0
LINE
  5
233
100
AcDbEntity
  8
M0
100
AcDbLine
 10
530.506419
 20
708.808588
 11
544.006419
 21
708.808588
  0
LINE
  5
234
100
AcDbEntity
  8
M0
100
AcDbLine
 10
530.506419
 20
720.808588
 11
541.506419
 21
720.808588
  0
LINE
  5
235
100
AcDbEntity
  8
M0
100
AcDbLine
 10
528.774241
 20
709.808588
 11
541.006419
 21
709.808588
  0
LINE
  5
236
100
AcDbEntity
  8
M0
100
AcDbLine
 10
528.774241
 20
719.808588
 11
538.528391
 21
719.808588
  0
LINE
  5
237
100
AcDbEntity
  8
M0
100
AcDbLine
 10
541.506419
 20
724.308344
 11
541.506419
 21
720.808344
  0
ARC
  5
238
100
AcDbEntity
  8
M0
100
AcDbCircle
 10
541.006419
 20
708.808588
 40
1.0
100
AcDbArc
 50
0.0
 51
90.0
  0
ARC
  5
239
100
AcDbEntity
  8
M0
100
AcDbCircle
 10
538.506419
 20
720.808344
 40
1.0
100
AcDbArc
 50
269.999126
 51
360.0
  0
LINE
  5
23A
100
AcDbEntity
  8
M0
100
AcDbLine
 10
529.506419
 20
715.808588
 11
529.506419
 21
713.808588
  0
LINE
  5
23B
100
AcDbEntity
  8
M0
100
AcDbLine
 10
528.506419
 20
716.808588
 11
529.506419
 21
715.808588
  0
LINE
  5
23C
100
AcDbEntity
  8
M0
100
AcDbLine
 10
528.506419
 20
712.808588
 11
529.506419
 21
713.808588
  0
LINE
  5
23D
100
AcDbEntity
  8
M0
100
AcDbLine
 10
528.506419
 20
716.808588
 11
528.506419
 21
718.808588
  0
LINE
  5
23E
100
AcDbEntity
  8
M0
100
AcDbLine
 10
544.006419
 20
728.808588
 11
544.006419
 21
732.558588
  0
LINE
  5
23F
100
AcDbEntity
  8
M0
100
AcDbLine
 10
515.006419
 20
764.308344
 11
515.006419
 21
755.808588
  0
LINE
  5
240
100
AcDbEntity
  8
M0
100
AcDbLine
 10
512.106272
 20
755.808588
 11
515.006419
 21
755.808588
  0
LINE
  5
241
100
AcDbEntity
  8
M0
100
AcDbLine
 10
512.106272
 20
673.808588
 11
514.506175
 21
673.808588
  0
ARC
  5
242
100
AcDbEntity
  8
M0
100
AcDbCircle
 10
520.006419
 20
742.308588
 40
1.0
100
AcDbArc
 50
180.0
 51
269.999126
  0
ARC
  5
243
100
AcDbEntity
  8
M0
100
AcDbCircle
 10
520.006175
 20
687.308588
 40
1.0
100
AcDbArc
 50
90.0
 51
180.0
  0
ARC
  5
244
100
AcDbEntity
  8
M0
100
AcDbCircle
 10
530.506419
 20
710.808588
 40
2.0
100
AcDbArc
 50
180.0
 51
269.999563
  0
ARC
  5
245
100
AcDbEntity
  8
M0
100
AcDbCircle
 10
530.506419
 20
718.808588
 40
2.0
100
AcDbArc
 50
90.0
 51
180.0
  0
LINE
  5
246
100
AcDbEntity
  8
M0
100
AcDbLine
 10
544.006419
 20
681.810038
 11
544.70637
 21
681.810038
  0
LINE
  5
247
100
AcDbEntity
  8
M0
100
AcDbLine
 10
544.006419
 20
687.810038
 11
544.70637
 21
687.810038
  0
LINE
  5
248
100
AcDbEntity
  8
M0
100
AcDbLine
 10
544.70637
 20
687.810038
 11
544.70637
 21
681.810038
  0
LINE
  5
249
100
AcDbEntity
  8
M0
100
AcDbLine
 10
544.70637
 20
741.807123
 11
544.70637
 21
747.807123
  0
LINE
  5
24A
100
AcDbEntity
  8
M0
100
AcDbLine
 10
544.006419
 20
747.807123
 11
544.70637
 21
747.807123
  0
LINE
  5
24B
100
AcDbEntity
  8
M0
100
AcDbLine
 10
544.006419
 20
741.807123
 11
544.70637
 21
741.807123
  0
LINE
  5
24C
100
AcDbEntity
  8
M0
100
AcDbLine
 10
544.006419
 20
697.058588
 11
544.006419
 21
708.808588
  0
LINE
  5
24D
100
AcDbEntity
  8
M0
100
AcDbLine
 10
544.006419
 20
734.010492
 11
544.006419
 21
764.308588
  0
LINE
  5
24E
100
AcDbEntity
  8
M0
100
AcDbLine
 10
539.236643
 20
734.010492
 11
544.006419
 21
734.010492
  0
LINE
  5
24F
100
AcDbEntity
  8
M0
100
AcDbLine
 10
539.721507
 20
696.309214
 11
544.006419
 21
696.309214
  0
LINE
  5
250
100
AcDbEntity
  8
M0
100
AcDbLine
 10
596.806468
 20
776.808588
 11
580.806468
 21
776.808588
  0
LINE
  5
251
100
AcDbEntity
  8
M0
  6
DASHDOT
100
AcDbLine
 10
533.906474
 20
714.808588
 11
606.806468
 21
714.808588
  0
LINE
  5
252
100
AcDbEntity
  8
M0
100
AcDbLine
 10
597.306468
 20
775.808588
 11
597.306468
 21
763.808588
  0
LINE
  5
253
100
AcDbEntity
  8
M0
100
AcDbLine
 10
579.806468
 20
775.766916
 11
579.806468
 21
763.808588
  0
LINE
  5
254
100
AcDbEntity
  8
M0
100
AcDbLine
 10
580.806468
 20
776.808588
 11
580.806468
 21
764.808588
  0
ARC
  5
255
100
AcDbEntity
  8
M0
100
AcDbCircle
 10
556.506464
 20
719.808588
 40
2.0
100
AcDbArc
 50
0.0
 51
90.0
  0
LINE
  5
256
100
AcDbEntity
  8
M0
100
AcDbLine
 10
578.806468
 20
762.808588
 11
544.006464
 21
762.808588
  0
LINE
  5
257
100
AcDbEntity
  8
M0
100
AcDbLine
 10
568.806468
 20
764.308588
 11
544.006464
 21
764.308588
  0
LINE
  5
258
100
AcDbEntity
  8
M0
100
AcDbLine
 10
568.806468
 20
764.308588
 11
575.124354
 21
770.890085
  0
ARC
  5
259
100
AcDbEntity
  8
M0
100
AcDbCircle
 10
578.806468
 20
763.808588
 40
1.0
100
AcDbArc
 50
269.999126
 51
360.0
  0
ARC
  5
25A
100
AcDbEntity
  8
M0
100
AcDbCircle
 10
578.806468
 20
764.808588
 40
2.0
100
AcDbArc
 50
269.999563
 51
360.0
  0
LINE
  5
25B
100
AcDbEntity
  8
M0
100
AcDbLine
 10
596.806468
 20
747.808588
 11
597.306468
 21
747.808588
  0
LINE
  5
25C
100
AcDbEntity
  8
M0
100
AcDbLine
 10
596.806468
 20
757.808588
 11
597.306468
 21
757.808588
  0
LINE
  5
25D
100
AcDbEntity
  8
M0
  6
DASHDOT
100
AcDbLine
 10
602.308619
 20
769.808588
 11
592.91627
 21
769.808588
  0
LINE
  5
25E
100
AcDbEntity
  8
M0
100
AcDbLine
 10
596.806468
 20
763.808588
 11
597.306468
 21
763.808588
  0
LINE
  5
25F
100
AcDbEntity
  8
M0
100
AcDbLine
 10
596.806468
 20
775.808588
 11
597.306468
 21
775.808588
  0
LINE
  5
260
100
AcDbEntity
  8
M0
100
AcDbLine
 10
597.306468
 20
757.808588
 11
597.306468
 21
747.808588
  0
LINE
  5
261
100
AcDbEntity
  8
M0
100
AcDbLine
 10
596.806468
 20
714.808588
 11
596.806468
 21
776.808588
  0
LINE
  5
262
100
AcDbEntity
  8
M0
100
AcDbLine
 10
558.506464
 20
714.808588
 11
558.506464
 21
719.808588
  0
LINE
  5
263
100
AcDbEntity
  8
M0
100
AcDbLine
 10
542.006464
 20
721.808588
 11
556.506464
 21
721.808588
  0
LINE
  5
264
100
AcDbEntity
  8
M0
100
AcDbLine
 10
542.006464
 20
723.808588
 11
544.006464
 21
728.308588
  0
LINE
  5
265
100
AcDbEntity
  8
M0
100
AcDbLine
 10
544.006464
 20
764.308588
 11
544.006464
 21
728.308588
  0
LINE
  5
266
100
AcDbEntity
  8
M0
100
AcDbLine
 10
542.006464
 20
721.808588
 11
542.006464
 21
723.808588
  0
LINE
  5
267
100
AcDbEntity
  8
M0
100
AcDbLine
 10
596.806468
 20
652.808588
 11
580.806468
 21
652.808588
  0
LINE
  5
268
100
AcDbEntity
  8
M0
  6
DASHDOT
100
AcDbLine
 10
533.906474
 20
714.808588
 11
606.806468
 21
714.808588
  0
LINE
  5
269
100
AcDbEntity
  8
M0
100
AcDbLine
 10
597.306468
 20
653.808588
 11
597.306468
 21
665.808588
  0
LINE
  5
26A
100
AcDbEntity
  8
M0
100
AcDbLine
 10
579.806468
 20
653.85026
 11
579.806468
 21
665.808588
  0
LINE
  5
26B
100
AcDbEntity
  8
M0
100
AcDbLine
 10
580.806468
 20
652.808588
 11
580.806468
 21
664.808588
  0
ARC
  5
26C
100
AcDbEntity
  8
M0
100
AcDbCircle
 10
556.506464
 20
709.808588
 40
2.0
100
AcDbArc
 50
-90.000437
 51
0.0
  0
LINE
  5
26D
100
AcDbEntity
  8
M0
100
AcDbLine
 10
578.806468
 20
666.808588
 11
544.006464
 21
666.808588
  0
LINE
  5
26E
100
AcDbEntity
  8
M0
100
AcDbLine
 10
568.806468
 20
665.308588
 11
544.006464
 21
665.308588
  0
LINE
  5
26F
100
AcDbEntity
  8
M0
100
AcDbLine
 10
568.806468
 20
665.308588
 11
580.806468
 21
652.808588
  0
ARC
  5
270
100
AcDbEntity
  8
M0
100
AcDbCircle
 10
578.806468
 20
665.808588
 40
1.0
100
AcDbArc
 50
0.0
 51
90.0
  0
ARC
  5
271
100
AcDbEntity
  8
M0
100
AcDbCircle
 10
578.806468
 20
664.808588
 40
2.0
100
AcDbArc
 50
0.0
 51
90.0
  0
LINE
  5
272
100
AcDbEntity
  8
M0
100
AcDbLine
 10
596.806468
 20
681.808588
 11
597.306468
 21
681.808588
  0
LINE
  5
273
100
AcDbEntity
  8
M0
100
AcDbLine
 10
596.806468
 20
671.808588
 11
597.306468
 21
671.808588
  0
LINE
  5
274
100
AcDbEntity
  8
M0
100
AcDbLine
 10
596.806468
 20
665.808588
 11
597.306468
 21
665.808588
  0
LINE
  5
275
100
AcDbEntity
  8
M0
100
AcDbLine
 10
596.806468
 20
653.808588
 11
597.306468
 21
653.808588
  0
LINE
  5
276
100
AcDbEntity
  8
M0
100
AcDbLine
 10
597.306468
 20
671.808588
 11
597.306468
 21
681.808588
  0
LINE
  5
277
100
AcDbEntity
  8
M0
100
AcDbLine
 10
596.806468
 20
714.808588
 11
596.806468
 21
652.808588
  0
LINE
  5
278
100
AcDbEntity
  8
M0
100
AcDbLine
 10
558.506464
 20
714.808588
 11
558.506464
 21
709.808588
  0
LINE
  5
279
100
AcDbEntity
  8
M0
100
AcDbLine
 10
544.006464
 20
707.808588
 11
556.506464
 21
707.808588
  0
LINE
  5
27A
100
AcDbEntity
  8
M0
100
AcDbLine
 10
544.006464
 20
665.308588
 11
544.006464
 21
707.808588
  0
LINE
  5
27B
100
AcDbEntity
  8
M0
100
AcDbLine
 10
579.347743
 20
775.289499
 11
580.806468
 21
776.808588
  0
LINE
  5
27C
100
AcDbEntity
  8
M0
100
AcDbLine
 10
297.784538
 20
783.290251
 11
277.784538
 21
783.290257
  0
LINE
  5
27D
100
AcDbEntity
  8
M0
  6
DASHDOT
100
AcDbLine
 10
287.784491
 20
632.372415
 11
287.784541
 21
793.290254
  0
LINE
  5
27E
100
AcDbEntity
  8
M0
100
AcDbLine
 10
281.9489
 20
765.588596
 11
277.784534
 21
769.290257
  0
ARC
  5
27F
100
AcDbEntity
  8
M0
100
AcDbCircle
 10
281.284533
 20
764.84119
 40
1.0
100
AcDbArc
 50
359.999108
 51
408.365571
  0
ARC
  5
280
100
AcDbEntity
  8
M0
100
AcDbCircle
 10
294.284533
 20
764.841186
 40
1.0
100
AcDbArc
 50
131.634393
 51
179.999982
  0
LINE
  5
281
100
AcDbEntity
  8
M0
100
AcDbLine
 10
277.784538
 20
783.290257
 11
277.784534
 21
769.290257
  0
LINE
  5
282
100
AcDbEntity
  8
M0
100
AcDbLine
 10
293.620165
 20
765.588592
 11
297.784534
 21
769.290251
  0
LINE
  5
283
100
AcDbEntity
  8
M0
100
AcDbLine
 10
297.784534
 20
769.290251
 11
297.784538
 21
783.290251
  0
LINE
  5
284
100
AcDbEntity
  8
M0
100
AcDbLine
 10
282.284532
 20
764.290164
 11
282.284533
 21
764.84119
  0
LINE
  5
285
100
AcDbEntity
  8
M0
100
AcDbLine
 10
293.284531
 20
758.79042
 11
293.284533
 21
764.841186
  0
LINE
  5
286
100
AcDbEntity
  8
M0
  6
DASHDOT
100
AcDbLine
 10
300.784536
 20
775.29025
 11
274.784536
 21
775.290258
  0
ARC
  5
287
100
AcDbEntity
  8
M0
100
AcDbCircle
 10
287.78453
 20
757.290254
 40
2.0
100
AcDbArc
 50
48.597506
 51
131.402785
  0
LINE
  5
288
100
AcDbEntity
  8
M0
100
AcDbLine
 10
297.78438
 20
647.290357
 11
277.78438
 21
647.290338
  0
LINE
  5
289
100
AcDbEntity
  8
M0
100
AcDbLine
 10
281.948731
 20
664.992002
 11
277.784367
 21
661.290338
  0
ARC
  5
28A
100
AcDbEntity
  8
M0
100
AcDbCircle
 10
281.284362
 20
665.739408
 40
1.0
100
AcDbArc
 50
311.632649
 51
359.99918
  0
ARC
  5
28B
100
AcDbEntity
  8
M0
100
AcDbCircle
 10
294.284362
 20
665.73942
 40
1.0
100
AcDbArc
 50
180.000054
 51
228.365571
  0
LINE
  5
28C
100
AcDbEntity
  8
M0
100
AcDbLine
 10
277.78438
 20
647.290338
 11
277.784367
 21
661.290338
  0
LINE
  5
28D
100
AcDbEntity
  8
M0
100
AcDbLine
 10
293.619995
 20
664.992013
 11
297.784367
 21
661.290357
  0
LINE
  5
28E
100
AcDbEntity
  8
M0
100
AcDbLine
 10
297.784367
 20
661.290357
 11
297.78438
 21
647.290357
  0
LINE
  5
28F
100
AcDbEntity
  8
M0
100
AcDbLine
 10
282.284362
 20
665.790342
 11
282.284362
 21
665.739408
  0
LINE
  5
290
100
AcDbEntity
  8
M0
  6
DASHDOT
100
AcDbLine
 10
300.784372
 20
655.29036
 11
274.784372
 21
655.290335
  0
ARC
  5
291
100
AcDbEntity
  8
M0
100
AcDbCircle
 10
287.784355
 20
673.290348
 40
2.0
100
AcDbArc
 50
228.573361
 51
311.426419
  0
LINE
  5
292
100
AcDbEntity
  8
M0
100
AcDbLine
 10
304.784892
 20
664.290247
 11
304.784892
 21
665.790247
  0
LINE
  5
293
100
AcDbEntity
  8
M0
100
AcDbLine
 10
511.806651
 20
783.290232
 11
515.006602
 21
783.290232
  0
LINE
  5
294
100
AcDbEntity
  8
M0
100
AcDbLine
 10
511.806651
 20
783.290232
 11
511.806651
 21
764.308298
  0
LINE
  5
295
100
AcDbEntity
  8
M0
100
AcDbLine
 10
515.006602
 20
783.290232
 11
515.006602
 21
764.308298
  0
LINE
  5
296
100
AcDbEntity
  8
M0
  6
DASHED
100
AcDbLine
 10
303.284785
 20
826.290232
 11
303.284785
 21
764.789743
  0
LINE
  5
297
100
AcDbEntity
  8
M0
  6
DASHED
100
AcDbLine
 10
272.284785
 20
826.290232
 11
272.284785
 21
764.789499
  0
LINE
  5
298
100
AcDbEntity
  8
M0
  6
DASHED
100
AcDbLine
 10
270.784785
 20
826.290232
 11
270.784785
 21
764.789499
  0
LINE
  5
299
100
AcDbEntity
  8
M0
  6
DASHED
100
AcDbLine
 10
304.784785
 20
826.290232
 11
304.784785
 21
764.789743
  0
LINE
  5
29A
100
AcDbEntity
  8
M0
  6
DASHED
100
AcDbLine
 10
270.784785
 20
826.290232
 11
272.284785
 21
826.290232
  0
LINE
  5
29B
100
AcDbEntity
  8
M0
  6
DASHED
100
AcDbLine
 10
270.784785
 20
604.290247
 11
272.284785
 21
604.290247
  0
LINE
  5
29C
100
AcDbEntity
  8
M0
  6
DASHED
100
AcDbLine
 10
303.284785
 20
604.290247
 11
304.784785
 21
604.290247
  0
LINE
  5
29D
100
AcDbEntity
  8
M0
  6
DASHED
100
AcDbLine
 10
303.284785
 20
826.290232
 11
304.784785
 21
826.290232
  0
LINE
  5
29E
100
AcDbEntity
  8
M0
  6
DASHED
100
AcDbLine
 10
270.784785
 20
665.790247
 11
270.784785
 21
604.290247
  0
LINE
  5
29F
100
AcDbEntity
  8
M0
  6
DASHED
100
AcDbLine
 10
272.284785
 20
665.790247
 11
272.284785
 21
604.290247
  0
LINE
  5
2A0
100
AcDbEntity
  8
M0
  6
DASHED
100
AcDbLine
 10
303.284785
 20
665.790247
 11
303.284785
 21
604.290247
  0
LINE
  5
2A1
100
AcDbEntity
  8
M0
  6
DASHED
100
AcDbLine
 10
304.784785
 20
665.790247
 11
304.784785
 21
604.290247
  0
LINE
  5
2A2
100
AcDbEntity
  8
M0
100
AcDbLine
 10
330.784092
 20
783.29025
 11
310.784092
 21
783.290256
  0
LINE
  5
2A3
100
AcDbEntity
  8
M0
100
AcDbLine
 10
307.690107
 20
764.789921
 11
310.784088
 21
769.290256
  0
LINE
  5
2A4
100
AcDbEntity
  8
M0
100
AcDbLine
 10
330.784088
 20
769.29025
 11
330.784092
 21
783.29025
  0
LINE
  5
2A5
100
AcDbEntity
  8
M0
100
AcDbLine
 10
310.784092
 20
783.290256
 11
310.784088
 21
769.290256
  0
LINE
  5
2A6
100
AcDbEntity
  8
M0
100
AcDbLine
 10
323.284253
 20
762.566268
 11
330.784088
 21
769.29025
  0
LINE
  5
2A7
100
AcDbEntity
  8
M0
  6
DASHDOT
100
AcDbLine
 10
320.784086
 20
762.290253
 11
320.784094
 21
788.290253
  0
LINE
  5
2A8
100
AcDbEntity
  8
M0
  6
DASHDOT
100
AcDbLine
 10
333.78409
 20
775.290249
 11
307.78409
 21
775.290257
  0
LINE
  5
2A9
100
AcDbEntity
  8
M0
  6
DASHDOT
100
AcDbLine
 10
310.78408
 20
745.290256
 11
310.784088
 21
769.290256
  0
LINE
  5
2AA
100
AcDbEntity
  8
M0
  6
DASHDOT
100
AcDbLine
 10
322.784084
 20
757.290252
 11
298.784084
 21
757.29026
  0
ARC
  5
2AB
100
AcDbEntity
  8
M0
100
AcDbCircle
 10
310.784084
 20
757.290256
 40
2.0
100
AcDbArc
 50
48.597506
 51
131.402785
  0
LINE
  5
2AC
100
AcDbEntity
  8
M0
100
AcDbLine
 10
244.784547
 20
783.290296
 11
264.784547
 21
783.290303
  0
LINE
  5
2AD
100
AcDbEntity
  8
M0
100
AcDbLine
 10
267.878653
 20
764.789785
 11
264.784551
 21
769.290303
  0
LINE
  5
2AE
100
AcDbEntity
  8
M0
100
AcDbLine
 10
244.784551
 20
769.290296
 11
244.784547
 21
783.290296
  0
LINE
  5
2AF
100
AcDbEntity
  8
M0
100
AcDbLine
 10
264.784547
 20
783.290303
 11
264.784551
 21
769.290303
  0
LINE
  5
2B0
100
AcDbEntity
  8
M0
100
AcDbLine
 10
252.284385
 20
762.566315
 11
244.784551
 21
769.290296
  0
LINE
  5
2B1
100
AcDbEntity
  8
M0
  6
DASHDOT
100
AcDbLine
 10
254.784553
 20
762.290299
 11
254.784545
 21
788.290299
  0
LINE
  5
2B2
100
AcDbEntity
  8
M0
  6
DASHDOT
100
AcDbLine
 10
241.784549
 20
775.290295
 11
267.784549
 21
775.290304
  0
LINE
  5
2B3
100
AcDbEntity
  8
M0
  6
DASHDOT
100
AcDbLine
 10
264.784559
 20
745.290303
 11
264.784551
 21
769.290303
  0
LINE
  5
2B4
100
AcDbEntity
  8
M0
  6
DASHDOT
100
AcDbLine
 10
252.784555
 20
757.290299
 11
276.784555
 21
757.290306
  0
ARC
  5
2B5
100
AcDbEntity
  8
M0
100
AcDbCircle
 10
264.784555
 20
757.290303
 40
2.0
100
AcDbArc
 50
48.596308
 51
131.404055
  0
LINE
  5
2B6
100
AcDbEntity
  8
M0
100
AcDbLine
 10
244.784575
 20
647.290296
 11
264.784575
 21
647.290303
  0
LINE
  5
2B7
100
AcDbEntity
  8
M0
100
AcDbLine
 10
267.878334
 20
665.790334
 11
264.784571
 21
661.290303
  0
LINE
  5
2B8
100
AcDbEntity
  8
M0
100
AcDbLine
 10
244.784571
 20
661.290296
 11
244.784575
 21
647.290296
  0
LINE
  5
2B9
100
AcDbEntity
  8
M0
100
AcDbLine
 10
264.784575
 20
647.290303
 11
264.784571
 21
661.290303
  0
LINE
  5
2BA
100
AcDbEntity
  8
M0
100
AcDbLine
 10
252.284401
 20
668.014282
 11
244.784571
 21
661.290296
  0
LINE
  5
2BB
100
AcDbEntity
  8
M0
  6
DASHDOT
100
AcDbLine
 10
254.784568
 20
668.290299
 11
254.784576
 21
642.290299
  0
LINE
  5
2BC
100
AcDbEntity
  8
M0
  6
DASHDOT
100
AcDbLine
 10
241.784572
 20
655.290295
 11
267.784572
 21
655.290304
  0
LINE
  5
2BD
100
AcDbEntity
  8
M0
  6
DASHDOT
100
AcDbLine
 10
264.784563
 20
685.290303
 11
264.784571
 21
661.290303
  0
LINE
  5
2BE
100
AcDbEntity
  8
M0
  6
DASHDOT
100
AcDbLine
 10
252.784567
 20
673.290299
 11
276.784567
 21
673.290306
  0
ARC
  5
2BF
100
AcDbEntity
  8
M0
100
AcDbCircle
 10
264.784567
 20
673.290303
 40
2.0
100
AcDbArc
 50
228.572091
 51
311.427617
  0
LINE
  5
2C0
100
AcDbEntity
  8
M0
100
AcDbLine
 10
330.783957
 20
647.290361
 11
310.783957
 21
647.290342
  0
LINE
  5
2C1
100
AcDbEntity
  8
M0
100
AcDbLine
 10
306.784136
 20
667.10824
 11
310.783944
 21
661.290342
  0
LINE
  5
2C2
100
AcDbEntity
  8
M0
100
AcDbLine
 10
330.783944
 20
661.290361
 11
330.783957
 21
647.290361
  0
LINE
  5
2C3
100
AcDbEntity
  8
M0
100
AcDbLine
 10
310.783957
 20
647.290342
 11
310.783944
 21
661.290342
  0
LINE
  5
2C4
100
AcDbEntity
  8
M0
100
AcDbLine
 10
323.284105
 20
668.014338
 11
330.783944
 21
661.290361
  0
LINE
  5
2C5
100
AcDbEntity
  8
M0
  6
DASHDOT
100
AcDbLine
 10
320.783937
 20
668.290352
 11
320.783961
 21
642.290352
  0
LINE
  5
2C6
100
AcDbEntity
  8
M0
  6
DASHDOT
100
AcDbLine
 10
333.783949
 20
655.290364
 11
307.783949
 21
655.29034
  0
LINE
  5
2C7
100
AcDbEntity
  8
M0
  6
DASHDOT
100
AcDbLine
 10
310.783921
 20
685.290342
 11
310.783944
 21
661.290342
  0
LINE
  5
2C8
100
AcDbEntity
  8
M0
  6
DASHDOT
100
AcDbLine
 10
322.783932
 20
673.290354
 11
298.783932
 21
673.290331
  0
ARC
  5
2C9
100
AcDbEntity
  8
M0
100
AcDbCircle
 10
310.783932
 20
673.290342
 40
2.0
100
AcDbArc
 50
228.573361
 51
311.426419
  0
LINE
  5
2CA
100
AcDbEntity
  8
M0
  6
DASHDOT
100
AcDbLine
 10
245.784831
 20
728.452417
 11
245.784205
 21
741.18194
  0
LINE
  5
2CB
100
AcDbEntity
  8
M0
100
AcDbLine
 10
247.184733
 20
732.189875
 11
249.004801
 21
732.189875
  0
LINE
  5
2CC
100
AcDbEntity
  8
M0
100
AcDbLine
 10
244.384684
 20
732.189875
 11
242.564616
 21
732.189875
  0
LINE
  5
2CD
100
AcDbEntity
  8
M0
100
AcDbLine
 10
243.303874
 20
730.989924
 11
248.265543
 21
730.989924
  0
LINE
  5
2CE
100
AcDbEntity
  8
M0
100
AcDbLine
 10
247.184733
 20
732.189875
 11
247.184733
 21
732.636652
  0
LINE
  5
2CF
100
AcDbEntity
  8
M0
100
AcDbLine
 10
244.384684
 20
732.189875
 11
244.384684
 21
732.636652
  0
ARC
  5
2D0
100
AcDbEntity
  8
M0
100
AcDbCircle
 10
243.303874
 20
731.489924
 40
0.5
100
AcDbArc
 50
197.11777
 51
269.998251
  0
ARC
  5
2D1
100
AcDbEntity
  8
M0
100
AcDbCircle
 10
248.265543
 20
731.489924
 40
0.5
100
AcDbArc
 50
269.998251
 51
342.874517
  0
LINE
  5
2D2
100
AcDbEntity
  8
M0
  6
DASHDOT
 62
     6
100
AcDbLine
 10
239.460993
 20
735.289972
 11
251.896784
 21
735.289972
  0
CIRCLE
  5
2D3
100
AcDbEntity
  8
M0
100
AcDbCircle
 10
245.784831
 20
735.289972
 40
3.0
  0
LINE
  5
2D4
100
AcDbEntity
  8
M0
100
AcDbLine
 10
242.825846
 20
739.237238
 11
242.009684
 21
736.590021
  0
LINE
  5
2D5
100
AcDbEntity
  8
M0
100
AcDbLine
 10
242.825846
 20
731.342707
 11
242.009684
 21
733.989924
  0
LINE
  5
2D6
100
AcDbEntity
  8
M0
100
AcDbLine
 10
248.743327
 20
739.237238
 11
249.559733
 21
736.590021
  0
LINE
  5
2D7
100
AcDbEntity
  8
M0
100
AcDbLine
 10
248.743327
 20
731.342707
 11
249.559733
 21
733.989924
  0
LINE
  5
2D8
100
AcDbEntity
  8
M0
100
AcDbLine
 10
247.184733
 20
738.389826
 11
249.004801
 21
738.389826
  0
LINE
  5
2D9
100
AcDbEntity
  8
M0
100
AcDbLine
 10
248.106364
 20
737.189875
 11
249.374674
 21
737.189875
  0
LINE
  5
2DA
100
AcDbEntity
  8
M0
100
AcDbLine
 10
248.106364
 20
733.389826
 11
249.374674
 21
733.389826
  0
LINE
  5
2DB
100
AcDbEntity
  8
M0
100
AcDbLine
 10
244.384684
 20
738.389826
 11
242.564616
 21
738.389826
  0
LINE
  5
2DC
100
AcDbEntity
  8
M0
100
AcDbLine
 10
243.463053
 20
737.189875
 11
242.194743
 21
737.189875
  0
LINE
  5
2DD
100
AcDbEntity
  8
M0
100
AcDbLine
 10
243.463053
 20
733.389826
 11
242.194743
 21
733.389826
  0
LINE
  5
2DE
100
AcDbEntity
  8
M0
100
AcDbLine
 10
249.559733
 20
733.989924
 11
249.559733
 21
736.590021
  0
LINE
  5
2DF
100
AcDbEntity
  8
M0
100
AcDbLine
 10
248.265543
 20
739.590021
 11
243.303874
 21
739.589777
  0
LINE
  5
2E0
100
AcDbEntity
  8
M0
100
AcDbLine
 10
242.009684
 20
736.590021
 11
242.009684
 21
733.989924
  0
LINE
  5
2E1
100
AcDbEntity
  8
M0
100
AcDbLine
 10
247.184733
 20
737.943293
 11
247.184733
 21
738.389826
  0
LINE
  5
2E2
100
AcDbEntity
  8
M0
100
AcDbLine
 10
244.384684
 20
737.943293
 11
244.384684
 21
738.389826
  0
LINE
  5
2E3
100
AcDbEntity
  8
M0
100
AcDbLine
 10
247.375407
 20
733.699152
 11
244.193766
 21
736.880793
  0
LINE
  5
2E4
100
AcDbEntity
  8
M0
100
AcDbLine
 10
246.138102
 20
736.704035
 11
244.370524
 21
734.936457
  0
LINE
  5
2E5
100
AcDbEntity
  8
M0
100
AcDbLine
 10
247.198649
 20
735.643488
 11
245.431071
 21
733.87591
  0
ARC
  5
2E6
100
AcDbEntity
  8
M0
100
AcDbCircle
 10
243.303874
 20
739.089777
 40
0.5
100
AcDbArc
 50
90.0
 51
162.856778
  0
ARC
  5
2E7
100
AcDbEntity
  8
M0
100
AcDbCircle
 10
248.265543
 20
739.089777
 40
0.5
100
AcDbArc
 50
17.151452
 51
90.0
  0
LINE
  5
2E8
100
AcDbEntity
  8
M0
  6
DASHDOT
100
AcDbLine
 10
245.784831
 20
718.952417
 11
245.784205
 21
731.68194
  0
LINE
  5
2E9
100
AcDbEntity
  8
M0
100
AcDbLine
 10
247.184733
 20
722.689875
 11
249.004801
 21
722.689875
  0
LINE
  5
2EA
100
AcDbEntity
  8
M0
100
AcDbLine
 10
244.384684
 20
722.689875
 11
242.564616
 21
722.689875
  0
LINE
  5
2EB
100
AcDbEntity
  8
M0
100
AcDbLine
 10
243.303874
 20
721.489924
 11
248.265543
 21
721.489924
  0
LINE
  5
2EC
100
AcDbEntity
  8
M0
100
AcDbLine
 10
247.184733
 20
722.689875
 11
247.184733
 21
723.136652
  0
LINE
  5
2ED
100
AcDbEntity
  8
M0
100
AcDbLine
 10
244.384684
 20
722.689875
 11
244.384684
 21
723.136652
  0
ARC
  5
2EE
100
AcDbEntity
  8
M0
100
AcDbCircle
 10
243.303874
 20
721.989924
 40
0.5
100
AcDbArc
 50
197.11777
 51
269.998251
  0
ARC
  5
2EF
100
AcDbEntity
  8
M0
100
AcDbCircle
 10
248.265543
 20
721.989924
 40
0.5
100
AcDbArc
 50
269.998251
 51
342.874517
  0
LINE
  5
2F0
100
AcDbEntity
  8
M0
  6
DASHDOT
 62
     6
100
AcDbLine
 10
239.460993
 20
725.789972
 11
251.896784
 21
725.789972
  0
CIRCLE
  5
2F1
100
AcDbEntity
  8
M0
100
AcDbCircle
 10
245.784831
 20
725.789972
 40
3.0
  0
LINE
  5
2F2
100
AcDbEntity
  8
M0
100
AcDbLine
 10
242.825846
 20
729.737238
 11
242.009684
 21
727.090021
  0
LINE
  5
2F3
100
AcDbEntity
  8
M0
100
AcDbLine
 10
242.825846
 20
721.842707
 11
242.009684
 21
724.489924
  0
LINE
  5
2F4
100
AcDbEntity
  8
M0
100
AcDbLine
 10
248.743327
 20
729.737238
 11
249.559733
 21
727.090021
  0
LINE
  5
2F5
100
AcDbEntity
  8
M0
100
AcDbLine
 10
248.743327
 20
721.842707
 11
249.559733
 21
724.489924
  0
LINE
  5
2F6
100
AcDbEntity
  8
M0
100
AcDbLine
 10
247.184733
 20
728.889826
 11
249.004801
 21
728.889826
  0
LINE
  5
2F7
100
AcDbEntity
  8
M0
100
AcDbLine
 10
248.106364
 20
727.689875
 11
249.374674
 21
727.689875
  0
LINE
  5
2F8
100
AcDbEntity
  8
M0
100
AcDbLine
 10
248.106364
 20
723.889826
 11
249.374674
 21
723.889826
  0
LINE
  5
2F9
100
AcDbEntity
  8
M0
100
AcDbLine
 10
244.384684
 20
728.889826
 11
242.564616
 21
728.889826
  0
LINE
  5
2FA
100
AcDbEntity
  8
M0
100
AcDbLine
 10
243.463053
 20
727.689875
 11
242.194743
 21
727.689875
  0
LINE
  5
2FB
100
AcDbEntity
  8
M0
100
AcDbLine
 10
243.463053
 20
723.889826
 11
242.194743
 21
723.889826
  0
LINE
  5
2FC
100
AcDbEntity
  8
M0
100
AcDbLine
 10
249.559733
 20
724.489924
 11
249.559733
 21
727.090021
  0
LINE
  5
2FD
100
AcDbEntity
  8
M0
100
AcDbLine
 10
248.265543
 20
730.090021
 11
243.303874
 21
730.089777
  0
LINE
  5
2FE
100
AcDbEntity
  8
M0
100
AcDbLine
 10
242.009684
 20
727.090021
 11
242.009684
 21
724.489924
  0
LINE
  5
2FF
100
AcDbEntity
  8
M0
100
AcDbLine
 10
247.184733
 20
728.443293
 11
247.184733
 21
728.889826
  0
LINE
  5
300
100
AcDbEntity
  8
M0
100
AcDbLine
 10
244.384684
 20
728.443293
 11
244.384684
 21
728.889826
  0
LINE
  5
301
100
AcDbEntity
  8
M0
100
AcDbLine
 10
247.375407
 20
724.199152
 11
244.193766
 21
727.380793
  0
LINE
  5
302
100
AcDbEntity
  8
M0
100
AcDbLine
 10
246.138102
 20
727.204035
 11
244.370524
 21
725.436457
  0
LINE
  5
303
100
AcDbEntity
  8
M0
100
AcDbLine
 10
247.198649
 20
726.143488
 11
245.431071
 21
724.37591
  0
ARC
  5
304
100
AcDbEntity
  8
M0
100
AcDbCircle
 10
243.303874
 20
729.589777
 40
0.5
100
AcDbArc
 50
90.0
 51
162.856778
  0
ARC
  5
305
100
AcDbEntity
  8
M0
100
AcDbCircle
 10
248.265543
 20
729.589777
 40
0.5
100
AcDbArc
 50
17.151452
 51
90.0
  0
LINE
  5
306
100
AcDbEntity
  8
M0
  6
DASHDOT
100
AcDbLine
 10
245.784831
 20
697.952662
 11
245.784205
 21
710.682184
  0
LINE
  5
307
100
AcDbEntity
  8
M0
100
AcDbLine
 10
247.184733
 20
701.690119
 11
249.004801
 21
701.690119
  0
LINE
  5
308
100
AcDbEntity
  8
M0
100
AcDbLine
 10
244.384684
 20
701.690119
 11
242.564616
 21
701.690119
  0
LINE
  5
309
100
AcDbEntity
  8
M0
100
AcDbLine
 10
243.303874
 20
700.490168
 11
248.265543
 21
700.490168
  0
LINE
  5
30A
100
AcDbEntity
  8
M0
100
AcDbLine
 10
247.184733
 20
701.690119
 11
247.184733
 21
702.136896
  0
LINE
  5
30B
100
AcDbEntity
  8
M0
100
AcDbLine
 10
244.384684
 20
701.690119
 11
244.384684
 21
702.136896
  0
ARC
  5
30C
100
AcDbEntity
  8
M0
100
AcDbCircle
 10
243.303874
 20
700.990168
 40
0.5
100
AcDbArc
 50
197.11777
 51
269.998251
  0
ARC
  5
30D
100
AcDbEntity
  8
M0
100
AcDbCircle
 10
248.265543
 20
700.990168
 40
0.5
100
AcDbArc
 50
269.998251
 51
342.874517
  0
LINE
  5
30E
100
AcDbEntity
  8
M0
  6
DASHDOT
 62
     6
100
AcDbLine
 10
239.460993
 20
704.790216
 11
251.896784
 21
704.790216
  0
CIRCLE
  5
30F
100
AcDbEntity
  8
M0
100
AcDbCircle
 10
245.784831
 20
704.790216
 40
3.0
  0
LINE
  5
310
100
AcDbEntity
  8
M0
100
AcDbLine
 10
242.825846
 20
708.737482
 11
242.009684
 21
706.090265
  0
LINE
  5
311
100
AcDbEntity
  8
M0
100
AcDbLine
 10
242.825846
 20
700.842951
 11
242.009684
 21
703.490168
  0
LINE
  5
312
100
AcDbEntity
  8
M0
100
AcDbLine
 10
248.743327
 20
708.737482
 11
249.559733
 21
706.090265
  0
LINE
  5
313
100
AcDbEntity
  8
M0
100
AcDbLine
 10
248.743327
 20
700.842951
 11
249.559733
 21
703.490168
  0
LINE
  5
314
100
AcDbEntity
  8
M0
100
AcDbLine
 10
247.184733
 20
707.89007
 11
249.004801
 21
707.89007
  0
LINE
  5
315
100
AcDbEntity
  8
M0
100
AcDbLine
 10
248.106364
 20
706.690119
 11
249.374674
 21
706.690119
  0
LINE
  5
316
100
AcDbEntity
  8
M0
100
AcDbLine
 10
248.106364
 20
702.89007
 11
249.374674
 21
702.89007
  0
LINE
  5
317
100
AcDbEntity
  8
M0
100
AcDbLine
 10
244.384684
 20
707.89007
 11
242.564616
 21
707.89007
  0
LINE
  5
318
100
AcDbEntity
  8
M0
100
AcDbLine
 10
243.463053
 20
706.690119
 11
242.194743
 21
706.690119
  0
LINE
  5
319
100
AcDbEntity
  8
M0
100
AcDbLine
 10
243.463053
 20
702.89007
 11
242.194743
 21
702.89007
  0
LINE
  5
31A
100
AcDbEntity
  8
M0
100
AcDbLine
 10
249.559733
 20
703.490168
 11
249.559733
 21
706.090265
  0
LINE
  5
31B
100
AcDbEntity
  8
M0
100
AcDbLine
 10
248.265543
 20
709.090265
 11
243.303874
 21
709.090021
  0
LINE
  5
31C
100
AcDbEntity
  8
M0
100
AcDbLine
 10
242.009684
 20
706.090265
 11
242.009684
 21
703.490168
  0
LINE
  5
31D
100
AcDbEntity
  8
M0
100
AcDbLine
 10
247.184733
 20
707.443537
 11
247.184733
 21
707.89007
  0
LINE
  5
31E
100
AcDbEntity
  8
M0
100
AcDbLine
 10
244.384684
 20
707.443537
 11
244.384684
 21
707.89007
  0
LINE
  5
31F
100
AcDbEntity
  8
M0
100
AcDbLine
 10
247.375407
 20
703.199396
 11
244.193766
 21
706.381037
  0
LINE
  5
320
100
AcDbEntity
  8
M0
100
AcDbLine
 10
246.138102
 20
706.204279
 11
244.370524
 21
704.436701
  0
LINE
  5
321
100
AcDbEntity
  8
M0
100
AcDbLine
 10
247.198649
 20
705.143732
 11
245.431071
 21
703.376154
  0
ARC
  5
322
100
AcDbEntity
  8
M0
100
AcDbCircle
 10
243.303874
 20
708.590021
 40
0.5
100
AcDbArc
 50
90.0
 51
162.856778
  0
ARC
  5
323
100
AcDbEntity
  8
M0
100
AcDbCircle
 10
248.265543
 20
708.590021
 40
0.5
100
AcDbArc
 50
17.151452
 51
90.0
  0
LINE
  5
324
100
AcDbEntity
  8
M0
  6
DASHDOT
100
AcDbLine
 10
245.784831
 20
688.452662
 11
245.784205
 21
701.182184
  0
LINE
  5
325
100
AcDbEntity
  8
M0
100
AcDbLine
 10
247.184733
 20
692.190119
 11
249.004801
 21
692.190119
  0
LINE
  5
326
100
AcDbEntity
  8
M0
100
AcDbLine
 10
244.384684
 20
692.190119
 11
242.564616
 21
692.190119
  0
LINE
  5
327
100
AcDbEntity
  8
M0
100
AcDbLine
 10
243.303874
 20
690.990168
 11
248.265543
 21
690.990168
  0
LINE
  5
328
100
AcDbEntity
  8
M0
100
AcDbLine
 10
247.184733
 20
692.190119
 11
247.184733
 21
692.636896
  0
LINE
  5
329
100
AcDbEntity
  8
M0
100
AcDbLine
 10
244.384684
 20
692.190119
 11
244.384684
 21
692.636896
  0
ARC
  5
32A
100
AcDbEntity
  8
M0
100
AcDbCircle
 10
243.303874
 20
691.490168
 40
0.5
100
AcDbArc
 50
197.11777
 51
269.998251
  0
ARC
  5
32B
100
AcDbEntity
  8
M0
100
AcDbCircle
 10
248.265543
 20
691.490168
 40
0.5
100
AcDbArc
 50
269.998251
 51
342.874517
  0
LINE
  5
32C
100
AcDbEntity
  8
M0
  6
DASHDOT
 62
     6
100
AcDbLine
 10
239.460993
 20
695.290216
 11
251.896784
 21
695.290216
  0
CIRCLE
  5
32D
100
AcDbEntity
  8
M0
100
AcDbCircle
 10
245.784831
 20
695.290216
 40
3.0
  0
LINE
  5
32E
100
AcDbEntity
  8
M0
100
AcDbLine
 10
242.825846
 20
699.237482
 11
242.009684
 21
696.590265
  0
LINE
  5
32F
100
AcDbEntity
  8
M0
100
AcDbLine
 10
242.825846
 20
691.342951
 11
242.009684
 21
693.990168
  0
LINE
  5
330
100
AcDbEntity
  8
M0
100
AcDbLine
 10
248.743327
 20
699.237482
 11
249.559733
 21
696.590265
  0
LINE
  5
331
100
AcDbEntity
  8
M0
100
AcDbLine
 10
248.743327
 20
691.342951
 11
249.559733
 21
693.990168
  0
LINE
  5
332
100
AcDbEntity
  8
M0
100
AcDbLine
 10
247.184733
 20
698.39007
 11
249.004801
 21
698.39007
  0
LINE
  5
333
100
AcDbEntity
  8
M0
100
AcDbLine
 10
248.106364
 20
697.190119
 11
249.374674
 21
697.190119
  0
LINE
  5
334
100
AcDbEntity
  8
M0
100
AcDbLine
 10
248.106364
 20
693.39007
 11
249.374674
 21
693.39007
  0
LINE
  5
335
100
AcDbEntity
  8
M0
100
AcDbLine
 10
244.384684
 20
698.39007
 11
242.564616
 21
698.39007
  0
LINE
  5
336
100
AcDbEntity
  8
M0
100
AcDbLine
 10
243.463053
 20
697.190119
 11
242.194743
 21
697.190119
  0
LINE
  5
337
100
AcDbEntity
  8
M0
100
AcDbLine
 10
243.463053
 20
693.39007
 11
242.194743
 21
693.39007
  0
LINE
  5
338
100
AcDbEntity
  8
M0
100
AcDbLine
 10
249.559733
 20
693.990168
 11
249.559733
 21
696.590265
  0
LINE
  5
339
100
AcDbEntity
  8
M0
100
AcDbLine
 10
248.265543
 20
699.590265
 11
243.303874
 21
699.590021
  0
LINE
  5
33A
100
AcDbEntity
  8
M0
100
AcDbLine
 10
242.009684
 20
696.590265
 11
242.009684
 21
693.990168
  0
LINE
  5
33B
100
AcDbEntity
  8
M0
100
AcDbLine
 10
247.184733
 20
697.943537
 11
247.184733
 21
698.39007
  0
LINE
  5
33C
100
AcDbEntity
  8
M0
100
AcDbLine
 10
244.384684
 20
697.943537
 11
244.384684
 21
698.39007
  0
LINE
  5
33D
100
AcDbEntity
  8
M0
100
AcDbLine
 10
247.375407
 20
693.699396
 11
244.193766
 21
696.881037
  0
LINE
  5
33E
100
AcDbEntity
  8
M0
100
AcDbLine
 10
246.138102
 20
696.704279
 11
244.370524
 21
694.936701
  0
LINE
  5
33F
100
AcDbEntity
  8
M0
100
AcDbLine
 10
247.198649
 20
695.643732
 11
245.431071
 21
693.876154
  0
ARC
  5
340
100
AcDbEntity
  8
M0
100
AcDbCircle
 10
243.303874
 20
699.090021
 40
0.5
100
AcDbArc
 50
90.0
 51
162.856778
  0
ARC
  5
341
100
AcDbEntity
  8
M0
100
AcDbCircle
 10
248.265543
 20
699.090021
 40
0.5
100
AcDbArc
 50
17.151452
 51
90.0
  0
LINE
  5
342
100
AcDbEntity
  8
M0
  6
DASHDOT
100
AcDbLine
 10
329.784373
 20
728.452173
 11
329.783747
 21
741.181696
  0
LINE
  5
343
100
AcDbEntity
  8
M0
100
AcDbLine
 10
331.184275
 20
732.189631
 11
333.004344
 21
732.189631
  0
LINE
  5
344
100
AcDbEntity
  8
M0
100
AcDbLine
 10
328.384226
 20
732.189631
 11
326.564158
 21
732.189631
  0
LINE
  5
345
100
AcDbEntity
  8
M0
100
AcDbLine
 10
327.303416
 20
730.989679
 11
332.265086
 21
730.989679
  0
LINE
  5
346
100
AcDbEntity
  8
M0
100
AcDbLine
 10
331.184275
 20
732.189631
 11
331.184275
 21
732.636408
  0
LINE
  5
347
100
AcDbEntity
  8
M0
100
AcDbLine
 10
328.384226
 20
732.189631
 11
328.384226
 21
732.636408
  0
ARC
  5
348
100
AcDbEntity
  8
M0
100
AcDbCircle
 10
327.303416
 20
731.489679
 40
0.5
100
AcDbArc
 50
197.11777
 51
269.998251
  0
ARC
  5
349
100
AcDbEntity
  8
M0
100
AcDbCircle
 10
332.265086
 20
731.489679
 40
0.5
100
AcDbArc
 50
269.998251
 51
342.874517
  0
LINE
  5
34A
100
AcDbEntity
  8
M0
  6
DASHDOT
 62
     6
100
AcDbLine
 10
323.460536
 20
735.289728
 11
335.896327
 21
735.289728
  0
CIRCLE
  5
34B
100
AcDbEntity
  8
M0
100
AcDbCircle
 10
329.784373
 20
735.289728
 40
3.0
  0
LINE
  5
34C
100
AcDbEntity
  8
M0
100
AcDbLine
 10
326.825388
 20
739.236994
 11
326.009226
 21
736.589777
  0
LINE
  5
34D
100
AcDbEntity
  8
M0
100
AcDbLine
 10
326.825388
 20
731.342463
 11
326.009226
 21
733.989679
  0
LINE
  5
34E
100
AcDbEntity
  8
M0
100
AcDbLine
 10
332.742869
 20
739.236994
 11
333.559275
 21
736.589777
  0
LINE
  5
34F
100
AcDbEntity
  8
M0
100
AcDbLine
 10
332.742869
 20
731.342463
 11
333.559275
 21
733.989679
  0
LINE
  5
350
100
AcDbEntity
  8
M0
100
AcDbLine
 10
331.184275
 20
738.389582
 11
333.004344
 21
738.389582
  0
LINE
  5
351
100
AcDbEntity
  8
M0
100
AcDbLine
 10
332.105906
 20
737.189631
 11
333.374217
 21
737.189631
  0
LINE
  5
352
100
AcDbEntity
  8
M0
100
AcDbLine
 10
332.105906
 20
733.389582
 11
333.374217
 21
733.389582
  0
LINE
  5
353
100
AcDbEntity
  8
M0
100
AcDbLine
 10
328.384226
 20
738.389582
 11
326.564158
 21
738.389582
  0
LINE
  5
354
100
AcDbEntity
  8
M0
100
AcDbLine
 10
327.462595
 20
737.189631
 11
326.194285
 21
737.189631
  0
LINE
  5
355
100
AcDbEntity
  8
M0
100
AcDbLine
 10
327.462595
 20
733.389582
 11
326.194285
 21
733.389582
  0
LINE
  5
356
100
AcDbEntity
  8
M0
100
AcDbLine
 10
333.559275
 20
733.989679
 11
333.559275
 21
736.589777
  0
LINE
  5
357
100
AcDbEntity
  8
M0
100
AcDbLine
 10
332.265086
 20
739.589777
 11
327.303416
 21
739.589533
  0
LINE
  5
358
100
AcDbEntity
  8
M0
100
AcDbLine
 10
326.009226
 20
736.589777
 11
326.009226
 21
733.989679
  0
LINE
  5
359
100
AcDbEntity
  8
M0
100
AcDbLine
 10
331.184275
 20
737.943049
 11
331.184275
 21
738.389582
  0
LINE
  5
35A
100
AcDbEntity
  8
M0
100
AcDbLine
 10
328.384226
 20
737.943049
 11
328.384226
 21
738.389582
  0
LINE
  5
35B
100
AcDbEntity
  8
M0
100
AcDbLine
 10
331.374949
 20
733.698908
 11
328.193308
 21
736.880549
  0
LINE
  5
35C
100
AcDbEntity
  8
M0
100
AcDbLine
 10
330.137644
 20
736.703791
 11
328.370066
 21
734.936213
  0
LINE
  5
35D
100
AcDbEntity
  8
M0
100
AcDbLine
 10
331.198191
 20
735.643244
 11
329.430613
 21
733.875666
  0
ARC
  5
35E
100
AcDbEntity
  8
M0
100
AcDbCircle
 10
327.303416
 20
739.089533
 40
0.5
100
AcDbArc
 50
90.0
 51
162.856778
  0
ARC
  5
35F
100
AcDbEntity
  8
M0
100
AcDbCircle
 10
332.265086
 20
739.089533
 40
0.5
100
AcDbArc
 50
17.151452
 51
90.0
  0
LINE
  5
360
100
AcDbEntity
  8
M0
  6
DASHDOT
100
AcDbLine
 10
329.784373
 20
718.952662
 11
329.783747
 21
731.682184
  0
LINE
  5
361
100
AcDbEntity
  8
M0
100
AcDbLine
 10
331.184275
 20
722.690119
 11
333.004344
 21
722.690119
  0
LINE
  5
362
100
AcDbEntity
  8
M0
100
AcDbLine
 10
328.384226
 20
722.690119
 11
326.564158
 21
722.690119
  0
LINE
  5
363
100
AcDbEntity
  8
M0
100
AcDbLine
 10
327.303416
 20
721.490168
 11
332.265086
 21
721.490168
  0
LINE
  5
364
100
AcDbEntity
  8
M0
100
AcDbLine
 10
331.184275
 20
722.690119
 11
331.184275
 21
723.136896
  0
LINE
  5
365
100
AcDbEntity
  8
M0
100
AcDbLine
 10
328.384226
 20
722.690119
 11
328.384226
 21
723.136896
  0
ARC
  5
366
100
AcDbEntity
  8
M0
100
AcDbCircle
 10
327.303416
 20
721.990168
 40
0.5
100
AcDbArc
 50
197.11777
 51
269.998251
  0
ARC
  5
367
100
AcDbEntity
  8
M0
100
AcDbCircle
 10
332.265086
 20
721.990168
 40
0.5
100
AcDbArc
 50
269.998251
 51
342.874517
  0
LINE
  5
368
100
AcDbEntity
  8
M0
  6
DASHDOT
 62
     6
100
AcDbLine
 10
323.460536
 20
725.790216
 11
335.896327
 21
725.790216
  0
CIRCLE
  5
369
100
AcDbEntity
  8
M0
100
AcDbCircle
 10
329.784373
 20
725.790216
 40
3.0
  0
LINE
  5
36A
100
AcDbEntity
  8
M0
100
AcDbLine
 10
326.825388
 20
729.737482
 11
326.009226
 21
727.090265
  0
LINE
  5
36B
100
AcDbEntity
  8
M0
100
AcDbLine
 10
326.825388
 20
721.842951
 11
326.009226
 21
724.490168
  0
LINE
  5
36C
100
AcDbEntity
  8
M0
100
AcDbLine
 10
332.742869
 20
729.737482
 11
333.559275
 21
727.090265
  0
LINE
  5
36D
100
AcDbEntity
  8
M0
100
AcDbLine
 10
332.742869
 20
721.842951
 11
333.559275
 21
724.490168
  0
LINE
  5
36E
100
AcDbEntity
  8
M0
100
AcDbLine
 10
331.184275
 20
728.89007
 11
333.004344
 21
728.89007
  0
LINE
  5
36F
100
AcDbEntity
  8
M0
100
AcDbLine
 10
332.105906
 20
727.690119
 11
333.374217
 21
727.690119
  0
LINE
  5
370
100
AcDbEntity
  8
M0
100
AcDbLine
 10
332.105906
 20
723.89007
 11
333.374217
 21
723.89007
  0
LINE
  5
371
100
AcDbEntity
  8
M0
100
AcDbLine
 10
328.384226
 20
728.89007
 11
326.564158
 21
728.89007
  0
LINE
  5
372
100
AcDbEntity
  8
M0
100
AcDbLine
 10
327.462595
 20
727.690119
 11
326.194285
 21
727.690119
  0
LINE
  5
373
100
AcDbEntity
  8
M0
100
AcDbLine
 10
327.462595
 20
723.89007
 11
326.194285
 21
723.89007
  0
LINE
  5
374
100
AcDbEntity
  8
M0
100
AcDbLine
 10
333.559275
 20
724.490168
 11
333.559275
 21
727.090265
  0
LINE
  5
375
100
AcDbEntity
  8
M0
100
AcDbLine
 10
332.265086
 20
730.090265
 11
327.303416
 21
730.090021
  0
LINE
  5
376
100
AcDbEntity
  8
M0
100
AcDbLine
 10
326.009226
 20
727.090265
 11
326.009226
 21
724.490168
  0
LINE
  5
377
100
AcDbEntity
  8
M0
100
AcDbLine
 10
331.184275
 20
728.443537
 11
331.184275
 21
728.89007
  0
LINE
  5
378
100
AcDbEntity
  8
M0
100
AcDbLine
 10
328.384226
 20
728.443537
 11
328.384226
 21
728.89007
  0
LINE
  5
379
100
AcDbEntity
  8
M0
100
AcDbLine
 10
331.374949
 20
724.199396
 11
328.193308
 21
727.381037
  0
LINE
  5
37A
100
AcDbEntity
  8
M0
100
AcDbLine
 10
330.137644
 20
727.204279
 11
328.370066
 21
725.436701
  0
LINE
  5
37B
100
AcDbEntity
  8
M0
100
AcDbLine
 10
331.198191
 20
726.143732
 11
329.430613
 21
724.376154
  0
ARC
  5
37C
100
AcDbEntity
  8
M0
100
AcDbCircle
 10
327.303416
 20
729.590021
 40
0.5
100
AcDbArc
 50
90.0
 51
162.856778
  0
ARC
  5
37D
100
AcDbEntity
  8
M0
100
AcDbCircle
 10
332.265086
 20
729.590021
 40
0.5
100
AcDbArc
 50
17.151452
 51
90.0
  0
LINE
  5
37E
100
AcDbEntity
  8
M0
  6
DASHDOT
100
AcDbLine
 10
329.784373
 20
697.952417
 11
329.783747
 21
710.68194
  0
LINE
  5
37F
100
AcDbEntity
  8
M0
100
AcDbLine
 10
331.184275
 20
701.689875
 11
333.004344
 21
701.689875
  0
LINE
  5
380
100
AcDbEntity
  8
M0
100
AcDbLine
 10
328.384226
 20
701.689875
 11
326.564158
 21
701.689875
  0
LINE
  5
381
100
AcDbEntity
  8
M0
100
AcDbLine
 10
327.303416
 20
700.489924
 11
332.265086
 21
700.489924
  0
LINE
  5
382
100
AcDbEntity
  8
M0
100
AcDbLine
 10
331.184275
 20
701.689875
 11
331.184275
 21
702.136652
  0
LINE
  5
383
100
AcDbEntity
  8
M0
100
AcDbLine
 10
328.384226
 20
701.689875
 11
328.384226
 21
702.136652
  0
ARC
  5
384
100
AcDbEntity
  8
M0
100
AcDbCircle
 10
327.303416
 20
700.989924
 40
0.5
100
AcDbArc
 50
197.11777
 51
269.998251
  0
ARC
  5
385
100
AcDbEntity
  8
M0
100
AcDbCircle
 10
332.265086
 20
700.989924
 40
0.5
100
AcDbArc
 50
269.998251
 51
342.874517
  0
LINE
  5
386
100
AcDbEntity
  8
M0
  6
DASHDOT
 62
     6
100
AcDbLine
 10
323.460536
 20
704.789972
 11
335.896327
 21
704.789972
  0
CIRCLE
  5
387
100
AcDbEntity
  8
M0
100
AcDbCircle
 10
329.784373
 20
704.789972
 40
3.0
  0
LINE
  5
388
100
AcDbEntity
  8
M0
100
AcDbLine
 10
326.825388
 20
708.737238
 11
326.009226
 21
706.090021
  0
LINE
  5
389
100
AcDbEntity
  8
M0
100
AcDbLine
 10
326.825388
 20
700.842707
 11
326.009226
 21
703.489924
  0
LINE
  5
38A
100
AcDbEntity
  8
M0
100
AcDbLine
 10
332.742869
 20
708.737238
 11
333.559275
 21
706.090021
  0
LINE
  5
38B
100
AcDbEntity
  8
M0
100
AcDbLine
 10
332.742869
 20
700.842707
 11
333.559275
 21
703.489924
  0
LINE
  5
38C
100
AcDbEntity
  8
M0
100
AcDbLine
 10
331.184275
 20
707.889826
 11
333.004344
 21
707.889826
  0
LINE
  5
38D
100
AcDbEntity
  8
M0
100
AcDbLine
 10
332.105906
 20
706.689875
 11
333.374217
 21
706.689875
  0
LINE
  5
38E
100
AcDbEntity
  8
M0
100
AcDbLine
 10
332.105906
 20
702.889826
 11
333.374217
 21
702.889826
  0
LINE
  5
38F
100
AcDbEntity
  8
M0
100
AcDbLine
 10
328.384226
 20
707.889826
 11
326.564158
 21
707.889826
  0
LINE
  5
390
100
AcDbEntity
  8
M0
100
AcDbLine
 10
327.462595
 20
706.689875
 11
326.194285
 21
706.689875
  0
LINE
  5
391
100
AcDbEntity
  8
M0
100
AcDbLine
 10
327.462595
 20
702.889826
 11
326.194285
 21
702.889826
  0
LINE
  5
392
100
AcDbEntity
  8
M0
100
AcDbLine
 10
333.559275
 20
703.489924
 11
333.559275
 21
706.090021
  0
LINE
  5
393
100
AcDbEntity
  8
M0
100
AcDbLine
 10
332.265086
 20
709.090021
 11
327.303416
 21
709.089777
  0
LINE
  5
394
100
AcDbEntity
  8
M0
100
AcDbLine
 10
326.009226
 20
706.090021
 11
326.009226
 21
703.489924
  0
LINE
  5
395
100
AcDbEntity
  8
M0
100
AcDbLine
 10
331.184275
 20
707.443293
 11
331.184275
 21
707.889826
  0
LINE
  5
396
100
AcDbEntity
  8
M0
100
AcDbLine
 10
328.384226
 20
707.443293
 11
328.384226
 21
707.889826
  0
LINE
  5
397
100
AcDbEntity
  8
M0
100
AcDbLine
 10
331.374949
 20
703.199152
 11
328.193308
 21
706.380793
  0
LINE
  5
398
100
AcDbEntity
  8
M0
100
AcDbLine
 10
330.137644
 20
706.204035
 11
328.370066
 21
704.436457
  0
LINE
  5
399
100
AcDbEntity
  8
M0
100
AcDbLine
 10
331.198191
 20
705.143488
 11
329.430613
 21
703.37591
  0
ARC
  5
39A
100
AcDbEntity
  8
M0
100
AcDbCircle
 10
327.303416
 20
708.589777
 40
0.5
100
AcDbArc
 50
90.0
 51
162.856778
  0
ARC
  5
39B
100
AcDbEntity
  8
M0
100
AcDbCircle
 10
332.265086
 20
708.589777
 40
0.5
100
AcDbArc
 50
17.151452
 51
90.0
  0
LINE
  5
39C
100
AcDbEntity
  8
M0
  6
DASHDOT
100
AcDbLine
 10
329.784373
 20
688.45315
 11
329.783747
 21
701.182673
  0
LINE
  5
39D
100
AcDbEntity
  8
M0
100
AcDbLine
 10
331.184275
 20
692.190607
 11
333.004344
 21
692.190607
  0
LINE
  5
39E
100
AcDbEntity
  8
M0
100
AcDbLine
 10
328.384226
 20
692.190607
 11
326.564158
 21
692.190607
  0
LINE
  5
39F
100
AcDbEntity
  8
M0
100
AcDbLine
 10
327.303416
 20
690.990656
 11
332.265086
 21
690.990656
  0
LINE
  5
3A0
100
AcDbEntity
  8
M0
100
AcDbLine
 10
331.184275
 20
692.190607
 11
331.184275
 21
692.637384
  0
LINE
  5
3A1
100
AcDbEntity
  8
M0
100
AcDbLine
 10
328.384226
 20
692.190607
 11
328.384226
 21
692.637384
  0
ARC
  5
3A2
100
AcDbEntity
  8
M0
100
AcDbCircle
 10
327.303416
 20
691.490656
 40
0.5
100
AcDbArc
 50
197.11777
 51
269.998251
  0
ARC
  5
3A3
100
AcDbEntity
  8
M0
100
AcDbCircle
 10
332.265086
 20
691.490656
 40
0.5
100
AcDbArc
 50
269.998251
 51
342.874517
  0
LINE
  5
3A4
100
AcDbEntity
  8
M0
  6
DASHDOT
 62
     6
100
AcDbLine
 10
323.460536
 20
695.290705
 11
335.896327
 21
695.290705
  0
CIRCLE
  5
3A5
100
AcDbEntity
  8
M0
100
AcDbCircle
 10
329.784373
 20
695.290705
 40
3.0
  0
LINE
  5
3A6
100
AcDbEntity
  8
M0
100
AcDbLine
 10
326.825388
 20
699.23797
 11
326.009226
 21
696.590754
  0
LINE
  5
3A7
100
AcDbEntity
  8
M0
100
AcDbLine
 10
326.825388
 20
691.343439
 11
326.009226
 21
693.990656
  0
LINE
  5
3A8
100
AcDbEntity
  8
M0
100
AcDbLine
 10
332.742869
 20
699.23797
 11
333.559275
 21
696.590754
  0
LINE
  5
3A9
100
AcDbEntity
  8
M0
100
AcDbLine
 10
332.742869
 20
691.343439
 11
333.559275
 21
693.990656
  0
LINE
  5
3AA
100
AcDbEntity
  8
M0
100
AcDbLine
 10
331.184275
 20
698.390558
 11
333.004344
 21
698.390558
  0
LINE
  5
3AB
100
AcDbEntity
  8
M0
100
AcDbLine
 10
332.105906
 20
697.190607
 11
333.374217
 21
697.190607
  0
LINE
  5
3AC
100
AcDbEntity
  8
M0
100
AcDbLine
 10
332.105906
 20
693.390558
 11
333.374217
 21
693.390558
  0
LINE
  5
3AD
100
AcDbEntity
  8
M0
100
AcDbLine
 10
328.384226
 20
698.390558
 11
326.564158
 21
698.390558
  0
LINE
  5
3AE
100
AcDbEntity
  8
M0
100
AcDbLine
 10
327.462595
 20
697.190607
 11
326.194285
 21
697.190607
  0
LINE
  5
3AF
100
AcDbEntity
  8
M0
100
AcDbLine
 10
327.462595
 20
693.390558
 11
326.194285
 21
693.390558
  0
LINE
  5
3B0
100
AcDbEntity
  8
M0
100
AcDbLine
 10
333.559275
 20
693.990656
 11
333.559275
 21
696.590754
  0
LINE
  5
3B1
100
AcDbEntity
  8
M0
100
AcDbLine
 10
332.265086
 20
699.590754
 11
327.303416
 21
699.590509
  0
LINE
  5
3B2
100
AcDbEntity
  8
M0
100
AcDbLine
 10
326.009226
 20
696.590754
 11
326.009226
 21
693.990656
  0
LINE
  5
3B3
100
AcDbEntity
  8
M0
100
AcDbLine
 10
331.184275
 20
697.944025
 11
331.184275
 21
698.390558
  0
LINE
  5
3B4
100
AcDbEntity
  8
M0
100
AcDbLine
 10
328.384226
 20
697.944025
 11
328.384226
 21
698.390558
  0
LINE
  5
3B5
100
AcDbEntity
  8
M0
100
AcDbLine
 10
331.374949
 20
693.699884
 11
328.193308
 21
696.881525
  0
LINE
  5
3B6
100
AcDbEntity
  8
M0
100
AcDbLine
 10
330.137644
 20
696.704767
 11
328.370066
 21
694.937189
  0
LINE
  5
3B7
100
AcDbEntity
  8
M0
100
AcDbLine
 10
331.198191
 20
695.64422
 11
329.430613
 21
693.876642
  0
ARC
  5
3B8
100
AcDbEntity
  8
M0
100
AcDbCircle
 10
327.303416
 20
699.090509
 40
0.5
100
AcDbArc
 50
90.0
 51
162.856778
  0
ARC
  5
3B9
100
AcDbEntity
  8
M0
100
AcDbCircle
 10
332.265086
 20
699.090509
 40
0.5
100
AcDbArc
 50
17.151452
 51
90.0
  0
LINE
  5
3BA
100
AcDbEntity
  8
M0
  6
DASHDOT
 62
     6
100
AcDbLine
 10
321.960536
 20
745.289728
 11
334.396327
 21
745.289728
  0
CIRCLE
  5
3BB
100
AcDbEntity
  8
M0
100
AcDbCircle
 10
328.284373
 20
745.289728
 40
3.0
  0
LINE
  5
3BC
100
AcDbEntity
  8
M0
100
AcDbLine
 10
329.874949
 20
743.698908
 11
326.693308
 21
746.880549
  0
LINE
  5
3BD
100
AcDbEntity
  8
M0
100
AcDbLine
 10
328.637644
 20
746.703791
 11
326.870066
 21
744.936213
  0
LINE
  5
3BE
100
AcDbEntity
  8
M0
100
AcDbLine
 10
329.698191
 20
745.643244
 11
327.930613
 21
743.875666
  0
LINE
  5
3BF
100
AcDbEntity
  8
M0
  6
DASHDOT
100
AcDbLine
 10
247.284831
 20
678.452662
 11
247.284205
 21
691.182184
  0
LINE
  5
3C0
100
AcDbEntity
  8
M0
  6
DASHDOT
 62
     6
100
AcDbLine
 10
240.960993
 20
685.290216
 11
253.396784
 21
685.290216
  0
CIRCLE
  5
3C1
100
AcDbEntity
  8
M0
100
AcDbCircle
 10
247.284831
 20
685.290216
 40
3.0
  0
LINE
  5
3C2
100
AcDbEntity
  8
M0
100
AcDbLine
 10
248.875407
 20
683.699396
 11
245.693766
 21
686.881037
  0
LINE
  5
3C3
100
AcDbEntity
  8
M0
100
AcDbLine
 10
247.638102
 20
686.704279
 11
245.870524
 21
684.936701
  0
LINE
  5
3C4
100
AcDbEntity
  8
M0
100
AcDbLine
 10
248.698649
 20
685.643732
 11
246.931071
 21
683.876154
  0
CIRCLE
  5
3C5
100
AcDbEntity
  8
M0
100
AcDbCircle
 10
245.78451
 20
757.290232
 40
2.0
  0
LINE
  5
3C6
100
AcDbEntity
  8
M0
  6
DASHDOT
100
AcDbLine
 10
233.78451
 20
757.290232
 11
257.78451
 21
757.290232
  0
LINE
  5
3C7
100
AcDbEntity
  8
M0
  6
DASHDOT
100
AcDbLine
 10
245.78451
 20
745.290232
 11
245.78451
 21
769.290232
  0
LINE
  5
3C8
100
AcDbEntity
  8
M0
100
AcDbLine
 10
249.78451
 20
764.789743
 11
249.78451
 21
752.789743
  0
LINE
  5
3C9
100
AcDbEntity
  8
M0
100
AcDbLine
 10
241.78451
 20
764.789743
 11
241.78451
 21
752.789743
  0
LINE
  5
3CA
100
AcDbEntity
  8
M0
100
AcDbLine
 10
243.53451
 20
754.290232
 11
248.03451
 21
754.290232
  0
LINE
  5
3CB
100
AcDbEntity
  8
M0
100
AcDbLine
 10
248.53451
 20
761.290262
 11
248.53451
 21
754.790232
  0
LINE
  5
3CC
100
AcDbEntity
  8
M0
100
AcDbLine
 10
243.03451
 20
761.290262
 11
243.03451
 21
754.790232
  0
ARC
  5
3CD
100
AcDbEntity
  8
M0
100
AcDbCircle
 10
243.53451
 20
754.790232
 40
0.5
100
AcDbArc
 50
180.0
 51
270.0
  0
ARC
  5
3CE
100
AcDbEntity
  8
M0
100
AcDbCircle
 10
248.03451
 20
754.790232
 40
0.5
100
AcDbArc
 50
270.0
 51
360.0
  0
LINE
  5
3CF
100
AcDbEntity
  8
M0
100
AcDbLine
 10
241.78451
 20
761.290262
 11
249.78451
 21
761.290262
  0
LINE
  5
3D0
100
AcDbEntity
  8
M0
100
AcDbLine
 10
238.03451
 20
764.789743
 11
249.80427
 21
764.789743
  0
LINE
  5
3D1
100
AcDbEntity
  8
M0
100
AcDbLine
 10
238.03451
 20
764.789743
 11
249.80427
 21
764.789743
  0
LINE
  5
3D2
100
AcDbEntity
  8
M0
100
AcDbLine
 10
325.784495
 20
764.789743
 11
325.784495
 21
752.789743
  0
LINE
  5
3D3
100
AcDbEntity
  8
M0
100
AcDbLine
 10
333.784495
 20
764.789743
 11
333.784495
 21
752.789743
  0
LINE
  5
3D4
100
AcDbEntity
  8
M0
100
AcDbLine
 10
333.784495
 20
761.290262
 11
332.72671
 21
761.290262
  0
LINE
  5
3D5
100
AcDbEntity
  8
M0
  6
DASHDOT
100
AcDbLine
 10
329.784495
 20
745.290232
 11
329.784495
 21
769.290232
  0
LINE
  5
3D6
100
AcDbEntity
  8
M0
  6
DASHDOT
100
AcDbLine
 10
341.784495
 20
757.290232
 11
317.78451
 21
757.290232
  0
LINE
  5
3D7
100
AcDbEntity
  8
M0
100
AcDbLine
 10
337.534495
 20
764.789743
 11
325.764719
 21
764.789743
  0
LINE
  5
3D8
100
AcDbEntity
  8
M0
100
AcDbLine
 10
249.78451
 20
665.79072
 11
249.78451
 21
677.79072
  0
LINE
  5
3D9
100
AcDbEntity
  8
M0
100
AcDbLine
 10
241.78451
 20
665.79072
 11
241.78451
 21
677.79072
  0
LINE
  5
3DA
100
AcDbEntity
  8
M0
100
AcDbLine
 10
241.78451
 20
669.290201
 11
242.841792
 21
669.290201
  0
LINE
  5
3DB
100
AcDbEntity
  8
M0
  6
DASHDOT
100
AcDbLine
 10
245.78451
 20
685.290232
 11
245.78451
 21
661.290232
  0
LINE
  5
3DC
100
AcDbEntity
  8
M0
  6
DASHDOT
100
AcDbLine
 10
233.78451
 20
673.290232
 11
257.78451
 21
673.290232
  0
LINE
  5
3DD
100
AcDbEntity
  8
M0
100
AcDbLine
 10
238.03451
 20
665.79072
 11
249.80427
 21
665.79072
  0
LINE
  5
3DE
100
AcDbEntity
  8
M0
100
AcDbLine
 10
325.784495
 20
665.79072
 11
325.784495
 21
677.79072
  0
LINE
  5
3DF
100
AcDbEntity
  8
M0
100
AcDbLine
 10
333.784495
 20
665.79072
 11
333.784495
 21
677.79072
  0
LINE
  5
3E0
100
AcDbEntity
  8
M0
100
AcDbLine
 10
333.784495
 20
669.290201
 11
325.784495
 21
669.290201
  0
LINE
  5
3E1
100
AcDbEntity
  8
M0
100
AcDbLine
 10
327.034495
 20
669.290201
 11
327.034495
 21
675.790232
  0
ARC
  5
3E2
100
AcDbEntity
  8
M0
100
AcDbCircle
 10
327.534495
 20
675.790232
 40
0.5
100
AcDbArc
 50
90.0
 51
179.998251
  0
LINE
  5
3E3
100
AcDbEntity
  8
M0
100
AcDbLine
 10
332.034495
 20
676.290232
 11
327.534495
 21
676.290232
  0
ARC
  5
3E4
100
AcDbEntity
  8
M0
100
AcDbCircle
 10
332.034495
 20
675.790232
 40
0.5
100
AcDbArc
 50
0.0
 51
90.0
  0
LINE
  5
3E5
100
AcDbEntity
  8
M0
100
AcDbLine
 10
332.534495
 20
669.290201
 11
332.534495
 21
675.790232
  0
LINE
  5
3E6
100
AcDbEntity
  8
M0
100
AcDbLine
 10
337.534495
 20
665.79072
 11
325.764719
 21
665.79072
  0
LINE
  5
3E7
100
AcDbEntity
  8
M0
100
AcDbLine
 10
248.726725
 20
669.290201
 11
249.78451
 21
669.290201
  0
LINE
  5
3E8
100
AcDbEntity
  8
M0
100
AcDbLine
 10
326.841776
 20
761.290262
 11
325.784495
 21
761.290262
  0
LINE
  5
3E9
100
AcDbEntity
  8
M0
  6
DIVIDE
100
AcDbLine
 10
350.784312
 20
745.290232
 11
337.784312
 21
745.290232
  0
LINE
  5
3EA
100
AcDbEntity
  8
M0
  6
DIVIDE
100
AcDbLine
 10
350.784312
 20
745.290232
 11
350.784312
 21
685.290232
  0
LINE
  5
3EB
100
AcDbEntity
  8
M0
  6
DIVIDE
100
AcDbLine
 10
350.784312
 20
685.290232
 11
337.784312
 21
685.290232
  0
LINE
  5
3EC
100
AcDbEntity
  8
M0
100
AcDbLine
 10
514.506114
 20
673.808588
 11
514.506114
 21
665.308588
  0
LINE
  5
3ED
100
AcDbEntity
  8
M0
  6
DASHDOT
100
AcDbLine
 10
341.784037
 20
757.290232
 11
317.784037
 21
757.290232
  0
LINE
  5
3EE
100
AcDbEntity
  8
M0
  6
DASHDOT
100
AcDbLine
 10
329.784037
 20
745.290232
 11
329.784037
 21
769.290232
  0
CIRCLE
  5
3EF
100
AcDbEntity
  8
M0
100
AcDbCircle
 10
329.784012
 20
673.290253
 40
2.0
  0
LINE
  5
3F0
100
AcDbEntity
  8
M0
  6
DASHDOT
100
AcDbLine
 10
341.784012
 20
673.290261
 11
317.784012
 21
673.290246
  0
LINE
  5
3F1
100
AcDbEntity
  8
M0
  6
DASHDOT
100
AcDbLine
 10
329.784004
 20
685.290253
 11
329.78402
 21
661.290253
  0
LINE
  5
3F2
100
AcDbEntity
  8
M0
  6
DASHDOT
100
AcDbLine
 10
233.78447
 20
673.290246
 11
257.78447
 21
673.290261
  0
LINE
  5
3F3
100
AcDbEntity
  8
M0
  6
DASHDOT
100
AcDbLine
 10
245.784462
 20
685.290253
 11
245.784477
 21
661.290253
  0
LINE
  5
3F4
100
AcDbEntity
  8
M0
  6
DASHDOT
100
AcDbLine
 10
245.784586
 20
666.452662
 11
245.783961
 21
679.182184
  0
LINE
  5
3F5
100
AcDbEntity
  8
M0
100
AcDbLine
 10
247.184489
 20
670.190119
 11
249.004557
 21
670.190119
  0
LINE
  5
3F6
100
AcDbEntity
  8
M0
100
AcDbLine
 10
244.38444
 20
670.190119
 11
242.564372
 21
670.190119
  0
LINE
  5
3F7
100
AcDbEntity
  8
M0
100
AcDbLine
 10
243.303629
 20
668.990168
 11
248.265299
 21
668.990168
  0
LINE
  5
3F8
100
AcDbEntity
  8
M0
100
AcDbLine
 10
247.184489
 20
670.190119
 11
247.184489
 21
670.636896
  0
LINE
  5
3F9
100
AcDbEntity
  8
M0
100
AcDbLine
 10
244.38444
 20
670.190119
 11
244.38444
 21
670.636896
  0
ARC
  5
3FA
100
AcDbEntity
  8
M0
100
AcDbCircle
 10
243.303629
 20
669.490168
 40
0.5
100
AcDbArc
 50
197.11777
 51
269.998251
  0
ARC
  5
3FB
100
AcDbEntity
  8
M0
100
AcDbCircle
 10
248.265299
 20
669.490168
 40
0.5
100
AcDbArc
 50
269.998251
 51
342.874517
  0
LINE
  5
3FC
100
AcDbEntity
  8
M0
  6
DASHDOT
 62
     6
100
AcDbLine
 10
239.460749
 20
673.290216
 11
251.89654
 21
673.290216
  0
CIRCLE
  5
3FD
100
AcDbEntity
  8
M0
100
AcDbCircle
 10
245.784586
 20
673.290216
 40
3.0
  0
LINE
  5
3FE
100
AcDbEntity
  8
M0
100
AcDbLine
 10
242.825602
 20
677.237482
 11
242.00944
 21
674.590265
  0
LINE
  5
3FF
100
AcDbEntity
  8
M0
100
AcDbLine
 10
242.825602
 20
669.342951
 11
242.00944
 21
671.990168
  0
LINE
  5
400
100
AcDbEntity
  8
M0
100
AcDbLine
 10
248.743083
 20
677.237482
 11
249.559489
 21
674.590265
  0
LINE
  5
401
100
AcDbEntity
  8
M0
100
AcDbLine
 10
248.743083
 20
669.342951
 11
249.559489
 21
671.990168
  0
LINE
  5
402
100
AcDbEntity
  8
M0
100
AcDbLine
 10
247.184489
 20
676.39007
 11
249.004557
 21
676.39007
  0
LINE
  5
403
100
AcDbEntity
  8
M0
100
AcDbLine
 10
248.10612
 20
675.190119
 11
249.37443
 21
675.190119
  0
LINE
  5
404
100
AcDbEntity
  8
M0
100
AcDbLine
 10
248.10612
 20
671.39007
 11
249.37443
 21
671.39007
  0
LINE
  5
405
100
AcDbEntity
  8
M0
100
AcDbLine
 10
244.38444
 20
676.39007
 11
242.564372
 21
676.39007
  0
LINE
  5
406
100
AcDbEntity
  8
M0
100
AcDbLine
 10
243.462809
 20
675.190119
 11
242.194499
 21
675.190119
  0
LINE
  5
407
100
AcDbEntity
  8
M0
100
AcDbLine
 10
243.462809
 20
671.39007
 11
242.194499
 21
671.39007
  0
LINE
  5
408
100
AcDbEntity
  8
M0
100
AcDbLine
 10
249.559489
 20
671.990168
 11
249.559489
 21
674.590265
  0
LINE
  5
409
100
AcDbEntity
  8
M0
100
AcDbLine
 10
248.265299
 20
677.590265
 11
243.303629
 21
677.590021
  0
LINE
  5
40A
100
AcDbEntity
  8
M0
100
AcDbLine
 10
242.00944
 20
674.590265
 11
242.00944
 21
671.990168
  0
LINE
  5
40B
100
AcDbEntity
  8
M0
100
AcDbLine
 10
247.184489
 20
675.943537
 11
247.184489
 21
676.39007
  0
LINE
  5
40C
100
AcDbEntity
  8
M0
100
AcDbLine
 10
244.38444
 20
675.943537
 11
244.38444
 21
676.39007
  0
LINE
  5
40D
100
AcDbEntity
  8
M0
100
AcDbLine
 10
247.375163
 20
671.699396
 11
244.193522
 21
674.881037
  0
LINE
  5
40E
100
AcDbEntity
  8
M0
100
AcDbLine
 10
246.137858
 20
674.704279
 11
244.37028
 21
672.936701
  0
LINE
  5
40F
100
AcDbEntity
  8
M0
100
AcDbLine
 10
247.198405
 20
673.643732
 11
245.430827
 21
671.876154
  0
ARC
  5
410
100
AcDbEntity
  8
M0
100
AcDbCircle
 10
243.303629
 20
677.090021
 40
0.5
100
AcDbArc
 50
90.0
 51
162.856778
  0
ARC
  5
411
100
AcDbEntity
  8
M0
100
AcDbCircle
 10
248.265299
 20
677.090021
 40
0.5
100
AcDbArc
 50
17.151452
 51
90.0
  0
LINE
  5
412
100
AcDbEntity
  8
M0
  6
DASHDOT
100
AcDbLine
 10
329.784129
 20
750.452662
 11
329.783503
 21
763.182184
  0
LINE
  5
413
100
AcDbEntity
  8
M0
100
AcDbLine
 10
331.184031
 20
754.190119
 11
333.004099
 21
754.190119
  0
LINE
  5
414
100
AcDbEntity
  8
M0
100
AcDbLine
 10
328.383982
 20
754.190119
 11
326.563914
 21
754.190119
  0
LINE
  5
415
100
AcDbEntity
  8
M0
100
AcDbLine
 10
327.303172
 20
752.990168
 11
332.264842
 21
752.990168
  0
LINE
  5
416
100
AcDbEntity
  8
M0
100
AcDbLine
 10
331.184031
 20
754.190119
 11
331.184031
 21
754.636896
  0
LINE
  5
417
100
AcDbEntity
  8
M0
100
AcDbLine
 10
328.383982
 20
754.190119
 11
328.383982
 21
754.636896
  0
ARC
  5
418
100
AcDbEntity
  8
M0
100
AcDbCircle
 10
327.303172
 20
753.490168
 40
0.5
100
AcDbArc
 50
197.11777
 51
269.998251
  0
ARC
  5
419
100
AcDbEntity
  8
M0
100
AcDbCircle
 10
332.264842
 20
753.490168
 40
0.5
100
AcDbArc
 50
269.998251
 51
342.874517
  0
LINE
  5
41A
100
AcDbEntity
  8
M0
  6
DASHDOT
 62
     6
100
AcDbLine
 10
323.460291
 20
757.290216
 11
335.896082
 21
757.290216
  0
CIRCLE
  5
41B
100
AcDbEntity
  8
M0
100
AcDbCircle
 10
329.784129
 20
757.290216
 40
3.0
  0
LINE
  5
41C
100
AcDbEntity
  8
M0
100
AcDbLine
 10
326.825144
 20
761.237482
 11
326.008982
 21
758.590265
  0
LINE
  5
41D
100
AcDbEntity
  8
M0
100
AcDbLine
 10
326.825144
 20
753.342951
 11
326.008982
 21
755.990168
  0
LINE
  5
41E
100
AcDbEntity
  8
M0
100
AcDbLine
 10
332.742625
 20
761.237482
 11
333.559031
 21
758.590265
  0
LINE
  5
41F
100
AcDbEntity
  8
M0
100
AcDbLine
 10
332.742625
 20
753.342951
 11
333.559031
 21
755.990168
  0
LINE
  5
420
100
AcDbEntity
  8
M0
100
AcDbLine
 10
331.184031
 20
760.39007
 11
333.004099
 21
760.39007
  0
LINE
  5
421
100
AcDbEntity
  8
M0
100
AcDbLine
 10
332.105662
 20
759.190119
 11
333.373972
 21
759.190119
  0
LINE
  5
422
100
AcDbEntity
  8
M0
100
AcDbLine
 10
332.105662
 20
755.39007
 11
333.373972
 21
755.39007
  0
LINE
  5
423
100
AcDbEntity
  8
M0
100
AcDbLine
 10
328.383982
 20
760.39007
 11
326.563914
 21
760.39007
  0
LINE
  5
424
100
AcDbEntity
  8
M0
100
AcDbLine
 10
327.462351
 20
759.190119
 11
326.194041
 21
759.190119
  0
LINE
  5
425
100
AcDbEntity
  8
M0
100
AcDbLine
 10
327.462351
 20
755.39007
 11
326.194041
 21
755.39007
  0
LINE
  5
426
100
AcDbEntity
  8
M0
100
AcDbLine
 10
333.559031
 20
755.990168
 11
333.559031
 21
758.590265
  0
LINE
  5
427
100
AcDbEntity
  8
M0
100
AcDbLine
 10
332.264842
 20
761.590265
 11
327.303172
 21
761.590021
  0
LINE
  5
428
100
AcDbEntity
  8
M0
100
AcDbLine
 10
326.008982
 20
758.590265
 11
326.008982
 21
755.990168
  0
LINE
  5
429
100
AcDbEntity
  8
M0
100
AcDbLine
 10
331.184031
 20
759.943537
 11
331.184031
 21
760.39007
  0
LINE
  5
42A
100
AcDbEntity
  8
M0
100
AcDbLine
 10
328.383982
 20
759.943537
 11
328.383982
 21
760.39007
  0
LINE
  5
42B
100
AcDbEntity
  8
M0
100
AcDbLine
 10
331.374705
 20
755.699396
 11
328.193064
 21
758.881037
  0
LINE
  5
42C
100
AcDbEntity
  8
M0
100
AcDbLine
 10
330.1374
 20
758.704279
 11
328.369822
 21
756.936701
  0
LINE
  5
42D
100
AcDbEntity
  8
M0
100
AcDbLine
 10
331.197947
 20
757.643732
 11
329.430369
 21
755.876154
  0
ARC
  5
42E
100
AcDbEntity
  8
M0
100
AcDbCircle
 10
327.303172
 20
761.090021
 40
0.5
100
AcDbArc
 50
90.0
 51
162.856778
  0
ARC
  5
42F
100
AcDbEntity
  8
M0
100
AcDbCircle
 10
332.264842
 20
761.090021
 40
0.5
100
AcDbArc
 50
17.151452
 51
90.0
  0
LINE
  5
430
100
AcDbEntity
  8
M0
100
AcDbLine
 10
511.306071
 20
648.790232
 11
511.306071
 21
661.790232
  0
LINE
  5
431
100
AcDbEntity
  8
M0
  6
DASHDOT
100
AcDbLine
 10
507.306056
 20
655.290216
 11
514.306071
 21
655.290232
  0
LINE
  5
432
100
AcDbEntity
  8
M0
  6
DASHDOT
100
AcDbLine
 10
503.806071
 20
655.290232
 11
515.306071
 21
655.290232
  0
LINE
  5
433
100
AcDbEntity
  8
M0
  6
DASHDOT
100
AcDbLine
 10
503.051483
 20
774.326885
 11
524.969406
 21
774.326899
  0
LINE
  5
434
100
AcDbEntity
  8
M0
100
AcDbLine
 10
511.80653
 20
780.826891
 11
511.806538
 21
767.826891
  0
LINE
  5
435
100
AcDbEntity
  8
M0
  6
DASHDOT
100
AcDbLine
 10
507.806519
 20
774.326904
 11
514.806534
 21
774.326893
  0
LINE
  5
436
100
AcDbEntity
  8
M0
  6
DASHDOT
100
AcDbLine
 10
504.306534
 20
774.326886
 11
515.806534
 21
774.326893
  0
LINE
  5
437
100
AcDbEntity
  8
M0
 62
     4
100
AcDbLine
 10
520.005702
 20
651.290232
 11
514.505702
 21
651.290232
  0
LINE
  5
438
100
AcDbEntity
  8
M0
  6
DASHDOT
 62
     4
100
AcDbLine
 10
523.747675
 20
655.290232
 11
492.294138
 21
655.290232
  0
LINE
  5
439
100
AcDbEntity
  8
M0
 62
     4
100
AcDbLine
 10
514.505702
 20
647.789225
 11
514.505702
 21
662.791224
  0
LINE
  5
43A
100
AcDbEntity
  8
M0
 62
     4
100
AcDbLine
 10
514.505702
 20
662.791224
 11
520.005702
 21
662.791224
  0
LINE
  5
43B
100
AcDbEntity
  8
M0
 62
     4
100
AcDbLine
 10
520.005702
 20
662.791224
 11
520.005702
 21
647.789225
  0
LINE
  5
43C
100
AcDbEntity
  8
M0
 62
     4
100
AcDbLine
 10
520.005702
 20
647.789225
 11
514.505702
 21
647.789225
  0
LINE
  5
43D
100
AcDbEntity
  8
M0
 62
     4
100
AcDbLine
 10
514.505702
 20
659.290232
 11
520.005702
 21
659.290232
  0
LINE
  5
43E
100
AcDbEntity
  8
M0
 62
     4
100
AcDbLine
 10
495.006431
 20
778.32684
 11
495.006436
 21
770.32684
  0
LINE
  5
43F
100
AcDbEntity
  8
M0
 62
     4
100
AcDbLine
 10
495.006436
 20
770.32684
 11
501.704981
 21
770.326844
  0
LINE
  5
440
100
AcDbEntity
  8
M0
 62
     4
100
AcDbLine
 10
520.506431
 20
778.326856
 11
515.006431
 21
778.326853
  0
LINE
  5
441
100
AcDbEntity
  8
M0
  6
DASHDOT
 62
     4
100
AcDbLine
 10
524.248408
 20
774.326859
 11
492.794871
 21
774.326839
  0
LINE
  5
442
100
AcDbEntity
  8
M0
 62
     4
100
AcDbLine
 10
515.006429
 20
781.82786
 11
515.006439
 21
766.825861
  0
LINE
  5
443
100
AcDbEntity
  8
M0
 62
     4
100
AcDbLine
 10
515.006439
 20
766.825861
 11
520.506439
 21
766.825864
  0
LINE
  5
444
100
AcDbEntity
  8
M0
 62
     4
100
AcDbLine
 10
520.506439
 20
766.825864
 11
520.506429
 21
781.827863
  0
LINE
  5
445
100
AcDbEntity
  8
M0
 62
     4
100
AcDbLine
 10
520.506429
 20
781.827863
 11
515.006429
 21
781.82786
  0
LINE
  5
446
100
AcDbEntity
  8
M0
 62
     4
100
AcDbLine
 10
515.006436
 20
770.326853
 11
520.506436
 21
770.326856
  0
LINE
  5
447
100
AcDbEntity
  8
M0
 62
     4
100
AcDbLine
 10
501.704976
 20
778.326844
 11
495.006431
 21
778.32684
  0
LINE
  5
448
100
AcDbEntity
  8
M0
 62
     6
100
AcDbLine
 10
510.206492
 20
765.326853
 11
511.806483
 21
765.326853
  0
LINE
  5
449
100
AcDbEntity
  8
M0
 62
     6
100
AcDbLine
 10
511.806483
 20
765.326853
 11
511.806483
 21
783.326853
  0
LINE
  5
44A
100
AcDbEntity
  8
M0
 62
     6
100
AcDbLine
 10
511.806483
 20
783.326853
 11
510.206492
 21
783.326853
  0
LINE
  5
44B
100
AcDbEntity
  8
M0
 62
     6
100
AcDbLine
 10
510.206492
 20
783.326853
 11
510.206492
 21
765.326853
  0
LINE
  5
44C
100
AcDbEntity
  8
M0
  6
DASHDOT
 62
     6
100
AcDbLine
 10
507.206477
 20
774.326838
 11
514.806483
 21
774.326853
  0
LINE
  5
44D
100
AcDbEntity
  8
M0
 62
     7
100
AcDbLine
 10
508.206385
 20
766.626856
 11
510.206385
 21
766.626856
  0
LINE
  5
44E
100
AcDbEntity
  8
M0
 62
     7
100
AcDbLine
 10
510.206385
 20
766.626856
 11
510.206385
 21
782.026865
  0
LINE
  5
44F
100
AcDbEntity
  8
M0
 62
     7
100
AcDbLine
 10
510.206385
 20
782.026865
 11
508.206385
 21
782.026865
  0
LINE
  5
450
100
AcDbEntity
  8
M0
 62
     7
100
AcDbLine
 10
508.206385
 20
782.026865
 11
508.206385
 21
766.626856
  0
LINE
  5
451
100
AcDbEntity
  8
M0
  6
DASHDOT
 62
     7
100
AcDbLine
 10
503.206385
 20
774.326868
 11
515.206385
 21
774.326868
  0
LINE
  5
452
100
AcDbEntity
  8
M0
 62
     7
100
AcDbLine
 10
508.206385
 20
774.326853
 11
510.206385
 21
773.172159
  0
LINE
  5
453
100
AcDbEntity
  8
M0
 62
     7
100
AcDbLine
 10
508.206385
 20
775.481546
 11
510.206385
 21
774.326853
  0
LINE
  5
454
100
AcDbEntity
  8
M0
 62
     6
100
AcDbLine
 10
501.70492
 20
766.816777
 11
508.206385
 21
766.816777
  0
LINE
  5
455
100
AcDbEntity
  8
M0
 62
     6
100
AcDbLine
 10
508.206385
 20
766.816777
 11
508.206385
 21
781.836806
  0
LINE
  5
456
100
AcDbEntity
  8
M0
 62
     6
100
AcDbLine
 10
508.206385
 20
781.836806
 11
501.70492
 21
781.836501
  0
LINE
  5
457
100
AcDbEntity
  8
M0
 62
     6
100
AcDbLine
 10
501.70492
 20
766.816777
 11
501.70492
 21
781.836501
  0
LINE
  5
458
100
AcDbEntity
  8
M0
  6
DASHDOT
 62
     6
100
AcDbLine
 10
497.060862
 20
774.326853
 11
511.954432
 21
774.326868
  0
LINE
  5
459
100
AcDbEntity
  8
M0
 62
     6
100
AcDbLine
 10
501.70492
 20
778.079767
 11
508.206385
 21
778.079767
  0
LINE
  5
45A
100
AcDbEntity
  8
M0
 62
     6
100
AcDbLine
 10
501.70492
 20
770.574122
 11
508.206385
 21
770.574122
  0
LINE
  5
45B
100
AcDbEntity
  8
M0
 62
     6
100
AcDbLine
 10
501.204427
 20
662.800305
 11
507.705892
 21
662.80031
  0
LINE
  5
45C
100
AcDbEntity
  8
M0
 62
     6
100
AcDbLine
 10
507.705892
 20
662.80031
 11
507.705902
 21
647.78028
  0
LINE
  5
45D
100
AcDbEntity
  8
M0
 62
     6
100
AcDbLine
 10
507.705902
 20
647.78028
 11
501.204437
 21
647.780582
  0
LINE
  5
45E
100
AcDbEntity
  8
M0
 62
     6
100
AcDbLine
 10
501.204427
 20
662.800305
 11
501.204437
 21
647.780582
  0
LINE
  5
45F
100
AcDbEntity
  8
M0
  6
DASHDOT
 62
     6
100
AcDbLine
 10
496.560374
 20
655.290227
 11
511.453944
 21
655.290221
  0
LINE
  5
460
100
AcDbEntity
  8
M0
 62
     6
100
AcDbLine
 10
501.204434
 20
651.537315
 11
507.705899
 21
651.53732
  0
LINE
  5
461
100
AcDbEntity
  8
M0
 62
     6
100
AcDbLine
 10
501.20443
 20
659.042961
 11
507.705895
 21
659.042965
  0
LINE
  5
462
100
AcDbEntity
  8
M0
 62
     7
100
AcDbLine
 10
507.705892
 20
662.99023
 11
509.705892
 21
662.990231
  0
LINE
  5
463
100
AcDbEntity
  8
M0
 62
     7
100
AcDbLine
 10
509.705892
 20
662.990231
 11
509.705902
 21
647.590222
  0
LINE
  5
464
100
AcDbEntity
  8
M0
 62
     7
100
AcDbLine
 10
509.705902
 20
647.590222
 11
507.705902
 21
647.59022
  0
LINE
  5
465
100
AcDbEntity
  8
M0
 62
     7
100
AcDbLine
 10
507.705902
 20
647.59022
 11
507.705892
 21
662.99023
  0
LINE
  5
466
100
AcDbEntity
  8
M0
 62
     7
100
AcDbLine
 10
507.705897
 20
655.290233
 11
509.705896
 21
656.444928
  0
LINE
  5
467
100
AcDbEntity
  8
M0
 62
     7
100
AcDbLine
 10
507.705898
 20
654.135539
 11
509.705897
 21
655.290234
  0
LINE
  5
468
100
AcDbEntity
  8
M0
 62
     6
100
AcDbLine
 10
509.705998
 20
664.290233
 11
511.305989
 21
664.290234
  0
LINE
  5
469
100
AcDbEntity
  8
M0
 62
     6
100
AcDbLine
 10
511.305989
 20
664.290234
 11
511.306
 21
646.290234
  0
LINE
  5
46A
100
AcDbEntity
  8
M0
 62
     6
100
AcDbLine
 10
511.306
 20
646.290234
 11
509.706009
 21
646.290233
  0
LINE
  5
46B
100
AcDbEntity
  8
M0
 62
     6
100
AcDbLine
 10
509.706009
 20
646.290233
 11
509.705998
 21
664.290233
  0
LINE
  5
46C
100
AcDbEntity
  8
M0
  6
DASHDOT
 62
     6
100
AcDbLine
 10
506.705988
 20
655.290246
 11
514.305995
 21
655.290236
  0
LINE
  5
46D
100
AcDbEntity
  8
M0
 62
     6
100
AcDbLine
 10
287.784281
 20
662.795588
 11
294.285731
 21
659.042994
  0
LINE
  5
46E
100
AcDbEntity
  8
M0
 62
     6
100
AcDbLine
 10
294.285731
 20
659.042994
 11
294.285731
 21
651.537348
  0
LINE
  5
46F
100
AcDbEntity
  8
M0
 62
     6
100
AcDbLine
 10
294.285731
 20
651.537348
 11
287.784281
 21
647.784601
  0
LINE
  5
470
100
AcDbEntity
  8
M0
 62
     6
100
AcDbLine
 10
287.784281
 20
647.784601
 11
281.285258
 21
651.537348
  0
LINE
  5
471
100
AcDbEntity
  8
M0
 62
     6
100
AcDbLine
 10
281.285258
 20
651.537348
 11
281.285258
 21
659.042994
  0
LINE
  5
472
100
AcDbEntity
  8
M0
 62
     6
100
AcDbLine
 10
281.285258
 20
659.042994
 11
287.784281
 21
662.795588
  0
CIRCLE
  5
473
100
AcDbEntity
  8
M0
 62
     6
100
AcDbCircle
 10
287.784281
 20
655.290247
 40
4.0
  0
LINE
  5
474
100
AcDbEntity
  8
M0
  6
DASHDOT
 62
     6
100
AcDbLine
 10
297.93661
 20
655.290247
 11
277.631953
 21
655.290247
  0
LINE
  5
475
100
AcDbEntity
  8
M0
  6
DASHDOT
 62
     6
100
AcDbLine
 10
287.784266
 20
665.442575
 11
287.784281
 21
645.137919
  0
LINE
  5
476
100
AcDbEntity
  8
M0
 62
     6
100
AcDbLine
 10
320.784281
 20
662.795588
 11
327.285731
 21
659.042994
  0
LINE
  5
477
100
AcDbEntity
  8
M0
 62
     6
100
AcDbLine
 10
327.285731
 20
659.042994
 11
327.285731
 21
651.537348
  0
LINE
  5
478
100
AcDbEntity
  8
M0
 62
     6
100
AcDbLine
 10
327.285731
 20
651.537348
 11
320.784281
 21
647.784601
  0
LINE
  5
479
100
AcDbEntity
  8
M0
 62
     6
100
AcDbLine
 10
320.784281
 20
647.784601
 11
314.285258
 21
651.537348
  0
LINE
  5
47A
100
AcDbEntity
  8
M0
 62
     6
100
AcDbLine
 10
314.285258
 20
651.537348
 11
314.285258
 21
659.042994
  0
LINE
  5
47B
100
AcDbEntity
  8
M0
 62
     6
100
AcDbLine
 10
314.285258
 20
659.042994
 11
320.784281
 21
662.795588
  0
CIRCLE
  5
47C
100
AcDbEntity
  8
M0
 62
     6
100
AcDbCircle
 10
320.784281
 20
655.290247
 40
4.0
  0
LINE
  5
47D
100
AcDbEntity
  8
M0
  6
DASHDOT
 62
     6
100
AcDbLine
 10
330.93661
 20
655.290247
 11
310.631953
 21
655.290247
  0
LINE
  5
47E
100
AcDbEntity
  8
M0
  6
DASHDOT
 62
     6
100
AcDbLine
 10
320.784266
 20
665.442575
 11
320.784281
 21
645.137919
  0
LINE
  5
47F
100
AcDbEntity
  8
M0
 62
     6
100
AcDbLine
 10
254.784037
 20
662.795588
 11
261.285487
 21
659.042994
  0
LINE
  5
480
100
AcDbEntity
  8
M0
 62
     6
100
AcDbLine
 10
261.285487
 20
659.042994
 11
261.285487
 21
651.537348
  0
LINE
  5
481
100
AcDbEntity
  8
M0
 62
     6
100
AcDbLine
 10
261.285487
 20
651.537348
 11
254.784037
 21
647.784601
  0
LINE
  5
482
100
AcDbEntity
  8
M0
 62
     6
100
AcDbLine
 10
254.784037
 20
647.784601
 11
248.285014
 21
651.537348
  0
LINE
  5
483
100
AcDbEntity
  8
M0
 62
     6
100
AcDbLine
 10
248.285014
 20
651.537348
 11
248.285014
 21
659.042994
  0
LINE
  5
484
100
AcDbEntity
  8
M0
 62
     6
100
AcDbLine
 10
248.285014
 20
659.042994
 11
254.784037
 21
662.795588
  0
CIRCLE
  5
485
100
AcDbEntity
  8
M0
 62
     6
100
AcDbCircle
 10
254.784037
 20
655.290247
 40
4.0
  0
LINE
  5
486
100
AcDbEntity
  8
M0
  6
DASHDOT
 62
     6
100
AcDbLine
 10
264.936366
 20
655.290247
 11
244.631709
 21
655.290247
  0
LINE
  5
487
100
AcDbEntity
  8
M0
  6
DASHDOT
 62
     6
100
AcDbLine
 10
254.784022
 20
665.442575
 11
254.784037
 21
645.137919
  0
LINE
  5
488
100
AcDbEntity
  8
M0
 62
     6
100
AcDbLine
 10
287.784281
 20
782.795588
 11
294.285731
 21
779.042994
  0
LINE
  5
489
100
AcDbEntity
  8
M0
 62
     6
100
AcDbLine
 10
294.285731
 20
779.042994
 11
294.285731
 21
771.537348
  0
LINE
  5
48A
100
AcDbEntity
  8
M0
 62
     6
100
AcDbLine
 10
294.285731
 20
771.537348
 11
287.784281
 21
767.784601
  0
LINE
  5
48B
100
AcDbEntity
  8
M0
 62
     6
100
AcDbLine
 10
287.784281
 20
767.784601
 11
281.285258
 21
771.537348
  0
LINE
  5
48C
100
AcDbEntity
  8
M0
 62
     6
100
AcDbLine
 10
281.285258
 20
771.537348
 11
281.285258
 21
779.042994
  0
LINE
  5
48D
100
AcDbEntity
  8
M0
 62
     6
100
AcDbLine
 10
281.285258
 20
779.042994
 11
287.784281
 21
782.795588
  0
CIRCLE
  5
48E
100
AcDbEntity
  8
M0
 62
     6
100
AcDbCircle
 10
287.784281
 20
775.290247
 40
4.0
  0
LINE
  5
48F
100
AcDbEntity
  8
M0
  6
DASHDOT
 62
     6
100
AcDbLine
 10
297.93661
 20
775.290247
 11
277.631953
 21
775.290247
  0
LINE
  5
490
100
AcDbEntity
  8
M0
  6
DASHDOT
 62
     6
100
AcDbLine
 10
287.784266
 20
785.442575
 11
287.784281
 21
765.137919
  0
LINE
  5
491
100
AcDbEntity
  8
M0
 62
     6
100
AcDbLine
 10
320.784281
 20
782.795588
 11
327.285731
 21
779.042994
  0
LINE
  5
492
100
AcDbEntity
  8
M0
 62
     6
100
AcDbLine
 10
327.285731
 20
779.042994
 11
327.285731
 21
771.537348
  0
LINE
  5
493
100
AcDbEntity
  8
M0
 62
     6
100
AcDbLine
 10
327.285731
 20
771.537348
 11
320.784281
 21
767.784601
  0
LINE
  5
494
100
AcDbEntity
  8
M0
 62
     6
100
AcDbLine
 10
320.784281
 20
767.784601
 11
314.285258
 21
771.537348
  0
LINE
  5
495
100
AcDbEntity
  8
M0
 62
     6
100
AcDbLine
 10
314.285258
 20
771.537348
 11
314.285258
 21
779.042994
  0
LINE
  5
496
100
AcDbEntity
  8
M0
 62
     6
100
AcDbLine
 10
314.285258
 20
779.042994
 11
320.784281
 21
782.795588
  0
CIRCLE
  5
497
100
AcDbEntity
  8
M0
 62
     6
100
AcDbCircle
 10
320.784281
 20
775.290247
 40
4.0
  0
LINE
  5
498
100
AcDbEntity
  8
M0
  6
DASHDOT
 62
     6
100
AcDbLine
 10
330.93661
 20
775.290247
 11
310.631953
 21
775.290247
  0
LINE
  5
499
100
AcDbEntity
  8
M0
  6
DASHDOT
 62
     6
100
AcDbLine
 10
320.784266
 20
785.442575
 11
320.784281
 21
765.137919
  0
LINE
  5
49A
100
AcDbEntity
  8
M0
 62
     6
100
AcDbLine
 10
254.784037
 20
782.795588
 11
261.285487
 21
779.042994
  0
LINE
  5
49B
100
AcDbEntity
  8
M0
 62
     6
100
AcDbLine
 10
261.285487
 20
779.042994
 11
261.285487
 21
771.537348
  0
LINE
  5
49C
100
AcDbEntity
  8
M0
 62
     6
100
AcDbLine
 10
261.285487
 20
771.537348
 11
254.784037
 21
767.784601
  0
LINE
  5
49D
100
AcDbEntity
  8
M0
 62
     6
100
AcDbLine
 10
254.784037
 20
767.784601
 11
248.285014
 21
771.537348
  0
LINE
  5
49E
100
AcDbEntity
  8
M0
 62
     6
100
AcDbLine
 10
248.285014
 20
771.537348
 11
248.285014
 21
779.042994
  0
LINE
  5
49F
100
AcDbEntity
  8
M0
 62
     6
100
AcDbLine
 10
248.285014
 20
779.042994
 11
254.784037
 21
782.795588
  0
CIRCLE
  5
4A0
100
AcDbEntity
  8
M0
 62
     6
100
AcDbCircle
 10
254.784037
 20
775.290247
 40
4.0
  0
LINE
  5
4A1
100
AcDbEntity
  8
M0
  6
DASHDOT
 62
     6
100
AcDbLine
 10
264.936366
 20
775.290247
 11
244.631709
 21
775.290247
  0
LINE
  5
4A2
100
AcDbEntity
  8
M0
  6
DASHDOT
 62
     6
100
AcDbLine
 10
254.784022
 20
785.442575
 11
254.784037
 21
765.137919
  0
LINE
  5
4A3
100
AcDbEntity
  8
M0
100
AcDbLine
 10
279.785456
 20
709.589884
 11
279.935359
 21
709.589884
  0
LINE
  5
4A4
100
AcDbEntity
  8
M0
100
AcDbLine
 10
279.935359
 20
704.99003
 11
279.935359
 21
709.589884
  0
ARC
  5
4A5
100
AcDbEntity
  8
M0
100
AcDbCircle
 10
279.785456
 20
712.589884
 40
2.999994
100
AcDbArc
 50
179.999964
 51
270.0
  0
LINE
  5
4A6
100
AcDbEntity
  8
M0
100
AcDbLine
 10
276.785456
 20
722.289789
 11
276.785456
 21
712.589884
  0
ARC
  5
4A7
100
AcDbEntity
  8
M0
100
AcDbCircle
 10
279.785456
 20
722.289789
 40
2.999994
100
AcDbArc
 50
90.0
 51
179.999982
  0
LINE
  5
4A8
100
AcDbEntity
  8
M0
100
AcDbLine
 10
279.935359
 20
704.99003
 11
295.63531
 21
704.99003
  0
LINE
  5
4A9
100
AcDbEntity
  8
M0
100
AcDbLine
 10
295.63531
 20
704.99003
 11
295.63531
 21
709.589884
  0
ARC
  5
4AA
100
AcDbEntity
  8
M0
100
AcDbCircle
 10
295.785456
 20
712.589884
 40
2.999992
100
AcDbArc
 50
270.0
 51
360.0
  0
LINE
  5
4AB
100
AcDbEntity
  8
M0
100
AcDbLine
 10
295.63531
 20
709.589884
 11
295.785456
 21
709.589884
  0
LINE
  5
4AC
100
AcDbEntity
  8
M0
100
AcDbLine
 10
291.535456
 20
726.789637
 11
284.035456
 21
726.789637
  0
LINE
  5
4AD
100
AcDbEntity
  8
M0
100
AcDbLine
 10
284.035456
 20
727.289408
 11
291.535456
 21
727.289408
  0
LINE
  5
4AE
100
AcDbEntity
  8
M0
100
AcDbLine
 10
285.034953
 20
728.289362
 11
285.535456
 21
728.289362
  0
LINE
  5
4AF
100
AcDbEntity
  8
M0
100
AcDbLine
 10
285.535456
 20
728.989588
 11
290.035456
 21
728.989588
  0
LINE
  5
4B0
100
AcDbEntity
  8
M0
100
AcDbLine
 10
290.035456
 20
728.989359
 11
290.035456
 21
727.289408
  0
LINE
  5
4B1
100
AcDbEntity
  8
M0
100
AcDbLine
 10
285.535456
 20
728.989359
 11
285.535456
 21
727.289408
  0
LINE
  5
4B2
100
AcDbEntity
  8
M0
100
AcDbLine
 10
298.785456
 20
712.58964
 11
298.785456
 21
722.289545
  0
LINE
  5
4B3
100
AcDbEntity
  8
M0
100
AcDbLine
 10
295.785212
 20
725.290033
 11
291.535456
 21
725.289789
  0
ARC
  5
4B4
100
AcDbEntity
  8
M0
100
AcDbCircle
 10
295.785456
 20
722.289789
 40
2.999992
100
AcDbArc
 50
0.0
 51
90.0
  0
LINE
  5
4B5
100
AcDbEntity
  8
M0
100
AcDbLine
 10
291.535456
 20
727.28985
 11
291.535456
 21
725.28985
  0
LINE
  5
4B6
100
AcDbEntity
  8
M0
100
AcDbLine
 10
284.035456
 20
727.289362
 11
284.035456
 21
725.28985
  0
LINE
  5
4B7
100
AcDbEntity
  8
M0
100
AcDbLine
 10
284.035456
 20
725.289789
 11
279.785456
 21
725.290033
  0
LINE
  5
4B8
100
AcDbEntity
  8
M0
100
AcDbLine
 10
284.785456
 20
715.289835
 11
290.785456
 21
715.289835
  0
LINE
  5
4B9
100
AcDbEntity
  8
M0
100
AcDbLine
 10
284.785456
 20
719.789835
 11
290.785456
 21
719.789835
  0
LINE
  5
4BA
100
AcDbEntity
  8
M0
100
AcDbLine
 10
290.785456
 20
719.789835
 11
290.785456
 21
715.289835
  0
LINE
  5
4BB
100
AcDbEntity
  8
M0
100
AcDbLine
 10
284.785456
 20
719.789835
 11
284.785456
 21
715.289835
  0
LINE
  5
4BC
100
AcDbEntity
  8
M0
100
AcDbLine
 10
290.035456
 20
728.289362
 11
290.534953
 21
728.289362
  0
LINE
  5
4BD
100
AcDbEntity
  8
M0
 62
     6
100
AcDbLine
 10
279.484477
 20
705.290308
 11
279.934886
 21
705.290308
  0
LINE
  5
4BE
100
AcDbEntity
  8
M0
 62
     6
100
AcDbLine
 10
279.484477
 20
709.290308
 11
279.78448
 21
709.290308
  0
LINE
  5
4BF
100
AcDbEntity
  8
M0
 62
     6
100
AcDbLine
 10
295.78448
 20
709.290308
 11
295.78448
 21
705.290308
  0
LINE
  5
4C0
100
AcDbEntity
  8
M0
 62
     6
100
AcDbLine
 10
279.78448
 20
709.290308
 11
279.78448
 21
705.290308
  0
LINE
  5
4C1
100
AcDbEntity
  8
M0
 62
     6
100
AcDbLine
 10
279.484477
 20
725.590143
 11
283.78448
 21
725.590143
  0
LINE
  5
4C2
100
AcDbEntity
  8
M0
 62
     6
100
AcDbLine
 10
291.78448
 20
727.590143
 11
291.78448
 21
725.28985
  0
LINE
  5
4C3
100
AcDbEntity
  8
M0
 62
     6
100
AcDbLine
 10
283.78448
 20
727.590143
 11
283.78448
 21
725.289606
  0
ARC
  5
4C4
100
AcDbEntity
  8
M0
 62
     6
100
AcDbCircle
 10
295.28448
 20
725.090143
 40
0.5
100
AcDbArc
 50
23.484478
 51
90.0
  0
ARC
  5
4C5
100
AcDbEntity
  8
M0
 62
     6
100
AcDbCircle
 10
280.28448
 20
725.090143
 40
0.5
100
AcDbArc
 50
90.0
 51
156.458653
  0
LINE
  5
4C6
100
AcDbEntity
  8
M0
 62
     6
100
AcDbLine
 10
296.584467
 20
709.698648
 11
296.584467
 21
709.353815
  0
LINE
  5
4C7
100
AcDbEntity
  8
M0
 62
     6
100
AcDbLine
 10
278.984477
 20
709.698923
 11
278.984477
 21
709.353815
  0
LINE
  5
4C8
100
AcDbEntity
  8
M0
 62
     6
100
AcDbLine
 10
295.78448
 20
709.290308
 11
296.084467
 21
709.290308
  0
LINE
  5
4C9
100
AcDbEntity
  8
M0
 62
     6
100
AcDbLine
 10
279.78448
 20
708.290308
 11
279.934886
 21
708.290308
  0
LINE
  5
4CA
100
AcDbEntity
  8
M0
 62
     6
100
AcDbLine
 10
295.634837
 20
706.290308
 11
295.78448
 21
706.290308
  0
LINE
  5
4CB
100
AcDbEntity
  8
M0
 62
     6
100
AcDbLine
 10
295.634837
 20
708.290308
 11
295.78448
 21
708.290308
  0
LINE
  5
4CC
100
AcDbEntity
  8
M0
 62
     6
100
AcDbLine
 10
277.248408
 20
704.290308
 11
298.320521
 21
704.290308
  0
LINE
  5
4CD
100
AcDbEntity
  8
M0
 62
     6
100
AcDbLine
 10
276.984477
 20
699.290308
 11
298.584467
 21
699.290308
  0
LINE
  5
4CE
100
AcDbEntity
  8
M0
 62
     6
100
AcDbLine
 10
289.53448
 20
731.290094
 11
286.03448
 21
731.290094
  0
LINE
  5
4CF
100
AcDbEntity
  8
M0
 62
     6
100
AcDbLine
 10
283.78448
 20
727.290094
 11
285.03448
 21
727.290094
  0
LINE
  5
4D0
100
AcDbEntity
  8
M0
 62
     6
100
AcDbLine
 10
290.53448
 20
727.290094
 11
291.78448
 21
727.290094
  0
LINE
  5
4D1
100
AcDbEntity
  8
M0
 62
     6
100
AcDbLine
 10
291.78448
 20
725.590143
 11
296.084467
 21
725.590143
  0
ARC
  5
4D2
100
AcDbEntity
  8
M0
 62
     6
100
AcDbCircle
 10
279.984477
 20
706.090296
 40
0.2
100
AcDbArc
 50
90.0
 51
179.999727
  0
LINE
  5
4D3
100
AcDbEntity
  8
M0
 62
     6
100
AcDbLine
 10
283.78448
 20
727.590143
 11
285.03448
 21
727.590143
  0
LINE
  5
4D4
100
AcDbEntity
  8
M0
 62
     6
100
AcDbLine
 10
290.53448
 20
727.590143
 11
291.78448
 21
727.590143
  0
LINE
  5
4D5
100
AcDbEntity
  8
M0
 62
     6
100
AcDbLine
 10
276.484477
 20
722.590143
 11
276.484477
 21
712.290308
  0
LINE
  5
4D6
100
AcDbEntity
  8
M0
 62
     6
100
AcDbLine
 10
299.084467
 20
712.290293
 11
299.084467
 21
722.590143
  0
LINE
  5
4D7
100
AcDbEntity
  8
M0
 62
     6
100
AcDbLine
 10
276.484477
 20
702.290308
 11
276.484477
 21
699.790308
  0
LINE
  5
4D8
100
AcDbEntity
  8
M0
 62
     6
100
AcDbLine
 10
299.084467
 20
699.790308
 11
299.084467
 21
702.290293
  0
ARC
  5
4D9
100
AcDbEntity
  8
M0
 62
     6
100
AcDbCircle
 10
276.984477
 20
699.790308
 40
0.5
100
AcDbArc
 50
179.999891
 51
270.0
  0
ARC
  5
4DA
100
AcDbEntity
  8
M0
 62
     6
100
AcDbCircle
 10
298.584467
 20
699.790308
 40
0.5
100
AcDbArc
 50
270.0
 51
360.0
  0
ARC
  5
4DB
100
AcDbEntity
  8
M0
 62
     6
100
AcDbCircle
 10
298.584467
 20
722.290094
 40
0.5
100
AcDbArc
 50
0.0
 51
70.973332
  0
ARC
  5
4DC
100
AcDbEntity
  8
M0
 62
     6
100
AcDbCircle
 10
276.984477
 20
713.290308
 40
0.5
100
AcDbArc
 50
179.999891
 51
246.485229
  0
ARC
  5
4DD
100
AcDbEntity
  8
M0
 62
     6
100
AcDbCircle
 10
298.584467
 20
713.290308
 40
0.5
100
AcDbArc
 50
293.642356
 51
360.0
  0
ARC
  5
4DE
100
AcDbEntity
  8
M0
 62
     6
100
AcDbCircle
 10
276.984477
 20
722.290094
 40
0.5
100
AcDbArc
 50
108.901733
 51
180.0
  0
ARC
  5
4DF
100
AcDbEntity
  8
M0
 62
     6
100
AcDbCircle
 10
276.984477
 20
722.790094
 40
0.5
100
AcDbArc
 50
90.0
 51
180.0
  0
ARC
  5
4E0
100
AcDbEntity
  8
M0
 62
     6
100
AcDbCircle
 10
298.584467
 20
722.790094
 40
0.5
100
AcDbArc
 50
0.0
 51
90.0
  0
ARC
  5
4E1
100
AcDbEntity
  8
M0
 62
     6
100
AcDbCircle
 10
296.084467
 20
722.590143
 40
2.999996
100
AcDbArc
 50
0.0
 51
90.0
  0
ARC
  5
4E2
100
AcDbEntity
  8
M0
 62
     6
100
AcDbCircle
 10
279.484477
 20
722.590143
 40
2.999996
100
AcDbArc
 50
90.0
 51
179.999982
  0
ARC
  5
4E3
100
AcDbEntity
  8
M0
 62
     6
100
AcDbCircle
 10
279.484477
 20
712.290308
 40
2.999996
100
AcDbArc
 50
179.999964
 51
270.0
  0
ARC
  5
4E4
100
AcDbEntity
  8
M0
 62
     6
100
AcDbCircle
 10
296.084467
 20
712.290308
 40
2.999996
100
AcDbArc
 50
270.0
 51
360.0
  0
ARC
  5
4E5
100
AcDbEntity
  8
M0
 62
     6
100
AcDbCircle
 10
296.084467
 20
702.290308
 40
2.999996
100
AcDbArc
 50
0.0
 51
90.0
  0
ARC
  5
4E6
100
AcDbEntity
  8
M0
 62
     6
100
AcDbCircle
 10
279.484477
 20
702.290308
 40
2.999996
100
AcDbArc
 50
90.0
 51
179.999964
  0
LINE
  5
4E7
100
AcDbEntity
  8
M0
 62
     6
100
AcDbLine
 10
290.53448
 20
730.290094
 11
290.53448
 21
727.290094
  0
LINE
  5
4E8
100
AcDbEntity
  8
M0
 62
     6
100
AcDbLine
 10
285.03448
 20
730.290094
 11
285.03448
 21
727.290094
  0
ARC
  5
4E9
100
AcDbEntity
  8
M0
 62
     6
100
AcDbCircle
 10
289.53448
 20
730.290094
 40
1.0
100
AcDbArc
 50
0.0
 51
90.0
  0
ARC
  5
4EA
100
AcDbEntity
  8
M0
 62
     6
100
AcDbCircle
 10
286.03448
 20
730.290094
 40
1.0
100
AcDbArc
 50
90.0
 51
180.0
  0
LINE
  5
4EB
100
AcDbEntity
  8
M0
 62
     6
100
AcDbLine
 10
295.634837
 20
705.290308
 11
296.084467
 21
705.290308
  0
LINE
  5
4EC
100
AcDbEntity
  8
M0
 62
     7
100
AcDbLine
 10
282.284709
 20
705.040216
 11
293.284709
 21
705.040216
  0
LINE
  5
4ED
100
AcDbEntity
  8
M0
 62
     7
100
AcDbLine
 10
296.784709
 20
712.039484
 11
296.784709
 21
723.039728
  0
LINE
  5
4EE
100
AcDbEntity
  8
M0
 62
     7
100
AcDbLine
 10
295.284709
 20
724.540216
 11
280.284709
 21
724.540216
  0
LINE
  5
4EF
100
AcDbEntity
  8
M0
 62
     7
100
AcDbLine
 10
278.784709
 20
723.039972
 11
278.784709
 21
712.039728
  0
LINE
  5
4F0
100
AcDbEntity
  8
M0
 62
     7
100
AcDbLine
 10
295.284876
 20
710.539972
 11
294.784709
 21
710.539972
  0
LINE
  5
4F1
100
AcDbEntity
  8
M0
 62
     7
100
AcDbLine
 10
291.284709
 20
714.540216
 11
291.284709
 21
720.540216
  0
LINE
  5
4F2
100
AcDbEntity
  8
M0
 62
     7
100
AcDbLine
 10
284.284709
 20
714.540216
 11
284.284709
 21
720.540216
  0
LINE
  5
4F3
100
AcDbEntity
  8
M0
 62
     7
100
AcDbLine
 10
284.284709
 20
714.540216
 11
291.284709
 21
714.540216
  0
LINE
  5
4F4
100
AcDbEntity
  8
M0
 62
     7
100
AcDbLine
 10
284.284709
 20
720.540216
 11
291.284709
 21
720.540216
  0
LINE
  5
4F5
100
AcDbEntity
  8
M0
 62
     7
100
AcDbLine
 10
294.784709
 20
710.540216
 11
294.784709
 21
706.540216
  0
LINE
  5
4F6
100
AcDbEntity
  8
M0
 62
     7
100
AcDbLine
 10
280.784709
 20
710.540216
 11
280.784709
 21
706.540216
  0
LINE
  5
4F7
100
AcDbEntity
  8
M0
 62
     7
100
AcDbLine
 10
280.284327
 20
710.539972
 11
280.784709
 21
710.539728
  0
ARC
  5
4F8
100
AcDbEntity
  8
M0
 62
     7
100
AcDbCircle
 10
280.284709
 20
712.039728
 40
1.499998
100
AcDbArc
 50
179.999964
 51
269.985429
  0
ARC
  5
4F9
100
AcDbEntity
  8
M0
 62
     7
100
AcDbCircle
 10
295.284709
 20
712.039728
 40
1.499998
100
AcDbArc
 50
270.006375
 51
359.990674
  0
ARC
  5
4FA
100
AcDbEntity
  8
M0
 62
     7
100
AcDbCircle
 10
295.284709
 20
723.039972
 40
1.499998
100
AcDbArc
 50
359.990638
 51
450.0
  0
ARC
  5
4FB
100
AcDbEntity
  8
M0
 62
     7
100
AcDbCircle
 10
280.284709
 20
723.039972
 40
1.499998
100
AcDbArc
 50
90.0
 51
180.0
  0
ARC
  5
4FC
100
AcDbEntity
  8
M0
 62
     7
100
AcDbCircle
 10
282.284709
 20
706.540216
 40
1.5
100
AcDbArc
 50
179.999964
 51
270.0
  0
ARC
  5
4FD
100
AcDbEntity
  8
M0
 62
     7
100
AcDbCircle
 10
293.284709
 20
706.540216
 40
1.5
100
AcDbArc
 50
270.0
 51
360.0
  0
LINE
  5
4FE
100
AcDbEntity
  8
M0
  6
DASHDOT
100
AcDbLine
 10
502.051112
 20
655.290232
 11
523.96908
 21
655.290232
  0
LINE
  5
4FF
100
AcDbEntity
  8
M0
100
AcDbLine
 10
494.005946
 20
651.290232
 11
494.005946
 21
659.290232
  0
LINE
  5
500
100
AcDbEntity
  8
M0
100
AcDbLine
 10
494.005946
 20
659.290232
 11
501.204432
 21
659.290232
  0
LINE
  5
501
100
AcDbEntity
  8
M0
100
AcDbLine
 10
501.204432
 20
651.290232
 11
494.005946
 21
651.290232
  0
LINE
  5
502
100
AcDbEntity
  8
M0
  6
DASHDOT
100
AcDbLine
 10
502.206141
 20
655.289988
 11
514.206141
 21
655.289988
  0
LINE
  5
503
100
AcDbEntity
  8
M0
100
AcDbLine
 10
514.505946
 20
646.326853
 11
514.505946
 21
665.308786
  0
LINE
  5
504
100
AcDbEntity
  8
M0
100
AcDbLine
 10
511.305995
 20
646.326853
 11
514.505946
 21
646.326853
  0
LINE
  5
505
100
AcDbEntity
  8
M0
100
AcDbLine
 10
511.305995
 20
646.326853
 11
511.305995
 21
665.308786
  0
LINE
  5
506
100
AcDbEntity
  8
M0
100
AcDbLine
 10
113.284556
 20
630.289713
 11
343.284556
 21
630.289713
  0
LINE
  5
507
100
AcDbEntity
  8
M0
100
AcDbLine
 10
348.284556
 20
635.289469
 11
348.284312
 21
795.289469
  0
LINE
  5
508
100
AcDbEntity
  8
M0
100
AcDbLine
 10
343.284556
 20
800.289469
 11
113.284541
 21
800.289225
  0
LINE
  5
509
100
AcDbEntity
  8
M0
100
AcDbLine
 10
108.284541
 20
795.289469
 11
108.284556
 21
635.289469
  0
LINE
  5
50A
100
AcDbEntity
  8
M0
  6
DASHDOT
100
AcDbLine
 10
228.284556
 20
608.067301
 11
228.284556
 21
822.511881
  0
LINE
  5
50B
100
AcDbEntity
  8
M0
100
AcDbLine
 10
218.284556
 20
630.289713
 11
218.284556
 21
640.289713
  0
LINE
  5
50C
100
AcDbEntity
  8
M0
100
AcDbLine
 10
238.284556
 20
630.289713
 11
238.284556
 21
640.289469
  0
LINE
  5
50D
100
AcDbEntity
  8
M0
100
AcDbLine
 10
113.284556
 20
630.289713
 11
108.284556
 21
635.289469
  0
LINE
  5
50E
100
AcDbEntity
  8
M0
100
AcDbLine
 10
108.284541
 20
795.289469
 11
113.284541
 21
800.289225
  0
LINE
  5
50F
100
AcDbEntity
  8
M0
100
AcDbLine
 10
343.284556
 20
800.289469
 11
348.284312
 21
795.289469
  0
LINE
  5
510
100
AcDbEntity
  8
M0
100
AcDbLine
 10
348.284556
 20
635.289469
 11
343.284556
 21
630.289713
  0
LINE
  5
511
100
AcDbEntity
  8
M0
100
AcDbLine
 10
348.284556
 20
780.289225
 11
330.7848
 21
780.288981
  0
CIRCLE
  5
512
100
AcDbEntity
  8
M0
100
AcDbCircle
 10
338.284556
 20
790.289713
 40
3.499998
  0
LINE
  5
513
100
AcDbEntity
  8
M0
  6
DASHDOT
100
AcDbLine
 10
312.562144
 20
790.289713
 11
364.006724
 21
790.289713
  0
LINE
  5
514
100
AcDbEntity
  8
M0
  6
DASHDOT
100
AcDbLine
 10
338.284556
 20
764.567301
 11
338.284556
 21
816.011881
  0
CIRCLE
  5
515
100
AcDbEntity
  8
M0
100
AcDbCircle
 10
338.284556
 20
640.289713
 40
3.499998
  0
LINE
  5
516
100
AcDbEntity
  8
M0
  6
DASHDOT
100
AcDbLine
 10
312.562144
 20
640.289713
 11
364.006724
 21
640.289713
  0
LINE
  5
517
100
AcDbEntity
  8
M0
  6
DASHDOT
100
AcDbLine
 10
338.284556
 20
614.567301
 11
338.284556
 21
666.011881
  0
LINE
  5
518
100
AcDbEntity
  8
M0
100
AcDbLine
 10
328.284556
 20
630.289713
 11
328.284556
 21
640.289713
  0
LINE
  5
519
100
AcDbEntity
  8
M0
100
AcDbLine
 10
338.284556
 20
650.289713
 11
348.284556
 21
650.289713
  0
ARC
  5
51A
100
AcDbEntity
  8
M0
100
AcDbCircle
 10
338.284556
 20
640.289713
 40
9.99999
100
AcDbArc
 50
90.0
 51
180.0
  0
CIRCLE
  5
51B
100
AcDbEntity
  8
M0
100
AcDbCircle
 10
118.284556
 20
640.289713
 40
3.499998
  0
LINE
  5
51C
100
AcDbEntity
  8
M0
  6
DASHDOT
100
AcDbLine
 10
92.562327
 20
640.289713
 11
144.006724
 21
640.289713
  0
LINE
  5
51D
100
AcDbEntity
  8
M0
  6
DASHDOT
100
AcDbLine
 10
118.284556
 20
614.567301
 11
118.284556
 21
666.011881
  0
LINE
  5
51E
100
AcDbEntity
  8
M0
100
AcDbLine
 10
128.284556
 20
630.289713
 11
128.284556
 21
640.289469
  0
LINE
  5
51F
100
AcDbEntity
  8
M0
100
AcDbLine
 10
108.284556
 20
650.289713
 11
118.284556
 21
650.289713
  0
ARC
  5
520
100
AcDbEntity
  8
M0
100
AcDbCircle
 10
118.284556
 20
640.289713
 40
9.99999
100
AcDbArc
 50
0.0
 51
90.0
  0
CIRCLE
  5
521
100
AcDbEntity
  8
M0
100
AcDbCircle
 10
118.284556
 20
790.289713
 40
3.499998
  0
LINE
  5
522
100
AcDbEntity
  8
M0
  6
DASHDOT
100
AcDbLine
 10
92.562327
 20
790.289713
 11
144.006724
 21
790.289713
  0
LINE
  5
523
100
AcDbEntity
  8
M0
  6
DASHDOT
100
AcDbLine
 10
118.284556
 20
764.567301
 11
118.284556
 21
816.011881
  0
CIRCLE
  5
524
100
AcDbEntity
  8
M0
100
AcDbCircle
 10
228.284556
 20
640.289713
 40
3.499998
  0
LINE
  5
525
100
AcDbEntity
  8
M0
  6
DASHDOT
100
AcDbLine
 10
202.562144
 20
640.289713
 11
254.006724
 21
640.289713
  0
LINE
  5
526
100
AcDbEntity
  8
M0
  6
DASHDOT
100
AcDbLine
 10
228.284556
 20
591.567301
 11
228.284556
 21
666.011881
  0
ARC
  5
527
100
AcDbEntity
  8
M0
100
AcDbCircle
 10
228.284556
 20
640.289713
 40
9.99999
100
AcDbArc
 50
0.0
 51
180.0
  0
LINE
  5
528
100
AcDbEntity
  8
M0
100
AcDbLine
 10
125.783823
 20
780.288981
 11
108.284541
 21
780.289225
  0
LINE
  5
529
100
AcDbEntity
  8
M0
100
AcDbLine
 10
158.784312
 20
780.288981
 11
145.783823
 21
780.288981
  0
LINE
  5
52A
100
AcDbEntity
  8
M0
100
AcDbLine
 10
191.783823
 20
780.288981
 11
178.784312
 21
780.288981
  0
LINE
  5
52B
100
AcDbEntity
  8
M0
100
AcDbLine
 10
244.784556
 20
780.288981
 11
211.783823
 21
780.288981
  0
LINE
  5
52C
100
AcDbEntity
  8
M0
100
AcDbLine
 10
277.7848
 20
780.288981
 11
264.784556
 21
780.288981
  0
LINE
  5
52D
100
AcDbEntity
  8
M0
100
AcDbLine
 10
310.7848
 20
780.288981
 11
297.7848
 21
780.288981
  0
LINE
  5
52E
100
AcDbEntity
  8
M0
  6
DASHDOT
100
AcDbLine
 10
329.784129
 20
763.452906
 11
329.783503
 21
776.182428
  0
ARC
  5
52F
100
AcDbEntity
  8
M0
100
AcDbCircle
 10
327.303065
 20
766.490183
 40
0.5
100
AcDbArc
 50
250.406043
 51
269.998251
  0
ARC
  5
530
100
AcDbEntity
  8
M0
100
AcDbCircle
 10
126.033152
 20
770.28985
 40
7.0
100
AcDbArc
 50
89.999875
 51
180.0
  0
ARC
  5
531
100
AcDbEntity
  8
M0
100
AcDbCircle
 10
211.533152
 20
770.289789
 40
7.0
100
AcDbArc
 50
0.0
 51
89.999875
  0
LINE
  5
532
100
AcDbEntity
  8
M0
100
AcDbLine
 10
218.533152
 20
770.289789
 11
218.533152
 21
752.789301
  0
ARC
  5
533
100
AcDbEntity
  8
M0
100
AcDbCircle
 10
211.533091
 20
660.289789
 40
7.0
100
AcDbArc
 50
-90.0
 51
0.0
  0
LINE
  5
534
100
AcDbEntity
  8
M0
100
AcDbLine
 10
119.033091
 20
660.28985
 11
119.033091
 21
677.856745
  0
ARC
  5
535
100
AcDbEntity
  8
M0
100
AcDbCircle
 10
126.033091
 20
660.28985
 40
7.0
100
AcDbArc
 50
180.0
 51
270.0
  0
LINE
  5
536
100
AcDbEntity
  8
M0
100
AcDbLine
 10
141.783152
 20
764.78985
 11
163.283152
 21
764.78982
  0
LINE
  5
537
100
AcDbEntity
  8
M0
100
AcDbLine
 10
141.783091
 20
665.78985
 11
195.783091
 21
665.789789
  0
LINE
  5
538
100
AcDbEntity
  8
M0
  6
DASHDOT
100
AcDbLine
 10
140.783152
 20
770.28985
 11
112.783152
 21
770.28985
  0
LINE
  5
539
100
AcDbEntity
  8
M0
  6
DASHDOT
100
AcDbLine
 10
126.783152
 20
757.53985
 11
126.783183
 21
783.03985
  0
LINE
  5
53A
100
AcDbEntity
  8
M0
100
AcDbLine
 10
212.033091
 20
657.539789
 11
211.783137
 21
657.539789
  0
LINE
  5
53B
100
AcDbEntity
  8
M0
100
AcDbLine
 10
119.033152
 20
752.722971
 11
119.033152
 21
770.28985
  0
LINE
  5
53C
100
AcDbEntity
  8
M0
100
AcDbLine
 10
218.533091
 20
677.789774
 11
218.533091
 21
660.289789
  0
LINE
  5
53D
100
AcDbEntity
  8
M0
100
AcDbLine
 10
174.283152
 20
764.78982
 11
195.783152
 21
764.789789
  0
LINE
  5
53E
100
AcDbEntity
  8
M0
  6
DASHDOT
100
AcDbLine
 10
191.78317
 20
745.289856
 11
191.783193
 21
769.289856
  0
LINE
  5
53F
100
AcDbEntity
  8
M0
  6
DASHDOT
100
AcDbLine
 10
203.783197
 20
757.289829
 11
179.783197
 21
757.289852
  0
ARC
  5
540
100
AcDbEntity
  8
M0
100
AcDbCircle
 10
191.783197
 20
757.289856
 40
2.0
100
AcDbArc
 50
48.595981
 51
131.403728
  0
LINE
  5
541
100
AcDbEntity
  8
M0
100
AcDbLine
 10
211.783219
 20
783.289831
 11
191.783219
 21
783.289856
  0
LINE
  5
542
100
AcDbEntity
  8
M0
100
AcDbLine
 10
188.689093
 20
764.789336
 11
191.783193
 21
769.289856
  0
LINE
  5
543
100
AcDbEntity
  8
M0
100
AcDbLine
 10
211.783193
 20
769.289831
 11
211.783219
 21
783.289831
  0
LINE
  5
544
100
AcDbEntity
  8
M0
100
AcDbLine
 10
191.783219
 20
783.289856
 11
191.783193
 21
769.289856
  0
LINE
  5
545
100
AcDbEntity
  8
M0
100
AcDbLine
 10
204.283363
 20
762.565845
 11
211.783193
 21
769.289831
  0
LINE
  5
546
100
AcDbEntity
  8
M0
  6
DASHDOT
100
AcDbLine
 10
201.783195
 20
762.289828
 11
201.783218
 21
788.289828
  0
LINE
  5
547
100
AcDbEntity
  8
M0
  6
DASHDOT
100
AcDbLine
 10
214.783191
 20
775.289832
 11
188.783191
 21
775.289855
  0
LINE
  5
548
100
AcDbEntity
  8
M0
  6
DASHDOT
100
AcDbLine
 10
191.78317
 20
745.289856
 11
191.783193
 21
769.289856
  0
LINE
  5
549
100
AcDbEntity
  8
M0
  6
DASHDOT
100
AcDbLine
 10
203.783197
 20
757.289829
 11
179.783197
 21
757.289852
  0
ARC
  5
54A
100
AcDbEntity
  8
M0
100
AcDbCircle
 10
191.783197
 20
757.289856
 40
2.0
100
AcDbArc
 50
48.595981
 51
131.403728
  0
LINE
  5
54B
100
AcDbEntity
  8
M0
100
AcDbLine
 10
158.783562
 20
783.289816
 11
178.783562
 21
783.289809
  0
LINE
  5
54C
100
AcDbEntity
  8
M0
  6
DASHDOT
100
AcDbLine
 10
168.783514
 20
632.371974
 11
168.783565
 21
793.289813
  0
LINE
  5
54D
100
AcDbEntity
  8
M0
100
AcDbLine
 10
174.619189
 20
765.588151
 11
178.783557
 21
769.289809
  0
ARC
  5
54E
100
AcDbEntity
  8
M0
100
AcDbCircle
 10
175.283556
 20
764.840744
 40
1.0
100
AcDbArc
 50
131.633739
 51
179.999982
  0
ARC
  5
54F
100
AcDbEntity
  8
M0
100
AcDbCircle
 10
162.283556
 20
764.840748
 40
1.0
100
AcDbArc
 50
-0.000892
 51
48.364918
  0
LINE
  5
550
100
AcDbEntity
  8
M0
100
AcDbLine
 10
178.783562
 20
783.289809
 11
178.783557
 21
769.289809
  0
LINE
  5
551
100
AcDbEntity
  8
M0
100
AcDbLine
 10
162.947924
 20
765.588154
 11
158.783557
 21
769.289816
  0
LINE
  5
552
100
AcDbEntity
  8
M0
100
AcDbLine
 10
158.783557
 20
769.289816
 11
158.783562
 21
783.289816
  0
LINE
  5
553
100
AcDbEntity
  8
M0
100
AcDbLine
 10
174.283556
 20
764.289719
 11
174.283556
 21
764.840745
  0
LINE
  5
554
100
AcDbEntity
  8
M0
100
AcDbLine
 10
163.283554
 20
758.789982
 11
163.283556
 21
764.840748
  0
LINE
  5
555
100
AcDbEntity
  8
M0
  6
DASHDOT
100
AcDbLine
 10
155.783559
 20
775.289817
 11
181.783559
 21
775.289808
  0
ARC
  5
556
100
AcDbEntity
  8
M0
100
AcDbCircle
 10
168.783554
 20
757.289813
 40
2.0
100
AcDbArc
 50
48.597179
 51
131.402458
  0
LINE
  5
557
100
AcDbEntity
  8
M0
100
AcDbLine
 10
125.783543
 20
783.290305
 11
145.783543
 21
783.290299
  0
LINE
  5
558
100
AcDbEntity
  8
M0
100
AcDbLine
 10
148.877516
 20
764.789962
 11
145.783538
 21
769.290299
  0
LINE
  5
559
100
AcDbEntity
  8
M0
100
AcDbLine
 10
125.783538
 20
769.290305
 11
125.783543
 21
783.290305
  0
LINE
  5
55A
100
AcDbEntity
  8
M0
100
AcDbLine
 10
145.783543
 20
783.290299
 11
145.783538
 21
769.290299
  0
LINE
  5
55B
100
AcDbEntity
  8
M0
100
AcDbLine
 10
133.283368
 20
762.566319
 11
125.783538
 21
769.290305
  0
LINE
  5
55C
100
AcDbEntity
  8
M0
  6
DASHDOT
100
AcDbLine
 10
135.783536
 20
762.290302
 11
135.783544
 21
788.290302
  0
LINE
  5
55D
100
AcDbEntity
  8
M0
  6
DASHDOT
100
AcDbLine
 10
122.78354
 20
775.290306
 11
148.78354
 21
775.290298
  0
LINE
  5
55E
100
AcDbEntity
  8
M0
  6
DASHDOT
100
AcDbLine
 10
145.783531
 20
745.290299
 11
145.783538
 21
769.290299
  0
LINE
  5
55F
100
AcDbEntity
  8
M0
  6
DASHDOT
100
AcDbLine
 10
133.783535
 20
757.290303
 11
157.783535
 21
757.290295
  0
ARC
  5
560
100
AcDbEntity
  8
M0
100
AcDbCircle
 10
145.783535
 20
757.290299
 40
2.0
100
AcDbArc
 50
48.597179
 51
131.402458
  0
LINE
  5
561
100
AcDbEntity
  8
M0
  6
DASHDOT
100
AcDbLine
 10
222.784342
 20
757.29011
 11
198.784342
 21
757.29011
  0
LINE
  5
562
100
AcDbEntity
  8
M0
  6
DASHDOT
100
AcDbLine
 10
210.784342
 20
745.29011
 11
210.784373
 21
769.29011
  0
LINE
  5
563
100
AcDbEntity
  8
M0
100
AcDbLine
 10
218.534342
 20
764.789621
 11
206.764582
 21
764.789621
  0
LINE
  5
564
100
AcDbEntity
  8
M0
100
AcDbLine
 10
218.534342
 20
764.789621
 11
206.764582
 21
764.789621
  0
LINE
  5
565
100
AcDbEntity
  8
M0
100
AcDbLine
 10
130.78451
 20
764.789682
 11
130.78451
 21
752.789682
  0
LINE
  5
566
100
AcDbEntity
  8
M0
100
AcDbLine
 10
122.784754
 20
764.789682
 11
122.784754
 21
752.789682
  0
LINE
  5
567
100
AcDbEntity
  8
M0
100
AcDbLine
 10
122.784754
 20
761.290201
 11
123.842371
 21
761.290201
  0
LINE
  5
568
100
AcDbEntity
  8
M0
  6
DASHDOT
100
AcDbLine
 10
126.784754
 20
745.290171
 11
126.784754
 21
769.290171
  0
LINE
  5
569
100
AcDbEntity
  8
M0
  6
DASHDOT
100
AcDbLine
 10
114.784754
 20
757.290171
 11
138.784342
 21
757.290171
  0
LINE
  5
56A
100
AcDbEntity
  8
M0
100
AcDbLine
 10
119.034754
 20
764.789682
 11
130.804286
 21
764.789682
  0
LINE
  5
56B
100
AcDbEntity
  8
M0
100
AcDbLine
 10
218.534281
 20
665.790628
 11
206.764521
 21
665.790628
  0
LINE
  5
56C
100
AcDbEntity
  8
M0
100
AcDbLine
 10
119.03451
 20
665.79069
 11
130.804286
 21
665.79069
  0
LINE
  5
56D
100
AcDbEntity
  8
M0
100
AcDbLine
 10
129.727137
 20
761.290201
 11
130.78451
 21
761.290201
  0
LINE
  5
56E
100
AcDbEntity
  8
M0
  6
DIVIDE
100
AcDbLine
 10
105.784754
 20
745.290171
 11
118.784754
 21
745.290171
  0
LINE
  5
56F
100
AcDbEntity
  8
M0
  6
DIVIDE
100
AcDbLine
 10
105.784754
 20
745.290171
 11
105.784754
 21
685.290201
  0
LINE
  5
570
100
AcDbEntity
  8
M0
  6
DIVIDE
100
AcDbLine
 10
105.784754
 20
685.290201
 11
118.784754
 21
685.290201
  0
LINE
  5
571
100
AcDbEntity
  8
M0
  6
DASHDOT
100
AcDbLine
 10
210.783213
 20
728.451929
 11
210.783839
 21
741.181452
  0
LINE
  5
572
100
AcDbEntity
  8
M0
100
AcDbLine
 10
209.383311
 20
732.189386
 11
207.563242
 21
732.189386
  0
LINE
  5
573
100
AcDbEntity
  8
M0
100
AcDbLine
 10
212.18336
 20
732.189386
 11
214.003428
 21
732.189386
  0
LINE
  5
574
100
AcDbEntity
  8
M0
100
AcDbLine
 10
213.26417
 20
730.989435
 11
208.3025
 21
730.989435
  0
LINE
  5
575
100
AcDbEntity
  8
M0
100
AcDbLine
 10
209.383311
 20
732.189386
 11
209.383311
 21
732.636164
  0
LINE
  5
576
100
AcDbEntity
  8
M0
100
AcDbLine
 10
212.18336
 20
732.189386
 11
212.18336
 21
732.636164
  0
ARC
  5
577
100
AcDbEntity
  8
M0
100
AcDbCircle
 10
213.26417
 20
731.489435
 40
0.5
100
AcDbArc
 50
270.0
 51
342.88223
  0
ARC
  5
578
100
AcDbEntity
  8
M0
100
AcDbCircle
 10
208.3025
 20
731.489435
 40
0.5
100
AcDbArc
 50
197.125483
 51
270.0
  0
LINE
  5
579
100
AcDbEntity
  8
M0
  6
DASHDOT
 62
     6
100
AcDbLine
 10
217.10705
 20
735.289484
 11
204.671259
 21
735.289484
  0
CIRCLE
  5
57A
100
AcDbEntity
  8
M0
100
AcDbCircle
 10
210.783213
 20
735.289484
 40
3.0
  0
LINE
  5
57B
100
AcDbEntity
  8
M0
100
AcDbLine
 10
213.742198
 20
739.23675
 11
214.55836
 21
736.589533
  0
LINE
  5
57C
100
AcDbEntity
  8
M0
100
AcDbLine
 10
213.742198
 20
731.342218
 11
214.55836
 21
733.989435
  0
LINE
  5
57D
100
AcDbEntity
  8
M0
100
AcDbLine
 10
207.824717
 20
739.23675
 11
207.008311
 21
736.589533
  0
LINE
  5
57E
100
AcDbEntity
  8
M0
100
AcDbLine
 10
207.824717
 20
731.342218
 11
207.008311
 21
733.989435
  0
LINE
  5
57F
100
AcDbEntity
  8
M0
100
AcDbLine
 10
209.383311
 20
738.389338
 11
207.563242
 21
738.389338
  0
LINE
  5
580
100
AcDbEntity
  8
M0
100
AcDbLine
 10
208.46168
 20
737.189386
 11
207.193369
 21
737.189386
  0
LINE
  5
581
100
AcDbEntity
  8
M0
100
AcDbLine
 10
208.46168
 20
733.389338
 11
207.193369
 21
733.389338
  0
LINE
  5
582
100
AcDbEntity
  8
M0
100
AcDbLine
 10
212.18336
 20
738.389338
 11
214.003428
 21
738.389338
  0
LINE
  5
583
100
AcDbEntity
  8
M0
100
AcDbLine
 10
213.10499
 20
737.189386
 11
214.373301
 21
737.189386
  0
LINE
  5
584
100
AcDbEntity
  8
M0
100
AcDbLine
 10
213.10499
 20
733.389338
 11
214.373301
 21
733.389338
  0
LINE
  5
585
100
AcDbEntity
  8
M0
100
AcDbLine
 10
207.008311
 20
733.989435
 11
207.008311
 21
736.589533
  0
LINE
  5
586
100
AcDbEntity
  8
M0
100
AcDbLine
 10
208.3025
 20
739.589533
 11
213.26417
 21
739.589289
  0
LINE
  5
587
100
AcDbEntity
  8
M0
100
AcDbLine
 10
214.55836
 20
736.589533
 11
214.55836
 21
733.989435
  0
LINE
  5
588
100
AcDbEntity
  8
M0
100
AcDbLine
 10
209.383311
 20
737.942804
 11
209.383311
 21
738.389338
  0
LINE
  5
589
100
AcDbEntity
  8
M0
100
AcDbLine
 10
212.18336
 20
737.942804
 11
212.18336
 21
738.389338
  0
LINE
  5
58A
100
AcDbEntity
  8
M0
100
AcDbLine
 10
209.192637
 20
733.698664
 11
212.374278
 21
736.880304
  0
LINE
  5
58B
100
AcDbEntity
  8
M0
100
AcDbLine
 10
210.429942
 20
736.703547
 11
212.19752
 21
734.935968
  0
LINE
  5
58C
100
AcDbEntity
  8
M0
100
AcDbLine
 10
209.369395
 20
735.643
 11
211.136973
 21
733.875422
  0
ARC
  5
58D
100
AcDbEntity
  8
M0
100
AcDbCircle
 10
213.26417
 20
739.089289
 40
0.5
100
AcDbArc
 50
17.143222
 51
89.998251
  0
ARC
  5
58E
100
AcDbEntity
  8
M0
100
AcDbCircle
 10
208.3025
 20
739.089289
 40
0.5
100
AcDbArc
 50
89.998251
 51
162.848548
  0
LINE
  5
58F
100
AcDbEntity
  8
M0
  6
DASHDOT
100
AcDbLine
 10
210.783213
 20
718.951929
 11
210.783839
 21
731.681452
  0
LINE
  5
590
100
AcDbEntity
  8
M0
100
AcDbLine
 10
209.383311
 20
722.689386
 11
207.563242
 21
722.689386
  0
LINE
  5
591
100
AcDbEntity
  8
M0
100
AcDbLine
 10
212.18336
 20
722.689386
 11
214.003428
 21
722.689386
  0
LINE
  5
592
100
AcDbEntity
  8
M0
100
AcDbLine
 10
213.26417
 20
721.489435
 11
208.3025
 21
721.489435
  0
LINE
  5
593
100
AcDbEntity
  8
M0
100
AcDbLine
 10
209.383311
 20
722.689386
 11
209.383311
 21
723.136164
  0
LINE
  5
594
100
AcDbEntity
  8
M0
100
AcDbLine
 10
212.18336
 20
722.689386
 11
212.18336
 21
723.136164
  0
ARC
  5
595
100
AcDbEntity
  8
M0
100
AcDbCircle
 10
213.26417
 20
721.989435
 40
0.5
100
AcDbArc
 50
270.0
 51
342.88223
  0
ARC
  5
596
100
AcDbEntity
  8
M0
100
AcDbCircle
 10
208.3025
 20
721.989435
 40
0.5
100
AcDbArc
 50
197.125483
 51
270.0
  0
LINE
  5
597
100
AcDbEntity
  8
M0
  6
DASHDOT
 62
     6
100
AcDbLine
 10
217.10705
 20
725.789484
 11
204.671259
 21
725.789484
  0
CIRCLE
  5
598
100
AcDbEntity
  8
M0
100
AcDbCircle
 10
210.783213
 20
725.789484
 40
3.0
  0
LINE
  5
599
100
AcDbEntity
  8
M0
100
AcDbLine
 10
213.742198
 20
729.73675
 11
214.55836
 21
727.089533
  0
LINE
  5
59A
100
AcDbEntity
  8
M0
100
AcDbLine
 10
213.742198
 20
721.842218
 11
214.55836
 21
724.489435
  0
LINE
  5
59B
100
AcDbEntity
  8
M0
100
AcDbLine
 10
207.824717
 20
729.73675
 11
207.008311
 21
727.089533
  0
LINE
  5
59C
100
AcDbEntity
  8
M0
100
AcDbLine
 10
207.824717
 20
721.842218
 11
207.008311
 21
724.489435
  0
LINE
  5
59D
100
AcDbEntity
  8
M0
100
AcDbLine
 10
209.383311
 20
728.889338
 11
207.563242
 21
728.889338
  0
LINE
  5
59E
100
AcDbEntity
  8
M0
100
AcDbLine
 10
208.46168
 20
727.689386
 11
207.193369
 21
727.689386
  0
LINE
  5
59F
100
AcDbEntity
  8
M0
100
AcDbLine
 10
208.46168
 20
723.889338
 11
207.193369
 21
723.889338
  0
LINE
  5
5A0
100
AcDbEntity
  8
M0
100
AcDbLine
 10
212.18336
 20
728.889338
 11
214.003428
 21
728.889338
  0
LINE
  5
5A1
100
AcDbEntity
  8
M0
100
AcDbLine
 10
213.10499
 20
727.689386
 11
214.373301
 21
727.689386
  0
LINE
  5
5A2
100
AcDbEntity
  8
M0
100
AcDbLine
 10
213.10499
 20
723.889338
 11
214.373301
 21
723.889338
  0
LINE
  5
5A3
100
AcDbEntity
  8
M0
100
AcDbLine
 10
207.008311
 20
724.489435
 11
207.008311
 21
727.089533
  0
LINE
  5
5A4
100
AcDbEntity
  8
M0
100
AcDbLine
 10
208.3025
 20
730.089533
 11
213.26417
 21
730.089289
  0
LINE
  5
5A5
100
AcDbEntity
  8
M0
100
AcDbLine
 10
214.55836
 20
727.089533
 11
214.55836
 21
724.489435
  0
LINE
  5
5A6
100
AcDbEntity
  8
M0
100
AcDbLine
 10
209.383311
 20
728.442804
 11
209.383311
 21
728.889338
  0
LINE
  5
5A7
100
AcDbEntity
  8
M0
100
AcDbLine
 10
212.18336
 20
728.442804
 11
212.18336
 21
728.889338
  0
LINE
  5
5A8
100
AcDbEntity
  8
M0
100
AcDbLine
 10
209.192637
 20
724.198664
 11
212.374278
 21
727.380304
  0
LINE
  5
5A9
100
AcDbEntity
  8
M0
100
AcDbLine
 10
210.429942
 20
727.203547
 11
212.19752
 21
725.435968
  0
LINE
  5
5AA
100
AcDbEntity
  8
M0
100
AcDbLine
 10
209.369395
 20
726.143
 11
211.136973
 21
724.375422
  0
ARC
  5
5AB
100
AcDbEntity
  8
M0
100
AcDbCircle
 10
213.26417
 20
729.589289
 40
0.5
100
AcDbArc
 50
17.143222
 51
89.998251
  0
ARC
  5
5AC
100
AcDbEntity
  8
M0
100
AcDbCircle
 10
208.3025
 20
729.589289
 40
0.5
100
AcDbArc
 50
89.998251
 51
162.848548
  0
LINE
  5
5AD
100
AcDbEntity
  8
M0
  6
DASHDOT
100
AcDbLine
 10
210.783213
 20
697.952173
 11
210.783839
 21
710.681696
  0
LINE
  5
5AE
100
AcDbEntity
  8
M0
100
AcDbLine
 10
209.383311
 20
701.689631
 11
207.563242
 21
701.689631
  0
LINE
  5
5AF
100
AcDbEntity
  8
M0
100
AcDbLine
 10
212.18336
 20
701.689631
 11
214.003428
 21
701.689631
  0
LINE
  5
5B0
100
AcDbEntity
  8
M0
100
AcDbLine
 10
213.26417
 20
700.489679
 11
208.3025
 21
700.489679
  0
LINE
  5
5B1
100
AcDbEntity
  8
M0
100
AcDbLine
 10
209.383311
 20
701.689631
 11
209.383311
 21
702.136408
  0
LINE
  5
5B2
100
AcDbEntity
  8
M0
100
AcDbLine
 10
212.18336
 20
701.689631
 11
212.18336
 21
702.136408
  0
ARC
  5
5B3
100
AcDbEntity
  8
M0
100
AcDbCircle
 10
213.26417
 20
700.989679
 40
0.5
100
AcDbArc
 50
270.0
 51
342.88223
  0
ARC
  5
5B4
100
AcDbEntity
  8
M0
100
AcDbCircle
 10
208.3025
 20
700.989679
 40
0.5
100
AcDbArc
 50
197.125483
 51
270.0
  0
LINE
  5
5B5
100
AcDbEntity
  8
M0
  6
DASHDOT
 62
     6
100
AcDbLine
 10
217.10705
 20
704.789728
 11
204.671259
 21
704.789728
  0
CIRCLE
  5
5B6
100
AcDbEntity
  8
M0
100
AcDbCircle
 10
210.783213
 20
704.789728
 40
3.0
  0
LINE
  5
5B7
100
AcDbEntity
  8
M0
100
AcDbLine
 10
213.742198
 20
708.736994
 11
214.55836
 21
706.089777
  0
LINE
  5
5B8
100
AcDbEntity
  8
M0
100
AcDbLine
 10
213.742198
 20
700.842463
 11
214.55836
 21
703.489679
  0
LINE
  5
5B9
100
AcDbEntity
  8
M0
100
AcDbLine
 10
207.824717
 20
708.736994
 11
207.008311
 21
706.089777
  0
LINE
  5
5BA
100
AcDbEntity
  8
M0
100
AcDbLine
 10
207.824717
 20
700.842463
 11
207.008311
 21
703.489679
  0
LINE
  5
5BB
100
AcDbEntity
  8
M0
100
AcDbLine
 10
209.383311
 20
707.889582
 11
207.563242
 21
707.889582
  0
LINE
  5
5BC
100
AcDbEntity
  8
M0
100
AcDbLine
 10
208.46168
 20
706.689631
 11
207.193369
 21
706.689631
  0
LINE
  5
5BD
100
AcDbEntity
  8
M0
100
AcDbLine
 10
208.46168
 20
702.889582
 11
207.193369
 21
702.889582
  0
LINE
  5
5BE
100
AcDbEntity
  8
M0
100
AcDbLine
 10
212.18336
 20
707.889582
 11
214.003428
 21
707.889582
  0
LINE
  5
5BF
100
AcDbEntity
  8
M0
100
AcDbLine
 10
213.10499
 20
706.689631
 11
214.373301
 21
706.689631
  0
LINE
  5
5C0
100
AcDbEntity
  8
M0
100
AcDbLine
 10
213.10499
 20
702.889582
 11
214.373301
 21
702.889582
  0
LINE
  5
5C1
100
AcDbEntity
  8
M0
100
AcDbLine
 10
207.008311
 20
703.489679
 11
207.008311
 21
706.089777
  0
LINE
  5
5C2
100
AcDbEntity
  8
M0
100
AcDbLine
 10
208.3025
 20
709.089777
 11
213.26417
 21
709.089533
  0
LINE
  5
5C3
100
AcDbEntity
  8
M0
100
AcDbLine
 10
214.55836
 20
706.089777
 11
214.55836
 21
703.489679
  0
LINE
  5
5C4
100
AcDbEntity
  8
M0
100
AcDbLine
 10
209.383311
 20
707.443049
 11
209.383311
 21
707.889582
  0
LINE
  5
5C5
100
AcDbEntity
  8
M0
100
AcDbLine
 10
212.18336
 20
707.443049
 11
212.18336
 21
707.889582
  0
LINE
  5
5C6
100
AcDbEntity
  8
M0
100
AcDbLine
 10
209.192637
 20
703.198908
 11
212.374278
 21
706.380549
  0
LINE
  5
5C7
100
AcDbEntity
  8
M0
100
AcDbLine
 10
210.429942
 20
706.203791
 11
212.19752
 21
704.436213
  0
LINE
  5
5C8
100
AcDbEntity
  8
M0
100
AcDbLine
 10
209.369395
 20
705.143244
 11
211.136973
 21
703.375666
  0
ARC
  5
5C9
100
AcDbEntity
  8
M0
100
AcDbCircle
 10
213.26417
 20
708.589533
 40
0.5
100
AcDbArc
 50
17.143222
 51
89.998251
  0
ARC
  5
5CA
100
AcDbEntity
  8
M0
100
AcDbCircle
 10
208.3025
 20
708.589533
 40
0.5
100
AcDbArc
 50
89.998251
 51
162.848548
  0
LINE
  5
5CB
100
AcDbEntity
  8
M0
  6
DASHDOT
100
AcDbLine
 10
210.783213
 20
688.452173
 11
210.783839
 21
701.181696
  0
LINE
  5
5CC
100
AcDbEntity
  8
M0
100
AcDbLine
 10
209.383311
 20
692.189631
 11
207.563242
 21
692.189631
  0
LINE
  5
5CD
100
AcDbEntity
  8
M0
100
AcDbLine
 10
212.18336
 20
692.189631
 11
214.003428
 21
692.189631
  0
LINE
  5
5CE
100
AcDbEntity
  8
M0
100
AcDbLine
 10
213.26417
 20
690.989679
 11
208.3025
 21
690.989679
  0
LINE
  5
5CF
100
AcDbEntity
  8
M0
100
AcDbLine
 10
209.383311
 20
692.189631
 11
209.383311
 21
692.636408
  0
LINE
  5
5D0
100
AcDbEntity
  8
M0
100
AcDbLine
 10
212.18336
 20
692.189631
 11
212.18336
 21
692.636408
  0
ARC
  5
5D1
100
AcDbEntity
  8
M0
100
AcDbCircle
 10
213.26417
 20
691.489679
 40
0.5
100
AcDbArc
 50
270.0
 51
342.88223
  0
ARC
  5
5D2
100
AcDbEntity
  8
M0
100
AcDbCircle
 10
208.3025
 20
691.489679
 40
0.5
100
AcDbArc
 50
197.125483
 51
270.0
  0
LINE
  5
5D3
100
AcDbEntity
  8
M0
  6
DASHDOT
 62
     6
100
AcDbLine
 10
217.10705
 20
695.289728
 11
204.671259
 21
695.289728
  0
CIRCLE
  5
5D4
100
AcDbEntity
  8
M0
100
AcDbCircle
 10
210.783213
 20
695.289728
 40
3.0
  0
LINE
  5
5D5
100
AcDbEntity
  8
M0
100
AcDbLine
 10
213.742198
 20
699.236994
 11
214.55836
 21
696.589777
  0
LINE
  5
5D6
100
AcDbEntity
  8
M0
100
AcDbLine
 10
213.742198
 20
691.342463
 11
214.55836
 21
693.989679
  0
LINE
  5
5D7
100
AcDbEntity
  8
M0
100
AcDbLine
 10
207.824717
 20
699.236994
 11
207.008311
 21
696.589777
  0
LINE
  5
5D8
100
AcDbEntity
  8
M0
100
AcDbLine
 10
207.824717
 20
691.342463
 11
207.008311
 21
693.989679
  0
LINE
  5
5D9
100
AcDbEntity
  8
M0
100
AcDbLine
 10
209.383311
 20
698.389582
 11
207.563242
 21
698.389582
  0
LINE
  5
5DA
100
AcDbEntity
  8
M0
100
AcDbLine
 10
208.46168
 20
697.189631
 11
207.193369
 21
697.189631
  0
LINE
  5
5DB
100
AcDbEntity
  8
M0
100
AcDbLine
 10
208.46168
 20
693.389582
 11
207.193369
 21
693.389582
  0
LINE
  5
5DC
100
AcDbEntity
  8
M0
100
AcDbLine
 10
212.18336
 20
698.389582
 11
214.003428
 21
698.389582
  0
LINE
  5
5DD
100
AcDbEntity
  8
M0
100
AcDbLine
 10
213.10499
 20
697.189631
 11
214.373301
 21
697.189631
  0
LINE
  5
5DE
100
AcDbEntity
  8
M0
100
AcDbLine
 10
213.10499
 20
693.389582
 11
214.373301
 21
693.389582
  0
LINE
  5
5DF
100
AcDbEntity
  8
M0
100
AcDbLine
 10
207.008311
 20
693.989679
 11
207.008311
 21
696.589777
  0
LINE
  5
5E0
100
AcDbEntity
  8
M0
100
AcDbLine
 10
208.3025
 20
699.589777
 11
213.26417
 21
699.589533
  0
LINE
  5
5E1
100
AcDbEntity
  8
M0
100
AcDbLine
 10
214.55836
 20
696.589777
 11
214.55836
 21
693.989679
  0
LINE
  5
5E2
100
AcDbEntity
  8
M0
100
AcDbLine
 10
209.383311
 20
697.943049
 11
209.383311
 21
698.389582
  0
LINE
  5
5E3
100
AcDbEntity
  8
M0
100
AcDbLine
 10
212.18336
 20
697.943049
 11
212.18336
 21
698.389582
  0
LINE
  5
5E4
100
AcDbEntity
  8
M0
100
AcDbLine
 10
209.192637
 20
693.698908
 11
212.374278
 21
696.880549
  0
LINE
  5
5E5
100
AcDbEntity
  8
M0
100
AcDbLine
 10
210.429942
 20
696.703791
 11
212.19752
 21
694.936213
  0
LINE
  5
5E6
100
AcDbEntity
  8
M0
100
AcDbLine
 10
209.369395
 20
695.643244
 11
211.136973
 21
693.875666
  0
ARC
  5
5E7
100
AcDbEntity
  8
M0
100
AcDbCircle
 10
213.26417
 20
699.089533
 40
0.5
100
AcDbArc
 50
17.143222
 51
89.998251
  0
ARC
  5
5E8
100
AcDbEntity
  8
M0
100
AcDbCircle
 10
208.3025
 20
699.089533
 40
0.5
100
AcDbArc
 50
89.998251
 51
162.848548
  0
LINE
  5
5E9
100
AcDbEntity
  8
M0
  6
DASHDOT
 62
     6
100
AcDbLine
 10
217.107295
 20
673.289728
 11
204.671504
 21
673.289728
  0
LINE
  5
5EA
100
AcDbEntity
  8
M0
100
AcDbLine
 10
151.782801
 20
664.28982
 11
151.782801
 21
665.78982
  0
LINE
  5
5EB
100
AcDbEntity
  8
M0
  6
DASHED
100
AcDbLine
 10
153.282969
 20
826.289743
 11
153.282969
 21
764.789255
  0
LINE
  5
5EC
100
AcDbEntity
  8
M0
  6
DASHED
100
AcDbLine
 10
184.282969
 20
826.289743
 11
184.282969
 21
764.789011
  0
LINE
  5
5ED
100
AcDbEntity
  8
M0
  6
DASHED
100
AcDbLine
 10
185.782969
 20
826.289743
 11
185.782969
 21
764.789011
  0
LINE
  5
5EE
100
AcDbEntity
  8
M0
  6
DASHED
100
AcDbLine
 10
151.782969
 20
826.289743
 11
151.782969
 21
764.789255
  0
LINE
  5
5EF
100
AcDbEntity
  8
M0
  6
DASHED
100
AcDbLine
 10
185.782969
 20
826.289743
 11
184.282969
 21
826.289743
  0
LINE
  5
5F0
100
AcDbEntity
  8
M0
  6
DASHED
100
AcDbLine
 10
185.782877
 20
604.289789
 11
184.282877
 21
604.289789
  0
LINE
  5
5F1
100
AcDbEntity
  8
M0
  6
DASHED
100
AcDbLine
 10
153.282877
 20
604.28982
 11
151.782877
 21
604.28982
  0
LINE
  5
5F2
100
AcDbEntity
  8
M0
  6
DASHED
100
AcDbLine
 10
153.282969
 20
826.289743
 11
151.782969
 21
826.289743
  0
LINE
  5
5F3
100
AcDbEntity
  8
M0
  6
DASHED
100
AcDbLine
 10
185.782908
 20
665.789789
 11
185.782877
 21
604.289789
  0
LINE
  5
5F4
100
AcDbEntity
  8
M0
  6
DASHED
100
AcDbLine
 10
184.282908
 20
665.789789
 11
184.282877
 21
604.289789
  0
LINE
  5
5F5
100
AcDbEntity
  8
M0
  6
DASHED
100
AcDbLine
 10
153.282908
 20
665.78982
 11
153.282877
 21
604.28982
  0
LINE
  5
5F6
100
AcDbEntity
  8
M0
  6
DASHED
100
AcDbLine
 10
151.782908
 20
665.78982
 11
151.782877
 21
604.28982
  0
LINE
  5
5F7
100
AcDbEntity
  8
M0
100
AcDbLine
 10
211.783125
 20
647.289831
 11
191.783125
 21
647.289856
  0
LINE
  5
5F8
100
AcDbEntity
  8
M0
100
AcDbLine
 10
188.689385
 20
665.789885
 11
191.783151
 21
661.289856
  0
LINE
  5
5F9
100
AcDbEntity
  8
M0
100
AcDbLine
 10
211.783151
 20
661.289831
 11
211.783125
 21
647.289831
  0
LINE
  5
5FA
100
AcDbEntity
  8
M0
100
AcDbLine
 10
191.783125
 20
647.289856
 11
191.783151
 21
661.289856
  0
LINE
  5
5FB
100
AcDbEntity
  8
M0
100
AcDbLine
 10
204.283317
 20
668.013813
 11
211.783151
 21
661.289831
  0
LINE
  5
5FC
100
AcDbEntity
  8
M0
  6
DASHDOT
100
AcDbLine
 10
201.783149
 20
668.289828
 11
201.783127
 21
642.289828
  0
LINE
  5
5FD
100
AcDbEntity
  8
M0
  6
DASHDOT
100
AcDbLine
 10
214.783123
 20
655.289832
 11
188.783123
 21
655.289855
  0
LINE
  5
5FE
100
AcDbEntity
  8
M0
  6
DASHDOT
100
AcDbLine
 10
191.783174
 20
685.289856
 11
191.783151
 21
661.289856
  0
LINE
  5
5FF
100
AcDbEntity
  8
M0
  6
DASHDOT
100
AcDbLine
 10
203.783148
 20
673.289829
 11
179.783148
 21
673.289852
  0
ARC
  5
600
100
AcDbEntity
  8
M0
100
AcDbCircle
 10
191.783148
 20
673.289856
 40
2.0
100
AcDbArc
 50
228.572419
 51
311.427945
  0
LINE
  5
601
100
AcDbEntity
  8
M0
100
AcDbLine
 10
158.782915
 20
647.28971
 11
178.782915
 21
647.289729
  0
LINE
  5
602
100
AcDbEntity
  8
M0
100
AcDbLine
 10
174.61853
 20
664.991385
 11
178.782902
 21
661.289729
  0
ARC
  5
603
100
AcDbEntity
  8
M0
100
AcDbCircle
 10
175.282897
 20
665.738792
 40
1.0
100
AcDbArc
 50
180.000054
 51
228.366224
  0
ARC
  5
604
100
AcDbEntity
  8
M0
100
AcDbCircle
 10
162.282897
 20
665.738779
 40
1.0
100
AcDbArc
 50
311.633303
 51
359.99918
  0
LINE
  5
605
100
AcDbEntity
  8
M0
100
AcDbLine
 10
178.782915
 20
647.289729
 11
178.782902
 21
661.289729
  0
LINE
  5
606
100
AcDbEntity
  8
M0
100
AcDbLine
 10
162.947266
 20
664.991374
 11
158.782902
 21
661.28971
  0
LINE
  5
607
100
AcDbEntity
  8
M0
100
AcDbLine
 10
158.782902
 20
661.28971
 11
158.782915
 21
647.28971
  0
LINE
  5
608
100
AcDbEntity
  8
M0
100
AcDbLine
 10
174.282897
 20
665.789724
 11
174.282897
 21
665.738791
  0
LINE
  5
609
100
AcDbEntity
  8
M0
  6
DASHDOT
100
AcDbLine
 10
155.782907
 20
655.289707
 11
181.782907
 21
655.289731
  0
ARC
  5
60A
100
AcDbEntity
  8
M0
100
AcDbCircle
 10
168.78289
 20
673.289719
 40
2.0
100
AcDbArc
 50
228.573689
 51
311.426747
  0
LINE
  5
60B
100
AcDbEntity
  8
M0
100
AcDbLine
 10
125.783407
 20
647.290194
 11
145.783407
 21
647.290213
  0
LINE
  5
60C
100
AcDbEntity
  8
M0
100
AcDbLine
 10
149.78319
 20
667.108118
 11
145.783394
 21
661.290213
  0
LINE
  5
60D
100
AcDbEntity
  8
M0
100
AcDbLine
 10
125.783394
 20
661.290194
 11
125.783407
 21
647.290194
  0
LINE
  5
60E
100
AcDbEntity
  8
M0
100
AcDbLine
 10
145.783407
 20
647.290213
 11
145.783394
 21
661.290213
  0
LINE
  5
60F
100
AcDbEntity
  8
M0
100
AcDbLine
 10
133.28322
 20
668.014185
 11
125.783394
 21
661.290194
  0
LINE
  5
610
100
AcDbEntity
  8
M0
  6
DASHDOT
100
AcDbLine
 10
135.783388
 20
668.290203
 11
135.783412
 21
642.290203
  0
LINE
  5
611
100
AcDbEntity
  8
M0
  6
DASHDOT
100
AcDbLine
 10
122.7834
 20
655.290191
 11
148.7834
 21
655.290216
  0
LINE
  5
612
100
AcDbEntity
  8
M0
  6
DASHDOT
100
AcDbLine
 10
145.783372
 20
685.290213
 11
145.783394
 21
661.290213
  0
LINE
  5
613
100
AcDbEntity
  8
M0
  6
DASHDOT
100
AcDbLine
 10
133.783383
 20
673.290201
 11
157.783383
 21
673.290224
  0
ARC
  5
614
100
AcDbEntity
  8
M0
100
AcDbCircle
 10
145.783383
 20
673.290213
 40
2.0
100
AcDbArc
 50
228.573689
 51
311.426747
  0
LINE
  5
615
100
AcDbEntity
  8
M0
 62
     6
100
AcDbLine
 10
201.784088
 20
782.795588
 11
195.282637
 21
779.042997
  0
LINE
  5
616
100
AcDbEntity
  8
M0
 62
     6
100
AcDbLine
 10
195.282637
 20
779.042997
 11
195.282631
 21
771.537354
  0
LINE
  5
617
100
AcDbEntity
  8
M0
 62
     6
100
AcDbLine
 10
195.282631
 20
771.537354
 11
201.784078
 21
767.784603
  0
LINE
  5
618
100
AcDbEntity
  8
M0
 62
     6
100
AcDbLine
 10
201.784078
 20
767.784603
 11
208.283103
 21
771.537344
  0
LINE
  5
619
100
AcDbEntity
  8
M0
 62
     6
100
AcDbLine
 10
208.283103
 20
771.537344
 11
208.283108
 21
779.042988
  0
LINE
  5
61A
100
AcDbEntity
  8
M0
 62
     6
100
AcDbLine
 10
208.283108
 20
779.042988
 11
201.784088
 21
782.795588
  0
CIRCLE
  5
61B
100
AcDbEntity
  8
M0
 62
     6
100
AcDbCircle
 10
201.784083
 20
775.290247
 40
4.0
  0
LINE
  5
61C
100
AcDbEntity
  8
M0
  6
DASHDOT
 62
     6
100
AcDbLine
 10
191.631756
 20
775.290253
 11
211.936411
 21
775.290241
  0
LINE
  5
61D
100
AcDbEntity
  8
M0
  6
DASHDOT
 62
     6
100
AcDbLine
 10
201.784105
 20
785.442574
 11
201.784077
 21
765.13792
  0
LINE
  5
61E
100
AcDbEntity
  8
M0
 62
     6
100
AcDbLine
 10
168.783843
 20
782.795588
 11
162.282393
 21
779.042997
  0
LINE
  5
61F
100
AcDbEntity
  8
M0
 62
     6
100
AcDbLine
 10
162.282393
 20
779.042997
 11
162.282387
 21
771.537354
  0
LINE
  5
620
100
AcDbEntity
  8
M0
 62
     6
100
AcDbLine
 10
162.282387
 20
771.537354
 11
168.783834
 21
767.784603
  0
LINE
  5
621
100
AcDbEntity
  8
M0
 62
     6
100
AcDbLine
 10
168.783834
 20
767.784603
 11
175.282858
 21
771.537344
  0
LINE
  5
622
100
AcDbEntity
  8
M0
 62
     6
100
AcDbLine
 10
175.282858
 20
771.537344
 11
175.282864
 21
779.042988
  0
LINE
  5
623
100
AcDbEntity
  8
M0
 62
     6
100
AcDbLine
 10
175.282864
 20
779.042988
 11
168.783843
 21
782.795588
  0
CIRCLE
  5
624
100
AcDbEntity
  8
M0
 62
     6
100
AcDbCircle
 10
168.783839
 20
775.290247
 40
4.0
  0
LINE
  5
625
100
AcDbEntity
  8
M0
  6
DASHDOT
 62
     6
100
AcDbLine
 10
158.631512
 20
775.290253
 11
178.936167
 21
775.290241
  0
LINE
  5
626
100
AcDbEntity
  8
M0
  6
DASHDOT
 62
     6
100
AcDbLine
 10
168.78386
 20
785.442574
 11
168.783832
 21
765.13792
  0
LINE
  5
627
100
AcDbEntity
  8
M0
 62
     6
100
AcDbLine
 10
135.784057
 20
782.795588
 11
129.282607
 21
779.042997
  0
LINE
  5
628
100
AcDbEntity
  8
M0
 62
     6
100
AcDbLine
 10
129.282607
 20
779.042997
 11
129.282601
 21
771.537354
  0
LINE
  5
629
100
AcDbEntity
  8
M0
 62
     6
100
AcDbLine
 10
129.282601
 20
771.537354
 11
135.784048
 21
767.784603
  0
LINE
  5
62A
100
AcDbEntity
  8
M0
 62
     6
100
AcDbLine
 10
135.784048
 20
767.784603
 11
142.283072
 21
771.537344
  0
LINE
  5
62B
100
AcDbEntity
  8
M0
 62
     6
100
AcDbLine
 10
142.283072
 20
771.537344
 11
142.283078
 21
779.042988
  0
LINE
  5
62C
100
AcDbEntity
  8
M0
 62
     6
100
AcDbLine
 10
142.283078
 20
779.042988
 11
135.784057
 21
782.795588
  0
CIRCLE
  5
62D
100
AcDbEntity
  8
M0
 62
     6
100
AcDbCircle
 10
135.784052
 20
775.290247
 40
4.0
  0
LINE
  5
62E
100
AcDbEntity
  8
M0
  6
DASHDOT
 62
     6
100
AcDbLine
 10
125.631726
 20
775.290253
 11
145.936381
 21
775.290241
  0
LINE
  5
62F
100
AcDbEntity
  8
M0
  6
DASHDOT
 62
     6
100
AcDbLine
 10
135.784074
 20
785.442574
 11
135.784046
 21
765.13792
  0
LINE
  5
630
100
AcDbEntity
  8
M0
 62
     6
100
AcDbLine
 10
201.784088
 20
662.795588
 11
195.282637
 21
659.042997
  0
LINE
  5
631
100
AcDbEntity
  8
M0
 62
     6
100
AcDbLine
 10
195.282637
 20
659.042997
 11
195.282631
 21
651.537354
  0
LINE
  5
632
100
AcDbEntity
  8
M0
 62
     6
100
AcDbLine
 10
195.282631
 20
651.537354
 11
201.784078
 21
647.784603
  0
LINE
  5
633
100
AcDbEntity
  8
M0
 62
     6
100
AcDbLine
 10
201.784078
 20
647.784603
 11
208.283103
 21
651.537344
  0
LINE
  5
634
100
AcDbEntity
  8
M0
 62
     6
100
AcDbLine
 10
208.283103
 20
651.537344
 11
208.283108
 21
659.042988
  0
LINE
  5
635
100
AcDbEntity
  8
M0
 62
     6
100
AcDbLine
 10
208.283108
 20
659.042988
 11
201.784088
 21
662.795588
  0
CIRCLE
  5
636
100
AcDbEntity
  8
M0
 62
     6
100
AcDbCircle
 10
201.784083
 20
655.290247
 40
4.0
  0
LINE
  5
637
100
AcDbEntity
  8
M0
  6
DASHDOT
 62
     6
100
AcDbLine
 10
191.631756
 20
655.290253
 11
211.936411
 21
655.290241
  0
LINE
  5
638
100
AcDbEntity
  8
M0
  6
DASHDOT
 62
     6
100
AcDbLine
 10
201.784105
 20
665.442574
 11
201.784077
 21
645.13792
  0
LINE
  5
639
100
AcDbEntity
  8
M0
 62
     6
100
AcDbLine
 10
168.783843
 20
662.795588
 11
162.282393
 21
659.042997
  0
LINE
  5
63A
100
AcDbEntity
  8
M0
 62
     6
100
AcDbLine
 10
162.282393
 20
659.042997
 11
162.282387
 21
651.537354
  0
LINE
  5
63B
100
AcDbEntity
  8
M0
 62
     6
100
AcDbLine
 10
162.282387
 20
651.537354
 11
168.783834
 21
647.784603
  0
LINE
  5
63C
100
AcDbEntity
  8
M0
 62
     6
100
AcDbLine
 10
168.783834
 20
647.784603
 11
175.282858
 21
651.537344
  0
LINE
  5
63D
100
AcDbEntity
  8
M0
 62
     6
100
AcDbLine
 10
175.282858
 20
651.537344
 11
175.282864
 21
659.042988
  0
LINE
  5
63E
100
AcDbEntity
  8
M0
 62
     6
100
AcDbLine
 10
175.282864
 20
659.042988
 11
168.783843
 21
662.795588
  0
CIRCLE
  5
63F
100
AcDbEntity
  8
M0
 62
     6
100
AcDbCircle
 10
168.783839
 20
655.290247
 40
4.0
  0
LINE
  5
640
100
AcDbEntity
  8
M0
  6
DASHDOT
 62
     6
100
AcDbLine
 10
158.631512
 20
655.290253
 11
178.936167
 21
655.290241
  0
LINE
  5
641
100
AcDbEntity
  8
M0
  6
DASHDOT
 62
     6
100
AcDbLine
 10
168.78386
 20
665.442574
 11
168.783832
 21
645.13792
  0
LINE
  5
642
100
AcDbEntity
  8
M0
 62
     6
100
AcDbLine
 10
135.784057
 20
662.795588
 11
129.282607
 21
659.042997
  0
LINE
  5
643
100
AcDbEntity
  8
M0
 62
     6
100
AcDbLine
 10
129.282607
 20
659.042997
 11
129.282601
 21
651.537354
  0
LINE
  5
644
100
AcDbEntity
  8
M0
 62
     6
100
AcDbLine
 10
129.282601
 20
651.537354
 11
135.784048
 21
647.784603
  0
LINE
  5
645
100
AcDbEntity
  8
M0
 62
     6
100
AcDbLine
 10
135.784048
 20
647.784603
 11
142.283072
 21
651.537344
  0
LINE
  5
646
100
AcDbEntity
  8
M0
 62
     6
100
AcDbLine
 10
142.283072
 20
651.537344
 11
142.283078
 21
659.042988
  0
LINE
  5
647
100
AcDbEntity
  8
M0
 62
     6
100
AcDbLine
 10
142.283078
 20
659.042988
 11
135.784057
 21
662.795588
  0
CIRCLE
  5
648
100
AcDbEntity
  8
M0
 62
     6
100
AcDbCircle
 10
135.784052
 20
655.290247
 40
4.0
  0
LINE
  5
649
100
AcDbEntity
  8
M0
  6
DASHDOT
 62
     6
100
AcDbLine
 10
125.631726
 20
655.290253
 11
145.936381
 21
655.290241
  0
LINE
  5
64A
100
AcDbEntity
  8
M0
  6
DASHDOT
 62
     6
100
AcDbLine
 10
135.784074
 20
665.442574
 11
135.784046
 21
645.13792
  0
LINE
  5
64B
100
AcDbEntity
  8
M0
 62
     7
100
AcDbLine
 10
134.534235
 20
665.789255
 11
174.534129
 21
665.789255
  0
LINE
  5
64C
100
AcDbEntity
  8
M0
 62
     7
100
AcDbLine
 10
219.03419
 20
678.28924
 11
219.03419
 21
752.289255
  0
LINE
  5
64D
100
AcDbEntity
  8
M0
 62
     7
100
AcDbLine
 10
203.53419
 20
764.789011
 11
174.534022
 21
764.788828
  0
LINE
  5
64E
100
AcDbEntity
  8
M0
 62
     7
100
AcDbLine
 10
119.03419
 20
752.288523
 11
119.03419
 21
678.28924
  0
LINE
  5
64F
100
AcDbEntity
  8
M0
  6
DASHDOT
 62
     7
100
AcDbLine
 10
112.202982
 20
715.289255
 11
169.03419
 21
715.289255
  0
LINE
  5
650
100
AcDbEntity
  8
M0
 62
     7
100
AcDbLine
 10
204.53419
 20
758.521479
 11
204.53419
 21
763.788767
  0
ARC
  5
651
100
AcDbEntity
  8
M0
 62
     7
100
AcDbCircle
 10
203.53419
 20
763.788767
 40
1.0
100
AcDbArc
 50
0.0
 51
90.0
  0
LINE
  5
652
100
AcDbEntity
  8
M0
 62
     7
100
AcDbLine
 10
205.53419
 20
752.789255
 11
218.53419
 21
752.789255
  0
LINE
  5
653
100
AcDbEntity
  8
M0
 62
     7
100
AcDbLine
 10
162.03419
 20
767.288767
 11
153.03419
 21
767.288767
  0
LINE
  5
654
100
AcDbEntity
  8
M0
 62
     7
100
AcDbLine
 10
151.53419
 20
764.788767
 11
134.534251
 21
764.788767
  0
ARC
  5
655
100
AcDbEntity
  8
M0
 62
     7
100
AcDbCircle
 10
162.03419
 20
766.288523
 40
1.0
100
AcDbArc
 50
0.0
 51
90.0
  0
ARC
  5
656
100
AcDbEntity
  8
M0
 62
     7
100
AcDbCircle
 10
153.03419
 20
766.288523
 40
1.0
100
AcDbArc
 50
90.0
 51
180.013988
  0
LINE
  5
657
100
AcDbEntity
  8
M0
 62
     7
100
AcDbLine
 10
205.534144
 20
677.789255
 11
218.53419
 21
677.789255
  0
LINE
  5
658
100
AcDbEntity
  8
M0
 62
     7
100
AcDbLine
 10
204.534144
 20
672.05755
 11
204.534144
 21
666.789743
  0
ARC
  5
659
100
AcDbEntity
  8
M0
 62
     7
100
AcDbCircle
 10
203.534144
 20
666.789743
 40
1.0
100
AcDbArc
 50
-90.000874
 51
0.0
  0
ARC
  5
65A
100
AcDbEntity
  8
M0
 62
     7
100
AcDbCircle
 10
134.534251
 20
763.788767
 40
1.0
100
AcDbArc
 50
90.0
 51
180.0
  0
ARC
  5
65B
100
AcDbEntity
  8
M0
 62
     7
100
AcDbCircle
 10
134.534235
 20
666.789759
 40
1.0
100
AcDbArc
 50
180.0
 51
269.999126
  0
LINE
  5
65C
100
AcDbEntity
  8
M0
 62
     7
100
AcDbLine
 10
133.534235
 20
758.521479
 11
133.534251
 21
763.788767
  0
LINE
  5
65D
100
AcDbEntity
  8
M0
 62
     7
100
AcDbLine
 10
175.53419
 20
759.289255
 11
180.784373
 21
759.289255
  0
ARC
  5
65E
100
AcDbEntity
  8
M0
 62
     7
100
AcDbCircle
 10
180.784373
 20
757.789255
 40
1.5
100
AcDbArc
 50
41.81873
 51
90.0
  0
LINE
  5
65F
100
AcDbEntity
  8
M0
 62
     7
100
AcDbLine
 10
157.283991
 20
671.289255
 11
162.534129
 21
671.289255
  0
ARC
  5
660
100
AcDbEntity
  8
M0
 62
     7
100
AcDbCircle
 10
157.283991
 20
672.789255
 40
1.5
100
AcDbArc
 50
221.790314
 51
269.999417
  0
LINE
  5
661
100
AcDbEntity
  8
M0
 62
     7
100
AcDbLine
 10
176.784022
 20
663.289255
 11
185.034129
 21
663.289255
  0
LINE
  5
662
100
AcDbEntity
  8
M0
 62
     7
100
AcDbLine
 10
186.534129
 20
665.789255
 11
203.534144
 21
665.789255
  0
ARC
  5
663
100
AcDbEntity
  8
M0
 62
     7
100
AcDbCircle
 10
185.034129
 20
664.289255
 40
1.0
100
AcDbArc
 50
269.999126
 51
360.0
  0
LINE
  5
664
100
AcDbEntity
  8
M0
 62
     7
100
AcDbLine
 10
133.53422
 20
671.789652
 11
133.534235
 21
666.789759
  0
LINE
  5
665
100
AcDbEntity
  8
M0
 62
     7
100
AcDbLine
 10
132.53422
 20
752.788767
 11
119.53419
 21
752.788767
  0
LINE
  5
666
100
AcDbEntity
  8
M0
 62
     7
100
AcDbLine
 10
132.53422
 20
677.789255
 11
119.53419
 21
677.78924
  0
LINE
  5
667
100
AcDbEntity
  8
M0
 62
     7
100
AcDbLine
 10
215.53419
 20
742.789255
 11
219.03419
 21
742.789255
  0
LINE
  5
668
100
AcDbEntity
  8
M0
 62
     7
100
AcDbLine
 10
216.53419
 20
752.789255
 11
216.53419
 21
742.789255
  0
LINE
  5
669
100
AcDbEntity
  8
M0
 62
     7
100
AcDbLine
 10
216.53419
 20
750.289255
 11
219.03419
 21
750.289255
  0
ARC
  5
66A
100
AcDbEntity
  8
M0
 62
     7
100
AcDbCircle
 10
218.53419
 20
752.289255
 40
0.5
100
AcDbArc
 50
0.0
 51
90.0
  0
ARC
  5
66B
100
AcDbEntity
  8
M0
 62
     7
100
AcDbCircle
 10
119.53419
 20
752.288523
 40
0.5
100
AcDbArc
 50
90.0
 51
180.0
  0
ARC
  5
66C
100
AcDbEntity
  8
M0
 62
     7
100
AcDbCircle
 10
119.53419
 20
678.28924
 40
0.5
100
AcDbArc
 50
180.0
 51
269.998251
  0
ARC
  5
66D
100
AcDbEntity
  8
M0
 62
     7
100
AcDbCircle
 10
218.53419
 20
678.289255
 40
0.5
100
AcDbArc
 50
269.998251
 51
360.0
  0
LINE
  5
66E
100
AcDbEntity
  8
M0
 62
     7
100
AcDbLine
 10
119.53419
 20
697.789255
 11
122.53419
 21
697.789255
  0
LINE
  5
66F
100
AcDbEntity
  8
M0
 62
     7
100
AcDbLine
 10
123.03419
 20
700.789255
 11
124.091456
 21
700.789255
  0
LINE
  5
670
100
AcDbEntity
  8
M0
 62
     7
100
AcDbLine
 10
123.03419
 20
689.789255
 11
132.53422
 21
689.789255
  0
LINE
  5
671
100
AcDbEntity
  8
M0
 62
     7
100
AcDbLine
 10
119.53419
 20
687.789255
 11
122.53419
 21
687.789255
  0
LINE
  5
672
100
AcDbEntity
  8
M0
 62
     7
100
AcDbLine
 10
121.53419
 20
687.789255
 11
121.53419
 21
677.789255
  0
LINE
  5
673
100
AcDbEntity
  8
M0
 62
     7
100
AcDbLine
 10
119.03419
 20
680.289255
 11
121.53419
 21
680.289255
  0
LINE
  5
674
100
AcDbEntity
  8
M0
 62
     7
100
AcDbLine
 10
131.53419
 20
698.789255
 11
132.53422
 21
698.789255
  0
ARC
  5
675
100
AcDbEntity
  8
M0
 62
     7
100
AcDbCircle
 10
122.53419
 20
688.289255
 40
0.5
100
AcDbArc
 50
269.998251
 51
360.0
  0
ARC
  5
676
100
AcDbEntity
  8
M0
 62
     7
100
AcDbCircle
 10
119.53419
 20
688.289255
 40
0.5
100
AcDbArc
 50
180.0
 51
269.998251
  0
ARC
  5
677
100
AcDbEntity
  8
M0
 62
     7
100
AcDbCircle
 10
119.53419
 20
698.289255
 40
0.5
100
AcDbArc
 50
180.0
 51
269.998251
  0
ARC
  5
678
100
AcDbEntity
  8
M0
 62
     7
100
AcDbCircle
 10
122.53419
 20
698.289255
 40
0.5
100
AcDbArc
 50
269.998251
 51
360.0
  0
LINE
  5
679
100
AcDbEntity
  8
M0
 62
     7
100
AcDbLine
 10
119.53419
 20
732.789011
 11
122.53419
 21
732.789011
  0
ARC
  5
67A
100
AcDbEntity
  8
M0
 62
     7
100
AcDbCircle
 10
122.53419
 20
732.289011
 40
0.5
100
AcDbArc
 50
0.0
 51
90.0
  0
LINE
  5
67B
100
AcDbEntity
  8
M0
 62
     7
100
AcDbLine
 10
131.53419
 20
731.789011
 11
132.53422
 21
731.789011
  0
LINE
  5
67C
100
AcDbEntity
  8
M0
 62
     7
100
AcDbLine
 10
121.53419
 20
742.789011
 11
121.53419
 21
752.789011
  0
LINE
  5
67D
100
AcDbEntity
  8
M0
 62
     7
100
AcDbLine
 10
119.03419
 20
750.289011
 11
121.53419
 21
750.289011
  0
LINE
  5
67E
100
AcDbEntity
  8
M0
 62
     7
100
AcDbLine
 10
119.53419
 20
742.789011
 11
122.53419
 21
742.789011
  0
ARC
  5
67F
100
AcDbEntity
  8
M0
 62
     7
100
AcDbCircle
 10
122.53419
 20
742.289011
 40
0.5
100
AcDbArc
 50
0.0
 51
90.0
  0
LINE
  5
680
100
AcDbEntity
  8
M0
 62
     7
100
AcDbLine
 10
123.03419
 20
740.789011
 11
132.53422
 21
740.789011
  0
ARC
  5
681
100
AcDbEntity
  8
M0
 62
     7
100
AcDbCircle
 10
119.53419
 20
732.289011
 40
0.5
100
AcDbArc
 50
90.0
 51
180.0
  0
ARC
  5
682
100
AcDbEntity
  8
M0
 62
     7
100
AcDbCircle
 10
119.53419
 20
742.289011
 40
0.5
100
AcDbArc
 50
90.0
 51
180.0
  0
LINE
  5
683
100
AcDbEntity
  8
M0
 62
     7
100
AcDbLine
 10
215.03419
 20
700.789011
 11
213.976466
 21
700.789011
  0
LINE
  5
684
100
AcDbEntity
  8
M0
 62
     7
100
AcDbLine
 10
218.53419
 20
697.789011
 11
215.53419
 21
697.789011
  0
LINE
  5
685
100
AcDbEntity
  8
M0
 62
     7
100
AcDbLine
 10
206.53419
 20
698.789011
 11
205.53422
 21
698.789011
  0
ARC
  5
686
100
AcDbEntity
  8
M0
 62
     7
100
AcDbCircle
 10
215.53419
 20
698.289011
 40
0.5
100
AcDbArc
 50
180.0
 51
269.998251
  0
ARC
  5
687
100
AcDbEntity
  8
M0
 62
     7
100
AcDbCircle
 10
218.53419
 20
698.289011
 40
0.5
100
AcDbArc
 50
-90.001749
 51
0.0
  0
LINE
  5
688
100
AcDbEntity
  8
M0
 62
     7
100
AcDbLine
 10
215.03419
 20
689.789011
 11
205.53422
 21
689.789011
  0
ARC
  5
689
100
AcDbEntity
  8
M0
 62
     7
100
AcDbCircle
 10
215.53419
 20
688.289011
 40
0.5
100
AcDbArc
 50
180.0
 51
269.998251
  0
LINE
  5
68A
100
AcDbEntity
  8
M0
 62
     7
100
AcDbLine
 10
218.53419
 20
687.789011
 11
215.53419
 21
687.789011
  0
LINE
  5
68B
100
AcDbEntity
  8
M0
 62
     7
100
AcDbLine
 10
216.53419
 20
687.789011
 11
216.53419
 21
677.78924
  0
LINE
  5
68C
100
AcDbEntity
  8
M0
 62
     7
100
AcDbLine
 10
219.03419
 20
680.289225
 11
216.53419
 21
680.28924
  0
LINE
  5
68D
100
AcDbEntity
  8
M0
 62
     7
100
AcDbLine
 10
215.03419
 20
729.789255
 11
213.97642
 21
729.789255
  0
LINE
  5
68E
100
AcDbEntity
  8
M0
 62
     7
100
AcDbLine
 10
206.53419
 20
731.789255
 11
205.53422
 21
731.789255
  0
ARC
  5
68F
100
AcDbEntity
  8
M0
 62
     7
100
AcDbCircle
 10
215.53419
 20
732.289255
 40
0.5
100
AcDbArc
 50
90.0
 51
180.0
  0
LINE
  5
690
100
AcDbEntity
  8
M0
 62
     7
100
AcDbLine
 10
218.53419
 20
732.789255
 11
215.53419
 21
732.789255
  0
ARC
  5
691
100
AcDbEntity
  8
M0
 62
     7
100
AcDbCircle
 10
218.53419
 20
732.289255
 40
0.5
100
AcDbArc
 50
0.0
 51
90.0
  0
LINE
  5
692
100
AcDbEntity
  8
M0
 62
     7
100
AcDbLine
 10
215.03419
 20
740.789255
 11
205.53422
 21
740.789255
  0
ARC
  5
693
100
AcDbEntity
  8
M0
 62
     7
100
AcDbCircle
 10
215.53419
 20
742.289255
 40
0.5
100
AcDbArc
 50
90.0
 51
180.0
  0
ARC
  5
694
100
AcDbEntity
  8
M0
 62
     7
100
AcDbCircle
 10
218.53419
 20
688.289011
 40
0.5
100
AcDbArc
 50
-90.001749
 51
0.0
  0
LINE
  5
695
100
AcDbEntity
  8
M0
 62
     7
100
AcDbLine
 10
119.03419
 20
719.039255
 11
126.03419
 21
719.039255
  0
LINE
  5
696
100
AcDbEntity
  8
M0
 62
     7
100
AcDbLine
 10
119.03419
 20
711.539255
 11
126.03419
 21
711.539255
  0
LINE
  5
697
100
AcDbEntity
  8
M0
 62
     7
100
AcDbLine
 10
127.03419
 20
718.039255
 11
127.03419
 21
712.539255
  0
ARC
  5
698
100
AcDbEntity
  8
M0
 62
     7
100
AcDbCircle
 10
126.03419
 20
712.539255
 40
1.0
100
AcDbArc
 50
269.999126
 51
360.0
  0
ARC
  5
699
100
AcDbEntity
  8
M0
 62
     7
100
AcDbCircle
 10
126.03419
 20
718.039255
 40
1.0
100
AcDbArc
 50
0.0
 51
90.0
  0
LINE
  5
69A
100
AcDbEntity
  8
M0
 62
     7
100
AcDbLine
 10
123.03419
 20
719.039255
 11
123.03419
 21
718.039255
  0
LINE
  5
69B
100
AcDbEntity
  8
M0
 62
     7
100
AcDbLine
 10
119.03419
 20
718.039255
 11
123.03419
 21
718.039255
  0
LINE
  5
69C
100
AcDbEntity
  8
M0
 62
     7
100
AcDbLine
 10
119.03419
 20
712.539255
 11
123.03419
 21
712.539255
  0
LINE
  5
69D
100
AcDbEntity
  8
M0
 62
     7
100
AcDbLine
 10
123.03419
 20
712.539255
 11
123.03419
 21
711.539255
  0
LINE
  5
69E
100
AcDbEntity
  8
M0
 62
     7
100
AcDbLine
 10
219.03422
 20
719.039011
 11
212.03422
 21
719.039011
  0
LINE
  5
69F
100
AcDbEntity
  8
M0
 62
     7
100
AcDbLine
 10
219.03422
 20
718.039011
 11
215.03422
 21
718.039011
  0
LINE
  5
6A0
100
AcDbEntity
  8
M0
 62
     7
100
AcDbLine
 10
215.03422
 20
719.039011
 11
215.03422
 21
718.039011
  0
ARC
  5
6A1
100
AcDbEntity
  8
M0
 62
     7
100
AcDbCircle
 10
212.03422
 20
718.039011
 40
1.0
100
AcDbArc
 50
90.0
 51
180.0
  0
LINE
  5
6A2
100
AcDbEntity
  8
M0
 62
     7
100
AcDbLine
 10
211.03422
 20
718.039011
 11
211.03422
 21
712.539011
  0
ARC
  5
6A3
100
AcDbEntity
  8
M0
 62
     7
100
AcDbCircle
 10
212.03422
 20
712.539011
 40
1.0
100
AcDbArc
 50
180.0
 51
269.999126
  0
LINE
  5
6A4
100
AcDbEntity
  8
M0
 62
     7
100
AcDbLine
 10
219.03422
 20
711.539011
 11
212.03422
 21
711.539011
  0
LINE
  5
6A5
100
AcDbEntity
  8
M0
 62
     7
100
AcDbLine
 10
219.03422
 20
712.539011
 11
215.03422
 21
712.539011
  0
LINE
  5
6A6
100
AcDbEntity
  8
M0
 62
     7
100
AcDbLine
 10
215.03422
 20
712.539011
 11
215.03422
 21
711.539011
  0
LINE
  5
6A7
100
AcDbEntity
  8
M0
 62
     7
100
AcDbLine
 10
159.734126
 20
668.289255
 11
162.534129
 21
668.289255
  0
LINE
  5
6A8
100
AcDbEntity
  8
M0
 62
     7
100
AcDbLine
 10
159.234126
 20
667.789255
 11
159.234126
 21
665.789255
  0
LINE
  5
6A9
100
AcDbEntity
  8
M0
  6
DASHDOT
 62
     7
100
AcDbLine
 10
169.03419
 20
715.289255
 11
229.602625
 21
715.289255
  0
ARC
  5
6AA
100
AcDbEntity
  8
M0
 62
     7
100
AcDbCircle
 10
163.53419
 20
764.288767
 40
0.5
100
AcDbArc
 50
90.0
 51
180.0
  0
ARC
  5
6AB
100
AcDbEntity
  8
M0
 62
     7
100
AcDbCircle
 10
151.53419
 20
764.288523
 40
0.5
100
AcDbArc
 50
0.0
 51
90.0
  0
LINE
  5
6AC
100
AcDbEntity
  8
M0
 62
     7
100
AcDbLine
 10
178.834177
 20
764.788767
 11
178.834177
 21
762.789011
  0
LINE
  5
6AD
100
AcDbEntity
  8
M0
 62
     7
100
AcDbLine
 10
175.53419
 20
762.289011
 11
178.334177
 21
762.289011
  0
ARC
  5
6AE
100
AcDbEntity
  8
M0
 62
     7
100
AcDbCircle
 10
178.334177
 20
762.789011
 40
0.5
100
AcDbArc
 50
269.998251
 51
360.0
  0
ARC
  5
6AF
100
AcDbEntity
  8
M0
 62
     7
100
AcDbCircle
 10
175.53419
 20
761.789011
 40
0.5
100
AcDbArc
 50
90.0
 51
180.0
  0
ARC
  5
6B0
100
AcDbEntity
  8
M0
 62
     7
100
AcDbCircle
 10
175.53419
 20
759.789255
 40
0.5
100
AcDbArc
 50
180.0
 51
269.998251
  0
ARC
  5
6B1
100
AcDbEntity
  8
M0
 62
     7
100
AcDbCircle
 10
159.734126
 20
667.789255
 40
0.5
100
AcDbArc
 50
90.0
 51
180.0
  0
ARC
  5
6B2
100
AcDbEntity
  8
M0
 62
     7
100
AcDbCircle
 10
162.534129
 20
668.789255
 40
0.5
100
AcDbArc
 50
269.998251
 51
360.0
  0
ARC
  5
6B3
100
AcDbEntity
  8
M0
 62
     7
100
AcDbCircle
 10
162.534129
 20
670.789255
 40
0.5
100
AcDbArc
 50
0.0
 51
90.0
  0
LINE
  5
6B4
100
AcDbEntity
  8
M0
 62
     7
100
AcDbLine
 10
122.53419
 20
719.039255
 11
122.53419
 21
718.039255
  0
LINE
  5
6B5
100
AcDbEntity
  8
M0
 62
     7
100
AcDbLine
 10
122.53419
 20
712.539255
 11
122.53419
 21
711.539255
  0
LINE
  5
6B6
100
AcDbEntity
  8
M0
 62
     7
100
AcDbLine
 10
215.53422
 20
719.039011
 11
215.53422
 21
718.039011
  0
LINE
  5
6B7
100
AcDbEntity
  8
M0
 62
     7
100
AcDbLine
 10
215.53422
 20
712.539011
 11
215.53422
 21
711.539011
  0
LINE
  5
6B8
100
AcDbEntity
  8
M0
  6
DASHDOT
 62
     7
100
AcDbLine
 10
185.234187
 20
757.289255
 11
198.834177
 21
757.289255
  0
LINE
  5
6B9
100
AcDbEntity
  8
M0
  6
DASHDOT
 62
     7
100
AcDbLine
 10
185.234141
 20
673.289255
 11
198.834132
 21
673.289255
  0
LINE
  5
6BA
100
AcDbEntity
  8
M0
  6
DASHDOT
 62
     7
100
AcDbLine
 10
152.834223
 20
757.289255
 11
139.234232
 21
757.289255
  0
LINE
  5
6BB
100
AcDbEntity
  8
M0
  6
DASHDOT
 62
     7
100
AcDbLine
 10
152.834177
 20
673.289255
 11
139.234187
 21
673.289255
  0
LINE
  5
6BC
100
AcDbEntity
  8
M0
  6
DASHDOT
 62
     7
100
AcDbLine
 10
162.234004
 20
757.289011
 11
175.833994
 21
757.289011
  0
LINE
  5
6BD
100
AcDbEntity
  8
M0
  6
DASHDOT
 62
     7
100
AcDbLine
 10
162.233958
 20
673.289499
 11
175.833949
 21
673.289499
  0
LINE
  5
6BE
100
AcDbEntity
  8
M0
 62
     7
100
AcDbLine
 10
163.034083
 20
766.302927
 11
163.034083
 21
764.789011
  0
LINE
  5
6BF
100
AcDbEntity
  8
M0
 62
     7
100
AcDbLine
 10
152.034083
 20
766.288523
 11
152.034083
 21
764.789011
  0
LINE
  5
6C0
100
AcDbEntity
  8
M0
  6
DASHDOT
 62
     7
100
AcDbLine
 10
120.03419
 20
695.289255
 11
134.03419
 21
695.289255
  0
LINE
  5
6C1
100
AcDbEntity
  8
M0
  6
DASHDOT
 62
     7
100
AcDbLine
 10
127.03419
 20
688.289255
 11
127.03419
 21
702.289255
  0
LINE
  5
6C2
100
AcDbEntity
  8
M0
 62
     7
100
AcDbLine
 10
131.03419
 20
708.789255
 11
131.03419
 21
689.789255
  0
LINE
  5
6C3
100
AcDbEntity
  8
M0
 62
     7
100
AcDbLine
 10
123.03419
 20
708.789255
 11
123.03419
 21
688.289255
  0
ARC
  5
6C4
100
AcDbEntity
  8
M0
 62
     7
100
AcDbCircle
 10
130.03419
 20
708.789255
 40
1.0
100
AcDbArc
 50
0.0
 51
90.0
  0
ARC
  5
6C5
100
AcDbEntity
  8
M0
 62
     7
100
AcDbCircle
 10
131.53419
 20
699.289255
 40
0.5
100
AcDbArc
 50
180.0
 51
269.998251
  0
ARC
  5
6C6
100
AcDbEntity
  8
M0
 62
     7
100
AcDbCircle
 10
130.03419
 20
721.789011
 40
1.0
100
AcDbArc
 50
-90.000874
 51
0.0
  0
LINE
  5
6C7
100
AcDbEntity
  8
M0
 62
     7
100
AcDbLine
 10
123.03419
 20
721.789011
 11
123.03419
 21
742.289011
  0
LINE
  5
6C8
100
AcDbEntity
  8
M0
 62
     7
100
AcDbLine
 10
131.03419
 20
721.789011
 11
131.03419
 21
740.789011
  0
LINE
  5
6C9
100
AcDbEntity
  8
M0
  6
DASHDOT
 62
     7
100
AcDbLine
 10
120.03419
 20
735.289011
 11
134.03419
 21
735.289011
  0
ARC
  5
6CA
100
AcDbEntity
  8
M0
 62
     7
100
AcDbCircle
 10
131.53419
 20
731.289011
 40
0.5
100
AcDbArc
 50
90.0
 51
180.0
  0
ARC
  5
6CB
100
AcDbEntity
  8
M0
 62
     7
100
AcDbCircle
 10
208.03419
 20
708.789011
 40
1.0
100
AcDbArc
 50
90.0
 51
180.0
  0
LINE
  5
6CC
100
AcDbEntity
  8
M0
  6
DASHDOT
 62
     7
100
AcDbLine
 10
127.03419
 20
742.289011
 11
127.03419
 21
728.289011
  0
LINE
  5
6CD
100
AcDbEntity
  8
M0
 62
     7
100
AcDbLine
 10
215.03419
 20
708.789011
 11
215.03419
 21
688.289011
  0
LINE
  5
6CE
100
AcDbEntity
  8
M0
 62
     7
100
AcDbLine
 10
207.03419
 20
708.789011
 11
207.03419
 21
689.789011
  0
ARC
  5
6CF
100
AcDbEntity
  8
M0
 62
     7
100
AcDbCircle
 10
206.53419
 20
699.289011
 40
0.5
100
AcDbArc
 50
-90.001749
 51
0.0
  0
ARC
  5
6D0
100
AcDbEntity
  8
M0
 62
     7
100
AcDbCircle
 10
208.03419
 20
721.789255
 40
1.0
100
AcDbArc
 50
180.0
 51
269.999126
  0
LINE
  5
6D1
100
AcDbEntity
  8
M0
 62
     7
100
AcDbLine
 10
207.03419
 20
721.789255
 11
207.03419
 21
740.789255
  0
LINE
  5
6D2
100
AcDbEntity
  8
M0
 62
     7
100
AcDbLine
 10
215.03419
 20
721.789255
 11
215.03419
 21
742.289255
  0
LINE
  5
6D3
100
AcDbEntity
  8
M0
 62
     7
100
AcDbLine
 10
207.03419
 20
721.789255
 11
207.03419
 21
740.789255
  0
LINE
  5
6D4
100
AcDbEntity
  8
M0
  6
DASHDOT
 62
     7
100
AcDbLine
 10
218.03419
 20
735.288767
 11
204.03419
 21
735.288767
  0
LINE
  5
6D5
100
AcDbEntity
  8
M0
  6
DASHDOT
 62
     7
100
AcDbLine
 10
218.034159
 20
695.289743
 11
204.034159
 21
695.289743
  0
LINE
  5
6D6
100
AcDbEntity
  8
M0
 62
     7
100
AcDbLine
 10
207.03419
 20
739.38862
 11
208.122233
 21
739.38862
  0
LINE
  5
6D7
100
AcDbEntity
  8
M0
 62
     7
100
AcDbLine
 10
207.034159
 20
691.18989
 11
208.122309
 21
691.18989
  0
LINE
  5
6D8
100
AcDbEntity
  8
M0
 62
     7
100
AcDbLine
 10
207.03419
 20
721.789255
 11
207.03419
 21
740.789255
  0
ARC
  5
6D9
100
AcDbEntity
  8
M0
 62
     7
100
AcDbCircle
 10
206.53419
 20
731.289255
 40
0.5
100
AcDbArc
 50
0.0
 51
90.0
  0
LINE
  5
6DA
100
AcDbEntity
  8
M0
 62
     7
100
AcDbLine
 10
131.03422
 20
739.38862
 11
129.945704
 21
739.38862
  0
LINE
  5
6DB
100
AcDbEntity
  8
M0
 62
     7
100
AcDbLine
 10
131.03422
 20
691.18989
 11
129.94578
 21
691.18989
  0
LINE
  5
6DC
100
AcDbEntity
  8
M0
  6
DASHDOT
 62
     7
100
AcDbLine
 10
120.03419
 20
704.789255
 11
134.03419
 21
704.789255
  0
LINE
  5
6DD
100
AcDbEntity
  8
M0
  6
DASHDOT
 62
     7
100
AcDbLine
 10
127.03419
 20
697.789255
 11
127.03419
 21
711.789255
  0
LINE
  5
6DE
100
AcDbEntity
  8
M0
 62
     7
100
AcDbLine
 10
124.03419
 20
709.789255
 11
130.03419
 21
709.789255
  0
ARC
  5
6DF
100
AcDbEntity
  8
M0
 62
     7
100
AcDbCircle
 10
124.03419
 20
708.789255
 40
1.0
100
AcDbArc
 50
90.0
 51
180.0
  0
LINE
  5
6E0
100
AcDbEntity
  8
M0
 62
     7
100
AcDbLine
 10
124.03419
 20
720.789011
 11
130.03419
 21
720.789011
  0
ARC
  5
6E1
100
AcDbEntity
  8
M0
 62
     7
100
AcDbCircle
 10
124.03419
 20
721.789011
 40
1.0
100
AcDbArc
 50
180.0
 51
269.999126
  0
LINE
  5
6E2
100
AcDbEntity
  8
M0
  6
DASHDOT
 62
     7
100
AcDbLine
 10
127.03419
 20
732.789011
 11
127.03419
 21
718.789011
  0
LINE
  5
6E3
100
AcDbEntity
  8
M0
  6
DASHDOT
 62
     7
100
AcDbLine
 10
120.03419
 20
725.789011
 11
134.03419
 21
725.789011
  0
ARC
  5
6E4
100
AcDbEntity
  8
M0
 62
     7
100
AcDbCircle
 10
214.03419
 20
708.789011
 40
1.0
100
AcDbArc
 50
0.0
 51
90.0
  0
LINE
  5
6E5
100
AcDbEntity
  8
M0
 62
     7
100
AcDbLine
 10
214.03422
 20
709.789011
 11
208.03422
 21
709.789011
  0
LINE
  5
6E6
100
AcDbEntity
  8
M0
  6
DASHDOT
 62
     7
100
AcDbLine
 10
218.03419
 20
704.789011
 11
204.03419
 21
704.789011
  0
LINE
  5
6E7
100
AcDbEntity
  8
M0
 62
     7
100
AcDbLine
 10
214.03422
 20
720.789255
 11
208.03422
 21
720.789255
  0
ARC
  5
6E8
100
AcDbEntity
  8
M0
 62
     7
100
AcDbCircle
 10
214.03419
 20
721.789255
 40
1.0
100
AcDbArc
 50
269.999126
 51
360.0
  0
LINE
  5
6E9
100
AcDbEntity
  8
M0
  6
DASHDOT
 62
     7
100
AcDbLine
 10
218.03419
 20
725.789255
 11
204.03419
 21
725.789255
  0
LINE
  5
6EA
100
AcDbEntity
  8
M0
  6
DASHDOT
 62
     7
100
AcDbLine
 10
218.03419
 20
725.788767
 11
204.03419
 21
725.788767
  0
LINE
  5
6EB
100
AcDbEntity
  8
M0
  6
DASHDOT
 62
     7
100
AcDbLine
 10
121.28419
 20
685.289255
 11
135.78419
 21
685.289255
  0
LINE
  5
6EC
100
AcDbEntity
  8
M0
  6
DASHDOT
 62
     7
100
AcDbLine
 10
128.53419
 20
678.039255
 11
128.53419
 21
692.539255
  0
LINE
  5
6ED
100
AcDbEntity
  8
M0
  6
DASHDOT
 62
     7
100
AcDbLine
 10
213.53422
 20
745.288767
 11
205.53422
 21
745.288767
  0
LINE
  5
6EE
100
AcDbEntity
  8
M0
  6
DASHDOT
 62
     7
100
AcDbLine
 10
171.709071
 20
671.289255
 11
189.35908
 21
671.289255
  0
LINE
  5
6EF
100
AcDbEntity
  8
M0
  6
DASHDOT
 62
     7
100
AcDbLine
 10
148.709071
 20
759.289255
 11
166.35908
 21
759.289255
  0
LINE
  5
6F0
100
AcDbEntity
  8
M0
  6
DASHDOT
 62
     7
100
AcDbLine
 10
157.534083
 20
750.46406
 11
157.534083
 21
768.114206
  0
LINE
  5
6F1
100
AcDbEntity
  8
M0
 62
     7
100
AcDbLine
 10
123.03422
 20
729.789255
 11
124.091532
 21
729.789255
  0
ARC
  5
6F2
100
AcDbEntity
  8
M0
 62
     7
100
AcDbCircle
 10
186.534129
 20
666.289255
 40
0.5
100
AcDbArc
 50
180.0
 51
269.998251
  0
ARC
  5
6F3
100
AcDbEntity
  8
M0
 62
     7
100
AcDbCircle
 10
174.534129
 20
666.289255
 40
0.5
100
AcDbArc
 50
269.998251
 51
360.0
  0
LINE
  5
6F4
100
AcDbEntity
  8
M0
 62
     7
100
AcDbLine
 10
175.03419
 20
761.789011
 11
175.03419
 21
759.789255
  0
LINE
  5
6F5
100
AcDbEntity
  8
M0
 62
     7
100
AcDbLine
 10
163.034129
 20
670.78924
 11
163.034129
 21
668.78924
  0
LINE
  5
6F6
100
AcDbEntity
  8
M0
 62
     7
100
AcDbLine
 10
124.122172
 20
739.38862
 11
123.03422
 21
739.38862
  0
LINE
  5
6F7
100
AcDbEntity
  8
M0
 62
     7
100
AcDbLine
 10
129.976344
 20
729.789255
 11
131.03422
 21
729.789255
  0
LINE
  5
6F8
100
AcDbEntity
  8
M0
 62
     7
100
AcDbLine
 10
129.97642
 20
700.789255
 11
131.03419
 21
700.789255
  0
LINE
  5
6F9
100
AcDbEntity
  8
M0
 62
     7
100
AcDbLine
 10
124.122096
 20
691.18989
 11
123.03422
 21
691.18989
  0
LINE
  5
6FA
100
AcDbEntity
  8
M0
 62
     7
100
AcDbLine
 10
213.945597
 20
739.38862
 11
215.03419
 21
739.38862
  0
LINE
  5
6FB
100
AcDbEntity
  8
M0
 62
     7
100
AcDbLine
 10
208.091456
 20
729.789255
 11
207.03419
 21
729.789255
  0
LINE
  5
6FC
100
AcDbEntity
  8
M0
 62
     7
100
AcDbLine
 10
208.091502
 20
700.789011
 11
207.03419
 21
700.789011
  0
LINE
  5
6FD
100
AcDbEntity
  8
M0
 62
     7
100
AcDbLine
 10
213.945689
 20
691.18989
 11
215.034159
 21
691.18989
  0
ARC
  5
6FE
100
AcDbEntity
  8
M0
 62
     7
100
AcDbCircle
 10
146.034174
 20
673.289255
 40
2.799999
100
AcDbArc
 50
212.382922
 51
327.616911
  0
ARC
  5
6FF
100
AcDbEntity
  8
M0
 62
     7
100
AcDbCircle
 10
146.034174
 20
673.289255
 40
1.799999
100
AcDbArc
 50
236.419989
 51
303.579606
  0
ARC
  5
700
100
AcDbEntity
  8
M0
 62
     7
100
AcDbCircle
 10
169.033961
 20
673.289499
 40
1.799999
100
AcDbArc
 50
236.433999
 51
303.565596
  0
ARC
  5
701
100
AcDbEntity
  8
M0
 62
     7
100
AcDbCircle
 10
169.033961
 20
673.289499
 40
2.799999
100
AcDbArc
 50
212.38855
 51
327.611019
  0
ARC
  5
702
100
AcDbEntity
  8
M0
 62
     7
100
AcDbCircle
 10
192.034144
 20
673.289255
 40
2.799999
100
AcDbArc
 50
212.382922
 51
327.616911
  0
ARC
  5
703
100
AcDbEntity
  8
M0
 62
     7
100
AcDbCircle
 10
192.034144
 20
673.289255
 40
1.799999
100
AcDbArc
 50
236.419989
 51
303.579606
  0
ARC
  5
704
100
AcDbEntity
  8
M0
 62
     7
100
AcDbCircle
 10
146.03422
 20
757.289255
 40
2.799999
100
AcDbArc
 50
32.396332
 51
147.603835
  0
ARC
  5
705
100
AcDbEntity
  8
M0
 62
     7
100
AcDbCircle
 10
146.03422
 20
757.289255
 40
1.799999
100
AcDbArc
 50
56.452457
 51
123.548353
  0
ARC
  5
706
100
AcDbEntity
  8
M0
 62
     7
100
AcDbCircle
 10
169.034007
 20
757.289011
 40
2.799999
100
AcDbArc
 50
32.402223
 51
147.597944
  0
ARC
  5
707
100
AcDbEntity
  8
M0
 62
     7
100
AcDbCircle
 10
169.034007
 20
757.289011
 40
1.799999
100
AcDbArc
 50
56.466467
 51
123.533938
  0
ARC
  5
708
100
AcDbEntity
  8
M0
 62
     7
100
AcDbCircle
 10
192.03419
 20
757.289255
 40
2.799999
100
AcDbArc
 50
32.396332
 51
147.603835
  0
ARC
  5
709
100
AcDbEntity
  8
M0
 62
     7
100
AcDbCircle
 10
192.03419
 20
757.289255
 40
1.799999
100
AcDbArc
 50
56.452457
 51
123.548353
  0
ARC
  5
70A
100
AcDbEntity
  8
M0
 62
     4
100
AcDbCircle
 10
157.534419
 20
759.289286
 40
4.5
100
AcDbArc
 50
180.0
 51
360.0
  0
ARC
  5
70B
100
AcDbEntity
  8
M0
 62
     4
100
AcDbCircle
 10
180.534419
 20
671.289301
 40
4.5
100
AcDbArc
 50
0.0
 51
180.0
  0
LINE
  5
70C
100
AcDbEntity
  8
M0
 62
     4
100
AcDbLine
 10
205.534174
 20
673.78927
 11
205.534174
 21
756.789057
  0
LINE
  5
70D
100
AcDbEntity
  8
M0
 62
     4
100
AcDbLine
 10
192.033762
 20
764.288813
 11
184.534174
 21
764.288813
  0
LINE
  5
70E
100
AcDbEntity
  8
M0
 62
     4
100
AcDbLine
 10
132.534174
 20
756.789057
 11
132.534174
 21
673.789286
  0
LINE
  5
70F
100
AcDbEntity
  8
M0
 62
     4
100
AcDbLine
 10
134.534174
 20
758.789057
 11
150.034174
 21
758.789057
  0
LINE
  5
710
100
AcDbEntity
  8
M0
 62
     4
100
AcDbLine
 10
134.534174
 20
671.789286
 11
149.534235
 21
671.789286
  0
CIRCLE
  5
711
100
AcDbEntity
  8
M0
 62
     4
100
AcDbCircle
 10
201.034174
 20
744.789057
 40
1.5
  0
LINE
  5
712
100
AcDbEntity
  8
M0
  6
DASHDOT
 62
     4
100
AcDbLine
 10
201.034174
 20
738.289057
 11
201.034174
 21
751.289057
  0
CIRCLE
  5
713
100
AcDbEntity
  8
M0
 62
     4
100
AcDbCircle
 10
201.034174
 20
744.789057
 40
1.0
  0
CIRCLE
  5
714
100
AcDbEntity
  8
M0
 62
     4
100
AcDbCircle
 10
201.034174
 20
685.789286
 40
1.5
  0
LINE
  5
715
100
AcDbEntity
  8
M0
  6
DASHDOT
 62
     4
100
AcDbLine
 10
194.534174
 20
685.789286
 11
207.534174
 21
685.789286
  0
LINE
  5
716
100
AcDbEntity
  8
M0
  6
DASHDOT
 62
     4
100
AcDbLine
 10
201.034174
 20
692.289286
 11
201.034174
 21
679.289286
  0
CIRCLE
  5
717
100
AcDbEntity
  8
M0
 62
     4
100
AcDbCircle
 10
201.034174
 20
685.789286
 40
1.0
  0
CIRCLE
  5
718
100
AcDbEntity
  8
M0
 62
     4
100
AcDbCircle
 10
137.034205
 20
744.789057
 40
1.5
  0
LINE
  5
719
100
AcDbEntity
  8
M0
  6
DASHDOT
 62
     4
100
AcDbLine
 10
143.53419
 20
744.789057
 11
130.534205
 21
744.789057
  0
LINE
  5
71A
100
AcDbEntity
  8
M0
  6
DASHDOT
 62
     4
100
AcDbLine
 10
137.03419
 20
738.289057
 11
137.034205
 21
751.288813
  0
CIRCLE
  5
71B
100
AcDbEntity
  8
M0
 62
     4
100
AcDbCircle
 10
137.034205
 20
744.789057
 40
1.0
  0
CIRCLE
  5
71C
100
AcDbEntity
  8
M0
 62
     4
100
AcDbCircle
 10
137.034205
 20
685.789286
 40
1.5
  0
LINE
  5
71D
100
AcDbEntity
  8
M0
  6
DASHDOT
 62
     4
100
AcDbLine
 10
143.53419
 20
685.789286
 11
130.534205
 21
685.78927
  0
LINE
  5
71E
100
AcDbEntity
  8
M0
  6
DASHDOT
 62
     4
100
AcDbLine
 10
137.03419
 20
692.28927
 11
137.034205
 21
679.289286
  0
CIRCLE
  5
71F
100
AcDbEntity
  8
M0
 62
     4
100
AcDbCircle
 10
137.034205
 20
685.789286
 40
1.0
  0
LINE
  5
720
100
AcDbEntity
  8
M0
  6
DASHDOT
 62
     4
100
AcDbLine
 10
192.034174
 20
753.140375
 11
192.034174
 21
769.289057
  0
LINE
  5
721
100
AcDbEntity
  8
M0
 62
     4
100
AcDbLine
 10
196.034174
 20
758.289057
 11
196.034174
 21
755.789057
  0
LINE
  5
722
100
AcDbEntity
  8
M0
 62
     4
100
AcDbLine
 10
188.034174
 20
763.788569
 11
188.034174
 21
755.789057
  0
LINE
  5
723
100
AcDbEntity
  8
M0
 62
     4
100
AcDbLine
 10
184.034174
 20
763.788569
 11
184.034174
 21
758.789057
  0
LINE
  5
724
100
AcDbEntity
  8
M0
 62
     4
100
AcDbLine
 10
192.034174
 20
764.288813
 11
201.034174
 21
758.789057
  0
LINE
  5
725
100
AcDbEntity
  8
M0
 62
     4
100
AcDbLine
 10
165.034174
 20
763.788569
 11
165.034174
 21
755.789057
  0
LINE
  5
726
100
AcDbEntity
  8
M0
 62
     4
100
AcDbLine
 10
164.534174
 20
764.288813
 11
146.034571
 21
764.288569
  0
LINE
  5
727
100
AcDbEntity
  8
M0
 62
     4
100
AcDbLine
 10
150.034174
 20
763.788569
 11
150.034174
 21
755.789057
  0
LINE
  5
728
100
AcDbEntity
  8
M0
 62
     4
100
AcDbLine
 10
146.034174
 20
764.288569
 11
137.034174
 21
758.789057
  0
ARC
  5
729
100
AcDbEntity
  8
M0
 62
     4
100
AcDbCircle
 10
134.534174
 20
756.789057
 40
2.0
100
AcDbArc
 50
90.0
 51
180.0
  0
ARC
  5
72A
100
AcDbEntity
  8
M0
 62
     4
100
AcDbCircle
 10
203.534174
 20
756.789057
 40
2.0
100
AcDbArc
 50
0.0
 51
90.0
  0
LINE
  5
72B
100
AcDbEntity
  8
M0
  6
DASHDOT
 62
     4
100
AcDbLine
 10
146.034174
 20
766.844477
 11
146.034174
 21
752.650629
  0
LINE
  5
72C
100
AcDbEntity
  8
M0
 62
     4
100
AcDbLine
 10
165.034174
 20
758.789057
 11
184.034174
 21
758.789057
  0
LINE
  5
72D
100
AcDbEntity
  8
M0
 62
     4
100
AcDbLine
 10
154.034235
 20
666.789515
 11
154.034235
 21
671.289286
  0
LINE
  5
72E
100
AcDbEntity
  8
M0
 62
     4
100
AcDbLine
 10
150.034235
 20
666.78953
 11
150.034235
 21
674.789286
  0
LINE
  5
72F
100
AcDbEntity
  8
M0
 62
     4
100
AcDbLine
 10
146.034235
 20
666.28953
 11
137.03422
 21
671.789301
  0
LINE
  5
730
100
AcDbEntity
  8
M0
 62
     4
100
AcDbLine
 10
146.034647
 20
666.28953
 11
153.534235
 21
666.28953
  0
LINE
  5
731
100
AcDbEntity
  8
M0
 62
     4
100
AcDbLine
 10
173.534174
 20
666.28953
 11
192.034159
 21
666.28953
  0
LINE
  5
732
100
AcDbEntity
  8
M0
 62
     4
100
AcDbLine
 10
192.034174
 20
666.28953
 11
201.034174
 21
671.789286
  0
ARC
  5
733
100
AcDbEntity
  8
M0
 62
     4
100
AcDbCircle
 10
203.534174
 20
673.789286
 40
2.0
100
AcDbArc
 50
269.999563
 51
360.0
  0
LINE
  5
734
100
AcDbEntity
  8
M0
 62
     4
100
AcDbLine
 10
188.034174
 20
674.789286
 11
188.034174
 21
666.78953
  0
LINE
  5
735
100
AcDbEntity
  8
M0
 62
     4
100
AcDbLine
 10
173.034174
 20
674.789286
 11
173.034174
 21
666.78953
  0
LINE
  5
736
100
AcDbEntity
  8
M0
 62
     4
100
AcDbLine
 10
188.534174
 20
671.789286
 11
203.534174
 21
671.789286
  0
ARC
  5
737
100
AcDbEntity
  8
M0
 62
     4
100
AcDbCircle
 10
134.534174
 20
673.789286
 40
2.0
100
AcDbArc
 50
180.0
 51
269.999563
  0
LINE
  5
738
100
AcDbEntity
  8
M0
  6
DASHDOT
 62
     4
100
AcDbLine
 10
192.034174
 20
662.881388
 11
192.034174
 21
679.32342
  0
LINE
  5
739
100
AcDbEntity
  8
M0
 62
     4
100
AcDbLine
 10
162.034174
 20
763.788569
 11
162.034174
 21
759.289057
  0
LINE
  5
73A
100
AcDbEntity
  8
M0
 62
     4
100
AcDbLine
 10
153.034174
 20
763.788569
 11
153.034174
 21
759.289057
  0
LINE
  5
73B
100
AcDbEntity
  8
M0
 62
     4
100
AcDbLine
 10
185.034174
 20
671.289286
 11
185.034174
 21
666.78953
  0
LINE
  5
73C
100
AcDbEntity
  8
M0
 62
     4
100
AcDbLine
 10
176.034174
 20
671.28927
 11
176.034174
 21
666.789515
  0
CIRCLE
  5
73D
100
AcDbEntity
  8
M0
 62
     4
100
AcDbCircle
 10
180.534174
 20
671.289286
 40
2.75
  0
LINE
  5
73E
100
AcDbEntity
  8
M0
  6
DASHDOT
 62
     4
100
AcDbLine
 10
172.784174
 20
671.289286
 11
188.284174
 21
671.289286
  0
CIRCLE
  5
73F
100
AcDbEntity
  8
M0
 62
     4
100
AcDbCircle
 10
157.534174
 20
759.289057
 40
2.75
  0
CIRCLE
  5
740
100
AcDbEntity
  8
M0
 62
     4
100
AcDbCircle
 10
157.534174
 20
759.289057
 40
2.0
  0
LINE
  5
741
100
AcDbEntity
  8
M0
  6
DASHDOT
 62
     4
100
AcDbLine
 10
150.534174
 20
759.289057
 11
164.534174
 21
759.289057
  0
CIRCLE
  5
742
100
AcDbEntity
  8
M0
 62
     4
100
AcDbCircle
 10
180.534174
 20
671.289286
 40
2.0
  0
LINE
  5
743
100
AcDbEntity
  8
M0
  6
DASHDOT
 62
     4
100
AcDbLine
 10
173.534174
 20
671.289286
 11
187.534174
 21
671.289286
  0
LINE
  5
744
100
AcDbEntity
  8
M0
  6
DASHDOT
 62
     4
100
AcDbLine
 10
180.534174
 20
664.289286
 11
180.534174
 21
678.289286
  0
LINE
  5
745
100
AcDbEntity
  8
M0
 62
     4
100
AcDbLine
 10
165.034174
 20
755.789057
 11
173.034174
 21
755.789057
  0
LINE
  5
746
100
AcDbEntity
  8
M0
 62
     4
100
AcDbLine
 10
142.034174
 20
755.789057
 11
150.034174
 21
755.789057
  0
LINE
  5
747
100
AcDbEntity
  8
M0
 62
     4
100
AcDbLine
 10
173.034174
 20
758.289057
 11
173.034174
 21
755.789057
  0
LINE
  5
748
100
AcDbEntity
  8
M0
 62
     4
100
AcDbLine
 10
188.034174
 20
755.789057
 11
196.034174
 21
755.789057
  0
LINE
  5
749
100
AcDbEntity
  8
M0
 62
     4
100
AcDbLine
 10
142.034174
 20
758.289057
 11
142.034174
 21
755.789057
  0
LINE
  5
74A
100
AcDbEntity
  8
M0
 62
     4
100
AcDbLine
 10
142.034129
 20
672.28927
 11
142.034129
 21
674.789286
  0
LINE
  5
74B
100
AcDbEntity
  8
M0
 62
     4
100
AcDbLine
 10
142.034129
 20
674.789286
 11
150.034129
 21
674.789286
  0
LINE
  5
74C
100
AcDbEntity
  8
M0
 62
     4
100
AcDbLine
 10
165.034129
 20
674.789286
 11
173.034129
 21
674.789286
  0
LINE
  5
74D
100
AcDbEntity
  8
M0
 62
     4
100
AcDbLine
 10
165.034113
 20
672.28927
 11
165.034129
 21
674.789286
  0
LINE
  5
74E
100
AcDbEntity
  8
M0
 62
     4
100
AcDbLine
 10
196.034129
 20
672.289286
 11
196.034129
 21
674.789286
  0
LINE
  5
74F
100
AcDbEntity
  8
M0
 62
     4
100
AcDbLine
 10
188.034129
 20
674.789286
 11
196.034129
 21
674.789286
  0
ARC
  5
750
100
AcDbEntity
  8
M0
 62
     4
100
AcDbCircle
 10
184.534174
 20
763.788569
 40
0.5
100
AcDbArc
 50
90.0
 51
180.0
  0
ARC
  5
751
100
AcDbEntity
  8
M0
 62
     4
100
AcDbCircle
 10
164.534174
 20
763.788569
 40
0.5
100
AcDbArc
 50
0.0
 51
90.0
  0
ARC
  5
752
100
AcDbEntity
  8
M0
 62
     4
100
AcDbCircle
 10
187.534174
 20
763.788569
 40
0.5
100
AcDbArc
 50
0.0
 51
90.0
  0
ARC
  5
753
100
AcDbEntity
  8
M0
 62
     4
100
AcDbCircle
 10
152.534174
 20
763.788569
 40
0.5
100
AcDbArc
 50
0.0
 51
90.0
  0
ARC
  5
754
100
AcDbEntity
  8
M0
 62
     4
100
AcDbCircle
 10
162.534174
 20
763.788569
 40
0.5
100
AcDbArc
 50
90.0
 51
180.0
  0
ARC
  5
755
100
AcDbEntity
  8
M0
 62
     4
100
AcDbCircle
 10
150.534174
 20
763.788569
 40
0.5
100
AcDbArc
 50
90.0
 51
180.0
  0
ARC
  5
756
100
AcDbEntity
  8
M0
 62
     4
100
AcDbCircle
 10
196.534129
 20
672.289286
 40
0.5
100
AcDbArc
 50
180.0
 51
269.998251
  0
ARC
  5
757
100
AcDbEntity
  8
M0
 62
     4
100
AcDbCircle
 10
188.534174
 20
671.289286
 40
0.5
100
AcDbArc
 50
90.0
 51
180.0
  0
ARC
  5
758
100
AcDbEntity
  8
M0
 62
     4
100
AcDbCircle
 10
187.534174
 20
666.78953
 40
0.5
100
AcDbArc
 50
269.998251
 51
360.0
  0
ARC
  5
759
100
AcDbEntity
  8
M0
 62
     4
100
AcDbCircle
 10
185.534174
 20
666.78953
 40
0.5
100
AcDbArc
 50
180.0
 51
269.998251
  0
ARC
  5
75A
100
AcDbEntity
  8
M0
 62
     4
100
AcDbCircle
 10
175.534174
 20
666.789515
 40
0.5
100
AcDbArc
 50
269.998251
 51
360.0
  0
ARC
  5
75B
100
AcDbEntity
  8
M0
 62
     4
100
AcDbCircle
 10
173.534174
 20
666.78953
 40
0.5
100
AcDbArc
 50
180.0
 51
269.998251
  0
ARC
  5
75C
100
AcDbEntity
  8
M0
 62
     4
100
AcDbCircle
 10
153.534235
 20
666.78953
 40
0.5
100
AcDbArc
 50
269.998251
 51
360.0
  0
ARC
  5
75D
100
AcDbEntity
  8
M0
 62
     4
100
AcDbCircle
 10
150.534235
 20
666.78953
 40
0.5
100
AcDbArc
 50
180.0
 51
269.998251
  0
LINE
  5
75E
100
AcDbEntity
  8
M0
  6
DASHDOT
 62
     4
100
AcDbLine
 10
146.034235
 20
662.86323
 11
146.034235
 21
677.166178
  0
LINE
  5
75F
100
AcDbEntity
  8
M0
 62
     4
100
AcDbLine
 10
188.034174
 20
758.789057
 11
203.534174
 21
758.789057
  0
ARC
  5
760
100
AcDbEntity
  8
M0
 62
     4
100
AcDbCircle
 10
141.534174
 20
758.289057
 40
0.5
100
AcDbArc
 50
0.0
 51
90.0
  0
ARC
  5
761
100
AcDbEntity
  8
M0
 62
     4
100
AcDbCircle
 10
172.534174
 20
671.289286
 40
0.5
100
AcDbArc
 50
0.0
 51
90.0
  0
ARC
  5
762
100
AcDbEntity
  8
M0
 62
     4
100
AcDbCircle
 10
164.534113
 20
672.289286
 40
0.5
100
AcDbArc
 50
269.998251
 51
360.0
  0
LINE
  5
763
100
AcDbEntity
  8
M0
 62
     4
100
AcDbLine
 10
154.534235
 20
671.789286
 11
172.534174
 21
671.789286
  0
ARC
  5
764
100
AcDbEntity
  8
M0
 62
     4
100
AcDbCircle
 10
154.534235
 20
671.289286
 40
0.5
100
AcDbArc
 50
90.0
 51
180.0
  0
ARC
  5
765
100
AcDbEntity
  8
M0
 62
     4
100
AcDbCircle
 10
149.534235
 20
671.289286
 40
0.5
100
AcDbArc
 50
0.0
 51
90.0
  0
ARC
  5
766
100
AcDbEntity
  8
M0
 62
     4
100
AcDbCircle
 10
141.534129
 20
672.289286
 40
0.5
100
AcDbArc
 50
269.998251
 51
360.0
  0
ARC
  5
767
100
AcDbEntity
  8
M0
 62
     4
100
AcDbCircle
 10
173.534174
 20
758.289057
 40
0.5
100
AcDbArc
 50
90.0
 51
180.0
  0
ARC
  5
768
100
AcDbEntity
  8
M0
 62
     4
100
AcDbCircle
 10
196.534174
 20
758.289057
 40
0.5
100
AcDbArc
 50
90.0
 51
180.0
  0
LINE
  5
769
100
AcDbEntity
  8
M0
  6
DASHDOT
 62
     4
100
AcDbLine
 10
194.533732
 20
744.789026
 11
207.533717
 21
744.789011
  0
LINE
  5
76A
100
AcDbEntity
  8
M0
  6
DASHDOT
100
AcDbLine
 10
127.033045
 20
728.452173
 11
127.033671
 21
741.181696
  0
LINE
  5
76B
100
AcDbEntity
  8
M0
100
AcDbLine
 10
125.633143
 20
732.189631
 11
123.813075
 21
732.189631
  0
LINE
  5
76C
100
AcDbEntity
  8
M0
100
AcDbLine
 10
128.433192
 20
732.189631
 11
130.25326
 21
732.189631
  0
LINE
  5
76D
100
AcDbEntity
  8
M0
100
AcDbLine
 10
129.514002
 20
730.989679
 11
124.552332
 21
730.989679
  0
LINE
  5
76E
100
AcDbEntity
  8
M0
100
AcDbLine
 10
125.633143
 20
732.189631
 11
125.633143
 21
732.636408
  0
LINE
  5
76F
100
AcDbEntity
  8
M0
100
AcDbLine
 10
128.433192
 20
732.189631
 11
128.433192
 21
732.636408
  0
ARC
  5
770
100
AcDbEntity
  8
M0
100
AcDbCircle
 10
129.514002
 20
731.489679
 40
0.5
100
AcDbArc
 50
270.0
 51
342.88223
  0
ARC
  5
771
100
AcDbEntity
  8
M0
100
AcDbCircle
 10
124.552332
 20
731.489679
 40
0.5
100
AcDbArc
 50
197.125483
 51
270.0
  0
LINE
  5
772
100
AcDbEntity
  8
M0
  6
DASHDOT
 62
     6
100
AcDbLine
 10
133.356883
 20
735.289728
 11
120.921092
 21
735.289728
  0
CIRCLE
  5
773
100
AcDbEntity
  8
M0
100
AcDbCircle
 10
127.033045
 20
735.289728
 40
3.0
  0
LINE
  5
774
100
AcDbEntity
  8
M0
100
AcDbLine
 10
129.99203
 20
739.236994
 11
130.808192
 21
736.589777
  0
LINE
  5
775
100
AcDbEntity
  8
M0
100
AcDbLine
 10
129.99203
 20
731.342463
 11
130.808192
 21
733.989679
  0
LINE
  5
776
100
AcDbEntity
  8
M0
100
AcDbLine
 10
124.074549
 20
739.236994
 11
123.258143
 21
736.589777
  0
LINE
  5
777
100
AcDbEntity
  8
M0
100
AcDbLine
 10
124.074549
 20
731.342463
 11
123.258143
 21
733.989679
  0
LINE
  5
778
100
AcDbEntity
  8
M0
100
AcDbLine
 10
125.633143
 20
738.389582
 11
123.813075
 21
738.389582
  0
LINE
  5
779
100
AcDbEntity
  8
M0
100
AcDbLine
 10
124.711512
 20
737.189631
 11
123.443202
 21
737.189631
  0
LINE
  5
77A
100
AcDbEntity
  8
M0
100
AcDbLine
 10
124.711512
 20
733.389582
 11
123.443202
 21
733.389582
  0
LINE
  5
77B
100
AcDbEntity
  8
M0
100
AcDbLine
 10
128.433192
 20
738.389582
 11
130.25326
 21
738.389582
  0
LINE
  5
77C
100
AcDbEntity
  8
M0
100
AcDbLine
 10
129.354823
 20
737.189631
 11
130.623133
 21
737.189631
  0
LINE
  5
77D
100
AcDbEntity
  8
M0
100
AcDbLine
 10
129.354823
 20
733.389582
 11
130.623133
 21
733.389582
  0
LINE
  5
77E
100
AcDbEntity
  8
M0
100
AcDbLine
 10
123.258143
 20
733.989679
 11
123.258143
 21
736.589777
  0
LINE
  5
77F
100
AcDbEntity
  8
M0
100
AcDbLine
 10
124.552332
 20
739.589777
 11
129.514002
 21
739.589533
  0
LINE
  5
780
100
AcDbEntity
  8
M0
100
AcDbLine
 10
130.808192
 20
736.589777
 11
130.808192
 21
733.989679
  0
LINE
  5
781
100
AcDbEntity
  8
M0
100
AcDbLine
 10
125.633143
 20
737.943049
 11
125.633143
 21
738.389582
  0
LINE
  5
782
100
AcDbEntity
  8
M0
100
AcDbLine
 10
128.433192
 20
737.943049
 11
128.433192
 21
738.389582
  0
LINE
  5
783
100
AcDbEntity
  8
M0
100
AcDbLine
 10
125.442469
 20
733.698908
 11
128.62411
 21
736.880549
  0
LINE
  5
784
100
AcDbEntity
  8
M0
100
AcDbLine
 10
126.679774
 20
736.703791
 11
128.447352
 21
734.936213
  0
LINE
  5
785
100
AcDbEntity
  8
M0
100
AcDbLine
 10
125.619227
 20
735.643244
 11
127.386805
 21
733.875666
  0
ARC
  5
786
100
AcDbEntity
  8
M0
100
AcDbCircle
 10
129.514002
 20
739.089533
 40
0.5
100
AcDbArc
 50
17.143222
 51
89.998251
  0
ARC
  5
787
100
AcDbEntity
  8
M0
100
AcDbCircle
 10
124.552332
 20
739.089533
 40
0.5
100
AcDbArc
 50
89.998251
 51
162.848548
  0
LINE
  5
788
100
AcDbEntity
  8
M0
  6
DASHDOT
100
AcDbLine
 10
127.033045
 20
718.952662
 11
127.033671
 21
731.682184
  0
LINE
  5
789
100
AcDbEntity
  8
M0
100
AcDbLine
 10
125.633143
 20
722.690119
 11
123.813075
 21
722.690119
  0
LINE
  5
78A
100
AcDbEntity
  8
M0
100
AcDbLine
 10
128.433192
 20
722.690119
 11
130.25326
 21
722.690119
  0
LINE
  5
78B
100
AcDbEntity
  8
M0
100
AcDbLine
 10
129.514002
 20
721.490168
 11
124.552332
 21
721.490168
  0
LINE
  5
78C
100
AcDbEntity
  8
M0
100
AcDbLine
 10
125.633143
 20
722.690119
 11
125.633143
 21
723.136896
  0
LINE
  5
78D
100
AcDbEntity
  8
M0
100
AcDbLine
 10
128.433192
 20
722.690119
 11
128.433192
 21
723.136896
  0
ARC
  5
78E
100
AcDbEntity
  8
M0
100
AcDbCircle
 10
129.514002
 20
721.990168
 40
0.5
100
AcDbArc
 50
270.0
 51
342.88223
  0
ARC
  5
78F
100
AcDbEntity
  8
M0
100
AcDbCircle
 10
124.552332
 20
721.990168
 40
0.5
100
AcDbArc
 50
197.125483
 51
270.0
  0
LINE
  5
790
100
AcDbEntity
  8
M0
  6
DASHDOT
 62
     6
100
AcDbLine
 10
133.356883
 20
725.790216
 11
120.921092
 21
725.790216
  0
CIRCLE
  5
791
100
AcDbEntity
  8
M0
100
AcDbCircle
 10
127.033045
 20
725.790216
 40
3.0
  0
LINE
  5
792
100
AcDbEntity
  8
M0
100
AcDbLine
 10
129.99203
 20
729.737482
 11
130.808192
 21
727.090265
  0
LINE
  5
793
100
AcDbEntity
  8
M0
100
AcDbLine
 10
129.99203
 20
721.842951
 11
130.808192
 21
724.490168
  0
LINE
  5
794
100
AcDbEntity
  8
M0
100
AcDbLine
 10
124.074549
 20
729.737482
 11
123.258143
 21
727.090265
  0
LINE
  5
795
100
AcDbEntity
  8
M0
100
AcDbLine
 10
124.074549
 20
721.842951
 11
123.258143
 21
724.490168
  0
LINE
  5
796
100
AcDbEntity
  8
M0
100
AcDbLine
 10
125.633143
 20
728.89007
 11
123.813075
 21
728.89007
  0
LINE
  5
797
100
AcDbEntity
  8
M0
100
AcDbLine
 10
124.711512
 20
727.690119
 11
123.443202
 21
727.690119
  0
LINE
  5
798
100
AcDbEntity
  8
M0
100
AcDbLine
 10
124.711512
 20
723.89007
 11
123.443202
 21
723.89007
  0
LINE
  5
799
100
AcDbEntity
  8
M0
100
AcDbLine
 10
128.433192
 20
728.89007
 11
130.25326
 21
728.89007
  0
LINE
  5
79A
100
AcDbEntity
  8
M0
100
AcDbLine
 10
129.354823
 20
727.690119
 11
130.623133
 21
727.690119
  0
LINE
  5
79B
100
AcDbEntity
  8
M0
100
AcDbLine
 10
129.354823
 20
723.89007
 11
130.623133
 21
723.89007
  0
LINE
  5
79C
100
AcDbEntity
  8
M0
100
AcDbLine
 10
123.258143
 20
724.490168
 11
123.258143
 21
727.090265
  0
LINE
  5
79D
100
AcDbEntity
  8
M0
100
AcDbLine
 10
124.552332
 20
730.090265
 11
129.514002
 21
730.090021
  0
LINE
  5
79E
100
AcDbEntity
  8
M0
100
AcDbLine
 10
130.808192
 20
727.090265
 11
130.808192
 21
724.490168
  0
LINE
  5
79F
100
AcDbEntity
  8
M0
100
AcDbLine
 10
125.633143
 20
728.443537
 11
125.633143
 21
728.89007
  0
LINE
  5
7A0
100
AcDbEntity
  8
M0
100
AcDbLine
 10
128.433192
 20
728.443537
 11
128.433192
 21
728.89007
  0
LINE
  5
7A1
100
AcDbEntity
  8
M0
100
AcDbLine
 10
125.442469
 20
724.199396
 11
128.62411
 21
727.381037
  0
LINE
  5
7A2
100
AcDbEntity
  8
M0
100
AcDbLine
 10
126.679774
 20
727.204279
 11
128.447352
 21
725.436701
  0
LINE
  5
7A3
100
AcDbEntity
  8
M0
100
AcDbLine
 10
125.619227
 20
726.143732
 11
127.386805
 21
724.376154
  0
ARC
  5
7A4
100
AcDbEntity
  8
M0
100
AcDbCircle
 10
129.514002
 20
729.590021
 40
0.5
100
AcDbArc
 50
17.143222
 51
89.998251
  0
ARC
  5
7A5
100
AcDbEntity
  8
M0
100
AcDbCircle
 10
124.552332
 20
729.590021
 40
0.5
100
AcDbArc
 50
89.998251
 51
162.848548
  0
LINE
  5
7A6
100
AcDbEntity
  8
M0
  6
DASHDOT
100
AcDbLine
 10
127.033045
 20
697.952417
 11
127.033671
 21
710.68194
  0
LINE
  5
7A7
100
AcDbEntity
  8
M0
100
AcDbLine
 10
125.633143
 20
701.689875
 11
123.813075
 21
701.689875
  0
LINE
  5
7A8
100
AcDbEntity
  8
M0
100
AcDbLine
 10
128.433192
 20
701.689875
 11
130.25326
 21
701.689875
  0
LINE
  5
7A9
100
AcDbEntity
  8
M0
100
AcDbLine
 10
129.514002
 20
700.489924
 11
124.552332
 21
700.489924
  0
LINE
  5
7AA
100
AcDbEntity
  8
M0
100
AcDbLine
 10
125.633143
 20
701.689875
 11
125.633143
 21
702.136652
  0
LINE
  5
7AB
100
AcDbEntity
  8
M0
100
AcDbLine
 10
128.433192
 20
701.689875
 11
128.433192
 21
702.136652
  0
ARC
  5
7AC
100
AcDbEntity
  8
M0
100
AcDbCircle
 10
129.514002
 20
700.989924
 40
0.5
100
AcDbArc
 50
270.0
 51
342.88223
  0
ARC
  5
7AD
100
AcDbEntity
  8
M0
100
AcDbCircle
 10
124.552332
 20
700.989924
 40
0.5
100
AcDbArc
 50
197.125483
 51
270.0
  0
LINE
  5
7AE
100
AcDbEntity
  8
M0
  6
DASHDOT
 62
     6
100
AcDbLine
 10
133.356883
 20
704.789972
 11
120.921092
 21
704.789972
  0
CIRCLE
  5
7AF
100
AcDbEntity
  8
M0
100
AcDbCircle
 10
127.033045
 20
704.789972
 40
3.0
  0
LINE
  5
7B0
100
AcDbEntity
  8
M0
100
AcDbLine
 10
129.99203
 20
708.737238
 11
130.808192
 21
706.090021
  0
LINE
  5
7B1
100
AcDbEntity
  8
M0
100
AcDbLine
 10
129.99203
 20
700.842707
 11
130.808192
 21
703.489924
  0
LINE
  5
7B2
100
AcDbEntity
  8
M0
100
AcDbLine
 10
124.074549
 20
708.737238
 11
123.258143
 21
706.090021
  0
LINE
  5
7B3
100
AcDbEntity
  8
M0
100
AcDbLine
 10
124.074549
 20
700.842707
 11
123.258143
 21
703.489924
  0
LINE
  5
7B4
100
AcDbEntity
  8
M0
100
AcDbLine
 10
125.633143
 20
707.889826
 11
123.813075
 21
707.889826
  0
LINE
  5
7B5
100
AcDbEntity
  8
M0
100
AcDbLine
 10
124.711512
 20
706.689875
 11
123.443202
 21
706.689875
  0
LINE
  5
7B6
100
AcDbEntity
  8
M0
100
AcDbLine
 10
124.711512
 20
702.889826
 11
123.443202
 21
702.889826
  0
LINE
  5
7B7
100
AcDbEntity
  8
M0
100
AcDbLine
 10
128.433192
 20
707.889826
 11
130.25326
 21
707.889826
  0
LINE
  5
7B8
100
AcDbEntity
  8
M0
100
AcDbLine
 10
129.354823
 20
706.689875
 11
130.623133
 21
706.689875
  0
LINE
  5
7B9
100
AcDbEntity
  8
M0
100
AcDbLine
 10
129.354823
 20
702.889826
 11
130.623133
 21
702.889826
  0
LINE
  5
7BA
100
AcDbEntity
  8
M0
100
AcDbLine
 10
123.258143
 20
703.489924
 11
123.258143
 21
706.090021
  0
LINE
  5
7BB
100
AcDbEntity
  8
M0
100
AcDbLine
 10
124.552332
 20
709.090021
 11
129.514002
 21
709.089777
  0
LINE
  5
7BC
100
AcDbEntity
  8
M0
100
AcDbLine
 10
130.808192
 20
706.090021
 11
130.808192
 21
703.489924
  0
LINE
  5
7BD
100
AcDbEntity
  8
M0
100
AcDbLine
 10
125.633143
 20
707.443293
 11
125.633143
 21
707.889826
  0
LINE
  5
7BE
100
AcDbEntity
  8
M0
100
AcDbLine
 10
128.433192
 20
707.443293
 11
128.433192
 21
707.889826
  0
LINE
  5
7BF
100
AcDbEntity
  8
M0
100
AcDbLine
 10
125.442469
 20
703.199152
 11
128.62411
 21
706.380793
  0
LINE
  5
7C0
100
AcDbEntity
  8
M0
100
AcDbLine
 10
126.679774
 20
706.204035
 11
128.447352
 21
704.436457
  0
LINE
  5
7C1
100
AcDbEntity
  8
M0
100
AcDbLine
 10
125.619227
 20
705.143488
 11
127.386805
 21
703.37591
  0
ARC
  5
7C2
100
AcDbEntity
  8
M0
100
AcDbCircle
 10
129.514002
 20
708.589777
 40
0.5
100
AcDbArc
 50
17.143222
 51
89.998251
  0
ARC
  5
7C3
100
AcDbEntity
  8
M0
100
AcDbCircle
 10
124.552332
 20
708.589777
 40
0.5
100
AcDbArc
 50
89.998251
 51
162.848548
  0
LINE
  5
7C4
100
AcDbEntity
  8
M0
  6
DASHDOT
100
AcDbLine
 10
127.033045
 20
688.45315
 11
127.033671
 21
701.182673
  0
LINE
  5
7C5
100
AcDbEntity
  8
M0
100
AcDbLine
 10
125.633143
 20
692.190607
 11
123.813075
 21
692.190607
  0
LINE
  5
7C6
100
AcDbEntity
  8
M0
100
AcDbLine
 10
128.433192
 20
692.190607
 11
130.25326
 21
692.190607
  0
LINE
  5
7C7
100
AcDbEntity
  8
M0
100
AcDbLine
 10
129.514002
 20
690.990656
 11
124.552332
 21
690.990656
  0
LINE
  5
7C8
100
AcDbEntity
  8
M0
100
AcDbLine
 10
125.633143
 20
692.190607
 11
125.633143
 21
692.637384
  0
LINE
  5
7C9
100
AcDbEntity
  8
M0
100
AcDbLine
 10
128.433192
 20
692.190607
 11
128.433192
 21
692.637384
  0
ARC
  5
7CA
100
AcDbEntity
  8
M0
100
AcDbCircle
 10
129.514002
 20
691.490656
 40
0.5
100
AcDbArc
 50
270.0
 51
342.88223
  0
ARC
  5
7CB
100
AcDbEntity
  8
M0
100
AcDbCircle
 10
124.552332
 20
691.490656
 40
0.5
100
AcDbArc
 50
197.125483
 51
270.0
  0
LINE
  5
7CC
100
AcDbEntity
  8
M0
  6
DASHDOT
 62
     6
100
AcDbLine
 10
133.356883
 20
695.290705
 11
120.921092
 21
695.290705
  0
CIRCLE
  5
7CD
100
AcDbEntity
  8
M0
100
AcDbCircle
 10
127.033045
 20
695.290705
 40
3.0
  0
LINE
  5
7CE
100
AcDbEntity
  8
M0
100
AcDbLine
 10
129.99203
 20
699.23797
 11
130.808192
 21
696.590754
  0
LINE
  5
7CF
100
AcDbEntity
  8
M0
100
AcDbLine
 10
129.99203
 20
691.343439
 11
130.808192
 21
693.990656
  0
LINE
  5
7D0
100
AcDbEntity
  8
M0
100
AcDbLine
 10
124.074549
 20
699.23797
 11
123.258143
 21
696.590754
  0
LINE
  5
7D1
100
AcDbEntity
  8
M0
100
AcDbLine
 10
124.074549
 20
691.343439
 11
123.258143
 21
693.990656
  0
LINE
  5
7D2
100
AcDbEntity
  8
M0
100
AcDbLine
 10
125.633143
 20
698.390558
 11
123.813075
 21
698.390558
  0
LINE
  5
7D3
100
AcDbEntity
  8
M0
100
AcDbLine
 10
124.711512
 20
697.190607
 11
123.443202
 21
697.190607
  0
LINE
  5
7D4
100
AcDbEntity
  8
M0
100
AcDbLine
 10
124.711512
 20
693.390558
 11
123.443202
 21
693.390558
  0
LINE
  5
7D5
100
AcDbEntity
  8
M0
100
AcDbLine
 10
128.433192
 20
698.390558
 11
130.25326
 21
698.390558
  0
LINE
  5
7D6
100
AcDbEntity
  8
M0
100
AcDbLine
 10
129.354823
 20
697.190607
 11
130.623133
 21
697.190607
  0
LINE
  5
7D7
100
AcDbEntity
  8
M0
100
AcDbLine
 10
129.354823
 20
693.390558
 11
130.623133
 21
693.390558
  0
LINE
  5
7D8
100
AcDbEntity
  8
M0
100
AcDbLine
 10
123.258143
 20
693.990656
 11
123.258143
 21
696.590754
  0
LINE
  5
7D9
100
AcDbEntity
  8
M0
100
AcDbLine
 10
124.552332
 20
699.590754
 11
129.514002
 21
699.590509
  0
LINE
  5
7DA
100
AcDbEntity
  8
M0
100
AcDbLine
 10
130.808192
 20
696.590754
 11
130.808192
 21
693.990656
  0
LINE
  5
7DB
100
AcDbEntity
  8
M0
100
AcDbLine
 10
125.633143
 20
697.944025
 11
125.633143
 21
698.390558
  0
LINE
  5
7DC
100
AcDbEntity
  8
M0
100
AcDbLine
 10
128.433192
 20
697.944025
 11
128.433192
 21
698.390558
  0
LINE
  5
7DD
100
AcDbEntity
  8
M0
100
AcDbLine
 10
125.442469
 20
693.699884
 11
128.62411
 21
696.881525
  0
LINE
  5
7DE
100
AcDbEntity
  8
M0
100
AcDbLine
 10
126.679774
 20
696.704767
 11
128.447352
 21
694.937189
  0
LINE
  5
7DF
100
AcDbEntity
  8
M0
100
AcDbLine
 10
125.619227
 20
695.64422
 11
127.386805
 21
693.876642
  0
ARC
  5
7E0
100
AcDbEntity
  8
M0
100
AcDbCircle
 10
129.514002
 20
699.090509
 40
0.5
100
AcDbArc
 50
17.143222
 51
89.998251
  0
ARC
  5
7E1
100
AcDbEntity
  8
M0
100
AcDbCircle
 10
124.552332
 20
699.090509
 40
0.5
100
AcDbArc
 50
89.998251
 51
162.848548
  0
LINE
  5
7E2
100
AcDbEntity
  8
M0
100
AcDbLine
 10
176.78266
 20
709.58988
 11
176.632758
 21
709.58988
  0
LINE
  5
7E3
100
AcDbEntity
  8
M0
100
AcDbLine
 10
176.632754
 20
704.990027
 11
176.632758
 21
709.58988
  0
ARC
  5
7E4
100
AcDbEntity
  8
M0
100
AcDbCircle
 10
176.782662
 20
712.58988
 40
2.999994
100
AcDbArc
 50
-90.0
 51
0.0
  0
LINE
  5
7E5
100
AcDbEntity
  8
M0
100
AcDbLine
 10
179.782668
 20
722.289782
 11
179.782662
 21
712.589878
  0
ARC
  5
7E6
100
AcDbEntity
  8
M0
100
AcDbCircle
 10
176.782668
 20
722.289784
 40
2.999994
100
AcDbArc
 50
0.0
 51
90.0
  0
LINE
  5
7E7
100
AcDbEntity
  8
M0
100
AcDbLine
 10
176.632754
 20
704.990027
 11
160.932805
 21
704.990036
  0
LINE
  5
7E8
100
AcDbEntity
  8
M0
100
AcDbLine
 10
160.932805
 20
704.990036
 11
160.932808
 21
709.58989
  0
ARC
  5
7E9
100
AcDbEntity
  8
M0
100
AcDbCircle
 10
160.782664
 20
712.58989
 40
2.999992
100
AcDbArc
 50
179.999964
 51
270.0
  0
LINE
  5
7EA
100
AcDbEntity
  8
M0
100
AcDbLine
 10
160.932808
 20
709.58989
 11
160.782662
 21
709.58989
  0
LINE
  5
7EB
100
AcDbEntity
  8
M0
100
AcDbLine
 10
165.032671
 20
726.789639
 11
172.53267
 21
726.789633
  0
LINE
  5
7EC
100
AcDbEntity
  8
M0
100
AcDbLine
 10
172.53267
 20
727.289404
 11
165.032671
 21
727.28941
  0
LINE
  5
7ED
100
AcDbEntity
  8
M0
100
AcDbLine
 10
171.533175
 20
728.28936
 11
171.032671
 21
728.28936
  0
LINE
  5
7EE
100
AcDbEntity
  8
M0
100
AcDbLine
 10
171.032671
 20
728.989586
 11
166.532673
 21
728.989588
  0
LINE
  5
7EF
100
AcDbEntity
  8
M0
100
AcDbLine
 10
166.532673
 20
728.989359
 11
166.532671
 21
727.289408
  0
LINE
  5
7F0
100
AcDbEntity
  8
M0
100
AcDbLine
 10
171.032671
 20
728.989357
 11
171.03267
 21
727.289406
  0
LINE
  5
7F1
100
AcDbEntity
  8
M0
100
AcDbLine
 10
157.782664
 20
712.589647
 11
157.78267
 21
722.289551
  0
LINE
  5
7F2
100
AcDbEntity
  8
M0
100
AcDbLine
 10
160.782916
 20
725.290037
 11
165.032671
 21
725.289791
  0
ARC
  5
7F3
100
AcDbEntity
  8
M0
100
AcDbCircle
 10
160.78267
 20
722.289793
 40
2.999992
100
AcDbArc
 50
90.0
 51
179.999982
  0
LINE
  5
7F4
100
AcDbEntity
  8
M0
100
AcDbLine
 10
165.032671
 20
727.289852
 11
165.032671
 21
725.289852
  0
LINE
  5
7F5
100
AcDbEntity
  8
M0
100
AcDbLine
 10
172.53267
 20
727.289358
 11
172.53267
 21
725.289846
  0
LINE
  5
7F6
100
AcDbEntity
  8
M0
100
AcDbLine
 10
172.53267
 20
725.289785
 11
176.78267
 21
725.290028
  0
LINE
  5
7F7
100
AcDbEntity
  8
M0
100
AcDbLine
 10
171.782662
 20
715.289833
 11
165.782664
 21
715.289837
  0
LINE
  5
7F8
100
AcDbEntity
  8
M0
100
AcDbLine
 10
171.782666
 20
719.789833
 11
165.782668
 21
719.789835
  0
LINE
  5
7F9
100
AcDbEntity
  8
M0
100
AcDbLine
 10
165.782668
 20
719.789835
 11
165.782664
 21
715.289837
  0
LINE
  5
7FA
100
AcDbEntity
  8
M0
100
AcDbLine
 10
171.782666
 20
719.789833
 11
171.782662
 21
715.289833
  0
LINE
  5
7FB
100
AcDbEntity
  8
M0
100
AcDbLine
 10
166.532673
 20
728.289362
 11
166.033177
 21
728.289362
  0
LINE
  5
7FC
100
AcDbEntity
  8
M0
 62
     6
100
AcDbLine
 10
177.083636
 20
705.290304
 11
176.633227
 21
705.290304
  0
LINE
  5
7FD
100
AcDbEntity
  8
M0
 62
     6
100
AcDbLine
 10
177.08364
 20
709.290304
 11
176.783637
 21
709.290304
  0
LINE
  5
7FE
100
AcDbEntity
  8
M0
 62
     6
100
AcDbLine
 10
160.783638
 20
709.290314
 11
160.783635
 21
705.290314
  0
LINE
  5
7FF
100
AcDbEntity
  8
M0
 62
     6
100
AcDbLine
 10
176.783637
 20
709.290304
 11
176.783633
 21
705.290304
  0
LINE
  5
800
100
AcDbEntity
  8
M0
 62
     6
100
AcDbLine
 10
177.083649
 20
725.590138
 11
172.783646
 21
725.590139
  0
LINE
  5
801
100
AcDbEntity
  8
M0
 62
     6
100
AcDbLine
 10
164.78365
 20
727.590145
 11
164.783648
 21
725.289852
  0
LINE
  5
802
100
AcDbEntity
  8
M0
 62
     6
100
AcDbLine
 10
172.783648
 20
727.590139
 11
172.783646
 21
725.289602
  0
ARC
  5
803
100
AcDbEntity
  8
M0
 62
     6
100
AcDbCircle
 10
161.283648
 20
725.090147
 40
0.5
100
AcDbArc
 50
90.0
 51
156.515522
  0
ARC
  5
804
100
AcDbEntity
  8
M0
 62
     6
100
AcDbCircle
 10
176.283646
 20
725.090138
 40
0.5
100
AcDbArc
 50
23.541347
 51
90.0
  0
LINE
  5
805
100
AcDbEntity
  8
M0
 62
     6
100
AcDbLine
 10
159.983651
 20
709.698654
 11
159.983651
 21
709.353821
  0
LINE
  5
806
100
AcDbEntity
  8
M0
 62
     6
100
AcDbLine
 10
177.58364
 20
709.698919
 11
177.58364
 21
709.353811
  0
LINE
  5
807
100
AcDbEntity
  8
M0
 62
     6
100
AcDbLine
 10
160.783638
 20
709.290314
 11
160.483651
 21
709.290314
  0
LINE
  5
808
100
AcDbEntity
  8
M0
 62
     6
100
AcDbLine
 10
176.783635
 20
708.290304
 11
176.633229
 21
708.290304
  0
LINE
  5
809
100
AcDbEntity
  8
M0
 62
     6
100
AcDbLine
 10
160.93328
 20
706.290314
 11
160.783637
 21
706.290314
  0
LINE
  5
80A
100
AcDbEntity
  8
M0
 62
     6
100
AcDbLine
 10
160.93328
 20
708.290314
 11
160.783637
 21
708.290314
  0
LINE
  5
80B
100
AcDbEntity
  8
M0
 62
     6
100
AcDbLine
 10
179.319705
 20
704.290302
 11
158.247593
 21
704.290316
  0
LINE
  5
80C
100
AcDbEntity
  8
M0
 62
     6
100
AcDbLine
 10
179.583632
 20
699.290302
 11
157.983643
 21
699.290316
  0
LINE
  5
80D
100
AcDbEntity
  8
M0
 62
     6
100
AcDbLine
 10
167.033652
 20
731.290094
 11
170.53365
 21
731.290093
  0
LINE
  5
80E
100
AcDbEntity
  8
M0
 62
     6
100
AcDbLine
 10
172.783646
 20
727.290091
 11
171.533646
 21
727.290093
  0
LINE
  5
80F
100
AcDbEntity
  8
M0
 62
     6
100
AcDbLine
 10
166.033648
 20
727.290094
 11
164.783648
 21
727.290096
  0
LINE
  5
810
100
AcDbEntity
  8
M0
 62
     6
100
AcDbLine
 10
164.783648
 20
725.590145
 11
160.48366
 21
725.590147
  0
ARC
  5
811
100
AcDbEntity
  8
M0
 62
     6
100
AcDbCircle
 10
176.583636
 20
706.090292
 40
0.2
100
AcDbArc
 50
0.0
 51
90.0
  0
LINE
  5
812
100
AcDbEntity
  8
M0
 62
     6
100
AcDbLine
 10
172.783648
 20
727.590139
 11
171.533648
 21
727.590141
  0
LINE
  5
813
100
AcDbEntity
  8
M0
 62
     6
100
AcDbLine
 10
166.03365
 20
727.590143
 11
164.78365
 21
727.590145
  0
LINE
  5
814
100
AcDbEntity
  8
M0
 62
     6
100
AcDbLine
 10
180.083647
 20
722.590136
 11
180.083642
 21
712.290302
  0
LINE
  5
815
100
AcDbEntity
  8
M0
 62
     6
100
AcDbLine
 10
157.483653
 20
712.2903
 11
157.483658
 21
722.590149
  0
LINE
  5
816
100
AcDbEntity
  8
M0
 62
     6
100
AcDbLine
 10
180.083634
 20
702.290302
 11
180.083632
 21
699.790302
  0
LINE
  5
817
100
AcDbEntity
  8
M0
 62
     6
100
AcDbLine
 10
157.483643
 20
699.790316
 11
157.483645
 21
702.2903
  0
ARC
  5
818
100
AcDbEntity
  8
M0
 62
     6
100
AcDbCircle
 10
179.583632
 20
699.790302
 40
0.5
100
AcDbArc
 50
-90.0
 51
0.0
  0
ARC
  5
819
100
AcDbEntity
  8
M0
 62
     6
100
AcDbCircle
 10
157.983643
 20
699.790316
 40
0.5
100
AcDbArc
 50
179.999891
 51
270.0
  0
ARC
  5
81A
100
AcDbEntity
  8
M0
 62
     6
100
AcDbCircle
 10
157.983658
 20
722.2901
 40
0.5
100
AcDbArc
 50
109.026564
 51
180.0
  0
ARC
  5
81B
100
AcDbEntity
  8
M0
 62
     6
100
AcDbCircle
 10
179.583642
 20
713.290302
 40
0.5
100
AcDbArc
 50
-66.485329
 51
0.0
  0
ARC
  5
81C
100
AcDbEntity
  8
M0
 62
     6
100
AcDbCircle
 10
157.983653
 20
713.290316
 40
0.5
100
AcDbArc
 50
179.999891
 51
246.357644
  0
ARC
  5
81D
100
AcDbEntity
  8
M0
 62
     6
100
AcDbCircle
 10
179.583647
 20
722.290087
 40
0.5
100
AcDbArc
 50
0.0
 51
71.098231
  0
ARC
  5
81E
100
AcDbEntity
  8
M0
 62
     6
100
AcDbCircle
 10
179.583647
 20
722.790087
 40
0.5
100
AcDbArc
 50
0.0
 51
90.0
  0
ARC
  5
81F
100
AcDbEntity
  8
M0
 62
     6
100
AcDbCircle
 10
157.983658
 20
722.7901
 40
0.5
100
AcDbArc
 50
90.0
 51
180.0
  0
ARC
  5
820
100
AcDbEntity
  8
M0
 62
     6
100
AcDbCircle
 10
160.483658
 20
722.590147
 40
2.999996
100
AcDbArc
 50
90.0
 51
179.999982
  0
ARC
  5
821
100
AcDbEntity
  8
M0
 62
     6
100
AcDbCircle
 10
177.083647
 20
722.590138
 40
2.999996
100
AcDbArc
 50
0.0
 51
90.0
  0
ARC
  5
822
100
AcDbEntity
  8
M0
 62
     6
100
AcDbCircle
 10
177.083642
 20
712.290304
 40
2.999996
100
AcDbArc
 50
-90.0
 51
0.0
  0
ARC
  5
823
100
AcDbEntity
  8
M0
 62
     6
100
AcDbCircle
 10
160.483653
 20
712.290314
 40
2.999996
100
AcDbArc
 50
179.999964
 51
270.0
  0
ARC
  5
824
100
AcDbEntity
  8
M0
 62
     6
100
AcDbCircle
 10
160.483645
 20
702.290314
 40
2.999996
100
AcDbArc
 50
90.0
 51
179.999964
  0
ARC
  5
825
100
AcDbEntity
  8
M0
 62
     6
100
AcDbCircle
 10
177.083634
 20
702.290304
 40
2.999996
100
AcDbArc
 50
0.0
 51
90.0
  0
LINE
  5
826
100
AcDbEntity
  8
M0
 62
     6
100
AcDbLine
 10
166.03365
 20
730.290094
 11
166.033648
 21
727.290094
  0
LINE
  5
827
100
AcDbEntity
  8
M0
 62
     6
100
AcDbLine
 10
171.533648
 20
730.290093
 11
171.533646
 21
727.290093
  0
ARC
  5
828
100
AcDbEntity
  8
M0
 62
     6
100
AcDbCircle
 10
167.03365
 20
730.290094
 40
1.0
100
AcDbArc
 50
90.0
 51
180.0
  0
ARC
  5
829
100
AcDbEntity
  8
M0
 62
     6
100
AcDbCircle
 10
170.533648
 20
730.290093
 40
1.0
100
AcDbArc
 50
0.0
 51
90.0
  0
LINE
  5
82A
100
AcDbEntity
  8
M0
 62
     6
100
AcDbLine
 10
160.933278
 20
705.290314
 11
160.483647
 21
705.290314
  0
LINE
  5
82B
100
AcDbEntity
  8
M0
 62
     7
100
AcDbLine
 10
174.283404
 20
705.040215
 11
163.283406
 21
705.04022
  0
LINE
  5
82C
100
AcDbEntity
  8
M0
 62
     7
100
AcDbLine
 10
159.78341
 20
712.03949
 11
159.783417
 21
723.039732
  0
LINE
  5
82D
100
AcDbEntity
  8
M0
 62
     7
100
AcDbLine
 10
161.283419
 20
724.54022
 11
176.283417
 21
724.540211
  0
LINE
  5
82E
100
AcDbEntity
  8
M0
 62
     7
100
AcDbLine
 10
177.783415
 20
723.039967
 11
177.783408
 21
712.039724
  0
LINE
  5
82F
100
AcDbEntity
  8
M0
 62
     7
100
AcDbLine
 10
161.283242
 20
710.539978
 11
161.78341
 21
710.539978
  0
LINE
  5
830
100
AcDbEntity
  8
M0
 62
     7
100
AcDbLine
 10
165.283412
 20
714.540219
 11
165.283415
 21
720.540218
  0
LINE
  5
831
100
AcDbEntity
  8
M0
 62
     7
100
AcDbLine
 10
172.28341
 20
714.540214
 11
172.283413
 21
720.540213
  0
LINE
  5
832
100
AcDbEntity
  8
M0
 62
     7
100
AcDbLine
 10
172.28341
 20
714.540214
 11
165.283412
 21
714.540219
  0
LINE
  5
833
100
AcDbEntity
  8
M0
 62
     7
100
AcDbLine
 10
172.283413
 20
720.540213
 11
165.283415
 21
720.540218
  0
LINE
  5
834
100
AcDbEntity
  8
M0
 62
     7
100
AcDbLine
 10
161.78341
 20
710.540222
 11
161.783408
 21
706.540222
  0
LINE
  5
835
100
AcDbEntity
  8
M0
 62
     7
100
AcDbLine
 10
175.783408
 20
710.540213
 11
175.783406
 21
706.540213
  0
LINE
  5
836
100
AcDbEntity
  8
M0
 62
     7
100
AcDbLine
 10
176.283789
 20
710.539969
 11
175.783408
 21
710.539724
  0
ARC
  5
837
100
AcDbEntity
  8
M0
 62
     7
100
AcDbCircle
 10
176.283408
 20
712.039724
 40
1.499998
100
AcDbArc
 50
-89.985465
 51
0.0
  0
ARC
  5
838
100
AcDbEntity
  8
M0
 62
     7
100
AcDbCircle
 10
161.28341
 20
712.039734
 40
1.499998
100
AcDbArc
 50
180.009289
 51
269.993589
  0
ARC
  5
839
100
AcDbEntity
  8
M0
 62
     7
100
AcDbCircle
 10
161.283417
 20
723.039976
 40
1.499998
100
AcDbArc
 50
90.0
 51
180.009326
  0
ARC
  5
83A
100
AcDbEntity
  8
M0
 62
     7
100
AcDbCircle
 10
176.283415
 20
723.039967
 40
1.499998
100
AcDbArc
 50
0.0
 51
90.0
  0
ARC
  5
83B
100
AcDbEntity
  8
M0
 62
     7
100
AcDbCircle
 10
174.283406
 20
706.540215
 40
1.5
100
AcDbArc
 50
-90.0
 51
0.0
  0
ARC
  5
83C
100
AcDbEntity
  8
M0
 62
     7
100
AcDbCircle
 10
163.283408
 20
706.54022
 40
1.5
100
AcDbArc
 50
179.999964
 51
270.0
  0
ARC
  5
83D
100
AcDbEntity
  8
M0
100
AcDbCircle
 10
330.534495
 20
660.290186
 40
7.0
100
AcDbArc
 50
-90.000125
 51
0.0
  0
ARC
  5
83E
100
AcDbEntity
  8
M0
100
AcDbCircle
 10
245.034495
 20
660.290186
 40
7.0
100
AcDbArc
 50
179.999875
 51
269.999875
  0
LINE
  5
83F
100
AcDbEntity
  8
M0
100
AcDbLine
 10
238.034495
 20
660.290186
 11
238.034495
 21
677.790674
  0
ARC
  5
840
100
AcDbEntity
  8
M0
100
AcDbCircle
 10
245.034495
 20
770.290186
 40
7.0
100
AcDbArc
 50
90.0
 51
179.999875
  0
LINE
  5
841
100
AcDbEntity
  8
M0
100
AcDbLine
 10
337.534495
 20
770.290186
 11
337.534495
 21
752.723291
  0
ARC
  5
842
100
AcDbEntity
  8
M0
100
AcDbCircle
 10
330.534495
 20
770.290186
 40
7.0
100
AcDbArc
 50
0.0
 51
90.0
  0
LINE
  5
843
100
AcDbEntity
  8
M0
100
AcDbLine
 10
314.784495
 20
665.790186
 11
293.284495
 21
665.790186
  0
LINE
  5
844
100
AcDbEntity
  8
M0
100
AcDbLine
 10
314.784495
 20
764.790186
 11
260.784495
 21
764.790186
  0
LINE
  5
845
100
AcDbEntity
  8
M0
  6
DASHDOT
100
AcDbLine
 10
329.784495
 20
673.040186
 11
329.784495
 21
647.540186
  0
LINE
  5
846
100
AcDbEntity
  8
M0
100
AcDbLine
 10
244.534495
 20
773.040186
 11
244.784449
 21
773.040186
  0
LINE
  5
847
100
AcDbEntity
  8
M0
100
AcDbLine
 10
337.534495
 20
677.857065
 11
337.534495
 21
660.290186
  0
LINE
  5
848
100
AcDbEntity
  8
M0
100
AcDbLine
 10
238.034495
 20
752.790201
 11
238.034495
 21
770.290186
  0
LINE
  5
849
100
AcDbEntity
  8
M0
100
AcDbLine
 10
282.284495
 20
665.790186
 11
260.784495
 21
665.790186
  0
ARC
  5
84A
100
AcDbEntity
  8
M0
100
AcDbCircle
 10
245.03364
 20
770.28985
 40
7.0
100
AcDbArc
 50
89.999875
 51
180.0
  0
ARC
  5
84B
100
AcDbEntity
  8
M0
100
AcDbCircle
 10
330.53364
 20
770.289789
 40
7.0
100
AcDbArc
 50
0.0
 51
89.999875
  0
LINE
  5
84C
100
AcDbEntity
  8
M0
100
AcDbLine
 10
337.53364
 20
770.289789
 11
337.53364
 21
752.789301
  0
ARC
  5
84D
100
AcDbEntity
  8
M0
100
AcDbCircle
 10
330.533579
 20
660.289789
 40
7.0
100
AcDbArc
 50
-90.0
 51
0.0
  0
LINE
  5
84E
100
AcDbEntity
  8
M0
100
AcDbLine
 10
238.033579
 20
660.28985
 11
238.033579
 21
677.856745
  0
ARC
  5
84F
100
AcDbEntity
  8
M0
100
AcDbCircle
 10
245.033579
 20
660.28985
 40
7.0
100
AcDbArc
 50
180.0
 51
270.0
  0
LINE
  5
850
100
AcDbEntity
  8
M0
100
AcDbLine
 10
260.78364
 20
764.78985
 11
282.28364
 21
764.78982
  0
LINE
  5
851
100
AcDbEntity
  8
M0
100
AcDbLine
 10
260.783579
 20
665.78985
 11
314.783579
 21
665.789789
  0
LINE
  5
852
100
AcDbEntity
  8
M0
100
AcDbLine
 10
331.033579
 20
657.539789
 11
330.783625
 21
657.539789
  0
LINE
  5
853
100
AcDbEntity
  8
M0
  6
DASHDOT
100
AcDbLine
 10
329.783579
 20
647.539789
 11
329.783579
 21
673.039789
  0
LINE
  5
854
100
AcDbEntity
  8
M0
100
AcDbLine
 10
238.03364
 20
752.722971
 11
238.03364
 21
770.28985
  0
LINE
  5
855
100
AcDbEntity
  8
M0
100
AcDbLine
 10
337.533579
 20
677.789774
 11
337.533579
 21
660.289789
  0
LINE
  5
856
100
AcDbEntity
  8
M0
100
AcDbLine
 10
293.28364
 20
764.78982
 11
314.78364
 21
764.789789
  0
ARC
  5
857
100
AcDbEntity
  8
M0
100
AcDbCircle
 10
330.534464
 20
660.289728
 40
7.0
100
AcDbArc
 50
-90.000125
 51
0.0
  0
ARC
  5
858
100
AcDbEntity
  8
M0
100
AcDbCircle
 10
245.034464
 20
660.289728
 40
7.0
100
AcDbArc
 50
179.999875
 51
269.999875
  0
LINE
  5
859
100
AcDbEntity
  8
M0
100
AcDbLine
 10
238.034464
 20
660.289728
 11
238.034464
 21
677.790216
  0
ARC
  5
85A
100
AcDbEntity
  8
M0
100
AcDbCircle
 10
245.034464
 20
770.289728
 40
7.0
100
AcDbArc
 50
90.0
 51
179.999875
  0
LINE
  5
85B
100
AcDbEntity
  8
M0
100
AcDbLine
 10
337.534464
 20
770.289728
 11
337.534464
 21
752.722834
  0
ARC
  5
85C
100
AcDbEntity
  8
M0
100
AcDbCircle
 10
330.534464
 20
770.289728
 40
7.0
100
AcDbArc
 50
0.0
 51
90.0
  0
LINE
  5
85D
100
AcDbEntity
  8
M0
100
AcDbLine
 10
314.784464
 20
665.789728
 11
293.284464
 21
665.789728
  0
LINE
  5
85E
100
AcDbEntity
  8
M0
100
AcDbLine
 10
314.784464
 20
764.789728
 11
260.784464
 21
764.789728
  0
LINE
  5
85F
100
AcDbEntity
  8
M0
  6
DASHDOT
100
AcDbLine
 10
329.784464
 20
673.039728
 11
329.784464
 21
647.539728
  0
LINE
  5
860
100
AcDbEntity
  8
M0
100
AcDbLine
 10
244.534464
 20
773.039728
 11
244.784419
 21
773.039728
  0
LINE
  5
861
100
AcDbEntity
  8
M0
100
AcDbLine
 10
337.534464
 20
677.856607
 11
337.534464
 21
660.289728
  0
LINE
  5
862
100
AcDbEntity
  8
M0
100
AcDbLine
 10
238.034464
 20
752.789743
 11
238.034464
 21
770.289728
  0
LINE
  5
863
100
AcDbEntity
  8
M0
100
AcDbLine
 10
282.284464
 20
665.789728
 11
260.784464
 21
665.789728
  0
LINE
  5
864
100
AcDbEntity
  8
M0
  6
DASHDOT
100
AcDbLine
 10
128.284144
 20
678.452143
 11
128.283518
 21
691.181665
  0
LINE
  5
865
100
AcDbEntity
  8
M0
  6
DASHDOT
 62
     6
100
AcDbLine
 10
121.960307
 20
685.289698
 11
134.396098
 21
685.289698
  0
CIRCLE
  5
866
100
AcDbEntity
  8
M0
100
AcDbCircle
 10
128.284144
 20
685.289698
 40
3.0
  0
LINE
  5
867
100
AcDbEntity
  8
M0
100
AcDbLine
 10
129.87472
 20
683.698877
 11
126.693079
 21
686.880518
  0
LINE
  5
868
100
AcDbEntity
  8
M0
100
AcDbLine
 10
128.637415
 20
686.70376
 11
126.869837
 21
684.936182
  0
LINE
  5
869
100
AcDbEntity
  8
M0
100
AcDbLine
 10
129.697962
 20
685.643213
 11
127.930384
 21
683.875635
  0
LINE
  5
86A
100
AcDbEntity
  8
M0
  6
DASHDOT
100
AcDbLine
 10
126.7839
 20
666.452143
 11
126.783274
 21
679.181665
  0
LINE
  5
86B
100
AcDbEntity
  8
M0
100
AcDbLine
 10
128.183802
 20
670.1896
 11
130.00387
 21
670.1896
  0
LINE
  5
86C
100
AcDbEntity
  8
M0
100
AcDbLine
 10
125.383753
 20
670.1896
 11
123.563685
 21
670.1896
  0
LINE
  5
86D
100
AcDbEntity
  8
M0
100
AcDbLine
 10
124.302943
 20
668.989649
 11
129.264613
 21
668.989649
  0
LINE
  5
86E
100
AcDbEntity
  8
M0
100
AcDbLine
 10
128.183802
 20
670.1896
 11
128.183802
 21
670.636377
  0
LINE
  5
86F
100
AcDbEntity
  8
M0
100
AcDbLine
 10
125.383753
 20
670.1896
 11
125.383753
 21
670.636377
  0
ARC
  5
870
100
AcDbEntity
  8
M0
100
AcDbCircle
 10
124.302943
 20
669.489649
 40
0.5
100
AcDbArc
 50
197.11777
 51
269.998251
  0
ARC
  5
871
100
AcDbEntity
  8
M0
100
AcDbCircle
 10
129.264613
 20
669.489649
 40
0.5
100
AcDbArc
 50
269.998251
 51
342.874517
  0
LINE
  5
872
100
AcDbEntity
  8
M0
  6
DASHDOT
 62
     6
100
AcDbLine
 10
120.460063
 20
673.289698
 11
132.895854
 21
673.289698
  0
CIRCLE
  5
873
100
AcDbEntity
  8
M0
100
AcDbCircle
 10
126.7839
 20
673.289698
 40
3.0
  0
LINE
  5
874
100
AcDbEntity
  8
M0
100
AcDbLine
 10
123.824915
 20
677.236963
 11
123.008753
 21
674.589747
  0
LINE
  5
875
100
AcDbEntity
  8
M0
100
AcDbLine
 10
123.824915
 20
669.342432
 11
123.008753
 21
671.989649
  0
LINE
  5
876
100
AcDbEntity
  8
M0
100
AcDbLine
 10
129.742396
 20
677.236963
 11
130.558802
 21
674.589747
  0
LINE
  5
877
100
AcDbEntity
  8
M0
100
AcDbLine
 10
129.742396
 20
669.342432
 11
130.558802
 21
671.989649
  0
LINE
  5
878
100
AcDbEntity
  8
M0
100
AcDbLine
 10
128.183802
 20
676.389551
 11
130.00387
 21
676.389551
  0
LINE
  5
879
100
AcDbEntity
  8
M0
100
AcDbLine
 10
129.105433
 20
675.1896
 11
130.373744
 21
675.1896
  0
LINE
  5
87A
100
AcDbEntity
  8
M0
100
AcDbLine
 10
129.105433
 20
671.389551
 11
130.373744
 21
671.389551
  0
LINE
  5
87B
100
AcDbEntity
  8
M0
100
AcDbLine
 10
125.383753
 20
676.389551
 11
123.563685
 21
676.389551
  0
LINE
  5
87C
100
AcDbEntity
  8
M0
100
AcDbLine
 10
124.462122
 20
675.1896
 11
123.193812
 21
675.1896
  0
LINE
  5
87D
100
AcDbEntity
  8
M0
100
AcDbLine
 10
124.462122
 20
671.389551
 11
123.193812
 21
671.389551
  0
LINE
  5
87E
100
AcDbEntity
  8
M0
100
AcDbLine
 10
130.558802
 20
671.989649
 11
130.558802
 21
674.589747
  0
LINE
  5
87F
100
AcDbEntity
  8
M0
100
AcDbLine
 10
129.264613
 20
677.589747
 11
124.302943
 21
677.589502
  0
LINE
  5
880
100
AcDbEntity
  8
M0
100
AcDbLine
 10
123.008753
 20
674.589747
 11
123.008753
 21
671.989649
  0
LINE
  5
881
100
AcDbEntity
  8
M0
100
AcDbLine
 10
128.183802
 20
675.943018
 11
128.183802
 21
676.389551
  0
LINE
  5
882
100
AcDbEntity
  8
M0
100
AcDbLine
 10
125.383753
 20
675.943018
 11
125.383753
 21
676.389551
  0
LINE
  5
883
100
AcDbEntity
  8
M0
100
AcDbLine
 10
128.374476
 20
671.698877
 11
125.192835
 21
674.880518
  0
LINE
  5
884
100
AcDbEntity
  8
M0
100
AcDbLine
 10
127.137171
 20
674.70376
 11
125.369593
 21
672.936182
  0
LINE
  5
885
100
AcDbEntity
  8
M0
100
AcDbLine
 10
128.197718
 20
673.643213
 11
126.43014
 21
671.875635
  0
ARC
  5
886
100
AcDbEntity
  8
M0
100
AcDbCircle
 10
124.302943
 20
677.089502
 40
0.5
100
AcDbArc
 50
90.0
 51
162.856778
  0
ARC
  5
887
100
AcDbEntity
  8
M0
100
AcDbCircle
 10
129.264613
 20
677.089502
 40
0.5
100
AcDbArc
 50
17.151452
 51
90.0
  0
CIRCLE
  5
888
100
AcDbEntity
  8
M0
100
AcDbCircle
 10
126.783808
 20
757.289713
 40
2.0
  0
LINE
  5
889
100
AcDbEntity
  8
M0
  6
DASHDOT
100
AcDbLine
 10
114.783808
 20
757.289713
 11
138.783808
 21
757.289713
  0
LINE
  5
88A
100
AcDbEntity
  8
M0
  6
DASHDOT
100
AcDbLine
 10
126.783808
 20
745.289713
 11
126.783808
 21
769.289713
  0
LINE
  5
88B
100
AcDbEntity
  8
M0
100
AcDbLine
 10
130.783808
 20
764.789225
 11
130.783808
 21
752.789225
  0
LINE
  5
88C
100
AcDbEntity
  8
M0
100
AcDbLine
 10
122.783808
 20
764.789225
 11
122.783808
 21
752.789225
  0
LINE
  5
88D
100
AcDbEntity
  8
M0
100
AcDbLine
 10
124.533808
 20
754.289713
 11
129.033808
 21
754.289713
  0
LINE
  5
88E
100
AcDbEntity
  8
M0
100
AcDbLine
 10
129.533808
 20
761.289743
 11
129.533808
 21
754.789713
  0
LINE
  5
88F
100
AcDbEntity
  8
M0
100
AcDbLine
 10
124.033808
 20
761.289743
 11
124.033808
 21
754.789713
  0
ARC
  5
890
100
AcDbEntity
  8
M0
100
AcDbCircle
 10
124.533808
 20
754.789713
 40
0.5
100
AcDbArc
 50
180.0
 51
269.998251
  0
ARC
  5
891
100
AcDbEntity
  8
M0
100
AcDbCircle
 10
129.033808
 20
754.789713
 40
0.5
100
AcDbArc
 50
269.998251
 51
360.0
  0
LINE
  5
892
100
AcDbEntity
  8
M0
100
AcDbLine
 10
122.783808
 20
761.289743
 11
130.783808
 21
761.289743
  0
LINE
  5
893
100
AcDbEntity
  8
M0
100
AcDbLine
 10
119.033808
 20
764.789225
 11
130.803568
 21
764.789225
  0
LINE
  5
894
100
AcDbEntity
  8
M0
100
AcDbLine
 10
119.033808
 20
764.789225
 11
130.803568
 21
764.789225
  0
LINE
  5
895
100
AcDbEntity
  8
M0
100
AcDbLine
 10
206.783808
 20
764.789225
 11
206.783808
 21
752.789225
  0
LINE
  5
896
100
AcDbEntity
  8
M0
100
AcDbLine
 10
214.783808
 20
764.789225
 11
214.783808
 21
752.789225
  0
LINE
  5
897
100
AcDbEntity
  8
M0
100
AcDbLine
 10
214.783808
 20
761.289743
 11
213.726023
 21
761.289743
  0
LINE
  5
898
100
AcDbEntity
  8
M0
  6
DASHDOT
100
AcDbLine
 10
210.783808
 20
745.289713
 11
210.783808
 21
769.289713
  0
LINE
  5
899
100
AcDbEntity
  8
M0
  6
DASHDOT
100
AcDbLine
 10
222.783808
 20
757.289713
 11
198.783808
 21
757.289713
  0
LINE
  5
89A
100
AcDbEntity
  8
M0
100
AcDbLine
 10
218.533808
 20
764.789225
 11
206.764033
 21
764.789225
  0
LINE
  5
89B
100
AcDbEntity
  8
M0
  6
DASHDOT
100
AcDbLine
 10
126.783808
 20
685.289774
 11
126.783808
 21
661.289774
  0
LINE
  5
89C
100
AcDbEntity
  8
M0
100
AcDbLine
 10
119.033808
 20
665.790262
 11
130.803568
 21
665.790262
  0
LINE
  5
89D
100
AcDbEntity
  8
M0
100
AcDbLine
 10
206.783808
 20
665.790262
 11
206.783808
 21
677.790262
  0
LINE
  5
89E
100
AcDbEntity
  8
M0
100
AcDbLine
 10
214.783808
 20
665.790262
 11
214.783808
 21
677.790262
  0
LINE
  5
89F
100
AcDbEntity
  8
M0
100
AcDbLine
 10
214.783808
 20
669.289743
 11
206.783808
 21
669.289743
  0
LINE
  5
8A0
100
AcDbEntity
  8
M0
100
AcDbLine
 10
208.033808
 20
669.289743
 11
208.033808
 21
675.789774
  0
ARC
  5
8A1
100
AcDbEntity
  8
M0
100
AcDbCircle
 10
208.533808
 20
675.789774
 40
0.5
100
AcDbArc
 50
90.0
 51
179.998251
  0
LINE
  5
8A2
100
AcDbEntity
  8
M0
100
AcDbLine
 10
213.033808
 20
676.289774
 11
208.533808
 21
676.289774
  0
ARC
  5
8A3
100
AcDbEntity
  8
M0
100
AcDbCircle
 10
213.033808
 20
675.789774
 40
0.5
100
AcDbArc
 50
0.0
 51
90.0
  0
LINE
  5
8A4
100
AcDbEntity
  8
M0
100
AcDbLine
 10
213.533808
 20
669.289743
 11
213.533808
 21
675.789774
  0
LINE
  5
8A5
100
AcDbEntity
  8
M0
100
AcDbLine
 10
218.533808
 20
665.790262
 11
206.764033
 21
665.790262
  0
LINE
  5
8A6
100
AcDbEntity
  8
M0
100
AcDbLine
 10
207.84109
 20
761.289743
 11
206.783808
 21
761.289743
  0
CIRCLE
  5
8A7
100
AcDbEntity
  8
M0
100
AcDbCircle
 10
210.78357
 20
673.289735
 40
2.0
  0
LINE
  5
8A8
100
AcDbEntity
  8
M0
  6
DASHDOT
100
AcDbLine
 10
222.78357
 20
673.289742
 11
198.78357
 21
673.289727
  0
LINE
  5
8A9
100
AcDbEntity
  8
M0
  6
DASHDOT
100
AcDbLine
 10
210.783562
 20
685.289735
 11
210.783577
 21
661.289735
  0
LINE
  5
8AA
100
AcDbEntity
  8
M0
  6
DASHDOT
100
AcDbLine
 10
210.783686
 20
750.452143
 11
210.783061
 21
763.181665
  0
LINE
  5
8AB
100
AcDbEntity
  8
M0
100
AcDbLine
 10
212.183589
 20
754.1896
 11
214.003657
 21
754.1896
  0
LINE
  5
8AC
100
AcDbEntity
  8
M0
100
AcDbLine
 10
209.38354
 20
754.1896
 11
207.563471
 21
754.1896
  0
LINE
  5
8AD
100
AcDbEntity
  8
M0
100
AcDbLine
 10
208.302729
 20
752.989649
 11
213.264399
 21
752.989649
  0
LINE
  5
8AE
100
AcDbEntity
  8
M0
100
AcDbLine
 10
212.183589
 20
754.1896
 11
212.183589
 21
754.636377
  0
LINE
  5
8AF
100
AcDbEntity
  8
M0
100
AcDbLine
 10
209.38354
 20
754.1896
 11
209.38354
 21
754.636377
  0
ARC
  5
8B0
100
AcDbEntity
  8
M0
100
AcDbCircle
 10
208.302729
 20
753.489649
 40
0.5
100
AcDbArc
 50
197.11777
 51
269.998251
  0
ARC
  5
8B1
100
AcDbEntity
  8
M0
100
AcDbCircle
 10
213.264399
 20
753.489649
 40
0.5
100
AcDbArc
 50
269.998251
 51
342.874517
  0
LINE
  5
8B2
100
AcDbEntity
  8
M0
  6
DASHDOT
 62
     6
100
AcDbLine
 10
204.459849
 20
757.289698
 11
216.89564
 21
757.289698
  0
CIRCLE
  5
8B3
100
AcDbEntity
  8
M0
100
AcDbCircle
 10
210.783686
 20
757.289698
 40
3.0
  0
LINE
  5
8B4
100
AcDbEntity
  8
M0
100
AcDbLine
 10
207.824702
 20
761.236963
 11
207.00854
 21
758.589747
  0
LINE
  5
8B5
100
AcDbEntity
  8
M0
100
AcDbLine
 10
207.824702
 20
753.342432
 11
207.00854
 21
755.989649
  0
LINE
  5
8B6
100
AcDbEntity
  8
M0
100
AcDbLine
 10
213.742182
 20
761.236963
 11
214.558589
 21
758.589747
  0
LINE
  5
8B7
100
AcDbEntity
  8
M0
100
AcDbLine
 10
213.742182
 20
753.342432
 11
214.558589
 21
755.989649
  0
LINE
  5
8B8
100
AcDbEntity
  8
M0
100
AcDbLine
 10
212.183589
 20
760.389551
 11
214.003657
 21
760.389551
  0
LINE
  5
8B9
100
AcDbEntity
  8
M0
100
AcDbLine
 10
213.105219
 20
759.1896
 11
214.37353
 21
759.1896
  0
LINE
  5
8BA
100
AcDbEntity
  8
M0
100
AcDbLine
 10
213.105219
 20
755.389551
 11
214.37353
 21
755.389551
  0
LINE
  5
8BB
100
AcDbEntity
  8
M0
100
AcDbLine
 10
209.38354
 20
760.389551
 11
207.563471
 21
760.389551
  0
LINE
  5
8BC
100
AcDbEntity
  8
M0
100
AcDbLine
 10
208.461909
 20
759.1896
 11
207.193598
 21
759.1896
  0
LINE
  5
8BD
100
AcDbEntity
  8
M0
100
AcDbLine
 10
208.461909
 20
755.389551
 11
207.193598
 21
755.389551
  0
LINE
  5
8BE
100
AcDbEntity
  8
M0
100
AcDbLine
 10
214.558589
 20
755.989649
 11
214.558589
 21
758.589747
  0
LINE
  5
8BF
100
AcDbEntity
  8
M0
100
AcDbLine
 10
213.264399
 20
761.589747
 11
208.302729
 21
761.589502
  0
LINE
  5
8C0
100
AcDbEntity
  8
M0
100
AcDbLine
 10
207.00854
 20
758.589747
 11
207.00854
 21
755.989649
  0
LINE
  5
8C1
100
AcDbEntity
  8
M0
100
AcDbLine
 10
212.183589
 20
759.943018
 11
212.183589
 21
760.389551
  0
LINE
  5
8C2
100
AcDbEntity
  8
M0
100
AcDbLine
 10
209.38354
 20
759.943018
 11
209.38354
 21
760.389551
  0
LINE
  5
8C3
100
AcDbEntity
  8
M0
100
AcDbLine
 10
212.374262
 20
755.698877
 11
209.192622
 21
758.880518
  0
LINE
  5
8C4
100
AcDbEntity
  8
M0
100
AcDbLine
 10
211.136958
 20
758.70376
 11
209.36938
 21
756.936182
  0
LINE
  5
8C5
100
AcDbEntity
  8
M0
100
AcDbLine
 10
212.197505
 20
757.643213
 11
210.429926
 21
755.875635
  0
ARC
  5
8C6
100
AcDbEntity
  8
M0
100
AcDbCircle
 10
208.302729
 20
761.089502
 40
0.5
100
AcDbArc
 50
90.0
 51
162.856778
  0
ARC
  5
8C7
100
AcDbEntity
  8
M0
100
AcDbCircle
 10
213.264399
 20
761.089502
 40
0.5
100
AcDbArc
 50
17.151452
 51
90.0
  0
LINE
  5
8C8
100
AcDbEntity
  8
M0
  6
DASHDOT
100
AcDbLine
 10
114.783808
 20
757.289713
 11
138.783808
 21
757.289713
  0
LINE
  5
8C9
100
AcDbEntity
  8
M0
  6
DASHDOT
100
AcDbLine
 10
126.783808
 20
745.289713
 11
126.783808
 21
769.289713
  0
LINE
  5
8CA
100
AcDbEntity
  8
M0
100
AcDbLine
 10
119.033808
 20
764.789225
 11
130.803568
 21
764.789225
  0
LINE
  5
8CB
100
AcDbEntity
  8
M0
100
AcDbLine
 10
119.033808
 20
764.789225
 11
130.803568
 21
764.789225
  0
LINE
  5
8CC
100
AcDbEntity
  8
M0
100
AcDbLine
 10
206.783808
 20
764.789225
 11
206.783808
 21
752.789225
  0
LINE
  5
8CD
100
AcDbEntity
  8
M0
100
AcDbLine
 10
214.783808
 20
764.789225
 11
214.783808
 21
752.789225
  0
LINE
  5
8CE
100
AcDbEntity
  8
M0
100
AcDbLine
 10
214.783808
 20
761.289743
 11
213.726023
 21
761.289743
  0
LINE
  5
8CF
100
AcDbEntity
  8
M0
  6
DASHDOT
100
AcDbLine
 10
210.783808
 20
745.289713
 11
210.783808
 21
769.289713
  0
LINE
  5
8D0
100
AcDbEntity
  8
M0
  6
DASHDOT
100
AcDbLine
 10
222.783808
 20
757.289713
 11
198.783808
 21
757.289713
  0
LINE
  5
8D1
100
AcDbEntity
  8
M0
100
AcDbLine
 10
218.533808
 20
764.789225
 11
206.764033
 21
764.789225
  0
LINE
  5
8D2
100
AcDbEntity
  8
M0
100
AcDbLine
 10
119.033808
 20
665.790262
 11
130.803568
 21
665.790262
  0
LINE
  5
8D3
100
AcDbEntity
  8
M0
100
AcDbLine
 10
218.533808
 20
665.790262
 11
206.764033
 21
665.790262
  0
LINE
  5
8D4
100
AcDbEntity
  8
M0
100
AcDbLine
 10
207.84109
 20
761.289743
 11
206.783808
 21
761.289743
  0
ARC
  5
8D5
100
AcDbEntity
  8
M0
100
AcDbCircle
 10
329.783793
 20
770.289988
 40
4.5
100
AcDbArc
 50
240.166232
 51
437.156772
  0
LINE
  5
8D6
100
AcDbEntity
  8
M0
100
AcDbLine
 10
330.63238
 20
770.289911
 11
333.361674
 21
773.01919
  0
LINE
  5
8D7
100
AcDbEntity
  8
M0
100
AcDbLine
 10
332.513026
 20
773.867624
 11
330.784022
 21
772.13862
  0
LINE
  5
8D8
100
AcDbEntity
  8
M0
100
AcDbLine
 10
330.336024
 20
768.88862
 11
331.056483
 21
768.168406
  0
LINE
  5
8D9
100
AcDbEntity
  8
M0
100
AcDbLine
 10
331.905207
 20
769.017084
 11
330.63238
 21
770.289911
  0
LINE
  5
8DA
100
AcDbEntity
  8
M0
100
AcDbLine
 10
331.056681
 20
768.168558
 11
331.905207
 21
769.017084
  0
ARC
  5
8DB
100
AcDbEntity
  8
M0
100
AcDbCircle
 10
329.783793
 20
770.289988
 40
5.0
100
AcDbArc
 50
238.280877
 51
438.460297
  0
LINE
  5
8DC
100
AcDbEntity
  8
M0
  6
DASHDOT
100
AcDbLine
 10
322.966059
 20
770.289988
 11
336.607824
 21
770.289972
  0
LINE
  5
8DD
100
AcDbEntity
  8
M0
  6
DASHDOT
100
AcDbLine
 10
329.783778
 20
763.472254
 11
329.783793
 21
777.107706
  0
ARC
  5
8DE
100
AcDbEntity
  8
M0
100
AcDbCircle
 10
210.783762
 20
770.289988
 40
4.5
100
AcDbArc
 50
240.166232
 51
437.163541
  0
LINE
  5
8DF
100
AcDbEntity
  8
M0
100
AcDbLine
 10
211.632349
 20
770.289911
 11
214.361641
 21
773.019188
  0
LINE
  5
8E0
100
AcDbEntity
  8
M0
100
AcDbLine
 10
213.512995
 20
773.867624
 11
211.783503
 21
772.138132
  0
LINE
  5
8E1
100
AcDbEntity
  8
M0
100
AcDbLine
 10
211.336237
 20
768.88862
 11
212.056452
 21
768.168406
  0
LINE
  5
8E2
100
AcDbEntity
  8
M0
100
AcDbLine
 10
212.905175
 20
769.017086
 11
211.632349
 21
770.289911
  0
LINE
  5
8E3
100
AcDbEntity
  8
M0
100
AcDbLine
 10
212.056649
 20
768.16856
 11
212.905175
 21
769.017086
  0
ARC
  5
8E4
100
AcDbEntity
  8
M0
100
AcDbCircle
 10
210.783762
 20
770.289988
 40
5.0
100
AcDbArc
 50
238.283282
 51
438.465815
  0
LINE
  5
8E5
100
AcDbEntity
  8
M0
  6
DASHDOT
100
AcDbLine
 10
203.966031
 20
770.289988
 11
217.601479
 21
770.289972
  0
LINE
  5
8E6
100
AcDbEntity
  8
M0
  6
DASHDOT
100
AcDbLine
 10
210.783747
 20
763.472256
 11
210.783762
 21
777.107704
  0
ARC
  5
8E7
100
AcDbEntity
  8
M0
100
AcDbCircle
 10
245.784251
 20
660.290476
 40
4.5
100
AcDbArc
 50
60.168554
 51
257.155093
  0
LINE
  5
8E8
100
AcDbEntity
  8
M0
100
AcDbLine
 10
244.935664
 20
660.290552
 11
242.206372
 21
657.561272
  0
LINE
  5
8E9
100
AcDbEntity
  8
M0
100
AcDbLine
 10
243.054774
 20
656.712595
 11
244.783778
 21
658.441599
  0
LINE
  5
8EA
100
AcDbEntity
  8
M0
100
AcDbLine
 10
245.231287
 20
661.691355
 11
244.511317
 21
662.411814
  0
LINE
  5
8EB
100
AcDbEntity
  8
M0
100
AcDbLine
 10
243.662837
 20
661.563377
 11
244.935664
 21
660.290552
  0
LINE
  5
8EC
100
AcDbEntity
  8
M0
100
AcDbLine
 10
244.511363
 20
662.411903
 11
243.662837
 21
661.563377
  0
ARC
  5
8ED
100
AcDbEntity
  8
M0
100
AcDbCircle
 10
245.784251
 20
660.290476
 40
5.0
100
AcDbArc
 50
58.285116
 51
258.458679
  0
LINE
  5
8EE
100
AcDbEntity
  8
M0
  6
DASHDOT
100
AcDbLine
 10
252.601983
 20
660.29048
 11
238.966532
 21
660.290487
  0
LINE
  5
8EF
100
AcDbEntity
  8
M0
  6
DASHDOT
100
AcDbLine
 10
245.784262
 20
667.108208
 11
245.784255
 21
653.472757
  0
ARC
  5
8F0
100
AcDbEntity
  8
M0
100
AcDbCircle
 10
126.784052
 20
660.290476
 40
4.5
100
AcDbArc
 50
60.168554
 51
257.155093
  0
LINE
  5
8F1
100
AcDbEntity
  8
M0
100
AcDbLine
 10
125.935465
 20
660.290552
 11
123.206175
 21
657.561274
  0
LINE
  5
8F2
100
AcDbEntity
  8
M0
100
AcDbLine
 10
124.054575
 20
656.712595
 11
125.783579
 21
658.441599
  0
LINE
  5
8F3
100
AcDbEntity
  8
M0
100
AcDbLine
 10
126.231333
 20
661.691355
 11
125.511118
 21
662.411814
  0
LINE
  5
8F4
100
AcDbEntity
  8
M0
100
AcDbLine
 10
124.66264
 20
661.563376
 11
125.935465
 21
660.290552
  0
LINE
  5
8F5
100
AcDbEntity
  8
M0
100
AcDbLine
 10
125.511166
 20
662.411902
 11
124.66264
 21
661.563376
  0
ARC
  5
8F6
100
AcDbEntity
  8
M0
100
AcDbCircle
 10
126.784052
 20
660.290476
 40
5.0
100
AcDbArc
 50
58.285116
 51
258.458679
  0
LINE
  5
8F7
100
AcDbEntity
  8
M0
  6
DASHDOT
100
AcDbLine
 10
133.601782
 20
660.29048
 11
119.966336
 21
660.290487
  0
LINE
  5
8F8
100
AcDbEntity
  8
M0
  6
DASHDOT
100
AcDbLine
 10
126.784063
 20
667.108206
 11
126.784057
 21
653.472759
  0
LINE
  5
8F9
100
AcDbEntity
  8
M0
100
AcDbLine
 10
601.806532
 20
629.808298
 11
603.406531
 21
629.808298
  0
LINE
  5
8FA
100
AcDbEntity
  8
M0
100
AcDbLine
 10
603.406336
 20
629.808298
 11
603.406336
 21
648.808054
  0
LINE
  5
8FB
100
AcDbEntity
  8
M0
100
AcDbLine
 10
603.406531
 20
799.808298
 11
601.806532
 21
799.808298
  0
LINE
  5
8FC
100
AcDbEntity
  8
M0
100
AcDbLine
 10
601.806483
 20
799.808298
 11
601.806483
 21
780.808298
  0
LINE
  5
8FD
100
AcDbEntity
  8
M0
  6
DASHDOT
100
AcDbLine
 10
579.584315
 20
714.808298
 11
625.628748
 21
714.808298
  0
LINE
  5
8FE
100
AcDbEntity
  8
M0
100
AcDbLine
 10
598.906336
 20
652.408152
 11
598.906336
 21
777.2082
  0
LINE
  5
8FF
100
AcDbEntity
  8
M0
100
AcDbLine
 10
597.306239
 20
652.408152
 11
597.306239
 21
777.2082
  0
LINE
  5
900
100
AcDbEntity
  8
M0
100
AcDbLine
 10
599.906092
 20
779.808298
 11
600.806483
 21
779.808298
  0
LINE
  5
901
100
AcDbEntity
  8
M0
100
AcDbLine
 10
599.906092
 20
649.808298
 11
600.806483
 21
649.808298
  0
LINE
  5
902
100
AcDbEntity
  8
M0
100
AcDbLine
 10
599.906336
 20
778.2082
 11
600.806239
 21
778.2082
  0
LINE
  5
903
100
AcDbEntity
  8
M0
100
AcDbLine
 10
599.906336
 20
651.408152
 11
600.806239
 21
651.408152
  0
LINE
  5
904
100
AcDbEntity
  8
M0
100
AcDbLine
 10
601.806483
 20
648.808298
 11
601.806483
 21
629.808298
  0
LINE
  5
905
100
AcDbEntity
  8
M0
100
AcDbLine
 10
603.406336
 20
780.80781
 11
603.406336
 21
799.808298
  0
ARC
  5
906
100
AcDbEntity
  8
M0
100
AcDbCircle
 10
599.906336
 20
777.2082
 40
1.0
100
AcDbArc
 50
90.0
 51
180.0
  0
ARC
  5
907
100
AcDbEntity
  8
M0
100
AcDbCircle
 10
600.806483
 20
780.808298
 40
1.0
100
AcDbArc
 50
270.0
 51
360.0
  0
ARC
  5
908
100
AcDbEntity
  8
M0
100
AcDbCircle
 10
599.906336
 20
652.408152
 40
1.0
100
AcDbArc
 50
179.999126
 51
270.0
  0
ARC
  5
909
100
AcDbEntity
  8
M0
100
AcDbCircle
 10
600.806483
 20
648.808298
 40
1.0
100
AcDbArc
 50
0.0
 51
90.0
  0
ARC
  5
90A
100
AcDbEntity
  8
M0
100
AcDbCircle
 10
600.806239
 20
648.808054
 40
2.599999
100
AcDbArc
 50
0.0
 51
90.0
  0
ARC
  5
90B
100
AcDbEntity
  8
M0
100
AcDbCircle
 10
599.906092
 20
652.408152
 40
2.599999
100
AcDbArc
 50
179.999664
 51
270.0
  0
ARC
  5
90C
100
AcDbEntity
  8
M0
100
AcDbCircle
 10
599.906092
 20
777.2082
 40
2.599999
100
AcDbArc
 50
90.0
 51
180.0
  0
ARC
  5
90D
100
AcDbEntity
  8
M0
100
AcDbCircle
 10
600.806239
 20
780.808054
 40
2.599999
100
AcDbArc
 50
270.0
 51
360.0
  0
LINE
  5
90E
100
AcDbEntity
  8
M0
  6
DASHDOT
100
AcDbLine
 10
573.228556
 20
770.289499
 11
590.53451
 21
770.289499
  0
LINE
  5
90F
100
AcDbEntity
  8
M0
100
AcDbLine
 10
577.706629
 20
775.28953
 11
577.706629
 21
765.28953
  0
ARC
  5
910
100
AcDbEntity
  8
M0
100
AcDbCircle
 10
586.40658
 20
770.289499
 40
11.999989
100
AcDbArc
 50
164.506528
 51
177.131175
  0
LINE
  5
911
100
AcDbEntity
  8
M0
100
AcDbLine
 10
577.706629
 20
774.790232
 11
576.245142
 21
774.662058
  0
LINE
  5
912
100
AcDbEntity
  8
M0
100
AcDbLine
 10
577.706324
 20
765.789988
 11
576.245142
 21
765.918161
  0
ARC
  5
913
100
AcDbEntity
  8
M0
100
AcDbCircle
 10
576.384608
 20
773.06782
 40
1.599998
100
AcDbArc
 50
94.999491
 51
164.513915
  0
ARC
  5
914
100
AcDbEntity
  8
M0
100
AcDbCircle
 10
576.384608
 20
767.511179
 40
1.599998
100
AcDbArc
 50
195.486076
 51
264.996601
  0
LINE
  5
915
100
AcDbEntity
  8
M0
100
AcDbLine
 10
576.206385
 20
770.890085
 11
576.206385
 21
769.690134
  0
LINE
  5
916
100
AcDbEntity
  8
M0
100
AcDbLine
 10
574.406764
 20
770.890085
 11
576.206385
 21
770.890085
  0
LINE
  5
917
100
AcDbEntity
  8
M0
100
AcDbLine
 10
574.421717
 20
769.690134
 11
576.206385
 21
769.690134
  0
LINE
  5
918
100
AcDbEntity
  8
M0
100
AcDbLine
 10
579.006373
 20
775.289499
 11
579.006373
 21
765.289499
  0
LINE
  5
919
100
AcDbEntity
  8
M0
100
AcDbLine
 10
579.806239
 20
775.289499
 11
579.806239
 21
765.289499
  0
LINE
  5
91A
100
AcDbEntity
  8
M0
100
AcDbLine
 10
579.006373
 20
775.289499
 11
579.806239
 21
775.289499
  0
LINE
  5
91B
100
AcDbEntity
  8
M0
100
AcDbLine
 10
579.006373
 20
765.289499
 11
579.806239
 21
765.289499
  0
ARC
  5
91C
100
AcDbEntity
  8
M0
100
AcDbCircle
 10
586.40658
 20
770.289499
 40
11.999989
100
AcDbArc
 50
182.862961
 51
195.493453
  0
LINE
  5
91D
100
AcDbEntity
  8
M0
100
AcDbLine
 10
577.706629
 20
770.289499
 11
579.006373
 21
771.240229
  0
LINE
  5
91E
100
AcDbEntity
  8
M0
100
AcDbLine
 10
577.706629
 20
769.339975
 11
579.006373
 21
770.289499
  0
LINE
  5
91F
100
AcDbEntity
  8
M0
100
AcDbLine
 10
577.706385
 20
765.28953
 11
579.006373
 21
765.28953
  0
LINE
  5
920
100
AcDbEntity
  8
M0
100
AcDbLine
 10
577.706385
 20
775.28953
 11
579.006373
 21
775.28953
  0
LINE
  5
921
100
AcDbEntity
  8
M0
100
AcDbLine
 10
219.034556
 20
688.039011
 11
219.034556
 21
702.039011
  0
LINE
  5
922
100
AcDbEntity
  8
M0
100
AcDbLine
 10
237.53451
 20
688.039011
 11
237.53451
 21
725.039011
  0
LINE
  5
923
100
AcDbEntity
  8
M0
100
AcDbLine
 10
219.034556
 20
735.539255
 11
219.034556
 21
742.539011
  0
LINE
  5
924
100
AcDbEntity
  8
M0
100
AcDbLine
 10
219.034831
 20
742.539011
 11
237.53451
 21
742.539011
  0
LINE
  5
925
100
AcDbEntity
  8
M0
100
AcDbLine
 10
219.034312
 20
688.039011
 11
237.53451
 21
688.039011
  0
LINE
  5
926
100
AcDbEntity
  8
M0
100
AcDbLine
 10
230.034556
 20
728.539011
 11
237.53451
 21
728.539011
  0
LINE
  5
927
100
AcDbEntity
  8
M0
100
AcDbLine
 10
219.034312
 20
702.039011
 11
226.53451
 21
702.039011
  0
LINE
  5
928
100
AcDbEntity
  8
M0
100
AcDbLine
 10
219.034831
 20
716.539011
 11
230.034556
 21
716.539011
  0
LINE
  5
929
100
AcDbEntity
  8
M0
100
AcDbLine
 10
226.53451
 20
714.039011
 11
237.53451
 21
714.039011
  0
LINE
  5
92A
100
AcDbEntity
  8
M0
100
AcDbLine
 10
230.034556
 20
716.539011
 11
230.034556
 21
735.539011
  0
LINE
  5
92B
100
AcDbEntity
  8
M0
100
AcDbLine
 10
226.53451
 20
695.039011
 11
226.53451
 21
714.039011
  0
LINE
  5
92C
100
AcDbEntity
  8
M0
100
AcDbLine
 10
224.034556
 20
705.539011
 11
224.034556
 21
716.539011
  0
LINE
  5
92D
100
AcDbEntity
  8
M0
100
AcDbLine
 10
232.53451
 20
714.039011
 11
232.53451
 21
725.039011
  0
LINE
  5
92E
100
AcDbEntity
  8
M0
100
AcDbLine
 10
219.034831
 20
705.539011
 11
224.034556
 21
705.539011
  0
LINE
  5
92F
100
AcDbEntity
  8
M0
100
AcDbLine
 10
232.53451
 20
725.039011
 11
237.53451
 21
725.039011
  0
LINE
  5
930
100
AcDbEntity
  8
M0
100
AcDbLine
 10
219.034556
 20
705.539011
 11
219.034556
 21
742.539011
  0
LINE
  5
931
100
AcDbEntity
  8
M0
100
AcDbLine
 10
237.53451
 20
728.539011
 11
237.53451
 21
742.539011
  0
CIRCLE
  5
932
100
AcDbEntity
  8
M0
100
AcDbCircle
 10
118.284534
 20
477.341245
 40
6.000001
  0
CIRCLE
  5
933
100
AcDbEntity
  8
M0
100
AcDbCircle
 10
338.284578
 20
477.341245
 40
6.000001
  0
CIRCLE
  5
934
100
AcDbEntity
  8
M0
100
AcDbCircle
 10
228.284556
 20
327.34146
 40
6.000001
  0
LINE
  5
935
100
AcDbEntity
  8
M0
  6
DIVIDE
100
AcDbLine
 10
108.284532
 20
317.341458
 11
348.28458
 21
317.341458
  0
LINE
  5
936
100
AcDbEntity
  8
M0
  6
DIVIDE
100
AcDbLine
 10
348.28458
 20
317.341458
 11
348.28458
 21
487.341491
  0
LINE
  5
937
100
AcDbEntity
  8
M0
  6
DIVIDE
100
AcDbLine
 10
348.28458
 20
487.341491
 11
108.284532
 21
487.341491
  0
LINE
  5
938
100
AcDbEntity
  8
M0
  6
DIVIDE
100
AcDbLine
 10
108.284532
 20
487.341491
 11
108.284532
 21
317.341458
  0
LINE
  5
939
100
AcDbEntity
  8
M0
  6
DIVIDE
100
AcDbLine
 10
86.062299
 20
402.341475
 11
370.506752
 21
402.341475
  0
LINE
  5
93A
100
AcDbEntity
  8
M0
  6
DIVIDE
100
AcDbLine
 10
228.284556
 20
295.119041
 11
228.284556
 21
509.563664
  0
CIRCLE
  5
93B
100
AcDbEntity
  8
M0
100
AcDbCircle
 10
118.284534
 20
477.341245
 40
3.000001
  0
LINE
  5
93C
100
AcDbEntity
  8
M0
  6
DASHDOT
100
AcDbLine
 10
93.0623
 20
477.341245
 11
143.506768
 21
477.341245
  0
LINE
  5
93D
100
AcDbEntity
  8
M0
  6
DASHDOT
100
AcDbLine
 10
118.284534
 20
452.118828
 11
118.284534
 21
502.563418
  0
CIRCLE
  5
93E
100
AcDbEntity
  8
M0
100
AcDbCircle
 10
338.284578
 20
477.341245
 40
3.000001
  0
LINE
  5
93F
100
AcDbEntity
  8
M0
  6
DASHDOT
100
AcDbLine
 10
313.062161
 20
477.341245
 11
363.506751
 21
477.341245
  0
LINE
  5
940
100
AcDbEntity
  8
M0
  6
DASHDOT
100
AcDbLine
 10
338.284578
 20
452.118828
 11
338.284578
 21
502.563418
  0
CIRCLE
  5
941
100
AcDbEntity
  8
M0
100
AcDbCircle
 10
228.284556
 20
327.34146
 40
3.000001
  0
LINE
  5
942
100
AcDbEntity
  8
M0
  6
DASHDOT
100
AcDbLine
 10
203.062139
 20
327.34146
 11
253.506729
 21
327.34146
  0
LINE
  5
943
100
AcDbEntity
  8
M0
  6
DASHDOT
100
AcDbLine
 10
228.284556
 20
302.119043
 11
228.284556
 21
352.563633
  0
LINE
  5
944
100
AcDbEntity
  8
M1
 62
     2
100
AcDbLine
 10
33.333332
 20
33.333332
 11
33.333332
 21
949.999962
  0
LINE
  5
945
100
AcDbEntity
  8
M1
 62
     2
100
AcDbLine
 10
33.333332
 20
949.999962
 11
666.66664
 21
949.999962
  0
LINE
  5
946
100
AcDbEntity
  8
M1
 62
     2
100
AcDbLine
 10
666.66664
 20
949.999962
 11
666.66664
 21
33.333332
  0
LINE
  5
947
100
AcDbEntity
  8
M1
 62
     2
100
AcDbLine
 10
666.66664
 20
33.333332
 11
33.333332
 21
33.333332
  0
LINE
  5
948
100
AcDbEntity
  8
M1
 62
     2
100
AcDbLine
 10
666.66664
 20
66.666664
 11
333.33332
 21
66.666664
  0
LINE
  5
949
100
AcDbEntity
  8
M1
 62
     2
100
AcDbLine
 10
666.66664
 20
99.999996
 11
333.33332
 21
99.999996
  0
LINE
  5
94A
100
AcDbEntity
  8
M1
 62
     2
100
AcDbLine
 10
666.66664
 20
133.333328
 11
333.33332
 21
133.333328
  0
LINE
  5
94B
100
AcDbEntity
  8
M1
 62
     2
100
AcDbLine
 10
333.33332
 20
33.333332
 11
333.33332
 21
133.333328
  0
TEXT
  5
94C
100
AcDbEntity
  8
M1
 62
     2
100
AcDbText
 10
341.666653
 20
41.666665
 40
16.666666
  1
適　用；
 41
1.0
  7
STANDARD
100
AcDbText
  0
TEXT
  5
94D
100
AcDbEntity
  8
M1
 62
     2
100
AcDbText
 10
341.666653
 20
108.333329
 40
16.666666
  1
登録名：
 41
1.0
  7
STANDARD
100
AcDbText
  0
TEXT
  5
94E
100
AcDbEntity
  8
M1
 62
     2
100
AcDbText
 10
421.66665
 20
108.333329
 40
16.666666
  1
ＤＭＨ１００ＣＲＲ００
 41
0.5
  7
STANDARD
100
AcDbText
  0
TEXT
  5
94F
100
AcDbEntity
  8
M1
 62
     2
100
AcDbText
 10
341.666653
 20
74.999997
 40
16.666666
  1
形　式；
 41
1.0
  7
STANDARD
100
AcDbText
  0
TEXT
  5
950
100
AcDbEntity
  8
M1
 62
     2
100
AcDbText
 10
421.66665
 20
74.999997
 40
16.666666
  1
Ｈ１００Ｃ－Ｒ，Ｈ１００Ｃ－ＲＧ，Ｈ１２５Ｃ－Ｒ，Ｈ１２５Ｃ－ＲＧ
 41
0.25
  7
STANDARD
100
AcDbText
  0
LINE
  5
951
100
AcDbEntity
  8
DN0
100
AcDbLine
 10
201.128598
 20
246.849167
 11
261.995265
 21
246.849167
  0
TEXT
  5
952
100
AcDbEntity
  8
DN0
100
AcDbText
 10
202.811931
 20
248.349167
 40
14.999999
  1
せん孔図
 41
0.833333
  7
STANDARD
100
AcDbText
  0
ENDSEC
  0
SECTION
  2
OBJECTS
  0
DICTIONARY
  5
C
100
AcDbDictionary
  3
ACAD_GROUP
350
D
  3
ACAD_MLINESTYLE
350
E
  0
DICTIONARY
  5
D
102
{ACAD_REACTORS
330
C
102
}
100
AcDbDictionary
  0
DICTIONARY
  5
E
102
{ACAD_REACTORS
330
C
102
}
100
AcDbDictionary
  3
STANDARD
350
13
  0
MLINESTYLE
  5
13
102
{ACAD_REACTORS
330
E
102
}
100
AcDbMlineStyle
  2
STANDARD
 70
     0
  3

 62
     0
 51
90.0
 52
90.0
 71
     2
 49
0.5
 62
   256
  6
BYLAYER
 49
-0.5
 62
   256
  6
BYLAYER
  0
ENDSEC
  0
EOF
