  0
SECTION
  2
HEADER
  9
$ACADVER
  1
AC1014
  9
$INSBASE
 10
0.000000
 20
0.000000
 30
0.0
  9
$VIEWCTR
 10
7.531722
 20
4.5
  9
$VIEWSIZE
 40
9.0
  9
$SNAPMODE
 70
     0
  9
$SNAPUNIT
 10
1.0
 20
1.0
  9
$SNAPBASE
 10
0.0
 20
0.0
  9
$SNAPANG
 50
0.0
  9
$SNAPSTYLE
 70
     0
  9
$SNAPISOPAIR
 70
     0
  9
$GRIDMODE
 70
     0
  9
$GRIDUNIT
 10
0.0
 20
0.0
  9
$ORTHOMODE
 70
     0
  9
$REGENMODE
 70
     1
  9
$FILLMODE
 70
     1
  9
$QTEXTMODE
 70
     0
  9
$DRAGMODE
 70
     2
  9
$LTSCALE
  40
     1.000000
  9
$OSMODE
 70
     0
  9
$ATTMODE
 70
     1
  9
$TEXTSIZE
 40
0.2
  9
$TRACEWID
 40
0.05
  9
$TEXTSTYLE
  7
STANDARD
  9
$CELTYPE
  6
BYLAYER
  9
$CECOLOR
 62
   256
  9
$DIMSCALE
 40
1.0
  9
$DIMASZ
 40
0.18
  9
$DIMEXO
 40
0.0625
  9
$DIMDLI
 40
0.38
  9
$DIMRND
 40
0.0
  9
$DIMDLE
 40
0.0
  9
$DIMEXE
 40
0.18
  9
$DIMTP
 40
0.0
  9
$DIMTM
 40
0.0
  9
$DIMTXT
 40
0.18
  9
$DIMCEN
 40
0.09
  9
$DIMTSZ
 40
0.0
  9
$DIMTOL
 70
     0
  9
$DIMLIM
 70
     0
  9
$DIMTIH
 70
     1
  9
$DIMTOH
 70
     1
  9
$DIMSE1
 70
     0
  9
$DIMSE2
 70
     0
  9
$DIMTAD
 70
     0
  9
$DIMZIN
 70
     0
  9
$DIMBLK
  1

  9
$LUNITS
 70
     2
  9
$LUPREC
 70
     4
  9
$AXISMODE
 70
     0
  9
$AXISUNIT
 10
0.0
 20
0.0
  9
$SKETCHINC
 40
0.1
  9
$FILLETRAD
 40
0.0
  9
$AUNITS
 70
     0
  9
$AUPREC
 70
     0
  9
$MENU
  1
ACAD
  9
$ELEVATION
 40
0.0
  9
$THICKNESS
 40
0.0
  9
$VIEWDIR
 10
0.0
 20
0.0
 30
1.0
  9
$LIMCHECK
 70
     0
  9
$BLIPMODE
 70
     1
  9
$CHAMFERA
 40
0.0
  9
$CHAMFERB
 40
0.0
  9
$FASTZOOM
 70
     1
  9
$SKPOLY
 70
     0
  9
$TDCREATE
 40
0000000.0000000000
  9
$TDUPDATE
 40
0000000.0000000000
  9
$TDINDWG
 40
0.0000000000
  9
$TDUSRTIMER
 40
0.0000000000
  9
$USRTIMER
 70
     1
  9
$ANGBASE
 50
0.0
  9
$ANGDIR
 70
     0
  9
$PDMODE
 70
     0
  9
$PDSIZE
 40
0.0
  9
$PLINEWID
 40
0.0
  9
$COORDS
 70
     0
  9
$USERI1
 70
     0
  9
$USERI2
 70
     0
  9
$USERI3
 70
     0
  9
$USERI4
 70
     0
  9
$USERI5
 70
     0
  9
$USERR1
 40
0.0
  9
$USERR2
 40
0.0
  9
$USERR3
 40
0.0
  9
$USERR4
 40
0.0
  9
$USERR5
 40
0.0
  9
$CLAYER
  8
M0
  9
$EXTMIN
 10
30.303029
 20
30.303029
  9
$EXTMAX
 10
606.060582
 20
863.636329
  9
$LIMMIN
 10
0.0
 20
0.0
  9
$LIMMAX
 10
210.0
 20
297.0
  9
$HANDSEED
  5
8A5
  0
ENDSEC
  0
SECTION
  2
CLASSES
  0
ENDSEC
  0
SECTION
  2
TABLES
  0
TABLE
  2
VPORT
  5
8
100
AcDbSymbolTable
 70
     2
  0
VPORT
  5
14
100
AcDbSymbolTableRecord
100
AcDbViewportTableRecord
  2
*ACTIVE
 70
     0
 10
0.0
 20
0.0
 11
1.0
 21
1.0
 12
484.0
 22
297.0
 13
0.0
 23
0.0
 14
1.0
 24
1.0
 15
0.0
 25
0.0
 16
0.0
 26
0.0
 36
1.0
 17
0.0
 27
0.0
 37
0.0
 40
594.0
 41
2.0
 42
50.0
 43
0.0
 44
0.0
 50
0.0
 51
0.0
 71
     0
 72
   100
 73
     1
 74
     1
 75
     0
 76
     0
 77
     0
 78
     0
  0
ENDTAB
  0
TABLE
  2
LTYPE
  5
5
100
AcDbSymbolTable
 70
     5
  0
LTYPE
  5
15
100
AcDbSymbolTableRecord
100
AcDbLinetypeTableRecord
  2
BYBLOCK
 70
     0
  3

 72
    65
 73
     0
 40
0.0
  0
LTYPE
  5
16
100
AcDbSymbolTableRecord
100
AcDbLinetypeTableRecord
  2
BYLAYER
 70
     0
  3

 72
    65
 73
     0
 40
0.0
  0
LTYPE
  5
17
100
AcDbSymbolTableRecord
100
AcDbLinetypeTableRecord
  2
CONTINUOUS
 70
    64
  3
Solid line
 72
    65
 73
     0
 40
0.0
  0
LTYPE
  5
18
100
AcDbSymbolTableRecord
100
AcDbLinetypeTableRecord
  2
DASHED
 70
    64
  3
__ __ __ __ __ __ __ __ __ __ __ __ __ __ __ __
 72
    65
 73
     2
 40
0.75
 49
0.5
 74
     0
 49
-0.25
 74
     0
  0
LTYPE
  5
19
100
AcDbSymbolTableRecord
100
AcDbLinetypeTableRecord
  2
DASHDOT
 70
    64
  3
__ . __ . __ . __ . __ . __ . __ . __ . __ . __
 72
    65
 73
     4
 40
1.0
 49
0.5
 74
     0
 49
-0.25
 74
     0
 49
0.0
 74
     0
 49
-0.25
 74
     0
  0
LTYPE
  5
1A
100
AcDbSymbolTableRecord
100
AcDbLinetypeTableRecord
  2
DIVIDE
 70
    64
  3
____ . . ____ . . ____ . . ____ . . ____ . . __
 72
    65
 73
     6
 40
1.25
 49
0.5
 74
     0
 49
-0.25
 74
     0
 49
0.0
 74
     0
 49
-0.25
 74
     0
 49
0.0
 74
     0
 49
-0.25
 74
     0
  0
LTYPE
  5
1B
100
AcDbSymbolTableRecord
100
AcDbLinetypeTableRecord
  2
DOT
 70
    64
  3
. . . . . . . . . . . . . . . . . . . . . . . .
 72
    65
 73
     2
 40
0.25
 49
0.0
 74
     0
 49
-0.25
 74
     0
  0
ENDTAB
  0
TABLE
  2
LAYER
  5
2
100
AcDbSymbolTable
 70
   102
  0
LAYER
  5
F
100
AcDbSymbolTableRecord
100
AcDbLayerTableRecord
  2
0
 70
     0
 62
     7
  6
CONTINUOUS
  0
LAYER
  5
1C
100
AcDbSymbolTableRecord
100
AcDbLayerTableRecord
  2
DEFPOINTS
 70
     0
 62
     7
  6
CONTINUOUS
  0
LAYER
  5
1D
100
AcDbSymbolTableRecord
100
AcDbLayerTableRecord
  2
M0
 70
     0
 62
     3
  6
CONTINUOUS
  0
LAYER
  5
1E
100
AcDbSymbolTableRecord
100
AcDbLayerTableRecord
  2
M1
 70
     0
 62
     3
  6
CONTINUOUS
  0
LAYER
  5
1F
100
AcDbSymbolTableRecord
100
AcDbLayerTableRecord
  2
DD0
 70
     0
 62
     4
  6
CONTINUOUS
  0
LAYER
  5
20
100
AcDbSymbolTableRecord
100
AcDbLayerTableRecord
  2
DN0
 70
     0
 62
     2
  6
CONTINUOUS
  0
ENDTAB
  0
TABLE
  2
STYLE
  5
3
100
AcDbSymbolTable
 70
     2
  0
STYLE
  5
10
100
AcDbSymbolTableRecord
100
AcDbTextStyleTableRecord
  2
STANDARD
 70
     0
 40
0.0
 41
1.0
 50
0.0
 71
     0
 42
0.2
  3
txt
  4
BIGFONT
  0
ENDTAB
  0
TABLE
  2
VIEW
  5
6
100
AcDbSymbolTable
 70
     0
  0
ENDTAB
  0
TABLE
  2
UCS
  5
7
100
AcDbSymbolTable
 70
     0
  0
ENDTAB
  0
TABLE
  2
APPID
  5
9
100
AcDbSymbolTable
 70
     1
  0
APPID
  5
11
100
AcDbSymbolTableRecord
100
AcDbRegAppTableRecord
  2
ACAD
 70
     0
  0
ENDTAB
  0
TABLE
  2
DIMSTYLE
  5
A
100
AcDbSymbolTable
 70
     2
  0
DIMSTYLE
105
27
100
AcDbSymbolTableRecord
100
AcDbDimStyleTableRecord
  2
STANDARD
 70
     0
  3

  4

  5

  6
_OPEN
  7
_OPEN
 40
1.0
 41
9.090909
 42
1.0
 43
8.0
 44
1.0
 45
0.0
 46
0.0
 47
0.0
 48
0.0
140
9.545454
141
0.09
142
0.0
143
0.03937
144
1.0
145
0.0
146
1.0
147
0.6
 71
     0
 72
     0
 73
     1
 74
     1
 75
     0
 76
     0
 77
     3
 78
     8
170
     0
171
     2
172
     0
173
     1
174
     0
175
     0
176
     0
177
     0
178
     0
270
     2
271
     2
272
     4
273
     2
274
     2
340
10
275
     0
280
     0
281
     0
282
     0
283
     1
284
     0
285
     0
286
     0
287
     3
288
     0
  0
DIMSTYLE
105
28
100
AcDbSymbolTableRecord
100
AcDbDimStyleTableRecord
  2
LEADSTYL
 70
     0
  3

  4

  5

  6
_OPEN
  7
_OPEN
 40
1.0
 41
9.090909
 42
0.0625
 43
0.38
 44
0.18
 45
0.0
 46
0.0
 47
0.0
 48
0.0
140
9.545454
141
0.09
142
0.0
143
25.4
144
1.0
145
0.0
146
1.0
147
0.6
 71
     0
 72
     0
 73
     1
 74
     1
 75
     0
 76
     0
 77
     0
 78
     0
170
     0
171
     2
172
     0
173
     1
174
     0
175
     0
176
     0
177
     0
178
     0
270
     2
271
     4
272
     4
273
     2
274
     2
340
10
275
     0
280
     0
281
     0
282
     0
283
     1
284
     0
285
     0
286
     0
287
     3
288
     0
  0
ENDTAB
  0
TABLE
  2
BLOCK_RECORD
  5
1
100
AcDbSymbolTable
 70
    15
  0
BLOCK_RECORD
  5
21
100
AcDbSymbolTableRecord
100
AcDbBlockTableRecord
  2
*MODEL_SPACE
  0
BLOCK_RECORD
  5
24
100
AcDbSymbolTableRecord
100
AcDbBlockTableRecord
  2
*PAPER_SPACE
  0
BLOCK_RECORD
  5
29
100
AcDbSymbolTableRecord
100
AcDbBlockTableRecord
  2
_NONE
  0
BLOCK_RECORD
  5
2D
100
AcDbSymbolTableRecord
100
AcDbBlockTableRecord
  2
_OPEN
  0
BLOCK_RECORD
  5
33
100
AcDbSymbolTableRecord
100
AcDbBlockTableRecord
  2
_CLOSED
  0
BLOCK_RECORD
  5
3A
100
AcDbSymbolTableRecord
100
AcDbBlockTableRecord
  2
_ORIGIN
  0
BLOCK_RECORD
  5
3F
100
AcDbSymbolTableRecord
100
AcDbBlockTableRecord
  2
_DOT
  0
BLOCK_RECORD
  5
47
100
AcDbSymbolTableRecord
100
AcDbBlockTableRecord
  2
_OBLIQUE
  0
BLOCK_RECORD
  5
4B
100
AcDbSymbolTableRecord
100
AcDbBlockTableRecord
  2
DIMS0
  0
BLOCK_RECORD
  5
57
100
AcDbSymbolTableRecord
100
AcDbBlockTableRecord
  2
DIMS1
  0
BLOCK_RECORD
  5
63
100
AcDbSymbolTableRecord
100
AcDbBlockTableRecord
  2
DIMS2
  0
BLOCK_RECORD
  5
6F
100
AcDbSymbolTableRecord
100
AcDbBlockTableRecord
  2
DIMS3
  0
BLOCK_RECORD
  5
7B
100
AcDbSymbolTableRecord
100
AcDbBlockTableRecord
  2
DIMS4
  0
BLOCK_RECORD
  5
87
100
AcDbSymbolTableRecord
100
AcDbBlockTableRecord
  2
DIMS5
  0
BLOCK_RECORD
  5
93
100
AcDbSymbolTableRecord
100
AcDbBlockTableRecord
  2
DIMS6
  0
BLOCK_RECORD
  5
9F
100
AcDbSymbolTableRecord
100
AcDbBlockTableRecord
  2
DIMS7
  0
BLOCK_RECORD
  5
AB
100
AcDbSymbolTableRecord
100
AcDbBlockTableRecord
  2
DIMS8
  0
ENDTAB
  0
ENDSEC
  0
SECTION
  2
BLOCKS
  0
BLOCK
  5
22
100
AcDbEntity
  8
0
100
AcDbBlockBegin
  2
*MODEL_SPACE
 70
     0
 10
0.0
 20
0.0
 30
0.0
  3
*MODEL_SPACE
  1

  0
ENDBLK
  5
23
100
AcDbEntity
  8
0
100
AcDbBlockEnd
  0
BLOCK
  5
25
100
AcDbEntity
 67
     1
  8
0
100
AcDbBlockBegin
  2
*PAPER_SPACE
 70
     0
 10
0.0
 20
0.0
 30
0.0
  3
*PAPER_SPACE
  1

  0
ENDBLK
  5
26
100
AcDbEntity
 67
     1
  8
0
100
AcDbBlockEnd
  0
BLOCK
  5
2A
100
AcDbEntity
  8
0
100
AcDbBlockBegin
  2
_NONE
 70
     0
 10
0.0
 20
0.0
  0
CIRCLE
  5
2B
100
AcDbEntity
  8
0
 62
     0
100
AcDbCircle
 10
0.0
 20
0.0
 40
0.25
  0
ENDBLK
  5
2C
100
AcDbEntity
  8
0
100
AcDbBlockEnd
  0
BLOCK
  5
2E
100
AcDbEntity
  8
0
100
AcDbBlockBegin
  2
_OPEN
 70
     0
 10
0.0
 20
0.0
  0
LINE
  5
2F
100
AcDbEntity
  8
0
 62
     0
100
AcDbLine
 10
-0.965926
 20
0.258819
 11
0.0
 21
0.0
  0
LINE
  5
30
100
AcDbEntity
  8
0
 62
     0
100
AcDbLine
 10
0.0
 20
0.0
 11
-0.965926
 21
-0.258819
  0
LINE
  5
31
100
AcDbEntity
  8
0
 62
     0
100
AcDbLine
 10
0.0
 20
0.0
 11
-1.0
 21
0.0
  0
ENDBLK
  5
32
100
AcDbEntity
  8
0
100
AcDbBlockEnd
  0
BLOCK
  5
34
100
AcDbEntity
  8
0
100
AcDbBlockBegin
  2
_CLOSED
 70
     0
 10
0.0
 20
0.0
  0
LINE
  5
35
100
AcDbEntity
  8
0
 62
     0
100
AcDbLine
 10
-0.965926
 20
0.258819
 11
0.0
 21
0.0
  0
LINE
  5
36
100
AcDbEntity
  8
0
 62
     0
100
AcDbLine
 10
0.0
 20
0.0
 11
-0.965926
 21
-0.258819
  0
LINE
  5
37
100
AcDbEntity
  8
0
 62
     0
100
AcDbLine
 10
-0.965926
 20
0.258819
 11
-0.965926
 21
-0.258819
  0
LINE
  5
38
100
AcDbEntity
  8
0
 62
     0
100
AcDbLine
 10
0.0
 20
0.0
 11
-1.0
 21
0.0
  0
ENDBLK
  5
39
100
AcDbEntity
  8
0
100
AcDbBlockEnd
  0
BLOCK
  5
3B
100
AcDbEntity
  8
0
100
AcDbBlockBegin
  2
_ORIGIN
 70
     0
 10
0.0
 20
0.0
  0
CIRCLE
  5
3C
100
AcDbEntity
  8
0
 62
     0
100
AcDbCircle
 10
0.0
 20
0.0
 40
0.5
  0
LINE
  5
3D
100
AcDbEntity
  8
0
 62
     0
100
AcDbLine
 10
0.0
 20
0.0
 11
-1.0
 21
0.0
  0
ENDBLK
  5
3E
100
AcDbEntity
  8
0
100
AcDbBlockEnd
  0
BLOCK
  5
40
100
AcDbEntity
  8
0
100
AcDbBlockBegin
  2
_DOT
 70
     0
 10
0.0
 20
0.0
  0
POLYLINE
  5
41
100
AcDbEntity
  8
0
 62
     0
100
AcDb2dPolyline
 66
     1
 70
     1
 40
0.5
 41
0.5
  0
VERTEX
  5
42
100
AcDbEntity
  8
0
 62
     0
100
AcDbVertex
100
AcDb2dVertex
 10
-0.25
 20
0.0
 42
1.0
  0
VERTEX
  5
43
100
AcDbEntity
  8
0
 62
     0
100
AcDbVertex
100
AcDb2dVertex
 10
0.25
 20
0.0
 42
1.0
  0
SEQEND
  5
44
100
AcDbEntity
  8
0
 62
     0
  0
LINE
  5
45
100
AcDbEntity
  8
0
 62
     0
100
AcDbLine
 10
-0.5
 20
0.0
 11
-1.0
 21
0.0
  0
ENDBLK
  5
46
100
AcDbEntity
  8
0
100
AcDbBlockEnd
  0
BLOCK
  5
48
100
AcDbEntity
  8
0
100
AcDbBlockBegin
  2
_OBLIQUE
 70
     0
 10
0.0
 20
0.0
  0
LINE
  5
49
100
AcDbEntity
  8
0
 62
     0
100
AcDbLine
 10
-0.353553
 20
-0.353553
 11
0.353553
 21
0.353553
  0
ENDBLK
  5
4A
100
AcDbEntity
  8
0
100
AcDbBlockEnd
  0
BLOCK
  5
4C
100
AcDbEntity
  8
DD0
100
AcDbBlockBegin
  2
DIMS0
 70
     0
 10
0.0
 20
0.0
  0
LINE
  5
4D
100
AcDbEntity
  8
DD0
100
AcDbLine
 10
393.239925
 20
699.574946
 11
393.239925
 21
787.846759
  0
LINE
  5
4E
100
AcDbEntity
  8
DD0
 60
     1
100
AcDbLine
 10
552.839777
 20
746.557125
 11
552.839777
 21
787.846759
  0
LINE
  5
4F
100
AcDbEntity
  8
DD0
100
AcDbLine
 10
402.021068
 20
787.169357
 11
393.239925
 21
784.816456
  0
LINE
  5
50
100
AcDbEntity
  8
DD0
100
AcDbLine
 10
393.239925
 20
784.816456
 11
402.021068
 21
782.463556
  0
LINE
  5
51
100
AcDbEntity
  8
DD0
100
AcDbLine
 10
544.058634
 20
782.463556
 11
552.839777
 21
784.816456
  0
LINE
  5
52
100
AcDbEntity
  8
DD0
100
AcDbLine
 10
552.839777
 20
784.816456
 11
544.058634
 21
787.169357
  0
LINE
  5
53
100
AcDbEntity
  8
DD0
100
AcDbLine
 10
393.239925
 20
784.816456
 11
552.839777
 21
784.816456
  0
TEXT
  5
54
100
AcDbEntity
  8
DD0
100
AcDbText
 10
459.501935
 20
786.634657
 40
9.545454
  1
１６０
 41
0.833333
  7
STANDARD
100
AcDbText
  0
ENDBLK
  5
55
100
AcDbEntity
  8
DD0
100
AcDbBlockEnd
  0
BLOCK
  5
58
100
AcDbEntity
  8
DD0
100
AcDbBlockBegin
  2
DIMS1
 70
     0
 10
0.0
 20
0.0
  0
LINE
  5
59
100
AcDbEntity
  8
DD0
100
AcDbLine
 10
550.539816
 20
746.557125
 11
550.539816
 21
768.734572
  0
LINE
  5
5A
100
AcDbEntity
  8
DD0
100
AcDbLine
 10
552.839777
 20
746.557125
 11
552.839777
 21
768.734572
  0
LINE
  5
5B
100
AcDbEntity
  8
DD0
100
AcDbLine
 10
541.758672
 20
763.351369
 11
550.539816
 21
765.704269
  0
LINE
  5
5C
100
AcDbEntity
  8
DD0
100
AcDbLine
 10
550.539816
 20
765.704269
 11
541.758672
 21
768.057169
  0
LINE
  5
5D
100
AcDbEntity
  8
DD0
100
AcDbLine
 10
561.620921
 20
768.057169
 11
552.839777
 21
765.704269
  0
LINE
  5
5E
100
AcDbEntity
  8
DD0
100
AcDbLine
 10
552.839777
 20
765.704269
 11
561.620921
 21
763.351369
  0
LINE
  5
5F
100
AcDbEntity
  8
DD0
100
AcDbLine
 10
540.539816
 20
765.704269
 11
587.248773
 21
765.704269
  0
TEXT
  5
60
100
AcDbEntity
  8
DD0
100
AcDbText
 10
556.362412
 20
769.41197
 40
9.545454
  1
２．３
 41
0.833333
  7
STANDARD
100
AcDbText
  0
ENDBLK
  5
61
100
AcDbEntity
  8
DD0
100
AcDbBlockEnd
  0
BLOCK
  5
64
100
AcDbEntity
  8
DD0
100
AcDbBlockBegin
  2
DIMS2
 70
     0
 10
0.0
 20
0.0
  0
LINE
  5
65
100
AcDbEntity
  8
DD0
100
AcDbLine
 10
153.669444
 20
689.574659
 11
153.669444
 21
787.846759
  0
LINE
  5
66
100
AcDbEntity
  8
DD0
100
AcDbLine
 10
253.669428
 20
689.575399
 11
253.669428
 21
787.846759
  0
LINE
  5
67
100
AcDbEntity
  8
DD0
100
AcDbLine
 10
162.450587
 20
787.169357
 11
153.669444
 21
784.816456
  0
LINE
  5
68
100
AcDbEntity
  8
DD0
100
AcDbLine
 10
153.669444
 20
784.816456
 11
162.450587
 21
782.463556
  0
LINE
  5
69
100
AcDbEntity
  8
DD0
100
AcDbLine
 10
244.888285
 20
782.463556
 11
253.669428
 21
784.816456
  0
LINE
  5
6A
100
AcDbEntity
  8
DD0
100
AcDbLine
 10
253.669428
 20
784.816456
 11
244.888285
 21
787.169357
  0
LINE
  5
6B
100
AcDbEntity
  8
DD0
100
AcDbLine
 10
153.669444
 20
784.816456
 11
253.669428
 21
784.816456
  0
TEXT
  5
6C
100
AcDbEntity
  8
DD0
100
AcDbText
 10
185.358831
 20
786.634657
 40
9.545454
  1
※１００
 41
0.833333
  7
STANDARD
100
AcDbText
  0
ENDBLK
  5
6D
100
AcDbEntity
  8
DD0
100
AcDbBlockEnd
  0
BLOCK
  5
70
100
AcDbEntity
  8
DD0
100
AcDbBlockBegin
  2
DIMS3
 70
     0
 10
0.0
 20
0.0
  0
LINE
  5
71
100
AcDbEntity
  8
DD0
100
AcDbLine
 10
249.699577
 20
743.045107
 11
303.790687
 21
743.045107
  0
LINE
  5
72
100
AcDbEntity
  8
DD0
100
AcDbLine
 10
249.699577
 20
478.045127
 11
303.790687
 21
478.045127
  0
LINE
  5
73
100
AcDbEntity
  8
DD0
100
AcDbLine
 10
303.113285
 20
734.263963
 11
300.760384
 21
743.045107
  0
LINE
  5
74
100
AcDbEntity
  8
DD0
100
AcDbLine
 10
300.760384
 20
743.045107
 11
298.407484
 21
734.263963
  0
LINE
  5
75
100
AcDbEntity
  8
DD0
100
AcDbLine
 10
298.407484
 20
486.82627
 11
300.760384
 21
478.045127
  0
LINE
  5
76
100
AcDbEntity
  8
DD0
100
AcDbLine
 10
300.760384
 20
478.045127
 11
303.113285
 21
486.82627
  0
LINE
  5
77
100
AcDbEntity
  8
DD0
100
AcDbLine
 10
300.760384
 20
743.045107
 11
300.760384
 21
478.045127
  0
TEXT
  5
78
100
AcDbEntity
  8
DD0
100
AcDbText
 10
298.942207
 20
597.007201
 40
9.545454
  1
２６５
 50
90.000003
 41
0.833333
  7
STANDARD
100
AcDbText
  0
ENDBLK
  5
79
100
AcDbEntity
  8
DD0
100
AcDbBlockEnd
  0
BLOCK
  5
7C
100
AcDbEntity
  8
DD0
100
AcDbBlockBegin
  2
DIMS4
 70
     0
 10
0.0
 20
0.0
  0
LINE
  5
7D
100
AcDbEntity
  8
DD0
100
AcDbLine
 10
258.669502
 20
575.57565
 11
258.669502
 21
787.846759
  0
LINE
  5
7E
100
AcDbEntity
  8
DD0
 60
     1
100
AcDbLine
 10
253.669428
 20
689.575399
 11
253.669428
 21
787.846759
  0
LINE
  5
7F
100
AcDbEntity
  8
DD0
100
AcDbLine
 10
267.450645
 20
787.169357
 11
258.669502
 21
784.816456
  0
LINE
  5
80
100
AcDbEntity
  8
DD0
100
AcDbLine
 10
258.669502
 20
784.816456
 11
267.450645
 21
782.463556
  0
LINE
  5
81
100
AcDbEntity
  8
DD0
100
AcDbLine
 10
244.888285
 20
782.463556
 11
253.669428
 21
784.816456
  0
LINE
  5
82
100
AcDbEntity
  8
DD0
100
AcDbLine
 10
253.669428
 20
784.816456
 11
244.888285
 21
787.169357
  0
LINE
  5
83
100
AcDbEntity
  8
DD0
100
AcDbLine
 10
281.245258
 20
784.816456
 11
243.669429
 21
784.816456
  0
TEXT
  5
84
100
AcDbEntity
  8
DD0
100
AcDbText
 10
269.449817
 20
786.634657
 40
9.545454
  1
５
 41
0.833333
  7
STANDARD
100
AcDbText
  0
ENDBLK
  5
85
100
AcDbEntity
  8
DD0
100
AcDbBlockEnd
  0
BLOCK
  5
88
100
AcDbEntity
  8
DD0
100
AcDbBlockBegin
  2
DIMS5
 70
     0
 10
0.0
 20
0.0
  0
LINE
  5
89
100
AcDbEntity
  8
DD0
100
AcDbLine
 10
254.699558
 20
433.460565
 11
304.199392
 21
433.460565
  0
LINE
  5
8A
100
AcDbEntity
  8
DD0
100
AcDbLine
 10
242.532894
 20
425.960454
 11
304.199392
 21
425.960454
  0
LINE
  5
8B
100
AcDbEntity
  8
DD0
100
AcDbLine
 10
298.816188
 20
442.241709
 11
301.169089
 21
433.460565
  0
LINE
  5
8C
100
AcDbEntity
  8
DD0
100
AcDbLine
 10
301.169089
 20
433.460565
 11
303.521989
 21
442.241709
  0
LINE
  5
8D
100
AcDbEntity
  8
DD0
100
AcDbLine
 10
303.521989
 20
417.179311
 11
301.169089
 21
425.960454
  0
LINE
  5
8E
100
AcDbEntity
  8
DD0
100
AcDbLine
 10
301.169089
 20
425.960454
 11
298.816188
 21
417.179311
  0
LINE
  5
8F
100
AcDbEntity
  8
DD0
100
AcDbLine
 10
301.169089
 20
443.460565
 11
301.169089
 21
415.960455
  0
TEXT
  5
90
100
AcDbEntity
  8
DD0
100
AcDbText
 10
313.138799
 20
416.172617
 40
9.545454
  1
７．５
 50
90.000003
 41
0.833333
  7
STANDARD
100
AcDbText
  0
ENDBLK
  5
91
100
AcDbEntity
  8
DD0
100
AcDbBlockEnd
  0
BLOCK
  5
94
100
AcDbEntity
  8
DD0
100
AcDbBlockBegin
  2
DIMS6
 70
     0
 10
0.0
 20
0.0
  0
LINE
  5
95
100
AcDbEntity
  8
DD0
 60
     1
100
AcDbLine
 10
242.532894
 20
425.960454
 11
304.199392
 21
425.960454
  0
LINE
  5
96
100
AcDbEntity
  8
DD0
 60
     1
100
AcDbLine
 10
282.532906
 20
175.960453
 11
304.199392
 21
175.960453
  0
LINE
  5
97
100
AcDbEntity
  8
DD0
100
AcDbLine
 10
303.521989
 20
417.179311
 11
301.169089
 21
425.960454
  0
LINE
  5
98
100
AcDbEntity
  8
DD0
100
AcDbLine
 10
301.169089
 20
425.960454
 11
298.816188
 21
417.179311
  0
LINE
  5
99
100
AcDbEntity
  8
DD0
100
AcDbLine
 10
298.816188
 20
184.741596
 11
301.169089
 21
175.960453
  0
LINE
  5
9A
100
AcDbEntity
  8
DD0
100
AcDbLine
 10
301.169089
 20
175.960453
 11
303.521989
 21
184.741596
  0
LINE
  5
9B
100
AcDbEntity
  8
DD0
100
AcDbLine
 10
301.169089
 20
425.960454
 11
301.169089
 21
175.960453
  0
TEXT
  5
9C
100
AcDbEntity
  8
DD0
100
AcDbText
 10
299.350912
 20
287.422589
 40
9.545454
  1
２５０
 50
90.000003
 41
0.833333
  7
STANDARD
100
AcDbText
  0
ENDBLK
  5
9D
100
AcDbEntity
  8
DD0
100
AcDbBlockEnd
  0
BLOCK
  5
A0
100
AcDbEntity
  8
DD0
100
AcDbBlockBegin
  2
DIMS7
 70
     0
 10
0.0
 20
0.0
  0
LINE
  5
A1
100
AcDbEntity
  8
DD0
100
AcDbLine
 10
163.669268
 20
137.096827
 11
163.669268
 21
129.176175
  0
LINE
  5
A2
100
AcDbEntity
  8
DD0
100
AcDbLine
 10
243.669257
 20
137.096827
 11
243.669257
 21
129.176175
  0
LINE
  5
A3
100
AcDbEntity
  8
DD0
100
AcDbLine
 10
172.450411
 20
134.559378
 11
163.669268
 21
132.206478
  0
LINE
  5
A4
100
AcDbEntity
  8
DD0
100
AcDbLine
 10
163.669268
 20
132.206478
 11
172.450411
 21
129.853578
  0
LINE
  5
A5
100
AcDbEntity
  8
DD0
100
AcDbLine
 10
234.888114
 20
129.853578
 11
243.669257
 21
132.206478
  0
LINE
  5
A6
100
AcDbEntity
  8
DD0
100
AcDbLine
 10
243.669257
 20
132.206478
 11
234.888114
 21
134.559378
  0
LINE
  5
A7
100
AcDbEntity
  8
DD0
100
AcDbLine
 10
163.669268
 20
132.206478
 11
243.669257
 21
132.206478
  0
TEXT
  5
A8
100
AcDbEntity
  8
DD0
100
AcDbText
 10
194.904116
 20
134.024655
 40
9.545454
  1
８０
 41
0.833333
  7
STANDARD
100
AcDbText
  0
ENDBLK
  5
A9
100
AcDbEntity
  8
DD0
100
AcDbBlockEnd
  0
BLOCK
  5
AC
100
AcDbEntity
  8
DD0
100
AcDbBlockBegin
  2
DIMS8
 70
     0
 10
0.0
 20
0.0
  0
TEXT
  5
AD
100
AcDbEntity
  8
DD0
100
AcDbText
 10
91.880909
 20
457.249756
 40
9.545454
  1
３－Ｍ５ねじ穴
 41
0.833333
  7
STANDARD
100
AcDbText
  0
LINE
  5
AE
100
AcDbEntity
  8
DD0
100
AcDbLine
 10
193.253117
 20
430.846621
 11
201.711704
 21
427.515418
  0
LINE
  5
AF
100
AcDbEntity
  8
DD0
100
AcDbLine
 10
201.711704
 20
427.515418
 11
196.051955
 21
434.629618
  0
LINE
  5
B0
100
AcDbEntity
  8
DD0
100
AcDbLine
 10
201.711704
 20
427.515418
 11
163.97931
 21
455.431602
  0
LINE
  5
B1
100
AcDbEntity
  8
DD0
100
AcDbLine
 10
160.949007
 20
455.431556
 11
88.070305
 21
455.431648
  0
ENDBLK
  5
B2
100
AcDbEntity
  8
DD0
100
AcDbBlockEnd
  0
ENDSEC
  0
SECTION
  2
ENTITIES
  0
INSERT
  5
56
100
AcDbEntity
  8
DD0
100
AcDbBlockReference
  2
DIMS0
 10
0.0
 20
0.0
  0
INSERT
  5
62
100
AcDbEntity
  8
DD0
100
AcDbBlockReference
  2
DIMS1
 10
0.0
 20
0.0
  0
INSERT
  5
6E
100
AcDbEntity
  8
DD0
100
AcDbBlockReference
  2
DIMS2
 10
0.0
 20
0.0
  0
INSERT
  5
7A
100
AcDbEntity
  8
DD0
100
AcDbBlockReference
  2
DIMS3
 10
0.0
 20
0.0
  0
INSERT
  5
86
100
AcDbEntity
  8
DD0
100
AcDbBlockReference
  2
DIMS4
 10
0.0
 20
0.0
  0
INSERT
  5
92
100
AcDbEntity
  8
DD0
100
AcDbBlockReference
  2
DIMS5
 10
0.0
 20
0.0
  0
INSERT
  5
9E
100
AcDbEntity
  8
DD0
100
AcDbBlockReference
  2
DIMS6
 10
0.0
 20
0.0
  0
INSERT
  5
AA
100
AcDbEntity
  8
DD0
100
AcDbBlockReference
  2
DIMS7
 10
0.0
 20
0.0
  0
INSERT
  5
B3
100
AcDbEntity
  8
DD0
100
AcDbBlockReference
  2
DIMS8
 10
0.0
 20
0.0
  0
LINE
  5
B4
100
AcDbEntity
  8
M0
 62
     4
100
AcDbLine
 10
395.239942
 20
600.545354
 11
461.539518
 21
600.545354
  0
LINE
  5
B5
100
AcDbEntity
  8
M0
 62
     4
100
AcDbLine
 10
461.539518
 20
698.544866
 11
395.239942
 21
698.544622
  0
LINE
  5
B6
100
AcDbEntity
  8
M0
 62
     4
100
AcDbLine
 10
461.539518
 20
600.545354
 11
461.539518
 21
622.04511
  0
LINE
  5
B7
100
AcDbEntity
  8
M0
 62
     4
100
AcDbLine
 10
395.239942
 20
606.045354
 11
461.539518
 21
606.045354
  0
LINE
  5
B8
100
AcDbEntity
  8
M0
 62
     4
100
AcDbLine
 10
395.239942
 20
693.044622
 11
461.539518
 21
693.044622
  0
LINE
  5
B9
100
AcDbEntity
  8
M0
 62
     4
100
AcDbLine
 10
427.439893
 20
634.913762
 11
427.439893
 21
664.175969
  0
LINE
  5
BA
100
AcDbEntity
  8
M0
 62
     4
100
AcDbLine
 10
452.939664
 20
624.545354
 11
452.939664
 21
627.622747
  0
LINE
  5
BB
100
AcDbEntity
  8
M0
 62
     4
100
AcDbLine
 10
453.939664
 20
623.545354
 11
455.439664
 21
623.545354
  0
LINE
  5
BC
100
AcDbEntity
  8
M0
 62
     4
100
AcDbLine
 10
453.939664
 20
675.54511
 11
455.439664
 21
675.54511
  0
ARC
  5
BD
100
AcDbEntity
  8
M0
 62
     4
100
AcDbCircle
 10
453.939664
 20
674.54511
 40
1.0
100
AcDbArc
 50
90.0
 51
180.0
  0
ARC
  5
BE
100
AcDbEntity
  8
M0
 62
     4
100
AcDbCircle
 10
453.939664
 20
624.545354
 40
1.0
100
AcDbArc
 50
180.0
 51
269.986012
  0
LINE
  5
BF
100
AcDbEntity
  8
M0
 62
     4
100
AcDbLine
 10
452.939664
 20
671.466497
 11
452.939664
 21
674.54511
  0
LINE
  5
C0
100
AcDbEntity
  8
M0
 62
     4
100
AcDbLine
 10
452.939664
 20
606.045354
 11
452.939664
 21
600.545354
  0
LINE
  5
C1
100
AcDbEntity
  8
M0
 62
     4
100
AcDbLine
 10
452.939664
 20
698.544866
 11
452.939664
 21
693.044866
  0
LINE
  5
C2
100
AcDbEntity
  8
M0
 62
     4
100
AcDbLine
 10
461.539518
 20
677.04511
 11
461.539518
 21
699.044866
  0
ARC
  5
C3
100
AcDbEntity
  8
M0
 62
     4
100
AcDbCircle
 10
447.939664
 20
627.622747
 40
5.0
100
AcDbArc
 50
0.0
 51
89.101898
  0
ARC
  5
C4
100
AcDbEntity
  8
M0
 62
     4
100
AcDbCircle
 10
447.939664
 20
671.466741
 40
5.0
100
AcDbArc
 50
270.898058
 51
360.0
  0
LINE
  5
C5
100
AcDbEntity
  8
M0
  6
DASHDOT
 62
     4
100
AcDbLine
 10
386.961744
 20
649.54511
 11
476.439664
 21
649.54511
  0
LINE
  5
C6
100
AcDbEntity
  8
M0
 62
     4
100
AcDbLine
 10
393.239942
 20
696.544622
 11
393.239942
 21
602.545354
  0
ARC
  5
C7
100
AcDbEntity
  8
M0
 62
     4
100
AcDbCircle
 10
395.239942
 20
696.544622
 40
2.0
100
AcDbArc
 50
90.0
 51
180.0
  0
ARC
  5
C8
100
AcDbEntity
  8
M0
 62
     4
100
AcDbCircle
 10
395.239942
 20
602.545354
 40
2.0
100
AcDbArc
 50
180.0
 51
269.999563
  0
ARC
  5
C9
100
AcDbEntity
  8
M0
 62
     4
100
AcDbCircle
 10
395.239942
 20
608.045354
 40
2.0
100
AcDbArc
 50
180.0
 51
269.999563
  0
ARC
  5
CA
100
AcDbEntity
  8
M0
 62
     4
100
AcDbCircle
 10
395.239942
 20
691.044622
 40
2.0
100
AcDbArc
 50
90.0
 51
180.0
  0
LINE
  5
CB
100
AcDbEntity
  8
M0
100
AcDbLine
 10
490.939664
 20
659.045003
 11
493.439664
 21
663.545247
  0
LINE
  5
CC
100
AcDbEntity
  8
M0
100
AcDbLine
 10
457.439664
 20
600.045247
 11
493.439664
 21
600.045247
  0
LINE
  5
CD
100
AcDbEntity
  8
M0
100
AcDbLine
 10
493.439664
 20
600.045247
 11
493.439664
 21
631.045736
  0
LINE
  5
CE
100
AcDbEntity
  8
M0
100
AcDbLine
 10
493.439664
 20
699.045247
 11
457.439664
 21
699.045003
  0
LINE
  5
CF
100
AcDbEntity
  8
M0
100
AcDbLine
 10
427.439893
 20
665.045247
 11
427.439893
 21
634.045247
  0
LINE
  5
D0
100
AcDbEntity
  8
M0
100
AcDbLine
 10
455.439664
 20
675.045247
 11
455.439664
 21
671.045247
  0
LINE
  5
D1
100
AcDbEntity
  8
M0
100
AcDbLine
 10
429.439893
 20
632.045247
 11
447.439664
 21
632.045247
  0
LINE
  5
D2
100
AcDbEntity
  8
M0
100
AcDbLine
 10
429.439893
 20
667.045247
 11
447.439664
 21
667.045247
  0
LINE
  5
D3
100
AcDbEntity
  8
M0
100
AcDbLine
 10
455.439664
 20
628.045247
 11
455.439664
 21
624.045247
  0
ARC
  5
D4
100
AcDbEntity
  8
M0
100
AcDbCircle
 10
451.439664
 20
628.045247
 40
4.0
100
AcDbArc
 50
0.0
 51
90.0
  0
ARC
  5
D5
100
AcDbEntity
  8
M0
100
AcDbCircle
 10
451.439664
 20
671.045247
 40
4.0
100
AcDbArc
 50
269.996503
 51
360.0
  0
LINE
  5
D6
100
AcDbEntity
  8
M0
100
AcDbLine
 10
480.43942
 20
687.045247
 11
493.439664
 21
687.045247
  0
LINE
  5
D7
100
AcDbEntity
  8
M0
100
AcDbLine
 10
480.439176
 20
612.045247
 11
493.439664
 21
612.045247
  0
LINE
  5
D8
100
AcDbEntity
  8
M0
100
AcDbLine
 10
457.439664
 20
677.045247
 11
468.439664
 21
677.045247
  0
LINE
  5
D9
100
AcDbEntity
  8
M0
100
AcDbLine
 10
457.439664
 20
622.045247
 11
468.43942
 21
622.045247
  0
LINE
  5
DA
100
AcDbEntity
  8
M0
100
AcDbLine
 10
477.439664
 20
684.545247
 11
477.439664
 21
676.045247
  0
LINE
  5
DB
100
AcDbEntity
  8
M0
100
AcDbLine
 10
469.439664
 20
676.045247
 11
477.439664
 21
676.045247
  0
LINE
  5
DC
100
AcDbEntity
  8
M0
100
AcDbLine
 10
469.43942
 20
623.045247
 11
477.43942
 21
623.045247
  0
LINE
  5
DD
100
AcDbEntity
  8
M0
100
AcDbLine
 10
477.439664
 20
684.545247
 11
480.439664
 21
687.045247
  0
ARC
  5
DE
100
AcDbEntity
  8
M0
100
AcDbCircle
 10
457.439664
 20
675.045247
 40
2.0
100
AcDbArc
 50
90.0
 51
180.0
  0
LINE
  5
DF
100
AcDbEntity
  8
M0
100
AcDbLine
 10
477.43942
 20
614.545247
 11
480.43942
 21
612.045247
  0
LINE
  5
E0
100
AcDbEntity
  8
M0
100
AcDbLine
 10
477.43942
 20
614.545247
 11
477.43942
 21
623.045247
  0
ARC
  5
E1
100
AcDbEntity
  8
M0
100
AcDbCircle
 10
457.439664
 20
624.045247
 40
2.0
100
AcDbArc
 50
180.0
 51
269.993006
  0
ARC
  5
E2
100
AcDbEntity
  8
M0
100
AcDbCircle
 10
429.439893
 20
665.045247
 40
2.0
100
AcDbArc
 50
90.0
 51
180.0
  0
ARC
  5
E3
100
AcDbEntity
  8
M0
100
AcDbCircle
 10
429.439893
 20
634.045247
 40
2.0
100
AcDbArc
 50
180.0
 51
269.999563
  0
ARC
  5
E4
100
AcDbEntity
  8
M0
100
AcDbCircle
 10
457.439664
 20
697.045003
 40
2.0
100
AcDbArc
 50
90.0
 51
131.412252
  0
ARC
  5
E5
100
AcDbEntity
  8
M0
100
AcDbCircle
 10
457.439664
 20
602.045247
 40
2.0
100
AcDbArc
 50
228.582504
 51
269.993006
  0
LINE
  5
E6
100
AcDbEntity
  8
M0
100
AcDbLine
 10
433.939649
 20
653.295247
 11
433.939649
 21
645.795247
  0
LINE
  5
E7
100
AcDbEntity
  8
M0
100
AcDbLine
 10
427.439893
 20
653.295247
 11
433.939649
 21
653.295247
  0
LINE
  5
E8
100
AcDbEntity
  8
M0
100
AcDbLine
 10
427.439893
 20
645.795247
 11
433.939649
 21
645.795247
  0
LINE
  5
E9
100
AcDbEntity
  8
M0
100
AcDbLine
 10
451.439664
 20
667.045247
 11
451.439664
 21
664.545247
  0
LINE
  5
EA
100
AcDbEntity
  8
M0
100
AcDbLine
 10
447.439664
 20
667.045247
 11
447.439664
 21
664.545247
  0
LINE
  5
EB
100
AcDbEntity
  8
M0
100
AcDbLine
 10
447.439664
 20
664.545247
 11
451.439664
 21
664.545247
  0
LINE
  5
EC
100
AcDbEntity
  8
M0
100
AcDbLine
 10
447.439664
 20
634.545247
 11
451.439664
 21
634.545247
  0
LINE
  5
ED
100
AcDbEntity
  8
M0
100
AcDbLine
 10
447.439664
 20
634.545247
 11
447.439664
 21
632.045247
  0
LINE
  5
EE
100
AcDbEntity
  8
M0
100
AcDbLine
 10
451.439664
 20
634.545247
 11
451.439664
 21
632.045247
  0
LINE
  5
EF
100
AcDbEntity
  8
M0
100
AcDbLine
 10
432.439649
 20
653.295247
 11
432.439649
 21
652.295247
  0
LINE
  5
F0
100
AcDbEntity
  8
M0
100
AcDbLine
 10
432.439649
 20
652.295247
 11
433.939649
 21
652.295247
  0
LINE
  5
F1
100
AcDbEntity
  8
M0
100
AcDbLine
 10
432.439649
 20
646.795247
 11
433.939649
 21
646.795247
  0
LINE
  5
F2
100
AcDbEntity
  8
M0
100
AcDbLine
 10
432.439649
 20
646.795247
 11
432.439649
 21
645.795247
  0
LINE
  5
F3
100
AcDbEntity
  8
M0
100
AcDbLine
 10
447.439664
 20
666.027181
 11
451.439664
 21
666.027181
  0
LINE
  5
F4
100
AcDbEntity
  8
M0
100
AcDbLine
 10
447.43942
 20
633.063314
 11
451.43942
 21
633.063314
  0
LINE
  5
F5
100
AcDbEntity
  8
M0
  6
DASHDOT
100
AcDbLine
 10
485.728239
 20
669.795247
 11
495.136442
 21
669.795247
  0
LINE
  5
F6
100
AcDbEntity
  8
M0
  6
DASHDOT
100
AcDbLine
 10
487.359586
 20
629.295247
 11
495.172575
 21
629.295247
  0
LINE
  5
F7
100
AcDbEntity
  8
M0
100
AcDbLine
 10
490.939664
 20
672.295247
 11
493.439664
 21
672.295247
  0
LINE
  5
F8
100
AcDbEntity
  8
M0
100
AcDbLine
 10
490.939664
 20
667.295247
 11
493.439664
 21
667.295247
  0
LINE
  5
F9
100
AcDbEntity
  8
M0
100
AcDbLine
 10
490.939664
 20
631.795247
 11
493.439664
 21
631.795247
  0
LINE
  5
FA
100
AcDbEntity
  8
M0
100
AcDbLine
 10
490.939664
 20
626.795247
 11
493.439664
 21
626.795247
  0
ARC
  5
FB
100
AcDbEntity
  8
M0
100
AcDbCircle
 10
490.939664
 20
669.795247
 40
2.5
100
AcDbArc
 50
90.0
 51
269.994405
  0
ARC
  5
FC
100
AcDbEntity
  8
M0
100
AcDbCircle
 10
490.939664
 20
629.295247
 40
2.5
100
AcDbArc
 50
90.0
 51
269.994405
  0
LINE
  5
FD
100
AcDbEntity
  8
M0
100
AcDbLine
 10
477.939664
 20
645.545247
 11
477.939664
 21
647.545247
  0
LINE
  5
FE
100
AcDbEntity
  8
M0
100
AcDbLine
 10
479.939664
 20
643.545247
 11
493.439664
 21
643.545247
  0
LINE
  5
FF
100
AcDbEntity
  8
M0
100
AcDbLine
 10
479.939664
 20
655.545247
 11
490.939664
 21
655.545247
  0
LINE
  5
100
100
AcDbEntity
  8
M0
100
AcDbLine
 10
478.207487
 20
644.545247
 11
490.439664
 21
644.545247
  0
LINE
  5
101
100
AcDbEntity
  8
M0
100
AcDbLine
 10
478.207487
 20
654.545247
 11
487.961637
 21
654.545247
  0
LINE
  5
102
100
AcDbEntity
  8
M0
100
AcDbLine
 10
490.939664
 20
659.045003
 11
490.939664
 21
655.545003
  0
ARC
  5
103
100
AcDbEntity
  8
M0
100
AcDbCircle
 10
490.439664
 20
643.545247
 40
1.0
100
AcDbArc
 50
0.0
 51
90.0
  0
ARC
  5
104
100
AcDbEntity
  8
M0
100
AcDbCircle
 10
487.939664
 20
655.545003
 40
1.0
100
AcDbArc
 50
269.986012
 51
360.0
  0
LINE
  5
105
100
AcDbEntity
  8
M0
100
AcDbLine
 10
478.939664
 20
650.545247
 11
478.939664
 21
648.545247
  0
LINE
  5
106
100
AcDbEntity
  8
M0
100
AcDbLine
 10
477.939664
 20
651.545247
 11
478.939664
 21
650.545247
  0
LINE
  5
107
100
AcDbEntity
  8
M0
100
AcDbLine
 10
477.939664
 20
647.545247
 11
478.939664
 21
648.545247
  0
LINE
  5
108
100
AcDbEntity
  8
M0
100
AcDbLine
 10
477.939664
 20
651.545247
 11
477.939664
 21
653.545247
  0
LINE
  5
109
100
AcDbEntity
  8
M0
100
AcDbLine
 10
493.439664
 20
663.545247
 11
493.439664
 21
667.295247
  0
LINE
  5
10A
100
AcDbEntity
  8
M0
100
AcDbLine
 10
464.439664
 20
699.045003
 11
464.439664
 21
690.545247
  0
LINE
  5
10B
100
AcDbEntity
  8
M0
100
AcDbLine
 10
461.539518
 20
690.545247
 11
464.439664
 21
690.545247
  0
LINE
  5
10C
100
AcDbEntity
  8
M0
100
AcDbLine
 10
461.539518
 20
608.545247
 11
463.93942
 21
608.545247
  0
ARC
  5
10D
100
AcDbEntity
  8
M0
100
AcDbCircle
 10
469.439664
 20
677.045247
 40
1.0
100
AcDbArc
 50
180.0
 51
269.986012
  0
ARC
  5
10E
100
AcDbEntity
  8
M0
100
AcDbCircle
 10
469.43942
 20
622.045247
 40
1.0
100
AcDbArc
 50
90.0
 51
180.0
  0
ARC
  5
10F
100
AcDbEntity
  8
M0
100
AcDbCircle
 10
479.939664
 20
645.545247
 40
2.0
100
AcDbArc
 50
180.0
 51
269.993006
  0
ARC
  5
110
100
AcDbEntity
  8
M0
100
AcDbCircle
 10
479.939664
 20
653.545247
 40
2.0
100
AcDbArc
 50
90.0
 51
180.0
  0
LINE
  5
111
100
AcDbEntity
  8
M0
100
AcDbLine
 10
493.439664
 20
616.546712
 11
494.139616
 21
616.546712
  0
LINE
  5
112
100
AcDbEntity
  8
M0
100
AcDbLine
 10
493.439664
 20
622.546712
 11
494.139616
 21
622.546712
  0
LINE
  5
113
100
AcDbEntity
  8
M0
100
AcDbLine
 10
494.139616
 20
622.546712
 11
494.139616
 21
616.546712
  0
LINE
  5
114
100
AcDbEntity
  8
M0
100
AcDbLine
 10
494.139616
 20
676.543783
 11
494.139616
 21
682.543783
  0
LINE
  5
115
100
AcDbEntity
  8
M0
100
AcDbLine
 10
493.439664
 20
682.543783
 11
494.139616
 21
682.543783
  0
LINE
  5
116
100
AcDbEntity
  8
M0
100
AcDbLine
 10
493.439664
 20
676.543783
 11
494.139616
 21
676.543783
  0
LINE
  5
117
100
AcDbEntity
  8
M0
100
AcDbLine
 10
493.439664
 20
631.795247
 11
493.439664
 21
643.545247
  0
LINE
  5
118
100
AcDbEntity
  8
M0
100
AcDbLine
 10
493.439664
 20
668.747152
 11
493.439664
 21
699.045247
  0
LINE
  5
119
100
AcDbEntity
  8
M0
100
AcDbLine
 10
488.669889
 20
668.747152
 11
493.439664
 21
668.747152
  0
LINE
  5
11A
100
AcDbEntity
  8
M0
100
AcDbLine
 10
489.154752
 20
631.045736
 11
493.439664
 21
631.045736
  0
LINE
  5
11B
100
AcDbEntity
  8
M0
100
AcDbLine
 10
546.23979
 20
711.54511
 11
530.23979
 21
711.54511
  0
LINE
  5
11C
100
AcDbEntity
  8
M0
  6
DASHDOT
100
AcDbLine
 10
483.339796
 20
649.54511
 11
556.23979
 21
649.54511
  0
LINE
  5
11D
100
AcDbEntity
  8
M0
100
AcDbLine
 10
546.73979
 20
710.54511
 11
546.73979
 21
698.54511
  0
LINE
  5
11E
100
AcDbEntity
  8
M0
100
AcDbLine
 10
529.23979
 20
710.503362
 11
529.23979
 21
698.54511
  0
LINE
  5
11F
100
AcDbEntity
  8
M0
100
AcDbLine
 10
530.23979
 20
711.54511
 11
530.23979
 21
699.54511
  0
ARC
  5
120
100
AcDbEntity
  8
M0
100
AcDbCircle
 10
505.939786
 20
654.54511
 40
2.0
100
AcDbArc
 50
0.0
 51
90.0
  0
LINE
  5
121
100
AcDbEntity
  8
M0
100
AcDbLine
 10
528.23979
 20
697.54511
 11
493.439786
 21
697.54511
  0
LINE
  5
122
100
AcDbEntity
  8
M0
100
AcDbLine
 10
518.23979
 20
699.04511
 11
493.439786
 21
699.04511
  0
LINE
  5
123
100
AcDbEntity
  8
M0
100
AcDbLine
 10
518.23979
 20
699.04511
 11
530.23979
 21
711.54511
  0
ARC
  5
124
100
AcDbEntity
  8
M0
100
AcDbCircle
 10
528.23979
 20
698.54511
 40
1.0
100
AcDbArc
 50
269.999126
 51
360.0
  0
ARC
  5
125
100
AcDbEntity
  8
M0
100
AcDbCircle
 10
528.23979
 20
699.54511
 40
2.0
100
AcDbArc
 50
269.999563
 51
360.0
  0
LINE
  5
126
100
AcDbEntity
  8
M0
  6
DASHDOT
100
AcDbLine
 10
551.741941
 20
687.54511
 11
542.349592
 21
687.54511
  0
LINE
  5
127
100
AcDbEntity
  8
M0
100
AcDbLine
 10
546.23979
 20
682.54511
 11
546.73979
 21
682.54511
  0
LINE
  5
128
100
AcDbEntity
  8
M0
100
AcDbLine
 10
546.23979
 20
692.54511
 11
546.73979
 21
692.54511
  0
LINE
  5
129
100
AcDbEntity
  8
M0
  6
DASHDOT
100
AcDbLine
 10
551.741941
 20
704.54511
 11
542.349592
 21
704.54511
  0
LINE
  5
12A
100
AcDbEntity
  8
M0
100
AcDbLine
 10
546.23979
 20
698.54511
 11
546.73979
 21
698.54511
  0
LINE
  5
12B
100
AcDbEntity
  8
M0
100
AcDbLine
 10
546.23979
 20
710.54511
 11
546.73979
 21
710.54511
  0
LINE
  5
12C
100
AcDbEntity
  8
M0
100
AcDbLine
 10
546.73979
 20
692.54511
 11
546.73979
 21
682.54511
  0
LINE
  5
12D
100
AcDbEntity
  8
M0
100
AcDbLine
 10
546.23979
 20
649.54511
 11
546.23979
 21
711.54511
  0
LINE
  5
12E
100
AcDbEntity
  8
M0
100
AcDbLine
 10
507.939786
 20
649.54511
 11
507.939786
 21
654.54511
  0
LINE
  5
12F
100
AcDbEntity
  8
M0
100
AcDbLine
 10
491.439786
 20
656.54511
 11
505.939786
 21
656.54511
  0
LINE
  5
130
100
AcDbEntity
  8
M0
100
AcDbLine
 10
491.439786
 20
658.54511
 11
493.439786
 21
663.04511
  0
LINE
  5
131
100
AcDbEntity
  8
M0
100
AcDbLine
 10
493.439786
 20
699.04511
 11
493.439786
 21
663.04511
  0
LINE
  5
132
100
AcDbEntity
  8
M0
100
AcDbLine
 10
491.439786
 20
656.54511
 11
491.439786
 21
658.54511
  0
LINE
  5
133
100
AcDbEntity
  8
M0
100
AcDbLine
 10
546.23979
 20
587.54511
 11
530.23979
 21
587.54511
  0
LINE
  5
134
100
AcDbEntity
  8
M0
  6
DASHDOT
100
AcDbLine
 10
483.339796
 20
649.54511
 11
556.23979
 21
649.54511
  0
LINE
  5
135
100
AcDbEntity
  8
M0
100
AcDbLine
 10
546.73979
 20
588.54511
 11
546.73979
 21
600.54511
  0
LINE
  5
136
100
AcDbEntity
  8
M0
100
AcDbLine
 10
529.23979
 20
588.586614
 11
529.23979
 21
600.54511
  0
LINE
  5
137
100
AcDbEntity
  8
M0
100
AcDbLine
 10
530.23979
 20
587.54511
 11
530.23979
 21
599.54511
  0
ARC
  5
138
100
AcDbEntity
  8
M0
100
AcDbCircle
 10
505.939786
 20
644.54511
 40
2.0
100
AcDbArc
 50
-90.000437
 51
0.0
  0
LINE
  5
139
100
AcDbEntity
  8
M0
100
AcDbLine
 10
528.23979
 20
601.54511
 11
493.439786
 21
601.54511
  0
LINE
  5
13A
100
AcDbEntity
  8
M0
100
AcDbLine
 10
518.23979
 20
600.04511
 11
493.439786
 21
600.04511
  0
LINE
  5
13B
100
AcDbEntity
  8
M0
100
AcDbLine
 10
518.23979
 20
600.04511
 11
530.23979
 21
587.54511
  0
ARC
  5
13C
100
AcDbEntity
  8
M0
100
AcDbCircle
 10
528.23979
 20
600.54511
 40
1.0
100
AcDbArc
 50
0.0
 51
90.0
  0
ARC
  5
13D
100
AcDbEntity
  8
M0
100
AcDbCircle
 10
528.23979
 20
599.54511
 40
2.0
100
AcDbArc
 50
0.0
 51
90.0
  0
LINE
  5
13E
100
AcDbEntity
  8
M0
  6
DASHDOT
100
AcDbLine
 10
551.741941
 20
611.54511
 11
542.349592
 21
611.54511
  0
LINE
  5
13F
100
AcDbEntity
  8
M0
100
AcDbLine
 10
546.23979
 20
616.54511
 11
546.73979
 21
616.54511
  0
LINE
  5
140
100
AcDbEntity
  8
M0
100
AcDbLine
 10
546.23979
 20
606.54511
 11
546.73979
 21
606.54511
  0
LINE
  5
141
100
AcDbEntity
  8
M0
  6
DASHDOT
100
AcDbLine
 10
551.741941
 20
594.54511
 11
542.349592
 21
594.54511
  0
LINE
  5
142
100
AcDbEntity
  8
M0
100
AcDbLine
 10
546.23979
 20
600.54511
 11
546.73979
 21
600.54511
  0
LINE
  5
143
100
AcDbEntity
  8
M0
100
AcDbLine
 10
546.23979
 20
588.54511
 11
546.73979
 21
588.54511
  0
LINE
  5
144
100
AcDbEntity
  8
M0
100
AcDbLine
 10
546.73979
 20
606.54511
 11
546.73979
 21
616.54511
  0
LINE
  5
145
100
AcDbEntity
  8
M0
100
AcDbLine
 10
546.23979
 20
649.54511
 11
546.23979
 21
587.54511
  0
LINE
  5
146
100
AcDbEntity
  8
M0
100
AcDbLine
 10
507.939786
 20
649.54511
 11
507.939786
 21
644.54511
  0
LINE
  5
147
100
AcDbEntity
  8
M0
100
AcDbLine
 10
493.439786
 20
642.54511
 11
505.939786
 21
642.54511
  0
LINE
  5
148
100
AcDbEntity
  8
M0
100
AcDbLine
 10
493.439786
 20
600.04511
 11
493.439786
 21
642.54511
  0
LINE
  5
149
100
AcDbEntity
  8
M0
100
AcDbLine
 10
461.239759
 20
718.026937
 11
464.43971
 21
718.026937
  0
LINE
  5
14A
100
AcDbEntity
  8
M0
100
AcDbLine
 10
461.239759
 20
718.026937
 11
461.239759
 21
699.045003
  0
LINE
  5
14B
100
AcDbEntity
  8
M0
100
AcDbLine
 10
464.43971
 20
718.026937
 11
464.43971
 21
699.045003
  0
LINE
  5
14C
100
AcDbEntity
  8
M0
100
AcDbLine
 10
467.43971
 20
581.063558
 11
467.43971
 21
600.045492
  0
LINE
  5
14D
100
AcDbEntity
  8
M0
100
AcDbLine
 10
464.239759
 20
581.063558
 11
467.43971
 21
581.063558
  0
LINE
  5
14E
100
AcDbEntity
  8
M0
100
AcDbLine
 10
464.239759
 20
581.063558
 11
464.239759
 21
600.045492
  0
LINE
  5
14F
100
AcDbEntity
  8
M0
100
AcDbLine
 10
546.73979
 20
710.54511
 11
546.73979
 21
574.50646
  0
LINE
  5
150
100
AcDbEntity
  8
M0
100
AcDbLine
 10
463.939497
 20
608.545141
 11
463.939497
 21
600.045141
  0
LINE
  5
151
100
AcDbEntity
  8
M0
  6
DASHDOT
100
AcDbLine
 10
455.48483
 20
590.0268
 11
477.402753
 21
590.0268
  0
LINE
  5
152
100
AcDbEntity
  8
M0
100
AcDbLine
 10
464.239881
 20
583.5268
 11
464.239881
 21
596.5268
  0
LINE
  5
153
100
AcDbEntity
  8
M0
  6
DASHDOT
100
AcDbLine
 10
460.239866
 20
590.026784
 11
467.239881
 21
590.0268
  0
LINE
  5
154
100
AcDbEntity
  8
M0
  6
DASHDOT
100
AcDbLine
 10
456.739881
 20
590.0268
 11
468.239881
 21
590.0268
  0
LINE
  5
155
100
AcDbEntity
  8
M0
  6
DASHDOT
100
AcDbLine
 10
452.48468
 20
709.063529
 11
474.402603
 21
709.063542
  0
LINE
  5
156
100
AcDbEntity
  8
M0
100
AcDbLine
 10
461.239726
 20
715.563534
 11
461.239735
 21
702.563534
  0
LINE
  5
157
100
AcDbEntity
  8
M0
  6
DASHDOT
100
AcDbLine
 10
457.239715
 20
709.063547
 11
464.23973
 21
709.063536
  0
LINE
  5
158
100
AcDbEntity
  8
M0
  6
DASHDOT
100
AcDbLine
 10
453.73973
 20
709.063529
 11
465.23973
 21
709.063537
  0
LINE
  5
159
100
AcDbEntity
  8
M0
 62
     4
100
AcDbLine
 10
447.439756
 20
586.0268
 11
447.439756
 21
594.0268
  0
LINE
  5
15A
100
AcDbEntity
  8
M0
 62
     4
100
AcDbLine
 10
447.439756
 20
594.0268
 11
451.838346
 21
594.0268
  0
LINE
  5
15B
100
AcDbEntity
  8
M0
 62
     4
100
AcDbLine
 10
472.939756
 20
586.0268
 11
467.439756
 21
586.0268
  0
LINE
  5
15C
100
AcDbEntity
  8
M0
  6
DASHDOT
 62
     4
100
AcDbLine
 10
476.68173
 20
590.0268
 11
445.228193
 21
590.0268
  0
LINE
  5
15D
100
AcDbEntity
  8
M0
 62
     4
100
AcDbLine
 10
467.439756
 20
582.525792
 11
467.439756
 21
597.527791
  0
LINE
  5
15E
100
AcDbEntity
  8
M0
 62
     4
100
AcDbLine
 10
467.439756
 20
597.527791
 11
472.939756
 21
597.527791
  0
LINE
  5
15F
100
AcDbEntity
  8
M0
 62
     4
100
AcDbLine
 10
472.939756
 20
597.527791
 11
472.939756
 21
582.525792
  0
LINE
  5
160
100
AcDbEntity
  8
M0
 62
     4
100
AcDbLine
 10
472.939756
 20
582.525792
 11
467.439756
 21
582.525792
  0
LINE
  5
161
100
AcDbEntity
  8
M0
 62
     4
100
AcDbLine
 10
467.439756
 20
594.0268
 11
472.939756
 21
594.0268
  0
LINE
  5
162
100
AcDbEntity
  8
M0
 62
     4
100
AcDbLine
 10
451.838346
 20
586.0268
 11
447.439756
 21
586.0268
  0
LINE
  5
163
100
AcDbEntity
  8
M0
 62
     4
100
AcDbLine
 10
444.439628
 20
713.063483
 11
444.439633
 21
705.063483
  0
LINE
  5
164
100
AcDbEntity
  8
M0
 62
     4
100
AcDbLine
 10
444.439633
 20
705.063483
 11
451.138165
 21
705.063488
  0
LINE
  5
165
100
AcDbEntity
  8
M0
 62
     4
100
AcDbLine
 10
469.939628
 20
713.063499
 11
464.439628
 21
713.063496
  0
LINE
  5
166
100
AcDbEntity
  8
M0
  6
DASHDOT
 62
     4
100
AcDbLine
 10
473.681604
 20
709.063502
 11
442.228067
 21
709.063482
  0
LINE
  5
167
100
AcDbEntity
  8
M0
 62
     4
100
AcDbLine
 10
464.439626
 20
716.564503
 11
464.439635
 21
701.562504
  0
LINE
  5
168
100
AcDbEntity
  8
M0
 62
     4
100
AcDbLine
 10
464.439635
 20
701.562504
 11
469.939635
 21
701.562508
  0
LINE
  5
169
100
AcDbEntity
  8
M0
 62
     4
100
AcDbLine
 10
469.939635
 20
701.562508
 11
469.939626
 21
716.564507
  0
LINE
  5
16A
100
AcDbEntity
  8
M0
 62
     4
100
AcDbLine
 10
469.939626
 20
716.564507
 11
464.439626
 21
716.564503
  0
LINE
  5
16B
100
AcDbEntity
  8
M0
 62
     4
100
AcDbLine
 10
464.439633
 20
705.063496
 11
469.939633
 21
705.063499
  0
LINE
  5
16C
100
AcDbEntity
  8
M0
 62
     4
100
AcDbLine
 10
451.13816
 20
713.063488
 11
444.439628
 21
713.063483
  0
LINE
  5
16D
100
AcDbEntity
  8
M0
 62
     6
100
AcDbLine
 10
459.639814
 20
700.063421
 11
461.239805
 21
700.063421
  0
LINE
  5
16E
100
AcDbEntity
  8
M0
 62
     6
100
AcDbLine
 10
461.239805
 20
700.063421
 11
461.239805
 21
718.063421
  0
LINE
  5
16F
100
AcDbEntity
  8
M0
 62
     6
100
AcDbLine
 10
461.239805
 20
718.063421
 11
459.639814
 21
718.063421
  0
LINE
  5
170
100
AcDbEntity
  8
M0
 62
     6
100
AcDbLine
 10
459.639814
 20
718.063421
 11
459.639814
 21
700.063421
  0
LINE
  5
171
100
AcDbEntity
  8
M0
  6
DASHDOT
 62
     6
100
AcDbLine
 10
456.639799
 20
709.063405
 11
464.239805
 21
709.063421
  0
LINE
  5
172
100
AcDbEntity
  8
M0
 62
     7
100
AcDbLine
 10
457.639707
 20
701.363424
 11
459.639707
 21
701.363424
  0
LINE
  5
173
100
AcDbEntity
  8
M0
 62
     7
100
AcDbLine
 10
459.639707
 20
701.363424
 11
459.639707
 21
716.763433
  0
LINE
  5
174
100
AcDbEntity
  8
M0
 62
     7
100
AcDbLine
 10
459.639707
 20
716.763433
 11
457.639707
 21
716.763433
  0
LINE
  5
175
100
AcDbEntity
  8
M0
 62
     7
100
AcDbLine
 10
457.639707
 20
716.763433
 11
457.639707
 21
701.363424
  0
LINE
  5
176
100
AcDbEntity
  8
M0
  6
DASHDOT
 62
     7
100
AcDbLine
 10
452.639707
 20
709.063436
 11
464.639707
 21
709.063436
  0
LINE
  5
177
100
AcDbEntity
  8
M0
 62
     7
100
AcDbLine
 10
457.639707
 20
709.063421
 11
459.639707
 21
707.908727
  0
LINE
  5
178
100
AcDbEntity
  8
M0
 62
     7
100
AcDbLine
 10
457.639707
 20
710.218114
 11
459.639707
 21
709.063421
  0
LINE
  5
179
100
AcDbEntity
  8
M0
 62
     6
100
AcDbLine
 10
451.138242
 20
701.553335
 11
457.639707
 21
701.553335
  0
LINE
  5
17A
100
AcDbEntity
  8
M0
 62
     6
100
AcDbLine
 10
457.639707
 20
701.553335
 11
457.639707
 21
716.573369
  0
LINE
  5
17B
100
AcDbEntity
  8
M0
 62
     6
100
AcDbLine
 10
457.639707
 20
716.573369
 11
451.138242
 21
716.573064
  0
LINE
  5
17C
100
AcDbEntity
  8
M0
 62
     6
100
AcDbLine
 10
451.138242
 20
701.553335
 11
451.138242
 21
716.573064
  0
LINE
  5
17D
100
AcDbEntity
  8
M0
  6
DASHDOT
 62
     6
100
AcDbLine
 10
446.494184
 20
709.063421
 11
461.387754
 21
709.063436
  0
LINE
  5
17E
100
AcDbEntity
  8
M0
 62
     6
100
AcDbLine
 10
451.138242
 20
712.816335
 11
457.639707
 21
712.816335
  0
LINE
  5
17F
100
AcDbEntity
  8
M0
 62
     6
100
AcDbLine
 10
451.138242
 20
705.310689
 11
457.639707
 21
705.310689
  0
LINE
  5
180
100
AcDbEntity
  8
M0
 62
     6
100
AcDbLine
 10
451.838307
 20
597.536944
 11
458.339772
 21
597.536948
  0
LINE
  5
181
100
AcDbEntity
  8
M0
 62
     6
100
AcDbLine
 10
458.339772
 20
597.536948
 11
458.339782
 21
582.516913
  0
LINE
  5
182
100
AcDbEntity
  8
M0
 62
     6
100
AcDbLine
 10
458.339782
 20
582.516913
 11
451.838317
 21
582.517214
  0
LINE
  5
183
100
AcDbEntity
  8
M0
 62
     6
100
AcDbLine
 10
451.838307
 20
597.536944
 11
451.838317
 21
582.517214
  0
LINE
  5
184
100
AcDbEntity
  8
M0
  6
DASHDOT
 62
     6
100
AcDbLine
 10
447.194254
 20
590.02687
 11
462.087824
 21
590.026864
  0
LINE
  5
185
100
AcDbEntity
  8
M0
 62
     6
100
AcDbLine
 10
451.838314
 20
586.273959
 11
458.339779
 21
586.273963
  0
LINE
  5
186
100
AcDbEntity
  8
M0
 62
     6
100
AcDbLine
 10
451.83831
 20
593.779604
 11
458.339775
 21
593.779608
  0
LINE
  5
187
100
AcDbEntity
  8
M0
 62
     7
100
AcDbLine
 10
458.339772
 20
597.726873
 11
460.339772
 21
597.726874
  0
LINE
  5
188
100
AcDbEntity
  8
M0
 62
     7
100
AcDbLine
 10
460.339772
 20
597.726874
 11
460.339782
 21
582.326865
  0
LINE
  5
189
100
AcDbEntity
  8
M0
 62
     7
100
AcDbLine
 10
460.339782
 20
582.326865
 11
458.339782
 21
582.326864
  0
LINE
  5
18A
100
AcDbEntity
  8
M0
 62
     7
100
AcDbLine
 10
458.339782
 20
582.326864
 11
458.339772
 21
597.726873
  0
LINE
  5
18B
100
AcDbEntity
  8
M0
  6
DASHDOT
 62
     7
100
AcDbLine
 10
453.339777
 20
590.026857
 11
465.339777
 21
590.026865
  0
LINE
  5
18C
100
AcDbEntity
  8
M0
 62
     7
100
AcDbLine
 10
458.339777
 20
590.026876
 11
460.339776
 21
591.181571
  0
LINE
  5
18D
100
AcDbEntity
  8
M0
 62
     7
100
AcDbLine
 10
458.339778
 20
588.872182
 11
460.339777
 21
590.026877
  0
LINE
  5
18E
100
AcDbEntity
  8
M0
 62
     6
100
AcDbLine
 10
460.339634
 20
599.026876
 11
461.939625
 21
599.026877
  0
LINE
  5
18F
100
AcDbEntity
  8
M0
 62
     6
100
AcDbLine
 10
461.939625
 20
599.026877
 11
461.939636
 21
581.026877
  0
LINE
  5
190
100
AcDbEntity
  8
M0
 62
     6
100
AcDbLine
 10
461.939636
 20
581.026877
 11
460.339645
 21
581.026876
  0
LINE
  5
191
100
AcDbEntity
  8
M0
 62
     6
100
AcDbLine
 10
460.339645
 20
581.026876
 11
460.339634
 21
599.026876
  0
LINE
  5
192
100
AcDbEntity
  8
M0
  6
DASHDOT
 62
     6
100
AcDbLine
 10
457.339624
 20
590.026889
 11
464.93963
 21
590.026879
  0
LINE
  5
193
100
AcDbEntity
  8
M0
 62
     2
100
AcDbLine
 10
550.539793
 20
743.5268
 11
552.839796
 21
743.5268
  0
LINE
  5
194
100
AcDbEntity
  8
M0
 62
     2
100
AcDbLine
 10
550.539793
 20
478.5268
 11
552.839796
 21
478.5268
  0
LINE
  5
195
100
AcDbEntity
  8
M0
 62
     2
100
AcDbLine
 10
550.539793
 20
521.0268
 11
550.539793
 21
478.5268
  0
ARC
  5
196
100
AcDbEntity
  8
M0
 62
     2
100
AcDbCircle
 10
549.539793
 20
521.0268
 40
1.0
100
AcDbArc
 50
0.0
 51
90.0
  0
ARC
  5
197
100
AcDbEntity
  8
M0
 62
     2
100
AcDbCircle
 10
550.039793
 20
525.326787
 40
1.0
100
AcDbArc
 50
180.0
 51
269.999126
  0
LINE
  5
198
100
AcDbEntity
  8
M0
 62
     2
100
AcDbLine
 10
550.539793
 20
743.5268
 11
550.539793
 21
716.0268
  0
ARC
  5
199
100
AcDbEntity
  8
M0
 62
     2
100
AcDbCircle
 10
549.539793
 20
716.0268
 40
1.0
100
AcDbArc
 50
269.999126
 51
360.0
  0
LINE
  5
19A
100
AcDbEntity
  8
M0
 62
     2
100
AcDbLine
 10
549.039793
 20
711.726751
 11
549.039793
 21
525.326787
  0
ARC
  5
19B
100
AcDbEntity
  8
M0
 62
     2
100
AcDbCircle
 10
550.039793
 20
711.726751
 40
1.0
100
AcDbArc
 50
90.0
 51
180.0
  0
LINE
  5
19C
100
AcDbEntity
  8
M0
 62
     2
100
AcDbLine
 10
550.039793
 20
715.0268
 11
549.539793
 21
715.0268
  0
ARC
  5
19D
100
AcDbEntity
  8
M0
 62
     2
100
AcDbCircle
 10
550.039793
 20
711.726751
 40
3.299999
100
AcDbArc
 50
90.0
 51
180.0
  0
LINE
  5
19E
100
AcDbEntity
  8
M0
 62
     2
100
AcDbLine
 10
549.539793
 20
712.726751
 11
550.039793
 21
712.726751
  0
LINE
  5
19F
100
AcDbEntity
  8
M0
 62
     2
100
AcDbLine
 10
552.839796
 20
743.5268
 11
552.839796
 21
716.0268
  0
ARC
  5
1A0
100
AcDbEntity
  8
M0
 62
     2
100
AcDbCircle
 10
549.539793
 20
716.0268
 40
3.299999
100
AcDbArc
 50
269.999735
 51
360.0
  0
LINE
  5
1A1
100
AcDbEntity
  8
M0
 62
     2
100
AcDbLine
 10
546.73979
 20
711.726751
 11
546.73979
 21
525.326787
  0
LINE
  5
1A2
100
AcDbEntity
  8
M0
 62
     2
100
AcDbLine
 10
550.039793
 20
522.0268
 11
549.539793
 21
522.0268
  0
ARC
  5
1A3
100
AcDbEntity
  8
M0
 62
     2
100
AcDbCircle
 10
550.039793
 20
525.326787
 40
3.299999
100
AcDbArc
 50
180.0
 51
269.999735
  0
LINE
  5
1A4
100
AcDbEntity
  8
M0
 62
     2
100
AcDbLine
 10
552.839796
 20
521.0268
 11
552.839796
 21
478.5268
  0
LINE
  5
1A5
100
AcDbEntity
  8
M0
 62
     2
100
AcDbLine
 10
550.039793
 20
524.326787
 11
549.539793
 21
524.326787
  0
ARC
  5
1A6
100
AcDbEntity
  8
M0
 62
     2
100
AcDbCircle
 10
549.539793
 20
521.0268
 40
3.299999
100
AcDbArc
 50
0.0
 51
90.0
  0
LINE
  5
1A7
100
AcDbEntity
  8
M0
 62
     7
100
AcDbLine
 10
463.741381
 20
564.033369
 11
463.740261
 21
543.531904
  0
ARC
  5
1A8
100
AcDbEntity
  8
M0
 62
     7
100
AcDbCircle
 10
467.741366
 20
564.033368
 40
3.999987
100
AcDbArc
 50
90.0
 51
179.999982
  0
LINE
  5
1A9
100
AcDbEntity
  8
M0
 62
     7
100
AcDbLine
 10
473.130787
 20
520.432536
 11
497.378635
 21
520.43204
  0
LINE
  5
1AA
100
AcDbEntity
  8
M0
 62
     7
100
AcDbLine
 10
463.874263
 20
543.531904
 11
469.267247
 21
523.397381
  0
ARC
  5
1AB
100
AcDbEntity
  8
M0
 62
     7
100
AcDbCircle
 10
473.131063
 20
524.43278
 40
3.999989
100
AcDbArc
 50
194.997979
 51
269.999763
  0
LINE
  5
1AC
100
AcDbEntity
  8
M0
 62
     7
100
AcDbLine
 10
484.631384
 20
526.031898
 11
498.737142
 21
526.030673
  0
LINE
  5
1AD
100
AcDbEntity
  8
M0
 62
     7
100
AcDbLine
 10
501.736989
 20
524.030672
 11
507.736989
 21
524.030182
  0
LINE
  5
1AE
100
AcDbEntity
  8
M0
 62
     7
100
AcDbLine
 10
508.737112
 20
526.030181
 11
514.97965
 21
526.029935
  0
ARC
  5
1AF
100
AcDbEntity
  8
M0
 62
     7
100
AcDbCircle
 10
507.73705
 20
525.030182
 40
1.0
100
AcDbArc
 50
269.999108
 51
359.999108
  0
LINE
  5
1B0
100
AcDbEntity
  8
M0
 62
     7
100
AcDbLine
 10
545.737432
 20
526.926898
 11
545.737662
 21
530.026752
  0
LINE
  5
1B1
100
AcDbEntity
  8
M0
 62
     7
100
AcDbLine
 10
490.157386
 20
530.532629
 11
513.77407
 21
530.53018
  0
LINE
  5
1B2
100
AcDbEntity
  8
M0
 62
     7
100
AcDbLine
 10
497.041965
 20
568.031406
 11
484.898838
 21
568.031165
  0
LINE
  5
1B3
100
AcDbEntity
  8
M0
 62
     7
100
AcDbLine
 10
483.239437
 20
544.033119
 11
483.241686
 21
565.033119
  0
LINE
  5
1B4
100
AcDbEntity
  8
M0
  6
DASHED
 62
     7
100
AcDbLine
 10
476.739987
 20
548.283853
 11
476.740707
 21
554.783853
  0
LINE
  5
1B5
100
AcDbEntity
  8
M0
 62
     7
100
AcDbLine
 10
484.239681
 20
544.032875
 11
487.259849
 21
532.756506
  0
ARC
  5
1B6
100
AcDbEntity
  8
M0
 62
     7
100
AcDbCircle
 10
490.15786
 20
533.532629
 40
2.999989
100
AcDbArc
 50
194.992784
 51
269.990657
  0
LINE
  5
1B7
100
AcDbEntity
  8
M0
  6
DASHED
 62
     7
100
AcDbLine
 10
482.739437
 20
544.033119
 11
482.739942
 21
551.030922
  0
LINE
  5
1B8
100
AcDbEntity
  8
M0
  6
DASHED
 62
     7
100
AcDbLine
 10
482.741013
 20
559.033119
 11
483.241013
 21
559.033119
  0
LINE
  5
1B9
100
AcDbEntity
  8
M0
 62
     7
100
AcDbLine
 10
476.239987
 20
548.283854
 11
476.739987
 21
548.283853
  0
LINE
  5
1BA
100
AcDbEntity
  8
M0
 62
     7
100
AcDbLine
 10
493.438683
 20
534.532383
 11
498.738732
 21
534.531649
  0
LINE
  5
1BB
100
AcDbEntity
  8
M0
 62
     7
100
AcDbLine
 10
501.73835
 20
532.53116
 11
513.238334
 21
532.53018
  0
LINE
  5
1BC
100
AcDbEntity
  8
M0
 62
     7
100
AcDbLine
 10
516.112234
 20
527.529935
 11
519.937918
 21
527.529689
  0
LINE
  5
1BD
100
AcDbEntity
  8
M0
 62
     7
100
AcDbLine
 10
517.184071
 20
523.52969
 11
533.33141
 21
523.527976
  0
ARC
  5
1BE
100
AcDbEntity
  8
M0
 62
     7
100
AcDbCircle
 10
497.041827
 20
566.031406
 40
1.999992
100
AcDbArc
 50
359.936597
 51
450.0
  0
LINE
  5
1BF
100
AcDbEntity
  8
M0
 62
     7
100
AcDbLine
 10
535.063436
 20
524.527976
 11
538.239615
 21
530.027731
  0
ARC
  5
1C0
100
AcDbEntity
  8
M0
 62
     7
100
AcDbCircle
 10
533.331579
 20
525.52822
 40
1.999992
100
AcDbArc
 50
269.999545
 51
329.990833
  0
ARC
  5
1C1
100
AcDbEntity
  8
M0
 62
     7
100
AcDbCircle
 10
516.112632
 20
529.529935
 40
1.999992
100
AcDbArc
 50
194.990982
 51
269.988179
  0
LINE
  5
1C2
100
AcDbEntity
  8
M0
 62
     7
100
AcDbLine
 10
522.93778
 20
525.5292
 11
534.486364
 21
525.527976
  0
ARC
  5
1C3
100
AcDbEntity
  8
M0
 62
     7
100
AcDbCircle
 10
534.486502
 20
527.527976
 40
1.999992
100
AcDbArc
 50
269.999545
 51
329.996906
  0
LINE
  5
1C4
100
AcDbEntity
  8
M0
 62
     7
100
AcDbLine
 10
498.738732
 20
534.531649
 11
501.73835
 21
532.53116
  0
LINE
  5
1C5
100
AcDbEntity
  8
M0
 62
     7
100
AcDbLine
 10
538.239615
 20
530.027731
 11
545.738151
 21
530.026996
  0
LINE
  5
1C6
100
AcDbEntity
  8
M0
 62
     7
100
AcDbLine
 10
519.937918
 20
527.529689
 11
522.93778
 21
525.5292
  0
LINE
  5
1C7
100
AcDbEntity
  8
M0
 62
     7
100
AcDbLine
 10
513.238304
 20
532.529936
 11
515.25234
 21
525.012113
  0
LINE
  5
1C8
100
AcDbEntity
  8
M0
 62
     7
100
AcDbLine
 10
498.737708
 20
530.531161
 11
498.737142
 21
526.031161
  0
LINE
  5
1C9
100
AcDbEntity
  8
M0
 62
     7
100
AcDbLine
 10
498.737142
 20
526.031161
 11
501.736989
 21
524.030916
  0
LINE
  5
1CA
100
AcDbEntity
  8
M0
 62
     7
100
AcDbLine
 10
508.737371
 20
526.030425
 11
508.737295
 21
525.030425
  0
LINE
  5
1CB
100
AcDbEntity
  8
M0
 62
     7
100
AcDbLine
 10
546.7367
 20
526.926654
 11
546.740484
 21
575.426898
  0
LINE
  5
1CC
100
AcDbEntity
  8
M0
 62
     7
100
AcDbLine
 10
545.736944
 20
526.926898
 11
546.736456
 21
526.926654
  0
LINE
  5
1CD
100
AcDbEntity
  8
M0
 62
     7
100
AcDbLine
 10
475.241442
 20
565.031413
 11
470.740954
 21
565.031658
  0
LINE
  5
1CE
100
AcDbEntity
  8
M0
 62
     7
100
AcDbLine
 10
514.481296
 20
567.027982
 11
514.481234
 21
566.028226
  0
LINE
  5
1CF
100
AcDbEntity
  8
M0
  6
DASHED
 62
     7
100
AcDbLine
 10
476.743038
 20
543.232584
 11
480.743038
 21
543.232094
  0
LINE
  5
1D0
100
AcDbEntity
  8
M0
  6
DASHED
 62
     7
100
AcDbLine
 10
480.743038
 20
543.232094
 11
480.744248
 21
559.831948
  0
LINE
  5
1D1
100
AcDbEntity
  8
M0
  6
DASHED
 62
     7
100
AcDbLine
 10
480.744248
 20
559.831948
 11
476.744248
 21
559.832437
  0
LINE
  5
1D2
100
AcDbEntity
  8
M0
  6
DASHED
 62
     7
100
AcDbLine
 10
476.744248
 20
559.832437
 11
476.743038
 21
543.232584
  0
LINE
  5
1D3
100
AcDbEntity
  8
M0
  6
DASHED
 62
     7
100
AcDbLine
 10
480.74313
 20
544.531899
 11
482.74313
 21
544.531898
  0
LINE
  5
1D4
100
AcDbEntity
  8
M0
  6
DASHED
 62
     7
100
AcDbLine
 10
482.744141
 20
558.531898
 11
480.744141
 21
558.531899
  0
LINE
  5
1D5
100
AcDbEntity
  8
M0
 62
     7
100
AcDbLine
 10
473.743161
 20
548.28239
 11
475.240232
 21
548.282389
  0
LINE
  5
1D6
100
AcDbEntity
  8
M0
  6
DASHED
 62
     7
100
AcDbLine
 10
476.74388
 20
554.782389
 11
475.240707
 21
554.782389
  0
ARC
  5
1D7
100
AcDbEntity
  8
M0
 62
     7
100
AcDbCircle
 10
473.74359
 20
554.281901
 40
0.5
100
AcDbArc
 50
90.0
 51
179.972006
  0
ARC
  5
1D8
100
AcDbEntity
  8
M0
 62
     7
100
AcDbCircle
 10
473.743192
 20
548.78239
 40
0.5
100
AcDbArc
 50
179.972006
 51
269.998233
  0
LINE
  5
1D9
100
AcDbEntity
  8
M0
  6
DASHDOT
 62
     7
100
AcDbLine
 10
468.301741
 20
551.532635
 11
486.121321
 21
551.531409
  0
LINE
  5
1DA
100
AcDbEntity
  8
M0
 62
     7
100
AcDbLine
 10
473.243834
 20
554.282146
 11
473.243436
 21
548.782634
  0
LINE
  5
1DB
100
AcDbEntity
  8
M0
 62
     7
100
AcDbLine
 10
545.740484
 20
575.426898
 11
546.739996
 21
575.426898
  0
LINE
  5
1DC
100
AcDbEntity
  8
M0
 62
     7
100
AcDbLine
 10
544.73728
 20
528.026996
 11
545.73728
 21
528.026996
  0
LINE
  5
1DD
100
AcDbEntity
  8
M0
 62
     7
100
AcDbLine
 10
471.739605
 20
546.531658
 11
471.74077
 21
562.531658
  0
LINE
  5
1DE
100
AcDbEntity
  8
M0
 62
     7
100
AcDbLine
 10
470.739421
 20
544.033855
 11
470.739544
 21
545.531658
  0
LINE
  5
1DF
100
AcDbEntity
  8
M0
 62
     7
100
AcDbLine
 10
470.740847
 20
563.531658
 11
470.740954
 21
565.033855
  0
ARC
  5
1E0
100
AcDbEntity
  8
M0
 62
     7
100
AcDbCircle
 10
471.740847
 20
563.531658
 40
1.0
100
AcDbArc
 50
179.999982
 51
269.999108
  0
LINE
  5
1E1
100
AcDbEntity
  8
M0
  6
DASHED
 62
     7
100
AcDbLine
 10
475.240232
 20
548.282389
 11
476.743405
 21
548.282389
  0
LINE
  5
1E2
100
AcDbEntity
  8
M0
 62
     7
100
AcDbLine
 10
475.240707
 20
554.782389
 11
473.743636
 21
554.78239
  0
LINE
  5
1E3
100
AcDbEntity
  8
M0
 62
     7
100
AcDbLine
 10
482.739942
 20
551.030922
 11
482.740448
 21
558.030922
  0
LINE
  5
1E4
100
AcDbEntity
  8
M0
  6
DASHED
 62
     7
100
AcDbLine
 10
482.740448
 20
558.030922
 11
482.741013
 21
559.033119
  0
LINE
  5
1E5
100
AcDbEntity
  8
M0
 62
     7
100
AcDbLine
 10
490.438913
 20
537.532384
 11
490.439373
 21
544.030187
  0
ARC
  5
1E6
100
AcDbEntity
  8
M0
 62
     7
100
AcDbCircle
 10
493.438913
 20
537.532383
 40
2.999989
100
AcDbArc
 50
179.999982
 51
269.999691
  0
LINE
  5
1E7
100
AcDbEntity
  8
M0
100
AcDbLine
 10
486.939784
 20
542.830725
 11
486.939876
 21
544.030676
  0
LINE
  5
1E8
100
AcDbEntity
  8
M0
100
AcDbLine
 10
486.941485
 20
566.230628
 11
471.441729
 21
566.231853
  0
LINE
  5
1E9
100
AcDbEntity
  8
M0
100
AcDbLine
 10
471.441729
 20
566.231853
 11
471.441638
 21
565.031658
  0
LINE
  5
1EA
100
AcDbEntity
  8
M0
100
AcDbLine
 10
471.439784
 20
542.831707
 11
486.939784
 21
542.830725
  0
LINE
  5
1EB
100
AcDbEntity
  8
M0
100
AcDbLine
 10
470.739177
 20
544.031658
 11
475.239681
 21
544.031413
  0
LINE
  5
1EC
100
AcDbEntity
  8
M0
100
AcDbLine
 10
544.240695
 20
565.026264
 11
483.241198
 21
565.030922
  0
LINE
  5
1ED
100
AcDbEntity
  8
M0
100
AcDbLine
 10
483.239925
 20
544.030922
 11
483.240431
 21
551.030922
  0
LINE
  5
1EE
100
AcDbEntity
  8
M0
100
AcDbLine
 10
481.740431
 20
551.030922
 11
481.740936
 21
558.030922
  0
LINE
  5
1EF
100
AcDbEntity
  8
M0
100
AcDbLine
 10
481.740936
 20
558.030922
 11
483.240936
 21
558.030922
  0
LINE
  5
1F0
100
AcDbEntity
  8
M0
100
AcDbLine
 10
481.740431
 20
551.030922
 11
483.240431
 21
551.030922
  0
LINE
  5
1F1
100
AcDbEntity
  8
M0
100
AcDbLine
 10
486.941165
 20
565.030188
 11
486.941226
 21
566.230383
  0
LINE
  5
1F2
100
AcDbEntity
  8
M0
100
AcDbLine
 10
483.240936
 20
558.030922
 11
483.241442
 21
565.030922
  0
LINE
  5
1F3
100
AcDbEntity
  8
M0
100
AcDbLine
 10
471.439861
 20
544.031658
 11
471.439784
 21
542.831707
  0
LINE
  5
1F4
100
AcDbEntity
  8
M0
  6
DASHED
100
AcDbLine
 10
482.738948
 20
544.030922
 11
483.239193
 21
544.030922
  0
LINE
  5
1F5
100
AcDbEntity
  8
M0
100
AcDbLine
 10
475.241442
 20
565.031413
 11
471.441638
 21
565.031658
  0
LINE
  5
1F6
100
AcDbEntity
  8
M0
100
AcDbLine
 10
483.939692
 20
541.530677
 11
483.939784
 21
542.830726
  0
LINE
  5
1F7
100
AcDbEntity
  8
M0
100
AcDbLine
 10
475.239741
 20
541.531413
 11
475.241534
 21
566.231608
  0
LINE
  5
1F8
100
AcDbEntity
  8
M0
100
AcDbLine
 10
475.239741
 20
541.531413
 11
483.939692
 21
541.530677
  0
LINE
  5
1F9
100
AcDbEntity
  8
M0
100
AcDbLine
 10
463.740353
 20
546.532149
 11
475.239865
 21
546.531168
  0
LINE
  5
1FA
100
AcDbEntity
  8
M0
100
AcDbLine
 10
471.74077
 20
562.531658
 11
475.241258
 21
562.531413
  0
ARC
  5
1FB
100
AcDbEntity
  8
M0
100
AcDbCircle
 10
471.739544
 20
545.531658
 40
1.0
100
AcDbArc
 50
90.0
 51
179.999982
  0
LINE
  5
1FC
100
AcDbEntity
  8
M0
100
AcDbLine
 10
483.238948
 20
544.030922
 11
490.439128
 21
544.030187
  0
LINE
  5
1FD
100
AcDbEntity
  8
M0
 62
     7
100
AcDbLine
 10
544.241031
 20
566.026508
 11
544.240923
 21
565.02602
  0
LINE
  5
1FE
100
AcDbEntity
  8
M0
  6
DASHDOT
100
AcDbLine
 10
538.802861
 20
570.527486
 11
554.741581
 21
570.526261
  0
LINE
  5
1FF
100
AcDbEntity
  8
M0
100
AcDbLine
 10
549.03983
 20
572.526751
 11
550.741734
 21
572.52675
  0
LINE
  5
200
100
AcDbEntity
  8
M0
100
AcDbLine
 10
549.039539
 20
568.526751
 11
550.741443
 21
568.52675
  0
LINE
  5
201
100
AcDbEntity
  8
M0
100
AcDbLine
 10
549.0398
 20
572.026751
 11
550.741704
 21
572.02675
  0
LINE
  5
202
100
AcDbEntity
  8
M0
100
AcDbLine
 10
549.03957
 20
569.026751
 11
550.741474
 21
569.02675
  0
LINE
  5
203
100
AcDbEntity
  8
M0
100
AcDbLine
 10
550.741734
 20
572.52675
 11
550.741443
 21
568.52675
  0
LINE
  5
204
100
AcDbEntity
  8
M0
 62
     7
100
AcDbLine
 10
544.737524
 20
528.026996
 11
545.737524
 21
528.026996
  0
LINE
  5
205
100
AcDbEntity
  8
M0
100
AcDbLine
 10
544.737524
 20
528.026996
 11
544.737662
 21
530.02724
  0
LINE
  5
206
100
AcDbEntity
  8
M0
  6
DASHDOT
100
AcDbLine
 10
540.214088
 20
531.527486
 11
554.73777
 21
531.526261
  0
LINE
  5
207
100
AcDbEntity
  8
M0
100
AcDbLine
 10
544.737524
 20
528.026752
 11
543.617895
 21
528.124897
  0
ARC
  5
208
100
AcDbEntity
  8
M0
100
AcDbCircle
 10
543.731513
 20
529.420063
 40
1.299992
100
AcDbArc
 50
220.169008
 51
264.986081
  0
LINE
  5
209
100
AcDbEntity
  8
M0
100
AcDbLine
 10
544.737524
 20
528.026996
 11
544.738989
 21
528.026996
  0
LINE
  5
20A
100
AcDbEntity
  8
M0
100
AcDbLine
 10
549.036995
 20
533.526751
 11
550.737923
 21
533.52675
  0
LINE
  5
20B
100
AcDbEntity
  8
M0
100
AcDbLine
 10
549.036704
 20
529.526751
 11
550.737632
 21
529.52675
  0
LINE
  5
20C
100
AcDbEntity
  8
M0
100
AcDbLine
 10
549.036949
 20
533.026751
 11
550.737877
 21
533.02675
  0
LINE
  5
20D
100
AcDbEntity
  8
M0
100
AcDbLine
 10
549.036735
 20
530.026751
 11
550.737662
 21
530.02675
  0
LINE
  5
20E
100
AcDbEntity
  8
M0
100
AcDbLine
 10
550.737923
 20
533.52675
 11
550.737632
 21
529.52675
  0
LINE
  5
20F
100
AcDbEntity
  8
M0
100
AcDbLine
 10
486.941226
 20
566.029944
 11
545.239795
 21
566.026508
  0
LINE
  5
210
100
AcDbEntity
  8
M0
100
AcDbLine
 10
544.241
 20
565.925678
 11
544.739795
 21
565.925678
  0
ARC
  5
211
100
AcDbEntity
  8
M0
 62
     7
100
AcDbCircle
 10
544.739733
 20
564.925678
 40
1.0
100
AcDbArc
 50
359.999108
 51
450.0
  0
ARC
  5
212
100
AcDbEntity
  8
M0
 62
     7
100
AcDbCircle
 10
545.239764
 20
565.526508
 40
0.5
100
AcDbArc
 50
359.998233
 51
450.0
  0
ARC
  5
213
100
AcDbEntity
  8
M0
 62
     7
100
AcDbCircle
 10
517.184194
 20
525.52969
 40
2.0
100
AcDbArc
 50
194.998613
 51
269.999545
  0
LINE
  5
214
100
AcDbEntity
  8
M0
100
AcDbLine
 10
463.74023
 20
543.531904
 11
466.737712
 21
543.531903
  0
LINE
  5
215
100
AcDbEntity
  8
M0
100
AcDbLine
 10
478.338633
 20
540.927652
 11
474.738261
 21
540.927653
  0
LINE
  5
216
100
AcDbEntity
  8
M0
100
AcDbLine
 10
474.738445
 20
545.031413
 11
483.239544
 21
545.031166
  0
LINE
  5
217
100
AcDbEntity
  8
M0
100
AcDbLine
 10
478.177058
 20
541.530923
 11
481.73371
 21
528.255532
  0
LINE
  5
218
100
AcDbEntity
  8
M0
100
AcDbLine
 10
474.738108
 20
540.928385
 11
478.829687
 21
525.655679
  0
ARC
  5
219
100
AcDbEntity
  8
M0
100
AcDbCircle
 10
484.631491
 20
529.031898
 40
2.999996
100
AcDbArc
 50
194.998434
 51
269.999691
  0
LINE
  5
21A
100
AcDbEntity
  8
M0
 62
     7
100
AcDbLine
 10
481.727452
 20
523.432045
 11
497.449742
 21
523.431796
  0
LINE
  5
21B
100
AcDbEntity
  8
M0
100
AcDbLine
 10
501.461553
 20
524.21451
 11
501.24236
 21
523.396639
  0
ARC
  5
21C
100
AcDbEntity
  8
M0
 62
     7
100
AcDbCircle
 10
497.378713
 20
524.43204
 40
3.999996
100
AcDbArc
 50
269.999763
 51
344.997902
  0
ARC
  5
21D
100
AcDbEntity
  8
M0
100
AcDbCircle
 10
481.727499
 20
526.432045
 40
2.999996
100
AcDbArc
 50
194.998153
 51
269.999691
  0
ARC
  5
21E
100
AcDbEntity
  8
M0
 62
     7
100
AcDbCircle
 10
497.449804
 20
526.431796
 40
2.999996
100
AcDbArc
 50
269.999691
 51
333.597971
  0
LINE
  5
21F
100
AcDbEntity
  8
M0
 62
     7
100
AcDbLine
 10
482.110983
 20
525.932045
 11
497.449804
 21
525.931552
  0
LINE
  5
220
100
AcDbEntity
  8
M0
100
AcDbLine
 10
477.326335
 20
540.927408
 11
481.145117
 21
526.673256
  0
ARC
  5
221
100
AcDbEntity
  8
M0
100
AcDbCircle
 10
482.110983
 20
526.932045
 40
1.0
100
AcDbArc
 50
194.998922
 51
269.999108
  0
LINE
  5
222
100
AcDbEntity
  8
M0
 62
     7
100
AcDbLine
 10
466.737697
 20
543.531903
 11
466.737698
 21
546.531903
  0
LINE
  5
223
100
AcDbEntity
  8
M0
 62
     7
100
AcDbLine
 10
465.937755
 20
543.53166
 11
465.937756
 21
546.531904
  0
LINE
  5
224
100
AcDbEntity
  8
M0
 62
     7
100
AcDbLine
 10
464.737697
 20
543.53166
 11
464.737698
 21
546.53166
  0
LINE
  5
225
100
AcDbEntity
  8
M0
100
AcDbLine
 10
474.738123
 20
540.928141
 11
466.737712
 21
543.531659
  0
LINE
  5
226
100
AcDbEntity
  8
M0
 62
     7
100
AcDbLine
 10
481.584613
 20
568.031411
 11
467.741626
 21
568.033124
  0
LINE
  5
227
100
AcDbEntity
  8
M0
 62
     7
100
AcDbLine
 10
545.737662
 20
530.026752
 11
545.741413
 21
568.026508
  0
LINE
  5
228
100
AcDbEntity
  8
M0
 62
     7
100
AcDbLine
 10
545.741413
 20
568.026263
 11
545.741949
 21
575.426898
  0
LINE
  5
229
100
AcDbEntity
  8
M0
 62
     7
100
AcDbLine
 10
544.741336
 20
567.026996
 11
545.741336
 21
567.026996
  0
LINE
  5
22A
100
AcDbEntity
  8
M0
100
AcDbLine
 10
544.741336
 20
567.026996
 11
544.741842
 21
574.026996
  0
LINE
  5
22B
100
AcDbEntity
  8
M0
100
AcDbLine
 10
544.741842
 20
574.026752
 11
543.622213
 21
573.928852
  0
LINE
  5
22C
100
AcDbEntity
  8
M0
100
AcDbLine
 10
544.741336
 20
567.026752
 11
543.621707
 21
567.124897
  0
LINE
  5
22D
100
AcDbEntity
  8
M0
100
AcDbLine
 10
542.141774
 20
571.027241
 11
543.541432
 21
571.027241
  0
LINE
  5
22E
100
AcDbEntity
  8
M0
100
AcDbLine
 10
542.141697
 20
570.027241
 11
543.541355
 21
570.027241
  0
ARC
  5
22F
100
AcDbEntity
  8
M0
100
AcDbCircle
 10
551.141728
 20
570.526506
 40
8.999985
100
AcDbArc
 50
164.118314
 51
176.810668
  0
ARC
  5
230
100
AcDbEntity
  8
M0
100
AcDbCircle
 10
543.735631
 20
572.63393
 40
1.29999
100
AcDbArc
 50
95.005844
 51
164.131721
  0
ARC
  5
231
100
AcDbEntity
  8
M0
100
AcDbCircle
 10
543.735325
 20
568.420063
 40
1.29999
100
AcDbArc
 50
195.889121
 51
264.986081
  0
ARC
  5
232
100
AcDbEntity
  8
M0
100
AcDbCircle
 10
551.141728
 20
570.526506
 40
8.999985
100
AcDbArc
 50
183.179958
 51
195.878088
  0
LINE
  5
233
100
AcDbEntity
  8
M0
100
AcDbLine
 10
545.741336
 20
567.026996
 11
545.741842
 21
574.026996
  0
LINE
  5
234
100
AcDbEntity
  8
M0
100
AcDbLine
 10
544.741842
 20
574.026996
 11
545.741842
 21
574.026996
  0
LINE
  5
235
100
AcDbEntity
  8
M0
100
AcDbLine
 10
544.741336
 20
567.026996
 11
544.742801
 21
567.026996
  0
LINE
  5
236
100
AcDbEntity
  8
M0
100
AcDbLine
 10
545.741612
 20
570.776996
 11
544.741643
 21
571.354145
  0
LINE
  5
237
100
AcDbEntity
  8
M0
100
AcDbLine
 10
544.741566
 20
570.276996
 11
545.74152
 21
569.699603
  0
LINE
  5
238
100
AcDbEntity
  8
M0
100
AcDbLine
 10
543.541432
 20
571.027241
 11
543.541355
 21
570.027241
  0
LINE
  5
239
100
AcDbEntity
  8
M0
100
AcDbLine
 10
514.481311
 20
567.027982
 11
544.241046
 21
567.02602
  0
ARC
  5
23A
100
AcDbEntity
  8
M0
 62
     7
100
AcDbCircle
 10
545.23897
 20
565.525775
 40
1.5
100
AcDbArc
 50
70.492829
 51
90.0
  0
LINE
  5
23B
100
AcDbEntity
  8
M0
 62
     7
100
AcDbLine
 10
544.737662
 20
528.026996
 11
545.737662
 21
528.026996
  0
LINE
  5
23C
100
AcDbEntity
  8
M0
100
AcDbLine
 10
544.737662
 20
528.026996
 11
544.737662
 21
530.027729
  0
LINE
  5
23D
100
AcDbEntity
  8
M0
100
AcDbLine
 10
544.737662
 20
528.026752
 11
543.618033
 21
528.124897
  0
ARC
  5
23E
100
AcDbEntity
  8
M0
100
AcDbCircle
 10
543.73165
 20
529.420063
 40
1.29999
100
AcDbArc
 50
195.889121
 51
264.986081
  0
ARC
  5
23F
100
AcDbEntity
  8
M0
100
AcDbCircle
 10
551.138053
 20
531.526506
 40
8.999985
100
AcDbArc
 50
189.586182
 51
195.878088
  0
LINE
  5
240
100
AcDbEntity
  8
M0
100
AcDbLine
 10
545.737662
 20
528.026996
 11
545.738167
 21
535.026996
  0
LINE
  5
241
100
AcDbEntity
  8
M0
100
AcDbLine
 10
544.737662
 20
528.026996
 11
544.739127
 21
528.026996
  0
LINE
  5
242
100
AcDbEntity
  8
M0
100
AcDbLine
 10
480.491687
 20
566.23063
 11
485.991687
 21
566.230628
  0
LINE
  5
243
100
AcDbEntity
  8
M0
  6
DASHDOT
100
AcDbLine
 10
483.241685
 20
562.241768
 11
483.241689
 21
572.32093
  0
LINE
  5
244
100
AcDbEntity
  8
M0
100
AcDbLine
 10
480.491443
 20
566.23063
 11
480.565417
 21
567.077553
  0
LINE
  5
245
100
AcDbEntity
  8
M0
100
AcDbLine
 10
485.991443
 20
566.230628
 11
485.917468
 21
567.077552
  0
ARC
  5
246
100
AcDbEntity
  8
M0
100
AcDbCircle
 10
483.241685
 20
561.230385
 40
6.999995
100
AcDbArc
 50
73.746332
 51
106.263274
  0
ARC
  5
247
100
AcDbEntity
  8
M0
100
AcDbCircle
 10
484.92113
 20
566.990638
 40
1.0
100
AcDbArc
 50
4.985211
 51
73.751597
  0
ARC
  5
248
100
AcDbEntity
  8
M0
100
AcDbCircle
 10
481.561511
 20
566.990395
 40
1.0
100
AcDbArc
 50
106.272147
 51
174.999871
  0
LINE
  5
249
100
AcDbEntity
  8
M0
100
AcDbLine
 10
527.987629
 20
568.228173
 11
533.487629
 21
568.228172
  0
LINE
  5
24A
100
AcDbEntity
  8
M0
  6
DASHDOT
100
AcDbLine
 10
530.737627
 20
561.91552
 11
530.73763
 21
572.75602
  0
LINE
  5
24B
100
AcDbEntity
  8
M0
100
AcDbLine
 10
527.987384
 20
568.228173
 11
528.061359
 21
569.075097
  0
LINE
  5
24C
100
AcDbEntity
  8
M0
100
AcDbLine
 10
533.487384
 20
568.228172
 11
533.41341
 21
569.075095
  0
ARC
  5
24D
100
AcDbEntity
  8
M0
100
AcDbCircle
 10
530.737627
 20
563.227928
 40
6.999995
100
AcDbArc
 50
73.746332
 51
106.263274
  0
ARC
  5
24E
100
AcDbEntity
  8
M0
100
AcDbCircle
 10
532.417072
 20
568.988182
 40
1.0
100
AcDbArc
 50
4.985211
 51
73.751597
  0
ARC
  5
24F
100
AcDbEntity
  8
M0
100
AcDbCircle
 10
529.057453
 20
568.987939
 40
1.0
100
AcDbArc
 50
106.272147
 51
174.999871
  0
LINE
  5
250
100
AcDbEntity
  8
M0
100
AcDbLine
 10
527.737628
 20
567.527978
 11
533.737628
 21
567.527976
  0
LINE
  5
251
100
AcDbEntity
  8
M0
100
AcDbLine
 10
527.737628
 20
567.027978
 11
533.737628
 21
567.027976
  0
LINE
  5
252
100
AcDbEntity
  8
M0
100
AcDbLine
 10
533.737628
 20
567.527976
 11
533.737628
 21
567.027976
  0
LINE
  5
253
100
AcDbEntity
  8
M0
100
AcDbLine
 10
527.737628
 20
567.527978
 11
527.737628
 21
567.027978
  0
LINE
  5
254
100
AcDbEntity
  8
M0
100
AcDbLine
 10
527.987629
 20
568.228173
 11
527.987628
 21
567.527978
  0
LINE
  5
255
100
AcDbEntity
  8
M0
100
AcDbLine
 10
533.487629
 20
568.228172
 11
533.487628
 21
567.527976
  0
LINE
  5
256
100
AcDbEntity
  8
M0
 62
     2
100
AcDbLine
 10
464.239698
 20
600.026555
 11
461.939756
 21
600.0268
  0
LINE
  5
257
100
AcDbEntity
  8
M0
 62
     2
100
AcDbLine
 10
461.939756
 20
600.0268
 11
461.939756
 21
569.456487
  0
LINE
  5
258
100
AcDbEntity
  8
M0
 62
     2
100
AcDbLine
 10
464.239698
 20
600.0268
 11
464.239698
 21
569.294195
  0
LINE
  5
259
100
AcDbEntity
  8
M0
 62
     2
100
AcDbLine
 10
461.939756
 20
582.0268
 11
464.239698
 21
582.0268
  0
LINE
  5
25A
100
AcDbEntity
  8
M0
 62
     2
100
AcDbLine
 10
461.939756
 20
572.0268
 11
464.239698
 21
572.0268
  0
ARC
  5
25B
100
AcDbEntity
  8
M0
 62
     2
100
AcDbCircle
 10
467.139707
 20
569.456487
 40
5.199996
100
AcDbArc
 50
180.0
 51
232.318053
  0
ARC
  5
25C
100
AcDbEntity
  8
M0
 62
     2
100
AcDbCircle
 10
467.239698
 20
569.294195
 40
3.0
100
AcDbArc
 50
180.0
 51
226.747913
  0
LINE
  5
25D
100
AcDbEntity
  8
M0
 62
     5
100
AcDbLine
 10
486.939756
 20
501.925786
 11
493.03874
 21
501.925786
  0
LINE
  5
25E
100
AcDbEntity
  8
M0
 62
     5
100
AcDbLine
 10
486.939756
 20
493.925786
 11
493.03874
 21
493.925786
  0
LINE
  5
25F
100
AcDbEntity
  8
M0
 62
     5
100
AcDbLine
 10
486.939756
 20
494.425786
 11
493.03874
 21
494.425786
  0
LINE
  5
260
100
AcDbEntity
  8
M0
 62
     5
100
AcDbLine
 10
486.939756
 20
501.425786
 11
493.03874
 21
501.425786
  0
LINE
  5
261
100
AcDbEntity
  8
M0
 62
     5
100
AcDbLine
 10
486.939756
 20
501.925786
 11
486.939756
 21
493.925786
  0
LINE
  5
262
100
AcDbEntity
  8
M0
 62
     5
100
AcDbLine
 10
511.747373
 20
505.425298
 11
507.939756
 21
505.425054
  0
LINE
  5
263
100
AcDbEntity
  8
M0
 62
     5
100
AcDbLine
 10
507.939756
 20
490.425542
 11
511.746885
 21
490.425542
  0
LINE
  5
264
100
AcDbEntity
  8
M0
 62
     5
100
AcDbLine
 10
512.439756
 20
491.625493
 11
512.439756
 21
504.225347
  0
LINE
  5
265
100
AcDbEntity
  8
M0
 62
     5
100
AcDbLine
 10
511.747129
 20
494.165532
 11
507.939756
 21
494.165288
  0
LINE
  5
266
100
AcDbEntity
  8
M0
 62
     5
100
AcDbLine
 10
511.747373
 20
501.685308
 11
507.939756
 21
501.685064
  0
LINE
  5
267
100
AcDbEntity
  8
M0
 62
     5
100
AcDbLine
 10
512.44
 20
491.625493
 11
511.747129
 21
490.425542
  0
LINE
  5
268
100
AcDbEntity
  8
M0
 62
     5
100
AcDbLine
 10
512.44
 20
504.225347
 11
511.747129
 21
505.425542
  0
ARC
  5
269
100
AcDbEntity
  8
M0
 62
     5
100
AcDbCircle
 10
501.884336
 20
497.925542
 40
10.555572
100
AcDbArc
 50
339.13241
 51
380.867435
  0
ARC
  5
26A
100
AcDbEntity
  8
M0
 62
     5
100
AcDbCircle
 10
507.434629
 20
504.225347
 40
5.005164
100
AcDbArc
 50
329.507249
 51
360.0
  0
ARC
  5
26B
100
AcDbEntity
  8
M0
 62
     5
100
AcDbCircle
 10
507.434629
 20
491.625493
 40
5.005137
100
AcDbArc
 50
0.0
 51
30.494966
  0
LINE
  5
26C
100
AcDbEntity
  8
M0
 62
     5
100
AcDbLine
 10
468.539365
 20
487.926275
 11
463.739561
 21
487.926031
  0
LINE
  5
26D
100
AcDbEntity
  8
M0
 62
     5
100
AcDbLine
 10
463.739561
 20
487.926031
 11
463.739805
 21
514.426275
  0
LINE
  5
26E
100
AcDbEntity
  8
M0
 62
     5
100
AcDbLine
 10
468.539365
 20
487.926031
 11
468.539609
 21
514.426031
  0
LINE
  5
26F
100
AcDbEntity
  8
M0
 62
     5
100
AcDbLine
 10
470.539609
 20
516.426031
 11
481.439756
 21
516.426031
  0
LINE
  5
270
100
AcDbEntity
  8
M0
  6
DASHDOT
 62
     5
100
AcDbLine
 10
442.344541
 20
497.926275
 11
476.20709
 21
497.926031
  0
LINE
  5
271
100
AcDbEntity
  8
M0
 62
     5
100
AcDbLine
 10
463.739805
 20
509.426031
 11
468.539609
 21
509.426031
  0
LINE
  5
272
100
AcDbEntity
  8
M0
 62
     5
100
AcDbLine
 10
463.739805
 20
511.926031
 11
468.539609
 21
511.926031
  0
ARC
  5
273
100
AcDbEntity
  8
M0
 62
     5
100
AcDbCircle
 10
470.539609
 20
514.426031
 40
2.0
100
AcDbArc
 50
90.0
 51
180.0
  0
ARC
  5
274
100
AcDbEntity
  8
M0
 62
     5
100
AcDbCircle
 10
470.539609
 20
514.426275
 40
6.799993
100
AcDbArc
 50
90.0
 51
180.0
  0
ARC
  5
275
100
AcDbEntity
  8
M0
 62
     5
100
AcDbCircle
 10
481.439756
 20
523.226079
 40
6.799993
100
AcDbArc
 50
269.999871
 51
335.744562
  0
LINE
  5
276
100
AcDbEntity
  8
M0
 62
     5
100
AcDbLine
 10
447.539365
 20
493.926275
 11
453.638197
 21
493.926168
  0
LINE
  5
277
100
AcDbEntity
  8
M0
 62
     5
100
AcDbLine
 10
447.539609
 20
501.926031
 11
453.638197
 21
501.926031
  0
LINE
  5
278
100
AcDbEntity
  8
M0
 62
     5
100
AcDbLine
 10
447.539609
 20
501.426031
 11
453.638197
 21
501.426031
  0
LINE
  5
279
100
AcDbEntity
  8
M0
 62
     5
100
AcDbLine
 10
447.539365
 20
494.426275
 11
453.638197
 21
494.426168
  0
LINE
  5
27A
100
AcDbEntity
  8
M0
 62
     5
100
AcDbLine
 10
447.539365
 20
493.926275
 11
447.539609
 21
501.926031
  0
LINE
  5
27B
100
AcDbEntity
  8
M0
 62
     5
100
AcDbLine
 10
472.346983
 20
490.426519
 11
468.539365
 21
490.426763
  0
LINE
  5
27C
100
AcDbEntity
  8
M0
 62
     5
100
AcDbLine
 10
468.539609
 20
505.426275
 11
472.346738
 21
505.426275
  0
LINE
  5
27D
100
AcDbEntity
  8
M0
 62
     5
100
AcDbLine
 10
473.039609
 20
504.226324
 11
473.039365
 21
491.62647
  0
LINE
  5
27E
100
AcDbEntity
  8
M0
 62
     5
100
AcDbLine
 10
472.346983
 20
501.686284
 11
468.539609
 21
501.686529
  0
LINE
  5
27F
100
AcDbEntity
  8
M0
 62
     5
100
AcDbLine
 10
472.346983
 20
494.166509
 11
468.539365
 21
494.166753
  0
LINE
  5
280
100
AcDbEntity
  8
M0
 62
     5
100
AcDbLine
 10
473.039854
 20
504.226324
 11
472.346983
 21
505.426275
  0
LINE
  5
281
100
AcDbEntity
  8
M0
 62
     5
100
AcDbLine
 10
473.039609
 20
491.62647
 11
472.346738
 21
490.426275
  0
ARC
  5
282
100
AcDbEntity
  8
M0
 62
     5
100
AcDbCircle
 10
462.48419
 20
497.926275
 40
10.555572
100
AcDbArc
 50
-20.868036
 51
20.867435
  0
ARC
  5
283
100
AcDbEntity
  8
M0
 62
     5
100
AcDbCircle
 10
468.034238
 20
491.62647
 40
5.005164
100
AcDbArc
 50
0.0
 51
30.492601
  0
ARC
  5
284
100
AcDbEntity
  8
M0
 62
     5
100
AcDbCircle
 10
468.034483
 20
504.226324
 40
5.005137
100
AcDbArc
 50
-30.495116
 51
0.0
  0
LINE
  5
285
100
AcDbEntity
  8
M0
 62
     5
100
AcDbLine
 10
503.140195
 20
487.926275
 11
507.94
 21
487.926031
  0
LINE
  5
286
100
AcDbEntity
  8
M0
 62
     5
100
AcDbLine
 10
507.94
 20
487.926031
 11
507.94
 21
514.426275
  0
LINE
  5
287
100
AcDbEntity
  8
M0
 62
     5
100
AcDbLine
 10
503.140195
 20
487.926031
 11
503.140195
 21
514.425786
  0
LINE
  5
288
100
AcDbEntity
  8
M0
 62
     5
100
AcDbLine
 10
501.140195
 20
516.425786
 11
496.839902
 21
516.425542
  0
LINE
  5
289
100
AcDbEntity
  8
M0
 62
     5
100
AcDbLine
 10
501.140195
 20
521.225835
 11
500.947324
 21
521.225835
  0
LINE
  5
28A
100
AcDbEntity
  8
M0
  6
DASHDOT
 62
     5
100
AcDbLine
 10
523.423612
 20
497.926031
 11
478.586973
 21
497.926031
  0
LINE
  5
28B
100
AcDbEntity
  8
M0
 62
     5
100
AcDbLine
 10
507.94
 20
509.426031
 11
503.140195
 21
509.426031
  0
LINE
  5
28C
100
AcDbEntity
  8
M0
 62
     5
100
AcDbLine
 10
507.94
 20
511.926031
 11
503.140195
 21
511.926031
  0
ARC
  5
28D
100
AcDbEntity
  8
M0
 62
     5
100
AcDbCircle
 10
501.140195
 20
514.425786
 40
2.0
100
AcDbArc
 50
0.0
 51
90.0
  0
ARC
  5
28E
100
AcDbEntity
  8
M0
 62
     5
100
AcDbCircle
 10
501.140195
 20
514.426031
 40
6.799993
100
AcDbArc
 50
0.0
 51
90.0
  0
LINE
  5
28F
100
AcDbEntity
  8
M0
 62
     5
100
AcDbLine
 10
456.839902
 20
511.426031
 11
463.739561
 21
511.426031
  0
LINE
  5
290
100
AcDbEntity
  8
M0
 62
     5
100
AcDbLine
 10
500.839902
 20
511.426031
 11
500.839902
 21
516.425542
  0
LINE
  5
291
100
AcDbEntity
  8
M0
 62
     5
100
AcDbLine
 10
469.393369
 20
522.925756
 11
456.839902
 21
522.926031
  0
LINE
  5
292
100
AcDbEntity
  8
M0
 62
     5
100
AcDbLine
 10
456.839902
 20
522.926031
 11
456.839902
 21
511.426031
  0
LINE
  5
293
100
AcDbEntity
  8
M0
 62
     5
100
AcDbLine
 10
470.839902
 20
506.426031
 11
487.239805
 21
506.426031
  0
LINE
  5
294
100
AcDbEntity
  8
M0
 62
     5
100
AcDbLine
 10
456.839902
 20
519.926031
 11
466.540342
 21
519.926031
  0
LINE
  5
295
100
AcDbEntity
  8
M0
 62
     5
100
AcDbLine
 10
470.839902
 20
506.426031
 11
470.839902
 21
516.426031
  0
LINE
  5
296
100
AcDbEntity
  8
M0
 62
     5
100
AcDbLine
 10
470.839902
 20
516.426031
 11
488.839902
 21
516.426031
  0
LINE
  5
297
100
AcDbEntity
  8
M0
 62
     5
100
AcDbLine
 10
488.839902
 20
520.432622
 11
488.839902
 21
516.426031
  0
LINE
  5
298
100
AcDbEntity
  8
M0
 62
     5
100
AcDbLine
 10
496.839902
 20
520.432622
 11
496.839902
 21
516.426031
  0
LINE
  5
299
100
AcDbEntity
  8
M0
 62
     5
100
AcDbLine
 10
487.239805
 20
511.426031
 11
487.239805
 21
506.426031
  0
LINE
  5
29A
100
AcDbEntity
  8
M0
 62
     5
100
AcDbLine
 10
487.239805
 20
511.426031
 11
500.839902
 21
511.426031
  0
LINE
  5
29B
100
AcDbEntity
  8
M0
 62
     5
100
AcDbLine
 10
468.539365
 20
511.426031
 11
470.839902
 21
511.426031
  0
LINE
  5
29C
100
AcDbEntity
  8
M0
 62
     5
100
AcDbLine
 10
496.839902
 20
516.426031
 11
500.839902
 21
516.426031
  0
LINE
  5
29D
100
AcDbEntity
  8
M0
 62
     5
100
AcDbLine
 10
501.140195
 20
521.226003
 11
499.770078
 21
521.226003
  0
LINE
  5
29E
100
AcDbEntity
  8
M0
 62
     5
100
AcDbLine
 10
470.740049
 20
521.225988
 11
470.539609
 21
521.225988
  0
ARC
  5
29F
100
AcDbEntity
  8
M0
 62
     4
100
AcDbCircle
 10
192.169706
 20
693.545492
 40
4.5
100
AcDbArc
 50
180.0
 51
360.0
  0
ARC
  5
2A0
100
AcDbEntity
  8
M0
 62
     4
100
AcDbCircle
 10
215.169705
 20
605.545522
 40
4.5
100
AcDbArc
 50
0.0
 51
179.999806
  0
LINE
  5
2A1
100
AcDbEntity
  8
M0
 62
     4
100
AcDbLine
 10
240.169447
 20
608.045492
 11
240.169447
 21
691.045263
  0
LINE
  5
2A2
100
AcDbEntity
  8
M0
 62
     4
100
AcDbLine
 10
226.669035
 20
698.545019
 11
219.169461
 21
698.545019
  0
LINE
  5
2A3
100
AcDbEntity
  8
M0
 62
     4
100
AcDbLine
 10
167.169462
 20
691.045263
 11
167.169462
 21
608.045507
  0
LINE
  5
2A4
100
AcDbEntity
  8
M0
 62
     4
100
AcDbLine
 10
169.169462
 20
693.045263
 11
184.669462
 21
693.045263
  0
LINE
  5
2A5
100
AcDbEntity
  8
M0
 62
     4
100
AcDbLine
 10
169.169462
 20
606.045507
 11
184.169523
 21
606.045507
  0
CIRCLE
  5
2A6
100
AcDbEntity
  8
M0
 62
     4
100
AcDbCircle
 10
235.669447
 20
679.045263
 40
1.5
  0
LINE
  5
2A7
100
AcDbEntity
  8
M0
  6
DASHDOT
 62
     4
100
AcDbLine
 10
235.669447
 20
672.545263
 11
235.669447
 21
685.545263
  0
CIRCLE
  5
2A8
100
AcDbEntity
  8
M0
 62
     4
100
AcDbCircle
 10
235.669447
 20
679.045263
 40
1.0
  0
CIRCLE
  5
2A9
100
AcDbEntity
  8
M0
 62
     4
100
AcDbCircle
 10
235.669447
 20
620.045507
 40
1.5
  0
LINE
  5
2AA
100
AcDbEntity
  8
M0
  6
DASHDOT
 62
     4
100
AcDbLine
 10
229.169447
 20
620.045507
 11
242.169447
 21
620.045507
  0
LINE
  5
2AB
100
AcDbEntity
  8
M0
  6
DASHDOT
 62
     4
100
AcDbLine
 10
235.669447
 20
626.545507
 11
235.669447
 21
613.545507
  0
CIRCLE
  5
2AC
100
AcDbEntity
  8
M0
 62
     4
100
AcDbCircle
 10
235.669447
 20
620.045507
 40
1.0
  0
CIRCLE
  5
2AD
100
AcDbEntity
  8
M0
 62
     4
100
AcDbCircle
 10
171.669492
 20
679.045263
 40
1.5
  0
LINE
  5
2AE
100
AcDbEntity
  8
M0
  6
DASHDOT
 62
     4
100
AcDbLine
 10
178.169477
 20
679.045263
 11
165.169492
 21
679.045263
  0
LINE
  5
2AF
100
AcDbEntity
  8
M0
  6
DASHDOT
 62
     4
100
AcDbLine
 10
171.669477
 20
672.545263
 11
171.669492
 21
685.545019
  0
CIRCLE
  5
2B0
100
AcDbEntity
  8
M0
 62
     4
100
AcDbCircle
 10
171.669492
 20
679.045263
 40
1.0
  0
CIRCLE
  5
2B1
100
AcDbEntity
  8
M0
 62
     4
100
AcDbCircle
 10
171.669492
 20
620.045507
 40
1.5
  0
LINE
  5
2B2
100
AcDbEntity
  8
M0
  6
DASHDOT
 62
     4
100
AcDbLine
 10
178.169477
 20
620.045507
 11
165.169492
 21
620.045492
  0
LINE
  5
2B3
100
AcDbEntity
  8
M0
  6
DASHDOT
 62
     4
100
AcDbLine
 10
171.669477
 20
626.545492
 11
171.669492
 21
613.545507
  0
CIRCLE
  5
2B4
100
AcDbEntity
  8
M0
 62
     4
100
AcDbCircle
 10
171.669492
 20
620.045507
 40
1.0
  0
LINE
  5
2B5
100
AcDbEntity
  8
M0
  6
DASHDOT
 62
     4
100
AcDbLine
 10
226.669447
 20
687.396581
 11
226.669447
 21
703.545263
  0
LINE
  5
2B6
100
AcDbEntity
  8
M0
 62
     4
100
AcDbLine
 10
230.669447
 20
692.545263
 11
230.669447
 21
690.045263
  0
LINE
  5
2B7
100
AcDbEntity
  8
M0
 62
     4
100
AcDbLine
 10
222.669447
 20
698.044774
 11
222.669447
 21
690.045263
  0
LINE
  5
2B8
100
AcDbEntity
  8
M0
 62
     4
100
AcDbLine
 10
218.669461
 20
698.044774
 11
218.669461
 21
693.045263
  0
LINE
  5
2B9
100
AcDbEntity
  8
M0
 62
     4
100
AcDbLine
 10
226.669447
 20
698.545019
 11
235.669447
 21
693.045263
  0
LINE
  5
2BA
100
AcDbEntity
  8
M0
 62
     4
100
AcDbLine
 10
199.669462
 20
698.044774
 11
199.669462
 21
690.045263
  0
LINE
  5
2BB
100
AcDbEntity
  8
M0
 62
     4
100
AcDbLine
 10
199.169462
 20
698.545019
 11
180.669859
 21
698.544774
  0
LINE
  5
2BC
100
AcDbEntity
  8
M0
 62
     4
100
AcDbLine
 10
184.669462
 20
698.044774
 11
184.669462
 21
690.045263
  0
LINE
  5
2BD
100
AcDbEntity
  8
M0
 62
     4
100
AcDbLine
 10
180.669462
 20
698.544774
 11
171.669462
 21
693.045263
  0
ARC
  5
2BE
100
AcDbEntity
  8
M0
 62
     4
100
AcDbCircle
 10
169.169462
 20
691.045263
 40
2.0
100
AcDbArc
 50
89.999563
 51
180.0
  0
ARC
  5
2BF
100
AcDbEntity
  8
M0
 62
     4
100
AcDbCircle
 10
238.169447
 20
691.045263
 40
2.0
100
AcDbArc
 50
0.0
 51
90.0
  0
LINE
  5
2C0
100
AcDbEntity
  8
M0
  6
DASHDOT
 62
     4
100
AcDbLine
 10
180.669462
 20
701.100683
 11
180.669462
 21
686.906835
  0
LINE
  5
2C1
100
AcDbEntity
  8
M0
 62
     4
100
AcDbLine
 10
199.669462
 20
693.045263
 11
218.669461
 21
693.045263
  0
LINE
  5
2C2
100
AcDbEntity
  8
M0
 62
     4
100
AcDbLine
 10
188.669523
 20
601.045736
 11
188.669523
 21
605.545507
  0
LINE
  5
2C3
100
AcDbEntity
  8
M0
 62
     4
100
AcDbLine
 10
184.669523
 20
601.045751
 11
184.669523
 21
609.045507
  0
LINE
  5
2C4
100
AcDbEntity
  8
M0
 62
     4
100
AcDbLine
 10
180.669523
 20
600.545751
 11
171.669508
 21
606.045522
  0
LINE
  5
2C5
100
AcDbEntity
  8
M0
 62
     4
100
AcDbLine
 10
180.669935
 20
600.545751
 11
188.169523
 21
600.545751
  0
LINE
  5
2C6
100
AcDbEntity
  8
M0
 62
     4
100
AcDbLine
 10
208.169461
 20
600.545751
 11
226.669431
 21
600.545751
  0
LINE
  5
2C7
100
AcDbEntity
  8
M0
 62
     4
100
AcDbLine
 10
226.669447
 20
600.545751
 11
235.669447
 21
606.045507
  0
ARC
  5
2C8
100
AcDbEntity
  8
M0
 62
     4
100
AcDbCircle
 10
238.169447
 20
608.045507
 40
2.0
100
AcDbArc
 50
269.999563
 51
360.0
  0
LINE
  5
2C9
100
AcDbEntity
  8
M0
 62
     4
100
AcDbLine
 10
222.669447
 20
609.045507
 11
222.669447
 21
601.045751
  0
LINE
  5
2CA
100
AcDbEntity
  8
M0
 62
     4
100
AcDbLine
 10
207.669461
 20
609.045507
 11
207.669461
 21
601.045751
  0
LINE
  5
2CB
100
AcDbEntity
  8
M0
 62
     4
100
AcDbLine
 10
223.169447
 20
606.045507
 11
238.169447
 21
606.045507
  0
ARC
  5
2CC
100
AcDbEntity
  8
M0
 62
     4
100
AcDbCircle
 10
169.169462
 20
608.045507
 40
2.0
100
AcDbArc
 50
179.999563
 51
270.0
  0
LINE
  5
2CD
100
AcDbEntity
  8
M0
  6
DASHDOT
 62
     4
100
AcDbLine
 10
226.669447
 20
597.137609
 11
226.669447
 21
613.579641
  0
LINE
  5
2CE
100
AcDbEntity
  8
M0
 62
     4
100
AcDbLine
 10
196.669462
 20
698.044774
 11
196.669462
 21
693.545263
  0
LINE
  5
2CF
100
AcDbEntity
  8
M0
 62
     4
100
AcDbLine
 10
187.669462
 20
698.044774
 11
187.669462
 21
693.545263
  0
LINE
  5
2D0
100
AcDbEntity
  8
M0
 62
     4
100
AcDbLine
 10
219.669447
 20
605.545507
 11
219.669447
 21
601.045751
  0
LINE
  5
2D1
100
AcDbEntity
  8
M0
 62
     4
100
AcDbLine
 10
210.669461
 20
605.545492
 11
210.669461
 21
601.045736
  0
CIRCLE
  5
2D2
100
AcDbEntity
  8
M0
 62
     4
100
AcDbCircle
 10
215.169461
 20
605.545507
 40
2.75
  0
LINE
  5
2D3
100
AcDbEntity
  8
M0
  6
DASHDOT
 62
     4
100
AcDbLine
 10
207.419461
 20
605.545507
 11
222.919447
 21
605.545507
  0
CIRCLE
  5
2D4
100
AcDbEntity
  8
M0
 62
     4
100
AcDbCircle
 10
192.169462
 20
693.545263
 40
2.75
  0
CIRCLE
  5
2D5
100
AcDbEntity
  8
M0
 62
     4
100
AcDbCircle
 10
192.169462
 20
693.545263
 40
2.0
  0
LINE
  5
2D6
100
AcDbEntity
  8
M0
  6
DASHDOT
 62
     4
100
AcDbLine
 10
185.169462
 20
693.545263
 11
199.169462
 21
693.545263
  0
CIRCLE
  5
2D7
100
AcDbEntity
  8
M0
 62
     4
100
AcDbCircle
 10
215.169461
 20
605.545507
 40
2.0
  0
LINE
  5
2D8
100
AcDbEntity
  8
M0
  6
DASHDOT
 62
     4
100
AcDbLine
 10
208.169461
 20
605.545507
 11
222.169447
 21
605.545507
  0
LINE
  5
2D9
100
AcDbEntity
  8
M0
  6
DASHDOT
 62
     4
100
AcDbLine
 10
215.169461
 20
598.545507
 11
215.169461
 21
612.545507
  0
LINE
  5
2DA
100
AcDbEntity
  8
M0
 62
     4
100
AcDbLine
 10
199.669462
 20
690.045263
 11
207.669461
 21
690.045263
  0
LINE
  5
2DB
100
AcDbEntity
  8
M0
 62
     4
100
AcDbLine
 10
176.669462
 20
690.045263
 11
184.669462
 21
690.045263
  0
LINE
  5
2DC
100
AcDbEntity
  8
M0
 62
     4
100
AcDbLine
 10
207.669461
 20
692.545263
 11
207.669461
 21
690.045263
  0
LINE
  5
2DD
100
AcDbEntity
  8
M0
 62
     4
100
AcDbLine
 10
222.669447
 20
690.045263
 11
230.669447
 21
690.045263
  0
LINE
  5
2DE
100
AcDbEntity
  8
M0
 62
     4
100
AcDbLine
 10
176.669462
 20
692.545263
 11
176.669462
 21
690.045263
  0
LINE
  5
2DF
100
AcDbEntity
  8
M0
 62
     4
100
AcDbLine
 10
176.669416
 20
606.545492
 11
176.669416
 21
609.045507
  0
LINE
  5
2E0
100
AcDbEntity
  8
M0
 62
     4
100
AcDbLine
 10
176.669416
 20
609.045507
 11
184.669416
 21
609.045507
  0
LINE
  5
2E1
100
AcDbEntity
  8
M0
 62
     4
100
AcDbLine
 10
199.669416
 20
609.045507
 11
207.669415
 21
609.045507
  0
LINE
  5
2E2
100
AcDbEntity
  8
M0
 62
     4
100
AcDbLine
 10
199.669401
 20
606.545492
 11
199.669416
 21
609.045507
  0
LINE
  5
2E3
100
AcDbEntity
  8
M0
 62
     4
100
AcDbLine
 10
230.669401
 20
606.545507
 11
230.669401
 21
609.045507
  0
LINE
  5
2E4
100
AcDbEntity
  8
M0
 62
     4
100
AcDbLine
 10
222.669401
 20
609.045507
 11
230.669401
 21
609.045507
  0
ARC
  5
2E5
100
AcDbEntity
  8
M0
 62
     4
100
AcDbCircle
 10
219.169461
 20
698.044774
 40
0.5
100
AcDbArc
 50
90.0
 51
180.0
  0
ARC
  5
2E6
100
AcDbEntity
  8
M0
 62
     4
100
AcDbCircle
 10
199.169462
 20
698.044774
 40
0.5
100
AcDbArc
 50
0.0
 51
90.0
  0
ARC
  5
2E7
100
AcDbEntity
  8
M0
 62
     4
100
AcDbCircle
 10
222.169447
 20
698.044774
 40
0.5
100
AcDbArc
 50
0.0
 51
90.0
  0
ARC
  5
2E8
100
AcDbEntity
  8
M0
 62
     4
100
AcDbCircle
 10
187.169462
 20
698.044774
 40
0.5
100
AcDbArc
 50
0.0
 51
89.998251
  0
ARC
  5
2E9
100
AcDbEntity
  8
M0
 62
     4
100
AcDbCircle
 10
197.169462
 20
698.044774
 40
0.5
100
AcDbArc
 50
90.0
 51
180.0
  0
ARC
  5
2EA
100
AcDbEntity
  8
M0
 62
     4
100
AcDbCircle
 10
185.169462
 20
698.044774
 40
0.5
100
AcDbArc
 50
89.998251
 51
180.0
  0
ARC
  5
2EB
100
AcDbEntity
  8
M0
 62
     4
100
AcDbCircle
 10
231.169401
 20
606.545507
 40
0.5
100
AcDbArc
 50
179.998251
 51
269.998251
  0
ARC
  5
2EC
100
AcDbEntity
  8
M0
 62
     4
100
AcDbCircle
 10
223.169447
 20
605.545507
 40
0.5
100
AcDbArc
 50
90.0
 51
179.998251
  0
ARC
  5
2ED
100
AcDbEntity
  8
M0
 62
     4
100
AcDbCircle
 10
222.169447
 20
601.045751
 40
0.5
100
AcDbArc
 50
269.998251
 51
360.0
  0
ARC
  5
2EE
100
AcDbEntity
  8
M0
 62
     4
100
AcDbCircle
 10
220.169447
 20
601.045751
 40
0.5
100
AcDbArc
 50
179.998251
 51
269.998251
  0
ARC
  5
2EF
100
AcDbEntity
  8
M0
 62
     4
100
AcDbCircle
 10
210.169461
 20
601.045736
 40
0.5
100
AcDbArc
 50
270.0
 51
360.0
  0
ARC
  5
2F0
100
AcDbEntity
  8
M0
 62
     4
100
AcDbCircle
 10
208.169461
 20
601.045751
 40
0.5
100
AcDbArc
 50
179.998251
 51
270.0
  0
ARC
  5
2F1
100
AcDbEntity
  8
M0
 62
     4
100
AcDbCircle
 10
188.169523
 20
601.045751
 40
0.5
100
AcDbArc
 50
270.0
 51
360.0
  0
ARC
  5
2F2
100
AcDbEntity
  8
M0
 62
     4
100
AcDbCircle
 10
185.169523
 20
601.045751
 40
0.5
100
AcDbArc
 50
179.998251
 51
270.0
  0
LINE
  5
2F3
100
AcDbEntity
  8
M0
  6
DASHDOT
 62
     4
100
AcDbLine
 10
180.669523
 20
597.119451
 11
180.669523
 21
611.422399
  0
LINE
  5
2F4
100
AcDbEntity
  8
M0
 62
     4
100
AcDbLine
 10
222.669447
 20
693.045263
 11
238.169447
 21
693.045263
  0
ARC
  5
2F5
100
AcDbEntity
  8
M0
 62
     4
100
AcDbCircle
 10
176.169462
 20
692.545263
 40
0.5
100
AcDbArc
 50
0.0
 51
89.998251
  0
ARC
  5
2F6
100
AcDbEntity
  8
M0
 62
     4
100
AcDbCircle
 10
207.169461
 20
605.545507
 40
0.5
100
AcDbArc
 50
0.0
 51
90.0
  0
ARC
  5
2F7
100
AcDbEntity
  8
M0
 62
     4
100
AcDbCircle
 10
199.169401
 20
606.545507
 40
0.5
100
AcDbArc
 50
270.0
 51
360.0
  0
LINE
  5
2F8
100
AcDbEntity
  8
M0
 62
     4
100
AcDbLine
 10
189.169523
 20
606.045507
 11
207.169461
 21
606.045507
  0
ARC
  5
2F9
100
AcDbEntity
  8
M0
 62
     4
100
AcDbCircle
 10
189.169523
 20
605.545507
 40
0.5
100
AcDbArc
 50
90.0
 51
179.998251
  0
ARC
  5
2FA
100
AcDbEntity
  8
M0
 62
     4
100
AcDbCircle
 10
184.169523
 20
605.545507
 40
0.5
100
AcDbArc
 50
0.0
 51
89.998251
  0
ARC
  5
2FB
100
AcDbEntity
  8
M0
 62
     4
100
AcDbCircle
 10
176.169416
 20
606.545507
 40
0.5
100
AcDbArc
 50
270.0
 51
360.0
  0
ARC
  5
2FC
100
AcDbEntity
  8
M0
 62
     4
100
AcDbCircle
 10
208.169461
 20
692.545263
 40
0.5
100
AcDbArc
 50
90.0
 51
180.0
  0
ARC
  5
2FD
100
AcDbEntity
  8
M0
 62
     4
100
AcDbCircle
 10
231.169447
 20
692.545263
 40
0.5
100
AcDbArc
 50
90.0
 51
180.0
  0
LINE
  5
2FE
100
AcDbEntity
  8
M0
  6
DASHDOT
 62
     4
100
AcDbLine
 10
229.169004
 20
679.045232
 11
242.168989
 21
679.045217
  0
LINE
  5
2FF
100
AcDbEntity
  8
M0
100
AcDbLine
 10
253.669431
 20
612.545095
 11
253.669431
 21
686.545095
  0
LINE
  5
300
100
AcDbEntity
  8
M0
100
AcDbLine
 10
238.169431
 20
699.044851
 11
209.169263
 21
699.044683
  0
LINE
  5
301
100
AcDbEntity
  8
M0
100
AcDbLine
 10
153.669447
 20
686.544362
 11
153.669447
 21
612.545095
  0
LINE
  5
302
100
AcDbEntity
  8
M0
  6
DASHDOT
100
AcDbLine
 10
146.838239
 20
649.54511
 11
203.669437
 21
649.54511
  0
LINE
  5
303
100
AcDbEntity
  8
M0
100
AcDbLine
 10
239.169431
 20
692.777334
 11
239.169431
 21
698.044607
  0
ARC
  5
304
100
AcDbEntity
  8
M0
100
AcDbCircle
 10
238.169431
 20
698.044607
 40
1.0
100
AcDbArc
 50
0.0
 51
90.0
  0
LINE
  5
305
100
AcDbEntity
  8
M0
100
AcDbLine
 10
240.169431
 20
687.045095
 11
253.169431
 21
687.045095
  0
LINE
  5
306
100
AcDbEntity
  8
M0
100
AcDbLine
 10
196.669437
 20
701.544607
 11
187.669437
 21
701.544607
  0
LINE
  5
307
100
AcDbEntity
  8
M0
100
AcDbLine
 10
186.169447
 20
699.044607
 11
169.169508
 21
699.044607
  0
ARC
  5
308
100
AcDbEntity
  8
M0
100
AcDbCircle
 10
196.669437
 20
700.544362
 40
1.0
100
AcDbArc
 50
0.0
 51
90.0
  0
ARC
  5
309
100
AcDbEntity
  8
M0
100
AcDbCircle
 10
187.669437
 20
700.544362
 40
1.0
100
AcDbArc
 50
90.0
 51
180.013988
  0
LINE
  5
30A
100
AcDbEntity
  8
M0
100
AcDbLine
 10
240.169385
 20
612.04511
 11
253.169431
 21
612.04511
  0
LINE
  5
30B
100
AcDbEntity
  8
M0
100
AcDbLine
 10
239.169385
 20
606.313421
 11
239.169385
 21
601.045598
  0
ARC
  5
30C
100
AcDbEntity
  8
M0
100
AcDbCircle
 10
238.169385
 20
601.045598
 40
1.0
100
AcDbArc
 50
-90.000874
 51
0.0
  0
ARC
  5
30D
100
AcDbEntity
  8
M0
100
AcDbCircle
 10
169.169508
 20
698.044607
 40
1.0
100
AcDbArc
 50
89.999126
 51
180.0
  0
ARC
  5
30E
100
AcDbEntity
  8
M0
100
AcDbCircle
 10
169.169492
 20
601.045614
 40
1.0
100
AcDbArc
 50
179.999126
 51
270.0
  0
LINE
  5
30F
100
AcDbEntity
  8
M0
100
AcDbLine
 10
168.169492
 20
692.777318
 11
168.169508
 21
698.044607
  0
LINE
  5
310
100
AcDbEntity
  8
M0
100
AcDbLine
 10
210.169436
 20
693.545095
 11
215.419619
 21
693.545095
  0
ARC
  5
311
100
AcDbEntity
  8
M0
100
AcDbCircle
 10
215.419619
 20
692.045095
 40
1.5
100
AcDbArc
 50
41.818414
 51
90.0
  0
LINE
  5
312
100
AcDbEntity
  8
M0
100
AcDbLine
 10
191.919239
 20
605.54511
 11
197.169376
 21
605.54511
  0
ARC
  5
313
100
AcDbEntity
  8
M0
100
AcDbCircle
 10
191.919239
 20
607.04511
 40
1.5
100
AcDbArc
 50
221.790049
 51
270.0
  0
ARC
  5
314
100
AcDbEntity
  8
M0
100
AcDbCircle
 10
219.66937
 20
598.54511
 40
1.0
100
AcDbArc
 50
269.999126
 51
360.0
  0
LINE
  5
315
100
AcDbEntity
  8
M0
100
AcDbLine
 10
168.169477
 20
606.045507
 11
168.169492
 21
601.045614
  0
LINE
  5
316
100
AcDbEntity
  8
M0
100
AcDbLine
 10
167.169462
 20
687.044607
 11
154.169447
 21
687.044607
  0
LINE
  5
317
100
AcDbEntity
  8
M0
100
AcDbLine
 10
167.169462
 20
612.04511
 11
154.169447
 21
612.045095
  0
LINE
  5
318
100
AcDbEntity
  8
M0
100
AcDbLine
 10
250.169431
 20
677.045095
 11
253.669431
 21
677.045095
  0
LINE
  5
319
100
AcDbEntity
  8
M0
100
AcDbLine
 10
251.169431
 20
684.545095
 11
253.669431
 21
684.545095
  0
ARC
  5
31A
100
AcDbEntity
  8
M0
100
AcDbCircle
 10
253.169431
 20
686.545095
 40
0.5
100
AcDbArc
 50
0.0
 51
90.0
  0
ARC
  5
31B
100
AcDbEntity
  8
M0
100
AcDbCircle
 10
154.169447
 20
686.544362
 40
0.5
100
AcDbArc
 50
89.998251
 51
180.0
  0
ARC
  5
31C
100
AcDbEntity
  8
M0
100
AcDbCircle
 10
154.169447
 20
612.545095
 40
0.5
100
AcDbArc
 50
179.998251
 51
270.0
  0
ARC
  5
31D
100
AcDbEntity
  8
M0
100
AcDbCircle
 10
253.169431
 20
612.54511
 40
0.5
100
AcDbArc
 50
269.998251
 51
360.0
  0
LINE
  5
31E
100
AcDbEntity
  8
M0
100
AcDbLine
 10
154.169447
 20
632.04511
 11
157.169447
 21
632.04511
  0
LINE
  5
31F
100
AcDbEntity
  8
M0
100
AcDbLine
 10
157.669447
 20
635.04511
 11
158.726713
 21
635.04511
  0
LINE
  5
320
100
AcDbEntity
  8
M0
100
AcDbLine
 10
157.669447
 20
624.04511
 11
167.169462
 21
624.04511
  0
LINE
  5
321
100
AcDbEntity
  8
M0
100
AcDbLine
 10
154.169447
 20
622.04511
 11
157.169447
 21
622.04511
  0
LINE
  5
322
100
AcDbEntity
  8
M0
100
AcDbLine
 10
156.169447
 20
622.04511
 11
156.169447
 21
612.04511
  0
LINE
  5
323
100
AcDbEntity
  8
M0
100
AcDbLine
 10
153.669447
 20
614.54511
 11
156.169447
 21
614.54511
  0
LINE
  5
324
100
AcDbEntity
  8
M0
100
AcDbLine
 10
166.169447
 20
633.04511
 11
167.169462
 21
633.04511
  0
ARC
  5
325
100
AcDbEntity
  8
M0
100
AcDbCircle
 10
157.169447
 20
622.54511
 40
0.5
100
AcDbArc
 50
270.0
 51
360.0
  0
ARC
  5
326
100
AcDbEntity
  8
M0
100
AcDbCircle
 10
154.169447
 20
622.54511
 40
0.5
100
AcDbArc
 50
179.998251
 51
270.0
  0
ARC
  5
327
100
AcDbEntity
  8
M0
100
AcDbCircle
 10
154.169447
 20
632.54511
 40
0.5
100
AcDbArc
 50
179.998251
 51
270.0
  0
ARC
  5
328
100
AcDbEntity
  8
M0
100
AcDbCircle
 10
157.169447
 20
632.54511
 40
0.5
100
AcDbArc
 50
270.0
 51
360.0
  0
LINE
  5
329
100
AcDbEntity
  8
M0
100
AcDbLine
 10
154.169447
 20
667.044851
 11
157.169447
 21
667.044851
  0
ARC
  5
32A
100
AcDbEntity
  8
M0
100
AcDbCircle
 10
157.169447
 20
666.544851
 40
0.5
100
AcDbArc
 50
0.0
 51
89.998251
  0
LINE
  5
32B
100
AcDbEntity
  8
M0
100
AcDbLine
 10
166.169447
 20
666.044851
 11
167.169462
 21
666.044851
  0
LINE
  5
32C
100
AcDbEntity
  8
M0
100
AcDbLine
 10
156.169447
 20
677.044851
 11
156.169447
 21
687.044851
  0
LINE
  5
32D
100
AcDbEntity
  8
M0
100
AcDbLine
 10
153.669447
 20
684.544851
 11
156.169447
 21
684.544851
  0
LINE
  5
32E
100
AcDbEntity
  8
M0
100
AcDbLine
 10
154.169447
 20
677.044851
 11
157.169447
 21
677.044851
  0
ARC
  5
32F
100
AcDbEntity
  8
M0
100
AcDbCircle
 10
157.169447
 20
676.544851
 40
0.5
100
AcDbArc
 50
0.0
 51
89.998251
  0
LINE
  5
330
100
AcDbEntity
  8
M0
100
AcDbLine
 10
157.669447
 20
675.044851
 11
167.169462
 21
675.044851
  0
ARC
  5
331
100
AcDbEntity
  8
M0
100
AcDbCircle
 10
154.169447
 20
666.544851
 40
0.5
100
AcDbArc
 50
89.998251
 51
180.0
  0
ARC
  5
332
100
AcDbEntity
  8
M0
100
AcDbCircle
 10
154.169447
 20
676.544851
 40
0.5
100
AcDbArc
 50
89.998251
 51
180.0
  0
LINE
  5
333
100
AcDbEntity
  8
M0
100
AcDbLine
 10
249.669431
 20
635.044866
 11
248.611707
 21
635.044866
  0
LINE
  5
334
100
AcDbEntity
  8
M0
100
AcDbLine
 10
253.169431
 20
632.044866
 11
250.169431
 21
632.044866
  0
LINE
  5
335
100
AcDbEntity
  8
M0
100
AcDbLine
 10
241.169431
 20
633.044866
 11
240.169447
 21
633.044866
  0
ARC
  5
336
100
AcDbEntity
  8
M0
100
AcDbCircle
 10
250.169431
 20
632.544866
 40
0.5
100
AcDbArc
 50
179.998251
 51
269.998251
  0
ARC
  5
337
100
AcDbEntity
  8
M0
100
AcDbCircle
 10
253.169431
 20
632.544866
 40
0.5
100
AcDbArc
 50
-90.001749
 51
0.0
  0
LINE
  5
338
100
AcDbEntity
  8
M0
100
AcDbLine
 10
249.669431
 20
624.044866
 11
240.169447
 21
624.044866
  0
LINE
  5
339
100
AcDbEntity
  8
M0
100
AcDbLine
 10
251.169431
 20
687.045095
 11
251.169431
 21
677.045095
  0
LINE
  5
33A
100
AcDbEntity
  8
M0
100
AcDbLine
 10
221.16937
 20
600.04511
 11
231.084241
 21
600.04511
  0
LINE
  5
33B
100
AcDbEntity
  8
M0
100
AcDbLine
 10
211.997697
 20
597.54511
 11
219.66937
 21
597.54511
  0
LINE
  5
33C
100
AcDbEntity
  8
M0
100
AcDbLine
 10
169.169492
 20
600.04511
 11
172.099363
 21
600.04511
  0
ARC
  5
33D
100
AcDbEntity
  8
M0
100
AcDbCircle
 10
250.169431
 20
622.544866
 40
0.5
100
AcDbArc
 50
179.998251
 51
269.998251
  0
LINE
  5
33E
100
AcDbEntity
  8
M0
100
AcDbLine
 10
253.169431
 20
622.044866
 11
250.169431
 21
622.044866
  0
LINE
  5
33F
100
AcDbEntity
  8
M0
100
AcDbLine
 10
251.169431
 20
622.044866
 11
251.169431
 21
612.045095
  0
LINE
  5
340
100
AcDbEntity
  8
M0
100
AcDbLine
 10
253.669431
 20
614.54508
 11
251.169431
 21
614.545095
  0
LINE
  5
341
100
AcDbEntity
  8
M0
100
AcDbLine
 10
249.669431
 20
664.045109
 11
248.611661
 21
664.045109
  0
LINE
  5
342
100
AcDbEntity
  8
M0
100
AcDbLine
 10
241.169431
 20
666.045095
 11
240.169447
 21
666.045095
  0
ARC
  5
343
100
AcDbEntity
  8
M0
100
AcDbCircle
 10
250.169431
 20
666.545095
 40
0.5
100
AcDbArc
 50
90.0
 51
180.0
  0
LINE
  5
344
100
AcDbEntity
  8
M0
100
AcDbLine
 10
253.169431
 20
667.045095
 11
250.169431
 21
667.045095
  0
ARC
  5
345
100
AcDbEntity
  8
M0
100
AcDbCircle
 10
253.169431
 20
666.545095
 40
0.5
100
AcDbArc
 50
0.0
 51
90.0
  0
LINE
  5
346
100
AcDbEntity
  8
M0
100
AcDbLine
 10
249.669431
 20
675.045095
 11
240.169447
 21
675.045095
  0
ARC
  5
347
100
AcDbEntity
  8
M0
100
AcDbCircle
 10
250.169431
 20
676.545095
 40
0.5
100
AcDbArc
 50
90.0
 51
180.0
  0
ARC
  5
348
100
AcDbEntity
  8
M0
100
AcDbCircle
 10
253.169431
 20
622.544866
 40
0.5
100
AcDbArc
 50
-90.001749
 51
0.0
  0
LINE
  5
349
100
AcDbEntity
  8
M0
100
AcDbLine
 10
153.669447
 20
653.295109
 11
160.669447
 21
653.295109
  0
LINE
  5
34A
100
AcDbEntity
  8
M0
100
AcDbLine
 10
153.669447
 20
645.79511
 11
160.669447
 21
645.79511
  0
LINE
  5
34B
100
AcDbEntity
  8
M0
100
AcDbLine
 10
161.669447
 20
652.295109
 11
161.669447
 21
646.79511
  0
ARC
  5
34C
100
AcDbEntity
  8
M0
100
AcDbCircle
 10
160.669447
 20
646.79511
 40
1.0
100
AcDbArc
 50
270.0
 51
360.0
  0
ARC
  5
34D
100
AcDbEntity
  8
M0
100
AcDbCircle
 10
160.669447
 20
652.295109
 40
1.0
100
AcDbArc
 50
0.0
 51
89.999126
  0
LINE
  5
34E
100
AcDbEntity
  8
M0
100
AcDbLine
 10
157.669447
 20
653.295109
 11
157.669447
 21
652.295109
  0
LINE
  5
34F
100
AcDbEntity
  8
M0
100
AcDbLine
 10
153.669447
 20
652.295109
 11
157.669447
 21
652.295109
  0
LINE
  5
350
100
AcDbEntity
  8
M0
100
AcDbLine
 10
153.669447
 20
646.79511
 11
157.669447
 21
646.79511
  0
LINE
  5
351
100
AcDbEntity
  8
M0
100
AcDbLine
 10
157.669447
 20
646.79511
 11
157.669447
 21
645.79511
  0
LINE
  5
352
100
AcDbEntity
  8
M0
100
AcDbLine
 10
253.669462
 20
653.294865
 11
246.669462
 21
653.294865
  0
LINE
  5
353
100
AcDbEntity
  8
M0
100
AcDbLine
 10
253.669462
 20
652.294865
 11
249.669462
 21
652.294865
  0
LINE
  5
354
100
AcDbEntity
  8
M0
100
AcDbLine
 10
249.669462
 20
653.294865
 11
249.669462
 21
652.294865
  0
ARC
  5
355
100
AcDbEntity
  8
M0
100
AcDbCircle
 10
246.669462
 20
652.294865
 40
1.0
100
AcDbArc
 50
90.0
 51
180.0
  0
LINE
  5
356
100
AcDbEntity
  8
M0
100
AcDbLine
 10
245.669462
 20
652.294865
 11
245.669462
 21
646.794866
  0
ARC
  5
357
100
AcDbEntity
  8
M0
100
AcDbCircle
 10
246.669462
 20
646.794866
 40
1.0
100
AcDbArc
 50
179.999945
 51
269.999126
  0
LINE
  5
358
100
AcDbEntity
  8
M0
100
AcDbLine
 10
253.669462
 20
645.794866
 11
246.669462
 21
645.794866
  0
LINE
  5
359
100
AcDbEntity
  8
M0
100
AcDbLine
 10
253.669462
 20
646.794866
 11
249.669462
 21
646.794866
  0
LINE
  5
35A
100
AcDbEntity
  8
M0
100
AcDbLine
 10
249.669462
 20
646.794866
 11
249.669462
 21
645.794866
  0
LINE
  5
35B
100
AcDbEntity
  8
M0
100
AcDbLine
 10
194.369373
 20
602.54511
 11
197.169376
 21
602.54511
  0
LINE
  5
35C
100
AcDbEntity
  8
M0
100
AcDbLine
 10
193.869373
 20
602.04511
 11
193.869373
 21
600.04511
  0
LINE
  5
35D
100
AcDbEntity
  8
M0
  6
DASHDOT
100
AcDbLine
 10
203.669437
 20
649.54511
 11
264.237867
 21
649.54511
  0
ARC
  5
35E
100
AcDbEntity
  8
M0
100
AcDbCircle
 10
198.169437
 20
698.544607
 40
0.5
100
AcDbArc
 50
90.0
 51
180.0
  0
ARC
  5
35F
100
AcDbEntity
  8
M0
100
AcDbCircle
 10
186.169447
 20
698.544362
 40
0.5
100
AcDbArc
 50
0.0
 51
89.998251
  0
LINE
  5
360
100
AcDbEntity
  8
M0
100
AcDbLine
 10
213.469424
 20
699.044607
 11
213.469424
 21
697.044851
  0
LINE
  5
361
100
AcDbEntity
  8
M0
100
AcDbLine
 10
210.169436
 20
696.544851
 11
212.969424
 21
696.544851
  0
ARC
  5
362
100
AcDbEntity
  8
M0
100
AcDbCircle
 10
212.969424
 20
697.044851
 40
0.5
100
AcDbArc
 50
270.0
 51
360.0
  0
ARC
  5
363
100
AcDbEntity
  8
M0
100
AcDbCircle
 10
210.169436
 20
696.044851
 40
0.5
100
AcDbArc
 50
90.0
 51
180.0
  0
ARC
  5
364
100
AcDbEntity
  8
M0
100
AcDbCircle
 10
210.169436
 20
694.045095
 40
0.5
100
AcDbArc
 50
180.0
 51
270.0
  0
ARC
  5
365
100
AcDbEntity
  8
M0
100
AcDbCircle
 10
194.369373
 20
602.04511
 40
0.5
100
AcDbArc
 50
90.0
 51
179.998251
  0
ARC
  5
366
100
AcDbEntity
  8
M0
100
AcDbCircle
 10
197.169376
 20
603.04511
 40
0.5
100
AcDbArc
 50
270.0
 51
360.0
  0
ARC
  5
367
100
AcDbEntity
  8
M0
100
AcDbCircle
 10
197.169376
 20
605.04511
 40
0.5
100
AcDbArc
 50
0.0
 51
90.0
  0
LINE
  5
368
100
AcDbEntity
  8
M0
100
AcDbLine
 10
157.169447
 20
653.295109
 11
157.169447
 21
652.295109
  0
LINE
  5
369
100
AcDbEntity
  8
M0
100
AcDbLine
 10
157.169447
 20
646.79511
 11
157.169447
 21
645.79511
  0
LINE
  5
36A
100
AcDbEntity
  8
M0
100
AcDbLine
 10
250.169462
 20
653.294865
 11
250.169462
 21
652.294865
  0
LINE
  5
36B
100
AcDbEntity
  8
M0
100
AcDbLine
 10
250.169462
 20
646.794866
 11
250.169462
 21
645.794866
  0
LINE
  5
36C
100
AcDbEntity
  8
M0
  6
DASHDOT
100
AcDbLine
 10
219.869428
 20
691.545095
 11
233.469419
 21
691.545095
  0
LINE
  5
36D
100
AcDbEntity
  8
M0
  6
DASHDOT
100
AcDbLine
 10
219.869382
 20
607.54511
 11
233.469373
 21
607.54511
  0
LINE
  5
36E
100
AcDbEntity
  8
M0
  6
DASHDOT
100
AcDbLine
 10
187.46948
 20
691.545095
 11
173.869489
 21
691.545095
  0
LINE
  5
36F
100
AcDbEntity
  8
M0
  6
DASHDOT
100
AcDbLine
 10
187.469434
 20
607.54511
 11
173.869443
 21
607.54511
  0
LINE
  5
370
100
AcDbEntity
  8
M0
  6
DASHDOT
100
AcDbLine
 10
196.869251
 20
691.544851
 11
210.469241
 21
691.544851
  0
LINE
  5
371
100
AcDbEntity
  8
M0
  6
DASHDOT
100
AcDbLine
 10
196.869205
 20
607.545354
 11
210.469195
 21
607.545354
  0
LINE
  5
372
100
AcDbEntity
  8
M0
100
AcDbLine
 10
197.66933
 20
700.558767
 11
197.66933
 21
699.044851
  0
LINE
  5
373
100
AcDbEntity
  8
M0
100
AcDbLine
 10
186.66934
 20
700.544362
 11
186.66934
 21
699.044851
  0
LINE
  5
374
100
AcDbEntity
  8
M0
  6
DASHDOT
100
AcDbLine
 10
154.669447
 20
629.54511
 11
168.669447
 21
629.54511
  0
LINE
  5
375
100
AcDbEntity
  8
M0
  6
DASHDOT
100
AcDbLine
 10
161.669447
 20
622.54511
 11
161.669447
 21
636.54511
  0
LINE
  5
376
100
AcDbEntity
  8
M0
100
AcDbLine
 10
165.669447
 20
643.04511
 11
165.669447
 21
624.04511
  0
LINE
  5
377
100
AcDbEntity
  8
M0
100
AcDbLine
 10
157.669447
 20
643.04511
 11
157.669447
 21
622.54511
  0
ARC
  5
378
100
AcDbEntity
  8
M0
100
AcDbCircle
 10
164.669447
 20
643.04511
 40
1.0
100
AcDbArc
 50
0.0
 51
89.999126
  0
ARC
  5
379
100
AcDbEntity
  8
M0
100
AcDbCircle
 10
166.169447
 20
633.54511
 40
0.5
100
AcDbArc
 50
179.999891
 51
270.0
  0
ARC
  5
37A
100
AcDbEntity
  8
M0
100
AcDbCircle
 10
164.669447
 20
656.044865
 40
1.0
100
AcDbArc
 50
-90.0
 51
0.0
  0
LINE
  5
37B
100
AcDbEntity
  8
M0
100
AcDbLine
 10
157.669447
 20
656.044865
 11
157.669447
 21
676.544851
  0
LINE
  5
37C
100
AcDbEntity
  8
M0
100
AcDbLine
 10
165.669447
 20
656.044865
 11
165.669447
 21
675.044851
  0
LINE
  5
37D
100
AcDbEntity
  8
M0
  6
DASHDOT
100
AcDbLine
 10
154.669447
 20
669.544851
 11
168.669447
 21
669.544851
  0
ARC
  5
37E
100
AcDbEntity
  8
M0
100
AcDbCircle
 10
166.169447
 20
665.544865
 40
0.5
100
AcDbArc
 50
89.998251
 51
180.0
  0
ARC
  5
37F
100
AcDbEntity
  8
M0
100
AcDbCircle
 10
242.669431
 20
643.044866
 40
1.0
100
AcDbArc
 50
90.0
 51
179.999945
  0
LINE
  5
380
100
AcDbEntity
  8
M0
  6
DASHDOT
100
AcDbLine
 10
161.669447
 20
676.544851
 11
161.669447
 21
662.544865
  0
LINE
  5
381
100
AcDbEntity
  8
M0
100
AcDbLine
 10
249.669431
 20
643.044866
 11
249.669431
 21
622.544866
  0
LINE
  5
382
100
AcDbEntity
  8
M0
100
AcDbLine
 10
241.669431
 20
643.044866
 11
241.669431
 21
624.044866
  0
ARC
  5
383
100
AcDbEntity
  8
M0
100
AcDbCircle
 10
241.169431
 20
633.544866
 40
0.5
100
AcDbArc
 50
-90.001749
 51
0.0
  0
ARC
  5
384
100
AcDbEntity
  8
M0
100
AcDbCircle
 10
242.669431
 20
656.045109
 40
1.0
100
AcDbArc
 50
180.0
 51
269.999126
  0
LINE
  5
385
100
AcDbEntity
  8
M0
100
AcDbLine
 10
241.669431
 20
656.045109
 11
241.669431
 21
675.045095
  0
LINE
  5
386
100
AcDbEntity
  8
M0
100
AcDbLine
 10
249.669431
 20
656.045109
 11
249.669431
 21
676.545095
  0
LINE
  5
387
100
AcDbEntity
  8
M0
100
AcDbLine
 10
241.669431
 20
656.045109
 11
241.669431
 21
675.045095
  0
LINE
  5
388
100
AcDbEntity
  8
M0
  6
DASHDOT
100
AcDbLine
 10
252.669431
 20
669.544607
 11
238.669431
 21
669.544607
  0
LINE
  5
389
100
AcDbEntity
  8
M0
  6
DASHDOT
100
AcDbLine
 10
252.669401
 20
629.545598
 11
238.669401
 21
629.545598
  0
LINE
  5
38A
100
AcDbEntity
  8
M0
100
AcDbLine
 10
241.669431
 20
673.64446
 11
242.757474
 21
673.64446
  0
LINE
  5
38B
100
AcDbEntity
  8
M0
100
AcDbLine
 10
241.669401
 20
625.445745
 11
242.757551
 21
625.445745
  0
LINE
  5
38C
100
AcDbEntity
  8
M0
100
AcDbLine
 10
241.669431
 20
656.045109
 11
241.669431
 21
675.045095
  0
ARC
  5
38D
100
AcDbEntity
  8
M0
100
AcDbCircle
 10
241.169431
 20
665.545109
 40
0.5
100
AcDbArc
 50
0.0
 51
90.0
  0
LINE
  5
38E
100
AcDbEntity
  8
M0
100
AcDbLine
 10
165.669477
 20
673.64446
 11
164.580961
 21
673.64446
  0
LINE
  5
38F
100
AcDbEntity
  8
M0
100
AcDbLine
 10
165.669477
 20
625.445745
 11
164.581037
 21
625.445745
  0
LINE
  5
390
100
AcDbEntity
  8
M0
  6
DASHDOT
100
AcDbLine
 10
154.669447
 20
639.04511
 11
168.669447
 21
639.04511
  0
LINE
  5
391
100
AcDbEntity
  8
M0
  6
DASHDOT
100
AcDbLine
 10
161.669447
 20
632.04511
 11
161.669447
 21
646.04511
  0
LINE
  5
392
100
AcDbEntity
  8
M0
100
AcDbLine
 10
158.669447
 20
644.04511
 11
164.669447
 21
644.04511
  0
ARC
  5
393
100
AcDbEntity
  8
M0
100
AcDbCircle
 10
158.669447
 20
643.04511
 40
1.0
100
AcDbArc
 50
89.999126
 51
179.999945
  0
LINE
  5
394
100
AcDbEntity
  8
M0
100
AcDbLine
 10
158.669447
 20
655.044865
 11
164.669447
 21
655.044865
  0
ARC
  5
395
100
AcDbEntity
  8
M0
100
AcDbCircle
 10
158.669447
 20
656.044865
 40
1.0
100
AcDbArc
 50
180.0
 51
270.0
  0
LINE
  5
396
100
AcDbEntity
  8
M0
  6
DASHDOT
100
AcDbLine
 10
161.669447
 20
667.044851
 11
161.669447
 21
653.044865
  0
LINE
  5
397
100
AcDbEntity
  8
M0
  6
DASHDOT
100
AcDbLine
 10
154.669447
 20
660.044865
 11
168.669447
 21
660.044865
  0
ARC
  5
398
100
AcDbEntity
  8
M0
100
AcDbCircle
 10
248.669431
 20
643.044866
 40
1.0
100
AcDbArc
 50
0.0
 51
90.0
  0
LINE
  5
399
100
AcDbEntity
  8
M0
100
AcDbLine
 10
248.669462
 20
644.044866
 11
242.669462
 21
644.044866
  0
LINE
  5
39A
100
AcDbEntity
  8
M0
  6
DASHDOT
100
AcDbLine
 10
252.669431
 20
639.044866
 11
238.669431
 21
639.044866
  0
LINE
  5
39B
100
AcDbEntity
  8
M0
100
AcDbLine
 10
248.669462
 20
655.045109
 11
242.669462
 21
655.045109
  0
ARC
  5
39C
100
AcDbEntity
  8
M0
100
AcDbCircle
 10
248.669431
 20
656.045109
 40
1.0
100
AcDbArc
 50
269.999126
 51
360.0
  0
LINE
  5
39D
100
AcDbEntity
  8
M0
  6
DASHDOT
100
AcDbLine
 10
252.669431
 20
660.045109
 11
238.669431
 21
660.045109
  0
LINE
  5
39E
100
AcDbEntity
  8
M0
  6
DASHDOT
100
AcDbLine
 10
252.669431
 20
660.044621
 11
238.669431
 21
660.044621
  0
LINE
  5
39F
100
AcDbEntity
  8
M0
  6
DASHDOT
100
AcDbLine
 10
155.919447
 20
619.54511
 11
170.419447
 21
619.54511
  0
LINE
  5
3A0
100
AcDbEntity
  8
M0
  6
DASHDOT
100
AcDbLine
 10
163.169447
 20
612.29511
 11
163.169447
 21
626.79511
  0
LINE
  5
3A1
100
AcDbEntity
  8
M0
  6
DASHDOT
100
AcDbLine
 10
248.169462
 20
679.544607
 11
240.169462
 21
679.544607
  0
LINE
  5
3A2
100
AcDbEntity
  8
M0
  6
DASHDOT
100
AcDbLine
 10
206.344317
 20
605.54511
 11
223.994321
 21
605.54511
  0
LINE
  5
3A3
100
AcDbEntity
  8
M0
  6
DASHDOT
100
AcDbLine
 10
183.344328
 20
693.545095
 11
200.994327
 21
693.545095
  0
LINE
  5
3A4
100
AcDbEntity
  8
M0
  6
DASHDOT
100
AcDbLine
 10
192.16933
 20
684.7199
 11
192.16933
 21
702.370046
  0
LINE
  5
3A5
100
AcDbEntity
  8
M0
100
AcDbLine
 10
157.669477
 20
664.045109
 11
158.726789
 21
664.045109
  0
ARC
  5
3A6
100
AcDbEntity
  8
M0
100
AcDbCircle
 10
221.16937
 20
600.54511
 40
0.5
100
AcDbArc
 50
179.998251
 51
269.998251
  0
ARC
  5
3A7
100
AcDbEntity
  8
M0
100
AcDbCircle
 10
209.169375
 20
600.54511
 40
0.5
100
AcDbArc
 50
270.0
 51
360.0
  0
LINE
  5
3A8
100
AcDbEntity
  8
M0
100
AcDbLine
 10
209.669436
 20
696.044851
 11
209.669436
 21
694.045095
  0
LINE
  5
3A9
100
AcDbEntity
  8
M0
100
AcDbLine
 10
197.669376
 20
605.045095
 11
197.669376
 21
603.045095
  0
LINE
  5
3AA
100
AcDbEntity
  8
M0
100
AcDbLine
 10
158.757429
 20
673.64446
 11
157.669477
 21
673.64446
  0
LINE
  5
3AB
100
AcDbEntity
  8
M0
100
AcDbLine
 10
164.6116
 20
664.045109
 11
165.669477
 21
664.045109
  0
LINE
  5
3AC
100
AcDbEntity
  8
M0
100
AcDbLine
 10
164.611677
 20
635.04511
 11
165.669447
 21
635.04511
  0
LINE
  5
3AD
100
AcDbEntity
  8
M0
100
AcDbLine
 10
158.757352
 20
625.445745
 11
157.669477
 21
625.445745
  0
LINE
  5
3AE
100
AcDbEntity
  8
M0
100
AcDbLine
 10
248.580839
 20
673.64446
 11
249.669431
 21
673.64446
  0
LINE
  5
3AF
100
AcDbEntity
  8
M0
100
AcDbLine
 10
242.726698
 20
664.045109
 11
241.669431
 21
664.045109
  0
LINE
  5
3B0
100
AcDbEntity
  8
M0
100
AcDbLine
 10
242.726743
 20
635.044866
 11
241.669431
 21
635.044866
  0
LINE
  5
3B1
100
AcDbEntity
  8
M0
100
AcDbLine
 10
248.58093
 20
625.445745
 11
249.669401
 21
625.445745
  0
ARC
  5
3B2
100
AcDbEntity
  8
M0
100
AcDbCircle
 10
180.669431
 20
607.54511
 40
2.799999
100
AcDbArc
 50
212.382826
 51
327.617341
  0
ARC
  5
3B3
100
AcDbEntity
  8
M0
100
AcDbCircle
 10
180.669431
 20
607.54511
 40
1.799999
100
AcDbArc
 50
236.420125
 51
303.580279
  0
ARC
  5
3B4
100
AcDbEntity
  8
M0
100
AcDbCircle
 10
203.669208
 20
607.545354
 40
1.799999
100
AcDbArc
 50
236.43413
 51
303.565834
  0
ARC
  5
3B5
100
AcDbEntity
  8
M0
100
AcDbCircle
 10
203.669208
 20
607.545354
 40
2.799999
100
AcDbArc
 50
212.388699
 51
327.611286
  0
ARC
  5
3B6
100
AcDbEntity
  8
M0
100
AcDbCircle
 10
226.669385
 20
607.54511
 40
2.799999
100
AcDbArc
 50
212.382659
 51
327.617174
  0
ARC
  5
3B7
100
AcDbEntity
  8
M0
100
AcDbCircle
 10
226.669385
 20
607.54511
 40
1.799999
100
AcDbArc
 50
236.419721
 51
303.579875
  0
ARC
  5
3B8
100
AcDbEntity
  8
M0
100
AcDbCircle
 10
180.669477
 20
691.545095
 40
2.799999
100
AcDbArc
 50
32.396165
 51
147.603668
  0
ARC
  5
3B9
100
AcDbEntity
  8
M0
100
AcDbCircle
 10
180.669477
 20
691.545095
 40
1.799999
100
AcDbArc
 50
56.452052
 51
123.547948
  0
ARC
  5
3BA
100
AcDbEntity
  8
M0
100
AcDbCircle
 10
203.669254
 20
691.544851
 40
2.799999
100
AcDbArc
 50
32.402084
 51
147.597899
  0
ARC
  5
3BB
100
AcDbEntity
  8
M0
100
AcDbCircle
 10
203.669254
 20
691.544851
 40
1.799999
100
AcDbArc
 50
56.465996
 51
123.533994
  0
ARC
  5
3BC
100
AcDbEntity
  8
M0
100
AcDbCircle
 10
226.669431
 20
691.545095
 40
2.799999
100
AcDbArc
 50
32.396332
 51
147.603835
  0
ARC
  5
3BD
100
AcDbEntity
  8
M0
100
AcDbCircle
 10
226.669431
 20
691.545095
 40
1.799999
100
AcDbArc
 50
56.452457
 51
123.548353
  0
LINE
  5
3BE
100
AcDbEntity
  8
M0
100
AcDbLine
 10
235.206892
 20
600.04511
 11
238.169385
 21
600.04511
  0
LINE
  5
3BF
100
AcDbEntity
  8
M0
100
AcDbLine
 10
176.25131
 20
600.04511
 11
209.169375
 21
600.04511
  0
LINE
  5
3C0
100
AcDbEntity
  8
M0
100
AcDbLine
 10
211.969225
 20
639.34511
 11
211.669229
 21
639.34511
  0
LINE
  5
3C1
100
AcDbEntity
  8
M0
100
AcDbLine
 10
214.969225
 20
633.345113
 11
214.969225
 21
636.34511
  0
LINE
  5
3C2
100
AcDbEntity
  8
M0
100
AcDbLine
 10
192.369226
 20
636.34511
 11
192.369226
 21
633.345113
  0
LINE
  5
3C3
100
AcDbEntity
  8
M0
100
AcDbLine
 10
192.369226
 20
633.345113
 11
214.969225
 21
633.345113
  0
ARC
  5
3C4
100
AcDbEntity
  8
M0
100
AcDbCircle
 10
211.969225
 20
636.34511
 40
3.0
100
AcDbArc
 50
0.0
 51
90.0
  0
ARC
  5
3C5
100
AcDbEntity
  8
M0
100
AcDbCircle
 10
195.369226
 20
636.34511
 40
3.0
100
AcDbArc
 50
84.260699
 51
179.999964
  0
LINE
  5
3C6
100
AcDbEntity
  8
M0
100
AcDbLine
 10
211.669229
 20
639.34511
 11
211.669229
 21
643.34511
  0
LINE
  5
3C7
100
AcDbEntity
  8
M0
100
AcDbLine
 10
211.969228
 20
643.34511
 11
211.669229
 21
643.34511
  0
LINE
  5
3C8
100
AcDbEntity
  8
M0
100
AcDbLine
 10
195.66923
 20
643.34511
 11
195.66923
 21
639.34511
  0
LINE
  5
3C9
100
AcDbEntity
  8
M0
100
AcDbLine
 10
195.369235
 20
659.64511
 11
199.669237
 21
659.64511
  0
LINE
  5
3CA
100
AcDbEntity
  8
M0
100
AcDbLine
 10
202.16924
 20
665.345109
 11
205.169239
 21
665.345109
  0
LINE
  5
3CB
100
AcDbEntity
  8
M0
100
AcDbLine
 10
214.969234
 20
656.645108
 11
214.969228
 21
646.345109
  0
LINE
  5
3CC
100
AcDbEntity
  8
M0
100
AcDbLine
 10
192.369235
 20
656.645111
 11
192.36923
 21
646.345112
  0
LINE
  5
3CD
100
AcDbEntity
  8
M0
100
AcDbLine
 10
206.169239
 20
664.345109
 11
206.169237
 21
661.345109
  0
LINE
  5
3CE
100
AcDbEntity
  8
M0
100
AcDbLine
 10
201.16924
 20
664.34511
 11
201.169238
 21
661.345109
  0
LINE
  5
3CF
100
AcDbEntity
  8
M0
100
AcDbLine
 10
207.669237
 20
662.045109
 11
207.669236
 21
659.64511
  0
LINE
  5
3D0
100
AcDbEntity
  8
M0
100
AcDbLine
 10
199.669238
 20
662.045109
 11
199.669237
 21
659.64511
  0
ARC
  5
3D1
100
AcDbEntity
  8
M0
100
AcDbCircle
 10
205.169239
 20
664.345109
 40
1.0
100
AcDbArc
 50
0.0
 51
90.0
  0
ARC
  5
3D2
100
AcDbEntity
  8
M0
100
AcDbCircle
 10
202.16924
 20
664.345109
 40
1.0
100
AcDbArc
 50
90.0
 51
180.0
  0
LINE
  5
3D3
100
AcDbEntity
  8
M0
100
AcDbLine
 10
207.669237
 20
661.345109
 11
206.169237
 21
661.345109
  0
LINE
  5
3D4
100
AcDbEntity
  8
M0
100
AcDbLine
 10
207.669237
 20
662.045109
 11
206.169237
 21
662.045109
  0
LINE
  5
3D5
100
AcDbEntity
  8
M0
100
AcDbLine
 10
201.169238
 20
661.345109
 11
199.669238
 21
661.345109
  0
LINE
  5
3D6
100
AcDbEntity
  8
M0
100
AcDbLine
 10
201.169238
 20
662.045109
 11
199.669238
 21
662.045109
  0
ARC
  5
3D7
100
AcDbEntity
  8
M0
100
AcDbCircle
 10
211.969234
 20
656.64511
 40
3.0
100
AcDbArc
 50
0.0
 51
90.0
  0
ARC
  5
3D8
100
AcDbEntity
  8
M0
100
AcDbCircle
 10
195.369235
 20
656.64511
 40
3.0
100
AcDbArc
 50
90.0
 51
179.999982
  0
ARC
  5
3D9
100
AcDbEntity
  8
M0
100
AcDbCircle
 10
195.36923
 20
646.34511
 40
3.0
100
AcDbArc
 50
179.999964
 51
270.0
  0
ARC
  5
3DA
100
AcDbEntity
  8
M0
100
AcDbCircle
 10
211.969228
 20
646.34511
 40
3.0
100
AcDbArc
 50
270.0
 51
360.0
  0
LINE
  5
3DB
100
AcDbEntity
  8
M0
100
AcDbLine
 10
207.669236
 20
659.64511
 11
211.969234
 21
659.64511
  0
LINE
  5
3DC
100
AcDbEntity
  8
M0
100
AcDbLine
 10
195.66923
 20
643.34511
 11
195.36923
 21
643.34511
  0
ARC
  5
3DD
100
AcDbEntity
  8
M0
100
AcDbCircle
 10
246.419263
 20
704.545095
 40
7.0
100
AcDbArc
 50
0.0
 51
90.0
  0
ARC
  5
3DE
100
AcDbEntity
  8
M0
100
AcDbCircle
 10
160.919263
 20
704.545095
 40
7.0
100
AcDbArc
 50
89.999875
 51
180.0
  0
LINE
  5
3DF
100
AcDbEntity
  8
M0
100
AcDbLine
 10
153.919263
 20
704.545095
 11
153.919263
 21
687.044607
  0
ARC
  5
3E0
100
AcDbEntity
  8
M0
100
AcDbCircle
 10
160.919263
 20
594.54511
 40
7.0
100
AcDbArc
 50
179.999875
 51
270.0
  0
LINE
  5
3E1
100
AcDbEntity
  8
M0
100
AcDbLine
 10
253.419263
 20
594.54511
 11
253.419263
 21
612.112005
  0
ARC
  5
3E2
100
AcDbEntity
  8
M0
100
AcDbCircle
 10
246.419263
 20
594.54511
 40
7.0
100
AcDbArc
 50
269.999875
 51
360.0
  0
LINE
  5
3E3
100
AcDbEntity
  8
M0
100
AcDbLine
 10
230.669263
 20
699.045095
 11
209.169263
 21
699.045095
  0
LINE
  5
3E4
100
AcDbEntity
  8
M0
100
AcDbLine
 10
230.669263
 20
600.04511
 11
176.669263
 21
600.04511
  0
ARC
  5
3E5
100
AcDbEntity
  8
M0
100
AcDbCircle
 10
246.919263
 20
704.545095
 40
2.75
100
AcDbArc
 50
269.999682
 51
450.0
  0
LINE
  5
3E6
100
AcDbEntity
  8
M0
100
AcDbLine
 10
246.919263
 20
707.295095
 11
246.669248
 21
707.295095
  0
LINE
  5
3E7
100
AcDbEntity
  8
M0
100
AcDbLine
 10
244.717329
 20
701.795095
 11
246.919263
 21
701.795095
  0
LINE
  5
3E8
100
AcDbEntity
  8
M0
  6
DASHDOT
100
AcDbLine
 10
231.669263
 20
704.545095
 11
259.669263
 21
704.545095
  0
LINE
  5
3E9
100
AcDbEntity
  8
M0
  6
DASHDOT
100
AcDbLine
 10
245.669263
 20
691.795095
 11
245.669263
 21
717.295095
  0
ARC
  5
3EA
100
AcDbEntity
  8
M0
100
AcDbCircle
 10
160.419263
 20
594.54511
 40
2.75
100
AcDbArc
 50
89.999682
 51
270.0
  0
LINE
  5
3EB
100
AcDbEntity
  8
M0
100
AcDbLine
 10
160.419263
 20
591.79511
 11
160.669233
 21
591.79511
  0
LINE
  5
3EC
100
AcDbEntity
  8
M0
  6
DASHDOT
100
AcDbLine
 10
147.669263
 20
594.54511
 11
175.669263
 21
594.54511
  0
LINE
  5
3ED
100
AcDbEntity
  8
M0
  6
DASHDOT
100
AcDbLine
 10
161.669263
 20
581.79511
 11
161.669263
 21
607.29511
  0
LINE
  5
3EE
100
AcDbEntity
  8
M0
100
AcDbLine
 10
253.419263
 20
686.978216
 11
253.419263
 21
704.545095
  0
LINE
  5
3EF
100
AcDbEntity
  8
M0
100
AcDbLine
 10
153.919263
 20
612.045095
 11
153.919263
 21
594.54511
  0
LINE
  5
3F0
100
AcDbEntity
  8
M0
100
AcDbLine
 10
198.169263
 20
699.045095
 11
176.669263
 21
699.045095
  0
LINE
  5
3F1
100
AcDbEntity
  8
M0
100
AcDbLine
 10
161.636839
 20
597.29511
 11
160.419263
 21
597.29511
  0
LINE
  5
3F2
100
AcDbEntity
  8
M0
100
AcDbLine
 10
213.669263
 20
717.545095
 11
193.669263
 21
717.545095
  0
LINE
  5
3F3
100
AcDbEntity
  8
M0
  6
DASHDOT
100
AcDbLine
 10
203.669263
 20
566.627263
 11
203.669263
 21
727.545095
  0
LINE
  5
3F4
100
AcDbEntity
  8
M0
100
AcDbLine
 10
197.833627
 20
699.84345
 11
193.669263
 21
703.545095
  0
ARC
  5
3F5
100
AcDbEntity
  8
M0
100
AcDbCircle
 10
197.169263
 20
699.096044
 40
1.0
100
AcDbArc
 50
0.0
 51
48.366252
  0
ARC
  5
3F6
100
AcDbEntity
  8
M0
100
AcDbCircle
 10
210.169263
 20
699.096044
 40
1.0
100
AcDbArc
 50
131.633748
 51
180.0
  0
LINE
  5
3F7
100
AcDbEntity
  8
M0
100
AcDbLine
 10
193.669263
 20
717.545095
 11
193.669263
 21
703.545095
  0
LINE
  5
3F8
100
AcDbEntity
  8
M0
100
AcDbLine
 10
209.5049
 20
699.84345
 11
213.669263
 21
703.545095
  0
LINE
  5
3F9
100
AcDbEntity
  8
M0
100
AcDbLine
 10
213.669263
 20
703.545095
 11
213.669263
 21
717.545095
  0
LINE
  5
3FA
100
AcDbEntity
  8
M0
100
AcDbLine
 10
198.169263
 20
698.545003
 11
198.169263
 21
699.096044
  0
LINE
  5
3FB
100
AcDbEntity
  8
M0
100
AcDbLine
 10
209.169263
 20
693.045263
 11
209.169263
 21
699.096044
  0
LINE
  5
3FC
100
AcDbEntity
  8
M0
  6
DASHDOT
100
AcDbLine
 10
216.669263
 20
709.545095
 11
190.669263
 21
709.545095
  0
ARC
  5
3FD
100
AcDbEntity
  8
M0
100
AcDbCircle
 10
203.669263
 20
691.545095
 40
2.0
100
AcDbArc
 50
48.597279
 51
131.402721
  0
LINE
  5
3FE
100
AcDbEntity
  8
M0
100
AcDbLine
 10
193.669263
 20
581.54511
 11
193.669263
 21
595.54511
  0
LINE
  5
3FF
100
AcDbEntity
  8
M0
100
AcDbLine
 10
213.669262
 20
595.54511
 11
213.669262
 21
581.54511
  0
LINE
  5
400
100
AcDbEntity
  8
M0
100
AcDbLine
 10
198.169263
 20
600.04511
 11
198.169263
 21
599.994176
  0
LINE
  5
401
100
AcDbEntity
  8
M0
  6
DASHDOT
100
AcDbLine
 10
216.669262
 20
589.54511
 11
190.669263
 21
589.54511
  0
ARC
  5
402
100
AcDbEntity
  8
M0
100
AcDbCircle
 10
203.669263
 20
607.54511
 40
2.0
100
AcDbArc
 50
228.573305
 51
311.426654
  0
LINE
  5
403
100
AcDbEntity
  8
M0
100
AcDbLine
 10
213.669262
 20
581.54511
 11
211.569271
 21
581.54511
  0
LINE
  5
404
100
AcDbEntity
  8
M0
100
AcDbLine
 10
195.169272
 20
581.54511
 11
193.669263
 21
581.54511
  0
LINE
  5
405
100
AcDbEntity
  8
M0
100
AcDbLine
 10
212.148582
 20
596.89684
 11
213.669262
 21
595.54511
  0
ARC
  5
406
100
AcDbEntity
  8
M0
100
AcDbCircle
 10
210.169262
 20
599.994176
 40
1.0
100
AcDbArc
 50
179.999126
 51
206.682982
  0
LINE
  5
407
100
AcDbEntity
  8
M0
100
AcDbLine
 10
195.169272
 20
596.878454
 11
193.669263
 21
595.54511
  0
ARC
  5
408
100
AcDbEntity
  8
M0
100
AcDbCircle
 10
197.169263
 20
599.994176
 40
1.0
100
AcDbArc
 50
-26.683788
 51
0.0
  0
LINE
  5
409
100
AcDbEntity
  8
M0
100
AcDbLine
 10
220.66937
 20
598.54511
 11
220.66937
 21
600.04511
  0
LINE
  5
40A
100
AcDbEntity
  8
M0
100
AcDbLine
 10
246.669248
 20
717.545095
 11
226.669248
 21
717.545095
  0
LINE
  5
40B
100
AcDbEntity
  8
M0
100
AcDbLine
 10
223.575269
 20
699.044774
 11
226.669248
 21
703.545095
  0
LINE
  5
40C
100
AcDbEntity
  8
M0
100
AcDbLine
 10
246.669248
 20
703.545095
 11
246.669248
 21
717.545095
  0
LINE
  5
40D
100
AcDbEntity
  8
M0
100
AcDbLine
 10
226.669248
 20
717.545095
 11
226.669248
 21
703.545095
  0
LINE
  5
40E
100
AcDbEntity
  8
M0
100
AcDbLine
 10
239.169431
 20
696.821126
 11
246.669248
 21
703.545095
  0
LINE
  5
40F
100
AcDbEntity
  8
M0
  6
DASHDOT
100
AcDbLine
 10
236.669248
 20
696.545095
 11
236.669248
 21
722.545095
  0
LINE
  5
410
100
AcDbEntity
  8
M0
  6
DASHDOT
100
AcDbLine
 10
249.669248
 20
709.545095
 11
223.669248
 21
709.545095
  0
LINE
  5
411
100
AcDbEntity
  8
M0
  6
DASHDOT
100
AcDbLine
 10
226.669248
 20
679.545095
 11
226.669248
 21
703.545095
  0
LINE
  5
412
100
AcDbEntity
  8
M0
  6
DASHDOT
100
AcDbLine
 10
238.669248
 20
691.545095
 11
214.669262
 21
691.545095
  0
ARC
  5
413
100
AcDbEntity
  8
M0
100
AcDbCircle
 10
226.669248
 20
691.545095
 40
2.0
100
AcDbArc
 50
48.597197
 51
131.402803
  0
LINE
  5
414
100
AcDbEntity
  8
M0
100
AcDbLine
 10
160.669233
 20
717.545141
 11
180.669233
 21
717.545141
  0
LINE
  5
415
100
AcDbEntity
  8
M0
100
AcDbLine
 10
183.763334
 20
699.044607
 11
180.669233
 21
703.545141
  0
LINE
  5
416
100
AcDbEntity
  8
M0
100
AcDbLine
 10
160.669233
 20
703.545141
 11
160.669233
 21
717.545141
  0
LINE
  5
417
100
AcDbEntity
  8
M0
100
AcDbLine
 10
180.669233
 20
717.545141
 11
180.669233
 21
703.545141
  0
LINE
  5
418
100
AcDbEntity
  8
M0
100
AcDbLine
 10
168.16905
 20
696.821157
 11
160.669233
 21
703.545141
  0
LINE
  5
419
100
AcDbEntity
  8
M0
  6
DASHDOT
100
AcDbLine
 10
170.669233
 20
696.545141
 11
170.669233
 21
722.545141
  0
LINE
  5
41A
100
AcDbEntity
  8
M0
  6
DASHDOT
100
AcDbLine
 10
157.669233
 20
709.545141
 11
183.669233
 21
709.545141
  0
LINE
  5
41B
100
AcDbEntity
  8
M0
  6
DASHDOT
100
AcDbLine
 10
180.669233
 20
679.545141
 11
180.669233
 21
703.545141
  0
LINE
  5
41C
100
AcDbEntity
  8
M0
  6
DASHDOT
100
AcDbLine
 10
168.669233
 20
691.545141
 11
192.669223
 21
691.545141
  0
ARC
  5
41D
100
AcDbEntity
  8
M0
100
AcDbCircle
 10
180.669233
 20
691.545141
 40
2.0
100
AcDbArc
 50
48.595635
 51
131.404037
  0
LINE
  5
41E
100
AcDbEntity
  8
M0
100
AcDbLine
 10
183.762998
 20
600.04511
 11
180.669233
 21
595.54508
  0
LINE
  5
41F
100
AcDbEntity
  8
M0
100
AcDbLine
 10
160.669233
 20
595.54508
 11
160.669233
 21
581.54508
  0
LINE
  5
420
100
AcDbEntity
  8
M0
100
AcDbLine
 10
180.669233
 20
581.54508
 11
180.669233
 21
595.54508
  0
LINE
  5
421
100
AcDbEntity
  8
M0
  6
DASHDOT
100
AcDbLine
 10
170.669233
 20
602.54508
 11
170.669233
 21
576.54508
  0
LINE
  5
422
100
AcDbEntity
  8
M0
  6
DASHDOT
100
AcDbLine
 10
157.669233
 20
589.54508
 11
183.669233
 21
589.54508
  0
LINE
  5
423
100
AcDbEntity
  8
M0
  6
DASHDOT
100
AcDbLine
 10
180.669233
 20
619.54508
 11
180.669233
 21
595.54508
  0
LINE
  5
424
100
AcDbEntity
  8
M0
  6
DASHDOT
100
AcDbLine
 10
168.669233
 20
607.54508
 11
192.669223
 21
607.54508
  0
ARC
  5
425
100
AcDbEntity
  8
M0
100
AcDbCircle
 10
180.669233
 20
607.54508
 40
2.0
100
AcDbArc
 50
228.572112
 51
311.428216
  0
LINE
  5
426
100
AcDbEntity
  8
M0
100
AcDbLine
 10
160.669233
 20
581.54508
 11
163.630445
 21
581.54508
  0
LINE
  5
427
100
AcDbEntity
  8
M0
100
AcDbLine
 10
179.398008
 20
581.54508
 11
180.669233
 21
581.54508
  0
LINE
  5
428
100
AcDbEntity
  8
M0
100
AcDbLine
 10
168.16905
 20
602.269063
 11
163.791959
 21
598.344777
  0
LINE
  5
429
100
AcDbEntity
  8
M0
100
AcDbLine
 10
160.913389
 20
595.763982
 11
160.669233
 21
595.54508
  0
LINE
  5
42A
100
AcDbEntity
  8
M0
100
AcDbLine
 10
222.669447
 20
601.363012
 11
226.669248
 21
595.54511
  0
LINE
  5
42B
100
AcDbEntity
  8
M0
100
AcDbLine
 10
246.669248
 20
595.54511
 11
246.669248
 21
581.54511
  0
LINE
  5
42C
100
AcDbEntity
  8
M0
  6
DASHDOT
100
AcDbLine
 10
236.669248
 20
602.54511
 11
236.669248
 21
576.54511
  0
LINE
  5
42D
100
AcDbEntity
  8
M0
  6
DASHDOT
100
AcDbLine
 10
249.669248
 20
589.54511
 11
223.669248
 21
589.54511
  0
LINE
  5
42E
100
AcDbEntity
  8
M0
  6
DASHDOT
100
AcDbLine
 10
226.669248
 20
619.54511
 11
226.669248
 21
595.54511
  0
LINE
  5
42F
100
AcDbEntity
  8
M0
  6
DASHDOT
100
AcDbLine
 10
238.669248
 20
607.54511
 11
214.669262
 21
607.54511
  0
ARC
  5
430
100
AcDbEntity
  8
M0
100
AcDbCircle
 10
226.669248
 20
607.54511
 40
2.0
100
AcDbArc
 50
228.573346
 51
311.426654
  0
LINE
  5
431
100
AcDbEntity
  8
M0
100
AcDbLine
 10
246.669248
 20
581.54511
 11
243.720151
 21
581.54511
  0
LINE
  5
432
100
AcDbEntity
  8
M0
100
AcDbLine
 10
226.669248
 20
583.000249
 11
226.669248
 21
595.54511
  0
LINE
  5
433
100
AcDbEntity
  8
M0
100
AcDbLine
 10
239.169431
 20
602.269094
 11
243.533033
 21
598.356908
  0
LINE
  5
434
100
AcDbEntity
  8
M0
100
AcDbLine
 10
246.575788
 20
595.628927
 11
246.669248
 21
595.54511
  0
LINE
  5
435
100
AcDbEntity
  8
M0
  6
DASHDOT
100
AcDbLine
 10
161.669447
 20
662.707302
 11
161.668821
 21
675.436818
  0
LINE
  5
436
100
AcDbEntity
  8
M0
100
AcDbLine
 10
163.069349
 20
666.444753
 11
164.889417
 21
666.444753
  0
LINE
  5
437
100
AcDbEntity
  8
M0
100
AcDbLine
 10
160.2693
 20
666.444753
 11
158.449232
 21
666.444753
  0
LINE
  5
438
100
AcDbEntity
  8
M0
100
AcDbLine
 10
159.18849
 20
665.244816
 11
164.150159
 21
665.244816
  0
LINE
  5
439
100
AcDbEntity
  8
M0
100
AcDbLine
 10
163.069349
 20
666.444753
 11
163.069349
 21
666.89153
  0
LINE
  5
43A
100
AcDbEntity
  8
M0
100
AcDbLine
 10
160.2693
 20
666.444753
 11
160.2693
 21
666.89153
  0
ARC
  5
43B
100
AcDbEntity
  8
M0
100
AcDbCircle
 10
159.18849
 20
665.744802
 40
0.5
100
AcDbArc
 50
197.118284
 51
270.0
  0
ARC
  5
43C
100
AcDbEntity
  8
M0
100
AcDbCircle
 10
164.150159
 20
665.744802
 40
0.5
100
AcDbArc
 50
270.0
 51
342.875032
  0
LINE
  5
43D
100
AcDbEntity
  8
M0
  6
DASHDOT
 62
     6
100
AcDbLine
 10
155.345609
 20
669.544851
 11
167.7814
 21
669.544851
  0
CIRCLE
  5
43E
100
AcDbEntity
  8
M0
100
AcDbCircle
 10
161.669447
 20
669.544851
 40
3.0
  0
LINE
  5
43F
100
AcDbEntity
  8
M0
100
AcDbLine
 10
158.710462
 20
673.492116
 11
157.8943
 21
670.8449
  0
LINE
  5
440
100
AcDbEntity
  8
M0
100
AcDbLine
 10
158.710462
 20
665.597585
 11
157.8943
 21
668.244802
  0
LINE
  5
441
100
AcDbEntity
  8
M0
100
AcDbLine
 10
164.627943
 20
673.492116
 11
165.444349
 21
670.8449
  0
LINE
  5
442
100
AcDbEntity
  8
M0
100
AcDbLine
 10
164.627943
 20
665.597585
 11
165.444349
 21
668.244802
  0
LINE
  5
443
100
AcDbEntity
  8
M0
100
AcDbLine
 10
163.069349
 20
672.644704
 11
164.889417
 21
672.644704
  0
LINE
  5
444
100
AcDbEntity
  8
M0
100
AcDbLine
 10
163.99098
 20
671.444753
 11
165.25929
 21
671.444753
  0
LINE
  5
445
100
AcDbEntity
  8
M0
100
AcDbLine
 10
163.99098
 20
667.644704
 11
165.25929
 21
667.644704
  0
LINE
  5
446
100
AcDbEntity
  8
M0
100
AcDbLine
 10
160.2693
 20
672.644704
 11
158.449232
 21
672.644704
  0
LINE
  5
447
100
AcDbEntity
  8
M0
100
AcDbLine
 10
159.347669
 20
671.444753
 11
158.079359
 21
671.444753
  0
LINE
  5
448
100
AcDbEntity
  8
M0
100
AcDbLine
 10
159.347669
 20
667.644704
 11
158.079359
 21
667.644704
  0
LINE
  5
449
100
AcDbEntity
  8
M0
100
AcDbLine
 10
165.444349
 20
668.244802
 11
165.444349
 21
670.8449
  0
LINE
  5
44A
100
AcDbEntity
  8
M0
100
AcDbLine
 10
164.150159
 20
673.8449
 11
159.18849
 21
673.844655
  0
LINE
  5
44B
100
AcDbEntity
  8
M0
100
AcDbLine
 10
157.8943
 20
670.8449
 11
157.8943
 21
668.244802
  0
LINE
  5
44C
100
AcDbEntity
  8
M0
100
AcDbLine
 10
163.069349
 20
672.198171
 11
163.069349
 21
672.644704
  0
LINE
  5
44D
100
AcDbEntity
  8
M0
100
AcDbLine
 10
160.2693
 20
672.198171
 11
160.2693
 21
672.644704
  0
LINE
  5
44E
100
AcDbEntity
  8
M0
100
AcDbLine
 10
163.260023
 20
667.95403
 11
160.078382
 21
671.135671
  0
LINE
  5
44F
100
AcDbEntity
  8
M0
100
AcDbLine
 10
162.022718
 20
670.958913
 11
160.25514
 21
669.191335
  0
LINE
  5
450
100
AcDbEntity
  8
M0
100
AcDbLine
 10
163.083265
 20
669.898366
 11
161.315687
 21
668.130788
  0
ARC
  5
451
100
AcDbEntity
  8
M0
100
AcDbCircle
 10
159.18849
 20
673.344655
 40
0.5
100
AcDbArc
 50
89.998251
 51
162.856262
  0
ARC
  5
452
100
AcDbEntity
  8
M0
100
AcDbCircle
 10
164.150159
 20
673.344655
 40
0.5
100
AcDbArc
 50
17.150937
 51
89.998251
  0
LINE
  5
453
100
AcDbEntity
  8
M0
  6
DASHDOT
100
AcDbLine
 10
161.669447
 20
653.207302
 11
161.668821
 21
665.936818
  0
LINE
  5
454
100
AcDbEntity
  8
M0
100
AcDbLine
 10
163.069349
 20
656.944767
 11
164.889417
 21
656.944767
  0
LINE
  5
455
100
AcDbEntity
  8
M0
100
AcDbLine
 10
160.2693
 20
656.944767
 11
158.449232
 21
656.944767
  0
LINE
  5
456
100
AcDbEntity
  8
M0
100
AcDbLine
 10
159.18849
 20
655.744816
 11
164.150159
 21
655.744816
  0
LINE
  5
457
100
AcDbEntity
  8
M0
100
AcDbLine
 10
163.069349
 20
656.944767
 11
163.069349
 21
657.391545
  0
LINE
  5
458
100
AcDbEntity
  8
M0
100
AcDbLine
 10
160.2693
 20
656.944767
 11
160.2693
 21
657.391545
  0
ARC
  5
459
100
AcDbEntity
  8
M0
100
AcDbCircle
 10
159.18849
 20
656.244816
 40
0.5
100
AcDbArc
 50
197.117449
 51
270.0
  0
ARC
  5
45A
100
AcDbEntity
  8
M0
100
AcDbCircle
 10
164.150159
 20
656.244816
 40
0.5
100
AcDbArc
 50
270.0
 51
342.875032
  0
LINE
  5
45B
100
AcDbEntity
  8
M0
  6
DASHDOT
 62
     6
100
AcDbLine
 10
155.345609
 20
660.044865
 11
167.7814
 21
660.044865
  0
CIRCLE
  5
45C
100
AcDbEntity
  8
M0
100
AcDbCircle
 10
161.669447
 20
660.044865
 40
3.0
  0
LINE
  5
45D
100
AcDbEntity
  8
M0
100
AcDbLine
 10
158.710462
 20
663.992131
 11
157.8943
 21
661.344914
  0
LINE
  5
45E
100
AcDbEntity
  8
M0
100
AcDbLine
 10
158.710462
 20
656.097599
 11
157.8943
 21
658.744816
  0
LINE
  5
45F
100
AcDbEntity
  8
M0
100
AcDbLine
 10
164.627943
 20
663.992131
 11
165.444349
 21
661.344914
  0
LINE
  5
460
100
AcDbEntity
  8
M0
100
AcDbLine
 10
164.627943
 20
656.097599
 11
165.444349
 21
658.744816
  0
LINE
  5
461
100
AcDbEntity
  8
M0
100
AcDbLine
 10
163.069349
 20
663.144719
 11
164.889417
 21
663.144719
  0
LINE
  5
462
100
AcDbEntity
  8
M0
100
AcDbLine
 10
163.99098
 20
661.944767
 11
165.25929
 21
661.944767
  0
LINE
  5
463
100
AcDbEntity
  8
M0
100
AcDbLine
 10
163.99098
 20
658.144719
 11
165.25929
 21
658.144719
  0
LINE
  5
464
100
AcDbEntity
  8
M0
100
AcDbLine
 10
160.2693
 20
663.144719
 11
158.449232
 21
663.144719
  0
LINE
  5
465
100
AcDbEntity
  8
M0
100
AcDbLine
 10
159.347669
 20
661.944767
 11
158.079359
 21
661.944767
  0
LINE
  5
466
100
AcDbEntity
  8
M0
100
AcDbLine
 10
159.347669
 20
658.144719
 11
158.079359
 21
658.144719
  0
LINE
  5
467
100
AcDbEntity
  8
M0
100
AcDbLine
 10
165.444349
 20
658.744816
 11
165.444349
 21
661.344914
  0
LINE
  5
468
100
AcDbEntity
  8
M0
100
AcDbLine
 10
164.150159
 20
664.344914
 11
159.18849
 21
664.34467
  0
LINE
  5
469
100
AcDbEntity
  8
M0
100
AcDbLine
 10
157.8943
 20
661.344914
 11
157.8943
 21
658.744816
  0
LINE
  5
46A
100
AcDbEntity
  8
M0
100
AcDbLine
 10
163.069349
 20
662.698185
 11
163.069349
 21
663.144719
  0
LINE
  5
46B
100
AcDbEntity
  8
M0
100
AcDbLine
 10
160.2693
 20
662.698185
 11
160.2693
 21
663.144719
  0
LINE
  5
46C
100
AcDbEntity
  8
M0
100
AcDbLine
 10
163.260023
 20
658.454045
 11
160.078382
 21
661.635685
  0
LINE
  5
46D
100
AcDbEntity
  8
M0
100
AcDbLine
 10
162.022718
 20
661.458928
 11
160.25514
 21
659.691349
  0
LINE
  5
46E
100
AcDbEntity
  8
M0
100
AcDbLine
 10
163.083265
 20
660.398381
 11
161.315687
 21
658.630803
  0
ARC
  5
46F
100
AcDbEntity
  8
M0
100
AcDbCircle
 10
159.18849
 20
663.84467
 40
0.5
100
AcDbArc
 50
89.998251
 51
162.856158
  0
ARC
  5
470
100
AcDbEntity
  8
M0
100
AcDbCircle
 10
164.150159
 20
663.84467
 40
0.5
100
AcDbArc
 50
17.151876
 51
89.998251
  0
LINE
  5
471
100
AcDbEntity
  8
M0
  6
DASHDOT
100
AcDbLine
 10
161.669447
 20
632.207555
 11
161.668821
 21
644.937065
  0
LINE
  5
472
100
AcDbEntity
  8
M0
100
AcDbLine
 10
163.069349
 20
635.945012
 11
164.889417
 21
635.945012
  0
LINE
  5
473
100
AcDbEntity
  8
M0
100
AcDbLine
 10
160.2693
 20
635.945012
 11
158.449232
 21
635.945012
  0
LINE
  5
474
100
AcDbEntity
  8
M0
100
AcDbLine
 10
159.18849
 20
634.745061
 11
164.150159
 21
634.745061
  0
LINE
  5
475
100
AcDbEntity
  8
M0
100
AcDbLine
 10
163.069349
 20
635.945012
 11
163.069349
 21
636.39179
  0
LINE
  5
476
100
AcDbEntity
  8
M0
100
AcDbLine
 10
160.2693
 20
635.945012
 11
160.2693
 21
636.39179
  0
ARC
  5
477
100
AcDbEntity
  8
M0
100
AcDbCircle
 10
159.18849
 20
635.245061
 40
0.5
100
AcDbArc
 50
197.117344
 51
270.0
  0
ARC
  5
478
100
AcDbEntity
  8
M0
100
AcDbCircle
 10
164.150159
 20
635.245061
 40
0.5
100
AcDbArc
 50
270.0
 51
342.875136
  0
LINE
  5
479
100
AcDbEntity
  8
M0
  6
DASHDOT
 62
     6
100
AcDbLine
 10
155.345609
 20
639.04511
 11
167.7814
 21
639.04511
  0
CIRCLE
  5
47A
100
AcDbEntity
  8
M0
100
AcDbCircle
 10
161.669447
 20
639.04511
 40
3.0
  0
LINE
  5
47B
100
AcDbEntity
  8
M0
100
AcDbLine
 10
158.710462
 20
642.992376
 11
157.8943
 21
640.345159
  0
LINE
  5
47C
100
AcDbEntity
  8
M0
100
AcDbLine
 10
158.710462
 20
635.097844
 11
157.8943
 21
637.745061
  0
LINE
  5
47D
100
AcDbEntity
  8
M0
100
AcDbLine
 10
164.627943
 20
642.992376
 11
165.444349
 21
640.345159
  0
LINE
  5
47E
100
AcDbEntity
  8
M0
100
AcDbLine
 10
164.627943
 20
635.097844
 11
165.444349
 21
637.745061
  0
LINE
  5
47F
100
AcDbEntity
  8
M0
100
AcDbLine
 10
163.069349
 20
642.144964
 11
164.889417
 21
642.144964
  0
LINE
  5
480
100
AcDbEntity
  8
M0
100
AcDbLine
 10
163.99098
 20
640.945012
 11
165.25929
 21
640.945012
  0
LINE
  5
481
100
AcDbEntity
  8
M0
100
AcDbLine
 10
163.99098
 20
637.144964
 11
165.25929
 21
637.144964
  0
LINE
  5
482
100
AcDbEntity
  8
M0
100
AcDbLine
 10
160.2693
 20
642.144964
 11
158.449232
 21
642.144964
  0
LINE
  5
483
100
AcDbEntity
  8
M0
100
AcDbLine
 10
159.347669
 20
640.945012
 11
158.079359
 21
640.945012
  0
LINE
  5
484
100
AcDbEntity
  8
M0
100
AcDbLine
 10
159.347669
 20
637.144964
 11
158.079359
 21
637.144964
  0
LINE
  5
485
100
AcDbEntity
  8
M0
100
AcDbLine
 10
165.444349
 20
637.745061
 11
165.444349
 21
640.345159
  0
LINE
  5
486
100
AcDbEntity
  8
M0
100
AcDbLine
 10
164.150159
 20
643.345159
 11
159.18849
 21
643.344915
  0
LINE
  5
487
100
AcDbEntity
  8
M0
100
AcDbLine
 10
157.8943
 20
640.345159
 11
157.8943
 21
637.745061
  0
LINE
  5
488
100
AcDbEntity
  8
M0
100
AcDbLine
 10
163.069349
 20
641.69843
 11
163.069349
 21
642.144964
  0
LINE
  5
489
100
AcDbEntity
  8
M0
100
AcDbLine
 10
160.2693
 20
641.69843
 11
160.2693
 21
642.144964
  0
LINE
  5
48A
100
AcDbEntity
  8
M0
100
AcDbLine
 10
163.260023
 20
637.45429
 11
160.078382
 21
640.63593
  0
LINE
  5
48B
100
AcDbEntity
  8
M0
100
AcDbLine
 10
162.022718
 20
640.459173
 11
160.25514
 21
638.691594
  0
LINE
  5
48C
100
AcDbEntity
  8
M0
100
AcDbLine
 10
163.083265
 20
639.398626
 11
161.315687
 21
637.631048
  0
ARC
  5
48D
100
AcDbEntity
  8
M0
100
AcDbCircle
 10
159.18849
 20
642.844915
 40
0.5
100
AcDbArc
 50
89.998251
 51
162.856053
  0
ARC
  5
48E
100
AcDbEntity
  8
M0
100
AcDbCircle
 10
164.150159
 20
642.844915
 40
0.5
100
AcDbArc
 50
17.151981
 51
89.998251
  0
LINE
  5
48F
100
AcDbEntity
  8
M0
  6
DASHDOT
100
AcDbLine
 10
161.669447
 20
622.707555
 11
161.668821
 21
635.437065
  0
LINE
  5
490
100
AcDbEntity
  8
M0
100
AcDbLine
 10
163.069349
 20
626.445012
 11
164.889417
 21
626.445012
  0
LINE
  5
491
100
AcDbEntity
  8
M0
100
AcDbLine
 10
160.2693
 20
626.445012
 11
158.449232
 21
626.445012
  0
LINE
  5
492
100
AcDbEntity
  8
M0
100
AcDbLine
 10
159.18849
 20
625.245061
 11
164.150159
 21
625.245061
  0
LINE
  5
493
100
AcDbEntity
  8
M0
100
AcDbLine
 10
163.069349
 20
626.445012
 11
163.069349
 21
626.89179
  0
LINE
  5
494
100
AcDbEntity
  8
M0
100
AcDbLine
 10
160.2693
 20
626.445012
 11
160.2693
 21
626.89179
  0
ARC
  5
495
100
AcDbEntity
  8
M0
100
AcDbCircle
 10
159.18849
 20
625.745061
 40
0.5
100
AcDbArc
 50
197.116613
 51
270.0
  0
ARC
  5
496
100
AcDbEntity
  8
M0
100
AcDbCircle
 10
164.150159
 20
625.745061
 40
0.5
100
AcDbArc
 50
270.0
 51
342.876703
  0
LINE
  5
497
100
AcDbEntity
  8
M0
  6
DASHDOT
 62
     6
100
AcDbLine
 10
155.345609
 20
629.54511
 11
167.7814
 21
629.54511
  0
CIRCLE
  5
498
100
AcDbEntity
  8
M0
100
AcDbCircle
 10
161.669447
 20
629.54511
 40
3.0
  0
LINE
  5
499
100
AcDbEntity
  8
M0
100
AcDbLine
 10
158.710462
 20
633.492376
 11
157.8943
 21
630.845159
  0
LINE
  5
49A
100
AcDbEntity
  8
M0
100
AcDbLine
 10
158.710462
 20
625.597844
 11
157.8943
 21
628.245061
  0
LINE
  5
49B
100
AcDbEntity
  8
M0
100
AcDbLine
 10
164.627943
 20
633.492376
 11
165.444349
 21
630.845159
  0
LINE
  5
49C
100
AcDbEntity
  8
M0
100
AcDbLine
 10
164.627943
 20
625.597844
 11
165.444349
 21
628.245061
  0
LINE
  5
49D
100
AcDbEntity
  8
M0
100
AcDbLine
 10
163.069349
 20
632.644964
 11
164.889417
 21
632.644964
  0
LINE
  5
49E
100
AcDbEntity
  8
M0
100
AcDbLine
 10
163.99098
 20
631.445012
 11
165.25929
 21
631.445012
  0
LINE
  5
49F
100
AcDbEntity
  8
M0
100
AcDbLine
 10
163.99098
 20
627.644964
 11
165.25929
 21
627.644964
  0
LINE
  5
4A0
100
AcDbEntity
  8
M0
100
AcDbLine
 10
160.2693
 20
632.644964
 11
158.449232
 21
632.644964
  0
LINE
  5
4A1
100
AcDbEntity
  8
M0
100
AcDbLine
 10
159.347669
 20
631.445012
 11
158.079359
 21
631.445012
  0
LINE
  5
4A2
100
AcDbEntity
  8
M0
100
AcDbLine
 10
159.347669
 20
627.644964
 11
158.079359
 21
627.644964
  0
LINE
  5
4A3
100
AcDbEntity
  8
M0
100
AcDbLine
 10
165.444349
 20
628.245061
 11
165.444349
 21
630.845159
  0
LINE
  5
4A4
100
AcDbEntity
  8
M0
100
AcDbLine
 10
164.150159
 20
633.845159
 11
159.18849
 21
633.844915
  0
LINE
  5
4A5
100
AcDbEntity
  8
M0
100
AcDbLine
 10
157.8943
 20
630.845159
 11
157.8943
 21
628.245061
  0
LINE
  5
4A6
100
AcDbEntity
  8
M0
100
AcDbLine
 10
163.069349
 20
632.19843
 11
163.069349
 21
632.644964
  0
LINE
  5
4A7
100
AcDbEntity
  8
M0
100
AcDbLine
 10
160.2693
 20
632.19843
 11
160.2693
 21
632.644964
  0
LINE
  5
4A8
100
AcDbEntity
  8
M0
100
AcDbLine
 10
163.260023
 20
627.95429
 11
160.078382
 21
631.13593
  0
LINE
  5
4A9
100
AcDbEntity
  8
M0
100
AcDbLine
 10
162.022718
 20
630.959173
 11
160.25514
 21
629.191594
  0
LINE
  5
4AA
100
AcDbEntity
  8
M0
100
AcDbLine
 10
163.083265
 20
629.898626
 11
161.315687
 21
628.131048
  0
ARC
  5
4AB
100
AcDbEntity
  8
M0
100
AcDbCircle
 10
159.18849
 20
633.344915
 40
0.5
100
AcDbArc
 50
89.998251
 51
162.854591
  0
ARC
  5
4AC
100
AcDbEntity
  8
M0
100
AcDbCircle
 10
164.150159
 20
633.344915
 40
0.5
100
AcDbArc
 50
17.152607
 51
89.998251
  0
LINE
  5
4AD
100
AcDbEntity
  8
M0
  6
DASHDOT
100
AcDbLine
 10
245.669416
 20
662.707057
 11
245.66879
 21
675.436574
  0
LINE
  5
4AE
100
AcDbEntity
  8
M0
100
AcDbLine
 10
247.069303
 20
666.444509
 11
248.889371
 21
666.444509
  0
LINE
  5
4AF
100
AcDbEntity
  8
M0
100
AcDbLine
 10
244.269254
 20
666.444509
 11
242.449186
 21
666.444509
  0
LINE
  5
4B0
100
AcDbEntity
  8
M0
100
AcDbLine
 10
243.188444
 20
665.244572
 11
248.150114
 21
665.244572
  0
LINE
  5
4B1
100
AcDbEntity
  8
M0
100
AcDbLine
 10
247.069303
 20
666.444509
 11
247.069303
 21
666.891286
  0
LINE
  5
4B2
100
AcDbEntity
  8
M0
100
AcDbLine
 10
244.269254
 20
666.444509
 11
244.269254
 21
666.891286
  0
ARC
  5
4B3
100
AcDbEntity
  8
M0
100
AcDbCircle
 10
243.188444
 20
665.744558
 40
0.5
100
AcDbArc
 50
197.11777
 51
269.998251
  0
ARC
  5
4B4
100
AcDbEntity
  8
M0
100
AcDbCircle
 10
248.150114
 20
665.744558
 40
0.5
100
AcDbArc
 50
269.998251
 51
342.874517
  0
LINE
  5
4B5
100
AcDbEntity
  8
M0
  6
DASHDOT
 62
     6
100
AcDbLine
 10
239.345563
 20
669.544607
 11
251.781354
 21
669.544607
  0
CIRCLE
  5
4B6
100
AcDbEntity
  8
M0
100
AcDbCircle
 10
245.669401
 20
669.544607
 40
3.0
  0
LINE
  5
4B7
100
AcDbEntity
  8
M0
100
AcDbLine
 10
242.710416
 20
673.491872
 11
241.894254
 21
670.844655
  0
LINE
  5
4B8
100
AcDbEntity
  8
M0
100
AcDbLine
 10
242.710416
 20
665.597341
 11
241.894254
 21
668.244558
  0
LINE
  5
4B9
100
AcDbEntity
  8
M0
100
AcDbLine
 10
248.627897
 20
673.491872
 11
249.444303
 21
670.844655
  0
LINE
  5
4BA
100
AcDbEntity
  8
M0
100
AcDbLine
 10
248.627897
 20
665.597341
 11
249.444303
 21
668.244558
  0
LINE
  5
4BB
100
AcDbEntity
  8
M0
100
AcDbLine
 10
247.069303
 20
672.64446
 11
248.889371
 21
672.64446
  0
LINE
  5
4BC
100
AcDbEntity
  8
M0
100
AcDbLine
 10
247.990934
 20
671.444509
 11
249.259245
 21
671.444509
  0
LINE
  5
4BD
100
AcDbEntity
  8
M0
100
AcDbLine
 10
247.990934
 20
667.64446
 11
249.259245
 21
667.64446
  0
LINE
  5
4BE
100
AcDbEntity
  8
M0
100
AcDbLine
 10
244.269254
 20
672.64446
 11
242.449186
 21
672.64446
  0
LINE
  5
4BF
100
AcDbEntity
  8
M0
100
AcDbLine
 10
243.347623
 20
671.444509
 11
242.079313
 21
671.444509
  0
LINE
  5
4C0
100
AcDbEntity
  8
M0
100
AcDbLine
 10
243.347623
 20
667.64446
 11
242.079313
 21
667.64446
  0
LINE
  5
4C1
100
AcDbEntity
  8
M0
100
AcDbLine
 10
249.444303
 20
668.244558
 11
249.444303
 21
670.844655
  0
LINE
  5
4C2
100
AcDbEntity
  8
M0
100
AcDbLine
 10
248.150114
 20
673.844655
 11
243.188444
 21
673.844411
  0
LINE
  5
4C3
100
AcDbEntity
  8
M0
100
AcDbLine
 10
241.894254
 20
670.844655
 11
241.894254
 21
668.244558
  0
LINE
  5
4C4
100
AcDbEntity
  8
M0
100
AcDbLine
 10
247.069303
 20
672.197927
 11
247.069303
 21
672.64446
  0
LINE
  5
4C5
100
AcDbEntity
  8
M0
100
AcDbLine
 10
244.269254
 20
672.197927
 11
244.269254
 21
672.64446
  0
LINE
  5
4C6
100
AcDbEntity
  8
M0
100
AcDbLine
 10
247.259977
 20
667.953786
 11
244.078336
 21
671.135427
  0
LINE
  5
4C7
100
AcDbEntity
  8
M0
100
AcDbLine
 10
246.022672
 20
670.958669
 11
244.255094
 21
669.191091
  0
LINE
  5
4C8
100
AcDbEntity
  8
M0
100
AcDbLine
 10
247.083219
 20
669.898122
 11
245.315641
 21
668.130544
  0
ARC
  5
4C9
100
AcDbEntity
  8
M0
100
AcDbCircle
 10
243.188444
 20
673.344411
 40
0.5
100
AcDbArc
 50
90.0
 51
162.856778
  0
ARC
  5
4CA
100
AcDbEntity
  8
M0
100
AcDbCircle
 10
248.150114
 20
673.344411
 40
0.5
100
AcDbArc
 50
17.151452
 51
90.0
  0
LINE
  5
4CB
100
AcDbEntity
  8
M0
  6
DASHDOT
100
AcDbLine
 10
245.669431
 20
653.207546
 11
245.668806
 21
665.937063
  0
LINE
  5
4CC
100
AcDbEntity
  8
M0
100
AcDbLine
 10
247.069334
 20
656.945012
 11
248.889402
 21
656.945012
  0
LINE
  5
4CD
100
AcDbEntity
  8
M0
100
AcDbLine
 10
244.269285
 20
656.945012
 11
242.449216
 21
656.945012
  0
LINE
  5
4CE
100
AcDbEntity
  8
M0
100
AcDbLine
 10
243.188474
 20
655.74506
 11
248.150144
 21
655.74506
  0
LINE
  5
4CF
100
AcDbEntity
  8
M0
100
AcDbLine
 10
247.069334
 20
656.945012
 11
247.069334
 21
657.391789
  0
LINE
  5
4D0
100
AcDbEntity
  8
M0
100
AcDbLine
 10
244.269285
 20
656.945012
 11
244.269285
 21
657.391789
  0
ARC
  5
4D1
100
AcDbEntity
  8
M0
100
AcDbCircle
 10
243.188474
 20
656.24506
 40
0.5
100
AcDbArc
 50
197.116934
 51
269.998251
  0
ARC
  5
4D2
100
AcDbEntity
  8
M0
100
AcDbCircle
 10
248.150144
 20
656.24506
 40
0.5
100
AcDbArc
 50
269.998251
 51
342.874517
  0
LINE
  5
4D3
100
AcDbEntity
  8
M0
  6
DASHDOT
 62
     6
100
AcDbLine
 10
239.345594
 20
660.045109
 11
251.781385
 21
660.045109
  0
CIRCLE
  5
4D4
100
AcDbEntity
  8
M0
100
AcDbCircle
 10
245.669431
 20
660.045109
 40
3.0
  0
LINE
  5
4D5
100
AcDbEntity
  8
M0
100
AcDbLine
 10
242.710447
 20
663.992375
 11
241.894285
 21
661.345158
  0
LINE
  5
4D6
100
AcDbEntity
  8
M0
100
AcDbLine
 10
242.710447
 20
656.097844
 11
241.894285
 21
658.74506
  0
LINE
  5
4D7
100
AcDbEntity
  8
M0
100
AcDbLine
 10
248.627927
 20
663.992375
 11
249.444334
 21
661.345158
  0
LINE
  5
4D8
100
AcDbEntity
  8
M0
100
AcDbLine
 10
248.627927
 20
656.097844
 11
249.444334
 21
658.74506
  0
LINE
  5
4D9
100
AcDbEntity
  8
M0
100
AcDbLine
 10
247.069334
 20
663.144963
 11
248.889402
 21
663.144963
  0
LINE
  5
4DA
100
AcDbEntity
  8
M0
100
AcDbLine
 10
247.990964
 20
661.945012
 11
249.259275
 21
661.945012
  0
LINE
  5
4DB
100
AcDbEntity
  8
M0
100
AcDbLine
 10
247.990964
 20
658.144963
 11
249.259275
 21
658.144963
  0
LINE
  5
4DC
100
AcDbEntity
  8
M0
100
AcDbLine
 10
244.269285
 20
663.144963
 11
242.449216
 21
663.144963
  0
LINE
  5
4DD
100
AcDbEntity
  8
M0
100
AcDbLine
 10
243.347654
 20
661.945012
 11
242.079343
 21
661.945012
  0
LINE
  5
4DE
100
AcDbEntity
  8
M0
100
AcDbLine
 10
243.347654
 20
658.144963
 11
242.079343
 21
658.144963
  0
LINE
  5
4DF
100
AcDbEntity
  8
M0
100
AcDbLine
 10
249.444334
 20
658.74506
 11
249.444334
 21
661.345158
  0
LINE
  5
4E0
100
AcDbEntity
  8
M0
100
AcDbLine
 10
248.150144
 20
664.345158
 11
243.188474
 21
664.344914
  0
LINE
  5
4E1
100
AcDbEntity
  8
M0
100
AcDbLine
 10
241.894285
 20
661.345158
 11
241.894285
 21
658.74506
  0
LINE
  5
4E2
100
AcDbEntity
  8
M0
100
AcDbLine
 10
247.069334
 20
662.698429
 11
247.069334
 21
663.144963
  0
LINE
  5
4E3
100
AcDbEntity
  8
M0
100
AcDbLine
 10
244.269285
 20
662.698429
 11
244.269285
 21
663.144963
  0
LINE
  5
4E4
100
AcDbEntity
  8
M0
100
AcDbLine
 10
247.260007
 20
658.454289
 11
244.078367
 21
661.635929
  0
LINE
  5
4E5
100
AcDbEntity
  8
M0
100
AcDbLine
 10
246.022703
 20
661.459172
 11
244.255125
 21
659.691594
  0
LINE
  5
4E6
100
AcDbEntity
  8
M0
100
AcDbLine
 10
247.08325
 20
660.398625
 11
245.315672
 21
658.631047
  0
ARC
  5
4E7
100
AcDbEntity
  8
M0
100
AcDbCircle
 10
243.188474
 20
663.844914
 40
0.5
100
AcDbArc
 50
90.0
 51
162.856673
  0
ARC
  5
4E8
100
AcDbEntity
  8
M0
100
AcDbCircle
 10
248.150144
 20
663.844914
 40
0.5
100
AcDbArc
 50
17.152392
 51
90.0
  0
LINE
  5
4E9
100
AcDbEntity
  8
M0
  6
DASHDOT
100
AcDbLine
 10
245.669477
 20
632.207311
 11
245.668851
 21
644.93682
  0
LINE
  5
4EA
100
AcDbEntity
  8
M0
100
AcDbLine
 10
247.069379
 20
635.944768
 11
248.889448
 21
635.944768
  0
LINE
  5
4EB
100
AcDbEntity
  8
M0
100
AcDbLine
 10
244.269331
 20
635.944768
 11
242.449262
 21
635.944768
  0
LINE
  5
4EC
100
AcDbEntity
  8
M0
100
AcDbLine
 10
243.18852
 20
634.744817
 11
248.15019
 21
634.744817
  0
LINE
  5
4ED
100
AcDbEntity
  8
M0
100
AcDbLine
 10
247.069379
 20
635.944768
 11
247.069379
 21
636.391546
  0
LINE
  5
4EE
100
AcDbEntity
  8
M0
100
AcDbLine
 10
244.269331
 20
635.944768
 11
244.269331
 21
636.391546
  0
ARC
  5
4EF
100
AcDbEntity
  8
M0
100
AcDbCircle
 10
243.18852
 20
635.244817
 40
0.5
100
AcDbArc
 50
197.11683
 51
269.998251
  0
ARC
  5
4F0
100
AcDbEntity
  8
M0
100
AcDbCircle
 10
248.15019
 20
635.244817
 40
0.5
100
AcDbArc
 50
269.998251
 51
342.874621
  0
LINE
  5
4F1
100
AcDbEntity
  8
M0
  6
DASHDOT
 62
     6
100
AcDbLine
 10
239.34564
 20
639.044866
 11
251.781431
 21
639.044866
  0
CIRCLE
  5
4F2
100
AcDbEntity
  8
M0
100
AcDbCircle
 10
245.669477
 20
639.044866
 40
3.0
  0
LINE
  5
4F3
100
AcDbEntity
  8
M0
100
AcDbLine
 10
242.710493
 20
642.992132
 11
241.894331
 21
640.344915
  0
LINE
  5
4F4
100
AcDbEntity
  8
M0
100
AcDbLine
 10
242.710493
 20
635.0976
 11
241.894331
 21
637.744817
  0
LINE
  5
4F5
100
AcDbEntity
  8
M0
100
AcDbLine
 10
248.627973
 20
642.992132
 11
249.444379
 21
640.344915
  0
LINE
  5
4F6
100
AcDbEntity
  8
M0
100
AcDbLine
 10
248.627973
 20
635.0976
 11
249.444379
 21
637.744817
  0
LINE
  5
4F7
100
AcDbEntity
  8
M0
100
AcDbLine
 10
247.069379
 20
642.144719
 11
248.889448
 21
642.144719
  0
LINE
  5
4F8
100
AcDbEntity
  8
M0
100
AcDbLine
 10
247.99101
 20
640.944768
 11
249.259321
 21
640.944768
  0
LINE
  5
4F9
100
AcDbEntity
  8
M0
100
AcDbLine
 10
247.99101
 20
637.144719
 11
249.259321
 21
637.144719
  0
LINE
  5
4FA
100
AcDbEntity
  8
M0
100
AcDbLine
 10
244.269331
 20
642.144719
 11
242.449262
 21
642.144719
  0
LINE
  5
4FB
100
AcDbEntity
  8
M0
100
AcDbLine
 10
243.3477
 20
640.944768
 11
242.079389
 21
640.944768
  0
LINE
  5
4FC
100
AcDbEntity
  8
M0
100
AcDbLine
 10
243.3477
 20
637.144719
 11
242.079389
 21
637.144719
  0
LINE
  5
4FD
100
AcDbEntity
  8
M0
100
AcDbLine
 10
249.444379
 20
637.744817
 11
249.444379
 21
640.344915
  0
LINE
  5
4FE
100
AcDbEntity
  8
M0
100
AcDbLine
 10
248.15019
 20
643.344915
 11
243.18852
 21
643.344671
  0
LINE
  5
4FF
100
AcDbEntity
  8
M0
100
AcDbLine
 10
241.894331
 20
640.344915
 11
241.894331
 21
637.744817
  0
LINE
  5
500
100
AcDbEntity
  8
M0
100
AcDbLine
 10
247.069379
 20
641.698186
 11
247.069379
 21
642.144719
  0
LINE
  5
501
100
AcDbEntity
  8
M0
100
AcDbLine
 10
244.269331
 20
641.698186
 11
244.269331
 21
642.144719
  0
LINE
  5
502
100
AcDbEntity
  8
M0
100
AcDbLine
 10
247.260053
 20
637.454046
 11
244.078413
 21
640.635686
  0
LINE
  5
503
100
AcDbEntity
  8
M0
100
AcDbLine
 10
246.022749
 20
640.458928
 11
244.25517
 21
638.69135
  0
LINE
  5
504
100
AcDbEntity
  8
M0
100
AcDbLine
 10
247.083295
 20
639.398382
 11
245.315717
 21
637.630803
  0
ARC
  5
505
100
AcDbEntity
  8
M0
100
AcDbCircle
 10
243.18852
 20
642.844671
 40
0.5
100
AcDbArc
 50
90.0
 51
162.856569
  0
ARC
  5
506
100
AcDbEntity
  8
M0
100
AcDbCircle
 10
248.15019
 20
642.844671
 40
0.5
100
AcDbArc
 50
17.152497
 51
90.0
  0
LINE
  5
507
100
AcDbEntity
  8
M0
  6
DASHDOT
100
AcDbLine
 10
245.669492
 20
622.708043
 11
245.668867
 21
635.437553
  0
LINE
  5
508
100
AcDbEntity
  8
M0
100
AcDbLine
 10
247.069395
 20
626.445501
 11
248.889463
 21
626.445501
  0
LINE
  5
509
100
AcDbEntity
  8
M0
100
AcDbLine
 10
244.269346
 20
626.445501
 11
242.449277
 21
626.445501
  0
LINE
  5
50A
100
AcDbEntity
  8
M0
100
AcDbLine
 10
243.188535
 20
625.24555
 11
248.150205
 21
625.24555
  0
LINE
  5
50B
100
AcDbEntity
  8
M0
100
AcDbLine
 10
247.069395
 20
626.445501
 11
247.069395
 21
626.892278
  0
LINE
  5
50C
100
AcDbEntity
  8
M0
100
AcDbLine
 10
244.269346
 20
626.445501
 11
244.269346
 21
626.892278
  0
ARC
  5
50D
100
AcDbEntity
  8
M0
100
AcDbCircle
 10
243.188535
 20
625.74555
 40
0.5
100
AcDbArc
 50
197.116099
 51
269.998251
  0
ARC
  5
50E
100
AcDbEntity
  8
M0
100
AcDbCircle
 10
248.150205
 20
625.74555
 40
0.5
100
AcDbArc
 50
269.998251
 51
342.876188
  0
LINE
  5
50F
100
AcDbEntity
  8
M0
  6
DASHDOT
 62
     6
100
AcDbLine
 10
239.345655
 20
629.545598
 11
251.781446
 21
629.545598
  0
CIRCLE
  5
510
100
AcDbEntity
  8
M0
100
AcDbCircle
 10
245.669492
 20
629.545598
 40
3.0
  0
LINE
  5
511
100
AcDbEntity
  8
M0
100
AcDbLine
 10
242.710508
 20
633.492864
 11
241.894346
 21
630.845647
  0
LINE
  5
512
100
AcDbEntity
  8
M0
100
AcDbLine
 10
242.710508
 20
625.598333
 11
241.894346
 21
628.24555
  0
LINE
  5
513
100
AcDbEntity
  8
M0
100
AcDbLine
 10
248.627988
 20
633.492864
 11
249.444395
 21
630.845647
  0
LINE
  5
514
100
AcDbEntity
  8
M0
100
AcDbLine
 10
248.627988
 20
625.598333
 11
249.444395
 21
628.24555
  0
LINE
  5
515
100
AcDbEntity
  8
M0
100
AcDbLine
 10
247.069395
 20
632.645452
 11
248.889463
 21
632.645452
  0
LINE
  5
516
100
AcDbEntity
  8
M0
100
AcDbLine
 10
247.991026
 20
631.445501
 11
249.259336
 21
631.445501
  0
LINE
  5
517
100
AcDbEntity
  8
M0
100
AcDbLine
 10
247.991026
 20
627.645452
 11
249.259336
 21
627.645452
  0
LINE
  5
518
100
AcDbEntity
  8
M0
100
AcDbLine
 10
244.269346
 20
632.645452
 11
242.449277
 21
632.645452
  0
LINE
  5
519
100
AcDbEntity
  8
M0
100
AcDbLine
 10
243.347715
 20
631.445501
 11
242.079404
 21
631.445501
  0
LINE
  5
51A
100
AcDbEntity
  8
M0
100
AcDbLine
 10
243.347715
 20
627.645452
 11
242.079404
 21
627.645452
  0
LINE
  5
51B
100
AcDbEntity
  8
M0
100
AcDbLine
 10
249.444395
 20
628.24555
 11
249.444395
 21
630.845647
  0
LINE
  5
51C
100
AcDbEntity
  8
M0
100
AcDbLine
 10
248.150205
 20
633.845647
 11
243.188535
 21
633.845403
  0
LINE
  5
51D
100
AcDbEntity
  8
M0
100
AcDbLine
 10
241.894346
 20
630.845647
 11
241.894346
 21
628.24555
  0
LINE
  5
51E
100
AcDbEntity
  8
M0
100
AcDbLine
 10
247.069395
 20
632.198919
 11
247.069395
 21
632.645452
  0
LINE
  5
51F
100
AcDbEntity
  8
M0
100
AcDbLine
 10
244.269346
 20
632.198919
 11
244.269346
 21
632.645452
  0
LINE
  5
520
100
AcDbEntity
  8
M0
100
AcDbLine
 10
247.260068
 20
627.954778
 11
244.078428
 21
631.136419
  0
LINE
  5
521
100
AcDbEntity
  8
M0
100
AcDbLine
 10
246.022764
 20
630.959661
 11
244.255186
 21
629.192083
  0
LINE
  5
522
100
AcDbEntity
  8
M0
100
AcDbLine
 10
247.083311
 20
629.899114
 11
245.315733
 21
628.131536
  0
ARC
  5
523
100
AcDbEntity
  8
M0
100
AcDbCircle
 10
243.188535
 20
633.345403
 40
0.5
100
AcDbArc
 50
90.0
 51
162.855107
  0
ARC
  5
524
100
AcDbEntity
  8
M0
100
AcDbCircle
 10
248.150205
 20
633.345403
 40
0.5
100
AcDbArc
 50
17.153123
 51
90.0
  0
LINE
  5
525
100
AcDbEntity
  8
M0
  6
DASHDOT
 62
     6
100
AcDbLine
 10
237.845609
 20
679.544607
 11
250.2814
 21
679.544607
  0
CIRCLE
  5
526
100
AcDbEntity
  8
M0
100
AcDbCircle
 10
244.169447
 20
679.544607
 40
3.0
  0
LINE
  5
527
100
AcDbEntity
  8
M0
100
AcDbLine
 10
245.760023
 20
677.953786
 11
242.578382
 21
681.135427
  0
LINE
  5
528
100
AcDbEntity
  8
M0
100
AcDbLine
 10
244.522718
 20
680.958669
 11
242.75514
 21
679.191091
  0
LINE
  5
529
100
AcDbEntity
  8
M0
100
AcDbLine
 10
245.583265
 20
679.898122
 11
243.815687
 21
678.130544
  0
LINE
  5
52A
100
AcDbEntity
  8
M0
  6
DASHDOT
100
AcDbLine
 10
163.169447
 20
612.707555
 11
163.168821
 21
625.437078
  0
LINE
  5
52B
100
AcDbEntity
  8
M0
  6
DASHDOT
 62
     6
100
AcDbLine
 10
156.845609
 20
619.54511
 11
169.2814
 21
619.54511
  0
CIRCLE
  5
52C
100
AcDbEntity
  8
M0
100
AcDbCircle
 10
163.169447
 20
619.54511
 40
3.0
  0
LINE
  5
52D
100
AcDbEntity
  8
M0
100
AcDbLine
 10
164.760023
 20
617.95429
 11
161.578382
 21
621.13593
  0
LINE
  5
52E
100
AcDbEntity
  8
M0
100
AcDbLine
 10
163.522718
 20
620.959173
 11
161.75514
 21
619.191594
  0
LINE
  5
52F
100
AcDbEntity
  8
M0
100
AcDbLine
 10
164.583265
 20
619.898626
 11
162.815687
 21
618.131048
  0
CIRCLE
  5
530
100
AcDbEntity
  8
M0
100
AcDbCircle
 10
161.669279
 20
691.545095
 40
2.0
  0
LINE
  5
531
100
AcDbEntity
  8
M0
  6
DASHDOT
100
AcDbLine
 10
149.669279
 20
691.545095
 11
173.669279
 21
691.545095
  0
LINE
  5
532
100
AcDbEntity
  8
M0
  6
DASHDOT
100
AcDbLine
 10
161.669279
 20
679.545095
 11
161.669279
 21
703.545095
  0
LINE
  5
533
100
AcDbEntity
  8
M0
100
AcDbLine
 10
165.669279
 20
699.044607
 11
165.669279
 21
687.044607
  0
LINE
  5
534
100
AcDbEntity
  8
M0
100
AcDbLine
 10
157.669279
 20
699.044607
 11
157.669279
 21
687.044607
  0
LINE
  5
535
100
AcDbEntity
  8
M0
100
AcDbLine
 10
159.419279
 20
688.545095
 11
163.919279
 21
688.545095
  0
LINE
  5
536
100
AcDbEntity
  8
M0
100
AcDbLine
 10
164.419279
 20
695.545141
 11
164.419279
 21
689.045095
  0
LINE
  5
537
100
AcDbEntity
  8
M0
100
AcDbLine
 10
158.919279
 20
695.545141
 11
158.919279
 21
689.045095
  0
ARC
  5
538
100
AcDbEntity
  8
M0
100
AcDbCircle
 10
159.419279
 20
689.045095
 40
0.5
100
AcDbArc
 50
180.0
 51
270.0
  0
ARC
  5
539
100
AcDbEntity
  8
M0
100
AcDbCircle
 10
163.919279
 20
689.045095
 40
0.5
100
AcDbArc
 50
270.0
 51
360.0
  0
LINE
  5
53A
100
AcDbEntity
  8
M0
100
AcDbLine
 10
157.669279
 20
695.545141
 11
165.669279
 21
695.545141
  0
LINE
  5
53B
100
AcDbEntity
  8
M0
100
AcDbLine
 10
153.919263
 20
699.044607
 11
165.689039
 21
699.044607
  0
LINE
  5
53C
100
AcDbEntity
  8
M0
100
AcDbLine
 10
153.919263
 20
699.044607
 11
165.689039
 21
699.044607
  0
LINE
  5
53D
100
AcDbEntity
  8
M0
100
AcDbLine
 10
241.669263
 20
699.044607
 11
241.669263
 21
687.044607
  0
LINE
  5
53E
100
AcDbEntity
  8
M0
100
AcDbLine
 10
249.669263
 20
699.044607
 11
249.669263
 21
687.044607
  0
LINE
  5
53F
100
AcDbEntity
  8
M0
100
AcDbLine
 10
249.669263
 20
695.545141
 11
248.611478
 21
695.545141
  0
LINE
  5
540
100
AcDbEntity
  8
M0
  6
DASHDOT
100
AcDbLine
 10
245.669263
 20
679.545095
 11
245.669263
 21
703.545095
  0
LINE
  5
541
100
AcDbEntity
  8
M0
  6
DASHDOT
100
AcDbLine
 10
257.669263
 20
691.545095
 11
233.669263
 21
691.545095
  0
LINE
  5
542
100
AcDbEntity
  8
M0
100
AcDbLine
 10
253.419263
 20
699.044607
 11
241.649488
 21
699.044607
  0
LINE
  5
543
100
AcDbEntity
  8
M0
100
AcDbLine
 10
165.669279
 20
600.045598
 11
165.669279
 21
612.045598
  0
LINE
  5
544
100
AcDbEntity
  8
M0
100
AcDbLine
 10
157.669279
 20
600.045598
 11
157.669279
 21
612.045598
  0
LINE
  5
545
100
AcDbEntity
  8
M0
100
AcDbLine
 10
157.669279
 20
603.54508
 11
158.72656
 21
603.54508
  0
LINE
  5
546
100
AcDbEntity
  8
M0
  6
DASHDOT
100
AcDbLine
 10
161.669279
 20
619.54511
 11
161.669279
 21
595.54511
  0
LINE
  5
547
100
AcDbEntity
  8
M0
  6
DASHDOT
100
AcDbLine
 10
149.669279
 20
607.54511
 11
173.669279
 21
607.54511
  0
LINE
  5
548
100
AcDbEntity
  8
M0
100
AcDbLine
 10
153.919263
 20
600.045598
 11
165.689039
 21
600.045598
  0
LINE
  5
549
100
AcDbEntity
  8
M0
100
AcDbLine
 10
241.669263
 20
600.045598
 11
241.669263
 21
612.045598
  0
LINE
  5
54A
100
AcDbEntity
  8
M0
100
AcDbLine
 10
249.669263
 20
600.045598
 11
249.669263
 21
612.045598
  0
LINE
  5
54B
100
AcDbEntity
  8
M0
100
AcDbLine
 10
249.669263
 20
603.54508
 11
241.669263
 21
603.54508
  0
LINE
  5
54C
100
AcDbEntity
  8
M0
100
AcDbLine
 10
242.919263
 20
603.54508
 11
242.919263
 21
610.04511
  0
ARC
  5
54D
100
AcDbEntity
  8
M0
100
AcDbCircle
 10
243.419263
 20
610.04511
 40
0.5
100
AcDbArc
 50
90.0
 51
179.998251
  0
LINE
  5
54E
100
AcDbEntity
  8
M0
100
AcDbLine
 10
247.919263
 20
610.54511
 11
243.419263
 21
610.54511
  0
ARC
  5
54F
100
AcDbEntity
  8
M0
100
AcDbCircle
 10
247.919263
 20
610.04511
 40
0.5
100
AcDbArc
 50
0.0
 51
90.0
  0
LINE
  5
550
100
AcDbEntity
  8
M0
100
AcDbLine
 10
248.419263
 20
603.54508
 11
248.419263
 21
610.04511
  0
LINE
  5
551
100
AcDbEntity
  8
M0
100
AcDbLine
 10
253.419263
 20
600.045598
 11
241.649488
 21
600.045598
  0
LINE
  5
552
100
AcDbEntity
  8
M0
100
AcDbLine
 10
164.611494
 20
603.54508
 11
165.669279
 21
603.54508
  0
LINE
  5
553
100
AcDbEntity
  8
M0
100
AcDbLine
 10
242.726545
 20
695.545141
 11
241.669263
 21
695.545141
  0
LINE
  5
554
100
AcDbEntity
  8
M0
  6
DIVIDE
100
AcDbLine
 10
140.669447
 20
679.545095
 11
140.669447
 21
619.54511
  0
LINE
  5
555
100
AcDbEntity
  8
M0
  6
DIVIDE
100
AcDbLine
 10
140.669447
 20
679.545095
 11
153.669447
 21
679.545095
  0
LINE
  5
556
100
AcDbEntity
  8
M0
  6
DIVIDE
100
AcDbLine
 10
140.669447
 20
619.54511
 11
153.669447
 21
619.54511
  0
LINE
  5
557
100
AcDbEntity
  8
M0
  6
DIVIDE
100
AcDbLine
 10
266.66908
 20
679.545095
 11
253.66908
 21
679.545095
  0
LINE
  5
558
100
AcDbEntity
  8
M0
  6
DIVIDE
100
AcDbLine
 10
266.66908
 20
679.545095
 11
266.66908
 21
619.54511
  0
LINE
  5
559
100
AcDbEntity
  8
M0
  6
DIVIDE
100
AcDbLine
 10
266.66908
 20
619.54511
 11
253.66908
 21
619.54511
  0
LINE
  5
55A
100
AcDbEntity
  8
M0
100
AcDbLine
 10
231.957761
 20
567.527852
 11
233.371641
 21
567.527852
  0
LINE
  5
55B
100
AcDbEntity
  8
M0
  6
DASHDOT
100
AcDbLine
 10
257.669263
 20
691.545095
 11
233.669263
 21
691.545095
  0
LINE
  5
55C
100
AcDbEntity
  8
M0
  6
DASHDOT
100
AcDbLine
 10
245.669263
 20
679.545095
 11
245.669263
 21
703.545095
  0
CIRCLE
  5
55D
100
AcDbEntity
  8
M0
100
AcDbCircle
 10
245.669263
 20
607.54511
 40
2.0
  0
LINE
  5
55E
100
AcDbEntity
  8
M0
  6
DASHDOT
100
AcDbLine
 10
257.669263
 20
607.54511
 11
233.669263
 21
607.54511
  0
LINE
  5
55F
100
AcDbEntity
  8
M0
  6
DASHDOT
100
AcDbLine
 10
245.669263
 20
619.54511
 11
245.669263
 21
595.54511
  0
LINE
  5
560
100
AcDbEntity
  8
M0
  6
DASHDOT
100
AcDbLine
 10
149.669279
 20
607.54511
 11
173.669279
 21
607.54511
  0
LINE
  5
561
100
AcDbEntity
  8
M0
  6
DASHDOT
100
AcDbLine
 10
161.669279
 20
619.54511
 11
161.669279
 21
595.54511
  0
LINE
  5
562
100
AcDbEntity
  8
M0
  6
DASHDOT
100
AcDbLine
 10
161.669279
 20
600.707555
 11
161.668653
 21
613.437078
  0
LINE
  5
563
100
AcDbEntity
  8
M0
100
AcDbLine
 10
163.069181
 20
604.445012
 11
164.889249
 21
604.445012
  0
LINE
  5
564
100
AcDbEntity
  8
M0
100
AcDbLine
 10
160.269132
 20
604.445012
 11
158.449064
 21
604.445012
  0
LINE
  5
565
100
AcDbEntity
  8
M0
100
AcDbLine
 10
159.188322
 20
603.245061
 11
164.149992
 21
603.245061
  0
LINE
  5
566
100
AcDbEntity
  8
M0
100
AcDbLine
 10
163.069181
 20
604.445012
 11
163.069181
 21
604.89179
  0
LINE
  5
567
100
AcDbEntity
  8
M0
100
AcDbLine
 10
160.269132
 20
604.445012
 11
160.269132
 21
604.89179
  0
ARC
  5
568
100
AcDbEntity
  8
M0
100
AcDbCircle
 10
159.188322
 20
603.745061
 40
0.5
100
AcDbArc
 50
197.116613
 51
270.0
  0
ARC
  5
569
100
AcDbEntity
  8
M0
100
AcDbCircle
 10
164.149992
 20
603.745061
 40
0.5
100
AcDbArc
 50
270.0
 51
342.876703
  0
LINE
  5
56A
100
AcDbEntity
  8
M0
  6
DASHDOT
 62
     6
100
AcDbLine
 10
155.345441
 20
607.54511
 11
167.781232
 21
607.54511
  0
CIRCLE
  5
56B
100
AcDbEntity
  8
M0
100
AcDbCircle
 10
161.669279
 20
607.54511
 40
3.0
  0
LINE
  5
56C
100
AcDbEntity
  8
M0
100
AcDbLine
 10
158.710294
 20
611.492376
 11
157.894132
 21
608.845159
  0
LINE
  5
56D
100
AcDbEntity
  8
M0
100
AcDbLine
 10
158.710294
 20
603.597844
 11
157.894132
 21
606.245061
  0
LINE
  5
56E
100
AcDbEntity
  8
M0
100
AcDbLine
 10
164.627775
 20
611.492376
 11
165.444181
 21
608.845159
  0
LINE
  5
56F
100
AcDbEntity
  8
M0
100
AcDbLine
 10
164.627775
 20
603.597844
 11
165.444181
 21
606.245061
  0
LINE
  5
570
100
AcDbEntity
  8
M0
100
AcDbLine
 10
163.069181
 20
610.644964
 11
164.889249
 21
610.644964
  0
LINE
  5
571
100
AcDbEntity
  8
M0
100
AcDbLine
 10
163.990812
 20
609.445012
 11
165.259122
 21
609.445012
  0
LINE
  5
572
100
AcDbEntity
  8
M0
100
AcDbLine
 10
163.990812
 20
605.644964
 11
165.259122
 21
605.644964
  0
LINE
  5
573
100
AcDbEntity
  8
M0
100
AcDbLine
 10
160.269132
 20
610.644964
 11
158.449064
 21
610.644964
  0
LINE
  5
574
100
AcDbEntity
  8
M0
100
AcDbLine
 10
159.347501
 20
609.445012
 11
158.079191
 21
609.445012
  0
LINE
  5
575
100
AcDbEntity
  8
M0
100
AcDbLine
 10
159.347501
 20
605.644964
 11
158.079191
 21
605.644964
  0
LINE
  5
576
100
AcDbEntity
  8
M0
100
AcDbLine
 10
165.444181
 20
606.245061
 11
165.444181
 21
608.845159
  0
LINE
  5
577
100
AcDbEntity
  8
M0
100
AcDbLine
 10
164.149992
 20
611.845159
 11
159.188322
 21
611.844915
  0
LINE
  5
578
100
AcDbEntity
  8
M0
100
AcDbLine
 10
157.894132
 20
608.845159
 11
157.894132
 21
606.245061
  0
LINE
  5
579
100
AcDbEntity
  8
M0
100
AcDbLine
 10
163.069181
 20
610.19843
 11
163.069181
 21
610.644964
  0
LINE
  5
57A
100
AcDbEntity
  8
M0
100
AcDbLine
 10
160.269132
 20
610.19843
 11
160.269132
 21
610.644964
  0
LINE
  5
57B
100
AcDbEntity
  8
M0
100
AcDbLine
 10
163.259855
 20
605.95429
 11
160.078214
 21
609.13593
  0
LINE
  5
57C
100
AcDbEntity
  8
M0
100
AcDbLine
 10
162.02255
 20
608.959173
 11
160.254972
 21
607.191594
  0
LINE
  5
57D
100
AcDbEntity
  8
M0
100
AcDbLine
 10
163.083097
 20
607.898626
 11
161.315519
 21
606.131048
  0
ARC
  5
57E
100
AcDbEntity
  8
M0
100
AcDbCircle
 10
159.188322
 20
611.344915
 40
0.5
100
AcDbArc
 50
89.998251
 51
162.854591
  0
ARC
  5
57F
100
AcDbEntity
  8
M0
100
AcDbCircle
 10
164.149992
 20
611.344915
 40
0.5
100
AcDbArc
 50
17.152607
 51
89.998251
  0
LINE
  5
580
100
AcDbEntity
  8
M0
  6
DASHDOT
100
AcDbLine
 10
245.669263
 20
684.70754
 11
245.668638
 21
697.437063
  0
LINE
  5
581
100
AcDbEntity
  8
M0
100
AcDbLine
 10
247.069166
 20
688.444997
 11
248.889234
 21
688.444997
  0
LINE
  5
582
100
AcDbEntity
  8
M0
100
AcDbLine
 10
244.269117
 20
688.444997
 11
242.449049
 21
688.444997
  0
LINE
  5
583
100
AcDbEntity
  8
M0
100
AcDbLine
 10
243.188306
 20
687.245046
 11
248.149976
 21
687.245046
  0
LINE
  5
584
100
AcDbEntity
  8
M0
100
AcDbLine
 10
247.069166
 20
688.444997
 11
247.069166
 21
688.891775
  0
LINE
  5
585
100
AcDbEntity
  8
M0
100
AcDbLine
 10
244.269117
 20
688.444997
 11
244.269117
 21
688.891775
  0
ARC
  5
586
100
AcDbEntity
  8
M0
100
AcDbCircle
 10
243.188306
 20
687.745046
 40
0.5
100
AcDbArc
 50
197.11777
 51
269.998251
  0
ARC
  5
587
100
AcDbEntity
  8
M0
100
AcDbCircle
 10
248.149976
 20
687.745046
 40
0.5
100
AcDbArc
 50
269.998251
 51
342.874517
  0
LINE
  5
588
100
AcDbEntity
  8
M0
  6
DASHDOT
 62
     6
100
AcDbLine
 10
239.345426
 20
691.545095
 11
251.781217
 21
691.545095
  0
CIRCLE
  5
589
100
AcDbEntity
  8
M0
100
AcDbCircle
 10
245.669263
 20
691.545095
 40
3.0
  0
LINE
  5
58A
100
AcDbEntity
  8
M0
100
AcDbLine
 10
242.710279
 20
695.49236
 11
241.894117
 21
692.845144
  0
LINE
  5
58B
100
AcDbEntity
  8
M0
100
AcDbLine
 10
242.710279
 20
687.597829
 11
241.894117
 21
690.245046
  0
LINE
  5
58C
100
AcDbEntity
  8
M0
100
AcDbLine
 10
248.62776
 20
695.49236
 11
249.444166
 21
692.845144
  0
LINE
  5
58D
100
AcDbEntity
  8
M0
100
AcDbLine
 10
248.62776
 20
687.597829
 11
249.444166
 21
690.245046
  0
LINE
  5
58E
100
AcDbEntity
  8
M0
100
AcDbLine
 10
247.069166
 20
694.644948
 11
248.889234
 21
694.644948
  0
LINE
  5
58F
100
AcDbEntity
  8
M0
100
AcDbLine
 10
247.990797
 20
693.444997
 11
249.259107
 21
693.444997
  0
LINE
  5
590
100
AcDbEntity
  8
M0
100
AcDbLine
 10
247.990797
 20
689.644948
 11
249.259107
 21
689.644948
  0
LINE
  5
591
100
AcDbEntity
  8
M0
100
AcDbLine
 10
244.269117
 20
694.644948
 11
242.449049
 21
694.644948
  0
LINE
  5
592
100
AcDbEntity
  8
M0
100
AcDbLine
 10
243.347486
 20
693.444997
 11
242.079176
 21
693.444997
  0
LINE
  5
593
100
AcDbEntity
  8
M0
100
AcDbLine
 10
243.347486
 20
689.644948
 11
242.079176
 21
689.644948
  0
LINE
  5
594
100
AcDbEntity
  8
M0
100
AcDbLine
 10
249.444166
 20
690.245046
 11
249.444166
 21
692.845144
  0
LINE
  5
595
100
AcDbEntity
  8
M0
100
AcDbLine
 10
248.149976
 20
695.845144
 11
243.188306
 21
695.8449
  0
LINE
  5
596
100
AcDbEntity
  8
M0
100
AcDbLine
 10
241.894117
 20
692.845144
 11
241.894117
 21
690.245046
  0
LINE
  5
597
100
AcDbEntity
  8
M0
100
AcDbLine
 10
247.069166
 20
694.198415
 11
247.069166
 21
694.644948
  0
LINE
  5
598
100
AcDbEntity
  8
M0
100
AcDbLine
 10
244.269117
 20
694.198415
 11
244.269117
 21
694.644948
  0
LINE
  5
599
100
AcDbEntity
  8
M0
100
AcDbLine
 10
247.25984
 20
689.954275
 11
244.078199
 21
693.135915
  0
LINE
  5
59A
100
AcDbEntity
  8
M0
100
AcDbLine
 10
246.022535
 20
692.959157
 11
244.254957
 21
691.191579
  0
LINE
  5
59B
100
AcDbEntity
  8
M0
100
AcDbLine
 10
247.083082
 20
691.89861
 11
245.315504
 21
690.131032
  0
ARC
  5
59C
100
AcDbEntity
  8
M0
100
AcDbCircle
 10
243.188306
 20
695.3449
 40
0.5
100
AcDbArc
 50
90.0
 51
162.856778
  0
ARC
  5
59D
100
AcDbEntity
  8
M0
100
AcDbCircle
 10
248.149976
 20
695.3449
 40
0.5
100
AcDbArc
 50
17.151452
 51
90.0
  0
LINE
  5
59E
100
AcDbEntity
  8
M0
100
AcDbLine
 10
203.669271
 20
597.050451
 11
210.17072
 21
593.297857
  0
LINE
  5
59F
100
AcDbEntity
  8
M0
100
AcDbLine
 10
210.17072
 20
593.297857
 11
210.17072
 21
585.792211
  0
LINE
  5
5A0
100
AcDbEntity
  8
M0
100
AcDbLine
 10
210.17072
 20
585.792211
 11
203.669271
 21
582.039464
  0
LINE
  5
5A1
100
AcDbEntity
  8
M0
100
AcDbLine
 10
203.669271
 20
582.039464
 11
197.170248
 21
585.792211
  0
LINE
  5
5A2
100
AcDbEntity
  8
M0
100
AcDbLine
 10
197.170248
 20
585.792211
 11
197.170248
 21
593.297857
  0
LINE
  5
5A3
100
AcDbEntity
  8
M0
100
AcDbLine
 10
197.170248
 20
593.297857
 11
203.669271
 21
597.050451
  0
CIRCLE
  5
5A4
100
AcDbEntity
  8
M0
100
AcDbCircle
 10
203.669271
 20
589.54511
 40
4.0
  0
LINE
  5
5A5
100
AcDbEntity
  8
M0
  6
DASHDOT
100
AcDbLine
 10
213.821599
 20
589.54511
 11
193.516943
 21
589.54511
  0
LINE
  5
5A6
100
AcDbEntity
  8
M0
  6
DASHDOT
100
AcDbLine
 10
203.669256
 20
599.697439
 11
203.669271
 21
579.392782
  0
LINE
  5
5A7
100
AcDbEntity
  8
M0
100
AcDbLine
 10
236.669263
 20
597.050451
 11
243.170713
 21
593.297857
  0
LINE
  5
5A8
100
AcDbEntity
  8
M0
100
AcDbLine
 10
243.170713
 20
593.297857
 11
243.170713
 21
585.792211
  0
LINE
  5
5A9
100
AcDbEntity
  8
M0
100
AcDbLine
 10
243.170713
 20
585.792211
 11
236.669263
 21
582.039464
  0
LINE
  5
5AA
100
AcDbEntity
  8
M0
100
AcDbLine
 10
236.669263
 20
582.039464
 11
230.17024
 21
585.792211
  0
LINE
  5
5AB
100
AcDbEntity
  8
M0
100
AcDbLine
 10
230.17024
 20
585.792211
 11
230.17024
 21
593.297857
  0
LINE
  5
5AC
100
AcDbEntity
  8
M0
100
AcDbLine
 10
230.17024
 20
593.297857
 11
236.669263
 21
597.050451
  0
CIRCLE
  5
5AD
100
AcDbEntity
  8
M0
100
AcDbCircle
 10
236.669263
 20
589.54511
 40
4.0
  0
LINE
  5
5AE
100
AcDbEntity
  8
M0
  6
DASHDOT
100
AcDbLine
 10
246.821592
 20
589.54511
 11
226.516935
 21
589.54511
  0
LINE
  5
5AF
100
AcDbEntity
  8
M0
  6
DASHDOT
100
AcDbLine
 10
236.669248
 20
599.697439
 11
236.669263
 21
579.392782
  0
LINE
  5
5B0
100
AcDbEntity
  8
M0
100
AcDbLine
 10
170.669233
 20
597.05042
 11
177.170682
 21
593.297826
  0
LINE
  5
5B1
100
AcDbEntity
  8
M0
100
AcDbLine
 10
177.170682
 20
593.297826
 11
177.170682
 21
585.79218
  0
LINE
  5
5B2
100
AcDbEntity
  8
M0
100
AcDbLine
 10
177.170682
 20
585.79218
 11
170.669233
 21
582.039434
  0
LINE
  5
5B3
100
AcDbEntity
  8
M0
100
AcDbLine
 10
170.669233
 20
582.039434
 11
164.170209
 21
585.79218
  0
LINE
  5
5B4
100
AcDbEntity
  8
M0
100
AcDbLine
 10
164.170209
 20
585.79218
 11
164.170209
 21
593.297826
  0
LINE
  5
5B5
100
AcDbEntity
  8
M0
100
AcDbLine
 10
164.170209
 20
593.297826
 11
170.669233
 21
597.05042
  0
CIRCLE
  5
5B6
100
AcDbEntity
  8
M0
100
AcDbCircle
 10
170.669233
 20
589.54508
 40
4.0
  0
LINE
  5
5B7
100
AcDbEntity
  8
M0
  6
DASHDOT
100
AcDbLine
 10
180.821561
 20
589.54508
 11
160.516904
 21
589.54508
  0
LINE
  5
5B8
100
AcDbEntity
  8
M0
  6
DASHDOT
100
AcDbLine
 10
170.669218
 20
599.697408
 11
170.669233
 21
579.392751
  0
LINE
  5
5B9
100
AcDbEntity
  8
M0
100
AcDbLine
 10
203.669271
 20
717.050435
 11
210.170721
 21
713.297841
  0
LINE
  5
5BA
100
AcDbEntity
  8
M0
100
AcDbLine
 10
210.170721
 20
713.297841
 11
210.170721
 21
705.792196
  0
LINE
  5
5BB
100
AcDbEntity
  8
M0
100
AcDbLine
 10
210.170721
 20
705.792196
 11
203.669271
 21
702.039449
  0
LINE
  5
5BC
100
AcDbEntity
  8
M0
100
AcDbLine
 10
203.669271
 20
702.039449
 11
197.170248
 21
705.792196
  0
LINE
  5
5BD
100
AcDbEntity
  8
M0
100
AcDbLine
 10
197.170248
 20
705.792196
 11
197.170248
 21
713.297841
  0
LINE
  5
5BE
100
AcDbEntity
  8
M0
100
AcDbLine
 10
197.170248
 20
713.297841
 11
203.669271
 21
717.050435
  0
CIRCLE
  5
5BF
100
AcDbEntity
  8
M0
100
AcDbCircle
 10
203.669271
 20
709.545095
 40
4.0
  0
LINE
  5
5C0
100
AcDbEntity
  8
M0
  6
DASHDOT
100
AcDbLine
 10
213.8216
 20
709.545095
 11
193.516943
 21
709.545095
  0
LINE
  5
5C1
100
AcDbEntity
  8
M0
  6
DASHDOT
100
AcDbLine
 10
203.669256
 20
719.697423
 11
203.669271
 21
699.392766
  0
LINE
  5
5C2
100
AcDbEntity
  8
M0
100
AcDbLine
 10
236.669263
 20
717.050435
 11
243.170713
 21
713.297841
  0
LINE
  5
5C3
100
AcDbEntity
  8
M0
100
AcDbLine
 10
243.170713
 20
713.297841
 11
243.170713
 21
705.792196
  0
LINE
  5
5C4
100
AcDbEntity
  8
M0
100
AcDbLine
 10
243.170713
 20
705.792196
 11
236.669263
 21
702.039449
  0
LINE
  5
5C5
100
AcDbEntity
  8
M0
100
AcDbLine
 10
236.669263
 20
702.039449
 11
230.17024
 21
705.792196
  0
LINE
  5
5C6
100
AcDbEntity
  8
M0
100
AcDbLine
 10
230.17024
 20
705.792196
 11
230.17024
 21
713.297841
  0
LINE
  5
5C7
100
AcDbEntity
  8
M0
100
AcDbLine
 10
230.17024
 20
713.297841
 11
236.669263
 21
717.050435
  0
CIRCLE
  5
5C8
100
AcDbEntity
  8
M0
100
AcDbCircle
 10
236.669263
 20
709.545095
 40
4.0
  0
LINE
  5
5C9
100
AcDbEntity
  8
M0
  6
DASHDOT
100
AcDbLine
 10
246.821592
 20
709.545095
 11
226.516935
 21
709.545095
  0
LINE
  5
5CA
100
AcDbEntity
  8
M0
  6
DASHDOT
100
AcDbLine
 10
236.669248
 20
719.697423
 11
236.669263
 21
699.392766
  0
LINE
  5
5CB
100
AcDbEntity
  8
M0
100
AcDbLine
 10
170.669233
 20
717.050481
 11
177.170682
 21
713.297887
  0
LINE
  5
5CC
100
AcDbEntity
  8
M0
100
AcDbLine
 10
177.170682
 20
713.297887
 11
177.170682
 21
705.792241
  0
LINE
  5
5CD
100
AcDbEntity
  8
M0
100
AcDbLine
 10
177.170682
 20
705.792241
 11
170.669233
 21
702.039495
  0
LINE
  5
5CE
100
AcDbEntity
  8
M0
100
AcDbLine
 10
170.669233
 20
702.039495
 11
164.170209
 21
705.792241
  0
LINE
  5
5CF
100
AcDbEntity
  8
M0
100
AcDbLine
 10
164.170209
 20
705.792241
 11
164.170209
 21
713.297887
  0
LINE
  5
5D0
100
AcDbEntity
  8
M0
100
AcDbLine
 10
164.170209
 20
713.297887
 11
170.669233
 21
717.050481
  0
CIRCLE
  5
5D1
100
AcDbEntity
  8
M0
100
AcDbCircle
 10
170.669233
 20
709.545141
 40
4.0
  0
LINE
  5
5D2
100
AcDbEntity
  8
M0
  6
DASHDOT
100
AcDbLine
 10
180.821561
 20
709.545141
 11
160.516904
 21
709.545141
  0
LINE
  5
5D3
100
AcDbEntity
  8
M0
  6
DASHDOT
100
AcDbLine
 10
170.669218
 20
719.697469
 11
170.669233
 21
699.392812
  0
LINE
  5
5D4
100
AcDbEntity
  8
M0
  6
DASHDOT
100
AcDbLine
 10
145.669263
 20
610.54511
 11
261.669263
 21
610.54511
  0
LINE
  5
5D5
100
AcDbEntity
  8
M0
  6
DASHDOT
100
AcDbLine
 10
203.669263
 20
468.04511
 11
203.669263
 21
753.04511
  0
LINE
  5
5D6
100
AcDbEntity
  8
M0
100
AcDbLine
 10
251.669263
 20
738.04511
 11
246.669263
 21
743.04511
  0
LINE
  5
5D7
100
AcDbEntity
  8
M0
100
AcDbLine
 10
246.669263
 20
743.04511
 11
160.669263
 21
743.04511
  0
LINE
  5
5D8
100
AcDbEntity
  8
M0
100
AcDbLine
 10
160.669263
 20
743.04511
 11
155.669263
 21
738.04511
  0
LINE
  5
5D9
100
AcDbEntity
  8
M0
100
AcDbLine
 10
155.669263
 20
483.04511
 11
160.669263
 21
478.04511
  0
LINE
  5
5DA
100
AcDbEntity
  8
M0
100
AcDbLine
 10
160.669263
 20
478.04511
 11
246.669263
 21
478.04511
  0
LINE
  5
5DB
100
AcDbEntity
  8
M0
100
AcDbLine
 10
246.669263
 20
478.04511
 11
251.669263
 21
483.04511
  0
LINE
  5
5DC
100
AcDbEntity
  8
M0
  6
DASHDOT
100
AcDbLine
 10
187.169263
 20
726.54511
 11
220.169263
 21
726.54511
  0
ARC
  5
5DD
100
AcDbEntity
  8
M0
100
AcDbCircle
 10
203.669263
 20
726.54511
 40
6.5
100
AcDbArc
 50
117.486412
 51
422.513496
  0
CIRCLE
  5
5DE
100
AcDbEntity
  8
M0
100
AcDbCircle
 10
168.669263
 20
725.54511
 40
3.0
  0
LINE
  5
5DF
100
AcDbEntity
  8
M0
  6
DASHDOT
100
AcDbLine
 10
155.669263
 20
725.54511
 11
181.669263
 21
725.54511
  0
LINE
  5
5E0
100
AcDbEntity
  8
M0
  6
DASHDOT
100
AcDbLine
 10
168.669263
 20
712.54511
 11
168.669263
 21
738.54511
  0
LINE
  5
5E1
100
AcDbEntity
  8
M0
  6
DASHDOT
100
AcDbLine
 10
190.669263
 20
735.54511
 11
216.669263
 21
735.54511
  0
LINE
  5
5E2
100
AcDbEntity
  8
M0
100
AcDbLine
 10
200.669263
 20
735.54511
 11
200.669263
 21
732.311391
  0
LINE
  5
5E3
100
AcDbEntity
  8
M0
100
AcDbLine
 10
206.669263
 20
735.54511
 11
206.669263
 21
732.311391
  0
ARC
  5
5E4
100
AcDbEntity
  8
M0
100
AcDbCircle
 10
203.669263
 20
735.54511
 40
3.0
100
AcDbArc
 50
0.0
 51
180.0
  0
CIRCLE
  5
5E5
100
AcDbEntity
  8
M0
100
AcDbCircle
 10
238.669263
 20
725.54511
 40
3.0
  0
LINE
  5
5E6
100
AcDbEntity
  8
M0
  6
DASHDOT
100
AcDbLine
 10
251.669263
 20
725.54511
 11
225.669263
 21
725.54511
  0
LINE
  5
5E7
100
AcDbEntity
  8
M0
  6
DASHDOT
100
AcDbLine
 10
238.669263
 20
712.54511
 11
238.669263
 21
738.54511
  0
CIRCLE
  5
5E8
100
AcDbEntity
  8
M0
100
AcDbCircle
 10
244.669263
 20
570.04511
 40
2.0
  0
LINE
  5
5E9
100
AcDbEntity
  8
M0
  6
DASHDOT
100
AcDbLine
 10
232.669263
 20
570.04511
 11
256.669263
 21
570.04511
  0
LINE
  5
5EA
100
AcDbEntity
  8
M0
  6
DASHDOT
100
AcDbLine
 10
244.669263
 20
558.04511
 11
244.669263
 21
582.04511
  0
CIRCLE
  5
5EB
100
AcDbEntity
  8
M0
100
AcDbCircle
 10
238.669263
 20
510.54511
 40
3.0
  0
CIRCLE
  5
5EC
100
AcDbEntity
  8
M0
100
AcDbCircle
 10
243.669263
 20
485.54511
 40
3.0
  0
LINE
  5
5ED
100
AcDbEntity
  8
M0
100
AcDbLine
 10
155.669263
 20
714.54511
 11
160.669233
 21
714.54511
  0
LINE
  5
5EE
100
AcDbEntity
  8
M0
100
AcDbLine
 10
180.669233
 20
714.54511
 11
193.669263
 21
714.54511
  0
LINE
  5
5EF
100
AcDbEntity
  8
M0
100
AcDbLine
 10
213.669263
 20
714.54511
 11
226.669248
 21
714.54511
  0
LINE
  5
5F0
100
AcDbEntity
  8
M0
100
AcDbLine
 10
246.669248
 20
714.54511
 11
251.669263
 21
714.54511
  0
LINE
  5
5F1
100
AcDbEntity
  8
M0
100
AcDbLine
 10
155.669263
 20
738.04511
 11
155.669263
 21
709.175161
  0
LINE
  5
5F2
100
AcDbEntity
  8
M0
100
AcDbLine
 10
155.669263
 20
589.54508
 11
155.669263
 21
483.04511
  0
LINE
  5
5F3
100
AcDbEntity
  8
M0
100
AcDbLine
 10
251.669263
 20
709.175161
 11
251.669263
 21
738.04511
  0
LINE
  5
5F4
100
AcDbEntity
  8
M0
100
AcDbLine
 10
155.669263
 20
521.54511
 11
163.16551
 21
521.54511
  0
LINE
  5
5F5
100
AcDbEntity
  8
M0
100
AcDbLine
 10
178.16551
 20
521.54511
 11
181.669492
 21
521.54511
  0
LINE
  5
5F6
100
AcDbEntity
  8
M0
100
AcDbLine
 10
185.669492
 20
521.54511
 11
189.165253
 21
521.54511
  0
LINE
  5
5F7
100
AcDbEntity
  8
M0
100
AcDbLine
 10
204.165253
 20
521.54511
 11
207.669479
 21
521.54511
  0
LINE
  5
5F8
100
AcDbEntity
  8
M0
100
AcDbLine
 10
211.669479
 20
521.54511
 11
215.165252
 21
521.54511
  0
LINE
  5
5F9
100
AcDbEntity
  8
M0
100
AcDbLine
 10
230.16525
 20
521.54511
 11
251.669263
 21
521.54511
  0
ARC
  5
5FA
100
AcDbEntity
  8
M0
100
AcDbCircle
 10
183.669263
 20
510.54511
 40
3.0
100
AcDbArc
 50
170.360413
 51
369.639251
  0
ARC
  5
5FB
100
AcDbEntity
  8
M0
100
AcDbCircle
 10
163.669263
 20
485.54511
 40
3.0
100
AcDbArc
 50
138.148213
 51
401.851181
  0
ARC
  5
5FC
100
AcDbEntity
  8
M0
100
AcDbCircle
 10
188.669263
 20
485.54511
 40
3.0
100
AcDbArc
 50
131.912677
 51
401.845046
  0
LINE
  5
5FD
100
AcDbEntity
  8
M0
  6
DASHDOT
100
AcDbLine
 10
238.669263
 20
504.340642
 11
238.669263
 21
516.792623
  0
LINE
  5
5FE
100
AcDbEntity
  8
M0
  6
DASHDOT
100
AcDbLine
 10
232.549497
 20
510.54511
 11
246.232984
 21
510.54511
  0
LINE
  5
5FF
100
AcDbEntity
  8
M0
  6
DASHDOT
100
AcDbLine
 10
243.669263
 20
479.984044
 11
243.669263
 21
491.47817
  0
LINE
  5
600
100
AcDbEntity
  8
M0
  6
DASHDOT
100
AcDbLine
 10
237.475553
 20
485.54511
 11
249.106519
 21
485.54511
  0
LINE
  5
601
100
AcDbEntity
  8
M0
100
AcDbLine
 10
251.669263
 20
483.04511
 11
251.669263
 21
527.745321
  0
LINE
  5
602
100
AcDbEntity
  8
M0
100
AcDbLine
 10
251.669263
 20
575.045339
 11
251.669263
 21
589.915059
  0
LINE
  5
603
100
AcDbEntity
  8
M0
 62
     7
100
AcDbLine
 10
155.669523
 20
566.945302
 11
155.669492
 21
528.5454
  0
LINE
  5
604
100
AcDbEntity
  8
M0
 62
     7
100
AcDbLine
 10
181.669523
 20
567.545385
 11
181.669508
 21
545.945287
  0
LINE
  5
605
100
AcDbEntity
  8
M0
 62
     7
100
AcDbLine
 10
159.669523
 20
565.945302
 11
159.669492
 21
531.445302
  0
LINE
  5
606
100
AcDbEntity
  8
M0
 62
     7
100
AcDbLine
 10
185.669523
 20
567.545141
 11
185.669508
 21
545.945287
  0
LINE
  5
607
100
AcDbEntity
  8
M0
 62
     7
100
AcDbLine
 10
207.669509
 20
567.54537
 11
207.669494
 21
545.945272
  0
LINE
  5
608
100
AcDbEntity
  8
M0
 62
     7
100
AcDbLine
 10
211.669509
 20
567.545125
 11
211.669494
 21
545.945272
  0
LINE
  5
609
100
AcDbEntity
  8
M0
 62
     7
100
AcDbLine
 10
231.669492
 20
545.945257
 11
206.669494
 21
545.945272
  0
LINE
  5
60A
100
AcDbEntity
  8
M0
 62
     7
100
AcDbLine
 10
230.169492
 20
542.945257
 11
206.669492
 21
542.945272
  0
LINE
  5
60B
100
AcDbEntity
  8
M0
 62
     7
100
AcDbLine
 10
232.669477
 20
540.445257
 11
212.669491
 21
540.445272
  0
LINE
  5
60C
100
AcDbEntity
  8
M0
 62
     7
100
AcDbLine
 10
182.669492
 20
519.945531
 11
184.669492
 21
519.945531
  0
LINE
  5
60D
100
AcDbEntity
  8
M0
 62
     7
100
AcDbLine
 10
208.669478
 20
519.94576
 11
210.669478
 21
519.94576
  0
LINE
  5
60E
100
AcDbEntity
  8
M0
 62
     7
100
AcDbLine
 10
180.669492
 20
540.445287
 11
160.669492
 21
540.445302
  0
LINE
  5
60F
100
AcDbEntity
  8
M0
 62
     7
100
AcDbLine
 10
180.669508
 20
542.945287
 11
160.669508
 21
542.945302
  0
LINE
  5
610
100
AcDbEntity
  8
M0
 62
     7
100
AcDbLine
 10
180.669508
 20
545.945287
 11
160.669508
 21
545.945302
  0
LINE
  5
611
100
AcDbEntity
  8
M0
 62
     7
100
AcDbLine
 10
206.669491
 20
540.445272
 11
186.669492
 21
540.445287
  0
LINE
  5
612
100
AcDbEntity
  8
M0
 62
     7
100
AcDbLine
 10
206.669492
 20
542.945272
 11
180.669508
 21
542.945287
  0
LINE
  5
613
100
AcDbEntity
  8
M0
 62
     7
100
AcDbLine
 10
206.669494
 20
545.945272
 11
180.669508
 21
545.945287
  0
ARC
  5
614
100
AcDbEntity
  8
M0
 62
     7
100
AcDbCircle
 10
180.669492
 20
539.445287
 40
1.0
100
AcDbArc
 50
0.0
 51
89.999126
  0
ARC
  5
615
100
AcDbEntity
  8
M0
 62
     7
100
AcDbCircle
 10
180.669508
 20
541.945287
 40
1.0
100
AcDbArc
 50
0.0
 51
89.999126
  0
ARC
  5
616
100
AcDbEntity
  8
M0
 62
     7
100
AcDbCircle
 10
206.66949
 20
539.445272
 40
1.0
100
AcDbArc
 50
0.0
 51
90.0
  0
ARC
  5
617
100
AcDbEntity
  8
M0
 62
     7
100
AcDbCircle
 10
206.669492
 20
541.945272
 40
1.0
100
AcDbArc
 50
0.0
 51
90.0
  0
ARC
  5
618
100
AcDbEntity
  8
M0
 62
     7
100
AcDbCircle
 10
160.669508
 20
546.945302
 40
1.0
100
AcDbArc
 50
179.999126
 51
270.0
  0
ARC
  5
619
100
AcDbEntity
  8
M0
 62
     7
100
AcDbCircle
 10
186.669508
 20
546.945287
 40
1.0
100
AcDbArc
 50
179.999126
 51
270.0
  0
ARC
  5
61A
100
AcDbEntity
  8
M0
 62
     7
100
AcDbCircle
 10
160.669492
 20
539.445302
 40
1.0
100
AcDbArc
 50
89.999126
 51
179.999126
  0
ARC
  5
61B
100
AcDbEntity
  8
M0
 62
     7
100
AcDbCircle
 10
160.669508
 20
541.945302
 40
1.0
100
AcDbArc
 50
89.999126
 51
179.999126
  0
ARC
  5
61C
100
AcDbEntity
  8
M0
 62
     7
100
AcDbCircle
 10
180.669508
 20
546.945287
 40
1.0
100
AcDbArc
 50
270.0
 51
360.0
  0
ARC
  5
61D
100
AcDbEntity
  8
M0
 62
     7
100
AcDbCircle
 10
186.669492
 20
539.445287
 40
1.0
100
AcDbArc
 50
89.999126
 51
179.999126
  0
ARC
  5
61E
100
AcDbEntity
  8
M0
 62
     7
100
AcDbCircle
 10
186.669508
 20
541.945287
 40
1.0
100
AcDbArc
 50
89.999126
 51
179.999126
  0
ARC
  5
61F
100
AcDbEntity
  8
M0
 62
     7
100
AcDbCircle
 10
206.669495
 20
546.945272
 40
1.0
100
AcDbArc
 50
270.0
 51
360.0
  0
LINE
  5
620
100
AcDbEntity
  8
M0
 62
     7
100
AcDbLine
 10
232.669492
 20
564.54511
 11
232.669492
 21
546.945257
  0
ARC
  5
621
100
AcDbEntity
  8
M0
 62
     7
100
AcDbCircle
 10
212.66949
 20
539.445272
 40
1.0
100
AcDbArc
 50
90.0
 51
179.999126
  0
ARC
  5
622
100
AcDbEntity
  8
M0
 62
     7
100
AcDbCircle
 10
212.669492
 20
541.945272
 40
1.0
100
AcDbArc
 50
90.0
 51
179.999126
  0
ARC
  5
623
100
AcDbEntity
  8
M0
 62
     7
100
AcDbCircle
 10
231.669492
 20
546.945257
 40
1.0
100
AcDbArc
 50
269.999126
 51
360.0
  0
ARC
  5
624
100
AcDbEntity
  8
M0
 62
     7
100
AcDbCircle
 10
212.669495
 20
546.945272
 40
1.0
100
AcDbArc
 50
179.999126
 51
270.0
  0
ARC
  5
625
100
AcDbEntity
  8
M0
 62
     7
100
AcDbCircle
 10
182.669492
 20
520.945775
 40
1.0
100
AcDbArc
 50
179.999126
 51
270.0
  0
ARC
  5
626
100
AcDbEntity
  8
M0
 62
     7
100
AcDbCircle
 10
184.669492
 20
520.945775
 40
1.0
100
AcDbArc
 50
270.0
 51
360.0
  0
ARC
  5
627
100
AcDbEntity
  8
M0
 62
     7
100
AcDbCircle
 10
208.669479
 20
520.946004
 40
1.0
100
AcDbArc
 50
179.999126
 51
270.0
  0
ARC
  5
628
100
AcDbEntity
  8
M0
 62
     7
100
AcDbCircle
 10
210.669479
 20
520.946004
 40
1.0
100
AcDbArc
 50
270.0
 51
360.0
  0
LINE
  5
629
100
AcDbEntity
  8
M0
 62
     7
100
AcDbLine
 10
162.169508
 20
564.545156
 11
162.169508
 21
546.945302
  0
LINE
  5
62A
100
AcDbEntity
  8
M0
 62
     7
100
AcDbLine
 10
179.169508
 20
564.545141
 11
179.169508
 21
546.945287
  0
LINE
  5
62B
100
AcDbEntity
  8
M0
 62
     7
100
AcDbLine
 10
188.169508
 20
564.545141
 11
188.169496
 21
546.945287
  0
LINE
  5
62C
100
AcDbEntity
  8
M0
 62
     7
100
AcDbLine
 10
205.169507
 20
564.545125
 11
205.169495
 21
546.945272
  0
LINE
  5
62D
100
AcDbEntity
  8
M0
 62
     7
100
AcDbLine
 10
214.169507
 20
564.545125
 11
214.169495
 21
546.945272
  0
LINE
  5
62E
100
AcDbEntity
  8
M0
 62
     7
100
AcDbLine
 10
181.669492
 20
522.945287
 11
179.169492
 21
525.445287
  0
LINE
  5
62F
100
AcDbEntity
  8
M0
 62
     7
100
AcDbLine
 10
207.66948
 20
522.945272
 11
205.169482
 21
525.445272
  0
LINE
  5
630
100
AcDbEntity
  8
M0
 62
     7
100
AcDbLine
 10
207.669507
 20
564.545125
 11
205.169505
 21
562.045125
  0
LINE
  5
631
100
AcDbEntity
  8
M0
 62
     7
100
AcDbLine
 10
185.669492
 20
522.945287
 11
188.169483
 21
525.445287
  0
LINE
  5
632
100
AcDbEntity
  8
M0
 62
     7
100
AcDbLine
 10
181.669508
 20
564.545141
 11
179.169508
 21
562.045141
  0
LINE
  5
633
100
AcDbEntity
  8
M0
 62
     7
100
AcDbLine
 10
211.66948
 20
522.945272
 11
214.169482
 21
525.445272
  0
LINE
  5
634
100
AcDbEntity
  8
M0
 62
     7
100
AcDbLine
 10
211.669507
 20
564.545125
 11
214.169505
 21
562.045125
  0
LINE
  5
635
100
AcDbEntity
  8
M0
 62
     7
100
AcDbLine
 10
185.669508
 20
564.545141
 11
188.169506
 21
562.045141
  0
LINE
  5
636
100
AcDbEntity
  8
M0
 62
     7
100
AcDbLine
 10
159.669508
 20
564.545156
 11
162.169508
 21
562.045156
  0
LINE
  5
637
100
AcDbEntity
  8
M0
 62
     7
100
AcDbLine
 10
258.669492
 20
565.445241
 11
258.52786
 21
565.445241
  0
LINE
  5
638
100
AcDbEntity
  8
M0
 62
     7
100
AcDbLine
 10
158.669523
 20
566.945302
 11
155.669523
 21
566.945302
  0
LINE
  5
639
100
AcDbEntity
  8
M0
 62
     7
100
AcDbLine
 10
255.669477
 20
525.045095
 11
255.669492
 21
542.545095
  0
LINE
  5
63A
100
AcDbEntity
  8
M0
 62
     7
100
AcDbLine
 10
247.669477
 20
524.04511
 11
247.669477
 21
541.045843
  0
LINE
  5
63B
100
AcDbEntity
  8
M0
 62
     7
100
AcDbLine
 10
244.669477
 20
531.04511
 11
244.669477
 21
541.045843
  0
LINE
  5
63C
100
AcDbEntity
  8
M0
 62
     7
100
AcDbLine
 10
244.669477
 20
531.04511
 11
244.669477
 21
541.045843
  0
LINE
  5
63D
100
AcDbEntity
  8
M0
 62
     7
100
AcDbLine
 10
236.669477
 20
542.345388
 11
236.669462
 21
526.54511
  0
ARC
  5
63E
100
AcDbEntity
  8
M0
 62
     7
100
AcDbCircle
 10
254.169492
 20
542.045095
 40
1.5
100
AcDbArc
 50
0.0
 51
11.54849
  0
LINE
  5
63F
100
AcDbEntity
  8
M0
 62
     7
100
AcDbLine
 10
258.669477
 20
525.045095
 11
255.669477
 21
525.045095
  0
LINE
  5
640
100
AcDbEntity
  8
M0
 62
     7
100
AcDbLine
 10
258.669477
 20
525.045095
 11
258.669492
 21
565.445241
  0
LINE
  5
641
100
AcDbEntity
  8
M0
 62
     7
100
AcDbLine
 10
231.169492
 20
564.545125
 11
231.169492
 21
546.945241
  0
LINE
  5
642
100
AcDbEntity
  8
M0
 62
     7
100
AcDbLine
 10
258.169477
 20
527.045095
 11
256.669477
 21
527.045095
  0
LINE
  5
643
100
AcDbEntity
  8
M0
 62
     7
100
AcDbLine
 10
258.169477
 20
534.045095
 11
256.669477
 21
534.045095
  0
LINE
  5
644
100
AcDbEntity
  8
M0
 62
     7
100
AcDbLine
 10
258.669477
 20
532.045095
 11
255.669477
 21
532.045095
  0
ARC
  5
645
100
AcDbEntity
  8
M0
 62
     7
100
AcDbCircle
 10
256.669477
 20
528.045095
 40
1.0
100
AcDbArc
 50
179.999126
 51
269.999126
  0
ARC
  5
646
100
AcDbEntity
  8
M0
 62
     7
100
AcDbCircle
 10
256.669477
 20
535.045095
 40
1.0
100
AcDbArc
 50
179.999126
 51
269.999126
  0
ARC
  5
647
100
AcDbEntity
  8
M0
 62
     7
100
AcDbCircle
 10
258.169477
 20
527.545095
 40
0.5
100
AcDbArc
 50
269.998251
 51
360.0
  0
ARC
  5
648
100
AcDbEntity
  8
M0
 62
     7
100
AcDbCircle
 10
258.169477
 20
534.545095
 40
0.5
100
AcDbArc
 50
269.998251
 51
360.0
  0
LINE
  5
649
100
AcDbEntity
  8
M0
 62
     7
100
AcDbLine
 10
246.669477
 20
530.04511
 11
245.669477
 21
530.04511
  0
ARC
  5
64A
100
AcDbEntity
  8
M0
 62
     7
100
AcDbCircle
 10
246.669477
 20
531.04511
 40
1.0
100
AcDbArc
 50
269.999126
 51
360.0
  0
ARC
  5
64B
100
AcDbEntity
  8
M0
 62
     7
100
AcDbCircle
 10
245.669477
 20
531.04511
 40
1.0
100
AcDbArc
 50
179.999126
 51
269.999126
  0
LINE
  5
64C
100
AcDbEntity
  8
M0
 62
     7
100
AcDbLine
 10
245.669477
 20
524.04511
 11
245.669477
 21
530.04511
  0
ARC
  5
64D
100
AcDbEntity
  8
M0
 62
     7
100
AcDbCircle
 10
246.669477
 20
524.04511
 40
1.0
100
AcDbArc
 50
179.999126
 51
269.999126
  0
ARC
  5
64E
100
AcDbEntity
  8
M0
 62
     7
100
AcDbCircle
 10
246.669477
 20
524.04511
 40
1.0
100
AcDbArc
 50
269.999126
 51
360.0
  0
LINE
  5
64F
100
AcDbEntity
  8
M0
 62
     7
100
AcDbLine
 10
237.669477
 20
523.54511
 11
233.669477
 21
523.54511
  0
ARC
  5
650
100
AcDbEntity
  8
M0
 62
     7
100
AcDbCircle
 10
234.669477
 20
526.54511
 40
1.0
100
AcDbArc
 50
179.999126
 51
269.999126
  0
LINE
  5
651
100
AcDbEntity
  8
M0
 62
     7
100
AcDbLine
 10
237.669492
 20
542.345891
 11
237.669477
 21
523.54511
  0
LINE
  5
652
100
AcDbEntity
  8
M0
 62
     7
100
AcDbLine
 10
235.669477
 20
525.54511
 11
234.669477
 21
525.54511
  0
ARC
  5
653
100
AcDbEntity
  8
M0
 62
     7
100
AcDbCircle
 10
235.669477
 20
526.54511
 40
1.0
100
AcDbArc
 50
269.999126
 51
360.0
  0
LINE
  5
654
100
AcDbEntity
  8
M0
 62
     7
100
AcDbLine
 10
162.169508
 20
564.545156
 11
159.669508
 21
564.545156
  0
LINE
  5
655
100
AcDbEntity
  8
M0
 62
     7
100
AcDbLine
 10
188.169508
 20
564.545141
 11
185.669508
 21
564.545141
  0
LINE
  5
656
100
AcDbEntity
  8
M0
 62
     7
100
AcDbLine
 10
214.169507
 20
564.545125
 11
211.669507
 21
564.545125
  0
LINE
  5
657
100
AcDbEntity
  8
M0
 62
     7
100
AcDbLine
 10
212.669507
 20
564.545125
 11
212.669507
 21
565.445272
  0
LINE
  5
658
100
AcDbEntity
  8
M0
 62
     7
100
AcDbLine
 10
206.669507
 20
564.545125
 11
206.669507
 21
565.445272
  0
LINE
  5
659
100
AcDbEntity
  8
M0
 62
     7
100
AcDbLine
 10
212.669492
 20
542.945272
 11
212.669494
 21
545.945272
  0
LINE
  5
65A
100
AcDbEntity
  8
M0
 62
     7
100
AcDbLine
 10
206.669492
 20
542.945272
 11
206.669494
 21
545.945272
  0
LINE
  5
65B
100
AcDbEntity
  8
M0
 62
     7
100
AcDbLine
 10
186.669508
 20
542.945287
 11
186.669508
 21
545.945287
  0
LINE
  5
65C
100
AcDbEntity
  8
M0
 62
     7
100
AcDbLine
 10
180.669508
 20
542.945287
 11
180.669508
 21
545.945287
  0
LINE
  5
65D
100
AcDbEntity
  8
M0
 62
     7
100
AcDbLine
 10
211.669492
 20
542.945272
 11
211.669479
 21
520.946004
  0
LINE
  5
65E
100
AcDbEntity
  8
M0
 62
     7
100
AcDbLine
 10
207.669492
 20
542.945272
 11
207.669479
 21
520.946004
  0
LINE
  5
65F
100
AcDbEntity
  8
M0
 62
     7
100
AcDbLine
 10
185.669508
 20
542.945287
 11
185.669492
 21
520.945775
  0
LINE
  5
660
100
AcDbEntity
  8
M0
 62
     7
100
AcDbLine
 10
181.669508
 20
542.945287
 11
181.669492
 21
520.945775
  0
LINE
  5
661
100
AcDbEntity
  8
M0
 62
     7
100
AcDbLine
 10
162.169492
 20
539.445547
 11
162.169492
 21
534.445302
  0
LINE
  5
662
100
AcDbEntity
  8
M0
 62
     7
100
AcDbLine
 10
179.169492
 20
539.445287
 11
179.169492
 21
525.445287
  0
ARC
  5
663
100
AcDbEntity
  8
M0
 62
     7
100
AcDbCircle
 10
178.169492
 20
539.445287
 40
1.0
100
AcDbArc
 50
0.0
 51
89.999126
  0
ARC
  5
664
100
AcDbEntity
  8
M0
 62
     7
100
AcDbCircle
 10
163.169508
 20
546.945302
 40
1.0
100
AcDbArc
 50
179.999126
 51
270.0
  0
ARC
  5
665
100
AcDbEntity
  8
M0
 62
     7
100
AcDbCircle
 10
178.169508
 20
546.945287
 40
1.0
100
AcDbArc
 50
270.0
 51
360.0
  0
ARC
  5
666
100
AcDbEntity
  8
M0
 62
     7
100
AcDbCircle
 10
163.169492
 20
539.445302
 40
1.0
100
AcDbArc
 50
89.999126
 51
179.985137
  0
LINE
  5
667
100
AcDbEntity
  8
M0
 62
     7
100
AcDbLine
 10
205.16949
 20
539.445272
 11
205.169482
 21
525.445272
  0
LINE
  5
668
100
AcDbEntity
  8
M0
 62
     7
100
AcDbLine
 10
188.169491
 20
539.445531
 11
188.169483
 21
525.445287
  0
ARC
  5
669
100
AcDbEntity
  8
M0
 62
     7
100
AcDbCircle
 10
189.169491
 20
539.445287
 40
1.0
100
AcDbArc
 50
90.0
 51
179.985137
  0
ARC
  5
66A
100
AcDbEntity
  8
M0
 62
     7
100
AcDbCircle
 10
204.169496
 20
546.945272
 40
1.0
100
AcDbArc
 50
270.0
 51
360.0
  0
ARC
  5
66B
100
AcDbEntity
  8
M0
 62
     7
100
AcDbCircle
 10
204.169491
 20
539.445272
 40
1.0
100
AcDbArc
 50
0.0
 51
90.0
  0
ARC
  5
66C
100
AcDbEntity
  8
M0
 62
     7
100
AcDbCircle
 10
189.169496
 20
546.945287
 40
1.0
100
AcDbArc
 50
179.999126
 51
270.0
  0
LINE
  5
66D
100
AcDbEntity
  8
M0
 62
     7
100
AcDbLine
 10
231.169477
 20
539.445257
 11
231.169477
 21
529.045354
  0
LINE
  5
66E
100
AcDbEntity
  8
M0
 62
     7
100
AcDbLine
 10
214.16949
 20
539.445516
 11
214.169482
 21
525.445272
  0
ARC
  5
66F
100
AcDbEntity
  8
M0
 62
     7
100
AcDbCircle
 10
230.169477
 20
539.445257
 40
1.0
100
AcDbArc
 50
0.0
 51
90.0
  0
ARC
  5
670
100
AcDbEntity
  8
M0
 62
     7
100
AcDbCircle
 10
215.169495
 20
546.945272
 40
1.0
100
AcDbArc
 50
179.999126
 51
270.0
  0
ARC
  5
671
100
AcDbEntity
  8
M0
 62
     7
100
AcDbCircle
 10
230.169492
 20
546.945257
 40
1.0
100
AcDbArc
 50
269.999126
 51
360.0
  0
ARC
  5
672
100
AcDbEntity
  8
M0
 62
     7
100
AcDbCircle
 10
215.16949
 20
539.445272
 40
1.0
100
AcDbArc
 50
90.0
 51
179.985138
  0
LINE
  5
673
100
AcDbEntity
  8
M0
 62
     7
100
AcDbLine
 10
184.669523
 20
568.545141
 11
182.669523
 21
568.545141
  0
LINE
  5
674
100
AcDbEntity
  8
M0
 62
     7
100
AcDbLine
 10
210.669509
 20
568.545125
 11
208.669509
 21
568.545125
  0
LINE
  5
675
100
AcDbEntity
  8
M0
 62
     7
100
AcDbLine
 10
207.669507
 20
564.545125
 11
203.159222
 21
564.54511
  0
ARC
  5
676
100
AcDbEntity
  8
M0
 62
     7
100
AcDbCircle
 10
210.669509
 20
567.545125
 40
1.0
100
AcDbArc
 50
0.0
 51
90.0
  0
ARC
  5
677
100
AcDbEntity
  8
M0
 62
     7
100
AcDbCircle
 10
208.669509
 20
567.545125
 40
1.0
100
AcDbArc
 50
90.0
 51
179.985138
  0
ARC
  5
678
100
AcDbEntity
  8
M0
 62
     7
100
AcDbCircle
 10
184.669523
 20
567.545141
 40
1.0
100
AcDbArc
 50
0.0
 51
89.999126
  0
ARC
  5
679
100
AcDbEntity
  8
M0
 62
     7
100
AcDbCircle
 10
182.669523
 20
567.545141
 40
1.0
100
AcDbArc
 50
89.999126
 51
179.985137
  0
LINE
  5
67A
100
AcDbEntity
  8
M0
 62
     7
100
AcDbLine
 10
207.669507
 20
565.445272
 11
206.669507
 21
565.445272
  0
ARC
  5
67B
100
AcDbEntity
  8
M0
 62
     7
100
AcDbCircle
 10
232.669477
 20
539.445257
 40
1.0
100
AcDbArc
 50
0.0
 51
90.0
  0
LINE
  5
67C
100
AcDbEntity
  8
M0
 62
     7
100
AcDbLine
 10
230.169477
 20
540.445257
 11
230.169492
 21
545.945257
  0
LINE
  5
67D
100
AcDbEntity
  8
M0
 62
     7
100
AcDbLine
 10
232.069486
 20
528.145208
 11
232.069486
 21
524.845647
  0
LINE
  5
67E
100
AcDbEntity
  8
M0
 62
     7
100
AcDbLine
 10
181.669508
 20
564.545141
 11
162.0063
 21
564.545156
  0
LINE
  5
67F
100
AcDbEntity
  8
M0
 62
     7
100
AcDbLine
 10
158.669492
 20
530.445302
 11
156.169492
 21
530.445302
  0
ARC
  5
680
100
AcDbEntity
  8
M0
 62
     7
100
AcDbCircle
 10
158.669492
 20
531.445302
 40
1.0
100
AcDbArc
 50
270.0
 51
360.0
  0
ARC
  5
681
100
AcDbEntity
  8
M0
 62
     7
100
AcDbCircle
 10
156.169492
 20
530.945302
 40
0.5
100
AcDbArc
 50
179.998251
 51
270.0
  0
LINE
  5
682
100
AcDbEntity
  8
M0
 62
     7
100
AcDbLine
 10
159.669492
 20
531.945302
 11
162.169492
 21
534.445302
  0
LINE
  5
683
100
AcDbEntity
  8
M0
 62
     7
100
AcDbLine
 10
161.26959
 20
533.5454
 11
161.26959
 21
524.845937
  0
LINE
  5
684
100
AcDbEntity
  8
M0
 62
     7
100
AcDbLine
 10
237.669477
 20
525.54511
 11
233.669477
 21
525.54511
  0
LINE
  5
685
100
AcDbEntity
  8
M0
 62
     7
100
AcDbLine
 10
233.669477
 20
526.545354
 11
231.169477
 21
529.04511
  0
LINE
  5
686
100
AcDbEntity
  8
M0
 62
     7
100
AcDbLine
 10
239.019498
 20
563.145452
 11
239.019498
 21
564.54511
  0
LINE
  5
687
100
AcDbEntity
  8
M0
 62
     7
100
AcDbLine
 10
238.319501
 20
543.54511
 11
238.319501
 21
546.04511
  0
LINE
  5
688
100
AcDbEntity
  8
M0
 62
     7
100
AcDbLine
 10
236.519498
 20
546.04511
 11
236.519498
 21
562.04511
  0
LINE
  5
689
100
AcDbEntity
  8
M0
 62
     7
100
AcDbLine
 10
239.019498
 20
564.54511
 11
232.338865
 21
564.54508
  0
LINE
  5
68A
100
AcDbEntity
  8
M0
 62
     7
100
AcDbLine
 10
236.519498
 20
547.645208
 11
233.669492
 21
547.645208
  0
LINE
  5
68B
100
AcDbEntity
  8
M0
 62
     7
100
AcDbLine
 10
236.519498
 20
554.445257
 11
233.669492
 21
554.445257
  0
LINE
  5
68C
100
AcDbEntity
  8
M0
 62
     7
100
AcDbLine
 10
236.869367
 20
560.945257
 11
236.519498
 21
560.945257
  0
ARC
  5
68D
100
AcDbEntity
  8
M0
 62
     7
100
AcDbCircle
 10
246.519498
 20
551.04511
 40
13.299991
100
AcDbArc
 50
165.187825
 51
194.811027
  0
LINE
  5
68E
100
AcDbEntity
  8
M0
 62
     7
100
AcDbLine
 10
233.669477
 20
523.54511
 11
233.669477
 21
542.345388
  0
LINE
  5
68F
100
AcDbEntity
  8
M0
 62
     7
100
AcDbLine
 10
238.319501
 20
546.04511
 11
233.669492
 21
546.04511
  0
LINE
  5
690
100
AcDbEntity
  8
M0
 62
     7
100
AcDbLine
 10
238.319501
 20
561.877386
 11
238.319501
 21
564.54511
  0
LINE
  5
691
100
AcDbEntity
  8
M0
 62
     7
100
AcDbLine
 10
237.819501
 20
562.04511
 11
232.669492
 21
562.04511
  0
ARC
  5
692
100
AcDbEntity
  8
M0
 62
     7
100
AcDbCircle
 10
237.819501
 20
562.54511
 40
0.5
100
AcDbArc
 50
269.998251
 51
360.0
  0
LINE
  5
693
100
AcDbEntity
  8
M0
 62
     7
100
AcDbLine
 10
234.169508
 20
549.54511
 11
234.169508
 21
552.54511
  0
LINE
  5
694
100
AcDbEntity
  8
M0
 62
     7
100
AcDbLine
 10
235.019178
 20
549.54511
 11
234.169508
 21
549.54511
  0
LINE
  5
695
100
AcDbEntity
  8
M0
 62
     7
100
AcDbLine
 10
235.019575
 20
552.54511
 11
234.169508
 21
552.54511
  0
LINE
  5
696
100
AcDbEntity
  8
M0
 62
     7
100
AcDbLine
 10
236.519498
 20
551.04511
 11
235.019422
 21
549.545354
  0
LINE
  5
697
100
AcDbEntity
  8
M0
 62
     7
100
AcDbLine
 10
236.519514
 20
551.04511
 11
235.019575
 21
552.54511
  0
LINE
  5
698
100
AcDbEntity
  8
M0
 62
     7
100
AcDbLine
 10
212.669507
 20
565.445272
 11
211.669507
 21
565.445272
  0
LINE
  5
699
100
AcDbEntity
  8
M0
 62
     7
100
AcDbLine
 10
161.320646
 20
566.545156
 11
161.647916
 21
566.545186
  0
LINE
  5
69A
100
AcDbEntity
  8
M0
 62
     7
100
AcDbLine
 10
207.669508
 20
566.54537
 11
203.260557
 21
566.545354
  0
LINE
  5
69B
100
AcDbEntity
  8
M0
 62
     7
100
AcDbLine
 10
185.669508
 20
565.545385
 11
191.194501
 21
565.5454
  0
LINE
  5
69C
100
AcDbEntity
  8
M0
 62
     7
100
AcDbLine
 10
181.169508
 20
564.545141
 11
181.169508
 21
565.545385
  0
LINE
  5
69D
100
AcDbEntity
  8
M0
 62
     7
100
AcDbLine
 10
186.169508
 20
564.545141
 11
186.169508
 21
565.545385
  0
LINE
  5
69E
100
AcDbEntity
  8
M0
  6
DASHDOT
 62
     7
100
AcDbLine
 10
251.135221
 20
570.045339
 11
239.669508
 21
570.045354
  0
LINE
  5
69F
100
AcDbEntity
  8
M0
 62
     7
100
AcDbLine
 10
239.669492
 20
565.74555
 11
239.669508
 21
570.045354
  0
ARC
  5
6A0
100
AcDbEntity
  8
M0
 62
     7
100
AcDbCircle
 10
244.669508
 20
570.045354
 40
4.999997
100
AcDbArc
 50
90.0
 51
179.999825
  0
LINE
  5
6A1
100
AcDbEntity
  8
M0
 62
     7
100
AcDbLine
 10
161.26959
 20
526.0454
 11
158.169492
 21
526.0454
  0
ARC
  5
6A2
100
AcDbEntity
  8
M0
 62
     7
100
AcDbCircle
 10
158.169492
 20
528.5454
 40
2.499997
100
AcDbArc
 50
179.99965
 51
270.0
  0
LINE
  5
6A3
100
AcDbEntity
  8
M0
  6
DASHDOT
 62
     7
100
AcDbLine
 10
161.26959
 20
531.0454
 11
155.669492
 21
531.0454
  0
LINE
  5
6A4
100
AcDbEntity
  8
M0
  6
DASHDOT
 62
     7
100
AcDbLine
 10
160.669492
 20
526.0454
 11
160.669492
 21
532.945302
  0
ARC
  5
6A5
100
AcDbEntity
  8
M0
 62
     7
100
AcDbCircle
 10
158.669523
 20
565.945302
 40
1.0
100
AcDbArc
 50
0.0
 51
89.999126
  0
LINE
  5
6A6
100
AcDbEntity
  8
M0
 62
     7
100
AcDbLine
 10
214.969529
 20
523.144979
 11
215.165284
 21
523.144994
  0
LINE
  5
6A7
100
AcDbEntity
  8
M0
 62
     7
100
AcDbLine
 10
231.169492
 20
560.445485
 11
230.919248
 21
560.44547
  0
LINE
  5
6A8
100
AcDbEntity
  8
M0
 62
     7
100
AcDbLine
 10
214.91975
 20
564.045125
 11
214.919748
 21
560.445516
  0
LINE
  5
6A9
100
AcDbEntity
  8
M0
 62
     7
100
AcDbLine
 10
214.719554
 20
564.045125
 11
214.719554
 21
561.745321
  0
LINE
  5
6AA
100
AcDbEntity
  8
M0
 62
     7
100
AcDbLine
 10
214.919748
 20
560.44576
 11
214.169504
 21
560.44576
  0
LINE
  5
6AB
100
AcDbEntity
  8
M0
 62
     7
100
AcDbLine
 10
231.06941
 20
560.445501
 11
231.06941
 21
547.245305
  0
LINE
  5
6AC
100
AcDbEntity
  8
M0
 62
     7
100
AcDbLine
 10
214.269601
 20
560.445516
 11
214.269593
 21
547.245321
  0
LINE
  5
6AD
100
AcDbEntity
  8
M0
 62
     7
100
AcDbLine
 10
215.569885
 20
545.945272
 11
214.269593
 21
547.245565
  0
LINE
  5
6AE
100
AcDbEntity
  8
M0
 62
     7
100
AcDbLine
 10
229.769361
 20
545.945257
 11
231.06941
 21
547.245305
  0
LINE
  5
6AF
100
AcDbEntity
  8
M0
 62
     7
100
AcDbLine
 10
214.969529
 20
523.145467
 11
213.419969
 21
524.69576
  0
LINE
  5
6B0
100
AcDbEntity
  8
M0
 62
     7
100
AcDbLine
 10
232.069486
 20
524.845403
 11
230.369199
 21
523.144964
  0
LINE
  5
6B1
100
AcDbEntity
  8
M0
 62
     7
100
AcDbLine
 10
214.919749
 20
561.745321
 11
214.719554
 21
561.745321
  0
LINE
  5
6B2
100
AcDbEntity
  8
M0
 62
     7
100
AcDbLine
 10
188.969286
 20
523.14475
 11
189.165285
 21
523.144781
  0
LINE
  5
6B3
100
AcDbEntity
  8
M0
 62
     7
100
AcDbLine
 10
204.619458
 20
564.044881
 11
203.133893
 21
564.044866
  0
LINE
  5
6B4
100
AcDbEntity
  8
M0
 62
     7
100
AcDbLine
 10
205.169504
 20
560.445272
 11
204.419748
 21
560.445272
  0
LINE
  5
6B5
100
AcDbEntity
  8
M0
 62
     7
100
AcDbLine
 10
204.419506
 20
564.044881
 11
204.419504
 21
560.445272
  0
LINE
  5
6B6
100
AcDbEntity
  8
M0
 62
     7
100
AcDbLine
 10
188.919507
 20
564.044897
 11
188.919505
 21
560.445287
  0
LINE
  5
6B7
100
AcDbEntity
  8
M0
 62
     7
100
AcDbLine
 10
204.619456
 20
561.745077
 11
204.419749
 21
561.745077
  0
LINE
  5
6B8
100
AcDbEntity
  8
M0
 62
     7
100
AcDbLine
 10
188.719311
 20
564.044897
 11
188.71931
 21
561.745092
  0
LINE
  5
6B9
100
AcDbEntity
  8
M0
 62
     7
100
AcDbLine
 10
204.619458
 20
564.044881
 11
204.619456
 21
561.745077
  0
LINE
  5
6BA
100
AcDbEntity
  8
M0
 62
     7
100
AcDbLine
 10
188.919749
 20
560.445531
 11
188.169505
 21
560.445531
  0
LINE
  5
6BB
100
AcDbEntity
  8
M0
 62
     7
100
AcDbLine
 10
258.669508
 20
572.545339
 11
258.669492
 21
545.945241
  0
LINE
  5
6BC
100
AcDbEntity
  8
M0
 62
     7
100
AcDbLine
 10
256.169508
 20
575.045339
 11
244.669508
 21
575.045354
  0
ARC
  5
6BD
100
AcDbEntity
  8
M0
 62
     7
100
AcDbCircle
 10
256.169508
 20
572.545339
 40
2.499997
100
AcDbArc
 50
0.0
 51
90.0
  0
LINE
  5
6BE
100
AcDbEntity
  8
M0
 62
     7
100
AcDbLine
 10
159.669508
 20
565.5454
 11
175.078168
 21
565.545598
  0
LINE
  5
6BF
100
AcDbEntity
  8
M0
 62
     7
100
AcDbLine
 10
185.669523
 20
566.545385
 11
190.169271
 21
566.5454
  0
LINE
  5
6C0
100
AcDbEntity
  8
M0
 62
     7
100
AcDbLine
 10
185.669508
 20
565.545385
 11
203.198972
 21
565.545431
  0
LINE
  5
6C1
100
AcDbEntity
  8
M0
 62
     7
100
AcDbLine
 10
211.669523
 20
566.545614
 11
218.231166
 21
566.545614
  0
LINE
  5
6C2
100
AcDbEntity
  8
M0
 62
     7
100
AcDbLine
 10
222.665296
 20
564.045064
 11
214.719554
 21
564.045125
  0
LINE
  5
6C3
100
AcDbEntity
  8
M0
 62
     7
100
AcDbLine
 10
211.669507
 20
565.545614
 11
233.569807
 21
565.545598
  0
LINE
  5
6C4
100
AcDbEntity
  8
M0
 62
     7
100
AcDbLine
 10
205.069406
 20
560.445272
 11
205.069398
 21
547.245077
  0
LINE
  5
6C5
100
AcDbEntity
  8
M0
 62
     7
100
AcDbLine
 10
188.269358
 20
560.445287
 11
188.26935
 21
547.245092
  0
LINE
  5
6C6
100
AcDbEntity
  8
M0
 62
     7
100
AcDbLine
 10
189.569398
 20
545.945287
 11
188.26935
 21
547.245336
  0
LINE
  5
6C7
100
AcDbEntity
  8
M0
 62
     7
100
AcDbLine
 10
203.769593
 20
545.945272
 11
205.069398
 21
547.245077
  0
LINE
  5
6C8
100
AcDbEntity
  8
M0
 62
     7
100
AcDbLine
 10
188.969286
 20
523.145238
 11
187.419736
 21
524.695531
  0
LINE
  5
6C9
100
AcDbEntity
  8
M0
 62
     7
100
AcDbLine
 10
205.919725
 20
524.695272
 11
204.369188
 21
523.144735
  0
LINE
  5
6CA
100
AcDbEntity
  8
M0
 62
     7
100
AcDbLine
 10
188.91975
 20
561.745092
 11
188.71931
 21
561.745092
  0
LINE
  5
6CB
100
AcDbEntity
  8
M0
 62
     7
100
AcDbLine
 10
162.969297
 20
523.144765
 11
163.16554
 21
523.144811
  0
LINE
  5
6CC
100
AcDbEntity
  8
M0
 62
     7
100
AcDbLine
 10
179.169508
 20
560.445287
 11
178.419752
 21
560.445287
  0
LINE
  5
6CD
100
AcDbEntity
  8
M0
 62
     7
100
AcDbLine
 10
178.419508
 20
564.044897
 11
178.419508
 21
560.445287
  0
LINE
  5
6CE
100
AcDbEntity
  8
M0
 62
     7
100
AcDbLine
 10
178.619459
 20
561.745092
 11
178.419752
 21
561.745092
  0
LINE
  5
6CF
100
AcDbEntity
  8
M0
 62
     7
100
AcDbLine
 10
178.619459
 20
564.044897
 11
178.619459
 21
561.745092
  0
LINE
  5
6D0
100
AcDbEntity
  8
M0
 62
     7
100
AcDbLine
 10
162.919752
 20
560.445547
 11
162.169508
 21
560.445547
  0
LINE
  5
6D1
100
AcDbEntity
  8
M0
 62
     7
100
AcDbLine
 10
179.06941
 20
560.445287
 11
179.06941
 21
547.245092
  0
LINE
  5
6D2
100
AcDbEntity
  8
M0
 62
     7
100
AcDbLine
 10
162.269361
 20
560.445302
 11
162.269361
 21
547.245107
  0
LINE
  5
6D3
100
AcDbEntity
  8
M0
 62
     7
100
AcDbLine
 10
163.56941
 20
545.945302
 11
162.269361
 21
547.245351
  0
LINE
  5
6D4
100
AcDbEntity
  8
M0
 62
     7
100
AcDbLine
 10
177.769605
 20
545.945302
 11
179.06941
 21
547.245092
  0
LINE
  5
6D5
100
AcDbEntity
  8
M0
 62
     7
100
AcDbLine
 10
162.969297
 20
523.145254
 11
161.26959
 21
524.845693
  0
LINE
  5
6D6
100
AcDbEntity
  8
M0
 62
     7
100
AcDbLine
 10
179.919736
 20
524.695287
 11
178.369199
 21
523.14475
  0
LINE
  5
6D7
100
AcDbEntity
  8
M0
 62
     7
100
AcDbLine
 10
162.823347
 20
561.745122
 11
162.719328
 21
561.745138
  0
LINE
  5
6D8
100
AcDbEntity
  8
M0
 62
     7
100
AcDbLine
 10
244.619489
 20
529.045598
 11
244.619489
 21
538.045354
  0
LINE
  5
6D9
100
AcDbEntity
  8
M0
 62
     7
100
AcDbLine
 10
244.619489
 20
529.045354
 11
243.619489
 21
528.045354
  0
LINE
  5
6DA
100
AcDbEntity
  8
M0
 62
     7
100
AcDbLine
 10
237.71948
 20
528.045354
 11
237.669477
 21
528.095403
  0
LINE
  5
6DB
100
AcDbEntity
  8
M0
 62
     7
100
AcDbLine
 10
244.619505
 20
536.045354
 11
244.619505
 21
541.045843
  0
LINE
  5
6DC
100
AcDbEntity
  8
M0
 62
     7
100
AcDbLine
 10
244.619505
 20
536.04511
 11
243.619505
 21
535.04511
  0
LINE
  5
6DD
100
AcDbEntity
  8
M0
 62
     7
100
AcDbLine
 10
237.719495
 20
535.04511
 11
237.669477
 21
535.095159
  0
LINE
  5
6DE
100
AcDbEntity
  8
M0
 62
     7
100
AcDbLine
 10
247.71948
 20
537.045598
 11
247.71948
 21
529.045598
  0
LINE
  5
6DF
100
AcDbEntity
  8
M0
 62
     7
100
AcDbLine
 10
255.619489
 20
529.045583
 11
255.619489
 21
537.045583
  0
LINE
  5
6E0
100
AcDbEntity
  8
M0
 62
     7
100
AcDbLine
 10
255.619489
 20
529.045339
 11
254.619489
 21
528.045339
  0
LINE
  5
6E1
100
AcDbEntity
  8
M0
 62
     7
100
AcDbLine
 10
248.71948
 20
528.045354
 11
247.71948
 21
529.045354
  0
LINE
  5
6E2
100
AcDbEntity
  8
M0
 62
     7
100
AcDbLine
 10
247.719495
 20
541.045843
 11
247.719495
 21
536.04511
  0
LINE
  5
6E3
100
AcDbEntity
  8
M0
 62
     7
100
AcDbLine
 10
255.619505
 20
536.045095
 11
255.61952
 21
542.429128
  0
LINE
  5
6E4
100
AcDbEntity
  8
M0
 62
     7
100
AcDbLine
 10
255.619505
 20
536.044851
 11
254.619505
 21
535.044851
  0
LINE
  5
6E5
100
AcDbEntity
  8
M0
 62
     7
100
AcDbLine
 10
248.719495
 20
535.044866
 11
247.719495
 21
536.044866
  0
CIRCLE
  5
6E6
100
AcDbEntity
  8
M0
  6
DASHED
 62
     7
100
AcDbCircle
 10
246.519514
 20
551.045354
 40
7.699985
  0
LINE
  5
6E7
100
AcDbEntity
  8
M0
 62
     7
100
AcDbLine
 10
233.569807
 20
565.74555
 11
233.569807
 21
564.545598
  0
LINE
  5
6E8
100
AcDbEntity
  8
M0
 62
     7
100
AcDbLine
 10
233.569562
 20
542.345403
 11
243.069562
 21
542.345403
  0
LINE
  5
6E9
100
AcDbEntity
  8
M0
 62
     7
100
AcDbLine
 10
244.369352
 20
541.045354
 11
248.369352
 21
541.045354
  0
LINE
  5
6EA
100
AcDbEntity
  8
M0
  6
DASHDOT
 62
     7
100
AcDbLine
 10
246.519254
 20
539.682561
 11
246.519514
 21
561.508733
  0
LINE
  5
6EB
100
AcDbEntity
  8
M0
 62
     7
100
AcDbLine
 10
243.069807
 20
564.545354
 11
233.569807
 21
564.545598
  0
LINE
  5
6EC
100
AcDbEntity
  8
M0
  6
DASHDOT
 62
     7
100
AcDbLine
 10
258.569562
 20
551.045339
 11
233.569562
 21
551.045598
  0
LINE
  5
6ED
100
AcDbEntity
  8
M0
 62
     7
100
AcDbLine
 10
239.069318
 20
543.545354
 11
239.069318
 21
545.24555
  0
LINE
  5
6EE
100
AcDbEntity
  8
M0
 62
     7
100
AcDbLine
 10
243.069807
 20
564.545354
 11
243.069807
 21
565.745305
  0
LINE
  5
6EF
100
AcDbEntity
  8
M0
 62
     7
100
AcDbLine
 10
238.069562
 20
561.845403
 11
236.869611
 21
561.845403
  0
LINE
  5
6F0
100
AcDbEntity
  8
M0
 62
     7
100
AcDbLine
 10
236.869367
 20
546.24555
 11
236.869611
 21
561.845403
  0
LINE
  5
6F1
100
AcDbEntity
  8
M0
 62
     7
100
AcDbLine
 10
233.569562
 20
543.545598
 11
243.069562
 21
543.545354
  0
LINE
  5
6F2
100
AcDbEntity
  8
M0
 62
     7
100
AcDbLine
 10
243.069562
 20
542.345403
 11
243.069562
 21
543.545354
  0
LINE
  5
6F3
100
AcDbEntity
  8
M0
 62
     7
100
AcDbLine
 10
239.069562
 20
562.845403
 11
239.069562
 21
564.545354
  0
LINE
  5
6F4
100
AcDbEntity
  8
M0
 62
     7
100
AcDbLine
 10
236.869367
 20
546.24555
 11
238.069318
 21
546.24555
  0
LINE
  5
6F5
100
AcDbEntity
  8
M0
 62
     7
100
AcDbLine
 10
233.569562
 20
543.545598
 11
233.569562
 21
542.345403
  0
LINE
  5
6F6
100
AcDbEntity
  8
M0
 62
     7
100
AcDbLine
 10
250.869367
 20
542.345388
 11
248.369352
 21
541.045354
  0
LINE
  5
6F7
100
AcDbEntity
  8
M0
 62
     7
100
AcDbLine
 10
244.369352
 20
541.045354
 11
241.869367
 21
542.345403
  0
LINE
  5
6F8
100
AcDbEntity
  8
M0
 62
     7
100
AcDbLine
 10
250.869367
 20
542.345388
 11
258.069318
 21
542.345388
  0
ARC
  5
6F9
100
AcDbEntity
  8
M0
 62
     7
100
AcDbCircle
 10
238.069318
 20
545.24555
 40
1.0
100
AcDbArc
 50
0.0
 51
90.0
  0
ARC
  5
6FA
100
AcDbEntity
  8
M0
 62
     7
100
AcDbCircle
 10
238.069562
 20
562.845403
 40
1.0
100
AcDbArc
 50
269.999126
 51
360.0
  0
ARC
  5
6FB
100
AcDbEntity
  8
M0
 62
     7
100
AcDbCircle
 10
258.069318
 20
542.845388
 40
0.5
100
AcDbArc
 50
269.998251
 51
359.972023
  0
CIRCLE
  5
6FC
100
AcDbEntity
  8
M0
 62
     7
100
AcDbCircle
 10
246.51927
 20
551.045354
 40
4.249986
  0
CIRCLE
  5
6FD
100
AcDbEntity
  8
M0
 62
     7
100
AcDbCircle
 10
246.51927
 20
551.045354
 40
3.749985
  0
LINE
  5
6FE
100
AcDbEntity
  8
M0
 62
     7
100
AcDbLine
 10
247.119367
 20
553.54511
 11
245.919416
 21
553.54511
  0
LINE
  5
6FF
100
AcDbEntity
  8
M0
 62
     7
100
AcDbLine
 10
245.919416
 20
548.545598
 11
247.119367
 21
548.545598
  0
LINE
  5
700
100
AcDbEntity
  8
M0
 62
     7
100
AcDbLine
 10
247.119367
 20
553.54511
 11
247.119367
 21
548.545354
  0
LINE
  5
701
100
AcDbEntity
  8
M0
 62
     7
100
AcDbLine
 10
245.919416
 20
553.54511
 11
245.919416
 21
548.545354
  0
LINE
  5
702
100
AcDbEntity
  8
M0
  6
DASHED
 62
     7
100
AcDbLine
 10
250.869367
 20
560.895193
 11
250.869367
 21
563.695241
  0
LINE
  5
703
100
AcDbEntity
  8
M0
  6
DASHED
 62
     7
100
AcDbLine
 10
246.869367
 20
560.895208
 11
246.869367
 21
563.695257
  0
LINE
  5
704
100
AcDbEntity
  8
M0
  6
DASHED
 62
     7
100
AcDbLine
 10
246.869367
 20
560.895208
 11
250.869367
 21
560.895193
  0
LINE
  5
705
100
AcDbEntity
  8
M0
 62
     7
100
AcDbLine
 10
162.919523
 20
564.044866
 11
162.919523
 21
560.445333
  0
LINE
  5
706
100
AcDbEntity
  8
M0
 62
     7
100
AcDbLine
 10
162.719328
 20
564.044866
 11
162.719328
 21
561.745138
  0
LINE
  5
707
100
AcDbEntity
  8
M0
 62
     7
100
AcDbLine
 10
178.619474
 20
564.044912
 11
162.719328
 21
564.044866
  0
LINE
  5
708
100
AcDbEntity
  8
M0
 62
     7
100
AcDbLine
 10
258.069562
 20
565.74529
 11
233.569807
 21
565.74555
  0
LINE
  5
709
100
AcDbEntity
  8
M0
 62
     7
100
AcDbLine
 10
258.569318
 20
542.845144
 11
258.569562
 21
565.24529
  0
LINE
  5
70A
100
AcDbEntity
  8
M0
  6
DASHED
 62
     7
100
AcDbLine
 10
246.869367
 20
563.695257
 11
250.869367
 21
563.695241
  0
LINE
  5
70B
100
AcDbEntity
  8
M0
 62
     7
100
AcDbLine
 10
239.069807
 20
564.545354
 11
239.069807
 21
565.745305
  0
LINE
  5
70C
100
AcDbEntity
  8
M0
 62
     7
100
AcDbLine
 10
239.069562
 20
542.345403
 11
239.069562
 21
543.545354
  0
LINE
  5
70D
100
AcDbEntity
  8
M0
 62
     7
100
AcDbLine
 10
240.069562
 20
561.745305
 11
240.069562
 21
564.245305
  0
LINE
  5
70E
100
AcDbEntity
  8
M0
 62
     7
100
AcDbLine
 10
242.069562
 20
561.745305
 11
240.069562
 21
561.745305
  0
LINE
  5
70F
100
AcDbEntity
  8
M0
 62
     7
100
AcDbLine
 10
242.069562
 20
561.745305
 11
242.069562
 21
564.245305
  0
LINE
  5
710
100
AcDbEntity
  8
M0
 62
     7
100
AcDbLine
 10
242.069562
 20
564.245305
 11
240.069562
 21
564.245305
  0
LINE
  5
711
100
AcDbEntity
  8
M0
 62
     7
100
AcDbLine
 10
212.419509
 20
567.745565
 11
211.649245
 21
567.745565
  0
LINE
  5
712
100
AcDbEntity
  8
M0
 62
     7
100
AcDbLine
 10
212.419753
 20
567.745565
 11
212.345534
 21
568.592977
  0
LINE
  5
713
100
AcDbEntity
  8
M0
 62
     7
100
AcDbLine
 10
206.919753
 20
567.745565
 11
206.993727
 21
568.592977
  0
ARC
  5
714
100
AcDbEntity
  8
M0
 62
     7
100
AcDbCircle
 10
209.669506
 20
562.745565
 40
6.999995
100
AcDbArc
 50
73.743048
 51
90.0
  0
ARC
  5
715
100
AcDbEntity
  8
M0
 62
     7
100
AcDbCircle
 10
211.349196
 20
568.505819
 40
1.0
100
AcDbArc
 50
5.00014
 51
73.741631
  0
ARC
  5
716
100
AcDbEntity
  8
M0
 62
     7
100
AcDbCircle
 10
207.990065
 20
568.505819
 40
1.0
100
AcDbArc
 50
106.258264
 51
174.999865
  0
ARC
  5
717
100
AcDbEntity
  8
M0
 62
     7
100
AcDbCircle
 10
209.669506
 20
562.745565
 40
6.999995
100
AcDbArc
 50
90.0
 51
106.254942
  0
LINE
  5
718
100
AcDbEntity
  8
M0
 62
     7
100
AcDbLine
 10
212.419508
 20
567.045614
 11
212.419509
 21
567.745565
  0
LINE
  5
719
100
AcDbEntity
  8
M0
 62
     7
100
AcDbLine
 10
206.919508
 20
567.045614
 11
206.919509
 21
567.745565
  0
LINE
  5
71A
100
AcDbEntity
  8
M0
 62
     7
100
AcDbLine
 10
207.669264
 20
567.745565
 11
206.919509
 21
567.745565
  0
LINE
  5
71B
100
AcDbEntity
  8
M0
 62
     7
100
AcDbLine
 10
212.669508
 20
567.045614
 11
211.669508
 21
567.045614
  0
LINE
  5
71C
100
AcDbEntity
  8
M0
 62
     7
100
AcDbLine
 10
212.669508
 20
566.545614
 11
211.669508
 21
566.545614
  0
LINE
  5
71D
100
AcDbEntity
  8
M0
 62
     7
100
AcDbLine
 10
206.669508
 20
566.545614
 11
206.669508
 21
567.045614
  0
LINE
  5
71E
100
AcDbEntity
  8
M0
 62
     7
100
AcDbLine
 10
212.669508
 20
566.545614
 11
212.669508
 21
567.045614
  0
LINE
  5
71F
100
AcDbEntity
  8
M0
 62
     7
100
AcDbLine
 10
207.669508
 20
566.545614
 11
206.669508
 21
566.545614
  0
LINE
  5
720
100
AcDbEntity
  8
M0
 62
     7
100
AcDbLine
 10
207.669508
 20
567.045614
 11
206.669508
 21
567.045614
  0
LINE
  5
721
100
AcDbEntity
  8
M0
 62
     7
100
AcDbLine
 10
207.690016
 20
567.745565
 11
206.919509
 21
567.745565
  0
LINE
  5
722
100
AcDbEntity
  8
M0
 62
     7
100
AcDbLine
 10
236.602018
 20
565.745305
 11
236.545362
 21
566.393011
  0
ARC
  5
723
100
AcDbEntity
  8
M0
 62
     7
100
AcDbCircle
 10
233.869474
 20
560.545598
 40
6.999995
100
AcDbArc
 50
73.742988
 51
90.0
  0
ARC
  5
724
100
AcDbEntity
  8
M0
 62
     7
100
AcDbCircle
 10
235.549177
 20
566.305852
 40
1.0
100
AcDbArc
 50
5.001058
 51
73.746335
  0
LINE
  5
725
100
AcDbEntity
  8
M0
 62
     7
100
AcDbLine
 10
161.419996
 20
565.545644
 11
161.345792
 21
566.393056
  0
ARC
  5
726
100
AcDbEntity
  8
M0
 62
     7
100
AcDbCircle
 10
158.669752
 20
560.545644
 40
6.999995
100
AcDbArc
 50
73.742868
 51
89.999875
  0
ARC
  5
727
100
AcDbEntity
  8
M0
 62
     7
100
AcDbCircle
 10
160.349454
 20
566.305898
 40
1.0
100
AcDbArc
 50
5.000111
 51
73.741054
  0
ARC
  5
728
100
AcDbEntity
  8
M0
 62
     7
100
AcDbCircle
 10
156.990324
 20
566.305898
 40
1.0
100
AcDbArc
 50
106.258106
 51
140.249055
  0
ARC
  5
729
100
AcDbEntity
  8
M0
 62
     7
100
AcDbCircle
 10
158.669752
 20
560.545644
 40
6.999995
100
AcDbArc
 50
89.999875
 51
106.254799
  0
LINE
  5
72A
100
AcDbEntity
  8
M0
 62
     7
100
AcDbLine
 10
233.669477
 20
543.545583
 11
233.669492
 21
546.04511
  0
LINE
  5
72B
100
AcDbEntity
  8
M0
 62
     7
100
AcDbLine
 10
230.165281
 20
523.144979
 11
230.369199
 21
523.144964
  0
LINE
  5
72C
100
AcDbEntity
  8
M0
 62
     7
100
AcDbLine
 10
232.685316
 20
565.545598
 11
233.569822
 21
565.545354
  0
LINE
  5
72D
100
AcDbEntity
  8
M0
 62
     7
100
AcDbLine
 10
203.209897
 20
565.545385
 11
207.669507
 21
565.545614
  0
LINE
  5
72E
100
AcDbEntity
  8
M0
 62
     7
100
AcDbLine
 10
203.260557
 20
566.545385
 11
207.669508
 21
566.545614
  0
LINE
  5
72F
100
AcDbEntity
  8
M0
 62
     7
100
AcDbLine
 10
203.209897
 20
565.545385
 11
207.669507
 21
565.54537
  0
LINE
  5
730
100
AcDbEntity
  8
M0
 62
     7
100
AcDbLine
 10
204.165285
 20
523.144765
 11
204.369188
 21
523.144735
  0
LINE
  5
731
100
AcDbEntity
  8
M0
 62
     7
100
AcDbLine
 10
178.16554
 20
523.144796
 11
178.369199
 21
523.14475
  0
LINE
  5
732
100
AcDbEntity
  8
M0
 62
     7
100
AcDbLine
 10
161.320478
 20
566.544835
 11
162.415083
 21
566.544866
  0
LINE
  5
733
100
AcDbEntity
  8
M0
 62
     7
100
AcDbLine
 10
174.963529
 20
566.545202
 11
181.669523
 21
566.545385
  0
LINE
  5
734
100
AcDbEntity
  8
M0
 62
     7
100
AcDbLine
 10
159.669508
 20
565.545492
 11
161.970747
 21
565.545476
  0
LINE
  5
735
100
AcDbEntity
  8
M0
 62
     7
100
AcDbLine
 10
175.078199
 20
565.545415
 11
181.669508
 21
565.545385
  0
LINE
  5
736
100
AcDbEntity
  8
M0
 62
     7
100
AcDbLine
 10
190.169271
 20
566.54537
 11
185.669523
 21
566.545385
  0
LINE
  5
737
100
AcDbEntity
  8
M0
 62
     7
100
AcDbLine
 10
203.171922
 20
564.545049
 11
188.169508
 21
564.545141
  0
LINE
  5
738
100
AcDbEntity
  8
M0
 62
     7
100
AcDbLine
 10
203.195987
 20
564.04479
 11
188.719311
 21
564.044897
  0
ARC
  5
739
100
AcDbEntity
  8
M0
 62
     7
100
AcDbCircle
 10
233.869474
 20
560.545583
 40
6.999995
100
AcDbArc
 50
90.0
 51
94.077386
  0
LINE
  5
73A
100
AcDbEntity
  8
M0
 62
     7
100
AcDbLine
 10
230.410841
 20
564.045125
 11
230.410841
 21
560.445516
  0
LINE
  5
73B
100
AcDbEntity
  8
M0
 62
     7
100
AcDbLine
 10
230.611036
 20
564.045125
 11
230.611036
 21
561.745321
  0
LINE
  5
73C
100
AcDbEntity
  8
M0
 62
     7
100
AcDbLine
 10
230.410841
 20
560.44576
 11
231.161085
 21
560.44576
  0
LINE
  5
73D
100
AcDbEntity
  8
M0
 62
     7
100
AcDbLine
 10
230.611036
 20
564.045125
 11
230.611036
 21
561.745321
  0
LINE
  5
73E
100
AcDbEntity
  8
M0
 62
     7
100
AcDbLine
 10
230.611036
 20
564.045125
 11
230.611036
 21
561.745321
  0
LINE
  5
73F
100
AcDbEntity
  8
M0
 62
     7
100
AcDbLine
 10
230.410841
 20
561.745321
 11
230.611036
 21
561.745321
  0
LINE
  5
740
100
AcDbEntity
  8
M0
 62
     7
100
AcDbLine
 10
230.410841
 20
564.045125
 11
230.410841
 21
560.445516
  0
LINE
  5
741
100
AcDbEntity
  8
M0
 62
     7
100
AcDbLine
 10
222.665296
 20
564.045064
 11
230.611036
 21
564.045125
  0
LINE
  5
742
100
AcDbEntity
  8
M0
 62
     7
100
AcDbLine
 10
222.665296
 20
564.54508
 11
231.161085
 21
564.545125
  0
LINE
  5
743
100
AcDbEntity
  8
M0
 62
     7
100
AcDbLine
 10
222.665296
 20
564.54508
 11
214.169507
 21
564.545125
  0
CIRCLE
  5
744
100
AcDbEntity
  8
M0
100
AcDbCircle
 10
244.669263
 20
570.045125
 40
3.499992
  0
LINE
  5
745
100
AcDbEntity
  8
M0
100
AcDbLine
 10
246.436933
 20
568.276815
 11
242.901594
 21
571.812704
  0
LINE
  5
746
100
AcDbEntity
  8
M0
100
AcDbLine
 10
244.138731
 20
568.453573
 11
246.260114
 21
570.574911
  0
LINE
  5
747
100
AcDbEntity
  8
M0
100
AcDbLine
 10
243.078138
 20
569.51412
 11
245.199506
 21
571.635457
  0
LINE
  5
748
100
AcDbEntity
  8
M0
100
AcDbLine
 10
242.069624
 20
535.945012
 11
243.889692
 21
535.945012
  0
LINE
  5
749
100
AcDbEntity
  8
M0
100
AcDbLine
 10
239.269575
 20
535.945012
 11
237.669477
 21
535.944997
  0
LINE
  5
74A
100
AcDbEntity
  8
M0
100
AcDbLine
 10
238.188764
 20
534.745061
 11
243.150434
 21
534.745061
  0
LINE
  5
74B
100
AcDbEntity
  8
M0
100
AcDbLine
 10
242.069624
 20
535.945012
 11
242.069624
 21
536.39179
  0
LINE
  5
74C
100
AcDbEntity
  8
M0
100
AcDbLine
 10
239.269575
 20
535.945012
 11
239.269575
 21
536.39179
  0
ARC
  5
74D
100
AcDbEntity
  8
M0
100
AcDbCircle
 10
238.188764
 20
535.245061
 40
0.5
100
AcDbArc
 50
197.116099
 51
269.998251
  0
ARC
  5
74E
100
AcDbEntity
  8
M0
100
AcDbCircle
 10
243.150434
 20
535.245061
 40
0.5
100
AcDbArc
 50
269.998251
 51
342.876188
  0
LINE
  5
74F
100
AcDbEntity
  8
M0
  6
DASHDOT
100
AcDbLine
 10
234.345747
 20
539.04511
 11
246.781538
 21
539.04511
  0
CIRCLE
  5
750
100
AcDbEntity
  8
M0
100
AcDbCircle
 10
240.669721
 20
539.04511
 40
2.999996
  0
LINE
  5
751
100
AcDbEntity
  8
M0
100
AcDbLine
 10
244.201795
 20
541.132482
 11
244.444624
 21
540.345159
  0
LINE
  5
752
100
AcDbEntity
  8
M0
100
AcDbLine
 10
243.628217
 20
535.097844
 11
244.444624
 21
537.745061
  0
LINE
  5
753
100
AcDbEntity
  8
M0
100
AcDbLine
 10
242.991254
 20
540.945012
 11
244.259565
 21
540.945012
  0
LINE
  5
754
100
AcDbEntity
  8
M0
100
AcDbLine
 10
242.991254
 20
537.144964
 11
244.259565
 21
537.144964
  0
LINE
  5
755
100
AcDbEntity
  8
M0
100
AcDbLine
 10
238.347944
 20
540.945012
 11
237.669477
 21
540.944997
  0
LINE
  5
756
100
AcDbEntity
  8
M0
100
AcDbLine
 10
238.347944
 20
537.144964
 11
237.669477
 21
537.144948
  0
LINE
  5
757
100
AcDbEntity
  8
M0
100
AcDbLine
 10
244.444624
 20
537.745061
 11
244.444624
 21
540.345159
  0
LINE
  5
758
100
AcDbEntity
  8
M0
100
AcDbLine
 10
242.069624
 20
541.69843
 11
242.069624
 21
542.241247
  0
LINE
  5
759
100
AcDbEntity
  8
M0
100
AcDbLine
 10
239.269575
 20
541.69843
 11
239.269575
 21
542.345403
  0
LINE
  5
75A
100
AcDbEntity
  8
M0
100
AcDbLine
 10
242.260297
 20
537.45429
 11
239.078657
 21
540.63593
  0
LINE
  5
75B
100
AcDbEntity
  8
M0
100
AcDbLine
 10
241.022993
 20
540.459173
 11
239.255415
 21
538.691594
  0
LINE
  5
75C
100
AcDbEntity
  8
M0
100
AcDbLine
 10
242.08354
 20
539.398626
 11
240.315961
 21
537.631048
  0
LINE
  5
75D
100
AcDbEntity
  8
M0
100
AcDbLine
 10
253.069639
 20
535.945012
 11
254.889707
 21
535.945012
  0
LINE
  5
75E
100
AcDbEntity
  8
M0
100
AcDbLine
 10
250.26959
 20
535.945012
 11
248.449522
 21
535.945012
  0
LINE
  5
75F
100
AcDbEntity
  8
M0
100
AcDbLine
 10
249.188779
 20
534.745061
 11
254.150449
 21
534.745061
  0
LINE
  5
760
100
AcDbEntity
  8
M0
100
AcDbLine
 10
253.069639
 20
535.945012
 11
253.069639
 21
536.39179
  0
LINE
  5
761
100
AcDbEntity
  8
M0
100
AcDbLine
 10
250.26959
 20
535.945012
 11
250.26959
 21
536.39179
  0
ARC
  5
762
100
AcDbEntity
  8
M0
100
AcDbCircle
 10
249.188779
 20
535.245061
 40
0.5
100
AcDbArc
 50
197.116099
 51
269.998251
  0
ARC
  5
763
100
AcDbEntity
  8
M0
100
AcDbCircle
 10
254.150449
 20
535.245061
 40
0.5
100
AcDbArc
 50
269.998251
 51
342.876188
  0
LINE
  5
764
100
AcDbEntity
  8
M0
  6
DASHDOT
100
AcDbLine
 10
245.345762
 20
539.04511
 11
257.781553
 21
539.04511
  0
CIRCLE
  5
765
100
AcDbEntity
  8
M0
100
AcDbCircle
 10
251.669736
 20
539.04511
 40
2.999996
  0
LINE
  5
766
100
AcDbEntity
  8
M0
100
AcDbLine
 10
248.110456
 20
541.045354
 11
247.89459
 21
540.345159
  0
LINE
  5
767
100
AcDbEntity
  8
M0
100
AcDbLine
 10
248.710752
 20
535.097844
 11
247.89459
 21
537.745061
  0
LINE
  5
768
100
AcDbEntity
  8
M0
100
AcDbLine
 10
254.827756
 20
542.345388
 11
255.444639
 21
540.345159
  0
LINE
  5
769
100
AcDbEntity
  8
M0
100
AcDbLine
 10
254.628233
 20
535.097844
 11
255.444639
 21
537.745061
  0
LINE
  5
76A
100
AcDbEntity
  8
M0
100
AcDbLine
 10
253.069639
 20
542.144964
 11
254.889707
 21
542.144964
  0
LINE
  5
76B
100
AcDbEntity
  8
M0
100
AcDbLine
 10
253.99127
 20
540.945012
 11
255.25958
 21
540.945012
  0
LINE
  5
76C
100
AcDbEntity
  8
M0
100
AcDbLine
 10
253.99127
 20
537.144964
 11
255.25958
 21
537.144964
  0
LINE
  5
76D
100
AcDbEntity
  8
M0
100
AcDbLine
 10
249.347959
 20
540.945012
 11
248.079649
 21
540.945012
  0
LINE
  5
76E
100
AcDbEntity
  8
M0
100
AcDbLine
 10
249.347959
 20
537.144964
 11
248.079649
 21
537.144964
  0
LINE
  5
76F
100
AcDbEntity
  8
M0
100
AcDbLine
 10
255.444639
 20
537.745061
 11
255.444639
 21
540.345159
  0
LINE
  5
770
100
AcDbEntity
  8
M0
100
AcDbLine
 10
247.89459
 20
540.345159
 11
247.89459
 21
537.745061
  0
LINE
  5
771
100
AcDbEntity
  8
M0
100
AcDbLine
 10
253.069639
 20
541.69843
 11
253.069639
 21
542.144964
  0
LINE
  5
772
100
AcDbEntity
  8
M0
100
AcDbLine
 10
250.26959
 20
541.69843
 11
250.26959
 21
542.033498
  0
LINE
  5
773
100
AcDbEntity
  8
M0
100
AcDbLine
 10
253.260313
 20
537.45429
 11
250.078672
 21
540.63593
  0
LINE
  5
774
100
AcDbEntity
  8
M0
100
AcDbLine
 10
252.023008
 20
540.459173
 11
250.25543
 21
538.691594
  0
LINE
  5
775
100
AcDbEntity
  8
M0
100
AcDbLine
 10
253.083555
 20
539.398626
 11
251.315977
 21
537.631048
  0
LINE
  5
776
100
AcDbEntity
  8
M0
  6
DASHDOT
100
AcDbLine
 10
251.669492
 20
523.104925
 11
251.669492
 21
546.345891
  0
LINE
  5
777
100
AcDbEntity
  8
M0
  6
DASHDOT
100
AcDbLine
 10
240.669492
 20
523.104925
 11
240.669492
 21
546.345891
  0
LINE
  5
778
100
AcDbEntity
  8
M0
100
AcDbLine
 10
253.069639
 20
528.945272
 11
254.889707
 21
528.945272
  0
LINE
  5
779
100
AcDbEntity
  8
M0
100
AcDbLine
 10
250.26959
 20
528.945272
 11
248.449522
 21
528.945272
  0
LINE
  5
77A
100
AcDbEntity
  8
M0
100
AcDbLine
 10
249.188779
 20
527.745321
 11
254.150449
 21
527.745321
  0
LINE
  5
77B
100
AcDbEntity
  8
M0
100
AcDbLine
 10
253.069639
 20
528.945272
 11
253.069639
 21
529.392049
  0
LINE
  5
77C
100
AcDbEntity
  8
M0
100
AcDbLine
 10
250.26959
 20
528.945272
 11
250.26959
 21
529.392049
  0
ARC
  5
77D
100
AcDbEntity
  8
M0
100
AcDbCircle
 10
249.188779
 20
528.245321
 40
0.5
100
AcDbArc
 50
197.116099
 51
269.998251
  0
ARC
  5
77E
100
AcDbEntity
  8
M0
100
AcDbCircle
 10
254.150449
 20
528.245321
 40
0.5
100
AcDbArc
 50
269.998251
 51
342.876188
  0
LINE
  5
77F
100
AcDbEntity
  8
M0
  6
DASHDOT
100
AcDbLine
 10
245.345762
 20
532.04537
 11
257.781553
 21
532.04537
  0
ARC
  5
780
100
AcDbEntity
  8
M0
100
AcDbCircle
 10
251.669736
 20
532.04537
 40
2.999996
100
AcDbArc
 50
115.855399
 51
424.14499
  0
LINE
  5
781
100
AcDbEntity
  8
M0
100
AcDbLine
 10
248.489454
 20
535.274892
 11
247.89459
 21
533.345418
  0
LINE
  5
782
100
AcDbEntity
  8
M0
100
AcDbLine
 10
248.710752
 20
528.098104
 11
247.89459
 21
530.745321
  0
LINE
  5
783
100
AcDbEntity
  8
M0
100
AcDbLine
 10
254.849561
 20
535.274907
 11
255.444639
 21
533.345418
  0
LINE
  5
784
100
AcDbEntity
  8
M0
100
AcDbLine
 10
254.628233
 20
528.098104
 11
255.444639
 21
530.745321
  0
LINE
  5
785
100
AcDbEntity
  8
M0
100
AcDbLine
 10
248.449476
 20
535.145223
 11
248.619138
 21
535.145223
  0
LINE
  5
786
100
AcDbEntity
  8
M0
100
AcDbLine
 10
253.99127
 20
533.945272
 11
255.25958
 21
533.945272
  0
LINE
  5
787
100
AcDbEntity
  8
M0
100
AcDbLine
 10
253.99127
 20
530.145223
 11
255.25958
 21
530.145223
  0
LINE
  5
788
100
AcDbEntity
  8
M0
100
AcDbLine
 10
249.347959
 20
533.945272
 11
248.079649
 21
533.945272
  0
LINE
  5
789
100
AcDbEntity
  8
M0
100
AcDbLine
 10
249.347959
 20
530.145223
 11
248.079649
 21
530.145223
  0
LINE
  5
78A
100
AcDbEntity
  8
M0
100
AcDbLine
 10
255.444639
 20
530.745321
 11
255.444639
 21
533.345418
  0
LINE
  5
78B
100
AcDbEntity
  8
M0
100
AcDbLine
 10
247.89459
 20
533.345418
 11
247.89459
 21
530.745321
  0
LINE
  5
78C
100
AcDbEntity
  8
M0
100
AcDbLine
 10
253.260313
 20
530.454549
 11
250.078672
 21
533.63619
  0
LINE
  5
78D
100
AcDbEntity
  8
M0
100
AcDbLine
 10
252.023008
 20
533.459432
 11
250.25543
 21
531.691854
  0
LINE
  5
78E
100
AcDbEntity
  8
M0
100
AcDbLine
 10
253.083555
 20
532.398885
 11
251.315977
 21
530.631307
  0
LINE
  5
78F
100
AcDbEntity
  8
M0
100
AcDbLine
 10
254.719877
 20
535.145223
 11
254.889707
 21
535.145223
  0
LINE
  5
790
100
AcDbEntity
  8
M0
100
AcDbLine
 10
242.069639
 20
528.945272
 11
243.889707
 21
528.945272
  0
LINE
  5
791
100
AcDbEntity
  8
M0
100
AcDbLine
 10
239.26959
 20
528.945272
 11
237.669477
 21
528.945257
  0
LINE
  5
792
100
AcDbEntity
  8
M0
100
AcDbLine
 10
238.188779
 20
527.745321
 11
243.150449
 21
527.745321
  0
LINE
  5
793
100
AcDbEntity
  8
M0
100
AcDbLine
 10
242.069639
 20
528.945272
 11
242.069639
 21
529.392049
  0
LINE
  5
794
100
AcDbEntity
  8
M0
100
AcDbLine
 10
239.26959
 20
528.945272
 11
239.26959
 21
529.392049
  0
ARC
  5
795
100
AcDbEntity
  8
M0
100
AcDbCircle
 10
238.188779
 20
528.245321
 40
0.5
100
AcDbArc
 50
197.116099
 51
269.998251
  0
ARC
  5
796
100
AcDbEntity
  8
M0
100
AcDbCircle
 10
243.150449
 20
528.245321
 40
0.5
100
AcDbArc
 50
269.998251
 51
342.876188
  0
LINE
  5
797
100
AcDbEntity
  8
M0
  6
DASHDOT
100
AcDbLine
 10
234.345762
 20
532.04537
 11
246.781553
 21
532.04537
  0
ARC
  5
798
100
AcDbEntity
  8
M0
100
AcDbCircle
 10
240.669736
 20
532.04537
 40
2.999996
100
AcDbArc
 50
115.855399
 51
424.14499
  0
LINE
  5
799
100
AcDbEntity
  8
M0
100
AcDbLine
 10
237.710752
 20
528.098104
 11
237.669477
 21
528.231969
  0
LINE
  5
79A
100
AcDbEntity
  8
M0
100
AcDbLine
 10
243.8495
 20
535.275106
 11
244.444639
 21
533.345418
  0
LINE
  5
79B
100
AcDbEntity
  8
M0
100
AcDbLine
 10
243.628233
 20
528.098104
 11
244.444639
 21
530.745321
  0
LINE
  5
79C
100
AcDbEntity
  8
M0
100
AcDbLine
 10
242.99127
 20
533.945272
 11
244.25958
 21
533.945272
  0
LINE
  5
79D
100
AcDbEntity
  8
M0
100
AcDbLine
 10
242.99127
 20
530.145223
 11
244.25958
 21
530.145223
  0
LINE
  5
79E
100
AcDbEntity
  8
M0
100
AcDbLine
 10
238.347959
 20
533.945272
 11
237.669477
 21
533.945257
  0
LINE
  5
79F
100
AcDbEntity
  8
M0
100
AcDbLine
 10
238.347959
 20
530.145223
 11
237.669477
 21
530.145208
  0
LINE
  5
7A0
100
AcDbEntity
  8
M0
100
AcDbLine
 10
244.444639
 20
530.745321
 11
244.444639
 21
533.345418
  0
LINE
  5
7A1
100
AcDbEntity
  8
M0
100
AcDbLine
 10
242.069639
 20
534.69869
 11
242.069639
 21
536.392003
  0
LINE
  5
7A2
100
AcDbEntity
  8
M0
100
AcDbLine
 10
239.26959
 20
534.69869
 11
239.26959
 21
536.392126
  0
LINE
  5
7A3
100
AcDbEntity
  8
M0
100
AcDbLine
 10
242.260313
 20
530.454549
 11
239.078672
 21
533.63619
  0
LINE
  5
7A4
100
AcDbEntity
  8
M0
100
AcDbLine
 10
241.023008
 20
533.459432
 11
239.25543
 21
531.691854
  0
LINE
  5
7A5
100
AcDbEntity
  8
M0
100
AcDbLine
 10
242.083555
 20
532.398885
 11
240.315977
 21
530.631307
  0
CIRCLE
  5
7A6
100
AcDbEntity
  8
M0
100
AcDbCircle
 10
222.665281
 20
531.445745
 40
5.249997
  0
LINE
  5
7A7
100
AcDbEntity
  8
M0
  6
DASHDOT
100
AcDbLine
 10
213.039825
 20
531.445745
 11
231.802274
 21
531.445745
  0
LINE
  5
7A8
100
AcDbEntity
  8
M0
  6
DASHDOT
100
AcDbLine
 10
222.665281
 20
521.615957
 11
222.665281
 21
540.614065
  0
CIRCLE
  5
7A9
100
AcDbEntity
  8
M0
100
AcDbCircle
 10
222.665281
 20
531.445745
 40
5.749994
  0
LINE
  5
7AA
100
AcDbEntity
  8
M0
100
AcDbLine
 10
219.836774
 20
534.27419
 11
225.493513
 21
528.617315
  0
LINE
  5
7AB
100
AcDbEntity
  8
M0
100
AcDbLine
 10
221.958097
 20
529.324392
 11
224.786481
 21
532.152807
  0
LINE
  5
7AC
100
AcDbEntity
  8
M0
100
AcDbLine
 10
220.543882
 20
530.738622
 11
223.372175
 21
533.567068
  0
CIRCLE
  5
7AD
100
AcDbEntity
  8
M0
100
AcDbCircle
 10
222.665296
 20
554.945745
 40
5.249997
  0
LINE
  5
7AE
100
AcDbEntity
  8
M0
  6
DASHDOT
100
AcDbLine
 10
212.749786
 20
554.945745
 11
237.915159
 21
554.945745
  0
LINE
  5
7AF
100
AcDbEntity
  8
M0
  6
DASHDOT
100
AcDbLine
 10
222.665296
 20
545.200506
 11
222.665296
 21
564.778722
  0
CIRCLE
  5
7B0
100
AcDbEntity
  8
M0
100
AcDbCircle
 10
222.665296
 20
554.945745
 40
5.749994
  0
LINE
  5
7B1
100
AcDbEntity
  8
M0
100
AcDbLine
 10
219.83679
 20
557.77419
 11
225.493528
 21
552.117315
  0
LINE
  5
7B2
100
AcDbEntity
  8
M0
100
AcDbLine
 10
221.958112
 20
552.824392
 11
224.786497
 21
555.652807
  0
LINE
  5
7B3
100
AcDbEntity
  8
M0
100
AcDbLine
 10
220.543897
 20
554.238622
 11
223.37219
 21
557.067068
  0
CIRCLE
  5
7B4
100
AcDbEntity
  8
M0
100
AcDbCircle
 10
196.665299
 20
554.945989
 40
5.249997
  0
LINE
  5
7B5
100
AcDbEntity
  8
M0
  6
DASHDOT
100
AcDbLine
 10
160.577406
 20
554.945989
 11
180.735685
 21
554.945989
  0
LINE
  5
7B6
100
AcDbEntity
  8
M0
  6
DASHDOT
100
AcDbLine
 10
196.665299
 20
545.635579
 11
196.665299
 21
564.851232
  0
CIRCLE
  5
7B7
100
AcDbEntity
  8
M0
100
AcDbCircle
 10
196.665299
 20
554.945989
 40
5.749994
  0
LINE
  5
7B8
100
AcDbEntity
  8
M0
100
AcDbLine
 10
193.836793
 20
557.774434
 11
199.493531
 21
552.117559
  0
LINE
  5
7B9
100
AcDbEntity
  8
M0
100
AcDbLine
 10
195.958115
 20
552.824636
 11
198.7865
 21
555.653051
  0
LINE
  5
7BA
100
AcDbEntity
  8
M0
100
AcDbLine
 10
194.5439
 20
554.238866
 11
197.372193
 21
557.067312
  0
LINE
  5
7BB
100
AcDbEntity
  8
M0
  6
DASHDOT
100
AcDbLine
 10
187.279951
 20
554.945989
 11
206.259918
 21
554.945989
  0
CIRCLE
  5
7BC
100
AcDbEntity
  8
M0
100
AcDbCircle
 10
196.665284
 20
531.445989
 40
5.249997
  0
LINE
  5
7BD
100
AcDbEntity
  8
M0
  6
DASHDOT
100
AcDbLine
 10
186.844877
 20
531.445989
 11
206.767501
 21
531.445989
  0
LINE
  5
7BE
100
AcDbEntity
  8
M0
  6
DASHDOT
100
AcDbLine
 10
196.665284
 20
522.558614
 11
196.665284
 21
540.759099
  0
CIRCLE
  5
7BF
100
AcDbEntity
  8
M0
100
AcDbCircle
 10
196.665284
 20
531.445989
 40
5.749994
  0
LINE
  5
7C0
100
AcDbEntity
  8
M0
100
AcDbLine
 10
193.836777
 20
534.274434
 11
199.493516
 21
528.617559
  0
LINE
  5
7C1
100
AcDbEntity
  8
M0
100
AcDbLine
 10
195.9581
 20
529.324636
 11
198.786484
 21
532.153051
  0
LINE
  5
7C2
100
AcDbEntity
  8
M0
100
AcDbLine
 10
194.543885
 20
530.738866
 11
197.372178
 21
533.567312
  0
CIRCLE
  5
7C3
100
AcDbEntity
  8
M0
100
AcDbCircle
 10
170.66554
 20
531.445989
 40
5.249997
  0
LINE
  5
7C4
100
AcDbEntity
  8
M0
  6
DASHDOT
100
AcDbLine
 10
161.084974
 20
531.445989
 11
180.590665
 21
531.445989
  0
LINE
  5
7C5
100
AcDbEntity
  8
M0
  6
DASHDOT
100
AcDbLine
 10
170.66554
 20
521.470937
 11
170.66554
 21
541.266683
  0
CIRCLE
  5
7C6
100
AcDbEntity
  8
M0
100
AcDbCircle
 10
170.66554
 20
531.445989
 40
5.749994
  0
LINE
  5
7C7
100
AcDbEntity
  8
M0
100
AcDbLine
 10
167.837034
 20
534.274434
 11
173.493772
 21
528.617559
  0
LINE
  5
7C8
100
AcDbEntity
  8
M0
100
AcDbLine
 10
169.958356
 20
529.324636
 11
172.786741
 21
532.153051
  0
LINE
  5
7C9
100
AcDbEntity
  8
M0
100
AcDbLine
 10
168.544141
 20
530.738866
 11
171.372434
 21
533.567312
  0
LINE
  5
7CA
100
AcDbEntity
  8
M0
 62
     5
100
AcDbLine
 10
230.665006
 20
511.046468
 11
230.66525
 21
519.54598
  0
LINE
  5
7CB
100
AcDbEntity
  8
M0
 62
     5
100
AcDbLine
 10
162.665998
 20
519.546712
 11
162.665998
 21
511.047201
  0
LINE
  5
7CC
100
AcDbEntity
  8
M0
 62
     5
100
AcDbLine
 10
178.664777
 20
511.047445
 11
214.665741
 21
511.047445
  0
LINE
  5
7CD
100
AcDbEntity
  8
M0
 62
     5
100
AcDbLine
 10
182.665266
 20
514.047201
 11
187.665021
 21
514.047201
  0
LINE
  5
7CE
100
AcDbEntity
  8
M0
 62
     5
100
AcDbLine
 10
187.665266
 20
516.046956
 11
193.665742
 21
516.046956
  0
LINE
  5
7CF
100
AcDbEntity
  8
M0
 62
     5
100
AcDbLine
 10
199.665742
 20
522.546468
 11
199.665253
 21
516.04598
  0
LINE
  5
7D0
100
AcDbEntity
  8
M0
 62
     5
100
AcDbLine
 10
193.665742
 20
522.546712
 11
193.665497
 21
516.046712
  0
LINE
  5
7D1
100
AcDbEntity
  8
M0
 62
     5
100
AcDbLine
 10
209.165252
 20
514.046224
 11
209.165252
 21
511.04598
  0
LINE
  5
7D2
100
AcDbEntity
  8
M0
 62
     5
100
AcDbLine
 10
207.165252
 20
514.046224
 11
207.165252
 21
511.046224
  0
LINE
  5
7D3
100
AcDbEntity
  8
M0
 62
     5
100
AcDbLine
 10
186.165266
 20
514.046468
 11
186.165266
 21
511.046468
  0
LINE
  5
7D4
100
AcDbEntity
  8
M0
 62
     5
100
AcDbLine
 10
184.165266
 20
514.046712
 11
184.165266
 21
511.046712
  0
LINE
  5
7D5
100
AcDbEntity
  8
M0
 62
     5
100
AcDbLine
 10
210.665359
 20
519.546712
 11
210.664764
 21
514.045492
  0
LINE
  5
7D6
100
AcDbEntity
  8
M0
 62
     5
100
AcDbLine
 10
205.665252
 20
516.046224
 11
205.665252
 21
514.046224
  0
LINE
  5
7D7
100
AcDbEntity
  8
M0
 62
     5
100
AcDbLine
 10
187.665266
 20
516.046468
 11
187.665266
 21
514.046468
  0
LINE
  5
7D8
100
AcDbEntity
  8
M0
 62
     5
100
AcDbLine
 10
182.665617
 20
519.546956
 11
182.665021
 21
514.046712
  0
LINE
  5
7D9
100
AcDbEntity
  8
M0
 62
     5
100
AcDbLine
 10
162.665998
 20
519.547201
 11
163.16551
 21
519.547201
  0
LINE
  5
7DA
100
AcDbEntity
  8
M0
 62
     5
100
AcDbLine
 10
193.665742
 20
522.546712
 11
199.665497
 21
522.546468
  0
LINE
  5
7DB
100
AcDbEntity
  8
M0
 62
     5
100
AcDbLine
 10
199.665497
 20
519.546712
 11
215.165252
 21
519.546712
  0
LINE
  5
7DC
100
AcDbEntity
  8
M0
 62
     5
100
AcDbLine
 10
199.665009
 20
516.046712
 11
205.665008
 21
516.046712
  0
LINE
  5
7DD
100
AcDbEntity
  8
M0
 62
     5
100
AcDbLine
 10
205.664764
 20
514.046956
 11
210.664764
 21
514.046956
  0
LINE
  5
7DE
100
AcDbEntity
  8
M0
 62
     5
100
AcDbLine
 10
213.665008
 20
519.546468
 11
213.665008
 21
511.04598
  0
LINE
  5
7DF
100
AcDbEntity
  8
M0
 62
     5
100
AcDbLine
 10
179.66551
 20
519.546956
 11
179.665266
 21
511.046712
  0
LINE
  5
7E0
100
AcDbEntity
  8
M0
 62
     5
100
AcDbLine
 10
212.665252
 20
506.046712
 11
212.665252
 21
511.045736
  0
LINE
  5
7E1
100
AcDbEntity
  8
M0
 62
     5
100
AcDbLine
 10
180.66551
 20
511.046956
 11
180.665266
 21
506.046956
  0
LINE
  5
7E2
100
AcDbEntity
  8
M0
 62
     5
100
AcDbLine
 10
230.165006
 20
519.546712
 11
230.66525
 21
519.546468
  0
LINE
  5
7E3
100
AcDbEntity
  8
M0
 62
     5
100
AcDbLine
 10
212.665252
 20
509.046468
 11
212.665252
 21
487.546468
  0
LINE
  5
7E4
100
AcDbEntity
  8
M0
 62
     5
100
AcDbLine
 10
212.665252
 20
487.546468
 11
232.66525
 21
487.546468
  0
LINE
  5
7E5
100
AcDbEntity
  8
M0
 62
     5
100
AcDbLine
 10
232.66525
 20
487.546468
 11
232.665006
 21
509.046468
  0
LINE
  5
7E6
100
AcDbEntity
  8
M0
  6
DASHDOT
 62
     5
100
AcDbLine
 10
222.66525
 20
507.318654
 11
222.66525
 21
486.389074
  0
LINE
  5
7E7
100
AcDbEntity
  8
M0
  6
DASHDOT
 62
     5
100
AcDbLine
 10
232.66525
 20
497.546468
 11
212.665252
 21
497.546468
  0
LINE
  5
7E8
100
AcDbEntity
  8
M0
 62
     5
100
AcDbLine
 10
215.165252
 20
540.445241
 11
215.165252
 21
511.546468
  0
LINE
  5
7E9
100
AcDbEntity
  8
M0
 62
     5
100
AcDbLine
 10
230.16525
 20
540.445241
 11
230.16525
 21
511.546468
  0
LINE
  5
7EA
100
AcDbEntity
  8
M0
 62
     5
100
AcDbLine
 10
230.16525
 20
511.546468
 11
232.66525
 21
509.046468
  0
LINE
  5
7EB
100
AcDbEntity
  8
M0
 62
     5
100
AcDbLine
 10
215.165252
 20
511.546468
 11
212.665252
 21
509.046468
  0
LINE
  5
7EC
100
AcDbEntity
  8
M0
 62
     5
100
AcDbLine
 10
230.16525
 20
520.846273
 11
215.165252
 21
520.846273
  0
CIRCLE
  5
7ED
100
AcDbEntity
  8
M0
 62
     5
100
AcDbCircle
 10
222.66525
 20
497.546468
 40
3.49999
  0
LINE
  5
7EE
100
AcDbEntity
  8
M0
 62
     5
100
AcDbLine
 10
160.66551
 20
509.046712
 11
160.66551
 21
487.546712
  0
LINE
  5
7EF
100
AcDbEntity
  8
M0
 62
     5
100
AcDbLine
 10
160.66551
 20
487.546712
 11
180.66551
 21
487.546712
  0
LINE
  5
7F0
100
AcDbEntity
  8
M0
 62
     5
100
AcDbLine
 10
180.66551
 20
487.546712
 11
180.665266
 21
509.046712
  0
LINE
  5
7F1
100
AcDbEntity
  8
M0
  6
DASHDOT
 62
     5
100
AcDbLine
 10
170.66551
 20
507.826253
 11
170.66551
 21
486.534093
  0
LINE
  5
7F2
100
AcDbEntity
  8
M0
  6
DASHDOT
 62
     5
100
AcDbLine
 10
180.66551
 20
497.546712
 11
160.66551
 21
497.546712
  0
LINE
  5
7F3
100
AcDbEntity
  8
M0
 62
     5
100
AcDbLine
 10
163.16551
 20
540.445272
 11
163.16551
 21
511.546712
  0
LINE
  5
7F4
100
AcDbEntity
  8
M0
 62
     5
100
AcDbLine
 10
178.16551
 20
540.445272
 11
178.16551
 21
511.546712
  0
LINE
  5
7F5
100
AcDbEntity
  8
M0
 62
     5
100
AcDbLine
 10
178.16551
 20
511.546712
 11
180.66551
 21
509.046712
  0
LINE
  5
7F6
100
AcDbEntity
  8
M0
 62
     5
100
AcDbLine
 10
163.16551
 20
511.546712
 11
160.66551
 21
509.046712
  0
LINE
  5
7F7
100
AcDbEntity
  8
M0
 62
     5
100
AcDbLine
 10
178.16551
 20
520.846517
 11
163.16551
 21
520.846517
  0
CIRCLE
  5
7F8
100
AcDbEntity
  8
M0
 62
     5
100
AcDbCircle
 10
170.66551
 20
497.546712
 40
3.49999
  0
LINE
  5
7F9
100
AcDbEntity
  8
M0
 62
     5
100
AcDbLine
 10
186.665266
 20
509.046468
 11
186.665266
 21
487.546468
  0
LINE
  5
7FA
100
AcDbEntity
  8
M0
 62
     5
100
AcDbLine
 10
186.665266
 20
487.546468
 11
206.665252
 21
487.546468
  0
LINE
  5
7FB
100
AcDbEntity
  8
M0
 62
     5
100
AcDbLine
 10
206.665252
 20
487.546468
 11
206.665008
 21
509.046468
  0
LINE
  5
7FC
100
AcDbEntity
  8
M0
  6
DASHDOT
 62
     5
100
AcDbLine
 10
196.665253
 20
507.862508
 11
196.665253
 21
486.969167
  0
LINE
  5
7FD
100
AcDbEntity
  8
M0
  6
DASHDOT
 62
     5
100
AcDbLine
 10
206.665252
 20
497.546468
 11
186.665266
 21
497.546468
  0
LINE
  5
7FE
100
AcDbEntity
  8
M0
 62
     5
100
AcDbLine
 10
189.165253
 20
540.445257
 11
189.165253
 21
519.546956
  0
LINE
  5
7FF
100
AcDbEntity
  8
M0
 62
     5
100
AcDbLine
 10
204.165253
 20
540.445257
 11
204.165253
 21
519.546712
  0
LINE
  5
800
100
AcDbEntity
  8
M0
 62
     5
100
AcDbLine
 10
204.664276
 20
511.047445
 11
206.665252
 21
509.046468
  0
LINE
  5
801
100
AcDbEntity
  8
M0
 62
     5
100
AcDbLine
 10
188.66623
 20
511.047445
 11
186.665266
 21
509.046468
  0
CIRCLE
  5
802
100
AcDbEntity
  8
M0
 62
     5
100
AcDbCircle
 10
196.665253
 20
497.546468
 40
3.49999
  0
LINE
  5
803
100
AcDbEntity
  8
M0
 62
     5
100
AcDbLine
 10
178.16551
 20
519.546956
 11
193.665742
 21
519.546956
  0
CIRCLE
  5
804
100
AcDbEntity
  8
M0
100
AcDbCircle
 10
170.665556
 20
554.945989
 40
5.249997
  0
LINE
  5
805
100
AcDbEntity
  8
M0
  6
DASHDOT
100
AcDbLine
 10
170.665556
 20
545.273031
 11
170.665556
 21
565.793889
  0
CIRCLE
  5
806
100
AcDbEntity
  8
M0
100
AcDbCircle
 10
170.665556
 20
554.945989
 40
5.749994
  0
LINE
  5
807
100
AcDbEntity
  8
M0
100
AcDbLine
 10
167.837049
 20
557.774434
 11
173.493787
 21
552.117559
  0
LINE
  5
808
100
AcDbEntity
  8
M0
100
AcDbLine
 10
169.958372
 20
552.824636
 11
172.786756
 21
555.653051
  0
LINE
  5
809
100
AcDbEntity
  8
M0
100
AcDbLine
 10
168.544157
 20
554.238866
 11
171.372449
 21
557.067312
  0
ARC
  5
80A
100
AcDbEntity
  8
M0
100
AcDbCircle
 10
160.669569
 20
531.262288
 40
3.499992
100
AcDbArc
 50
193.498619
 51
279.871542
  0
LINE
  5
80B
100
AcDbEntity
  8
M0
100
AcDbLine
 10
161.269605
 20
530.661779
 11
159.669523
 21
532.262105
  0
LINE
  5
80C
100
AcDbEntity
  8
M0
100
AcDbLine
 10
160.139036
 20
529.670736
 11
161.269605
 21
530.801275
  0
LINE
  5
80D
100
AcDbEntity
  8
M0
100
AcDbLine
 10
159.660795
 20
531.313634
 11
161.199812
 21
532.85262
  0
LINE
  5
80E
100
AcDbEntity
  8
M0
100
AcDbLine
 10
195.169272
 20
596.54511
 11
195.169272
 21
577.749761
  0
ARC
  5
80F
100
AcDbEntity
  8
M0
100
AcDbCircle
 10
198.169272
 20
596.54511
 40
3.0
100
AcDbArc
 50
90.0
 51
179.999709
  0
LINE
  5
810
100
AcDbEntity
  8
M0
100
AcDbLine
 10
209.169271
 20
599.54511
 11
198.169272
 21
599.54511
  0
LINE
  5
811
100
AcDbEntity
  8
M0
100
AcDbLine
 10
212.169271
 20
582.54511
 11
212.169271
 21
596.54511
  0
LINE
  5
812
100
AcDbEntity
  8
M0
100
AcDbLine
 10
212.169271
 20
582.54511
 11
204.594342
 21
569.920232
  0
ARC
  5
813
100
AcDbEntity
  8
M0
100
AcDbCircle
 10
185.169279
 20
577.749761
 40
10.0
100
AcDbArc
 50
324.462332
 51
360.0
  0
LINE
  5
814
100
AcDbEntity
  8
M0
100
AcDbLine
 10
190.169272
 20
567.54511
 11
193.306606
 21
571.937383
  0
ARC
  5
815
100
AcDbEntity
  8
M0
100
AcDbCircle
 10
209.169271
 20
596.54511
 40
3.0
100
AcDbArc
 50
0.0
 51
90.0
  0
LINE
  5
816
100
AcDbEntity
  8
M0
100
AcDbLine
 10
190.169272
 20
565.5454
 11
190.169272
 21
567.54511
  0
ARC
  5
817
100
AcDbEntity
  8
M0
100
AcDbCircle
 10
213.169271
 20
564.775274
 40
10.0
100
AcDbArc
 50
149.036153
 51
175.582865
  0
LINE
  5
818
100
AcDbEntity
  8
M0
100
AcDbLine
 10
160.93823
 20
594.698491
 11
164.70709
 21
576.284887
  0
ARC
  5
819
100
AcDbEntity
  8
M0
100
AcDbCircle
 10
163.877302
 20
595.300054
 40
3.0
100
AcDbArc
 50
101.567405
 51
191.567178
  0
LINE
  5
81A
100
AcDbEntity
  8
M0
100
AcDbLine
 10
174.05232
 20
600.444845
 11
163.275739
 21
598.23911
  0
ARC
  5
81B
100
AcDbEntity
  8
M0
100
AcDbCircle
 10
174.653883
 20
597.505773
 40
3.0
100
AcDbArc
 50
11.567405
 51
101.567119
  0
LINE
  5
81C
100
AcDbEntity
  8
M0
100
AcDbLine
 10
180.400251
 20
584.391683
 11
177.592954
 21
598.107335
  0
LINE
  5
81D
100
AcDbEntity
  8
M0
100
AcDbLine
 10
180.400251
 20
584.391683
 11
175.510725
 21
570.504293
  0
ARC
  5
81E
100
AcDbEntity
  8
M0
100
AcDbCircle
 10
154.9102
 20
574.279668
 40
10.0
100
AcDbArc
 50
336.02977
 51
371.567548
  0
LINE
  5
81F
100
AcDbEntity
  8
M0
100
AcDbLine
 10
161.970731
 20
565.545431
 11
164.047758
 21
570.217046
  0
ARC
  5
820
100
AcDbEntity
  8
M0
100
AcDbCircle
 10
184.943159
 20
567.183278
 40
10.0
100
AcDbArc
 50
160.603538
 51
189.426663
  0
LINE
  5
821
100
AcDbEntity
  8
M0
100
AcDbLine
 10
229.729795
 20
598.09461
 11
225.99484
 21
579.674093
  0
ARC
  5
822
100
AcDbEntity
  8
M0
100
AcDbCircle
 10
232.669965
 20
597.498464
 40
3.0
100
AcDbArc
 50
78.53787
 51
168.537928
  0
LINE
  5
823
100
AcDbEntity
  8
M0
100
AcDbLine
 10
244.046751
 20
598.252736
 11
233.266126
 21
600.438634
  0
ARC
  5
824
100
AcDbEntity
  8
M0
100
AcDbCircle
 10
243.45059
 20
595.312566
 40
3.0
100
AcDbArc
 50
348.538156
 51
438.53787
  0
LINE
  5
825
100
AcDbEntity
  8
M0
100
AcDbLine
 10
243.608732
 20
580.995626
 11
246.39076
 21
594.716421
  0
LINE
  5
826
100
AcDbEntity
  8
M0
100
AcDbLine
 10
243.608732
 20
580.995626
 11
233.676084
 21
570.127782
  0
ARC
  5
827
100
AcDbEntity
  8
M0
100
AcDbCircle
 10
216.194282
 20
581.66126
 40
10.0
100
AcDbArc
 50
313.000364
 51
348.53806
  0
LINE
  5
828
100
AcDbEntity
  8
M0
100
AcDbLine
 10
219.066729
 20
570.66654
 11
223.01431
 21
574.347768
  0
ARC
  5
829
100
AcDbEntity
  8
M0
100
AcDbCircle
 10
241.057615
 20
563.38146
 40
10.0
100
AcDbArc
 50
137.574359
 51
168.538002
  0
LINE
  5
82A
100
AcDbEntity
  8
M0
100
AcDbLine
 10
218.028406
 20
565.545614
 11
219.066729
 21
570.66654
  0
LINE
  5
82B
100
AcDbEntity
  8
M0
100
AcDbLine
 10
200.669263
 20
647.29511
 11
206.669263
 21
647.29511
  0
LINE
  5
82C
100
AcDbEntity
  8
M0
100
AcDbLine
 10
206.669263
 20
647.29511
 11
206.669263
 21
651.79511
  0
LINE
  5
82D
100
AcDbEntity
  8
M0
100
AcDbLine
 10
206.669263
 20
651.79511
 11
200.669263
 21
651.79511
  0
LINE
  5
82E
100
AcDbEntity
  8
M0
100
AcDbLine
 10
200.669263
 20
651.79511
 11
200.669263
 21
647.29511
  0
LINE
  5
82F
100
AcDbEntity
  8
M0
 62
     6
100
AcDbLine
 10
170.665495
 20
505.052175
 11
177.166944
 21
501.299581
  0
LINE
  5
830
100
AcDbEntity
  8
M0
 62
     6
100
AcDbLine
 10
177.166944
 20
501.299581
 11
177.166944
 21
493.793935
  0
LINE
  5
831
100
AcDbEntity
  8
M0
 62
     6
100
AcDbLine
 10
177.166944
 20
493.793935
 11
170.665495
 21
490.041189
  0
LINE
  5
832
100
AcDbEntity
  8
M0
 62
     6
100
AcDbLine
 10
170.665495
 20
490.041189
 11
164.166471
 21
493.793935
  0
LINE
  5
833
100
AcDbEntity
  8
M0
 62
     6
100
AcDbLine
 10
164.166471
 20
493.793935
 11
164.166471
 21
501.299581
  0
LINE
  5
834
100
AcDbEntity
  8
M0
 62
     6
100
AcDbLine
 10
164.166471
 20
501.299581
 11
170.665495
 21
505.052175
  0
CIRCLE
  5
835
100
AcDbEntity
  8
M0
 62
     6
100
AcDbCircle
 10
170.665495
 20
497.546834
 40
4.0
  0
LINE
  5
836
100
AcDbEntity
  8
M0
  6
DASHDOT
 62
     6
100
AcDbLine
 10
180.817823
 20
497.546834
 11
160.513166
 21
497.546834
  0
LINE
  5
837
100
AcDbEntity
  8
M0
  6
DASHDOT
 62
     6
100
AcDbLine
 10
170.665479
 20
507.699163
 11
170.665495
 21
487.394506
  0
LINE
  5
838
100
AcDbEntity
  8
M0
 62
     6
100
AcDbLine
 10
196.66525
 20
505.051931
 11
203.1667
 21
501.299337
  0
LINE
  5
839
100
AcDbEntity
  8
M0
 62
     6
100
AcDbLine
 10
203.1667
 20
501.299337
 11
203.1667
 21
493.793691
  0
LINE
  5
83A
100
AcDbEntity
  8
M0
 62
     6
100
AcDbLine
 10
203.1667
 20
493.793691
 11
196.66525
 21
490.040944
  0
LINE
  5
83B
100
AcDbEntity
  8
M0
 62
     6
100
AcDbLine
 10
196.66525
 20
490.040944
 11
190.166227
 21
493.793691
  0
LINE
  5
83C
100
AcDbEntity
  8
M0
 62
     6
100
AcDbLine
 10
190.166227
 20
493.793691
 11
190.166227
 21
501.299337
  0
LINE
  5
83D
100
AcDbEntity
  8
M0
 62
     6
100
AcDbLine
 10
190.166227
 20
501.299337
 11
196.66525
 21
505.051931
  0
CIRCLE
  5
83E
100
AcDbEntity
  8
M0
 62
     6
100
AcDbCircle
 10
196.66525
 20
497.54659
 40
4.0
  0
LINE
  5
83F
100
AcDbEntity
  8
M0
  6
DASHDOT
 62
     6
100
AcDbLine
 10
206.817579
 20
497.54659
 11
186.512922
 21
497.54659
  0
LINE
  5
840
100
AcDbEntity
  8
M0
  6
DASHDOT
 62
     6
100
AcDbLine
 10
196.665235
 20
507.698919
 11
196.66525
 21
487.394262
  0
LINE
  5
841
100
AcDbEntity
  8
M0
 62
     6
100
AcDbLine
 10
222.66525
 20
505.051931
 11
229.1667
 21
501.299337
  0
LINE
  5
842
100
AcDbEntity
  8
M0
 62
     6
100
AcDbLine
 10
229.1667
 20
501.299337
 11
229.1667
 21
493.793691
  0
LINE
  5
843
100
AcDbEntity
  8
M0
 62
     6
100
AcDbLine
 10
229.1667
 20
493.793691
 11
222.66525
 21
490.040944
  0
LINE
  5
844
100
AcDbEntity
  8
M0
 62
     6
100
AcDbLine
 10
222.66525
 20
490.040944
 11
216.166227
 21
493.793691
  0
LINE
  5
845
100
AcDbEntity
  8
M0
 62
     6
100
AcDbLine
 10
216.166227
 20
493.793691
 11
216.166227
 21
501.299337
  0
LINE
  5
846
100
AcDbEntity
  8
M0
 62
     6
100
AcDbLine
 10
216.166227
 20
501.299337
 11
222.66525
 21
505.051931
  0
CIRCLE
  5
847
100
AcDbEntity
  8
M0
 62
     6
100
AcDbCircle
 10
222.66525
 20
497.54659
 40
4.0
  0
LINE
  5
848
100
AcDbEntity
  8
M0
  6
DASHDOT
 62
     6
100
AcDbLine
 10
232.817579
 20
497.54659
 11
212.512922
 21
497.54659
  0
LINE
  5
849
100
AcDbEntity
  8
M0
  6
DASHDOT
 62
     6
100
AcDbLine
 10
222.665235
 20
507.698919
 11
222.66525
 21
487.394262
  0
LINE
  5
84A
100
AcDbEntity
  8
M0
 62
     6
100
AcDbLine
 10
453.638242
 20
490.416138
 11
460.139707
 21
490.416138
  0
LINE
  5
84B
100
AcDbEntity
  8
M0
 62
     6
100
AcDbLine
 10
460.139707
 20
490.416138
 11
460.139707
 21
505.436167
  0
LINE
  5
84C
100
AcDbEntity
  8
M0
 62
     6
100
AcDbLine
 10
460.139707
 20
505.436167
 11
453.638242
 21
505.435862
  0
LINE
  5
84D
100
AcDbEntity
  8
M0
 62
     6
100
AcDbLine
 10
453.638242
 20
490.416138
 11
453.638242
 21
505.435862
  0
LINE
  5
84E
100
AcDbEntity
  8
M0
  6
DASHDOT
 62
     6
100
AcDbLine
 10
448.994184
 20
497.926214
 11
463.887754
 21
497.926229
  0
LINE
  5
84F
100
AcDbEntity
  8
M0
 62
     6
100
AcDbLine
 10
453.638242
 20
501.679128
 11
460.139707
 21
501.679128
  0
LINE
  5
850
100
AcDbEntity
  8
M0
 62
     6
100
AcDbLine
 10
453.638242
 20
494.173482
 11
460.139707
 21
494.173482
  0
LINE
  5
851
100
AcDbEntity
  8
M0
 62
     7
100
AcDbLine
 10
460.139577
 20
505.626211
 11
462.139577
 21
505.626212
  0
LINE
  5
852
100
AcDbEntity
  8
M0
 62
     7
100
AcDbLine
 10
462.139577
 20
505.626212
 11
462.139586
 21
490.226203
  0
LINE
  5
853
100
AcDbEntity
  8
M0
 62
     7
100
AcDbLine
 10
462.139586
 20
490.226203
 11
460.139586
 21
490.226201
  0
LINE
  5
854
100
AcDbEntity
  8
M0
 62
     7
100
AcDbLine
 10
460.139586
 20
490.226201
 11
460.139577
 21
505.626211
  0
LINE
  5
855
100
AcDbEntity
  8
M0
  6
DASHDOT
 62
     7
100
AcDbLine
 10
455.139582
 20
497.926195
 11
467.139582
 21
497.926203
  0
LINE
  5
856
100
AcDbEntity
  8
M0
 62
     7
100
AcDbLine
 10
460.139582
 20
497.926214
 11
462.139581
 21
499.080908
  0
LINE
  5
857
100
AcDbEntity
  8
M0
 62
     7
100
AcDbLine
 10
460.139582
 20
496.77152
 11
462.139582
 21
497.926215
  0
LINE
  5
858
100
AcDbEntity
  8
M0
 62
     6
100
AcDbLine
 10
462.139439
 20
506.926199
 11
463.739429
 21
506.9262
  0
LINE
  5
859
100
AcDbEntity
  8
M0
 62
     6
100
AcDbLine
 10
463.739429
 20
506.9262
 11
463.739441
 21
488.9262
  0
LINE
  5
85A
100
AcDbEntity
  8
M0
 62
     6
100
AcDbLine
 10
463.739441
 20
488.9262
 11
462.13945
 21
488.926199
  0
LINE
  5
85B
100
AcDbEntity
  8
M0
 62
     6
100
AcDbLine
 10
462.13945
 20
488.926199
 11
462.139439
 21
506.926199
  0
LINE
  5
85C
100
AcDbEntity
  8
M0
  6
DASHDOT
 62
     6
100
AcDbLine
 10
459.139429
 20
497.926212
 11
466.739435
 21
497.926202
  0
LINE
  5
85D
100
AcDbEntity
  8
M0
 62
     6
100
AcDbLine
 10
493.038633
 20
490.415894
 11
499.540098
 21
490.415894
  0
LINE
  5
85E
100
AcDbEntity
  8
M0
 62
     6
100
AcDbLine
 10
499.540098
 20
490.415894
 11
499.540098
 21
505.435923
  0
LINE
  5
85F
100
AcDbEntity
  8
M0
 62
     6
100
AcDbLine
 10
499.540098
 20
505.435923
 11
493.038633
 21
505.435618
  0
LINE
  5
860
100
AcDbEntity
  8
M0
 62
     6
100
AcDbLine
 10
493.038633
 20
490.415894
 11
493.038633
 21
505.435618
  0
LINE
  5
861
100
AcDbEntity
  8
M0
  6
DASHDOT
 62
     6
100
AcDbLine
 10
488.394575
 20
497.925969
 11
503.288145
 21
497.925985
  0
LINE
  5
862
100
AcDbEntity
  8
M0
 62
     6
100
AcDbLine
 10
493.038633
 20
501.678884
 11
499.540098
 21
501.678884
  0
LINE
  5
863
100
AcDbEntity
  8
M0
 62
     6
100
AcDbLine
 10
493.038633
 20
494.173238
 11
499.540098
 21
494.173238
  0
LINE
  5
864
100
AcDbEntity
  8
M0
 62
     7
100
AcDbLine
 10
499.539967
 20
505.626119
 11
501.539967
 21
505.62612
  0
LINE
  5
865
100
AcDbEntity
  8
M0
 62
     7
100
AcDbLine
 10
501.539967
 20
505.62612
 11
501.539977
 21
490.226111
  0
LINE
  5
866
100
AcDbEntity
  8
M0
 62
     7
100
AcDbLine
 10
501.539977
 20
490.226111
 11
499.539977
 21
490.22611
  0
LINE
  5
867
100
AcDbEntity
  8
M0
 62
     7
100
AcDbLine
 10
499.539977
 20
490.22611
 11
499.539967
 21
505.626119
  0
LINE
  5
868
100
AcDbEntity
  8
M0
  6
DASHDOT
 62
     7
100
AcDbLine
 10
494.539972
 20
497.926104
 11
506.539972
 21
497.926111
  0
LINE
  5
869
100
AcDbEntity
  8
M0
 62
     7
100
AcDbLine
 10
499.539972
 20
497.926122
 11
501.539971
 21
499.080817
  0
LINE
  5
86A
100
AcDbEntity
  8
M0
 62
     7
100
AcDbLine
 10
499.539973
 20
496.771428
 11
501.539972
 21
497.926123
  0
LINE
  5
86B
100
AcDbEntity
  8
M0
 62
     6
100
AcDbLine
 10
501.540073
 20
506.926107
 11
503.140064
 21
506.926108
  0
LINE
  5
86C
100
AcDbEntity
  8
M0
 62
     6
100
AcDbLine
 10
503.140064
 20
506.926108
 11
503.140076
 21
488.926108
  0
LINE
  5
86D
100
AcDbEntity
  8
M0
 62
     6
100
AcDbLine
 10
503.140076
 20
488.926108
 11
501.540085
 21
488.926107
  0
LINE
  5
86E
100
AcDbEntity
  8
M0
 62
     6
100
AcDbLine
 10
501.540085
 20
488.926107
 11
501.540073
 21
506.926107
  0
LINE
  5
86F
100
AcDbEntity
  8
M0
  6
DASHDOT
 62
     6
100
AcDbLine
 10
498.540064
 20
497.92612
 11
506.14007
 21
497.92611
  0
LINE
  5
870
100
AcDbEntity
  8
M0
  6
DIVIDE
100
AcDbLine
 10
203.669263
 20
433.460546
 11
251.669263
 21
433.460546
  0
LINE
  5
871
100
AcDbEntity
  8
M0
  6
DIVIDE
100
AcDbLine
 10
251.669263
 20
433.460546
 11
251.669263
 21
428.460546
  0
LINE
  5
872
100
AcDbEntity
  8
M0
  6
DIVIDE
100
AcDbLine
 10
251.669263
 20
279.960561
 11
253.419263
 21
279.960561
  0
LINE
  5
873
100
AcDbEntity
  8
M0
  6
DIVIDE
100
AcDbLine
 10
251.669263
 20
265.46079
 11
251.669263
 21
279.960561
  0
LINE
  5
874
100
AcDbEntity
  8
M0
  6
DIVIDE
100
AcDbLine
 10
251.669263
 20
265.46079
 11
258.669508
 21
265.46079
  0
LINE
  5
875
100
AcDbEntity
  8
M0
  6
DIVIDE
100
AcDbLine
 10
258.669508
 20
265.46079
 11
258.669477
 21
215.460546
  0
LINE
  5
876
100
AcDbEntity
  8
M0
  6
DIVIDE
100
AcDbLine
 10
258.669477
 20
215.460546
 11
251.669263
 21
215.460546
  0
LINE
  5
877
100
AcDbEntity
  8
M0
  6
DIVIDE
100
AcDbLine
 10
251.669263
 20
168.460561
 11
251.669263
 21
215.460546
  0
LINE
  5
878
100
AcDbEntity
  8
M0
  6
DIVIDE
100
AcDbLine
 10
251.669263
 20
168.460561
 11
203.669263
 21
168.460561
  0
LINE
  5
879
100
AcDbEntity
  8
M0
  6
DIVIDE
100
AcDbLine
 10
253.669263
 20
428.460546
 11
253.669263
 21
279.960561
  0
LINE
  5
87A
100
AcDbEntity
  8
M0
  6
DIVIDE
100
AcDbLine
 10
251.669263
 20
428.460546
 11
253.669263
 21
428.460546
  0
LINE
  5
87B
100
AcDbEntity
  8
M0
  6
DIVIDE
100
AcDbLine
 10
155.669263
 20
433.460546
 11
155.669263
 21
428.460546
  0
LINE
  5
87C
100
AcDbEntity
  8
M0
  6
DIVIDE
100
AcDbLine
 10
155.669263
 20
279.960561
 11
153.919263
 21
279.960561
  0
LINE
  5
87D
100
AcDbEntity
  8
M0
  6
DIVIDE
100
AcDbLine
 10
148.669019
 20
265.46079
 11
148.66905
 21
215.460546
  0
LINE
  5
87E
100
AcDbEntity
  8
M0
  6
DIVIDE
100
AcDbLine
 10
148.66905
 20
215.460546
 11
155.669263
 21
215.460546
  0
LINE
  5
87F
100
AcDbEntity
  8
M0
  6
DIVIDE
100
AcDbLine
 10
155.669263
 20
168.460561
 11
155.669263
 21
215.460546
  0
LINE
  5
880
100
AcDbEntity
  8
M0
  6
DIVIDE
100
AcDbLine
 10
153.669263
 20
428.460546
 11
153.669263
 21
279.960561
  0
LINE
  5
881
100
AcDbEntity
  8
M0
  6
DIVIDE
100
AcDbLine
 10
155.669263
 20
428.460546
 11
153.669263
 21
428.460546
  0
LINE
  5
882
100
AcDbEntity
  8
M0
  6
DIVIDE
100
AcDbLine
 10
155.669263
 20
265.46079
 11
155.669263
 21
279.960561
  0
LINE
  5
883
100
AcDbEntity
  8
M0
  6
DIVIDE
100
AcDbLine
 10
155.669263
 20
265.46079
 11
148.669019
 21
265.46079
  0
LINE
  5
884
100
AcDbEntity
  8
M0
  6
DIVIDE
100
AcDbLine
 10
155.669263
 20
168.460561
 11
203.669263
 21
168.460561
  0
LINE
  5
885
100
AcDbEntity
  8
M0
  6
DIVIDE
100
AcDbLine
 10
203.669263
 20
433.460546
 11
155.669263
 21
433.460546
  0
LINE
  5
886
100
AcDbEntity
  8
M0
  6
DASHDOT
100
AcDbLine
 10
203.669263
 20
155.152157
 11
203.669263
 21
454.963888
  0
CIRCLE
  5
887
100
AcDbEntity
  8
M0
100
AcDbCircle
 10
163.669263
 20
175.960455
 40
2.5
  0
LINE
  5
888
100
AcDbEntity
  8
M0
  6
DASHDOT
100
AcDbLine
 10
199.502592
 20
175.960455
 11
127.835935
 21
175.960455
  0
LINE
  5
889
100
AcDbEntity
  8
M0
  6
DASHDOT
100
AcDbLine
 10
163.669263
 20
140.127126
 11
163.669263
 21
211.793783
  0
CIRCLE
  5
88A
100
AcDbEntity
  8
M0
100
AcDbCircle
 10
243.669263
 20
175.960455
 40
2.5
  0
LINE
  5
88B
100
AcDbEntity
  8
M0
  6
DASHDOT
100
AcDbLine
 10
207.835935
 20
175.960455
 11
279.502592
 21
175.960455
  0
LINE
  5
88C
100
AcDbEntity
  8
M0
  6
DASHDOT
100
AcDbLine
 10
243.669263
 20
140.127126
 11
243.669263
 21
211.793783
  0
CIRCLE
  5
88D
100
AcDbEntity
  8
M0
100
AcDbCircle
 10
203.669263
 20
425.960455
 40
1.75
  0
CIRCLE
  5
88E
100
AcDbEntity
  8
M0
100
AcDbCircle
 10
163.669263
 20
175.960455
 40
1.75
  0
CIRCLE
  5
88F
100
AcDbEntity
  8
M0
100
AcDbCircle
 10
243.669263
 20
175.960455
 40
1.75
  0
CIRCLE
  5
890
100
AcDbEntity
  8
M0
100
AcDbCircle
 10
203.669263
 20
425.960455
 40
2.5
  0
LINE
  5
891
100
AcDbEntity
  8
M0
  6
DASHDOT
100
AcDbLine
 10
167.835935
 20
425.960455
 11
239.502592
 21
425.960455
  0
LINE
  5
892
100
AcDbEntity
  8
M0
  6
DASHDOT
100
AcDbLine
 10
203.669263
 20
390.127126
 11
203.669263
 21
444.665746
  0
LINE
  5
893
100
AcDbEntity
  8
M1
 62
     2
100
AcDbLine
 10
30.303029
 20
30.303029
 11
30.303029
 21
863.636329
  0
LINE
  5
894
100
AcDbEntity
  8
M1
 62
     2
100
AcDbLine
 10
30.303029
 20
863.636329
 11
606.060582
 21
863.636329
  0
LINE
  5
895
100
AcDbEntity
  8
M1
 62
     2
100
AcDbLine
 10
606.060582
 20
863.636329
 11
606.060582
 21
30.303029
  0
LINE
  5
896
100
AcDbEntity
  8
M1
 62
     2
100
AcDbLine
 10
606.060582
 20
30.303029
 11
30.303029
 21
30.303029
  0
LINE
  5
897
100
AcDbEntity
  8
M1
 62
     2
100
AcDbLine
 10
606.060582
 20
60.606058
 11
303.030291
 21
60.606058
  0
LINE
  5
898
100
AcDbEntity
  8
M1
 62
     2
100
AcDbLine
 10
606.060582
 20
90.909087
 11
303.030291
 21
90.909087
  0
LINE
  5
899
100
AcDbEntity
  8
M1
 62
     2
100
AcDbLine
 10
606.060582
 20
121.212116
 11
303.030291
 21
121.212116
  0
LINE
  5
89A
100
AcDbEntity
  8
M1
 62
     2
100
AcDbLine
 10
303.030291
 20
30.303029
 11
303.030291
 21
121.212116
  0
TEXT
  5
89B
100
AcDbEntity
  8
M1
 62
     2
100
AcDbText
 10
310.606048
 20
37.878786
 40
15.151515
  1
適　用；
  7
STANDARD
100
AcDbText
  0
TEXT
  5
89C
100
AcDbEntity
  8
M1
 62
     2
100
AcDbText
 10
310.606048
 20
98.484845
 40
15.151515
  1
登録名：
  7
STANDARD
100
AcDbText
  0
TEXT
  5
89D
100
AcDbEntity
  8
M1
 62
     2
100
AcDbText
 10
383.333318
 20
98.484845
 40
15.151515
  1
ＤＭＨ１００ＣＴＲ００
 41
0.5
  7
STANDARD
100
AcDbText
  0
TEXT
  5
89E
100
AcDbEntity
  8
M1
 62
     2
100
AcDbText
 10
310.606048
 20
68.181815
 40
15.151515
  1
形　式；
  7
STANDARD
100
AcDbText
  0
TEXT
  5
89F
100
AcDbEntity
  8
M1
 62
     2
100
AcDbText
 10
383.333318
 20
68.181815
 40
15.151515
  1
Ｈ１００Ｃ－Ｔ，Ｈ１００Ｃ－ＴＫ，Ｈ１２５Ｃ－Ｔ，Ｈ１２５Ｃ－ＴＫ
 41
0.25
  7
STANDARD
100
AcDbText
  0
LINE
  5
8A0
100
AcDbEntity
  8
DN0
100
AcDbLine
 10
176.716644
 20
98.596444
 11
232.049977
 21
98.596444
  0
TEXT
  5
8A1
100
AcDbEntity
  8
DN0
100
AcDbText
 10
178.246947
 20
99.96008
 40
13.636363
  1
せん孔図
 41
0.833333
  7
STANDARD
100
AcDbText
  0
LINE
  5
8A2
100
AcDbEntity
  8
DN0
100
AcDbLine
 10
103.49307
 20
817.98614
 11
336.099124
 21
817.98614
  0
TEXT
  5
8A3
100
AcDbEntity
  8
DN0
100
AcDbText
 10
105.023373
 20
819.349777
 40
13.636363
  1
※補助接点４ａ４ｂ付の場合　１２４
 41
0.833333
  7
STANDARD
100
AcDbText
  0
ENDSEC
  0
SECTION
  2
OBJECTS
  0
DICTIONARY
  5
C
100
AcDbDictionary
  3
ACAD_GROUP
350
D
  3
ACAD_MLINESTYLE
350
E
  0
DICTIONARY
  5
D
102
{ACAD_REACTORS
330
C
102
}
100
AcDbDictionary
  0
DICTIONARY
  5
E
102
{ACAD_REACTORS
330
C
102
}
100
AcDbDictionary
  3
STANDARD
350
13
  0
MLINESTYLE
  5
13
102
{ACAD_REACTORS
330
E
102
}
100
AcDbMlineStyle
  2
STANDARD
 70
     0
  3

 62
     0
 51
90.0
 52
90.0
 71
     2
 49
0.5
 62
   256
  6
BYLAYER
 49
-0.5
 62
   256
  6
BYLAYER
  0
ENDSEC
  0
EOF
