  0
SECTION
  2
HEADER
  9
$ACADVER
  1
AC1014
  9
$INSBASE
 10
0.000000
 20
0.000000
 30
0.0
  9
$VIEWCTR
 10
7.531722
 20
4.5
  9
$VIEWSIZE
 40
9.0
  9
$SNAPMODE
 70
     0
  9
$SNAPUNIT
 10
1.0
 20
1.0
  9
$SNAPBASE
 10
0.0
 20
0.0
  9
$SNAPANG
 50
0.0
  9
$SNAPSTYLE
 70
     0
  9
$SNAPISOPAIR
 70
     0
  9
$GRIDMODE
 70
     0
  9
$GRIDUNIT
 10
0.0
 20
0.0
  9
$ORTHOMODE
 70
     0
  9
$REGENMODE
 70
     1
  9
$FILLMODE
 70
     1
  9
$QTEXTMODE
 70
     0
  9
$DRAGMODE
 70
     2
  9
$LTSCALE
  40
     1.000000
  9
$OSMODE
 70
     0
  9
$ATTMODE
 70
     1
  9
$TEXTSIZE
 40
0.2
  9
$TRACEWID
 40
0.05
  9
$TEXTSTYLE
  7
STANDARD
  9
$CELTYPE
  6
BYLAYER
  9
$CECOLOR
 62
   256
  9
$DIMSCALE
 40
1.0
  9
$DIMASZ
 40
0.18
  9
$DIMEXO
 40
0.0625
  9
$DIMDLI
 40
0.38
  9
$DIMRND
 40
0.0
  9
$DIMDLE
 40
0.0
  9
$DIMEXE
 40
0.18
  9
$DIMTP
 40
0.0
  9
$DIMTM
 40
0.0
  9
$DIMTXT
 40
0.18
  9
$DIMCEN
 40
0.09
  9
$DIMTSZ
 40
0.0
  9
$DIMTOL
 70
     0
  9
$DIMLIM
 70
     0
  9
$DIMTIH
 70
     1
  9
$DIMTOH
 70
     1
  9
$DIMSE1
 70
     0
  9
$DIMSE2
 70
     0
  9
$DIMTAD
 70
     0
  9
$DIMZIN
 70
     0
  9
$DIMBLK
  1

  9
$LUNITS
 70
     2
  9
$LUPREC
 70
     4
  9
$AXISMODE
 70
     0
  9
$AXISUNIT
 10
0.0
 20
0.0
  9
$SKETCHINC
 40
0.1
  9
$FILLETRAD
 40
0.0
  9
$AUNITS
 70
     0
  9
$AUPREC
 70
     0
  9
$MENU
  1
ACAD
  9
$ELEVATION
 40
0.0
  9
$THICKNESS
 40
0.0
  9
$VIEWDIR
 10
0.0
 20
0.0
 30
1.0
  9
$LIMCHECK
 70
     0
  9
$BLIPMODE
 70
     1
  9
$CHAMFERA
 40
0.0
  9
$CHAMFERB
 40
0.0
  9
$FASTZOOM
 70
     1
  9
$SKPOLY
 70
     0
  9
$TDCREATE
 40
0000000.0000000000
  9
$TDUPDATE
 40
0000000.0000000000
  9
$TDINDWG
 40
0.0000000000
  9
$TDUSRTIMER
 40
0.0000000000
  9
$USRTIMER
 70
     1
  9
$ANGBASE
 50
0.0
  9
$ANGDIR
 70
     0
  9
$PDMODE
 70
     0
  9
$PDSIZE
 40
0.0
  9
$PLINEWID
 40
0.0
  9
$COORDS
 70
     0
  9
$USERI1
 70
     0
  9
$USERI2
 70
     0
  9
$USERI3
 70
     0
  9
$USERI4
 70
     0
  9
$USERI5
 70
     0
  9
$USERR1
 40
0.0
  9
$USERR2
 40
0.0
  9
$USERR3
 40
0.0
  9
$USERR4
 40
0.0
  9
$USERR5
 40
0.0
  9
$CLAYER
  8
M1
  9
$EXTMIN
 10
12.500001
 20
12.500001
  9
$EXTMAX
 10
250.000015
 20
356.250021
  9
$LIMMIN
 10
0.0
 20
0.0
  9
$LIMMAX
 10
210.0
 20
297.0
  9
$HANDSEED
  5
2BD
  0
ENDSEC
  0
SECTION
  2
CLASSES
  0
ENDSEC
  0
SECTION
  2
TABLES
  0
TABLE
  2
VPORT
  5
8
100
AcDbSymbolTable
 70
     2
  0
VPORT
  5
14
100
AcDbSymbolTableRecord
100
AcDbViewportTableRecord
  2
*ACTIVE
 70
     0
 10
0.0
 20
0.0
 11
1.0
 21
1.0
 12
484.0
 22
297.0
 13
0.0
 23
0.0
 14
1.0
 24
1.0
 15
0.0
 25
0.0
 16
0.0
 26
0.0
 36
1.0
 17
0.0
 27
0.0
 37
0.0
 40
594.0
 41
2.0
 42
50.0
 43
0.0
 44
0.0
 50
0.0
 51
0.0
 71
     0
 72
   100
 73
     1
 74
     1
 75
     0
 76
     0
 77
     0
 78
     0
  0
ENDTAB
  0
TABLE
  2
LTYPE
  5
5
100
AcDbSymbolTable
 70
     5
  0
LTYPE
  5
15
100
AcDbSymbolTableRecord
100
AcDbLinetypeTableRecord
  2
BYBLOCK
 70
     0
  3

 72
    65
 73
     0
 40
0.0
  0
LTYPE
  5
16
100
AcDbSymbolTableRecord
100
AcDbLinetypeTableRecord
  2
BYLAYER
 70
     0
  3

 72
    65
 73
     0
 40
0.0
  0
LTYPE
  5
17
100
AcDbSymbolTableRecord
100
AcDbLinetypeTableRecord
  2
CONTINUOUS
 70
    64
  3
Solid line
 72
    65
 73
     0
 40
0.0
  0
LTYPE
  5
18
100
AcDbSymbolTableRecord
100
AcDbLinetypeTableRecord
  2
DASHED
 70
    64
  3
__ __ __ __ __ __ __ __ __ __ __ __ __ __ __ __
 72
    65
 73
     2
 40
0.75
 49
0.5
 74
     0
 49
-0.25
 74
     0
  0
LTYPE
  5
19
100
AcDbSymbolTableRecord
100
AcDbLinetypeTableRecord
  2
DASHDOT
 70
    64
  3
__ . __ . __ . __ . __ . __ . __ . __ . __ . __
 72
    65
 73
     4
 40
1.0
 49
0.5
 74
     0
 49
-0.25
 74
     0
 49
0.0
 74
     0
 49
-0.25
 74
     0
  0
LTYPE
  5
1A
100
AcDbSymbolTableRecord
100
AcDbLinetypeTableRecord
  2
DIVIDE
 70
    64
  3
____ . . ____ . . ____ . . ____ . . ____ . . __
 72
    65
 73
     6
 40
1.25
 49
0.5
 74
     0
 49
-0.25
 74
     0
 49
0.0
 74
     0
 49
-0.25
 74
     0
 49
0.0
 74
     0
 49
-0.25
 74
     0
  0
LTYPE
  5
1B
100
AcDbSymbolTableRecord
100
AcDbLinetypeTableRecord
  2
DOT
 70
    64
  3
. . . . . . . . . . . . . . . . . . . . . . . .
 72
    65
 73
     2
 40
0.25
 49
0.0
 74
     0
 49
-0.25
 74
     0
  0
ENDTAB
  0
TABLE
  2
LAYER
  5
2
100
AcDbSymbolTable
 70
   102
  0
LAYER
  5
F
100
AcDbSymbolTableRecord
100
AcDbLayerTableRecord
  2
0
 70
     0
 62
     7
  6
CONTINUOUS
  0
LAYER
  5
1C
100
AcDbSymbolTableRecord
100
AcDbLayerTableRecord
  2
DEFPOINTS
 70
     0
 62
     7
  6
CONTINUOUS
  0
LAYER
  5
1D
100
AcDbSymbolTableRecord
100
AcDbLayerTableRecord
  2
M0
 70
     0
 62
     3
  6
CONTINUOUS
  0
LAYER
  5
1E
100
AcDbSymbolTableRecord
100
AcDbLayerTableRecord
  2
M1
 70
     0
 62
     6
  6
CONTINUOUS
  0
LAYER
  5
1F
100
AcDbSymbolTableRecord
100
AcDbLayerTableRecord
  2
M20
 70
     0
 62
     3
  6
CONTINUOUS
  0
LAYER
  5
20
100
AcDbSymbolTableRecord
100
AcDbLayerTableRecord
  2
DD0
 70
     0
 62
     4
  6
CONTINUOUS
  0
LAYER
  5
21
100
AcDbSymbolTableRecord
100
AcDbLayerTableRecord
  2
DN0
 70
     0
 62
     2
  6
CONTINUOUS
  0
ENDTAB
  0
TABLE
  2
STYLE
  5
3
100
AcDbSymbolTable
 70
     2
  0
STYLE
  5
10
100
AcDbSymbolTableRecord
100
AcDbTextStyleTableRecord
  2
STANDARD
 70
     0
 40
0.0
 41
1.0
 50
0.0
 71
     0
 42
0.2
  3
txt
  4
BIGFONT
  0
ENDTAB
  0
TABLE
  2
VIEW
  5
6
100
AcDbSymbolTable
 70
     0
  0
ENDTAB
  0
TABLE
  2
UCS
  5
7
100
AcDbSymbolTable
 70
     0
  0
ENDTAB
  0
TABLE
  2
APPID
  5
9
100
AcDbSymbolTable
 70
     1
  0
APPID
  5
11
100
AcDbSymbolTableRecord
100
AcDbRegAppTableRecord
  2
ACAD
 70
     0
  0
ENDTAB
  0
TABLE
  2
DIMSTYLE
  5
A
100
AcDbSymbolTable
 70
     2
  0
DIMSTYLE
105
28
100
AcDbSymbolTableRecord
100
AcDbDimStyleTableRecord
  2
STANDARD
 70
     0
  3

  4

  5

  6
_OPEN
  7
_OPEN
 40
1.0
 41
3.125
 42
1.0
 43
6.0
 44
1.0
 45
0.0
 46
0.0
 47
0.0
 48
0.0
140
3.9375
141
0.09
142
0.0
143
0.03937
144
1.0
145
0.0
146
1.0
147
0.6
 71
     0
 72
     0
 73
     1
 74
     1
 75
     0
 76
     0
 77
     3
 78
     8
170
     0
171
     2
172
     0
173
     1
174
     0
175
     0
176
     0
177
     0
178
     0
270
     2
271
     2
272
     4
273
     2
274
     2
340
10
275
     0
280
     0
281
     0
282
     0
283
     1
284
     0
285
     0
286
     0
287
     3
288
     0
  0
DIMSTYLE
105
29
100
AcDbSymbolTableRecord
100
AcDbDimStyleTableRecord
  2
LEADSTYL
 70
     0
  3

  4

  5

  6
_OPEN
  7
_OPEN
 40
1.0
 41
3.125
 42
0.0625
 43
0.38
 44
0.18
 45
0.0
 46
0.0
 47
0.0
 48
0.0
140
3.9375
141
0.09
142
0.0
143
25.4
144
1.0
145
0.0
146
1.0
147
0.6
 71
     0
 72
     0
 73
     1
 74
     1
 75
     0
 76
     0
 77
     0
 78
     0
170
     0
171
     2
172
     0
173
     1
174
     0
175
     0
176
     0
177
     0
178
     0
270
     2
271
     4
272
     4
273
     2
274
     2
340
10
275
     0
280
     0
281
     0
282
     0
283
     1
284
     0
285
     0
286
     0
287
     3
288
     0
  0
ENDTAB
  0
TABLE
  2
BLOCK_RECORD
  5
1
100
AcDbSymbolTable
 70
    16
  0
BLOCK_RECORD
  5
22
100
AcDbSymbolTableRecord
100
AcDbBlockTableRecord
  2
*MODEL_SPACE
  0
BLOCK_RECORD
  5
25
100
AcDbSymbolTableRecord
100
AcDbBlockTableRecord
  2
*PAPER_SPACE
  0
BLOCK_RECORD
  5
2A
100
AcDbSymbolTableRecord
100
AcDbBlockTableRecord
  2
_NONE
  0
BLOCK_RECORD
  5
2E
100
AcDbSymbolTableRecord
100
AcDbBlockTableRecord
  2
_OPEN
  0
BLOCK_RECORD
  5
34
100
AcDbSymbolTableRecord
100
AcDbBlockTableRecord
  2
_CLOSED
  0
BLOCK_RECORD
  5
3B
100
AcDbSymbolTableRecord
100
AcDbBlockTableRecord
  2
_ORIGIN
  0
BLOCK_RECORD
  5
40
100
AcDbSymbolTableRecord
100
AcDbBlockTableRecord
  2
_DOT
  0
BLOCK_RECORD
  5
48
100
AcDbSymbolTableRecord
100
AcDbBlockTableRecord
  2
_OBLIQUE
  0
BLOCK_RECORD
  5
4C
100
AcDbSymbolTableRecord
100
AcDbBlockTableRecord
  2
DIMS0
  0
BLOCK_RECORD
  5
58
100
AcDbSymbolTableRecord
100
AcDbBlockTableRecord
  2
DIMS1
  0
BLOCK_RECORD
  5
64
100
AcDbSymbolTableRecord
100
AcDbBlockTableRecord
  2
DIMS2
  0
BLOCK_RECORD
  5
70
100
AcDbSymbolTableRecord
100
AcDbBlockTableRecord
  2
DIMS3
  0
BLOCK_RECORD
  5
75
100
AcDbSymbolTableRecord
100
AcDbBlockTableRecord
  2
DIMS4
  0
BLOCK_RECORD
  5
7C
100
AcDbSymbolTableRecord
100
AcDbBlockTableRecord
  2
DIMS5
  0
BLOCK_RECORD
  5
88
100
AcDbSymbolTableRecord
100
AcDbBlockTableRecord
  2
DIMS6
  0
BLOCK_RECORD
  5
92
100
AcDbSymbolTableRecord
100
AcDbBlockTableRecord
  2
DIMS7
  0
BLOCK_RECORD
  5
9E
100
AcDbSymbolTableRecord
100
AcDbBlockTableRecord
  2
DIMS8
  0
BLOCK_RECORD
  5
AA
100
AcDbSymbolTableRecord
100
AcDbBlockTableRecord
  2
DIMS9
  0
ENDTAB
  0
ENDSEC
  0
SECTION
  2
BLOCKS
  0
BLOCK
  5
23
100
AcDbEntity
  8
0
100
AcDbBlockBegin
  2
*MODEL_SPACE
 70
     0
 10
0.0
 20
0.0
 30
0.0
  3
*MODEL_SPACE
  1

  0
ENDBLK
  5
24
100
AcDbEntity
  8
0
100
AcDbBlockEnd
  0
BLOCK
  5
26
100
AcDbEntity
 67
     1
  8
0
100
AcDbBlockBegin
  2
*PAPER_SPACE
 70
     0
 10
0.0
 20
0.0
 30
0.0
  3
*PAPER_SPACE
  1

  0
ENDBLK
  5
27
100
AcDbEntity
 67
     1
  8
0
100
AcDbBlockEnd
  0
BLOCK
  5
2B
100
AcDbEntity
  8
0
100
AcDbBlockBegin
  2
_NONE
 70
     0
 10
0.0
 20
0.0
  0
CIRCLE
  5
2C
100
AcDbEntity
  8
0
 62
     0
100
AcDbCircle
 10
0.0
 20
0.0
 40
0.25
  0
ENDBLK
  5
2D
100
AcDbEntity
  8
0
100
AcDbBlockEnd
  0
BLOCK
  5
2F
100
AcDbEntity
  8
0
100
AcDbBlockBegin
  2
_OPEN
 70
     0
 10
0.0
 20
0.0
  0
LINE
  5
30
100
AcDbEntity
  8
0
 62
     0
100
AcDbLine
 10
-0.965926
 20
0.25882
 11
0.0
 21
0.0
  0
LINE
  5
31
100
AcDbEntity
  8
0
 62
     0
100
AcDbLine
 10
0.0
 20
0.0
 11
-0.965926
 21
-0.25882
  0
LINE
  5
32
100
AcDbEntity
  8
0
 62
     0
100
AcDbLine
 10
0.0
 20
0.0
 11
-1.0
 21
0.0
  0
ENDBLK
  5
33
100
AcDbEntity
  8
0
100
AcDbBlockEnd
  0
BLOCK
  5
35
100
AcDbEntity
  8
0
100
AcDbBlockBegin
  2
_CLOSED
 70
     0
 10
0.0
 20
0.0
  0
LINE
  5
36
100
AcDbEntity
  8
0
 62
     0
100
AcDbLine
 10
-0.965926
 20
0.25882
 11
0.0
 21
0.0
  0
LINE
  5
37
100
AcDbEntity
  8
0
 62
     0
100
AcDbLine
 10
0.0
 20
0.0
 11
-0.965926
 21
-0.25882
  0
LINE
  5
38
100
AcDbEntity
  8
0
 62
     0
100
AcDbLine
 10
-0.965926
 20
0.25882
 11
-0.965926
 21
-0.25882
  0
LINE
  5
39
100
AcDbEntity
  8
0
 62
     0
100
AcDbLine
 10
0.0
 20
0.0
 11
-1.0
 21
0.0
  0
ENDBLK
  5
3A
100
AcDbEntity
  8
0
100
AcDbBlockEnd
  0
BLOCK
  5
3C
100
AcDbEntity
  8
0
100
AcDbBlockBegin
  2
_ORIGIN
 70
     0
 10
0.0
 20
0.0
  0
CIRCLE
  5
3D
100
AcDbEntity
  8
0
 62
     0
100
AcDbCircle
 10
0.0
 20
0.0
 40
0.5
  0
LINE
  5
3E
100
AcDbEntity
  8
0
 62
     0
100
AcDbLine
 10
0.0
 20
0.0
 11
-1.0
 21
0.0
  0
ENDBLK
  5
3F
100
AcDbEntity
  8
0
100
AcDbBlockEnd
  0
BLOCK
  5
41
100
AcDbEntity
  8
0
100
AcDbBlockBegin
  2
_DOT
 70
     0
 10
0.0
 20
0.0
  0
POLYLINE
  5
42
100
AcDbEntity
  8
0
 62
     0
100
AcDb2dPolyline
 66
     1
 70
     1
 40
0.5
 41
0.5
  0
VERTEX
  5
43
100
AcDbEntity
  8
0
 62
     0
100
AcDbVertex
100
AcDb2dVertex
 10
-0.25
 20
0.0
 42
1.0
  0
VERTEX
  5
44
100
AcDbEntity
  8
0
 62
     0
100
AcDbVertex
100
AcDb2dVertex
 10
0.25
 20
0.0
 42
1.0
  0
SEQEND
  5
45
100
AcDbEntity
  8
0
 62
     0
  0
LINE
  5
46
100
AcDbEntity
  8
0
 62
     0
100
AcDbLine
 10
-0.5
 20
0.0
 11
-1.0
 21
0.0
  0
ENDBLK
  5
47
100
AcDbEntity
  8
0
100
AcDbBlockEnd
  0
BLOCK
  5
49
100
AcDbEntity
  8
0
100
AcDbBlockBegin
  2
_OBLIQUE
 70
     0
 10
0.0
 20
0.0
  0
LINE
  5
4A
100
AcDbEntity
  8
0
 62
     0
100
AcDbLine
 10
-0.353553
 20
-0.353553
 11
0.353553
 21
0.353553
  0
ENDBLK
  5
4B
100
AcDbEntity
  8
0
100
AcDbBlockEnd
  0
BLOCK
  5
4D
100
AcDbEntity
  8
DD0
100
AcDbBlockBegin
  2
DIMS0
 70
     0
 10
0.0
 20
0.0
  0
LINE
  5
4E
100
AcDbEntity
  8
DD0
 60
     1
100
AcDbLine
 10
222.662729
 20
277.365873
 11
222.662729
 21
279.86572
  0
LINE
  5
4F
100
AcDbEntity
  8
DD0
100
AcDbLine
 10
212.662729
 20
268.365876
 11
212.662729
 21
279.86572
  0
LINE
  5
50
100
AcDbEntity
  8
DD0
100
AcDbLine
 10
219.644211
 20
277.806909
 11
222.662729
 21
278.61572
  0
LINE
  5
51
100
AcDbEntity
  8
DD0
100
AcDbLine
 10
222.662729
 20
278.61572
 11
219.644211
 21
279.424532
  0
LINE
  5
52
100
AcDbEntity
  8
DD0
100
AcDbLine
 10
215.681246
 20
279.424532
 11
212.662729
 21
278.61572
  0
LINE
  5
53
100
AcDbEntity
  8
DD0
100
AcDbLine
 10
212.662729
 20
278.61572
 11
215.681246
 21
277.806909
  0
LINE
  5
54
100
AcDbEntity
  8
DD0
100
AcDbLine
 10
222.662729
 20
278.61572
 11
212.662729
 21
278.61572
  0
TEXT
  5
55
100
AcDbEntity
  8
DD0
100
AcDbText
 10
214.047113
 20
279.365728
 40
3.9375
  1
１０
 41
0.833333
  7
STANDARD
100
AcDbText
  0
ENDBLK
  5
56
100
AcDbEntity
  8
DD0
100
AcDbBlockEnd
  0
BLOCK
  5
59
100
AcDbEntity
  8
DD0
100
AcDbBlockBegin
  2
DIMS1
 70
     0
 10
0.0
 20
0.0
  0
LINE
  5
5A
100
AcDbEntity
  8
DD0
100
AcDbLine
 10
50.403808
 20
171.208335
 11
50.403808
 21
182.07698
  0
LINE
  5
5B
100
AcDbEntity
  8
DD0
100
AcDbLine
 10
83.403812
 20
116.708333
 11
83.403812
 21
182.07698
  0
LINE
  5
5C
100
AcDbEntity
  8
DD0
100
AcDbLine
 10
53.422326
 20
181.635791
 11
50.403808
 21
180.82698
  0
LINE
  5
5D
100
AcDbEntity
  8
DD0
100
AcDbLine
 10
50.403808
 20
180.82698
 11
53.422326
 21
180.018169
  0
LINE
  5
5E
100
AcDbEntity
  8
DD0
100
AcDbLine
 10
80.385294
 20
180.018169
 11
83.403812
 21
180.82698
  0
LINE
  5
5F
100
AcDbEntity
  8
DD0
100
AcDbLine
 10
83.403812
 20
180.82698
 11
80.385294
 21
181.635791
  0
LINE
  5
60
100
AcDbEntity
  8
DD0
100
AcDbLine
 10
50.403808
 20
180.82698
 11
83.403812
 21
180.82698
  0
TEXT
  5
61
100
AcDbEntity
  8
DD0
100
AcDbText
 10
63.288189
 20
181.576988
 40
3.9375
  1
３３
 41
0.833333
  7
STANDARD
100
AcDbText
  0
ENDBLK
  5
62
100
AcDbEntity
  8
DD0
100
AcDbBlockEnd
  0
BLOCK
  5
65
100
AcDbEntity
  8
DD0
100
AcDbBlockBegin
  2
DIMS2
 70
     0
 10
0.0
 20
0.0
  0
LINE
  5
66
100
AcDbEntity
  8
DD0
100
AcDbLine
 10
89.251228
 20
110.860936
 11
109.65655
 21
110.860936
  0
LINE
  5
67
100
AcDbEntity
  8
DD0
100
AcDbLine
 10
55.751222
 20
165.86093
 11
109.65655
 21
165.86093
  0
LINE
  5
68
100
AcDbEntity
  8
DD0
100
AcDbLine
 10
107.597739
 20
113.879454
 11
108.40655
 21
110.860936
  0
LINE
  5
69
100
AcDbEntity
  8
DD0
100
AcDbLine
 10
108.40655
 20
110.860936
 11
109.215362
 21
113.879454
  0
LINE
  5
6A
100
AcDbEntity
  8
DD0
100
AcDbLine
 10
109.215362
 20
162.842412
 11
108.40655
 21
165.86093
  0
LINE
  5
6B
100
AcDbEntity
  8
DD0
100
AcDbLine
 10
108.40655
 20
165.86093
 11
107.597739
 21
162.842412
  0
LINE
  5
6C
100
AcDbEntity
  8
DD0
100
AcDbLine
 10
108.40655
 20
110.860936
 11
108.40655
 21
165.86093
  0
TEXT
  5
6D
100
AcDbEntity
  8
DD0
100
AcDbText
 10
107.656552
 20
134.745303
 40
3.9375
  1
５５
 50
90.000003
 41
0.833333
  7
STANDARD
100
AcDbText
  0
ENDBLK
  5
6E
100
AcDbEntity
  8
DD0
100
AcDbBlockEnd
  0
BLOCK
  5
71
100
AcDbEntity
  8
DD0
100
AcDbBlockBegin
  2
DIMS3
 70
     0
 10
0.0
 20
0.0
  0
TEXT
  5
72
100
AcDbEntity
  8
DD0
100
AcDbText
 10
82.517935
 20
92.762028
 40
3.9375
  1
２－Ｍ４ねじ穴
 41
0.666667
  7
STANDARD
100
AcDbText
  0
ENDBLK
  5
73
100
AcDbEntity
  8
DD0
100
AcDbBlockEnd
  0
BLOCK
  5
76
100
AcDbEntity
  8
DD0
100
AcDbBlockBegin
  2
DIMS4
 70
     0
 10
0.0
 20
0.0
  0
LINE
  5
77
100
AcDbEntity
  8
DD0
100
AcDbLine
 10
86.935508
 20
106.491103
 11
84.869047
 21
108.835322
  0
LINE
  5
78
100
AcDbEntity
  8
DD0
100
AcDbLine
 10
84.869047
 20
108.835322
 11
85.486541
 21
105.771937
  0
LINE
  5
79
100
AcDbEntity
  8
DD0
100
AcDbLine
 10
84.869047
 20
108.835322
 11
90.194364
 21
98.105932
  0
ENDBLK
  5
7A
100
AcDbEntity
  8
DD0
100
AcDbBlockEnd
  0
BLOCK
  5
7D
100
AcDbEntity
  8
DD0
100
AcDbBlockBegin
  2
DIMS5
 70
     0
 10
0.0
 20
0.0
  0
LINE
  5
7E
100
AcDbEntity
  8
DD0
100
AcDbLine
 10
222.662729
 20
274.865873
 11
222.662729
 21
289.36632
  0
LINE
  5
7F
100
AcDbEntity
  8
DD0
100
AcDbLine
 10
143.4628
 20
268.365838
 11
143.4628
 21
289.36632
  0
LINE
  5
80
100
AcDbEntity
  8
DD0
100
AcDbLine
 10
219.644211
 20
287.307508
 11
222.662729
 21
288.11632
  0
LINE
  5
81
100
AcDbEntity
  8
DD0
100
AcDbLine
 10
222.662729
 20
288.11632
 11
219.644211
 21
288.925131
  0
LINE
  5
82
100
AcDbEntity
  8
DD0
100
AcDbLine
 10
146.481318
 20
288.925131
 11
143.4628
 21
288.11632
  0
LINE
  5
83
100
AcDbEntity
  8
DD0
100
AcDbLine
 10
143.4628
 20
288.11632
 11
146.481318
 21
287.307508
  0
LINE
  5
84
100
AcDbEntity
  8
DD0
100
AcDbLine
 10
222.662729
 20
288.11632
 11
143.4628
 21
288.11632
  0
TEXT
  5
85
100
AcDbEntity
  8
DD0
100
AcDbText
 10
179.447139
 20
288.866327
 40
3.9375
  1
７９
 41
0.833333
  7
STANDARD
100
AcDbText
  0
ENDBLK
  5
86
100
AcDbEntity
  8
DD0
100
AcDbBlockEnd
  0
BLOCK
  5
89
100
AcDbEntity
  8
DD0
100
AcDbBlockBegin
  2
DIMS6
 70
     0
 10
0.0
 20
0.0
  0
LINE
  5
8A
100
AcDbEntity
  8
DD0
 60
     1
100
AcDbLine
 10
143.4628
 20
268.365838
 11
143.4628
 21
289.366358
  0
LINE
  5
8B
100
AcDbEntity
  8
DD0
100
AcDbLine
 10
139.462756
 20
244.365878
 11
139.462756
 21
289.366358
  0
LINE
  5
8C
100
AcDbEntity
  8
DD0
100
AcDbLine
 10
136.444238
 20
287.307546
 11
139.462756
 21
288.116358
  0
LINE
  5
8D
100
AcDbEntity
  8
DD0
100
AcDbLine
 10
139.462756
 20
288.116358
 11
136.444238
 21
288.925169
  0
LINE
  5
8E
100
AcDbEntity
  8
DD0
100
AcDbLine
 10
143.4628
 20
288.116358
 11
133.837756
 21
288.116358
  0
TEXT
  5
8F
100
AcDbEntity
  8
DD0
100
AcDbText
 10
139.815903
 20
288.866365
 40
3.9375
  1
４
 41
0.833333
  7
STANDARD
100
AcDbText
  0
ENDBLK
  5
90
100
AcDbEntity
  8
DD0
100
AcDbBlockEnd
  0
BLOCK
  5
93
100
AcDbEntity
  8
DD0
100
AcDbBlockBegin
  2
DIMS7
 70
     0
 10
0.0
 20
0.0
  0
LINE
  5
94
100
AcDbEntity
  8
DD0
100
AcDbLine
 10
93.903824
 20
274.365823
 11
93.903824
 21
289.366377
  0
LINE
  5
95
100
AcDbEntity
  8
DD0
100
AcDbLine
 10
40.903823
 20
270.865762
 11
40.903823
 21
289.366377
  0
LINE
  5
96
100
AcDbEntity
  8
DD0
100
AcDbLine
 10
90.885306
 20
287.307565
 11
93.903824
 21
288.116377
  0
LINE
  5
97
100
AcDbEntity
  8
DD0
100
AcDbLine
 10
93.903824
 20
288.116377
 11
90.885306
 21
288.925188
  0
LINE
  5
98
100
AcDbEntity
  8
DD0
100
AcDbLine
 10
43.922341
 20
288.925188
 11
40.903823
 21
288.116377
  0
LINE
  5
99
100
AcDbEntity
  8
DD0
100
AcDbLine
 10
40.903823
 20
288.116377
 11
43.922341
 21
287.307565
  0
LINE
  5
9A
100
AcDbEntity
  8
DD0
100
AcDbLine
 10
93.903824
 20
288.116377
 11
40.903823
 21
288.116377
  0
TEXT
  5
9B
100
AcDbEntity
  8
DD0
100
AcDbText
 10
63.7882
 20
288.866385
 40
3.9375
  1
５３
 41
0.833333
  7
STANDARD
100
AcDbText
  0
ENDBLK
  5
9C
100
AcDbEntity
  8
DD0
100
AcDbBlockEnd
  0
BLOCK
  5
9F
100
AcDbEntity
  8
DD0
100
AcDbBlockBegin
  2
DIMS8
 70
     0
 10
0.0
 20
0.0
  0
LINE
  5
A0
100
AcDbEntity
  8
DD0
100
AcDbLine
 10
133.462723
 20
219.865888
 11
133.462723
 21
194.865944
  0
LINE
  5
A1
100
AcDbEntity
  8
DD0
100
AcDbLine
 10
143.4628
 20
213.865884
 11
143.4628
 21
194.865944
  0
LINE
  5
A2
100
AcDbEntity
  8
DD0
100
AcDbLine
 10
136.481241
 20
196.924756
 11
133.462723
 21
196.115944
  0
LINE
  5
A3
100
AcDbEntity
  8
DD0
100
AcDbLine
 10
133.462723
 20
196.115944
 11
136.481241
 21
195.307133
  0
LINE
  5
A4
100
AcDbEntity
  8
DD0
100
AcDbLine
 10
140.444282
 20
195.307133
 11
143.4628
 21
196.115944
  0
LINE
  5
A5
100
AcDbEntity
  8
DD0
100
AcDbLine
 10
143.4628
 20
196.115944
 11
140.444282
 21
196.924756
  0
LINE
  5
A6
100
AcDbEntity
  8
DD0
100
AcDbLine
 10
133.462723
 20
196.115944
 11
143.4628
 21
196.115944
  0
TEXT
  5
A7
100
AcDbEntity
  8
DD0
100
AcDbText
 10
132.42526
 20
191.303455
 40
3.9375
  1
最小１０
 41
0.666667
  7
STANDARD
100
AcDbText
  0
ENDBLK
  5
A8
100
AcDbEntity
  8
DD0
100
AcDbBlockEnd
  0
BLOCK
  5
AB
100
AcDbEntity
  8
DD0
100
AcDbBlockBegin
  2
DIMS9
 70
     0
 10
0.0
 20
0.0
  0
LINE
  5
AC
100
AcDbEntity
  8
DD0
100
AcDbLine
 10
94.653822
 20
273.615815
 11
109.65655
 21
273.615815
  0
LINE
  5
AD
100
AcDbEntity
  8
DD0
100
AcDbLine
 10
90.153824
 20
208.615811
 11
109.65655
 21
208.615811
  0
LINE
  5
AE
100
AcDbEntity
  8
DD0
100
AcDbLine
 10
109.215362
 20
270.597297
 11
108.40655
 21
273.615815
  0
LINE
  5
AF
100
AcDbEntity
  8
DD0
100
AcDbLine
 10
108.40655
 20
273.615815
 11
107.597739
 21
270.597297
  0
LINE
  5
B0
100
AcDbEntity
  8
DD0
100
AcDbLine
 10
107.597739
 20
211.634329
 11
108.40655
 21
208.615811
  0
LINE
  5
B1
100
AcDbEntity
  8
DD0
100
AcDbLine
 10
108.40655
 20
208.615811
 11
109.215362
 21
211.634329
  0
LINE
  5
B2
100
AcDbEntity
  8
DD0
100
AcDbLine
 10
108.40655
 20
273.615815
 11
108.40655
 21
208.615811
  0
TEXT
  5
B3
100
AcDbEntity
  8
DD0
100
AcDbText
 10
107.656552
 20
237.500197
 40
3.9375
  1
６５
 50
90.000003
 41
0.833333
  7
STANDARD
100
AcDbText
  0
ENDBLK
  5
B4
100
AcDbEntity
  8
DD0
100
AcDbBlockEnd
  0
ENDSEC
  0
SECTION
  2
ENTITIES
  0
INSERT
  5
57
100
AcDbEntity
  8
DD0
100
AcDbBlockReference
  2
DIMS0
 10
0.0
 20
0.0
  0
INSERT
  5
63
100
AcDbEntity
  8
DD0
100
AcDbBlockReference
  2
DIMS1
 10
0.0
 20
0.0
  0
INSERT
  5
6F
100
AcDbEntity
  8
DD0
100
AcDbBlockReference
  2
DIMS2
 10
0.0
 20
0.0
  0
INSERT
  5
74
100
AcDbEntity
  8
DD0
100
AcDbBlockReference
  2
DIMS3
 10
0.0
 20
0.0
  0
INSERT
  5
7B
100
AcDbEntity
  8
DD0
100
AcDbBlockReference
  2
DIMS4
 10
0.0
 20
0.0
  0
INSERT
  5
87
100
AcDbEntity
  8
DD0
100
AcDbBlockReference
  2
DIMS5
 10
0.0
 20
0.0
  0
INSERT
  5
91
100
AcDbEntity
  8
DD0
100
AcDbBlockReference
  2
DIMS6
 10
0.0
 20
0.0
  0
INSERT
  5
9D
100
AcDbEntity
  8
DD0
100
AcDbBlockReference
  2
DIMS7
 10
0.0
 20
0.0
  0
INSERT
  5
A9
100
AcDbEntity
  8
DD0
100
AcDbBlockReference
  2
DIMS8
 10
0.0
 20
0.0
  0
INSERT
  5
B5
100
AcDbEntity
  8
DD0
100
AcDbBlockReference
  2
DIMS9
 10
0.0
 20
0.0
  0
LINE
  5
B6
100
AcDbEntity
  8
M0
 62
     7
100
AcDbLine
 10
212.662735
 20
208.615875
 11
212.662735
 21
220.11586
  0
LINE
  5
B7
100
AcDbEntity
  8
M0
 62
     7
100
AcDbLine
 10
203.762726
 20
215.615875
 11
203.762726
 21
211.615875
  0
LINE
  5
B8
100
AcDbEntity
  8
M0
 62
     7
100
AcDbLine
 10
208.262726
 20
215.615875
 11
208.262726
 21
210.615875
  0
LINE
  5
B9
100
AcDbEntity
  8
M0
 62
     7
100
AcDbLine
 10
204.762726
 20
210.615875
 11
208.262726
 21
210.615875
  0
ARC
  5
BA
100
AcDbEntity
  8
M0
 62
     7
100
AcDbCircle
 10
204.762726
 20
211.615875
 40
1.0
100
AcDbArc
 50
179.999945
 51
270.0
  0
LINE
  5
BB
100
AcDbEntity
  8
M0
 62
     7
100
AcDbLine
 10
193.662735
 20
221.115875
 11
211.662735
 21
221.115875
  0
ARC
  5
BC
100
AcDbEntity
  8
M0
 62
     7
100
AcDbCircle
 10
211.662735
 20
220.115875
 40
1.0
100
AcDbArc
 50
0.0
 51
90.0
  0
ARC
  5
BD
100
AcDbEntity
  8
M0
 62
     7
100
AcDbCircle
 10
203.262726
 20
215.615875
 40
0.5
100
AcDbArc
 50
0.0
 51
90.0
  0
ARC
  5
BE
100
AcDbEntity
  8
M0
 62
     7
100
AcDbCircle
 10
203.262726
 20
214.662918
 40
0.5
100
AcDbArc
 50
0.0
 51
84.348228
  0
LINE
  5
BF
100
AcDbEntity
  8
M0
 62
     7
100
AcDbLine
 10
212.662735
 20
208.615875
 11
222.662735
 21
208.615875
  0
LINE
  5
C0
100
AcDbEntity
  8
M0
 62
     7
100
AcDbLine
 10
222.662735
 20
208.615875
 11
222.66272
 21
222.465881
  0
LINE
  5
C1
100
AcDbEntity
  8
M0
 62
     7
100
AcDbLine
 10
222.662735
 20
273.615875
 11
212.662735
 21
273.61586
  0
LINE
  5
C2
100
AcDbEntity
  8
M0
  6
DASHDOT
 62
     7
100
AcDbLine
 10
193.662735
 20
241.115875
 11
228.250366
 21
241.115875
  0
LINE
  5
C3
100
AcDbEntity
  8
M0
 62
     7
100
AcDbLine
 10
193.662735
 20
267.115875
 11
222.662735
 21
267.115875
  0
LINE
  5
C4
100
AcDbEntity
  8
M0
 62
     7
100
AcDbLine
 10
222.362732
 20
222.765869
 11
222.362732
 21
223.465866
  0
LINE
  5
C5
100
AcDbEntity
  8
M0
 62
     7
100
AcDbLine
 10
217.862732
 20
223.465881
 11
221.662735
 21
223.465881
  0
LINE
  5
C6
100
AcDbEntity
  8
M0
 62
     7
100
AcDbLine
 10
217.862732
 20
258.765869
 11
222.662735
 21
258.765869
  0
LINE
  5
C7
100
AcDbEntity
  8
M0
 62
     7
100
AcDbLine
 10
218.862732
 20
223.965881
 11
218.962662
 21
223.965881
  0
LINE
  5
C8
100
AcDbEntity
  8
M0
 62
     7
100
AcDbLine
 10
218.962662
 20
225.465881
 11
219.962662
 21
225.465881
  0
LINE
  5
C9
100
AcDbEntity
  8
M0
 62
     7
100
AcDbLine
 10
222.662735
 20
258.765869
 11
222.662735
 21
273.615875
  0
LINE
  5
CA
100
AcDbEntity
  8
M0
 62
     7
100
AcDbLine
 10
219.662704
 20
256.765869
 11
220.662704
 21
256.765869
  0
LINE
  5
CB
100
AcDbEntity
  8
M0
 62
     7
100
AcDbLine
 10
220.66272
 20
256.765869
 11
222.362732
 21
258.765869
  0
LINE
  5
CC
100
AcDbEntity
  8
M0
 62
     7
100
AcDbLine
 10
219.66272
 20
256.765869
 11
218.962723
 21
258.765869
  0
LINE
  5
CD
100
AcDbEntity
  8
M0
 62
     7
100
AcDbLine
 10
218.962662
 20
225.465881
 11
218.962662
 21
223.965881
  0
LINE
  5
CE
100
AcDbEntity
  8
M0
 62
     7
100
AcDbLine
 10
193.662735
 20
216.115875
 11
212.662735
 21
216.115875
  0
LINE
  5
CF
100
AcDbEntity
  8
M0
 62
     7
100
AcDbLine
 10
193.662735
 20
215.115875
 11
203.474442
 21
215.115875
  0
LINE
  5
D0
100
AcDbEntity
  8
M0
 62
     7
100
AcDbLine
 10
193.662735
 20
216.115875
 11
203.311981
 21
215.160492
  0
ARC
  5
D1
100
AcDbEntity
  8
M0
 62
     7
100
AcDbCircle
 10
208.762726
 20
215.615875
 40
0.5
100
AcDbArc
 50
90.0
 51
179.999966
  0
ARC
  5
D2
100
AcDbEntity
  8
M0
 62
     7
100
AcDbCircle
 10
208.762726
 20
214.615875
 40
0.5
100
AcDbArc
 50
90.0
 51
179.999959
  0
LINE
  5
D3
100
AcDbEntity
  8
M0
 62
     7
100
AcDbLine
 10
208.762726
 20
215.115875
 11
212.662735
 21
215.115875
  0
LINE
  5
D4
100
AcDbEntity
  8
M0
 62
     7
100
AcDbLine
 10
212.662735
 20
273.61586
 11
212.662735
 21
267.115875
  0
LINE
  5
D5
100
AcDbEntity
  8
M0
 62
     7
100
AcDbLine
 10
217.862732
 20
223.465881
 11
217.862732
 21
258.765869
  0
LINE
  5
D6
100
AcDbEntity
  8
M0
 62
     7
100
AcDbLine
 10
221.662735
 20
223.465881
 11
222.66272
 21
222.465881
  0
LINE
  5
D7
100
AcDbEntity
  8
M0
 62
     7
100
AcDbLine
 10
219.962662
 20
225.465881
 11
219.962662
 21
223.465881
  0
LINE
  5
D8
100
AcDbEntity
  8
M0
 62
     7
100
AcDbLine
 10
222.362732
 20
223.465866
 11
219.962662
 21
225.465881
  0
CIRCLE
  5
D9
100
AcDbEntity
  8
M0
 62
     6
100
AcDbCircle
 10
47.403809
 20
213.115891
 40
3.0
  0
LINE
  5
DA
100
AcDbEntity
  8
M0
 62
     6
100
AcDbLine
 10
44.307083
 20
216.615799
 11
43.628799
 21
214.415939
  0
LINE
  5
DB
100
AcDbEntity
  8
M0
 62
     6
100
AcDbLine
 10
44.445053
 20
209.16864
 11
43.628799
 21
211.815964
  0
LINE
  5
DC
100
AcDbEntity
  8
M0
 62
     6
100
AcDbLine
 10
50.500488
 20
216.615799
 11
51.178802
 21
214.415939
  0
LINE
  5
DD
100
AcDbEntity
  8
M0
 62
     6
100
AcDbLine
 10
50.362534
 20
209.168625
 11
51.178802
 21
211.815964
  0
LINE
  5
DE
100
AcDbEntity
  8
M0
 62
     6
100
AcDbLine
 10
44.922852
 20
208.815964
 11
49.88472
 21
208.815964
  0
LINE
  5
DF
100
AcDbEntity
  8
M0
 62
     6
100
AcDbLine
 10
51.178802
 20
211.815964
 11
51.178802
 21
214.415939
  0
LINE
  5
E0
100
AcDbEntity
  8
M0
 62
     6
100
AcDbLine
 10
43.628799
 20
214.415939
 11
43.628799
 21
211.815964
  0
LINE
  5
E1
100
AcDbEntity
  8
M0
  6
DASHDOT
 62
     6
100
AcDbLine
 10
41.128799
 20
213.115891
 11
53.678802
 21
213.115891
  0
LINE
  5
E2
100
AcDbEntity
  8
M0
  6
DASHDOT
 62
     6
100
AcDbLine
 10
47.403809
 20
206.315979
 11
47.403809
 21
219.915939
  0
LINE
  5
E3
100
AcDbEntity
  8
M0
 62
     6
100
AcDbLine
 10
48.994583
 20
211.52507
 11
45.812775
 21
214.706833
  0
LINE
  5
E4
100
AcDbEntity
  8
M0
 62
     6
100
AcDbLine
 10
47.757217
 20
214.530075
 11
45.989548
 21
212.762375
  0
LINE
  5
E5
100
AcDbEntity
  8
M0
 62
     6
100
AcDbLine
 10
48.817825
 20
213.469406
 11
47.050201
 21
211.701828
  0
ARC
  5
E6
100
AcDbEntity
  8
M0
 62
     6
100
AcDbCircle
 10
44.922852
 20
209.315964
 40
0.5
100
AcDbArc
 50
197.137551
 51
270.0
  0
ARC
  5
E7
100
AcDbEntity
  8
M0
 62
     6
100
AcDbCircle
 10
49.88472
 20
209.315964
 40
0.5
100
AcDbArc
 50
270.0
 51
342.861653
  0
CIRCLE
  5
E8
100
AcDbEntity
  8
M0
 62
     6
100
AcDbCircle
 10
47.403809
 20
221.115891
 40
3.0
  0
LINE
  5
E9
100
AcDbEntity
  8
M0
 62
     6
100
AcDbLine
 10
44.445053
 20
225.063232
 11
43.628799
 21
222.415939
  0
LINE
  5
EA
100
AcDbEntity
  8
M0
 62
     6
100
AcDbLine
 10
44.445053
 20
217.16864
 11
43.628799
 21
219.815964
  0
LINE
  5
EB
100
AcDbEntity
  8
M0
 62
     6
100
AcDbLine
 10
50.362534
 20
225.063248
 11
51.178802
 21
222.415939
  0
LINE
  5
EC
100
AcDbEntity
  8
M0
 62
     6
100
AcDbLine
 10
50.362534
 20
217.168625
 11
51.178802
 21
219.815964
  0
LINE
  5
ED
100
AcDbEntity
  8
M0
 62
     6
100
AcDbLine
 10
44.922852
 20
216.815964
 11
49.88472
 21
216.815964
  0
LINE
  5
EE
100
AcDbEntity
  8
M0
 62
     6
100
AcDbLine
 10
51.178802
 20
219.815964
 11
51.178802
 21
222.415939
  0
LINE
  5
EF
100
AcDbEntity
  8
M0
 62
     6
100
AcDbLine
 10
49.88472
 20
225.415939
 11
44.922852
 21
225.415924
  0
LINE
  5
F0
100
AcDbEntity
  8
M0
 62
     6
100
AcDbLine
 10
43.628799
 20
222.415939
 11
43.628799
 21
219.815964
  0
LINE
  5
F1
100
AcDbEntity
  8
M0
  6
DASHDOT
 62
     6
100
AcDbLine
 10
41.128799
 20
221.115891
 11
53.678802
 21
221.115891
  0
LINE
  5
F2
100
AcDbEntity
  8
M0
  6
DASHDOT
 62
     6
100
AcDbLine
 10
47.403809
 20
214.315979
 11
47.403809
 21
227.915939
  0
LINE
  5
F3
100
AcDbEntity
  8
M0
 62
     6
100
AcDbLine
 10
48.994583
 20
219.52507
 11
45.812775
 21
222.706833
  0
LINE
  5
F4
100
AcDbEntity
  8
M0
 62
     6
100
AcDbLine
 10
47.757217
 20
222.530075
 11
45.989548
 21
220.762375
  0
LINE
  5
F5
100
AcDbEntity
  8
M0
 62
     6
100
AcDbLine
 10
48.817825
 20
221.469406
 11
47.050201
 21
219.701828
  0
ARC
  5
F6
100
AcDbEntity
  8
M0
 62
     6
100
AcDbCircle
 10
44.922852
 20
224.915924
 40
0.5
100
AcDbArc
 50
90.0
 51
162.865663
  0
ARC
  5
F7
100
AcDbEntity
  8
M0
 62
     6
100
AcDbCircle
 10
44.922852
 20
217.315964
 40
0.5
100
AcDbArc
 50
197.137551
 51
270.0
  0
ARC
  5
F8
100
AcDbEntity
  8
M0
 62
     6
100
AcDbCircle
 10
49.88472
 20
217.315964
 40
0.5
100
AcDbArc
 50
270.0
 51
342.861653
  0
ARC
  5
F9
100
AcDbEntity
  8
M0
 62
     6
100
AcDbCircle
 10
49.88472
 20
224.915924
 40
0.5
100
AcDbArc
 50
17.134787
 51
90.0
  0
CIRCLE
  5
FA
100
AcDbEntity
  8
M0
 62
     6
100
AcDbCircle
 10
57.403809
 20
221.115891
 40
3.0
  0
LINE
  5
FB
100
AcDbEntity
  8
M0
 62
     6
100
AcDbLine
 10
54.445053
 20
225.063232
 11
53.628799
 21
222.415939
  0
LINE
  5
FC
100
AcDbEntity
  8
M0
 62
     6
100
AcDbLine
 10
54.445053
 20
217.16864
 11
53.628799
 21
219.815964
  0
LINE
  5
FD
100
AcDbEntity
  8
M0
 62
     6
100
AcDbLine
 10
60.362534
 20
225.063248
 11
61.178802
 21
222.415939
  0
LINE
  5
FE
100
AcDbEntity
  8
M0
 62
     6
100
AcDbLine
 10
60.362534
 20
217.168625
 11
61.178802
 21
219.815964
  0
LINE
  5
FF
100
AcDbEntity
  8
M0
 62
     6
100
AcDbLine
 10
54.922852
 20
216.815964
 11
59.88472
 21
216.815964
  0
LINE
  5
100
100
AcDbEntity
  8
M0
 62
     6
100
AcDbLine
 10
61.178802
 20
219.815964
 11
61.178802
 21
222.415939
  0
LINE
  5
101
100
AcDbEntity
  8
M0
 62
     6
100
AcDbLine
 10
59.88472
 20
225.415939
 11
54.922852
 21
225.415924
  0
LINE
  5
102
100
AcDbEntity
  8
M0
 62
     6
100
AcDbLine
 10
53.628799
 20
222.415939
 11
53.628799
 21
219.815964
  0
LINE
  5
103
100
AcDbEntity
  8
M0
  6
DASHDOT
 62
     6
100
AcDbLine
 10
51.128799
 20
221.115891
 11
63.678802
 21
221.115891
  0
LINE
  5
104
100
AcDbEntity
  8
M0
  6
DASHDOT
 62
     6
100
AcDbLine
 10
57.403809
 20
214.315979
 11
57.403809
 21
227.915939
  0
LINE
  5
105
100
AcDbEntity
  8
M0
 62
     6
100
AcDbLine
 10
58.994583
 20
219.52507
 11
55.812775
 21
222.706833
  0
LINE
  5
106
100
AcDbEntity
  8
M0
 62
     6
100
AcDbLine
 10
57.757217
 20
222.530075
 11
55.989548
 21
220.762375
  0
LINE
  5
107
100
AcDbEntity
  8
M0
 62
     6
100
AcDbLine
 10
58.817825
 20
221.469406
 11
57.050201
 21
219.701828
  0
ARC
  5
108
100
AcDbEntity
  8
M0
 62
     6
100
AcDbCircle
 10
54.922852
 20
224.915924
 40
0.5
100
AcDbArc
 50
90.0
 51
162.865663
  0
ARC
  5
109
100
AcDbEntity
  8
M0
 62
     6
100
AcDbCircle
 10
54.922852
 20
217.315964
 40
0.5
100
AcDbArc
 50
197.137551
 51
270.0
  0
ARC
  5
10A
100
AcDbEntity
  8
M0
 62
     6
100
AcDbCircle
 10
59.88472
 20
217.315964
 40
0.5
100
AcDbArc
 50
270.0
 51
342.861653
  0
ARC
  5
10B
100
AcDbEntity
  8
M0
 62
     6
100
AcDbCircle
 10
59.88472
 20
224.915924
 40
0.5
100
AcDbArc
 50
17.134787
 51
90.0
  0
CIRCLE
  5
10C
100
AcDbEntity
  8
M0
 62
     6
100
AcDbCircle
 10
67.403809
 20
221.115891
 40
3.0
  0
LINE
  5
10D
100
AcDbEntity
  8
M0
 62
     6
100
AcDbLine
 10
64.445053
 20
225.063232
 11
63.628799
 21
222.415939
  0
LINE
  5
10E
100
AcDbEntity
  8
M0
 62
     6
100
AcDbLine
 10
64.445053
 20
217.16864
 11
63.628799
 21
219.815964
  0
LINE
  5
10F
100
AcDbEntity
  8
M0
 62
     6
100
AcDbLine
 10
70.362534
 20
225.063248
 11
71.178802
 21
222.415939
  0
LINE
  5
110
100
AcDbEntity
  8
M0
 62
     6
100
AcDbLine
 10
70.362534
 20
217.168625
 11
71.178802
 21
219.815964
  0
LINE
  5
111
100
AcDbEntity
  8
M0
 62
     6
100
AcDbLine
 10
64.922852
 20
216.815964
 11
69.88472
 21
216.815964
  0
LINE
  5
112
100
AcDbEntity
  8
M0
 62
     6
100
AcDbLine
 10
71.178802
 20
219.815964
 11
71.178802
 21
222.415939
  0
LINE
  5
113
100
AcDbEntity
  8
M0
 62
     6
100
AcDbLine
 10
69.88472
 20
225.415939
 11
64.922852
 21
225.415924
  0
LINE
  5
114
100
AcDbEntity
  8
M0
 62
     6
100
AcDbLine
 10
63.628799
 20
222.415939
 11
63.628799
 21
219.815964
  0
LINE
  5
115
100
AcDbEntity
  8
M0
  6
DASHDOT
 62
     6
100
AcDbLine
 10
61.128799
 20
221.115891
 11
73.678802
 21
221.115891
  0
LINE
  5
116
100
AcDbEntity
  8
M0
 62
     6
100
AcDbLine
 10
68.994583
 20
219.52507
 11
65.812775
 21
222.706833
  0
LINE
  5
117
100
AcDbEntity
  8
M0
 62
     6
100
AcDbLine
 10
67.757217
 20
222.530075
 11
65.989548
 21
220.762375
  0
LINE
  5
118
100
AcDbEntity
  8
M0
 62
     6
100
AcDbLine
 10
68.817825
 20
221.469406
 11
67.050201
 21
219.701828
  0
ARC
  5
119
100
AcDbEntity
  8
M0
 62
     6
100
AcDbCircle
 10
64.922852
 20
224.915924
 40
0.5
100
AcDbArc
 50
90.0
 51
162.865663
  0
ARC
  5
11A
100
AcDbEntity
  8
M0
 62
     6
100
AcDbCircle
 10
64.922852
 20
217.315964
 40
0.5
100
AcDbArc
 50
197.137551
 51
270.0
  0
ARC
  5
11B
100
AcDbEntity
  8
M0
 62
     6
100
AcDbCircle
 10
69.88472
 20
217.315964
 40
0.5
100
AcDbArc
 50
270.0
 51
342.861653
  0
ARC
  5
11C
100
AcDbEntity
  8
M0
 62
     6
100
AcDbCircle
 10
69.88472
 20
224.915924
 40
0.5
100
AcDbArc
 50
17.134787
 51
90.0
  0
CIRCLE
  5
11D
100
AcDbEntity
  8
M0
 62
     6
100
AcDbCircle
 10
77.403809
 20
221.115891
 40
3.0
  0
LINE
  5
11E
100
AcDbEntity
  8
M0
 62
     6
100
AcDbLine
 10
74.445053
 20
225.063232
 11
73.628799
 21
222.415939
  0
LINE
  5
11F
100
AcDbEntity
  8
M0
 62
     6
100
AcDbLine
 10
74.445053
 20
217.16864
 11
73.628799
 21
219.815964
  0
LINE
  5
120
100
AcDbEntity
  8
M0
 62
     6
100
AcDbLine
 10
80.362534
 20
225.063248
 11
81.178802
 21
222.415939
  0
LINE
  5
121
100
AcDbEntity
  8
M0
 62
     6
100
AcDbLine
 10
80.362534
 20
217.168625
 11
81.178802
 21
219.815964
  0
LINE
  5
122
100
AcDbEntity
  8
M0
 62
     6
100
AcDbLine
 10
74.922852
 20
216.815964
 11
79.88472
 21
216.815964
  0
LINE
  5
123
100
AcDbEntity
  8
M0
 62
     6
100
AcDbLine
 10
81.178802
 20
219.815964
 11
81.178802
 21
222.415939
  0
LINE
  5
124
100
AcDbEntity
  8
M0
 62
     6
100
AcDbLine
 10
79.88472
 20
225.415939
 11
74.922852
 21
225.415924
  0
LINE
  5
125
100
AcDbEntity
  8
M0
 62
     6
100
AcDbLine
 10
73.628799
 20
222.415939
 11
73.628799
 21
219.815964
  0
LINE
  5
126
100
AcDbEntity
  8
M0
  6
DASHDOT
 62
     6
100
AcDbLine
 10
71.128799
 20
221.115891
 11
83.678802
 21
221.115891
  0
LINE
  5
127
100
AcDbEntity
  8
M0
  6
DASHDOT
 62
     6
100
AcDbLine
 10
77.403809
 20
214.315979
 11
77.403809
 21
227.915939
  0
LINE
  5
128
100
AcDbEntity
  8
M0
 62
     6
100
AcDbLine
 10
78.994583
 20
219.52507
 11
75.812775
 21
222.706833
  0
LINE
  5
129
100
AcDbEntity
  8
M0
 62
     6
100
AcDbLine
 10
77.757217
 20
222.530075
 11
75.989548
 21
220.762375
  0
LINE
  5
12A
100
AcDbEntity
  8
M0
 62
     6
100
AcDbLine
 10
78.817825
 20
221.469406
 11
77.050201
 21
219.701828
  0
ARC
  5
12B
100
AcDbEntity
  8
M0
 62
     6
100
AcDbCircle
 10
74.922852
 20
224.915924
 40
0.5
100
AcDbArc
 50
90.0
 51
162.865663
  0
ARC
  5
12C
100
AcDbEntity
  8
M0
 62
     6
100
AcDbCircle
 10
74.922852
 20
217.315964
 40
0.5
100
AcDbArc
 50
197.137551
 51
270.0
  0
ARC
  5
12D
100
AcDbEntity
  8
M0
 62
     6
100
AcDbCircle
 10
79.88472
 20
217.315964
 40
0.5
100
AcDbArc
 50
270.0
 51
342.861653
  0
ARC
  5
12E
100
AcDbEntity
  8
M0
 62
     6
100
AcDbCircle
 10
79.88472
 20
224.915924
 40
0.5
100
AcDbArc
 50
17.134787
 51
90.0
  0
CIRCLE
  5
12F
100
AcDbEntity
  8
M0
 62
     6
100
AcDbCircle
 10
57.403809
 20
261.115723
 40
3.0
  0
LINE
  5
130
100
AcDbEntity
  8
M0
 62
     6
100
AcDbLine
 10
54.445053
 20
265.063065
 11
53.628799
 21
262.415771
  0
LINE
  5
131
100
AcDbEntity
  8
M0
 62
     6
100
AcDbLine
 10
54.445053
 20
257.168472
 11
53.628799
 21
259.815796
  0
LINE
  5
132
100
AcDbEntity
  8
M0
 62
     6
100
AcDbLine
 10
60.362534
 20
265.06308
 11
61.178802
 21
262.415771
  0
LINE
  5
133
100
AcDbEntity
  8
M0
 62
     6
100
AcDbLine
 10
60.362534
 20
257.168457
 11
61.178802
 21
259.815796
  0
LINE
  5
134
100
AcDbEntity
  8
M0
 62
     6
100
AcDbLine
 10
54.922852
 20
256.815796
 11
59.88472
 21
256.815796
  0
LINE
  5
135
100
AcDbEntity
  8
M0
 62
     6
100
AcDbLine
 10
61.178802
 20
259.815796
 11
61.178802
 21
262.415771
  0
LINE
  5
136
100
AcDbEntity
  8
M0
 62
     6
100
AcDbLine
 10
59.88472
 20
265.415771
 11
54.922852
 21
265.415756
  0
LINE
  5
137
100
AcDbEntity
  8
M0
 62
     6
100
AcDbLine
 10
53.628799
 20
262.415771
 11
53.628799
 21
259.815796
  0
LINE
  5
138
100
AcDbEntity
  8
M0
  6
DASHDOT
 62
     6
100
AcDbLine
 10
51.128799
 20
261.115723
 11
63.678802
 21
261.115723
  0
LINE
  5
139
100
AcDbEntity
  8
M0
  6
DASHDOT
 62
     6
100
AcDbLine
 10
57.403809
 20
254.315811
 11
57.403809
 21
267.915771
  0
LINE
  5
13A
100
AcDbEntity
  8
M0
 62
     6
100
AcDbLine
 10
58.994583
 20
259.524902
 11
55.812775
 21
262.706665
  0
LINE
  5
13B
100
AcDbEntity
  8
M0
 62
     6
100
AcDbLine
 10
57.757217
 20
262.529907
 11
55.989548
 21
260.762207
  0
LINE
  5
13C
100
AcDbEntity
  8
M0
 62
     6
100
AcDbLine
 10
58.817825
 20
261.469238
 11
57.050201
 21
259.70166
  0
ARC
  5
13D
100
AcDbEntity
  8
M0
 62
     6
100
AcDbCircle
 10
54.922852
 20
264.915756
 40
0.5
100
AcDbArc
 50
90.0
 51
162.865663
  0
ARC
  5
13E
100
AcDbEntity
  8
M0
 62
     6
100
AcDbCircle
 10
54.922852
 20
257.315796
 40
0.5
100
AcDbArc
 50
197.137551
 51
270.0
  0
ARC
  5
13F
100
AcDbEntity
  8
M0
 62
     6
100
AcDbCircle
 10
59.88472
 20
257.315796
 40
0.5
100
AcDbArc
 50
270.0
 51
342.861653
  0
ARC
  5
140
100
AcDbEntity
  8
M0
 62
     6
100
AcDbCircle
 10
59.88472
 20
264.915756
 40
0.5
100
AcDbArc
 50
17.134787
 51
90.0
  0
CIRCLE
  5
141
100
AcDbEntity
  8
M0
 62
     6
100
AcDbCircle
 10
67.403809
 20
261.115723
 40
3.0
  0
LINE
  5
142
100
AcDbEntity
  8
M0
 62
     6
100
AcDbLine
 10
64.445053
 20
265.063065
 11
63.628799
 21
262.415771
  0
LINE
  5
143
100
AcDbEntity
  8
M0
 62
     6
100
AcDbLine
 10
64.445053
 20
257.168472
 11
63.628799
 21
259.815796
  0
LINE
  5
144
100
AcDbEntity
  8
M0
 62
     6
100
AcDbLine
 10
70.362534
 20
265.06308
 11
71.178802
 21
262.415771
  0
LINE
  5
145
100
AcDbEntity
  8
M0
 62
     6
100
AcDbLine
 10
70.362534
 20
257.168457
 11
71.178802
 21
259.815796
  0
LINE
  5
146
100
AcDbEntity
  8
M0
 62
     6
100
AcDbLine
 10
64.922852
 20
256.815796
 11
69.88472
 21
256.815796
  0
LINE
  5
147
100
AcDbEntity
  8
M0
 62
     6
100
AcDbLine
 10
71.178802
 20
259.815796
 11
71.178802
 21
262.415771
  0
LINE
  5
148
100
AcDbEntity
  8
M0
 62
     6
100
AcDbLine
 10
69.88472
 20
265.415771
 11
64.922852
 21
265.415756
  0
LINE
  5
149
100
AcDbEntity
  8
M0
 62
     6
100
AcDbLine
 10
63.628799
 20
262.415771
 11
63.628799
 21
259.815796
  0
LINE
  5
14A
100
AcDbEntity
  8
M0
  6
DASHDOT
 62
     6
100
AcDbLine
 10
61.128799
 20
261.115723
 11
73.678802
 21
261.115723
  0
LINE
  5
14B
100
AcDbEntity
  8
M0
 62
     6
100
AcDbLine
 10
68.994583
 20
259.524902
 11
65.812775
 21
262.706665
  0
LINE
  5
14C
100
AcDbEntity
  8
M0
 62
     6
100
AcDbLine
 10
67.757217
 20
262.529907
 11
65.989548
 21
260.762207
  0
LINE
  5
14D
100
AcDbEntity
  8
M0
 62
     6
100
AcDbLine
 10
68.817825
 20
261.469238
 11
67.050201
 21
259.70166
  0
ARC
  5
14E
100
AcDbEntity
  8
M0
 62
     6
100
AcDbCircle
 10
64.922852
 20
264.915756
 40
0.5
100
AcDbArc
 50
90.0
 51
162.865663
  0
ARC
  5
14F
100
AcDbEntity
  8
M0
 62
     6
100
AcDbCircle
 10
64.922852
 20
257.315796
 40
0.5
100
AcDbArc
 50
197.137551
 51
270.0
  0
ARC
  5
150
100
AcDbEntity
  8
M0
 62
     6
100
AcDbCircle
 10
69.88472
 20
257.315796
 40
0.5
100
AcDbArc
 50
270.0
 51
342.861653
  0
ARC
  5
151
100
AcDbEntity
  8
M0
 62
     6
100
AcDbCircle
 10
69.88472
 20
264.915756
 40
0.5
100
AcDbArc
 50
17.134787
 51
90.0
  0
CIRCLE
  5
152
100
AcDbEntity
  8
M0
 62
     6
100
AcDbCircle
 10
77.403809
 20
261.115723
 40
3.0
  0
LINE
  5
153
100
AcDbEntity
  8
M0
 62
     6
100
AcDbLine
 10
74.445053
 20
265.063065
 11
73.628799
 21
262.415771
  0
LINE
  5
154
100
AcDbEntity
  8
M0
 62
     6
100
AcDbLine
 10
74.445053
 20
257.168472
 11
73.628799
 21
259.815796
  0
LINE
  5
155
100
AcDbEntity
  8
M0
 62
     6
100
AcDbLine
 10
80.362534
 20
265.06308
 11
81.178802
 21
262.415771
  0
LINE
  5
156
100
AcDbEntity
  8
M0
 62
     6
100
AcDbLine
 10
80.362534
 20
257.168457
 11
81.178802
 21
259.815796
  0
LINE
  5
157
100
AcDbEntity
  8
M0
 62
     6
100
AcDbLine
 10
74.922852
 20
256.815796
 11
79.88472
 21
256.815796
  0
LINE
  5
158
100
AcDbEntity
  8
M0
 62
     6
100
AcDbLine
 10
81.178802
 20
259.815796
 11
81.178802
 21
262.415771
  0
LINE
  5
159
100
AcDbEntity
  8
M0
 62
     6
100
AcDbLine
 10
79.88472
 20
265.415771
 11
74.922852
 21
265.415756
  0
LINE
  5
15A
100
AcDbEntity
  8
M0
 62
     6
100
AcDbLine
 10
73.628799
 20
262.415771
 11
73.628799
 21
259.815796
  0
LINE
  5
15B
100
AcDbEntity
  8
M0
  6
DASHDOT
 62
     6
100
AcDbLine
 10
71.128799
 20
261.115723
 11
83.678802
 21
261.115723
  0
LINE
  5
15C
100
AcDbEntity
  8
M0
  6
DASHDOT
 62
     6
100
AcDbLine
 10
77.403809
 20
254.315811
 11
77.403809
 21
267.915771
  0
LINE
  5
15D
100
AcDbEntity
  8
M0
 62
     6
100
AcDbLine
 10
78.994583
 20
259.524902
 11
75.812775
 21
262.706665
  0
LINE
  5
15E
100
AcDbEntity
  8
M0
 62
     6
100
AcDbLine
 10
77.757217
 20
262.529907
 11
75.989548
 21
260.762207
  0
LINE
  5
15F
100
AcDbEntity
  8
M0
 62
     6
100
AcDbLine
 10
78.817825
 20
261.469238
 11
77.050201
 21
259.70166
  0
ARC
  5
160
100
AcDbEntity
  8
M0
 62
     6
100
AcDbCircle
 10
74.922852
 20
264.915756
 40
0.5
100
AcDbArc
 50
90.0
 51
162.865663
  0
ARC
  5
161
100
AcDbEntity
  8
M0
 62
     6
100
AcDbCircle
 10
74.922852
 20
257.315796
 40
0.5
100
AcDbArc
 50
197.137551
 51
270.0
  0
ARC
  5
162
100
AcDbEntity
  8
M0
 62
     6
100
AcDbCircle
 10
79.88472
 20
257.315796
 40
0.5
100
AcDbArc
 50
270.0
 51
342.861653
  0
ARC
  5
163
100
AcDbEntity
  8
M0
 62
     6
100
AcDbCircle
 10
79.88472
 20
264.915756
 40
0.5
100
AcDbArc
 50
17.134787
 51
90.0
  0
CIRCLE
  5
164
100
AcDbEntity
  8
M0
 62
     6
100
AcDbCircle
 10
87.403809
 20
269.115479
 40
3.0
  0
LINE
  5
165
100
AcDbEntity
  8
M0
 62
     6
100
AcDbLine
 10
84.445053
 20
273.06282
 11
83.628799
 21
270.415527
  0
LINE
  5
166
100
AcDbEntity
  8
M0
 62
     6
100
AcDbLine
 10
84.307175
 20
265.615387
 11
83.628799
 21
267.815552
  0
LINE
  5
167
100
AcDbEntity
  8
M0
 62
     6
100
AcDbLine
 10
90.362534
 20
273.062836
 11
91.178802
 21
270.415527
  0
LINE
  5
168
100
AcDbEntity
  8
M0
 62
     6
100
AcDbLine
 10
90.500412
 20
265.615387
 11
91.178802
 21
267.815552
  0
LINE
  5
169
100
AcDbEntity
  8
M0
 62
     6
100
AcDbLine
 10
91.178802
 20
267.815552
 11
91.178802
 21
270.415527
  0
LINE
  5
16A
100
AcDbEntity
  8
M0
 62
     6
100
AcDbLine
 10
89.88472
 20
273.415527
 11
84.922852
 21
273.415512
  0
LINE
  5
16B
100
AcDbEntity
  8
M0
 62
     6
100
AcDbLine
 10
83.628799
 20
270.415527
 11
83.628799
 21
267.815552
  0
LINE
  5
16C
100
AcDbEntity
  8
M0
  6
DASHDOT
 62
     6
100
AcDbLine
 10
81.128799
 20
269.115479
 11
93.678802
 21
269.115479
  0
LINE
  5
16D
100
AcDbEntity
  8
M0
  6
DASHDOT
 62
     6
100
AcDbLine
 10
87.403809
 20
262.315567
 11
87.403809
 21
275.915527
  0
LINE
  5
16E
100
AcDbEntity
  8
M0
 62
     6
100
AcDbLine
 10
88.994583
 20
267.524658
 11
85.812775
 21
270.706421
  0
LINE
  5
16F
100
AcDbEntity
  8
M0
 62
     6
100
AcDbLine
 10
87.757217
 20
270.529663
 11
85.989548
 21
268.761963
  0
LINE
  5
170
100
AcDbEntity
  8
M0
 62
     6
100
AcDbLine
 10
88.817825
 20
269.468994
 11
87.050201
 21
267.701416
  0
ARC
  5
171
100
AcDbEntity
  8
M0
 62
     6
100
AcDbCircle
 10
84.922852
 20
272.915512
 40
0.5
100
AcDbArc
 50
90.0
 51
162.865663
  0
ARC
  5
172
100
AcDbEntity
  8
M0
 62
     6
100
AcDbCircle
 10
89.88472
 20
272.915512
 40
0.5
100
AcDbArc
 50
17.134787
 51
90.0
  0
CIRCLE
  5
173
100
AcDbEntity
  8
M0
 62
     6
100
AcDbCircle
 10
87.403809
 20
261.115723
 40
3.0
  0
LINE
  5
174
100
AcDbEntity
  8
M0
 62
     6
100
AcDbLine
 10
84.445053
 20
265.063065
 11
83.628799
 21
262.415771
  0
LINE
  5
175
100
AcDbEntity
  8
M0
 62
     6
100
AcDbLine
 10
84.445053
 20
257.168472
 11
83.628799
 21
259.815796
  0
LINE
  5
176
100
AcDbEntity
  8
M0
 62
     6
100
AcDbLine
 10
90.362534
 20
265.06308
 11
91.178802
 21
262.415771
  0
LINE
  5
177
100
AcDbEntity
  8
M0
 62
     6
100
AcDbLine
 10
90.362534
 20
257.168457
 11
91.178802
 21
259.815796
  0
LINE
  5
178
100
AcDbEntity
  8
M0
 62
     6
100
AcDbLine
 10
84.922852
 20
256.815796
 11
89.88472
 21
256.815796
  0
LINE
  5
179
100
AcDbEntity
  8
M0
 62
     6
100
AcDbLine
 10
91.178802
 20
259.815796
 11
91.178802
 21
262.415771
  0
LINE
  5
17A
100
AcDbEntity
  8
M0
 62
     6
100
AcDbLine
 10
89.88472
 20
265.415771
 11
84.922852
 21
265.415756
  0
LINE
  5
17B
100
AcDbEntity
  8
M0
 62
     6
100
AcDbLine
 10
83.628799
 20
262.415771
 11
83.628799
 21
259.815796
  0
LINE
  5
17C
100
AcDbEntity
  8
M0
  6
DASHDOT
 62
     6
100
AcDbLine
 10
81.128799
 20
261.115723
 11
93.678802
 21
261.115723
  0
LINE
  5
17D
100
AcDbEntity
  8
M0
  6
DASHDOT
 62
     6
100
AcDbLine
 10
87.403809
 20
254.315811
 11
87.403809
 21
267.915771
  0
LINE
  5
17E
100
AcDbEntity
  8
M0
 62
     6
100
AcDbLine
 10
88.994583
 20
259.524902
 11
85.812775
 21
262.706665
  0
LINE
  5
17F
100
AcDbEntity
  8
M0
 62
     6
100
AcDbLine
 10
87.757217
 20
262.529907
 11
85.989548
 21
260.762207
  0
LINE
  5
180
100
AcDbEntity
  8
M0
 62
     6
100
AcDbLine
 10
88.817825
 20
261.469238
 11
87.050201
 21
259.70166
  0
ARC
  5
181
100
AcDbEntity
  8
M0
 62
     6
100
AcDbCircle
 10
84.922852
 20
264.915756
 40
0.5
100
AcDbArc
 50
90.0
 51
162.865663
  0
ARC
  5
182
100
AcDbEntity
  8
M0
 62
     6
100
AcDbCircle
 10
84.922852
 20
257.315796
 40
0.5
100
AcDbArc
 50
197.137551
 51
270.0
  0
ARC
  5
183
100
AcDbEntity
  8
M0
 62
     6
100
AcDbCircle
 10
89.88472
 20
257.315796
 40
0.5
100
AcDbArc
 50
270.0
 51
342.861653
  0
ARC
  5
184
100
AcDbEntity
  8
M0
 62
     6
100
AcDbCircle
 10
89.88472
 20
264.915756
 40
0.5
100
AcDbArc
 50
17.134787
 51
90.0
  0
LINE
  5
185
100
AcDbEntity
  8
M0
 62
     1
100
AcDbLine
 10
62.803802
 20
209.615891
 11
71.803802
 21
209.615891
  0
ARC
  5
186
100
AcDbEntity
  8
M0
 62
     1
100
AcDbCircle
 10
62.803802
 20
210.615891
 40
1.0
100
AcDbArc
 50
210.003761
 51
270.0
  0
ARC
  5
187
100
AcDbEntity
  8
M0
 62
     1
100
AcDbCircle
 10
71.803802
 20
210.615891
 40
1.0
100
AcDbArc
 50
270.0
 51
329.995752
  0
LINE
  5
188
100
AcDbEntity
  8
M0
 62
     1
100
AcDbLine
 10
64.353806
 20
211.915878
 11
67.403824
 21
211.915878
  0
LINE
  5
189
100
AcDbEntity
  8
M0
 62
     1
100
AcDbLine
 10
70.653809
 20
212.11586
 11
70.653809
 21
213.115799
  0
ARC
  5
18A
100
AcDbEntity
  8
M0
 62
     1
100
AcDbCircle
 10
64.353806
 20
212.115875
 40
0.2
100
AcDbArc
 50
179.999727
 51
270.0
  0
ARC
  5
18B
100
AcDbEntity
  8
M0
 62
     1
100
AcDbCircle
 10
70.453796
 20
212.115875
 40
0.2
100
AcDbArc
 50
270.0
 51
360.0
  0
LINE
  5
18C
100
AcDbEntity
  8
M0
 62
     1
100
AcDbLine
 10
64.153793
 20
213.115799
 11
64.153809
 21
212.115875
  0
LINE
  5
18D
100
AcDbEntity
  8
M0
 62
     1
100
AcDbLine
 10
67.403824
 20
211.915878
 11
70.453796
 21
211.915878
  0
LINE
  5
18E
100
AcDbEntity
  8
M0
 62
     2
100
AcDbLine
 10
139.462754
 20
243.115875
 11
139.462769
 21
239.115875
  0
LINE
  5
18F
100
AcDbEntity
  8
M0
 62
     2
100
AcDbLine
 10
143.462753
 20
243.615859
 11
139.962754
 21
243.615874
  0
LINE
  5
190
100
AcDbEntity
  8
M0
 62
     2
100
AcDbLine
 10
143.462753
 20
238.615891
 11
139.96277
 21
238.615891
  0
ARC
  5
191
100
AcDbEntity
  8
M0
 62
     2
100
AcDbCircle
 10
139.962754
 20
243.115874
 40
0.5
100
AcDbArc
 50
90.0
 51
179.999982
  0
ARC
  5
192
100
AcDbEntity
  8
M0
 62
     2
100
AcDbCircle
 10
139.962769
 20
239.115875
 40
0.5
100
AcDbArc
 50
179.999968
 51
270.0
  0
LINE
  5
193
100
AcDbEntity
  8
M0
100
AcDbLine
 10
133.462723
 20
221.115891
 11
133.462723
 21
261.115891
  0
LINE
  5
194
100
AcDbEntity
  8
M0
100
AcDbLine
 10
130.462738
 20
222.358505
 11
133.462738
 21
225.358521
  0
LINE
  5
195
100
AcDbEntity
  8
M0
100
AcDbLine
 10
130.462723
 20
226.601135
 11
133.462723
 21
229.601151
  0
LINE
  5
196
100
AcDbEntity
  8
M0
100
AcDbLine
 10
130.462723
 20
230.843781
 11
133.462723
 21
233.843781
  0
LINE
  5
197
100
AcDbEntity
  8
M0
100
AcDbLine
 10
130.462723
 20
235.086426
 11
133.462723
 21
238.086426
  0
LINE
  5
198
100
AcDbEntity
  8
M0
100
AcDbLine
 10
130.462723
 20
239.329071
 11
133.462723
 21
242.329071
  0
LINE
  5
199
100
AcDbEntity
  8
M0
100
AcDbLine
 10
130.462723
 20
243.571716
 11
133.462723
 21
246.571716
  0
LINE
  5
19A
100
AcDbEntity
  8
M0
100
AcDbLine
 10
130.462708
 20
247.814346
 11
133.462708
 21
250.814346
  0
LINE
  5
19B
100
AcDbEntity
  8
M0
100
AcDbLine
 10
130.462723
 20
252.056992
 11
133.462723
 21
255.056992
  0
LINE
  5
19C
100
AcDbEntity
  8
M0
100
AcDbLine
 10
130.462723
 20
256.299637
 11
133.462723
 21
259.299637
  0
LINE
  5
19D
100
AcDbEntity
  8
M0
  6
DIVIDE
100
AcDbLine
 10
218.862732
 20
223.465881
 11
218.862732
 21
229.615875
  0
LINE
  5
19E
100
AcDbEntity
  8
M0
  6
DIVIDE
100
AcDbLine
 10
218.862732
 20
229.615875
 11
225.662735
 21
229.615875
  0
LINE
  5
19F
100
AcDbEntity
  8
M0
  6
DIVIDE
100
AcDbLine
 10
217.862732
 20
230.615875
 11
224.662735
 21
230.615875
  0
LINE
  5
1A0
100
AcDbEntity
  8
M0
  6
DIVIDE
100
AcDbLine
 10
224.662735
 20
251.615875
 11
224.662735
 21
230.615875
  0
LINE
  5
1A1
100
AcDbEntity
  8
M0
  6
DIVIDE
100
AcDbLine
 10
225.662735
 20
229.615875
 11
225.662735
 21
252.615875
  0
LINE
  5
1A2
100
AcDbEntity
  8
M0
  6
DIVIDE
100
AcDbLine
 10
218.862732
 20
252.615875
 11
218.862732
 21
258.765869
  0
LINE
  5
1A3
100
AcDbEntity
  8
M0
  6
DIVIDE
100
AcDbLine
 10
218.862732
 20
252.615875
 11
225.662735
 21
252.615875
  0
LINE
  5
1A4
100
AcDbEntity
  8
M0
  6
DIVIDE
100
AcDbLine
 10
217.862732
 20
251.615875
 11
224.662735
 21
251.615875
  0
LINE
  5
1A5
100
AcDbEntity
  8
M0
100
AcDbLine
 10
185.66272
 20
271.115463
 11
185.662735
 21
273.615341
  0
LINE
  5
1A6
100
AcDbEntity
  8
M0
100
AcDbLine
 10
186.862717
 20
271.401306
 11
186.862732
 21
273.615326
  0
LINE
  5
1A7
100
AcDbEntity
  8
M0
 62
     6
100
AcDbLine
 10
182.612732
 20
272.115448
 11
182.489136
 21
272.115448
  0
LINE
  5
1A8
100
AcDbEntity
  8
M0
 62
     6
100
AcDbLine
 10
182.75708
 20
271.615494
 11
183.262741
 21
271.615494
  0
LINE
  5
1A9
100
AcDbEntity
  8
M0
 62
     6
100
AcDbLine
 10
183.262741
 20
273.415482
 11
184.862732
 21
273.415482
  0
LINE
  5
1AA
100
AcDbEntity
  8
M0
 62
     6
100
AcDbLine
 10
184.862732
 20
272.415482
 11
185.662735
 21
272.215485
  0
LINE
  5
1AB
100
AcDbEntity
  8
M0
 62
     6
100
AcDbLine
 10
184.862732
 20
272.415466
 11
184.862732
 21
273.415482
  0
LINE
  5
1AC
100
AcDbEntity
  8
M0
 62
     6
100
AcDbLine
 10
183.262726
 20
272.215485
 11
183.862717
 21
272.215485
  0
ARC
  5
1AD
100
AcDbEntity
  8
M0
 62
     6
100
AcDbCircle
 10
180.91275
 20
271.115479
 40
1.0
100
AcDbArc
 50
90.0
 51
180.0
  0
ARC
  5
1AE
100
AcDbEntity
  8
M0
 62
     6
100
AcDbCircle
 10
193.51355
 20
270.615448
 40
11.300797
100
AcDbArc
 50
173.274797
 51
177.463452
  0
LINE
  5
1AF
100
AcDbEntity
  8
M0
 62
     6
100
AcDbLine
 10
182.212753
 20
272.115448
 11
180.91275
 21
272.115494
  0
ARC
  5
1B0
100
AcDbEntity
  8
M0
 62
     6
100
AcDbCircle
 10
194.013428
 20
270.615448
 40
11.300682
100
AcDbArc
 50
173.948749
 51
177.463398
  0
LINE
  5
1B1
100
AcDbEntity
  8
M0
 62
     6
100
AcDbLine
 10
182.812744
 20
271.915421
 11
182.812744
 21
271.615494
  0
ARC
  5
1B2
100
AcDbEntity
  8
M0
 62
     6
100
AcDbCircle
 10
182.612732
 20
271.915421
 40
0.2
100
AcDbArc
 50
0.0
 51
90.0
  0
ARC
  5
1B3
100
AcDbEntity
  8
M0
 62
     6
100
AcDbCircle
 10
182.489136
 20
271.915436
 40
0.2
100
AcDbArc
 50
90.0
 51
173.28397
  0
LINE
  5
1B4
100
AcDbEntity
  8
M0
 62
     6
100
AcDbLine
 10
185.66272
 20
271.115555
 11
185.662735
 21
272.215469
  0
LINE
  5
1B5
100
AcDbEntity
  8
M0
 62
     6
100
AcDbLine
 10
182.212738
 20
271.115555
 11
182.212753
 21
272.115494
  0
LINE
  5
1B6
100
AcDbEntity
  8
M0
 62
     6
100
AcDbLine
 10
183.262726
 20
271.115555
 11
183.262741
 21
273.415482
  0
LINE
  5
1B7
100
AcDbEntity
  8
M0
 62
     6
100
AcDbLine
 10
183.862701
 20
271.115555
 11
183.862717
 21
272.215485
  0
LINE
  5
1B8
100
AcDbEntity
  8
M0
 62
     4
100
AcDbLine
 10
93.903824
 20
212.615829
 11
93.903824
 21
273.115814
  0
LINE
  5
1B9
100
AcDbEntity
  8
M0
 62
     4
100
AcDbLine
 10
93.403824
 20
271.115814
 11
91.853775
 21
271.115814
  0
LINE
  5
1BA
100
AcDbEntity
  8
M0
 62
     4
100
AcDbLine
 10
40.903824
 20
269.615768
 11
40.903824
 21
209.115799
  0
LINE
  5
1BB
100
AcDbEntity
  8
M0
  6
DASHDOT
 62
     4
100
AcDbLine
 10
35.903824
 20
241.115814
 11
98.903824
 21
241.115814
  0
LINE
  5
1BC
100
AcDbEntity
  8
M0
  6
DASHDOT
 62
     4
100
AcDbLine
 10
67.403824
 20
203.615814
 11
67.403824
 21
278.615814
  0
LINE
  5
1BD
100
AcDbEntity
  8
M0
 62
     4
100
AcDbLine
 10
63.453629
 20
257.115814
 11
63.453629
 21
271.615768
  0
LINE
  5
1BE
100
AcDbEntity
  8
M0
 62
     4
100
AcDbLine
 10
71.353775
 20
257.115814
 11
71.353775
 21
271.615799
  0
LINE
  5
1BF
100
AcDbEntity
  8
M0
 62
     4
100
AcDbLine
 10
62.953629
 20
272.115799
 11
61.853775
 21
272.115799
  0
LINE
  5
1C0
100
AcDbEntity
  8
M0
 62
     4
100
AcDbLine
 10
64.453629
 20
256.115814
 11
70.353775
 21
256.115814
  0
ARC
  5
1C1
100
AcDbEntity
  8
M0
 62
     4
100
AcDbCircle
 10
64.453629
 20
257.115814
 40
1.0
100
AcDbArc
 50
180.0
 51
270.0
  0
ARC
  5
1C2
100
AcDbEntity
  8
M0
 62
     4
100
AcDbCircle
 10
70.353775
 20
257.115814
 40
1.0
100
AcDbArc
 50
269.916016
 51
360.0
  0
ARC
  5
1C3
100
AcDbEntity
  8
M0
 62
     4
100
AcDbCircle
 10
71.853775
 20
271.615799
 40
0.5
100
AcDbArc
 50
90.0
 51
180.0
  0
ARC
  5
1C4
100
AcDbEntity
  8
M0
 62
     4
100
AcDbCircle
 10
62.953629
 20
271.615784
 40
0.5
100
AcDbArc
 50
0.0
 51
90.0
  0
LINE
  5
1C5
100
AcDbEntity
  8
M0
 62
     4
100
AcDbLine
 10
42.953629
 20
270.115784
 11
41.403824
 21
270.115784
  0
LINE
  5
1C6
100
AcDbEntity
  8
M0
 62
     4
100
AcDbLine
 10
52.953629
 20
272.115784
 11
51.853775
 21
272.115784
  0
LINE
  5
1C7
100
AcDbEntity
  8
M0
 62
     4
100
AcDbLine
 10
72.953629
 20
272.115799
 11
71.853775
 21
272.115799
  0
LINE
  5
1C8
100
AcDbEntity
  8
M0
 62
     4
100
AcDbLine
 10
82.953629
 20
272.115799
 11
81.853775
 21
272.115799
  0
ARC
  5
1C9
100
AcDbEntity
  8
M0
 62
     4
100
AcDbCircle
 10
93.403824
 20
270.615799
 40
0.5
100
AcDbArc
 50
0.0
 51
90.0
  0
ARC
  5
1CA
100
AcDbEntity
  8
M0
 62
     4
100
AcDbCircle
 10
91.853775
 20
270.615799
 40
0.5
100
AcDbArc
 50
90.0
 51
180.0
  0
ARC
  5
1CB
100
AcDbEntity
  8
M0
 62
     4
100
AcDbCircle
 10
81.853775
 20
271.615799
 40
0.5
100
AcDbArc
 50
90.0
 51
180.0
  0
ARC
  5
1CC
100
AcDbEntity
  8
M0
 62
     4
100
AcDbCircle
 10
61.853775
 20
271.615784
 40
0.5
100
AcDbArc
 50
90.0
 51
180.0
  0
ARC
  5
1CD
100
AcDbEntity
  8
M0
 62
     4
100
AcDbCircle
 10
51.853775
 20
271.615768
 40
0.5
100
AcDbArc
 50
90.0
 51
180.0
  0
ARC
  5
1CE
100
AcDbEntity
  8
M0
 62
     4
100
AcDbCircle
 10
41.403824
 20
269.615768
 40
0.5
100
AcDbArc
 50
89.998251
 51
180.0
  0
LINE
  5
1CF
100
AcDbEntity
  8
M0
 62
     4
100
AcDbLine
 10
83.453629
 20
265.615814
 11
91.353775
 21
265.615814
  0
LINE
  5
1D0
100
AcDbEntity
  8
M0
 62
     4
100
AcDbLine
 10
73.453629
 20
265.615814
 11
81.353775
 21
265.615814
  0
LINE
  5
1D1
100
AcDbEntity
  8
M0
 62
     4
100
AcDbLine
 10
63.453629
 20
265.615814
 11
71.353775
 21
265.615814
  0
LINE
  5
1D2
100
AcDbEntity
  8
M0
 62
     4
100
AcDbLine
 10
53.453629
 20
265.615814
 11
61.353775
 21
265.615814
  0
LINE
  5
1D3
100
AcDbEntity
  8
M0
 62
     4
100
AcDbLine
 10
51.353775
 20
265.615814
 11
43.453629
 21
265.615814
  0
LINE
  5
1D4
100
AcDbEntity
  8
M0
 62
     4
100
AcDbLine
 10
53.453629
 20
269.115814
 11
61.353775
 21
269.115814
  0
LINE
  5
1D5
100
AcDbEntity
  8
M0
 62
     4
100
AcDbLine
 10
63.453629
 20
269.115814
 11
71.353775
 21
269.115814
  0
LINE
  5
1D6
100
AcDbEntity
  8
M0
 62
     4
100
AcDbLine
 10
73.453629
 20
269.115814
 11
81.353775
 21
269.115814
  0
LINE
  5
1D7
100
AcDbEntity
  8
M0
 62
     4
100
AcDbLine
 10
81.853775
 20
273.615814
 11
93.403824
 21
273.615814
  0
ARC
  5
1D8
100
AcDbEntity
  8
M0
 62
     4
100
AcDbCircle
 10
81.853775
 20
273.115814
 40
0.5
100
AcDbArc
 50
90.0
 51
180.0
  0
ARC
  5
1D9
100
AcDbEntity
  8
M0
 62
     4
100
AcDbCircle
 10
93.403824
 20
273.115814
 40
0.5
100
AcDbArc
 50
0.0
 51
90.0
  0
ARC
  5
1DA
100
AcDbEntity
  8
M0
 62
     4
100
AcDbCircle
 10
91.853775
 20
273.115814
 40
0.5
100
AcDbArc
 50
90.0
 51
180.0
  0
LINE
  5
1DB
100
AcDbEntity
  8
M0
 62
     4
100
AcDbLine
 10
79.065689
 20
269.115814
 11
81.416275
 21
273.358124
  0
ARC
  5
1DC
100
AcDbEntity
  8
M0
 62
     4
100
AcDbCircle
 10
41.403824
 20
209.115799
 40
0.5
100
AcDbArc
 50
179.998251
 51
270.0
  0
LINE
  5
1DD
100
AcDbEntity
  8
M0
 62
     4
100
AcDbLine
 10
73.453629
 20
257.115814
 11
73.453629
 21
271.615768
  0
ARC
  5
1DE
100
AcDbEntity
  8
M0
 62
     4
100
AcDbCircle
 10
74.453629
 20
257.115814
 40
1.0
100
AcDbArc
 50
180.0
 51
269.930004
  0
LINE
  5
1DF
100
AcDbEntity
  8
M0
 62
     4
100
AcDbLine
 10
74.453629
 20
256.115814
 11
80.353775
 21
256.115814
  0
ARC
  5
1E0
100
AcDbEntity
  8
M0
 62
     4
100
AcDbCircle
 10
80.353775
 20
257.115814
 40
1.0
100
AcDbArc
 50
269.916016
 51
360.0
  0
LINE
  5
1E1
100
AcDbEntity
  8
M0
 62
     4
100
AcDbLine
 10
81.353775
 20
257.115814
 11
81.353775
 21
273.115814
  0
ARC
  5
1E2
100
AcDbEntity
  8
M0
 62
     4
100
AcDbCircle
 10
72.953629
 20
271.615784
 40
0.5
100
AcDbArc
 50
0.0
 51
90.0
  0
LINE
  5
1E3
100
AcDbEntity
  8
M0
 62
     4
100
AcDbLine
 10
53.453629
 20
257.115814
 11
53.453629
 21
271.615753
  0
ARC
  5
1E4
100
AcDbEntity
  8
M0
 62
     4
100
AcDbCircle
 10
54.453629
 20
257.115814
 40
1.0
100
AcDbArc
 50
180.0
 51
269.930059
  0
LINE
  5
1E5
100
AcDbEntity
  8
M0
 62
     4
100
AcDbLine
 10
54.453629
 20
256.115814
 11
60.353775
 21
256.115814
  0
ARC
  5
1E6
100
AcDbEntity
  8
M0
 62
     4
100
AcDbCircle
 10
60.353775
 20
257.115814
 40
1.0
100
AcDbArc
 50
269.888094
 51
360.0
  0
LINE
  5
1E7
100
AcDbEntity
  8
M0
 62
     4
100
AcDbLine
 10
61.353775
 20
257.115814
 11
61.353775
 21
271.615784
  0
ARC
  5
1E8
100
AcDbEntity
  8
M0
 62
     4
100
AcDbCircle
 10
52.953629
 20
271.615768
 40
0.5
100
AcDbArc
 50
0.0
 51
90.0
  0
LINE
  5
1E9
100
AcDbEntity
  8
M0
 62
     4
100
AcDbLine
 10
83.453629
 20
257.115814
 11
83.453629
 21
273.115814
  0
ARC
  5
1EA
100
AcDbEntity
  8
M0
 62
     4
100
AcDbCircle
 10
84.453629
 20
257.115814
 40
1.0
100
AcDbArc
 50
180.0
 51
269.929185
  0
LINE
  5
1EB
100
AcDbEntity
  8
M0
 62
     4
100
AcDbLine
 10
84.453629
 20
256.115814
 11
90.353775
 21
256.115814
  0
ARC
  5
1EC
100
AcDbEntity
  8
M0
 62
     4
100
AcDbCircle
 10
90.353775
 20
257.115814
 40
1.0
100
AcDbArc
 50
269.915196
 51
360.0
  0
LINE
  5
1ED
100
AcDbEntity
  8
M0
 62
     4
100
AcDbLine
 10
91.353775
 20
257.115814
 11
91.353775
 21
273.115814
  0
ARC
  5
1EE
100
AcDbEntity
  8
M0
 62
     4
100
AcDbCircle
 10
82.953629
 20
271.615784
 40
0.5
100
AcDbArc
 50
0.0
 51
90.0
  0
ARC
  5
1EF
100
AcDbEntity
  8
M0
 62
     4
100
AcDbCircle
 10
82.953629
 20
273.115814
 40
0.5
100
AcDbArc
 50
0.0
 51
90.0
  0
ARC
  5
1F0
100
AcDbEntity
  8
M0
 62
     4
100
AcDbCircle
 10
44.453629
 20
257.115814
 40
1.0
100
AcDbArc
 50
180.0
 51
269.969401
  0
LINE
  5
1F1
100
AcDbEntity
  8
M0
 62
     4
100
AcDbLine
 10
43.453629
 20
257.115814
 11
43.453629
 21
269.615753
  0
LINE
  5
1F2
100
AcDbEntity
  8
M0
 62
     4
100
AcDbLine
 10
44.453629
 20
256.115814
 11
50.353775
 21
256.115814
  0
ARC
  5
1F3
100
AcDbEntity
  8
M0
 62
     4
100
AcDbCircle
 10
50.353775
 20
257.115814
 40
1.0
100
AcDbArc
 50
269.927436
 51
360.0
  0
LINE
  5
1F4
100
AcDbEntity
  8
M0
 62
     4
100
AcDbLine
 10
51.353775
 20
257.115814
 11
51.353775
 21
271.615768
  0
ARC
  5
1F5
100
AcDbEntity
  8
M0
 62
     4
100
AcDbCircle
 10
42.953629
 20
269.615768
 40
0.5
100
AcDbArc
 50
0.0
 51
89.998251
  0
LINE
  5
1F6
100
AcDbEntity
  8
M0
 62
     4
100
AcDbLine
 10
41.403824
 20
211.115814
 11
42.953873
 21
211.115814
  0
LINE
  5
1F7
100
AcDbEntity
  8
M0
 62
     4
100
AcDbLine
 10
71.354019
 20
225.115814
 11
71.354019
 21
210.61586
  0
LINE
  5
1F8
100
AcDbEntity
  8
M0
 62
     4
100
AcDbLine
 10
63.453873
 20
225.115814
 11
63.453873
 21
210.615829
  0
LINE
  5
1F9
100
AcDbEntity
  8
M0
 62
     4
100
AcDbLine
 10
71.854019
 20
210.115829
 11
72.953873
 21
210.115829
  0
LINE
  5
1FA
100
AcDbEntity
  8
M0
 62
     4
100
AcDbLine
 10
70.354019
 20
226.115814
 11
64.453873
 21
226.115814
  0
ARC
  5
1FB
100
AcDbEntity
  8
M0
 62
     4
100
AcDbCircle
 10
70.354019
 20
225.115814
 40
1.0
100
AcDbArc
 50
0.0
 51
90.0
  0
ARC
  5
1FC
100
AcDbEntity
  8
M0
 62
     4
100
AcDbCircle
 10
64.453873
 20
225.115814
 40
1.0
100
AcDbArc
 50
89.916016
 51
179.999945
  0
ARC
  5
1FD
100
AcDbEntity
  8
M0
 62
     4
100
AcDbCircle
 10
62.953873
 20
210.615829
 40
0.5
100
AcDbArc
 50
270.027977
 51
360.0
  0
ARC
  5
1FE
100
AcDbEntity
  8
M0
 62
     4
100
AcDbCircle
 10
71.854019
 20
210.615845
 40
0.5
100
AcDbArc
 50
179.998251
 51
270.027868
  0
LINE
  5
1FF
100
AcDbEntity
  8
M0
 62
     4
100
AcDbLine
 10
91.854019
 20
212.115845
 11
93.403824
 21
212.115845
  0
LINE
  5
200
100
AcDbEntity
  8
M0
 62
     4
100
AcDbLine
 10
81.854019
 20
210.115845
 11
82.953873
 21
210.115845
  0
LINE
  5
201
100
AcDbEntity
  8
M0
 62
     4
100
AcDbLine
 10
61.854019
 20
210.115829
 11
62.953873
 21
210.115829
  0
LINE
  5
202
100
AcDbEntity
  8
M0
 62
     4
100
AcDbLine
 10
51.854019
 20
210.115829
 11
52.953873
 21
210.115829
  0
ARC
  5
203
100
AcDbEntity
  8
M0
 62
     4
100
AcDbCircle
 10
42.953873
 20
211.615829
 40
0.5
100
AcDbArc
 50
270.027977
 51
360.0
  0
ARC
  5
204
100
AcDbEntity
  8
M0
 62
     4
100
AcDbCircle
 10
52.953873
 20
210.615829
 40
0.5
100
AcDbArc
 50
270.027977
 51
360.0
  0
ARC
  5
205
100
AcDbEntity
  8
M0
 62
     4
100
AcDbCircle
 10
72.953873
 20
210.615845
 40
0.5
100
AcDbArc
 50
270.027868
 51
360.0
  0
ARC
  5
206
100
AcDbEntity
  8
M0
 62
     4
100
AcDbCircle
 10
82.953873
 20
210.61586
 40
0.5
100
AcDbArc
 50
270.027868
 51
360.0
  0
LINE
  5
207
100
AcDbEntity
  8
M0
 62
     4
100
AcDbLine
 10
51.354019
 20
216.615814
 11
43.453873
 21
216.615814
  0
LINE
  5
208
100
AcDbEntity
  8
M0
 62
     4
100
AcDbLine
 10
61.354019
 20
216.615814
 11
53.453873
 21
216.615814
  0
LINE
  5
209
100
AcDbEntity
  8
M0
 62
     4
100
AcDbLine
 10
71.354019
 20
216.615814
 11
63.453873
 21
216.615814
  0
LINE
  5
20A
100
AcDbEntity
  8
M0
 62
     4
100
AcDbLine
 10
81.354019
 20
216.615814
 11
73.453873
 21
216.615814
  0
LINE
  5
20B
100
AcDbEntity
  8
M0
 62
     4
100
AcDbLine
 10
83.453873
 20
216.615814
 11
91.354019
 21
216.615814
  0
LINE
  5
20C
100
AcDbEntity
  8
M0
 62
     4
100
AcDbLine
 10
81.354019
 20
213.115814
 11
73.453873
 21
213.115814
  0
LINE
  5
20D
100
AcDbEntity
  8
M0
 62
     4
100
AcDbLine
 10
71.354019
 20
213.115814
 11
63.453873
 21
213.115814
  0
LINE
  5
20E
100
AcDbEntity
  8
M0
 62
     4
100
AcDbLine
 10
61.354019
 20
213.115814
 11
53.453873
 21
213.115814
  0
LINE
  5
20F
100
AcDbEntity
  8
M0
 62
     4
100
AcDbLine
 10
52.953873
 20
208.615814
 11
41.403824
 21
208.615799
  0
ARC
  5
210
100
AcDbEntity
  8
M0
 62
     4
100
AcDbCircle
 10
52.953873
 20
209.115814
 40
0.5
100
AcDbArc
 50
270.027977
 51
360.0
  0
ARC
  5
211
100
AcDbEntity
  8
M0
 62
     4
100
AcDbCircle
 10
42.953873
 20
209.115814
 40
0.5
100
AcDbArc
 50
270.027977
 51
360.0
  0
LINE
  5
212
100
AcDbEntity
  8
M0
 62
     4
100
AcDbLine
 10
55.741959
 20
213.115814
 11
53.391373
 21
208.873505
  0
LINE
  5
213
100
AcDbEntity
  8
M0
 62
     4
100
AcDbLine
 10
61.354019
 20
225.115814
 11
61.354019
 21
210.61586
  0
ARC
  5
214
100
AcDbEntity
  8
M0
 62
     4
100
AcDbCircle
 10
60.354019
 20
225.115814
 40
1.0
100
AcDbArc
 50
0.0
 51
89.943992
  0
LINE
  5
215
100
AcDbEntity
  8
M0
 62
     4
100
AcDbLine
 10
60.354019
 20
226.115814
 11
54.453873
 21
226.115814
  0
ARC
  5
216
100
AcDbEntity
  8
M0
 62
     4
100
AcDbCircle
 10
54.453873
 20
225.115814
 40
1.0
100
AcDbArc
 50
89.916016
 51
179.999945
  0
LINE
  5
217
100
AcDbEntity
  8
M0
 62
     4
100
AcDbLine
 10
53.453873
 20
225.115814
 11
53.453873
 21
209.115814
  0
ARC
  5
218
100
AcDbEntity
  8
M0
 62
     4
100
AcDbCircle
 10
61.854019
 20
210.615845
 40
0.5
100
AcDbArc
 50
179.998251
 51
270.027977
  0
LINE
  5
219
100
AcDbEntity
  8
M0
 62
     4
100
AcDbLine
 10
81.354019
 20
225.115814
 11
81.354019
 21
210.615875
  0
ARC
  5
21A
100
AcDbEntity
  8
M0
 62
     4
100
AcDbCircle
 10
80.354019
 20
225.115814
 40
1.0
100
AcDbArc
 50
0.0
 51
89.944047
  0
LINE
  5
21B
100
AcDbEntity
  8
M0
 62
     4
100
AcDbLine
 10
80.354019
 20
226.115814
 11
74.453873
 21
226.115814
  0
ARC
  5
21C
100
AcDbEntity
  8
M0
 62
     4
100
AcDbCircle
 10
74.453873
 20
225.115814
 40
1.0
100
AcDbArc
 50
89.888094
 51
179.999945
  0
LINE
  5
21D
100
AcDbEntity
  8
M0
 62
     4
100
AcDbLine
 10
73.453873
 20
225.115814
 11
73.453873
 21
210.615845
  0
ARC
  5
21E
100
AcDbEntity
  8
M0
 62
     4
100
AcDbCircle
 10
81.854019
 20
210.61586
 40
0.5
100
AcDbArc
 50
179.998251
 51
270.027868
  0
LINE
  5
21F
100
AcDbEntity
  8
M0
 62
     4
100
AcDbLine
 10
51.354019
 20
225.115814
 11
51.354019
 21
209.115814
  0
ARC
  5
220
100
AcDbEntity
  8
M0
 62
     4
100
AcDbCircle
 10
50.354019
 20
225.115814
 40
1.0
100
AcDbArc
 50
0.0
 51
89.930059
  0
LINE
  5
221
100
AcDbEntity
  8
M0
 62
     4
100
AcDbLine
 10
50.354019
 20
226.115814
 11
44.453873
 21
226.115814
  0
ARC
  5
222
100
AcDbEntity
  8
M0
 62
     4
100
AcDbCircle
 10
44.453873
 20
225.115814
 40
1.0
100
AcDbArc
 50
89.915196
 51
179.999945
  0
LINE
  5
223
100
AcDbEntity
  8
M0
 62
     4
100
AcDbLine
 10
43.453873
 20
225.115814
 11
43.453873
 21
209.115814
  0
ARC
  5
224
100
AcDbEntity
  8
M0
 62
     4
100
AcDbCircle
 10
51.854019
 20
210.615845
 40
0.5
100
AcDbArc
 50
179.998251
 51
270.027977
  0
ARC
  5
225
100
AcDbEntity
  8
M0
 62
     4
100
AcDbCircle
 10
51.854019
 20
209.115814
 40
0.5
100
AcDbArc
 50
179.998251
 51
270.027977
  0
ARC
  5
226
100
AcDbEntity
  8
M0
 62
     4
100
AcDbCircle
 10
90.354019
 20
225.115814
 40
1.0
100
AcDbArc
 50
0.0
 51
89.972024
  0
LINE
  5
227
100
AcDbEntity
  8
M0
 62
     4
100
AcDbLine
 10
91.354019
 20
225.115814
 11
91.354019
 21
212.615875
  0
LINE
  5
228
100
AcDbEntity
  8
M0
 62
     4
100
AcDbLine
 10
90.354019
 20
226.115814
 11
84.453873
 21
226.115814
  0
ARC
  5
229
100
AcDbEntity
  8
M0
 62
     4
100
AcDbCircle
 10
84.453873
 20
225.115814
 40
1.0
100
AcDbArc
 50
89.930059
 51
179.999945
  0
LINE
  5
22A
100
AcDbEntity
  8
M0
 62
     4
100
AcDbLine
 10
83.453873
 20
225.115814
 11
83.453873
 21
210.61586
  0
ARC
  5
22B
100
AcDbEntity
  8
M0
 62
     4
100
AcDbCircle
 10
91.854019
 20
212.61586
 40
0.5
100
AcDbArc
 50
179.998251
 51
269.998251
  0
ARC
  5
22C
100
AcDbEntity
  8
M0
 62
     4
100
AcDbCircle
 10
41.403824
 20
211.615829
 40
0.5
100
AcDbArc
 50
179.998251
 51
270.027977
  0
ARC
  5
22D
100
AcDbEntity
  8
M0
 62
     4
100
AcDbCircle
 10
93.403824
 20
212.615845
 40
0.5
100
AcDbArc
 50
269.998251
 51
360.0
  0
LINE
  5
22E
100
AcDbEntity
  8
M0
 62
     4
100
AcDbLine
 10
64.903824
 20
237.965805
 11
69.903824
 21
237.965805
  0
LINE
  5
22F
100
AcDbEntity
  8
M0
 62
     4
100
AcDbLine
 10
70.403824
 20
238.46579
 11
70.403824
 21
243.765778
  0
LINE
  5
230
100
AcDbEntity
  8
M0
 62
     4
100
AcDbLine
 10
69.903824
 20
244.265808
 11
64.903824
 21
244.265793
  0
LINE
  5
231
100
AcDbEntity
  8
M0
 62
     4
100
AcDbLine
 10
64.403824
 20
243.765793
 11
64.403824
 21
238.465805
  0
ARC
  5
232
100
AcDbEntity
  8
M0
 62
     4
100
AcDbCircle
 10
69.903824
 20
238.465805
 40
0.5
100
AcDbArc
 50
270.0
 51
360.0
  0
ARC
  5
233
100
AcDbEntity
  8
M0
 62
     4
100
AcDbCircle
 10
69.903824
 20
243.765793
 40
0.5
100
AcDbArc
 50
0.0
 51
90.0
  0
ARC
  5
234
100
AcDbEntity
  8
M0
 62
     4
100
AcDbCircle
 10
64.903824
 20
243.765793
 40
0.5
100
AcDbArc
 50
90.0
 51
180.0
  0
ARC
  5
235
100
AcDbEntity
  8
M0
 62
     4
100
AcDbCircle
 10
64.903824
 20
238.465805
 40
0.5
100
AcDbArc
 50
179.999891
 51
270.0
  0
LINE
  5
236
100
AcDbEntity
  8
M0
 62
     4
100
AcDbLine
 10
178.462555
 20
208.61586
 11
193.66275
 21
208.61586
  0
LINE
  5
237
100
AcDbEntity
  8
M0
 62
     4
100
AcDbLine
 10
193.66275
 20
208.61586
 11
193.66275
 21
273.61586
  0
LINE
  5
238
100
AcDbEntity
  8
M0
 62
     4
100
AcDbLine
 10
193.66275
 20
273.61586
 11
178.462555
 21
273.615845
  0
LINE
  5
239
100
AcDbEntity
  8
M0
 62
     4
100
AcDbLine
 10
143.462799
 20
267.115829
 11
143.462799
 21
215.115891
  0
LINE
  5
23A
100
AcDbEntity
  8
M0
  6
DASHDOT
 62
     4
100
AcDbLine
 10
138.462799
 20
241.11586
 11
193.662735
 21
241.11586
  0
LINE
  5
23B
100
AcDbEntity
  8
M0
 62
     4
100
AcDbLine
 10
148.462799
 20
212.115891
 11
169.462555
 21
212.115891
  0
LINE
  5
23C
100
AcDbEntity
  8
M0
 62
     4
100
AcDbLine
 10
148.462799
 20
210.115891
 11
174.891754
 21
210.115891
  0
LINE
  5
23D
100
AcDbEntity
  8
M0
 62
     4
100
AcDbLine
 10
148.462799
 20
271.11586
 11
193.66275
 21
271.11586
  0
LINE
  5
23E
100
AcDbEntity
  8
M0
 62
     4
100
AcDbLine
 10
148.462799
 20
272.115845
 11
174.891754
 21
272.115845
  0
ARC
  5
23F
100
AcDbEntity
  8
M0
 62
     4
100
AcDbCircle
 10
148.462799
 20
217.115891
 40
5.0
100
AcDbArc
 50
179.999825
 51
270.0
  0
ARC
  5
240
100
AcDbEntity
  8
M0
 62
     4
100
AcDbCircle
 10
148.462799
 20
215.115891
 40
5.0
100
AcDbArc
 50
179.999825
 51
270.0
  0
ARC
  5
241
100
AcDbEntity
  8
M0
 62
     4
100
AcDbCircle
 10
148.462799
 20
266.11586
 40
5.0
100
AcDbArc
 50
89.999825
 51
180.0
  0
ARC
  5
242
100
AcDbEntity
  8
M0
 62
     4
100
AcDbCircle
 10
148.462799
 20
267.115845
 40
5.0
100
AcDbArc
 50
89.999825
 51
180.0
  0
LINE
  5
243
100
AcDbEntity
  8
M0
 62
     4
100
AcDbLine
 10
174.462555
 20
221.11586
 11
193.66275
 21
221.11586
  0
LINE
  5
244
100
AcDbEntity
  8
M0
 62
     4
100
AcDbLine
 10
174.462555
 20
216.11586
 11
193.66275
 21
216.11586
  0
LINE
  5
245
100
AcDbEntity
  8
M0
 62
     4
100
AcDbLine
 10
173.462555
 20
212.115891
 11
173.462555
 21
220.11586
  0
LINE
  5
246
100
AcDbEntity
  8
M0
 62
     4
100
AcDbLine
 10
171.462555
 20
214.115891
 11
171.462555
 21
218.11586
  0
ARC
  5
247
100
AcDbEntity
  8
M0
 62
     4
100
AcDbCircle
 10
174.462555
 20
215.11586
 40
1.0
100
AcDbArc
 50
90.0
 51
179.999126
  0
ARC
  5
248
100
AcDbEntity
  8
M0
 62
     4
100
AcDbCircle
 10
174.462555
 20
220.11586
 40
1.0
100
AcDbArc
 50
90.0
 51
179.999126
  0
ARC
  5
249
100
AcDbEntity
  8
M0
 62
     4
100
AcDbCircle
 10
174.462555
 20
218.11586
 40
3.0
100
AcDbArc
 50
90.0
 51
179.999709
  0
ARC
  5
24A
100
AcDbEntity
  8
M0
 62
     4
100
AcDbCircle
 10
171.462555
 20
212.115891
 40
2.0
100
AcDbArc
 50
270.0
 51
360.0
  0
ARC
  5
24B
100
AcDbEntity
  8
M0
 62
     4
100
AcDbCircle
 10
169.462555
 20
214.115891
 40
2.0
100
AcDbArc
 50
270.0
 51
360.0
  0
ARC
  5
24C
100
AcDbEntity
  8
M0
 62
     4
100
AcDbCircle
 10
178.462555
 20
213.61586
 40
5.0
100
AcDbArc
 50
179.999825
 51
270.0
  0
LINE
  5
24D
100
AcDbEntity
  8
M0
 62
     4
100
AcDbLine
 10
186.962555
 20
216.11586
 11
186.962555
 21
208.61586
  0
LINE
  5
24E
100
AcDbEntity
  8
M0
 62
     4
100
AcDbLine
 10
182.962555
 20
216.11586
 11
182.962555
 21
208.61586
  0
LINE
  5
24F
100
AcDbEntity
  8
M0
 62
     4
100
AcDbLine
 10
180.962555
 20
216.115845
 11
180.962555
 21
208.615845
  0
ARC
  5
250
100
AcDbEntity
  8
M0
 62
     4
100
AcDbCircle
 10
178.462555
 20
268.615845
 40
5.0
100
AcDbArc
 50
90.0
 51
135.573713
  0
LINE
  5
251
100
AcDbEntity
  8
M0
 62
     7
100
AcDbLine
 10
56.403824
 20
269.115814
 11
56.40358
 21
272.615799
  0
LINE
  5
252
100
AcDbEntity
  8
M0
 62
     7
100
AcDbLine
 10
56.40358
 20
272.615799
 11
55.403824
 21
273.615799
  0
LINE
  5
253
100
AcDbEntity
  8
M0
 62
     7
100
AcDbLine
 10
56.403824
 20
213.115906
 11
56.403824
 21
210.615814
  0
LINE
  5
254
100
AcDbEntity
  8
M0
 62
     7
100
AcDbLine
 10
57.903824
 20
213.115906
 11
57.903824
 21
212.615814
  0
LINE
  5
255
100
AcDbEntity
  8
M0
 62
     7
100
AcDbLine
 10
59.403824
 20
213.115799
 11
59.403824
 21
212.615814
  0
LINE
  5
256
100
AcDbEntity
  8
M0
 62
     7
100
AcDbLine
 10
60.403824
 20
213.115799
 11
60.403824
 21
210.615814
  0
LINE
  5
257
100
AcDbEntity
  8
M0
 62
     7
100
AcDbLine
 10
80.403824
 20
208.615814
 11
88.903824
 21
208.615814
  0
LINE
  5
258
100
AcDbEntity
  8
M0
 62
     7
100
AcDbLine
 10
88.903824
 20
208.615814
 11
88.903824
 21
216.615814
  0
LINE
  5
259
100
AcDbEntity
  8
M0
 62
     7
100
AcDbLine
 10
55.403824
 20
273.615799
 11
47.903824
 21
273.615784
  0
LINE
  5
25A
100
AcDbEntity
  8
M0
 62
     7
100
AcDbLine
 10
45.903824
 20
271.615784
 11
45.903824
 21
265.615799
  0
ARC
  5
25B
100
AcDbEntity
  8
M0
 62
     7
100
AcDbCircle
 10
47.903824
 20
271.615784
 40
2.0
100
AcDbArc
 50
89.999563
 51
180.0
  0
LINE
  5
25C
100
AcDbEntity
  8
M0
 62
     7
100
AcDbLine
 10
74.403824
 20
212.615814
 11
74.403824
 21
213.115799
  0
LINE
  5
25D
100
AcDbEntity
  8
M0
 62
     7
100
AcDbLine
 10
75.903824
 20
210.615814
 11
75.903824
 21
213.115799
  0
LINE
  5
25E
100
AcDbEntity
  8
M0
 62
     7
100
AcDbLine
 10
56.403824
 20
210.615814
 11
60.403824
 21
210.615814
  0
LINE
  5
25F
100
AcDbEntity
  8
M0
 62
     7
100
AcDbLine
 10
79.403824
 20
209.615799
 11
79.403824
 21
213.115799
  0
LINE
  5
260
100
AcDbEntity
  8
M0
 62
     7
100
AcDbLine
 10
79.403824
 20
209.615799
 11
80.403824
 21
208.615814
  0
LINE
  5
261
100
AcDbEntity
  8
M0
 62
     7
100
AcDbLine
 10
77.903824
 20
212.615814
 11
77.903824
 21
213.115799
  0
LINE
  5
262
100
AcDbEntity
  8
M0
 62
     7
100
AcDbLine
 10
76.403824
 20
210.615814
 11
76.403824
 21
213.115799
  0
LINE
  5
263
100
AcDbEntity
  8
M0
 62
     7
100
AcDbLine
 10
55.403824
 20
210.615814
 11
55.403824
 21
212.505539
  0
LINE
  5
264
100
AcDbEntity
  8
M0
 62
     7
100
AcDbLine
 10
73.453873
 20
210.615814
 11
75.903824
 21
210.615814
  0
LINE
  5
265
100
AcDbEntity
  8
M0
 62
     7
100
AcDbLine
 10
73.453873
 20
212.615814
 11
74.403824
 21
212.615814
  0
LINE
  5
266
100
AcDbEntity
  8
M0
 62
     7
100
AcDbLine
 10
77.903824
 20
212.615814
 11
79.403824
 21
212.615814
  0
LINE
  5
267
100
AcDbEntity
  8
M0
 62
     7
100
AcDbLine
 10
76.403824
 20
210.615814
 11
79.403824
 21
210.615814
  0
LINE
  5
268
100
AcDbEntity
  8
M0
 62
     7
100
AcDbLine
 10
54.35675
 20
210.615814
 11
55.403824
 21
210.615814
  0
LINE
  5
269
100
AcDbEntity
  8
M0
 62
     7
100
AcDbLine
 10
57.903824
 20
212.615814
 11
59.403824
 21
212.615814
  0
LINE
  5
26A
100
AcDbEntity
  8
M0
 62
     7
100
AcDbLine
 10
49.002823
 20
265.615799
 11
49.003052
 21
270.320236
  0
ARC
  5
26B
100
AcDbEntity
  8
M0
 62
     7
100
AcDbCircle
 10
50.452774
 20
265.115738
 40
2.25
100
AcDbArc
 50
130.127109
 51
147.597441
  0
ARC
  5
26C
100
AcDbEntity
  8
M0
 62
     7
100
AcDbCircle
 10
50.903442
 20
269.115677
 40
2.25
100
AcDbArc
 50
78.453989
 51
147.643365
  0
LINE
  5
26D
100
AcDbEntity
  8
M0
 62
     7
100
AcDbLine
 10
48.553101
 20
266.321442
 11
48.553101
 21
265.615799
  0
ARC
  5
26E
100
AcDbEntity
  8
M0
 62
     7
100
AcDbCircle
 10
85.453629
 20
215.115707
 40
2.25
100
AcDbArc
 50
278.630328
 51
282.616176
  0
LINE
  5
26F
100
AcDbEntity
  8
M0
 62
     7
100
AcDbLine
 10
87.649429
 20
214.624405
 11
85.945084
 21
212.919998
  0
ARC
  5
270
100
AcDbEntity
  8
M0
 62
     7
100
AcDbCircle
 10
85.453629
 20
215.115707
 40
2.25
100
AcDbArc
 50
347.38825
 51
401.8145
  0
LINE
  5
271
100
AcDbEntity
  8
M0
 62
     7
100
AcDbLine
 10
83.453873
 20
212.215698
 11
85.108902
 21
212.215698
  0
ARC
  5
272
100
AcDbEntity
  8
M0
 62
     7
100
AcDbCircle
 10
83.903824
 20
214.115707
 40
2.25
100
AcDbArc
 50
302.384559
 51
327.025424
  0
CIRCLE
  5
273
100
AcDbEntity
  8
M0
 62
     6
100
AcDbCircle
 10
47.403824
 20
261.115723
 40
3.0
  0
LINE
  5
274
100
AcDbEntity
  8
M0
 62
     6
100
AcDbLine
 10
44.445068
 20
265.063065
 11
43.628815
 21
262.415771
  0
LINE
  5
275
100
AcDbEntity
  8
M0
 62
     6
100
AcDbLine
 10
44.445068
 20
257.168472
 11
43.628815
 21
259.815796
  0
LINE
  5
276
100
AcDbEntity
  8
M0
 62
     6
100
AcDbLine
 10
50.362549
 20
265.06308
 11
51.178818
 21
262.415771
  0
LINE
  5
277
100
AcDbEntity
  8
M0
 62
     6
100
AcDbLine
 10
50.362549
 20
257.168457
 11
51.178818
 21
259.815796
  0
LINE
  5
278
100
AcDbEntity
  8
M0
 62
     6
100
AcDbLine
 10
44.922867
 20
256.815796
 11
49.884735
 21
256.815796
  0
LINE
  5
279
100
AcDbEntity
  8
M0
 62
     6
100
AcDbLine
 10
51.178818
 20
259.815796
 11
51.178818
 21
262.415771
  0
LINE
  5
27A
100
AcDbEntity
  8
M0
 62
     6
100
AcDbLine
 10
49.884735
 20
265.415771
 11
44.922867
 21
265.415756
  0
LINE
  5
27B
100
AcDbEntity
  8
M0
 62
     6
100
AcDbLine
 10
43.628815
 20
262.415771
 11
43.628815
 21
259.815796
  0
LINE
  5
27C
100
AcDbEntity
  8
M0
  6
DASHDOT
 62
     6
100
AcDbLine
 10
41.128815
 20
261.115723
 11
53.678818
 21
261.115723
  0
LINE
  5
27D
100
AcDbEntity
  8
M0
  6
DASHDOT
 62
     6
100
AcDbLine
 10
47.403824
 20
254.315811
 11
47.403824
 21
267.915771
  0
LINE
  5
27E
100
AcDbEntity
  8
M0
 62
     6
100
AcDbLine
 10
48.994598
 20
259.524902
 11
45.81279
 21
262.706665
  0
LINE
  5
27F
100
AcDbEntity
  8
M0
 62
     6
100
AcDbLine
 10
47.757233
 20
262.529907
 11
45.989563
 21
260.762207
  0
LINE
  5
280
100
AcDbEntity
  8
M0
 62
     6
100
AcDbLine
 10
48.817841
 20
261.469238
 11
47.050217
 21
259.70166
  0
ARC
  5
281
100
AcDbEntity
  8
M0
 62
     6
100
AcDbCircle
 10
44.922867
 20
264.915756
 40
0.5
100
AcDbArc
 50
90.0
 51
162.865663
  0
ARC
  5
282
100
AcDbEntity
  8
M0
 62
     6
100
AcDbCircle
 10
44.922867
 20
257.315796
 40
0.5
100
AcDbArc
 50
197.137551
 51
270.0
  0
ARC
  5
283
100
AcDbEntity
  8
M0
 62
     6
100
AcDbCircle
 10
49.884735
 20
257.315796
 40
0.5
100
AcDbArc
 50
270.0
 51
342.861653
  0
ARC
  5
284
100
AcDbEntity
  8
M0
 62
     6
100
AcDbCircle
 10
49.884735
 20
264.915756
 40
0.5
100
AcDbArc
 50
17.134787
 51
90.0
  0
CIRCLE
  5
285
100
AcDbEntity
  8
M0
 62
     6
100
AcDbCircle
 10
87.403824
 20
221.115891
 40
3.0
  0
LINE
  5
286
100
AcDbEntity
  8
M0
 62
     6
100
AcDbLine
 10
84.445068
 20
225.063232
 11
83.628815
 21
222.415939
  0
LINE
  5
287
100
AcDbEntity
  8
M0
 62
     6
100
AcDbLine
 10
84.445068
 20
217.16864
 11
83.628815
 21
219.815964
  0
LINE
  5
288
100
AcDbEntity
  8
M0
 62
     6
100
AcDbLine
 10
90.362549
 20
225.063248
 11
91.178818
 21
222.415939
  0
LINE
  5
289
100
AcDbEntity
  8
M0
 62
     6
100
AcDbLine
 10
90.362549
 20
217.168625
 11
91.178818
 21
219.815964
  0
LINE
  5
28A
100
AcDbEntity
  8
M0
 62
     6
100
AcDbLine
 10
84.922867
 20
216.815964
 11
89.884735
 21
216.815964
  0
LINE
  5
28B
100
AcDbEntity
  8
M0
 62
     6
100
AcDbLine
 10
91.178818
 20
219.815964
 11
91.178818
 21
222.415939
  0
LINE
  5
28C
100
AcDbEntity
  8
M0
 62
     6
100
AcDbLine
 10
89.884735
 20
225.415939
 11
84.922867
 21
225.415924
  0
LINE
  5
28D
100
AcDbEntity
  8
M0
 62
     6
100
AcDbLine
 10
83.628815
 20
222.415939
 11
83.628815
 21
219.815964
  0
LINE
  5
28E
100
AcDbEntity
  8
M0
  6
DASHDOT
 62
     6
100
AcDbLine
 10
81.128815
 20
221.115891
 11
93.678818
 21
221.115891
  0
LINE
  5
28F
100
AcDbEntity
  8
M0
  6
DASHDOT
 62
     6
100
AcDbLine
 10
87.403824
 20
214.315979
 11
87.403824
 21
227.915939
  0
LINE
  5
290
100
AcDbEntity
  8
M0
 62
     6
100
AcDbLine
 10
88.994598
 20
219.52507
 11
85.81279
 21
222.706833
  0
LINE
  5
291
100
AcDbEntity
  8
M0
 62
     6
100
AcDbLine
 10
87.757233
 20
222.530075
 11
85.989563
 21
220.762375
  0
LINE
  5
292
100
AcDbEntity
  8
M0
 62
     6
100
AcDbLine
 10
88.817841
 20
221.469406
 11
87.050217
 21
219.701828
  0
ARC
  5
293
100
AcDbEntity
  8
M0
 62
     6
100
AcDbCircle
 10
84.922867
 20
224.915924
 40
0.5
100
AcDbArc
 50
90.0
 51
162.865663
  0
ARC
  5
294
100
AcDbEntity
  8
M0
 62
     6
100
AcDbCircle
 10
84.922867
 20
217.315964
 40
0.5
100
AcDbArc
 50
197.137551
 51
270.0
  0
ARC
  5
295
100
AcDbEntity
  8
M0
 62
     6
100
AcDbCircle
 10
89.884735
 20
217.315964
 40
0.5
100
AcDbArc
 50
270.0
 51
342.861653
  0
ARC
  5
296
100
AcDbEntity
  8
M0
 62
     6
100
AcDbCircle
 10
89.884735
 20
224.915924
 40
0.5
100
AcDbArc
 50
17.134787
 51
90.0
  0
LINE
  5
297
100
AcDbEntity
  8
M0
 62
     2
100
AcDbLine
 10
65.403824
 20
238.615814
 11
69.403824
 21
238.615814
  0
LINE
  5
298
100
AcDbEntity
  8
M0
 62
     2
100
AcDbLine
 10
69.903824
 20
239.115799
 11
69.903824
 21
243.115784
  0
LINE
  5
299
100
AcDbEntity
  8
M0
 62
     2
100
AcDbLine
 10
69.403824
 20
243.615814
 11
65.403824
 21
243.615799
  0
LINE
  5
29A
100
AcDbEntity
  8
M0
 62
     2
100
AcDbLine
 10
64.903824
 20
243.115799
 11
64.903824
 21
239.115814
  0
ARC
  5
29B
100
AcDbEntity
  8
M0
 62
     2
100
AcDbCircle
 10
65.403824
 20
239.115814
 40
0.5
100
AcDbArc
 50
179.999891
 51
270.0
  0
ARC
  5
29C
100
AcDbEntity
  8
M0
 62
     2
100
AcDbCircle
 10
69.403824
 20
239.115814
 40
0.5
100
AcDbArc
 50
270.0
 51
360.0
  0
ARC
  5
29D
100
AcDbEntity
  8
M0
 62
     2
100
AcDbCircle
 10
69.403824
 20
243.115799
 40
0.5
100
AcDbArc
 50
0.0
 51
90.0
  0
ARC
  5
29E
100
AcDbEntity
  8
M0
 62
     2
100
AcDbCircle
 10
65.403824
 20
243.115799
 40
0.5
100
AcDbArc
 50
90.0
 51
180.0
  0
LINE
  5
29F
100
AcDbEntity
  8
M1
  6
DIVIDE
 62
     6
100
AcDbLine
 10
40.903823
 20
105.860939
 11
93.903827
 21
105.860939
  0
LINE
  5
2A0
100
AcDbEntity
  8
M1
  6
DIVIDE
 62
     6
100
AcDbLine
 10
93.903827
 20
105.860939
 11
93.903827
 21
170.860944
  0
LINE
  5
2A1
100
AcDbEntity
  8
M1
  6
DIVIDE
 62
     6
100
AcDbLine
 10
93.903827
 20
170.860944
 11
40.903823
 21
170.860944
  0
LINE
  5
2A2
100
AcDbEntity
  8
M1
  6
DIVIDE
 62
     6
100
AcDbLine
 10
40.903823
 20
170.860944
 11
40.903823
 21
105.860939
  0
CIRCLE
  5
2A3
100
AcDbEntity
  8
M1
 62
     6
100
AcDbCircle
 10
50.403823
 20
165.860928
 40
2.5
  0
CIRCLE
  5
2A4
100
AcDbEntity
  8
M1
 62
     6
100
AcDbCircle
 10
83.403826
 20
110.86094
 40
2.5
  0
CIRCLE
  5
2A5
100
AcDbEntity
  8
M1
 62
     6
100
AcDbCircle
 10
83.403826
 20
110.86094
 40
1.249997
  0
CIRCLE
  5
2A6
100
AcDbEntity
  8
M1
 62
     6
100
AcDbCircle
 10
50.403823
 20
165.860928
 40
1.249997
  0
LINE
  5
2A7
100
AcDbEntity
  8
M1
  6
DASHDOT
 62
     6
100
AcDbLine
 10
88.001223
 20
110.86094
 11
78.806413
 21
110.86094
  0
LINE
  5
2A8
100
AcDbEntity
  8
M1
  6
DASHDOT
 62
     6
100
AcDbLine
 10
83.403811
 20
115.458337
 11
83.403826
 21
106.263527
  0
LINE
  5
2A9
100
AcDbEntity
  8
M1
  6
DASHDOT
 62
     6
100
AcDbLine
 10
54.501221
 20
165.860928
 11
46.306411
 21
165.860928
  0
LINE
  5
2AA
100
AcDbEntity
  8
M1
  6
DASHDOT
 62
     6
100
AcDbLine
 10
50.403808
 20
169.958326
 11
50.403823
 21
161.763516
  0
LINE
  5
2AB
100
AcDbEntity
  8
M1
  6
DASHDOT
 62
     6
100
AcDbLine
 10
67.403825
 20
101.867439
 11
67.403825
 21
174.854444
  0
LINE
  5
2AC
100
AcDbEntity
  8
M1
  6
DASHDOT
 62
     6
100
AcDbLine
 10
37.910323
 20
138.360942
 11
96.897327
 21
138.360942
  0
LINE
  5
2AD
100
AcDbEntity
  8
M20
 62
     2
100
AcDbLine
 10
12.500001
 20
12.500001
 11
12.500001
 21
356.250021
  0
LINE
  5
2AE
100
AcDbEntity
  8
M20
 62
     2
100
AcDbLine
 10
12.500001
 20
356.250021
 11
250.000015
 21
356.250021
  0
LINE
  5
2AF
100
AcDbEntity
  8
M20
 62
     2
100
AcDbLine
 10
250.000015
 20
356.250021
 11
250.000015
 21
12.500001
  0
LINE
  5
2B0
100
AcDbEntity
  8
M20
 62
     2
100
AcDbLine
 10
250.000015
 20
12.500001
 11
12.500001
 21
12.500001
  0
LINE
  5
2B1
100
AcDbEntity
  8
M20
 62
     2
100
AcDbLine
 10
250.000015
 20
25.000001
 11
125.000007
 21
25.000001
  0
LINE
  5
2B2
100
AcDbEntity
  8
M20
 62
     2
100
AcDbLine
 10
250.000015
 20
37.500002
 11
125.000007
 21
37.500002
  0
LINE
  5
2B3
100
AcDbEntity
  8
M20
 62
     2
100
AcDbLine
 10
250.000015
 20
50.000003
 11
125.000007
 21
50.000003
  0
LINE
  5
2B4
100
AcDbEntity
  8
M20
 62
     2
100
AcDbLine
 10
125.000007
 20
12.500001
 11
125.000007
 21
50.000003
  0
TEXT
  5
2B5
100
AcDbEntity
  8
M20
 62
     2
100
AcDbText
 10
128.125008
 20
15.625001
 40
6.25
  1
適　用；
 41
1.0
  7
STANDARD
100
AcDbText
  0
TEXT
  5
2B6
100
AcDbEntity
  8
M20
 62
     2
100
AcDbText
 10
128.125008
 20
28.125002
 40
6.25
  1
形　式；
 41
1.0
  7
STANDARD
100
AcDbText
  0
TEXT
  5
2B7
100
AcDbEntity
  8
M20
 62
     2
100
AcDbText
 10
158.125009
 20
28.125002
 40
6.25
  1
Ｈ１１
 41
0.5
  7
STANDARD
100
AcDbText
  0
TEXT
  5
2B8
100
AcDbEntity
  8
M20
 62
     2
100
AcDbText
 10
128.125008
 20
40.625002
 40
6.25
  1
登録名：
 41
1.0
  7
STANDARD
100
AcDbText
  0
TEXT
  5
2B9
100
AcDbEntity
  8
M20
 62
     2
100
AcDbText
 10
158.125009
 20
40.625002
 40
6.25
  1
ＤＭＨ１１Ｒ００
 41
0.5
  7
STANDARD
100
AcDbText
  0
LINE
  5
2BA
100
AcDbEntity
  8
DN0
100
AcDbLine
 10
56.582326
 20
79.764462
 11
79.407329
 21
79.764462
  0
TEXT
  5
2BB
100
AcDbEntity
  8
DN0
100
AcDbText
 10
57.213576
 20
80.326962
 40
5.625
  1
せん孔図
 41
0.833333
  7
STANDARD
100
AcDbText
  0
ENDSEC
  0
SECTION
  2
OBJECTS
  0
DICTIONARY
  5
C
100
AcDbDictionary
  3
ACAD_GROUP
350
D
  3
ACAD_MLINESTYLE
350
E
  0
DICTIONARY
  5
D
102
{ACAD_REACTORS
330
C
102
}
100
AcDbDictionary
  0
DICTIONARY
  5
E
102
{ACAD_REACTORS
330
C
102
}
100
AcDbDictionary
  3
STANDARD
350
13
  0
MLINESTYLE
  5
13
102
{ACAD_REACTORS
330
E
102
}
100
AcDbMlineStyle
  2
STANDARD
 70
     0
  3

 62
     0
 51
90.0
 52
90.0
 71
     2
 49
0.5
 62
   256
  6
BYLAYER
 49
-0.5
 62
   256
  6
BYLAYER
  0
ENDSEC
  0
EOF
