  0
SECTION
  2
HEADER
  9
$ACADVER
  1
AC1014
  9
$INSBASE
 10
0.000000
 20
0.000000
 30
0.0
  9
$VIEWCTR
 10
7.531722
 20
4.5
  9
$VIEWSIZE
 40
9.0
  9
$SNAPMODE
 70
     0
  9
$SNAPUNIT
 10
1.0
 20
1.0
  9
$SNAPBASE
 10
0.0
 20
0.0
  9
$SNAPANG
 50
0.0
  9
$SNAPSTYLE
 70
     0
  9
$SNAPISOPAIR
 70
     0
  9
$GRIDMODE
 70
     0
  9
$GRIDUNIT
 10
0.0
 20
0.0
  9
$ORTHOMODE
 70
     0
  9
$REGENMODE
 70
     1
  9
$FILLMODE
 70
     1
  9
$QTEXTMODE
 70
     0
  9
$DRAGMODE
 70
     2
  9
$LTSCALE
  40
     1.000000
  9
$OSMODE
 70
     0
  9
$ATTMODE
 70
     1
  9
$TEXTSIZE
 40
0.2
  9
$TRACEWID
 40
0.05
  9
$TEXTSTYLE
  7
STANDARD
  9
$CELTYPE
  6
BYLAYER
  9
$CECOLOR
 62
   256
  9
$DIMSCALE
 40
1.0
  9
$DIMASZ
 40
0.18
  9
$DIMEXO
 40
0.0625
  9
$DIMDLI
 40
0.38
  9
$DIMRND
 40
0.0
  9
$DIMDLE
 40
0.0
  9
$DIMEXE
 40
0.18
  9
$DIMTP
 40
0.0
  9
$DIMTM
 40
0.0
  9
$DIMTXT
 40
0.18
  9
$DIMCEN
 40
0.09
  9
$DIMTSZ
 40
0.0
  9
$DIMTOL
 70
     0
  9
$DIMLIM
 70
     0
  9
$DIMTIH
 70
     1
  9
$DIMTOH
 70
     1
  9
$DIMSE1
 70
     0
  9
$DIMSE2
 70
     0
  9
$DIMTAD
 70
     0
  9
$DIMZIN
 70
     0
  9
$DIMBLK
  1

  9
$LUNITS
 70
     2
  9
$LUPREC
 70
     4
  9
$AXISMODE
 70
     0
  9
$AXISUNIT
 10
0.0
 20
0.0
  9
$SKETCHINC
 40
0.1
  9
$FILLETRAD
 40
0.0
  9
$AUNITS
 70
     0
  9
$AUPREC
 70
     0
  9
$MENU
  1
ACAD
  9
$ELEVATION
 40
0.0
  9
$THICKNESS
 40
0.0
  9
$VIEWDIR
 10
0.0
 20
0.0
 30
1.0
  9
$LIMCHECK
 70
     0
  9
$BLIPMODE
 70
     1
  9
$CHAMFERA
 40
0.0
  9
$CHAMFERB
 40
0.0
  9
$FASTZOOM
 70
     1
  9
$SKPOLY
 70
     0
  9
$TDCREATE
 40
0000000.0000000000
  9
$TDUPDATE
 40
0000000.0000000000
  9
$TDINDWG
 40
0.0000000000
  9
$TDUSRTIMER
 40
0.0000000000
  9
$USRTIMER
 70
     1
  9
$ANGBASE
 50
0.0
  9
$ANGDIR
 70
     0
  9
$PDMODE
 70
     0
  9
$PDSIZE
 40
0.0
  9
$PLINEWID
 40
0.0
  9
$COORDS
 70
     0
  9
$USERI1
 70
     0
  9
$USERI2
 70
     0
  9
$USERI3
 70
     0
  9
$USERI4
 70
     0
  9
$USERI5
 70
     0
  9
$USERR1
 40
0.0
  9
$USERR2
 40
0.0
  9
$USERR3
 40
0.0
  9
$USERR4
 40
0.0
  9
$USERR5
 40
0.0
  9
$CLAYER
  8
M0
  9
$EXTMIN
 10
20.0
 20
20.0
  9
$EXTMAX
 10
400.0
 20
570.0
  9
$LIMMIN
 10
0.0
 20
0.0
  9
$LIMMAX
 10
210.0
 20
297.0
  9
$HANDSEED
  5
48F
  0
ENDSEC
  0
SECTION
  2
CLASSES
  0
ENDSEC
  0
SECTION
  2
TABLES
  0
TABLE
  2
VPORT
  5
8
100
AcDbSymbolTable
 70
     2
  0
VPORT
  5
14
100
AcDbSymbolTableRecord
100
AcDbViewportTableRecord
  2
*ACTIVE
 70
     0
 10
0.0
 20
0.0
 11
1.0
 21
1.0
 12
484.0
 22
297.0
 13
0.0
 23
0.0
 14
1.0
 24
1.0
 15
0.0
 25
0.0
 16
0.0
 26
0.0
 36
1.0
 17
0.0
 27
0.0
 37
0.0
 40
594.0
 41
2.0
 42
50.0
 43
0.0
 44
0.0
 50
0.0
 51
0.0
 71
     0
 72
   100
 73
     1
 74
     1
 75
     0
 76
     0
 77
     0
 78
     0
  0
ENDTAB
  0
TABLE
  2
LTYPE
  5
5
100
AcDbSymbolTable
 70
     5
  0
LTYPE
  5
15
100
AcDbSymbolTableRecord
100
AcDbLinetypeTableRecord
  2
BYBLOCK
 70
     0
  3

 72
    65
 73
     0
 40
0.0
  0
LTYPE
  5
16
100
AcDbSymbolTableRecord
100
AcDbLinetypeTableRecord
  2
BYLAYER
 70
     0
  3

 72
    65
 73
     0
 40
0.0
  0
LTYPE
  5
17
100
AcDbSymbolTableRecord
100
AcDbLinetypeTableRecord
  2
CONTINUOUS
 70
    64
  3
Solid line
 72
    65
 73
     0
 40
0.0
  0
LTYPE
  5
18
100
AcDbSymbolTableRecord
100
AcDbLinetypeTableRecord
  2
DASHED
 70
    64
  3
__ __ __ __ __ __ __ __ __ __ __ __ __ __ __ __
 72
    65
 73
     2
 40
0.75
 49
0.5
 74
     0
 49
-0.25
 74
     0
  0
LTYPE
  5
19
100
AcDbSymbolTableRecord
100
AcDbLinetypeTableRecord
  2
DASHDOT
 70
    64
  3
__ . __ . __ . __ . __ . __ . __ . __ . __ . __
 72
    65
 73
     4
 40
1.0
 49
0.5
 74
     0
 49
-0.25
 74
     0
 49
0.0
 74
     0
 49
-0.25
 74
     0
  0
LTYPE
  5
1A
100
AcDbSymbolTableRecord
100
AcDbLinetypeTableRecord
  2
DIVIDE
 70
    64
  3
____ . . ____ . . ____ . . ____ . . ____ . . __
 72
    65
 73
     6
 40
1.25
 49
0.5
 74
     0
 49
-0.25
 74
     0
 49
0.0
 74
     0
 49
-0.25
 74
     0
 49
0.0
 74
     0
 49
-0.25
 74
     0
  0
LTYPE
  5
1B
100
AcDbSymbolTableRecord
100
AcDbLinetypeTableRecord
  2
DOT
 70
    64
  3
. . . . . . . . . . . . . . . . . . . . . . . .
 72
    65
 73
     2
 40
0.25
 49
0.0
 74
     0
 49
-0.25
 74
     0
  0
ENDTAB
  0
TABLE
  2
LAYER
  5
2
100
AcDbSymbolTable
 70
   102
  0
LAYER
  5
F
100
AcDbSymbolTableRecord
100
AcDbLayerTableRecord
  2
0
 70
     0
 62
     7
  6
CONTINUOUS
  0
LAYER
  5
1C
100
AcDbSymbolTableRecord
100
AcDbLayerTableRecord
  2
DEFPOINTS
 70
     0
 62
     7
  6
CONTINUOUS
  0
LAYER
  5
1D
100
AcDbSymbolTableRecord
100
AcDbLayerTableRecord
  2
M0
 70
     0
 62
     3
  6
CONTINUOUS
  0
LAYER
  5
1E
100
AcDbSymbolTableRecord
100
AcDbLayerTableRecord
  2
M1
 70
     0
 62
     3
  6
CONTINUOUS
  0
LAYER
  5
1F
100
AcDbSymbolTableRecord
100
AcDbLayerTableRecord
  2
DD0
 70
     0
 62
     4
  6
CONTINUOUS
  0
LAYER
  5
20
100
AcDbSymbolTableRecord
100
AcDbLayerTableRecord
  2
DN0
 70
     0
 62
     2
  6
CONTINUOUS
  0
ENDTAB
  0
TABLE
  2
STYLE
  5
3
100
AcDbSymbolTable
 70
     2
  0
STYLE
  5
10
100
AcDbSymbolTableRecord
100
AcDbTextStyleTableRecord
  2
STANDARD
 70
     0
 40
0.0
 41
1.0
 50
0.0
 71
     0
 42
0.2
  3
txt
  4
BIGFONT
  0
ENDTAB
  0
TABLE
  2
VIEW
  5
6
100
AcDbSymbolTable
 70
     0
  0
ENDTAB
  0
TABLE
  2
UCS
  5
7
100
AcDbSymbolTable
 70
     0
  0
ENDTAB
  0
TABLE
  2
APPID
  5
9
100
AcDbSymbolTable
 70
     1
  0
APPID
  5
11
100
AcDbSymbolTableRecord
100
AcDbRegAppTableRecord
  2
ACAD
 70
     0
  0
ENDTAB
  0
TABLE
  2
DIMSTYLE
  5
A
100
AcDbSymbolTable
 70
     2
  0
DIMSTYLE
105
27
100
AcDbSymbolTableRecord
100
AcDbDimStyleTableRecord
  2
STANDARD
 70
     0
  3

  4

  5

  6
_OPEN
  7
_OPEN
 40
1.0
 41
6.0
 42
1.0
 43
8.0
 44
1.0
 45
0.0
 46
0.0
 47
0.0
 48
0.0
140
6.3
141
0.09
142
0.0
143
0.03937
144
1.0
145
0.0
146
1.0
147
0.6
 71
     0
 72
     0
 73
     1
 74
     1
 75
     0
 76
     0
 77
     3
 78
     8
170
     0
171
     2
172
     0
173
     1
174
     0
175
     0
176
     0
177
     0
178
     0
270
     2
271
     2
272
     4
273
     2
274
     2
340
10
275
     0
280
     0
281
     0
282
     0
283
     1
284
     0
285
     0
286
     0
287
     3
288
     0
  0
DIMSTYLE
105
28
100
AcDbSymbolTableRecord
100
AcDbDimStyleTableRecord
  2
LEADSTYL
 70
     0
  3

  4

  5

  6
_OPEN
  7
_OPEN
 40
1.0
 41
6.0
 42
0.0625
 43
0.38
 44
0.18
 45
0.0
 46
0.0
 47
0.0
 48
0.0
140
6.3
141
0.09
142
0.0
143
25.4
144
1.0
145
0.0
146
1.0
147
0.6
 71
     0
 72
     0
 73
     1
 74
     1
 75
     0
 76
     0
 77
     0
 78
     0
170
     0
171
     2
172
     0
173
     1
174
     0
175
     0
176
     0
177
     0
178
     0
270
     2
271
     4
272
     4
273
     2
274
     2
340
10
275
     0
280
     0
281
     0
282
     0
283
     1
284
     0
285
     0
286
     0
287
     3
288
     0
  0
ENDTAB
  0
TABLE
  2
BLOCK_RECORD
  5
1
100
AcDbSymbolTable
 70
    16
  0
BLOCK_RECORD
  5
21
100
AcDbSymbolTableRecord
100
AcDbBlockTableRecord
  2
*MODEL_SPACE
  0
BLOCK_RECORD
  5
24
100
AcDbSymbolTableRecord
100
AcDbBlockTableRecord
  2
*PAPER_SPACE
  0
BLOCK_RECORD
  5
29
100
AcDbSymbolTableRecord
100
AcDbBlockTableRecord
  2
_NONE
  0
BLOCK_RECORD
  5
2D
100
AcDbSymbolTableRecord
100
AcDbBlockTableRecord
  2
_OPEN
  0
BLOCK_RECORD
  5
33
100
AcDbSymbolTableRecord
100
AcDbBlockTableRecord
  2
_CLOSED
  0
BLOCK_RECORD
  5
3A
100
AcDbSymbolTableRecord
100
AcDbBlockTableRecord
  2
_ORIGIN
  0
BLOCK_RECORD
  5
3F
100
AcDbSymbolTableRecord
100
AcDbBlockTableRecord
  2
_DOT
  0
BLOCK_RECORD
  5
47
100
AcDbSymbolTableRecord
100
AcDbBlockTableRecord
  2
_OBLIQUE
  0
BLOCK_RECORD
  5
4B
100
AcDbSymbolTableRecord
100
AcDbBlockTableRecord
  2
DIMS0
  0
BLOCK_RECORD
  5
55
100
AcDbSymbolTableRecord
100
AcDbBlockTableRecord
  2
DIMS1
  0
BLOCK_RECORD
  5
61
100
AcDbSymbolTableRecord
100
AcDbBlockTableRecord
  2
DIMS2
  0
BLOCK_RECORD
  5
6D
100
AcDbSymbolTableRecord
100
AcDbBlockTableRecord
  2
DIMS3
  0
BLOCK_RECORD
  5
79
100
AcDbSymbolTableRecord
100
AcDbBlockTableRecord
  2
DIMS4
  0
BLOCK_RECORD
  5
85
100
AcDbSymbolTableRecord
100
AcDbBlockTableRecord
  2
DIMS5
  0
BLOCK_RECORD
  5
91
100
AcDbSymbolTableRecord
100
AcDbBlockTableRecord
  2
DIMS6
  0
BLOCK_RECORD
  5
9D
100
AcDbSymbolTableRecord
100
AcDbBlockTableRecord
  2
DIMS7
  0
BLOCK_RECORD
  5
A9
100
AcDbSymbolTableRecord
100
AcDbBlockTableRecord
  2
DIMS8
  0
BLOCK_RECORD
  5
B0
100
AcDbSymbolTableRecord
100
AcDbBlockTableRecord
  2
DIMS9
  0
ENDTAB
  0
ENDSEC
  0
SECTION
  2
BLOCKS
  0
BLOCK
  5
22
100
AcDbEntity
  8
0
100
AcDbBlockBegin
  2
*MODEL_SPACE
 70
     0
 10
0.0
 20
0.0
 30
0.0
  3
*MODEL_SPACE
  1

  0
ENDBLK
  5
23
100
AcDbEntity
  8
0
100
AcDbBlockEnd
  0
BLOCK
  5
25
100
AcDbEntity
 67
     1
  8
0
100
AcDbBlockBegin
  2
*PAPER_SPACE
 70
     0
 10
0.0
 20
0.0
 30
0.0
  3
*PAPER_SPACE
  1

  0
ENDBLK
  5
26
100
AcDbEntity
 67
     1
  8
0
100
AcDbBlockEnd
  0
BLOCK
  5
2A
100
AcDbEntity
  8
0
100
AcDbBlockBegin
  2
_NONE
 70
     0
 10
0.0
 20
0.0
  0
CIRCLE
  5
2B
100
AcDbEntity
  8
0
 62
     0
100
AcDbCircle
 10
0.0
 20
0.0
 40
0.25
  0
ENDBLK
  5
2C
100
AcDbEntity
  8
0
100
AcDbBlockEnd
  0
BLOCK
  5
2E
100
AcDbEntity
  8
0
100
AcDbBlockBegin
  2
_OPEN
 70
     0
 10
0.0
 20
0.0
  0
LINE
  5
2F
100
AcDbEntity
  8
0
 62
     0
100
AcDbLine
 10
-0.965926
 20
0.258819
 11
0.0
 21
0.0
  0
LINE
  5
30
100
AcDbEntity
  8
0
 62
     0
100
AcDbLine
 10
0.0
 20
0.0
 11
-0.965926
 21
-0.258819
  0
LINE
  5
31
100
AcDbEntity
  8
0
 62
     0
100
AcDbLine
 10
0.0
 20
0.0
 11
-1.0
 21
0.0
  0
ENDBLK
  5
32
100
AcDbEntity
  8
0
100
AcDbBlockEnd
  0
BLOCK
  5
34
100
AcDbEntity
  8
0
100
AcDbBlockBegin
  2
_CLOSED
 70
     0
 10
0.0
 20
0.0
  0
LINE
  5
35
100
AcDbEntity
  8
0
 62
     0
100
AcDbLine
 10
-0.965926
 20
0.258819
 11
0.0
 21
0.0
  0
LINE
  5
36
100
AcDbEntity
  8
0
 62
     0
100
AcDbLine
 10
0.0
 20
0.0
 11
-0.965926
 21
-0.258819
  0
LINE
  5
37
100
AcDbEntity
  8
0
 62
     0
100
AcDbLine
 10
-0.965926
 20
0.258819
 11
-0.965926
 21
-0.258819
  0
LINE
  5
38
100
AcDbEntity
  8
0
 62
     0
100
AcDbLine
 10
0.0
 20
0.0
 11
-1.0
 21
0.0
  0
ENDBLK
  5
39
100
AcDbEntity
  8
0
100
AcDbBlockEnd
  0
BLOCK
  5
3B
100
AcDbEntity
  8
0
100
AcDbBlockBegin
  2
_ORIGIN
 70
     0
 10
0.0
 20
0.0
  0
CIRCLE
  5
3C
100
AcDbEntity
  8
0
 62
     0
100
AcDbCircle
 10
0.0
 20
0.0
 40
0.5
  0
LINE
  5
3D
100
AcDbEntity
  8
0
 62
     0
100
AcDbLine
 10
0.0
 20
0.0
 11
-1.0
 21
0.0
  0
ENDBLK
  5
3E
100
AcDbEntity
  8
0
100
AcDbBlockEnd
  0
BLOCK
  5
40
100
AcDbEntity
  8
0
100
AcDbBlockBegin
  2
_DOT
 70
     0
 10
0.0
 20
0.0
  0
POLYLINE
  5
41
100
AcDbEntity
  8
0
 62
     0
100
AcDb2dPolyline
 66
     1
 70
     1
 40
0.5
 41
0.5
  0
VERTEX
  5
42
100
AcDbEntity
  8
0
 62
     0
100
AcDbVertex
100
AcDb2dVertex
 10
-0.25
 20
0.0
 42
1.0
  0
VERTEX
  5
43
100
AcDbEntity
  8
0
 62
     0
100
AcDbVertex
100
AcDb2dVertex
 10
0.25
 20
0.0
 42
1.0
  0
SEQEND
  5
44
100
AcDbEntity
  8
0
 62
     0
  0
LINE
  5
45
100
AcDbEntity
  8
0
 62
     0
100
AcDbLine
 10
-0.5
 20
0.0
 11
-1.0
 21
0.0
  0
ENDBLK
  5
46
100
AcDbEntity
  8
0
100
AcDbBlockEnd
  0
BLOCK
  5
48
100
AcDbEntity
  8
0
100
AcDbBlockBegin
  2
_OBLIQUE
 70
     0
 10
0.0
 20
0.0
  0
LINE
  5
49
100
AcDbEntity
  8
0
 62
     0
100
AcDbLine
 10
-0.353553
 20
-0.353553
 11
0.353553
 21
0.353553
  0
ENDBLK
  5
4A
100
AcDbEntity
  8
0
100
AcDbBlockEnd
  0
BLOCK
  5
4C
100
AcDbEntity
  8
DD0
100
AcDbBlockBegin
  2
DIMS0
 70
     0
 10
0.0
 20
0.0
  0
LINE
  5
4D
100
AcDbEntity
  8
DD0
 60
     1
100
AcDbLine
 10
248.709274
 20
455.341705
 11
248.709274
 21
500.075928
  0
LINE
  5
4E
100
AcDbEntity
  8
DD0
100
AcDbLine
 10
244.709274
 20
431.341705
 11
244.709274
 21
500.075928
  0
LINE
  5
4F
100
AcDbEntity
  8
DD0
100
AcDbLine
 10
238.913719
 20
496.523013
 11
244.709274
 21
498.075928
  0
LINE
  5
50
100
AcDbEntity
  8
DD0
100
AcDbLine
 10
244.709274
 20
498.075928
 11
238.913719
 21
499.628842
  0
LINE
  5
51
100
AcDbEntity
  8
DD0
100
AcDbLine
 10
248.709274
 20
498.075928
 11
238.109274
 21
498.075928
  0
TEXT
  5
52
100
AcDbEntity
  8
DD0
100
AcDbText
 10
244.074283
 20
499.27594
 40
6.3
  1
４
 41
0.833333
  7
STANDARD
100
AcDbText
  0
ENDBLK
  5
53
100
AcDbEntity
  8
DD0
100
AcDbBlockEnd
  0
BLOCK
  5
56
100
AcDbEntity
  8
DD0
100
AcDbBlockBegin
  2
DIMS1
 70
     0
 10
0.0
 20
0.0
  0
LINE
  5
57
100
AcDbEntity
  8
DD0
100
AcDbLine
 10
238.709274
 20
405.341736
 11
238.709274
 21
365.341827
  0
LINE
  5
58
100
AcDbEntity
  8
DD0
100
AcDbLine
 10
248.709274
 20
399.341766
 11
248.709274
 21
365.341827
  0
LINE
  5
59
100
AcDbEntity
  8
DD0
100
AcDbLine
 10
232.913719
 20
365.788913
 11
238.709274
 21
367.341827
  0
LINE
  5
5A
100
AcDbEntity
  8
DD0
100
AcDbLine
 10
238.709274
 20
367.341827
 11
232.913719
 21
368.894742
  0
LINE
  5
5B
100
AcDbEntity
  8
DD0
100
AcDbLine
 10
254.504829
 20
368.894742
 11
248.709274
 21
367.341827
  0
LINE
  5
5C
100
AcDbEntity
  8
DD0
100
AcDbLine
 10
248.709274
 20
367.341827
 11
254.504829
 21
365.788913
  0
LINE
  5
5D
100
AcDbEntity
  8
DD0
100
AcDbLine
 10
232.109274
 20
367.341827
 11
255.309274
 21
367.341827
  0
TEXT
  5
5E
100
AcDbEntity
  8
DD0
100
AcDbText
 10
234.049273
 20
359.641846
 40
6.3
  1
最小１０
 41
0.666667
  7
STANDARD
100
AcDbText
  0
ENDBLK
  5
5F
100
AcDbEntity
  8
DD0
100
AcDbBlockEnd
  0
BLOCK
  5
62
100
AcDbEntity
  8
DD0
100
AcDbBlockBegin
  2
DIMS2
 70
     0
 10
0.0
 20
0.0
  0
LINE
  5
63
100
AcDbEntity
  8
DD0
100
AcDbLine
 10
248.709274
 20
455.341705
 11
248.709274
 21
500.075928
  0
LINE
  5
64
100
AcDbEntity
  8
DD0
100
AcDbLine
 10
332.408966
 20
474.341736
 11
332.408966
 21
500.075928
  0
LINE
  5
65
100
AcDbEntity
  8
DD0
100
AcDbLine
 10
254.504829
 20
499.628842
 11
248.709274
 21
498.075928
  0
LINE
  5
66
100
AcDbEntity
  8
DD0
100
AcDbLine
 10
248.709274
 20
498.075928
 11
254.504829
 21
496.523013
  0
LINE
  5
67
100
AcDbEntity
  8
DD0
100
AcDbLine
 10
326.613411
 20
496.523013
 11
332.408966
 21
498.075928
  0
LINE
  5
68
100
AcDbEntity
  8
DD0
100
AcDbLine
 10
332.408966
 20
498.075928
 11
326.613411
 21
499.628842
  0
LINE
  5
69
100
AcDbEntity
  8
DD0
100
AcDbLine
 10
248.709274
 20
498.075928
 11
332.408966
 21
498.075928
  0
TEXT
  5
6A
100
AcDbEntity
  8
DD0
100
AcDbText
 10
278.474109
 20
499.27594
 40
6.3
  1
８３．５
 41
0.833333
  7
STANDARD
100
AcDbText
  0
ENDBLK
  5
6B
100
AcDbEntity
  8
DD0
100
AcDbBlockEnd
  0
BLOCK
  5
6E
100
AcDbEntity
  8
DD0
100
AcDbBlockBegin
  2
DIMS3
 70
     0
 10
0.0
 20
0.0
  0
LINE
  5
6F
100
AcDbEntity
  8
DD0
100
AcDbLine
 10
331.208771
 20
474.341736
 11
331.208771
 21
478.798492
  0
LINE
  5
70
100
AcDbEntity
  8
DD0
 60
     1
100
AcDbLine
 10
332.408966
 20
474.341736
 11
332.408966
 21
478.798492
  0
LINE
  5
71
100
AcDbEntity
  8
DD0
100
AcDbLine
 10
325.413216
 20
475.245578
 11
331.208771
 21
476.798492
  0
LINE
  5
72
100
AcDbEntity
  8
DD0
100
AcDbLine
 10
331.208771
 20
476.798492
 11
325.413216
 21
478.351407
  0
LINE
  5
73
100
AcDbEntity
  8
DD0
100
AcDbLine
 10
338.204521
 20
478.351407
 11
332.408966
 21
476.798492
  0
LINE
  5
74
100
AcDbEntity
  8
DD0
100
AcDbLine
 10
332.408966
 20
476.798492
 11
338.204521
 21
475.245578
  0
LINE
  5
75
100
AcDbEntity
  8
DD0
100
AcDbLine
 10
324.608771
 20
476.798492
 11
359.908968
 21
476.798492
  0
TEXT
  5
76
100
AcDbEntity
  8
DD0
100
AcDbText
 10
339.523975
 20
477.998505
 40
6.3
  1
１．２
 41
0.833333
  7
STANDARD
100
AcDbText
  0
ENDBLK
  5
77
100
AcDbEntity
  8
DD0
100
AcDbBlockEnd
  0
BLOCK
  5
7A
100
AcDbEntity
  8
DD0
100
AcDbBlockBegin
  2
DIMS4
 70
     0
 10
0.0
 20
0.0
  0
LINE
  5
7B
100
AcDbEntity
  8
DD0
100
AcDbLine
 10
206.650986
 20
472.341797
 11
227.064987
 21
472.341797
  0
LINE
  5
7C
100
AcDbEntity
  8
DD0
100
AcDbLine
 10
206.650986
 20
382.341888
 11
227.064987
 21
382.341888
  0
LINE
  5
7D
100
AcDbEntity
  8
DD0
100
AcDbLine
 10
226.617901
 20
466.546242
 11
225.064987
 21
472.341797
  0
LINE
  5
7E
100
AcDbEntity
  8
DD0
100
AcDbLine
 10
225.064987
 20
472.341797
 11
223.512073
 21
466.546242
  0
LINE
  5
7F
100
AcDbEntity
  8
DD0
100
AcDbLine
 10
223.512073
 20
388.137443
 11
225.064987
 21
382.341888
  0
LINE
  5
80
100
AcDbEntity
  8
DD0
100
AcDbLine
 10
225.064987
 20
382.341888
 11
226.617901
 21
388.137443
  0
LINE
  5
81
100
AcDbEntity
  8
DD0
100
AcDbLine
 10
225.064987
 20
472.341797
 11
225.064987
 21
382.341888
  0
TEXT
  5
82
100
AcDbEntity
  8
DD0
100
AcDbText
 10
223.86499
 20
421.556873
 40
6.3
  1
９０
 50
90.000003
 41
0.833333
  7
STANDARD
100
AcDbText
  0
ENDBLK
  5
83
100
AcDbEntity
  8
DD0
100
AcDbBlockEnd
  0
BLOCK
  5
86
100
AcDbEntity
  8
DD0
100
AcDbBlockBegin
  2
DIMS5
 70
     0
 10
0.0
 20
0.0
  0
LINE
  5
87
100
AcDbEntity
  8
DD0
100
AcDbLine
 10
84.650986
 20
474.341797
 11
84.650986
 21
500.075958
  0
LINE
  5
88
100
AcDbEntity
  8
DD0
100
AcDbLine
 10
204.650986
 20
474.341797
 11
204.650986
 21
500.075958
  0
LINE
  5
89
100
AcDbEntity
  8
DD0
100
AcDbLine
 10
90.446541
 20
499.628873
 11
84.650986
 21
498.075958
  0
LINE
  5
8A
100
AcDbEntity
  8
DD0
100
AcDbLine
 10
84.650986
 20
498.075958
 11
90.446541
 21
496.523044
  0
LINE
  5
8B
100
AcDbEntity
  8
DD0
100
AcDbLine
 10
198.855431
 20
496.523044
 11
204.650986
 21
498.075958
  0
LINE
  5
8C
100
AcDbEntity
  8
DD0
100
AcDbLine
 10
204.650986
 20
498.075958
 11
198.855431
 21
499.628873
  0
LINE
  5
8D
100
AcDbEntity
  8
DD0
100
AcDbLine
 10
84.650986
 20
498.075958
 11
204.650986
 21
498.075958
  0
TEXT
  5
8E
100
AcDbEntity
  8
DD0
100
AcDbText
 10
135.715991
 20
499.27597
 40
6.3
  1
１２０
 41
0.833333
  7
STANDARD
100
AcDbText
  0
ENDBLK
  5
8F
100
AcDbEntity
  8
DD0
100
AcDbBlockEnd
  0
BLOCK
  5
92
100
AcDbEntity
  8
DD0
100
AcDbBlockBegin
  2
DIMS6
 70
     0
 10
0.0
 20
0.0
  0
LINE
  5
93
100
AcDbEntity
  8
DD0
100
AcDbLine
 10
99.650986
 20
320.515747
 11
99.650986
 21
337.905518
  0
LINE
  5
94
100
AcDbEntity
  8
DD0
100
AcDbLine
 10
189.650986
 20
321.015259
 11
189.650986
 21
337.905518
  0
LINE
  5
95
100
AcDbEntity
  8
DD0
100
AcDbLine
 10
105.446541
 20
337.458432
 11
99.650986
 21
335.905518
  0
LINE
  5
96
100
AcDbEntity
  8
DD0
100
AcDbLine
 10
99.650986
 20
335.905518
 11
105.446541
 21
334.352603
  0
LINE
  5
97
100
AcDbEntity
  8
DD0
100
AcDbLine
 10
183.855431
 20
334.352603
 11
189.650986
 21
335.905518
  0
LINE
  5
98
100
AcDbEntity
  8
DD0
100
AcDbLine
 10
189.650986
 20
335.905518
 11
183.855431
 21
337.458432
  0
LINE
  5
99
100
AcDbEntity
  8
DD0
100
AcDbLine
 10
99.650986
 20
335.905518
 11
189.650986
 21
335.905518
  0
TEXT
  5
9A
100
AcDbEntity
  8
DD0
100
AcDbText
 10
138.865985
 20
337.10553
 40
6.3
  1
９０
 41
0.833333
  7
STANDARD
100
AcDbText
  0
ENDBLK
  5
9B
100
AcDbEntity
  8
DD0
100
AcDbBlockEnd
  0
BLOCK
  5
9E
100
AcDbEntity
  8
DD0
100
AcDbBlockBegin
  2
DIMS7
 70
     0
 10
0.0
 20
0.0
  0
LINE
  5
9F
100
AcDbEntity
  8
DD0
100
AcDbLine
 10
198.248398
 20
312.418335
 11
227.064987
 21
312.418335
  0
LINE
  5
A0
100
AcDbEntity
  8
DD0
100
AcDbLine
 10
153.248398
 20
237.422974
 11
227.064987
 21
237.422974
  0
LINE
  5
A1
100
AcDbEntity
  8
DD0
100
AcDbLine
 10
226.617901
 20
306.62278
 11
225.064987
 21
312.418335
  0
LINE
  5
A2
100
AcDbEntity
  8
DD0
100
AcDbLine
 10
225.064987
 20
312.418335
 11
223.512073
 21
306.62278
  0
LINE
  5
A3
100
AcDbEntity
  8
DD0
100
AcDbLine
 10
223.512073
 20
243.218529
 11
225.064987
 21
237.422974
  0
LINE
  5
A4
100
AcDbEntity
  8
DD0
100
AcDbLine
 10
225.064987
 20
237.422974
 11
226.617901
 21
243.218529
  0
LINE
  5
A5
100
AcDbEntity
  8
DD0
100
AcDbLine
 10
225.064987
 20
312.418335
 11
225.064987
 21
237.422974
  0
TEXT
  5
A6
100
AcDbEntity
  8
DD0
100
AcDbText
 10
223.86499
 20
269.135669
 40
6.3
  1
７５
 50
90.000003
 41
0.833333
  7
STANDARD
100
AcDbText
  0
ENDBLK
  5
A7
100
AcDbEntity
  8
DD0
100
AcDbBlockEnd
  0
BLOCK
  5
AA
100
AcDbEntity
  8
DD0
100
AcDbBlockBegin
  2
DIMS8
 70
     0
 10
0.0
 20
0.0
  0
LINE
  5
AB
100
AcDbEntity
  8
DD0
100
AcDbLine
 10
139.823995
 20
228.983151
 11
141.755096
 21
234.663895
  0
LINE
  5
AC
100
AcDbEntity
  8
DD0
100
AcDbLine
 10
141.755096
 20
234.663895
 11
137.242342
 21
230.709777
  0
LINE
  5
AD
100
AcDbEntity
  8
DD0
100
AcDbLine
 10
141.755096
 20
234.663895
 11
129.824493
 21
216.825241
  0
ENDBLK
  5
AE
100
AcDbEntity
  8
DD0
100
AcDbBlockEnd
  0
BLOCK
  5
B1
100
AcDbEntity
  8
DD0
100
AcDbBlockBegin
  2
DIMS9
 70
     0
 10
0.0
 20
0.0
  0
TEXT
  5
B2
100
AcDbEntity
  8
DD0
100
AcDbText
 10
113.157397
 20
207.494263
 40
6.3
  1
３－Ｍ４ねじ穴
 41
0.833333
  7
STANDARD
100
AcDbText
  0
ENDBLK
  5
B3
100
AcDbEntity
  8
DD0
100
AcDbBlockEnd
  0
ENDSEC
  0
SECTION
  2
ENTITIES
  0
INSERT
  5
54
100
AcDbEntity
  8
DD0
100
AcDbBlockReference
  2
DIMS0
 10
0.0
 20
0.0
  0
INSERT
  5
60
100
AcDbEntity
  8
DD0
100
AcDbBlockReference
  2
DIMS1
 10
0.0
 20
0.0
  0
INSERT
  5
6C
100
AcDbEntity
  8
DD0
100
AcDbBlockReference
  2
DIMS2
 10
0.0
 20
0.0
  0
INSERT
  5
78
100
AcDbEntity
  8
DD0
100
AcDbBlockReference
  2
DIMS3
 10
0.0
 20
0.0
  0
INSERT
  5
84
100
AcDbEntity
  8
DD0
100
AcDbBlockReference
  2
DIMS4
 10
0.0
 20
0.0
  0
INSERT
  5
90
100
AcDbEntity
  8
DD0
100
AcDbBlockReference
  2
DIMS5
 10
0.0
 20
0.0
  0
INSERT
  5
9C
100
AcDbEntity
  8
DD0
100
AcDbBlockReference
  2
DIMS6
 10
0.0
 20
0.0
  0
INSERT
  5
A8
100
AcDbEntity
  8
DD0
100
AcDbBlockReference
  2
DIMS7
 10
0.0
 20
0.0
  0
INSERT
  5
AF
100
AcDbEntity
  8
DD0
100
AcDbBlockReference
  2
DIMS8
 10
0.0
 20
0.0
  0
INSERT
  5
B4
100
AcDbEntity
  8
DD0
100
AcDbBlockReference
  2
DIMS9
 10
0.0
 20
0.0
  0
LINE
  5
B5
100
AcDbEntity
  8
M0
 62
     7
100
AcDbLine
 10
317.909222
 20
394.841729
 11
317.909222
 21
406.341714
  0
LINE
  5
B6
100
AcDbEntity
  8
M0
 62
     7
100
AcDbLine
 10
309.009213
 20
401.841729
 11
309.009213
 21
397.841729
  0
LINE
  5
B7
100
AcDbEntity
  8
M0
 62
     7
100
AcDbLine
 10
313.509213
 20
401.841729
 11
313.509213
 21
396.841729
  0
LINE
  5
B8
100
AcDbEntity
  8
M0
 62
     7
100
AcDbLine
 10
310.009213
 20
396.841729
 11
313.509213
 21
396.841729
  0
ARC
  5
B9
100
AcDbEntity
  8
M0
 62
     7
100
AcDbCircle
 10
310.009213
 20
397.841729
 40
1.0
100
AcDbArc
 50
179.999945
 51
270.0
  0
LINE
  5
BA
100
AcDbEntity
  8
M0
 62
     7
100
AcDbLine
 10
298.909222
 20
407.341729
 11
316.909222
 21
407.341729
  0
ARC
  5
BB
100
AcDbEntity
  8
M0
 62
     7
100
AcDbCircle
 10
316.909222
 20
406.341729
 40
1.0
100
AcDbArc
 50
0.0
 51
90.0
  0
ARC
  5
BC
100
AcDbEntity
  8
M0
 62
     7
100
AcDbCircle
 10
308.509213
 20
401.841729
 40
0.5
100
AcDbArc
 50
0.0
 51
90.0
  0
ARC
  5
BD
100
AcDbEntity
  8
M0
 62
     7
100
AcDbCircle
 10
308.509213
 20
400.888772
 40
0.5
100
AcDbArc
 50
0.0
 51
84.348228
  0
LINE
  5
BE
100
AcDbEntity
  8
M0
 62
     7
100
AcDbLine
 10
317.909222
 20
394.841729
 11
327.909222
 21
394.841729
  0
LINE
  5
BF
100
AcDbEntity
  8
M0
 62
     7
100
AcDbLine
 10
327.909222
 20
394.841729
 11
327.909207
 21
408.691735
  0
LINE
  5
C0
100
AcDbEntity
  8
M0
 62
     7
100
AcDbLine
 10
327.909222
 20
459.841729
 11
317.909222
 21
459.841714
  0
LINE
  5
C1
100
AcDbEntity
  8
M0
  6
DASHDOT
 62
     7
100
AcDbLine
 10
298.909222
 20
427.341729
 11
333.496854
 21
427.341729
  0
LINE
  5
C2
100
AcDbEntity
  8
M0
 62
     7
100
AcDbLine
 10
298.909222
 20
453.341729
 11
327.909222
 21
453.341729
  0
LINE
  5
C3
100
AcDbEntity
  8
M0
 62
     7
100
AcDbLine
 10
327.609219
 20
408.991723
 11
327.609219
 21
409.69172
  0
LINE
  5
C4
100
AcDbEntity
  8
M0
 62
     7
100
AcDbLine
 10
323.109219
 20
409.691735
 11
326.909222
 21
409.691735
  0
LINE
  5
C5
100
AcDbEntity
  8
M0
 62
     7
100
AcDbLine
 10
323.109219
 20
444.991723
 11
327.909222
 21
444.991723
  0
LINE
  5
C6
100
AcDbEntity
  8
M0
 62
     7
100
AcDbLine
 10
323.109174
 20
410.191582
 11
324.209027
 21
410.191582
  0
LINE
  5
C7
100
AcDbEntity
  8
M0
 62
     7
100
AcDbLine
 10
324.209149
 20
411.691735
 11
325.209149
 21
411.691735
  0
LINE
  5
C8
100
AcDbEntity
  8
M0
 62
     7
100
AcDbLine
 10
327.909222
 20
444.991723
 11
327.909222
 21
459.841729
  0
LINE
  5
C9
100
AcDbEntity
  8
M0
 62
     7
100
AcDbLine
 10
324.909192
 20
442.991723
 11
325.909192
 21
442.991723
  0
LINE
  5
CA
100
AcDbEntity
  8
M0
 62
     7
100
AcDbLine
 10
325.909207
 20
442.991723
 11
327.609219
 21
444.991723
  0
LINE
  5
CB
100
AcDbEntity
  8
M0
 62
     7
100
AcDbLine
 10
324.909207
 20
442.991723
 11
324.20921
 21
444.991723
  0
LINE
  5
CC
100
AcDbEntity
  8
M0
 62
     7
100
AcDbLine
 10
324.209149
 20
411.691735
 11
324.209149
 21
410.191735
  0
LINE
  5
CD
100
AcDbEntity
  8
M0
 62
     7
100
AcDbLine
 10
298.909222
 20
402.341729
 11
313.865033
 21
402.341729
  0
LINE
  5
CE
100
AcDbEntity
  8
M0
 62
     7
100
AcDbLine
 10
298.909222
 20
401.341729
 11
308.720929
 21
401.341729
  0
LINE
  5
CF
100
AcDbEntity
  8
M0
 62
     7
100
AcDbLine
 10
298.909222
 20
402.341729
 11
308.558469
 21
401.386346
  0
ARC
  5
D0
100
AcDbEntity
  8
M0
 62
     7
100
AcDbCircle
 10
314.009076
 20
401.841729
 40
0.5
100
AcDbArc
 50
107.036915
 51
179.999966
  0
ARC
  5
D1
100
AcDbEntity
  8
M0
 62
     7
100
AcDbCircle
 10
314.009076
 20
400.841729
 40
0.5
100
AcDbArc
 50
113.547633
 51
179.999959
  0
LINE
  5
D2
100
AcDbEntity
  8
M0
 62
     7
100
AcDbLine
 10
317.909222
 20
459.841714
 11
317.909222
 21
453.341729
  0
LINE
  5
D3
100
AcDbEntity
  8
M0
 62
     7
100
AcDbLine
 10
323.109219
 20
409.691735
 11
323.109219
 21
444.991723
  0
LINE
  5
D4
100
AcDbEntity
  8
M0
 62
     7
100
AcDbLine
 10
326.909222
 20
409.691735
 11
327.909207
 21
408.691735
  0
LINE
  5
D5
100
AcDbEntity
  8
M0
 62
     7
100
AcDbLine
 10
325.209149
 20
411.691735
 11
325.209149
 21
409.691735
  0
LINE
  5
D6
100
AcDbEntity
  8
M0
 62
     7
100
AcDbLine
 10
327.609219
 20
409.69172
 11
325.209149
 21
411.691735
  0
CIRCLE
  5
D7
100
AcDbEntity
  8
M0
 62
     6
100
AcDbCircle
 10
157.650433
 20
399.341729
 40
3.0
  0
LINE
  5
D8
100
AcDbEntity
  8
M0
 62
     6
100
AcDbLine
 10
154.553708
 20
402.841637
 11
153.875424
 21
400.641778
  0
LINE
  5
D9
100
AcDbEntity
  8
M0
 62
     6
100
AcDbLine
 10
154.691678
 20
395.394479
 11
153.875424
 21
398.041802
  0
LINE
  5
DA
100
AcDbEntity
  8
M0
 62
     6
100
AcDbLine
 10
160.747113
 20
402.841637
 11
161.425427
 21
400.641778
  0
LINE
  5
DB
100
AcDbEntity
  8
M0
 62
     6
100
AcDbLine
 10
160.609158
 20
395.394463
 11
161.425427
 21
398.041802
  0
LINE
  5
DC
100
AcDbEntity
  8
M0
 62
     6
100
AcDbLine
 10
155.169476
 20
395.041802
 11
160.131345
 21
395.041802
  0
LINE
  5
DD
100
AcDbEntity
  8
M0
 62
     6
100
AcDbLine
 10
161.425427
 20
398.041802
 11
161.425427
 21
400.641778
  0
LINE
  5
DE
100
AcDbEntity
  8
M0
 62
     6
100
AcDbLine
 10
153.875424
 20
400.641778
 11
153.875424
 21
398.041802
  0
LINE
  5
DF
100
AcDbEntity
  8
M0
  6
DASHDOT
 62
     6
100
AcDbLine
 10
151.375424
 20
399.341729
 11
163.925427
 21
399.341729
  0
LINE
  5
E0
100
AcDbEntity
  8
M0
  6
DASHDOT
 62
     6
100
AcDbLine
 10
157.650433
 20
392.541817
 11
157.650433
 21
406.141778
  0
LINE
  5
E1
100
AcDbEntity
  8
M0
 62
     6
100
AcDbLine
 10
159.241208
 20
397.750909
 11
156.059399
 21
400.932671
  0
LINE
  5
E2
100
AcDbEntity
  8
M0
 62
     6
100
AcDbLine
 10
158.003842
 20
400.755913
 11
156.236172
 21
398.988213
  0
LINE
  5
E3
100
AcDbEntity
  8
M0
 62
     6
100
AcDbLine
 10
159.06445
 20
399.695245
 11
157.296826
 21
397.927666
  0
ARC
  5
E4
100
AcDbEntity
  8
M0
 62
     6
100
AcDbCircle
 10
155.169476
 20
395.541802
 40
0.5
100
AcDbArc
 50
197.137551
 51
270.0
  0
ARC
  5
E5
100
AcDbEntity
  8
M0
 62
     6
100
AcDbCircle
 10
160.131345
 20
395.541802
 40
0.5
100
AcDbArc
 50
270.0
 51
342.861653
  0
CIRCLE
  5
E6
100
AcDbEntity
  8
M0
 62
     6
100
AcDbCircle
 10
157.650433
 20
407.341729
 40
3.0
  0
LINE
  5
E7
100
AcDbEntity
  8
M0
 62
     6
100
AcDbLine
 10
154.691678
 20
411.289071
 11
153.875424
 21
408.641778
  0
LINE
  5
E8
100
AcDbEntity
  8
M0
 62
     6
100
AcDbLine
 10
154.691678
 20
403.394479
 11
153.875424
 21
406.041802
  0
LINE
  5
E9
100
AcDbEntity
  8
M0
 62
     6
100
AcDbLine
 10
160.609158
 20
411.289086
 11
161.425427
 21
408.641778
  0
LINE
  5
EA
100
AcDbEntity
  8
M0
 62
     6
100
AcDbLine
 10
160.609158
 20
403.394463
 11
161.425427
 21
406.041802
  0
LINE
  5
EB
100
AcDbEntity
  8
M0
 62
     6
100
AcDbLine
 10
155.169476
 20
403.041802
 11
160.131345
 21
403.041802
  0
LINE
  5
EC
100
AcDbEntity
  8
M0
 62
     6
100
AcDbLine
 10
161.425427
 20
406.041802
 11
161.425427
 21
408.641778
  0
LINE
  5
ED
100
AcDbEntity
  8
M0
 62
     6
100
AcDbLine
 10
160.131345
 20
411.641778
 11
155.169476
 21
411.641762
  0
LINE
  5
EE
100
AcDbEntity
  8
M0
 62
     6
100
AcDbLine
 10
153.875424
 20
408.641778
 11
153.875424
 21
406.041802
  0
LINE
  5
EF
100
AcDbEntity
  8
M0
  6
DASHDOT
 62
     6
100
AcDbLine
 10
151.375424
 20
407.341729
 11
163.925427
 21
407.341729
  0
LINE
  5
F0
100
AcDbEntity
  8
M0
  6
DASHDOT
 62
     6
100
AcDbLine
 10
157.650433
 20
400.541817
 11
157.650433
 21
414.141778
  0
LINE
  5
F1
100
AcDbEntity
  8
M0
 62
     6
100
AcDbLine
 10
159.241208
 20
405.750909
 11
156.059399
 21
408.932671
  0
LINE
  5
F2
100
AcDbEntity
  8
M0
 62
     6
100
AcDbLine
 10
158.003842
 20
408.755913
 11
156.236172
 21
406.988213
  0
LINE
  5
F3
100
AcDbEntity
  8
M0
 62
     6
100
AcDbLine
 10
159.06445
 20
407.695245
 11
157.296826
 21
405.927666
  0
ARC
  5
F4
100
AcDbEntity
  8
M0
 62
     6
100
AcDbCircle
 10
155.169476
 20
411.141762
 40
0.5
100
AcDbArc
 50
90.0
 51
162.865663
  0
ARC
  5
F5
100
AcDbEntity
  8
M0
 62
     6
100
AcDbCircle
 10
155.169476
 20
403.541802
 40
0.5
100
AcDbArc
 50
197.137551
 51
270.0
  0
ARC
  5
F6
100
AcDbEntity
  8
M0
 62
     6
100
AcDbCircle
 10
160.131345
 20
403.541802
 40
0.5
100
AcDbArc
 50
270.0
 51
342.861653
  0
ARC
  5
F7
100
AcDbEntity
  8
M0
 62
     6
100
AcDbCircle
 10
160.131345
 20
411.141762
 40
0.5
100
AcDbArc
 50
17.134787
 51
90.0
  0
CIRCLE
  5
F8
100
AcDbEntity
  8
M0
 62
     6
100
AcDbCircle
 10
167.650433
 20
407.341729
 40
3.0
  0
LINE
  5
F9
100
AcDbEntity
  8
M0
 62
     6
100
AcDbLine
 10
164.691678
 20
411.289071
 11
163.875424
 21
408.641778
  0
LINE
  5
FA
100
AcDbEntity
  8
M0
 62
     6
100
AcDbLine
 10
164.691678
 20
403.394479
 11
163.875424
 21
406.041802
  0
LINE
  5
FB
100
AcDbEntity
  8
M0
 62
     6
100
AcDbLine
 10
170.609158
 20
411.289086
 11
171.425427
 21
408.641778
  0
LINE
  5
FC
100
AcDbEntity
  8
M0
 62
     6
100
AcDbLine
 10
170.609158
 20
403.394463
 11
171.425427
 21
406.041802
  0
LINE
  5
FD
100
AcDbEntity
  8
M0
 62
     6
100
AcDbLine
 10
165.169476
 20
403.041802
 11
170.131345
 21
403.041802
  0
LINE
  5
FE
100
AcDbEntity
  8
M0
 62
     6
100
AcDbLine
 10
171.425427
 20
406.041802
 11
171.425427
 21
408.641778
  0
LINE
  5
FF
100
AcDbEntity
  8
M0
 62
     6
100
AcDbLine
 10
170.131345
 20
411.641778
 11
165.169476
 21
411.641762
  0
LINE
  5
100
100
AcDbEntity
  8
M0
 62
     6
100
AcDbLine
 10
163.875424
 20
408.641778
 11
163.875424
 21
406.041802
  0
LINE
  5
101
100
AcDbEntity
  8
M0
  6
DASHDOT
 62
     6
100
AcDbLine
 10
161.375424
 20
407.341729
 11
173.925427
 21
407.341729
  0
LINE
  5
102
100
AcDbEntity
  8
M0
  6
DASHDOT
 62
     6
100
AcDbLine
 10
167.650433
 20
400.541817
 11
167.650433
 21
414.141778
  0
LINE
  5
103
100
AcDbEntity
  8
M0
 62
     6
100
AcDbLine
 10
169.241208
 20
405.750909
 11
166.059399
 21
408.932671
  0
LINE
  5
104
100
AcDbEntity
  8
M0
 62
     6
100
AcDbLine
 10
168.003842
 20
408.755913
 11
166.236172
 21
406.988213
  0
LINE
  5
105
100
AcDbEntity
  8
M0
 62
     6
100
AcDbLine
 10
169.06445
 20
407.695245
 11
167.296826
 21
405.927666
  0
ARC
  5
106
100
AcDbEntity
  8
M0
 62
     6
100
AcDbCircle
 10
165.169476
 20
411.141762
 40
0.5
100
AcDbArc
 50
90.0
 51
162.865663
  0
ARC
  5
107
100
AcDbEntity
  8
M0
 62
     6
100
AcDbCircle
 10
165.169476
 20
403.541802
 40
0.5
100
AcDbArc
 50
197.137551
 51
270.0
  0
ARC
  5
108
100
AcDbEntity
  8
M0
 62
     6
100
AcDbCircle
 10
170.131345
 20
403.541802
 40
0.5
100
AcDbArc
 50
270.0
 51
342.861653
  0
ARC
  5
109
100
AcDbEntity
  8
M0
 62
     6
100
AcDbCircle
 10
170.131345
 20
411.141762
 40
0.5
100
AcDbArc
 50
17.134787
 51
90.0
  0
CIRCLE
  5
10A
100
AcDbEntity
  8
M0
 62
     6
100
AcDbCircle
 10
177.650433
 20
407.341729
 40
3.0
  0
LINE
  5
10B
100
AcDbEntity
  8
M0
 62
     6
100
AcDbLine
 10
174.691678
 20
411.289071
 11
173.875424
 21
408.641778
  0
LINE
  5
10C
100
AcDbEntity
  8
M0
 62
     6
100
AcDbLine
 10
174.691678
 20
403.394479
 11
173.875424
 21
406.041802
  0
LINE
  5
10D
100
AcDbEntity
  8
M0
 62
     6
100
AcDbLine
 10
180.609158
 20
411.289086
 11
181.425427
 21
408.641778
  0
LINE
  5
10E
100
AcDbEntity
  8
M0
 62
     6
100
AcDbLine
 10
180.609158
 20
403.394463
 11
181.425427
 21
406.041802
  0
LINE
  5
10F
100
AcDbEntity
  8
M0
 62
     6
100
AcDbLine
 10
175.169476
 20
403.041802
 11
180.131345
 21
403.041802
  0
LINE
  5
110
100
AcDbEntity
  8
M0
 62
     6
100
AcDbLine
 10
181.425427
 20
406.041802
 11
181.425427
 21
408.641778
  0
LINE
  5
111
100
AcDbEntity
  8
M0
 62
     6
100
AcDbLine
 10
180.131345
 20
411.641778
 11
175.169476
 21
411.641762
  0
LINE
  5
112
100
AcDbEntity
  8
M0
 62
     6
100
AcDbLine
 10
173.875424
 20
408.641778
 11
173.875424
 21
406.041802
  0
LINE
  5
113
100
AcDbEntity
  8
M0
  6
DASHDOT
 62
     6
100
AcDbLine
 10
171.375424
 20
407.341729
 11
183.925427
 21
407.341729
  0
LINE
  5
114
100
AcDbEntity
  8
M0
 62
     6
100
AcDbLine
 10
179.241208
 20
405.750909
 11
176.059399
 21
408.932671
  0
LINE
  5
115
100
AcDbEntity
  8
M0
 62
     6
100
AcDbLine
 10
178.003842
 20
408.755913
 11
176.236172
 21
406.988213
  0
LINE
  5
116
100
AcDbEntity
  8
M0
 62
     6
100
AcDbLine
 10
179.06445
 20
407.695245
 11
177.296826
 21
405.927666
  0
ARC
  5
117
100
AcDbEntity
  8
M0
 62
     6
100
AcDbCircle
 10
175.169476
 20
411.141762
 40
0.5
100
AcDbArc
 50
90.0
 51
162.865663
  0
ARC
  5
118
100
AcDbEntity
  8
M0
 62
     6
100
AcDbCircle
 10
175.169476
 20
403.541802
 40
0.5
100
AcDbArc
 50
197.137551
 51
270.0
  0
ARC
  5
119
100
AcDbEntity
  8
M0
 62
     6
100
AcDbCircle
 10
180.131345
 20
403.541802
 40
0.5
100
AcDbArc
 50
270.0
 51
342.861653
  0
ARC
  5
11A
100
AcDbEntity
  8
M0
 62
     6
100
AcDbCircle
 10
180.131345
 20
411.141762
 40
0.5
100
AcDbArc
 50
17.134787
 51
90.0
  0
CIRCLE
  5
11B
100
AcDbEntity
  8
M0
 62
     6
100
AcDbCircle
 10
187.650433
 20
407.341729
 40
3.0
  0
LINE
  5
11C
100
AcDbEntity
  8
M0
 62
     6
100
AcDbLine
 10
184.691678
 20
411.289071
 11
183.875424
 21
408.641778
  0
LINE
  5
11D
100
AcDbEntity
  8
M0
 62
     6
100
AcDbLine
 10
184.691678
 20
403.394479
 11
183.875424
 21
406.041802
  0
LINE
  5
11E
100
AcDbEntity
  8
M0
 62
     6
100
AcDbLine
 10
190.609158
 20
411.289086
 11
191.425427
 21
408.641778
  0
LINE
  5
11F
100
AcDbEntity
  8
M0
 62
     6
100
AcDbLine
 10
190.609158
 20
403.394463
 11
191.425427
 21
406.041802
  0
LINE
  5
120
100
AcDbEntity
  8
M0
 62
     6
100
AcDbLine
 10
185.169476
 20
403.041802
 11
190.131345
 21
403.041802
  0
LINE
  5
121
100
AcDbEntity
  8
M0
 62
     6
100
AcDbLine
 10
191.425427
 20
406.041802
 11
191.425427
 21
408.641778
  0
LINE
  5
122
100
AcDbEntity
  8
M0
 62
     6
100
AcDbLine
 10
190.131345
 20
411.641778
 11
185.169476
 21
411.641762
  0
LINE
  5
123
100
AcDbEntity
  8
M0
 62
     6
100
AcDbLine
 10
183.875424
 20
408.641778
 11
183.875424
 21
406.041802
  0
LINE
  5
124
100
AcDbEntity
  8
M0
  6
DASHDOT
 62
     6
100
AcDbLine
 10
181.375424
 20
407.341729
 11
193.925427
 21
407.341729
  0
LINE
  5
125
100
AcDbEntity
  8
M0
  6
DASHDOT
 62
     6
100
AcDbLine
 10
187.650433
 20
400.541817
 11
187.650433
 21
414.141778
  0
LINE
  5
126
100
AcDbEntity
  8
M0
 62
     6
100
AcDbLine
 10
189.241208
 20
405.750909
 11
186.059399
 21
408.932671
  0
LINE
  5
127
100
AcDbEntity
  8
M0
 62
     6
100
AcDbLine
 10
188.003842
 20
408.755913
 11
186.236172
 21
406.988213
  0
LINE
  5
128
100
AcDbEntity
  8
M0
 62
     6
100
AcDbLine
 10
189.06445
 20
407.695245
 11
187.296826
 21
405.927666
  0
ARC
  5
129
100
AcDbEntity
  8
M0
 62
     6
100
AcDbCircle
 10
185.169476
 20
411.141762
 40
0.5
100
AcDbArc
 50
90.0
 51
162.865663
  0
ARC
  5
12A
100
AcDbEntity
  8
M0
 62
     6
100
AcDbCircle
 10
185.169476
 20
403.541802
 40
0.5
100
AcDbArc
 50
197.137551
 51
270.0
  0
ARC
  5
12B
100
AcDbEntity
  8
M0
 62
     6
100
AcDbCircle
 10
190.131345
 20
403.541802
 40
0.5
100
AcDbArc
 50
270.0
 51
342.861653
  0
ARC
  5
12C
100
AcDbEntity
  8
M0
 62
     6
100
AcDbCircle
 10
190.131345
 20
411.141762
 40
0.5
100
AcDbArc
 50
17.134787
 51
90.0
  0
CIRCLE
  5
12D
100
AcDbEntity
  8
M0
 62
     6
100
AcDbCircle
 10
167.650433
 20
447.341729
 40
3.0
  0
LINE
  5
12E
100
AcDbEntity
  8
M0
 62
     6
100
AcDbLine
 10
164.691678
 20
451.289071
 11
163.875424
 21
448.641778
  0
LINE
  5
12F
100
AcDbEntity
  8
M0
 62
     6
100
AcDbLine
 10
164.691678
 20
443.394479
 11
163.875424
 21
446.041802
  0
LINE
  5
130
100
AcDbEntity
  8
M0
 62
     6
100
AcDbLine
 10
170.609158
 20
451.289086
 11
171.425427
 21
448.641778
  0
LINE
  5
131
100
AcDbEntity
  8
M0
 62
     6
100
AcDbLine
 10
170.609158
 20
443.394463
 11
171.425427
 21
446.041802
  0
LINE
  5
132
100
AcDbEntity
  8
M0
 62
     6
100
AcDbLine
 10
165.169476
 20
443.041802
 11
170.131345
 21
443.041802
  0
LINE
  5
133
100
AcDbEntity
  8
M0
 62
     6
100
AcDbLine
 10
171.425427
 20
446.041802
 11
171.425427
 21
448.641778
  0
LINE
  5
134
100
AcDbEntity
  8
M0
 62
     6
100
AcDbLine
 10
170.131345
 20
451.641778
 11
165.169476
 21
451.641762
  0
LINE
  5
135
100
AcDbEntity
  8
M0
 62
     6
100
AcDbLine
 10
163.875424
 20
448.641778
 11
163.875424
 21
446.041802
  0
LINE
  5
136
100
AcDbEntity
  8
M0
  6
DASHDOT
 62
     6
100
AcDbLine
 10
161.375424
 20
447.341729
 11
173.925427
 21
447.341729
  0
LINE
  5
137
100
AcDbEntity
  8
M0
  6
DASHDOT
 62
     6
100
AcDbLine
 10
167.650433
 20
440.541817
 11
167.650433
 21
454.141778
  0
LINE
  5
138
100
AcDbEntity
  8
M0
 62
     6
100
AcDbLine
 10
169.241208
 20
445.750909
 11
166.059399
 21
448.932671
  0
LINE
  5
139
100
AcDbEntity
  8
M0
 62
     6
100
AcDbLine
 10
168.003842
 20
448.755913
 11
166.236172
 21
446.988213
  0
LINE
  5
13A
100
AcDbEntity
  8
M0
 62
     6
100
AcDbLine
 10
169.06445
 20
447.695245
 11
167.296826
 21
445.927666
  0
ARC
  5
13B
100
AcDbEntity
  8
M0
 62
     6
100
AcDbCircle
 10
165.169476
 20
451.141762
 40
0.5
100
AcDbArc
 50
90.0
 51
162.865663
  0
ARC
  5
13C
100
AcDbEntity
  8
M0
 62
     6
100
AcDbCircle
 10
165.169476
 20
443.541802
 40
0.5
100
AcDbArc
 50
197.137551
 51
270.0
  0
ARC
  5
13D
100
AcDbEntity
  8
M0
 62
     6
100
AcDbCircle
 10
170.131345
 20
443.541802
 40
0.5
100
AcDbArc
 50
270.0
 51
342.861653
  0
ARC
  5
13E
100
AcDbEntity
  8
M0
 62
     6
100
AcDbCircle
 10
170.131345
 20
451.141762
 40
0.5
100
AcDbArc
 50
17.134787
 51
90.0
  0
CIRCLE
  5
13F
100
AcDbEntity
  8
M0
 62
     6
100
AcDbCircle
 10
177.650433
 20
447.341729
 40
3.0
  0
LINE
  5
140
100
AcDbEntity
  8
M0
 62
     6
100
AcDbLine
 10
174.691678
 20
451.289071
 11
173.875424
 21
448.641778
  0
LINE
  5
141
100
AcDbEntity
  8
M0
 62
     6
100
AcDbLine
 10
174.691678
 20
443.394479
 11
173.875424
 21
446.041802
  0
LINE
  5
142
100
AcDbEntity
  8
M0
 62
     6
100
AcDbLine
 10
180.609158
 20
451.289086
 11
181.425427
 21
448.641778
  0
LINE
  5
143
100
AcDbEntity
  8
M0
 62
     6
100
AcDbLine
 10
180.609158
 20
443.394463
 11
181.425427
 21
446.041802
  0
LINE
  5
144
100
AcDbEntity
  8
M0
 62
     6
100
AcDbLine
 10
175.169476
 20
443.041802
 11
180.131345
 21
443.041802
  0
LINE
  5
145
100
AcDbEntity
  8
M0
 62
     6
100
AcDbLine
 10
181.425427
 20
446.041802
 11
181.425427
 21
448.641778
  0
LINE
  5
146
100
AcDbEntity
  8
M0
 62
     6
100
AcDbLine
 10
180.131345
 20
451.641778
 11
175.169476
 21
451.641762
  0
LINE
  5
147
100
AcDbEntity
  8
M0
 62
     6
100
AcDbLine
 10
173.875424
 20
448.641778
 11
173.875424
 21
446.041802
  0
LINE
  5
148
100
AcDbEntity
  8
M0
  6
DASHDOT
 62
     6
100
AcDbLine
 10
171.375424
 20
447.341729
 11
183.925427
 21
447.341729
  0
LINE
  5
149
100
AcDbEntity
  8
M0
 62
     6
100
AcDbLine
 10
179.241208
 20
445.750909
 11
176.059399
 21
448.932671
  0
LINE
  5
14A
100
AcDbEntity
  8
M0
 62
     6
100
AcDbLine
 10
178.003842
 20
448.755913
 11
176.236172
 21
446.988213
  0
LINE
  5
14B
100
AcDbEntity
  8
M0
 62
     6
100
AcDbLine
 10
179.06445
 20
447.695245
 11
177.296826
 21
445.927666
  0
ARC
  5
14C
100
AcDbEntity
  8
M0
 62
     6
100
AcDbCircle
 10
175.169476
 20
451.141762
 40
0.5
100
AcDbArc
 50
90.0
 51
162.865663
  0
ARC
  5
14D
100
AcDbEntity
  8
M0
 62
     6
100
AcDbCircle
 10
175.169476
 20
443.541802
 40
0.5
100
AcDbArc
 50
197.137551
 51
270.0
  0
ARC
  5
14E
100
AcDbEntity
  8
M0
 62
     6
100
AcDbCircle
 10
180.131345
 20
443.541802
 40
0.5
100
AcDbArc
 50
270.0
 51
342.861653
  0
ARC
  5
14F
100
AcDbEntity
  8
M0
 62
     6
100
AcDbCircle
 10
180.131345
 20
451.141762
 40
0.5
100
AcDbArc
 50
17.134787
 51
90.0
  0
CIRCLE
  5
150
100
AcDbEntity
  8
M0
 62
     6
100
AcDbCircle
 10
187.650433
 20
447.341729
 40
3.0
  0
LINE
  5
151
100
AcDbEntity
  8
M0
 62
     6
100
AcDbLine
 10
184.691678
 20
451.289071
 11
183.875424
 21
448.641778
  0
LINE
  5
152
100
AcDbEntity
  8
M0
 62
     6
100
AcDbLine
 10
184.691678
 20
443.394479
 11
183.875424
 21
446.041802
  0
LINE
  5
153
100
AcDbEntity
  8
M0
 62
     6
100
AcDbLine
 10
190.609158
 20
451.289086
 11
191.425427
 21
448.641778
  0
LINE
  5
154
100
AcDbEntity
  8
M0
 62
     6
100
AcDbLine
 10
190.609158
 20
443.394463
 11
191.425427
 21
446.041802
  0
LINE
  5
155
100
AcDbEntity
  8
M0
 62
     6
100
AcDbLine
 10
185.169476
 20
443.041802
 11
190.131345
 21
443.041802
  0
LINE
  5
156
100
AcDbEntity
  8
M0
 62
     6
100
AcDbLine
 10
191.425427
 20
446.041802
 11
191.425427
 21
448.641778
  0
LINE
  5
157
100
AcDbEntity
  8
M0
 62
     6
100
AcDbLine
 10
190.131345
 20
451.641778
 11
185.169476
 21
451.641762
  0
LINE
  5
158
100
AcDbEntity
  8
M0
 62
     6
100
AcDbLine
 10
183.875424
 20
448.641778
 11
183.875424
 21
446.041802
  0
LINE
  5
159
100
AcDbEntity
  8
M0
  6
DASHDOT
 62
     6
100
AcDbLine
 10
181.375424
 20
447.341729
 11
193.925427
 21
447.341729
  0
LINE
  5
15A
100
AcDbEntity
  8
M0
  6
DASHDOT
 62
     6
100
AcDbLine
 10
187.650433
 20
440.541817
 11
187.650433
 21
454.141778
  0
LINE
  5
15B
100
AcDbEntity
  8
M0
 62
     6
100
AcDbLine
 10
189.241208
 20
445.750909
 11
186.059399
 21
448.932671
  0
LINE
  5
15C
100
AcDbEntity
  8
M0
 62
     6
100
AcDbLine
 10
188.003842
 20
448.755913
 11
186.236172
 21
446.988213
  0
LINE
  5
15D
100
AcDbEntity
  8
M0
 62
     6
100
AcDbLine
 10
189.06445
 20
447.695245
 11
187.296826
 21
445.927666
  0
ARC
  5
15E
100
AcDbEntity
  8
M0
 62
     6
100
AcDbCircle
 10
185.169476
 20
451.141762
 40
0.5
100
AcDbArc
 50
90.0
 51
162.865663
  0
ARC
  5
15F
100
AcDbEntity
  8
M0
 62
     6
100
AcDbCircle
 10
185.169476
 20
443.541802
 40
0.5
100
AcDbArc
 50
197.137551
 51
270.0
  0
ARC
  5
160
100
AcDbEntity
  8
M0
 62
     6
100
AcDbCircle
 10
190.131345
 20
443.541802
 40
0.5
100
AcDbArc
 50
270.0
 51
342.861653
  0
ARC
  5
161
100
AcDbEntity
  8
M0
 62
     6
100
AcDbCircle
 10
190.131345
 20
451.141762
 40
0.5
100
AcDbArc
 50
17.134787
 51
90.0
  0
CIRCLE
  5
162
100
AcDbEntity
  8
M0
 62
     6
100
AcDbCircle
 10
197.650433
 20
455.341485
 40
3.0
  0
LINE
  5
163
100
AcDbEntity
  8
M0
 62
     6
100
AcDbLine
 10
194.691678
 20
459.288827
 11
193.875424
 21
456.641534
  0
LINE
  5
164
100
AcDbEntity
  8
M0
 62
     6
100
AcDbLine
 10
194.553799
 20
451.841393
 11
193.875424
 21
454.041558
  0
LINE
  5
165
100
AcDbEntity
  8
M0
 62
     6
100
AcDbLine
 10
200.609158
 20
459.288842
 11
201.425427
 21
456.641534
  0
LINE
  5
166
100
AcDbEntity
  8
M0
 62
     6
100
AcDbLine
 10
200.747037
 20
451.841393
 11
201.425427
 21
454.041558
  0
LINE
  5
167
100
AcDbEntity
  8
M0
 62
     6
100
AcDbLine
 10
201.425427
 20
454.041558
 11
201.425427
 21
456.641534
  0
LINE
  5
168
100
AcDbEntity
  8
M0
 62
     6
100
AcDbLine
 10
200.131345
 20
459.641534
 11
195.169476
 21
459.641518
  0
LINE
  5
169
100
AcDbEntity
  8
M0
 62
     6
100
AcDbLine
 10
193.875424
 20
456.641534
 11
193.875424
 21
454.041558
  0
LINE
  5
16A
100
AcDbEntity
  8
M0
  6
DASHDOT
 62
     6
100
AcDbLine
 10
191.375424
 20
455.341485
 11
203.925427
 21
455.341485
  0
LINE
  5
16B
100
AcDbEntity
  8
M0
  6
DASHDOT
 62
     6
100
AcDbLine
 10
197.650433
 20
448.541573
 11
197.650433
 21
462.141534
  0
LINE
  5
16C
100
AcDbEntity
  8
M0
 62
     6
100
AcDbLine
 10
199.241208
 20
453.750664
 11
196.059399
 21
456.932427
  0
LINE
  5
16D
100
AcDbEntity
  8
M0
 62
     6
100
AcDbLine
 10
198.003842
 20
456.755669
 11
196.236172
 21
454.987969
  0
LINE
  5
16E
100
AcDbEntity
  8
M0
 62
     6
100
AcDbLine
 10
199.06445
 20
455.695
 11
197.296826
 21
453.927422
  0
ARC
  5
16F
100
AcDbEntity
  8
M0
 62
     6
100
AcDbCircle
 10
195.169476
 20
459.141518
 40
0.5
100
AcDbArc
 50
90.0
 51
162.865663
  0
ARC
  5
170
100
AcDbEntity
  8
M0
 62
     6
100
AcDbCircle
 10
200.131345
 20
459.141518
 40
0.5
100
AcDbArc
 50
17.134787
 51
90.0
  0
CIRCLE
  5
171
100
AcDbEntity
  8
M0
 62
     6
100
AcDbCircle
 10
197.650433
 20
447.341729
 40
3.0
  0
LINE
  5
172
100
AcDbEntity
  8
M0
 62
     6
100
AcDbLine
 10
194.691678
 20
451.289071
 11
193.875424
 21
448.641778
  0
LINE
  5
173
100
AcDbEntity
  8
M0
 62
     6
100
AcDbLine
 10
194.691678
 20
443.394479
 11
193.875424
 21
446.041802
  0
LINE
  5
174
100
AcDbEntity
  8
M0
 62
     6
100
AcDbLine
 10
200.609158
 20
451.289086
 11
201.425427
 21
448.641778
  0
LINE
  5
175
100
AcDbEntity
  8
M0
 62
     6
100
AcDbLine
 10
200.609158
 20
443.394463
 11
201.425427
 21
446.041802
  0
LINE
  5
176
100
AcDbEntity
  8
M0
 62
     6
100
AcDbLine
 10
195.169476
 20
443.041802
 11
200.131345
 21
443.041802
  0
LINE
  5
177
100
AcDbEntity
  8
M0
 62
     6
100
AcDbLine
 10
201.425427
 20
446.041802
 11
201.425427
 21
448.641778
  0
LINE
  5
178
100
AcDbEntity
  8
M0
 62
     6
100
AcDbLine
 10
200.131345
 20
451.641778
 11
195.169476
 21
451.641762
  0
LINE
  5
179
100
AcDbEntity
  8
M0
 62
     6
100
AcDbLine
 10
193.875424
 20
448.641778
 11
193.875424
 21
446.041802
  0
LINE
  5
17A
100
AcDbEntity
  8
M0
  6
DASHDOT
 62
     6
100
AcDbLine
 10
191.375424
 20
447.341729
 11
203.925427
 21
447.341729
  0
LINE
  5
17B
100
AcDbEntity
  8
M0
  6
DASHDOT
 62
     6
100
AcDbLine
 10
197.650433
 20
440.541817
 11
197.650433
 21
454.141778
  0
LINE
  5
17C
100
AcDbEntity
  8
M0
 62
     6
100
AcDbLine
 10
199.241208
 20
445.750909
 11
196.059399
 21
448.932671
  0
LINE
  5
17D
100
AcDbEntity
  8
M0
 62
     6
100
AcDbLine
 10
198.003842
 20
448.755913
 11
196.236172
 21
446.988213
  0
LINE
  5
17E
100
AcDbEntity
  8
M0
 62
     6
100
AcDbLine
 10
199.06445
 20
447.695245
 11
197.296826
 21
445.927666
  0
ARC
  5
17F
100
AcDbEntity
  8
M0
 62
     6
100
AcDbCircle
 10
195.169476
 20
451.141762
 40
0.5
100
AcDbArc
 50
90.0
 51
162.865663
  0
ARC
  5
180
100
AcDbEntity
  8
M0
 62
     6
100
AcDbCircle
 10
195.169476
 20
443.541802
 40
0.5
100
AcDbArc
 50
197.137551
 51
270.0
  0
ARC
  5
181
100
AcDbEntity
  8
M0
 62
     6
100
AcDbCircle
 10
200.131345
 20
443.541802
 40
0.5
100
AcDbArc
 50
270.0
 51
342.861653
  0
ARC
  5
182
100
AcDbEntity
  8
M0
 62
     6
100
AcDbCircle
 10
200.131345
 20
451.141762
 40
0.5
100
AcDbArc
 50
17.134787
 51
90.0
  0
LINE
  5
183
100
AcDbEntity
  8
M0
 62
     1
100
AcDbLine
 10
173.050427
 20
395.841805
 11
182.050427
 21
395.841805
  0
ARC
  5
184
100
AcDbEntity
  8
M0
 62
     1
100
AcDbCircle
 10
173.050427
 20
396.841805
 40
1.0
100
AcDbArc
 50
210.003761
 51
270.0
  0
ARC
  5
185
100
AcDbEntity
  8
M0
 62
     1
100
AcDbCircle
 10
182.050427
 20
396.841805
 40
1.0
100
AcDbArc
 50
270.0
 51
329.995752
  0
LINE
  5
186
100
AcDbEntity
  8
M0
 62
     1
100
AcDbLine
 10
174.60043
 20
398.141793
 11
177.650449
 21
398.141793
  0
LINE
  5
187
100
AcDbEntity
  8
M0
 62
     1
100
AcDbLine
 10
180.900433
 20
398.341775
 11
180.900433
 21
399.341714
  0
ARC
  5
188
100
AcDbEntity
  8
M0
 62
     1
100
AcDbCircle
 10
174.60043
 20
398.34179
 40
0.2
100
AcDbArc
 50
179.999727
 51
270.0
  0
ARC
  5
189
100
AcDbEntity
  8
M0
 62
     1
100
AcDbCircle
 10
180.700421
 20
398.34179
 40
0.2
100
AcDbArc
 50
270.0
 51
360.0
  0
LINE
  5
18A
100
AcDbEntity
  8
M0
 62
     1
100
AcDbLine
 10
174.400418
 20
399.341714
 11
174.400433
 21
398.34179
  0
LINE
  5
18B
100
AcDbEntity
  8
M0
 62
     1
100
AcDbLine
 10
177.650449
 20
398.141793
 11
180.700421
 21
398.141793
  0
LINE
  5
18C
100
AcDbEntity
  8
M0
 62
     2
100
AcDbLine
 10
244.709272
 20
429.341713
 11
244.709287
 21
425.341714
  0
LINE
  5
18D
100
AcDbEntity
  8
M0
 62
     2
100
AcDbLine
 10
248.709271
 20
429.841697
 11
245.209272
 21
429.841713
  0
LINE
  5
18E
100
AcDbEntity
  8
M0
 62
     2
100
AcDbLine
 10
248.709271
 20
424.841729
 11
245.209287
 21
424.841729
  0
ARC
  5
18F
100
AcDbEntity
  8
M0
 62
     2
100
AcDbCircle
 10
245.209272
 20
429.341713
 40
0.5
100
AcDbArc
 50
90.0
 51
179.999982
  0
ARC
  5
190
100
AcDbEntity
  8
M0
 62
     2
100
AcDbCircle
 10
245.209287
 20
425.341714
 40
0.5
100
AcDbArc
 50
179.999968
 51
270.0
  0
LINE
  5
191
100
AcDbEntity
  8
M0
100
AcDbLine
 10
238.709271
 20
407.341729
 11
238.709271
 21
447.341729
  0
LINE
  5
192
100
AcDbEntity
  8
M0
100
AcDbLine
 10
235.709286
 20
408.584344
 11
238.709286
 21
411.584359
  0
LINE
  5
193
100
AcDbEntity
  8
M0
100
AcDbLine
 10
235.709271
 20
412.826974
 11
238.709271
 21
415.826989
  0
LINE
  5
194
100
AcDbEntity
  8
M0
100
AcDbLine
 10
235.709271
 20
417.069619
 11
238.709271
 21
420.069619
  0
LINE
  5
195
100
AcDbEntity
  8
M0
100
AcDbLine
 10
235.709271
 20
421.312264
 11
238.709271
 21
424.312264
  0
LINE
  5
196
100
AcDbEntity
  8
M0
100
AcDbLine
 10
235.709271
 20
425.554909
 11
238.709271
 21
428.554909
  0
LINE
  5
197
100
AcDbEntity
  8
M0
100
AcDbLine
 10
235.709271
 20
429.797555
 11
238.709271
 21
432.797555
  0
LINE
  5
198
100
AcDbEntity
  8
M0
100
AcDbLine
 10
235.709256
 20
434.040185
 11
238.709256
 21
437.040185
  0
LINE
  5
199
100
AcDbEntity
  8
M0
100
AcDbLine
 10
235.709271
 20
438.28283
 11
238.709271
 21
441.28283
  0
LINE
  5
19A
100
AcDbEntity
  8
M0
100
AcDbLine
 10
235.709271
 20
442.525475
 11
238.709271
 21
445.525475
  0
LINE
  5
19B
100
AcDbEntity
  8
M0
100
AcDbLine
 10
290.909207
 20
457.341469
 11
290.909222
 21
459.841347
  0
LINE
  5
19C
100
AcDbEntity
  8
M0
100
AcDbLine
 10
292.109204
 20
457.627312
 11
292.109219
 21
459.841332
  0
LINE
  5
19D
100
AcDbEntity
  8
M0
 62
     6
100
AcDbLine
 10
287.859204
 20
458.341454
 11
287.735608
 21
458.341454
  0
LINE
  5
19E
100
AcDbEntity
  8
M0
 62
     6
100
AcDbLine
 10
288.003552
 20
457.8415
 11
288.509213
 21
457.8415
  0
LINE
  5
19F
100
AcDbEntity
  8
M0
 62
     6
100
AcDbLine
 10
288.509213
 20
459.641488
 11
290.109204
 21
459.641488
  0
LINE
  5
1A0
100
AcDbEntity
  8
M0
 62
     6
100
AcDbLine
 10
290.109204
 20
458.641488
 11
290.909207
 21
458.441491
  0
LINE
  5
1A1
100
AcDbEntity
  8
M0
 62
     6
100
AcDbLine
 10
290.109204
 20
458.641473
 11
290.109204
 21
459.641488
  0
LINE
  5
1A2
100
AcDbEntity
  8
M0
 62
     6
100
AcDbLine
 10
288.509198
 20
458.441491
 11
289.109189
 21
458.441491
  0
ARC
  5
1A3
100
AcDbEntity
  8
M0
 62
     6
100
AcDbCircle
 10
286.159222
 20
457.341485
 40
1.0
100
AcDbArc
 50
90.0
 51
180.0
  0
ARC
  5
1A4
100
AcDbEntity
  8
M0
 62
     6
100
AcDbCircle
 10
298.760022
 20
456.841454
 40
11.300797
100
AcDbArc
 50
173.274797
 51
177.463452
  0
LINE
  5
1A5
100
AcDbEntity
  8
M0
 62
     6
100
AcDbLine
 10
287.459225
 20
458.341454
 11
286.159222
 21
458.3415
  0
ARC
  5
1A6
100
AcDbEntity
  8
M0
 62
     6
100
AcDbCircle
 10
299.2599
 20
456.841454
 40
11.300682
100
AcDbArc
 50
173.948749
 51
177.463398
  0
LINE
  5
1A7
100
AcDbEntity
  8
M0
 62
     6
100
AcDbLine
 10
288.059216
 20
458.141427
 11
288.059216
 21
457.8415
  0
ARC
  5
1A8
100
AcDbEntity
  8
M0
 62
     6
100
AcDbCircle
 10
287.859204
 20
458.141427
 40
0.2
100
AcDbArc
 50
0.0
 51
90.0
  0
ARC
  5
1A9
100
AcDbEntity
  8
M0
 62
     6
100
AcDbCircle
 10
287.735608
 20
458.141442
 40
0.2
100
AcDbArc
 50
90.0
 51
173.28397
  0
LINE
  5
1AA
100
AcDbEntity
  8
M0
 62
     6
100
AcDbLine
 10
290.909192
 20
457.341561
 11
290.909207
 21
458.441476
  0
LINE
  5
1AB
100
AcDbEntity
  8
M0
 62
     6
100
AcDbLine
 10
287.45921
 20
457.341561
 11
287.459225
 21
458.3415
  0
LINE
  5
1AC
100
AcDbEntity
  8
M0
 62
     6
100
AcDbLine
 10
288.509198
 20
457.341561
 11
288.509213
 21
459.641488
  0
LINE
  5
1AD
100
AcDbEntity
  8
M0
 62
     6
100
AcDbLine
 10
289.109174
 20
457.341561
 11
289.109189
 21
458.441491
  0
LINE
  5
1AE
100
AcDbEntity
  8
M0
 62
     4
100
AcDbLine
 10
204.150449
 20
398.841744
 11
204.150449
 21
459.341729
  0
LINE
  5
1AF
100
AcDbEntity
  8
M0
 62
     4
100
AcDbLine
 10
203.650449
 20
457.341729
 11
202.1004
 21
457.341729
  0
LINE
  5
1B0
100
AcDbEntity
  8
M0
 62
     4
100
AcDbLine
 10
151.150449
 20
455.841683
 11
151.150449
 21
395.341714
  0
LINE
  5
1B1
100
AcDbEntity
  8
M0
  6
DASHDOT
 62
     4
100
AcDbLine
 10
146.150449
 20
427.341729
 11
209.150449
 21
427.341729
  0
LINE
  5
1B2
100
AcDbEntity
  8
M0
  6
DASHDOT
 62
     4
100
AcDbLine
 10
177.650449
 20
389.841729
 11
177.650449
 21
464.841729
  0
LINE
  5
1B3
100
AcDbEntity
  8
M0
 62
     4
100
AcDbLine
 10
173.700253
 20
443.341729
 11
173.700253
 21
457.841683
  0
LINE
  5
1B4
100
AcDbEntity
  8
M0
 62
     4
100
AcDbLine
 10
181.6004
 20
443.341729
 11
181.6004
 21
457.841714
  0
LINE
  5
1B5
100
AcDbEntity
  8
M0
 62
     4
100
AcDbLine
 10
173.200253
 20
458.341714
 11
172.1004
 21
458.341714
  0
LINE
  5
1B6
100
AcDbEntity
  8
M0
 62
     4
100
AcDbLine
 10
174.700253
 20
442.341729
 11
180.6004
 21
442.341729
  0
ARC
  5
1B7
100
AcDbEntity
  8
M0
 62
     4
100
AcDbCircle
 10
174.700253
 20
443.341729
 40
1.0
100
AcDbArc
 50
180.0
 51
270.0
  0
ARC
  5
1B8
100
AcDbEntity
  8
M0
 62
     4
100
AcDbCircle
 10
180.6004
 20
443.341729
 40
1.0
100
AcDbArc
 50
269.916016
 51
360.0
  0
ARC
  5
1B9
100
AcDbEntity
  8
M0
 62
     4
100
AcDbCircle
 10
182.1004
 20
457.841714
 40
0.5
100
AcDbArc
 50
90.0
 51
180.0
  0
ARC
  5
1BA
100
AcDbEntity
  8
M0
 62
     4
100
AcDbCircle
 10
173.200253
 20
457.841698
 40
0.5
100
AcDbArc
 50
0.0
 51
90.0
  0
LINE
  5
1BB
100
AcDbEntity
  8
M0
 62
     4
100
AcDbLine
 10
153.200253
 20
456.341698
 11
151.650449
 21
456.341698
  0
LINE
  5
1BC
100
AcDbEntity
  8
M0
 62
     4
100
AcDbLine
 10
163.200253
 20
458.341698
 11
162.1004
 21
458.341698
  0
LINE
  5
1BD
100
AcDbEntity
  8
M0
 62
     4
100
AcDbLine
 10
183.200253
 20
458.341714
 11
182.1004
 21
458.341714
  0
LINE
  5
1BE
100
AcDbEntity
  8
M0
 62
     4
100
AcDbLine
 10
193.200253
 20
458.341714
 11
192.1004
 21
458.341714
  0
ARC
  5
1BF
100
AcDbEntity
  8
M0
 62
     4
100
AcDbCircle
 10
203.650449
 20
456.841714
 40
0.5
100
AcDbArc
 50
0.0
 51
90.0
  0
ARC
  5
1C0
100
AcDbEntity
  8
M0
 62
     4
100
AcDbCircle
 10
202.1004
 20
456.841714
 40
0.5
100
AcDbArc
 50
90.0
 51
180.0
  0
ARC
  5
1C1
100
AcDbEntity
  8
M0
 62
     4
100
AcDbCircle
 10
192.1004
 20
457.841714
 40
0.5
100
AcDbArc
 50
90.0
 51
180.0
  0
ARC
  5
1C2
100
AcDbEntity
  8
M0
 62
     4
100
AcDbCircle
 10
172.1004
 20
457.841698
 40
0.5
100
AcDbArc
 50
90.0
 51
180.0
  0
ARC
  5
1C3
100
AcDbEntity
  8
M0
 62
     4
100
AcDbCircle
 10
162.1004
 20
457.841683
 40
0.5
100
AcDbArc
 50
90.0
 51
180.0
  0
ARC
  5
1C4
100
AcDbEntity
  8
M0
 62
     4
100
AcDbCircle
 10
151.650449
 20
455.841683
 40
0.5
100
AcDbArc
 50
89.998251
 51
180.0
  0
LINE
  5
1C5
100
AcDbEntity
  8
M0
 62
     4
100
AcDbLine
 10
193.700253
 20
451.841729
 11
201.6004
 21
451.841729
  0
LINE
  5
1C6
100
AcDbEntity
  8
M0
 62
     4
100
AcDbLine
 10
183.700253
 20
451.841729
 11
191.6004
 21
451.841729
  0
LINE
  5
1C7
100
AcDbEntity
  8
M0
 62
     4
100
AcDbLine
 10
173.700253
 20
451.841729
 11
181.6004
 21
451.841729
  0
LINE
  5
1C8
100
AcDbEntity
  8
M0
 62
     4
100
AcDbLine
 10
163.700253
 20
451.841729
 11
171.6004
 21
451.841729
  0
LINE
  5
1C9
100
AcDbEntity
  8
M0
 62
     4
100
AcDbLine
 10
161.6004
 20
451.841729
 11
153.700253
 21
451.841729
  0
LINE
  5
1CA
100
AcDbEntity
  8
M0
 62
     4
100
AcDbLine
 10
163.700253
 20
455.341729
 11
171.6004
 21
455.341729
  0
LINE
  5
1CB
100
AcDbEntity
  8
M0
 62
     4
100
AcDbLine
 10
173.700253
 20
455.341729
 11
181.6004
 21
455.341729
  0
LINE
  5
1CC
100
AcDbEntity
  8
M0
 62
     4
100
AcDbLine
 10
183.700253
 20
455.341729
 11
191.6004
 21
455.341729
  0
LINE
  5
1CD
100
AcDbEntity
  8
M0
 62
     4
100
AcDbLine
 10
192.1004
 20
459.841729
 11
203.650449
 21
459.841729
  0
ARC
  5
1CE
100
AcDbEntity
  8
M0
 62
     4
100
AcDbCircle
 10
192.1004
 20
459.341729
 40
0.5
100
AcDbArc
 50
90.0
 51
180.0
  0
ARC
  5
1CF
100
AcDbEntity
  8
M0
 62
     4
100
AcDbCircle
 10
203.650449
 20
459.341729
 40
0.5
100
AcDbArc
 50
0.0
 51
90.0
  0
ARC
  5
1D0
100
AcDbEntity
  8
M0
 62
     4
100
AcDbCircle
 10
202.1004
 20
459.341729
 40
0.5
100
AcDbArc
 50
90.0
 51
180.0
  0
LINE
  5
1D1
100
AcDbEntity
  8
M0
 62
     4
100
AcDbLine
 10
189.312314
 20
455.341729
 11
191.6629
 21
459.584038
  0
ARC
  5
1D2
100
AcDbEntity
  8
M0
 62
     4
100
AcDbCircle
 10
151.650449
 20
395.341714
 40
0.5
100
AcDbArc
 50
179.998251
 51
270.0
  0
LINE
  5
1D3
100
AcDbEntity
  8
M0
 62
     4
100
AcDbLine
 10
183.700253
 20
443.341729
 11
183.700253
 21
457.841683
  0
ARC
  5
1D4
100
AcDbEntity
  8
M0
 62
     4
100
AcDbCircle
 10
184.700253
 20
443.341729
 40
1.0
100
AcDbArc
 50
180.0
 51
269.930004
  0
LINE
  5
1D5
100
AcDbEntity
  8
M0
 62
     4
100
AcDbLine
 10
184.700253
 20
442.341729
 11
190.6004
 21
442.341729
  0
ARC
  5
1D6
100
AcDbEntity
  8
M0
 62
     4
100
AcDbCircle
 10
190.6004
 20
443.341729
 40
1.0
100
AcDbArc
 50
269.916016
 51
360.0
  0
LINE
  5
1D7
100
AcDbEntity
  8
M0
 62
     4
100
AcDbLine
 10
191.6004
 20
443.341729
 11
191.6004
 21
459.341729
  0
ARC
  5
1D8
100
AcDbEntity
  8
M0
 62
     4
100
AcDbCircle
 10
183.200253
 20
457.841698
 40
0.5
100
AcDbArc
 50
0.0
 51
90.0
  0
LINE
  5
1D9
100
AcDbEntity
  8
M0
 62
     4
100
AcDbLine
 10
163.700253
 20
443.341729
 11
163.700253
 21
457.841668
  0
ARC
  5
1DA
100
AcDbEntity
  8
M0
 62
     4
100
AcDbCircle
 10
164.700253
 20
443.341729
 40
1.0
100
AcDbArc
 50
180.0
 51
269.930059
  0
LINE
  5
1DB
100
AcDbEntity
  8
M0
 62
     4
100
AcDbLine
 10
164.700253
 20
442.341729
 11
170.6004
 21
442.341729
  0
ARC
  5
1DC
100
AcDbEntity
  8
M0
 62
     4
100
AcDbCircle
 10
170.6004
 20
443.341729
 40
1.0
100
AcDbArc
 50
269.888094
 51
360.0
  0
LINE
  5
1DD
100
AcDbEntity
  8
M0
 62
     4
100
AcDbLine
 10
171.6004
 20
443.341729
 11
171.6004
 21
457.841698
  0
ARC
  5
1DE
100
AcDbEntity
  8
M0
 62
     4
100
AcDbCircle
 10
163.200253
 20
457.841683
 40
0.5
100
AcDbArc
 50
0.0
 51
90.0
  0
LINE
  5
1DF
100
AcDbEntity
  8
M0
 62
     4
100
AcDbLine
 10
193.700253
 20
443.341729
 11
193.700253
 21
459.341729
  0
ARC
  5
1E0
100
AcDbEntity
  8
M0
 62
     4
100
AcDbCircle
 10
194.700253
 20
443.341729
 40
1.0
100
AcDbArc
 50
180.0
 51
269.929185
  0
LINE
  5
1E1
100
AcDbEntity
  8
M0
 62
     4
100
AcDbLine
 10
194.700253
 20
442.341729
 11
200.6004
 21
442.341729
  0
ARC
  5
1E2
100
AcDbEntity
  8
M0
 62
     4
100
AcDbCircle
 10
200.6004
 20
443.341729
 40
1.0
100
AcDbArc
 50
269.915196
 51
360.0
  0
LINE
  5
1E3
100
AcDbEntity
  8
M0
 62
     4
100
AcDbLine
 10
201.6004
 20
443.341729
 11
201.6004
 21
459.341729
  0
ARC
  5
1E4
100
AcDbEntity
  8
M0
 62
     4
100
AcDbCircle
 10
193.200253
 20
457.841698
 40
0.5
100
AcDbArc
 50
0.0
 51
90.0
  0
ARC
  5
1E5
100
AcDbEntity
  8
M0
 62
     4
100
AcDbCircle
 10
193.200253
 20
459.341729
 40
0.5
100
AcDbArc
 50
0.0
 51
90.0
  0
ARC
  5
1E6
100
AcDbEntity
  8
M0
 62
     4
100
AcDbCircle
 10
154.700253
 20
443.341729
 40
1.0
100
AcDbArc
 50
180.0
 51
269.969401
  0
LINE
  5
1E7
100
AcDbEntity
  8
M0
 62
     4
100
AcDbLine
 10
153.700253
 20
443.341729
 11
153.700253
 21
455.841668
  0
LINE
  5
1E8
100
AcDbEntity
  8
M0
 62
     4
100
AcDbLine
 10
154.700253
 20
442.341729
 11
160.6004
 21
442.341729
  0
ARC
  5
1E9
100
AcDbEntity
  8
M0
 62
     4
100
AcDbCircle
 10
160.6004
 20
443.341729
 40
1.0
100
AcDbArc
 50
269.927436
 51
360.0
  0
LINE
  5
1EA
100
AcDbEntity
  8
M0
 62
     4
100
AcDbLine
 10
161.6004
 20
443.341729
 11
161.6004
 21
457.841683
  0
ARC
  5
1EB
100
AcDbEntity
  8
M0
 62
     4
100
AcDbCircle
 10
153.200253
 20
455.841683
 40
0.5
100
AcDbArc
 50
0.0
 51
89.998251
  0
LINE
  5
1EC
100
AcDbEntity
  8
M0
 62
     4
100
AcDbLine
 10
151.650449
 20
397.341729
 11
153.200497
 21
397.341729
  0
LINE
  5
1ED
100
AcDbEntity
  8
M0
 62
     4
100
AcDbLine
 10
181.600644
 20
411.341729
 11
181.600644
 21
396.841775
  0
LINE
  5
1EE
100
AcDbEntity
  8
M0
 62
     4
100
AcDbLine
 10
173.700497
 20
411.341729
 11
173.700497
 21
396.841744
  0
LINE
  5
1EF
100
AcDbEntity
  8
M0
 62
     4
100
AcDbLine
 10
182.100644
 20
396.341744
 11
183.200497
 21
396.341744
  0
LINE
  5
1F0
100
AcDbEntity
  8
M0
 62
     4
100
AcDbLine
 10
180.600644
 20
412.341729
 11
174.700497
 21
412.341729
  0
ARC
  5
1F1
100
AcDbEntity
  8
M0
 62
     4
100
AcDbCircle
 10
180.600644
 20
411.341729
 40
1.0
100
AcDbArc
 50
0.0
 51
90.0
  0
ARC
  5
1F2
100
AcDbEntity
  8
M0
 62
     4
100
AcDbCircle
 10
174.700497
 20
411.341729
 40
1.0
100
AcDbArc
 50
89.916016
 51
179.999945
  0
ARC
  5
1F3
100
AcDbEntity
  8
M0
 62
     4
100
AcDbCircle
 10
173.200497
 20
396.841744
 40
0.5
100
AcDbArc
 50
270.027977
 51
360.0
  0
ARC
  5
1F4
100
AcDbEntity
  8
M0
 62
     4
100
AcDbCircle
 10
182.100644
 20
396.841759
 40
0.5
100
AcDbArc
 50
179.998251
 51
270.027868
  0
LINE
  5
1F5
100
AcDbEntity
  8
M0
 62
     4
100
AcDbLine
 10
202.100644
 20
398.341759
 11
203.650449
 21
398.341759
  0
LINE
  5
1F6
100
AcDbEntity
  8
M0
 62
     4
100
AcDbLine
 10
192.100644
 20
396.341759
 11
193.200497
 21
396.341759
  0
LINE
  5
1F7
100
AcDbEntity
  8
M0
 62
     4
100
AcDbLine
 10
172.100644
 20
396.341744
 11
173.200497
 21
396.341744
  0
LINE
  5
1F8
100
AcDbEntity
  8
M0
 62
     4
100
AcDbLine
 10
162.100644
 20
396.341744
 11
163.200497
 21
396.341744
  0
ARC
  5
1F9
100
AcDbEntity
  8
M0
 62
     4
100
AcDbCircle
 10
153.200497
 20
397.841744
 40
0.5
100
AcDbArc
 50
270.027977
 51
360.0
  0
ARC
  5
1FA
100
AcDbEntity
  8
M0
 62
     4
100
AcDbCircle
 10
163.200497
 20
396.841744
 40
0.5
100
AcDbArc
 50
270.027977
 51
360.0
  0
ARC
  5
1FB
100
AcDbEntity
  8
M0
 62
     4
100
AcDbCircle
 10
183.200497
 20
396.841759
 40
0.5
100
AcDbArc
 50
270.027868
 51
360.0
  0
ARC
  5
1FC
100
AcDbEntity
  8
M0
 62
     4
100
AcDbCircle
 10
193.200497
 20
396.841775
 40
0.5
100
AcDbArc
 50
270.027868
 51
360.0
  0
LINE
  5
1FD
100
AcDbEntity
  8
M0
 62
     4
100
AcDbLine
 10
161.600644
 20
402.841729
 11
153.700497
 21
402.841729
  0
LINE
  5
1FE
100
AcDbEntity
  8
M0
 62
     4
100
AcDbLine
 10
171.600644
 20
402.841729
 11
163.700497
 21
402.841729
  0
LINE
  5
1FF
100
AcDbEntity
  8
M0
 62
     4
100
AcDbLine
 10
181.600644
 20
402.841729
 11
173.700497
 21
402.841729
  0
LINE
  5
200
100
AcDbEntity
  8
M0
 62
     4
100
AcDbLine
 10
191.600644
 20
402.841729
 11
183.700497
 21
402.841729
  0
LINE
  5
201
100
AcDbEntity
  8
M0
 62
     4
100
AcDbLine
 10
193.700497
 20
402.841729
 11
201.600644
 21
402.841729
  0
LINE
  5
202
100
AcDbEntity
  8
M0
 62
     4
100
AcDbLine
 10
191.600644
 20
399.341729
 11
183.700497
 21
399.341729
  0
LINE
  5
203
100
AcDbEntity
  8
M0
 62
     4
100
AcDbLine
 10
181.600644
 20
399.341729
 11
173.700497
 21
399.341729
  0
LINE
  5
204
100
AcDbEntity
  8
M0
 62
     4
100
AcDbLine
 10
171.600644
 20
399.341729
 11
163.700497
 21
399.341729
  0
LINE
  5
205
100
AcDbEntity
  8
M0
 62
     4
100
AcDbLine
 10
163.200497
 20
394.841729
 11
151.650449
 21
394.841714
  0
ARC
  5
206
100
AcDbEntity
  8
M0
 62
     4
100
AcDbCircle
 10
163.200497
 20
395.341729
 40
0.5
100
AcDbArc
 50
270.027977
 51
360.0
  0
ARC
  5
207
100
AcDbEntity
  8
M0
 62
     4
100
AcDbCircle
 10
153.200497
 20
395.341729
 40
0.5
100
AcDbArc
 50
270.027977
 51
360.0
  0
LINE
  5
208
100
AcDbEntity
  8
M0
 62
     4
100
AcDbLine
 10
165.988583
 20
399.341729
 11
163.637997
 21
395.099419
  0
LINE
  5
209
100
AcDbEntity
  8
M0
 62
     4
100
AcDbLine
 10
171.600644
 20
411.341729
 11
171.600644
 21
396.841775
  0
ARC
  5
20A
100
AcDbEntity
  8
M0
 62
     4
100
AcDbCircle
 10
170.600644
 20
411.341729
 40
1.0
100
AcDbArc
 50
0.0
 51
89.943992
  0
LINE
  5
20B
100
AcDbEntity
  8
M0
 62
     4
100
AcDbLine
 10
170.600644
 20
412.341729
 11
164.700497
 21
412.341729
  0
ARC
  5
20C
100
AcDbEntity
  8
M0
 62
     4
100
AcDbCircle
 10
164.700497
 20
411.341729
 40
1.0
100
AcDbArc
 50
89.916016
 51
179.999945
  0
LINE
  5
20D
100
AcDbEntity
  8
M0
 62
     4
100
AcDbLine
 10
163.700497
 20
411.341729
 11
163.700497
 21
395.341729
  0
ARC
  5
20E
100
AcDbEntity
  8
M0
 62
     4
100
AcDbCircle
 10
172.100644
 20
396.841759
 40
0.5
100
AcDbArc
 50
179.998251
 51
270.027977
  0
LINE
  5
20F
100
AcDbEntity
  8
M0
 62
     4
100
AcDbLine
 10
191.600644
 20
411.341729
 11
191.600644
 21
396.84179
  0
ARC
  5
210
100
AcDbEntity
  8
M0
 62
     4
100
AcDbCircle
 10
190.600644
 20
411.341729
 40
1.0
100
AcDbArc
 50
0.0
 51
89.944047
  0
LINE
  5
211
100
AcDbEntity
  8
M0
 62
     4
100
AcDbLine
 10
190.600644
 20
412.341729
 11
184.700497
 21
412.341729
  0
ARC
  5
212
100
AcDbEntity
  8
M0
 62
     4
100
AcDbCircle
 10
184.700497
 20
411.341729
 40
1.0
100
AcDbArc
 50
89.888094
 51
179.999945
  0
LINE
  5
213
100
AcDbEntity
  8
M0
 62
     4
100
AcDbLine
 10
183.700497
 20
411.341729
 11
183.700497
 21
396.841759
  0
ARC
  5
214
100
AcDbEntity
  8
M0
 62
     4
100
AcDbCircle
 10
192.100644
 20
396.841775
 40
0.5
100
AcDbArc
 50
179.998251
 51
270.027868
  0
LINE
  5
215
100
AcDbEntity
  8
M0
 62
     4
100
AcDbLine
 10
161.600644
 20
411.341729
 11
161.600644
 21
395.341729
  0
ARC
  5
216
100
AcDbEntity
  8
M0
 62
     4
100
AcDbCircle
 10
160.600644
 20
411.341729
 40
1.0
100
AcDbArc
 50
0.0
 51
89.930059
  0
LINE
  5
217
100
AcDbEntity
  8
M0
 62
     4
100
AcDbLine
 10
160.600644
 20
412.341729
 11
154.700497
 21
412.341729
  0
ARC
  5
218
100
AcDbEntity
  8
M0
 62
     4
100
AcDbCircle
 10
154.700497
 20
411.341729
 40
1.0
100
AcDbArc
 50
89.915196
 51
179.999945
  0
LINE
  5
219
100
AcDbEntity
  8
M0
 62
     4
100
AcDbLine
 10
153.700497
 20
411.341729
 11
153.700497
 21
395.341729
  0
ARC
  5
21A
100
AcDbEntity
  8
M0
 62
     4
100
AcDbCircle
 10
162.100644
 20
396.841759
 40
0.5
100
AcDbArc
 50
179.998251
 51
270.027977
  0
ARC
  5
21B
100
AcDbEntity
  8
M0
 62
     4
100
AcDbCircle
 10
162.100644
 20
395.341729
 40
0.5
100
AcDbArc
 50
179.998251
 51
270.027977
  0
ARC
  5
21C
100
AcDbEntity
  8
M0
 62
     4
100
AcDbCircle
 10
200.600644
 20
411.341729
 40
1.0
100
AcDbArc
 50
0.0
 51
89.972024
  0
LINE
  5
21D
100
AcDbEntity
  8
M0
 62
     4
100
AcDbLine
 10
201.600644
 20
411.341729
 11
201.600644
 21
398.84179
  0
LINE
  5
21E
100
AcDbEntity
  8
M0
 62
     4
100
AcDbLine
 10
200.600644
 20
412.341729
 11
194.700497
 21
412.341729
  0
ARC
  5
21F
100
AcDbEntity
  8
M0
 62
     4
100
AcDbCircle
 10
194.700497
 20
411.341729
 40
1.0
100
AcDbArc
 50
89.930059
 51
179.999945
  0
LINE
  5
220
100
AcDbEntity
  8
M0
 62
     4
100
AcDbLine
 10
193.700497
 20
411.341729
 11
193.700497
 21
396.841775
  0
ARC
  5
221
100
AcDbEntity
  8
M0
 62
     4
100
AcDbCircle
 10
202.100644
 20
398.841775
 40
0.5
100
AcDbArc
 50
179.998251
 51
269.998251
  0
ARC
  5
222
100
AcDbEntity
  8
M0
 62
     4
100
AcDbCircle
 10
151.650449
 20
397.841744
 40
0.5
100
AcDbArc
 50
179.998251
 51
270.027977
  0
ARC
  5
223
100
AcDbEntity
  8
M0
 62
     4
100
AcDbCircle
 10
203.650449
 20
398.841759
 40
0.5
100
AcDbArc
 50
269.998251
 51
360.0
  0
LINE
  5
224
100
AcDbEntity
  8
M0
 62
     4
100
AcDbLine
 10
175.150449
 20
424.19172
 11
180.150449
 21
424.19172
  0
LINE
  5
225
100
AcDbEntity
  8
M0
 62
     4
100
AcDbLine
 10
180.650449
 20
424.691704
 11
180.650449
 21
429.991692
  0
LINE
  5
226
100
AcDbEntity
  8
M0
 62
     4
100
AcDbLine
 10
180.150449
 20
430.491723
 11
175.150449
 21
430.491708
  0
LINE
  5
227
100
AcDbEntity
  8
M0
 62
     4
100
AcDbLine
 10
174.650449
 20
429.991708
 11
174.650449
 21
424.69172
  0
ARC
  5
228
100
AcDbEntity
  8
M0
 62
     4
100
AcDbCircle
 10
180.150449
 20
424.69172
 40
0.5
100
AcDbArc
 50
270.0
 51
360.0
  0
ARC
  5
229
100
AcDbEntity
  8
M0
 62
     4
100
AcDbCircle
 10
180.150449
 20
429.991708
 40
0.5
100
AcDbArc
 50
0.0
 51
90.0
  0
ARC
  5
22A
100
AcDbEntity
  8
M0
 62
     4
100
AcDbCircle
 10
175.150449
 20
429.991708
 40
0.5
100
AcDbArc
 50
90.0
 51
180.0
  0
ARC
  5
22B
100
AcDbEntity
  8
M0
 62
     4
100
AcDbCircle
 10
175.150449
 20
424.69172
 40
0.5
100
AcDbArc
 50
179.999891
 51
270.0
  0
LINE
  5
22C
100
AcDbEntity
  8
M0
 62
     4
100
AcDbLine
 10
283.709027
 20
394.841729
 11
298.909222
 21
394.841729
  0
LINE
  5
22D
100
AcDbEntity
  8
M0
 62
     4
100
AcDbLine
 10
298.909222
 20
394.841729
 11
298.909222
 21
459.841729
  0
LINE
  5
22E
100
AcDbEntity
  8
M0
 62
     4
100
AcDbLine
 10
298.909222
 20
459.841729
 11
283.709027
 21
459.841714
  0
LINE
  5
22F
100
AcDbEntity
  8
M0
 62
     4
100
AcDbLine
 10
248.709271
 20
453.341698
 11
248.709271
 21
401.341759
  0
LINE
  5
230
100
AcDbEntity
  8
M0
  6
DASHDOT
 62
     4
100
AcDbLine
 10
243.709271
 20
427.341729
 11
298.909207
 21
427.341729
  0
LINE
  5
231
100
AcDbEntity
  8
M0
 62
     4
100
AcDbLine
 10
253.709271
 20
398.341759
 11
274.709027
 21
398.341759
  0
LINE
  5
232
100
AcDbEntity
  8
M0
 62
     4
100
AcDbLine
 10
253.709271
 20
396.341759
 11
280.138226
 21
396.341759
  0
LINE
  5
233
100
AcDbEntity
  8
M0
 62
     4
100
AcDbLine
 10
253.709271
 20
457.341729
 11
298.909222
 21
457.341729
  0
LINE
  5
234
100
AcDbEntity
  8
M0
 62
     4
100
AcDbLine
 10
253.709271
 20
458.341714
 11
280.138226
 21
458.341714
  0
ARC
  5
235
100
AcDbEntity
  8
M0
 62
     4
100
AcDbCircle
 10
253.709271
 20
403.341759
 40
5.0
100
AcDbArc
 50
179.999825
 51
270.0
  0
ARC
  5
236
100
AcDbEntity
  8
M0
 62
     4
100
AcDbCircle
 10
253.709271
 20
401.341759
 40
5.0
100
AcDbArc
 50
179.999825
 51
270.0
  0
ARC
  5
237
100
AcDbEntity
  8
M0
 62
     4
100
AcDbCircle
 10
253.709271
 20
452.341729
 40
5.0
100
AcDbArc
 50
89.999825
 51
180.0
  0
ARC
  5
238
100
AcDbEntity
  8
M0
 62
     4
100
AcDbCircle
 10
253.709271
 20
453.341714
 40
5.0
100
AcDbArc
 50
89.999825
 51
180.0
  0
LINE
  5
239
100
AcDbEntity
  8
M0
 62
     4
100
AcDbLine
 10
279.709027
 20
407.341729
 11
298.909222
 21
407.341729
  0
LINE
  5
23A
100
AcDbEntity
  8
M0
 62
     4
100
AcDbLine
 10
279.709027
 20
402.341729
 11
298.909222
 21
402.341729
  0
LINE
  5
23B
100
AcDbEntity
  8
M0
 62
     4
100
AcDbLine
 10
278.709027
 20
398.341759
 11
278.709027
 21
406.341729
  0
LINE
  5
23C
100
AcDbEntity
  8
M0
 62
     4
100
AcDbLine
 10
276.709027
 20
400.341759
 11
276.709027
 21
404.341729
  0
ARC
  5
23D
100
AcDbEntity
  8
M0
 62
     4
100
AcDbCircle
 10
279.709027
 20
401.341729
 40
1.0
100
AcDbArc
 50
90.0
 51
179.999126
  0
ARC
  5
23E
100
AcDbEntity
  8
M0
 62
     4
100
AcDbCircle
 10
279.709027
 20
406.341729
 40
1.0
100
AcDbArc
 50
90.0
 51
179.999126
  0
ARC
  5
23F
100
AcDbEntity
  8
M0
 62
     4
100
AcDbCircle
 10
279.709027
 20
404.341729
 40
3.0
100
AcDbArc
 50
90.0
 51
179.999709
  0
ARC
  5
240
100
AcDbEntity
  8
M0
 62
     4
100
AcDbCircle
 10
276.709027
 20
398.341759
 40
2.0
100
AcDbArc
 50
270.0
 51
360.0
  0
ARC
  5
241
100
AcDbEntity
  8
M0
 62
     4
100
AcDbCircle
 10
274.709027
 20
400.341759
 40
2.0
100
AcDbArc
 50
270.0
 51
360.0
  0
ARC
  5
242
100
AcDbEntity
  8
M0
 62
     4
100
AcDbCircle
 10
283.709027
 20
399.841729
 40
5.0
100
AcDbArc
 50
179.999825
 51
270.0
  0
LINE
  5
243
100
AcDbEntity
  8
M0
 62
     4
100
AcDbLine
 10
292.209027
 20
402.341729
 11
292.209027
 21
394.841729
  0
LINE
  5
244
100
AcDbEntity
  8
M0
 62
     4
100
AcDbLine
 10
288.209027
 20
402.341729
 11
288.209027
 21
394.841729
  0
LINE
  5
245
100
AcDbEntity
  8
M0
 62
     4
100
AcDbLine
 10
286.209027
 20
402.341714
 11
286.209027
 21
394.841714
  0
ARC
  5
246
100
AcDbEntity
  8
M0
 62
     4
100
AcDbCircle
 10
283.709027
 20
454.841714
 40
5.0
100
AcDbArc
 50
90.0
 51
135.573713
  0
LINE
  5
247
100
AcDbEntity
  8
M0
 62
     7
100
AcDbLine
 10
166.650449
 20
455.341729
 11
166.650204
 21
458.841714
  0
LINE
  5
248
100
AcDbEntity
  8
M0
 62
     7
100
AcDbLine
 10
166.650204
 20
458.841714
 11
165.650449
 21
459.841714
  0
LINE
  5
249
100
AcDbEntity
  8
M0
 62
     7
100
AcDbLine
 10
166.650449
 20
399.34182
 11
166.650449
 21
396.841729
  0
LINE
  5
24A
100
AcDbEntity
  8
M0
 62
     7
100
AcDbLine
 10
168.150449
 20
399.34182
 11
168.150449
 21
398.841729
  0
LINE
  5
24B
100
AcDbEntity
  8
M0
 62
     7
100
AcDbLine
 10
169.650449
 20
399.341714
 11
169.650449
 21
398.841729
  0
LINE
  5
24C
100
AcDbEntity
  8
M0
 62
     7
100
AcDbLine
 10
170.650449
 20
399.341714
 11
170.650449
 21
396.841729
  0
LINE
  5
24D
100
AcDbEntity
  8
M0
 62
     7
100
AcDbLine
 10
190.650449
 20
394.841729
 11
199.150449
 21
394.841729
  0
LINE
  5
24E
100
AcDbEntity
  8
M0
 62
     7
100
AcDbLine
 10
199.150449
 20
394.841729
 11
199.150449
 21
402.841729
  0
LINE
  5
24F
100
AcDbEntity
  8
M0
 62
     7
100
AcDbLine
 10
165.650449
 20
459.841714
 11
158.150449
 21
459.841698
  0
LINE
  5
250
100
AcDbEntity
  8
M0
 62
     7
100
AcDbLine
 10
156.150449
 20
457.841698
 11
156.150449
 21
451.841714
  0
ARC
  5
251
100
AcDbEntity
  8
M0
 62
     7
100
AcDbCircle
 10
158.150449
 20
457.841698
 40
2.0
100
AcDbArc
 50
89.999563
 51
180.0
  0
LINE
  5
252
100
AcDbEntity
  8
M0
 62
     7
100
AcDbLine
 10
184.650449
 20
398.841729
 11
184.650449
 21
399.341714
  0
LINE
  5
253
100
AcDbEntity
  8
M0
 62
     7
100
AcDbLine
 10
186.150449
 20
396.841729
 11
186.150449
 21
399.341714
  0
LINE
  5
254
100
AcDbEntity
  8
M0
 62
     7
100
AcDbLine
 10
166.650449
 20
396.841729
 11
170.650449
 21
396.841729
  0
LINE
  5
255
100
AcDbEntity
  8
M0
 62
     7
100
AcDbLine
 10
189.650449
 20
395.841714
 11
189.650449
 21
399.341714
  0
LINE
  5
256
100
AcDbEntity
  8
M0
 62
     7
100
AcDbLine
 10
189.650449
 20
395.841714
 11
190.650449
 21
394.841729
  0
LINE
  5
257
100
AcDbEntity
  8
M0
 62
     7
100
AcDbLine
 10
188.150449
 20
398.841729
 11
188.150449
 21
399.341714
  0
LINE
  5
258
100
AcDbEntity
  8
M0
 62
     7
100
AcDbLine
 10
186.650449
 20
396.841729
 11
186.650449
 21
399.341714
  0
LINE
  5
259
100
AcDbEntity
  8
M0
 62
     7
100
AcDbLine
 10
165.650449
 20
396.841729
 11
165.650449
 21
398.731454
  0
LINE
  5
25A
100
AcDbEntity
  8
M0
 62
     7
100
AcDbLine
 10
183.700497
 20
396.841729
 11
186.150449
 21
396.841729
  0
LINE
  5
25B
100
AcDbEntity
  8
M0
 62
     7
100
AcDbLine
 10
183.700497
 20
398.841729
 11
184.650449
 21
398.841729
  0
LINE
  5
25C
100
AcDbEntity
  8
M0
 62
     7
100
AcDbLine
 10
188.150449
 20
398.841729
 11
189.650449
 21
398.841729
  0
LINE
  5
25D
100
AcDbEntity
  8
M0
 62
     7
100
AcDbLine
 10
186.650449
 20
396.841729
 11
189.650449
 21
396.841729
  0
LINE
  5
25E
100
AcDbEntity
  8
M0
 62
     7
100
AcDbLine
 10
164.603375
 20
396.841729
 11
165.650449
 21
396.841729
  0
LINE
  5
25F
100
AcDbEntity
  8
M0
 62
     7
100
AcDbLine
 10
168.150449
 20
398.841729
 11
169.650449
 21
398.841729
  0
CIRCLE
  5
260
100
AcDbEntity
  8
M0
 62
     6
100
AcDbCircle
 10
157.650449
 20
447.341729
 40
3.0
  0
LINE
  5
261
100
AcDbEntity
  8
M0
 62
     6
100
AcDbLine
 10
154.691693
 20
451.289071
 11
153.875439
 21
448.641778
  0
LINE
  5
262
100
AcDbEntity
  8
M0
 62
     6
100
AcDbLine
 10
154.691693
 20
443.394479
 11
153.875439
 21
446.041802
  0
LINE
  5
263
100
AcDbEntity
  8
M0
 62
     6
100
AcDbLine
 10
160.609174
 20
451.289086
 11
161.425442
 21
448.641778
  0
LINE
  5
264
100
AcDbEntity
  8
M0
 62
     6
100
AcDbLine
 10
160.609174
 20
443.394463
 11
161.425442
 21
446.041802
  0
LINE
  5
265
100
AcDbEntity
  8
M0
 62
     6
100
AcDbLine
 10
155.169492
 20
443.041802
 11
160.13136
 21
443.041802
  0
LINE
  5
266
100
AcDbEntity
  8
M0
 62
     6
100
AcDbLine
 10
161.425442
 20
446.041802
 11
161.425442
 21
448.641778
  0
LINE
  5
267
100
AcDbEntity
  8
M0
 62
     6
100
AcDbLine
 10
160.13136
 20
451.641778
 11
155.169492
 21
451.641762
  0
LINE
  5
268
100
AcDbEntity
  8
M0
 62
     6
100
AcDbLine
 10
153.875439
 20
448.641778
 11
153.875439
 21
446.041802
  0
LINE
  5
269
100
AcDbEntity
  8
M0
  6
DASHDOT
 62
     6
100
AcDbLine
 10
151.375439
 20
447.341729
 11
163.925442
 21
447.341729
  0
LINE
  5
26A
100
AcDbEntity
  8
M0
  6
DASHDOT
 62
     6
100
AcDbLine
 10
157.650449
 20
440.541817
 11
157.650449
 21
454.141778
  0
LINE
  5
26B
100
AcDbEntity
  8
M0
 62
     6
100
AcDbLine
 10
159.241223
 20
445.750909
 11
156.059415
 21
448.932671
  0
LINE
  5
26C
100
AcDbEntity
  8
M0
 62
     6
100
AcDbLine
 10
158.003857
 20
448.755913
 11
156.236188
 21
446.988213
  0
LINE
  5
26D
100
AcDbEntity
  8
M0
 62
     6
100
AcDbLine
 10
159.064465
 20
447.695245
 11
157.296841
 21
445.927666
  0
ARC
  5
26E
100
AcDbEntity
  8
M0
 62
     6
100
AcDbCircle
 10
155.169492
 20
451.141762
 40
0.5
100
AcDbArc
 50
90.0
 51
162.865663
  0
ARC
  5
26F
100
AcDbEntity
  8
M0
 62
     6
100
AcDbCircle
 10
155.169492
 20
443.541802
 40
0.5
100
AcDbArc
 50
197.137551
 51
270.0
  0
ARC
  5
270
100
AcDbEntity
  8
M0
 62
     6
100
AcDbCircle
 10
160.13136
 20
443.541802
 40
0.5
100
AcDbArc
 50
270.0
 51
342.861653
  0
ARC
  5
271
100
AcDbEntity
  8
M0
 62
     6
100
AcDbCircle
 10
160.13136
 20
451.141762
 40
0.5
100
AcDbArc
 50
17.134787
 51
90.0
  0
CIRCLE
  5
272
100
AcDbEntity
  8
M0
 62
     6
100
AcDbCircle
 10
197.650449
 20
407.341729
 40
3.0
  0
LINE
  5
273
100
AcDbEntity
  8
M0
 62
     6
100
AcDbLine
 10
194.691693
 20
411.289071
 11
193.875439
 21
408.641778
  0
LINE
  5
274
100
AcDbEntity
  8
M0
 62
     6
100
AcDbLine
 10
194.691693
 20
403.394479
 11
193.875439
 21
406.041802
  0
LINE
  5
275
100
AcDbEntity
  8
M0
 62
     6
100
AcDbLine
 10
200.609174
 20
411.289086
 11
201.425442
 21
408.641778
  0
LINE
  5
276
100
AcDbEntity
  8
M0
 62
     6
100
AcDbLine
 10
200.609174
 20
403.394463
 11
201.425442
 21
406.041802
  0
LINE
  5
277
100
AcDbEntity
  8
M0
 62
     6
100
AcDbLine
 10
195.169492
 20
403.041802
 11
200.13136
 21
403.041802
  0
LINE
  5
278
100
AcDbEntity
  8
M0
 62
     6
100
AcDbLine
 10
201.425442
 20
406.041802
 11
201.425442
 21
408.641778
  0
LINE
  5
279
100
AcDbEntity
  8
M0
 62
     6
100
AcDbLine
 10
200.13136
 20
411.641778
 11
195.169492
 21
411.641762
  0
LINE
  5
27A
100
AcDbEntity
  8
M0
 62
     6
100
AcDbLine
 10
193.875439
 20
408.641778
 11
193.875439
 21
406.041802
  0
LINE
  5
27B
100
AcDbEntity
  8
M0
  6
DASHDOT
 62
     6
100
AcDbLine
 10
191.375439
 20
407.341729
 11
203.925442
 21
407.341729
  0
LINE
  5
27C
100
AcDbEntity
  8
M0
  6
DASHDOT
 62
     6
100
AcDbLine
 10
197.650449
 20
401.877129
 11
197.650449
 21
414.141778
  0
LINE
  5
27D
100
AcDbEntity
  8
M0
 62
     6
100
AcDbLine
 10
199.241223
 20
405.750909
 11
196.059415
 21
408.932671
  0
LINE
  5
27E
100
AcDbEntity
  8
M0
 62
     6
100
AcDbLine
 10
198.003857
 20
408.755913
 11
196.236188
 21
406.988213
  0
LINE
  5
27F
100
AcDbEntity
  8
M0
 62
     6
100
AcDbLine
 10
199.064465
 20
407.695245
 11
197.296841
 21
405.927666
  0
ARC
  5
280
100
AcDbEntity
  8
M0
 62
     6
100
AcDbCircle
 10
195.169492
 20
411.141762
 40
0.5
100
AcDbArc
 50
90.0
 51
162.865663
  0
ARC
  5
281
100
AcDbEntity
  8
M0
 62
     6
100
AcDbCircle
 10
195.169492
 20
403.541802
 40
0.5
100
AcDbArc
 50
197.137551
 51
270.0
  0
ARC
  5
282
100
AcDbEntity
  8
M0
 62
     6
100
AcDbCircle
 10
200.13136
 20
403.541802
 40
0.5
100
AcDbArc
 50
270.0
 51
342.861653
  0
ARC
  5
283
100
AcDbEntity
  8
M0
 62
     6
100
AcDbCircle
 10
200.13136
 20
411.141762
 40
0.5
100
AcDbArc
 50
17.134787
 51
90.0
  0
LINE
  5
284
100
AcDbEntity
  8
M0
 62
     2
100
AcDbLine
 10
175.650449
 20
424.841729
 11
179.650449
 21
424.841729
  0
LINE
  5
285
100
AcDbEntity
  8
M0
 62
     2
100
AcDbLine
 10
180.150449
 20
425.341714
 11
180.150449
 21
429.341698
  0
LINE
  5
286
100
AcDbEntity
  8
M0
 62
     2
100
AcDbLine
 10
179.650449
 20
429.841729
 11
175.650449
 21
429.841714
  0
LINE
  5
287
100
AcDbEntity
  8
M0
 62
     2
100
AcDbLine
 10
175.150449
 20
429.341714
 11
175.150449
 21
425.341729
  0
ARC
  5
288
100
AcDbEntity
  8
M0
 62
     2
100
AcDbCircle
 10
175.650449
 20
425.341729
 40
0.5
100
AcDbArc
 50
179.999891
 51
270.0
  0
ARC
  5
289
100
AcDbEntity
  8
M0
 62
     2
100
AcDbCircle
 10
179.650449
 20
425.341729
 40
0.5
100
AcDbArc
 50
270.0
 51
360.0
  0
ARC
  5
28A
100
AcDbEntity
  8
M0
 62
     2
100
AcDbCircle
 10
179.650449
 20
429.341714
 40
0.5
100
AcDbArc
 50
0.0
 51
90.0
  0
ARC
  5
28B
100
AcDbEntity
  8
M0
 62
     2
100
AcDbCircle
 10
175.650449
 20
429.341714
 40
0.5
100
AcDbArc
 50
90.0
 51
180.0
  0
LINE
  5
28C
100
AcDbEntity
  8
M0
100
AcDbLine
 10
84.650983
 20
382.341881
 11
204.650983
 21
382.341881
  0
LINE
  5
28D
100
AcDbEntity
  8
M0
100
AcDbLine
 10
204.650983
 20
382.341881
 11
204.650983
 21
472.34179
  0
LINE
  5
28E
100
AcDbEntity
  8
M0
100
AcDbLine
 10
204.650983
 20
472.34179
 11
84.650983
 21
472.34179
  0
LINE
  5
28F
100
AcDbEntity
  8
M0
100
AcDbLine
 10
84.650983
 20
472.34179
 11
84.650983
 21
382.341881
  0
LINE
  5
290
100
AcDbEntity
  8
M0
100
AcDbLine
 10
150.150983
 20
389.841881
 11
150.150983
 21
382.341881
  0
LINE
  5
291
100
AcDbEntity
  8
M0
100
AcDbLine
 10
139.150983
 20
389.841881
 11
139.150983
 21
382.341881
  0
LINE
  5
292
100
AcDbEntity
  8
M0
100
AcDbLine
 10
150.150983
 20
472.34179
 11
150.150983
 21
464.84179
  0
LINE
  5
293
100
AcDbEntity
  8
M0
100
AcDbLine
 10
139.150983
 20
472.34179
 11
139.150983
 21
464.84179
  0
ARC
  5
294
100
AcDbEntity
  8
M0
100
AcDbCircle
 10
144.650983
 20
464.84179
 40
5.5
100
AcDbArc
 50
180.0
 51
360.0
  0
ARC
  5
295
100
AcDbEntity
  8
M0
100
AcDbCircle
 10
144.650983
 20
389.841881
 40
5.5
100
AcDbArc
 50
0.0
 51
179.99997
  0
ARC
  5
296
100
AcDbEntity
  8
M0
100
AcDbCircle
 10
189.650983
 20
464.84179
 40
5.5
100
AcDbArc
 50
180.0
 51
269.999841
  0
LINE
  5
297
100
AcDbEntity
  8
M0
100
AcDbLine
 10
189.650983
 20
459.341729
 11
191.528699
 21
459.341729
  0
LINE
  5
298
100
AcDbEntity
  8
M0
100
AcDbLine
 10
184.150983
 20
472.34179
 11
184.150983
 21
464.84179
  0
ARC
  5
299
100
AcDbEntity
  8
M0
100
AcDbCircle
 10
189.650983
 20
389.841973
 40
5.5
100
AcDbArc
 50
90.0
 51
179.99997
  0
LINE
  5
29A
100
AcDbEntity
  8
M0
100
AcDbLine
 10
189.650983
 20
395.341973
 11
190.150067
 21
395.341973
  0
LINE
  5
29B
100
AcDbEntity
  8
M0
100
AcDbLine
 10
184.150983
 20
389.841973
 11
184.150983
 21
382.341881
  0
ARC
  5
29C
100
AcDbEntity
  8
M0
100
AcDbCircle
 10
99.651013
 20
464.841729
 40
5.5
100
AcDbArc
 50
-67.694523
 51
0.0
  0
LINE
  5
29D
100
AcDbEntity
  8
M0
100
AcDbLine
 10
84.650983
 20
459.341729
 11
92.83566
 21
459.341729
  0
LINE
  5
29E
100
AcDbEntity
  8
M0
100
AcDbLine
 10
105.150998
 20
472.34179
 11
105.150998
 21
464.84179
  0
ARC
  5
29F
100
AcDbEntity
  8
M0
100
AcDbCircle
 10
99.651013
 20
389.841973
 40
5.5
100
AcDbArc
 50
0.0
 51
90.0
  0
LINE
  5
2A0
100
AcDbEntity
  8
M0
100
AcDbLine
 10
84.650983
 20
395.341973
 11
99.650998
 21
395.341973
  0
LINE
  5
2A1
100
AcDbEntity
  8
M0
100
AcDbLine
 10
105.150998
 20
389.841958
 11
105.150998
 21
382.341881
  0
CIRCLE
  5
2A2
100
AcDbEntity
  8
M0
100
AcDbCircle
 10
189.650983
 20
464.84179
 40
2.5
  0
LINE
  5
2A3
100
AcDbEntity
  8
M0
  6
DASHDOT
100
AcDbLine
 10
177.150983
 20
464.84179
 11
202.150983
 21
464.84179
  0
LINE
  5
2A4
100
AcDbEntity
  8
M0
  6
DASHDOT
100
AcDbLine
 10
189.650983
 20
455.341729
 11
189.650983
 21
477.341729
  0
CIRCLE
  5
2A5
100
AcDbEntity
  8
M0
100
AcDbCircle
 10
189.650983
 20
389.841973
 40
2.5
  0
LINE
  5
2A6
100
AcDbEntity
  8
M0
  6
DASHDOT
100
AcDbLine
 10
177.150983
 20
389.841973
 11
202.150983
 21
389.841973
  0
LINE
  5
2A7
100
AcDbEntity
  8
M0
  6
DASHDOT
100
AcDbLine
 10
189.650983
 20
377.341973
 11
189.650983
 21
402.341973
  0
CIRCLE
  5
2A8
100
AcDbEntity
  8
M0
100
AcDbCircle
 10
144.650983
 20
389.841881
 40
2.5
  0
LINE
  5
2A9
100
AcDbEntity
  8
M0
  6
DASHDOT
100
AcDbLine
 10
132.150983
 20
389.841881
 11
157.150983
 21
389.841881
  0
CIRCLE
  5
2AA
100
AcDbEntity
  8
M0
100
AcDbCircle
 10
144.650983
 20
464.84179
 40
2.5
  0
LINE
  5
2AB
100
AcDbEntity
  8
M0
  6
DASHDOT
100
AcDbLine
 10
132.150983
 20
464.84179
 11
157.150983
 21
464.84179
  0
LINE
  5
2AC
100
AcDbEntity
  8
M0
  6
DASHDOT
100
AcDbLine
 10
144.650983
 20
376.814278
 11
144.650983
 21
477.34179
  0
CIRCLE
  5
2AD
100
AcDbEntity
  8
M0
100
AcDbCircle
 10
99.651013
 20
464.84179
 40
2.5
  0
LINE
  5
2AE
100
AcDbEntity
  8
M0
  6
DASHDOT
100
AcDbLine
 10
87.151013
 20
464.84179
 11
112.151013
 21
464.84179
  0
LINE
  5
2AF
100
AcDbEntity
  8
M0
  6
DASHDOT
100
AcDbLine
 10
99.651013
 20
459.837579
 11
99.651013
 21
477.341729
  0
CIRCLE
  5
2B0
100
AcDbEntity
  8
M0
100
AcDbCircle
 10
99.651013
 20
389.841973
 40
2.5
  0
LINE
  5
2B1
100
AcDbEntity
  8
M0
  6
DASHDOT
100
AcDbLine
 10
87.151013
 20
389.841973
 11
112.151013
 21
389.841973
  0
LINE
  5
2B2
100
AcDbEntity
  8
M0
  6
DASHDOT
100
AcDbLine
 10
99.651013
 20
377.341973
 11
99.651013
 21
402.341973
  0
LINE
  5
2B3
100
AcDbEntity
  8
M0
100
AcDbLine
 10
199.150449
 20
395.341973
 11
204.650983
 21
395.341973
  0
CIRCLE
  5
2B4
100
AcDbEntity
  8
M0
 62
     6
100
AcDbCircle
 10
93.654095
 20
399.338067
 40
3.0
  0
LINE
  5
2B5
100
AcDbEntity
  8
M0
 62
     6
100
AcDbLine
 10
90.55737
 20
402.837975
 11
89.879086
 21
400.638116
  0
LINE
  5
2B6
100
AcDbEntity
  8
M0
 62
     6
100
AcDbLine
 10
90.69534
 20
395.390816
 11
89.879086
 21
398.03814
  0
LINE
  5
2B7
100
AcDbEntity
  8
M0
 62
     6
100
AcDbLine
 10
96.750775
 20
402.837975
 11
97.429089
 21
400.638116
  0
LINE
  5
2B8
100
AcDbEntity
  8
M0
 62
     6
100
AcDbLine
 10
96.61282
 20
395.390801
 11
97.429089
 21
398.03814
  0
LINE
  5
2B9
100
AcDbEntity
  8
M0
 62
     6
100
AcDbLine
 10
91.173138
 20
395.03814
 11
96.135007
 21
395.03814
  0
LINE
  5
2BA
100
AcDbEntity
  8
M0
 62
     6
100
AcDbLine
 10
97.429089
 20
398.03814
 11
97.429089
 21
400.638116
  0
LINE
  5
2BB
100
AcDbEntity
  8
M0
 62
     6
100
AcDbLine
 10
89.879086
 20
400.638116
 11
89.879086
 21
398.03814
  0
LINE
  5
2BC
100
AcDbEntity
  8
M0
  6
DASHDOT
 62
     6
100
AcDbLine
 10
87.379086
 20
399.338067
 11
99.929089
 21
399.338067
  0
LINE
  5
2BD
100
AcDbEntity
  8
M0
  6
DASHDOT
 62
     6
100
AcDbLine
 10
93.654095
 20
392.538155
 11
93.654095
 21
406.138116
  0
LINE
  5
2BE
100
AcDbEntity
  8
M0
 62
     6
100
AcDbLine
 10
95.24487
 20
397.747246
 11
92.063061
 21
400.929009
  0
LINE
  5
2BF
100
AcDbEntity
  8
M0
 62
     6
100
AcDbLine
 10
94.007504
 20
400.752251
 11
92.239835
 21
398.984551
  0
LINE
  5
2C0
100
AcDbEntity
  8
M0
 62
     6
100
AcDbLine
 10
95.068112
 20
399.691582
 11
93.300488
 21
397.924004
  0
ARC
  5
2C1
100
AcDbEntity
  8
M0
 62
     6
100
AcDbCircle
 10
91.173138
 20
395.53814
 40
0.5
100
AcDbArc
 50
197.137551
 51
270.0
  0
ARC
  5
2C2
100
AcDbEntity
  8
M0
 62
     6
100
AcDbCircle
 10
96.135007
 20
395.53814
 40
0.5
100
AcDbArc
 50
270.0
 51
342.861653
  0
CIRCLE
  5
2C3
100
AcDbEntity
  8
M0
 62
     6
100
AcDbCircle
 10
93.654095
 20
407.338067
 40
3.0
  0
LINE
  5
2C4
100
AcDbEntity
  8
M0
 62
     6
100
AcDbLine
 10
90.69534
 20
411.285409
 11
89.879086
 21
408.638116
  0
LINE
  5
2C5
100
AcDbEntity
  8
M0
 62
     6
100
AcDbLine
 10
90.69534
 20
403.390816
 11
89.879086
 21
406.03814
  0
LINE
  5
2C6
100
AcDbEntity
  8
M0
 62
     6
100
AcDbLine
 10
96.61282
 20
411.285424
 11
97.429089
 21
408.638116
  0
LINE
  5
2C7
100
AcDbEntity
  8
M0
 62
     6
100
AcDbLine
 10
96.61282
 20
403.390801
 11
97.429089
 21
406.03814
  0
LINE
  5
2C8
100
AcDbEntity
  8
M0
 62
     6
100
AcDbLine
 10
91.173138
 20
403.03814
 11
96.135007
 21
403.03814
  0
LINE
  5
2C9
100
AcDbEntity
  8
M0
 62
     6
100
AcDbLine
 10
97.429089
 20
406.03814
 11
97.429089
 21
408.638116
  0
LINE
  5
2CA
100
AcDbEntity
  8
M0
 62
     6
100
AcDbLine
 10
96.135007
 20
411.638116
 11
91.173138
 21
411.6381
  0
LINE
  5
2CB
100
AcDbEntity
  8
M0
 62
     6
100
AcDbLine
 10
89.879086
 20
408.638116
 11
89.879086
 21
406.03814
  0
LINE
  5
2CC
100
AcDbEntity
  8
M0
  6
DASHDOT
 62
     6
100
AcDbLine
 10
87.379086
 20
407.338067
 11
99.929089
 21
407.338067
  0
LINE
  5
2CD
100
AcDbEntity
  8
M0
  6
DASHDOT
 62
     6
100
AcDbLine
 10
93.654095
 20
400.538155
 11
93.654095
 21
414.138116
  0
LINE
  5
2CE
100
AcDbEntity
  8
M0
 62
     6
100
AcDbLine
 10
95.24487
 20
405.747246
 11
92.063061
 21
408.929009
  0
LINE
  5
2CF
100
AcDbEntity
  8
M0
 62
     6
100
AcDbLine
 10
94.007504
 20
408.752251
 11
92.239835
 21
406.984551
  0
LINE
  5
2D0
100
AcDbEntity
  8
M0
 62
     6
100
AcDbLine
 10
95.068112
 20
407.691582
 11
93.300488
 21
405.924004
  0
ARC
  5
2D1
100
AcDbEntity
  8
M0
 62
     6
100
AcDbCircle
 10
91.173138
 20
411.1381
 40
0.5
100
AcDbArc
 50
90.0
 51
162.865663
  0
ARC
  5
2D2
100
AcDbEntity
  8
M0
 62
     6
100
AcDbCircle
 10
91.173138
 20
403.53814
 40
0.5
100
AcDbArc
 50
197.137551
 51
270.0
  0
ARC
  5
2D3
100
AcDbEntity
  8
M0
 62
     6
100
AcDbCircle
 10
96.135007
 20
403.53814
 40
0.5
100
AcDbArc
 50
270.0
 51
342.861653
  0
ARC
  5
2D4
100
AcDbEntity
  8
M0
 62
     6
100
AcDbCircle
 10
96.135007
 20
411.1381
 40
0.5
100
AcDbArc
 50
17.134787
 51
90.0
  0
CIRCLE
  5
2D5
100
AcDbEntity
  8
M0
 62
     6
100
AcDbCircle
 10
103.654095
 20
407.338067
 40
3.0
  0
LINE
  5
2D6
100
AcDbEntity
  8
M0
 62
     6
100
AcDbLine
 10
100.69534
 20
411.285409
 11
99.879086
 21
408.638116
  0
LINE
  5
2D7
100
AcDbEntity
  8
M0
 62
     6
100
AcDbLine
 10
100.69534
 20
403.390816
 11
99.879086
 21
406.03814
  0
LINE
  5
2D8
100
AcDbEntity
  8
M0
 62
     6
100
AcDbLine
 10
106.61282
 20
411.285424
 11
107.429089
 21
408.638116
  0
LINE
  5
2D9
100
AcDbEntity
  8
M0
 62
     6
100
AcDbLine
 10
106.61282
 20
403.390801
 11
107.429089
 21
406.03814
  0
LINE
  5
2DA
100
AcDbEntity
  8
M0
 62
     6
100
AcDbLine
 10
101.173138
 20
403.03814
 11
106.135007
 21
403.03814
  0
LINE
  5
2DB
100
AcDbEntity
  8
M0
 62
     6
100
AcDbLine
 10
107.429089
 20
406.03814
 11
107.429089
 21
408.638116
  0
LINE
  5
2DC
100
AcDbEntity
  8
M0
 62
     6
100
AcDbLine
 10
106.135007
 20
411.638116
 11
101.173138
 21
411.6381
  0
LINE
  5
2DD
100
AcDbEntity
  8
M0
 62
     6
100
AcDbLine
 10
99.879086
 20
408.638116
 11
99.879086
 21
406.03814
  0
LINE
  5
2DE
100
AcDbEntity
  8
M0
  6
DASHDOT
 62
     6
100
AcDbLine
 10
97.379086
 20
407.338067
 11
109.929089
 21
407.338067
  0
LINE
  5
2DF
100
AcDbEntity
  8
M0
  6
DASHDOT
 62
     6
100
AcDbLine
 10
103.654095
 20
400.538155
 11
103.654095
 21
414.138116
  0
LINE
  5
2E0
100
AcDbEntity
  8
M0
 62
     6
100
AcDbLine
 10
105.24487
 20
405.747246
 11
102.063061
 21
408.929009
  0
LINE
  5
2E1
100
AcDbEntity
  8
M0
 62
     6
100
AcDbLine
 10
104.007504
 20
408.752251
 11
102.239835
 21
406.984551
  0
LINE
  5
2E2
100
AcDbEntity
  8
M0
 62
     6
100
AcDbLine
 10
105.068112
 20
407.691582
 11
103.300488
 21
405.924004
  0
ARC
  5
2E3
100
AcDbEntity
  8
M0
 62
     6
100
AcDbCircle
 10
101.173138
 20
411.1381
 40
0.5
100
AcDbArc
 50
90.0
 51
162.865663
  0
ARC
  5
2E4
100
AcDbEntity
  8
M0
 62
     6
100
AcDbCircle
 10
101.173138
 20
403.53814
 40
0.5
100
AcDbArc
 50
197.137551
 51
270.0
  0
ARC
  5
2E5
100
AcDbEntity
  8
M0
 62
     6
100
AcDbCircle
 10
106.135007
 20
403.53814
 40
0.5
100
AcDbArc
 50
270.0
 51
342.861653
  0
ARC
  5
2E6
100
AcDbEntity
  8
M0
 62
     6
100
AcDbCircle
 10
106.135007
 20
411.1381
 40
0.5
100
AcDbArc
 50
17.134787
 51
90.0
  0
CIRCLE
  5
2E7
100
AcDbEntity
  8
M0
 62
     6
100
AcDbCircle
 10
113.654095
 20
407.338067
 40
3.0
  0
LINE
  5
2E8
100
AcDbEntity
  8
M0
 62
     6
100
AcDbLine
 10
110.69534
 20
411.285409
 11
109.879086
 21
408.638116
  0
LINE
  5
2E9
100
AcDbEntity
  8
M0
 62
     6
100
AcDbLine
 10
110.69534
 20
403.390816
 11
109.879086
 21
406.03814
  0
LINE
  5
2EA
100
AcDbEntity
  8
M0
 62
     6
100
AcDbLine
 10
116.61282
 20
411.285424
 11
117.429089
 21
408.638116
  0
LINE
  5
2EB
100
AcDbEntity
  8
M0
 62
     6
100
AcDbLine
 10
116.61282
 20
403.390801
 11
117.429089
 21
406.03814
  0
LINE
  5
2EC
100
AcDbEntity
  8
M0
 62
     6
100
AcDbLine
 10
111.173138
 20
403.03814
 11
116.135007
 21
403.03814
  0
LINE
  5
2ED
100
AcDbEntity
  8
M0
 62
     6
100
AcDbLine
 10
117.429089
 20
406.03814
 11
117.429089
 21
408.638116
  0
LINE
  5
2EE
100
AcDbEntity
  8
M0
 62
     6
100
AcDbLine
 10
116.135007
 20
411.638116
 11
111.173138
 21
411.6381
  0
LINE
  5
2EF
100
AcDbEntity
  8
M0
 62
     6
100
AcDbLine
 10
109.879086
 20
408.638116
 11
109.879086
 21
406.03814
  0
LINE
  5
2F0
100
AcDbEntity
  8
M0
  6
DASHDOT
 62
     6
100
AcDbLine
 10
107.379086
 20
407.338067
 11
119.929089
 21
407.338067
  0
LINE
  5
2F1
100
AcDbEntity
  8
M0
 62
     6
100
AcDbLine
 10
115.24487
 20
405.747246
 11
112.063061
 21
408.929009
  0
LINE
  5
2F2
100
AcDbEntity
  8
M0
 62
     6
100
AcDbLine
 10
114.007504
 20
408.752251
 11
112.239835
 21
406.984551
  0
LINE
  5
2F3
100
AcDbEntity
  8
M0
 62
     6
100
AcDbLine
 10
115.068112
 20
407.691582
 11
113.300488
 21
405.924004
  0
ARC
  5
2F4
100
AcDbEntity
  8
M0
 62
     6
100
AcDbCircle
 10
111.173138
 20
411.1381
 40
0.5
100
AcDbArc
 50
90.0
 51
162.865663
  0
ARC
  5
2F5
100
AcDbEntity
  8
M0
 62
     6
100
AcDbCircle
 10
111.173138
 20
403.53814
 40
0.5
100
AcDbArc
 50
197.137551
 51
270.0
  0
ARC
  5
2F6
100
AcDbEntity
  8
M0
 62
     6
100
AcDbCircle
 10
116.135007
 20
403.53814
 40
0.5
100
AcDbArc
 50
270.0
 51
342.861653
  0
ARC
  5
2F7
100
AcDbEntity
  8
M0
 62
     6
100
AcDbCircle
 10
116.135007
 20
411.1381
 40
0.5
100
AcDbArc
 50
17.134787
 51
90.0
  0
CIRCLE
  5
2F8
100
AcDbEntity
  8
M0
 62
     6
100
AcDbCircle
 10
123.654095
 20
407.338067
 40
3.0
  0
LINE
  5
2F9
100
AcDbEntity
  8
M0
 62
     6
100
AcDbLine
 10
120.69534
 20
411.285409
 11
119.879086
 21
408.638116
  0
LINE
  5
2FA
100
AcDbEntity
  8
M0
 62
     6
100
AcDbLine
 10
120.69534
 20
403.390816
 11
119.879086
 21
406.03814
  0
LINE
  5
2FB
100
AcDbEntity
  8
M0
 62
     6
100
AcDbLine
 10
126.61282
 20
411.285424
 11
127.429089
 21
408.638116
  0
LINE
  5
2FC
100
AcDbEntity
  8
M0
 62
     6
100
AcDbLine
 10
126.61282
 20
403.390801
 11
127.429089
 21
406.03814
  0
LINE
  5
2FD
100
AcDbEntity
  8
M0
 62
     6
100
AcDbLine
 10
121.173138
 20
403.03814
 11
126.135007
 21
403.03814
  0
LINE
  5
2FE
100
AcDbEntity
  8
M0
 62
     6
100
AcDbLine
 10
127.429089
 20
406.03814
 11
127.429089
 21
408.638116
  0
LINE
  5
2FF
100
AcDbEntity
  8
M0
 62
     6
100
AcDbLine
 10
126.135007
 20
411.638116
 11
121.173138
 21
411.6381
  0
LINE
  5
300
100
AcDbEntity
  8
M0
 62
     6
100
AcDbLine
 10
119.879086
 20
408.638116
 11
119.879086
 21
406.03814
  0
LINE
  5
301
100
AcDbEntity
  8
M0
  6
DASHDOT
 62
     6
100
AcDbLine
 10
117.379086
 20
407.338067
 11
129.929089
 21
407.338067
  0
LINE
  5
302
100
AcDbEntity
  8
M0
  6
DASHDOT
 62
     6
100
AcDbLine
 10
123.654095
 20
400.538155
 11
123.654095
 21
414.138116
  0
LINE
  5
303
100
AcDbEntity
  8
M0
 62
     6
100
AcDbLine
 10
125.24487
 20
405.747246
 11
122.063061
 21
408.929009
  0
LINE
  5
304
100
AcDbEntity
  8
M0
 62
     6
100
AcDbLine
 10
124.007504
 20
408.752251
 11
122.239835
 21
406.984551
  0
LINE
  5
305
100
AcDbEntity
  8
M0
 62
     6
100
AcDbLine
 10
125.068112
 20
407.691582
 11
123.300488
 21
405.924004
  0
ARC
  5
306
100
AcDbEntity
  8
M0
 62
     6
100
AcDbCircle
 10
121.173138
 20
411.1381
 40
0.5
100
AcDbArc
 50
90.0
 51
162.865663
  0
ARC
  5
307
100
AcDbEntity
  8
M0
 62
     6
100
AcDbCircle
 10
121.173138
 20
403.53814
 40
0.5
100
AcDbArc
 50
197.137551
 51
270.0
  0
ARC
  5
308
100
AcDbEntity
  8
M0
 62
     6
100
AcDbCircle
 10
126.135007
 20
403.53814
 40
0.5
100
AcDbArc
 50
270.0
 51
342.861653
  0
ARC
  5
309
100
AcDbEntity
  8
M0
 62
     6
100
AcDbCircle
 10
126.135007
 20
411.1381
 40
0.5
100
AcDbArc
 50
17.134787
 51
90.0
  0
CIRCLE
  5
30A
100
AcDbEntity
  8
M0
 62
     6
100
AcDbCircle
 10
103.654095
 20
447.337579
 40
3.0
  0
LINE
  5
30B
100
AcDbEntity
  8
M0
 62
     6
100
AcDbLine
 10
100.69534
 20
451.28492
 11
99.879086
 21
448.637627
  0
LINE
  5
30C
100
AcDbEntity
  8
M0
 62
     6
100
AcDbLine
 10
100.69534
 20
443.390328
 11
99.879086
 21
446.037652
  0
LINE
  5
30D
100
AcDbEntity
  8
M0
 62
     6
100
AcDbLine
 10
106.61282
 20
451.284936
 11
107.429089
 21
448.637627
  0
LINE
  5
30E
100
AcDbEntity
  8
M0
 62
     6
100
AcDbLine
 10
106.61282
 20
443.390313
 11
107.429089
 21
446.037652
  0
LINE
  5
30F
100
AcDbEntity
  8
M0
 62
     6
100
AcDbLine
 10
101.173138
 20
443.037652
 11
106.135007
 21
443.037652
  0
LINE
  5
310
100
AcDbEntity
  8
M0
 62
     6
100
AcDbLine
 10
107.429089
 20
446.037652
 11
107.429089
 21
448.637627
  0
LINE
  5
311
100
AcDbEntity
  8
M0
 62
     6
100
AcDbLine
 10
106.135007
 20
451.637627
 11
101.173138
 21
451.637612
  0
LINE
  5
312
100
AcDbEntity
  8
M0
 62
     6
100
AcDbLine
 10
99.879086
 20
448.637627
 11
99.879086
 21
446.037652
  0
LINE
  5
313
100
AcDbEntity
  8
M0
  6
DASHDOT
 62
     6
100
AcDbLine
 10
97.379086
 20
447.337579
 11
109.929089
 21
447.337579
  0
LINE
  5
314
100
AcDbEntity
  8
M0
  6
DASHDOT
 62
     6
100
AcDbLine
 10
103.654095
 20
440.537667
 11
103.654095
 21
454.137627
  0
LINE
  5
315
100
AcDbEntity
  8
M0
 62
     6
100
AcDbLine
 10
105.24487
 20
445.746758
 11
102.063061
 21
448.928521
  0
LINE
  5
316
100
AcDbEntity
  8
M0
 62
     6
100
AcDbLine
 10
104.007504
 20
448.751763
 11
102.239835
 21
446.984063
  0
LINE
  5
317
100
AcDbEntity
  8
M0
 62
     6
100
AcDbLine
 10
105.068112
 20
447.691094
 11
103.300488
 21
445.923516
  0
ARC
  5
318
100
AcDbEntity
  8
M0
 62
     6
100
AcDbCircle
 10
101.173138
 20
451.137612
 40
0.5
100
AcDbArc
 50
90.0
 51
162.865663
  0
ARC
  5
319
100
AcDbEntity
  8
M0
 62
     6
100
AcDbCircle
 10
101.173138
 20
443.537652
 40
0.5
100
AcDbArc
 50
197.137551
 51
270.0
  0
ARC
  5
31A
100
AcDbEntity
  8
M0
 62
     6
100
AcDbCircle
 10
106.135007
 20
443.537652
 40
0.5
100
AcDbArc
 50
270.0
 51
342.861653
  0
ARC
  5
31B
100
AcDbEntity
  8
M0
 62
     6
100
AcDbCircle
 10
106.135007
 20
451.137612
 40
0.5
100
AcDbArc
 50
17.134787
 51
90.0
  0
CIRCLE
  5
31C
100
AcDbEntity
  8
M0
 62
     6
100
AcDbCircle
 10
113.654095
 20
447.337579
 40
3.0
  0
LINE
  5
31D
100
AcDbEntity
  8
M0
 62
     6
100
AcDbLine
 10
110.69534
 20
451.28492
 11
109.879086
 21
448.637627
  0
LINE
  5
31E
100
AcDbEntity
  8
M0
 62
     6
100
AcDbLine
 10
110.69534
 20
443.390328
 11
109.879086
 21
446.037652
  0
LINE
  5
31F
100
AcDbEntity
  8
M0
 62
     6
100
AcDbLine
 10
116.61282
 20
451.284936
 11
117.429089
 21
448.637627
  0
LINE
  5
320
100
AcDbEntity
  8
M0
 62
     6
100
AcDbLine
 10
116.61282
 20
443.390313
 11
117.429089
 21
446.037652
  0
LINE
  5
321
100
AcDbEntity
  8
M0
 62
     6
100
AcDbLine
 10
111.173138
 20
443.037652
 11
116.135007
 21
443.037652
  0
LINE
  5
322
100
AcDbEntity
  8
M0
 62
     6
100
AcDbLine
 10
117.429089
 20
446.037652
 11
117.429089
 21
448.637627
  0
LINE
  5
323
100
AcDbEntity
  8
M0
 62
     6
100
AcDbLine
 10
116.135007
 20
451.637627
 11
111.173138
 21
451.637612
  0
LINE
  5
324
100
AcDbEntity
  8
M0
 62
     6
100
AcDbLine
 10
109.879086
 20
448.637627
 11
109.879086
 21
446.037652
  0
LINE
  5
325
100
AcDbEntity
  8
M0
  6
DASHDOT
 62
     6
100
AcDbLine
 10
107.379086
 20
447.337579
 11
119.929089
 21
447.337579
  0
LINE
  5
326
100
AcDbEntity
  8
M0
 62
     6
100
AcDbLine
 10
115.24487
 20
445.746758
 11
112.063061
 21
448.928521
  0
LINE
  5
327
100
AcDbEntity
  8
M0
 62
     6
100
AcDbLine
 10
114.007504
 20
448.751763
 11
112.239835
 21
446.984063
  0
LINE
  5
328
100
AcDbEntity
  8
M0
 62
     6
100
AcDbLine
 10
115.068112
 20
447.691094
 11
113.300488
 21
445.923516
  0
ARC
  5
329
100
AcDbEntity
  8
M0
 62
     6
100
AcDbCircle
 10
111.173138
 20
451.137612
 40
0.5
100
AcDbArc
 50
90.0
 51
162.865663
  0
ARC
  5
32A
100
AcDbEntity
  8
M0
 62
     6
100
AcDbCircle
 10
111.173138
 20
443.537652
 40
0.5
100
AcDbArc
 50
197.137551
 51
270.0
  0
ARC
  5
32B
100
AcDbEntity
  8
M0
 62
     6
100
AcDbCircle
 10
116.135007
 20
443.537652
 40
0.5
100
AcDbArc
 50
270.0
 51
342.861653
  0
ARC
  5
32C
100
AcDbEntity
  8
M0
 62
     6
100
AcDbCircle
 10
116.135007
 20
451.137612
 40
0.5
100
AcDbArc
 50
17.134787
 51
90.0
  0
CIRCLE
  5
32D
100
AcDbEntity
  8
M0
 62
     6
100
AcDbCircle
 10
123.654095
 20
447.337579
 40
3.0
  0
LINE
  5
32E
100
AcDbEntity
  8
M0
 62
     6
100
AcDbLine
 10
120.69534
 20
451.28492
 11
119.879086
 21
448.637627
  0
LINE
  5
32F
100
AcDbEntity
  8
M0
 62
     6
100
AcDbLine
 10
120.69534
 20
443.390328
 11
119.879086
 21
446.037652
  0
LINE
  5
330
100
AcDbEntity
  8
M0
 62
     6
100
AcDbLine
 10
126.61282
 20
451.284936
 11
127.429089
 21
448.637627
  0
LINE
  5
331
100
AcDbEntity
  8
M0
 62
     6
100
AcDbLine
 10
126.61282
 20
443.390313
 11
127.429089
 21
446.037652
  0
LINE
  5
332
100
AcDbEntity
  8
M0
 62
     6
100
AcDbLine
 10
121.173138
 20
443.037652
 11
126.135007
 21
443.037652
  0
LINE
  5
333
100
AcDbEntity
  8
M0
 62
     6
100
AcDbLine
 10
127.429089
 20
446.037652
 11
127.429089
 21
448.637627
  0
LINE
  5
334
100
AcDbEntity
  8
M0
 62
     6
100
AcDbLine
 10
126.135007
 20
451.637627
 11
121.173138
 21
451.637612
  0
LINE
  5
335
100
AcDbEntity
  8
M0
 62
     6
100
AcDbLine
 10
119.879086
 20
448.637627
 11
119.879086
 21
446.037652
  0
LINE
  5
336
100
AcDbEntity
  8
M0
  6
DASHDOT
 62
     6
100
AcDbLine
 10
117.379086
 20
447.337579
 11
129.929089
 21
447.337579
  0
LINE
  5
337
100
AcDbEntity
  8
M0
  6
DASHDOT
 62
     6
100
AcDbLine
 10
123.654095
 20
440.537667
 11
123.654095
 21
454.137627
  0
LINE
  5
338
100
AcDbEntity
  8
M0
 62
     6
100
AcDbLine
 10
125.24487
 20
445.746758
 11
122.063061
 21
448.928521
  0
LINE
  5
339
100
AcDbEntity
  8
M0
 62
     6
100
AcDbLine
 10
124.007504
 20
448.751763
 11
122.239835
 21
446.984063
  0
LINE
  5
33A
100
AcDbEntity
  8
M0
 62
     6
100
AcDbLine
 10
125.068112
 20
447.691094
 11
123.300488
 21
445.923516
  0
ARC
  5
33B
100
AcDbEntity
  8
M0
 62
     6
100
AcDbCircle
 10
121.173138
 20
451.137612
 40
0.5
100
AcDbArc
 50
90.0
 51
162.865663
  0
ARC
  5
33C
100
AcDbEntity
  8
M0
 62
     6
100
AcDbCircle
 10
121.173138
 20
443.537652
 40
0.5
100
AcDbArc
 50
197.137551
 51
270.0
  0
ARC
  5
33D
100
AcDbEntity
  8
M0
 62
     6
100
AcDbCircle
 10
126.135007
 20
443.537652
 40
0.5
100
AcDbArc
 50
270.0
 51
342.861653
  0
ARC
  5
33E
100
AcDbEntity
  8
M0
 62
     6
100
AcDbCircle
 10
126.135007
 20
451.137612
 40
0.5
100
AcDbArc
 50
17.134787
 51
90.0
  0
CIRCLE
  5
33F
100
AcDbEntity
  8
M0
 62
     6
100
AcDbCircle
 10
133.654095
 20
455.337334
 40
3.0
  0
LINE
  5
340
100
AcDbEntity
  8
M0
 62
     6
100
AcDbLine
 10
130.69534
 20
459.284676
 11
129.879086
 21
456.637383
  0
LINE
  5
341
100
AcDbEntity
  8
M0
 62
     6
100
AcDbLine
 10
130.557461
 20
451.837243
 11
129.879086
 21
454.037408
  0
LINE
  5
342
100
AcDbEntity
  8
M0
 62
     6
100
AcDbLine
 10
136.61282
 20
459.284692
 11
137.429089
 21
456.637383
  0
LINE
  5
343
100
AcDbEntity
  8
M0
 62
     6
100
AcDbLine
 10
136.750699
 20
451.837243
 11
137.429089
 21
454.037408
  0
LINE
  5
344
100
AcDbEntity
  8
M0
 62
     6
100
AcDbLine
 10
137.429089
 20
454.037408
 11
137.429089
 21
456.637383
  0
LINE
  5
345
100
AcDbEntity
  8
M0
 62
     6
100
AcDbLine
 10
136.135007
 20
459.637383
 11
131.173138
 21
459.637368
  0
LINE
  5
346
100
AcDbEntity
  8
M0
 62
     6
100
AcDbLine
 10
129.879086
 20
456.637383
 11
129.879086
 21
454.037408
  0
LINE
  5
347
100
AcDbEntity
  8
M0
  6
DASHDOT
 62
     6
100
AcDbLine
 10
127.379086
 20
455.337334
 11
139.929089
 21
455.337334
  0
LINE
  5
348
100
AcDbEntity
  8
M0
  6
DASHDOT
 62
     6
100
AcDbLine
 10
133.654095
 20
448.537423
 11
133.654095
 21
462.137383
  0
LINE
  5
349
100
AcDbEntity
  8
M0
 62
     6
100
AcDbLine
 10
135.24487
 20
453.746514
 11
132.063061
 21
456.928277
  0
LINE
  5
34A
100
AcDbEntity
  8
M0
 62
     6
100
AcDbLine
 10
134.007504
 20
456.751519
 11
132.239835
 21
454.983819
  0
LINE
  5
34B
100
AcDbEntity
  8
M0
 62
     6
100
AcDbLine
 10
135.068112
 20
455.69085
 11
133.300488
 21
453.923272
  0
ARC
  5
34C
100
AcDbEntity
  8
M0
 62
     6
100
AcDbCircle
 10
131.173138
 20
459.137368
 40
0.5
100
AcDbArc
 50
90.0
 51
162.865663
  0
ARC
  5
34D
100
AcDbEntity
  8
M0
 62
     6
100
AcDbCircle
 10
136.135007
 20
459.137368
 40
0.5
100
AcDbArc
 50
17.134787
 51
90.0
  0
CIRCLE
  5
34E
100
AcDbEntity
  8
M0
 62
     6
100
AcDbCircle
 10
133.654095
 20
447.337579
 40
3.0
  0
LINE
  5
34F
100
AcDbEntity
  8
M0
 62
     6
100
AcDbLine
 10
130.69534
 20
451.28492
 11
129.879086
 21
448.637627
  0
LINE
  5
350
100
AcDbEntity
  8
M0
 62
     6
100
AcDbLine
 10
130.69534
 20
443.390328
 11
129.879086
 21
446.037652
  0
LINE
  5
351
100
AcDbEntity
  8
M0
 62
     6
100
AcDbLine
 10
136.61282
 20
451.284936
 11
137.429089
 21
448.637627
  0
LINE
  5
352
100
AcDbEntity
  8
M0
 62
     6
100
AcDbLine
 10
136.61282
 20
443.390313
 11
137.429089
 21
446.037652
  0
LINE
  5
353
100
AcDbEntity
  8
M0
 62
     6
100
AcDbLine
 10
131.173138
 20
443.037652
 11
136.135007
 21
443.037652
  0
LINE
  5
354
100
AcDbEntity
  8
M0
 62
     6
100
AcDbLine
 10
137.429089
 20
446.037652
 11
137.429089
 21
448.637627
  0
LINE
  5
355
100
AcDbEntity
  8
M0
 62
     6
100
AcDbLine
 10
136.135007
 20
451.637627
 11
131.173138
 21
451.637612
  0
LINE
  5
356
100
AcDbEntity
  8
M0
 62
     6
100
AcDbLine
 10
129.879086
 20
448.637627
 11
129.879086
 21
446.037652
  0
LINE
  5
357
100
AcDbEntity
  8
M0
  6
DASHDOT
 62
     6
100
AcDbLine
 10
127.379086
 20
447.337579
 11
139.929089
 21
447.337579
  0
LINE
  5
358
100
AcDbEntity
  8
M0
  6
DASHDOT
 62
     6
100
AcDbLine
 10
133.654095
 20
440.537667
 11
133.654095
 21
454.137627
  0
LINE
  5
359
100
AcDbEntity
  8
M0
 62
     6
100
AcDbLine
 10
135.24487
 20
445.746758
 11
132.063061
 21
448.928521
  0
LINE
  5
35A
100
AcDbEntity
  8
M0
 62
     6
100
AcDbLine
 10
134.007504
 20
448.751763
 11
132.239835
 21
446.984063
  0
LINE
  5
35B
100
AcDbEntity
  8
M0
 62
     6
100
AcDbLine
 10
135.068112
 20
447.691094
 11
133.300488
 21
445.923516
  0
ARC
  5
35C
100
AcDbEntity
  8
M0
 62
     6
100
AcDbCircle
 10
131.173138
 20
451.137612
 40
0.5
100
AcDbArc
 50
90.0
 51
162.865663
  0
ARC
  5
35D
100
AcDbEntity
  8
M0
 62
     6
100
AcDbCircle
 10
131.173138
 20
443.537652
 40
0.5
100
AcDbArc
 50
197.137551
 51
270.0
  0
ARC
  5
35E
100
AcDbEntity
  8
M0
 62
     6
100
AcDbCircle
 10
136.135007
 20
443.537652
 40
0.5
100
AcDbArc
 50
270.0
 51
342.861653
  0
ARC
  5
35F
100
AcDbEntity
  8
M0
 62
     6
100
AcDbCircle
 10
136.135007
 20
451.137612
 40
0.5
100
AcDbArc
 50
17.134787
 51
90.0
  0
LINE
  5
360
100
AcDbEntity
  8
M0
 62
     1
100
AcDbLine
 10
109.054089
 20
395.838143
 11
118.054089
 21
395.838143
  0
ARC
  5
361
100
AcDbEntity
  8
M0
 62
     1
100
AcDbCircle
 10
109.054089
 20
396.838143
 40
1.0
100
AcDbArc
 50
210.003761
 51
270.0
  0
ARC
  5
362
100
AcDbEntity
  8
M0
 62
     1
100
AcDbCircle
 10
118.054089
 20
396.838143
 40
1.0
100
AcDbArc
 50
270.0
 51
329.995752
  0
LINE
  5
363
100
AcDbEntity
  8
M0
 62
     1
100
AcDbLine
 10
110.604092
 20
398.138131
 11
113.654111
 21
398.138131
  0
LINE
  5
364
100
AcDbEntity
  8
M0
 62
     1
100
AcDbLine
 10
116.904095
 20
398.338113
 11
116.904095
 21
399.338052
  0
ARC
  5
365
100
AcDbEntity
  8
M0
 62
     1
100
AcDbCircle
 10
110.604092
 20
398.338128
 40
0.2
100
AcDbArc
 50
179.999727
 51
270.0
  0
ARC
  5
366
100
AcDbEntity
  8
M0
 62
     1
100
AcDbCircle
 10
116.704083
 20
398.338128
 40
0.2
100
AcDbArc
 50
270.0
 51
360.0
  0
LINE
  5
367
100
AcDbEntity
  8
M0
 62
     1
100
AcDbLine
 10
110.40408
 20
399.338052
 11
110.404095
 21
398.338128
  0
LINE
  5
368
100
AcDbEntity
  8
M0
 62
     1
100
AcDbLine
 10
113.654111
 20
398.138131
 11
116.704083
 21
398.138131
  0
LINE
  5
369
100
AcDbEntity
  8
M0
 62
     4
100
AcDbLine
 10
140.154095
 20
398.838082
 11
140.154095
 21
459.338067
  0
LINE
  5
36A
100
AcDbEntity
  8
M0
 62
     4
100
AcDbLine
 10
139.654095
 20
457.338067
 11
138.104047
 21
457.338067
  0
LINE
  5
36B
100
AcDbEntity
  8
M0
 62
     4
100
AcDbLine
 10
87.154095
 20
455.838021
 11
87.154095
 21
395.338052
  0
LINE
  5
36C
100
AcDbEntity
  8
M0
  6
DASHDOT
 62
     4
100
AcDbLine
 10
82.154095
 20
427.338067
 11
145.154095
 21
427.338067
  0
LINE
  5
36D
100
AcDbEntity
  8
M0
  6
DASHDOT
 62
     4
100
AcDbLine
 10
113.654095
 20
389.838067
 11
113.654095
 21
464.838067
  0
LINE
  5
36E
100
AcDbEntity
  8
M0
 62
     4
100
AcDbLine
 10
109.7039
 20
443.338067
 11
109.7039
 21
457.838021
  0
LINE
  5
36F
100
AcDbEntity
  8
M0
 62
     4
100
AcDbLine
 10
117.604047
 20
443.338067
 11
117.604047
 21
457.838052
  0
LINE
  5
370
100
AcDbEntity
  8
M0
 62
     4
100
AcDbLine
 10
109.2039
 20
458.338052
 11
108.104047
 21
458.338052
  0
LINE
  5
371
100
AcDbEntity
  8
M0
 62
     4
100
AcDbLine
 10
110.7039
 20
442.338067
 11
116.604047
 21
442.338067
  0
ARC
  5
372
100
AcDbEntity
  8
M0
 62
     4
100
AcDbCircle
 10
110.7039
 20
443.338067
 40
1.0
100
AcDbArc
 50
180.0
 51
270.0
  0
ARC
  5
373
100
AcDbEntity
  8
M0
 62
     4
100
AcDbCircle
 10
116.604047
 20
443.338067
 40
1.0
100
AcDbArc
 50
269.916016
 51
360.0
  0
ARC
  5
374
100
AcDbEntity
  8
M0
 62
     4
100
AcDbCircle
 10
118.104047
 20
457.838052
 40
0.5
100
AcDbArc
 50
90.0
 51
180.0
  0
ARC
  5
375
100
AcDbEntity
  8
M0
 62
     4
100
AcDbCircle
 10
109.2039
 20
457.838036
 40
0.5
100
AcDbArc
 50
0.0
 51
90.0
  0
LINE
  5
376
100
AcDbEntity
  8
M0
 62
     4
100
AcDbLine
 10
89.2039
 20
456.338036
 11
87.654095
 21
456.338036
  0
LINE
  5
377
100
AcDbEntity
  8
M0
 62
     4
100
AcDbLine
 10
99.2039
 20
458.338036
 11
98.104047
 21
458.338036
  0
LINE
  5
378
100
AcDbEntity
  8
M0
 62
     4
100
AcDbLine
 10
119.2039
 20
458.338052
 11
118.104047
 21
458.338052
  0
LINE
  5
379
100
AcDbEntity
  8
M0
 62
     4
100
AcDbLine
 10
129.2039
 20
458.338052
 11
128.104047
 21
458.338052
  0
ARC
  5
37A
100
AcDbEntity
  8
M0
 62
     4
100
AcDbCircle
 10
139.654095
 20
456.838052
 40
0.5
100
AcDbArc
 50
0.0
 51
90.0
  0
ARC
  5
37B
100
AcDbEntity
  8
M0
 62
     4
100
AcDbCircle
 10
138.104047
 20
456.838052
 40
0.5
100
AcDbArc
 50
90.0
 51
180.0
  0
ARC
  5
37C
100
AcDbEntity
  8
M0
 62
     4
100
AcDbCircle
 10
128.104047
 20
457.838052
 40
0.5
100
AcDbArc
 50
90.0
 51
180.0
  0
ARC
  5
37D
100
AcDbEntity
  8
M0
 62
     4
100
AcDbCircle
 10
108.104047
 20
457.838036
 40
0.5
100
AcDbArc
 50
90.0
 51
180.0
  0
ARC
  5
37E
100
AcDbEntity
  8
M0
 62
     4
100
AcDbCircle
 10
98.104047
 20
457.838021
 40
0.5
100
AcDbArc
 50
90.0
 51
180.0
  0
ARC
  5
37F
100
AcDbEntity
  8
M0
 62
     4
100
AcDbCircle
 10
87.654095
 20
455.838021
 40
0.5
100
AcDbArc
 50
89.998251
 51
180.0
  0
LINE
  5
380
100
AcDbEntity
  8
M0
 62
     4
100
AcDbLine
 10
129.7039
 20
451.838067
 11
137.604047
 21
451.838067
  0
LINE
  5
381
100
AcDbEntity
  8
M0
 62
     4
100
AcDbLine
 10
119.7039
 20
451.838067
 11
127.604047
 21
451.838067
  0
LINE
  5
382
100
AcDbEntity
  8
M0
 62
     4
100
AcDbLine
 10
109.7039
 20
451.838067
 11
117.604047
 21
451.838067
  0
LINE
  5
383
100
AcDbEntity
  8
M0
 62
     4
100
AcDbLine
 10
99.7039
 20
451.838067
 11
107.604047
 21
451.838067
  0
LINE
  5
384
100
AcDbEntity
  8
M0
 62
     4
100
AcDbLine
 10
97.604047
 20
451.838067
 11
89.7039
 21
451.838067
  0
LINE
  5
385
100
AcDbEntity
  8
M0
 62
     4
100
AcDbLine
 10
99.7039
 20
455.338067
 11
107.604047
 21
455.338067
  0
LINE
  5
386
100
AcDbEntity
  8
M0
 62
     4
100
AcDbLine
 10
109.7039
 20
455.338067
 11
117.604047
 21
455.338067
  0
LINE
  5
387
100
AcDbEntity
  8
M0
 62
     4
100
AcDbLine
 10
119.7039
 20
455.338067
 11
127.604047
 21
455.338067
  0
LINE
  5
388
100
AcDbEntity
  8
M0
 62
     4
100
AcDbLine
 10
128.104047
 20
459.838067
 11
139.654095
 21
459.838067
  0
ARC
  5
389
100
AcDbEntity
  8
M0
 62
     4
100
AcDbCircle
 10
128.104047
 20
459.338067
 40
0.5
100
AcDbArc
 50
90.0
 51
180.0
  0
ARC
  5
38A
100
AcDbEntity
  8
M0
 62
     4
100
AcDbCircle
 10
139.654095
 20
459.338067
 40
0.5
100
AcDbArc
 50
0.0
 51
90.0
  0
ARC
  5
38B
100
AcDbEntity
  8
M0
 62
     4
100
AcDbCircle
 10
138.104047
 20
459.338067
 40
0.5
100
AcDbArc
 50
90.0
 51
180.0
  0
LINE
  5
38C
100
AcDbEntity
  8
M0
 62
     4
100
AcDbLine
 10
125.315961
 20
455.338067
 11
127.666547
 21
459.580376
  0
ARC
  5
38D
100
AcDbEntity
  8
M0
 62
     4
100
AcDbCircle
 10
87.654095
 20
395.338052
 40
0.5
100
AcDbArc
 50
179.998251
 51
270.0
  0
LINE
  5
38E
100
AcDbEntity
  8
M0
 62
     4
100
AcDbLine
 10
119.7039
 20
443.338067
 11
119.7039
 21
457.838021
  0
ARC
  5
38F
100
AcDbEntity
  8
M0
 62
     4
100
AcDbCircle
 10
120.7039
 20
443.338067
 40
1.0
100
AcDbArc
 50
180.0
 51
269.930004
  0
LINE
  5
390
100
AcDbEntity
  8
M0
 62
     4
100
AcDbLine
 10
120.7039
 20
442.338067
 11
126.604047
 21
442.338067
  0
ARC
  5
391
100
AcDbEntity
  8
M0
 62
     4
100
AcDbCircle
 10
126.604047
 20
443.338067
 40
1.0
100
AcDbArc
 50
269.916016
 51
360.0
  0
LINE
  5
392
100
AcDbEntity
  8
M0
 62
     4
100
AcDbLine
 10
127.604047
 20
443.338067
 11
127.604047
 21
459.338067
  0
ARC
  5
393
100
AcDbEntity
  8
M0
 62
     4
100
AcDbCircle
 10
119.2039
 20
457.838036
 40
0.5
100
AcDbArc
 50
0.0
 51
90.0
  0
LINE
  5
394
100
AcDbEntity
  8
M0
 62
     4
100
AcDbLine
 10
99.7039
 20
443.338067
 11
99.7039
 21
457.838006
  0
ARC
  5
395
100
AcDbEntity
  8
M0
 62
     4
100
AcDbCircle
 10
100.7039
 20
443.338067
 40
1.0
100
AcDbArc
 50
180.0
 51
269.930059
  0
LINE
  5
396
100
AcDbEntity
  8
M0
 62
     4
100
AcDbLine
 10
100.7039
 20
442.338067
 11
106.604047
 21
442.338067
  0
ARC
  5
397
100
AcDbEntity
  8
M0
 62
     4
100
AcDbCircle
 10
106.604047
 20
443.338067
 40
1.0
100
AcDbArc
 50
269.888094
 51
360.0
  0
LINE
  5
398
100
AcDbEntity
  8
M0
 62
     4
100
AcDbLine
 10
107.604047
 20
443.338067
 11
107.604047
 21
457.838036
  0
ARC
  5
399
100
AcDbEntity
  8
M0
 62
     4
100
AcDbCircle
 10
99.2039
 20
457.838021
 40
0.5
100
AcDbArc
 50
0.0
 51
90.0
  0
LINE
  5
39A
100
AcDbEntity
  8
M0
 62
     4
100
AcDbLine
 10
129.7039
 20
443.338067
 11
129.7039
 21
459.338067
  0
ARC
  5
39B
100
AcDbEntity
  8
M0
 62
     4
100
AcDbCircle
 10
130.7039
 20
443.338067
 40
1.0
100
AcDbArc
 50
180.0
 51
269.929185
  0
LINE
  5
39C
100
AcDbEntity
  8
M0
 62
     4
100
AcDbLine
 10
130.7039
 20
442.338067
 11
136.604047
 21
442.338067
  0
ARC
  5
39D
100
AcDbEntity
  8
M0
 62
     4
100
AcDbCircle
 10
136.604047
 20
443.338067
 40
1.0
100
AcDbArc
 50
269.915196
 51
360.0
  0
LINE
  5
39E
100
AcDbEntity
  8
M0
 62
     4
100
AcDbLine
 10
137.604047
 20
443.338067
 11
137.604047
 21
459.338067
  0
ARC
  5
39F
100
AcDbEntity
  8
M0
 62
     4
100
AcDbCircle
 10
129.2039
 20
457.838036
 40
0.5
100
AcDbArc
 50
0.0
 51
90.0
  0
ARC
  5
3A0
100
AcDbEntity
  8
M0
 62
     4
100
AcDbCircle
 10
129.2039
 20
459.338067
 40
0.5
100
AcDbArc
 50
0.0
 51
90.0
  0
ARC
  5
3A1
100
AcDbEntity
  8
M0
 62
     4
100
AcDbCircle
 10
90.7039
 20
443.338067
 40
1.0
100
AcDbArc
 50
180.0
 51
269.969401
  0
LINE
  5
3A2
100
AcDbEntity
  8
M0
 62
     4
100
AcDbLine
 10
89.7039
 20
443.338067
 11
89.7039
 21
455.838006
  0
LINE
  5
3A3
100
AcDbEntity
  8
M0
 62
     4
100
AcDbLine
 10
90.7039
 20
442.338067
 11
96.604047
 21
442.338067
  0
ARC
  5
3A4
100
AcDbEntity
  8
M0
 62
     4
100
AcDbCircle
 10
96.604047
 20
443.338067
 40
1.0
100
AcDbArc
 50
269.927436
 51
360.0
  0
LINE
  5
3A5
100
AcDbEntity
  8
M0
 62
     4
100
AcDbLine
 10
97.604047
 20
443.338067
 11
97.604047
 21
457.838021
  0
ARC
  5
3A6
100
AcDbEntity
  8
M0
 62
     4
100
AcDbCircle
 10
89.2039
 20
455.838021
 40
0.5
100
AcDbArc
 50
0.0
 51
89.998251
  0
LINE
  5
3A7
100
AcDbEntity
  8
M0
 62
     4
100
AcDbLine
 10
87.654095
 20
397.338067
 11
89.204144
 21
397.338067
  0
LINE
  5
3A8
100
AcDbEntity
  8
M0
 62
     4
100
AcDbLine
 10
117.604291
 20
411.338067
 11
117.604291
 21
396.838113
  0
LINE
  5
3A9
100
AcDbEntity
  8
M0
 62
     4
100
AcDbLine
 10
109.704144
 20
411.338067
 11
109.704144
 21
396.838082
  0
LINE
  5
3AA
100
AcDbEntity
  8
M0
 62
     4
100
AcDbLine
 10
118.104291
 20
396.338082
 11
119.204144
 21
396.338082
  0
LINE
  5
3AB
100
AcDbEntity
  8
M0
 62
     4
100
AcDbLine
 10
116.604291
 20
412.338067
 11
110.704144
 21
412.338067
  0
ARC
  5
3AC
100
AcDbEntity
  8
M0
 62
     4
100
AcDbCircle
 10
116.604291
 20
411.338067
 40
1.0
100
AcDbArc
 50
0.0
 51
90.0
  0
ARC
  5
3AD
100
AcDbEntity
  8
M0
 62
     4
100
AcDbCircle
 10
110.704144
 20
411.338067
 40
1.0
100
AcDbArc
 50
89.916016
 51
179.999945
  0
ARC
  5
3AE
100
AcDbEntity
  8
M0
 62
     4
100
AcDbCircle
 10
109.204144
 20
396.838082
 40
0.5
100
AcDbArc
 50
270.027977
 51
360.0
  0
ARC
  5
3AF
100
AcDbEntity
  8
M0
 62
     4
100
AcDbCircle
 10
118.104291
 20
396.838097
 40
0.5
100
AcDbArc
 50
179.998251
 51
270.027868
  0
LINE
  5
3B0
100
AcDbEntity
  8
M0
 62
     4
100
AcDbLine
 10
138.104291
 20
398.338097
 11
139.654095
 21
398.338097
  0
LINE
  5
3B1
100
AcDbEntity
  8
M0
 62
     4
100
AcDbLine
 10
128.104291
 20
396.338097
 11
129.204144
 21
396.338097
  0
LINE
  5
3B2
100
AcDbEntity
  8
M0
 62
     4
100
AcDbLine
 10
108.104291
 20
396.338082
 11
109.204144
 21
396.338082
  0
LINE
  5
3B3
100
AcDbEntity
  8
M0
 62
     4
100
AcDbLine
 10
98.104291
 20
396.338082
 11
99.204144
 21
396.338082
  0
ARC
  5
3B4
100
AcDbEntity
  8
M0
 62
     4
100
AcDbCircle
 10
89.204144
 20
397.838082
 40
0.5
100
AcDbArc
 50
270.027977
 51
360.0
  0
ARC
  5
3B5
100
AcDbEntity
  8
M0
 62
     4
100
AcDbCircle
 10
99.204144
 20
396.838082
 40
0.5
100
AcDbArc
 50
270.027977
 51
360.0
  0
ARC
  5
3B6
100
AcDbEntity
  8
M0
 62
     4
100
AcDbCircle
 10
119.204144
 20
396.838097
 40
0.5
100
AcDbArc
 50
270.027868
 51
360.0
  0
ARC
  5
3B7
100
AcDbEntity
  8
M0
 62
     4
100
AcDbCircle
 10
129.204144
 20
396.838113
 40
0.5
100
AcDbArc
 50
270.027868
 51
360.0
  0
LINE
  5
3B8
100
AcDbEntity
  8
M0
 62
     4
100
AcDbLine
 10
97.604291
 20
402.838067
 11
89.704144
 21
402.838067
  0
LINE
  5
3B9
100
AcDbEntity
  8
M0
 62
     4
100
AcDbLine
 10
107.604291
 20
402.838067
 11
99.704144
 21
402.838067
  0
LINE
  5
3BA
100
AcDbEntity
  8
M0
 62
     4
100
AcDbLine
 10
117.604291
 20
402.838067
 11
109.704144
 21
402.838067
  0
LINE
  5
3BB
100
AcDbEntity
  8
M0
 62
     4
100
AcDbLine
 10
127.604291
 20
402.838067
 11
119.704144
 21
402.838067
  0
LINE
  5
3BC
100
AcDbEntity
  8
M0
 62
     4
100
AcDbLine
 10
129.704144
 20
402.838067
 11
137.604291
 21
402.838067
  0
LINE
  5
3BD
100
AcDbEntity
  8
M0
 62
     4
100
AcDbLine
 10
127.604291
 20
399.338067
 11
119.704144
 21
399.338067
  0
LINE
  5
3BE
100
AcDbEntity
  8
M0
 62
     4
100
AcDbLine
 10
117.604291
 20
399.338067
 11
109.704144
 21
399.338067
  0
LINE
  5
3BF
100
AcDbEntity
  8
M0
 62
     4
100
AcDbLine
 10
107.604291
 20
399.338067
 11
99.704144
 21
399.338067
  0
LINE
  5
3C0
100
AcDbEntity
  8
M0
 62
     4
100
AcDbLine
 10
99.204144
 20
394.838067
 11
87.654095
 21
394.838052
  0
ARC
  5
3C1
100
AcDbEntity
  8
M0
 62
     4
100
AcDbCircle
 10
99.204144
 20
395.338067
 40
0.5
100
AcDbArc
 50
270.027977
 51
360.0
  0
ARC
  5
3C2
100
AcDbEntity
  8
M0
 62
     4
100
AcDbCircle
 10
89.204144
 20
395.338067
 40
0.5
100
AcDbArc
 50
270.027977
 51
360.0
  0
LINE
  5
3C3
100
AcDbEntity
  8
M0
 62
     4
100
AcDbLine
 10
101.99223
 20
399.338067
 11
99.641644
 21
395.095757
  0
LINE
  5
3C4
100
AcDbEntity
  8
M0
 62
     4
100
AcDbLine
 10
107.604291
 20
411.338067
 11
107.604291
 21
396.838113
  0
ARC
  5
3C5
100
AcDbEntity
  8
M0
 62
     4
100
AcDbCircle
 10
106.604291
 20
411.338067
 40
1.0
100
AcDbArc
 50
0.0
 51
89.943992
  0
LINE
  5
3C6
100
AcDbEntity
  8
M0
 62
     4
100
AcDbLine
 10
106.604291
 20
412.338067
 11
100.704144
 21
412.338067
  0
ARC
  5
3C7
100
AcDbEntity
  8
M0
 62
     4
100
AcDbCircle
 10
100.704144
 20
411.338067
 40
1.0
100
AcDbArc
 50
89.916016
 51
179.999945
  0
LINE
  5
3C8
100
AcDbEntity
  8
M0
 62
     4
100
AcDbLine
 10
99.704144
 20
411.338067
 11
99.704144
 21
395.338067
  0
ARC
  5
3C9
100
AcDbEntity
  8
M0
 62
     4
100
AcDbCircle
 10
108.104291
 20
396.838097
 40
0.5
100
AcDbArc
 50
179.998251
 51
270.027977
  0
LINE
  5
3CA
100
AcDbEntity
  8
M0
 62
     4
100
AcDbLine
 10
127.604291
 20
411.338067
 11
127.604291
 21
396.838128
  0
ARC
  5
3CB
100
AcDbEntity
  8
M0
 62
     4
100
AcDbCircle
 10
126.604291
 20
411.338067
 40
1.0
100
AcDbArc
 50
0.0
 51
89.944047
  0
LINE
  5
3CC
100
AcDbEntity
  8
M0
 62
     4
100
AcDbLine
 10
126.604291
 20
412.338067
 11
120.704144
 21
412.338067
  0
ARC
  5
3CD
100
AcDbEntity
  8
M0
 62
     4
100
AcDbCircle
 10
120.704144
 20
411.338067
 40
1.0
100
AcDbArc
 50
89.888094
 51
179.999945
  0
LINE
  5
3CE
100
AcDbEntity
  8
M0
 62
     4
100
AcDbLine
 10
119.704144
 20
411.338067
 11
119.704144
 21
396.838097
  0
ARC
  5
3CF
100
AcDbEntity
  8
M0
 62
     4
100
AcDbCircle
 10
128.104291
 20
396.838113
 40
0.5
100
AcDbArc
 50
179.998251
 51
270.027868
  0
LINE
  5
3D0
100
AcDbEntity
  8
M0
 62
     4
100
AcDbLine
 10
97.604291
 20
411.338067
 11
97.604291
 21
395.338067
  0
ARC
  5
3D1
100
AcDbEntity
  8
M0
 62
     4
100
AcDbCircle
 10
96.604291
 20
411.338067
 40
1.0
100
AcDbArc
 50
0.0
 51
89.930059
  0
LINE
  5
3D2
100
AcDbEntity
  8
M0
 62
     4
100
AcDbLine
 10
96.604291
 20
412.338067
 11
90.704144
 21
412.338067
  0
ARC
  5
3D3
100
AcDbEntity
  8
M0
 62
     4
100
AcDbCircle
 10
90.704144
 20
411.338067
 40
1.0
100
AcDbArc
 50
89.915196
 51
179.999945
  0
LINE
  5
3D4
100
AcDbEntity
  8
M0
 62
     4
100
AcDbLine
 10
89.704144
 20
411.338067
 11
89.704144
 21
395.338067
  0
ARC
  5
3D5
100
AcDbEntity
  8
M0
 62
     4
100
AcDbCircle
 10
98.104291
 20
396.838097
 40
0.5
100
AcDbArc
 50
179.998251
 51
270.027977
  0
ARC
  5
3D6
100
AcDbEntity
  8
M0
 62
     4
100
AcDbCircle
 10
98.104291
 20
395.338067
 40
0.5
100
AcDbArc
 50
179.998251
 51
270.027977
  0
ARC
  5
3D7
100
AcDbEntity
  8
M0
 62
     4
100
AcDbCircle
 10
136.604291
 20
411.338067
 40
1.0
100
AcDbArc
 50
0.0
 51
89.972024
  0
LINE
  5
3D8
100
AcDbEntity
  8
M0
 62
     4
100
AcDbLine
 10
137.604291
 20
411.338067
 11
137.604291
 21
398.838128
  0
LINE
  5
3D9
100
AcDbEntity
  8
M0
 62
     4
100
AcDbLine
 10
136.604291
 20
412.338067
 11
130.704144
 21
412.338067
  0
ARC
  5
3DA
100
AcDbEntity
  8
M0
 62
     4
100
AcDbCircle
 10
130.704144
 20
411.338067
 40
1.0
100
AcDbArc
 50
89.930059
 51
179.999945
  0
LINE
  5
3DB
100
AcDbEntity
  8
M0
 62
     4
100
AcDbLine
 10
129.704144
 20
411.338067
 11
129.704144
 21
396.838113
  0
ARC
  5
3DC
100
AcDbEntity
  8
M0
 62
     4
100
AcDbCircle
 10
138.104291
 20
398.838113
 40
0.5
100
AcDbArc
 50
179.998251
 51
269.998251
  0
ARC
  5
3DD
100
AcDbEntity
  8
M0
 62
     4
100
AcDbCircle
 10
87.654095
 20
397.838082
 40
0.5
100
AcDbArc
 50
179.998251
 51
270.027977
  0
ARC
  5
3DE
100
AcDbEntity
  8
M0
 62
     4
100
AcDbCircle
 10
139.654095
 20
398.838097
 40
0.5
100
AcDbArc
 50
269.998251
 51
360.0
  0
LINE
  5
3DF
100
AcDbEntity
  8
M0
 62
     4
100
AcDbLine
 10
111.154095
 20
424.188058
 11
116.154095
 21
424.188058
  0
LINE
  5
3E0
100
AcDbEntity
  8
M0
 62
     4
100
AcDbLine
 10
116.654095
 20
424.688042
 11
116.654095
 21
429.98803
  0
LINE
  5
3E1
100
AcDbEntity
  8
M0
 62
     4
100
AcDbLine
 10
116.154095
 20
430.488061
 11
111.154095
 21
430.488045
  0
LINE
  5
3E2
100
AcDbEntity
  8
M0
 62
     4
100
AcDbLine
 10
110.654095
 20
429.988045
 11
110.654095
 21
424.688058
  0
ARC
  5
3E3
100
AcDbEntity
  8
M0
 62
     4
100
AcDbCircle
 10
116.154095
 20
424.688058
 40
0.5
100
AcDbArc
 50
270.0
 51
360.0
  0
ARC
  5
3E4
100
AcDbEntity
  8
M0
 62
     4
100
AcDbCircle
 10
116.154095
 20
429.988045
 40
0.5
100
AcDbArc
 50
0.0
 51
90.0
  0
ARC
  5
3E5
100
AcDbEntity
  8
M0
 62
     4
100
AcDbCircle
 10
111.154095
 20
429.988045
 40
0.5
100
AcDbArc
 50
90.0
 51
180.0
  0
ARC
  5
3E6
100
AcDbEntity
  8
M0
 62
     4
100
AcDbCircle
 10
111.154095
 20
424.688058
 40
0.5
100
AcDbArc
 50
179.999891
 51
270.0
  0
LINE
  5
3E7
100
AcDbEntity
  8
M0
 62
     7
100
AcDbLine
 10
102.654095
 20
455.338067
 11
102.653851
 21
458.838052
  0
LINE
  5
3E8
100
AcDbEntity
  8
M0
 62
     7
100
AcDbLine
 10
102.653851
 20
458.838052
 11
101.654095
 21
459.838052
  0
LINE
  5
3E9
100
AcDbEntity
  8
M0
 62
     7
100
AcDbLine
 10
102.654095
 20
399.338158
 11
102.654095
 21
396.838067
  0
LINE
  5
3EA
100
AcDbEntity
  8
M0
 62
     7
100
AcDbLine
 10
104.154095
 20
399.338158
 11
104.154095
 21
398.838067
  0
LINE
  5
3EB
100
AcDbEntity
  8
M0
 62
     7
100
AcDbLine
 10
105.654095
 20
399.338052
 11
105.654095
 21
398.838067
  0
LINE
  5
3EC
100
AcDbEntity
  8
M0
 62
     7
100
AcDbLine
 10
106.654095
 20
399.338052
 11
106.654095
 21
396.838067
  0
LINE
  5
3ED
100
AcDbEntity
  8
M0
 62
     7
100
AcDbLine
 10
126.654095
 20
394.838067
 11
135.154095
 21
394.838067
  0
LINE
  5
3EE
100
AcDbEntity
  8
M0
 62
     7
100
AcDbLine
 10
135.154095
 20
394.838067
 11
135.154095
 21
402.838067
  0
LINE
  5
3EF
100
AcDbEntity
  8
M0
 62
     7
100
AcDbLine
 10
101.654095
 20
459.838052
 11
94.154095
 21
459.838036
  0
LINE
  5
3F0
100
AcDbEntity
  8
M0
 62
     7
100
AcDbLine
 10
92.154095
 20
457.838036
 11
92.154095
 21
451.838052
  0
ARC
  5
3F1
100
AcDbEntity
  8
M0
 62
     7
100
AcDbCircle
 10
94.154095
 20
457.838036
 40
2.0
100
AcDbArc
 50
89.999563
 51
180.0
  0
LINE
  5
3F2
100
AcDbEntity
  8
M0
 62
     7
100
AcDbLine
 10
120.654095
 20
398.838067
 11
120.654095
 21
399.338052
  0
LINE
  5
3F3
100
AcDbEntity
  8
M0
 62
     7
100
AcDbLine
 10
122.154095
 20
396.838067
 11
122.154095
 21
399.338052
  0
LINE
  5
3F4
100
AcDbEntity
  8
M0
 62
     7
100
AcDbLine
 10
102.654095
 20
396.838067
 11
106.654095
 21
396.838067
  0
LINE
  5
3F5
100
AcDbEntity
  8
M0
 62
     7
100
AcDbLine
 10
125.654095
 20
395.838052
 11
125.654095
 21
399.338052
  0
LINE
  5
3F6
100
AcDbEntity
  8
M0
 62
     7
100
AcDbLine
 10
125.654095
 20
395.838052
 11
126.654095
 21
394.838067
  0
LINE
  5
3F7
100
AcDbEntity
  8
M0
 62
     7
100
AcDbLine
 10
124.154095
 20
398.838067
 11
124.154095
 21
399.338052
  0
LINE
  5
3F8
100
AcDbEntity
  8
M0
 62
     7
100
AcDbLine
 10
122.654095
 20
396.838067
 11
122.654095
 21
399.338052
  0
LINE
  5
3F9
100
AcDbEntity
  8
M0
 62
     7
100
AcDbLine
 10
101.654095
 20
396.838067
 11
101.654095
 21
398.727792
  0
LINE
  5
3FA
100
AcDbEntity
  8
M0
 62
     7
100
AcDbLine
 10
119.704144
 20
396.838067
 11
122.154095
 21
396.838067
  0
LINE
  5
3FB
100
AcDbEntity
  8
M0
 62
     7
100
AcDbLine
 10
119.704144
 20
398.838067
 11
120.654095
 21
398.838067
  0
LINE
  5
3FC
100
AcDbEntity
  8
M0
 62
     7
100
AcDbLine
 10
124.154095
 20
398.838067
 11
125.654095
 21
398.838067
  0
LINE
  5
3FD
100
AcDbEntity
  8
M0
 62
     7
100
AcDbLine
 10
122.654095
 20
396.838067
 11
125.654095
 21
396.838067
  0
LINE
  5
3FE
100
AcDbEntity
  8
M0
 62
     7
100
AcDbLine
 10
100.607022
 20
396.838067
 11
101.654095
 21
396.838067
  0
LINE
  5
3FF
100
AcDbEntity
  8
M0
 62
     7
100
AcDbLine
 10
104.154095
 20
398.838067
 11
105.654095
 21
398.838067
  0
CIRCLE
  5
400
100
AcDbEntity
  8
M0
 62
     6
100
AcDbCircle
 10
93.654095
 20
447.337579
 40
3.0
  0
LINE
  5
401
100
AcDbEntity
  8
M0
 62
     6
100
AcDbLine
 10
90.69534
 20
451.28492
 11
89.879086
 21
448.637627
  0
LINE
  5
402
100
AcDbEntity
  8
M0
 62
     6
100
AcDbLine
 10
90.69534
 20
443.390328
 11
89.879086
 21
446.037652
  0
LINE
  5
403
100
AcDbEntity
  8
M0
 62
     6
100
AcDbLine
 10
96.61282
 20
451.284936
 11
97.429089
 21
448.637627
  0
LINE
  5
404
100
AcDbEntity
  8
M0
 62
     6
100
AcDbLine
 10
96.61282
 20
443.390313
 11
97.429089
 21
446.037652
  0
LINE
  5
405
100
AcDbEntity
  8
M0
 62
     6
100
AcDbLine
 10
91.173138
 20
443.037652
 11
96.135007
 21
443.037652
  0
LINE
  5
406
100
AcDbEntity
  8
M0
 62
     6
100
AcDbLine
 10
97.429089
 20
446.037652
 11
97.429089
 21
448.637627
  0
LINE
  5
407
100
AcDbEntity
  8
M0
 62
     6
100
AcDbLine
 10
96.135007
 20
451.637627
 11
91.173138
 21
451.637612
  0
LINE
  5
408
100
AcDbEntity
  8
M0
 62
     6
100
AcDbLine
 10
89.879086
 20
448.637627
 11
89.879086
 21
446.037652
  0
LINE
  5
409
100
AcDbEntity
  8
M0
  6
DASHDOT
 62
     6
100
AcDbLine
 10
87.379086
 20
447.337579
 11
99.929089
 21
447.337579
  0
LINE
  5
40A
100
AcDbEntity
  8
M0
  6
DASHDOT
 62
     6
100
AcDbLine
 10
93.654095
 20
440.537667
 11
93.654095
 21
454.137627
  0
LINE
  5
40B
100
AcDbEntity
  8
M0
 62
     6
100
AcDbLine
 10
95.24487
 20
445.746758
 11
92.063061
 21
448.928521
  0
LINE
  5
40C
100
AcDbEntity
  8
M0
 62
     6
100
AcDbLine
 10
94.007504
 20
448.751763
 11
92.239835
 21
446.984063
  0
LINE
  5
40D
100
AcDbEntity
  8
M0
 62
     6
100
AcDbLine
 10
95.068112
 20
447.691094
 11
93.300488
 21
445.923516
  0
ARC
  5
40E
100
AcDbEntity
  8
M0
 62
     6
100
AcDbCircle
 10
91.173138
 20
451.137612
 40
0.5
100
AcDbArc
 50
90.0
 51
162.865663
  0
ARC
  5
40F
100
AcDbEntity
  8
M0
 62
     6
100
AcDbCircle
 10
91.173138
 20
443.537652
 40
0.5
100
AcDbArc
 50
197.137551
 51
270.0
  0
ARC
  5
410
100
AcDbEntity
  8
M0
 62
     6
100
AcDbCircle
 10
96.135007
 20
443.537652
 40
0.5
100
AcDbArc
 50
270.0
 51
342.861653
  0
ARC
  5
411
100
AcDbEntity
  8
M0
 62
     6
100
AcDbCircle
 10
96.135007
 20
451.137612
 40
0.5
100
AcDbArc
 50
17.134787
 51
90.0
  0
CIRCLE
  5
412
100
AcDbEntity
  8
M0
 62
     6
100
AcDbCircle
 10
133.654095
 20
407.338067
 40
3.0
  0
LINE
  5
413
100
AcDbEntity
  8
M0
 62
     6
100
AcDbLine
 10
130.69534
 20
411.285409
 11
129.879086
 21
408.638116
  0
LINE
  5
414
100
AcDbEntity
  8
M0
 62
     6
100
AcDbLine
 10
130.69534
 20
403.390816
 11
129.879086
 21
406.03814
  0
LINE
  5
415
100
AcDbEntity
  8
M0
 62
     6
100
AcDbLine
 10
136.61282
 20
411.285424
 11
137.429089
 21
408.638116
  0
LINE
  5
416
100
AcDbEntity
  8
M0
 62
     6
100
AcDbLine
 10
136.61282
 20
403.390801
 11
137.429089
 21
406.03814
  0
LINE
  5
417
100
AcDbEntity
  8
M0
 62
     6
100
AcDbLine
 10
131.173138
 20
403.03814
 11
136.135007
 21
403.03814
  0
LINE
  5
418
100
AcDbEntity
  8
M0
 62
     6
100
AcDbLine
 10
137.429089
 20
406.03814
 11
137.429089
 21
408.638116
  0
LINE
  5
419
100
AcDbEntity
  8
M0
 62
     6
100
AcDbLine
 10
136.135007
 20
411.638116
 11
131.173138
 21
411.6381
  0
LINE
  5
41A
100
AcDbEntity
  8
M0
 62
     6
100
AcDbLine
 10
129.879086
 20
408.638116
 11
129.879086
 21
406.03814
  0
LINE
  5
41B
100
AcDbEntity
  8
M0
  6
DASHDOT
 62
     6
100
AcDbLine
 10
127.379086
 20
407.338067
 11
139.929089
 21
407.338067
  0
LINE
  5
41C
100
AcDbEntity
  8
M0
  6
DASHDOT
 62
     6
100
AcDbLine
 10
133.654095
 20
402.838067
 11
133.654095
 21
414.138116
  0
LINE
  5
41D
100
AcDbEntity
  8
M0
 62
     6
100
AcDbLine
 10
135.24487
 20
405.747246
 11
132.063061
 21
408.929009
  0
LINE
  5
41E
100
AcDbEntity
  8
M0
 62
     6
100
AcDbLine
 10
134.007504
 20
408.752251
 11
132.239835
 21
406.984551
  0
LINE
  5
41F
100
AcDbEntity
  8
M0
 62
     6
100
AcDbLine
 10
135.068112
 20
407.691582
 11
133.300488
 21
405.924004
  0
ARC
  5
420
100
AcDbEntity
  8
M0
 62
     6
100
AcDbCircle
 10
131.173138
 20
411.1381
 40
0.5
100
AcDbArc
 50
90.0
 51
162.865663
  0
ARC
  5
421
100
AcDbEntity
  8
M0
 62
     6
100
AcDbCircle
 10
131.173138
 20
403.53814
 40
0.5
100
AcDbArc
 50
197.137551
 51
270.0
  0
ARC
  5
422
100
AcDbEntity
  8
M0
 62
     6
100
AcDbCircle
 10
136.135007
 20
403.53814
 40
0.5
100
AcDbArc
 50
270.0
 51
342.861653
  0
ARC
  5
423
100
AcDbEntity
  8
M0
 62
     6
100
AcDbCircle
 10
136.135007
 20
411.1381
 40
0.5
100
AcDbArc
 50
17.134787
 51
90.0
  0
LINE
  5
424
100
AcDbEntity
  8
M0
 62
     2
100
AcDbLine
 10
111.654095
 20
424.838067
 11
115.654095
 21
424.838067
  0
LINE
  5
425
100
AcDbEntity
  8
M0
 62
     2
100
AcDbLine
 10
116.154095
 20
425.338052
 11
116.154095
 21
429.338036
  0
LINE
  5
426
100
AcDbEntity
  8
M0
 62
     2
100
AcDbLine
 10
115.654095
 20
429.838067
 11
111.654095
 21
429.838052
  0
LINE
  5
427
100
AcDbEntity
  8
M0
 62
     2
100
AcDbLine
 10
111.154095
 20
429.338052
 11
111.154095
 21
425.338067
  0
ARC
  5
428
100
AcDbEntity
  8
M0
 62
     2
100
AcDbCircle
 10
111.654095
 20
425.338067
 40
0.5
100
AcDbArc
 50
179.999891
 51
270.0
  0
ARC
  5
429
100
AcDbEntity
  8
M0
 62
     2
100
AcDbCircle
 10
115.654095
 20
425.338067
 40
0.5
100
AcDbArc
 50
270.0
 51
360.0
  0
ARC
  5
42A
100
AcDbEntity
  8
M0
 62
     2
100
AcDbCircle
 10
115.654095
 20
429.338052
 40
0.5
100
AcDbArc
 50
0.0
 51
90.0
  0
ARC
  5
42B
100
AcDbEntity
  8
M0
 62
     2
100
AcDbCircle
 10
111.654095
 20
429.338052
 40
0.5
100
AcDbArc
 50
90.0
 51
180.0
  0
LINE
  5
42C
100
AcDbEntity
  8
M0
100
AcDbLine
 10
327.909009
 20
382.34182
 11
332.409009
 21
382.34182
  0
LINE
  5
42D
100
AcDbEntity
  8
M0
100
AcDbLine
 10
332.408978
 20
382.341729
 11
332.408978
 21
395.541436
  0
LINE
  5
42E
100
AcDbEntity
  8
M0
100
AcDbLine
 10
332.409009
 20
472.34182
 11
327.909009
 21
472.34182
  0
LINE
  5
42F
100
AcDbEntity
  8
M0
100
AcDbLine
 10
327.909009
 20
472.34182
 11
327.909009
 21
382.34182
  0
LINE
  5
430
100
AcDbEntity
  8
M0
  6
DASHDOT
100
AcDbLine
 10
317.909009
 20
427.34182
 11
342.409009
 21
427.34182
  0
LINE
  5
431
100
AcDbEntity
  8
M0
100
AcDbLine
 10
330.208997
 20
459.34182
 11
328.909009
 21
459.34182
  0
LINE
  5
432
100
AcDbEntity
  8
M0
100
AcDbLine
 10
328.909009
 20
395.34182
 11
330.208997
 21
395.34182
  0
LINE
  5
433
100
AcDbEntity
  8
M0
100
AcDbLine
 10
331.409009
 20
458.141625
 11
330.109006
 21
458.141625
  0
LINE
  5
434
100
AcDbEntity
  8
M0
100
AcDbLine
 10
330.109006
 20
396.541817
 11
331.409009
 21
396.541817
  0
LINE
  5
435
100
AcDbEntity
  8
M0
100
AcDbLine
 10
329.108929
 20
457.141289
 11
329.108929
 21
397.54168
  0
LINE
  5
436
100
AcDbEntity
  8
M0
100
AcDbLine
 10
331.208783
 20
472.341729
 11
331.208783
 21
460.341485
  0
LINE
  5
437
100
AcDbEntity
  8
M0
100
AcDbLine
 10
331.208783
 20
394.341729
 11
331.208783
 21
382.341729
  0
LINE
  5
438
100
AcDbEntity
  8
M0
100
AcDbLine
 10
332.408978
 20
459.141289
 11
332.408978
 21
472.341729
  0
ARC
  5
439
100
AcDbEntity
  8
M0
100
AcDbCircle
 10
331.409009
 20
395.541817
 40
1.0
100
AcDbArc
 50
0.0
 51
90.0
  0
ARC
  5
43A
100
AcDbEntity
  8
M0
100
AcDbCircle
 10
331.409009
 20
459.141381
 40
1.0
100
AcDbArc
 50
270.0
 51
359.985137
  0
ARC
  5
43B
100
AcDbEntity
  8
M0
100
AcDbCircle
 10
330.208997
 20
460.341576
 40
1.0
100
AcDbArc
 50
270.0
 51
360.0
  0
ARC
  5
43C
100
AcDbEntity
  8
M0
100
AcDbCircle
 10
328.909009
 20
458.341576
 40
1.0
100
AcDbArc
 50
90.0
 51
180.0
  0
ARC
  5
43D
100
AcDbEntity
  8
M0
100
AcDbCircle
 10
330.109006
 20
457.141381
 40
1.0
100
AcDbArc
 50
90.0
 51
180.0
  0
ARC
  5
43E
100
AcDbEntity
  8
M0
100
AcDbCircle
 10
328.909009
 20
396.34182
 40
1.0
100
AcDbArc
 50
180.0
 51
270.0
  0
ARC
  5
43F
100
AcDbEntity
  8
M0
100
AcDbCircle
 10
330.109006
 20
397.541817
 40
1.0
100
AcDbArc
 50
180.0
 51
270.0
  0
ARC
  5
440
100
AcDbEntity
  8
M0
100
AcDbCircle
 10
330.208997
 20
394.34182
 40
1.0
100
AcDbArc
 50
0.0
 51
90.0
  0
LINE
  5
441
100
AcDbEntity
  8
M0
  6
DASHDOT
100
AcDbLine
 10
324.416669
 20
453.34182
 11
332.004727
 21
453.34182
  0
LINE
  5
442
100
AcDbEntity
  8
M0
  6
DASHDOT
100
AcDbLine
 10
324.647382
 20
401.34182
 11
332.748166
 21
401.34182
  0
LINE
  5
443
100
AcDbEntity
  8
M0
100
AcDbLine
 10
330.309003
 20
455.34182
 11
330.309003
 21
451.34182
  0
LINE
  5
444
100
AcDbEntity
  8
M0
100
AcDbLine
 10
329.109006
 20
455.34182
 11
330.309003
 21
455.34182
  0
LINE
  5
445
100
AcDbEntity
  8
M0
100
AcDbLine
 10
329.109006
 20
451.34182
 11
330.309003
 21
451.34182
  0
LINE
  5
446
100
AcDbEntity
  8
M0
100
AcDbLine
 10
329.109006
 20
403.34182
 11
330.309003
 21
403.34182
  0
LINE
  5
447
100
AcDbEntity
  8
M0
100
AcDbLine
 10
329.109006
 20
399.34182
 11
330.309003
 21
399.34182
  0
LINE
  5
448
100
AcDbEntity
  8
M0
100
AcDbLine
 10
330.309003
 20
403.34182
 11
330.309003
 21
399.34182
  0
ARC
  5
449
100
AcDbEntity
  8
M0
 62
     2
100
AcDbCircle
 10
194.650983
 20
401.341729
 40
3.499993
100
AcDbArc
 50
254.243242
 51
385.381501
  0
LINE
  5
44A
100
AcDbEntity
  8
M0
 62
     2
100
AcDbLine
 10
193.700497
 20
402.291436
 11
196.065121
 21
399.926446
  0
LINE
  5
44B
100
AcDbEntity
  8
M0
 62
     2
100
AcDbLine
 10
194.737698
 20
402.841729
 11
193.700497
 21
401.804375
  0
LINE
  5
44C
100
AcDbEntity
  8
M0
 62
     2
100
AcDbLine
 10
196.772299
 20
402.048516
 11
193.94389
 21
399.220146
  0
LINE
  5
44D
100
AcDbEntity
  8
M0
 62
     2
100
AcDbLine
 10
317.409222
 20
397.340996
 11
317.909222
 21
397.340996
  0
LINE
  5
44E
100
AcDbEntity
  8
M0
 62
     2
100
AcDbLine
 10
317.909222
 20
397.340996
 11
317.909222
 21
405.341485
  0
LINE
  5
44F
100
AcDbEntity
  8
M0
 62
     2
100
AcDbLine
 10
317.909222
 20
405.341485
 11
317.409222
 21
405.341485
  0
LINE
  5
450
100
AcDbEntity
  8
M0
 62
     2
100
AcDbLine
 10
317.409222
 20
405.341485
 11
317.409222
 21
397.340996
  0
LINE
  5
451
100
AcDbEntity
  8
M0
 62
     2
100
AcDbLine
 10
316.409222
 20
397.841485
 11
317.409222
 21
397.841485
  0
LINE
  5
452
100
AcDbEntity
  8
M0
 62
     2
100
AcDbLine
 10
317.409222
 20
404.840996
 11
316.409222
 21
404.840996
  0
LINE
  5
453
100
AcDbEntity
  8
M0
 62
     2
100
AcDbLine
 10
316.409222
 20
397.841485
 11
316.409222
 21
404.840996
  0
LINE
  5
454
100
AcDbEntity
  8
M0
 62
     2
100
AcDbLine
 10
315.289838
 20
397.939141
 11
316.409222
 21
397.840996
  0
LINE
  5
455
100
AcDbEntity
  8
M0
 62
     2
100
AcDbLine
 10
315.289838
 20
404.742852
 11
316.409222
 21
404.840996
  0
ARC
  5
456
100
AcDbEntity
  8
M0
 62
     2
100
AcDbCircle
 10
322.809369
 20
401.341241
 40
8.999985
100
AcDbArc
 50
164.121632
 51
195.884306
  0
ARC
  5
457
100
AcDbEntity
  8
M0
 62
     2
100
AcDbCircle
 10
315.403119
 20
399.233819
 40
1.299995
100
AcDbArc
 50
195.889213
 51
264.999484
  0
ARC
  5
458
100
AcDbEntity
  8
M0
 62
     2
100
AcDbCircle
 10
315.403119
 20
403.448174
 40
1.299995
100
AcDbArc
 50
95.000474
 51
164.13141
  0
ARC
  5
459
100
AcDbEntity
  8
M0
 62
     2
100
AcDbCircle
 10
160.650983
 20
453.341729
 40
3.499993
100
AcDbArc
 50
74.260056
 51
205.376906
  0
LINE
  5
45A
100
AcDbEntity
  8
M0
 62
     2
100
AcDbLine
 10
159.236722
 20
454.755547
 11
161.101315
 21
452.890313
  0
LINE
  5
45B
100
AcDbEntity
  8
M0
 62
     2
100
AcDbLine
 10
161.101315
 20
455.205498
 11
158.52966
 21
452.633965
  0
LINE
  5
45C
100
AcDbEntity
  8
M0
 62
     2
100
AcDbLine
 10
161.6004
 20
452.876397
 11
160.565701
 21
451.841485
  0
LINE
  5
45D
100
AcDbEntity
  8
M0
 62
     2
100
AcDbLine
 10
317.909222
 20
453.341729
 11
317.909222
 21
457.10125
  0
LINE
  5
45E
100
AcDbEntity
  8
M0
 62
     2
100
AcDbLine
 10
317.909222
 20
457.10125
 11
317.409222
 21
457.10125
  0
LINE
  5
45F
100
AcDbEntity
  8
M0
 62
     2
100
AcDbLine
 10
317.409222
 20
457.10125
 11
317.409222
 21
453.341729
  0
LINE
  5
460
100
AcDbEntity
  8
M0
 62
     2
100
AcDbLine
 10
317.409222
 20
456.600762
 11
316.409222
 21
456.600762
  0
LINE
  5
461
100
AcDbEntity
  8
M0
 62
     2
100
AcDbLine
 10
316.409222
 20
453.341729
 11
316.409222
 21
456.600762
  0
LINE
  5
462
100
AcDbEntity
  8
M0
 62
     2
100
AcDbLine
 10
315.289838
 20
456.502618
 11
316.409222
 21
456.600762
  0
ARC
  5
463
100
AcDbEntity
  8
M0
 62
     2
100
AcDbCircle
 10
322.809369
 20
453.101006
 40
8.999985
100
AcDbArc
 50
164.121632
 51
178.467324
  0
ARC
  5
464
100
AcDbEntity
  8
M0
 62
     2
100
AcDbCircle
 10
315.403119
 20
455.20794
 40
1.299995
100
AcDbArc
 50
95.000474
 51
164.13141
  0
LINE
  5
465
100
AcDbEntity
  8
M0
 62
     2
100
AcDbLine
 10
95.236722
 20
454.751885
 11
97.604047
 21
452.383721
  0
LINE
  5
466
100
AcDbEntity
  8
M0
 62
     2
100
AcDbLine
 10
97.101315
 20
455.201836
 11
94.52966
 21
452.630303
  0
LINE
  5
467
100
AcDbEntity
  8
M0
 62
     2
100
AcDbLine
 10
97.604047
 20
452.876397
 11
96.565701
 21
451.837823
  0
ARC
  5
468
100
AcDbEntity
  8
M0
 62
     2
100
AcDbCircle
 10
96.650983
 20
453.338067
 40
3.499993
100
AcDbArc
 50
74.198257
 51
205.376906
  0
ARC
  5
469
100
AcDbEntity
  8
M0
 62
     2
100
AcDbCircle
 10
130.650983
 20
401.341729
 40
3.499993
100
AcDbArc
 50
254.305043
 51
385.381501
  0
LINE
  5
46A
100
AcDbEntity
  8
M0
 62
     2
100
AcDbLine
 10
129.704144
 20
402.287774
 11
132.065121
 21
399.926446
  0
LINE
  5
46B
100
AcDbEntity
  8
M0
 62
     2
100
AcDbLine
 10
130.737744
 20
402.841973
 11
129.704144
 21
401.808282
  0
LINE
  5
46C
100
AcDbEntity
  8
M0
 62
     2
100
AcDbLine
 10
132.772299
 20
402.048516
 11
129.94389
 21
399.220146
  0
LINE
  5
46D
100
AcDbEntity
  8
M0
  6
DIVIDE
100
AcDbLine
 10
90.151229
 20
232.418806
 11
199.150738
 21
232.418806
  0
LINE
  5
46E
100
AcDbEntity
  8
M0
  6
DIVIDE
100
AcDbLine
 10
199.150738
 20
317.418573
 11
90.151227
 21
317.418817
  0
LINE
  5
46F
100
AcDbEntity
  8
M0
  6
DIVIDE
100
AcDbLine
 10
90.151227
 20
317.418817
 11
90.151227
 21
232.408807
  0
CIRCLE
  5
470
100
AcDbEntity
  8
M0
100
AcDbCircle
 10
99.651227
 20
312.418573
 40
3.999998
  0
CIRCLE
  5
471
100
AcDbEntity
  8
M0
100
AcDbCircle
 10
99.651227
 20
312.418573
 40
1.749995
  0
LINE
  5
472
100
AcDbEntity
  8
M0
  6
DASHDOT
100
AcDbLine
 10
105.748395
 20
312.418573
 11
93.553815
 21
312.418573
  0
LINE
  5
473
100
AcDbEntity
  8
M0
  6
DASHDOT
100
AcDbLine
 10
99.650983
 20
318.515741
 11
99.650983
 21
306.321161
  0
LINE
  5
474
100
AcDbEntity
  8
M0
  6
DASHDOT
100
AcDbLine
 10
144.650983
 20
326.160028
 11
144.650983
 21
224.158075
  0
LINE
  5
475
100
AcDbEntity
  8
M0
  6
DIVIDE
100
AcDbLine
 10
199.150738
 20
317.418573
 11
199.150738
 21
232.408807
  0
LINE
  5
476
100
AcDbEntity
  8
M0
  6
DASHDOT
100
AcDbLine
 10
78.47276
 20
274.91369
 11
210.588483
 21
274.913446
  0
CIRCLE
  5
477
100
AcDbEntity
  8
M0
100
AcDbCircle
 10
189.650983
 20
312.418329
 40
3.999996
  0
CIRCLE
  5
478
100
AcDbEntity
  8
M0
100
AcDbCircle
 10
189.650983
 20
312.418329
 40
1.749993
  0
LINE
  5
479
100
AcDbEntity
  8
M0
  6
DASHDOT
100
AcDbLine
 10
196.248395
 20
312.418329
 11
183.05357
 21
312.418329
  0
LINE
  5
47A
100
AcDbEntity
  8
M0
  6
DASHDOT
100
AcDbLine
 10
189.650983
 20
319.015253
 11
189.650738
 21
305.820917
  0
CIRCLE
  5
47B
100
AcDbEntity
  8
M0
100
AcDbCircle
 10
144.650983
 20
237.423201
 40
3.999996
  0
CIRCLE
  5
47C
100
AcDbEntity
  8
M0
100
AcDbCircle
 10
144.650983
 20
237.423201
 40
1.749993
  0
LINE
  5
47D
100
AcDbEntity
  8
M0
  6
DASHDOT
100
AcDbLine
 10
151.248395
 20
237.422967
 11
138.05357
 21
237.422967
  0
LINE
  5
47E
100
AcDbEntity
  8
M0
  6
DASHDOT
100
AcDbLine
 10
144.650983
 20
242.01037
 11
144.650983
 21
232.81579
  0
LINE
  5
47F
100
AcDbEntity
  8
M1
 62
     2
100
AcDbLine
 10
20.0
 20
20.0
 11
20.0
 21
570.0
  0
LINE
  5
480
100
AcDbEntity
  8
M1
 62
     2
100
AcDbLine
 10
20.0
 20
570.0
 11
400.0
 21
570.0
  0
LINE
  5
481
100
AcDbEntity
  8
M1
 62
     2
100
AcDbLine
 10
400.0
 20
570.0
 11
400.0
 21
20.0
  0
LINE
  5
482
100
AcDbEntity
  8
M1
 62
     2
100
AcDbLine
 10
400.0
 20
20.0
 11
20.0
 21
20.0
  0
LINE
  5
483
100
AcDbEntity
  8
M1
 62
     2
100
AcDbLine
 10
400.0
 20
40.0
 11
200.0
 21
40.0
  0
LINE
  5
484
100
AcDbEntity
  8
M1
 62
     2
100
AcDbLine
 10
400.0
 20
60.0
 11
200.0
 21
60.0
  0
LINE
  5
485
100
AcDbEntity
  8
M1
 62
     2
100
AcDbLine
 10
400.0
 20
80.0
 11
200.0
 21
80.0
  0
LINE
  5
486
100
AcDbEntity
  8
M1
 62
     2
100
AcDbLine
 10
200.0
 20
20.0
 11
200.0
 21
80.0
  0
TEXT
  5
487
100
AcDbEntity
  8
M1
 62
     2
100
AcDbText
 10
205.0
 20
25.0
 40
10.0
  1
適　用；
  7
STANDARD
100
AcDbText
  0
TEXT
  5
488
100
AcDbEntity
  8
M1
 62
     2
100
AcDbText
 10
205.0
 20
65.0
 40
10.0
  1
登録名：
  7
STANDARD
100
AcDbText
  0
TEXT
  5
489
100
AcDbEntity
  8
M1
 62
     2
100
AcDbText
 10
253.0
 20
65.0
 40
10.0
  1
ＤＭＨ１１ＲＲ００
 41
0.5
  7
STANDARD
100
AcDbText
  0
TEXT
  5
48A
100
AcDbEntity
  8
M1
 62
     2
100
AcDbText
 10
205.0
 20
45.0
 40
10.0
  1
形　式；
  7
STANDARD
100
AcDbText
  0
TEXT
  5
48B
100
AcDbEntity
  8
M1
 62
     2
100
AcDbText
 10
253.0
 20
45.0
 40
10.0
  1
Ｈ１１－Ｒ
 41
0.5
  7
STANDARD
100
AcDbText
  0
LINE
  5
48C
100
AcDbEntity
  8
DN0
100
AcDbLine
 10
127.388727
 20
180.682581
 11
163.908728
 21
180.682581
  0
TEXT
  5
48D
100
AcDbEntity
  8
DN0
100
AcDbText
 10
128.398727
 20
181.582581
 40
9.0
  1
せん孔図
 41
0.833333
  7
STANDARD
100
AcDbText
  0
ENDSEC
  0
SECTION
  2
OBJECTS
  0
DICTIONARY
  5
C
100
AcDbDictionary
  3
ACAD_GROUP
350
D
  3
ACAD_MLINESTYLE
350
E
  0
DICTIONARY
  5
D
102
{ACAD_REACTORS
330
C
102
}
100
AcDbDictionary
  0
DICTIONARY
  5
E
102
{ACAD_REACTORS
330
C
102
}
100
AcDbDictionary
  3
STANDARD
350
13
  0
MLINESTYLE
  5
13
102
{ACAD_REACTORS
330
E
102
}
100
AcDbMlineStyle
  2
STANDARD
 70
     0
  3

 62
     0
 51
90.0
 52
90.0
 71
     2
 49
0.5
 62
   256
  6
BYLAYER
 49
-0.5
 62
   256
  6
BYLAYER
  0
ENDSEC
  0
EOF
