  0
SECTION
  2
HEADER
  9
$ACADVER
  1
AC1014
  9
$INSBASE
 10
0.000000
 20
0.000000
 30
0.0
  9
$VIEWCTR
 10
7.531722
 20
4.5
  9
$VIEWSIZE
 40
9.0
  9
$SNAPMODE
 70
     0
  9
$SNAPUNIT
 10
1.0
 20
1.0
  9
$SNAPBASE
 10
0.0
 20
0.0
  9
$SNAPANG
 50
0.0
  9
$SNAPSTYLE
 70
     0
  9
$SNAPISOPAIR
 70
     0
  9
$GRIDMODE
 70
     0
  9
$GRIDUNIT
 10
0.0
 20
0.0
  9
$ORTHOMODE
 70
     0
  9
$REGENMODE
 70
     1
  9
$FILLMODE
 70
     1
  9
$QTEXTMODE
 70
     0
  9
$DRAGMODE
 70
     2
  9
$LTSCALE
  40
     1.000000
  9
$OSMODE
 70
     0
  9
$ATTMODE
 70
     1
  9
$TEXTSIZE
 40
0.2
  9
$TRACEWID
 40
0.05
  9
$TEXTSTYLE
  7
STANDARD
  9
$CELTYPE
  6
BYLAYER
  9
$CECOLOR
 62
   256
  9
$DIMSCALE
 40
1.0
  9
$DIMASZ
 40
0.18
  9
$DIMEXO
 40
0.0625
  9
$DIMDLI
 40
0.38
  9
$DIMRND
 40
0.0
  9
$DIMDLE
 40
0.0
  9
$DIMEXE
 40
0.18
  9
$DIMTP
 40
0.0
  9
$DIMTM
 40
0.0
  9
$DIMTXT
 40
0.18
  9
$DIMCEN
 40
0.09
  9
$DIMTSZ
 40
0.0
  9
$DIMTOL
 70
     0
  9
$DIMLIM
 70
     0
  9
$DIMTIH
 70
     1
  9
$DIMTOH
 70
     1
  9
$DIMSE1
 70
     0
  9
$DIMSE2
 70
     0
  9
$DIMTAD
 70
     0
  9
$DIMZIN
 70
     0
  9
$DIMBLK
  1

  9
$LUNITS
 70
     2
  9
$LUPREC
 70
     4
  9
$AXISMODE
 70
     0
  9
$AXISUNIT
 10
0.0
 20
0.0
  9
$SKETCHINC
 40
0.1
  9
$FILLETRAD
 40
0.0
  9
$AUNITS
 70
     0
  9
$AUPREC
 70
     0
  9
$MENU
  1
ACAD
  9
$ELEVATION
 40
0.0
  9
$THICKNESS
 40
0.0
  9
$VIEWDIR
 10
0.0
 20
0.0
 30
1.0
  9
$LIMCHECK
 70
     0
  9
$BLIPMODE
 70
     1
  9
$CHAMFERA
 40
0.0
  9
$CHAMFERB
 40
0.0
  9
$FASTZOOM
 70
     1
  9
$SKPOLY
 70
     0
  9
$TDCREATE
 40
0000000.0000000000
  9
$TDUPDATE
 40
0000000.0000000000
  9
$TDINDWG
 40
0.0000000000
  9
$TDUSRTIMER
 40
0.0000000000
  9
$USRTIMER
 70
     1
  9
$ANGBASE
 50
0.0
  9
$ANGDIR
 70
     0
  9
$PDMODE
 70
     0
  9
$PDSIZE
 40
0.0
  9
$PLINEWID
 40
0.0
  9
$COORDS
 70
     0
  9
$USERI1
 70
     0
  9
$USERI2
 70
     0
  9
$USERI3
 70
     0
  9
$USERI4
 70
     0
  9
$USERI5
 70
     0
  9
$USERR1
 40
0.0
  9
$USERR2
 40
0.0
  9
$USERR3
 40
0.0
  9
$USERR4
 40
0.0
  9
$USERR5
 40
0.0
  9
$CLAYER
  8
M0
  9
$EXTMIN
 10
6.447584
 20
16.666666
  9
$EXTMAX
 10
333.33332
 20
474.999981
  9
$LIMMIN
 10
0.0
 20
0.0
  9
$LIMMAX
 10
210.0
 20
297.0
  9
$HANDSEED
  5
66D
  0
ENDSEC
  0
SECTION
  2
CLASSES
  0
ENDSEC
  0
SECTION
  2
TABLES
  0
TABLE
  2
VPORT
  5
8
100
AcDbSymbolTable
 70
     2
  0
VPORT
  5
14
100
AcDbSymbolTableRecord
100
AcDbViewportTableRecord
  2
*ACTIVE
 70
     0
 10
0.0
 20
0.0
 11
1.0
 21
1.0
 12
484.0
 22
297.0
 13
0.0
 23
0.0
 14
1.0
 24
1.0
 15
0.0
 25
0.0
 16
0.0
 26
0.0
 36
1.0
 17
0.0
 27
0.0
 37
0.0
 40
594.0
 41
2.0
 42
50.0
 43
0.0
 44
0.0
 50
0.0
 51
0.0
 71
     0
 72
   100
 73
     1
 74
     1
 75
     0
 76
     0
 77
     0
 78
     0
  0
ENDTAB
  0
TABLE
  2
LTYPE
  5
5
100
AcDbSymbolTable
 70
     5
  0
LTYPE
  5
15
100
AcDbSymbolTableRecord
100
AcDbLinetypeTableRecord
  2
BYBLOCK
 70
     0
  3

 72
    65
 73
     0
 40
0.0
  0
LTYPE
  5
16
100
AcDbSymbolTableRecord
100
AcDbLinetypeTableRecord
  2
BYLAYER
 70
     0
  3

 72
    65
 73
     0
 40
0.0
  0
LTYPE
  5
17
100
AcDbSymbolTableRecord
100
AcDbLinetypeTableRecord
  2
CONTINUOUS
 70
    64
  3
Solid line
 72
    65
 73
     0
 40
0.0
  0
LTYPE
  5
18
100
AcDbSymbolTableRecord
100
AcDbLinetypeTableRecord
  2
DASHED
 70
    64
  3
__ __ __ __ __ __ __ __ __ __ __ __ __ __ __ __
 72
    65
 73
     2
 40
0.75
 49
0.5
 74
     0
 49
-0.25
 74
     0
  0
LTYPE
  5
19
100
AcDbSymbolTableRecord
100
AcDbLinetypeTableRecord
  2
DASHDOT
 70
    64
  3
__ . __ . __ . __ . __ . __ . __ . __ . __ . __
 72
    65
 73
     4
 40
1.0
 49
0.5
 74
     0
 49
-0.25
 74
     0
 49
0.0
 74
     0
 49
-0.25
 74
     0
  0
LTYPE
  5
1A
100
AcDbSymbolTableRecord
100
AcDbLinetypeTableRecord
  2
DIVIDE
 70
    64
  3
____ . . ____ . . ____ . . ____ . . ____ . . __
 72
    65
 73
     6
 40
1.25
 49
0.5
 74
     0
 49
-0.25
 74
     0
 49
0.0
 74
     0
 49
-0.25
 74
     0
 49
0.0
 74
     0
 49
-0.25
 74
     0
  0
LTYPE
  5
1B
100
AcDbSymbolTableRecord
100
AcDbLinetypeTableRecord
  2
DOT
 70
    64
  3
. . . . . . . . . . . . . . . . . . . . . . . .
 72
    65
 73
     2
 40
0.25
 49
0.0
 74
     0
 49
-0.25
 74
     0
  0
ENDTAB
  0
TABLE
  2
LAYER
  5
2
100
AcDbSymbolTable
 70
   102
  0
LAYER
  5
F
100
AcDbSymbolTableRecord
100
AcDbLayerTableRecord
  2
0
 70
     0
 62
     7
  6
CONTINUOUS
  0
LAYER
  5
1C
100
AcDbSymbolTableRecord
100
AcDbLayerTableRecord
  2
DEFPOINTS
 70
     0
 62
     7
  6
CONTINUOUS
  0
LAYER
  5
1D
100
AcDbSymbolTableRecord
100
AcDbLayerTableRecord
  2
M0
 70
     0
 62
     3
  6
CONTINUOUS
  0
LAYER
  5
1E
100
AcDbSymbolTableRecord
100
AcDbLayerTableRecord
  2
M1
 70
     0
 62
     3
  6
CONTINUOUS
  0
LAYER
  5
1F
100
AcDbSymbolTableRecord
100
AcDbLayerTableRecord
  2
DD0
 70
     0
 62
     4
  6
CONTINUOUS
  0
LAYER
  5
20
100
AcDbSymbolTableRecord
100
AcDbLayerTableRecord
  2
DN0
 70
     0
 62
     2
  6
CONTINUOUS
  0
ENDTAB
  0
TABLE
  2
STYLE
  5
3
100
AcDbSymbolTable
 70
     2
  0
STYLE
  5
10
100
AcDbSymbolTableRecord
100
AcDbTextStyleTableRecord
  2
STANDARD
 70
     0
 40
0.0
 41
1.0
 50
0.0
 71
     0
 42
0.2
  3
txt
  4
BIGFONT
  0
ENDTAB
  0
TABLE
  2
VIEW
  5
6
100
AcDbSymbolTable
 70
     0
  0
ENDTAB
  0
TABLE
  2
UCS
  5
7
100
AcDbSymbolTable
 70
     0
  0
ENDTAB
  0
TABLE
  2
APPID
  5
9
100
AcDbSymbolTable
 70
     1
  0
APPID
  5
11
100
AcDbSymbolTableRecord
100
AcDbRegAppTableRecord
  2
ACAD
 70
     0
  0
ENDTAB
  0
TABLE
  2
DIMSTYLE
  5
A
100
AcDbSymbolTable
 70
     2
  0
DIMSTYLE
105
27
100
AcDbSymbolTableRecord
100
AcDbDimStyleTableRecord
  2
STANDARD
 70
     0
  3

  4

  5

  6
_OPEN
  7
_OPEN
 40
1.0
 41
5.0
 42
1.0
 43
8.0
 44
1.0
 45
0.0
 46
0.0
 47
0.0
 48
0.0
140
5.25
141
0.09
142
0.0
143
0.03937
144
1.0
145
0.0
146
1.0
147
0.6
 71
     0
 72
     0
 73
     1
 74
     1
 75
     0
 76
     0
 77
     3
 78
     8
170
     0
171
     2
172
     0
173
     1
174
     0
175
     0
176
     0
177
     0
178
     0
270
     2
271
     2
272
     4
273
     2
274
     2
340
10
275
     0
280
     0
281
     0
282
     0
283
     1
284
     0
285
     0
286
     0
287
     3
288
     0
  0
DIMSTYLE
105
28
100
AcDbSymbolTableRecord
100
AcDbDimStyleTableRecord
  2
LEADSTYL
 70
     0
  3

  4

  5

  6
_OPEN
  7
_OPEN
 40
1.0
 41
5.0
 42
0.0625
 43
0.38
 44
0.18
 45
0.0
 46
0.0
 47
0.0
 48
0.0
140
5.25
141
0.09
142
0.0
143
25.4
144
1.0
145
0.0
146
1.0
147
0.6
 71
     0
 72
     0
 73
     1
 74
     1
 75
     0
 76
     0
 77
     0
 78
     0
170
     0
171
     2
172
     0
173
     1
174
     0
175
     0
176
     0
177
     0
178
     0
270
     2
271
     4
272
     4
273
     2
274
     2
340
10
275
     0
280
     0
281
     0
282
     0
283
     1
284
     0
285
     0
286
     0
287
     3
288
     0
  0
ENDTAB
  0
TABLE
  2
BLOCK_RECORD
  5
1
100
AcDbSymbolTable
 70
    20
  0
BLOCK_RECORD
  5
21
100
AcDbSymbolTableRecord
100
AcDbBlockTableRecord
  2
*MODEL_SPACE
  0
BLOCK_RECORD
  5
24
100
AcDbSymbolTableRecord
100
AcDbBlockTableRecord
  2
*PAPER_SPACE
  0
BLOCK_RECORD
  5
29
100
AcDbSymbolTableRecord
100
AcDbBlockTableRecord
  2
_NONE
  0
BLOCK_RECORD
  5
2D
100
AcDbSymbolTableRecord
100
AcDbBlockTableRecord
  2
_OPEN
  0
BLOCK_RECORD
  5
33
100
AcDbSymbolTableRecord
100
AcDbBlockTableRecord
  2
_CLOSED
  0
BLOCK_RECORD
  5
3A
100
AcDbSymbolTableRecord
100
AcDbBlockTableRecord
  2
_ORIGIN
  0
BLOCK_RECORD
  5
3F
100
AcDbSymbolTableRecord
100
AcDbBlockTableRecord
  2
_DOT
  0
BLOCK_RECORD
  5
47
100
AcDbSymbolTableRecord
100
AcDbBlockTableRecord
  2
_OBLIQUE
  0
BLOCK_RECORD
  5
4B
100
AcDbSymbolTableRecord
100
AcDbBlockTableRecord
  2
DIMS0
  0
BLOCK_RECORD
  5
55
100
AcDbSymbolTableRecord
100
AcDbBlockTableRecord
  2
DIMS1
  0
BLOCK_RECORD
  5
61
100
AcDbSymbolTableRecord
100
AcDbBlockTableRecord
  2
DIMS2
  0
BLOCK_RECORD
  5
6D
100
AcDbSymbolTableRecord
100
AcDbBlockTableRecord
  2
DIMS3
  0
BLOCK_RECORD
  5
79
100
AcDbSymbolTableRecord
100
AcDbBlockTableRecord
  2
DIMS4
  0
BLOCK_RECORD
  5
85
100
AcDbSymbolTableRecord
100
AcDbBlockTableRecord
  2
DIMS5
  0
BLOCK_RECORD
  5
8A
100
AcDbSymbolTableRecord
100
AcDbBlockTableRecord
  2
DIMS6
  0
BLOCK_RECORD
  5
8F
100
AcDbSymbolTableRecord
100
AcDbBlockTableRecord
  2
DIMS7
  0
BLOCK_RECORD
  5
9B
100
AcDbSymbolTableRecord
100
AcDbBlockTableRecord
  2
DIMS8
  0
BLOCK_RECORD
  5
A7
100
AcDbSymbolTableRecord
100
AcDbBlockTableRecord
  2
DIMS9
  0
BLOCK_RECORD
  5
B3
100
AcDbSymbolTableRecord
100
AcDbBlockTableRecord
  2
DIMS10
  0
BLOCK_RECORD
  5
BA
100
AcDbSymbolTableRecord
100
AcDbBlockTableRecord
  2
DIMS11
  0
BLOCK_RECORD
  5
BF
100
AcDbSymbolTableRecord
100
AcDbBlockTableRecord
  2
DIMS12
  0
BLOCK_RECORD
  5
CB
100
AcDbSymbolTableRecord
100
AcDbBlockTableRecord
  2
DIMS13
  0
ENDTAB
  0
ENDSEC
  0
SECTION
  2
BLOCKS
  0
BLOCK
  5
22
100
AcDbEntity
  8
0
100
AcDbBlockBegin
  2
*MODEL_SPACE
 70
     0
 10
0.0
 20
0.0
 30
0.0
  3
*MODEL_SPACE
  1

  0
ENDBLK
  5
23
100
AcDbEntity
  8
0
100
AcDbBlockEnd
  0
BLOCK
  5
25
100
AcDbEntity
 67
     1
  8
0
100
AcDbBlockBegin
  2
*PAPER_SPACE
 70
     0
 10
0.0
 20
0.0
 30
0.0
  3
*PAPER_SPACE
  1

  0
ENDBLK
  5
26
100
AcDbEntity
 67
     1
  8
0
100
AcDbBlockEnd
  0
BLOCK
  5
2A
100
AcDbEntity
  8
0
100
AcDbBlockBegin
  2
_NONE
 70
     0
 10
0.0
 20
0.0
  0
CIRCLE
  5
2B
100
AcDbEntity
  8
0
 62
     0
100
AcDbCircle
 10
0.0
 20
0.0
 40
0.25
  0
ENDBLK
  5
2C
100
AcDbEntity
  8
0
100
AcDbBlockEnd
  0
BLOCK
  5
2E
100
AcDbEntity
  8
0
100
AcDbBlockBegin
  2
_OPEN
 70
     0
 10
0.0
 20
0.0
  0
LINE
  5
2F
100
AcDbEntity
  8
0
 62
     0
100
AcDbLine
 10
-0.965926
 20
0.258819
 11
0.0
 21
0.0
  0
LINE
  5
30
100
AcDbEntity
  8
0
 62
     0
100
AcDbLine
 10
0.0
 20
0.0
 11
-0.965926
 21
-0.258819
  0
LINE
  5
31
100
AcDbEntity
  8
0
 62
     0
100
AcDbLine
 10
0.0
 20
0.0
 11
-1.0
 21
0.0
  0
ENDBLK
  5
32
100
AcDbEntity
  8
0
100
AcDbBlockEnd
  0
BLOCK
  5
34
100
AcDbEntity
  8
0
100
AcDbBlockBegin
  2
_CLOSED
 70
     0
 10
0.0
 20
0.0
  0
LINE
  5
35
100
AcDbEntity
  8
0
 62
     0
100
AcDbLine
 10
-0.965926
 20
0.258819
 11
0.0
 21
0.0
  0
LINE
  5
36
100
AcDbEntity
  8
0
 62
     0
100
AcDbLine
 10
0.0
 20
0.0
 11
-0.965926
 21
-0.258819
  0
LINE
  5
37
100
AcDbEntity
  8
0
 62
     0
100
AcDbLine
 10
-0.965926
 20
0.258819
 11
-0.965926
 21
-0.258819
  0
LINE
  5
38
100
AcDbEntity
  8
0
 62
     0
100
AcDbLine
 10
0.0
 20
0.0
 11
-1.0
 21
0.0
  0
ENDBLK
  5
39
100
AcDbEntity
  8
0
100
AcDbBlockEnd
  0
BLOCK
  5
3B
100
AcDbEntity
  8
0
100
AcDbBlockBegin
  2
_ORIGIN
 70
     0
 10
0.0
 20
0.0
  0
CIRCLE
  5
3C
100
AcDbEntity
  8
0
 62
     0
100
AcDbCircle
 10
0.0
 20
0.0
 40
0.5
  0
LINE
  5
3D
100
AcDbEntity
  8
0
 62
     0
100
AcDbLine
 10
0.0
 20
0.0
 11
-1.0
 21
0.0
  0
ENDBLK
  5
3E
100
AcDbEntity
  8
0
100
AcDbBlockEnd
  0
BLOCK
  5
40
100
AcDbEntity
  8
0
100
AcDbBlockBegin
  2
_DOT
 70
     0
 10
0.0
 20
0.0
  0
POLYLINE
  5
41
100
AcDbEntity
  8
0
 62
     0
100
AcDb2dPolyline
 66
     1
 70
     1
 40
0.5
 41
0.5
  0
VERTEX
  5
42
100
AcDbEntity
  8
0
 62
     0
100
AcDbVertex
100
AcDb2dVertex
 10
-0.25
 20
0.0
 42
1.0
  0
VERTEX
  5
43
100
AcDbEntity
  8
0
 62
     0
100
AcDbVertex
100
AcDb2dVertex
 10
0.25
 20
0.0
 42
1.0
  0
SEQEND
  5
44
100
AcDbEntity
  8
0
 62
     0
  0
LINE
  5
45
100
AcDbEntity
  8
0
 62
     0
100
AcDbLine
 10
-0.5
 20
0.0
 11
-1.0
 21
0.0
  0
ENDBLK
  5
46
100
AcDbEntity
  8
0
100
AcDbBlockEnd
  0
BLOCK
  5
48
100
AcDbEntity
  8
0
100
AcDbBlockBegin
  2
_OBLIQUE
 70
     0
 10
0.0
 20
0.0
  0
LINE
  5
49
100
AcDbEntity
  8
0
 62
     0
100
AcDbLine
 10
-0.353553
 20
-0.353553
 11
0.353553
 21
0.353553
  0
ENDBLK
  5
4A
100
AcDbEntity
  8
0
100
AcDbBlockEnd
  0
BLOCK
  5
4C
100
AcDbEntity
  8
DD0
100
AcDbBlockBegin
  2
DIMS0
 70
     0
 10
0.0
 20
0.0
  0
LINE
  5
4D
100
AcDbEntity
  8
DD0
 60
     1
100
AcDbLine
 10
210.52675
 20
400.401163
 11
210.52675
 21
442.900475
  0
LINE
  5
4E
100
AcDbEntity
  8
DD0
100
AcDbLine
 10
206.526748
 20
376.401174
 11
206.526748
 21
442.900475
  0
LINE
  5
4F
100
AcDbEntity
  8
DD0
100
AcDbLine
 10
201.697119
 20
439.939713
 11
206.526748
 21
441.233808
  0
LINE
  5
50
100
AcDbEntity
  8
DD0
100
AcDbLine
 10
206.526748
 20
441.233808
 11
201.697119
 21
442.527903
  0
LINE
  5
51
100
AcDbEntity
  8
DD0
100
AcDbLine
 10
210.52675
 20
441.233808
 11
201.026748
 21
441.233808
  0
TEXT
  5
52
100
AcDbEntity
  8
DD0
100
AcDbText
 10
206.330929
 20
442.233818
 40
5.25
  1
４
 41
0.833333
  7
STANDARD
100
AcDbText
  0
ENDBLK
  5
53
100
AcDbEntity
  8
DD0
100
AcDbBlockEnd
  0
BLOCK
  5
56
100
AcDbEntity
  8
DD0
100
AcDbBlockBegin
  2
DIMS1
 70
     0
 10
0.0
 20
0.0
  0
LINE
  5
57
100
AcDbEntity
  8
DD0
100
AcDbLine
 10
210.52675
 20
400.401163
 11
210.52675
 21
442.900475
  0
LINE
  5
58
100
AcDbEntity
  8
DD0
100
AcDbLine
 10
294.226444
 20
419.401178
 11
294.226444
 21
442.900475
  0
LINE
  5
59
100
AcDbEntity
  8
DD0
100
AcDbLine
 10
215.356379
 20
442.527903
 11
210.52675
 21
441.233808
  0
LINE
  5
5A
100
AcDbEntity
  8
DD0
100
AcDbLine
 10
210.52675
 20
441.233808
 11
215.356379
 21
439.939713
  0
LINE
  5
5B
100
AcDbEntity
  8
DD0
100
AcDbLine
 10
289.396815
 20
439.939713
 11
294.226444
 21
441.233808
  0
LINE
  5
5C
100
AcDbEntity
  8
DD0
100
AcDbLine
 10
294.226444
 20
441.233808
 11
289.396815
 21
442.527903
  0
LINE
  5
5D
100
AcDbEntity
  8
DD0
100
AcDbLine
 10
210.52675
 20
441.233808
 11
294.226444
 21
441.233808
  0
TEXT
  5
5E
100
AcDbEntity
  8
DD0
100
AcDbText
 10
242.305761
 20
442.233818
 40
5.25
  1
８３．５
 41
0.833333
  7
STANDARD
100
AcDbText
  0
ENDBLK
  5
5F
100
AcDbEntity
  8
DD0
100
AcDbBlockEnd
  0
BLOCK
  5
62
100
AcDbEntity
  8
DD0
100
AcDbBlockBegin
  2
DIMS2
 70
     0
 10
0.0
 20
0.0
  0
LINE
  5
63
100
AcDbEntity
  8
DD0
100
AcDbLine
 10
293.026264
 20
419.401178
 11
293.026264
 21
429.07235
  0
LINE
  5
64
100
AcDbEntity
  8
DD0
 60
     1
100
AcDbLine
 10
294.226444
 20
419.401178
 11
294.226444
 21
429.07235
  0
LINE
  5
65
100
AcDbEntity
  8
DD0
100
AcDbLine
 10
288.196635
 20
426.111588
 11
293.026264
 21
427.405684
  0
LINE
  5
66
100
AcDbEntity
  8
DD0
100
AcDbLine
 10
293.026264
 20
427.405684
 11
288.196635
 21
428.699779
  0
LINE
  5
67
100
AcDbEntity
  8
DD0
100
AcDbLine
 10
299.056073
 20
428.699779
 11
294.226444
 21
427.405684
  0
LINE
  5
68
100
AcDbEntity
  8
DD0
100
AcDbLine
 10
294.226444
 20
427.405684
 11
299.056073
 21
426.111588
  0
LINE
  5
69
100
AcDbEntity
  8
DD0
100
AcDbLine
 10
287.526264
 20
427.405684
 11
317.143111
 21
427.405684
  0
TEXT
  5
6A
100
AcDbEntity
  8
DD0
100
AcDbText
 10
300.155618
 20
428.405694
 40
5.25
  1
１．２
 41
0.833333
  7
STANDARD
100
AcDbText
  0
ENDBLK
  5
6B
100
AcDbEntity
  8
DD0
100
AcDbBlockEnd
  0
BLOCK
  5
6E
100
AcDbEntity
  8
DD0
100
AcDbBlockBegin
  2
DIMS3
 70
     0
 10
0.0
 20
0.0
  0
LINE
  5
6F
100
AcDbEntity
  8
DD0
100
AcDbLine
 10
43.088695
 20
419.401254
 11
43.088695
 21
442.900475
  0
LINE
  5
70
100
AcDbEntity
  8
DD0
100
AcDbLine
 10
163.08869
 20
419.401254
 11
163.08869
 21
442.900475
  0
LINE
  5
71
100
AcDbEntity
  8
DD0
100
AcDbLine
 10
47.918324
 20
442.527903
 11
43.088695
 21
441.233808
  0
LINE
  5
72
100
AcDbEntity
  8
DD0
100
AcDbLine
 10
43.088695
 20
441.233808
 11
47.918324
 21
439.939713
  0
LINE
  5
73
100
AcDbEntity
  8
DD0
100
AcDbLine
 10
158.259061
 20
439.939713
 11
163.08869
 21
441.233808
  0
LINE
  5
74
100
AcDbEntity
  8
DD0
100
AcDbLine
 10
163.08869
 20
441.233808
 11
158.259061
 21
442.527903
  0
LINE
  5
75
100
AcDbEntity
  8
DD0
100
AcDbLine
 10
43.088695
 20
441.233808
 11
163.08869
 21
441.233808
  0
TEXT
  5
76
100
AcDbEntity
  8
DD0
100
AcDbText
 10
95.642864
 20
442.233818
 40
5.25
  1
１２０
 41
0.833333
  7
STANDARD
100
AcDbText
  0
ENDBLK
  5
77
100
AcDbEntity
  8
DD0
100
AcDbBlockEnd
  0
BLOCK
  5
7A
100
AcDbEntity
  8
DD0
100
AcDbBlockBegin
  2
DIMS4
 70
     0
 10
0.0
 20
0.0
  0
LINE
  5
7B
100
AcDbEntity
  8
DD0
100
AcDbLine
 10
164.755357
 20
417.734587
 11
183.674449
 21
417.734587
  0
LINE
  5
7C
100
AcDbEntity
  8
DD0
100
AcDbLine
 10
76.758458
 20
286.430805
 11
183.674449
 21
286.430805
  0
LINE
  5
7D
100
AcDbEntity
  8
DD0
100
AcDbLine
 10
183.301878
 20
412.904958
 11
182.007782
 21
417.734587
  0
LINE
  5
7E
100
AcDbEntity
  8
DD0
100
AcDbLine
 10
182.007782
 20
417.734587
 11
180.713687
 21
412.904958
  0
LINE
  5
7F
100
AcDbEntity
  8
DD0
100
AcDbLine
 10
180.713687
 20
291.260434
 11
182.007782
 21
286.430805
  0
LINE
  5
80
100
AcDbEntity
  8
DD0
100
AcDbLine
 10
182.007782
 20
286.430805
 11
183.301878
 21
291.260434
  0
LINE
  5
81
100
AcDbEntity
  8
DD0
100
AcDbLine
 10
182.007782
 20
417.734587
 11
182.007782
 21
286.430805
  0
TEXT
  5
82
100
AcDbEntity
  8
DD0
100
AcDbText
 10
181.007785
 20
344.636868
 40
5.25
  1
１３２
 50
90.000003
 41
0.833333
  7
STANDARD
100
AcDbText
  0
ENDBLK
  5
83
100
AcDbEntity
  8
DD0
100
AcDbBlockEnd
  0
BLOCK
  5
86
100
AcDbEntity
  8
DD0
100
AcDbBlockBegin
  2
DIMS5
 70
     0
 10
0.0
 20
0.0
  0
LINE
  5
87
100
AcDbEntity
  8
DD0
 60
     1
100
AcDbLine
 10
46.5309
 20
273.136128
 11
6.447584
 21
273.136179
  0
ENDBLK
  5
88
100
AcDbEntity
  8
DD0
100
AcDbBlockEnd
  0
BLOCK
  5
8B
100
AcDbEntity
  8
DD0
100
AcDbBlockBegin
  2
DIMS6
 70
     0
 10
0.0
 20
0.0
  0
LINE
  5
8C
100
AcDbEntity
  8
DD0
 60
     1
100
AcDbLine
 10
188.428007
 20
277.325454
 11
143.094629
 21
277.325632
  0
ENDBLK
  5
8D
100
AcDbEntity
  8
DD0
100
AcDbBlockEnd
  0
BLOCK
  5
90
100
AcDbEntity
  8
DD0
100
AcDbBlockBegin
  2
DIMS7
 70
     0
 10
0.0
 20
0.0
  0
LINE
  5
91
100
AcDbEntity
  8
DD0
100
AcDbLine
 10
164.753958
 20
224.473715
 11
183.674449
 21
224.473715
  0
LINE
  5
92
100
AcDbEntity
  8
DD0
100
AcDbLine
 10
156.351605
 20
216.973461
 11
183.674449
 21
216.973461
  0
LINE
  5
93
100
AcDbEntity
  8
DD0
100
AcDbLine
 10
180.713687
 20
229.303344
 11
182.007782
 21
224.473715
  0
LINE
  5
94
100
AcDbEntity
  8
DD0
100
AcDbLine
 10
182.007782
 20
224.473715
 11
183.301878
 21
229.303344
  0
LINE
  5
95
100
AcDbEntity
  8
DD0
100
AcDbLine
 10
183.301878
 20
212.143833
 11
182.007782
 21
216.973461
  0
LINE
  5
96
100
AcDbEntity
  8
DD0
100
AcDbLine
 10
182.007782
 20
216.973461
 11
180.713687
 21
212.143833
  0
LINE
  5
97
100
AcDbEntity
  8
DD0
100
AcDbLine
 10
182.007782
 20
245.350084
 11
182.007782
 21
211.473462
  0
TEXT
  5
98
100
AcDbEntity
  8
DD0
100
AcDbText
 10
181.007887
 20
228.362586
 40
5.25
  1
７．５
 50
89.999982
 41
0.833333
  7
STANDARD
100
AcDbText
  0
ENDBLK
  5
99
100
AcDbEntity
  8
DD0
100
AcDbBlockEnd
  0
BLOCK
  5
9C
100
AcDbEntity
  8
DD0
100
AcDbBlockBegin
  2
DIMS8
 70
     0
 10
0.0
 20
0.0
  0
LINE
  5
9D
100
AcDbEntity
  8
DD0
100
AcDbLine
 10
58.087531
 20
224.73754
 11
58.087531
 21
242.80687
  0
LINE
  5
9E
100
AcDbEntity
  8
DD0
 60
     1
100
AcDbLine
 10
148.087534
 20
225.237062
 11
148.087534
 21
242.80687
  0
LINE
  5
9F
100
AcDbEntity
  8
DD0
100
AcDbLine
 10
62.91716
 20
242.434299
 11
58.087531
 21
241.140203
  0
LINE
  5
A0
100
AcDbEntity
  8
DD0
100
AcDbLine
 10
58.087531
 20
241.140203
 11
62.91716
 21
239.846108
  0
LINE
  5
A1
100
AcDbEntity
  8
DD0
100
AcDbLine
 10
143.257905
 20
239.846108
 11
148.087534
 21
241.140203
  0
LINE
  5
A2
100
AcDbEntity
  8
DD0
100
AcDbLine
 10
148.087534
 20
241.140203
 11
143.257905
 21
242.434299
  0
LINE
  5
A3
100
AcDbEntity
  8
DD0
100
AcDbLine
 10
58.087531
 20
241.140203
 11
148.087534
 21
241.140203
  0
TEXT
  5
A4
100
AcDbEntity
  8
DD0
100
AcDbText
 10
98.266702
 20
242.140214
 40
5.25
  1
９０
 41
0.833333
  7
STANDARD
100
AcDbText
  0
ENDBLK
  5
A5
100
AcDbEntity
  8
DD0
100
AcDbBlockEnd
  0
BLOCK
  5
A8
100
AcDbEntity
  8
DD0
100
AcDbBlockBegin
  2
DIMS9
 70
     0
 10
0.0
 20
0.0
  0
LINE
  5
A9
100
AcDbEntity
  8
DD0
100
AcDbLine
 10
156.351605
 20
216.973461
 11
183.674449
 21
216.973461
  0
LINE
  5
AA
100
AcDbEntity
  8
DD0
100
AcDbLine
 10
111.351606
 20
141.978106
 11
183.674449
 21
141.978106
  0
LINE
  5
AB
100
AcDbEntity
  8
DD0
100
AcDbLine
 10
183.301878
 20
212.143833
 11
182.007782
 21
216.973461
  0
LINE
  5
AC
100
AcDbEntity
  8
DD0
100
AcDbLine
 10
182.007782
 20
216.973461
 11
180.713687
 21
212.143833
  0
LINE
  5
AD
100
AcDbEntity
  8
DD0
100
AcDbLine
 10
180.713687
 20
146.807735
 11
182.007782
 21
141.978106
  0
LINE
  5
AE
100
AcDbEntity
  8
DD0
100
AcDbLine
 10
182.007782
 20
141.978106
 11
183.301878
 21
146.807735
  0
LINE
  5
AF
100
AcDbEntity
  8
DD0
100
AcDbLine
 10
182.007782
 20
216.973461
 11
182.007782
 21
141.978106
  0
TEXT
  5
B0
100
AcDbEntity
  8
DD0
100
AcDbText
 10
181.007785
 20
174.654943
 40
5.25
  1
７５
 50
90.000003
 41
0.833333
  7
STANDARD
100
AcDbText
  0
ENDBLK
  5
B1
100
AcDbEntity
  8
DD0
100
AcDbBlockEnd
  0
BLOCK
  5
B4
100
AcDbEntity
  8
DD0
100
AcDbBlockBegin
  2
DIMS10
 70
     0
 10
0.0
 20
0.0
  0
LINE
  5
B5
100
AcDbEntity
  8
DD0
100
AcDbLine
 10
109.87831
 20
136.084772
 11
105.977251
 21
139.212348
  0
LINE
  5
B6
100
AcDbEntity
  8
DD0
100
AcDbLine
 10
105.977251
 20
139.212348
 11
107.791879
 21
134.553258
  0
LINE
  5
B7
100
AcDbEntity
  8
DD0
100
AcDbLine
 10
105.977251
 20
139.212348
 11
117.867071
 21
123.014458
  0
ENDBLK
  5
B8
100
AcDbEntity
  8
DD0
100
AcDbBlockEnd
  0
BLOCK
  5
BB
100
AcDbEntity
  8
DD0
100
AcDbBlockBegin
  2
DIMS11
 70
     0
 10
0.0
 20
0.0
  0
TEXT
  5
BC
100
AcDbEntity
  8
DD0
100
AcDbText
 10
120.826833
 20
119.731911
 40
5.25
  1
３－Ｍ４ねじ穴
 41
0.833333
  7
STANDARD
100
AcDbText
  0
ENDBLK
  5
BD
100
AcDbEntity
  8
DD0
100
AcDbBlockEnd
  0
BLOCK
  5
C0
100
AcDbEntity
  8
DD0
100
AcDbBlockBegin
  2
DIMS12
 70
     0
 10
0.0
 20
0.0
  0
LINE
  5
C1
100
AcDbEntity
  8
DD0
100
AcDbLine
 10
294.226444
 20
326.067848
 11
294.226444
 21
266.088195
  0
LINE
  5
C2
100
AcDbEntity
  8
DD0
100
AcDbLine
 10
199.726453
 20
319.064013
 11
199.726453
 21
266.088195
  0
LINE
  5
C3
100
AcDbEntity
  8
DD0
100
AcDbLine
 10
289.396815
 20
266.460767
 11
294.226444
 21
267.754862
  0
LINE
  5
C4
100
AcDbEntity
  8
DD0
100
AcDbLine
 10
294.226444
 20
267.754862
 11
289.396815
 21
269.048957
  0
LINE
  5
C5
100
AcDbEntity
  8
DD0
100
AcDbLine
 10
204.556082
 20
269.048957
 11
199.726453
 21
267.754862
  0
LINE
  5
C6
100
AcDbEntity
  8
DD0
100
AcDbLine
 10
199.726453
 20
267.754862
 11
204.556082
 21
266.460767
  0
LINE
  5
C7
100
AcDbEntity
  8
DD0
100
AcDbLine
 10
294.226444
 20
267.754862
 11
199.726453
 21
267.754862
  0
TEXT
  5
C8
100
AcDbEntity
  8
DD0
100
AcDbText
 10
236.905625
 20
268.754872
 40
5.25
  1
９４．５
 41
0.833333
  7
STANDARD
100
AcDbText
  0
ENDBLK
  5
C9
100
AcDbEntity
  8
DD0
100
AcDbBlockEnd
  0
BLOCK
  5
CC
100
AcDbEntity
  8
DD0
100
AcDbBlockBegin
  2
DIMS13
 70
     0
 10
0.0
 20
0.0
  0
LINE
  5
CD
100
AcDbEntity
  8
DD0
100
AcDbLine
 10
163.087292
 20
226.140382
 11
163.087292
 21
242.80687
  0
LINE
  5
CE
100
AcDbEntity
  8
DD0
100
AcDbLine
 10
148.087534
 20
225.237062
 11
148.087534
 21
242.80687
  0
LINE
  5
CF
100
AcDbEntity
  8
DD0
100
AcDbLine
 10
158.257663
 20
239.846108
 11
163.087292
 21
241.140203
  0
LINE
  5
D0
100
AcDbEntity
  8
DD0
100
AcDbLine
 10
163.087292
 20
241.140203
 11
158.257663
 21
242.434299
  0
LINE
  5
D1
100
AcDbEntity
  8
DD0
100
AcDbLine
 10
152.917163
 20
242.434299
 11
148.087534
 21
241.140203
  0
LINE
  5
D2
100
AcDbEntity
  8
DD0
100
AcDbLine
 10
148.087534
 20
241.140203
 11
152.917163
 21
239.846108
  0
LINE
  5
D3
100
AcDbEntity
  8
DD0
100
AcDbLine
 10
163.087292
 20
241.140203
 11
148.087534
 21
241.140203
  0
TEXT
  5
D4
100
AcDbEntity
  8
DD0
100
AcDbText
 10
150.766573
 20
242.140214
 40
5.25
  1
１５
 41
0.833333
  7
STANDARD
100
AcDbText
  0
ENDBLK
  5
D5
100
AcDbEntity
  8
DD0
100
AcDbBlockEnd
  0
ENDSEC
  0
SECTION
  2
ENTITIES
  0
INSERT
  5
54
100
AcDbEntity
  8
DD0
100
AcDbBlockReference
  2
DIMS0
 10
0.0
 20
0.0
  0
INSERT
  5
60
100
AcDbEntity
  8
DD0
100
AcDbBlockReference
  2
DIMS1
 10
0.0
 20
0.0
  0
INSERT
  5
6C
100
AcDbEntity
  8
DD0
100
AcDbBlockReference
  2
DIMS2
 10
0.0
 20
0.0
  0
INSERT
  5
78
100
AcDbEntity
  8
DD0
100
AcDbBlockReference
  2
DIMS3
 10
0.0
 20
0.0
  0
INSERT
  5
84
100
AcDbEntity
  8
DD0
100
AcDbBlockReference
  2
DIMS4
 10
0.0
 20
0.0
  0
INSERT
  5
89
100
AcDbEntity
  8
DD0
100
AcDbBlockReference
  2
DIMS5
 10
0.0
 20
0.0
  0
INSERT
  5
8E
100
AcDbEntity
  8
DD0
100
AcDbBlockReference
  2
DIMS6
 10
0.0
 20
0.0
  0
INSERT
  5
9A
100
AcDbEntity
  8
DD0
100
AcDbBlockReference
  2
DIMS7
 10
0.0
 20
0.0
  0
INSERT
  5
A6
100
AcDbEntity
  8
DD0
100
AcDbBlockReference
  2
DIMS8
 10
0.0
 20
0.0
  0
INSERT
  5
B2
100
AcDbEntity
  8
DD0
100
AcDbBlockReference
  2
DIMS9
 10
0.0
 20
0.0
  0
INSERT
  5
B9
100
AcDbEntity
  8
DD0
100
AcDbBlockReference
  2
DIMS10
 10
0.0
 20
0.0
  0
INSERT
  5
BE
100
AcDbEntity
  8
DD0
100
AcDbBlockReference
  2
DIMS11
 10
0.0
 20
0.0
  0
INSERT
  5
CA
100
AcDbEntity
  8
DD0
100
AcDbBlockReference
  2
DIMS12
 10
0.0
 20
0.0
  0
INSERT
  5
D6
100
AcDbEntity
  8
DD0
100
AcDbBlockReference
  2
DIMS13
 10
0.0
 20
0.0
  0
LINE
  5
D7
100
AcDbEntity
  8
M0
 62
     7
100
AcDbLine
 10
279.726697
 20
340.234516
 11
279.726697
 21
351.734501
  0
LINE
  5
D8
100
AcDbEntity
  8
M0
 62
     7
100
AcDbLine
 10
270.826688
 20
347.234516
 11
270.826688
 21
343.234516
  0
LINE
  5
D9
100
AcDbEntity
  8
M0
 62
     7
100
AcDbLine
 10
275.326688
 20
347.234516
 11
275.326688
 21
342.234516
  0
LINE
  5
DA
100
AcDbEntity
  8
M0
 62
     7
100
AcDbLine
 10
271.826688
 20
342.234516
 11
275.326688
 21
342.234516
  0
ARC
  5
DB
100
AcDbEntity
  8
M0
 62
     7
100
AcDbCircle
 10
271.826688
 20
343.234516
 40
1.0
100
AcDbArc
 50
179.999945
 51
270.0
  0
LINE
  5
DC
100
AcDbEntity
  8
M0
 62
     7
100
AcDbLine
 10
260.726697
 20
352.734516
 11
278.726697
 21
352.734516
  0
ARC
  5
DD
100
AcDbEntity
  8
M0
 62
     7
100
AcDbCircle
 10
278.726697
 20
351.734516
 40
1.0
100
AcDbArc
 50
0.0
 51
90.0
  0
ARC
  5
DE
100
AcDbEntity
  8
M0
 62
     7
100
AcDbCircle
 10
270.326688
 20
347.234516
 40
0.5
100
AcDbArc
 50
0.0
 51
90.0
  0
ARC
  5
DF
100
AcDbEntity
  8
M0
 62
     7
100
AcDbCircle
 10
270.326688
 20
346.281559
 40
0.5
100
AcDbArc
 50
0.0
 51
84.348228
  0
LINE
  5
E0
100
AcDbEntity
  8
M0
 62
     7
100
AcDbLine
 10
279.726697
 20
340.234516
 11
289.726697
 21
340.234516
  0
LINE
  5
E1
100
AcDbEntity
  8
M0
 62
     7
100
AcDbLine
 10
289.726697
 20
340.234516
 11
289.726682
 21
354.084522
  0
LINE
  5
E2
100
AcDbEntity
  8
M0
 62
     7
100
AcDbLine
 10
289.726697
 20
405.234516
 11
279.726697
 21
405.234501
  0
LINE
  5
E3
100
AcDbEntity
  8
M0
  6
DASHDOT
 62
     7
100
AcDbLine
 10
260.726697
 20
372.734516
 11
295.314328
 21
372.734516
  0
LINE
  5
E4
100
AcDbEntity
  8
M0
 62
     7
100
AcDbLine
 10
260.726697
 20
398.734516
 11
289.726697
 21
398.734516
  0
LINE
  5
E5
100
AcDbEntity
  8
M0
 62
     7
100
AcDbLine
 10
289.426694
 20
354.38451
 11
289.426694
 21
355.084507
  0
LINE
  5
E6
100
AcDbEntity
  8
M0
 62
     7
100
AcDbLine
 10
284.926694
 20
355.084522
 11
288.726697
 21
355.084522
  0
LINE
  5
E7
100
AcDbEntity
  8
M0
 62
     7
100
AcDbLine
 10
284.926694
 20
390.38451
 11
289.726697
 21
390.38451
  0
LINE
  5
E8
100
AcDbEntity
  8
M0
 62
     7
100
AcDbLine
 10
284.926648
 20
355.58437
 11
286.026502
 21
355.58437
  0
LINE
  5
E9
100
AcDbEntity
  8
M0
 62
     7
100
AcDbLine
 10
286.026624
 20
357.084522
 11
287.026624
 21
357.084522
  0
LINE
  5
EA
100
AcDbEntity
  8
M0
 62
     7
100
AcDbLine
 10
289.726697
 20
390.38451
 11
289.726697
 21
405.234516
  0
LINE
  5
EB
100
AcDbEntity
  8
M0
 62
     7
100
AcDbLine
 10
286.726666
 20
388.38451
 11
287.726666
 21
388.38451
  0
LINE
  5
EC
100
AcDbEntity
  8
M0
 62
     7
100
AcDbLine
 10
287.726682
 20
388.38451
 11
289.426694
 21
390.38451
  0
LINE
  5
ED
100
AcDbEntity
  8
M0
 62
     7
100
AcDbLine
 10
286.726682
 20
388.38451
 11
286.026685
 21
390.38451
  0
LINE
  5
EE
100
AcDbEntity
  8
M0
 62
     7
100
AcDbLine
 10
286.026624
 20
357.084522
 11
286.026624
 21
355.584522
  0
LINE
  5
EF
100
AcDbEntity
  8
M0
 62
     7
100
AcDbLine
 10
260.726697
 20
347.734516
 11
275.682507
 21
347.734516
  0
LINE
  5
F0
100
AcDbEntity
  8
M0
 62
     7
100
AcDbLine
 10
260.726697
 20
346.734516
 11
270.538403
 21
346.734516
  0
LINE
  5
F1
100
AcDbEntity
  8
M0
 62
     7
100
AcDbLine
 10
260.726697
 20
347.734516
 11
270.375943
 21
346.779133
  0
ARC
  5
F2
100
AcDbEntity
  8
M0
 62
     7
100
AcDbCircle
 10
275.82655
 20
347.234516
 40
0.5
100
AcDbArc
 50
107.036915
 51
179.999966
  0
ARC
  5
F3
100
AcDbEntity
  8
M0
 62
     7
100
AcDbCircle
 10
275.82655
 20
346.234516
 40
0.5
100
AcDbArc
 50
113.547633
 51
179.999959
  0
LINE
  5
F4
100
AcDbEntity
  8
M0
 62
     7
100
AcDbLine
 10
279.726697
 20
405.234501
 11
279.726697
 21
398.734516
  0
LINE
  5
F5
100
AcDbEntity
  8
M0
 62
     7
100
AcDbLine
 10
284.926694
 20
355.084522
 11
284.926694
 21
390.38451
  0
LINE
  5
F6
100
AcDbEntity
  8
M0
 62
     7
100
AcDbLine
 10
288.726697
 20
355.084522
 11
289.726682
 21
354.084522
  0
LINE
  5
F7
100
AcDbEntity
  8
M0
 62
     7
100
AcDbLine
 10
287.026624
 20
357.084522
 11
287.026624
 21
355.084522
  0
LINE
  5
F8
100
AcDbEntity
  8
M0
 62
     7
100
AcDbLine
 10
289.426694
 20
355.084507
 11
287.026624
 21
357.084522
  0
ARC
  5
F9
100
AcDbEntity
  8
M0
 62
     6
100
AcDbCircle
 10
116.088147
 20
344.734516
 40
3.0
100
AcDbArc
 50
122.232243
 51
218.051003
  0
LINE
  5
FA
100
AcDbEntity
  8
M0
 62
     6
100
AcDbLine
 10
112.991422
 20
348.234425
 11
112.313138
 21
346.034565
  0
LINE
  5
FB
100
AcDbEntity
  8
M0
 62
     6
100
AcDbLine
 10
112.770902
 20
341.949848
 11
112.313138
 21
343.434468
  0
LINE
  5
FC
100
AcDbEntity
  8
M0
 62
     6
100
AcDbLine
 10
119.184827
 20
348.234425
 11
119.863141
 21
346.034565
  0
LINE
  5
FD
100
AcDbEntity
  8
M0
 62
     6
100
AcDbLine
 10
119.046872
 20
340.787251
 11
119.863141
 21
343.43459
  0
LINE
  5
FE
100
AcDbEntity
  8
M0
 62
     6
100
AcDbLine
 10
115.854215
 20
340.434468
 11
118.569058
 21
340.434468
  0
LINE
  5
FF
100
AcDbEntity
  8
M0
 62
     6
100
AcDbLine
 10
119.863141
 20
343.43459
 11
119.863141
 21
346.034565
  0
LINE
  5
100
100
AcDbEntity
  8
M0
 62
     6
100
AcDbLine
 10
112.313138
 20
346.034565
 11
112.313138
 21
343.43459
  0
ARC
  5
101
100
AcDbEntity
  8
M0
 62
     6
100
AcDbCircle
 10
118.569058
 20
340.93459
 40
0.5
100
AcDbArc
 50
270.0
 51
342.861653
  0
ARC
  5
102
100
AcDbEntity
  8
M0
 62
     6
100
AcDbCircle
 10
116.088147
 20
344.734516
 40
3.0
100
AcDbArc
 50
284.335587
 51
417.767717
  0
CIRCLE
  5
103
100
AcDbEntity
  8
M0
 62
     6
100
AcDbCircle
 10
116.088147
 20
352.734516
 40
3.0
  0
LINE
  5
104
100
AcDbEntity
  8
M0
 62
     6
100
AcDbLine
 10
113.129392
 20
356.681858
 11
112.313138
 21
354.034565
  0
LINE
  5
105
100
AcDbEntity
  8
M0
 62
     6
100
AcDbLine
 10
113.129392
 20
348.787266
 11
112.313138
 21
351.43459
  0
LINE
  5
106
100
AcDbEntity
  8
M0
 62
     6
100
AcDbLine
 10
119.046872
 20
356.681874
 11
119.863141
 21
354.034565
  0
LINE
  5
107
100
AcDbEntity
  8
M0
 62
     6
100
AcDbLine
 10
119.046872
 20
348.787251
 11
119.863141
 21
351.43459
  0
LINE
  5
108
100
AcDbEntity
  8
M0
 62
     6
100
AcDbLine
 10
113.60719
 20
348.43459
 11
118.569058
 21
348.43459
  0
LINE
  5
109
100
AcDbEntity
  8
M0
 62
     6
100
AcDbLine
 10
119.863141
 20
351.43459
 11
119.863141
 21
354.034565
  0
LINE
  5
10A
100
AcDbEntity
  8
M0
 62
     6
100
AcDbLine
 10
118.569058
 20
357.034565
 11
113.60719
 21
357.03455
  0
LINE
  5
10B
100
AcDbEntity
  8
M0
 62
     6
100
AcDbLine
 10
112.313138
 20
354.034565
 11
112.313138
 21
351.43459
  0
LINE
  5
10C
100
AcDbEntity
  8
M0
  6
DASHDOT
 62
     6
100
AcDbLine
 10
109.813138
 20
352.734516
 11
122.363141
 21
352.734516
  0
LINE
  5
10D
100
AcDbEntity
  8
M0
  6
DASHDOT
 62
     6
100
AcDbLine
 10
116.088147
 20
345.934605
 11
116.088147
 21
359.534565
  0
LINE
  5
10E
100
AcDbEntity
  8
M0
 62
     6
100
AcDbLine
 10
117.678922
 20
351.143696
 11
114.497113
 21
354.325459
  0
LINE
  5
10F
100
AcDbEntity
  8
M0
 62
     6
100
AcDbLine
 10
116.441556
 20
354.148701
 11
114.673886
 21
352.381001
  0
LINE
  5
110
100
AcDbEntity
  8
M0
 62
     6
100
AcDbLine
 10
117.502164
 20
353.088032
 11
115.73454
 21
351.320454
  0
ARC
  5
111
100
AcDbEntity
  8
M0
 62
     6
100
AcDbCircle
 10
113.60719
 20
356.53455
 40
0.5
100
AcDbArc
 50
90.0
 51
162.865663
  0
ARC
  5
112
100
AcDbEntity
  8
M0
 62
     6
100
AcDbCircle
 10
113.60719
 20
348.93459
 40
0.5
100
AcDbArc
 50
197.137551
 51
270.0
  0
ARC
  5
113
100
AcDbEntity
  8
M0
 62
     6
100
AcDbCircle
 10
118.569058
 20
348.93459
 40
0.5
100
AcDbArc
 50
270.0
 51
342.861653
  0
ARC
  5
114
100
AcDbEntity
  8
M0
 62
     6
100
AcDbCircle
 10
118.569058
 20
356.53455
 40
0.5
100
AcDbArc
 50
17.134787
 51
90.0
  0
CIRCLE
  5
115
100
AcDbEntity
  8
M0
 62
     6
100
AcDbCircle
 10
126.088147
 20
352.734516
 40
3.0
  0
LINE
  5
116
100
AcDbEntity
  8
M0
 62
     6
100
AcDbLine
 10
123.129392
 20
356.681858
 11
122.313138
 21
354.034565
  0
LINE
  5
117
100
AcDbEntity
  8
M0
 62
     6
100
AcDbLine
 10
123.129392
 20
348.787266
 11
122.313138
 21
351.43459
  0
LINE
  5
118
100
AcDbEntity
  8
M0
 62
     6
100
AcDbLine
 10
129.046872
 20
356.681874
 11
129.863141
 21
354.034565
  0
LINE
  5
119
100
AcDbEntity
  8
M0
 62
     6
100
AcDbLine
 10
129.046872
 20
348.787251
 11
129.863141
 21
351.43459
  0
LINE
  5
11A
100
AcDbEntity
  8
M0
 62
     6
100
AcDbLine
 10
123.60719
 20
348.43459
 11
128.569058
 21
348.43459
  0
LINE
  5
11B
100
AcDbEntity
  8
M0
 62
     6
100
AcDbLine
 10
129.863141
 20
351.43459
 11
129.863141
 21
354.034565
  0
LINE
  5
11C
100
AcDbEntity
  8
M0
 62
     6
100
AcDbLine
 10
128.569058
 20
357.034565
 11
123.60719
 21
357.03455
  0
LINE
  5
11D
100
AcDbEntity
  8
M0
 62
     6
100
AcDbLine
 10
122.313138
 20
354.034565
 11
122.313138
 21
351.43459
  0
LINE
  5
11E
100
AcDbEntity
  8
M0
  6
DASHDOT
 62
     6
100
AcDbLine
 10
119.813138
 20
352.734516
 11
132.363141
 21
352.734516
  0
LINE
  5
11F
100
AcDbEntity
  8
M0
  6
DASHDOT
 62
     6
100
AcDbLine
 10
126.088147
 20
345.934605
 11
126.088147
 21
359.534565
  0
LINE
  5
120
100
AcDbEntity
  8
M0
 62
     6
100
AcDbLine
 10
127.678922
 20
351.143696
 11
124.497113
 21
354.325459
  0
LINE
  5
121
100
AcDbEntity
  8
M0
 62
     6
100
AcDbLine
 10
126.441556
 20
354.148701
 11
124.673886
 21
352.381001
  0
LINE
  5
122
100
AcDbEntity
  8
M0
 62
     6
100
AcDbLine
 10
127.502164
 20
353.088032
 11
125.73454
 21
351.320454
  0
ARC
  5
123
100
AcDbEntity
  8
M0
 62
     6
100
AcDbCircle
 10
123.60719
 20
356.53455
 40
0.5
100
AcDbArc
 50
90.0
 51
162.865663
  0
ARC
  5
124
100
AcDbEntity
  8
M0
 62
     6
100
AcDbCircle
 10
123.60719
 20
348.93459
 40
0.5
100
AcDbArc
 50
197.137551
 51
270.0
  0
ARC
  5
125
100
AcDbEntity
  8
M0
 62
     6
100
AcDbCircle
 10
128.569058
 20
348.93459
 40
0.5
100
AcDbArc
 50
270.0
 51
342.861653
  0
ARC
  5
126
100
AcDbEntity
  8
M0
 62
     6
100
AcDbCircle
 10
128.569058
 20
356.53455
 40
0.5
100
AcDbArc
 50
17.134787
 51
90.0
  0
CIRCLE
  5
127
100
AcDbEntity
  8
M0
 62
     6
100
AcDbCircle
 10
136.088147
 20
352.734516
 40
3.0
  0
LINE
  5
128
100
AcDbEntity
  8
M0
 62
     6
100
AcDbLine
 10
133.129392
 20
356.681858
 11
132.313138
 21
354.034565
  0
LINE
  5
129
100
AcDbEntity
  8
M0
 62
     6
100
AcDbLine
 10
133.129392
 20
348.787266
 11
132.313138
 21
351.43459
  0
LINE
  5
12A
100
AcDbEntity
  8
M0
 62
     6
100
AcDbLine
 10
139.046872
 20
356.681874
 11
139.863141
 21
354.034565
  0
LINE
  5
12B
100
AcDbEntity
  8
M0
 62
     6
100
AcDbLine
 10
139.046872
 20
348.787251
 11
139.863141
 21
351.43459
  0
LINE
  5
12C
100
AcDbEntity
  8
M0
 62
     6
100
AcDbLine
 10
133.60719
 20
348.43459
 11
138.569058
 21
348.43459
  0
LINE
  5
12D
100
AcDbEntity
  8
M0
 62
     6
100
AcDbLine
 10
139.863141
 20
351.43459
 11
139.863141
 21
354.034565
  0
LINE
  5
12E
100
AcDbEntity
  8
M0
 62
     6
100
AcDbLine
 10
138.569058
 20
357.034565
 11
133.60719
 21
357.03455
  0
LINE
  5
12F
100
AcDbEntity
  8
M0
 62
     6
100
AcDbLine
 10
132.313138
 20
354.034565
 11
132.313138
 21
351.43459
  0
LINE
  5
130
100
AcDbEntity
  8
M0
  6
DASHDOT
 62
     6
100
AcDbLine
 10
129.813138
 20
352.734516
 11
142.363141
 21
352.734516
  0
LINE
  5
131
100
AcDbEntity
  8
M0
 62
     6
100
AcDbLine
 10
137.678922
 20
351.143696
 11
134.497113
 21
354.325459
  0
LINE
  5
132
100
AcDbEntity
  8
M0
 62
     6
100
AcDbLine
 10
136.441556
 20
354.148701
 11
134.673886
 21
352.381001
  0
LINE
  5
133
100
AcDbEntity
  8
M0
 62
     6
100
AcDbLine
 10
137.502164
 20
353.088032
 11
135.73454
 21
351.320454
  0
ARC
  5
134
100
AcDbEntity
  8
M0
 62
     6
100
AcDbCircle
 10
133.60719
 20
356.53455
 40
0.5
100
AcDbArc
 50
90.0
 51
162.865663
  0
ARC
  5
135
100
AcDbEntity
  8
M0
 62
     6
100
AcDbCircle
 10
133.60719
 20
348.93459
 40
0.5
100
AcDbArc
 50
197.137551
 51
270.0
  0
ARC
  5
136
100
AcDbEntity
  8
M0
 62
     6
100
AcDbCircle
 10
138.569058
 20
348.93459
 40
0.5
100
AcDbArc
 50
270.0
 51
342.861653
  0
ARC
  5
137
100
AcDbEntity
  8
M0
 62
     6
100
AcDbCircle
 10
138.569058
 20
356.53455
 40
0.5
100
AcDbArc
 50
17.134787
 51
90.0
  0
CIRCLE
  5
138
100
AcDbEntity
  8
M0
 62
     6
100
AcDbCircle
 10
146.088147
 20
352.734516
 40
3.0
  0
LINE
  5
139
100
AcDbEntity
  8
M0
 62
     6
100
AcDbLine
 10
143.129392
 20
356.681858
 11
142.313138
 21
354.034565
  0
LINE
  5
13A
100
AcDbEntity
  8
M0
 62
     6
100
AcDbLine
 10
143.129392
 20
348.787266
 11
142.313138
 21
351.43459
  0
LINE
  5
13B
100
AcDbEntity
  8
M0
 62
     6
100
AcDbLine
 10
149.046872
 20
356.681874
 11
149.863141
 21
354.034565
  0
LINE
  5
13C
100
AcDbEntity
  8
M0
 62
     6
100
AcDbLine
 10
149.046872
 20
348.787251
 11
149.863141
 21
351.43459
  0
LINE
  5
13D
100
AcDbEntity
  8
M0
 62
     6
100
AcDbLine
 10
143.60719
 20
348.43459
 11
148.569058
 21
348.43459
  0
LINE
  5
13E
100
AcDbEntity
  8
M0
 62
     6
100
AcDbLine
 10
149.863141
 20
351.43459
 11
149.863141
 21
354.034565
  0
LINE
  5
13F
100
AcDbEntity
  8
M0
 62
     6
100
AcDbLine
 10
148.569058
 20
357.034565
 11
143.60719
 21
357.03455
  0
LINE
  5
140
100
AcDbEntity
  8
M0
 62
     6
100
AcDbLine
 10
142.313138
 20
354.034565
 11
142.313138
 21
351.43459
  0
LINE
  5
141
100
AcDbEntity
  8
M0
  6
DASHDOT
 62
     6
100
AcDbLine
 10
139.813138
 20
352.734516
 11
152.363141
 21
352.734516
  0
LINE
  5
142
100
AcDbEntity
  8
M0
  6
DASHDOT
 62
     6
100
AcDbLine
 10
146.088147
 20
345.934605
 11
146.088147
 21
359.534565
  0
LINE
  5
143
100
AcDbEntity
  8
M0
 62
     6
100
AcDbLine
 10
147.678922
 20
351.143696
 11
144.497113
 21
354.325459
  0
LINE
  5
144
100
AcDbEntity
  8
M0
 62
     6
100
AcDbLine
 10
146.441556
 20
354.148701
 11
144.673886
 21
352.381001
  0
LINE
  5
145
100
AcDbEntity
  8
M0
 62
     6
100
AcDbLine
 10
147.502164
 20
353.088032
 11
145.73454
 21
351.320454
  0
ARC
  5
146
100
AcDbEntity
  8
M0
 62
     6
100
AcDbCircle
 10
143.60719
 20
356.53455
 40
0.5
100
AcDbArc
 50
90.0
 51
162.865663
  0
ARC
  5
147
100
AcDbEntity
  8
M0
 62
     6
100
AcDbCircle
 10
143.60719
 20
348.93459
 40
0.5
100
AcDbArc
 50
197.137551
 51
270.0
  0
ARC
  5
148
100
AcDbEntity
  8
M0
 62
     6
100
AcDbCircle
 10
148.569058
 20
348.93459
 40
0.5
100
AcDbArc
 50
270.0
 51
342.861653
  0
ARC
  5
149
100
AcDbEntity
  8
M0
 62
     6
100
AcDbCircle
 10
148.569058
 20
356.53455
 40
0.5
100
AcDbArc
 50
17.134787
 51
90.0
  0
CIRCLE
  5
14A
100
AcDbEntity
  8
M0
 62
     6
100
AcDbCircle
 10
126.088147
 20
392.734516
 40
3.0
  0
LINE
  5
14B
100
AcDbEntity
  8
M0
 62
     6
100
AcDbLine
 10
123.129392
 20
396.681858
 11
122.313138
 21
394.034565
  0
LINE
  5
14C
100
AcDbEntity
  8
M0
 62
     6
100
AcDbLine
 10
123.129392
 20
388.787266
 11
122.313138
 21
391.43459
  0
LINE
  5
14D
100
AcDbEntity
  8
M0
 62
     6
100
AcDbLine
 10
129.046872
 20
396.681874
 11
129.863141
 21
394.034565
  0
LINE
  5
14E
100
AcDbEntity
  8
M0
 62
     6
100
AcDbLine
 10
129.046872
 20
388.787251
 11
129.863141
 21
391.43459
  0
LINE
  5
14F
100
AcDbEntity
  8
M0
 62
     6
100
AcDbLine
 10
123.60719
 20
388.43459
 11
128.569058
 21
388.43459
  0
LINE
  5
150
100
AcDbEntity
  8
M0
 62
     6
100
AcDbLine
 10
129.863141
 20
391.43459
 11
129.863141
 21
394.034565
  0
LINE
  5
151
100
AcDbEntity
  8
M0
 62
     6
100
AcDbLine
 10
128.569058
 20
397.034565
 11
123.60719
 21
397.03455
  0
LINE
  5
152
100
AcDbEntity
  8
M0
 62
     6
100
AcDbLine
 10
122.313138
 20
394.034565
 11
122.313138
 21
391.43459
  0
LINE
  5
153
100
AcDbEntity
  8
M0
  6
DASHDOT
 62
     6
100
AcDbLine
 10
119.813138
 20
392.734516
 11
132.363141
 21
392.734516
  0
LINE
  5
154
100
AcDbEntity
  8
M0
  6
DASHDOT
 62
     6
100
AcDbLine
 10
126.088147
 20
385.934605
 11
126.088147
 21
399.534565
  0
LINE
  5
155
100
AcDbEntity
  8
M0
 62
     6
100
AcDbLine
 10
127.678922
 20
391.143696
 11
124.497113
 21
394.325459
  0
LINE
  5
156
100
AcDbEntity
  8
M0
 62
     6
100
AcDbLine
 10
126.441556
 20
394.148701
 11
124.673886
 21
392.381001
  0
LINE
  5
157
100
AcDbEntity
  8
M0
 62
     6
100
AcDbLine
 10
127.502164
 20
393.088032
 11
125.73454
 21
391.320454
  0
ARC
  5
158
100
AcDbEntity
  8
M0
 62
     6
100
AcDbCircle
 10
123.60719
 20
396.53455
 40
0.5
100
AcDbArc
 50
90.0
 51
162.865663
  0
ARC
  5
159
100
AcDbEntity
  8
M0
 62
     6
100
AcDbCircle
 10
123.60719
 20
388.93459
 40
0.5
100
AcDbArc
 50
197.137551
 51
270.0
  0
ARC
  5
15A
100
AcDbEntity
  8
M0
 62
     6
100
AcDbCircle
 10
128.569058
 20
388.93459
 40
0.5
100
AcDbArc
 50
270.0
 51
342.861653
  0
ARC
  5
15B
100
AcDbEntity
  8
M0
 62
     6
100
AcDbCircle
 10
128.569058
 20
396.53455
 40
0.5
100
AcDbArc
 50
17.134787
 51
90.0
  0
CIRCLE
  5
15C
100
AcDbEntity
  8
M0
 62
     6
100
AcDbCircle
 10
136.088147
 20
392.734516
 40
3.0
  0
LINE
  5
15D
100
AcDbEntity
  8
M0
 62
     6
100
AcDbLine
 10
133.129392
 20
396.681858
 11
132.313138
 21
394.034565
  0
LINE
  5
15E
100
AcDbEntity
  8
M0
 62
     6
100
AcDbLine
 10
133.129392
 20
388.787266
 11
132.313138
 21
391.43459
  0
LINE
  5
15F
100
AcDbEntity
  8
M0
 62
     6
100
AcDbLine
 10
139.046872
 20
396.681874
 11
139.863141
 21
394.034565
  0
LINE
  5
160
100
AcDbEntity
  8
M0
 62
     6
100
AcDbLine
 10
139.046872
 20
388.787251
 11
139.863141
 21
391.43459
  0
LINE
  5
161
100
AcDbEntity
  8
M0
 62
     6
100
AcDbLine
 10
133.60719
 20
388.43459
 11
138.569058
 21
388.43459
  0
LINE
  5
162
100
AcDbEntity
  8
M0
 62
     6
100
AcDbLine
 10
139.863141
 20
391.43459
 11
139.863141
 21
394.034565
  0
LINE
  5
163
100
AcDbEntity
  8
M0
 62
     6
100
AcDbLine
 10
138.569058
 20
397.034565
 11
133.60719
 21
397.03455
  0
LINE
  5
164
100
AcDbEntity
  8
M0
 62
     6
100
AcDbLine
 10
132.313138
 20
394.034565
 11
132.313138
 21
391.43459
  0
LINE
  5
165
100
AcDbEntity
  8
M0
  6
DASHDOT
 62
     6
100
AcDbLine
 10
129.813138
 20
392.734516
 11
142.363141
 21
392.734516
  0
LINE
  5
166
100
AcDbEntity
  8
M0
 62
     6
100
AcDbLine
 10
137.678922
 20
391.143696
 11
134.497113
 21
394.325459
  0
LINE
  5
167
100
AcDbEntity
  8
M0
 62
     6
100
AcDbLine
 10
136.441556
 20
394.148701
 11
134.673886
 21
392.381001
  0
LINE
  5
168
100
AcDbEntity
  8
M0
 62
     6
100
AcDbLine
 10
137.502164
 20
393.088032
 11
135.73454
 21
391.320454
  0
ARC
  5
169
100
AcDbEntity
  8
M0
 62
     6
100
AcDbCircle
 10
133.60719
 20
396.53455
 40
0.5
100
AcDbArc
 50
90.0
 51
162.865663
  0
ARC
  5
16A
100
AcDbEntity
  8
M0
 62
     6
100
AcDbCircle
 10
133.60719
 20
388.93459
 40
0.5
100
AcDbArc
 50
197.137551
 51
270.0
  0
ARC
  5
16B
100
AcDbEntity
  8
M0
 62
     6
100
AcDbCircle
 10
138.569058
 20
388.93459
 40
0.5
100
AcDbArc
 50
270.0
 51
342.861653
  0
ARC
  5
16C
100
AcDbEntity
  8
M0
 62
     6
100
AcDbCircle
 10
138.569058
 20
396.53455
 40
0.5
100
AcDbArc
 50
17.134787
 51
90.0
  0
CIRCLE
  5
16D
100
AcDbEntity
  8
M0
 62
     6
100
AcDbCircle
 10
146.088147
 20
392.734516
 40
3.0
  0
LINE
  5
16E
100
AcDbEntity
  8
M0
 62
     6
100
AcDbLine
 10
143.129392
 20
396.681858
 11
142.313138
 21
394.034565
  0
LINE
  5
16F
100
AcDbEntity
  8
M0
 62
     6
100
AcDbLine
 10
143.129392
 20
388.787266
 11
142.313138
 21
391.43459
  0
LINE
  5
170
100
AcDbEntity
  8
M0
 62
     6
100
AcDbLine
 10
149.046872
 20
396.681874
 11
149.863141
 21
394.034565
  0
LINE
  5
171
100
AcDbEntity
  8
M0
 62
     6
100
AcDbLine
 10
149.046872
 20
388.787251
 11
149.863141
 21
391.43459
  0
LINE
  5
172
100
AcDbEntity
  8
M0
 62
     6
100
AcDbLine
 10
143.60719
 20
388.43459
 11
148.569058
 21
388.43459
  0
LINE
  5
173
100
AcDbEntity
  8
M0
 62
     6
100
AcDbLine
 10
149.863141
 20
391.43459
 11
149.863141
 21
394.034565
  0
LINE
  5
174
100
AcDbEntity
  8
M0
 62
     6
100
AcDbLine
 10
148.569058
 20
397.034565
 11
143.60719
 21
397.03455
  0
LINE
  5
175
100
AcDbEntity
  8
M0
 62
     6
100
AcDbLine
 10
142.313138
 20
394.034565
 11
142.313138
 21
391.43459
  0
LINE
  5
176
100
AcDbEntity
  8
M0
  6
DASHDOT
 62
     6
100
AcDbLine
 10
139.813138
 20
392.734516
 11
152.363141
 21
392.734516
  0
LINE
  5
177
100
AcDbEntity
  8
M0
  6
DASHDOT
 62
     6
100
AcDbLine
 10
146.088147
 20
385.934605
 11
146.088147
 21
399.534565
  0
LINE
  5
178
100
AcDbEntity
  8
M0
 62
     6
100
AcDbLine
 10
147.678922
 20
391.143696
 11
144.497113
 21
394.325459
  0
LINE
  5
179
100
AcDbEntity
  8
M0
 62
     6
100
AcDbLine
 10
146.441556
 20
394.148701
 11
144.673886
 21
392.381001
  0
LINE
  5
17A
100
AcDbEntity
  8
M0
 62
     6
100
AcDbLine
 10
147.502164
 20
393.088032
 11
145.73454
 21
391.320454
  0
ARC
  5
17B
100
AcDbEntity
  8
M0
 62
     6
100
AcDbCircle
 10
143.60719
 20
396.53455
 40
0.5
100
AcDbArc
 50
90.0
 51
162.865663
  0
ARC
  5
17C
100
AcDbEntity
  8
M0
 62
     6
100
AcDbCircle
 10
143.60719
 20
388.93459
 40
0.5
100
AcDbArc
 50
197.137551
 51
270.0
  0
ARC
  5
17D
100
AcDbEntity
  8
M0
 62
     6
100
AcDbCircle
 10
148.569058
 20
388.93459
 40
0.5
100
AcDbArc
 50
270.0
 51
342.861653
  0
ARC
  5
17E
100
AcDbEntity
  8
M0
 62
     6
100
AcDbCircle
 10
148.569058
 20
396.53455
 40
0.5
100
AcDbArc
 50
17.134787
 51
90.0
  0
CIRCLE
  5
17F
100
AcDbEntity
  8
M0
 62
     6
100
AcDbCircle
 10
156.088147
 20
400.734272
 40
3.0
  0
LINE
  5
180
100
AcDbEntity
  8
M0
 62
     6
100
AcDbLine
 10
153.129392
 20
404.681614
 11
152.313138
 21
402.034321
  0
LINE
  5
181
100
AcDbEntity
  8
M0
 62
     6
100
AcDbLine
 10
152.991513
 20
397.234181
 11
152.313138
 21
399.434345
  0
LINE
  5
182
100
AcDbEntity
  8
M0
 62
     6
100
AcDbLine
 10
159.046872
 20
404.681629
 11
159.863141
 21
402.034321
  0
LINE
  5
183
100
AcDbEntity
  8
M0
 62
     6
100
AcDbLine
 10
159.18475
 20
397.234181
 11
159.863141
 21
399.434345
  0
LINE
  5
184
100
AcDbEntity
  8
M0
 62
     6
100
AcDbLine
 10
159.863141
 20
399.434345
 11
159.863141
 21
402.034321
  0
LINE
  5
185
100
AcDbEntity
  8
M0
 62
     6
100
AcDbLine
 10
158.569058
 20
405.034321
 11
153.60719
 21
405.034306
  0
LINE
  5
186
100
AcDbEntity
  8
M0
 62
     6
100
AcDbLine
 10
152.313138
 20
402.034321
 11
152.313138
 21
399.434345
  0
LINE
  5
187
100
AcDbEntity
  8
M0
  6
DASHDOT
 62
     6
100
AcDbLine
 10
149.813138
 20
400.734272
 11
162.363141
 21
400.734272
  0
LINE
  5
188
100
AcDbEntity
  8
M0
  6
DASHDOT
 62
     6
100
AcDbLine
 10
156.088147
 20
393.934361
 11
156.088147
 21
407.534321
  0
LINE
  5
189
100
AcDbEntity
  8
M0
 62
     6
100
AcDbLine
 10
157.678922
 20
399.143452
 11
154.497113
 21
402.325215
  0
LINE
  5
18A
100
AcDbEntity
  8
M0
 62
     6
100
AcDbLine
 10
156.441556
 20
402.148457
 11
154.673886
 21
400.380757
  0
LINE
  5
18B
100
AcDbEntity
  8
M0
 62
     6
100
AcDbLine
 10
157.502164
 20
401.087788
 11
155.73454
 21
399.32021
  0
ARC
  5
18C
100
AcDbEntity
  8
M0
 62
     6
100
AcDbCircle
 10
153.60719
 20
404.534306
 40
0.5
100
AcDbArc
 50
90.0
 51
162.865663
  0
ARC
  5
18D
100
AcDbEntity
  8
M0
 62
     6
100
AcDbCircle
 10
158.569058
 20
404.534306
 40
0.5
100
AcDbArc
 50
17.134787
 51
90.0
  0
CIRCLE
  5
18E
100
AcDbEntity
  8
M0
 62
     6
100
AcDbCircle
 10
156.088147
 20
392.734516
 40
3.0
  0
LINE
  5
18F
100
AcDbEntity
  8
M0
 62
     6
100
AcDbLine
 10
153.129392
 20
396.681858
 11
152.313138
 21
394.034565
  0
LINE
  5
190
100
AcDbEntity
  8
M0
 62
     6
100
AcDbLine
 10
153.129392
 20
388.787266
 11
152.313138
 21
391.43459
  0
LINE
  5
191
100
AcDbEntity
  8
M0
 62
     6
100
AcDbLine
 10
159.046872
 20
396.681874
 11
159.863141
 21
394.034565
  0
LINE
  5
192
100
AcDbEntity
  8
M0
 62
     6
100
AcDbLine
 10
159.046872
 20
388.787251
 11
159.863141
 21
391.43459
  0
LINE
  5
193
100
AcDbEntity
  8
M0
 62
     6
100
AcDbLine
 10
153.60719
 20
388.43459
 11
158.569058
 21
388.43459
  0
LINE
  5
194
100
AcDbEntity
  8
M0
 62
     6
100
AcDbLine
 10
159.863141
 20
391.43459
 11
159.863141
 21
394.034565
  0
LINE
  5
195
100
AcDbEntity
  8
M0
 62
     6
100
AcDbLine
 10
158.569058
 20
397.034565
 11
153.60719
 21
397.03455
  0
LINE
  5
196
100
AcDbEntity
  8
M0
 62
     6
100
AcDbLine
 10
152.313138
 20
394.034565
 11
152.313138
 21
391.43459
  0
LINE
  5
197
100
AcDbEntity
  8
M0
  6
DASHDOT
 62
     6
100
AcDbLine
 10
149.813138
 20
392.734516
 11
162.363141
 21
392.734516
  0
LINE
  5
198
100
AcDbEntity
  8
M0
  6
DASHDOT
 62
     6
100
AcDbLine
 10
156.088147
 20
385.934605
 11
156.088147
 21
399.534565
  0
LINE
  5
199
100
AcDbEntity
  8
M0
 62
     6
100
AcDbLine
 10
157.678922
 20
391.143696
 11
154.497113
 21
394.325459
  0
LINE
  5
19A
100
AcDbEntity
  8
M0
 62
     6
100
AcDbLine
 10
156.441556
 20
394.148701
 11
154.673886
 21
392.381001
  0
LINE
  5
19B
100
AcDbEntity
  8
M0
 62
     6
100
AcDbLine
 10
157.502164
 20
393.088032
 11
155.73454
 21
391.320454
  0
ARC
  5
19C
100
AcDbEntity
  8
M0
 62
     6
100
AcDbCircle
 10
153.60719
 20
396.53455
 40
0.5
100
AcDbArc
 50
90.0
 51
162.865663
  0
ARC
  5
19D
100
AcDbEntity
  8
M0
 62
     6
100
AcDbCircle
 10
153.60719
 20
388.93459
 40
0.5
100
AcDbArc
 50
197.137551
 51
270.0
  0
ARC
  5
19E
100
AcDbEntity
  8
M0
 62
     6
100
AcDbCircle
 10
158.569058
 20
388.93459
 40
0.5
100
AcDbArc
 50
270.0
 51
342.861653
  0
ARC
  5
19F
100
AcDbEntity
  8
M0
 62
     6
100
AcDbCircle
 10
158.569058
 20
396.53455
 40
0.5
100
AcDbArc
 50
17.134787
 51
90.0
  0
LINE
  5
1A0
100
AcDbEntity
  8
M0
 62
     1
100
AcDbLine
 10
131.488141
 20
341.234593
 11
134.159467
 21
341.234516
  0
ARC
  5
1A1
100
AcDbEntity
  8
M0
 62
     1
100
AcDbCircle
 10
131.488141
 20
342.234593
 40
1.0
100
AcDbArc
 50
210.003761
 51
270.0
  0
ARC
  5
1A2
100
AcDbEntity
  8
M0
 62
     1
100
AcDbCircle
 10
140.488141
 20
342.234593
 40
1.0
100
AcDbArc
 50
270.0
 51
329.995752
  0
LINE
  5
1A3
100
AcDbEntity
  8
M0
 62
     1
100
AcDbLine
 10
133.038144
 20
343.53458
 11
134.491757
 21
343.534565
  0
LINE
  5
1A4
100
AcDbEntity
  8
M0
 62
     1
100
AcDbLine
 10
139.338147
 20
343.734562
 11
139.338147
 21
344.734501
  0
ARC
  5
1A5
100
AcDbEntity
  8
M0
 62
     1
100
AcDbCircle
 10
133.038144
 20
343.734577
 40
0.2
100
AcDbArc
 50
179.999727
 51
270.0
  0
ARC
  5
1A6
100
AcDbEntity
  8
M0
 62
     1
100
AcDbCircle
 10
139.138135
 20
343.734577
 40
0.2
100
AcDbArc
 50
270.0
 51
360.0
  0
LINE
  5
1A7
100
AcDbEntity
  8
M0
 62
     1
100
AcDbLine
 10
132.838132
 20
344.734501
 11
132.838147
 21
343.734577
  0
LINE
  5
1A8
100
AcDbEntity
  8
M0
 62
     1
100
AcDbLine
 10
137.69177
 20
343.534565
 11
139.138135
 21
343.534565
  0
LINE
  5
1A9
100
AcDbEntity
  8
M0
 62
     1
100
AcDbLine
 10
137.512479
 20
341.234516
 11
140.488141
 21
341.234593
  0
LINE
  5
1AA
100
AcDbEntity
  8
M0
 62
     2
100
AcDbLine
 10
206.526746
 20
374.7345
 11
206.526761
 21
370.734501
  0
LINE
  5
1AB
100
AcDbEntity
  8
M0
 62
     2
100
AcDbLine
 10
210.526746
 20
375.234485
 11
207.026746
 21
375.2345
  0
LINE
  5
1AC
100
AcDbEntity
  8
M0
 62
     2
100
AcDbLine
 10
210.526746
 20
370.234516
 11
207.026762
 21
370.234516
  0
ARC
  5
1AD
100
AcDbEntity
  8
M0
 62
     2
100
AcDbCircle
 10
207.026746
 20
374.7345
 40
0.5
100
AcDbArc
 50
90.0
 51
179.999982
  0
ARC
  5
1AE
100
AcDbEntity
  8
M0
 62
     2
100
AcDbCircle
 10
207.026761
 20
370.734501
 40
0.5
100
AcDbArc
 50
179.999968
 51
270.0
  0
LINE
  5
1AF
100
AcDbEntity
  8
M0
100
AcDbLine
 10
68.225705
 20
335.630467
 11
67.681851
 21
335.631214
  0
LINE
  5
1B0
100
AcDbEntity
  8
M0
100
AcDbLine
 10
252.726682
 20
402.734257
 11
252.726697
 21
405.234135
  0
LINE
  5
1B1
100
AcDbEntity
  8
M0
100
AcDbLine
 10
253.926679
 20
403.0201
 11
253.926694
 21
405.23412
  0
LINE
  5
1B2
100
AcDbEntity
  8
M0
 62
     6
100
AcDbLine
 10
249.676679
 20
403.734242
 11
249.553082
 21
403.734242
  0
LINE
  5
1B3
100
AcDbEntity
  8
M0
 62
     6
100
AcDbLine
 10
249.821027
 20
403.234287
 11
250.326688
 21
403.234287
  0
LINE
  5
1B4
100
AcDbEntity
  8
M0
 62
     6
100
AcDbLine
 10
250.326688
 20
405.034275
 11
251.926679
 21
405.034275
  0
LINE
  5
1B5
100
AcDbEntity
  8
M0
 62
     6
100
AcDbLine
 10
251.926679
 20
404.034275
 11
252.726682
 21
403.834278
  0
LINE
  5
1B6
100
AcDbEntity
  8
M0
 62
     6
100
AcDbLine
 10
251.926679
 20
404.03426
 11
251.926679
 21
405.034275
  0
LINE
  5
1B7
100
AcDbEntity
  8
M0
 62
     6
100
AcDbLine
 10
250.326672
 20
403.834278
 11
250.926663
 21
403.834278
  0
ARC
  5
1B8
100
AcDbEntity
  8
M0
 62
     6
100
AcDbCircle
 10
247.976697
 20
402.734272
 40
1.0
100
AcDbArc
 50
90.0
 51
180.0
  0
ARC
  5
1B9
100
AcDbEntity
  8
M0
 62
     6
100
AcDbCircle
 10
260.577496
 20
402.234242
 40
11.300797
100
AcDbArc
 50
173.274797
 51
177.463452
  0
LINE
  5
1BA
100
AcDbEntity
  8
M0
 62
     6
100
AcDbLine
 10
249.2767
 20
403.734242
 11
247.976697
 21
403.734287
  0
ARC
  5
1BB
100
AcDbEntity
  8
M0
 62
     6
100
AcDbCircle
 10
261.077374
 20
402.234242
 40
11.300682
100
AcDbArc
 50
173.948749
 51
177.463398
  0
LINE
  5
1BC
100
AcDbEntity
  8
M0
 62
     6
100
AcDbLine
 10
249.876691
 20
403.534214
 11
249.876691
 21
403.234287
  0
ARC
  5
1BD
100
AcDbEntity
  8
M0
 62
     6
100
AcDbCircle
 10
249.676679
 20
403.534214
 40
0.2
100
AcDbArc
 50
0.0
 51
90.0
  0
ARC
  5
1BE
100
AcDbEntity
  8
M0
 62
     6
100
AcDbCircle
 10
249.553082
 20
403.53423
 40
0.2
100
AcDbArc
 50
90.0
 51
173.28397
  0
LINE
  5
1BF
100
AcDbEntity
  8
M0
 62
     6
100
AcDbLine
 10
252.726666
 20
402.734349
 11
252.726682
 21
403.834263
  0
LINE
  5
1C0
100
AcDbEntity
  8
M0
 62
     6
100
AcDbLine
 10
249.276685
 20
402.734349
 11
249.2767
 21
403.734287
  0
LINE
  5
1C1
100
AcDbEntity
  8
M0
 62
     6
100
AcDbLine
 10
250.326672
 20
402.734349
 11
250.326688
 21
405.034275
  0
LINE
  5
1C2
100
AcDbEntity
  8
M0
 62
     6
100
AcDbLine
 10
250.926648
 20
402.734349
 11
250.926663
 21
403.834278
  0
LINE
  5
1C3
100
AcDbEntity
  8
M0
 62
     4
100
AcDbLine
 10
162.588162
 20
344.234532
 11
162.588162
 21
404.734516
  0
LINE
  5
1C4
100
AcDbEntity
  8
M0
 62
     4
100
AcDbLine
 10
162.088162
 20
402.734516
 11
160.538114
 21
402.734516
  0
LINE
  5
1C5
100
AcDbEntity
  8
M0
 62
     4
100
AcDbLine
 10
109.588162
 20
401.234272
 11
109.588162
 21
341.234516
  0
LINE
  5
1C6
100
AcDbEntity
  8
M0
  6
DASHDOT
 62
     4
100
AcDbLine
 10
104.588162
 20
372.734516
 11
167.588162
 21
372.734516
  0
LINE
  5
1C7
100
AcDbEntity
  8
M0
  6
DASHDOT
 62
     4
100
AcDbLine
 10
136.088162
 20
335.234516
 11
136.088162
 21
410.234516
  0
LINE
  5
1C8
100
AcDbEntity
  8
M0
 62
     4
100
AcDbLine
 10
132.137967
 20
388.734516
 11
132.137967
 21
403.234471
  0
LINE
  5
1C9
100
AcDbEntity
  8
M0
 62
     4
100
AcDbLine
 10
140.038114
 20
388.734516
 11
140.038114
 21
403.234501
  0
LINE
  5
1CA
100
AcDbEntity
  8
M0
 62
     4
100
AcDbLine
 10
131.637967
 20
403.734501
 11
130.538114
 21
403.734501
  0
LINE
  5
1CB
100
AcDbEntity
  8
M0
 62
     4
100
AcDbLine
 10
133.137967
 20
387.734516
 11
139.038114
 21
387.734516
  0
ARC
  5
1CC
100
AcDbEntity
  8
M0
 62
     4
100
AcDbCircle
 10
133.137967
 20
388.734516
 40
1.0
100
AcDbArc
 50
180.0
 51
270.0
  0
ARC
  5
1CD
100
AcDbEntity
  8
M0
 62
     4
100
AcDbCircle
 10
139.038114
 20
388.734516
 40
1.0
100
AcDbArc
 50
269.916016
 51
360.0
  0
ARC
  5
1CE
100
AcDbEntity
  8
M0
 62
     4
100
AcDbCircle
 10
140.538114
 20
403.234501
 40
0.5
100
AcDbArc
 50
90.0
 51
180.0
  0
ARC
  5
1CF
100
AcDbEntity
  8
M0
 62
     4
100
AcDbCircle
 10
131.637967
 20
403.234486
 40
0.5
100
AcDbArc
 50
0.0
 51
90.0
  0
LINE
  5
1D0
100
AcDbEntity
  8
M0
 62
     4
100
AcDbLine
 10
111.637967
 20
401.734486
 11
110.088162
 21
401.734486
  0
LINE
  5
1D1
100
AcDbEntity
  8
M0
 62
     4
100
AcDbLine
 10
121.637967
 20
403.734486
 11
120.538114
 21
403.734486
  0
LINE
  5
1D2
100
AcDbEntity
  8
M0
 62
     4
100
AcDbLine
 10
141.637967
 20
403.734501
 11
140.538114
 21
403.734501
  0
LINE
  5
1D3
100
AcDbEntity
  8
M0
 62
     4
100
AcDbLine
 10
151.637967
 20
403.734501
 11
150.538114
 21
403.734501
  0
ARC
  5
1D4
100
AcDbEntity
  8
M0
 62
     4
100
AcDbCircle
 10
162.088162
 20
402.234501
 40
0.5
100
AcDbArc
 50
0.0
 51
90.0
  0
ARC
  5
1D5
100
AcDbEntity
  8
M0
 62
     4
100
AcDbCircle
 10
160.538114
 20
402.234501
 40
0.5
100
AcDbArc
 50
90.0
 51
180.0
  0
ARC
  5
1D6
100
AcDbEntity
  8
M0
 62
     4
100
AcDbCircle
 10
150.538114
 20
403.234501
 40
0.5
100
AcDbArc
 50
90.0
 51
180.0
  0
ARC
  5
1D7
100
AcDbEntity
  8
M0
 62
     4
100
AcDbCircle
 10
130.538114
 20
403.234486
 40
0.5
100
AcDbArc
 50
90.0
 51
180.0
  0
ARC
  5
1D8
100
AcDbEntity
  8
M0
 62
     4
100
AcDbCircle
 10
120.538114
 20
403.234471
 40
0.5
100
AcDbArc
 50
90.0
 51
180.0
  0
ARC
  5
1D9
100
AcDbEntity
  8
M0
 62
     4
100
AcDbCircle
 10
110.088162
 20
401.234471
 40
0.5
100
AcDbArc
 50
89.998251
 51
180.0
  0
LINE
  5
1DA
100
AcDbEntity
  8
M0
 62
     4
100
AcDbLine
 10
152.137967
 20
397.234516
 11
160.038114
 21
397.234516
  0
LINE
  5
1DB
100
AcDbEntity
  8
M0
 62
     4
100
AcDbLine
 10
142.137967
 20
397.234516
 11
150.038114
 21
397.234516
  0
LINE
  5
1DC
100
AcDbEntity
  8
M0
 62
     4
100
AcDbLine
 10
132.137967
 20
397.234516
 11
140.038114
 21
397.234516
  0
LINE
  5
1DD
100
AcDbEntity
  8
M0
 62
     4
100
AcDbLine
 10
122.137967
 20
397.234516
 11
130.038114
 21
397.234516
  0
LINE
  5
1DE
100
AcDbEntity
  8
M0
 62
     4
100
AcDbLine
 10
120.038114
 20
397.234516
 11
112.137967
 21
397.234516
  0
LINE
  5
1DF
100
AcDbEntity
  8
M0
 62
     4
100
AcDbLine
 10
122.137967
 20
400.734516
 11
124.491757
 21
400.734516
  0
LINE
  5
1E0
100
AcDbEntity
  8
M0
 62
     4
100
AcDbLine
 10
132.137967
 20
400.734516
 11
134.491757
 21
400.734516
  0
LINE
  5
1E1
100
AcDbEntity
  8
M0
 62
     4
100
AcDbLine
 10
142.137967
 20
400.734516
 11
150.038114
 21
400.734516
  0
LINE
  5
1E2
100
AcDbEntity
  8
M0
 62
     4
100
AcDbLine
 10
150.538114
 20
405.234516
 11
162.088162
 21
405.234516
  0
ARC
  5
1E3
100
AcDbEntity
  8
M0
 62
     4
100
AcDbCircle
 10
150.538114
 20
404.734516
 40
0.5
100
AcDbArc
 50
90.0
 51
180.0
  0
ARC
  5
1E4
100
AcDbEntity
  8
M0
 62
     4
100
AcDbCircle
 10
162.088162
 20
404.734516
 40
0.5
100
AcDbArc
 50
0.0
 51
90.0
  0
ARC
  5
1E5
100
AcDbEntity
  8
M0
 62
     4
100
AcDbCircle
 10
160.538114
 20
404.734516
 40
0.5
100
AcDbArc
 50
90.0
 51
180.0
  0
LINE
  5
1E6
100
AcDbEntity
  8
M0
 62
     4
100
AcDbLine
 10
147.750028
 20
400.734516
 11
150.100614
 21
404.976826
  0
LINE
  5
1E7
100
AcDbEntity
  8
M0
 62
     4
100
AcDbLine
 10
142.137967
 20
388.734516
 11
142.137967
 21
403.234471
  0
ARC
  5
1E8
100
AcDbEntity
  8
M0
 62
     4
100
AcDbCircle
 10
143.137967
 20
388.734516
 40
1.0
100
AcDbArc
 50
180.0
 51
269.930004
  0
LINE
  5
1E9
100
AcDbEntity
  8
M0
 62
     4
100
AcDbLine
 10
143.137967
 20
387.734516
 11
149.038114
 21
387.734516
  0
ARC
  5
1EA
100
AcDbEntity
  8
M0
 62
     4
100
AcDbCircle
 10
149.038114
 20
388.734516
 40
1.0
100
AcDbArc
 50
269.916016
 51
360.0
  0
LINE
  5
1EB
100
AcDbEntity
  8
M0
 62
     4
100
AcDbLine
 10
150.038114
 20
388.734516
 11
150.038114
 21
404.734516
  0
ARC
  5
1EC
100
AcDbEntity
  8
M0
 62
     4
100
AcDbCircle
 10
141.637967
 20
403.234486
 40
0.5
100
AcDbArc
 50
0.0
 51
90.0
  0
LINE
  5
1ED
100
AcDbEntity
  8
M0
 62
     4
100
AcDbLine
 10
122.137967
 20
388.734516
 11
122.137967
 21
403.234455
  0
ARC
  5
1EE
100
AcDbEntity
  8
M0
 62
     4
100
AcDbCircle
 10
123.137967
 20
388.734516
 40
1.0
100
AcDbArc
 50
180.0
 51
269.930059
  0
LINE
  5
1EF
100
AcDbEntity
  8
M0
 62
     4
100
AcDbLine
 10
123.137967
 20
387.734516
 11
129.038114
 21
387.734516
  0
ARC
  5
1F0
100
AcDbEntity
  8
M0
 62
     4
100
AcDbCircle
 10
129.038114
 20
388.734516
 40
1.0
100
AcDbArc
 50
269.888094
 51
360.0
  0
LINE
  5
1F1
100
AcDbEntity
  8
M0
 62
     4
100
AcDbLine
 10
130.038114
 20
388.734516
 11
130.038114
 21
403.234486
  0
ARC
  5
1F2
100
AcDbEntity
  8
M0
 62
     4
100
AcDbCircle
 10
121.637967
 20
403.234471
 40
0.5
100
AcDbArc
 50
0.0
 51
90.0
  0
LINE
  5
1F3
100
AcDbEntity
  8
M0
 62
     4
100
AcDbLine
 10
152.137967
 20
388.734516
 11
152.137967
 21
404.734516
  0
ARC
  5
1F4
100
AcDbEntity
  8
M0
 62
     4
100
AcDbCircle
 10
153.137967
 20
388.734516
 40
1.0
100
AcDbArc
 50
180.0
 51
269.929185
  0
LINE
  5
1F5
100
AcDbEntity
  8
M0
 62
     4
100
AcDbLine
 10
153.137967
 20
387.734516
 11
159.038114
 21
387.734516
  0
ARC
  5
1F6
100
AcDbEntity
  8
M0
 62
     4
100
AcDbCircle
 10
159.038114
 20
388.734516
 40
1.0
100
AcDbArc
 50
269.915196
 51
360.0
  0
LINE
  5
1F7
100
AcDbEntity
  8
M0
 62
     4
100
AcDbLine
 10
160.038114
 20
388.734516
 11
160.038114
 21
404.734516
  0
ARC
  5
1F8
100
AcDbEntity
  8
M0
 62
     4
100
AcDbCircle
 10
151.637967
 20
403.234486
 40
0.5
100
AcDbArc
 50
0.0
 51
90.0
  0
ARC
  5
1F9
100
AcDbEntity
  8
M0
 62
     4
100
AcDbCircle
 10
151.637967
 20
404.734516
 40
0.5
100
AcDbArc
 50
0.0
 51
90.0
  0
ARC
  5
1FA
100
AcDbEntity
  8
M0
 62
     4
100
AcDbCircle
 10
113.137967
 20
388.734516
 40
1.0
100
AcDbArc
 50
180.0
 51
269.969401
  0
LINE
  5
1FB
100
AcDbEntity
  8
M0
 62
     4
100
AcDbLine
 10
112.137967
 20
388.734516
 11
112.137967
 21
401.234455
  0
LINE
  5
1FC
100
AcDbEntity
  8
M0
 62
     4
100
AcDbLine
 10
113.137967
 20
387.734516
 11
119.038114
 21
387.734516
  0
ARC
  5
1FD
100
AcDbEntity
  8
M0
 62
     4
100
AcDbCircle
 10
119.038114
 20
388.734516
 40
1.0
100
AcDbArc
 50
269.927436
 51
360.0
  0
LINE
  5
1FE
100
AcDbEntity
  8
M0
 62
     4
100
AcDbLine
 10
120.038114
 20
388.734516
 11
120.038114
 21
403.234471
  0
ARC
  5
1FF
100
AcDbEntity
  8
M0
 62
     4
100
AcDbCircle
 10
111.637967
 20
401.234471
 40
0.5
100
AcDbArc
 50
0.0
 51
89.998251
  0
LINE
  5
200
100
AcDbEntity
  8
M0
 62
     4
100
AcDbLine
 10
110.088162
 20
342.734516
 11
111.638211
 21
342.734516
  0
LINE
  5
201
100
AcDbEntity
  8
M0
 62
     4
100
AcDbLine
 10
140.038358
 20
356.734516
 11
140.038358
 21
342.234562
  0
LINE
  5
202
100
AcDbEntity
  8
M0
 62
     4
100
AcDbLine
 10
132.138211
 20
356.734516
 11
132.138211
 21
342.234532
  0
LINE
  5
203
100
AcDbEntity
  8
M0
 62
     4
100
AcDbLine
 10
140.538358
 20
341.734532
 11
141.638211
 21
341.734532
  0
LINE
  5
204
100
AcDbEntity
  8
M0
 62
     4
100
AcDbLine
 10
139.038358
 20
357.734516
 11
133.138211
 21
357.734516
  0
ARC
  5
205
100
AcDbEntity
  8
M0
 62
     4
100
AcDbCircle
 10
139.038358
 20
356.734516
 40
1.0
100
AcDbArc
 50
0.0
 51
90.0
  0
ARC
  5
206
100
AcDbEntity
  8
M0
 62
     4
100
AcDbCircle
 10
133.138211
 20
356.734516
 40
1.0
100
AcDbArc
 50
89.916016
 51
179.999945
  0
ARC
  5
207
100
AcDbEntity
  8
M0
 62
     4
100
AcDbCircle
 10
131.638211
 20
342.234532
 40
0.5
100
AcDbArc
 50
270.027977
 51
360.0
  0
ARC
  5
208
100
AcDbEntity
  8
M0
 62
     4
100
AcDbCircle
 10
140.538358
 20
342.234547
 40
0.5
100
AcDbArc
 50
179.998251
 51
270.027868
  0
LINE
  5
209
100
AcDbEntity
  8
M0
 62
     4
100
AcDbLine
 10
160.538358
 20
343.734547
 11
162.088162
 21
343.734547
  0
LINE
  5
20A
100
AcDbEntity
  8
M0
 62
     4
100
AcDbLine
 10
150.538358
 20
341.734547
 11
151.638211
 21
341.734547
  0
LINE
  5
20B
100
AcDbEntity
  8
M0
 62
     4
100
AcDbLine
 10
130.538358
 20
341.734532
 11
131.638211
 21
341.734532
  0
LINE
  5
20C
100
AcDbEntity
  8
M0
 62
     4
100
AcDbLine
 10
120.538358
 20
341.734532
 11
121.638211
 21
341.734532
  0
ARC
  5
20D
100
AcDbEntity
  8
M0
 62
     4
100
AcDbCircle
 10
111.638211
 20
343.234532
 40
0.5
100
AcDbArc
 50
270.027977
 51
360.0
  0
ARC
  5
20E
100
AcDbEntity
  8
M0
 62
     4
100
AcDbCircle
 10
121.638211
 20
342.234532
 40
0.5
100
AcDbArc
 50
270.027977
 51
360.0
  0
ARC
  5
20F
100
AcDbEntity
  8
M0
 62
     4
100
AcDbCircle
 10
141.638211
 20
342.234547
 40
0.5
100
AcDbArc
 50
270.027868
 51
360.0
  0
ARC
  5
210
100
AcDbEntity
  8
M0
 62
     4
100
AcDbCircle
 10
151.638211
 20
342.234562
 40
0.5
100
AcDbArc
 50
270.027868
 51
360.0
  0
LINE
  5
211
100
AcDbEntity
  8
M0
 62
     4
100
AcDbLine
 10
120.038358
 20
348.234516
 11
112.138211
 21
348.234516
  0
LINE
  5
212
100
AcDbEntity
  8
M0
 62
     4
100
AcDbLine
 10
130.038358
 20
348.234516
 11
122.138211
 21
348.234516
  0
LINE
  5
213
100
AcDbEntity
  8
M0
 62
     4
100
AcDbLine
 10
140.038358
 20
348.234516
 11
132.138211
 21
348.234516
  0
LINE
  5
214
100
AcDbEntity
  8
M0
 62
     4
100
AcDbLine
 10
150.038358
 20
348.234516
 11
142.138211
 21
348.234516
  0
LINE
  5
215
100
AcDbEntity
  8
M0
 62
     4
100
AcDbLine
 10
152.138211
 20
348.234516
 11
160.038358
 21
348.234516
  0
LINE
  5
216
100
AcDbEntity
  8
M0
 62
     4
100
AcDbLine
 10
150.038358
 20
344.734516
 11
142.138211
 21
344.734516
  0
LINE
  5
217
100
AcDbEntity
  8
M0
 62
     4
100
AcDbLine
 10
140.038358
 20
344.734516
 11
137.69177
 21
344.734272
  0
LINE
  5
218
100
AcDbEntity
  8
M0
 62
     4
100
AcDbLine
 10
130.038358
 20
344.734516
 11
127.69177
 21
344.734272
  0
LINE
  5
219
100
AcDbEntity
  8
M0
 62
     4
100
AcDbLine
 10
121.638211
 20
340.234516
 11
115.668393
 21
340.234516
  0
ARC
  5
21A
100
AcDbEntity
  8
M0
 62
     4
100
AcDbCircle
 10
121.638211
 20
340.734516
 40
0.5
100
AcDbArc
 50
270.027977
 51
360.0
  0
LINE
  5
21B
100
AcDbEntity
  8
M0
 62
     4
100
AcDbLine
 10
124.426297
 20
344.734516
 11
122.075711
 21
340.492207
  0
LINE
  5
21C
100
AcDbEntity
  8
M0
 62
     4
100
AcDbLine
 10
130.038358
 20
356.734516
 11
130.038358
 21
342.234562
  0
ARC
  5
21D
100
AcDbEntity
  8
M0
 62
     4
100
AcDbCircle
 10
129.038358
 20
356.734516
 40
1.0
100
AcDbArc
 50
0.0
 51
89.943992
  0
LINE
  5
21E
100
AcDbEntity
  8
M0
 62
     4
100
AcDbLine
 10
129.038358
 20
357.734516
 11
123.138211
 21
357.734516
  0
ARC
  5
21F
100
AcDbEntity
  8
M0
 62
     4
100
AcDbCircle
 10
123.138211
 20
356.734516
 40
1.0
100
AcDbArc
 50
89.916016
 51
179.999945
  0
LINE
  5
220
100
AcDbEntity
  8
M0
 62
     4
100
AcDbLine
 10
122.138211
 20
356.734516
 11
122.138211
 21
340.734516
  0
ARC
  5
221
100
AcDbEntity
  8
M0
 62
     4
100
AcDbCircle
 10
130.538358
 20
342.234547
 40
0.5
100
AcDbArc
 50
179.998251
 51
270.027977
  0
LINE
  5
222
100
AcDbEntity
  8
M0
 62
     4
100
AcDbLine
 10
150.038358
 20
356.734516
 11
150.038358
 21
342.234577
  0
ARC
  5
223
100
AcDbEntity
  8
M0
 62
     4
100
AcDbCircle
 10
149.038358
 20
356.734516
 40
1.0
100
AcDbArc
 50
0.0
 51
89.944047
  0
LINE
  5
224
100
AcDbEntity
  8
M0
 62
     4
100
AcDbLine
 10
149.038358
 20
357.734516
 11
143.138211
 21
357.734516
  0
ARC
  5
225
100
AcDbEntity
  8
M0
 62
     4
100
AcDbCircle
 10
143.138211
 20
356.734516
 40
1.0
100
AcDbArc
 50
89.888094
 51
179.999945
  0
LINE
  5
226
100
AcDbEntity
  8
M0
 62
     4
100
AcDbLine
 10
142.138211
 20
356.734516
 11
142.138211
 21
342.234547
  0
ARC
  5
227
100
AcDbEntity
  8
M0
 62
     4
100
AcDbCircle
 10
150.538358
 20
342.234562
 40
0.5
100
AcDbArc
 50
179.998251
 51
270.027868
  0
LINE
  5
228
100
AcDbEntity
  8
M0
 62
     4
100
AcDbLine
 10
120.038358
 20
356.734516
 11
120.038358
 21
340.734516
  0
ARC
  5
229
100
AcDbEntity
  8
M0
 62
     4
100
AcDbCircle
 10
119.038358
 20
356.734516
 40
1.0
100
AcDbArc
 50
0.0
 51
89.930059
  0
LINE
  5
22A
100
AcDbEntity
  8
M0
 62
     4
100
AcDbLine
 10
119.038358
 20
357.734516
 11
113.138211
 21
357.734516
  0
ARC
  5
22B
100
AcDbEntity
  8
M0
 62
     4
100
AcDbCircle
 10
113.138211
 20
356.734516
 40
1.0
100
AcDbArc
 50
89.915196
 51
179.999945
  0
LINE
  5
22C
100
AcDbEntity
  8
M0
 62
     4
100
AcDbLine
 10
112.138211
 20
356.734516
 11
112.138211
 21
341.590718
  0
ARC
  5
22D
100
AcDbEntity
  8
M0
 62
     4
100
AcDbCircle
 10
120.538358
 20
342.234547
 40
0.5
100
AcDbArc
 50
179.998251
 51
270.027977
  0
ARC
  5
22E
100
AcDbEntity
  8
M0
 62
     4
100
AcDbCircle
 10
120.538358
 20
340.734516
 40
0.5
100
AcDbArc
 50
179.998251
 51
270.027977
  0
ARC
  5
22F
100
AcDbEntity
  8
M0
 62
     4
100
AcDbCircle
 10
159.038358
 20
356.734516
 40
1.0
100
AcDbArc
 50
0.0
 51
89.972024
  0
LINE
  5
230
100
AcDbEntity
  8
M0
 62
     4
100
AcDbLine
 10
160.038358
 20
356.734516
 11
160.038358
 21
344.234577
  0
LINE
  5
231
100
AcDbEntity
  8
M0
 62
     4
100
AcDbLine
 10
159.038358
 20
357.734516
 11
153.138211
 21
357.734516
  0
ARC
  5
232
100
AcDbEntity
  8
M0
 62
     4
100
AcDbCircle
 10
153.138211
 20
356.734516
 40
1.0
100
AcDbArc
 50
89.930059
 51
179.999945
  0
LINE
  5
233
100
AcDbEntity
  8
M0
 62
     4
100
AcDbLine
 10
152.138211
 20
356.734516
 11
152.138211
 21
342.234562
  0
ARC
  5
234
100
AcDbEntity
  8
M0
 62
     4
100
AcDbCircle
 10
160.538358
 20
344.234562
 40
0.5
100
AcDbArc
 50
179.998251
 51
269.998251
  0
ARC
  5
235
100
AcDbEntity
  8
M0
 62
     4
100
AcDbCircle
 10
110.088162
 20
343.234532
 40
0.5
100
AcDbArc
 50
179.998251
 51
270.027977
  0
ARC
  5
236
100
AcDbEntity
  8
M0
 62
     4
100
AcDbCircle
 10
162.088162
 20
344.234547
 40
0.5
100
AcDbArc
 50
269.998251
 51
360.0
  0
LINE
  5
237
100
AcDbEntity
  8
M0
 62
     4
100
AcDbLine
 10
133.588162
 20
369.584507
 11
138.588162
 21
369.584507
  0
LINE
  5
238
100
AcDbEntity
  8
M0
 62
     4
100
AcDbLine
 10
139.088162
 20
370.084492
 11
139.088162
 21
375.38448
  0
LINE
  5
239
100
AcDbEntity
  8
M0
 62
     4
100
AcDbLine
 10
138.588162
 20
375.88451
 11
133.588162
 21
375.884495
  0
LINE
  5
23A
100
AcDbEntity
  8
M0
 62
     4
100
AcDbLine
 10
133.088162
 20
375.384495
 11
133.088162
 21
370.084507
  0
ARC
  5
23B
100
AcDbEntity
  8
M0
 62
     4
100
AcDbCircle
 10
138.588162
 20
370.084507
 40
0.5
100
AcDbArc
 50
270.0
 51
360.0
  0
ARC
  5
23C
100
AcDbEntity
  8
M0
 62
     4
100
AcDbCircle
 10
138.588162
 20
375.384495
 40
0.5
100
AcDbArc
 50
0.0
 51
90.0
  0
ARC
  5
23D
100
AcDbEntity
  8
M0
 62
     4
100
AcDbCircle
 10
133.588162
 20
375.384495
 40
0.5
100
AcDbArc
 50
90.0
 51
180.0
  0
ARC
  5
23E
100
AcDbEntity
  8
M0
 62
     4
100
AcDbCircle
 10
133.588162
 20
370.084507
 40
0.5
100
AcDbArc
 50
179.999891
 51
270.0
  0
LINE
  5
23F
100
AcDbEntity
  8
M0
 62
     4
100
AcDbLine
 10
127.69177
 20
400.734516
 11
130.038114
 21
400.734516
  0
LINE
  5
240
100
AcDbEntity
  8
M0
 62
     4
100
AcDbLine
 10
137.69177
 20
400.734516
 11
140.038114
 21
400.734516
  0
LINE
  5
241
100
AcDbEntity
  8
M0
 62
     4
100
AcDbLine
 10
124.491757
 20
344.734272
 11
122.138211
 21
344.734516
  0
LINE
  5
242
100
AcDbEntity
  8
M0
 62
     4
100
AcDbLine
 10
134.491757
 20
344.734272
 11
132.138211
 21
344.734516
  0
LINE
  5
243
100
AcDbEntity
  8
M0
 62
     4
100
AcDbLine
 10
245.526502
 20
340.234516
 11
260.726697
 21
340.234516
  0
LINE
  5
244
100
AcDbEntity
  8
M0
 62
     4
100
AcDbLine
 10
260.726697
 20
340.234516
 11
260.726697
 21
405.234516
  0
LINE
  5
245
100
AcDbEntity
  8
M0
 62
     4
100
AcDbLine
 10
260.726697
 20
405.234516
 11
245.526502
 21
405.234501
  0
LINE
  5
246
100
AcDbEntity
  8
M0
 62
     4
100
AcDbLine
 10
210.526746
 20
398.734486
 11
210.526746
 21
346.734547
  0
LINE
  5
247
100
AcDbEntity
  8
M0
  6
DASHDOT
 62
     4
100
AcDbLine
 10
205.526746
 20
372.734516
 11
260.726682
 21
372.734516
  0
LINE
  5
248
100
AcDbEntity
  8
M0
 62
     4
100
AcDbLine
 10
215.526746
 20
343.734547
 11
236.526502
 21
343.734547
  0
LINE
  5
249
100
AcDbEntity
  8
M0
 62
     4
100
AcDbLine
 10
215.526746
 20
341.734547
 11
241.955701
 21
341.734547
  0
LINE
  5
24A
100
AcDbEntity
  8
M0
 62
     4
100
AcDbLine
 10
215.526746
 20
402.734516
 11
260.726697
 21
402.734516
  0
LINE
  5
24B
100
AcDbEntity
  8
M0
 62
     4
100
AcDbLine
 10
215.526746
 20
403.734501
 11
221.894422
 21
403.734272
  0
ARC
  5
24C
100
AcDbEntity
  8
M0
 62
     4
100
AcDbCircle
 10
215.526746
 20
348.734547
 40
5.0
100
AcDbArc
 50
179.999825
 51
270.0
  0
ARC
  5
24D
100
AcDbEntity
  8
M0
 62
     4
100
AcDbCircle
 10
215.526746
 20
346.734547
 40
5.0
100
AcDbArc
 50
179.999825
 51
270.0
  0
ARC
  5
24E
100
AcDbEntity
  8
M0
 62
     4
100
AcDbCircle
 10
215.526746
 20
397.734516
 40
5.0
100
AcDbArc
 50
89.999825
 51
180.0
  0
ARC
  5
24F
100
AcDbEntity
  8
M0
 62
     4
100
AcDbCircle
 10
215.526746
 20
398.734501
 40
5.0
100
AcDbArc
 50
89.999825
 51
180.0
  0
LINE
  5
250
100
AcDbEntity
  8
M0
 62
     4
100
AcDbLine
 10
241.526502
 20
352.734516
 11
260.726697
 21
352.734516
  0
LINE
  5
251
100
AcDbEntity
  8
M0
 62
     4
100
AcDbLine
 10
241.526502
 20
347.734516
 11
260.726697
 21
347.734516
  0
LINE
  5
252
100
AcDbEntity
  8
M0
 62
     4
100
AcDbLine
 10
240.526502
 20
343.734547
 11
240.526502
 21
351.734516
  0
LINE
  5
253
100
AcDbEntity
  8
M0
 62
     4
100
AcDbLine
 10
238.526502
 20
345.734547
 11
238.526502
 21
349.734516
  0
ARC
  5
254
100
AcDbEntity
  8
M0
 62
     4
100
AcDbCircle
 10
241.526502
 20
346.734516
 40
1.0
100
AcDbArc
 50
90.0
 51
179.999126
  0
ARC
  5
255
100
AcDbEntity
  8
M0
 62
     4
100
AcDbCircle
 10
241.526502
 20
351.734516
 40
1.0
100
AcDbArc
 50
90.0
 51
179.999126
  0
ARC
  5
256
100
AcDbEntity
  8
M0
 62
     4
100
AcDbCircle
 10
241.526502
 20
349.734516
 40
3.0
100
AcDbArc
 50
90.0
 51
179.999709
  0
ARC
  5
257
100
AcDbEntity
  8
M0
 62
     4
100
AcDbCircle
 10
238.526502
 20
343.734547
 40
2.0
100
AcDbArc
 50
270.0
 51
360.0
  0
ARC
  5
258
100
AcDbEntity
  8
M0
 62
     4
100
AcDbCircle
 10
236.526502
 20
345.734547
 40
2.0
100
AcDbArc
 50
270.0
 51
360.0
  0
ARC
  5
259
100
AcDbEntity
  8
M0
 62
     4
100
AcDbCircle
 10
245.526502
 20
345.234516
 40
5.0
100
AcDbArc
 50
179.999825
 51
270.0
  0
LINE
  5
25A
100
AcDbEntity
  8
M0
 62
     4
100
AcDbLine
 10
254.026502
 20
347.734516
 11
254.026502
 21
340.234516
  0
LINE
  5
25B
100
AcDbEntity
  8
M0
 62
     4
100
AcDbLine
 10
250.026502
 20
347.734516
 11
250.026502
 21
340.234516
  0
LINE
  5
25C
100
AcDbEntity
  8
M0
 62
     4
100
AcDbLine
 10
248.026502
 20
347.734501
 11
248.026502
 21
340.234501
  0
ARC
  5
25D
100
AcDbEntity
  8
M0
 62
     4
100
AcDbCircle
 10
245.526502
 20
400.234501
 40
5.0
100
AcDbArc
 50
90.0
 51
135.573713
  0
LINE
  5
25E
100
AcDbEntity
  8
M0
 62
     4
100
AcDbLine
 10
225.207166
 20
403.734272
 11
241.955701
 21
403.734501
  0
LINE
  5
25F
100
AcDbEntity
  8
M0
 62
     7
100
AcDbLine
 10
124.491757
 20
404.830219
 11
124.088162
 21
405.234272
  0
LINE
  5
260
100
AcDbEntity
  8
M0
 62
     7
100
AcDbLine
 10
128.088162
 20
344.734501
 11
128.088162
 21
344.234516
  0
LINE
  5
261
100
AcDbEntity
  8
M0
 62
     7
100
AcDbLine
 10
129.088162
 20
344.734501
 11
129.088162
 21
342.234516
  0
LINE
  5
262
100
AcDbEntity
  8
M0
 62
     7
100
AcDbLine
 10
149.088162
 20
340.234516
 11
157.588162
 21
340.234516
  0
LINE
  5
263
100
AcDbEntity
  8
M0
 62
     7
100
AcDbLine
 10
157.588162
 20
340.234516
 11
157.588162
 21
348.234516
  0
LINE
  5
264
100
AcDbEntity
  8
M0
 62
     7
100
AcDbLine
 10
124.088162
 20
405.234272
 11
117.204373
 21
405.234272
  0
LINE
  5
265
100
AcDbEntity
  8
M0
 62
     7
100
AcDbLine
 10
143.088162
 20
344.234516
 11
143.088162
 21
344.734501
  0
LINE
  5
266
100
AcDbEntity
  8
M0
 62
     7
100
AcDbLine
 10
144.588162
 20
342.234516
 11
144.588162
 21
344.734501
  0
LINE
  5
267
100
AcDbEntity
  8
M0
 62
     7
100
AcDbLine
 10
127.666989
 20
342.234516
 11
129.088162
 21
342.234516
  0
LINE
  5
268
100
AcDbEntity
  8
M0
 62
     7
100
AcDbLine
 10
148.088162
 20
341.234501
 11
148.088162
 21
344.734501
  0
LINE
  5
269
100
AcDbEntity
  8
M0
 62
     7
100
AcDbLine
 10
148.088162
 20
341.234501
 11
149.088162
 21
340.234516
  0
LINE
  5
26A
100
AcDbEntity
  8
M0
 62
     7
100
AcDbLine
 10
146.588162
 20
344.234516
 11
146.588162
 21
344.734501
  0
LINE
  5
26B
100
AcDbEntity
  8
M0
 62
     7
100
AcDbLine
 10
145.088162
 20
342.234516
 11
145.088162
 21
344.734501
  0
LINE
  5
26C
100
AcDbEntity
  8
M0
 62
     7
100
AcDbLine
 10
124.088162
 20
342.234516
 11
124.088162
 21
344.124241
  0
LINE
  5
26D
100
AcDbEntity
  8
M0
 62
     7
100
AcDbLine
 10
142.138211
 20
342.234516
 11
144.588162
 21
342.234516
  0
LINE
  5
26E
100
AcDbEntity
  8
M0
 62
     7
100
AcDbLine
 10
142.138211
 20
344.234516
 11
143.088162
 21
344.234516
  0
LINE
  5
26F
100
AcDbEntity
  8
M0
 62
     7
100
AcDbLine
 10
146.588162
 20
344.234516
 11
148.088162
 21
344.234516
  0
LINE
  5
270
100
AcDbEntity
  8
M0
 62
     7
100
AcDbLine
 10
145.088162
 20
342.234516
 11
148.088162
 21
342.234516
  0
LINE
  5
271
100
AcDbEntity
  8
M0
 62
     7
100
AcDbLine
 10
123.041089
 20
342.234516
 11
124.088162
 21
342.234516
  0
LINE
  5
272
100
AcDbEntity
  8
M0
 62
     7
100
AcDbLine
 10
127.69177
 20
344.234516
 11
128.088162
 21
344.234516
  0
CIRCLE
  5
273
100
AcDbEntity
  8
M0
 62
     6
100
AcDbCircle
 10
116.088162
 20
392.734516
 40
3.0
  0
LINE
  5
274
100
AcDbEntity
  8
M0
 62
     6
100
AcDbLine
 10
113.129407
 20
396.681858
 11
112.313153
 21
394.034565
  0
LINE
  5
275
100
AcDbEntity
  8
M0
 62
     6
100
AcDbLine
 10
113.129407
 20
388.787266
 11
112.313153
 21
391.43459
  0
LINE
  5
276
100
AcDbEntity
  8
M0
 62
     6
100
AcDbLine
 10
119.046887
 20
396.681874
 11
119.863156
 21
394.034565
  0
LINE
  5
277
100
AcDbEntity
  8
M0
 62
     6
100
AcDbLine
 10
119.046887
 20
388.787251
 11
119.863156
 21
391.43459
  0
LINE
  5
278
100
AcDbEntity
  8
M0
 62
     6
100
AcDbLine
 10
113.607205
 20
388.43459
 11
118.569074
 21
388.43459
  0
LINE
  5
279
100
AcDbEntity
  8
M0
 62
     6
100
AcDbLine
 10
119.863156
 20
391.43459
 11
119.863156
 21
394.034565
  0
LINE
  5
27A
100
AcDbEntity
  8
M0
 62
     6
100
AcDbLine
 10
118.569074
 20
397.034565
 11
113.607205
 21
397.03455
  0
LINE
  5
27B
100
AcDbEntity
  8
M0
 62
     6
100
AcDbLine
 10
112.313153
 20
394.034565
 11
112.313153
 21
391.43459
  0
LINE
  5
27C
100
AcDbEntity
  8
M0
  6
DASHDOT
 62
     6
100
AcDbLine
 10
109.813153
 20
392.734516
 11
122.363156
 21
392.734516
  0
LINE
  5
27D
100
AcDbEntity
  8
M0
  6
DASHDOT
 62
     6
100
AcDbLine
 10
116.088162
 20
385.934605
 11
116.088162
 21
399.534565
  0
LINE
  5
27E
100
AcDbEntity
  8
M0
 62
     6
100
AcDbLine
 10
117.678937
 20
391.143696
 11
114.497128
 21
394.325459
  0
LINE
  5
27F
100
AcDbEntity
  8
M0
 62
     6
100
AcDbLine
 10
116.441571
 20
394.148701
 11
114.673901
 21
392.381001
  0
LINE
  5
280
100
AcDbEntity
  8
M0
 62
     6
100
AcDbLine
 10
117.502179
 20
393.088032
 11
115.734555
 21
391.320454
  0
ARC
  5
281
100
AcDbEntity
  8
M0
 62
     6
100
AcDbCircle
 10
113.607205
 20
396.53455
 40
0.5
100
AcDbArc
 50
90.0
 51
162.865663
  0
ARC
  5
282
100
AcDbEntity
  8
M0
 62
     6
100
AcDbCircle
 10
113.607205
 20
388.93459
 40
0.5
100
AcDbArc
 50
197.137551
 51
270.0
  0
ARC
  5
283
100
AcDbEntity
  8
M0
 62
     6
100
AcDbCircle
 10
118.569074
 20
388.93459
 40
0.5
100
AcDbArc
 50
270.0
 51
342.861653
  0
ARC
  5
284
100
AcDbEntity
  8
M0
 62
     6
100
AcDbCircle
 10
118.569074
 20
396.53455
 40
0.5
100
AcDbArc
 50
17.134787
 51
90.0
  0
CIRCLE
  5
285
100
AcDbEntity
  8
M0
 62
     6
100
AcDbCircle
 10
156.088162
 20
352.734516
 40
3.0
  0
LINE
  5
286
100
AcDbEntity
  8
M0
 62
     6
100
AcDbLine
 10
153.129407
 20
356.681858
 11
152.313153
 21
354.034565
  0
LINE
  5
287
100
AcDbEntity
  8
M0
 62
     6
100
AcDbLine
 10
153.129407
 20
348.787266
 11
152.313153
 21
351.43459
  0
LINE
  5
288
100
AcDbEntity
  8
M0
 62
     6
100
AcDbLine
 10
159.046887
 20
356.681874
 11
159.863156
 21
354.034565
  0
LINE
  5
289
100
AcDbEntity
  8
M0
 62
     6
100
AcDbLine
 10
159.046887
 20
348.787251
 11
159.863156
 21
351.43459
  0
LINE
  5
28A
100
AcDbEntity
  8
M0
 62
     6
100
AcDbLine
 10
153.607205
 20
348.43459
 11
158.569074
 21
348.43459
  0
LINE
  5
28B
100
AcDbEntity
  8
M0
 62
     6
100
AcDbLine
 10
159.863156
 20
351.43459
 11
159.863156
 21
354.034565
  0
LINE
  5
28C
100
AcDbEntity
  8
M0
 62
     6
100
AcDbLine
 10
158.569074
 20
357.034565
 11
153.607205
 21
357.03455
  0
LINE
  5
28D
100
AcDbEntity
  8
M0
 62
     6
100
AcDbLine
 10
152.313153
 20
354.034565
 11
152.313153
 21
351.43459
  0
LINE
  5
28E
100
AcDbEntity
  8
M0
  6
DASHDOT
 62
     6
100
AcDbLine
 10
149.813153
 20
352.734516
 11
162.363156
 21
352.734516
  0
LINE
  5
28F
100
AcDbEntity
  8
M0
  6
DASHDOT
 62
     6
100
AcDbLine
 10
156.088162
 20
347.269917
 11
156.088162
 21
359.534565
  0
LINE
  5
290
100
AcDbEntity
  8
M0
 62
     6
100
AcDbLine
 10
157.678937
 20
351.143696
 11
154.497128
 21
354.325459
  0
LINE
  5
291
100
AcDbEntity
  8
M0
 62
     6
100
AcDbLine
 10
156.441571
 20
354.148701
 11
154.673901
 21
352.381001
  0
LINE
  5
292
100
AcDbEntity
  8
M0
 62
     6
100
AcDbLine
 10
157.502179
 20
353.088032
 11
155.734555
 21
351.320454
  0
ARC
  5
293
100
AcDbEntity
  8
M0
 62
     6
100
AcDbCircle
 10
153.607205
 20
356.53455
 40
0.5
100
AcDbArc
 50
90.0
 51
162.865663
  0
ARC
  5
294
100
AcDbEntity
  8
M0
 62
     6
100
AcDbCircle
 10
153.607205
 20
348.93459
 40
0.5
100
AcDbArc
 50
197.137551
 51
270.0
  0
ARC
  5
295
100
AcDbEntity
  8
M0
 62
     6
100
AcDbCircle
 10
158.569074
 20
348.93459
 40
0.5
100
AcDbArc
 50
270.0
 51
342.861653
  0
ARC
  5
296
100
AcDbEntity
  8
M0
 62
     6
100
AcDbCircle
 10
158.569074
 20
356.53455
 40
0.5
100
AcDbArc
 50
17.134787
 51
90.0
  0
LINE
  5
297
100
AcDbEntity
  8
M0
 62
     2
100
AcDbLine
 10
134.088162
 20
370.234516
 11
138.088162
 21
370.234516
  0
LINE
  5
298
100
AcDbEntity
  8
M0
 62
     2
100
AcDbLine
 10
138.588162
 20
370.734501
 11
138.588162
 21
374.734486
  0
LINE
  5
299
100
AcDbEntity
  8
M0
 62
     2
100
AcDbLine
 10
138.088162
 20
375.234516
 11
134.088162
 21
375.234501
  0
LINE
  5
29A
100
AcDbEntity
  8
M0
 62
     2
100
AcDbLine
 10
133.588162
 20
374.734501
 11
133.588162
 21
370.734516
  0
ARC
  5
29B
100
AcDbEntity
  8
M0
 62
     2
100
AcDbCircle
 10
134.088162
 20
370.734516
 40
0.5
100
AcDbArc
 50
179.999891
 51
270.0
  0
ARC
  5
29C
100
AcDbEntity
  8
M0
 62
     2
100
AcDbCircle
 10
138.088162
 20
370.734516
 40
0.5
100
AcDbArc
 50
270.0
 51
360.0
  0
ARC
  5
29D
100
AcDbEntity
  8
M0
 62
     2
100
AcDbCircle
 10
138.088162
 20
374.734501
 40
0.5
100
AcDbArc
 50
0.0
 51
90.0
  0
ARC
  5
29E
100
AcDbEntity
  8
M0
 62
     2
100
AcDbCircle
 10
134.088162
 20
374.734501
 40
0.5
100
AcDbArc
 50
90.0
 51
180.0
  0
LINE
  5
29F
100
AcDbEntity
  8
M0
100
AcDbLine
 10
43.088696
 20
327.734669
 11
44.591768
 21
327.734577
  0
LINE
  5
2A0
100
AcDbEntity
  8
M0
100
AcDbLine
 10
163.088696
 20
327.734669
 11
163.088696
 21
417.734577
  0
LINE
  5
2A1
100
AcDbEntity
  8
M0
100
AcDbLine
 10
163.088696
 20
417.734577
 11
43.088696
 21
417.734577
  0
LINE
  5
2A2
100
AcDbEntity
  8
M0
100
AcDbLine
 10
43.088696
 20
417.734577
 11
43.088696
 21
327.734669
  0
LINE
  5
2A3
100
AcDbEntity
  8
M0
100
AcDbLine
 10
108.588696
 20
335.234669
 11
108.588696
 21
327.734669
  0
LINE
  5
2A4
100
AcDbEntity
  8
M0
100
AcDbLine
 10
97.588696
 20
335.234669
 11
97.588696
 21
327.734669
  0
LINE
  5
2A5
100
AcDbEntity
  8
M0
100
AcDbLine
 10
108.588696
 20
417.734516
 11
108.588696
 21
416.230366
  0
LINE
  5
2A6
100
AcDbEntity
  8
M0
100
AcDbLine
 10
97.588696
 20
417.734516
 11
97.588696
 21
416.230366
  0
ARC
  5
2A7
100
AcDbEntity
  8
M0
100
AcDbCircle
 10
103.088696
 20
410.234516
 40
5.5
100
AcDbArc
 50
220.93695
 51
319.062826
  0
ARC
  5
2A8
100
AcDbEntity
  8
M0
100
AcDbCircle
 10
103.088696
 20
335.234669
 40
5.5
100
AcDbArc
 50
0.0
 51
4.129795
  0
ARC
  5
2A9
100
AcDbEntity
  8
M0
100
AcDbCircle
 10
148.088696
 20
410.234577
 40
5.5
100
AcDbArc
 50
180.0
 51
269.999841
  0
LINE
  5
2AA
100
AcDbEntity
  8
M0
100
AcDbLine
 10
148.088696
 20
404.734516
 11
149.966412
 21
404.734516
  0
LINE
  5
2AB
100
AcDbEntity
  8
M0
100
AcDbLine
 10
142.588696
 20
417.734577
 11
142.588696
 21
410.234577
  0
ARC
  5
2AC
100
AcDbEntity
  8
M0
100
AcDbCircle
 10
148.088696
 20
335.234761
 40
5.5
100
AcDbArc
 50
90.0
 51
179.99997
  0
LINE
  5
2AD
100
AcDbEntity
  8
M0
100
AcDbLine
 10
148.088696
 20
340.734761
 11
148.587781
 21
340.734761
  0
LINE
  5
2AE
100
AcDbEntity
  8
M0
100
AcDbLine
 10
142.588696
 20
335.234761
 11
142.588696
 21
327.734669
  0
LINE
  5
2AF
100
AcDbEntity
  8
M0
100
AcDbLine
 10
43.088696
 20
404.734516
 11
50.491803
 21
404.734516
  0
LINE
  5
2B0
100
AcDbEntity
  8
M0
100
AcDbLine
 10
63.588712
 20
417.734516
 11
63.588712
 21
416.230366
  0
LINE
  5
2B1
100
AcDbEntity
  8
M0
100
AcDbLine
 10
43.088696
 20
340.734761
 11
45.591809
 21
340.734761
  0
CIRCLE
  5
2B2
100
AcDbEntity
  8
M0
100
AcDbCircle
 10
148.088696
 20
410.234577
 40
2.5
  0
CIRCLE
  5
2B3
100
AcDbEntity
  8
M0
100
AcDbCircle
 10
148.088696
 20
335.234761
 40
2.5
  0
ARC
  5
2B4
100
AcDbEntity
  8
M0
100
AcDbCircle
 10
103.088696
 20
335.234669
 40
2.5
100
AcDbArc
 50
170.883819
 51
369.116236
  0
LINE
  5
2B5
100
AcDbEntity
  8
M0
  6
DASHDOT
100
AcDbLine
 10
103.088696
 20
322.207066
 11
103.088696
 21
422.734577
  0
CIRCLE
  5
2B6
100
AcDbEntity
  8
M0
100
AcDbCircle
 10
58.088727
 20
410.234577
 40
2.5
  0
LINE
  5
2B7
100
AcDbEntity
  8
M0
100
AcDbLine
 10
157.588162
 20
340.734761
 11
163.088696
 21
340.734761
  0
LINE
  5
2B8
100
AcDbEntity
  8
M0
100
AcDbLine
 10
89.59184
 20
327.734498
 11
163.088696
 21
327.734669
  0
LINE
  5
2B9
100
AcDbEntity
  8
M0
100
AcDbLine
 10
63.588712
 20
413.030415
 11
63.588712
 21
411.746479
  0
ARC
  5
2BA
100
AcDbEntity
  8
M0
100
AcDbCircle
 10
103.088696
 20
335.234669
 40
5.5
100
AcDbArc
 50
175.870226
 51
179.99997
  0
ARC
  5
2BB
100
AcDbEntity
  8
M0
 62
     6
100
AcDbCircle
 10
52.091809
 20
344.730854
 40
3.0
100
AcDbArc
 50
321.931832
 51
417.848747
  0
LINE
  5
2BC
100
AcDbEntity
  8
M0
 62
     6
100
AcDbLine
 10
48.995084
 20
348.230763
 11
48.3168
 21
346.030903
  0
LINE
  5
2BD
100
AcDbEntity
  8
M0
 62
     6
100
AcDbLine
 10
49.133054
 20
340.783604
 11
48.3168
 21
343.430928
  0
LINE
  5
2BE
100
AcDbEntity
  8
M0
 62
     6
100
AcDbLine
 10
55.188489
 20
348.230763
 11
55.866803
 21
346.030903
  0
LINE
  5
2BF
100
AcDbEntity
  8
M0
 62
     6
100
AcDbLine
 10
55.409314
 20
341.946919
 11
55.866803
 21
343.430805
  0
LINE
  5
2C0
100
AcDbEntity
  8
M0
 62
     6
100
AcDbLine
 10
49.610852
 20
340.430805
 11
52.325375
 21
340.430805
  0
LINE
  5
2C1
100
AcDbEntity
  8
M0
 62
     6
100
AcDbLine
 10
55.866803
 20
343.430928
 11
55.866803
 21
346.030903
  0
LINE
  5
2C2
100
AcDbEntity
  8
M0
 62
     6
100
AcDbLine
 10
48.3168
 20
346.030903
 11
48.3168
 21
343.430928
  0
ARC
  5
2C3
100
AcDbEntity
  8
M0
 62
     6
100
AcDbCircle
 10
49.610852
 20
340.930928
 40
0.5
100
AcDbArc
 50
197.137551
 51
270.0
  0
ARC
  5
2C4
100
AcDbEntity
  8
M0
 62
     6
100
AcDbCircle
 10
52.091809
 20
344.730854
 40
3.0
100
AcDbArc
 50
122.312997
 51
255.625894
  0
CIRCLE
  5
2C5
100
AcDbEntity
  8
M0
 62
     6
100
AcDbCircle
 10
52.091809
 20
352.730854
 40
3.0
  0
LINE
  5
2C6
100
AcDbEntity
  8
M0
 62
     6
100
AcDbLine
 10
49.133054
 20
356.678196
 11
48.3168
 21
354.030903
  0
LINE
  5
2C7
100
AcDbEntity
  8
M0
 62
     6
100
AcDbLine
 10
49.133054
 20
348.783604
 11
48.3168
 21
351.430928
  0
LINE
  5
2C8
100
AcDbEntity
  8
M0
 62
     6
100
AcDbLine
 10
55.050534
 20
356.678211
 11
55.866803
 21
354.030903
  0
LINE
  5
2C9
100
AcDbEntity
  8
M0
 62
     6
100
AcDbLine
 10
55.050534
 20
348.783589
 11
55.866803
 21
351.430928
  0
LINE
  5
2CA
100
AcDbEntity
  8
M0
 62
     6
100
AcDbLine
 10
49.610852
 20
348.430928
 11
54.57272
 21
348.430928
  0
LINE
  5
2CB
100
AcDbEntity
  8
M0
 62
     6
100
AcDbLine
 10
55.866803
 20
351.430928
 11
55.866803
 21
354.030903
  0
LINE
  5
2CC
100
AcDbEntity
  8
M0
 62
     6
100
AcDbLine
 10
54.57272
 20
357.030903
 11
49.610852
 21
357.030888
  0
LINE
  5
2CD
100
AcDbEntity
  8
M0
 62
     6
100
AcDbLine
 10
48.3168
 20
354.030903
 11
48.3168
 21
351.430928
  0
LINE
  5
2CE
100
AcDbEntity
  8
M0
  6
DASHDOT
 62
     6
100
AcDbLine
 10
45.8168
 20
352.730854
 11
58.366803
 21
352.730854
  0
LINE
  5
2CF
100
AcDbEntity
  8
M0
  6
DASHDOT
 62
     6
100
AcDbLine
 10
52.091809
 20
345.930943
 11
52.091809
 21
359.530903
  0
LINE
  5
2D0
100
AcDbEntity
  8
M0
 62
     6
100
AcDbLine
 10
53.688184
 20
351.134175
 11
50.500775
 21
354.321675
  0
LINE
  5
2D1
100
AcDbEntity
  8
M0
 62
     6
100
AcDbLine
 10
52.445218
 20
354.145039
 11
50.677548
 21
352.377339
  0
LINE
  5
2D2
100
AcDbEntity
  8
M0
 62
     6
100
AcDbLine
 10
53.505826
 20
353.08437
 11
51.738202
 21
351.316792
  0
ARC
  5
2D3
100
AcDbEntity
  8
M0
 62
     6
100
AcDbCircle
 10
49.610852
 20
356.530888
 40
0.5
100
AcDbArc
 50
90.0
 51
162.865663
  0
ARC
  5
2D4
100
AcDbEntity
  8
M0
 62
     6
100
AcDbCircle
 10
49.610852
 20
348.930928
 40
0.5
100
AcDbArc
 50
197.137551
 51
270.0
  0
ARC
  5
2D5
100
AcDbEntity
  8
M0
 62
     6
100
AcDbCircle
 10
54.57272
 20
348.930928
 40
0.5
100
AcDbArc
 50
270.0
 51
342.861653
  0
ARC
  5
2D6
100
AcDbEntity
  8
M0
 62
     6
100
AcDbCircle
 10
54.57272
 20
356.530888
 40
0.5
100
AcDbArc
 50
17.134787
 51
90.0
  0
CIRCLE
  5
2D7
100
AcDbEntity
  8
M0
 62
     6
100
AcDbCircle
 10
62.091809
 20
352.730854
 40
3.0
  0
LINE
  5
2D8
100
AcDbEntity
  8
M0
 62
     6
100
AcDbLine
 10
59.133054
 20
356.678196
 11
58.3168
 21
354.030903
  0
LINE
  5
2D9
100
AcDbEntity
  8
M0
 62
     6
100
AcDbLine
 10
59.133054
 20
348.783604
 11
58.3168
 21
351.430928
  0
LINE
  5
2DA
100
AcDbEntity
  8
M0
 62
     6
100
AcDbLine
 10
65.050534
 20
356.678211
 11
65.866803
 21
354.030903
  0
LINE
  5
2DB
100
AcDbEntity
  8
M0
 62
     6
100
AcDbLine
 10
65.050534
 20
348.783589
 11
65.866803
 21
351.430928
  0
LINE
  5
2DC
100
AcDbEntity
  8
M0
 62
     6
100
AcDbLine
 10
59.610852
 20
348.430928
 11
64.57272
 21
348.430928
  0
LINE
  5
2DD
100
AcDbEntity
  8
M0
 62
     6
100
AcDbLine
 10
65.866803
 20
351.430928
 11
65.866803
 21
354.030903
  0
LINE
  5
2DE
100
AcDbEntity
  8
M0
 62
     6
100
AcDbLine
 10
64.57272
 20
357.030903
 11
59.610852
 21
357.030888
  0
LINE
  5
2DF
100
AcDbEntity
  8
M0
 62
     6
100
AcDbLine
 10
58.3168
 20
354.030903
 11
58.3168
 21
351.430928
  0
LINE
  5
2E0
100
AcDbEntity
  8
M0
  6
DASHDOT
 62
     6
100
AcDbLine
 10
55.8168
 20
352.730854
 11
68.366803
 21
352.730854
  0
LINE
  5
2E1
100
AcDbEntity
  8
M0
  6
DASHDOT
 62
     6
100
AcDbLine
 10
62.091809
 20
345.930943
 11
62.091809
 21
359.530903
  0
LINE
  5
2E2
100
AcDbEntity
  8
M0
 62
     6
100
AcDbLine
 10
63.682584
 20
351.140034
 11
60.500775
 21
354.321797
  0
LINE
  5
2E3
100
AcDbEntity
  8
M0
 62
     6
100
AcDbLine
 10
62.445218
 20
354.145039
 11
60.677548
 21
352.377339
  0
LINE
  5
2E4
100
AcDbEntity
  8
M0
 62
     6
100
AcDbLine
 10
63.505826
 20
353.08437
 11
61.738202
 21
351.316792
  0
ARC
  5
2E5
100
AcDbEntity
  8
M0
 62
     6
100
AcDbCircle
 10
59.610852
 20
356.530888
 40
0.5
100
AcDbArc
 50
90.0
 51
162.865663
  0
ARC
  5
2E6
100
AcDbEntity
  8
M0
 62
     6
100
AcDbCircle
 10
59.610852
 20
348.930928
 40
0.5
100
AcDbArc
 50
197.137551
 51
270.0
  0
ARC
  5
2E7
100
AcDbEntity
  8
M0
 62
     6
100
AcDbCircle
 10
64.57272
 20
348.930928
 40
0.5
100
AcDbArc
 50
270.0
 51
342.861653
  0
ARC
  5
2E8
100
AcDbEntity
  8
M0
 62
     6
100
AcDbCircle
 10
64.57272
 20
356.530888
 40
0.5
100
AcDbArc
 50
17.134787
 51
90.0
  0
CIRCLE
  5
2E9
100
AcDbEntity
  8
M0
 62
     6
100
AcDbCircle
 10
72.091809
 20
352.730854
 40
3.0
  0
LINE
  5
2EA
100
AcDbEntity
  8
M0
 62
     6
100
AcDbLine
 10
69.133054
 20
356.678196
 11
68.3168
 21
354.030903
  0
LINE
  5
2EB
100
AcDbEntity
  8
M0
 62
     6
100
AcDbLine
 10
69.133054
 20
348.783604
 11
68.3168
 21
351.430928
  0
LINE
  5
2EC
100
AcDbEntity
  8
M0
 62
     6
100
AcDbLine
 10
75.050534
 20
356.678211
 11
75.866803
 21
354.030903
  0
LINE
  5
2ED
100
AcDbEntity
  8
M0
 62
     6
100
AcDbLine
 10
75.050534
 20
348.783589
 11
75.866803
 21
351.430928
  0
LINE
  5
2EE
100
AcDbEntity
  8
M0
 62
     6
100
AcDbLine
 10
69.610852
 20
348.430928
 11
74.57272
 21
348.430928
  0
LINE
  5
2EF
100
AcDbEntity
  8
M0
 62
     6
100
AcDbLine
 10
75.866803
 20
351.430928
 11
75.866803
 21
354.030903
  0
LINE
  5
2F0
100
AcDbEntity
  8
M0
 62
     6
100
AcDbLine
 10
74.57272
 20
357.030903
 11
69.610852
 21
357.030888
  0
LINE
  5
2F1
100
AcDbEntity
  8
M0
 62
     6
100
AcDbLine
 10
68.3168
 20
354.030903
 11
68.3168
 21
351.430928
  0
LINE
  5
2F2
100
AcDbEntity
  8
M0
  6
DASHDOT
 62
     6
100
AcDbLine
 10
65.8168
 20
352.730854
 11
78.366803
 21
352.730854
  0
LINE
  5
2F3
100
AcDbEntity
  8
M0
 62
     6
100
AcDbLine
 10
73.682584
 20
351.140034
 11
70.500775
 21
354.321797
  0
LINE
  5
2F4
100
AcDbEntity
  8
M0
 62
     6
100
AcDbLine
 10
72.445218
 20
354.145039
 11
70.677548
 21
352.377339
  0
LINE
  5
2F5
100
AcDbEntity
  8
M0
 62
     6
100
AcDbLine
 10
73.505826
 20
353.08437
 11
71.738202
 21
351.316792
  0
ARC
  5
2F6
100
AcDbEntity
  8
M0
 62
     6
100
AcDbCircle
 10
69.610852
 20
356.530888
 40
0.5
100
AcDbArc
 50
90.0
 51
162.865663
  0
ARC
  5
2F7
100
AcDbEntity
  8
M0
 62
     6
100
AcDbCircle
 10
69.610852
 20
348.930928
 40
0.5
100
AcDbArc
 50
197.137551
 51
270.0
  0
ARC
  5
2F8
100
AcDbEntity
  8
M0
 62
     6
100
AcDbCircle
 10
74.57272
 20
348.930928
 40
0.5
100
AcDbArc
 50
270.0
 51
342.861653
  0
ARC
  5
2F9
100
AcDbEntity
  8
M0
 62
     6
100
AcDbCircle
 10
74.57272
 20
356.530888
 40
0.5
100
AcDbArc
 50
17.134787
 51
90.0
  0
CIRCLE
  5
2FA
100
AcDbEntity
  8
M0
 62
     6
100
AcDbCircle
 10
82.091809
 20
352.730854
 40
3.0
  0
LINE
  5
2FB
100
AcDbEntity
  8
M0
 62
     6
100
AcDbLine
 10
79.133054
 20
356.678196
 11
78.3168
 21
354.030903
  0
LINE
  5
2FC
100
AcDbEntity
  8
M0
 62
     6
100
AcDbLine
 10
79.133054
 20
348.783604
 11
78.3168
 21
351.430928
  0
LINE
  5
2FD
100
AcDbEntity
  8
M0
 62
     6
100
AcDbLine
 10
85.050534
 20
356.678211
 11
85.866803
 21
354.030903
  0
LINE
  5
2FE
100
AcDbEntity
  8
M0
 62
     6
100
AcDbLine
 10
85.050534
 20
348.783589
 11
85.866803
 21
351.430928
  0
LINE
  5
2FF
100
AcDbEntity
  8
M0
 62
     6
100
AcDbLine
 10
79.610852
 20
348.430928
 11
84.57272
 21
348.430928
  0
LINE
  5
300
100
AcDbEntity
  8
M0
 62
     6
100
AcDbLine
 10
85.866803
 20
351.430928
 11
85.866803
 21
354.030903
  0
LINE
  5
301
100
AcDbEntity
  8
M0
 62
     6
100
AcDbLine
 10
84.57272
 20
357.030903
 11
79.610852
 21
357.030888
  0
LINE
  5
302
100
AcDbEntity
  8
M0
 62
     6
100
AcDbLine
 10
78.3168
 20
354.030903
 11
78.3168
 21
351.430928
  0
LINE
  5
303
100
AcDbEntity
  8
M0
  6
DASHDOT
 62
     6
100
AcDbLine
 10
75.8168
 20
352.730854
 11
88.366803
 21
352.730854
  0
LINE
  5
304
100
AcDbEntity
  8
M0
  6
DASHDOT
 62
     6
100
AcDbLine
 10
82.091809
 20
345.930943
 11
82.091809
 21
359.530903
  0
LINE
  5
305
100
AcDbEntity
  8
M0
 62
     6
100
AcDbLine
 10
83.682584
 20
351.140034
 11
80.500775
 21
354.321797
  0
LINE
  5
306
100
AcDbEntity
  8
M0
 62
     6
100
AcDbLine
 10
82.445218
 20
354.145039
 11
80.677548
 21
352.377339
  0
LINE
  5
307
100
AcDbEntity
  8
M0
 62
     6
100
AcDbLine
 10
83.505826
 20
353.08437
 11
81.738202
 21
351.316792
  0
ARC
  5
308
100
AcDbEntity
  8
M0
 62
     6
100
AcDbCircle
 10
79.610852
 20
356.530888
 40
0.5
100
AcDbArc
 50
90.0
 51
162.865663
  0
ARC
  5
309
100
AcDbEntity
  8
M0
 62
     6
100
AcDbCircle
 10
79.610852
 20
348.930928
 40
0.5
100
AcDbArc
 50
197.137551
 51
270.0
  0
ARC
  5
30A
100
AcDbEntity
  8
M0
 62
     6
100
AcDbCircle
 10
84.57272
 20
348.930928
 40
0.5
100
AcDbArc
 50
270.0
 51
342.861653
  0
ARC
  5
30B
100
AcDbEntity
  8
M0
 62
     6
100
AcDbCircle
 10
84.57272
 20
356.530888
 40
0.5
100
AcDbArc
 50
17.134787
 51
90.0
  0
CIRCLE
  5
30C
100
AcDbEntity
  8
M0
 62
     6
100
AcDbCircle
 10
62.091809
 20
392.730366
 40
3.0
  0
LINE
  5
30D
100
AcDbEntity
  8
M0
 62
     6
100
AcDbLine
 10
59.133054
 20
396.677708
 11
58.3168
 21
394.030415
  0
LINE
  5
30E
100
AcDbEntity
  8
M0
 62
     6
100
AcDbLine
 10
59.133054
 20
388.783116
 11
58.3168
 21
391.430439
  0
LINE
  5
30F
100
AcDbEntity
  8
M0
 62
     6
100
AcDbLine
 10
65.050534
 20
396.677723
 11
65.866803
 21
394.030415
  0
LINE
  5
310
100
AcDbEntity
  8
M0
 62
     6
100
AcDbLine
 10
65.050534
 20
388.7831
 11
65.866803
 21
391.430439
  0
LINE
  5
311
100
AcDbEntity
  8
M0
 62
     6
100
AcDbLine
 10
59.610852
 20
388.430439
 11
64.57272
 21
388.430439
  0
LINE
  5
312
100
AcDbEntity
  8
M0
 62
     6
100
AcDbLine
 10
65.866803
 20
391.430439
 11
65.866803
 21
394.030415
  0
LINE
  5
313
100
AcDbEntity
  8
M0
 62
     6
100
AcDbLine
 10
64.57272
 20
397.030415
 11
59.610852
 21
397.0304
  0
LINE
  5
314
100
AcDbEntity
  8
M0
 62
     6
100
AcDbLine
 10
58.3168
 20
394.030415
 11
58.3168
 21
391.430439
  0
LINE
  5
315
100
AcDbEntity
  8
M0
  6
DASHDOT
 62
     6
100
AcDbLine
 10
55.8168
 20
392.730366
 11
68.366803
 21
392.730366
  0
LINE
  5
316
100
AcDbEntity
  8
M0
  6
DASHDOT
 62
     6
100
AcDbLine
 10
62.091809
 20
385.930454
 11
62.091809
 21
399.530415
  0
LINE
  5
317
100
AcDbEntity
  8
M0
 62
     6
100
AcDbLine
 10
63.682584
 20
391.139546
 11
60.500775
 21
394.321308
  0
LINE
  5
318
100
AcDbEntity
  8
M0
 62
     6
100
AcDbLine
 10
62.445218
 20
394.144551
 11
60.677548
 21
392.37685
  0
LINE
  5
319
100
AcDbEntity
  8
M0
 62
     6
100
AcDbLine
 10
63.505826
 20
393.083882
 11
61.738202
 21
391.316303
  0
ARC
  5
31A
100
AcDbEntity
  8
M0
 62
     6
100
AcDbCircle
 10
59.610852
 20
396.5304
 40
0.5
100
AcDbArc
 50
90.0
 51
162.865663
  0
ARC
  5
31B
100
AcDbEntity
  8
M0
 62
     6
100
AcDbCircle
 10
59.610852
 20
388.930439
 40
0.5
100
AcDbArc
 50
197.137551
 51
270.0
  0
ARC
  5
31C
100
AcDbEntity
  8
M0
 62
     6
100
AcDbCircle
 10
64.57272
 20
388.930439
 40
0.5
100
AcDbArc
 50
270.0
 51
342.861653
  0
ARC
  5
31D
100
AcDbEntity
  8
M0
 62
     6
100
AcDbCircle
 10
64.57272
 20
396.5304
 40
0.5
100
AcDbArc
 50
17.134787
 51
90.0
  0
CIRCLE
  5
31E
100
AcDbEntity
  8
M0
 62
     6
100
AcDbCircle
 10
72.091809
 20
392.730366
 40
3.0
  0
LINE
  5
31F
100
AcDbEntity
  8
M0
 62
     6
100
AcDbLine
 10
69.133054
 20
396.677708
 11
68.3168
 21
394.030415
  0
LINE
  5
320
100
AcDbEntity
  8
M0
 62
     6
100
AcDbLine
 10
69.133054
 20
388.783116
 11
68.3168
 21
391.430439
  0
LINE
  5
321
100
AcDbEntity
  8
M0
 62
     6
100
AcDbLine
 10
75.050534
 20
396.677723
 11
75.866803
 21
394.030415
  0
LINE
  5
322
100
AcDbEntity
  8
M0
 62
     6
100
AcDbLine
 10
75.050534
 20
388.7831
 11
75.866803
 21
391.430439
  0
LINE
  5
323
100
AcDbEntity
  8
M0
 62
     6
100
AcDbLine
 10
69.610852
 20
388.430439
 11
74.57272
 21
388.430439
  0
LINE
  5
324
100
AcDbEntity
  8
M0
 62
     6
100
AcDbLine
 10
75.866803
 20
391.430439
 11
75.866803
 21
394.030415
  0
LINE
  5
325
100
AcDbEntity
  8
M0
 62
     6
100
AcDbLine
 10
74.57272
 20
397.030415
 11
69.610852
 21
397.0304
  0
LINE
  5
326
100
AcDbEntity
  8
M0
 62
     6
100
AcDbLine
 10
68.3168
 20
394.030415
 11
68.3168
 21
391.430439
  0
LINE
  5
327
100
AcDbEntity
  8
M0
  6
DASHDOT
 62
     6
100
AcDbLine
 10
65.8168
 20
392.730366
 11
78.366803
 21
392.730366
  0
LINE
  5
328
100
AcDbEntity
  8
M0
 62
     6
100
AcDbLine
 10
73.682584
 20
391.139546
 11
70.500775
 21
394.321308
  0
LINE
  5
329
100
AcDbEntity
  8
M0
 62
     6
100
AcDbLine
 10
72.445218
 20
394.144551
 11
70.677548
 21
392.37685
  0
LINE
  5
32A
100
AcDbEntity
  8
M0
 62
     6
100
AcDbLine
 10
73.505826
 20
393.083882
 11
71.738202
 21
391.316303
  0
ARC
  5
32B
100
AcDbEntity
  8
M0
 62
     6
100
AcDbCircle
 10
69.610852
 20
396.5304
 40
0.5
100
AcDbArc
 50
90.0
 51
162.865663
  0
ARC
  5
32C
100
AcDbEntity
  8
M0
 62
     6
100
AcDbCircle
 10
69.610852
 20
388.930439
 40
0.5
100
AcDbArc
 50
197.137551
 51
270.0
  0
ARC
  5
32D
100
AcDbEntity
  8
M0
 62
     6
100
AcDbCircle
 10
74.57272
 20
388.930439
 40
0.5
100
AcDbArc
 50
270.0
 51
342.861653
  0
ARC
  5
32E
100
AcDbEntity
  8
M0
 62
     6
100
AcDbCircle
 10
74.57272
 20
396.5304
 40
0.5
100
AcDbArc
 50
17.134787
 51
90.0
  0
CIRCLE
  5
32F
100
AcDbEntity
  8
M0
 62
     6
100
AcDbCircle
 10
82.091809
 20
392.730366
 40
3.0
  0
LINE
  5
330
100
AcDbEntity
  8
M0
 62
     6
100
AcDbLine
 10
79.133054
 20
396.677708
 11
78.3168
 21
394.030415
  0
LINE
  5
331
100
AcDbEntity
  8
M0
 62
     6
100
AcDbLine
 10
79.133054
 20
388.783116
 11
78.3168
 21
391.430439
  0
LINE
  5
332
100
AcDbEntity
  8
M0
 62
     6
100
AcDbLine
 10
85.050534
 20
396.677723
 11
85.866803
 21
394.030415
  0
LINE
  5
333
100
AcDbEntity
  8
M0
 62
     6
100
AcDbLine
 10
85.050534
 20
388.7831
 11
85.866803
 21
391.430439
  0
LINE
  5
334
100
AcDbEntity
  8
M0
 62
     6
100
AcDbLine
 10
79.610852
 20
388.430439
 11
84.57272
 21
388.430439
  0
LINE
  5
335
100
AcDbEntity
  8
M0
 62
     6
100
AcDbLine
 10
85.866803
 20
391.430439
 11
85.866803
 21
394.030415
  0
LINE
  5
336
100
AcDbEntity
  8
M0
 62
     6
100
AcDbLine
 10
84.57272
 20
397.030415
 11
79.610852
 21
397.0304
  0
LINE
  5
337
100
AcDbEntity
  8
M0
 62
     6
100
AcDbLine
 10
78.3168
 20
394.030415
 11
78.3168
 21
391.430439
  0
LINE
  5
338
100
AcDbEntity
  8
M0
  6
DASHDOT
 62
     6
100
AcDbLine
 10
75.8168
 20
392.730366
 11
88.366803
 21
392.730366
  0
LINE
  5
339
100
AcDbEntity
  8
M0
  6
DASHDOT
 62
     6
100
AcDbLine
 10
82.091809
 20
385.930454
 11
82.091809
 21
399.530415
  0
LINE
  5
33A
100
AcDbEntity
  8
M0
 62
     6
100
AcDbLine
 10
83.682584
 20
391.139546
 11
80.500775
 21
394.321308
  0
LINE
  5
33B
100
AcDbEntity
  8
M0
 62
     6
100
AcDbLine
 10
82.445218
 20
394.144551
 11
80.677548
 21
392.37685
  0
LINE
  5
33C
100
AcDbEntity
  8
M0
 62
     6
100
AcDbLine
 10
83.505826
 20
393.083882
 11
81.738202
 21
391.316303
  0
ARC
  5
33D
100
AcDbEntity
  8
M0
 62
     6
100
AcDbCircle
 10
79.610852
 20
396.5304
 40
0.5
100
AcDbArc
 50
90.0
 51
162.865663
  0
ARC
  5
33E
100
AcDbEntity
  8
M0
 62
     6
100
AcDbCircle
 10
79.610852
 20
388.930439
 40
0.5
100
AcDbArc
 50
197.137551
 51
270.0
  0
ARC
  5
33F
100
AcDbEntity
  8
M0
 62
     6
100
AcDbCircle
 10
84.57272
 20
388.930439
 40
0.5
100
AcDbArc
 50
270.0
 51
342.861653
  0
ARC
  5
340
100
AcDbEntity
  8
M0
 62
     6
100
AcDbCircle
 10
84.57272
 20
396.5304
 40
0.5
100
AcDbArc
 50
17.134787
 51
90.0
  0
CIRCLE
  5
341
100
AcDbEntity
  8
M0
 62
     6
100
AcDbCircle
 10
92.091809
 20
400.730122
 40
3.0
  0
LINE
  5
342
100
AcDbEntity
  8
M0
 62
     6
100
AcDbLine
 10
89.133054
 20
404.677464
 11
88.3168
 21
402.030171
  0
LINE
  5
343
100
AcDbEntity
  8
M0
 62
     6
100
AcDbLine
 10
88.995175
 20
397.23003
 11
88.3168
 21
399.430195
  0
LINE
  5
344
100
AcDbEntity
  8
M0
 62
     6
100
AcDbLine
 10
95.050534
 20
404.677479
 11
95.866803
 21
402.030171
  0
LINE
  5
345
100
AcDbEntity
  8
M0
 62
     6
100
AcDbLine
 10
95.188413
 20
397.23003
 11
95.866803
 21
399.430195
  0
LINE
  5
346
100
AcDbEntity
  8
M0
 62
     6
100
AcDbLine
 10
95.866803
 20
399.430195
 11
95.866803
 21
402.030171
  0
LINE
  5
347
100
AcDbEntity
  8
M0
 62
     6
100
AcDbLine
 10
94.57272
 20
405.030171
 11
89.610852
 21
405.030155
  0
LINE
  5
348
100
AcDbEntity
  8
M0
 62
     6
100
AcDbLine
 10
88.3168
 20
402.030171
 11
88.3168
 21
399.430195
  0
LINE
  5
349
100
AcDbEntity
  8
M0
  6
DASHDOT
 62
     6
100
AcDbLine
 10
85.8168
 20
400.730122
 11
98.366803
 21
400.730122
  0
LINE
  5
34A
100
AcDbEntity
  8
M0
  6
DASHDOT
 62
     6
100
AcDbLine
 10
92.091809
 20
393.93021
 11
92.091809
 21
407.530171
  0
LINE
  5
34B
100
AcDbEntity
  8
M0
 62
     6
100
AcDbLine
 10
93.682584
 20
399.139302
 11
90.500775
 21
402.321064
  0
LINE
  5
34C
100
AcDbEntity
  8
M0
 62
     6
100
AcDbLine
 10
92.445218
 20
402.144306
 11
90.677548
 21
400.376606
  0
LINE
  5
34D
100
AcDbEntity
  8
M0
 62
     6
100
AcDbLine
 10
93.505826
 20
401.083637
 11
91.738202
 21
399.316059
  0
ARC
  5
34E
100
AcDbEntity
  8
M0
 62
     6
100
AcDbCircle
 10
89.610852
 20
404.530155
 40
0.5
100
AcDbArc
 50
90.0
 51
162.865663
  0
ARC
  5
34F
100
AcDbEntity
  8
M0
 62
     6
100
AcDbCircle
 10
94.57272
 20
404.530155
 40
0.5
100
AcDbArc
 50
17.134787
 51
90.0
  0
CIRCLE
  5
350
100
AcDbEntity
  8
M0
 62
     6
100
AcDbCircle
 10
92.091809
 20
392.730366
 40
3.0
  0
LINE
  5
351
100
AcDbEntity
  8
M0
 62
     6
100
AcDbLine
 10
89.133054
 20
396.677708
 11
88.3168
 21
394.030415
  0
LINE
  5
352
100
AcDbEntity
  8
M0
 62
     6
100
AcDbLine
 10
89.133054
 20
388.783116
 11
88.3168
 21
391.430439
  0
LINE
  5
353
100
AcDbEntity
  8
M0
 62
     6
100
AcDbLine
 10
95.050534
 20
396.677723
 11
95.866803
 21
394.030415
  0
LINE
  5
354
100
AcDbEntity
  8
M0
 62
     6
100
AcDbLine
 10
95.050534
 20
388.7831
 11
95.866803
 21
391.430439
  0
LINE
  5
355
100
AcDbEntity
  8
M0
 62
     6
100
AcDbLine
 10
89.610852
 20
388.430439
 11
94.57272
 21
388.430439
  0
LINE
  5
356
100
AcDbEntity
  8
M0
 62
     6
100
AcDbLine
 10
95.866803
 20
391.430439
 11
95.866803
 21
394.030415
  0
LINE
  5
357
100
AcDbEntity
  8
M0
 62
     6
100
AcDbLine
 10
94.57272
 20
397.030415
 11
89.610852
 21
397.0304
  0
LINE
  5
358
100
AcDbEntity
  8
M0
 62
     6
100
AcDbLine
 10
88.3168
 20
394.030415
 11
88.3168
 21
391.430439
  0
LINE
  5
359
100
AcDbEntity
  8
M0
  6
DASHDOT
 62
     6
100
AcDbLine
 10
85.8168
 20
392.730366
 11
98.366803
 21
392.730366
  0
LINE
  5
35A
100
AcDbEntity
  8
M0
  6
DASHDOT
 62
     6
100
AcDbLine
 10
92.091809
 20
385.930454
 11
92.091809
 21
399.530415
  0
LINE
  5
35B
100
AcDbEntity
  8
M0
 62
     6
100
AcDbLine
 10
93.682584
 20
391.139546
 11
90.500775
 21
394.321308
  0
LINE
  5
35C
100
AcDbEntity
  8
M0
 62
     6
100
AcDbLine
 10
92.445218
 20
394.144551
 11
90.677548
 21
392.37685
  0
LINE
  5
35D
100
AcDbEntity
  8
M0
 62
     6
100
AcDbLine
 10
93.505826
 20
393.083882
 11
91.738202
 21
391.316303
  0
ARC
  5
35E
100
AcDbEntity
  8
M0
 62
     6
100
AcDbCircle
 10
89.610852
 20
396.5304
 40
0.5
100
AcDbArc
 50
90.0
 51
162.865663
  0
ARC
  5
35F
100
AcDbEntity
  8
M0
 62
     6
100
AcDbCircle
 10
89.610852
 20
388.930439
 40
0.5
100
AcDbArc
 50
197.137551
 51
270.0
  0
ARC
  5
360
100
AcDbEntity
  8
M0
 62
     6
100
AcDbCircle
 10
94.57272
 20
388.930439
 40
0.5
100
AcDbArc
 50
270.0
 51
342.861653
  0
ARC
  5
361
100
AcDbEntity
  8
M0
 62
     6
100
AcDbCircle
 10
94.57272
 20
396.5304
 40
0.5
100
AcDbArc
 50
17.134787
 51
90.0
  0
LINE
  5
362
100
AcDbEntity
  8
M0
 62
     1
100
AcDbLine
 10
67.491803
 20
341.230931
 11
70.888501
 21
341.230854
  0
ARC
  5
363
100
AcDbEntity
  8
M0
 62
     1
100
AcDbCircle
 10
67.491803
 20
342.230931
 40
1.0
100
AcDbArc
 50
210.003761
 51
270.0
  0
ARC
  5
364
100
AcDbEntity
  8
M0
 62
     1
100
AcDbCircle
 10
76.491803
 20
342.230931
 40
1.0
100
AcDbArc
 50
270.0
 51
329.995752
  0
LINE
  5
365
100
AcDbEntity
  8
M0
 62
     1
100
AcDbLine
 10
69.041806
 20
343.530903
 11
70.491803
 21
343.530903
  0
ARC
  5
366
100
AcDbEntity
  8
M0
 62
     1
100
AcDbCircle
 10
69.041806
 20
343.730915
 40
0.2
100
AcDbArc
 50
179.999727
 51
270.0
  0
LINE
  5
367
100
AcDbEntity
  8
M0
 62
     1
100
AcDbLine
 10
68.841794
 20
344.730839
 11
68.841809
 21
343.730915
  0
LINE
  5
368
100
AcDbEntity
  8
M0
 62
     1
100
AcDbLine
 10
73.288648
 20
341.230854
 11
76.491803
 21
341.230931
  0
LINE
  5
369
100
AcDbEntity
  8
M0
 62
     4
100
AcDbLine
 10
98.591809
 20
344.23087
 11
98.591809
 21
404.730854
  0
LINE
  5
36A
100
AcDbEntity
  8
M0
 62
     4
100
AcDbLine
 10
98.091809
 20
402.730854
 11
96.54176
 21
402.730854
  0
LINE
  5
36B
100
AcDbEntity
  8
M0
 62
     4
100
AcDbLine
 10
45.591809
 20
401.230808
 11
45.591809
 21
340.730839
  0
LINE
  5
36C
100
AcDbEntity
  8
M0
  6
DASHDOT
 62
     4
100
AcDbLine
 10
40.591809
 20
372.730854
 11
103.591809
 21
372.730854
  0
LINE
  5
36D
100
AcDbEntity
  8
M0
  6
DASHDOT
 62
     4
100
AcDbLine
 10
72.091809
 20
302.088917
 11
72.091809
 21
410.230854
  0
LINE
  5
36E
100
AcDbEntity
  8
M0
 62
     4
100
AcDbLine
 10
68.141614
 20
388.730854
 11
68.141614
 21
403.230808
  0
LINE
  5
36F
100
AcDbEntity
  8
M0
 62
     4
100
AcDbLine
 10
76.04176
 20
388.730854
 11
76.04176
 21
403.230839
  0
LINE
  5
370
100
AcDbEntity
  8
M0
 62
     4
100
AcDbLine
 10
67.641614
 20
403.730839
 11
66.54176
 21
403.730839
  0
LINE
  5
371
100
AcDbEntity
  8
M0
 62
     4
100
AcDbLine
 10
69.141614
 20
387.730854
 11
75.04176
 21
387.730854
  0
ARC
  5
372
100
AcDbEntity
  8
M0
 62
     4
100
AcDbCircle
 10
69.141614
 20
388.730854
 40
1.0
100
AcDbArc
 50
180.0
 51
270.0
  0
ARC
  5
373
100
AcDbEntity
  8
M0
 62
     4
100
AcDbCircle
 10
75.04176
 20
388.730854
 40
1.0
100
AcDbArc
 50
269.916016
 51
360.0
  0
ARC
  5
374
100
AcDbEntity
  8
M0
 62
     4
100
AcDbCircle
 10
76.54176
 20
403.230839
 40
0.5
100
AcDbArc
 50
90.0
 51
180.0
  0
ARC
  5
375
100
AcDbEntity
  8
M0
 62
     4
100
AcDbCircle
 10
67.641614
 20
403.230824
 40
0.5
100
AcDbArc
 50
0.0
 51
90.0
  0
LINE
  5
376
100
AcDbEntity
  8
M0
 62
     4
100
AcDbLine
 10
47.641614
 20
401.730824
 11
46.091809
 21
401.730824
  0
LINE
  5
377
100
AcDbEntity
  8
M0
 62
     4
100
AcDbLine
 10
57.641614
 20
403.730824
 11
56.54176
 21
403.730824
  0
LINE
  5
378
100
AcDbEntity
  8
M0
 62
     4
100
AcDbLine
 10
77.641614
 20
403.730839
 11
76.54176
 21
403.730839
  0
LINE
  5
379
100
AcDbEntity
  8
M0
 62
     4
100
AcDbLine
 10
87.641614
 20
403.730839
 11
86.54176
 21
403.730839
  0
ARC
  5
37A
100
AcDbEntity
  8
M0
 62
     4
100
AcDbCircle
 10
98.091809
 20
402.230839
 40
0.5
100
AcDbArc
 50
0.0
 51
90.0
  0
ARC
  5
37B
100
AcDbEntity
  8
M0
 62
     4
100
AcDbCircle
 10
96.54176
 20
402.230839
 40
0.5
100
AcDbArc
 50
90.0
 51
180.0
  0
ARC
  5
37C
100
AcDbEntity
  8
M0
 62
     4
100
AcDbCircle
 10
86.54176
 20
403.230839
 40
0.5
100
AcDbArc
 50
90.0
 51
180.0
  0
ARC
  5
37D
100
AcDbEntity
  8
M0
 62
     4
100
AcDbCircle
 10
66.54176
 20
403.230824
 40
0.5
100
AcDbArc
 50
90.0
 51
180.0
  0
ARC
  5
37E
100
AcDbEntity
  8
M0
 62
     4
100
AcDbCircle
 10
56.54176
 20
403.230808
 40
0.5
100
AcDbArc
 50
90.0
 51
180.0
  0
ARC
  5
37F
100
AcDbEntity
  8
M0
 62
     4
100
AcDbCircle
 10
46.091809
 20
401.230808
 40
0.5
100
AcDbArc
 50
89.998251
 51
180.0
  0
LINE
  5
380
100
AcDbEntity
  8
M0
 62
     4
100
AcDbLine
 10
88.141614
 20
397.230854
 11
96.04176
 21
397.230854
  0
LINE
  5
381
100
AcDbEntity
  8
M0
 62
     4
100
AcDbLine
 10
78.141614
 20
397.230854
 11
86.04176
 21
397.230854
  0
LINE
  5
382
100
AcDbEntity
  8
M0
 62
     4
100
AcDbLine
 10
68.141614
 20
397.230854
 11
76.04176
 21
397.230854
  0
LINE
  5
383
100
AcDbEntity
  8
M0
 62
     4
100
AcDbLine
 10
58.141614
 20
397.230854
 11
66.04176
 21
397.230854
  0
LINE
  5
384
100
AcDbEntity
  8
M0
 62
     4
100
AcDbLine
 10
56.04176
 20
397.230854
 11
48.141614
 21
397.230854
  0
LINE
  5
385
100
AcDbEntity
  8
M0
 62
     4
100
AcDbLine
 10
58.141614
 20
400.730854
 11
60.491803
 21
400.730854
  0
LINE
  5
386
100
AcDbEntity
  8
M0
 62
     4
100
AcDbLine
 10
68.141614
 20
400.730854
 11
70.491803
 21
400.730854
  0
LINE
  5
387
100
AcDbEntity
  8
M0
 62
     4
100
AcDbLine
 10
78.141614
 20
400.730854
 11
86.04176
 21
400.730854
  0
LINE
  5
388
100
AcDbEntity
  8
M0
 62
     4
100
AcDbLine
 10
86.54176
 20
405.230854
 11
98.091809
 21
405.230854
  0
ARC
  5
389
100
AcDbEntity
  8
M0
 62
     4
100
AcDbCircle
 10
86.54176
 20
404.730854
 40
0.5
100
AcDbArc
 50
90.0
 51
180.0
  0
ARC
  5
38A
100
AcDbEntity
  8
M0
 62
     4
100
AcDbCircle
 10
98.091809
 20
404.730854
 40
0.5
100
AcDbArc
 50
0.0
 51
90.0
  0
ARC
  5
38B
100
AcDbEntity
  8
M0
 62
     4
100
AcDbCircle
 10
96.54176
 20
404.730854
 40
0.5
100
AcDbArc
 50
90.0
 51
180.0
  0
LINE
  5
38C
100
AcDbEntity
  8
M0
 62
     4
100
AcDbLine
 10
83.753674
 20
400.730854
 11
86.10426
 21
404.973164
  0
ARC
  5
38D
100
AcDbEntity
  8
M0
 62
     4
100
AcDbCircle
 10
46.091809
 20
340.730839
 40
0.5
100
AcDbArc
 50
179.998251
 51
270.0
  0
LINE
  5
38E
100
AcDbEntity
  8
M0
 62
     4
100
AcDbLine
 10
78.141614
 20
388.730854
 11
78.141614
 21
403.230808
  0
ARC
  5
38F
100
AcDbEntity
  8
M0
 62
     4
100
AcDbCircle
 10
79.141614
 20
388.730854
 40
1.0
100
AcDbArc
 50
180.0
 51
269.930004
  0
LINE
  5
390
100
AcDbEntity
  8
M0
 62
     4
100
AcDbLine
 10
79.141614
 20
387.730854
 11
85.04176
 21
387.730854
  0
ARC
  5
391
100
AcDbEntity
  8
M0
 62
     4
100
AcDbCircle
 10
85.04176
 20
388.730854
 40
1.0
100
AcDbArc
 50
269.916016
 51
360.0
  0
LINE
  5
392
100
AcDbEntity
  8
M0
 62
     4
100
AcDbLine
 10
86.04176
 20
388.730854
 11
86.04176
 21
404.730854
  0
ARC
  5
393
100
AcDbEntity
  8
M0
 62
     4
100
AcDbCircle
 10
77.641614
 20
403.230824
 40
0.5
100
AcDbArc
 50
0.0
 51
90.0
  0
LINE
  5
394
100
AcDbEntity
  8
M0
 62
     4
100
AcDbLine
 10
58.141614
 20
388.730854
 11
58.141614
 21
403.230793
  0
ARC
  5
395
100
AcDbEntity
  8
M0
 62
     4
100
AcDbCircle
 10
59.141614
 20
388.730854
 40
1.0
100
AcDbArc
 50
180.0
 51
269.930059
  0
LINE
  5
396
100
AcDbEntity
  8
M0
 62
     4
100
AcDbLine
 10
59.141614
 20
387.730854
 11
65.04176
 21
387.730854
  0
ARC
  5
397
100
AcDbEntity
  8
M0
 62
     4
100
AcDbCircle
 10
65.04176
 20
388.730854
 40
1.0
100
AcDbArc
 50
269.888094
 51
360.0
  0
LINE
  5
398
100
AcDbEntity
  8
M0
 62
     4
100
AcDbLine
 10
66.04176
 20
388.730854
 11
66.04176
 21
403.230824
  0
ARC
  5
399
100
AcDbEntity
  8
M0
 62
     4
100
AcDbCircle
 10
57.641614
 20
403.230808
 40
0.5
100
AcDbArc
 50
0.0
 51
90.0
  0
LINE
  5
39A
100
AcDbEntity
  8
M0
 62
     4
100
AcDbLine
 10
88.141614
 20
388.730854
 11
88.141614
 21
404.730854
  0
ARC
  5
39B
100
AcDbEntity
  8
M0
 62
     4
100
AcDbCircle
 10
89.141614
 20
388.730854
 40
1.0
100
AcDbArc
 50
180.0
 51
269.929185
  0
LINE
  5
39C
100
AcDbEntity
  8
M0
 62
     4
100
AcDbLine
 10
89.141614
 20
387.730854
 11
95.04176
 21
387.730854
  0
ARC
  5
39D
100
AcDbEntity
  8
M0
 62
     4
100
AcDbCircle
 10
95.04176
 20
388.730854
 40
1.0
100
AcDbArc
 50
269.915196
 51
360.0
  0
LINE
  5
39E
100
AcDbEntity
  8
M0
 62
     4
100
AcDbLine
 10
96.04176
 20
388.730854
 11
96.04176
 21
404.730854
  0
ARC
  5
39F
100
AcDbEntity
  8
M0
 62
     4
100
AcDbCircle
 10
87.641614
 20
403.230824
 40
0.5
100
AcDbArc
 50
0.0
 51
90.0
  0
ARC
  5
3A0
100
AcDbEntity
  8
M0
 62
     4
100
AcDbCircle
 10
87.641614
 20
404.730854
 40
0.5
100
AcDbArc
 50
0.0
 51
90.0
  0
ARC
  5
3A1
100
AcDbEntity
  8
M0
 62
     4
100
AcDbCircle
 10
49.141614
 20
388.730854
 40
1.0
100
AcDbArc
 50
180.0
 51
269.969401
  0
LINE
  5
3A2
100
AcDbEntity
  8
M0
 62
     4
100
AcDbLine
 10
48.141614
 20
388.730854
 11
48.141614
 21
401.230793
  0
LINE
  5
3A3
100
AcDbEntity
  8
M0
 62
     4
100
AcDbLine
 10
49.141614
 20
387.730854
 11
55.04176
 21
387.730854
  0
ARC
  5
3A4
100
AcDbEntity
  8
M0
 62
     4
100
AcDbCircle
 10
55.04176
 20
388.730854
 40
1.0
100
AcDbArc
 50
269.927436
 51
360.0
  0
LINE
  5
3A5
100
AcDbEntity
  8
M0
 62
     4
100
AcDbLine
 10
56.04176
 20
388.730854
 11
56.04176
 21
403.230808
  0
ARC
  5
3A6
100
AcDbEntity
  8
M0
 62
     4
100
AcDbCircle
 10
47.641614
 20
401.230808
 40
0.5
100
AcDbArc
 50
0.0
 51
89.998251
  0
LINE
  5
3A7
100
AcDbEntity
  8
M0
 62
     4
100
AcDbLine
 10
46.091809
 20
342.730854
 11
47.641858
 21
342.730854
  0
LINE
  5
3A8
100
AcDbEntity
  8
M0
 62
     4
100
AcDbLine
 10
76.042005
 20
356.730854
 11
76.042005
 21
342.2309
  0
LINE
  5
3A9
100
AcDbEntity
  8
M0
 62
     4
100
AcDbLine
 10
68.141858
 20
356.730854
 11
68.141858
 21
342.23087
  0
LINE
  5
3AA
100
AcDbEntity
  8
M0
 62
     4
100
AcDbLine
 10
76.542005
 20
341.73087
 11
77.641858
 21
341.73087
  0
LINE
  5
3AB
100
AcDbEntity
  8
M0
 62
     4
100
AcDbLine
 10
75.042005
 20
357.730854
 11
69.141858
 21
357.730854
  0
ARC
  5
3AC
100
AcDbEntity
  8
M0
 62
     4
100
AcDbCircle
 10
75.042005
 20
356.730854
 40
1.0
100
AcDbArc
 50
0.0
 51
90.0
  0
ARC
  5
3AD
100
AcDbEntity
  8
M0
 62
     4
100
AcDbCircle
 10
69.141858
 20
356.730854
 40
1.0
100
AcDbArc
 50
89.916016
 51
179.999945
  0
ARC
  5
3AE
100
AcDbEntity
  8
M0
 62
     4
100
AcDbCircle
 10
67.641858
 20
342.23087
 40
0.5
100
AcDbArc
 50
270.027977
 51
360.0
  0
ARC
  5
3AF
100
AcDbEntity
  8
M0
 62
     4
100
AcDbCircle
 10
76.542005
 20
342.230885
 40
0.5
100
AcDbArc
 50
179.998251
 51
270.027868
  0
LINE
  5
3B0
100
AcDbEntity
  8
M0
 62
     4
100
AcDbLine
 10
96.542005
 20
343.730885
 11
98.091809
 21
343.730885
  0
LINE
  5
3B1
100
AcDbEntity
  8
M0
 62
     4
100
AcDbLine
 10
86.542005
 20
341.730885
 11
87.641858
 21
341.730885
  0
LINE
  5
3B2
100
AcDbEntity
  8
M0
 62
     4
100
AcDbLine
 10
66.542005
 20
341.73087
 11
67.641858
 21
341.73087
  0
LINE
  5
3B3
100
AcDbEntity
  8
M0
 62
     4
100
AcDbLine
 10
56.542005
 20
341.73087
 11
57.641858
 21
341.73087
  0
ARC
  5
3B4
100
AcDbEntity
  8
M0
 62
     4
100
AcDbCircle
 10
47.641858
 20
343.23087
 40
0.5
100
AcDbArc
 50
270.027977
 51
360.0
  0
ARC
  5
3B5
100
AcDbEntity
  8
M0
 62
     4
100
AcDbCircle
 10
57.641858
 20
342.23087
 40
0.5
100
AcDbArc
 50
270.027977
 51
360.0
  0
ARC
  5
3B6
100
AcDbEntity
  8
M0
 62
     4
100
AcDbCircle
 10
77.641858
 20
342.230885
 40
0.5
100
AcDbArc
 50
270.027868
 51
360.0
  0
ARC
  5
3B7
100
AcDbEntity
  8
M0
 62
     4
100
AcDbCircle
 10
87.641858
 20
342.2309
 40
0.5
100
AcDbArc
 50
270.027868
 51
360.0
  0
LINE
  5
3B8
100
AcDbEntity
  8
M0
 62
     4
100
AcDbLine
 10
56.042005
 20
348.230854
 11
48.141858
 21
348.230854
  0
LINE
  5
3B9
100
AcDbEntity
  8
M0
 62
     4
100
AcDbLine
 10
66.042005
 20
348.230854
 11
58.141858
 21
348.230854
  0
LINE
  5
3BA
100
AcDbEntity
  8
M0
 62
     4
100
AcDbLine
 10
76.042005
 20
348.230854
 11
68.141858
 21
348.230854
  0
LINE
  5
3BB
100
AcDbEntity
  8
M0
 62
     4
100
AcDbLine
 10
86.042005
 20
348.230854
 11
78.141858
 21
348.230854
  0
LINE
  5
3BC
100
AcDbEntity
  8
M0
 62
     4
100
AcDbLine
 10
88.141858
 20
348.230854
 11
96.042005
 21
348.230854
  0
LINE
  5
3BD
100
AcDbEntity
  8
M0
 62
     4
100
AcDbLine
 10
86.042005
 20
344.730854
 11
78.141858
 21
344.730854
  0
LINE
  5
3BE
100
AcDbEntity
  8
M0
 62
     4
100
AcDbLine
 10
76.042005
 20
344.730854
 11
73.6918
 21
344.73061
  0
LINE
  5
3BF
100
AcDbEntity
  8
M0
 62
     4
100
AcDbLine
 10
66.042005
 20
344.730854
 11
63.6918
 21
344.73061
  0
ARC
  5
3C0
100
AcDbEntity
  8
M0
 62
     4
100
AcDbCircle
 10
47.641858
 20
340.730854
 40
0.5
100
AcDbArc
 50
270.027977
 51
360.0
  0
LINE
  5
3C1
100
AcDbEntity
  8
M0
 62
     4
100
AcDbLine
 10
60.429944
 20
344.730854
 11
58.492734
 21
341.234516
  0
LINE
  5
3C2
100
AcDbEntity
  8
M0
 62
     4
100
AcDbLine
 10
66.042005
 20
356.730854
 11
66.042005
 21
342.2309
  0
ARC
  5
3C3
100
AcDbEntity
  8
M0
 62
     4
100
AcDbCircle
 10
65.042005
 20
356.730854
 40
1.0
100
AcDbArc
 50
0.0
 51
89.943992
  0
LINE
  5
3C4
100
AcDbEntity
  8
M0
 62
     4
100
AcDbLine
 10
65.042005
 20
357.730854
 11
59.141858
 21
357.730854
  0
ARC
  5
3C5
100
AcDbEntity
  8
M0
 62
     4
100
AcDbCircle
 10
59.141858
 20
356.730854
 40
1.0
100
AcDbArc
 50
89.916016
 51
179.999945
  0
LINE
  5
3C6
100
AcDbEntity
  8
M0
 62
     4
100
AcDbLine
 10
58.141858
 20
356.730854
 11
58.141858
 21
341.234516
  0
ARC
  5
3C7
100
AcDbEntity
  8
M0
 62
     4
100
AcDbCircle
 10
66.542005
 20
342.230885
 40
0.5
100
AcDbArc
 50
179.998251
 51
270.027977
  0
LINE
  5
3C8
100
AcDbEntity
  8
M0
 62
     4
100
AcDbLine
 10
86.042005
 20
356.730854
 11
86.042005
 21
342.230915
  0
ARC
  5
3C9
100
AcDbEntity
  8
M0
 62
     4
100
AcDbCircle
 10
85.042005
 20
356.730854
 40
1.0
100
AcDbArc
 50
0.0
 51
89.944047
  0
LINE
  5
3CA
100
AcDbEntity
  8
M0
 62
     4
100
AcDbLine
 10
85.042005
 20
357.730854
 11
79.141858
 21
357.730854
  0
ARC
  5
3CB
100
AcDbEntity
  8
M0
 62
     4
100
AcDbCircle
 10
79.141858
 20
356.730854
 40
1.0
100
AcDbArc
 50
89.888094
 51
179.999945
  0
LINE
  5
3CC
100
AcDbEntity
  8
M0
 62
     4
100
AcDbLine
 10
78.141858
 20
356.730854
 11
78.141858
 21
342.230885
  0
ARC
  5
3CD
100
AcDbEntity
  8
M0
 62
     4
100
AcDbCircle
 10
86.542005
 20
342.2309
 40
0.5
100
AcDbArc
 50
179.998251
 51
270.027868
  0
LINE
  5
3CE
100
AcDbEntity
  8
M0
 62
     4
100
AcDbLine
 10
56.042005
 20
356.730854
 11
56.042005
 21
341.588764
  0
ARC
  5
3CF
100
AcDbEntity
  8
M0
 62
     4
100
AcDbCircle
 10
55.042005
 20
356.730854
 40
1.0
100
AcDbArc
 50
0.0
 51
89.930059
  0
LINE
  5
3D0
100
AcDbEntity
  8
M0
 62
     4
100
AcDbLine
 10
55.042005
 20
357.730854
 11
49.141858
 21
357.730854
  0
ARC
  5
3D1
100
AcDbEntity
  8
M0
 62
     4
100
AcDbCircle
 10
49.141858
 20
356.730854
 40
1.0
100
AcDbArc
 50
89.915196
 51
179.999945
  0
LINE
  5
3D2
100
AcDbEntity
  8
M0
 62
     4
100
AcDbLine
 10
48.141858
 20
356.730854
 11
48.141858
 21
340.730854
  0
ARC
  5
3D3
100
AcDbEntity
  8
M0
 62
     4
100
AcDbCircle
 10
56.542005
 20
342.230885
 40
0.5
100
AcDbArc
 50
179.998251
 51
270.027977
  0
ARC
  5
3D4
100
AcDbEntity
  8
M0
 62
     4
100
AcDbCircle
 10
95.042005
 20
356.730854
 40
1.0
100
AcDbArc
 50
0.0
 51
89.972024
  0
LINE
  5
3D5
100
AcDbEntity
  8
M0
 62
     4
100
AcDbLine
 10
96.042005
 20
356.730854
 11
96.042005
 21
344.230915
  0
LINE
  5
3D6
100
AcDbEntity
  8
M0
 62
     4
100
AcDbLine
 10
95.042005
 20
357.730854
 11
89.141858
 21
357.730854
  0
ARC
  5
3D7
100
AcDbEntity
  8
M0
 62
     4
100
AcDbCircle
 10
89.141858
 20
356.730854
 40
1.0
100
AcDbArc
 50
89.930059
 51
179.999945
  0
LINE
  5
3D8
100
AcDbEntity
  8
M0
 62
     4
100
AcDbLine
 10
88.141858
 20
356.730854
 11
88.141858
 21
342.2309
  0
ARC
  5
3D9
100
AcDbEntity
  8
M0
 62
     4
100
AcDbCircle
 10
96.542005
 20
344.2309
 40
0.5
100
AcDbArc
 50
179.998251
 51
269.998251
  0
ARC
  5
3DA
100
AcDbEntity
  8
M0
 62
     4
100
AcDbCircle
 10
46.091809
 20
343.23087
 40
0.5
100
AcDbArc
 50
179.998251
 51
270.027977
  0
ARC
  5
3DB
100
AcDbEntity
  8
M0
 62
     4
100
AcDbCircle
 10
98.091809
 20
344.230885
 40
0.5
100
AcDbArc
 50
269.998251
 51
360.0
  0
LINE
  5
3DC
100
AcDbEntity
  8
M0
 62
     4
100
AcDbLine
 10
69.591809
 20
369.580845
 11
74.591809
 21
369.580845
  0
LINE
  5
3DD
100
AcDbEntity
  8
M0
 62
     4
100
AcDbLine
 10
75.091809
 20
370.08083
 11
75.091809
 21
375.380818
  0
LINE
  5
3DE
100
AcDbEntity
  8
M0
 62
     4
100
AcDbLine
 10
74.591809
 20
375.880848
 11
69.591809
 21
375.880833
  0
LINE
  5
3DF
100
AcDbEntity
  8
M0
 62
     4
100
AcDbLine
 10
69.091809
 20
375.380833
 11
69.091809
 21
370.080845
  0
ARC
  5
3E0
100
AcDbEntity
  8
M0
 62
     4
100
AcDbCircle
 10
74.591809
 20
370.080845
 40
0.5
100
AcDbArc
 50
270.0
 51
360.0
  0
ARC
  5
3E1
100
AcDbEntity
  8
M0
 62
     4
100
AcDbCircle
 10
74.591809
 20
375.380833
 40
0.5
100
AcDbArc
 50
0.0
 51
90.0
  0
ARC
  5
3E2
100
AcDbEntity
  8
M0
 62
     4
100
AcDbCircle
 10
69.591809
 20
375.380833
 40
0.5
100
AcDbArc
 50
90.0
 51
180.0
  0
ARC
  5
3E3
100
AcDbEntity
  8
M0
 62
     4
100
AcDbCircle
 10
69.591809
 20
370.080845
 40
0.5
100
AcDbArc
 50
179.999891
 51
270.0
  0
LINE
  5
3E4
100
AcDbEntity
  8
M0
 62
     4
100
AcDbLine
 10
60.491803
 20
344.730366
 11
58.141858
 21
344.730854
  0
LINE
  5
3E5
100
AcDbEntity
  8
M0
 62
     4
100
AcDbLine
 10
52.511685
 20
340.23061
 11
46.091809
 21
340.23061
  0
LINE
  5
3E6
100
AcDbEntity
  8
M0
 62
     4
100
AcDbLine
 10
70.491803
 20
344.730366
 11
68.141858
 21
344.730854
  0
LINE
  5
3E7
100
AcDbEntity
  8
M0
 62
     4
100
AcDbLine
 10
63.6918
 20
400.730854
 11
66.04176
 21
400.730854
  0
LINE
  5
3E8
100
AcDbEntity
  8
M0
 62
     4
100
AcDbLine
 10
73.6918
 20
400.730854
 11
76.04176
 21
400.730854
  0
LINE
  5
3E9
100
AcDbEntity
  8
M0
 62
     7
100
AcDbLine
 10
60.491803
 20
404.830464
 11
60.091809
 21
405.23061
  0
LINE
  5
3EA
100
AcDbEntity
  8
M0
 62
     7
100
AcDbLine
 10
64.091809
 20
344.730839
 11
64.091809
 21
344.230854
  0
LINE
  5
3EB
100
AcDbEntity
  8
M0
 62
     7
100
AcDbLine
 10
65.091809
 20
344.730839
 11
65.091809
 21
342.230854
  0
LINE
  5
3EC
100
AcDbEntity
  8
M0
 62
     7
100
AcDbLine
 10
93.591809
 20
341.234516
 11
93.591809
 21
348.230854
  0
LINE
  5
3ED
100
AcDbEntity
  8
M0
 62
     7
100
AcDbLine
 10
60.091809
 20
405.23061
 11
53.6918
 21
405.230366
  0
LINE
  5
3EE
100
AcDbEntity
  8
M0
 62
     7
100
AcDbLine
 10
80.591809
 20
342.230854
 11
80.591809
 21
344.730839
  0
LINE
  5
3EF
100
AcDbEntity
  8
M0
 62
     7
100
AcDbLine
 10
63.737027
 20
342.230854
 11
65.091809
 21
342.230854
  0
LINE
  5
3F0
100
AcDbEntity
  8
M0
 62
     7
100
AcDbLine
 10
84.091809
 20
341.230839
 11
84.091809
 21
344.730839
  0
LINE
  5
3F1
100
AcDbEntity
  8
M0
 62
     7
100
AcDbLine
 10
82.591809
 20
344.230854
 11
82.591809
 21
344.730839
  0
LINE
  5
3F2
100
AcDbEntity
  8
M0
 62
     7
100
AcDbLine
 10
81.091809
 20
342.230854
 11
81.091809
 21
344.730839
  0
LINE
  5
3F3
100
AcDbEntity
  8
M0
 62
     7
100
AcDbLine
 10
60.091809
 20
342.230854
 11
60.091809
 21
344.120579
  0
LINE
  5
3F4
100
AcDbEntity
  8
M0
 62
     7
100
AcDbLine
 10
79.088696
 20
342.230854
 11
80.591809
 21
342.230854
  0
LINE
  5
3F5
100
AcDbEntity
  8
M0
 62
     7
100
AcDbLine
 10
82.591809
 20
344.230854
 11
84.091809
 21
344.230854
  0
LINE
  5
3F6
100
AcDbEntity
  8
M0
 62
     7
100
AcDbLine
 10
81.091809
 20
342.230854
 11
84.091809
 21
342.230854
  0
LINE
  5
3F7
100
AcDbEntity
  8
M0
 62
     7
100
AcDbLine
 10
59.044736
 20
342.230854
 11
60.091809
 21
342.230854
  0
LINE
  5
3F8
100
AcDbEntity
  8
M0
 62
     7
100
AcDbLine
 10
63.6918
 20
344.230854
 11
64.091809
 21
344.230854
  0
CIRCLE
  5
3F9
100
AcDbEntity
  8
M0
 62
     6
100
AcDbCircle
 10
52.091809
 20
392.730366
 40
3.0
  0
LINE
  5
3FA
100
AcDbEntity
  8
M0
 62
     6
100
AcDbLine
 10
49.133054
 20
396.677708
 11
48.3168
 21
394.030415
  0
LINE
  5
3FB
100
AcDbEntity
  8
M0
 62
     6
100
AcDbLine
 10
49.133054
 20
388.783116
 11
48.3168
 21
391.430439
  0
LINE
  5
3FC
100
AcDbEntity
  8
M0
 62
     6
100
AcDbLine
 10
55.050534
 20
396.677723
 11
55.866803
 21
394.030415
  0
LINE
  5
3FD
100
AcDbEntity
  8
M0
 62
     6
100
AcDbLine
 10
55.050534
 20
388.7831
 11
55.866803
 21
391.430439
  0
LINE
  5
3FE
100
AcDbEntity
  8
M0
 62
     6
100
AcDbLine
 10
49.610852
 20
388.430439
 11
54.57272
 21
388.430439
  0
LINE
  5
3FF
100
AcDbEntity
  8
M0
 62
     6
100
AcDbLine
 10
55.866803
 20
391.430439
 11
55.866803
 21
394.030415
  0
LINE
  5
400
100
AcDbEntity
  8
M0
 62
     6
100
AcDbLine
 10
54.57272
 20
397.030415
 11
49.610852
 21
397.0304
  0
LINE
  5
401
100
AcDbEntity
  8
M0
 62
     6
100
AcDbLine
 10
48.3168
 20
394.030415
 11
48.3168
 21
391.430439
  0
LINE
  5
402
100
AcDbEntity
  8
M0
  6
DASHDOT
 62
     6
100
AcDbLine
 10
45.8168
 20
392.730366
 11
58.366803
 21
392.730366
  0
LINE
  5
403
100
AcDbEntity
  8
M0
  6
DASHDOT
 62
     6
100
AcDbLine
 10
52.091809
 20
385.930454
 11
52.091809
 21
399.530415
  0
LINE
  5
404
100
AcDbEntity
  8
M0
 62
     6
100
AcDbLine
 10
53.682584
 20
391.139546
 11
50.500775
 21
394.321308
  0
LINE
  5
405
100
AcDbEntity
  8
M0
 62
     6
100
AcDbLine
 10
52.445218
 20
394.144551
 11
50.677548
 21
392.37685
  0
LINE
  5
406
100
AcDbEntity
  8
M0
 62
     6
100
AcDbLine
 10
53.505826
 20
393.083882
 11
51.738202
 21
391.316303
  0
ARC
  5
407
100
AcDbEntity
  8
M0
 62
     6
100
AcDbCircle
 10
49.610852
 20
396.5304
 40
0.5
100
AcDbArc
 50
90.0
 51
162.865663
  0
ARC
  5
408
100
AcDbEntity
  8
M0
 62
     6
100
AcDbCircle
 10
49.610852
 20
388.930439
 40
0.5
100
AcDbArc
 50
197.137551
 51
270.0
  0
ARC
  5
409
100
AcDbEntity
  8
M0
 62
     6
100
AcDbCircle
 10
54.57272
 20
388.930439
 40
0.5
100
AcDbArc
 50
270.0
 51
342.861653
  0
ARC
  5
40A
100
AcDbEntity
  8
M0
 62
     6
100
AcDbCircle
 10
54.57272
 20
396.5304
 40
0.5
100
AcDbArc
 50
17.134787
 51
90.0
  0
CIRCLE
  5
40B
100
AcDbEntity
  8
M0
 62
     6
100
AcDbCircle
 10
92.091809
 20
352.730854
 40
3.0
  0
LINE
  5
40C
100
AcDbEntity
  8
M0
 62
     6
100
AcDbLine
 10
89.133054
 20
356.678196
 11
88.3168
 21
354.030903
  0
LINE
  5
40D
100
AcDbEntity
  8
M0
 62
     6
100
AcDbLine
 10
89.133054
 20
348.783604
 11
88.3168
 21
351.430928
  0
LINE
  5
40E
100
AcDbEntity
  8
M0
 62
     6
100
AcDbLine
 10
95.050534
 20
356.678211
 11
95.866803
 21
354.030903
  0
LINE
  5
40F
100
AcDbEntity
  8
M0
 62
     6
100
AcDbLine
 10
95.050534
 20
348.783589
 11
95.866803
 21
351.430928
  0
LINE
  5
410
100
AcDbEntity
  8
M0
 62
     6
100
AcDbLine
 10
89.610852
 20
348.430928
 11
94.57272
 21
348.430928
  0
LINE
  5
411
100
AcDbEntity
  8
M0
 62
     6
100
AcDbLine
 10
95.866803
 20
351.430928
 11
95.866803
 21
354.030903
  0
LINE
  5
412
100
AcDbEntity
  8
M0
 62
     6
100
AcDbLine
 10
94.57272
 20
357.030903
 11
89.610852
 21
357.030888
  0
LINE
  5
413
100
AcDbEntity
  8
M0
 62
     6
100
AcDbLine
 10
88.3168
 20
354.030903
 11
88.3168
 21
351.430928
  0
LINE
  5
414
100
AcDbEntity
  8
M0
  6
DASHDOT
 62
     6
100
AcDbLine
 10
85.8168
 20
352.730854
 11
98.366803
 21
352.730854
  0
LINE
  5
415
100
AcDbEntity
  8
M0
  6
DASHDOT
 62
     6
100
AcDbLine
 10
92.091809
 20
348.230854
 11
92.091809
 21
359.530903
  0
LINE
  5
416
100
AcDbEntity
  8
M0
 62
     6
100
AcDbLine
 10
93.682584
 20
351.140034
 11
90.500775
 21
354.321797
  0
LINE
  5
417
100
AcDbEntity
  8
M0
 62
     6
100
AcDbLine
 10
92.445218
 20
354.145039
 11
90.677548
 21
352.377339
  0
LINE
  5
418
100
AcDbEntity
  8
M0
 62
     6
100
AcDbLine
 10
93.505826
 20
353.08437
 11
91.738202
 21
351.316792
  0
ARC
  5
419
100
AcDbEntity
  8
M0
 62
     6
100
AcDbCircle
 10
89.610852
 20
356.530888
 40
0.5
100
AcDbArc
 50
90.0
 51
162.865663
  0
ARC
  5
41A
100
AcDbEntity
  8
M0
 62
     6
100
AcDbCircle
 10
89.610852
 20
348.930928
 40
0.5
100
AcDbArc
 50
197.137551
 51
270.0
  0
ARC
  5
41B
100
AcDbEntity
  8
M0
 62
     6
100
AcDbCircle
 10
94.57272
 20
348.930928
 40
0.5
100
AcDbArc
 50
270.0
 51
342.861653
  0
ARC
  5
41C
100
AcDbEntity
  8
M0
 62
     6
100
AcDbCircle
 10
94.57272
 20
356.530888
 40
0.5
100
AcDbArc
 50
17.134787
 51
90.0
  0
LINE
  5
41D
100
AcDbEntity
  8
M0
 62
     2
100
AcDbLine
 10
70.091809
 20
370.230854
 11
74.091809
 21
370.230854
  0
LINE
  5
41E
100
AcDbEntity
  8
M0
 62
     2
100
AcDbLine
 10
74.591809
 20
370.730839
 11
74.591809
 21
374.730824
  0
LINE
  5
41F
100
AcDbEntity
  8
M0
 62
     2
100
AcDbLine
 10
74.091809
 20
375.230854
 11
70.091809
 21
375.230839
  0
LINE
  5
420
100
AcDbEntity
  8
M0
 62
     2
100
AcDbLine
 10
69.591809
 20
374.730839
 11
69.591809
 21
370.730854
  0
ARC
  5
421
100
AcDbEntity
  8
M0
 62
     2
100
AcDbCircle
 10
70.091809
 20
370.730854
 40
0.5
100
AcDbArc
 50
179.999891
 51
270.0
  0
ARC
  5
422
100
AcDbEntity
  8
M0
 62
     2
100
AcDbCircle
 10
74.091809
 20
370.730854
 40
0.5
100
AcDbArc
 50
270.0
 51
360.0
  0
ARC
  5
423
100
AcDbEntity
  8
M0
 62
     2
100
AcDbCircle
 10
74.091809
 20
374.730839
 40
0.5
100
AcDbArc
 50
0.0
 51
90.0
  0
ARC
  5
424
100
AcDbEntity
  8
M0
 62
     2
100
AcDbCircle
 10
70.091809
 20
374.730839
 40
0.5
100
AcDbArc
 50
90.0
 51
180.0
  0
LINE
  5
425
100
AcDbEntity
  8
M0
100
AcDbLine
 10
289.726483
 20
327.734608
 11
294.226483
 21
327.734608
  0
LINE
  5
426
100
AcDbEntity
  8
M0
100
AcDbLine
 10
294.226453
 20
327.734516
 11
294.226453
 21
340.934223
  0
LINE
  5
427
100
AcDbEntity
  8
M0
100
AcDbLine
 10
294.226483
 20
417.734608
 11
289.726483
 21
417.734608
  0
LINE
  5
428
100
AcDbEntity
  8
M0
100
AcDbLine
 10
289.726483
 20
417.734608
 11
289.726483
 21
327.734608
  0
LINE
  5
429
100
AcDbEntity
  8
M0
  6
DASHDOT
100
AcDbLine
 10
279.726483
 20
372.734608
 11
304.226483
 21
372.734608
  0
LINE
  5
42A
100
AcDbEntity
  8
M0
100
AcDbLine
 10
292.026472
 20
404.734608
 11
290.726484
 21
404.734608
  0
LINE
  5
42B
100
AcDbEntity
  8
M0
100
AcDbLine
 10
290.726484
 20
340.734608
 11
292.026472
 21
340.734608
  0
LINE
  5
42C
100
AcDbEntity
  8
M0
100
AcDbLine
 10
293.226483
 20
403.534413
 11
291.926481
 21
403.534413
  0
LINE
  5
42D
100
AcDbEntity
  8
M0
100
AcDbLine
 10
291.926481
 20
341.934605
 11
293.226483
 21
341.934605
  0
LINE
  5
42E
100
AcDbEntity
  8
M0
100
AcDbLine
 10
290.926404
 20
402.534077
 11
290.926404
 21
342.934468
  0
LINE
  5
42F
100
AcDbEntity
  8
M0
100
AcDbLine
 10
293.026257
 20
417.734516
 11
293.026257
 21
405.734272
  0
LINE
  5
430
100
AcDbEntity
  8
M0
100
AcDbLine
 10
293.026257
 20
339.734516
 11
293.026257
 21
327.734516
  0
LINE
  5
431
100
AcDbEntity
  8
M0
100
AcDbLine
 10
294.226453
 20
404.534077
 11
294.226453
 21
417.734516
  0
ARC
  5
432
100
AcDbEntity
  8
M0
100
AcDbCircle
 10
293.226483
 20
340.934605
 40
1.0
100
AcDbArc
 50
0.0
 51
90.0
  0
ARC
  5
433
100
AcDbEntity
  8
M0
100
AcDbCircle
 10
293.226483
 20
404.534168
 40
1.0
100
AcDbArc
 50
270.0
 51
359.985137
  0
ARC
  5
434
100
AcDbEntity
  8
M0
100
AcDbCircle
 10
292.026472
 20
405.734364
 40
1.0
100
AcDbArc
 50
270.0
 51
360.0
  0
ARC
  5
435
100
AcDbEntity
  8
M0
100
AcDbCircle
 10
290.726484
 20
403.734364
 40
1.0
100
AcDbArc
 50
90.0
 51
180.0
  0
ARC
  5
436
100
AcDbEntity
  8
M0
100
AcDbCircle
 10
291.926481
 20
402.534168
 40
1.0
100
AcDbArc
 50
90.0
 51
180.0
  0
ARC
  5
437
100
AcDbEntity
  8
M0
100
AcDbCircle
 10
290.726484
 20
341.734608
 40
1.0
100
AcDbArc
 50
180.0
 51
270.0
  0
ARC
  5
438
100
AcDbEntity
  8
M0
100
AcDbCircle
 10
291.926481
 20
342.934605
 40
1.0
100
AcDbArc
 50
180.0
 51
270.0
  0
ARC
  5
439
100
AcDbEntity
  8
M0
100
AcDbCircle
 10
292.026472
 20
339.734608
 40
1.0
100
AcDbArc
 50
0.0
 51
90.0
  0
LINE
  5
43A
100
AcDbEntity
  8
M0
  6
DASHDOT
100
AcDbLine
 10
286.234143
 20
398.734608
 11
293.822202
 21
398.734608
  0
LINE
  5
43B
100
AcDbEntity
  8
M0
  6
DASHDOT
100
AcDbLine
 10
286.464856
 20
346.734608
 11
294.56564
 21
346.734608
  0
LINE
  5
43C
100
AcDbEntity
  8
M0
100
AcDbLine
 10
292.126477
 20
400.734608
 11
292.126477
 21
396.734608
  0
LINE
  5
43D
100
AcDbEntity
  8
M0
100
AcDbLine
 10
290.92648
 20
400.734608
 11
292.126477
 21
400.734608
  0
LINE
  5
43E
100
AcDbEntity
  8
M0
100
AcDbLine
 10
290.92648
 20
396.734608
 11
292.126477
 21
396.734608
  0
LINE
  5
43F
100
AcDbEntity
  8
M0
100
AcDbLine
 10
290.92648
 20
348.734608
 11
292.126477
 21
348.734608
  0
LINE
  5
440
100
AcDbEntity
  8
M0
100
AcDbLine
 10
290.92648
 20
344.734608
 11
292.126477
 21
344.734608
  0
LINE
  5
441
100
AcDbEntity
  8
M0
100
AcDbLine
 10
292.126477
 20
348.734608
 11
292.126477
 21
344.734608
  0
ARC
  5
442
100
AcDbEntity
  8
M0
 62
     2
100
AcDbCircle
 10
153.088696
 20
346.734516
 40
3.499993
100
AcDbArc
 50
254.243242
 51
385.381501
  0
LINE
  5
443
100
AcDbEntity
  8
M0
 62
     2
100
AcDbLine
 10
152.138211
 20
347.684223
 11
154.502835
 21
345.319233
  0
LINE
  5
444
100
AcDbEntity
  8
M0
 62
     2
100
AcDbLine
 10
153.175412
 20
348.234516
 11
152.138211
 21
347.197163
  0
LINE
  5
445
100
AcDbEntity
  8
M0
 62
     2
100
AcDbLine
 10
155.210012
 20
347.441304
 11
152.381604
 21
344.612933
  0
LINE
  5
446
100
AcDbEntity
  8
M0
 62
     2
100
AcDbLine
 10
279.226697
 20
342.733784
 11
279.726697
 21
342.733784
  0
LINE
  5
447
100
AcDbEntity
  8
M0
 62
     2
100
AcDbLine
 10
279.726697
 20
342.733784
 11
279.726697
 21
350.734272
  0
LINE
  5
448
100
AcDbEntity
  8
M0
 62
     2
100
AcDbLine
 10
279.726697
 20
350.734272
 11
279.226697
 21
350.734272
  0
LINE
  5
449
100
AcDbEntity
  8
M0
 62
     2
100
AcDbLine
 10
279.226697
 20
350.734272
 11
279.226697
 21
342.733784
  0
LINE
  5
44A
100
AcDbEntity
  8
M0
 62
     2
100
AcDbLine
 10
278.226697
 20
343.234272
 11
279.226697
 21
343.234272
  0
LINE
  5
44B
100
AcDbEntity
  8
M0
 62
     2
100
AcDbLine
 10
279.226697
 20
350.233784
 11
278.226697
 21
350.233784
  0
LINE
  5
44C
100
AcDbEntity
  8
M0
 62
     2
100
AcDbLine
 10
278.226697
 20
343.234272
 11
278.226697
 21
350.233784
  0
LINE
  5
44D
100
AcDbEntity
  8
M0
 62
     2
100
AcDbLine
 10
277.107312
 20
343.331928
 11
278.226697
 21
343.233784
  0
LINE
  5
44E
100
AcDbEntity
  8
M0
 62
     2
100
AcDbLine
 10
277.107312
 20
350.135639
 11
278.226697
 21
350.233784
  0
ARC
  5
44F
100
AcDbEntity
  8
M0
 62
     2
100
AcDbCircle
 10
284.626843
 20
346.734028
 40
8.999985
100
AcDbArc
 50
164.121632
 51
195.884306
  0
ARC
  5
450
100
AcDbEntity
  8
M0
 62
     2
100
AcDbCircle
 10
277.220593
 20
344.626606
 40
1.299995
100
AcDbArc
 50
195.889213
 51
264.999484
  0
ARC
  5
451
100
AcDbEntity
  8
M0
 62
     2
100
AcDbCircle
 10
277.220593
 20
348.840962
 40
1.299995
100
AcDbArc
 50
95.000474
 51
164.13141
  0
ARC
  5
452
100
AcDbEntity
  8
M0
 62
     2
100
AcDbCircle
 10
119.088696
 20
398.734516
 40
3.499993
100
AcDbArc
 50
74.260056
 51
114.137867
  0
LINE
  5
453
100
AcDbEntity
  8
M0
 62
     2
100
AcDbLine
 10
117.691785
 20
400.130757
 11
120.038114
 21
397.783833
  0
LINE
  5
454
100
AcDbEntity
  8
M0
 62
     2
100
AcDbLine
 10
119.539029
 20
400.598286
 11
117.691785
 21
398.751118
  0
LINE
  5
455
100
AcDbEntity
  8
M0
 62
     2
100
AcDbLine
 10
120.038114
 20
398.269184
 11
119.003415
 21
397.234272
  0
LINE
  5
456
100
AcDbEntity
  8
M0
 62
     2
100
AcDbLine
 10
279.726697
 20
398.734516
 11
279.726697
 21
402.494038
  0
LINE
  5
457
100
AcDbEntity
  8
M0
 62
     2
100
AcDbLine
 10
279.726697
 20
402.494038
 11
279.226697
 21
402.494038
  0
LINE
  5
458
100
AcDbEntity
  8
M0
 62
     2
100
AcDbLine
 10
279.226697
 20
402.494038
 11
279.226697
 21
398.734516
  0
LINE
  5
459
100
AcDbEntity
  8
M0
 62
     2
100
AcDbLine
 10
279.226697
 20
401.99355
 11
278.226697
 21
401.99355
  0
LINE
  5
45A
100
AcDbEntity
  8
M0
 62
     2
100
AcDbLine
 10
278.226697
 20
398.734516
 11
278.226697
 21
401.99355
  0
LINE
  5
45B
100
AcDbEntity
  8
M0
 62
     2
100
AcDbLine
 10
277.107312
 20
401.895405
 11
278.226697
 21
401.99355
  0
ARC
  5
45C
100
AcDbEntity
  8
M0
 62
     2
100
AcDbCircle
 10
284.626843
 20
398.493794
 40
8.999985
100
AcDbArc
 50
164.121632
 51
178.467324
  0
ARC
  5
45D
100
AcDbEntity
  8
M0
 62
     2
100
AcDbCircle
 10
277.220593
 20
400.600727
 40
1.299995
100
AcDbArc
 50
95.000474
 51
164.13141
  0
LINE
  5
45E
100
AcDbEntity
  8
M0
 62
     2
100
AcDbLine
 10
53.674436
 20
400.144673
 11
56.04176
 21
397.776509
  0
LINE
  5
45F
100
AcDbEntity
  8
M0
 62
     2
100
AcDbLine
 10
55.539029
 20
400.594624
 11
53.6918
 21
398.747456
  0
LINE
  5
460
100
AcDbEntity
  8
M0
 62
     2
100
AcDbLine
 10
56.04176
 20
398.269184
 11
55.003415
 21
397.23061
  0
ARC
  5
461
100
AcDbEntity
  8
M0
 62
     2
100
AcDbCircle
 10
55.088696
 20
398.730854
 40
3.499993
100
AcDbArc
 50
74.198257
 51
113.523865
  0
ARC
  5
462
100
AcDbEntity
  8
M0
 62
     2
100
AcDbCircle
 10
89.088696
 20
346.734516
 40
3.499993
100
AcDbArc
 50
254.305043
 51
385.381501
  0
LINE
  5
463
100
AcDbEntity
  8
M0
 62
     2
100
AcDbLine
 10
88.141858
 20
347.680561
 11
90.502835
 21
345.319233
  0
LINE
  5
464
100
AcDbEntity
  8
M0
 62
     2
100
AcDbLine
 10
89.175458
 20
348.234761
 11
88.141858
 21
347.201069
  0
LINE
  5
465
100
AcDbEntity
  8
M0
 62
     2
100
AcDbLine
 10
91.210012
 20
347.441304
 11
88.381604
 21
344.612933
  0
ARC
  5
466
100
AcDbEntity
  8
M0
 62
     5
100
AcDbCircle
 10
77.6918
 20
402.630268
 40
7.199999
100
AcDbArc
 50
90.0
 51
179.99997
  0
LINE
  5
467
100
AcDbEntity
  8
M0
 62
     5
100
AcDbLine
 10
73.6918
 20
402.630757
 11
73.6918
 21
397.230854
  0
ARC
  5
468
100
AcDbEntity
  8
M0
 62
     5
100
AcDbCircle
 10
77.6918
 20
402.630757
 40
4.0
100
AcDbArc
 50
90.0
 51
179.999973
  0
LINE
  5
469
100
AcDbEntity
  8
M0
 62
     5
100
AcDbLine
 10
70.491803
 20
402.630268
 11
70.491803
 21
397.230854
  0
LINE
  5
46A
100
AcDbEntity
  8
M0
 62
     5
100
AcDbLine
 10
110.491757
 20
409.830708
 11
77.6918
 21
409.830708
  0
LINE
  5
46B
100
AcDbEntity
  8
M0
 62
     5
100
AcDbLine
 10
77.6918
 20
406.630757
 11
110.491773
 21
406.630757
  0
ARC
  5
46C
100
AcDbEntity
  8
M0
 62
     5
100
AcDbCircle
 10
110.491773
 20
402.630268
 40
7.199999
100
AcDbArc
 50
0.0
 51
90.0
  0
ARC
  5
46D
100
AcDbEntity
  8
M0
 62
     5
100
AcDbCircle
 10
110.491773
 20
402.630757
 40
4.0
100
AcDbArc
 50
0.0
 51
90.0
  0
LINE
  5
46E
100
AcDbEntity
  8
M0
 62
     5
100
AcDbLine
 10
114.491773
 20
397.234272
 11
114.491773
 21
402.630512
  0
LINE
  5
46F
100
AcDbEntity
  8
M0
 62
     5
100
AcDbLine
 10
117.691785
 20
397.234272
 11
117.691785
 21
402.630024
  0
ARC
  5
470
100
AcDbEntity
  8
M0
 62
     5
100
AcDbCircle
 10
67.6918
 20
405.830219
 40
7.199999
100
AcDbArc
 50
90.0
 51
179.99997
  0
LINE
  5
471
100
AcDbEntity
  8
M0
 62
     5
100
AcDbLine
 10
63.6918
 20
405.830708
 11
63.6918
 21
397.230854
  0
ARC
  5
472
100
AcDbEntity
  8
M0
 62
     5
100
AcDbCircle
 10
67.6918
 20
405.830708
 40
4.0
100
AcDbArc
 50
90.0
 51
179.999973
  0
LINE
  5
473
100
AcDbEntity
  8
M0
 62
     5
100
AcDbLine
 10
60.491803
 20
405.830219
 11
60.491803
 21
397.230854
  0
LINE
  5
474
100
AcDbEntity
  8
M0
 62
     5
100
AcDbLine
 10
120.491742
 20
413.030659
 11
67.6918
 21
413.030659
  0
LINE
  5
475
100
AcDbEntity
  8
M0
 62
     5
100
AcDbLine
 10
67.6918
 20
409.830708
 11
120.491757
 21
409.830708
  0
ARC
  5
476
100
AcDbEntity
  8
M0
 62
     5
100
AcDbCircle
 10
120.491757
 20
405.830219
 40
7.199999
100
AcDbArc
 50
0.0
 51
90.0
  0
ARC
  5
477
100
AcDbEntity
  8
M0
 62
     5
100
AcDbCircle
 10
120.491757
 20
405.830708
 40
4.0
100
AcDbArc
 50
0.0
 51
90.0
  0
LINE
  5
478
100
AcDbEntity
  8
M0
 62
     5
100
AcDbLine
 10
124.491757
 20
397.234516
 11
124.491757
 21
405.830464
  0
LINE
  5
479
100
AcDbEntity
  8
M0
 62
     5
100
AcDbLine
 10
127.69177
 20
397.234516
 11
127.69177
 21
405.829975
  0
ARC
  5
47A
100
AcDbEntity
  8
M0
 62
     5
100
AcDbCircle
 10
57.6918
 20
409.030171
 40
7.199999
100
AcDbArc
 50
90.0
 51
179.99997
  0
LINE
  5
47B
100
AcDbEntity
  8
M0
 62
     5
100
AcDbLine
 10
53.6918
 20
409.030659
 11
53.6918
 21
397.23061
  0
ARC
  5
47C
100
AcDbEntity
  8
M0
 62
     5
100
AcDbCircle
 10
57.6918
 20
409.030659
 40
4.0
100
AcDbArc
 50
90.0
 51
179.999973
  0
LINE
  5
47D
100
AcDbEntity
  8
M0
 62
     5
100
AcDbLine
 10
50.491803
 20
409.030171
 11
50.491803
 21
397.23061
  0
LINE
  5
47E
100
AcDbEntity
  8
M0
 62
     5
100
AcDbLine
 10
130.491742
 20
416.23061
 11
57.6918
 21
416.23061
  0
LINE
  5
47F
100
AcDbEntity
  8
M0
 62
     5
100
AcDbLine
 10
57.6918
 20
413.030659
 11
130.491757
 21
413.030659
  0
ARC
  5
480
100
AcDbEntity
  8
M0
 62
     5
100
AcDbCircle
 10
130.491757
 20
409.030171
 40
7.199999
100
AcDbArc
 50
0.0
 51
90.0
  0
ARC
  5
481
100
AcDbEntity
  8
M0
 62
     5
100
AcDbCircle
 10
130.491757
 20
409.030659
 40
4.0
100
AcDbArc
 50
0.0
 51
90.0
  0
LINE
  5
482
100
AcDbEntity
  8
M0
 62
     5
100
AcDbLine
 10
134.491757
 20
397.234516
 11
134.491757
 21
409.030415
  0
LINE
  5
483
100
AcDbEntity
  8
M0
 62
     5
100
AcDbLine
 10
137.69177
 20
397.234516
 11
137.69177
 21
409.029927
  0
ARC
  5
484
100
AcDbEntity
  8
M0
 62
     2
100
AcDbCircle
 10
57.688184
 20
345.235005
 40
7.199999
100
AcDbArc
 50
179.999962
 51
270.0
  0
LINE
  5
485
100
AcDbEntity
  8
M0
 62
     2
100
AcDbLine
 10
53.688184
 20
345.234516
 11
53.688184
 21
348.23061
  0
ARC
  5
486
100
AcDbEntity
  8
M0
 62
     2
100
AcDbCircle
 10
57.688184
 20
345.234516
 40
4.0
100
AcDbArc
 50
179.999959
 51
270.0
  0
LINE
  5
487
100
AcDbEntity
  8
M0
 62
     2
100
AcDbLine
 10
50.488187
 20
345.235005
 11
50.488187
 21
348.23061
  0
LINE
  5
488
100
AcDbEntity
  8
M0
 62
     2
100
AcDbLine
 10
62.322217
 20
338.034321
 11
57.688184
 21
338.034565
  0
LINE
  5
489
100
AcDbEntity
  8
M0
 62
     2
100
AcDbLine
 10
57.688184
 20
341.234516
 11
60.671063
 21
341.234516
  0
ARC
  5
48A
100
AcDbEntity
  8
M0
 62
     2
100
AcDbCircle
 10
110.488141
 20
345.235005
 40
7.199999
100
AcDbArc
 50
-62.808827
 51
0.0
  0
ARC
  5
48B
100
AcDbEntity
  8
M0
 62
     2
100
AcDbCircle
 10
110.488141
 20
345.234516
 40
4.0
100
AcDbArc
 50
-90.000219
 51
0.0
  0
LINE
  5
48C
100
AcDbEntity
  8
M0
 62
     2
100
AcDbLine
 10
114.488141
 20
348.234272
 11
114.488141
 21
345.234761
  0
LINE
  5
48D
100
AcDbEntity
  8
M0
 62
     2
100
AcDbLine
 10
117.688153
 20
348.234272
 11
117.688153
 21
345.235249
  0
LINE
  5
48E
100
AcDbEntity
  8
M0
 62
     2
100
AcDbLine
 10
64.024075
 20
341.234516
 11
110.488141
 21
341.234516
  0
ARC
  5
48F
100
AcDbEntity
  8
M0
 62
     2
100
AcDbCircle
 10
67.6918
 20
342.831196
 40
7.199999
100
AcDbArc
 50
179.999962
 51
269.920709
  0
LINE
  5
490
100
AcDbEntity
  8
M0
 62
     2
100
AcDbLine
 10
63.6918
 20
342.830708
 11
63.6918
 21
348.23061
  0
ARC
  5
491
100
AcDbEntity
  8
M0
 62
     2
100
AcDbCircle
 10
67.6918
 20
342.830708
 40
4.0
100
AcDbArc
 50
179.999959
 51
270.0
  0
LINE
  5
492
100
AcDbEntity
  8
M0
 62
     2
100
AcDbLine
 10
60.491803
 20
342.831196
 11
60.491803
 21
348.23061
  0
LINE
  5
493
100
AcDbEntity
  8
M0
 62
     2
100
AcDbLine
 10
120.491742
 20
335.630757
 11
68.225692
 21
335.630452
  0
LINE
  5
494
100
AcDbEntity
  8
M0
 62
     2
100
AcDbLine
 10
67.6918
 20
338.830708
 11
120.491757
 21
338.830708
  0
ARC
  5
495
100
AcDbEntity
  8
M0
 62
     2
100
AcDbCircle
 10
120.491757
 20
342.831196
 40
7.199999
100
AcDbArc
 50
-90.000121
 51
0.0
  0
ARC
  5
496
100
AcDbEntity
  8
M0
 62
     2
100
AcDbCircle
 10
120.491757
 20
342.830708
 40
4.0
100
AcDbArc
 50
-90.000219
 51
0.0
  0
LINE
  5
497
100
AcDbEntity
  8
M0
 62
     2
100
AcDbLine
 10
124.491757
 20
348.234272
 11
124.491757
 21
342.830952
  0
LINE
  5
498
100
AcDbEntity
  8
M0
 62
     2
100
AcDbLine
 10
127.69177
 20
348.234272
 11
127.69177
 21
342.83144
  0
ARC
  5
499
100
AcDbEntity
  8
M0
 62
     5
100
AcDbCircle
 10
77.6918
 20
342.831196
 40
7.199999
100
AcDbArc
 50
179.999962
 51
192.842358
  0
LINE
  5
49A
100
AcDbEntity
  8
M0
 62
     5
100
AcDbLine
 10
73.6918
 20
342.830708
 11
73.6918
 21
348.23061
  0
ARC
  5
49B
100
AcDbEntity
  8
M0
 62
     5
100
AcDbCircle
 10
77.6918
 20
342.830708
 40
4.0
100
AcDbArc
 50
179.999959
 51
203.518593
  0
LINE
  5
49C
100
AcDbEntity
  8
M0
 62
     5
100
AcDbLine
 10
70.491803
 20
342.831196
 11
70.491803
 21
348.23061
  0
LINE
  5
49D
100
AcDbEntity
  8
M0
 62
     5
100
AcDbLine
 10
130.491742
 20
335.630757
 11
88.588696
 21
335.630512
  0
LINE
  5
49E
100
AcDbEntity
  8
M0
 62
     5
100
AcDbLine
 10
126.47807
 20
338.830708
 11
130.491757
 21
338.830708
  0
ARC
  5
49F
100
AcDbEntity
  8
M0
 62
     5
100
AcDbCircle
 10
130.491757
 20
342.831196
 40
7.199999
100
AcDbArc
 50
-90.000121
 51
0.0
  0
ARC
  5
4A0
100
AcDbEntity
  8
M0
 62
     5
100
AcDbCircle
 10
130.491757
 20
342.830708
 40
4.0
100
AcDbArc
 50
-90.000219
 51
0.0
  0
LINE
  5
4A1
100
AcDbEntity
  8
M0
 62
     5
100
AcDbLine
 10
134.491757
 20
348.234272
 11
134.491757
 21
342.830952
  0
LINE
  5
4A2
100
AcDbEntity
  8
M0
 62
     5
100
AcDbLine
 10
137.69177
 20
348.234272
 11
137.69177
 21
342.83144
  0
LINE
  5
4A3
100
AcDbEntity
  8
M0
 62
     5
100
AcDbLine
 10
224.924939
 20
415.044575
 11
221.626599
 21
402.734516
  0
ARC
  5
4A4
100
AcDbEntity
  8
M0
 62
     5
100
AcDbCircle
 10
226.470349
 20
414.630512
 40
1.599999
100
AcDbArc
 50
344.992507
 51
525.000999
  0
LINE
  5
4A5
100
AcDbEntity
  8
M0
 62
     5
100
AcDbLine
 10
228.015759
 20
414.216206
 11
224.939343
 21
402.734516
  0
ARC
  5
4A6
100
AcDbEntity
  8
M0
 62
     5
100
AcDbCircle
 10
216.626111
 20
339.634419
 40
1.599999
100
AcDbArc
 50
165.009375
 51
344.994769
  0
LINE
  5
4A7
100
AcDbEntity
  8
M0
 62
     5
100
AcDbLine
 10
215.532361
 20
341.734516
 11
215.080701
 21
340.048237
  0
LINE
  5
4A8
100
AcDbEntity
  8
M0
 62
     5
100
AcDbLine
 10
218.845593
 20
341.734516
 11
218.171765
 21
339.220112
  0
ARC
  5
4A9
100
AcDbEntity
  8
M0
 62
     5
100
AcDbCircle
 10
218.425672
 20
337.23061
 40
1.599999
100
AcDbArc
 50
147.044611
 51
354.993144
  0
LINE
  5
4AA
100
AcDbEntity
  8
M0
 62
     5
100
AcDbLine
 10
220.425916
 20
341.734516
 11
220.019666
 21
337.090962
  0
ARC
  5
4AB
100
AcDbEntity
  8
M0
 62
     5
100
AcDbCircle
 10
221.176648
 20
337.23061
 40
1.599999
100
AcDbArc
 50
210.720826
 51
224.769696
  0
LINE
  5
4AC
100
AcDbEntity
  8
M0
 62
     7
100
AcDbLine
 10
44.591766
 20
330.930795
 11
44.591793
 21
288.930795
  0
LINE
  5
4AD
100
AcDbEntity
  8
M0
 62
     7
100
AcDbLine
 10
55.091794
 20
286.430802
 11
56.091794
 21
286.430803
  0
LINE
  5
4AE
100
AcDbEntity
  8
M0
 62
     7
100
AcDbLine
 10
89.591791
 20
289.430824
 11
89.591775
 21
314.930824
  0
LINE
  5
4AF
100
AcDbEntity
  8
M0
 62
     7
100
AcDbLine
 10
87.591791
 20
289.430822
 11
87.59179
 21
290.930822
  0
LINE
  5
4B0
100
AcDbEntity
  8
M0
 62
     7
100
AcDbLine
 10
76.591793
 20
286.930815
 11
76.59179
 21
290.930815
  0
LINE
  5
4B1
100
AcDbEntity
  8
M0
 62
     7
100
AcDbLine
 10
44.591766
 20
330.930795
 11
49.591766
 21
330.930799
  0
LINE
  5
4B2
100
AcDbEntity
  8
M0
 62
     7
100
AcDbLine
 10
87.59179
 20
290.930822
 11
76.59179
 21
290.930815
  0
LINE
  5
4B3
100
AcDbEntity
  8
M0
 62
     7
100
AcDbLine
 10
89.091792
 20
288.930823
 11
88.091792
 21
288.930823
  0
LINE
  5
4B4
100
AcDbEntity
  8
M0
 62
     7
100
AcDbLine
 10
74.591786
 20
298.430814
 11
74.591793
 21
286.930814
  0
LINE
  5
4B5
100
AcDbEntity
  8
M0
 62
     7
100
AcDbLine
 10
66.591783
 20
303.430809
 11
66.591793
 21
286.930809
  0
LINE
  5
4B6
100
AcDbEntity
  8
M0
 62
     7
100
AcDbLine
 10
64.591783
 20
303.430808
 11
64.591793
 21
286.930808
  0
LINE
  5
4B7
100
AcDbEntity
  8
M0
 62
     7
100
AcDbLine
 10
56.591794
 20
286.930803
 11
56.591783
 21
303.430803
  0
LINE
  5
4B8
100
AcDbEntity
  8
M0
 62
     7
100
AcDbLine
 10
54.591783
 20
303.430802
 11
54.591794
 21
286.930802
  0
LINE
  5
4B9
100
AcDbEntity
  8
M0
 62
     7
100
AcDbLine
 10
78.09179
 20
290.930816
 11
78.091786
 21
298.430816
  0
LINE
  5
4BA
100
AcDbEntity
  8
M0
 62
     7
100
AcDbLine
 10
74.591792
 20
288.930814
 11
66.591792
 21
288.930809
  0
LINE
  5
4BB
100
AcDbEntity
  8
M0
 62
     7
100
AcDbLine
 10
64.591792
 20
288.930808
 11
56.591793
 21
288.930803
  0
LINE
  5
4BC
100
AcDbEntity
  8
M0
 62
     7
100
AcDbLine
 10
54.591793
 20
288.930802
 11
44.591793
 21
288.930795
  0
LINE
  5
4BD
100
AcDbEntity
  8
M0
 62
     7
100
AcDbLine
 10
73.591785
 20
299.430814
 11
67.591785
 21
299.43081
  0
LINE
  5
4BE
100
AcDbEntity
  8
M0
 62
     7
100
AcDbLine
 10
63.591785
 20
299.430807
 11
57.591786
 21
299.430804
  0
LINE
  5
4BF
100
AcDbEntity
  8
M0
 62
     7
100
AcDbLine
 10
75.091793
 20
286.430815
 11
76.091793
 21
286.430815
  0
LINE
  5
4C0
100
AcDbEntity
  8
M0
 62
     7
100
AcDbLine
 10
65.091793
 20
286.430808
 11
66.091793
 21
286.430809
  0
LINE
  5
4C1
100
AcDbEntity
  8
M0
 62
     7
100
AcDbLine
 10
49.591782
 20
305.430799
 11
49.591766
 21
330.930799
  0
LINE
  5
4C2
100
AcDbEntity
  8
M0
 62
     7
100
AcDbLine
 10
47.591766
 20
330.930797
 11
47.591783
 21
304.930797
  0
LINE
  5
4C3
100
AcDbEntity
  8
M0
 62
     7
100
AcDbLine
 10
49.091783
 20
304.930798
 11
45.091783
 21
304.930796
  0
LINE
  5
4C4
100
AcDbEntity
  8
M0
 62
     7
100
AcDbLine
 10
87.591781
 20
305.430822
 11
87.591777
 21
312.330816
  0
LINE
  5
4C5
100
AcDbEntity
  8
M0
 62
     7
100
AcDbLine
 10
79.591777
 20
312.330811
 11
79.591782
 21
303.930817
  0
LINE
  5
4C6
100
AcDbEntity
  8
M0
 62
     7
100
AcDbLine
 10
77.591782
 20
303.930816
 11
77.591775
 21
314.930816
  0
LINE
  5
4C7
100
AcDbEntity
  8
M0
 62
     7
100
AcDbLine
 10
69.591775
 20
314.930811
 11
69.591782
 21
303.930811
  0
LINE
  5
4C8
100
AcDbEntity
  8
M0
 62
     7
100
AcDbLine
 10
67.591782
 20
303.93081
 11
67.591775
 21
314.93081
  0
LINE
  5
4C9
100
AcDbEntity
  8
M0
 62
     7
100
AcDbLine
 10
59.591775
 20
314.930805
 11
59.591782
 21
303.930805
  0
LINE
  5
4CA
100
AcDbEntity
  8
M0
 62
     7
100
AcDbLine
 10
57.591776
 20
314.930804
 11
57.591783
 21
303.930804
  0
LINE
  5
4CB
100
AcDbEntity
  8
M0
 62
     7
100
AcDbLine
 10
89.091782
 20
304.930823
 11
88.091782
 21
304.930823
  0
LINE
  5
4CC
100
AcDbEntity
  8
M0
 62
     7
100
AcDbLine
 10
66.091787
 20
296.430809
 11
65.091787
 21
296.430808
  0
LINE
  5
4CD
100
AcDbEntity
  8
M0
 62
     7
100
AcDbLine
 10
56.091788
 20
296.430803
 11
55.091788
 21
296.430802
  0
LINE
  5
4CE
100
AcDbEntity
  8
M0
 62
     7
100
AcDbLine
 10
59.091783
 20
303.430804
 11
58.091783
 21
303.430804
  0
LINE
  5
4CF
100
AcDbEntity
  8
M0
 62
     7
100
AcDbLine
 10
69.091783
 20
303.430811
 11
68.091783
 21
303.43081
  0
LINE
  5
4D0
100
AcDbEntity
  8
M0
 62
     7
100
AcDbLine
 10
79.091783
 20
303.430817
 11
78.091783
 21
303.430816
  0
LINE
  5
4D1
100
AcDbEntity
  8
M0
 62
     7
100
AcDbLine
 10
79.591782
 20
303.930817
 11
89.591782
 21
303.930824
  0
LINE
  5
4D2
100
AcDbEntity
  8
M0
 62
     7
100
AcDbLine
 10
69.591782
 20
303.930811
 11
77.591782
 21
303.930816
  0
LINE
  5
4D3
100
AcDbEntity
  8
M0
 62
     7
100
AcDbLine
 10
59.591782
 20
303.930805
 11
67.591782
 21
303.93081
  0
ARC
  5
4D4
100
AcDbEntity
  8
M0
 62
     7
100
AcDbCircle
 10
55.091794
 20
286.930802
 40
0.5
100
AcDbArc
 50
180.000036
 51
270.0
  0
ARC
  5
4D5
100
AcDbEntity
  8
M0
 62
     7
100
AcDbCircle
 10
56.091794
 20
286.930803
 40
0.5
100
AcDbArc
 50
270.0
 51
359.998287
  0
ARC
  5
4D6
100
AcDbEntity
  8
M0
 62
     7
100
AcDbCircle
 10
65.091793
 20
286.930808
 40
0.5
100
AcDbArc
 50
180.000036
 51
270.0
  0
ARC
  5
4D7
100
AcDbEntity
  8
M0
 62
     7
100
AcDbCircle
 10
66.091793
 20
286.930809
 40
0.5
100
AcDbArc
 50
270.0
 51
359.998287
  0
ARC
  5
4D8
100
AcDbEntity
  8
M0
 62
     7
100
AcDbCircle
 10
75.091793
 20
286.930815
 40
0.5
100
AcDbArc
 50
180.000036
 51
270.0
  0
ARC
  5
4D9
100
AcDbEntity
  8
M0
 62
     7
100
AcDbCircle
 10
76.091793
 20
286.930815
 40
0.5
100
AcDbArc
 50
270.0
 51
359.998287
  0
ARC
  5
4DA
100
AcDbEntity
  8
M0
 62
     7
100
AcDbCircle
 10
88.091791
 20
289.430823
 40
0.5
100
AcDbArc
 50
180.000036
 51
269.998287
  0
ARC
  5
4DB
100
AcDbEntity
  8
M0
 62
     7
100
AcDbCircle
 10
89.091791
 20
289.430823
 40
0.5
100
AcDbArc
 50
269.998287
 51
359.998287
  0
ARC
  5
4DC
100
AcDbEntity
  8
M0
 62
     7
100
AcDbCircle
 10
55.091788
 20
296.930802
 40
0.5
100
AcDbArc
 50
180.000036
 51
270.0
  0
ARC
  5
4DD
100
AcDbEntity
  8
M0
 62
     7
100
AcDbCircle
 10
56.091788
 20
296.930803
 40
0.5
100
AcDbArc
 50
270.0
 51
359.998287
  0
ARC
  5
4DE
100
AcDbEntity
  8
M0
 62
     7
100
AcDbCircle
 10
65.091787
 20
296.930808
 40
0.5
100
AcDbArc
 50
180.000036
 51
270.0
  0
ARC
  5
4DF
100
AcDbEntity
  8
M0
 62
     7
100
AcDbCircle
 10
66.091787
 20
296.930809
 40
0.5
100
AcDbArc
 50
270.0
 51
359.998287
  0
ARC
  5
4E0
100
AcDbEntity
  8
M0
 62
     7
100
AcDbCircle
 10
88.091781
 20
305.430823
 40
0.5
100
AcDbArc
 50
180.000036
 51
269.998287
  0
ARC
  5
4E1
100
AcDbEntity
  8
M0
 62
     7
100
AcDbCircle
 10
89.091781
 20
305.430823
 40
0.5
100
AcDbArc
 50
269.998287
 51
359.998287
  0
ARC
  5
4E2
100
AcDbEntity
  8
M0
 62
     7
100
AcDbCircle
 10
88.591775
 20
314.930823
 40
1.0
100
AcDbArc
 50
359.999162
 51
450.0
  0
ARC
  5
4E3
100
AcDbEntity
  8
M0
 62
     7
100
AcDbCircle
 10
76.591775
 20
314.930815
 40
1.0
100
AcDbArc
 50
359.999162
 51
450.0
  0
ARC
  5
4E4
100
AcDbEntity
  8
M0
 62
     7
100
AcDbCircle
 10
70.591775
 20
314.930812
 40
1.0
100
AcDbArc
 50
90.0
 51
180.000036
  0
ARC
  5
4E5
100
AcDbEntity
  8
M0
 62
     7
100
AcDbCircle
 10
66.591775
 20
314.930809
 40
1.0
100
AcDbArc
 50
359.999162
 51
450.0
  0
LINE
  5
4E6
100
AcDbEntity
  8
M0
 62
     7
100
AcDbLine
 10
84.591785
 20
299.430821
 11
79.091785
 21
299.430817
  0
LINE
  5
4E7
100
AcDbEntity
  8
M0
 62
     7
100
AcDbLine
 10
86.09179
 20
290.930821
 11
86.091788
 21
295.430821
  0
LINE
  5
4E8
100
AcDbEntity
  8
M0
 62
     7
100
AcDbLine
 10
45.091783
 20
303.930796
 11
57.591783
 21
303.930804
  0
LINE
  5
4E9
100
AcDbEntity
  8
M0
 62
     7
100
AcDbLine
 10
53.591786
 20
299.430801
 11
48.091786
 21
299.430798
  0
LINE
  5
4EA
100
AcDbEntity
  8
M0
 62
     7
100
AcDbLine
 10
46.591793
 20
288.930797
 11
46.591787
 21
297.930797
  0
LINE
  5
4EB
100
AcDbEntity
  8
M0
 62
     7
100
AcDbLine
 10
88.591775
 20
315.930823
 11
51.351862
 21
315.9308
  0
ARC
  5
4EC
100
AcDbEntity
  8
M0
 62
     7
100
AcDbCircle
 10
60.591775
 20
314.930805
 40
1.0
100
AcDbArc
 50
90.0
 51
180.000036
  0
ARC
  5
4ED
100
AcDbEntity
  8
M0
 62
     7
100
AcDbCircle
 10
56.591776
 20
314.930803
 40
1.0
100
AcDbArc
 50
359.999162
 51
450.0
  0
ARC
  5
4EE
100
AcDbEntity
  8
M0
 62
     7
100
AcDbCircle
 10
63.591783
 20
302.930807
 40
1.0
100
AcDbArc
 50
359.999162
 51
450.0
  0
ARC
  5
4EF
100
AcDbEntity
  8
M0
 62
     7
100
AcDbCircle
 10
57.591784
 20
302.930804
 40
1.0
100
AcDbArc
 50
90.0
 51
180.000036
  0
ARC
  5
4F0
100
AcDbEntity
  8
M0
 62
     7
100
AcDbCircle
 10
67.591783
 20
302.93081
 40
1.0
100
AcDbArc
 50
90.0
 51
180.000036
  0
ARC
  5
4F1
100
AcDbEntity
  8
M0
 62
     7
100
AcDbCircle
 10
66.091783
 20
303.430809
 40
0.5
100
AcDbArc
 50
359.998287
 51
450.0
  0
ARC
  5
4F2
100
AcDbEntity
  8
M0
 62
     7
100
AcDbCircle
 10
65.091783
 20
303.430808
 40
0.5
100
AcDbArc
 50
90.0
 51
180.000036
  0
ARC
  5
4F3
100
AcDbEntity
  8
M0
 62
     7
100
AcDbCircle
 10
56.091783
 20
303.430803
 40
0.5
100
AcDbArc
 50
359.998287
 51
450.0
  0
ARC
  5
4F4
100
AcDbEntity
  8
M0
 62
     7
100
AcDbCircle
 10
55.091783
 20
303.430802
 40
0.5
100
AcDbArc
 50
90.0
 51
180.000036
  0
ARC
  5
4F5
100
AcDbEntity
  8
M0
 62
     7
100
AcDbCircle
 10
58.091783
 20
303.930804
 40
0.5
100
AcDbArc
 50
180.000036
 51
270.0
  0
ARC
  5
4F6
100
AcDbEntity
  8
M0
 62
     7
100
AcDbCircle
 10
59.091783
 20
303.930804
 40
0.5
100
AcDbArc
 50
270.0
 51
359.998287
  0
ARC
  5
4F7
100
AcDbEntity
  8
M0
 62
     7
100
AcDbCircle
 10
68.091782
 20
303.93081
 40
0.5
100
AcDbArc
 50
180.000036
 51
270.0
  0
ARC
  5
4F8
100
AcDbEntity
  8
M0
 62
     7
100
AcDbCircle
 10
69.091782
 20
303.930811
 40
0.5
100
AcDbArc
 50
270.0
 51
359.998287
  0
ARC
  5
4F9
100
AcDbEntity
  8
M0
 62
     7
100
AcDbCircle
 10
78.091782
 20
303.930816
 40
0.5
100
AcDbArc
 50
180.000036
 51
269.998287
  0
ARC
  5
4FA
100
AcDbEntity
  8
M0
 62
     7
100
AcDbCircle
 10
79.091782
 20
303.930817
 40
0.5
100
AcDbArc
 50
269.998287
 51
359.998287
  0
ARC
  5
4FB
100
AcDbEntity
  8
M0
 62
     7
100
AcDbCircle
 10
49.091782
 20
305.430798
 40
0.5
100
AcDbArc
 50
270.0
 51
359.998287
  0
ARC
  5
4FC
100
AcDbEntity
  8
M0
 62
     7
100
AcDbCircle
 10
45.091782
 20
305.430796
 40
0.5
100
AcDbArc
 50
180.000036
 51
270.0
  0
ARC
  5
4FD
100
AcDbEntity
  8
M0
 62
     7
100
AcDbCircle
 10
79.091786
 20
298.430817
 40
1.0
100
AcDbArc
 50
90.0
 51
180.000036
  0
ARC
  5
4FE
100
AcDbEntity
  8
M0
 62
     7
100
AcDbCircle
 10
73.591786
 20
298.430814
 40
1.0
100
AcDbArc
 50
359.999162
 51
450.0
  0
ARC
  5
4FF
100
AcDbEntity
  8
M0
 62
     7
100
AcDbCircle
 10
67.591786
 20
298.43081
 40
1.0
100
AcDbArc
 50
90.0
 51
180.000036
  0
ARC
  5
500
100
AcDbEntity
  8
M0
 62
     7
100
AcDbCircle
 10
63.591786
 20
298.430807
 40
1.0
100
AcDbArc
 50
359.999162
 51
450.0
  0
ARC
  5
501
100
AcDbEntity
  8
M0
 62
     7
100
AcDbCircle
 10
57.591787
 20
298.430804
 40
1.0
100
AcDbArc
 50
90.0
 51
180.000036
  0
ARC
  5
502
100
AcDbEntity
  8
M0
 62
     7
100
AcDbCircle
 10
53.591787
 20
298.430801
 40
1.0
100
AcDbArc
 50
359.999162
 51
450.0
  0
LINE
  5
503
100
AcDbEntity
  8
M0
 62
     7
100
AcDbLine
 10
49.591778
 20
312.330792
 11
50.388344
 21
315.198438
  0
LINE
  5
504
100
AcDbEntity
  8
M0
 62
     7
100
AcDbLine
 10
79.591777
 20
312.330811
 11
80.38833
 21
315.198457
  0
ARC
  5
505
100
AcDbEntity
  8
M0
 62
     7
100
AcDbCircle
 10
81.351846
 20
314.930818
 40
1.0
100
AcDbArc
 50
90.0
 51
164.476393
  0
ARC
  5
506
100
AcDbEntity
  8
M0
 62
     7
100
AcDbCircle
 10
51.351862
 20
314.9308
 40
1.0
100
AcDbArc
 50
90.0
 51
164.476188
  0
LINE
  5
507
100
AcDbEntity
  8
M0
 62
     7
100
AcDbLine
 10
86.091788
 20
295.430821
 11
85.621633
 21
297.311391
  0
ARC
  5
508
100
AcDbEntity
  8
M0
 62
     7
100
AcDbCircle
 10
86.591786
 20
297.553914
 40
1.0
100
AcDbArc
 50
180.000036
 51
194.035431
  0
LINE
  5
509
100
AcDbEntity
  8
M0
 62
     7
100
AcDbLine
 10
85.591786
 20
298.430821
 11
85.591786
 21
297.553914
  0
ARC
  5
50A
100
AcDbEntity
  8
M0
 62
     7
100
AcDbCircle
 10
84.591786
 20
298.430821
 40
1.0
100
AcDbArc
 50
359.999162
 51
450.0
  0
ARC
  5
50B
100
AcDbEntity
  8
M0
 62
     7
100
AcDbCircle
 10
45.091783
 20
304.430796
 40
0.5
100
AcDbArc
 50
180.000036
 51
270.0
  0
ARC
  5
50C
100
AcDbEntity
  8
M0
 62
     7
100
AcDbCircle
 10
48.091787
 20
297.930798
 40
1.5
100
AcDbArc
 50
90.0
 51
180.000036
  0
LINE
  5
50D
100
AcDbEntity
  8
M0
 62
     7
100
AcDbLine
 10
47.891781
 20
308.430797
 11
47.59178
 21
308.430797
  0
LINE
  5
50E
100
AcDbEntity
  8
M0
 62
     7
100
AcDbLine
 10
48.391781
 20
306.930798
 11
47.891781
 21
306.930797
  0
LINE
  5
50F
100
AcDbEntity
  8
M0
 62
     7
100
AcDbLine
 10
47.891781
 20
306.930797
 11
47.891781
 21
308.430797
  0
LINE
  5
510
100
AcDbEntity
  8
M0
 62
     7
100
AcDbLine
 10
48.391783
 20
304.930798
 11
48.391781
 21
306.930798
  0
LINE
  5
511
100
AcDbEntity
  8
M0
 62
     7
100
AcDbLine
 10
87.591777
 20
312.330816
 11
86.896921
 21
314.832281
  0
ARC
  5
512
100
AcDbEntity
  8
M0
 62
     7
100
AcDbCircle
 10
85.451639
 20
314.430821
 40
1.5
100
AcDbArc
 50
15.523429
 51
90.0
  0
LINE
  5
513
100
AcDbEntity
  8
M0
 62
     1
100
AcDbLine
 10
80.391858
 20
332.9308
 11
49.09187
 21
332.93082
  0
LINE
  5
514
100
AcDbEntity
  8
M0
 62
     1
100
AcDbLine
 10
48.591869
 20
332.430835
 11
48.591859
 21
315.930835
  0
LINE
  5
515
100
AcDbEntity
  8
M0
 62
     1
100
AcDbLine
 10
48.591859
 20
315.930805
 11
89.091845
 21
315.93081
  0
LINE
  5
516
100
AcDbEntity
  8
M0
 62
     1
100
AcDbLine
 10
89.591845
 20
316.43081
 11
89.591852
 21
327.430794
  0
LINE
  5
517
100
AcDbEntity
  8
M0
 62
     1
100
AcDbLine
 10
89.091852
 20
327.930795
 11
81.391855
 21
327.9308
  0
LINE
  5
518
100
AcDbEntity
  8
M0
 62
     1
100
AcDbLine
 10
80.891856
 20
328.4308
 11
80.891858
 21
332.4308
  0
ARC
  5
519
100
AcDbEntity
  8
M0
 62
     1
100
AcDbCircle
 10
89.091845
 20
316.43081
 40
0.5
100
AcDbArc
 50
270.0
 51
359.998215
  0
ARC
  5
51A
100
AcDbEntity
  8
M0
 62
     1
100
AcDbCircle
 10
80.391858
 20
332.4308
 40
0.5
100
AcDbArc
 50
359.998215
 51
450.0
  0
ARC
  5
51B
100
AcDbEntity
  8
M0
 62
     1
100
AcDbCircle
 10
49.091869
 20
332.43082
 40
0.5
100
AcDbArc
 50
89.998215
 51
179.999964
  0
ARC
  5
51C
100
AcDbEntity
  8
M0
 62
     1
100
AcDbCircle
 10
89.091852
 20
327.430795
 40
0.5
100
AcDbArc
 50
359.998215
 51
450.0
  0
ARC
  5
51D
100
AcDbEntity
  8
M0
 62
     1
100
AcDbCircle
 10
81.391856
 20
328.4308
 40
0.5
100
AcDbArc
 50
179.999964
 51
270.0
  0
CIRCLE
  5
51E
100
AcDbEntity
  8
M0
 62
     1
100
AcDbCircle
 10
57.591864
 20
323.230833
 40
4.5
  0
LINE
  5
51F
100
AcDbEntity
  8
M0
  6
DASHDOT
 62
     1
100
AcDbLine
 10
67.808493
 20
323.230826
 11
50.591864
 21
323.230837
  0
LINE
  5
520
100
AcDbEntity
  8
M0
  6
DASHDOT
 62
     1
100
AcDbLine
 10
57.591868
 20
330.230833
 11
57.591859
 21
316.230833
  0
LINE
  5
521
100
AcDbEntity
  8
M0
 62
    34
100
AcDbLine
 10
44.591875
 20
336.730832
 11
44.591871
 21
330.930828
  0
LINE
  5
522
100
AcDbEntity
  8
M0
 62
    34
100
AcDbLine
 10
89.591854
 20
326.4308
 11
89.591859
 21
333.430815
  0
LINE
  5
523
100
AcDbEntity
  8
M0
 62
    34
100
AcDbLine
 10
80.891874
 20
329.811177
 11
81.395718
 21
327.930805
  0
LINE
  5
524
100
AcDbEntity
  8
M0
 62
    34
100
AcDbLine
 10
81.191863
 20
332.555332
 11
82.163052
 21
328.930805
  0
LINE
  5
525
100
AcDbEntity
  8
M0
 62
    34
100
AcDbLine
 10
89.591856
 20
328.9308
 11
82.163052
 21
328.930805
  0
LINE
  5
526
100
AcDbEntity
  8
M0
 62
    34
100
AcDbLine
 10
81.191864
 20
333.430821
 11
89.591859
 21
333.4308
  0
LINE
  5
527
100
AcDbEntity
  8
M0
 62
    34
100
AcDbLine
 10
80.591873
 20
334.430806
 11
80.591874
 21
335.630467
  0
LINE
  5
528
100
AcDbEntity
  8
M0
 62
    34
100
AcDbLine
 10
81.191863
 20
332.430821
 11
81.191864
 21
334.430805
  0
LINE
  5
529
100
AcDbEntity
  8
M0
 62
    34
100
AcDbLine
 10
81.191863
 20
332.430821
 11
89.591858
 21
332.4308
  0
LINE
  5
52A
100
AcDbEntity
  8
M0
 62
    34
100
AcDbLine
 10
81.191864
 20
334.430805
 11
65.091873
 21
334.430816
  0
LINE
  5
52B
100
AcDbEntity
  8
M0
 62
    34
100
AcDbLine
 10
54.591874
 20
335.130819
 11
62.091874
 21
335.13083
  0
LINE
  5
52C
100
AcDbEntity
  8
M0
 62
    34
100
AcDbLine
 10
54.591874
 20
335.930807
 11
62.091874
 21
335.930802
  0
LINE
  5
52D
100
AcDbEntity
  8
M0
 62
    34
100
AcDbLine
 10
63.867479
 20
336.730819
 11
44.591875
 21
336.730832
  0
LINE
  5
52E
100
AcDbEntity
  8
M0
 62
    34
100
AcDbLine
 10
54.591873
 20
332.930822
 11
54.591874
 21
335.930837
  0
LINE
  5
52F
100
AcDbEntity
  8
M0
 62
    34
100
AcDbLine
 10
65.091873
 20
334.430831
 11
65.091875
 21
336.117003
  0
LINE
  5
530
100
AcDbEntity
  8
M0
 62
    34
100
AcDbLine
 10
62.091874
 20
335.13083
 11
62.091875
 21
336.117005
  0
LINE
  5
531
100
AcDbEntity
  8
M0
 62
    34
100
AcDbLine
 10
79.091873
 20
334.430807
 11
79.091874
 21
335.630468
  0
LINE
  5
532
100
AcDbEntity
  8
M0
 62
    34
100
AcDbLine
 10
46.591892
 20
340.230601
 11
46.59189
 21
336.730846
  0
LINE
  5
533
100
AcDbEntity
  8
M0
 62
    34
100
AcDbLine
 10
51.59189
 20
336.730842
 11
51.591892
 21
340.230598
  0
LINE
  5
534
100
AcDbEntity
  8
M0
 62
    34
100
AcDbLine
 10
56.591891
 20
338.034276
 11
56.59189
 21
336.730839
  0
LINE
  5
535
100
AcDbEntity
  8
M0
 62
    34
100
AcDbLine
 10
51.891878
 20
336.730827
 11
51.89188
 21
340.230598
  0
LINE
  5
536
100
AcDbEntity
  8
M0
 62
    34
100
AcDbLine
 10
54.891878
 20
336.730825
 11
54.891879
 21
338.600195
  0
LINE
  5
537
100
AcDbEntity
  8
M0
 62
    34
100
AcDbLine
 10
71.891866
 20
341.234431
 11
71.891866
 21
341.730784
  0
LINE
  5
538
100
AcDbEntity
  8
M0
 62
    34
100
AcDbLine
 10
74.891866
 20
341.234429
 11
74.891866
 21
342.230812
  0
LINE
  5
539
100
AcDbEntity
  8
M0
 62
    34
100
AcDbLine
 10
74.891866
 20
342.230812
 11
73.141881
 21
342.230814
  0
LINE
  5
53A
100
AcDbEntity
  8
M0
 62
    34
100
AcDbLine
 10
65.091875
 20
336.117003
 11
62.091875
 21
336.117005
  0
LINE
  5
53B
100
AcDbEntity
  8
M0
 62
     6
100
AcDbLine
 10
75.091861
 20
346.030848
 11
75.091858
 21
341.230861
  0
LINE
  5
53C
100
AcDbEntity
  8
M0
 62
     6
100
AcDbLine
 10
74.891851
 20
348.430919
 11
74.891849
 21
346.230845
  0
LINE
  5
53D
100
AcDbEntity
  8
M0
 62
     6
100
AcDbLine
 10
74.891849
 20
346.230845
 11
75.091861
 21
346.030848
  0
CIRCLE
  5
53E
100
AcDbEntity
  8
M0
 62
   114
100
AcDbCircle
 10
57.591809
 20
323.230854
 40
3.799999
  0
LINE
  5
53F
100
AcDbEntity
  8
M0
 62
   114
100
AcDbLine
 10
58.091809
 20
326.997807
 11
58.091809
 21
319.463886
  0
LINE
  5
540
100
AcDbEntity
  8
M0
 62
   114
100
AcDbLine
 10
57.091809
 20
326.997807
 11
57.091809
 21
319.463886
  0
CIRCLE
  5
541
100
AcDbEntity
  8
M0
 62
     4
100
AcDbCircle
 10
53.591809
 20
311.230854
 40
2.999997
  0
LINE
  5
542
100
AcDbEntity
  8
M0
 62
     4
100
AcDbLine
 10
50.632825
 20
315.178196
 11
49.816663
 21
312.530903
  0
LINE
  5
543
100
AcDbEntity
  8
M0
 62
     4
100
AcDbLine
 10
50.632825
 20
307.283604
 11
49.816663
 21
309.930928
  0
LINE
  5
544
100
AcDbEntity
  8
M0
 62
     4
100
AcDbLine
 10
56.550305
 20
315.178211
 11
57.366712
 21
312.530903
  0
LINE
  5
545
100
AcDbEntity
  8
M0
 62
     4
100
AcDbLine
 10
56.550305
 20
307.283589
 11
57.366712
 21
309.930928
  0
LINE
  5
546
100
AcDbEntity
  8
M0
 62
     4
100
AcDbLine
 10
51.110852
 20
306.930928
 11
56.072522
 21
306.930928
  0
LINE
  5
547
100
AcDbEntity
  8
M0
 62
     4
100
AcDbLine
 10
57.366712
 20
309.930928
 11
57.366712
 21
312.530903
  0
LINE
  5
548
100
AcDbEntity
  8
M0
 62
     4
100
AcDbLine
 10
56.072522
 20
315.530903
 11
51.110852
 21
315.530888
  0
LINE
  5
549
100
AcDbEntity
  8
M0
 62
     4
100
AcDbLine
 10
49.816663
 20
312.530903
 11
49.816663
 21
309.930928
  0
LINE
  5
54A
100
AcDbEntity
  8
M0
 62
     4
100
AcDbLine
 10
55.182385
 20
309.640034
 11
52.000745
 21
312.821797
  0
LINE
  5
54B
100
AcDbEntity
  8
M0
 62
     4
100
AcDbLine
 10
53.945081
 20
312.645039
 11
52.177503
 21
310.877339
  0
LINE
  5
54C
100
AcDbEntity
  8
M0
 62
     4
100
AcDbLine
 10
55.005628
 20
311.58437
 11
53.238049
 21
309.816792
  0
ARC
  5
54D
100
AcDbEntity
  8
M0
 62
     4
100
AcDbCircle
 10
51.110852
 20
315.030888
 40
0.5
100
AcDbArc
 50
89.998251
 51
162.874002
  0
ARC
  5
54E
100
AcDbEntity
  8
M0
 62
     4
100
AcDbCircle
 10
51.110852
 20
307.430928
 40
0.5
100
AcDbArc
 50
197.12934
 51
270.0
  0
ARC
  5
54F
100
AcDbEntity
  8
M0
 62
     4
100
AcDbCircle
 10
56.072522
 20
307.430928
 40
0.5
100
AcDbArc
 50
270.0
 51
342.860087
  0
ARC
  5
550
100
AcDbEntity
  8
M0
 62
     4
100
AcDbCircle
 10
56.072522
 20
315.030888
 40
0.5
100
AcDbArc
 50
17.136442
 51
90.0
  0
LINE
  5
551
100
AcDbEntity
  8
M0
  6
DASHDOT
 62
     4
100
AcDbLine
 10
57.091809
 20
311.230854
 11
50.091809
 21
311.230854
  0
LINE
  5
552
100
AcDbEntity
  8
M0
  6
DASHDOT
 62
     4
100
AcDbLine
 10
53.591794
 20
314.730854
 11
53.591809
 21
307.730854
  0
CIRCLE
  5
553
100
AcDbEntity
  8
M0
 62
     4
100
AcDbCircle
 10
63.591809
 20
311.230854
 40
2.999997
  0
LINE
  5
554
100
AcDbEntity
  8
M0
 62
     4
100
AcDbLine
 10
60.632825
 20
315.178196
 11
59.816663
 21
312.530903
  0
LINE
  5
555
100
AcDbEntity
  8
M0
 62
     4
100
AcDbLine
 10
60.632825
 20
307.283604
 11
59.816663
 21
309.930928
  0
LINE
  5
556
100
AcDbEntity
  8
M0
 62
     4
100
AcDbLine
 10
66.550305
 20
315.178211
 11
67.366712
 21
312.530903
  0
LINE
  5
557
100
AcDbEntity
  8
M0
 62
     4
100
AcDbLine
 10
66.550305
 20
307.283589
 11
67.366712
 21
309.930928
  0
LINE
  5
558
100
AcDbEntity
  8
M0
 62
     4
100
AcDbLine
 10
61.110852
 20
306.930928
 11
66.072522
 21
306.930928
  0
LINE
  5
559
100
AcDbEntity
  8
M0
 62
     4
100
AcDbLine
 10
67.366712
 20
309.930928
 11
67.366712
 21
312.530903
  0
LINE
  5
55A
100
AcDbEntity
  8
M0
 62
     4
100
AcDbLine
 10
66.072522
 20
315.530903
 11
61.110852
 21
315.530888
  0
LINE
  5
55B
100
AcDbEntity
  8
M0
 62
     4
100
AcDbLine
 10
59.816663
 20
312.530903
 11
59.816663
 21
309.930928
  0
LINE
  5
55C
100
AcDbEntity
  8
M0
 62
     4
100
AcDbLine
 10
65.182385
 20
309.640034
 11
62.000745
 21
312.821797
  0
LINE
  5
55D
100
AcDbEntity
  8
M0
 62
     4
100
AcDbLine
 10
63.945081
 20
312.645039
 11
62.177503
 21
310.877339
  0
LINE
  5
55E
100
AcDbEntity
  8
M0
 62
     4
100
AcDbLine
 10
65.005628
 20
311.58437
 11
63.238049
 21
309.816792
  0
ARC
  5
55F
100
AcDbEntity
  8
M0
 62
     4
100
AcDbCircle
 10
61.110852
 20
315.030888
 40
0.5
100
AcDbArc
 50
89.998251
 51
162.874002
  0
ARC
  5
560
100
AcDbEntity
  8
M0
 62
     4
100
AcDbCircle
 10
61.110852
 20
307.430928
 40
0.5
100
AcDbArc
 50
197.12934
 51
270.0
  0
ARC
  5
561
100
AcDbEntity
  8
M0
 62
     4
100
AcDbCircle
 10
66.072522
 20
307.430928
 40
0.5
100
AcDbArc
 50
270.0
 51
342.860087
  0
ARC
  5
562
100
AcDbEntity
  8
M0
 62
     4
100
AcDbCircle
 10
66.072522
 20
315.030888
 40
0.5
100
AcDbArc
 50
17.136442
 51
90.0
  0
LINE
  5
563
100
AcDbEntity
  8
M0
  6
DASHDOT
 62
     4
100
AcDbLine
 10
67.091809
 20
311.230854
 11
60.091809
 21
311.230854
  0
LINE
  5
564
100
AcDbEntity
  8
M0
  6
DASHDOT
 62
     4
100
AcDbLine
 10
63.591794
 20
314.730854
 11
63.591809
 21
307.730854
  0
CIRCLE
  5
565
100
AcDbEntity
  8
M0
 62
     4
100
AcDbCircle
 10
73.591809
 20
311.230854
 40
2.999997
  0
LINE
  5
566
100
AcDbEntity
  8
M0
 62
     4
100
AcDbLine
 10
70.632825
 20
315.178196
 11
69.816663
 21
312.530903
  0
LINE
  5
567
100
AcDbEntity
  8
M0
 62
     4
100
AcDbLine
 10
70.632825
 20
307.283604
 11
69.816663
 21
309.930928
  0
LINE
  5
568
100
AcDbEntity
  8
M0
 62
     4
100
AcDbLine
 10
76.550305
 20
315.178211
 11
77.366712
 21
312.530903
  0
LINE
  5
569
100
AcDbEntity
  8
M0
 62
     4
100
AcDbLine
 10
76.550305
 20
307.283589
 11
77.366712
 21
309.930928
  0
LINE
  5
56A
100
AcDbEntity
  8
M0
 62
     4
100
AcDbLine
 10
71.110852
 20
306.930928
 11
76.072522
 21
306.930928
  0
LINE
  5
56B
100
AcDbEntity
  8
M0
 62
     4
100
AcDbLine
 10
77.366712
 20
309.930928
 11
77.366712
 21
312.530903
  0
LINE
  5
56C
100
AcDbEntity
  8
M0
 62
     4
100
AcDbLine
 10
76.072522
 20
315.530903
 11
71.110852
 21
315.530888
  0
LINE
  5
56D
100
AcDbEntity
  8
M0
 62
     4
100
AcDbLine
 10
69.816663
 20
312.530903
 11
69.816663
 21
309.930928
  0
LINE
  5
56E
100
AcDbEntity
  8
M0
 62
     4
100
AcDbLine
 10
75.182385
 20
309.640034
 11
72.000745
 21
312.821797
  0
LINE
  5
56F
100
AcDbEntity
  8
M0
 62
     4
100
AcDbLine
 10
73.945081
 20
312.645039
 11
72.177503
 21
310.877339
  0
LINE
  5
570
100
AcDbEntity
  8
M0
 62
     4
100
AcDbLine
 10
75.005628
 20
311.58437
 11
73.238049
 21
309.816792
  0
ARC
  5
571
100
AcDbEntity
  8
M0
 62
     4
100
AcDbCircle
 10
71.110852
 20
315.030888
 40
0.5
100
AcDbArc
 50
89.998251
 51
162.874002
  0
ARC
  5
572
100
AcDbEntity
  8
M0
 62
     4
100
AcDbCircle
 10
71.110852
 20
307.430928
 40
0.5
100
AcDbArc
 50
197.12934
 51
270.0
  0
ARC
  5
573
100
AcDbEntity
  8
M0
 62
     4
100
AcDbCircle
 10
76.072522
 20
307.430928
 40
0.5
100
AcDbArc
 50
270.0
 51
342.860087
  0
ARC
  5
574
100
AcDbEntity
  8
M0
 62
     4
100
AcDbCircle
 10
76.072522
 20
315.030888
 40
0.5
100
AcDbArc
 50
17.136442
 51
90.0
  0
LINE
  5
575
100
AcDbEntity
  8
M0
  6
DASHDOT
 62
     4
100
AcDbLine
 10
77.091809
 20
311.230854
 11
70.091809
 21
311.230854
  0
LINE
  5
576
100
AcDbEntity
  8
M0
  6
DASHDOT
 62
     4
100
AcDbLine
 10
73.591794
 20
314.730854
 11
73.591809
 21
307.730854
  0
CIRCLE
  5
577
100
AcDbEntity
  8
M0
 62
     4
100
AcDbCircle
 10
83.591809
 20
311.230854
 40
2.999997
  0
LINE
  5
578
100
AcDbEntity
  8
M0
 62
     4
100
AcDbLine
 10
80.632825
 20
315.178196
 11
79.816663
 21
312.530903
  0
LINE
  5
579
100
AcDbEntity
  8
M0
 62
     4
100
AcDbLine
 10
80.632825
 20
307.283604
 11
79.816663
 21
309.930928
  0
LINE
  5
57A
100
AcDbEntity
  8
M0
 62
     4
100
AcDbLine
 10
86.550305
 20
315.178211
 11
87.366712
 21
312.530903
  0
LINE
  5
57B
100
AcDbEntity
  8
M0
 62
     4
100
AcDbLine
 10
86.550305
 20
307.283589
 11
87.366712
 21
309.930928
  0
LINE
  5
57C
100
AcDbEntity
  8
M0
 62
     4
100
AcDbLine
 10
81.110852
 20
306.930928
 11
86.072522
 21
306.930928
  0
LINE
  5
57D
100
AcDbEntity
  8
M0
 62
     4
100
AcDbLine
 10
87.366712
 20
309.930928
 11
87.366712
 21
312.530903
  0
LINE
  5
57E
100
AcDbEntity
  8
M0
 62
     4
100
AcDbLine
 10
86.072522
 20
315.530903
 11
81.110852
 21
315.530888
  0
LINE
  5
57F
100
AcDbEntity
  8
M0
 62
     4
100
AcDbLine
 10
79.816663
 20
312.530903
 11
79.816663
 21
309.930928
  0
LINE
  5
580
100
AcDbEntity
  8
M0
 62
     4
100
AcDbLine
 10
85.182385
 20
309.640034
 11
82.000745
 21
312.821797
  0
LINE
  5
581
100
AcDbEntity
  8
M0
 62
     4
100
AcDbLine
 10
83.945081
 20
312.645039
 11
82.177503
 21
310.877339
  0
LINE
  5
582
100
AcDbEntity
  8
M0
 62
     4
100
AcDbLine
 10
85.005628
 20
311.58437
 11
83.238049
 21
309.816792
  0
ARC
  5
583
100
AcDbEntity
  8
M0
 62
     4
100
AcDbCircle
 10
81.110852
 20
315.030888
 40
0.5
100
AcDbArc
 50
89.998251
 51
162.874002
  0
ARC
  5
584
100
AcDbEntity
  8
M0
 62
     4
100
AcDbCircle
 10
81.110852
 20
307.430928
 40
0.5
100
AcDbArc
 50
197.12934
 51
270.0
  0
ARC
  5
585
100
AcDbEntity
  8
M0
 62
     4
100
AcDbCircle
 10
86.072522
 20
307.430928
 40
0.5
100
AcDbArc
 50
270.0
 51
342.860087
  0
ARC
  5
586
100
AcDbEntity
  8
M0
 62
     4
100
AcDbCircle
 10
86.072522
 20
315.030888
 40
0.5
100
AcDbArc
 50
17.136442
 51
90.0
  0
LINE
  5
587
100
AcDbEntity
  8
M0
  6
DASHDOT
 62
     4
100
AcDbLine
 10
87.091809
 20
311.230854
 11
80.091809
 21
311.230854
  0
LINE
  5
588
100
AcDbEntity
  8
M0
  6
DASHDOT
 62
     4
100
AcDbLine
 10
83.591794
 20
314.730854
 11
83.591809
 21
307.730854
  0
CIRCLE
  5
589
100
AcDbEntity
  8
M0
  6
DASHED
 62
    74
100
AcDbCircle
 10
74.591809
 20
323.230854
 40
5.9
  0
LINE
  5
58A
100
AcDbEntity
  8
M0
  6
DASHDOT
 62
    74
100
AcDbLine
 10
67.691815
 20
323.230854
 11
81.49181
 21
323.230854
  0
LINE
  5
58B
100
AcDbEntity
  8
M0
  6
DASHDOT
 62
    74
100
AcDbLine
 10
74.591809
 20
316.330845
 11
74.591809
 21
330.130848
  0
LINE
  5
58C
100
AcDbEntity
  8
M0
  6
DASHED
 62
    74
100
AcDbLine
 10
75.091809
 20
321.480854
 11
75.091809
 21
322.730854
  0
LINE
  5
58D
100
AcDbEntity
  8
M0
  6
DASHED
 62
    74
100
AcDbLine
 10
75.091809
 20
322.730854
 11
76.341809
 21
322.730854
  0
LINE
  5
58E
100
AcDbEntity
  8
M0
  6
DASHED
 62
    74
100
AcDbLine
 10
76.341809
 20
322.730854
 11
76.341809
 21
323.730854
  0
LINE
  5
58F
100
AcDbEntity
  8
M0
  6
DASHED
 62
    74
100
AcDbLine
 10
76.341809
 20
323.730854
 11
75.091809
 21
323.730854
  0
LINE
  5
590
100
AcDbEntity
  8
M0
  6
DASHED
 62
    74
100
AcDbLine
 10
75.091809
 20
323.730854
 11
75.091809
 21
324.980854
  0
LINE
  5
591
100
AcDbEntity
  8
M0
  6
DASHED
 62
    74
100
AcDbLine
 10
75.091809
 20
324.980854
 11
74.091809
 21
324.980854
  0
LINE
  5
592
100
AcDbEntity
  8
M0
  6
DASHED
 62
    74
100
AcDbLine
 10
74.091809
 20
324.980854
 11
74.091809
 21
323.730854
  0
LINE
  5
593
100
AcDbEntity
  8
M0
  6
DASHED
 62
    74
100
AcDbLine
 10
74.091809
 20
323.730854
 11
72.841809
 21
323.730854
  0
LINE
  5
594
100
AcDbEntity
  8
M0
  6
DASHED
 62
    74
100
AcDbLine
 10
72.841809
 20
323.730854
 11
72.841809
 21
322.730854
  0
LINE
  5
595
100
AcDbEntity
  8
M0
  6
DASHED
 62
    74
100
AcDbLine
 10
72.841809
 20
322.730854
 11
74.091809
 21
322.730854
  0
LINE
  5
596
100
AcDbEntity
  8
M0
  6
DASHED
 62
    74
100
AcDbLine
 10
74.091809
 20
322.730854
 11
74.091809
 21
321.480854
  0
LINE
  5
597
100
AcDbEntity
  8
M0
  6
DASHED
 62
    74
100
AcDbLine
 10
74.091809
 20
321.480854
 11
75.091809
 21
321.480854
  0
CIRCLE
  5
598
100
AcDbEntity
  8
M0
 62
   253
100
AcDbCircle
 10
50.591809
 20
294.73087
 40
2.999997
  0
LINE
  5
599
100
AcDbEntity
  8
M0
 62
   253
100
AcDbLine
 10
47.632825
 20
298.678211
 11
46.816663
 21
296.030918
  0
LINE
  5
59A
100
AcDbEntity
  8
M0
 62
   253
100
AcDbLine
 10
47.632825
 20
290.783619
 11
46.816663
 21
293.430943
  0
LINE
  5
59B
100
AcDbEntity
  8
M0
 62
   253
100
AcDbLine
 10
53.550305
 20
298.678227
 11
54.366712
 21
296.030918
  0
LINE
  5
59C
100
AcDbEntity
  8
M0
 62
   253
100
AcDbLine
 10
53.550305
 20
290.783604
 11
54.366712
 21
293.430943
  0
LINE
  5
59D
100
AcDbEntity
  8
M0
 62
   253
100
AcDbLine
 10
48.110852
 20
290.430943
 11
53.072522
 21
290.430943
  0
LINE
  5
59E
100
AcDbEntity
  8
M0
 62
   253
100
AcDbLine
 10
54.366712
 20
293.430943
 11
54.366712
 21
296.030918
  0
LINE
  5
59F
100
AcDbEntity
  8
M0
 62
   253
100
AcDbLine
 10
53.072522
 20
299.030918
 11
48.110852
 21
299.030903
  0
LINE
  5
5A0
100
AcDbEntity
  8
M0
 62
   253
100
AcDbLine
 10
46.816663
 20
296.030918
 11
46.816663
 21
293.430943
  0
LINE
  5
5A1
100
AcDbEntity
  8
M0
  6
DASHDOT
 62
   253
100
AcDbLine
 10
44.316663
 20
294.73087
 11
56.866712
 21
294.73087
  0
LINE
  5
5A2
100
AcDbEntity
  8
M0
  6
DASHDOT
 62
   253
100
AcDbLine
 10
50.591809
 20
287.930958
 11
50.591809
 21
301.530918
  0
LINE
  5
5A3
100
AcDbEntity
  8
M0
 62
   253
100
AcDbLine
 10
52.182385
 20
293.140049
 11
49.000745
 21
296.321812
  0
LINE
  5
5A4
100
AcDbEntity
  8
M0
 62
   253
100
AcDbLine
 10
50.945081
 20
296.145054
 11
49.177503
 21
294.377354
  0
LINE
  5
5A5
100
AcDbEntity
  8
M0
 62
   253
100
AcDbLine
 10
52.005628
 20
295.084385
 11
50.238049
 21
293.316807
  0
ARC
  5
5A6
100
AcDbEntity
  8
M0
 62
   253
100
AcDbCircle
 10
48.110852
 20
298.530903
 40
0.5
100
AcDbArc
 50
89.998251
 51
162.874002
  0
ARC
  5
5A7
100
AcDbEntity
  8
M0
 62
   253
100
AcDbCircle
 10
48.110852
 20
290.930943
 40
0.5
100
AcDbArc
 50
197.12934
 51
270.0
  0
ARC
  5
5A8
100
AcDbEntity
  8
M0
 62
   253
100
AcDbCircle
 10
53.072522
 20
290.930943
 40
0.5
100
AcDbArc
 50
270.0
 51
342.860087
  0
ARC
  5
5A9
100
AcDbEntity
  8
M0
 62
   253
100
AcDbCircle
 10
53.072522
 20
298.530903
 40
0.5
100
AcDbArc
 50
17.136442
 51
90.0
  0
CIRCLE
  5
5AA
100
AcDbEntity
  8
M0
 62
   253
100
AcDbCircle
 10
60.591809
 20
294.73087
 40
2.999997
  0
LINE
  5
5AB
100
AcDbEntity
  8
M0
 62
   253
100
AcDbLine
 10
57.632825
 20
298.678211
 11
56.816663
 21
296.030918
  0
LINE
  5
5AC
100
AcDbEntity
  8
M0
 62
   253
100
AcDbLine
 10
57.632825
 20
290.783619
 11
56.816663
 21
293.430943
  0
LINE
  5
5AD
100
AcDbEntity
  8
M0
 62
   253
100
AcDbLine
 10
63.550305
 20
298.678227
 11
64.366712
 21
296.030918
  0
LINE
  5
5AE
100
AcDbEntity
  8
M0
 62
   253
100
AcDbLine
 10
63.550305
 20
290.783604
 11
64.366712
 21
293.430943
  0
LINE
  5
5AF
100
AcDbEntity
  8
M0
 62
   253
100
AcDbLine
 10
58.110852
 20
290.430943
 11
63.072522
 21
290.430943
  0
LINE
  5
5B0
100
AcDbEntity
  8
M0
 62
   253
100
AcDbLine
 10
64.366712
 20
293.430943
 11
64.366712
 21
296.030918
  0
LINE
  5
5B1
100
AcDbEntity
  8
M0
 62
   253
100
AcDbLine
 10
63.072522
 20
299.030918
 11
58.110852
 21
299.030903
  0
LINE
  5
5B2
100
AcDbEntity
  8
M0
 62
   253
100
AcDbLine
 10
56.816663
 20
296.030918
 11
56.816663
 21
293.430943
  0
LINE
  5
5B3
100
AcDbEntity
  8
M0
  6
DASHDOT
 62
   253
100
AcDbLine
 10
54.316663
 20
294.73087
 11
66.866712
 21
294.73087
  0
LINE
  5
5B4
100
AcDbEntity
  8
M0
  6
DASHDOT
 62
   253
100
AcDbLine
 10
60.591809
 20
287.930958
 11
60.591809
 21
301.530918
  0
LINE
  5
5B5
100
AcDbEntity
  8
M0
 62
   253
100
AcDbLine
 10
62.182385
 20
293.140049
 11
59.000745
 21
296.321812
  0
LINE
  5
5B6
100
AcDbEntity
  8
M0
 62
   253
100
AcDbLine
 10
60.945081
 20
296.145054
 11
59.177503
 21
294.377354
  0
LINE
  5
5B7
100
AcDbEntity
  8
M0
 62
   253
100
AcDbLine
 10
62.005628
 20
295.084385
 11
60.238049
 21
293.316807
  0
ARC
  5
5B8
100
AcDbEntity
  8
M0
 62
   253
100
AcDbCircle
 10
58.110852
 20
298.530903
 40
0.5
100
AcDbArc
 50
89.998251
 51
162.874002
  0
ARC
  5
5B9
100
AcDbEntity
  8
M0
 62
   253
100
AcDbCircle
 10
58.110852
 20
290.930943
 40
0.5
100
AcDbArc
 50
197.12934
 51
270.0
  0
ARC
  5
5BA
100
AcDbEntity
  8
M0
 62
   253
100
AcDbCircle
 10
63.072522
 20
290.930943
 40
0.5
100
AcDbArc
 50
270.0
 51
342.860087
  0
ARC
  5
5BB
100
AcDbEntity
  8
M0
 62
   253
100
AcDbCircle
 10
63.072522
 20
298.530903
 40
0.5
100
AcDbArc
 50
17.136442
 51
90.0
  0
CIRCLE
  5
5BC
100
AcDbEntity
  8
M0
 62
   253
100
AcDbCircle
 10
70.591809
 20
294.73087
 40
2.999997
  0
LINE
  5
5BD
100
AcDbEntity
  8
M0
 62
   253
100
AcDbLine
 10
67.632825
 20
298.678211
 11
66.816663
 21
296.030918
  0
LINE
  5
5BE
100
AcDbEntity
  8
M0
 62
   253
100
AcDbLine
 10
67.632825
 20
290.783619
 11
66.816663
 21
293.430943
  0
LINE
  5
5BF
100
AcDbEntity
  8
M0
 62
   253
100
AcDbLine
 10
73.550305
 20
298.678227
 11
74.366712
 21
296.030918
  0
LINE
  5
5C0
100
AcDbEntity
  8
M0
 62
   253
100
AcDbLine
 10
73.550305
 20
290.783604
 11
74.366712
 21
293.430943
  0
LINE
  5
5C1
100
AcDbEntity
  8
M0
 62
   253
100
AcDbLine
 10
68.110852
 20
290.430943
 11
73.072522
 21
290.430943
  0
LINE
  5
5C2
100
AcDbEntity
  8
M0
 62
   253
100
AcDbLine
 10
74.366712
 20
293.430943
 11
74.366712
 21
296.030918
  0
LINE
  5
5C3
100
AcDbEntity
  8
M0
 62
   253
100
AcDbLine
 10
73.072522
 20
299.030918
 11
68.110852
 21
299.030903
  0
LINE
  5
5C4
100
AcDbEntity
  8
M0
 62
   253
100
AcDbLine
 10
66.816663
 20
296.030918
 11
66.816663
 21
293.430943
  0
LINE
  5
5C5
100
AcDbEntity
  8
M0
  6
DASHDOT
 62
   253
100
AcDbLine
 10
64.316663
 20
294.73087
 11
76.866712
 21
294.73087
  0
LINE
  5
5C6
100
AcDbEntity
  8
M0
  6
DASHDOT
 62
   253
100
AcDbLine
 10
70.591809
 20
287.930958
 11
70.591809
 21
301.530918
  0
LINE
  5
5C7
100
AcDbEntity
  8
M0
 62
   253
100
AcDbLine
 10
72.182385
 20
293.140049
 11
69.000745
 21
296.321812
  0
LINE
  5
5C8
100
AcDbEntity
  8
M0
 62
   253
100
AcDbLine
 10
70.945081
 20
296.145054
 11
69.177503
 21
294.377354
  0
LINE
  5
5C9
100
AcDbEntity
  8
M0
 62
   253
100
AcDbLine
 10
72.005628
 20
295.084385
 11
70.238049
 21
293.316807
  0
ARC
  5
5CA
100
AcDbEntity
  8
M0
 62
   253
100
AcDbCircle
 10
68.110852
 20
298.530903
 40
0.5
100
AcDbArc
 50
89.998251
 51
162.874002
  0
ARC
  5
5CB
100
AcDbEntity
  8
M0
 62
   253
100
AcDbCircle
 10
68.110852
 20
290.930943
 40
0.5
100
AcDbArc
 50
197.12934
 51
270.0
  0
ARC
  5
5CC
100
AcDbEntity
  8
M0
 62
   253
100
AcDbCircle
 10
73.072522
 20
290.930943
 40
0.5
100
AcDbArc
 50
270.0
 51
342.860087
  0
ARC
  5
5CD
100
AcDbEntity
  8
M0
 62
   253
100
AcDbCircle
 10
73.072522
 20
298.530903
 40
0.5
100
AcDbArc
 50
17.136442
 51
90.0
  0
CIRCLE
  5
5CE
100
AcDbEntity
  8
M0
 62
   253
100
AcDbCircle
 10
82.091809
 20
294.73087
 40
2.999997
  0
LINE
  5
5CF
100
AcDbEntity
  8
M0
 62
   253
100
AcDbLine
 10
79.132825
 20
298.678211
 11
78.316663
 21
296.030918
  0
LINE
  5
5D0
100
AcDbEntity
  8
M0
 62
   253
100
AcDbLine
 10
79.08743
 20
290.930897
 11
78.316663
 21
293.430943
  0
LINE
  5
5D1
100
AcDbEntity
  8
M0
 62
   253
100
AcDbLine
 10
85.050305
 20
298.678227
 11
85.866712
 21
296.030918
  0
LINE
  5
5D2
100
AcDbEntity
  8
M0
 62
   253
100
AcDbLine
 10
85.095729
 20
290.930897
 11
85.866712
 21
293.430943
  0
LINE
  5
5D3
100
AcDbEntity
  8
M0
 62
   253
100
AcDbLine
 10
85.866712
 20
293.430943
 11
85.866712
 21
296.030918
  0
LINE
  5
5D4
100
AcDbEntity
  8
M0
 62
   253
100
AcDbLine
 10
84.572522
 20
299.030918
 11
79.610852
 21
299.030903
  0
LINE
  5
5D5
100
AcDbEntity
  8
M0
 62
   253
100
AcDbLine
 10
78.316663
 20
296.030918
 11
78.316663
 21
293.430943
  0
LINE
  5
5D6
100
AcDbEntity
  8
M0
  6
DASHDOT
 62
   253
100
AcDbLine
 10
75.816663
 20
294.73087
 11
88.366712
 21
294.73087
  0
LINE
  5
5D7
100
AcDbEntity
  8
M0
  6
DASHDOT
 62
   253
100
AcDbLine
 10
82.091809
 20
287.930958
 11
82.091809
 21
301.530918
  0
LINE
  5
5D8
100
AcDbEntity
  8
M0
 62
   253
100
AcDbLine
 10
83.682385
 20
293.140049
 11
80.500745
 21
296.321812
  0
LINE
  5
5D9
100
AcDbEntity
  8
M0
 62
   253
100
AcDbLine
 10
82.445081
 20
296.145054
 11
80.677503
 21
294.377354
  0
LINE
  5
5DA
100
AcDbEntity
  8
M0
 62
   253
100
AcDbLine
 10
83.505628
 20
295.084385
 11
81.738049
 21
293.316807
  0
ARC
  5
5DB
100
AcDbEntity
  8
M0
 62
   253
100
AcDbCircle
 10
79.610852
 20
298.530903
 40
0.5
100
AcDbArc
 50
89.998251
 51
162.874002
  0
ARC
  5
5DC
100
AcDbEntity
  8
M0
 62
   253
100
AcDbCircle
 10
84.572522
 20
298.530903
 40
0.5
100
AcDbArc
 50
17.136442
 51
90.0
  0
LINE
  5
5DD
100
AcDbEntity
  8
M0
  6
DASHED
 62
   154
100
AcDbLine
 10
85.591809
 20
324.130848
 11
85.591809
 21
325.330845
  0
LINE
  5
5DE
100
AcDbEntity
  8
M0
  6
DASHED
 62
   154
100
AcDbLine
 10
85.591809
 20
325.330845
 11
82.591809
 21
325.330845
  0
LINE
  5
5DF
100
AcDbEntity
  8
M0
  6
DASHED
 62
   154
100
AcDbLine
 10
82.591809
 20
325.330845
 11
82.591809
 21
324.130848
  0
LINE
  5
5E0
100
AcDbEntity
  8
M0
  6
DASHED
 62
   154
100
AcDbLine
 10
82.591809
 20
324.130848
 11
85.591809
 21
324.130848
  0
LINE
  5
5E1
100
AcDbEntity
  8
M0
  6
DASHDOT
 62
   154
100
AcDbLine
 10
81.198036
 20
324.730854
 11
87.023806
 21
324.730854
  0
LINE
  5
5E2
100
AcDbEntity
  8
M0
  6
DASHDOT
 62
   154
100
AcDbLine
 10
84.091809
 20
322.892918
 11
84.091809
 21
327.048634
  0
LINE
  5
5E3
100
AcDbEntity
  8
M0
 62
   154
100
AcDbLine
 10
59.591809
 20
328.830845
 11
59.591809
 21
331.630848
  0
LINE
  5
5E4
100
AcDbEntity
  8
M0
 62
   154
100
AcDbLine
 10
59.591809
 20
331.630848
 11
55.591809
 21
331.630848
  0
LINE
  5
5E5
100
AcDbEntity
  8
M0
 62
   154
100
AcDbLine
 10
55.591809
 20
331.630848
 11
55.591809
 21
328.830845
  0
LINE
  5
5E6
100
AcDbEntity
  8
M0
 62
   154
100
AcDbLine
 10
55.591809
 20
328.830845
 11
59.591809
 21
328.830845
  0
LINE
  5
5E7
100
AcDbEntity
  8
M0
  6
DASHDOT
 62
   154
100
AcDbLine
 10
57.591809
 20
323.830845
 11
57.591809
 21
336.630848
  0
LINE
  5
5E8
100
AcDbEntity
  8
M0
  6
DASHED
 62
   154
100
AcDbLine
 10
59.591809
 20
331.130848
 11
55.591809
 21
331.130848
  0
LINE
  5
5E9
100
AcDbEntity
  8
M0
  6
DASHED
 62
   154
100
AcDbLine
 10
59.591809
 20
329.330845
 11
55.591809
 21
329.330845
  0
LINE
  5
5EA
100
AcDbEntity
  8
M0
100
AcDbLine
 10
278.226285
 20
307.930591
 11
278.226346
 21
334.430531
  0
LINE
  5
5EB
100
AcDbEntity
  8
M0
100
AcDbLine
 10
275.226331
 20
330.930592
 11
238.226374
 21
330.930668
  0
LINE
  5
5EC
100
AcDbEntity
  8
M0
100
AcDbLine
 10
204.226346
 20
330.930744
 11
204.226331
 21
315.930744
  0
LINE
  5
5ED
100
AcDbEntity
  8
M0
100
AcDbLine
 10
253.72627
 20
301.930645
 11
269.72627
 21
301.930609
  0
LINE
  5
5EE
100
AcDbEntity
  8
M0
100
AcDbLine
 10
278.226346
 20
334.430531
 11
275.226346
 21
334.430546
  0
LINE
  5
5EF
100
AcDbEntity
  8
M0
100
AcDbLine
 10
275.226346
 20
334.430546
 11
275.226331
 21
330.930592
  0
LINE
  5
5F0
100
AcDbEntity
  8
M0
100
AcDbLine
 10
270.72627
 20
302.930607
 11
270.726285
 21
306.430607
  0
LINE
  5
5F1
100
AcDbEntity
  8
M0
100
AcDbLine
 10
271.226285
 20
306.930606
 11
277.226285
 21
306.930593
  0
ARC
  5
5F2
100
AcDbEntity
  8
M0
100
AcDbCircle
 10
277.226285
 20
307.930593
 40
1.0
100
AcDbArc
 50
269.999126
 51
360.0
  0
ARC
  5
5F3
100
AcDbEntity
  8
M0
100
AcDbCircle
 10
269.72627
 20
302.930609
 40
1.0
100
AcDbArc
 50
269.999126
 51
360.0
  0
LINE
  5
5F4
100
AcDbEntity
  8
M0
100
AcDbLine
 10
238.226358
 20
330.930668
 11
238.226349
 21
326.930668
  0
LINE
  5
5F5
100
AcDbEntity
  8
M0
100
AcDbLine
 10
238.226349
 20
326.930668
 11
228.726365
 21
326.930699
  0
LINE
  5
5F6
100
AcDbEntity
  8
M0
100
AcDbLine
 10
228.726363
 20
325.930699
 11
225.726363
 21
325.930699
  0
LINE
  5
5F7
100
AcDbEntity
  8
M0
100
AcDbLine
 10
220.226349
 20
326.430714
 11
204.226346
 21
326.430744
  0
LINE
  5
5F8
100
AcDbEntity
  8
M0
100
AcDbLine
 10
220.226349
 20
326.430714
 11
220.22635
 21
326.930714
  0
LINE
  5
5F9
100
AcDbEntity
  8
M0
100
AcDbLine
 10
209.62637
 20
315.930729
 11
204.226315
 21
315.930744
  0
LINE
  5
5FA
100
AcDbEntity
  8
M0
100
AcDbLine
 10
209.626386
 20
319.430729
 11
209.626355
 21
310.930714
  0
LINE
  5
5FB
100
AcDbEntity
  8
M0
100
AcDbLine
 10
215.626356
 20
304.930729
 11
221.226316
 21
304.930717
  0
LINE
  5
5FC
100
AcDbEntity
  8
M0
100
AcDbLine
 10
214.326333
 20
302.930733
 11
222.596993
 21
302.930714
  0
ARC
  5
5FD
100
AcDbEntity
  8
M0
100
AcDbCircle
 10
215.626354
 20
310.930729
 40
6.0
100
AcDbArc
 50
180.0
 51
270.0
  0
LINE
  5
5FE
100
AcDbEntity
  8
M0
100
AcDbLine
 10
244.969103
 20
286.430665
 11
232.805208
 21
286.430692
  0
LINE
  5
5FF
100
AcDbEntity
  8
M0
100
AcDbLine
 10
247.173612
 20
288.93066
 11
235.226311
 21
288.930687
  0
LINE
  5
600
100
AcDbEntity
  8
M0
100
AcDbLine
 10
253.72627
 20
301.930645
 11
250.764646
 21
290.877735
  0
ARC
  5
601
100
AcDbEntity
  8
M0
100
AcDbCircle
 10
247.173627
 20
292.93066
 40
4.0
100
AcDbArc
 50
269.999781
 51
344.999771
  0
ARC
  5
602
100
AcDbEntity
  8
M0
100
AcDbCircle
 10
244.969116
 20
292.430665
 40
6.0
100
AcDbArc
 50
270.0
 51
344.99979
  0
LINE
  5
603
100
AcDbEntity
  8
M0
100
AcDbLine
 10
275.226331
 20
331.630497
 11
278.226331
 21
331.630482
  0
LINE
  5
604
100
AcDbEntity
  8
M0
100
AcDbLine
 10
228.726365
 20
326.930699
 11
228.726363
 21
325.930699
  0
LINE
  5
605
100
AcDbEntity
  8
M0
100
AcDbLine
 10
225.726365
 20
326.930683
 11
225.726363
 21
325.930683
  0
LINE
  5
606
100
AcDbEntity
  8
M0
100
AcDbLine
 10
225.726365
 20
326.930699
 11
220.22635
 21
326.930714
  0
LINE
  5
607
100
AcDbEntity
  8
M0
100
AcDbLine
 10
222.226312
 20
302.930715
 11
222.226321
 21
306.930715
  0
ARC
  5
608
100
AcDbEntity
  8
M0
100
AcDbCircle
 10
221.226318
 20
305.930717
 40
1.0
100
AcDbArc
 50
270.0
 51
360.0
  0
LINE
  5
609
100
AcDbEntity
  8
M0
100
AcDbLine
 10
208.326337
 20
308.930744
 11
208.326352
 21
315.930744
  0
ARC
  5
60A
100
AcDbEntity
  8
M0
100
AcDbCircle
 10
214.326331
 20
308.930729
 40
6.0
100
AcDbArc
 50
180.0
 51
270.0
  0
LINE
  5
60B
100
AcDbEntity
  8
M0
100
AcDbLine
 10
225.226314
 20
303.430708
 11
225.226321
 21
306.930708
  0
LINE
  5
60C
100
AcDbEntity
  8
M0
100
AcDbLine
 10
222.226321
 20
306.930715
 11
225.226321
 21
306.930708
  0
LINE
  5
60D
100
AcDbEntity
  8
M0
100
AcDbLine
 10
229.226305
 20
299.9307
 11
228.726305
 21
299.930701
  0
LINE
  5
60E
100
AcDbEntity
  8
M0
100
AcDbLine
 10
224.726252
 20
303.430709
 11
225.226314
 21
303.430708
  0
LINE
  5
60F
100
AcDbEntity
  8
M0
100
AcDbLine
 10
224.726252
 20
303.430709
 11
223.114649
 21
302.998874
  0
LINE
  5
610
100
AcDbEntity
  8
M0
100
AcDbLine
 10
225.226314
 20
303.430708
 11
228.726305
 21
299.930701
  0
LINE
  5
611
100
AcDbEntity
  8
M0
100
AcDbLine
 10
229.22632
 20
299.9307
 11
229.226319
 21
292.430685
  0
ARC
  5
612
100
AcDbEntity
  8
M0
100
AcDbCircle
 10
235.226324
 20
294.930686
 40
6.0
100
AcDbArc
 50
179.999973
 51
270.0
  0
ARC
  5
613
100
AcDbEntity
  8
M0
100
AcDbCircle
 10
235.226318
 20
292.430687
 40
6.0
100
AcDbArc
 50
179.999964
 51
270.0
  0
ARC
  5
614
100
AcDbEntity
  8
M0
100
AcDbCircle
 10
222.596998
 20
304.930714
 40
2.0
100
AcDbArc
 50
270.0
 51
285.000422
  0
LINE
  5
615
100
AcDbEntity
  8
M0
100
AcDbLine
 10
227.726292
 20
293.930702
 11
227.726308
 21
300.930702
  0
LINE
  5
616
100
AcDbEntity
  8
M0
100
AcDbLine
 10
227.726292
 20
293.930702
 11
228.941507
 21
289.395422
  0
ARC
  5
617
100
AcDbEntity
  8
M0
100
AcDbCircle
 10
232.805217
 20
290.430692
 40
4.0
100
AcDbArc
 50
194.999876
 51
270.0
  0
LINE
  5
618
100
AcDbEntity
  8
M0
100
AcDbLine
 10
258.627774
 20
300.430634
 11
253.324353
 21
300.430646
  0
ARC
  5
619
100
AcDbEntity
  8
M0
100
AcDbCircle
 10
258.627774
 20
304.430634
 40
4.0
100
AcDbArc
 50
269.999781
 51
321.31781
  0
ARC
  5
61A
100
AcDbEntity
  8
M0
100
AcDbCircle
 10
271.226285
 20
306.430606
 40
0.5
100
AcDbArc
 50
90.0
 51
180.0
  0
LINE
  5
61B
100
AcDbEntity
  8
M0
100
AcDbLine
 10
209.626462
 20
315.930683
 11
209.626462
 21
319.430683
  0
LINE
  5
61C
100
AcDbEntity
  8
M0
100
AcDbLine
 10
207.226483
 20
332.930683
 11
202.726468
 21
332.930683
  0
LINE
  5
61D
100
AcDbEntity
  8
M0
100
AcDbLine
 10
202.726468
 20
332.930683
 11
202.726468
 21
315.930683
  0
LINE
  5
61E
100
AcDbEntity
  8
M0
100
AcDbLine
 10
202.726468
 20
315.930683
 11
209.626462
 21
315.930683
  0
LINE
  5
61F
100
AcDbEntity
  8
M0
100
AcDbLine
 10
209.626462
 20
319.430683
 11
204.226468
 21
319.430683
  0
LINE
  5
620
100
AcDbEntity
  8
M0
100
AcDbLine
 10
204.226468
 20
315.930683
 11
204.226468
 21
332.930683
  0
LINE
  5
621
100
AcDbEntity
  8
M0
100
AcDbLine
 10
204.226468
 20
328.930683
 11
206.226483
 21
328.930683
  0
ARC
  5
622
100
AcDbEntity
  8
M0
100
AcDbCircle
 10
207.226468
 20
330.930683
 40
2.0
100
AcDbArc
 50
0.0
 51
89.999563
  0
LINE
  5
623
100
AcDbEntity
  8
M0
100
AcDbLine
 10
206.226499
 20
329.230671
 11
207.526471
 21
329.230671
  0
ARC
  5
624
100
AcDbEntity
  8
M0
100
AcDbCircle
 10
207.526471
 20
330.930668
 40
1.7
100
AcDbArc
 50
270.0
 51
360.0
  0
LINE
  5
625
100
AcDbEntity
  8
M0
100
AcDbLine
 10
206.226483
 20
329.230671
 11
206.226483
 21
328.930653
  0
LINE
  5
626
100
AcDbEntity
  8
M0
100
AcDbLine
 10
220.226457
 20
327.930699
 11
238.026443
 21
327.930683
  0
LINE
  5
627
100
AcDbEntity
  8
M0
100
AcDbLine
 10
220.226457
 20
326.430699
 11
220.226457
 21
327.930699
  0
LINE
  5
628
100
AcDbEntity
  8
M0
100
AcDbLine
 10
220.226457
 20
326.430699
 11
204.526502
 21
326.430699
  0
LINE
  5
629
100
AcDbEntity
  8
M0
100
AcDbLine
 10
238.026443
 20
327.930683
 11
238.026444
 21
330.930683
  0
LINE
  5
62A
100
AcDbEntity
  8
M0
100
AcDbLine
 10
260.526456
 20
330.930683
 11
260.526456
 21
333.430668
  0
LINE
  5
62B
100
AcDbEntity
  8
M0
100
AcDbLine
 10
257.526456
 20
330.930683
 11
257.526456
 21
333.430668
  0
LINE
  5
62C
100
AcDbEntity
  8
M0
100
AcDbLine
 10
219.226457
 20
328.930699
 11
219.226458
 21
333.430683
  0
LINE
  5
62D
100
AcDbEntity
  8
M0
100
AcDbLine
 10
219.226457
 20
328.930699
 11
204.226468
 21
328.930699
  0
LINE
  5
62E
100
AcDbEntity
  8
M0
100
AcDbLine
 10
275.226453
 20
330.930683
 11
275.226453
 21
334.430668
  0
LINE
  5
62F
100
AcDbEntity
  8
M0
100
AcDbLine
 10
273.526441
 20
333.430668
 11
273.526441
 21
342.23444
  0
LINE
  5
630
100
AcDbEntity
  8
M0
100
AcDbLine
 10
260.526456
 20
330.930683
 11
275.226453
 21
330.930683
  0
LINE
  5
631
100
AcDbEntity
  8
M0
100
AcDbLine
 10
238.026444
 20
330.930683
 11
257.526456
 21
330.930683
  0
LINE
  5
632
100
AcDbEntity
  8
M0
100
AcDbLine
 10
212.026547
 20
332.430699
 11
208.549344
 21
332.430699
  0
LINE
  5
633
100
AcDbEntity
  8
M0
100
AcDbLine
 10
264.832562
 20
333.430668
 11
219.226458
 21
333.430683
  0
LINE
  5
634
100
AcDbEntity
  8
M0
100
AcDbLine
 10
209.526547
 20
332.430699
 11
209.526547
 21
336.13068
  0
LINE
  5
635
100
AcDbEntity
  8
M0
100
AcDbLine
 10
209.526547
 20
336.13068
 11
212.026547
 21
336.13068
  0
LINE
  5
636
100
AcDbEntity
  8
M0
100
AcDbLine
 10
212.026547
 20
332.430699
 11
212.026547
 21
336.13068
  0
LINE
  5
637
100
AcDbEntity
  8
M0
100
AcDbLine
 10
214.026553
 20
334.430699
 11
230.526537
 21
334.430683
  0
LINE
  5
638
100
AcDbEntity
  8
M0
100
AcDbLine
 10
226.526539
 20
336.730686
 11
234.026538
 21
336.730671
  0
LINE
  5
639
100
AcDbEntity
  8
M0
100
AcDbLine
 10
212.026563
 20
332.430699
 11
214.026538
 21
334.430699
  0
LINE
  5
63A
100
AcDbEntity
  8
M0
100
AcDbLine
 10
230.526537
 20
334.430683
 11
231.526552
 21
333.430668
  0
LINE
  5
63B
100
AcDbEntity
  8
M0
100
AcDbLine
 10
267.526441
 20
342.230656
 11
267.526441
 21
346.730625
  0
LINE
  5
63C
100
AcDbEntity
  8
M0
100
AcDbLine
 10
264.832562
 20
333.430668
 11
267.526441
 21
342.230671
  0
LINE
  5
63D
100
AcDbEntity
  8
M0
100
AcDbLine
 10
212.026547
 20
335.13068
 11
214.526539
 21
335.13068
  0
LINE
  5
63E
100
AcDbEntity
  8
M0
100
AcDbLine
 10
214.526539
 20
335.930683
 11
220.026539
 21
335.930683
  0
LINE
  5
63F
100
AcDbEntity
  8
M0
100
AcDbLine
 10
214.526539
 20
335.13068
 11
214.526539
 21
335.930683
  0
LINE
  5
640
100
AcDbEntity
  8
M0
100
AcDbLine
 10
224.52654
 20
338.730686
 11
224.526541
 21
341.734471
  0
LINE
  5
641
100
AcDbEntity
  8
M0
100
AcDbLine
 10
220.502261
 20
341.734471
 11
220.026539
 21
335.930683
  0
ARC
  5
642
100
AcDbEntity
  8
M0
100
AcDbCircle
 10
226.52654
 20
338.730686
 40
2.0
100
AcDbArc
 50
180.0
 51
270.0
  0
LINE
  5
643
100
AcDbEntity
  8
M0
100
AcDbLine
 10
234.026538
 20
336.730671
 11
237.32654
 21
333.430668
  0
LINE
  5
644
100
AcDbEntity
  8
M0
100
AcDbLine
 10
273.526441
 20
333.430668
 11
275.226438
 21
333.430668
  0
LINE
  5
645
100
AcDbEntity
  8
M0
100
AcDbLine
 10
202.726453
 20
326.230671
 11
200.226468
 21
326.230686
  0
LINE
  5
646
100
AcDbEntity
  8
M0
100
AcDbLine
 10
199.726438
 20
325.730686
 11
199.726453
 21
320.730686
  0
LINE
  5
647
100
AcDbEntity
  8
M0
100
AcDbLine
 10
200.226453
 20
320.230686
 11
202.726453
 21
320.230671
  0
ARC
  5
648
100
AcDbEntity
  8
M0
100
AcDbCircle
 10
200.226453
 20
325.730686
 40
0.5
100
AcDbArc
 50
89.998251
 51
180.0
  0
ARC
  5
649
100
AcDbEntity
  8
M0
100
AcDbCircle
 10
200.226453
 20
320.730686
 40
0.5
100
AcDbArc
 50
180.0
 51
270.0
  0
LINE
  5
64A
100
AcDbEntity
  8
M0
  6
DASHDOT
100
AcDbLine
 10
196.282681
 20
323.230702
 11
205.223462
 21
323.230641
  0
LINE
  5
64B
100
AcDbEntity
  8
M0
  6
DIVIDE
 62
     7
100
AcDbLine
 10
97.587774
 20
134.473713
 11
163.087286
 21
134.473713
  0
LINE
  5
64C
100
AcDbEntity
  8
M0
  6
DIVIDE
 62
     7
100
AcDbLine
 10
163.087286
 20
224.473713
 11
43.087774
 21
224.473957
  0
LINE
  5
64D
100
AcDbEntity
  8
M0
  6
DIVIDE
 62
     7
100
AcDbLine
 10
43.087774
 20
224.473957
 11
43.087774
 21
112.973957
  0
CIRCLE
  5
64E
100
AcDbEntity
  8
M0
 62
     7
100
AcDbCircle
 10
58.087774
 20
216.973713
 40
3.999996
  0
CIRCLE
  5
64F
100
AcDbEntity
  8
M0
 62
     7
100
AcDbCircle
 10
58.087774
 20
216.973713
 40
1.749993
  0
LINE
  5
650
100
AcDbEntity
  8
M0
  6
DASHDOT
 62
     7
100
AcDbLine
 10
64.184942
 20
216.973713
 11
51.990362
 21
216.973713
  0
LINE
  5
651
100
AcDbEntity
  8
M0
  6
DASHDOT
 62
     7
100
AcDbLine
 10
58.08753
 20
223.070881
 11
58.08753
 21
210.876301
  0
LINE
  5
652
100
AcDbEntity
  8
M0
  6
DIVIDE
 62
     7
100
AcDbLine
 10
163.087286
 20
224.473713
 11
163.087286
 21
134.463948
  0
CIRCLE
  5
653
100
AcDbEntity
  8
M0
 62
     7
100
AcDbCircle
 10
148.08753
 20
216.973469
 40
3.999994
  0
CIRCLE
  5
654
100
AcDbEntity
  8
M0
 62
     7
100
AcDbCircle
 10
148.08753
 20
216.973469
 40
1.749991
  0
LINE
  5
655
100
AcDbEntity
  8
M0
  6
DASHDOT
 62
     7
100
AcDbLine
 10
154.684942
 20
216.973469
 11
141.490118
 21
216.973469
  0
LINE
  5
656
100
AcDbEntity
  8
M0
  6
DASHDOT
 62
     7
100
AcDbLine
 10
148.08753
 20
223.570393
 11
148.087286
 21
210.376057
  0
CIRCLE
  5
657
100
AcDbEntity
  8
M0
 62
     7
100
AcDbCircle
 10
103.08753
 20
141.978108
 40
3.999994
  0
CIRCLE
  5
658
100
AcDbEntity
  8
M0
 62
     7
100
AcDbCircle
 10
103.08753
 20
141.978108
 40
1.749991
  0
LINE
  5
659
100
AcDbEntity
  8
M0
  6
DASHDOT
 62
     7
100
AcDbLine
 10
109.684942
 20
141.978108
 11
96.490118
 21
141.978108
  0
LINE
  5
65A
100
AcDbEntity
  8
M0
  6
DASHDOT
 62
     7
100
AcDbLine
 10
103.088995
 20
230.715168
 11
103.087286
 21
135.37093
  0
LINE
  5
65B
100
AcDbEntity
  8
M0
  6
DIVIDE
 62
     7
100
AcDbLine
 10
43.087774
 20
112.973957
 11
97.587774
 21
112.973957
  0
LINE
  5
65C
100
AcDbEntity
  8
M0
  6
DIVIDE
 62
     7
100
AcDbLine
 10
97.587774
 20
112.973957
 11
97.587774
 21
134.473713
  0
LINE
  5
65D
100
AcDbEntity
  8
M1
 62
     2
100
AcDbLine
 10
16.666666
 20
16.666666
 11
16.666666
 21
474.999981
  0
LINE
  5
65E
100
AcDbEntity
  8
M1
 62
     2
100
AcDbLine
 10
16.666666
 20
474.999981
 11
333.33332
 21
474.999981
  0
LINE
  5
65F
100
AcDbEntity
  8
M1
 62
     2
100
AcDbLine
 10
333.33332
 20
474.999981
 11
333.33332
 21
16.666666
  0
LINE
  5
660
100
AcDbEntity
  8
M1
 62
     2
100
AcDbLine
 10
333.33332
 20
16.666666
 11
16.666666
 21
16.666666
  0
LINE
  5
661
100
AcDbEntity
  8
M1
 62
     2
100
AcDbLine
 10
333.33332
 20
33.333332
 11
166.66666
 21
33.333332
  0
LINE
  5
662
100
AcDbEntity
  8
M1
 62
     2
100
AcDbLine
 10
333.33332
 20
49.999998
 11
166.66666
 21
49.999998
  0
LINE
  5
663
100
AcDbEntity
  8
M1
 62
     2
100
AcDbLine
 10
333.33332
 20
66.666664
 11
166.66666
 21
66.666664
  0
LINE
  5
664
100
AcDbEntity
  8
M1
 62
     2
100
AcDbLine
 10
166.66666
 20
16.666666
 11
166.66666
 21
66.666664
  0
TEXT
  5
665
100
AcDbEntity
  8
M1
 62
     2
100
AcDbText
 10
170.833327
 20
20.833333
 40
8.333333
  1
適　用；
 41
1.0
  7
STANDARD
100
AcDbText
  0
TEXT
  5
666
100
AcDbEntity
  8
M1
 62
     2
100
AcDbText
 10
170.833327
 20
54.166665
 40
8.333333
  1
登録名：
 41
1.0
  7
STANDARD
100
AcDbText
  0
TEXT
  5
667
100
AcDbEntity
  8
M1
 62
     2
100
AcDbText
 10
210.833325
 20
54.166665
 40
8.333333
  1
ＤＭＨ１１ＲＴＲ００
 41
0.5
  7
STANDARD
100
AcDbText
  0
TEXT
  5
668
100
AcDbEntity
  8
M1
 62
     2
100
AcDbText
 10
170.833327
 20
37.499999
 40
8.333333
  1
形　式；
 41
1.0
  7
STANDARD
100
AcDbText
  0
TEXT
  5
669
100
AcDbEntity
  8
M1
 62
     2
100
AcDbText
 10
210.833325
 20
37.499999
 40
8.333333
  1
Ｈ１１－ＲＴ，Ｈ１１－ＲＴＫ
 41
0.5
  7
STANDARD
100
AcDbText
  0
LINE
  5
66A
100
AcDbEntity
  8
DN0
100
AcDbLine
 10
85.725757
 20
82.936755
 11
116.159084
 21
82.936755
  0
TEXT
  5
66B
100
AcDbEntity
  8
DN0
100
AcDbText
 10
86.567423
 20
83.686755
 40
7.5
  1
せん孔図
 41
0.833333
  7
STANDARD
100
AcDbText
  0
ENDSEC
  0
SECTION
  2
OBJECTS
  0
DICTIONARY
  5
C
100
AcDbDictionary
  3
ACAD_GROUP
350
D
  3
ACAD_MLINESTYLE
350
E
  0
DICTIONARY
  5
D
102
{ACAD_REACTORS
330
C
102
}
100
AcDbDictionary
  0
DICTIONARY
  5
E
102
{ACAD_REACTORS
330
C
102
}
100
AcDbDictionary
  3
STANDARD
350
13
  0
MLINESTYLE
  5
13
102
{ACAD_REACTORS
330
E
102
}
100
AcDbMlineStyle
  2
STANDARD
 70
     0
  3

 62
     0
 51
90.0
 52
90.0
 71
     2
 49
0.5
 62
   256
  6
BYLAYER
 49
-0.5
 62
   256
  6
BYLAYER
  0
ENDSEC
  0
EOF
