  0
SECTION
  2
HEADER
  9
$ACADVER
  1
AC1014
  9
$INSBASE
 10
0.000000
 20
0.000000
 30
0.0
  9
$VIEWCTR
 10
7.531722
 20
4.5
  9
$VIEWSIZE
 40
9.0
  9
$SNAPMODE
 70
     0
  9
$SNAPUNIT
 10
1.0
 20
1.0
  9
$SNAPBASE
 10
0.0
 20
0.0
  9
$SNAPANG
 50
0.0
  9
$SNAPSTYLE
 70
     0
  9
$SNAPISOPAIR
 70
     0
  9
$GRIDMODE
 70
     0
  9
$GRIDUNIT
 10
0.0
 20
0.0
  9
$ORTHOMODE
 70
     0
  9
$REGENMODE
 70
     1
  9
$FILLMODE
 70
     1
  9
$QTEXTMODE
 70
     0
  9
$DRAGMODE
 70
     2
  9
$LTSCALE
  40
     1.000000
  9
$OSMODE
 70
     0
  9
$ATTMODE
 70
     1
  9
$TEXTSIZE
 40
0.2
  9
$TRACEWID
 40
0.05
  9
$TEXTSTYLE
  7
STANDARD
  9
$CELTYPE
  6
BYLAYER
  9
$CECOLOR
 62
   256
  9
$DIMSCALE
 40
1.0
  9
$DIMASZ
 40
0.18
  9
$DIMEXO
 40
0.0625
  9
$DIMDLI
 40
0.38
  9
$DIMRND
 40
0.0
  9
$DIMDLE
 40
0.0
  9
$DIMEXE
 40
0.18
  9
$DIMTP
 40
0.0
  9
$DIMTM
 40
0.0
  9
$DIMTXT
 40
0.18
  9
$DIMCEN
 40
0.09
  9
$DIMTSZ
 40
0.0
  9
$DIMTOL
 70
     0
  9
$DIMLIM
 70
     0
  9
$DIMTIH
 70
     1
  9
$DIMTOH
 70
     1
  9
$DIMSE1
 70
     0
  9
$DIMSE2
 70
     0
  9
$DIMTAD
 70
     0
  9
$DIMZIN
 70
     0
  9
$DIMBLK
  1

  9
$LUNITS
 70
     2
  9
$LUPREC
 70
     4
  9
$AXISMODE
 70
     0
  9
$AXISUNIT
 10
0.0
 20
0.0
  9
$SKETCHINC
 40
0.1
  9
$FILLETRAD
 40
0.0
  9
$AUNITS
 70
     0
  9
$AUPREC
 70
     0
  9
$MENU
  1
ACAD
  9
$ELEVATION
 40
0.0
  9
$THICKNESS
 40
0.0
  9
$VIEWDIR
 10
0.0
 20
0.0
 30
1.0
  9
$LIMCHECK
 70
     0
  9
$BLIPMODE
 70
     1
  9
$CHAMFERA
 40
0.0
  9
$CHAMFERB
 40
0.0
  9
$FASTZOOM
 70
     1
  9
$SKPOLY
 70
     0
  9
$TDCREATE
 40
0000000.0000000000
  9
$TDUPDATE
 40
0000000.0000000000
  9
$TDINDWG
 40
0.0000000000
  9
$TDUSRTIMER
 40
0.0000000000
  9
$USRTIMER
 70
     1
  9
$ANGBASE
 50
0.0
  9
$ANGDIR
 70
     0
  9
$PDMODE
 70
     0
  9
$PDSIZE
 40
0.0
  9
$PLINEWID
 40
0.0
  9
$COORDS
 70
     0
  9
$USERI1
 70
     0
  9
$USERI2
 70
     0
  9
$USERI3
 70
     0
  9
$USERI4
 70
     0
  9
$USERI5
 70
     0
  9
$USERR1
 40
0.0
  9
$USERR2
 40
0.0
  9
$USERR3
 40
0.0
  9
$USERR4
 40
0.0
  9
$USERR5
 40
0.0
  9
$CLAYER
  8
M0
  9
$EXTMIN
 10
12.987013
 20
12.987013
  9
$EXTMAX
 10
259.740266
 20
370.129879
  9
$LIMMIN
 10
0.0
 20
0.0
  9
$LIMMAX
 10
210.0
 20
297.0
  9
$HANDSEED
  5
46F
  0
ENDSEC
  0
SECTION
  2
CLASSES
  0
ENDSEC
  0
SECTION
  2
TABLES
  0
TABLE
  2
VPORT
  5
8
100
AcDbSymbolTable
 70
     2
  0
VPORT
  5
14
100
AcDbSymbolTableRecord
100
AcDbViewportTableRecord
  2
*ACTIVE
 70
     0
 10
0.0
 20
0.0
 11
1.0
 21
1.0
 12
484.0
 22
297.0
 13
0.0
 23
0.0
 14
1.0
 24
1.0
 15
0.0
 25
0.0
 16
0.0
 26
0.0
 36
1.0
 17
0.0
 27
0.0
 37
0.0
 40
594.0
 41
2.0
 42
50.0
 43
0.0
 44
0.0
 50
0.0
 51
0.0
 71
     0
 72
   100
 73
     1
 74
     1
 75
     0
 76
     0
 77
     0
 78
     0
  0
ENDTAB
  0
TABLE
  2
LTYPE
  5
5
100
AcDbSymbolTable
 70
     5
  0
LTYPE
  5
15
100
AcDbSymbolTableRecord
100
AcDbLinetypeTableRecord
  2
BYBLOCK
 70
     0
  3

 72
    65
 73
     0
 40
0.0
  0
LTYPE
  5
16
100
AcDbSymbolTableRecord
100
AcDbLinetypeTableRecord
  2
BYLAYER
 70
     0
  3

 72
    65
 73
     0
 40
0.0
  0
LTYPE
  5
17
100
AcDbSymbolTableRecord
100
AcDbLinetypeTableRecord
  2
CONTINUOUS
 70
    64
  3
Solid line
 72
    65
 73
     0
 40
0.0
  0
LTYPE
  5
18
100
AcDbSymbolTableRecord
100
AcDbLinetypeTableRecord
  2
DASHED
 70
    64
  3
__ __ __ __ __ __ __ __ __ __ __ __ __ __ __ __
 72
    65
 73
     2
 40
0.75
 49
0.5
 74
     0
 49
-0.25
 74
     0
  0
LTYPE
  5
19
100
AcDbSymbolTableRecord
100
AcDbLinetypeTableRecord
  2
DASHDOT
 70
    64
  3
__ . __ . __ . __ . __ . __ . __ . __ . __ . __
 72
    65
 73
     4
 40
1.0
 49
0.5
 74
     0
 49
-0.25
 74
     0
 49
0.0
 74
     0
 49
-0.25
 74
     0
  0
LTYPE
  5
1A
100
AcDbSymbolTableRecord
100
AcDbLinetypeTableRecord
  2
DIVIDE
 70
    64
  3
____ . . ____ . . ____ . . ____ . . ____ . . __
 72
    65
 73
     6
 40
1.25
 49
0.5
 74
     0
 49
-0.25
 74
     0
 49
0.0
 74
     0
 49
-0.25
 74
     0
 49
0.0
 74
     0
 49
-0.25
 74
     0
  0
LTYPE
  5
1B
100
AcDbSymbolTableRecord
100
AcDbLinetypeTableRecord
  2
DOT
 70
    64
  3
. . . . . . . . . . . . . . . . . . . . . . . .
 72
    65
 73
     2
 40
0.25
 49
0.0
 74
     0
 49
-0.25
 74
     0
  0
ENDTAB
  0
TABLE
  2
LAYER
  5
2
100
AcDbSymbolTable
 70
   102
  0
LAYER
  5
F
100
AcDbSymbolTableRecord
100
AcDbLayerTableRecord
  2
0
 70
     0
 62
     7
  6
CONTINUOUS
  0
LAYER
  5
1C
100
AcDbSymbolTableRecord
100
AcDbLayerTableRecord
  2
DEFPOINTS
 70
     0
 62
     7
  6
CONTINUOUS
  0
LAYER
  5
1D
100
AcDbSymbolTableRecord
100
AcDbLayerTableRecord
  2
M0
 70
     0
 62
     3
  6
CONTINUOUS
  0
LAYER
  5
1E
100
AcDbSymbolTableRecord
100
AcDbLayerTableRecord
  2
M1
 70
     0
 62
     3
  6
CONTINUOUS
  0
LAYER
  5
1F
100
AcDbSymbolTableRecord
100
AcDbLayerTableRecord
  2
DD0
 70
     0
 62
     4
  6
CONTINUOUS
  0
LAYER
  5
20
100
AcDbSymbolTableRecord
100
AcDbLayerTableRecord
  2
DN0
 70
     0
 62
     2
  6
CONTINUOUS
  0
ENDTAB
  0
TABLE
  2
STYLE
  5
3
100
AcDbSymbolTable
 70
     2
  0
STYLE
  5
10
100
AcDbSymbolTableRecord
100
AcDbTextStyleTableRecord
  2
STANDARD
 70
     0
 40
0.0
 41
1.0
 50
0.0
 71
     0
 42
0.2
  3
txt
  4
BIGFONT
  0
ENDTAB
  0
TABLE
  2
VIEW
  5
6
100
AcDbSymbolTable
 70
     0
  0
ENDTAB
  0
TABLE
  2
UCS
  5
7
100
AcDbSymbolTable
 70
     0
  0
ENDTAB
  0
TABLE
  2
APPID
  5
9
100
AcDbSymbolTable
 70
     1
  0
APPID
  5
11
100
AcDbSymbolTableRecord
100
AcDbRegAppTableRecord
  2
ACAD
 70
     0
  0
ENDTAB
  0
TABLE
  2
DIMSTYLE
  5
A
100
AcDbSymbolTable
 70
     2
  0
DIMSTYLE
105
27
100
AcDbSymbolTableRecord
100
AcDbDimStyleTableRecord
  2
STANDARD
 70
     0
  3

  4

  5

  6
_OPEN
  7
_OPEN
 40
1.0
 41
3.896104
 42
1.0
 43
8.0
 44
1.0
 45
0.0
 46
0.0
 47
0.0
 48
0.0
140
4.090909
141
0.09
142
0.0
143
0.03937
144
1.0
145
0.0
146
1.0
147
0.6
 71
     0
 72
     0
 73
     1
 74
     1
 75
     0
 76
     0
 77
     3
 78
     8
170
     0
171
     2
172
     0
173
     1
174
     0
175
     0
176
     0
177
     0
178
     0
270
     2
271
     2
272
     4
273
     2
274
     2
340
10
275
     0
280
     0
281
     0
282
     0
283
     1
284
     0
285
     0
286
     0
287
     3
288
     0
  0
DIMSTYLE
105
28
100
AcDbSymbolTableRecord
100
AcDbDimStyleTableRecord
  2
LEADSTYL
 70
     0
  3

  4

  5

  6
_OPEN
  7
_OPEN
 40
1.0
 41
3.896104
 42
0.0625
 43
0.38
 44
0.18
 45
0.0
 46
0.0
 47
0.0
 48
0.0
140
4.090909
141
0.09
142
0.0
143
25.4
144
1.0
145
0.0
146
1.0
147
0.6
 71
     0
 72
     0
 73
     1
 74
     1
 75
     0
 76
     0
 77
     0
 78
     0
170
     0
171
     2
172
     0
173
     1
174
     0
175
     0
176
     0
177
     0
178
     0
270
     2
271
     4
272
     4
273
     2
274
     2
340
10
275
     0
280
     0
281
     0
282
     0
283
     1
284
     0
285
     0
286
     0
287
     3
288
     0
  0
ENDTAB
  0
TABLE
  2
BLOCK_RECORD
  5
1
100
AcDbSymbolTable
 70
    17
  0
BLOCK_RECORD
  5
21
100
AcDbSymbolTableRecord
100
AcDbBlockTableRecord
  2
*MODEL_SPACE
  0
BLOCK_RECORD
  5
24
100
AcDbSymbolTableRecord
100
AcDbBlockTableRecord
  2
*PAPER_SPACE
  0
BLOCK_RECORD
  5
29
100
AcDbSymbolTableRecord
100
AcDbBlockTableRecord
  2
_NONE
  0
BLOCK_RECORD
  5
2D
100
AcDbSymbolTableRecord
100
AcDbBlockTableRecord
  2
_OPEN
  0
BLOCK_RECORD
  5
33
100
AcDbSymbolTableRecord
100
AcDbBlockTableRecord
  2
_CLOSED
  0
BLOCK_RECORD
  5
3A
100
AcDbSymbolTableRecord
100
AcDbBlockTableRecord
  2
_ORIGIN
  0
BLOCK_RECORD
  5
3F
100
AcDbSymbolTableRecord
100
AcDbBlockTableRecord
  2
_DOT
  0
BLOCK_RECORD
  5
47
100
AcDbSymbolTableRecord
100
AcDbBlockTableRecord
  2
_OBLIQUE
  0
BLOCK_RECORD
  5
4B
100
AcDbSymbolTableRecord
100
AcDbBlockTableRecord
  2
DIMS0
  0
BLOCK_RECORD
  5
57
100
AcDbSymbolTableRecord
100
AcDbBlockTableRecord
  2
DIMS1
  0
BLOCK_RECORD
  5
63
100
AcDbSymbolTableRecord
100
AcDbBlockTableRecord
  2
DIMS2
  0
BLOCK_RECORD
  5
6F
100
AcDbSymbolTableRecord
100
AcDbBlockTableRecord
  2
DIMS3
  0
BLOCK_RECORD
  5
79
100
AcDbSymbolTableRecord
100
AcDbBlockTableRecord
  2
DIMS4
  0
BLOCK_RECORD
  5
85
100
AcDbSymbolTableRecord
100
AcDbBlockTableRecord
  2
DIMS5
  0
BLOCK_RECORD
  5
91
100
AcDbSymbolTableRecord
100
AcDbBlockTableRecord
  2
DIMS6
  0
BLOCK_RECORD
  5
9D
100
AcDbSymbolTableRecord
100
AcDbBlockTableRecord
  2
DIMS7
  0
BLOCK_RECORD
  5
A9
100
AcDbSymbolTableRecord
100
AcDbBlockTableRecord
  2
DIMS8
  0
BLOCK_RECORD
  5
B1
100
AcDbSymbolTableRecord
100
AcDbBlockTableRecord
  2
DIMS9
  0
BLOCK_RECORD
  5
BD
100
AcDbSymbolTableRecord
100
AcDbBlockTableRecord
  2
DIMS10
  0
ENDTAB
  0
ENDSEC
  0
SECTION
  2
BLOCKS
  0
BLOCK
  5
22
100
AcDbEntity
  8
0
100
AcDbBlockBegin
  2
*MODEL_SPACE
 70
     0
 10
0.0
 20
0.0
 30
0.0
  3
*MODEL_SPACE
  1

  0
ENDBLK
  5
23
100
AcDbEntity
  8
0
100
AcDbBlockEnd
  0
BLOCK
  5
25
100
AcDbEntity
 67
     1
  8
0
100
AcDbBlockBegin
  2
*PAPER_SPACE
 70
     0
 10
0.0
 20
0.0
 30
0.0
  3
*PAPER_SPACE
  1

  0
ENDBLK
  5
26
100
AcDbEntity
 67
     1
  8
0
100
AcDbBlockEnd
  0
BLOCK
  5
2A
100
AcDbEntity
  8
0
100
AcDbBlockBegin
  2
_NONE
 70
     0
 10
0.0
 20
0.0
  0
CIRCLE
  5
2B
100
AcDbEntity
  8
0
 62
     0
100
AcDbCircle
 10
0.0
 20
0.0
 40
0.25
  0
ENDBLK
  5
2C
100
AcDbEntity
  8
0
100
AcDbBlockEnd
  0
BLOCK
  5
2E
100
AcDbEntity
  8
0
100
AcDbBlockBegin
  2
_OPEN
 70
     0
 10
0.0
 20
0.0
  0
LINE
  5
2F
100
AcDbEntity
  8
0
 62
     0
100
AcDbLine
 10
-0.965926
 20
0.258819
 11
0.0
 21
0.0
  0
LINE
  5
30
100
AcDbEntity
  8
0
 62
     0
100
AcDbLine
 10
0.0
 20
0.0
 11
-0.965926
 21
-0.258819
  0
LINE
  5
31
100
AcDbEntity
  8
0
 62
     0
100
AcDbLine
 10
0.0
 20
0.0
 11
-1.0
 21
0.0
  0
ENDBLK
  5
32
100
AcDbEntity
  8
0
100
AcDbBlockEnd
  0
BLOCK
  5
34
100
AcDbEntity
  8
0
100
AcDbBlockBegin
  2
_CLOSED
 70
     0
 10
0.0
 20
0.0
  0
LINE
  5
35
100
AcDbEntity
  8
0
 62
     0
100
AcDbLine
 10
-0.965926
 20
0.258819
 11
0.0
 21
0.0
  0
LINE
  5
36
100
AcDbEntity
  8
0
 62
     0
100
AcDbLine
 10
0.0
 20
0.0
 11
-0.965926
 21
-0.258819
  0
LINE
  5
37
100
AcDbEntity
  8
0
 62
     0
100
AcDbLine
 10
-0.965926
 20
0.258819
 11
-0.965926
 21
-0.258819
  0
LINE
  5
38
100
AcDbEntity
  8
0
 62
     0
100
AcDbLine
 10
0.0
 20
0.0
 11
-1.0
 21
0.0
  0
ENDBLK
  5
39
100
AcDbEntity
  8
0
100
AcDbBlockEnd
  0
BLOCK
  5
3B
100
AcDbEntity
  8
0
100
AcDbBlockBegin
  2
_ORIGIN
 70
     0
 10
0.0
 20
0.0
  0
CIRCLE
  5
3C
100
AcDbEntity
  8
0
 62
     0
100
AcDbCircle
 10
0.0
 20
0.0
 40
0.5
  0
LINE
  5
3D
100
AcDbEntity
  8
0
 62
     0
100
AcDbLine
 10
0.0
 20
0.0
 11
-1.0
 21
0.0
  0
ENDBLK
  5
3E
100
AcDbEntity
  8
0
100
AcDbBlockEnd
  0
BLOCK
  5
40
100
AcDbEntity
  8
0
100
AcDbBlockBegin
  2
_DOT
 70
     0
 10
0.0
 20
0.0
  0
POLYLINE
  5
41
100
AcDbEntity
  8
0
 62
     0
100
AcDb2dPolyline
 66
     1
 70
     1
 40
0.5
 41
0.5
  0
VERTEX
  5
42
100
AcDbEntity
  8
0
 62
     0
100
AcDbVertex
100
AcDb2dVertex
 10
-0.25
 20
0.0
 42
1.0
  0
VERTEX
  5
43
100
AcDbEntity
  8
0
 62
     0
100
AcDbVertex
100
AcDb2dVertex
 10
0.25
 20
0.0
 42
1.0
  0
SEQEND
  5
44
100
AcDbEntity
  8
0
 62
     0
  0
LINE
  5
45
100
AcDbEntity
  8
0
 62
     0
100
AcDbLine
 10
-0.5
 20
0.0
 11
-1.0
 21
0.0
  0
ENDBLK
  5
46
100
AcDbEntity
  8
0
100
AcDbBlockEnd
  0
BLOCK
  5
48
100
AcDbEntity
  8
0
100
AcDbBlockBegin
  2
_OBLIQUE
 70
     0
 10
0.0
 20
0.0
  0
LINE
  5
49
100
AcDbEntity
  8
0
 62
     0
100
AcDbLine
 10
-0.353553
 20
-0.353553
 11
0.353553
 21
0.353553
  0
ENDBLK
  5
4A
100
AcDbEntity
  8
0
100
AcDbBlockEnd
  0
BLOCK
  5
4C
100
AcDbEntity
  8
DD0
100
AcDbBlockBegin
  2
DIMS0
 70
     0
 10
0.0
 20
0.0
  0
LINE
  5
4D
100
AcDbEntity
  8
DD0
100
AcDbLine
 10
230.631074
 20
257.833809
 11
230.631074
 21
193.31291
  0
LINE
  5
4E
100
AcDbEntity
  8
DD0
100
AcDbLine
 10
140.631097
 20
238.33377
 11
140.631097
 21
193.31291
  0
LINE
  5
4F
100
AcDbEntity
  8
DD0
100
AcDbLine
 10
226.867726
 20
193.603225
 11
230.631074
 21
194.611611
  0
LINE
  5
50
100
AcDbEntity
  8
DD0
100
AcDbLine
 10
230.631074
 20
194.611611
 11
226.867726
 21
195.619997
  0
LINE
  5
51
100
AcDbEntity
  8
DD0
100
AcDbLine
 10
144.394445
 20
195.619997
 11
140.631097
 21
194.611611
  0
LINE
  5
52
100
AcDbEntity
  8
DD0
100
AcDbLine
 10
140.631097
 20
194.611611
 11
144.394445
 21
193.603225
  0
LINE
  5
53
100
AcDbEntity
  8
DD0
100
AcDbLine
 10
230.631074
 20
194.611611
 11
140.631097
 21
194.611611
  0
TEXT
  5
54
100
AcDbEntity
  8
DD0
100
AcDbText
 10
181.874596
 20
195.39084
 40
4.090909
  1
９０
 41
0.833333
  7
STANDARD
100
AcDbText
  0
ENDBLK
  5
55
100
AcDbEntity
  8
DD0
100
AcDbBlockEnd
  0
BLOCK
  5
58
100
AcDbEntity
  8
DD0
100
AcDbBlockBegin
  2
DIMS1
 70
     0
 10
0.0
 20
0.0
  0
LINE
  5
59
100
AcDbEntity
  8
DD0
100
AcDbLine
 10
230.631074
 20
325.431217
 11
230.631074
 21
341.238015
  0
LINE
  5
5A
100
AcDbEntity
  8
DD0
100
AcDbLine
 10
151.431139
 20
318.931171
 11
151.431139
 21
341.238015
  0
LINE
  5
5B
100
AcDbEntity
  8
DD0
100
AcDbLine
 10
226.867726
 20
338.930928
 11
230.631074
 21
339.939314
  0
LINE
  5
5C
100
AcDbEntity
  8
DD0
100
AcDbLine
 10
230.631074
 20
339.939314
 11
226.867726
 21
340.9477
  0
LINE
  5
5D
100
AcDbEntity
  8
DD0
100
AcDbLine
 10
155.194487
 20
340.9477
 11
151.431139
 21
339.939314
  0
LINE
  5
5E
100
AcDbEntity
  8
DD0
100
AcDbLine
 10
151.431139
 20
339.939314
 11
155.194487
 21
338.930928
  0
LINE
  5
5F
100
AcDbEntity
  8
DD0
100
AcDbLine
 10
230.631074
 20
339.939314
 11
151.431139
 21
339.939314
  0
TEXT
  5
60
100
AcDbEntity
  8
DD0
100
AcDbText
 10
187.274622
 20
340.718543
 40
4.090909
  1
７９
 41
0.833333
  7
STANDARD
100
AcDbText
  0
ENDBLK
  5
61
100
AcDbEntity
  8
DD0
100
AcDbBlockEnd
  0
BLOCK
  5
64
100
AcDbEntity
  8
DD0
100
AcDbBlockBegin
  2
DIMS2
 70
     0
 10
0.0
 20
0.0
  0
LINE
  5
65
100
AcDbEntity
  8
DD0
100
AcDbLine
 10
220.631077
 20
325.431198
 11
220.631077
 21
330.624834
  0
LINE
  5
66
100
AcDbEntity
  8
DD0
 60
     1
100
AcDbLine
 10
230.631074
 20
325.431217
 11
230.631074
 21
330.624834
  0
LINE
  5
67
100
AcDbEntity
  8
DD0
100
AcDbLine
 10
224.394425
 20
330.334518
 11
220.631077
 21
329.326132
  0
LINE
  5
68
100
AcDbEntity
  8
DD0
100
AcDbLine
 10
220.631077
 20
329.326132
 11
224.394425
 21
328.317747
  0
LINE
  5
69
100
AcDbEntity
  8
DD0
100
AcDbLine
 10
226.867726
 20
328.317747
 11
230.631074
 21
329.326132
  0
LINE
  5
6A
100
AcDbEntity
  8
DD0
100
AcDbLine
 10
230.631074
 20
329.326132
 11
226.867726
 21
330.334518
  0
LINE
  5
6B
100
AcDbEntity
  8
DD0
100
AcDbLine
 10
220.631077
 20
329.326132
 11
230.631074
 21
329.326132
  0
TEXT
  5
6C
100
AcDbEntity
  8
DD0
100
AcDbText
 10
221.874601
 20
330.105361
 40
4.090909
  1
１０
 41
0.833333
  7
STANDARD
100
AcDbText
  0
ENDBLK
  5
6D
100
AcDbEntity
  8
DD0
100
AcDbBlockEnd
  0
BLOCK
  5
70
100
AcDbEntity
  8
DD0
100
AcDbBlockBegin
  2
DIMS3
 70
     0
 10
0.0
 20
0.0
  0
LINE
  5
71
100
AcDbEntity
  8
DD0
 60
     1
100
AcDbLine
 10
151.431139
 20
318.931171
 11
151.431139
 21
341.238015
  0
LINE
  5
72
100
AcDbEntity
  8
DD0
100
AcDbLine
 10
147.431097
 20
294.931216
 11
147.431097
 21
341.238015
  0
LINE
  5
73
100
AcDbEntity
  8
DD0
100
AcDbLine
 10
143.66775
 20
338.930928
 11
147.431097
 21
339.939314
  0
LINE
  5
74
100
AcDbEntity
  8
DD0
100
AcDbLine
 10
147.431097
 20
339.939314
 11
143.66775
 21
340.9477
  0
LINE
  5
75
100
AcDbEntity
  8
DD0
100
AcDbLine
 10
151.431139
 20
339.939314
 11
143.145383
 21
339.939314
  0
TEXT
  5
76
100
AcDbEntity
  8
DD0
100
AcDbText
 10
147.720085
 20
340.718543
 40
4.090909
  1
４
 41
0.833333
  7
STANDARD
100
AcDbText
  0
ENDBLK
  5
77
100
AcDbEntity
  8
DD0
100
AcDbBlockEnd
  0
BLOCK
  5
7A
100
AcDbEntity
  8
DD0
100
AcDbBlockBegin
  2
DIMS4
 70
     0
 10
0.0
 20
0.0
  0
LINE
  5
7B
100
AcDbEntity
  8
DD0
100
AcDbLine
 10
106.872165
 20
324.931165
 11
106.872165
 21
341.238015
  0
LINE
  5
7C
100
AcDbEntity
  8
DD0
100
AcDbLine
 10
53.872167
 20
321.431116
 11
53.872167
 21
341.238015
  0
LINE
  5
7D
100
AcDbEntity
  8
DD0
100
AcDbLine
 10
103.108817
 20
338.930928
 11
106.872165
 21
339.939314
  0
LINE
  5
7E
100
AcDbEntity
  8
DD0
100
AcDbLine
 10
106.872165
 20
339.939314
 11
103.108817
 21
340.9477
  0
LINE
  5
7F
100
AcDbEntity
  8
DD0
100
AcDbLine
 10
57.635514
 20
340.9477
 11
53.872167
 21
339.939314
  0
LINE
  5
80
100
AcDbEntity
  8
DD0
100
AcDbLine
 10
53.872167
 20
339.939314
 11
57.635514
 21
338.930928
  0
LINE
  5
81
100
AcDbEntity
  8
DD0
100
AcDbLine
 10
106.872165
 20
339.939314
 11
53.872167
 21
339.939314
  0
TEXT
  5
82
100
AcDbEntity
  8
DD0
100
AcDbText
 10
76.615672
 20
340.718543
 40
4.090909
  1
５３
 41
0.833333
  7
STANDARD
100
AcDbText
  0
ENDBLK
  5
83
100
AcDbEntity
  8
DD0
100
AcDbBlockEnd
  0
BLOCK
  5
86
100
AcDbEntity
  8
DD0
100
AcDbBlockBegin
  2
DIMS5
 70
     0
 10
0.0
 20
0.0
  0
LINE
  5
87
100
AcDbEntity
  8
DD0
100
AcDbLine
 10
52.872171
 20
256.931182
 11
52.872171
 21
341.238015
  0
LINE
  5
88
100
AcDbEntity
  8
DD0
100
AcDbLine
 10
53.872167
 20
321.431116
 11
53.872167
 21
341.238015
  0
LINE
  5
89
100
AcDbEntity
  8
DD0
100
AcDbLine
 10
49.108824
 20
338.930928
 11
52.872171
 21
339.939314
  0
LINE
  5
8A
100
AcDbEntity
  8
DD0
100
AcDbLine
 10
52.872171
 20
339.939314
 11
49.108824
 21
340.9477
  0
LINE
  5
8B
100
AcDbEntity
  8
DD0
100
AcDbLine
 10
57.635514
 20
340.9477
 11
53.872167
 21
339.939314
  0
LINE
  5
8C
100
AcDbEntity
  8
DD0
100
AcDbLine
 10
53.872167
 20
339.939314
 11
57.635514
 21
338.930928
  0
LINE
  5
8D
100
AcDbEntity
  8
DD0
100
AcDbLine
 10
42.914788
 20
339.939314
 11
58.157881
 21
339.939314
  0
TEXT
  5
8E
100
AcDbEntity
  8
DD0
100
AcDbText
 10
44.54833
 20
334.54052
 40
4.090909
  1
１
 50
0.004542
 41
0.833333
  7
STANDARD
100
AcDbText
  0
ENDBLK
  5
8F
100
AcDbEntity
  8
DD0
100
AcDbBlockEnd
  0
BLOCK
  5
92
100
AcDbEntity
  8
DD0
100
AcDbBlockBegin
  2
DIMS6
 70
     0
 10
0.0
 20
0.0
  0
LINE
  5
93
100
AcDbEntity
  8
DD0
100
AcDbLine
 10
107.670873
 20
324.132457
 11
120.802736
 21
324.132457
  0
LINE
  5
94
100
AcDbEntity
  8
DD0
100
AcDbLine
 10
84.670874
 20
205.132487
 11
120.802736
 21
205.132487
  0
LINE
  5
95
100
AcDbEntity
  8
DD0
100
AcDbLine
 10
120.512421
 20
320.369109
 11
119.504035
 21
324.132457
  0
LINE
  5
96
100
AcDbEntity
  8
DD0
100
AcDbLine
 10
119.504035
 20
324.132457
 11
118.495649
 21
320.369109
  0
LINE
  5
97
100
AcDbEntity
  8
DD0
100
AcDbLine
 10
118.495649
 20
208.895835
 11
119.504035
 21
205.132487
  0
LINE
  5
98
100
AcDbEntity
  8
DD0
100
AcDbLine
 10
119.504035
 20
205.132487
 11
120.512421
 21
208.895835
  0
LINE
  5
99
100
AcDbEntity
  8
DD0
100
AcDbLine
 10
119.504035
 20
324.132457
 11
119.504035
 21
205.132487
  0
TEXT
  5
9A
100
AcDbEntity
  8
DD0
100
AcDbText
 10
118.724816
 20
258.830517
 40
4.090909
  1
１１９
 50
90.000003
 41
0.833333
  7
STANDARD
100
AcDbText
  0
ENDBLK
  5
9B
100
AcDbEntity
  8
DD0
100
AcDbBlockEnd
  0
BLOCK
  5
9E
100
AcDbEntity
  8
DD0
100
AcDbBlockBegin
  2
DIMS7
 70
     0
 10
0.0
 20
0.0
  0
LINE
  5
9F
100
AcDbEntity
  8
DD0
100
AcDbLine
 10
108.170866
 20
167.225195
 11
120.802736
 21
167.225195
  0
LINE
  5
A0
100
AcDbEntity
  8
DD0
100
AcDbLine
 10
68.768268
 20
162.225167
 11
120.802736
 21
162.225167
  0
LINE
  5
A1
100
AcDbEntity
  8
DD0
100
AcDbLine
 10
118.495649
 20
170.988543
 11
119.504035
 21
167.225195
  0
LINE
  5
A2
100
AcDbEntity
  8
DD0
100
AcDbLine
 10
119.504035
 20
167.225195
 11
120.512421
 21
170.988543
  0
LINE
  5
A3
100
AcDbEntity
  8
DD0
100
AcDbLine
 10
120.512421
 20
158.46182
 11
119.504035
 21
162.225167
  0
LINE
  5
A4
100
AcDbEntity
  8
DD0
100
AcDbLine
 10
119.504035
 20
162.225167
 11
118.495649
 21
158.46182
  0
LINE
  5
A5
100
AcDbEntity
  8
DD0
100
AcDbLine
 10
119.504035
 20
176.90052
 11
119.504035
 21
157.939453
  0
TEXT
  5
A6
100
AcDbEntity
  8
DD0
100
AcDbText
 10
118.724816
 20
171.845331
 40
4.090909
  1
５
 50
90.000003
 41
0.833333
  7
STANDARD
100
AcDbText
  0
ENDBLK
  5
A7
100
AcDbEntity
  8
DD0
100
AcDbBlockEnd
  0
BLOCK
  5
AA
100
AcDbEntity
  8
DD0
100
AcDbBlockBegin
  2
DIMS8
 70
     0
 10
0.0
 20
0.0
  0
LINE
  5
AB
100
AcDbEntity
  8
DD0
100
AcDbLine
 10
58.937889
 20
157.688262
 11
61.362771
 21
160.737782
  0
LINE
  5
AC
100
AcDbEntity
  8
DD0
100
AcDbLine
 10
61.362771
 20
160.737782
 11
57.738001
 21
159.309262
  0
LINE
  5
AD
100
AcDbEntity
  8
DD0
100
AcDbLine
 10
61.362771
 20
160.737782
 11
47.637951
 21
150.57847
  0
TEXT
  5
AE
100
AcDbEntity
  8
DD0
100
AcDbText
 10
24.984917
 20
146.351597
 40
4.090909
  1
２－Ｍ４ねじ穴
 41
0.666667
  7
STANDARD
100
AcDbText
  0
ENDBLK
  5
AF
100
AcDbEntity
  8
DD0
100
AcDbBlockEnd
  0
BLOCK
  5
B2
100
AcDbEntity
  8
DD0
100
AcDbBlockBegin
  2
DIMS9
 70
     0
 10
0.0
 20
0.0
  0
LINE
  5
B3
100
AcDbEntity
  8
DD0
100
AcDbLine
 10
102.268271
 20
107.225188
 11
120.802736
 21
107.225188
  0
LINE
  5
B4
100
AcDbEntity
  8
DD0
100
AcDbLine
 10
68.768268
 20
162.225167
 11
120.802736
 21
162.225167
  0
LINE
  5
B5
100
AcDbEntity
  8
DD0
100
AcDbLine
 10
118.495649
 20
110.988535
 11
119.504035
 21
107.225188
  0
LINE
  5
B6
100
AcDbEntity
  8
DD0
100
AcDbLine
 10
119.504035
 20
107.225188
 11
120.512421
 21
110.988535
  0
LINE
  5
B7
100
AcDbEntity
  8
DD0
100
AcDbLine
 10
120.512421
 20
158.46182
 11
119.504035
 21
162.225167
  0
LINE
  5
B8
100
AcDbEntity
  8
DD0
100
AcDbLine
 10
119.504035
 20
162.225167
 11
118.495649
 21
158.46182
  0
LINE
  5
B9
100
AcDbEntity
  8
DD0
100
AcDbLine
 10
119.504035
 20
107.225188
 11
119.504035
 21
162.225167
  0
TEXT
  5
BA
100
AcDbEntity
  8
DD0
100
AcDbText
 10
118.724816
 20
130.968689
 40
4.090909
  1
５５
 50
90.000003
 41
0.833333
  7
STANDARD
100
AcDbText
  0
ENDBLK
  5
BB
100
AcDbEntity
  8
DD0
100
AcDbBlockEnd
  0
BLOCK
  5
BE
100
AcDbEntity
  8
DD0
100
AcDbBlockBegin
  2
DIMS10
 70
     0
 10
0.0
 20
0.0
  0
LINE
  5
BF
100
AcDbEntity
  8
DD0
100
AcDbLine
 10
63.37215
 20
167.62127
 11
63.37215
 21
183.437302
  0
LINE
  5
C0
100
AcDbEntity
  8
DD0
100
AcDbLine
 10
96.372156
 20
113.121283
 11
96.372156
 21
183.437302
  0
LINE
  5
C1
100
AcDbEntity
  8
DD0
100
AcDbLine
 10
67.135498
 20
183.146987
 11
63.37215
 21
182.138601
  0
LINE
  5
C2
100
AcDbEntity
  8
DD0
100
AcDbLine
 10
63.37215
 20
182.138601
 11
67.135498
 21
181.130215
  0
LINE
  5
C3
100
AcDbEntity
  8
DD0
100
AcDbLine
 10
92.608808
 20
181.130215
 11
96.372156
 21
182.138601
  0
LINE
  5
C4
100
AcDbEntity
  8
DD0
100
AcDbLine
 10
96.372156
 20
182.138601
 11
92.608808
 21
183.146987
  0
LINE
  5
C5
100
AcDbEntity
  8
DD0
100
AcDbLine
 10
63.37215
 20
182.138601
 11
96.372156
 21
182.138601
  0
TEXT
  5
C6
100
AcDbEntity
  8
DD0
100
AcDbText
 10
76.115659
 20
182.91783
 40
4.090909
  1
３３
 41
0.833333
  7
STANDARD
100
AcDbText
  0
ENDBLK
  5
C7
100
AcDbEntity
  8
DD0
100
AcDbBlockEnd
  0
ENDSEC
  0
SECTION
  2
ENTITIES
  0
INSERT
  5
56
100
AcDbEntity
  8
DD0
100
AcDbBlockReference
  2
DIMS0
 10
0.0
 20
0.0
  0
INSERT
  5
62
100
AcDbEntity
  8
DD0
100
AcDbBlockReference
  2
DIMS1
 10
0.0
 20
0.0
  0
INSERT
  5
6E
100
AcDbEntity
  8
DD0
100
AcDbBlockReference
  2
DIMS2
 10
0.0
 20
0.0
  0
INSERT
  5
78
100
AcDbEntity
  8
DD0
100
AcDbBlockReference
  2
DIMS3
 10
0.0
 20
0.0
  0
INSERT
  5
84
100
AcDbEntity
  8
DD0
100
AcDbBlockReference
  2
DIMS4
 10
0.0
 20
0.0
  0
INSERT
  5
90
100
AcDbEntity
  8
DD0
100
AcDbBlockReference
  2
DIMS5
 10
0.0
 20
0.0
  0
INSERT
  5
9C
100
AcDbEntity
  8
DD0
100
AcDbBlockReference
  2
DIMS6
 10
0.0
 20
0.0
  0
INSERT
  5
A8
100
AcDbEntity
  8
DD0
100
AcDbBlockReference
  2
DIMS7
 10
0.0
 20
0.0
  0
INSERT
  5
B0
100
AcDbEntity
  8
DD0
100
AcDbBlockReference
  2
DIMS8
 10
0.0
 20
0.0
  0
INSERT
  5
BC
100
AcDbEntity
  8
DD0
100
AcDbBlockReference
  2
DIMS9
 10
0.0
 20
0.0
  0
INSERT
  5
C8
100
AcDbEntity
  8
DD0
100
AcDbBlockReference
  2
DIMS10
 10
0.0
 20
0.0
  0
LINE
  5
C9
100
AcDbEntity
  8
M0
 62
     7
100
AcDbLine
 10
220.631079
 20
259.132517
 11
220.631079
 21
270.632502
  0
LINE
  5
CA
100
AcDbEntity
  8
M0
 62
     7
100
AcDbLine
 10
211.73107
 20
266.132517
 11
211.73107
 21
262.132517
  0
LINE
  5
CB
100
AcDbEntity
  8
M0
 62
     7
100
AcDbLine
 10
216.23107
 20
266.132517
 11
216.23107
 21
261.132517
  0
LINE
  5
CC
100
AcDbEntity
  8
M0
 62
     7
100
AcDbLine
 10
212.73107
 20
261.132517
 11
216.23107
 21
261.132517
  0
ARC
  5
CD
100
AcDbEntity
  8
M0
 62
     7
100
AcDbCircle
 10
212.73107
 20
262.132517
 40
1.0
100
AcDbArc
 50
179.999945
 51
270.0
  0
LINE
  5
CE
100
AcDbEntity
  8
M0
 62
     7
100
AcDbLine
 10
201.631079
 20
271.632517
 11
219.631079
 21
271.632517
  0
ARC
  5
CF
100
AcDbEntity
  8
M0
 62
     7
100
AcDbCircle
 10
219.631079
 20
270.632517
 40
1.0
100
AcDbArc
 50
0.0
 51
90.0
  0
ARC
  5
D0
100
AcDbEntity
  8
M0
 62
     7
100
AcDbCircle
 10
211.23107
 20
266.132517
 40
0.5
100
AcDbArc
 50
0.0
 51
90.0
  0
ARC
  5
D1
100
AcDbEntity
  8
M0
 62
     7
100
AcDbCircle
 10
211.23107
 20
265.17956
 40
0.5
100
AcDbArc
 50
0.0
 51
84.348228
  0
LINE
  5
D2
100
AcDbEntity
  8
M0
 62
     7
100
AcDbLine
 10
220.631079
 20
259.132517
 11
230.631079
 21
259.132517
  0
LINE
  5
D3
100
AcDbEntity
  8
M0
 62
     7
100
AcDbLine
 10
230.631079
 20
259.132517
 11
230.631064
 21
272.982523
  0
LINE
  5
D4
100
AcDbEntity
  8
M0
 62
     7
100
AcDbLine
 10
230.631079
 20
324.132517
 11
220.631079
 21
324.132502
  0
LINE
  5
D5
100
AcDbEntity
  8
M0
 62
     7
100
AcDbLine
 10
201.631079
 20
317.632517
 11
201.631079
 21
297.632517
  0
LINE
  5
D6
100
AcDbEntity
  8
M0
  6
DASHDOT
 62
     7
100
AcDbLine
 10
201.631079
 20
291.632517
 11
233.131079
 21
291.632517
  0
LINE
  5
D7
100
AcDbEntity
  8
M0
 62
     7
100
AcDbLine
 10
201.631079
 20
297.632517
 11
201.631079
 21
265.632517
  0
LINE
  5
D8
100
AcDbEntity
  8
M0
 62
     7
100
AcDbLine
 10
201.631079
 20
317.632517
 11
230.631079
 21
317.632517
  0
LINE
  5
D9
100
AcDbEntity
  8
M0
 62
     7
100
AcDbLine
 10
230.331076
 20
273.282511
 11
230.331076
 21
273.982508
  0
LINE
  5
DA
100
AcDbEntity
  8
M0
 62
     7
100
AcDbLine
 10
225.831076
 20
273.982523
 11
229.631079
 21
273.982523
  0
LINE
  5
DB
100
AcDbEntity
  8
M0
 62
     7
100
AcDbLine
 10
225.831076
 20
309.282511
 11
230.631079
 21
309.282511
  0
LINE
  5
DC
100
AcDbEntity
  8
M0
 62
     7
100
AcDbLine
 10
226.831076
 20
274.482523
 11
226.931006
 21
274.482523
  0
LINE
  5
DD
100
AcDbEntity
  8
M0
 62
     7
100
AcDbLine
 10
226.931006
 20
275.982523
 11
227.931006
 21
275.982523
  0
LINE
  5
DE
100
AcDbEntity
  8
M0
 62
     7
100
AcDbLine
 10
230.631079
 20
309.282511
 11
230.631079
 21
324.132517
  0
LINE
  5
DF
100
AcDbEntity
  8
M0
 62
     7
100
AcDbLine
 10
227.631049
 20
307.282511
 11
228.631049
 21
307.282511
  0
LINE
  5
E0
100
AcDbEntity
  8
M0
 62
     7
100
AcDbLine
 10
228.631064
 20
307.282511
 11
230.331076
 21
309.282511
  0
LINE
  5
E1
100
AcDbEntity
  8
M0
 62
     7
100
AcDbLine
 10
227.631064
 20
307.282511
 11
226.931067
 21
309.282511
  0
LINE
  5
E2
100
AcDbEntity
  8
M0
 62
     7
100
AcDbLine
 10
226.931006
 20
275.982523
 11
226.931006
 21
274.482523
  0
LINE
  5
E3
100
AcDbEntity
  8
M0
 62
     7
100
AcDbLine
 10
201.631079
 20
266.632517
 11
220.631079
 21
266.632517
  0
LINE
  5
E4
100
AcDbEntity
  8
M0
 62
     7
100
AcDbLine
 10
201.631079
 20
265.632517
 11
211.442786
 21
265.632517
  0
ARC
  5
E5
100
AcDbEntity
  8
M0
 62
     7
100
AcDbCircle
 10
216.73107
 20
266.132517
 40
0.5
100
AcDbArc
 50
90.0
 51
179.999966
  0
ARC
  5
E6
100
AcDbEntity
  8
M0
 62
     7
100
AcDbCircle
 10
216.73107
 20
265.132517
 40
0.5
100
AcDbArc
 50
90.0
 51
179.999959
  0
LINE
  5
E7
100
AcDbEntity
  8
M0
 62
     7
100
AcDbLine
 10
216.73107
 20
265.632517
 11
220.631079
 21
265.632517
  0
LINE
  5
E8
100
AcDbEntity
  8
M0
 62
     7
100
AcDbLine
 10
220.631079
 20
324.132502
 11
220.631079
 21
317.632517
  0
LINE
  5
E9
100
AcDbEntity
  8
M0
 62
     7
100
AcDbLine
 10
225.831076
 20
273.982523
 11
225.831076
 21
309.282511
  0
LINE
  5
EA
100
AcDbEntity
  8
M0
 62
     7
100
AcDbLine
 10
229.631079
 20
273.982523
 11
230.631064
 21
272.982523
  0
LINE
  5
EB
100
AcDbEntity
  8
M0
 62
     7
100
AcDbLine
 10
227.931006
 20
275.982523
 11
227.931006
 21
273.982523
  0
LINE
  5
EC
100
AcDbEntity
  8
M0
 62
     7
100
AcDbLine
 10
230.331076
 20
273.982508
 11
227.931006
 21
275.982523
  0
ARC
  5
ED
100
AcDbEntity
  8
M0
 62
     6
100
AcDbCircle
 10
60.372153
 20
263.632532
 40
3.0
100
AcDbArc
 50
228.19007
 51
497.166645
  0
LINE
  5
EE
100
AcDbEntity
  8
M0
 62
     6
100
AcDbLine
 10
63.468832
 20
267.132441
 11
64.147147
 21
264.932581
  0
LINE
  5
EF
100
AcDbEntity
  8
M0
 62
     6
100
AcDbLine
 10
63.330878
 20
259.685267
 11
64.147147
 21
262.332606
  0
LINE
  5
F0
100
AcDbEntity
  8
M0
 62
     6
100
AcDbLine
 10
57.891196
 20
259.332606
 11
59.171957
 21
259.332606
  0
LINE
  5
F1
100
AcDbEntity
  8
M0
 62
     6
100
AcDbLine
 10
64.147147
 20
262.332606
 11
64.147147
 21
264.932581
  0
LINE
  5
F2
100
AcDbEntity
  8
M0
  6
DASHDOT
 62
     6
100
AcDbLine
 10
58.345068
 20
263.632532
 11
66.647147
 21
263.632532
  0
LINE
  5
F3
100
AcDbEntity
  8
M0
  6
DASHDOT
 62
     6
100
AcDbLine
 10
60.372153
 20
256.832621
 11
60.372153
 21
270.432581
  0
ARC
  5
F4
100
AcDbEntity
  8
M0
 62
     6
100
AcDbCircle
 10
62.853064
 20
259.832606
 40
0.5
100
AcDbArc
 50
270.0
 51
342.861653
  0
LINE
  5
F5
100
AcDbEntity
  8
M0
 62
     6
100
AcDbLine
 10
58.372183
 20
259.332606
 11
62.853064
 21
259.332606
  0
CIRCLE
  5
F6
100
AcDbEntity
  8
M0
 62
     6
100
AcDbCircle
 10
60.372153
 20
271.632532
 40
3.0
  0
LINE
  5
F7
100
AcDbEntity
  8
M0
 62
     6
100
AcDbLine
 10
57.413397
 20
275.579874
 11
56.597144
 21
272.932581
  0
LINE
  5
F8
100
AcDbEntity
  8
M0
 62
     6
100
AcDbLine
 10
57.413397
 20
267.685282
 11
56.597144
 21
270.332606
  0
LINE
  5
F9
100
AcDbEntity
  8
M0
 62
     6
100
AcDbLine
 10
63.330878
 20
275.57989
 11
64.147147
 21
272.932581
  0
LINE
  5
FA
100
AcDbEntity
  8
M0
 62
     6
100
AcDbLine
 10
63.330878
 20
267.685267
 11
64.147147
 21
270.332606
  0
LINE
  5
FB
100
AcDbEntity
  8
M0
 62
     6
100
AcDbLine
 10
57.891196
 20
267.332606
 11
62.853064
 21
267.332606
  0
LINE
  5
FC
100
AcDbEntity
  8
M0
 62
     6
100
AcDbLine
 10
64.147147
 20
270.332606
 11
64.147147
 21
272.932581
  0
LINE
  5
FD
100
AcDbEntity
  8
M0
 62
     6
100
AcDbLine
 10
62.853064
 20
275.932581
 11
57.891196
 21
275.932566
  0
LINE
  5
FE
100
AcDbEntity
  8
M0
 62
     6
100
AcDbLine
 10
56.597144
 20
272.932581
 11
56.597144
 21
270.332606
  0
LINE
  5
FF
100
AcDbEntity
  8
M0
  6
DASHDOT
 62
     6
100
AcDbLine
 10
54.097144
 20
271.632532
 11
66.647147
 21
271.632532
  0
LINE
  5
100
100
AcDbEntity
  8
M0
  6
DASHDOT
 62
     6
100
AcDbLine
 10
60.372153
 20
264.832621
 11
60.372153
 21
278.432581
  0
LINE
  5
101
100
AcDbEntity
  8
M0
 62
     6
100
AcDbLine
 10
61.962927
 20
270.041712
 11
58.781119
 21
273.223475
  0
LINE
  5
102
100
AcDbEntity
  8
M0
 62
     6
100
AcDbLine
 10
60.725562
 20
273.046717
 11
58.957892
 21
271.279017
  0
LINE
  5
103
100
AcDbEntity
  8
M0
 62
     6
100
AcDbLine
 10
61.78617
 20
271.986048
 11
60.018546
 21
270.21847
  0
ARC
  5
104
100
AcDbEntity
  8
M0
 62
     6
100
AcDbCircle
 10
57.891196
 20
275.432566
 40
0.5
100
AcDbArc
 50
90.0
 51
162.865663
  0
ARC
  5
105
100
AcDbEntity
  8
M0
 62
     6
100
AcDbCircle
 10
57.891196
 20
267.832606
 40
0.5
100
AcDbArc
 50
197.137551
 51
270.0
  0
ARC
  5
106
100
AcDbEntity
  8
M0
 62
     6
100
AcDbCircle
 10
62.853064
 20
267.832606
 40
0.5
100
AcDbArc
 50
270.0
 51
342.861653
  0
ARC
  5
107
100
AcDbEntity
  8
M0
 62
     6
100
AcDbCircle
 10
62.853064
 20
275.432566
 40
0.5
100
AcDbArc
 50
17.134787
 51
90.0
  0
CIRCLE
  5
108
100
AcDbEntity
  8
M0
 62
     6
100
AcDbCircle
 10
70.372153
 20
271.632532
 40
3.0
  0
LINE
  5
109
100
AcDbEntity
  8
M0
 62
     6
100
AcDbLine
 10
67.413397
 20
275.579874
 11
66.597144
 21
272.932581
  0
LINE
  5
10A
100
AcDbEntity
  8
M0
 62
     6
100
AcDbLine
 10
67.413397
 20
267.685282
 11
66.597144
 21
270.332606
  0
LINE
  5
10B
100
AcDbEntity
  8
M0
 62
     6
100
AcDbLine
 10
73.330878
 20
275.57989
 11
74.147147
 21
272.932581
  0
LINE
  5
10C
100
AcDbEntity
  8
M0
 62
     6
100
AcDbLine
 10
73.330878
 20
267.685267
 11
74.147147
 21
270.332606
  0
LINE
  5
10D
100
AcDbEntity
  8
M0
 62
     6
100
AcDbLine
 10
67.891196
 20
267.332606
 11
72.853064
 21
267.332606
  0
LINE
  5
10E
100
AcDbEntity
  8
M0
 62
     6
100
AcDbLine
 10
74.147147
 20
270.332606
 11
74.147147
 21
272.932581
  0
LINE
  5
10F
100
AcDbEntity
  8
M0
 62
     6
100
AcDbLine
 10
72.853064
 20
275.932581
 11
67.891196
 21
275.932566
  0
LINE
  5
110
100
AcDbEntity
  8
M0
 62
     6
100
AcDbLine
 10
66.597144
 20
272.932581
 11
66.597144
 21
270.332606
  0
LINE
  5
111
100
AcDbEntity
  8
M0
  6
DASHDOT
 62
     6
100
AcDbLine
 10
64.097144
 20
271.632532
 11
76.647147
 21
271.632532
  0
LINE
  5
112
100
AcDbEntity
  8
M0
  6
DASHDOT
 62
     6
100
AcDbLine
 10
70.372153
 20
264.832621
 11
70.372153
 21
278.432581
  0
LINE
  5
113
100
AcDbEntity
  8
M0
 62
     6
100
AcDbLine
 10
71.962927
 20
270.041712
 11
68.781119
 21
273.223475
  0
LINE
  5
114
100
AcDbEntity
  8
M0
 62
     6
100
AcDbLine
 10
70.725562
 20
273.046717
 11
68.957892
 21
271.279017
  0
LINE
  5
115
100
AcDbEntity
  8
M0
 62
     6
100
AcDbLine
 10
71.78617
 20
271.986048
 11
70.018546
 21
270.21847
  0
ARC
  5
116
100
AcDbEntity
  8
M0
 62
     6
100
AcDbCircle
 10
67.891196
 20
275.432566
 40
0.5
100
AcDbArc
 50
90.0
 51
162.865663
  0
ARC
  5
117
100
AcDbEntity
  8
M0
 62
     6
100
AcDbCircle
 10
67.891196
 20
267.832606
 40
0.5
100
AcDbArc
 50
197.137551
 51
270.0
  0
ARC
  5
118
100
AcDbEntity
  8
M0
 62
     6
100
AcDbCircle
 10
72.853064
 20
267.832606
 40
0.5
100
AcDbArc
 50
270.0
 51
342.861653
  0
ARC
  5
119
100
AcDbEntity
  8
M0
 62
     6
100
AcDbCircle
 10
72.853064
 20
275.432566
 40
0.5
100
AcDbArc
 50
17.134787
 51
90.0
  0
CIRCLE
  5
11A
100
AcDbEntity
  8
M0
 62
     6
100
AcDbCircle
 10
80.372153
 20
271.632532
 40
3.0
  0
LINE
  5
11B
100
AcDbEntity
  8
M0
 62
     6
100
AcDbLine
 10
77.413397
 20
275.579874
 11
76.597144
 21
272.932581
  0
LINE
  5
11C
100
AcDbEntity
  8
M0
 62
     6
100
AcDbLine
 10
77.413397
 20
267.685282
 11
76.597144
 21
270.332606
  0
LINE
  5
11D
100
AcDbEntity
  8
M0
 62
     6
100
AcDbLine
 10
83.330878
 20
275.57989
 11
84.147147
 21
272.932581
  0
LINE
  5
11E
100
AcDbEntity
  8
M0
 62
     6
100
AcDbLine
 10
83.330878
 20
267.685267
 11
84.147147
 21
270.332606
  0
LINE
  5
11F
100
AcDbEntity
  8
M0
 62
     6
100
AcDbLine
 10
77.891196
 20
267.332606
 11
82.853064
 21
267.332606
  0
LINE
  5
120
100
AcDbEntity
  8
M0
 62
     6
100
AcDbLine
 10
84.147147
 20
270.332606
 11
84.147147
 21
272.932581
  0
LINE
  5
121
100
AcDbEntity
  8
M0
 62
     6
100
AcDbLine
 10
82.853064
 20
275.932581
 11
77.891196
 21
275.932566
  0
LINE
  5
122
100
AcDbEntity
  8
M0
 62
     6
100
AcDbLine
 10
76.597144
 20
272.932581
 11
76.597144
 21
270.332606
  0
LINE
  5
123
100
AcDbEntity
  8
M0
  6
DASHDOT
 62
     6
100
AcDbLine
 10
74.097144
 20
271.632532
 11
86.647147
 21
271.632532
  0
LINE
  5
124
100
AcDbEntity
  8
M0
 62
     6
100
AcDbLine
 10
81.962927
 20
270.041712
 11
78.781119
 21
273.223475
  0
LINE
  5
125
100
AcDbEntity
  8
M0
 62
     6
100
AcDbLine
 10
80.725562
 20
273.046717
 11
78.957892
 21
271.279017
  0
LINE
  5
126
100
AcDbEntity
  8
M0
 62
     6
100
AcDbLine
 10
81.78617
 20
271.986048
 11
80.018546
 21
270.21847
  0
ARC
  5
127
100
AcDbEntity
  8
M0
 62
     6
100
AcDbCircle
 10
77.891196
 20
275.432566
 40
0.5
100
AcDbArc
 50
90.0
 51
162.865663
  0
ARC
  5
128
100
AcDbEntity
  8
M0
 62
     6
100
AcDbCircle
 10
77.891196
 20
267.832606
 40
0.5
100
AcDbArc
 50
197.137551
 51
270.0
  0
ARC
  5
129
100
AcDbEntity
  8
M0
 62
     6
100
AcDbCircle
 10
82.853064
 20
267.832606
 40
0.5
100
AcDbArc
 50
270.0
 51
342.861653
  0
ARC
  5
12A
100
AcDbEntity
  8
M0
 62
     6
100
AcDbCircle
 10
82.853064
 20
275.432566
 40
0.5
100
AcDbArc
 50
17.134787
 51
90.0
  0
CIRCLE
  5
12B
100
AcDbEntity
  8
M0
 62
     6
100
AcDbCircle
 10
90.372153
 20
271.632532
 40
3.0
  0
LINE
  5
12C
100
AcDbEntity
  8
M0
 62
     6
100
AcDbLine
 10
87.413397
 20
275.579874
 11
86.597144
 21
272.932581
  0
LINE
  5
12D
100
AcDbEntity
  8
M0
 62
     6
100
AcDbLine
 10
87.413397
 20
267.685282
 11
86.597144
 21
270.332606
  0
LINE
  5
12E
100
AcDbEntity
  8
M0
 62
     6
100
AcDbLine
 10
93.330878
 20
275.57989
 11
94.147147
 21
272.932581
  0
LINE
  5
12F
100
AcDbEntity
  8
M0
 62
     6
100
AcDbLine
 10
93.330878
 20
267.685267
 11
94.147147
 21
270.332606
  0
LINE
  5
130
100
AcDbEntity
  8
M0
 62
     6
100
AcDbLine
 10
87.891196
 20
267.332606
 11
92.853064
 21
267.332606
  0
LINE
  5
131
100
AcDbEntity
  8
M0
 62
     6
100
AcDbLine
 10
94.147147
 20
270.332606
 11
94.147147
 21
272.932581
  0
LINE
  5
132
100
AcDbEntity
  8
M0
 62
     6
100
AcDbLine
 10
92.853064
 20
275.932581
 11
87.891196
 21
275.932566
  0
LINE
  5
133
100
AcDbEntity
  8
M0
 62
     6
100
AcDbLine
 10
86.597144
 20
272.932581
 11
86.597144
 21
270.332606
  0
LINE
  5
134
100
AcDbEntity
  8
M0
  6
DASHDOT
 62
     6
100
AcDbLine
 10
84.097144
 20
271.632532
 11
96.647147
 21
271.632532
  0
LINE
  5
135
100
AcDbEntity
  8
M0
  6
DASHDOT
 62
     6
100
AcDbLine
 10
90.372153
 20
264.832621
 11
90.372153
 21
278.432581
  0
LINE
  5
136
100
AcDbEntity
  8
M0
 62
     6
100
AcDbLine
 10
91.962927
 20
270.041712
 11
88.781119
 21
273.223475
  0
LINE
  5
137
100
AcDbEntity
  8
M0
 62
     6
100
AcDbLine
 10
90.725562
 20
273.046717
 11
88.957892
 21
271.279017
  0
LINE
  5
138
100
AcDbEntity
  8
M0
 62
     6
100
AcDbLine
 10
91.78617
 20
271.986048
 11
90.018546
 21
270.21847
  0
ARC
  5
139
100
AcDbEntity
  8
M0
 62
     6
100
AcDbCircle
 10
87.891196
 20
275.432566
 40
0.5
100
AcDbArc
 50
90.0
 51
162.865663
  0
ARC
  5
13A
100
AcDbEntity
  8
M0
 62
     6
100
AcDbCircle
 10
87.891196
 20
267.832606
 40
0.5
100
AcDbArc
 50
197.137551
 51
270.0
  0
ARC
  5
13B
100
AcDbEntity
  8
M0
 62
     6
100
AcDbCircle
 10
92.853064
 20
267.832606
 40
0.5
100
AcDbArc
 50
270.0
 51
342.861653
  0
ARC
  5
13C
100
AcDbEntity
  8
M0
 62
     6
100
AcDbCircle
 10
92.853064
 20
275.432566
 40
0.5
100
AcDbArc
 50
17.134787
 51
90.0
  0
CIRCLE
  5
13D
100
AcDbEntity
  8
M0
 62
     6
100
AcDbCircle
 10
70.372153
 20
311.632365
 40
3.0
  0
LINE
  5
13E
100
AcDbEntity
  8
M0
 62
     6
100
AcDbLine
 10
67.413397
 20
315.579707
 11
66.597144
 21
312.932413
  0
LINE
  5
13F
100
AcDbEntity
  8
M0
 62
     6
100
AcDbLine
 10
67.413397
 20
307.685114
 11
66.597144
 21
310.332438
  0
LINE
  5
140
100
AcDbEntity
  8
M0
 62
     6
100
AcDbLine
 10
73.330878
 20
315.579722
 11
74.147147
 21
312.932413
  0
LINE
  5
141
100
AcDbEntity
  8
M0
 62
     6
100
AcDbLine
 10
73.330878
 20
307.685099
 11
74.147147
 21
310.332438
  0
LINE
  5
142
100
AcDbEntity
  8
M0
 62
     6
100
AcDbLine
 10
67.891196
 20
307.332438
 11
72.853064
 21
307.332438
  0
LINE
  5
143
100
AcDbEntity
  8
M0
 62
     6
100
AcDbLine
 10
74.147147
 20
310.332438
 11
74.147147
 21
312.932413
  0
LINE
  5
144
100
AcDbEntity
  8
M0
 62
     6
100
AcDbLine
 10
72.853064
 20
315.932413
 11
67.891196
 21
315.932398
  0
LINE
  5
145
100
AcDbEntity
  8
M0
 62
     6
100
AcDbLine
 10
66.597144
 20
312.932413
 11
66.597144
 21
310.332438
  0
LINE
  5
146
100
AcDbEntity
  8
M0
  6
DASHDOT
 62
     6
100
AcDbLine
 10
64.097144
 20
311.632365
 11
76.647147
 21
311.632365
  0
LINE
  5
147
100
AcDbEntity
  8
M0
  6
DASHDOT
 62
     6
100
AcDbLine
 10
70.372153
 20
304.832453
 11
70.372153
 21
318.432413
  0
LINE
  5
148
100
AcDbEntity
  8
M0
 62
     6
100
AcDbLine
 10
71.962927
 20
310.041544
 11
68.781119
 21
313.223307
  0
LINE
  5
149
100
AcDbEntity
  8
M0
 62
     6
100
AcDbLine
 10
70.725562
 20
313.046549
 11
68.957892
 21
311.278849
  0
LINE
  5
14A
100
AcDbEntity
  8
M0
 62
     6
100
AcDbLine
 10
71.78617
 20
311.98588
 11
70.018546
 21
310.218302
  0
ARC
  5
14B
100
AcDbEntity
  8
M0
 62
     6
100
AcDbCircle
 10
67.891196
 20
315.432398
 40
0.5
100
AcDbArc
 50
90.0
 51
162.865663
  0
ARC
  5
14C
100
AcDbEntity
  8
M0
 62
     6
100
AcDbCircle
 10
67.891196
 20
307.832438
 40
0.5
100
AcDbArc
 50
197.137551
 51
270.0
  0
ARC
  5
14D
100
AcDbEntity
  8
M0
 62
     6
100
AcDbCircle
 10
72.853064
 20
307.832438
 40
0.5
100
AcDbArc
 50
270.0
 51
342.861653
  0
ARC
  5
14E
100
AcDbEntity
  8
M0
 62
     6
100
AcDbCircle
 10
72.853064
 20
315.432398
 40
0.5
100
AcDbArc
 50
17.134787
 51
90.0
  0
CIRCLE
  5
14F
100
AcDbEntity
  8
M0
 62
     6
100
AcDbCircle
 10
80.372153
 20
311.632365
 40
3.0
  0
LINE
  5
150
100
AcDbEntity
  8
M0
 62
     6
100
AcDbLine
 10
77.413397
 20
315.579707
 11
76.597144
 21
312.932413
  0
LINE
  5
151
100
AcDbEntity
  8
M0
 62
     6
100
AcDbLine
 10
77.413397
 20
307.685114
 11
76.597144
 21
310.332438
  0
LINE
  5
152
100
AcDbEntity
  8
M0
 62
     6
100
AcDbLine
 10
83.330878
 20
315.579722
 11
84.147147
 21
312.932413
  0
LINE
  5
153
100
AcDbEntity
  8
M0
 62
     6
100
AcDbLine
 10
83.330878
 20
307.685099
 11
84.147147
 21
310.332438
  0
LINE
  5
154
100
AcDbEntity
  8
M0
 62
     6
100
AcDbLine
 10
77.891196
 20
307.332438
 11
82.853064
 21
307.332438
  0
LINE
  5
155
100
AcDbEntity
  8
M0
 62
     6
100
AcDbLine
 10
84.147147
 20
310.332438
 11
84.147147
 21
312.932413
  0
LINE
  5
156
100
AcDbEntity
  8
M0
 62
     6
100
AcDbLine
 10
82.853064
 20
315.932413
 11
77.891196
 21
315.932398
  0
LINE
  5
157
100
AcDbEntity
  8
M0
 62
     6
100
AcDbLine
 10
76.597144
 20
312.932413
 11
76.597144
 21
310.332438
  0
LINE
  5
158
100
AcDbEntity
  8
M0
  6
DASHDOT
 62
     6
100
AcDbLine
 10
74.097144
 20
311.632365
 11
86.647147
 21
311.632365
  0
LINE
  5
159
100
AcDbEntity
  8
M0
 62
     6
100
AcDbLine
 10
81.962927
 20
310.041544
 11
78.781119
 21
313.223307
  0
LINE
  5
15A
100
AcDbEntity
  8
M0
 62
     6
100
AcDbLine
 10
80.725562
 20
313.046549
 11
78.957892
 21
311.278849
  0
LINE
  5
15B
100
AcDbEntity
  8
M0
 62
     6
100
AcDbLine
 10
81.78617
 20
311.98588
 11
80.018546
 21
310.218302
  0
ARC
  5
15C
100
AcDbEntity
  8
M0
 62
     6
100
AcDbCircle
 10
77.891196
 20
315.432398
 40
0.5
100
AcDbArc
 50
90.0
 51
162.865663
  0
ARC
  5
15D
100
AcDbEntity
  8
M0
 62
     6
100
AcDbCircle
 10
77.891196
 20
307.832438
 40
0.5
100
AcDbArc
 50
197.137551
 51
270.0
  0
ARC
  5
15E
100
AcDbEntity
  8
M0
 62
     6
100
AcDbCircle
 10
82.853064
 20
307.832438
 40
0.5
100
AcDbArc
 50
270.0
 51
342.861653
  0
ARC
  5
15F
100
AcDbEntity
  8
M0
 62
     6
100
AcDbCircle
 10
82.853064
 20
315.432398
 40
0.5
100
AcDbArc
 50
17.134787
 51
90.0
  0
CIRCLE
  5
160
100
AcDbEntity
  8
M0
 62
     6
100
AcDbCircle
 10
90.372153
 20
311.632365
 40
3.0
  0
LINE
  5
161
100
AcDbEntity
  8
M0
 62
     6
100
AcDbLine
 10
87.413397
 20
315.579707
 11
86.597144
 21
312.932413
  0
LINE
  5
162
100
AcDbEntity
  8
M0
 62
     6
100
AcDbLine
 10
87.413397
 20
307.685114
 11
86.597144
 21
310.332438
  0
LINE
  5
163
100
AcDbEntity
  8
M0
 62
     6
100
AcDbLine
 10
93.330878
 20
315.579722
 11
94.147147
 21
312.932413
  0
LINE
  5
164
100
AcDbEntity
  8
M0
 62
     6
100
AcDbLine
 10
93.330878
 20
307.685099
 11
94.147147
 21
310.332438
  0
LINE
  5
165
100
AcDbEntity
  8
M0
 62
     6
100
AcDbLine
 10
87.891196
 20
307.332438
 11
92.853064
 21
307.332438
  0
LINE
  5
166
100
AcDbEntity
  8
M0
 62
     6
100
AcDbLine
 10
94.147147
 20
310.332438
 11
94.147147
 21
312.932413
  0
LINE
  5
167
100
AcDbEntity
  8
M0
 62
     6
100
AcDbLine
 10
92.853064
 20
315.932413
 11
87.891196
 21
315.932398
  0
LINE
  5
168
100
AcDbEntity
  8
M0
 62
     6
100
AcDbLine
 10
86.597144
 20
312.932413
 11
86.597144
 21
310.332438
  0
LINE
  5
169
100
AcDbEntity
  8
M0
  6
DASHDOT
 62
     6
100
AcDbLine
 10
84.097144
 20
311.632365
 11
96.647147
 21
311.632365
  0
LINE
  5
16A
100
AcDbEntity
  8
M0
  6
DASHDOT
 62
     6
100
AcDbLine
 10
90.372153
 20
304.832453
 11
90.372153
 21
318.432413
  0
LINE
  5
16B
100
AcDbEntity
  8
M0
 62
     6
100
AcDbLine
 10
91.962927
 20
310.041544
 11
88.781119
 21
313.223307
  0
LINE
  5
16C
100
AcDbEntity
  8
M0
 62
     6
100
AcDbLine
 10
90.725562
 20
313.046549
 11
88.957892
 21
311.278849
  0
LINE
  5
16D
100
AcDbEntity
  8
M0
 62
     6
100
AcDbLine
 10
91.78617
 20
311.98588
 11
90.018546
 21
310.218302
  0
ARC
  5
16E
100
AcDbEntity
  8
M0
 62
     6
100
AcDbCircle
 10
87.891196
 20
315.432398
 40
0.5
100
AcDbArc
 50
90.0
 51
162.865663
  0
ARC
  5
16F
100
AcDbEntity
  8
M0
 62
     6
100
AcDbCircle
 10
87.891196
 20
307.832438
 40
0.5
100
AcDbArc
 50
197.137551
 51
270.0
  0
ARC
  5
170
100
AcDbEntity
  8
M0
 62
     6
100
AcDbCircle
 10
92.853064
 20
307.832438
 40
0.5
100
AcDbArc
 50
270.0
 51
342.861653
  0
ARC
  5
171
100
AcDbEntity
  8
M0
 62
     6
100
AcDbCircle
 10
92.853064
 20
315.432398
 40
0.5
100
AcDbArc
 50
17.134787
 51
90.0
  0
CIRCLE
  5
172
100
AcDbEntity
  8
M0
 62
     6
100
AcDbCircle
 10
100.372153
 20
319.632121
 40
3.0
  0
LINE
  5
173
100
AcDbEntity
  8
M0
 62
     6
100
AcDbLine
 10
97.413397
 20
323.579462
 11
96.597144
 21
320.932169
  0
LINE
  5
174
100
AcDbEntity
  8
M0
 62
     6
100
AcDbLine
 10
97.275519
 20
316.132029
 11
96.597144
 21
318.332194
  0
LINE
  5
175
100
AcDbEntity
  8
M0
 62
     6
100
AcDbLine
 10
103.330878
 20
323.579478
 11
104.147147
 21
320.932169
  0
LINE
  5
176
100
AcDbEntity
  8
M0
 62
     6
100
AcDbLine
 10
103.468756
 20
316.132029
 11
104.147147
 21
318.332194
  0
LINE
  5
177
100
AcDbEntity
  8
M0
 62
     6
100
AcDbLine
 10
104.147147
 20
318.332194
 11
104.147147
 21
320.932169
  0
LINE
  5
178
100
AcDbEntity
  8
M0
 62
     6
100
AcDbLine
 10
102.853064
 20
323.932169
 11
97.891196
 21
323.932154
  0
LINE
  5
179
100
AcDbEntity
  8
M0
 62
     6
100
AcDbLine
 10
96.597144
 20
320.932169
 11
96.597144
 21
318.332194
  0
LINE
  5
17A
100
AcDbEntity
  8
M0
  6
DASHDOT
 62
     6
100
AcDbLine
 10
94.097144
 20
319.632121
 11
106.647147
 21
319.632121
  0
LINE
  5
17B
100
AcDbEntity
  8
M0
  6
DASHDOT
 62
     6
100
AcDbLine
 10
100.372153
 20
312.832209
 11
100.372153
 21
326.432169
  0
LINE
  5
17C
100
AcDbEntity
  8
M0
 62
     6
100
AcDbLine
 10
101.962927
 20
318.0413
 11
98.781119
 21
321.223063
  0
LINE
  5
17D
100
AcDbEntity
  8
M0
 62
     6
100
AcDbLine
 10
100.725562
 20
321.046305
 11
98.957892
 21
319.278605
  0
LINE
  5
17E
100
AcDbEntity
  8
M0
 62
     6
100
AcDbLine
 10
101.78617
 20
319.985636
 11
100.018546
 21
318.218058
  0
ARC
  5
17F
100
AcDbEntity
  8
M0
 62
     6
100
AcDbCircle
 10
97.891196
 20
323.432154
 40
0.5
100
AcDbArc
 50
90.0
 51
162.865663
  0
ARC
  5
180
100
AcDbEntity
  8
M0
 62
     6
100
AcDbCircle
 10
102.853064
 20
323.432154
 40
0.5
100
AcDbArc
 50
17.134787
 51
90.0
  0
CIRCLE
  5
181
100
AcDbEntity
  8
M0
 62
     6
100
AcDbCircle
 10
100.372153
 20
311.632365
 40
3.0
  0
LINE
  5
182
100
AcDbEntity
  8
M0
 62
     6
100
AcDbLine
 10
97.413397
 20
315.579707
 11
96.597144
 21
312.932413
  0
LINE
  5
183
100
AcDbEntity
  8
M0
 62
     6
100
AcDbLine
 10
97.413397
 20
307.685114
 11
96.597144
 21
310.332438
  0
LINE
  5
184
100
AcDbEntity
  8
M0
 62
     6
100
AcDbLine
 10
103.330878
 20
315.579722
 11
104.147147
 21
312.932413
  0
LINE
  5
185
100
AcDbEntity
  8
M0
 62
     6
100
AcDbLine
 10
103.330878
 20
307.685099
 11
104.147147
 21
310.332438
  0
LINE
  5
186
100
AcDbEntity
  8
M0
 62
     6
100
AcDbLine
 10
97.891196
 20
307.332438
 11
102.853064
 21
307.332438
  0
LINE
  5
187
100
AcDbEntity
  8
M0
 62
     6
100
AcDbLine
 10
104.147147
 20
310.332438
 11
104.147147
 21
312.932413
  0
LINE
  5
188
100
AcDbEntity
  8
M0
 62
     6
100
AcDbLine
 10
102.853064
 20
315.932413
 11
97.891196
 21
315.932398
  0
LINE
  5
189
100
AcDbEntity
  8
M0
 62
     6
100
AcDbLine
 10
96.597144
 20
312.932413
 11
96.597144
 21
310.332438
  0
LINE
  5
18A
100
AcDbEntity
  8
M0
  6
DASHDOT
 62
     6
100
AcDbLine
 10
94.097144
 20
311.632365
 11
106.647147
 21
311.632365
  0
LINE
  5
18B
100
AcDbEntity
  8
M0
  6
DASHDOT
 62
     6
100
AcDbLine
 10
100.372153
 20
304.832453
 11
100.372153
 21
318.432413
  0
LINE
  5
18C
100
AcDbEntity
  8
M0
 62
     6
100
AcDbLine
 10
101.962927
 20
310.041544
 11
98.781119
 21
313.223307
  0
LINE
  5
18D
100
AcDbEntity
  8
M0
 62
     6
100
AcDbLine
 10
100.725562
 20
313.046549
 11
98.957892
 21
311.278849
  0
LINE
  5
18E
100
AcDbEntity
  8
M0
 62
     6
100
AcDbLine
 10
101.78617
 20
311.98588
 11
100.018546
 21
310.218302
  0
ARC
  5
18F
100
AcDbEntity
  8
M0
 62
     6
100
AcDbCircle
 10
97.891196
 20
315.432398
 40
0.5
100
AcDbArc
 50
90.0
 51
162.865663
  0
ARC
  5
190
100
AcDbEntity
  8
M0
 62
     6
100
AcDbCircle
 10
97.891196
 20
307.832438
 40
0.5
100
AcDbArc
 50
197.137551
 51
270.0
  0
ARC
  5
191
100
AcDbEntity
  8
M0
 62
     6
100
AcDbCircle
 10
102.853064
 20
307.832438
 40
0.5
100
AcDbArc
 50
270.0
 51
342.861653
  0
ARC
  5
192
100
AcDbEntity
  8
M0
 62
     6
100
AcDbCircle
 10
102.853064
 20
315.432398
 40
0.5
100
AcDbArc
 50
17.134787
 51
90.0
  0
LINE
  5
193
100
AcDbEntity
  8
M0
 62
     1
100
AcDbLine
 10
75.772147
 20
260.132532
 11
76.372187
 21
260.132532
  0
ARC
  5
194
100
AcDbEntity
  8
M0
 62
     1
100
AcDbCircle
 10
75.772147
 20
261.132532
 40
1.0
100
AcDbArc
 50
210.003761
 51
270.0
  0
ARC
  5
195
100
AcDbEntity
  8
M0
 62
     1
100
AcDbCircle
 10
84.772147
 20
261.132532
 40
1.0
100
AcDbArc
 50
270.0
 51
329.995752
  0
LINE
  5
196
100
AcDbEntity
  8
M0
 62
     1
100
AcDbLine
 10
78.372187
 20
260.132532
 11
84.772147
 21
260.132532
  0
LINE
  5
197
100
AcDbEntity
  8
M0
 62
     1
100
AcDbLine
 10
78.372187
 20
262.432518
 11
84.322363
 21
262.432518
  0
LINE
  5
198
100
AcDbEntity
  8
M0
 62
     2
100
AcDbLine
 10
147.431098
 20
293.632517
 11
147.431113
 21
289.632517
  0
LINE
  5
199
100
AcDbEntity
  8
M0
 62
     2
100
AcDbLine
 10
151.431098
 20
294.132501
 11
147.931098
 21
294.132516
  0
LINE
  5
19A
100
AcDbEntity
  8
M0
 62
     2
100
AcDbLine
 10
151.431098
 20
289.132532
 11
147.931114
 21
289.132532
  0
ARC
  5
19B
100
AcDbEntity
  8
M0
 62
     2
100
AcDbCircle
 10
147.931098
 20
293.632516
 40
0.5
100
AcDbArc
 50
90.0
 51
179.999982
  0
ARC
  5
19C
100
AcDbEntity
  8
M0
 62
     2
100
AcDbCircle
 10
147.931113
 20
289.632517
 40
0.5
100
AcDbArc
 50
179.999968
 51
270.0
  0
LINE
  5
19D
100
AcDbEntity
  8
M0
  6
DIVIDE
100
AcDbLine
 10
226.831076
 20
273.982523
 11
226.831076
 21
280.132517
  0
LINE
  5
19E
100
AcDbEntity
  8
M0
  6
DIVIDE
100
AcDbLine
 10
226.831076
 20
280.132517
 11
233.631079
 21
280.132517
  0
LINE
  5
19F
100
AcDbEntity
  8
M0
  6
DIVIDE
100
AcDbLine
 10
225.831076
 20
281.132517
 11
232.631079
 21
281.132517
  0
LINE
  5
1A0
100
AcDbEntity
  8
M0
  6
DIVIDE
100
AcDbLine
 10
232.631079
 20
302.132517
 11
232.631079
 21
281.132517
  0
LINE
  5
1A1
100
AcDbEntity
  8
M0
  6
DIVIDE
100
AcDbLine
 10
233.631079
 20
280.132517
 11
233.631079
 21
303.132517
  0
LINE
  5
1A2
100
AcDbEntity
  8
M0
  6
DIVIDE
100
AcDbLine
 10
226.831076
 20
303.132517
 11
226.831076
 21
309.282511
  0
LINE
  5
1A3
100
AcDbEntity
  8
M0
  6
DIVIDE
100
AcDbLine
 10
226.831076
 20
303.132517
 11
233.631079
 21
303.132517
  0
LINE
  5
1A4
100
AcDbEntity
  8
M0
  6
DIVIDE
100
AcDbLine
 10
225.831076
 20
302.132517
 11
232.631079
 21
302.132517
  0
LINE
  5
1A5
100
AcDbEntity
  8
M0
100
AcDbLine
 10
193.631064
 20
321.632105
 11
193.631079
 21
324.131983
  0
LINE
  5
1A6
100
AcDbEntity
  8
M0
100
AcDbLine
 10
194.831061
 20
321.917948
 11
194.831076
 21
324.131968
  0
LINE
  5
1A7
100
AcDbEntity
  8
M0
 62
     6
100
AcDbLine
 10
190.581076
 20
322.63209
 11
190.45748
 21
322.63209
  0
LINE
  5
1A8
100
AcDbEntity
  8
M0
 62
     6
100
AcDbLine
 10
190.725424
 20
322.132136
 11
191.231085
 21
322.132136
  0
LINE
  5
1A9
100
AcDbEntity
  8
M0
 62
     6
100
AcDbLine
 10
191.231085
 20
323.932124
 11
192.831076
 21
323.932124
  0
LINE
  5
1AA
100
AcDbEntity
  8
M0
 62
     6
100
AcDbLine
 10
192.831076
 20
322.932124
 11
193.631079
 21
322.732127
  0
LINE
  5
1AB
100
AcDbEntity
  8
M0
 62
     6
100
AcDbLine
 10
192.831076
 20
322.932108
 11
192.831076
 21
323.932124
  0
LINE
  5
1AC
100
AcDbEntity
  8
M0
 62
     6
100
AcDbLine
 10
191.23107
 20
322.732127
 11
191.831061
 21
322.732127
  0
ARC
  5
1AD
100
AcDbEntity
  8
M0
 62
     6
100
AcDbCircle
 10
188.881094
 20
321.632121
 40
1.0
100
AcDbArc
 50
90.0
 51
180.0
  0
ARC
  5
1AE
100
AcDbEntity
  8
M0
 62
     6
100
AcDbCircle
 10
201.481894
 20
321.13209
 40
11.300797
100
AcDbArc
 50
173.274797
 51
177.463452
  0
LINE
  5
1AF
100
AcDbEntity
  8
M0
 62
     6
100
AcDbLine
 10
190.181098
 20
322.63209
 11
188.881094
 21
322.632136
  0
ARC
  5
1B0
100
AcDbEntity
  8
M0
 62
     6
100
AcDbCircle
 10
201.981772
 20
321.13209
 40
11.300682
100
AcDbArc
 50
173.948749
 51
177.463398
  0
LINE
  5
1B1
100
AcDbEntity
  8
M0
 62
     6
100
AcDbLine
 10
190.781088
 20
322.432063
 11
190.781088
 21
322.132136
  0
ARC
  5
1B2
100
AcDbEntity
  8
M0
 62
     6
100
AcDbCircle
 10
190.581076
 20
322.432063
 40
0.2
100
AcDbArc
 50
0.0
 51
90.0
  0
ARC
  5
1B3
100
AcDbEntity
  8
M0
 62
     6
100
AcDbCircle
 10
190.45748
 20
322.432078
 40
0.2
100
AcDbArc
 50
90.0
 51
173.28397
  0
LINE
  5
1B4
100
AcDbEntity
  8
M0
 62
     6
100
AcDbLine
 10
193.631064
 20
321.632197
 11
193.631079
 21
322.732111
  0
LINE
  5
1B5
100
AcDbEntity
  8
M0
 62
     6
100
AcDbLine
 10
190.181082
 20
321.632197
 11
190.181098
 21
322.632136
  0
LINE
  5
1B6
100
AcDbEntity
  8
M0
 62
     6
100
AcDbLine
 10
191.23107
 20
321.632197
 11
191.231085
 21
323.932124
  0
LINE
  5
1B7
100
AcDbEntity
  8
M0
 62
     6
100
AcDbLine
 10
191.831046
 20
321.632197
 11
191.831061
 21
322.732127
  0
LINE
  5
1B8
100
AcDbEntity
  8
M0
 62
     4
100
AcDbLine
 10
106.872168
 20
263.132471
 11
106.872168
 21
323.632456
  0
LINE
  5
1B9
100
AcDbEntity
  8
M0
 62
     4
100
AcDbLine
 10
106.372168
 20
321.632456
 11
104.822119
 21
321.632456
  0
LINE
  5
1BA
100
AcDbEntity
  8
M0
 62
     4
100
AcDbLine
 10
53.872168
 20
320.13241
 11
53.872168
 21
259.632441
  0
LINE
  5
1BB
100
AcDbEntity
  8
M0
  6
DASHDOT
 62
     4
100
AcDbLine
 10
48.872168
 20
291.632456
 11
111.872168
 21
291.632456
  0
LINE
  5
1BC
100
AcDbEntity
  8
M0
  6
DASHDOT
 62
     4
100
AcDbLine
 10
80.372168
 20
281.434896
 11
80.372168
 21
329.132456
  0
LINE
  5
1BD
100
AcDbEntity
  8
M0
 62
     4
100
AcDbLine
 10
76.421973
 20
307.632456
 11
76.421973
 21
322.13241
  0
LINE
  5
1BE
100
AcDbEntity
  8
M0
 62
     4
100
AcDbLine
 10
84.322119
 20
307.632456
 11
84.322119
 21
322.132441
  0
LINE
  5
1BF
100
AcDbEntity
  8
M0
 62
     4
100
AcDbLine
 10
75.921973
 20
322.632441
 11
74.822119
 21
322.632441
  0
LINE
  5
1C0
100
AcDbEntity
  8
M0
 62
     4
100
AcDbLine
 10
77.421973
 20
306.632456
 11
83.322119
 21
306.632456
  0
ARC
  5
1C1
100
AcDbEntity
  8
M0
 62
     4
100
AcDbCircle
 10
77.421973
 20
307.632456
 40
1.0
100
AcDbArc
 50
180.0
 51
270.0
  0
ARC
  5
1C2
100
AcDbEntity
  8
M0
 62
     4
100
AcDbCircle
 10
83.322119
 20
307.632456
 40
1.0
100
AcDbArc
 50
269.916016
 51
360.0
  0
ARC
  5
1C3
100
AcDbEntity
  8
M0
 62
     4
100
AcDbCircle
 10
84.822119
 20
322.132441
 40
0.5
100
AcDbArc
 50
90.0
 51
180.0
  0
ARC
  5
1C4
100
AcDbEntity
  8
M0
 62
     4
100
AcDbCircle
 10
75.921973
 20
322.132426
 40
0.5
100
AcDbArc
 50
0.0
 51
90.0
  0
LINE
  5
1C5
100
AcDbEntity
  8
M0
 62
     4
100
AcDbLine
 10
55.921973
 20
320.632426
 11
54.372168
 21
320.632426
  0
LINE
  5
1C6
100
AcDbEntity
  8
M0
 62
     4
100
AcDbLine
 10
65.921973
 20
322.632426
 11
64.822119
 21
322.632426
  0
LINE
  5
1C7
100
AcDbEntity
  8
M0
 62
     4
100
AcDbLine
 10
85.921973
 20
322.632441
 11
84.822119
 21
322.632441
  0
LINE
  5
1C8
100
AcDbEntity
  8
M0
 62
     4
100
AcDbLine
 10
95.921973
 20
322.632441
 11
94.822119
 21
322.632441
  0
ARC
  5
1C9
100
AcDbEntity
  8
M0
 62
     4
100
AcDbCircle
 10
106.372168
 20
321.132441
 40
0.5
100
AcDbArc
 50
0.0
 51
90.0
  0
ARC
  5
1CA
100
AcDbEntity
  8
M0
 62
     4
100
AcDbCircle
 10
104.822119
 20
321.132441
 40
0.5
100
AcDbArc
 50
90.0
 51
180.0
  0
ARC
  5
1CB
100
AcDbEntity
  8
M0
 62
     4
100
AcDbCircle
 10
94.822119
 20
322.132441
 40
0.5
100
AcDbArc
 50
90.0
 51
180.0
  0
ARC
  5
1CC
100
AcDbEntity
  8
M0
 62
     4
100
AcDbCircle
 10
74.822119
 20
322.132426
 40
0.5
100
AcDbArc
 50
90.0
 51
180.0
  0
ARC
  5
1CD
100
AcDbEntity
  8
M0
 62
     4
100
AcDbCircle
 10
64.822119
 20
322.13241
 40
0.5
100
AcDbArc
 50
90.0
 51
180.0
  0
ARC
  5
1CE
100
AcDbEntity
  8
M0
 62
     4
100
AcDbCircle
 10
54.372168
 20
320.13241
 40
0.5
100
AcDbArc
 50
89.998251
 51
180.0
  0
LINE
  5
1CF
100
AcDbEntity
  8
M0
 62
     4
100
AcDbLine
 10
96.421973
 20
316.132456
 11
104.322119
 21
316.132456
  0
LINE
  5
1D0
100
AcDbEntity
  8
M0
 62
     4
100
AcDbLine
 10
86.421973
 20
316.132456
 11
94.322119
 21
316.132456
  0
LINE
  5
1D1
100
AcDbEntity
  8
M0
 62
     4
100
AcDbLine
 10
76.421973
 20
316.132456
 11
84.322119
 21
316.132456
  0
LINE
  5
1D2
100
AcDbEntity
  8
M0
 62
     4
100
AcDbLine
 10
66.421973
 20
316.132456
 11
74.322119
 21
316.132456
  0
LINE
  5
1D3
100
AcDbEntity
  8
M0
 62
     4
100
AcDbLine
 10
64.322119
 20
316.132456
 11
56.421973
 21
316.132456
  0
LINE
  5
1D4
100
AcDbEntity
  8
M0
 62
     4
100
AcDbLine
 10
66.421973
 20
319.632456
 11
74.322119
 21
319.632456
  0
LINE
  5
1D5
100
AcDbEntity
  8
M0
 62
     4
100
AcDbLine
 10
76.421973
 20
319.632456
 11
84.322119
 21
319.632456
  0
LINE
  5
1D6
100
AcDbEntity
  8
M0
 62
     4
100
AcDbLine
 10
86.421973
 20
319.632456
 11
94.322119
 21
319.632456
  0
LINE
  5
1D7
100
AcDbEntity
  8
M0
 62
     4
100
AcDbLine
 10
94.822119
 20
324.132456
 11
106.372168
 21
324.132456
  0
ARC
  5
1D8
100
AcDbEntity
  8
M0
 62
     4
100
AcDbCircle
 10
94.822119
 20
323.632456
 40
0.5
100
AcDbArc
 50
90.0
 51
180.0
  0
ARC
  5
1D9
100
AcDbEntity
  8
M0
 62
     4
100
AcDbCircle
 10
106.372168
 20
323.632456
 40
0.5
100
AcDbArc
 50
0.0
 51
90.0
  0
ARC
  5
1DA
100
AcDbEntity
  8
M0
 62
     4
100
AcDbCircle
 10
104.822119
 20
323.632456
 40
0.5
100
AcDbArc
 50
90.0
 51
180.0
  0
LINE
  5
1DB
100
AcDbEntity
  8
M0
 62
     4
100
AcDbLine
 10
92.034033
 20
319.632456
 11
94.384619
 21
323.874766
  0
ARC
  5
1DC
100
AcDbEntity
  8
M0
 62
     4
100
AcDbCircle
 10
54.372168
 20
259.632441
 40
0.5
100
AcDbArc
 50
179.998251
 51
270.0
  0
LINE
  5
1DD
100
AcDbEntity
  8
M0
 62
     4
100
AcDbLine
 10
86.421973
 20
307.632456
 11
86.421973
 21
322.13241
  0
ARC
  5
1DE
100
AcDbEntity
  8
M0
 62
     4
100
AcDbCircle
 10
87.421973
 20
307.632456
 40
1.0
100
AcDbArc
 50
180.0
 51
269.930004
  0
LINE
  5
1DF
100
AcDbEntity
  8
M0
 62
     4
100
AcDbLine
 10
87.421973
 20
306.632456
 11
93.322119
 21
306.632456
  0
ARC
  5
1E0
100
AcDbEntity
  8
M0
 62
     4
100
AcDbCircle
 10
93.322119
 20
307.632456
 40
1.0
100
AcDbArc
 50
269.916016
 51
360.0
  0
LINE
  5
1E1
100
AcDbEntity
  8
M0
 62
     4
100
AcDbLine
 10
94.322119
 20
307.632456
 11
94.322119
 21
323.632456
  0
ARC
  5
1E2
100
AcDbEntity
  8
M0
 62
     4
100
AcDbCircle
 10
85.921973
 20
322.132426
 40
0.5
100
AcDbArc
 50
0.0
 51
90.0
  0
LINE
  5
1E3
100
AcDbEntity
  8
M0
 62
     4
100
AcDbLine
 10
66.421973
 20
307.632456
 11
66.421973
 21
322.132395
  0
ARC
  5
1E4
100
AcDbEntity
  8
M0
 62
     4
100
AcDbCircle
 10
67.421973
 20
307.632456
 40
1.0
100
AcDbArc
 50
180.0
 51
269.930059
  0
LINE
  5
1E5
100
AcDbEntity
  8
M0
 62
     4
100
AcDbLine
 10
67.421973
 20
306.632456
 11
73.322119
 21
306.632456
  0
ARC
  5
1E6
100
AcDbEntity
  8
M0
 62
     4
100
AcDbCircle
 10
73.322119
 20
307.632456
 40
1.0
100
AcDbArc
 50
269.888094
 51
360.0
  0
LINE
  5
1E7
100
AcDbEntity
  8
M0
 62
     4
100
AcDbLine
 10
74.322119
 20
307.632456
 11
74.322119
 21
322.132426
  0
ARC
  5
1E8
100
AcDbEntity
  8
M0
 62
     4
100
AcDbCircle
 10
65.921973
 20
322.13241
 40
0.5
100
AcDbArc
 50
0.0
 51
90.0
  0
LINE
  5
1E9
100
AcDbEntity
  8
M0
 62
     4
100
AcDbLine
 10
96.421973
 20
307.632456
 11
96.421973
 21
323.632456
  0
ARC
  5
1EA
100
AcDbEntity
  8
M0
 62
     4
100
AcDbCircle
 10
97.421973
 20
307.632456
 40
1.0
100
AcDbArc
 50
180.0
 51
269.929185
  0
LINE
  5
1EB
100
AcDbEntity
  8
M0
 62
     4
100
AcDbLine
 10
97.421973
 20
306.632456
 11
103.322119
 21
306.632456
  0
ARC
  5
1EC
100
AcDbEntity
  8
M0
 62
     4
100
AcDbCircle
 10
103.322119
 20
307.632456
 40
1.0
100
AcDbArc
 50
269.915196
 51
360.0
  0
LINE
  5
1ED
100
AcDbEntity
  8
M0
 62
     4
100
AcDbLine
 10
104.322119
 20
307.632456
 11
104.322119
 21
323.632456
  0
ARC
  5
1EE
100
AcDbEntity
  8
M0
 62
     4
100
AcDbCircle
 10
95.921973
 20
322.132426
 40
0.5
100
AcDbArc
 50
0.0
 51
90.0
  0
ARC
  5
1EF
100
AcDbEntity
  8
M0
 62
     4
100
AcDbCircle
 10
95.921973
 20
323.632456
 40
0.5
100
AcDbArc
 50
0.0
 51
90.0
  0
ARC
  5
1F0
100
AcDbEntity
  8
M0
 62
     4
100
AcDbCircle
 10
57.421973
 20
307.632456
 40
1.0
100
AcDbArc
 50
180.0
 51
269.969401
  0
LINE
  5
1F1
100
AcDbEntity
  8
M0
 62
     4
100
AcDbLine
 10
56.421973
 20
307.632456
 11
56.421973
 21
320.132395
  0
LINE
  5
1F2
100
AcDbEntity
  8
M0
 62
     4
100
AcDbLine
 10
57.421973
 20
306.632456
 11
63.322119
 21
306.632456
  0
ARC
  5
1F3
100
AcDbEntity
  8
M0
 62
     4
100
AcDbCircle
 10
63.322119
 20
307.632456
 40
1.0
100
AcDbArc
 50
269.927436
 51
360.0
  0
LINE
  5
1F4
100
AcDbEntity
  8
M0
 62
     4
100
AcDbLine
 10
64.322119
 20
307.632456
 11
64.322119
 21
322.13241
  0
ARC
  5
1F5
100
AcDbEntity
  8
M0
 62
     4
100
AcDbCircle
 10
55.921973
 20
320.13241
 40
0.5
100
AcDbArc
 50
0.0
 51
89.998251
  0
LINE
  5
1F6
100
AcDbEntity
  8
M0
 62
     4
100
AcDbLine
 10
54.372168
 20
261.632456
 11
55.922217
 21
261.632456
  0
LINE
  5
1F7
100
AcDbEntity
  8
M0
 62
     4
100
AcDbLine
 10
84.322363
 20
275.632456
 11
84.322363
 21
261.132502
  0
LINE
  5
1F8
100
AcDbEntity
  8
M0
 62
     4
100
AcDbLine
 10
76.422217
 20
275.632456
 11
76.422217
 21
264.982493
  0
LINE
  5
1F9
100
AcDbEntity
  8
M0
 62
     4
100
AcDbLine
 10
84.822363
 20
260.632471
 11
85.922217
 21
260.632471
  0
LINE
  5
1FA
100
AcDbEntity
  8
M0
 62
     4
100
AcDbLine
 10
83.322363
 20
276.632456
 11
77.422217
 21
276.632456
  0
ARC
  5
1FB
100
AcDbEntity
  8
M0
 62
     4
100
AcDbCircle
 10
83.322363
 20
275.632456
 40
1.0
100
AcDbArc
 50
0.0
 51
90.0
  0
ARC
  5
1FC
100
AcDbEntity
  8
M0
 62
     4
100
AcDbCircle
 10
77.422217
 20
275.632456
 40
1.0
100
AcDbArc
 50
89.916016
 51
179.999945
  0
ARC
  5
1FD
100
AcDbEntity
  8
M0
 62
     4
100
AcDbCircle
 10
75.922217
 20
261.132471
 40
0.5
100
AcDbArc
 50
270.027977
 51
334.150759
  0
ARC
  5
1FE
100
AcDbEntity
  8
M0
 62
     4
100
AcDbCircle
 10
84.822363
 20
261.132487
 40
0.5
100
AcDbArc
 50
179.998251
 51
270.027868
  0
LINE
  5
1FF
100
AcDbEntity
  8
M0
 62
     4
100
AcDbLine
 10
104.822363
 20
262.632487
 11
106.372168
 21
262.632487
  0
LINE
  5
200
100
AcDbEntity
  8
M0
 62
     4
100
AcDbLine
 10
94.822363
 20
260.632487
 11
95.922217
 21
260.632487
  0
LINE
  5
201
100
AcDbEntity
  8
M0
 62
     4
100
AcDbLine
 10
74.822363
 20
260.632471
 11
75.922217
 21
260.632471
  0
LINE
  5
202
100
AcDbEntity
  8
M0
 62
     4
100
AcDbLine
 10
64.822363
 20
260.632471
 11
65.922217
 21
260.632471
  0
ARC
  5
203
100
AcDbEntity
  8
M0
 62
     4
100
AcDbCircle
 10
55.922217
 20
262.132471
 40
0.5
100
AcDbArc
 50
270.027977
 51
334.151236
  0
ARC
  5
204
100
AcDbEntity
  8
M0
 62
     4
100
AcDbCircle
 10
65.922217
 20
261.132471
 40
0.5
100
AcDbArc
 50
270.027977
 51
334.150712
  0
ARC
  5
205
100
AcDbEntity
  8
M0
 62
     4
100
AcDbCircle
 10
85.922217
 20
261.132487
 40
0.5
100
AcDbArc
 50
270.027868
 51
360.0
  0
ARC
  5
206
100
AcDbEntity
  8
M0
 62
     4
100
AcDbCircle
 10
95.922217
 20
261.132502
 40
0.5
100
AcDbArc
 50
270.027868
 51
360.0
  0
LINE
  5
207
100
AcDbEntity
  8
M0
 62
     4
100
AcDbLine
 10
64.322363
 20
267.132456
 11
56.422217
 21
267.132456
  0
LINE
  5
208
100
AcDbEntity
  8
M0
 62
     4
100
AcDbLine
 10
74.322363
 20
267.132456
 11
66.422217
 21
267.132456
  0
LINE
  5
209
100
AcDbEntity
  8
M0
 62
     4
100
AcDbLine
 10
84.322363
 20
267.132456
 11
76.422217
 21
267.132456
  0
LINE
  5
20A
100
AcDbEntity
  8
M0
 62
     4
100
AcDbLine
 10
94.322363
 20
267.132456
 11
86.422217
 21
267.132456
  0
LINE
  5
20B
100
AcDbEntity
  8
M0
 62
     4
100
AcDbLine
 10
96.422217
 20
267.132456
 11
104.322363
 21
267.132456
  0
LINE
  5
20C
100
AcDbEntity
  8
M0
 62
     4
100
AcDbLine
 10
94.322363
 20
263.632456
 11
86.422217
 21
263.632456
  0
LINE
  5
20D
100
AcDbEntity
  8
M0
 62
     4
100
AcDbLine
 10
84.322363
 20
263.632456
 11
78.372187
 21
263.632426
  0
LINE
  5
20E
100
AcDbEntity
  8
M0
 62
     4
100
AcDbLine
 10
74.322363
 20
263.632456
 11
68.372183
 21
263.632426
  0
LINE
  5
20F
100
AcDbEntity
  8
M0
 62
     4
100
AcDbLine
 10
64.872183
 20
259.132456
 11
59.872183
 21
259.132441
  0
ARC
  5
210
100
AcDbEntity
  8
M0
 62
     4
100
AcDbCircle
 10
65.922217
 20
259.632456
 40
0.5
100
AcDbArc
 50
323.131654
 51
334.150712
  0
ARC
  5
211
100
AcDbEntity
  8
M0
 62
     4
100
AcDbCircle
 10
55.922217
 20
259.632456
 40
0.5
100
AcDbArc
 50
323.131851
 51
334.151236
  0
LINE
  5
212
100
AcDbEntity
  8
M0
 62
     4
100
AcDbLine
 10
74.322363
 20
275.632456
 11
74.322363
 21
261.132502
  0
ARC
  5
213
100
AcDbEntity
  8
M0
 62
     4
100
AcDbCircle
 10
73.322363
 20
275.632456
 40
1.0
100
AcDbArc
 50
0.0
 51
89.943992
  0
LINE
  5
214
100
AcDbEntity
  8
M0
 62
     4
100
AcDbLine
 10
73.322363
 20
276.632456
 11
67.422217
 21
276.632456
  0
ARC
  5
215
100
AcDbEntity
  8
M0
 62
     4
100
AcDbCircle
 10
67.422217
 20
275.632456
 40
1.0
100
AcDbArc
 50
89.916016
 51
179.999945
  0
LINE
  5
216
100
AcDbEntity
  8
M0
 62
     4
100
AcDbLine
 10
66.422217
 20
275.632456
 11
66.422217
 21
264.982493
  0
ARC
  5
217
100
AcDbEntity
  8
M0
 62
     4
100
AcDbCircle
 10
74.822363
 20
261.132487
 40
0.5
100
AcDbArc
 50
179.998251
 51
270.027977
  0
LINE
  5
218
100
AcDbEntity
  8
M0
 62
     4
100
AcDbLine
 10
94.322363
 20
275.632456
 11
94.322363
 21
261.132517
  0
ARC
  5
219
100
AcDbEntity
  8
M0
 62
     4
100
AcDbCircle
 10
93.322363
 20
275.632456
 40
1.0
100
AcDbArc
 50
0.0
 51
89.944047
  0
LINE
  5
21A
100
AcDbEntity
  8
M0
 62
     4
100
AcDbLine
 10
93.322363
 20
276.632456
 11
87.422217
 21
276.632456
  0
ARC
  5
21B
100
AcDbEntity
  8
M0
 62
     4
100
AcDbCircle
 10
87.422217
 20
275.632456
 40
1.0
100
AcDbArc
 50
89.888094
 51
179.999945
  0
LINE
  5
21C
100
AcDbEntity
  8
M0
 62
     4
100
AcDbLine
 10
86.422217
 20
275.632456
 11
86.422217
 21
261.132487
  0
ARC
  5
21D
100
AcDbEntity
  8
M0
 62
     4
100
AcDbCircle
 10
94.822363
 20
261.132502
 40
0.5
100
AcDbArc
 50
179.998251
 51
270.027868
  0
LINE
  5
21E
100
AcDbEntity
  8
M0
 62
     4
100
AcDbLine
 10
64.322363
 20
275.632456
 11
64.322363
 21
259.632456
  0
ARC
  5
21F
100
AcDbEntity
  8
M0
 62
     4
100
AcDbCircle
 10
63.322363
 20
275.632456
 40
1.0
100
AcDbArc
 50
0.0
 51
89.930059
  0
LINE
  5
220
100
AcDbEntity
  8
M0
 62
     4
100
AcDbLine
 10
63.322363
 20
276.632456
 11
57.422217
 21
276.632456
  0
ARC
  5
221
100
AcDbEntity
  8
M0
 62
     4
100
AcDbCircle
 10
57.422217
 20
275.632456
 40
1.0
100
AcDbArc
 50
89.915196
 51
179.999945
  0
LINE
  5
222
100
AcDbEntity
  8
M0
 62
     4
100
AcDbLine
 10
56.422217
 20
275.632456
 11
56.422217
 21
264.982493
  0
ARC
  5
223
100
AcDbEntity
  8
M0
 62
     4
100
AcDbCircle
 10
64.822363
 20
261.132487
 40
0.5
100
AcDbArc
 50
179.998251
 51
270.027977
  0
ARC
  5
224
100
AcDbEntity
  8
M0
 62
     4
100
AcDbCircle
 10
64.822363
 20
259.632456
 40
0.5
100
AcDbArc
 50
179.998251
 51
270.027977
  0
ARC
  5
225
100
AcDbEntity
  8
M0
 62
     4
100
AcDbCircle
 10
103.322363
 20
275.632456
 40
1.0
100
AcDbArc
 50
0.0
 51
89.972024
  0
LINE
  5
226
100
AcDbEntity
  8
M0
 62
     4
100
AcDbLine
 10
104.322363
 20
275.632456
 11
104.322363
 21
263.132517
  0
LINE
  5
227
100
AcDbEntity
  8
M0
 62
     4
100
AcDbLine
 10
103.322363
 20
276.632456
 11
97.422217
 21
276.632456
  0
ARC
  5
228
100
AcDbEntity
  8
M0
 62
     4
100
AcDbCircle
 10
97.422217
 20
275.632456
 40
1.0
100
AcDbArc
 50
89.930059
 51
179.999945
  0
LINE
  5
229
100
AcDbEntity
  8
M0
 62
     4
100
AcDbLine
 10
96.422217
 20
275.632456
 11
96.422217
 21
261.132502
  0
ARC
  5
22A
100
AcDbEntity
  8
M0
 62
     4
100
AcDbCircle
 10
104.822363
 20
263.132502
 40
0.5
100
AcDbArc
 50
179.998251
 51
269.998251
  0
ARC
  5
22B
100
AcDbEntity
  8
M0
 62
     4
100
AcDbCircle
 10
54.372168
 20
262.132471
 40
0.5
100
AcDbArc
 50
179.998251
 51
270.027977
  0
ARC
  5
22C
100
AcDbEntity
  8
M0
 62
     4
100
AcDbCircle
 10
106.372168
 20
263.132487
 40
0.5
100
AcDbArc
 50
269.998251
 51
360.0
  0
LINE
  5
22D
100
AcDbEntity
  8
M0
 62
     4
100
AcDbLine
 10
77.872168
 20
288.482447
 11
82.872168
 21
288.482447
  0
LINE
  5
22E
100
AcDbEntity
  8
M0
 62
     4
100
AcDbLine
 10
83.372168
 20
288.982432
 11
83.372168
 21
294.28242
  0
LINE
  5
22F
100
AcDbEntity
  8
M0
 62
     4
100
AcDbLine
 10
82.872168
 20
294.78245
 11
77.872168
 21
294.782435
  0
LINE
  5
230
100
AcDbEntity
  8
M0
 62
     4
100
AcDbLine
 10
77.372168
 20
294.282435
 11
77.372168
 21
288.982447
  0
ARC
  5
231
100
AcDbEntity
  8
M0
 62
     4
100
AcDbCircle
 10
82.872168
 20
288.982447
 40
0.5
100
AcDbArc
 50
270.0
 51
360.0
  0
ARC
  5
232
100
AcDbEntity
  8
M0
 62
     4
100
AcDbCircle
 10
82.872168
 20
294.282435
 40
0.5
100
AcDbArc
 50
0.0
 51
90.0
  0
ARC
  5
233
100
AcDbEntity
  8
M0
 62
     4
100
AcDbCircle
 10
77.872168
 20
294.282435
 40
0.5
100
AcDbArc
 50
90.0
 51
180.0
  0
ARC
  5
234
100
AcDbEntity
  8
M0
 62
     4
100
AcDbCircle
 10
77.872168
 20
288.982447
 40
0.5
100
AcDbArc
 50
179.999891
 51
270.0
  0
LINE
  5
235
100
AcDbEntity
  8
M0
 62
     4
100
AcDbLine
 10
54.872183
 20
259.132441
 11
54.372168
 21
259.132441
  0
LINE
  5
236
100
AcDbEntity
  8
M0
 62
     4
100
AcDbLine
 10
186.430899
 20
259.132502
 11
201.631094
 21
259.132502
  0
LINE
  5
237
100
AcDbEntity
  8
M0
 62
     4
100
AcDbLine
 10
201.631094
 20
259.132502
 11
201.631094
 21
324.132502
  0
LINE
  5
238
100
AcDbEntity
  8
M0
 62
     4
100
AcDbLine
 10
201.631094
 20
324.132502
 11
186.430899
 21
324.132487
  0
LINE
  5
239
100
AcDbEntity
  8
M0
 62
     4
100
AcDbLine
 10
151.431143
 20
317.632471
 11
151.431143
 21
265.632532
  0
LINE
  5
23A
100
AcDbEntity
  8
M0
  6
DASHDOT
 62
     4
100
AcDbLine
 10
146.431143
 20
291.632502
 11
201.631079
 21
291.632502
  0
LINE
  5
23B
100
AcDbEntity
  8
M0
 62
     4
100
AcDbLine
 10
156.431143
 20
262.632532
 11
177.430899
 21
262.632532
  0
LINE
  5
23C
100
AcDbEntity
  8
M0
 62
     4
100
AcDbLine
 10
156.431143
 20
260.632532
 11
182.860098
 21
260.632532
  0
LINE
  5
23D
100
AcDbEntity
  8
M0
 62
     4
100
AcDbLine
 10
156.431143
 20
321.632502
 11
201.631094
 21
321.632502
  0
LINE
  5
23E
100
AcDbEntity
  8
M0
 62
     4
100
AcDbLine
 10
156.431143
 20
322.632487
 11
182.860098
 21
322.632487
  0
ARC
  5
23F
100
AcDbEntity
  8
M0
 62
     4
100
AcDbCircle
 10
156.431143
 20
267.632532
 40
5.0
100
AcDbArc
 50
179.999825
 51
270.0
  0
ARC
  5
240
100
AcDbEntity
  8
M0
 62
     4
100
AcDbCircle
 10
156.431143
 20
265.632532
 40
5.0
100
AcDbArc
 50
179.999825
 51
270.0
  0
ARC
  5
241
100
AcDbEntity
  8
M0
 62
     4
100
AcDbCircle
 10
156.431143
 20
316.632502
 40
5.0
100
AcDbArc
 50
89.999825
 51
180.0
  0
ARC
  5
242
100
AcDbEntity
  8
M0
 62
     4
100
AcDbCircle
 10
156.431143
 20
317.632487
 40
5.0
100
AcDbArc
 50
89.999825
 51
180.0
  0
LINE
  5
243
100
AcDbEntity
  8
M0
 62
     4
100
AcDbLine
 10
182.430899
 20
271.632502
 11
201.631094
 21
271.632502
  0
LINE
  5
244
100
AcDbEntity
  8
M0
 62
     4
100
AcDbLine
 10
182.430899
 20
266.632502
 11
201.631094
 21
266.632502
  0
LINE
  5
245
100
AcDbEntity
  8
M0
 62
     4
100
AcDbLine
 10
181.430899
 20
262.632532
 11
181.430899
 21
270.632502
  0
LINE
  5
246
100
AcDbEntity
  8
M0
 62
     4
100
AcDbLine
 10
179.430899
 20
264.632532
 11
179.430899
 21
268.632502
  0
ARC
  5
247
100
AcDbEntity
  8
M0
 62
     4
100
AcDbCircle
 10
182.430899
 20
265.632502
 40
1.0
100
AcDbArc
 50
90.0
 51
179.999126
  0
ARC
  5
248
100
AcDbEntity
  8
M0
 62
     4
100
AcDbCircle
 10
182.430899
 20
270.632502
 40
1.0
100
AcDbArc
 50
90.0
 51
179.999126
  0
ARC
  5
249
100
AcDbEntity
  8
M0
 62
     4
100
AcDbCircle
 10
182.430899
 20
268.632502
 40
3.0
100
AcDbArc
 50
90.0
 51
179.999709
  0
ARC
  5
24A
100
AcDbEntity
  8
M0
 62
     4
100
AcDbCircle
 10
179.430899
 20
262.632532
 40
2.0
100
AcDbArc
 50
270.0
 51
360.0
  0
ARC
  5
24B
100
AcDbEntity
  8
M0
 62
     4
100
AcDbCircle
 10
177.430899
 20
264.632532
 40
2.0
100
AcDbArc
 50
270.0
 51
360.0
  0
ARC
  5
24C
100
AcDbEntity
  8
M0
 62
     4
100
AcDbCircle
 10
186.430899
 20
264.132502
 40
5.0
100
AcDbArc
 50
179.999825
 51
270.0
  0
LINE
  5
24D
100
AcDbEntity
  8
M0
 62
     4
100
AcDbLine
 10
194.930899
 20
266.632502
 11
194.930899
 21
259.132502
  0
LINE
  5
24E
100
AcDbEntity
  8
M0
 62
     4
100
AcDbLine
 10
190.930899
 20
266.632502
 11
190.930899
 21
259.132502
  0
LINE
  5
24F
100
AcDbEntity
  8
M0
 62
     4
100
AcDbLine
 10
188.930899
 20
266.632487
 11
188.930899
 21
259.132487
  0
ARC
  5
250
100
AcDbEntity
  8
M0
 62
     4
100
AcDbCircle
 10
186.430899
 20
319.132487
 40
5.0
100
AcDbArc
 50
90.0
 51
135.573713
  0
LINE
  5
251
100
AcDbEntity
  8
M0
 62
     7
100
AcDbLine
 10
69.372168
 20
319.632456
 11
69.371924
 21
323.132441
  0
LINE
  5
252
100
AcDbEntity
  8
M0
 62
     7
100
AcDbLine
 10
69.371924
 20
323.132441
 11
68.372168
 21
324.132441
  0
LINE
  5
253
100
AcDbEntity
  8
M0
 62
     7
100
AcDbLine
 10
93.372168
 20
259.132456
 11
101.872168
 21
259.132456
  0
LINE
  5
254
100
AcDbEntity
  8
M0
 62
     7
100
AcDbLine
 10
101.872168
 20
259.132456
 11
101.872168
 21
267.132456
  0
LINE
  5
255
100
AcDbEntity
  8
M0
 62
     7
100
AcDbLine
 10
68.372168
 20
324.132441
 11
60.872168
 21
324.132426
  0
LINE
  5
256
100
AcDbEntity
  8
M0
 62
     7
100
AcDbLine
 10
58.872168
 20
322.132426
 11
58.872168
 21
316.132441
  0
ARC
  5
257
100
AcDbEntity
  8
M0
 62
     7
100
AcDbCircle
 10
60.872168
 20
322.132426
 40
2.0
100
AcDbArc
 50
89.999563
 51
180.0
  0
LINE
  5
258
100
AcDbEntity
  8
M0
 62
     7
100
AcDbLine
 10
88.872168
 20
261.132456
 11
88.872168
 21
263.632441
  0
LINE
  5
259
100
AcDbEntity
  8
M0
 62
     7
100
AcDbLine
 10
92.372168
 20
260.132441
 11
92.372168
 21
263.632441
  0
LINE
  5
25A
100
AcDbEntity
  8
M0
 62
     7
100
AcDbLine
 10
92.372168
 20
260.132441
 11
93.372168
 21
259.132456
  0
LINE
  5
25B
100
AcDbEntity
  8
M0
 62
     7
100
AcDbLine
 10
90.872168
 20
263.132456
 11
90.872168
 21
263.632441
  0
LINE
  5
25C
100
AcDbEntity
  8
M0
 62
     7
100
AcDbLine
 10
89.372168
 20
261.132456
 11
89.372168
 21
263.632441
  0
LINE
  5
25D
100
AcDbEntity
  8
M0
 62
     7
100
AcDbLine
 10
86.422217
 20
261.132456
 11
88.872168
 21
261.132456
  0
LINE
  5
25E
100
AcDbEntity
  8
M0
 62
     7
100
AcDbLine
 10
90.872168
 20
263.132456
 11
92.372168
 21
263.132456
  0
LINE
  5
25F
100
AcDbEntity
  8
M0
 62
     7
100
AcDbLine
 10
89.372168
 20
261.132456
 11
92.372168
 21
261.132456
  0
LINE
  5
260
100
AcDbEntity
  8
M0
 62
     7
100
AcDbLine
 10
61.971167
 20
316.132441
 11
61.971396
 21
320.836878
  0
ARC
  5
261
100
AcDbEntity
  8
M0
 62
     7
100
AcDbCircle
 10
63.421118
 20
315.63238
 40
2.25
100
AcDbArc
 50
130.127109
 51
147.597441
  0
ARC
  5
262
100
AcDbEntity
  8
M0
 62
     7
100
AcDbCircle
 10
63.871787
 20
319.632319
 40
2.25
100
AcDbArc
 50
78.453989
 51
147.643365
  0
LINE
  5
263
100
AcDbEntity
  8
M0
 62
     7
100
AcDbLine
 10
61.521445
 20
316.838084
 11
61.521445
 21
316.132441
  0
ARC
  5
264
100
AcDbEntity
  8
M0
 62
     7
100
AcDbCircle
 10
98.421973
 20
265.632349
 40
2.25
100
AcDbArc
 50
278.630328
 51
282.616176
  0
LINE
  5
265
100
AcDbEntity
  8
M0
 62
     7
100
AcDbLine
 10
100.617774
 20
265.141047
 11
98.913428
 21
263.43664
  0
ARC
  5
266
100
AcDbEntity
  8
M0
 62
     7
100
AcDbCircle
 10
98.421973
 20
265.632349
 40
2.25
100
AcDbArc
 50
347.38825
 51
401.8145
  0
LINE
  5
267
100
AcDbEntity
  8
M0
 62
     7
100
AcDbLine
 10
96.422217
 20
262.73234
 11
98.077246
 21
262.73234
  0
ARC
  5
268
100
AcDbEntity
  8
M0
 62
     7
100
AcDbCircle
 10
96.872168
 20
264.632349
 40
2.25
100
AcDbArc
 50
302.384559
 51
327.025424
  0
CIRCLE
  5
269
100
AcDbEntity
  8
M0
 62
     6
100
AcDbCircle
 10
60.372168
 20
311.632365
 40
3.0
  0
LINE
  5
26A
100
AcDbEntity
  8
M0
 62
     6
100
AcDbLine
 10
57.413413
 20
315.579707
 11
56.597159
 21
312.932413
  0
LINE
  5
26B
100
AcDbEntity
  8
M0
 62
     6
100
AcDbLine
 10
57.413413
 20
307.685114
 11
56.597159
 21
310.332438
  0
LINE
  5
26C
100
AcDbEntity
  8
M0
 62
     6
100
AcDbLine
 10
63.330893
 20
315.579722
 11
64.147162
 21
312.932413
  0
LINE
  5
26D
100
AcDbEntity
  8
M0
 62
     6
100
AcDbLine
 10
63.330893
 20
307.685099
 11
64.147162
 21
310.332438
  0
LINE
  5
26E
100
AcDbEntity
  8
M0
 62
     6
100
AcDbLine
 10
57.891211
 20
307.332438
 11
62.853079
 21
307.332438
  0
LINE
  5
26F
100
AcDbEntity
  8
M0
 62
     6
100
AcDbLine
 10
64.147162
 20
310.332438
 11
64.147162
 21
312.932413
  0
LINE
  5
270
100
AcDbEntity
  8
M0
 62
     6
100
AcDbLine
 10
62.853079
 20
315.932413
 11
57.891211
 21
315.932398
  0
LINE
  5
271
100
AcDbEntity
  8
M0
 62
     6
100
AcDbLine
 10
56.597159
 20
312.932413
 11
56.597159
 21
310.332438
  0
LINE
  5
272
100
AcDbEntity
  8
M0
  6
DASHDOT
 62
     6
100
AcDbLine
 10
54.097159
 20
311.632365
 11
66.647162
 21
311.632365
  0
LINE
  5
273
100
AcDbEntity
  8
M0
  6
DASHDOT
 62
     6
100
AcDbLine
 10
60.372168
 20
304.832453
 11
60.372168
 21
318.432413
  0
LINE
  5
274
100
AcDbEntity
  8
M0
 62
     6
100
AcDbLine
 10
61.962943
 20
310.041544
 11
58.781134
 21
313.223307
  0
LINE
  5
275
100
AcDbEntity
  8
M0
 62
     6
100
AcDbLine
 10
60.725577
 20
313.046549
 11
58.957907
 21
311.278849
  0
LINE
  5
276
100
AcDbEntity
  8
M0
 62
     6
100
AcDbLine
 10
61.786185
 20
311.98588
 11
60.018561
 21
310.218302
  0
ARC
  5
277
100
AcDbEntity
  8
M0
 62
     6
100
AcDbCircle
 10
57.891211
 20
315.432398
 40
0.5
100
AcDbArc
 50
90.0
 51
162.865663
  0
ARC
  5
278
100
AcDbEntity
  8
M0
 62
     6
100
AcDbCircle
 10
57.891211
 20
307.832438
 40
0.5
100
AcDbArc
 50
197.137551
 51
270.0
  0
ARC
  5
279
100
AcDbEntity
  8
M0
 62
     6
100
AcDbCircle
 10
62.853079
 20
307.832438
 40
0.5
100
AcDbArc
 50
270.0
 51
342.861653
  0
ARC
  5
27A
100
AcDbEntity
  8
M0
 62
     6
100
AcDbCircle
 10
62.853079
 20
315.432398
 40
0.5
100
AcDbArc
 50
17.134787
 51
90.0
  0
CIRCLE
  5
27B
100
AcDbEntity
  8
M0
 62
     6
100
AcDbCircle
 10
100.372168
 20
271.632532
 40
3.0
  0
LINE
  5
27C
100
AcDbEntity
  8
M0
 62
     6
100
AcDbLine
 10
97.413413
 20
275.579874
 11
96.597159
 21
272.932581
  0
LINE
  5
27D
100
AcDbEntity
  8
M0
 62
     6
100
AcDbLine
 10
97.413413
 20
267.685282
 11
96.597159
 21
270.332606
  0
LINE
  5
27E
100
AcDbEntity
  8
M0
 62
     6
100
AcDbLine
 10
103.330893
 20
275.57989
 11
104.147162
 21
272.932581
  0
LINE
  5
27F
100
AcDbEntity
  8
M0
 62
     6
100
AcDbLine
 10
103.330893
 20
267.685267
 11
104.147162
 21
270.332606
  0
LINE
  5
280
100
AcDbEntity
  8
M0
 62
     6
100
AcDbLine
 10
97.891211
 20
267.332606
 11
102.853079
 21
267.332606
  0
LINE
  5
281
100
AcDbEntity
  8
M0
 62
     6
100
AcDbLine
 10
104.147162
 20
270.332606
 11
104.147162
 21
272.932581
  0
LINE
  5
282
100
AcDbEntity
  8
M0
 62
     6
100
AcDbLine
 10
102.853079
 20
275.932581
 11
97.891211
 21
275.932566
  0
LINE
  5
283
100
AcDbEntity
  8
M0
 62
     6
100
AcDbLine
 10
96.597159
 20
272.932581
 11
96.597159
 21
270.332606
  0
LINE
  5
284
100
AcDbEntity
  8
M0
  6
DASHDOT
 62
     6
100
AcDbLine
 10
94.097159
 20
271.632532
 11
106.647162
 21
271.632532
  0
LINE
  5
285
100
AcDbEntity
  8
M0
  6
DASHDOT
 62
     6
100
AcDbLine
 10
100.372168
 20
264.832621
 11
100.372168
 21
278.432581
  0
LINE
  5
286
100
AcDbEntity
  8
M0
 62
     6
100
AcDbLine
 10
101.962943
 20
270.041712
 11
98.781134
 21
273.223475
  0
LINE
  5
287
100
AcDbEntity
  8
M0
 62
     6
100
AcDbLine
 10
100.725577
 20
273.046717
 11
98.957907
 21
271.279017
  0
LINE
  5
288
100
AcDbEntity
  8
M0
 62
     6
100
AcDbLine
 10
101.786185
 20
271.986048
 11
100.018561
 21
270.21847
  0
ARC
  5
289
100
AcDbEntity
  8
M0
 62
     6
100
AcDbCircle
 10
97.891211
 20
275.432566
 40
0.5
100
AcDbArc
 50
90.0
 51
162.865663
  0
ARC
  5
28A
100
AcDbEntity
  8
M0
 62
     6
100
AcDbCircle
 10
97.891211
 20
267.832606
 40
0.5
100
AcDbArc
 50
197.137551
 51
270.0
  0
ARC
  5
28B
100
AcDbEntity
  8
M0
 62
     6
100
AcDbCircle
 10
102.853079
 20
267.832606
 40
0.5
100
AcDbArc
 50
270.0
 51
342.861653
  0
ARC
  5
28C
100
AcDbEntity
  8
M0
 62
     6
100
AcDbCircle
 10
102.853079
 20
275.432566
 40
0.5
100
AcDbArc
 50
17.134787
 51
90.0
  0
LINE
  5
28D
100
AcDbEntity
  8
M0
 62
     2
100
AcDbLine
 10
78.372168
 20
289.132456
 11
82.372168
 21
289.132456
  0
LINE
  5
28E
100
AcDbEntity
  8
M0
 62
     2
100
AcDbLine
 10
82.872168
 20
289.632441
 11
82.872168
 21
293.632426
  0
LINE
  5
28F
100
AcDbEntity
  8
M0
 62
     2
100
AcDbLine
 10
82.372168
 20
294.132456
 11
78.372168
 21
294.132441
  0
LINE
  5
290
100
AcDbEntity
  8
M0
 62
     2
100
AcDbLine
 10
77.872168
 20
293.632441
 11
77.872168
 21
289.632456
  0
ARC
  5
291
100
AcDbEntity
  8
M0
 62
     2
100
AcDbCircle
 10
78.372168
 20
289.632456
 40
0.5
100
AcDbArc
 50
179.999891
 51
270.0
  0
ARC
  5
292
100
AcDbEntity
  8
M0
 62
     2
100
AcDbCircle
 10
82.372168
 20
289.632456
 40
0.5
100
AcDbArc
 50
270.0
 51
360.0
  0
ARC
  5
293
100
AcDbEntity
  8
M0
 62
     2
100
AcDbCircle
 10
82.372168
 20
293.632441
 40
0.5
100
AcDbArc
 50
0.0
 51
90.0
  0
ARC
  5
294
100
AcDbEntity
  8
M0
 62
     2
100
AcDbCircle
 10
78.372168
 20
293.632441
 40
0.5
100
AcDbArc
 50
90.0
 51
180.0
  0
LINE
  5
295
100
AcDbEntity
  8
M0
 62
     2
100
AcDbLine
 10
71.872153
 20
255.633051
 11
71.872153
 21
263.632441
  0
LINE
  5
296
100
AcDbEntity
  8
M0
 62
   114
100
AcDbLine
 10
52.87217
 20
255.632479
 11
52.872166
 21
249.832476
  0
LINE
  5
297
100
AcDbEntity
  8
M0
 62
   114
100
AcDbLine
 10
97.872163
 20
245.332448
 11
97.872168
 21
252.332463
  0
LINE
  5
298
100
AcDbEntity
  8
M0
 62
   114
100
AcDbLine
 10
89.172169
 20
248.712824
 11
89.676013
 21
246.832453
  0
LINE
  5
299
100
AcDbEntity
  8
M0
 62
   114
100
AcDbLine
 10
89.472158
 20
251.45698
 11
90.443347
 21
247.832453
  0
LINE
  5
29A
100
AcDbEntity
  8
M0
 62
   114
100
AcDbLine
 10
97.872165
 20
247.832448
 11
90.443347
 21
247.832453
  0
LINE
  5
29B
100
AcDbEntity
  8
M0
 62
   114
100
AcDbLine
 10
89.472159
 20
252.332468
 11
97.872168
 21
252.332448
  0
LINE
  5
29C
100
AcDbEntity
  8
M0
 62
   114
100
AcDbLine
 10
88.872168
 20
253.332454
 11
88.872172
 21
258.332454
  0
LINE
  5
29D
100
AcDbEntity
  8
M0
 62
   114
100
AcDbLine
 10
89.472158
 20
251.332468
 11
89.472159
 21
253.332453
  0
LINE
  5
29E
100
AcDbEntity
  8
M0
 62
   114
100
AcDbLine
 10
89.472158
 20
251.332468
 11
97.872167
 21
251.332448
  0
LINE
  5
29F
100
AcDbEntity
  8
M0
 62
   114
100
AcDbLine
 10
89.472159
 20
253.332453
 11
73.372168
 21
253.332463
  0
LINE
  5
2A0
100
AcDbEntity
  8
M0
 62
   114
100
AcDbLine
 10
62.872169
 20
254.032467
 11
70.372169
 21
254.032477
  0
LINE
  5
2A1
100
AcDbEntity
  8
M0
 62
   114
100
AcDbLine
 10
62.872169
 20
254.832455
 11
70.372169
 21
254.832465
  0
LINE
  5
2A2
100
AcDbEntity
  8
M0
 62
   114
100
AcDbLine
 10
70.37217
 20
255.032493
 11
73.37217
 21
255.03246
  0
LINE
  5
2A3
100
AcDbEntity
  8
M0
 62
   114
100
AcDbLine
 10
87.37217
 20
255.632458
 11
52.87217
 21
255.632479
  0
LINE
  5
2A4
100
AcDbEntity
  8
M0
 62
   114
100
AcDbLine
 10
62.872168
 20
251.83247
 11
62.872169
 21
254.832485
  0
LINE
  5
2A5
100
AcDbEntity
  8
M0
 62
   114
100
AcDbLine
 10
73.372168
 20
253.332479
 11
73.37217
 21
255.032491
  0
LINE
  5
2A6
100
AcDbEntity
  8
M0
 62
   114
100
AcDbLine
 10
70.372169
 20
254.032477
 11
70.37217
 21
255.032493
  0
LINE
  5
2A7
100
AcDbEntity
  8
M0
 62
   114
100
AcDbLine
 10
87.372168
 20
253.332455
 11
87.37217
 21
255.632458
  0
LINE
  5
2A8
100
AcDbEntity
  8
M0
 62
   114
100
AcDbLine
 10
54.872188
 20
259.332475
 11
54.872185
 21
255.632493
  0
LINE
  5
2A9
100
AcDbEntity
  8
M0
 62
   114
100
AcDbLine
 10
59.872185
 20
255.63249
 11
59.872188
 21
259.332472
  0
LINE
  5
2AA
100
AcDbEntity
  8
M0
 62
   114
100
AcDbLine
 10
64.872188
 20
259.332469
 11
64.872185
 21
255.632487
  0
LINE
  5
2AB
100
AcDbEntity
  8
M0
 62
   114
100
AcDbLine
 10
69.872185
 20
255.632484
 11
69.872188
 21
259.332466
  0
LINE
  5
2AC
100
AcDbEntity
  8
M0
 62
   114
100
AcDbLine
 10
74.872188
 20
259.332462
 11
74.872185
 21
255.632481
  0
LINE
  5
2AD
100
AcDbEntity
  8
M0
 62
   114
100
AcDbLine
 10
78.172188
 20
255.632479
 11
78.172191
 21
259.33246
  0
LINE
  5
2AE
100
AcDbEntity
  8
M0
 62
   114
100
AcDbLine
 10
88.322169
 20
258.332454
 11
88.322169
 21
258.832469
  0
LINE
  5
2AF
100
AcDbEntity
  8
M0
 62
   114
100
AcDbLine
 10
88.872172
 20
258.332454
 11
88.322169
 21
258.332454
  0
LINE
  5
2B0
100
AcDbEntity
  8
M0
 62
   114
100
AcDbLine
 10
88.322169
 20
258.832469
 11
78.372202
 21
258.832475
  0
LINE
  5
2B1
100
AcDbEntity
  8
M0
 62
   114
100
AcDbLine
 10
78.172191
 20
259.33246
 11
74.872188
 21
259.332462
  0
LINE
  5
2B2
100
AcDbEntity
  8
M0
 62
   114
100
AcDbLine
 10
69.872188
 20
259.332466
 11
64.872188
 21
259.332469
  0
LINE
  5
2B3
100
AcDbEntity
  8
M0
 62
   114
100
AcDbLine
 10
59.872188
 20
259.332472
 11
54.872188
 21
259.332475
  0
LINE
  5
2B4
100
AcDbEntity
  8
M0
 62
     1
100
AcDbLine
 10
88.672168
 20
251.832463
 11
57.372165
 21
251.832483
  0
LINE
  5
2B5
100
AcDbEntity
  8
M0
 62
     1
100
AcDbLine
 10
56.872164
 20
251.332498
 11
56.872154
 21
234.832501
  0
LINE
  5
2B6
100
AcDbEntity
  8
M0
 62
     1
100
AcDbLine
 10
56.872154
 20
234.832482
 11
97.372154
 21
234.832473
  0
LINE
  5
2B7
100
AcDbEntity
  8
M0
 62
     1
100
AcDbLine
 10
97.872154
 20
235.332473
 11
97.872161
 21
246.332457
  0
LINE
  5
2B8
100
AcDbEntity
  8
M0
 62
     1
100
AcDbLine
 10
97.372162
 20
246.832458
 11
89.672165
 21
246.832463
  0
LINE
  5
2B9
100
AcDbEntity
  8
M0
 62
     1
100
AcDbLine
 10
89.172165
 20
247.332463
 11
89.172167
 21
251.332463
  0
ARC
  5
2BA
100
AcDbEntity
  8
M0
 62
     1
100
AcDbCircle
 10
97.372154
 20
235.332473
 40
0.5
100
AcDbArc
 50
270.0
 51
359.999855
  0
ARC
  5
2BB
100
AcDbEntity
  8
M0
 62
     1
100
AcDbCircle
 10
88.672167
 20
251.332463
 40
0.5
100
AcDbArc
 50
359.998215
 51
450.0
  0
ARC
  5
2BC
100
AcDbEntity
  8
M0
 62
     1
100
AcDbCircle
 10
57.372164
 20
251.332483
 40
0.5
100
AcDbArc
 50
89.998215
 51
179.999964
  0
ARC
  5
2BD
100
AcDbEntity
  8
M0
 62
     1
100
AcDbCircle
 10
97.372161
 20
246.332458
 40
0.5
100
AcDbArc
 50
359.999855
 51
450.0
  0
ARC
  5
2BE
100
AcDbEntity
  8
M0
 62
     1
100
AcDbCircle
 10
89.672165
 20
247.332463
 40
0.5
100
AcDbArc
 50
179.999964
 51
270.0
  0
CIRCLE
  5
2BF
100
AcDbEntity
  8
M0
 62
     1
100
AcDbCircle
 10
65.872159
 20
242.132496
 40
4.5
  0
LINE
  5
2C0
100
AcDbEntity
  8
M0
  6
DASHDOT
 62
     1
100
AcDbLine
 10
72.872159
 20
242.132491
 11
58.872159
 21
242.1325
  0
LINE
  5
2C1
100
AcDbEntity
  8
M0
  6
DASHDOT
 62
     1
100
AcDbLine
 10
65.872163
 20
249.132496
 11
65.872154
 21
235.132496
  0
LINE
  5
2C2
100
AcDbEntity
  8
M0
 62
   154
100
AcDbLine
 10
67.872153
 20
247.732471
 11
67.872153
 21
250.532465
  0
LINE
  5
2C3
100
AcDbEntity
  8
M0
 62
   154
100
AcDbLine
 10
67.872153
 20
250.532465
 11
63.872153
 21
250.532465
  0
LINE
  5
2C4
100
AcDbEntity
  8
M0
 62
   154
100
AcDbLine
 10
63.872153
 20
250.532465
 11
63.872153
 21
247.732471
  0
LINE
  5
2C5
100
AcDbEntity
  8
M0
 62
   154
100
AcDbLine
 10
63.872153
 20
247.732471
 11
67.872153
 21
247.732471
  0
LINE
  5
2C6
100
AcDbEntity
  8
M0
  6
DASHDOT
 62
   154
100
AcDbLine
 10
65.872153
 20
242.732471
 11
65.872153
 21
255.532465
  0
CIRCLE
  5
2C7
100
AcDbEntity
  8
M0
  6
DASHED
 62
    74
100
AcDbCircle
 10
82.872153
 20
242.132441
 40
5.9
  0
LINE
  5
2C8
100
AcDbEntity
  8
M0
  6
DASHDOT
 62
    74
100
AcDbLine
 10
75.972159
 20
242.132441
 11
89.772153
 21
242.132441
  0
LINE
  5
2C9
100
AcDbEntity
  8
M0
  6
DASHDOT
 62
    74
100
AcDbLine
 10
82.872153
 20
235.23244
 11
82.872153
 21
249.032435
  0
LINE
  5
2CA
100
AcDbEntity
  8
M0
  6
DASHED
 62
    74
100
AcDbLine
 10
83.372153
 20
240.382441
 11
83.372153
 21
241.632441
  0
LINE
  5
2CB
100
AcDbEntity
  8
M0
  6
DASHED
 62
    74
100
AcDbLine
 10
83.372153
 20
241.632441
 11
84.622153
 21
241.632441
  0
LINE
  5
2CC
100
AcDbEntity
  8
M0
  6
DASHED
 62
    74
100
AcDbLine
 10
84.622153
 20
241.632441
 11
84.622153
 21
242.632441
  0
LINE
  5
2CD
100
AcDbEntity
  8
M0
  6
DASHED
 62
    74
100
AcDbLine
 10
84.622153
 20
242.632441
 11
83.372153
 21
242.632441
  0
LINE
  5
2CE
100
AcDbEntity
  8
M0
  6
DASHED
 62
    74
100
AcDbLine
 10
83.372153
 20
242.632441
 11
83.372153
 21
243.882441
  0
LINE
  5
2CF
100
AcDbEntity
  8
M0
  6
DASHED
 62
    74
100
AcDbLine
 10
83.372153
 20
243.882441
 11
82.372153
 21
243.882441
  0
LINE
  5
2D0
100
AcDbEntity
  8
M0
  6
DASHED
 62
    74
100
AcDbLine
 10
82.372153
 20
243.882441
 11
82.372153
 21
242.632441
  0
LINE
  5
2D1
100
AcDbEntity
  8
M0
  6
DASHED
 62
    74
100
AcDbLine
 10
82.372153
 20
242.632441
 11
81.122153
 21
242.632441
  0
LINE
  5
2D2
100
AcDbEntity
  8
M0
  6
DASHED
 62
    74
100
AcDbLine
 10
81.122153
 20
242.632441
 11
81.122153
 21
241.632441
  0
LINE
  5
2D3
100
AcDbEntity
  8
M0
  6
DASHED
 62
    74
100
AcDbLine
 10
81.122153
 20
241.632441
 11
82.372153
 21
241.632441
  0
LINE
  5
2D4
100
AcDbEntity
  8
M0
  6
DASHED
 62
    74
100
AcDbLine
 10
82.372153
 20
241.632441
 11
82.372153
 21
240.382441
  0
LINE
  5
2D5
100
AcDbEntity
  8
M0
  6
DASHED
 62
    74
100
AcDbLine
 10
82.372153
 20
240.382441
 11
83.372153
 21
240.382441
  0
LINE
  5
2D6
100
AcDbEntity
  8
M0
 62
     7
100
AcDbLine
 10
52.872142
 20
249.832458
 11
52.872168
 21
207.832458
  0
LINE
  5
2D7
100
AcDbEntity
  8
M0
 62
     7
100
AcDbLine
 10
63.37217
 20
205.132468
 11
64.37217
 21
205.132469
  0
LINE
  5
2D8
100
AcDbEntity
  8
M0
 62
     7
100
AcDbLine
 10
97.872168
 20
208.332487
 11
97.872152
 21
233.832487
  0
LINE
  5
2D9
100
AcDbEntity
  8
M0
 62
     7
100
AcDbLine
 10
95.872168
 20
208.332485
 11
95.872167
 21
209.832485
  0
LINE
  5
2DA
100
AcDbEntity
  8
M0
 62
     7
100
AcDbLine
 10
84.87217
 20
205.632482
 11
84.872167
 21
209.832478
  0
LINE
  5
2DB
100
AcDbEntity
  8
M0
 62
     7
100
AcDbLine
 10
52.872142
 20
249.832458
 11
57.872142
 21
249.832462
  0
LINE
  5
2DC
100
AcDbEntity
  8
M0
 62
     7
100
AcDbLine
 10
95.872167
 20
209.832485
 11
84.872167
 21
209.832478
  0
LINE
  5
2DD
100
AcDbEntity
  8
M0
 62
     7
100
AcDbLine
 10
97.372168
 20
207.832486
 11
96.372168
 21
207.832486
  0
LINE
  5
2DE
100
AcDbEntity
  8
M0
 62
     7
100
AcDbLine
 10
82.872163
 20
217.332477
 11
82.87217
 21
205.63248
  0
LINE
  5
2DF
100
AcDbEntity
  8
M0
 62
     7
100
AcDbLine
 10
74.872159
 20
222.332472
 11
74.87217
 21
205.632475
  0
LINE
  5
2E0
100
AcDbEntity
  8
M0
 62
     7
100
AcDbLine
 10
72.872159
 20
222.332471
 11
72.87217
 21
205.632474
  0
LINE
  5
2E1
100
AcDbEntity
  8
M0
 62
     7
100
AcDbLine
 10
64.87217
 20
205.632469
 11
64.872159
 21
222.332466
  0
LINE
  5
2E2
100
AcDbEntity
  8
M0
 62
     7
100
AcDbLine
 10
62.872159
 20
222.332465
 11
62.87217
 21
205.632468
  0
LINE
  5
2E3
100
AcDbEntity
  8
M0
 62
     7
100
AcDbLine
 10
86.372167
 20
209.832479
 11
86.372163
 21
217.332479
  0
LINE
  5
2E4
100
AcDbEntity
  8
M0
 62
     7
100
AcDbLine
 10
82.872168
 20
207.832477
 11
74.872168
 21
207.832472
  0
LINE
  5
2E5
100
AcDbEntity
  8
M0
 62
     7
100
AcDbLine
 10
72.872168
 20
207.832471
 11
64.872168
 21
207.832466
  0
LINE
  5
2E6
100
AcDbEntity
  8
M0
 62
     7
100
AcDbLine
 10
62.872168
 20
207.832465
 11
52.872168
 21
207.832458
  0
LINE
  5
2E7
100
AcDbEntity
  8
M0
 62
     7
100
AcDbLine
 10
81.872162
 20
218.332477
 11
75.872162
 21
218.332473
  0
LINE
  5
2E8
100
AcDbEntity
  8
M0
 62
     7
100
AcDbLine
 10
71.872162
 20
218.33247
 11
65.872162
 21
218.332467
  0
LINE
  5
2E9
100
AcDbEntity
  8
M0
 62
     7
100
AcDbLine
 10
83.37217
 20
205.132481
 11
84.37217
 21
205.132481
  0
LINE
  5
2EA
100
AcDbEntity
  8
M0
 62
     7
100
AcDbLine
 10
73.37217
 20
205.132474
 11
74.37217
 21
205.132475
  0
LINE
  5
2EB
100
AcDbEntity
  8
M0
 62
     7
100
AcDbLine
 10
57.872158
 20
224.332462
 11
57.872142
 21
249.832462
  0
LINE
  5
2EC
100
AcDbEntity
  8
M0
 62
     7
100
AcDbLine
 10
55.872142
 20
249.83246
 11
55.872158
 21
223.83246
  0
LINE
  5
2ED
100
AcDbEntity
  8
M0
 62
     7
100
AcDbLine
 10
57.372158
 20
223.832461
 11
53.372158
 21
223.832459
  0
LINE
  5
2EE
100
AcDbEntity
  8
M0
 62
     7
100
AcDbLine
 10
95.872158
 20
224.332485
 11
95.872154
 21
231.232486
  0
LINE
  5
2EF
100
AcDbEntity
  8
M0
 62
     7
100
AcDbLine
 10
87.872154
 20
231.232481
 11
87.872159
 21
222.83248
  0
LINE
  5
2F0
100
AcDbEntity
  8
M0
 62
     7
100
AcDbLine
 10
85.872159
 20
222.832479
 11
85.872152
 21
233.832479
  0
LINE
  5
2F1
100
AcDbEntity
  8
M0
 62
     7
100
AcDbLine
 10
77.872152
 20
233.832474
 11
77.872159
 21
222.832474
  0
LINE
  5
2F2
100
AcDbEntity
  8
M0
 62
     7
100
AcDbLine
 10
75.872159
 20
222.832473
 11
75.872152
 21
233.832473
  0
LINE
  5
2F3
100
AcDbEntity
  8
M0
 62
     7
100
AcDbLine
 10
67.872152
 20
233.832468
 11
67.872159
 21
222.832468
  0
LINE
  5
2F4
100
AcDbEntity
  8
M0
 62
     7
100
AcDbLine
 10
65.872152
 20
233.832467
 11
65.872159
 21
222.832467
  0
LINE
  5
2F5
100
AcDbEntity
  8
M0
 62
     7
100
AcDbLine
 10
97.372158
 20
223.832486
 11
96.372158
 21
223.832486
  0
LINE
  5
2F6
100
AcDbEntity
  8
M0
 62
     7
100
AcDbLine
 10
74.372164
 20
215.332472
 11
73.372164
 21
215.332471
  0
LINE
  5
2F7
100
AcDbEntity
  8
M0
 62
     7
100
AcDbLine
 10
64.372164
 20
215.332466
 11
63.372164
 21
215.332465
  0
LINE
  5
2F8
100
AcDbEntity
  8
M0
 62
     7
100
AcDbLine
 10
67.372159
 20
222.332467
 11
66.372159
 21
222.332467
  0
LINE
  5
2F9
100
AcDbEntity
  8
M0
 62
     7
100
AcDbLine
 10
77.372159
 20
222.332474
 11
76.372159
 21
222.332473
  0
LINE
  5
2FA
100
AcDbEntity
  8
M0
 62
     7
100
AcDbLine
 10
87.372159
 20
222.33248
 11
86.372159
 21
222.332479
  0
LINE
  5
2FB
100
AcDbEntity
  8
M0
 62
     7
100
AcDbLine
 10
87.872159
 20
222.83248
 11
97.872159
 21
222.832487
  0
LINE
  5
2FC
100
AcDbEntity
  8
M0
 62
     7
100
AcDbLine
 10
77.872159
 20
222.832474
 11
85.872159
 21
222.832479
  0
LINE
  5
2FD
100
AcDbEntity
  8
M0
 62
     7
100
AcDbLine
 10
67.872159
 20
222.832468
 11
75.872159
 21
222.832473
  0
ARC
  5
2FE
100
AcDbEntity
  8
M0
 62
     7
100
AcDbCircle
 10
63.37217
 20
205.632468
 40
0.5
100
AcDbArc
 50
180.000036
 51
270.0
  0
ARC
  5
2FF
100
AcDbEntity
  8
M0
 62
     7
100
AcDbCircle
 10
64.37217
 20
205.632469
 40
0.5
100
AcDbArc
 50
270.0
 51
360.000036
  0
ARC
  5
300
100
AcDbEntity
  8
M0
 62
     7
100
AcDbCircle
 10
73.37217
 20
205.632474
 40
0.5
100
AcDbArc
 50
180.000036
 51
270.0
  0
ARC
  5
301
100
AcDbEntity
  8
M0
 62
     7
100
AcDbCircle
 10
74.37217
 20
205.632475
 40
0.5
100
AcDbArc
 50
270.0
 51
360.000036
  0
ARC
  5
302
100
AcDbEntity
  8
M0
 62
     7
100
AcDbCircle
 10
83.37217
 20
205.632481
 40
0.5
100
AcDbArc
 50
180.000036
 51
270.0
  0
ARC
  5
303
100
AcDbEntity
  8
M0
 62
     7
100
AcDbCircle
 10
84.37217
 20
205.632481
 40
0.5
100
AcDbArc
 50
270.0
 51
360.000036
  0
ARC
  5
304
100
AcDbEntity
  8
M0
 62
     7
100
AcDbCircle
 10
96.372168
 20
208.332486
 40
0.5
100
AcDbArc
 50
180.000036
 51
269.998287
  0
ARC
  5
305
100
AcDbEntity
  8
M0
 62
     7
100
AcDbCircle
 10
97.372168
 20
208.332486
 40
0.5
100
AcDbArc
 50
269.998287
 51
360.000036
  0
ARC
  5
306
100
AcDbEntity
  8
M0
 62
     7
100
AcDbCircle
 10
63.372163
 20
215.832465
 40
0.5
100
AcDbArc
 50
180.000036
 51
270.0
  0
ARC
  5
307
100
AcDbEntity
  8
M0
 62
     7
100
AcDbCircle
 10
64.372163
 20
215.832466
 40
0.5
100
AcDbArc
 50
270.0
 51
360.000036
  0
ARC
  5
308
100
AcDbEntity
  8
M0
 62
     7
100
AcDbCircle
 10
73.372163
 20
215.832471
 40
0.5
100
AcDbArc
 50
180.000036
 51
270.0
  0
ARC
  5
309
100
AcDbEntity
  8
M0
 62
     7
100
AcDbCircle
 10
74.372163
 20
215.832472
 40
0.5
100
AcDbArc
 50
270.0
 51
360.000036
  0
ARC
  5
30A
100
AcDbEntity
  8
M0
 62
     7
100
AcDbCircle
 10
96.372158
 20
224.332486
 40
0.5
100
AcDbArc
 50
180.000036
 51
269.998287
  0
ARC
  5
30B
100
AcDbEntity
  8
M0
 62
     7
100
AcDbCircle
 10
97.372158
 20
224.332486
 40
0.5
100
AcDbArc
 50
269.998287
 51
360.000036
  0
ARC
  5
30C
100
AcDbEntity
  8
M0
 62
     7
100
AcDbCircle
 10
96.872152
 20
233.832486
 40
1.0
100
AcDbArc
 50
0.0
 51
90.0
  0
ARC
  5
30D
100
AcDbEntity
  8
M0
 62
     7
100
AcDbCircle
 10
84.872152
 20
233.832478
 40
1.0
100
AcDbArc
 50
0.0
 51
90.0
  0
ARC
  5
30E
100
AcDbEntity
  8
M0
 62
     7
100
AcDbCircle
 10
78.872152
 20
233.832475
 40
1.0
100
AcDbArc
 50
90.0
 51
180.000036
  0
ARC
  5
30F
100
AcDbEntity
  8
M0
 62
     7
100
AcDbCircle
 10
74.872152
 20
233.832472
 40
1.0
100
AcDbArc
 50
0.0
 51
90.0
  0
LINE
  5
310
100
AcDbEntity
  8
M0
 62
     7
100
AcDbLine
 10
92.872162
 20
218.332483
 11
87.372162
 21
218.33248
  0
LINE
  5
311
100
AcDbEntity
  8
M0
 62
     7
100
AcDbLine
 10
94.372167
 20
209.832484
 11
94.372164
 21
214.332484
  0
LINE
  5
312
100
AcDbEntity
  8
M0
 62
     7
100
AcDbLine
 10
53.372159
 20
222.832459
 11
65.872159
 21
222.832467
  0
LINE
  5
313
100
AcDbEntity
  8
M0
 62
     7
100
AcDbLine
 10
61.872162
 20
218.332464
 11
56.372162
 21
218.332461
  0
LINE
  5
314
100
AcDbEntity
  8
M0
 62
     7
100
AcDbLine
 10
54.872168
 20
207.83246
 11
54.872163
 21
216.83246
  0
LINE
  5
315
100
AcDbEntity
  8
M0
 62
     7
100
AcDbLine
 10
96.872152
 20
234.832486
 11
59.632238
 21
234.832463
  0
ARC
  5
316
100
AcDbEntity
  8
M0
 62
     7
100
AcDbCircle
 10
68.872152
 20
233.832468
 40
1.0
100
AcDbArc
 50
90.0
 51
180.000036
  0
ARC
  5
317
100
AcDbEntity
  8
M0
 62
     7
100
AcDbCircle
 10
64.872152
 20
233.832466
 40
1.0
100
AcDbArc
 50
0.0
 51
90.0
  0
ARC
  5
318
100
AcDbEntity
  8
M0
 62
     7
100
AcDbCircle
 10
71.87216
 20
221.83247
 40
1.0
100
AcDbArc
 50
3.597218E-005
 51
90.0
  0
ARC
  5
319
100
AcDbEntity
  8
M0
 62
     7
100
AcDbCircle
 10
65.87216
 20
221.832467
 40
1.0
100
AcDbArc
 50
90.0
 51
180.000036
  0
ARC
  5
31A
100
AcDbEntity
  8
M0
 62
     7
100
AcDbCircle
 10
75.87216
 20
221.832473
 40
1.0
100
AcDbArc
 50
90.0
 51
180.000036
  0
ARC
  5
31B
100
AcDbEntity
  8
M0
 62
     7
100
AcDbCircle
 10
74.372159
 20
222.332472
 40
0.5
100
AcDbArc
 50
3.597218E-005
 51
90.0
  0
ARC
  5
31C
100
AcDbEntity
  8
M0
 62
     7
100
AcDbCircle
 10
73.372159
 20
222.332471
 40
0.5
100
AcDbArc
 50
90.0
 51
180.000036
  0
ARC
  5
31D
100
AcDbEntity
  8
M0
 62
     7
100
AcDbCircle
 10
64.372159
 20
222.332466
 40
0.5
100
AcDbArc
 50
3.597218E-005
 51
90.0
  0
ARC
  5
31E
100
AcDbEntity
  8
M0
 62
     7
100
AcDbCircle
 10
63.372159
 20
222.332465
 40
0.5
100
AcDbArc
 50
90.0
 51
180.000036
  0
ARC
  5
31F
100
AcDbEntity
  8
M0
 62
     7
100
AcDbCircle
 10
66.372159
 20
222.832467
 40
0.5
100
AcDbArc
 50
180.000036
 51
270.0
  0
ARC
  5
320
100
AcDbEntity
  8
M0
 62
     7
100
AcDbCircle
 10
67.372159
 20
222.832467
 40
0.5
100
AcDbArc
 50
270.0
 51
360.000036
  0
ARC
  5
321
100
AcDbEntity
  8
M0
 62
     7
100
AcDbCircle
 10
76.372159
 20
222.832473
 40
0.5
100
AcDbArc
 50
180.000036
 51
270.0
  0
ARC
  5
322
100
AcDbEntity
  8
M0
 62
     7
100
AcDbCircle
 10
77.372159
 20
222.832474
 40
0.5
100
AcDbArc
 50
270.0
 51
360.000036
  0
ARC
  5
323
100
AcDbEntity
  8
M0
 62
     7
100
AcDbCircle
 10
86.372159
 20
222.832479
 40
0.5
100
AcDbArc
 50
180.000036
 51
269.998287
  0
ARC
  5
324
100
AcDbEntity
  8
M0
 62
     7
100
AcDbCircle
 10
87.372159
 20
222.83248
 40
0.5
100
AcDbArc
 50
269.998287
 51
360.000036
  0
ARC
  5
325
100
AcDbEntity
  8
M0
 62
     7
100
AcDbCircle
 10
57.372158
 20
224.332461
 40
0.5
100
AcDbArc
 50
270.0
 51
360.000036
  0
ARC
  5
326
100
AcDbEntity
  8
M0
 62
     7
100
AcDbCircle
 10
53.372158
 20
224.332459
 40
0.5
100
AcDbArc
 50
180.000036
 51
270.0
  0
ARC
  5
327
100
AcDbEntity
  8
M0
 62
     7
100
AcDbCircle
 10
87.372163
 20
217.33248
 40
1.0
100
AcDbArc
 50
90.0
 51
180.000036
  0
ARC
  5
328
100
AcDbEntity
  8
M0
 62
     7
100
AcDbCircle
 10
81.872163
 20
217.332477
 40
1.0
100
AcDbArc
 50
3.597218E-005
 51
90.0
  0
ARC
  5
329
100
AcDbEntity
  8
M0
 62
     7
100
AcDbCircle
 10
75.872163
 20
217.332473
 40
1.0
100
AcDbArc
 50
90.0
 51
180.000036
  0
ARC
  5
32A
100
AcDbEntity
  8
M0
 62
     7
100
AcDbCircle
 10
71.872163
 20
217.33247
 40
1.0
100
AcDbArc
 50
3.597218E-005
 51
90.0
  0
ARC
  5
32B
100
AcDbEntity
  8
M0
 62
     7
100
AcDbCircle
 10
65.872163
 20
217.332467
 40
1.0
100
AcDbArc
 50
90.0
 51
180.000036
  0
ARC
  5
32C
100
AcDbEntity
  8
M0
 62
     7
100
AcDbCircle
 10
61.872163
 20
217.332464
 40
1.0
100
AcDbArc
 50
3.597218E-005
 51
90.0
  0
LINE
  5
32D
100
AcDbEntity
  8
M0
 62
     7
100
AcDbLine
 10
57.872154
 20
231.232462
 11
58.66872
 21
234.100105
  0
LINE
  5
32E
100
AcDbEntity
  8
M0
 62
     7
100
AcDbLine
 10
87.872154
 20
231.232481
 11
88.668707
 21
234.100124
  0
ARC
  5
32F
100
AcDbEntity
  8
M0
 62
     7
100
AcDbCircle
 10
89.632223
 20
233.832481
 40
1.0
100
AcDbArc
 50
90.0
 51
164.476182
  0
ARC
  5
330
100
AcDbEntity
  8
M0
 62
     7
100
AcDbCircle
 10
59.632238
 20
233.832463
 40
1.0
100
AcDbArc
 50
90.0
 51
164.475963
  0
LINE
  5
331
100
AcDbEntity
  8
M0
 62
     7
100
AcDbLine
 10
94.372164
 20
214.332484
 11
93.902009
 21
216.213069
  0
ARC
  5
332
100
AcDbEntity
  8
M0
 62
     7
100
AcDbCircle
 10
94.872163
 20
216.455593
 40
1.0
100
AcDbArc
 50
180.000036
 51
194.034583
  0
LINE
  5
333
100
AcDbEntity
  8
M0
 62
     7
100
AcDbLine
 10
93.872163
 20
217.332484
 11
93.872163
 21
216.455592
  0
ARC
  5
334
100
AcDbEntity
  8
M0
 62
     7
100
AcDbCircle
 10
92.872163
 20
217.332483
 40
1.0
100
AcDbArc
 50
3.597218E-005
 51
90.0
  0
ARC
  5
335
100
AcDbEntity
  8
M0
 62
     7
100
AcDbCircle
 10
53.372159
 20
223.332459
 40
0.5
100
AcDbArc
 50
180.000036
 51
270.0
  0
ARC
  5
336
100
AcDbEntity
  8
M0
 62
     7
100
AcDbCircle
 10
56.372163
 20
216.832461
 40
1.5
100
AcDbArc
 50
90.0
 51
180.000036
  0
LINE
  5
337
100
AcDbEntity
  8
M0
 62
     7
100
AcDbLine
 10
56.172156
 20
227.33246
 11
55.872156
 21
227.33246
  0
LINE
  5
338
100
AcDbEntity
  8
M0
 62
     7
100
AcDbLine
 10
56.672157
 20
225.832461
 11
56.172157
 21
225.83246
  0
LINE
  5
339
100
AcDbEntity
  8
M0
 62
     7
100
AcDbLine
 10
56.172157
 20
225.83246
 11
56.172156
 21
227.33246
  0
LINE
  5
33A
100
AcDbEntity
  8
M0
 62
     7
100
AcDbLine
 10
56.672159
 20
223.832461
 11
56.672157
 21
225.832461
  0
LINE
  5
33B
100
AcDbEntity
  8
M0
 62
     7
100
AcDbLine
 10
95.872154
 20
231.232486
 11
95.177297
 21
233.733951
  0
ARC
  5
33C
100
AcDbEntity
  8
M0
 62
     7
100
AcDbCircle
 10
93.732016
 20
233.332484
 40
1.5
100
AcDbArc
 50
15.524197
 51
90.0
  0
CIRCLE
  5
33D
100
AcDbEntity
  8
M0
 62
   114
100
AcDbCircle
 10
65.872153
 20
242.132471
 40
3.799999
  0
LINE
  5
33E
100
AcDbEntity
  8
M0
 62
   114
100
AcDbLine
 10
66.372153
 20
245.899424
 11
66.372153
 21
238.365504
  0
LINE
  5
33F
100
AcDbEntity
  8
M0
 62
   114
100
AcDbLine
 10
65.372153
 20
245.899424
 11
65.372153
 21
238.365504
  0
CIRCLE
  5
340
100
AcDbEntity
  8
M0
 62
     4
100
AcDbCircle
 10
61.872153
 20
230.132441
 40
2.999997
  0
LINE
  5
341
100
AcDbEntity
  8
M0
 62
     4
100
AcDbLine
 10
58.913168
 20
234.079783
 11
58.097006
 21
231.43249
  0
LINE
  5
342
100
AcDbEntity
  8
M0
 62
     4
100
AcDbLine
 10
58.913168
 20
226.185191
 11
58.097006
 21
228.832514
  0
LINE
  5
343
100
AcDbEntity
  8
M0
 62
     4
100
AcDbLine
 10
64.830649
 20
234.079798
 11
65.647055
 21
231.43249
  0
LINE
  5
344
100
AcDbEntity
  8
M0
 62
     4
100
AcDbLine
 10
64.830649
 20
226.185175
 11
65.647055
 21
228.832514
  0
LINE
  5
345
100
AcDbEntity
  8
M0
 62
     4
100
AcDbLine
 10
59.391196
 20
225.832514
 11
64.352866
 21
225.832514
  0
LINE
  5
346
100
AcDbEntity
  8
M0
 62
     4
100
AcDbLine
 10
65.647055
 20
228.832514
 11
65.647055
 21
231.43249
  0
LINE
  5
347
100
AcDbEntity
  8
M0
 62
     4
100
AcDbLine
 10
64.352866
 20
234.43249
 11
59.391196
 21
234.432475
  0
LINE
  5
348
100
AcDbEntity
  8
M0
 62
     4
100
AcDbLine
 10
58.097006
 20
231.43249
 11
58.097006
 21
228.832514
  0
LINE
  5
349
100
AcDbEntity
  8
M0
 62
     4
100
AcDbLine
 10
63.462729
 20
228.541621
 11
60.281088
 21
231.723383
  0
LINE
  5
34A
100
AcDbEntity
  8
M0
 62
     4
100
AcDbLine
 10
62.225424
 20
231.546626
 11
60.457846
 21
229.778925
  0
LINE
  5
34B
100
AcDbEntity
  8
M0
 62
     4
100
AcDbLine
 10
63.285971
 20
230.485957
 11
61.518393
 21
228.718378
  0
ARC
  5
34C
100
AcDbEntity
  8
M0
 62
     4
100
AcDbCircle
 10
59.391196
 20
233.932475
 40
0.5
100
AcDbArc
 50
89.998251
 51
162.874002
  0
ARC
  5
34D
100
AcDbEntity
  8
M0
 62
     4
100
AcDbCircle
 10
59.391196
 20
226.332514
 40
0.5
100
AcDbArc
 50
197.129131
 51
270.0
  0
ARC
  5
34E
100
AcDbEntity
  8
M0
 62
     4
100
AcDbCircle
 10
64.352866
 20
226.332514
 40
0.5
100
AcDbArc
 50
270.0
 51
342.861236
  0
ARC
  5
34F
100
AcDbEntity
  8
M0
 62
     4
100
AcDbCircle
 10
64.352866
 20
233.932475
 40
0.5
100
AcDbArc
 50
17.136442
 51
90.0
  0
LINE
  5
350
100
AcDbEntity
  8
M0
  6
DASHDOT
 62
     4
100
AcDbLine
 10
65.372153
 20
230.132441
 11
58.372153
 21
230.132441
  0
LINE
  5
351
100
AcDbEntity
  8
M0
  6
DASHDOT
 62
     4
100
AcDbLine
 10
61.872138
 20
233.632441
 11
61.872153
 21
226.632441
  0
CIRCLE
  5
352
100
AcDbEntity
  8
M0
 62
     4
100
AcDbCircle
 10
71.872153
 20
230.132441
 40
2.999997
  0
LINE
  5
353
100
AcDbEntity
  8
M0
 62
     4
100
AcDbLine
 10
68.913168
 20
234.079783
 11
68.097006
 21
231.43249
  0
LINE
  5
354
100
AcDbEntity
  8
M0
 62
     4
100
AcDbLine
 10
68.913168
 20
226.185191
 11
68.097006
 21
228.832514
  0
LINE
  5
355
100
AcDbEntity
  8
M0
 62
     4
100
AcDbLine
 10
74.830649
 20
234.079798
 11
75.647055
 21
231.43249
  0
LINE
  5
356
100
AcDbEntity
  8
M0
 62
     4
100
AcDbLine
 10
74.830649
 20
226.185175
 11
75.647055
 21
228.832514
  0
LINE
  5
357
100
AcDbEntity
  8
M0
 62
     4
100
AcDbLine
 10
69.391196
 20
225.832514
 11
74.352866
 21
225.832514
  0
LINE
  5
358
100
AcDbEntity
  8
M0
 62
     4
100
AcDbLine
 10
75.647055
 20
228.832514
 11
75.647055
 21
231.43249
  0
LINE
  5
359
100
AcDbEntity
  8
M0
 62
     4
100
AcDbLine
 10
74.352866
 20
234.43249
 11
69.391196
 21
234.432475
  0
LINE
  5
35A
100
AcDbEntity
  8
M0
 62
     4
100
AcDbLine
 10
68.097006
 20
231.43249
 11
68.097006
 21
228.832514
  0
LINE
  5
35B
100
AcDbEntity
  8
M0
 62
     4
100
AcDbLine
 10
73.462729
 20
228.541621
 11
70.281088
 21
231.723383
  0
LINE
  5
35C
100
AcDbEntity
  8
M0
 62
     4
100
AcDbLine
 10
72.225424
 20
231.546626
 11
70.457846
 21
229.778925
  0
LINE
  5
35D
100
AcDbEntity
  8
M0
 62
     4
100
AcDbLine
 10
73.285971
 20
230.485957
 11
71.518393
 21
228.718378
  0
ARC
  5
35E
100
AcDbEntity
  8
M0
 62
     4
100
AcDbCircle
 10
69.391196
 20
233.932475
 40
0.5
100
AcDbArc
 50
89.998251
 51
162.874002
  0
ARC
  5
35F
100
AcDbEntity
  8
M0
 62
     4
100
AcDbCircle
 10
69.391196
 20
226.332514
 40
0.5
100
AcDbArc
 50
197.129131
 51
270.0
  0
ARC
  5
360
100
AcDbEntity
  8
M0
 62
     4
100
AcDbCircle
 10
74.352866
 20
226.332514
 40
0.5
100
AcDbArc
 50
270.0
 51
342.861236
  0
ARC
  5
361
100
AcDbEntity
  8
M0
 62
     4
100
AcDbCircle
 10
74.352866
 20
233.932475
 40
0.5
100
AcDbArc
 50
17.136442
 51
90.0
  0
LINE
  5
362
100
AcDbEntity
  8
M0
  6
DASHDOT
 62
     4
100
AcDbLine
 10
75.372153
 20
230.132441
 11
68.372153
 21
230.132441
  0
LINE
  5
363
100
AcDbEntity
  8
M0
  6
DASHDOT
 62
     4
100
AcDbLine
 10
71.872138
 20
233.632441
 11
71.872153
 21
226.632441
  0
CIRCLE
  5
364
100
AcDbEntity
  8
M0
 62
     4
100
AcDbCircle
 10
81.872153
 20
230.132441
 40
2.999997
  0
LINE
  5
365
100
AcDbEntity
  8
M0
 62
     4
100
AcDbLine
 10
78.913168
 20
234.079783
 11
78.097006
 21
231.43249
  0
LINE
  5
366
100
AcDbEntity
  8
M0
 62
     4
100
AcDbLine
 10
78.913168
 20
226.185191
 11
78.097006
 21
228.832514
  0
LINE
  5
367
100
AcDbEntity
  8
M0
 62
     4
100
AcDbLine
 10
84.830649
 20
234.079798
 11
85.647055
 21
231.43249
  0
LINE
  5
368
100
AcDbEntity
  8
M0
 62
     4
100
AcDbLine
 10
84.830649
 20
226.185175
 11
85.647055
 21
228.832514
  0
LINE
  5
369
100
AcDbEntity
  8
M0
 62
     4
100
AcDbLine
 10
79.391196
 20
225.832514
 11
84.352866
 21
225.832514
  0
LINE
  5
36A
100
AcDbEntity
  8
M0
 62
     4
100
AcDbLine
 10
85.647055
 20
228.832514
 11
85.647055
 21
231.43249
  0
LINE
  5
36B
100
AcDbEntity
  8
M0
 62
     4
100
AcDbLine
 10
84.352866
 20
234.43249
 11
79.391196
 21
234.432475
  0
LINE
  5
36C
100
AcDbEntity
  8
M0
 62
     4
100
AcDbLine
 10
78.097006
 20
231.43249
 11
78.097006
 21
228.832514
  0
LINE
  5
36D
100
AcDbEntity
  8
M0
 62
     4
100
AcDbLine
 10
83.462729
 20
228.541621
 11
80.281088
 21
231.723383
  0
LINE
  5
36E
100
AcDbEntity
  8
M0
 62
     4
100
AcDbLine
 10
82.225424
 20
231.546626
 11
80.457846
 21
229.778925
  0
LINE
  5
36F
100
AcDbEntity
  8
M0
 62
     4
100
AcDbLine
 10
83.285971
 20
230.485957
 11
81.518393
 21
228.718378
  0
ARC
  5
370
100
AcDbEntity
  8
M0
 62
     4
100
AcDbCircle
 10
79.391196
 20
233.932475
 40
0.5
100
AcDbArc
 50
89.998251
 51
162.874002
  0
ARC
  5
371
100
AcDbEntity
  8
M0
 62
     4
100
AcDbCircle
 10
79.391196
 20
226.332514
 40
0.5
100
AcDbArc
 50
197.129131
 51
270.0
  0
ARC
  5
372
100
AcDbEntity
  8
M0
 62
     4
100
AcDbCircle
 10
84.352866
 20
226.332514
 40
0.5
100
AcDbArc
 50
270.0
 51
342.861236
  0
ARC
  5
373
100
AcDbEntity
  8
M0
 62
     4
100
AcDbCircle
 10
84.352866
 20
233.932475
 40
0.5
100
AcDbArc
 50
17.136442
 51
90.0
  0
LINE
  5
374
100
AcDbEntity
  8
M0
  6
DASHDOT
 62
     4
100
AcDbLine
 10
85.372153
 20
230.132441
 11
78.372153
 21
230.132441
  0
LINE
  5
375
100
AcDbEntity
  8
M0
  6
DASHDOT
 62
     4
100
AcDbLine
 10
81.872138
 20
233.632441
 11
81.872153
 21
226.632441
  0
CIRCLE
  5
376
100
AcDbEntity
  8
M0
 62
     4
100
AcDbCircle
 10
91.872153
 20
230.132441
 40
2.999997
  0
LINE
  5
377
100
AcDbEntity
  8
M0
 62
     4
100
AcDbLine
 10
88.913168
 20
234.079783
 11
88.097006
 21
231.43249
  0
LINE
  5
378
100
AcDbEntity
  8
M0
 62
     4
100
AcDbLine
 10
88.913168
 20
226.185191
 11
88.097006
 21
228.832514
  0
LINE
  5
379
100
AcDbEntity
  8
M0
 62
     4
100
AcDbLine
 10
94.830649
 20
234.079798
 11
95.647055
 21
231.43249
  0
LINE
  5
37A
100
AcDbEntity
  8
M0
 62
     4
100
AcDbLine
 10
94.830649
 20
226.185175
 11
95.647055
 21
228.832514
  0
LINE
  5
37B
100
AcDbEntity
  8
M0
 62
     4
100
AcDbLine
 10
89.391196
 20
225.832514
 11
94.352866
 21
225.832514
  0
LINE
  5
37C
100
AcDbEntity
  8
M0
 62
     4
100
AcDbLine
 10
95.647055
 20
228.832514
 11
95.647055
 21
231.43249
  0
LINE
  5
37D
100
AcDbEntity
  8
M0
 62
     4
100
AcDbLine
 10
94.352866
 20
234.43249
 11
89.391196
 21
234.432475
  0
LINE
  5
37E
100
AcDbEntity
  8
M0
 62
     4
100
AcDbLine
 10
88.097006
 20
231.43249
 11
88.097006
 21
228.832514
  0
LINE
  5
37F
100
AcDbEntity
  8
M0
 62
     4
100
AcDbLine
 10
93.462729
 20
228.541621
 11
90.281088
 21
231.723383
  0
LINE
  5
380
100
AcDbEntity
  8
M0
 62
     4
100
AcDbLine
 10
92.225424
 20
231.546626
 11
90.457846
 21
229.778925
  0
LINE
  5
381
100
AcDbEntity
  8
M0
 62
     4
100
AcDbLine
 10
93.285971
 20
230.485957
 11
91.518393
 21
228.718378
  0
ARC
  5
382
100
AcDbEntity
  8
M0
 62
     4
100
AcDbCircle
 10
89.391196
 20
233.932475
 40
0.5
100
AcDbArc
 50
89.998251
 51
162.874002
  0
ARC
  5
383
100
AcDbEntity
  8
M0
 62
     4
100
AcDbCircle
 10
89.391196
 20
226.332514
 40
0.5
100
AcDbArc
 50
197.129131
 51
270.0
  0
ARC
  5
384
100
AcDbEntity
  8
M0
 62
     4
100
AcDbCircle
 10
94.352866
 20
226.332514
 40
0.5
100
AcDbArc
 50
270.0
 51
342.861236
  0
ARC
  5
385
100
AcDbEntity
  8
M0
 62
     4
100
AcDbCircle
 10
94.352866
 20
233.932475
 40
0.5
100
AcDbArc
 50
17.136442
 51
90.0
  0
LINE
  5
386
100
AcDbEntity
  8
M0
  6
DASHDOT
 62
     4
100
AcDbLine
 10
95.372153
 20
230.132441
 11
88.372153
 21
230.132441
  0
LINE
  5
387
100
AcDbEntity
  8
M0
  6
DASHDOT
 62
     4
100
AcDbLine
 10
91.872138
 20
233.632441
 11
91.872153
 21
226.632441
  0
CIRCLE
  5
388
100
AcDbEntity
  8
M0
 62
   253
100
AcDbCircle
 10
90.372153
 20
213.632441
 40
2.999997
  0
LINE
  5
389
100
AcDbEntity
  8
M0
 62
   253
100
AcDbLine
 10
87.413168
 20
217.579783
 11
86.597006
 21
214.93249
  0
LINE
  5
38A
100
AcDbEntity
  8
M0
 62
   253
100
AcDbLine
 10
87.367774
 20
209.832468
 11
86.597006
 21
212.332514
  0
LINE
  5
38B
100
AcDbEntity
  8
M0
 62
   253
100
AcDbLine
 10
93.330649
 20
217.579798
 11
94.147055
 21
214.93249
  0
LINE
  5
38C
100
AcDbEntity
  8
M0
 62
   253
100
AcDbLine
 10
93.376072
 20
209.832468
 11
94.147055
 21
212.332514
  0
LINE
  5
38D
100
AcDbEntity
  8
M0
 62
   253
100
AcDbLine
 10
94.147055
 20
212.332514
 11
94.147055
 21
214.93249
  0
LINE
  5
38E
100
AcDbEntity
  8
M0
 62
   253
100
AcDbLine
 10
92.852866
 20
217.93249
 11
87.891196
 21
217.932475
  0
LINE
  5
38F
100
AcDbEntity
  8
M0
 62
   253
100
AcDbLine
 10
86.597006
 20
214.93249
 11
86.597006
 21
212.332514
  0
LINE
  5
390
100
AcDbEntity
  8
M0
  6
DASHDOT
 62
   253
100
AcDbLine
 10
84.097006
 20
213.632441
 11
96.647055
 21
213.632441
  0
LINE
  5
391
100
AcDbEntity
  8
M0
  6
DASHDOT
 62
   253
100
AcDbLine
 10
90.372153
 20
206.832529
 11
90.372153
 21
220.43249
  0
LINE
  5
392
100
AcDbEntity
  8
M0
 62
   253
100
AcDbLine
 10
91.962729
 20
212.041621
 11
88.781088
 21
215.223383
  0
LINE
  5
393
100
AcDbEntity
  8
M0
 62
   253
100
AcDbLine
 10
90.725424
 20
215.046626
 11
88.957846
 21
213.278925
  0
LINE
  5
394
100
AcDbEntity
  8
M0
 62
   253
100
AcDbLine
 10
91.785971
 20
213.985957
 11
90.018393
 21
212.218378
  0
ARC
  5
395
100
AcDbEntity
  8
M0
 62
   253
100
AcDbCircle
 10
87.891196
 20
217.432475
 40
0.5
100
AcDbArc
 50
89.998251
 51
162.874002
  0
ARC
  5
396
100
AcDbEntity
  8
M0
 62
   253
100
AcDbCircle
 10
92.852866
 20
217.432475
 40
0.5
100
AcDbArc
 50
17.136442
 51
90.0
  0
CIRCLE
  5
397
100
AcDbEntity
  8
M0
 62
   253
100
AcDbCircle
 10
78.872153
 20
213.632441
 40
2.999997
  0
LINE
  5
398
100
AcDbEntity
  8
M0
 62
   253
100
AcDbLine
 10
75.913168
 20
217.579783
 11
75.097006
 21
214.93249
  0
LINE
  5
399
100
AcDbEntity
  8
M0
 62
   253
100
AcDbLine
 10
75.913168
 20
209.685191
 11
75.097006
 21
212.332514
  0
LINE
  5
39A
100
AcDbEntity
  8
M0
 62
   253
100
AcDbLine
 10
81.830649
 20
217.579798
 11
82.647055
 21
214.93249
  0
LINE
  5
39B
100
AcDbEntity
  8
M0
 62
   253
100
AcDbLine
 10
81.830649
 20
209.685175
 11
82.647055
 21
212.332514
  0
LINE
  5
39C
100
AcDbEntity
  8
M0
 62
   253
100
AcDbLine
 10
76.391196
 20
209.332514
 11
81.352866
 21
209.332514
  0
LINE
  5
39D
100
AcDbEntity
  8
M0
 62
   253
100
AcDbLine
 10
82.647055
 20
212.332514
 11
82.647055
 21
214.93249
  0
LINE
  5
39E
100
AcDbEntity
  8
M0
 62
   253
100
AcDbLine
 10
81.352866
 20
217.93249
 11
76.391196
 21
217.932475
  0
LINE
  5
39F
100
AcDbEntity
  8
M0
 62
   253
100
AcDbLine
 10
75.097006
 20
214.93249
 11
75.097006
 21
212.332514
  0
LINE
  5
3A0
100
AcDbEntity
  8
M0
  6
DASHDOT
 62
   253
100
AcDbLine
 10
72.597006
 20
213.632441
 11
85.147055
 21
213.632441
  0
LINE
  5
3A1
100
AcDbEntity
  8
M0
  6
DASHDOT
 62
   253
100
AcDbLine
 10
78.872153
 20
206.832529
 11
78.872153
 21
220.43249
  0
LINE
  5
3A2
100
AcDbEntity
  8
M0
 62
   253
100
AcDbLine
 10
80.462729
 20
212.041621
 11
77.281088
 21
215.223383
  0
LINE
  5
3A3
100
AcDbEntity
  8
M0
 62
   253
100
AcDbLine
 10
79.225424
 20
215.046626
 11
77.457846
 21
213.278925
  0
LINE
  5
3A4
100
AcDbEntity
  8
M0
 62
   253
100
AcDbLine
 10
80.285971
 20
213.985957
 11
78.518393
 21
212.218378
  0
ARC
  5
3A5
100
AcDbEntity
  8
M0
 62
   253
100
AcDbCircle
 10
76.391196
 20
217.432475
 40
0.5
100
AcDbArc
 50
89.998251
 51
162.874002
  0
ARC
  5
3A6
100
AcDbEntity
  8
M0
 62
   253
100
AcDbCircle
 10
76.391196
 20
209.832514
 40
0.5
100
AcDbArc
 50
197.129131
 51
270.0
  0
ARC
  5
3A7
100
AcDbEntity
  8
M0
 62
   253
100
AcDbCircle
 10
81.352866
 20
209.832514
 40
0.5
100
AcDbArc
 50
270.0
 51
342.861236
  0
ARC
  5
3A8
100
AcDbEntity
  8
M0
 62
   253
100
AcDbCircle
 10
81.352866
 20
217.432475
 40
0.5
100
AcDbArc
 50
17.136442
 51
90.0
  0
CIRCLE
  5
3A9
100
AcDbEntity
  8
M0
 62
   253
100
AcDbCircle
 10
68.872153
 20
213.632441
 40
2.999997
  0
LINE
  5
3AA
100
AcDbEntity
  8
M0
 62
   253
100
AcDbLine
 10
65.913168
 20
217.579783
 11
65.097006
 21
214.93249
  0
LINE
  5
3AB
100
AcDbEntity
  8
M0
 62
   253
100
AcDbLine
 10
65.913168
 20
209.685191
 11
65.097006
 21
212.332514
  0
LINE
  5
3AC
100
AcDbEntity
  8
M0
 62
   253
100
AcDbLine
 10
71.830649
 20
217.579798
 11
72.647055
 21
214.93249
  0
LINE
  5
3AD
100
AcDbEntity
  8
M0
 62
   253
100
AcDbLine
 10
71.830649
 20
209.685175
 11
72.647055
 21
212.332514
  0
LINE
  5
3AE
100
AcDbEntity
  8
M0
 62
   253
100
AcDbLine
 10
66.391196
 20
209.332514
 11
71.352866
 21
209.332514
  0
LINE
  5
3AF
100
AcDbEntity
  8
M0
 62
   253
100
AcDbLine
 10
72.647055
 20
212.332514
 11
72.647055
 21
214.93249
  0
LINE
  5
3B0
100
AcDbEntity
  8
M0
 62
   253
100
AcDbLine
 10
71.352866
 20
217.93249
 11
66.391196
 21
217.932475
  0
LINE
  5
3B1
100
AcDbEntity
  8
M0
 62
   253
100
AcDbLine
 10
65.097006
 20
214.93249
 11
65.097006
 21
212.332514
  0
LINE
  5
3B2
100
AcDbEntity
  8
M0
  6
DASHDOT
 62
   253
100
AcDbLine
 10
62.597006
 20
213.632441
 11
75.147055
 21
213.632441
  0
LINE
  5
3B3
100
AcDbEntity
  8
M0
  6
DASHDOT
 62
   253
100
AcDbLine
 10
68.872153
 20
206.832529
 11
68.872153
 21
220.43249
  0
LINE
  5
3B4
100
AcDbEntity
  8
M0
 62
   253
100
AcDbLine
 10
70.462729
 20
212.041621
 11
67.281088
 21
215.223383
  0
LINE
  5
3B5
100
AcDbEntity
  8
M0
 62
   253
100
AcDbLine
 10
69.225424
 20
215.046626
 11
67.457846
 21
213.278925
  0
LINE
  5
3B6
100
AcDbEntity
  8
M0
 62
   253
100
AcDbLine
 10
70.285971
 20
213.985957
 11
68.518393
 21
212.218378
  0
ARC
  5
3B7
100
AcDbEntity
  8
M0
 62
   253
100
AcDbCircle
 10
66.391196
 20
217.432475
 40
0.5
100
AcDbArc
 50
89.998251
 51
162.874002
  0
ARC
  5
3B8
100
AcDbEntity
  8
M0
 62
   253
100
AcDbCircle
 10
66.391196
 20
209.832514
 40
0.5
100
AcDbArc
 50
197.129131
 51
270.0
  0
ARC
  5
3B9
100
AcDbEntity
  8
M0
 62
   253
100
AcDbCircle
 10
71.352866
 20
209.832514
 40
0.5
100
AcDbArc
 50
270.0
 51
342.861236
  0
ARC
  5
3BA
100
AcDbEntity
  8
M0
 62
   253
100
AcDbCircle
 10
71.352866
 20
217.432475
 40
0.5
100
AcDbArc
 50
17.136442
 51
90.0
  0
CIRCLE
  5
3BB
100
AcDbEntity
  8
M0
 62
   253
100
AcDbCircle
 10
58.872153
 20
213.632441
 40
2.999997
  0
LINE
  5
3BC
100
AcDbEntity
  8
M0
 62
   253
100
AcDbLine
 10
55.913168
 20
217.579783
 11
55.097006
 21
214.93249
  0
LINE
  5
3BD
100
AcDbEntity
  8
M0
 62
   253
100
AcDbLine
 10
55.913168
 20
209.685191
 11
55.097006
 21
212.332514
  0
LINE
  5
3BE
100
AcDbEntity
  8
M0
 62
   253
100
AcDbLine
 10
61.830649
 20
217.579798
 11
62.647055
 21
214.93249
  0
LINE
  5
3BF
100
AcDbEntity
  8
M0
 62
   253
100
AcDbLine
 10
61.830649
 20
209.685175
 11
62.647055
 21
212.332514
  0
LINE
  5
3C0
100
AcDbEntity
  8
M0
 62
   253
100
AcDbLine
 10
56.391196
 20
209.332514
 11
61.352866
 21
209.332514
  0
LINE
  5
3C1
100
AcDbEntity
  8
M0
 62
   253
100
AcDbLine
 10
62.647055
 20
212.332514
 11
62.647055
 21
214.93249
  0
LINE
  5
3C2
100
AcDbEntity
  8
M0
 62
   253
100
AcDbLine
 10
61.352866
 20
217.93249
 11
56.391196
 21
217.932475
  0
LINE
  5
3C3
100
AcDbEntity
  8
M0
 62
   253
100
AcDbLine
 10
55.097006
 20
214.93249
 11
55.097006
 21
212.332514
  0
LINE
  5
3C4
100
AcDbEntity
  8
M0
  6
DASHDOT
 62
   253
100
AcDbLine
 10
52.597006
 20
213.632441
 11
65.147055
 21
213.632441
  0
LINE
  5
3C5
100
AcDbEntity
  8
M0
  6
DASHDOT
 62
   253
100
AcDbLine
 10
58.872153
 20
206.832529
 11
58.872153
 21
220.43249
  0
LINE
  5
3C6
100
AcDbEntity
  8
M0
 62
   253
100
AcDbLine
 10
60.462729
 20
212.041621
 11
57.281088
 21
215.223383
  0
LINE
  5
3C7
100
AcDbEntity
  8
M0
 62
   253
100
AcDbLine
 10
59.225424
 20
215.046626
 11
57.457846
 21
213.278925
  0
LINE
  5
3C8
100
AcDbEntity
  8
M0
 62
   253
100
AcDbLine
 10
60.285971
 20
213.985957
 11
58.518393
 21
212.218378
  0
ARC
  5
3C9
100
AcDbEntity
  8
M0
 62
   253
100
AcDbCircle
 10
56.391196
 20
217.432475
 40
0.5
100
AcDbArc
 50
89.998251
 51
162.874002
  0
ARC
  5
3CA
100
AcDbEntity
  8
M0
 62
   253
100
AcDbCircle
 10
56.391196
 20
209.832514
 40
0.5
100
AcDbArc
 50
197.129131
 51
270.0
  0
ARC
  5
3CB
100
AcDbEntity
  8
M0
 62
   253
100
AcDbCircle
 10
61.352866
 20
209.832514
 40
0.5
100
AcDbArc
 50
270.0
 51
342.861236
  0
ARC
  5
3CC
100
AcDbEntity
  8
M0
 62
   253
100
AcDbCircle
 10
61.352866
 20
217.432475
 40
0.5
100
AcDbArc
 50
17.136442
 51
90.0
  0
LINE
  5
3CD
100
AcDbEntity
  8
M0
 62
     4
100
AcDbLine
 10
58.372172
 20
264.932453
 11
58.372168
 21
259.332462
  0
LINE
  5
3CE
100
AcDbEntity
  8
M0
 62
     4
100
AcDbLine
 10
56.372168
 20
259.332464
 11
56.372172
 21
264.932455
  0
LINE
  5
3CF
100
AcDbEntity
  8
M0
 62
     4
100
AcDbLine
 10
56.572169
 20
265.132451
 11
56.57217
 21
267.132463
  0
LINE
  5
3D0
100
AcDbEntity
  8
M0
 62
     4
100
AcDbLine
 10
58.172161
 20
267.132462
 11
58.17216
 21
265.13245
  0
LINE
  5
3D1
100
AcDbEntity
  8
M0
 62
     4
100
AcDbLine
 10
56.572169
 20
265.132451
 11
56.372172
 21
264.932455
  0
LINE
  5
3D2
100
AcDbEntity
  8
M0
 62
     4
100
AcDbLine
 10
58.17216
 20
265.13245
 11
58.372172
 21
264.932453
  0
LINE
  5
3D3
100
AcDbEntity
  8
M0
 62
     4
100
AcDbLine
 10
68.372172
 20
264.932453
 11
68.372168
 21
259.332462
  0
LINE
  5
3D4
100
AcDbEntity
  8
M0
 62
     4
100
AcDbLine
 10
66.372168
 20
259.332464
 11
66.372172
 21
264.932455
  0
LINE
  5
3D5
100
AcDbEntity
  8
M0
 62
     4
100
AcDbLine
 10
66.572169
 20
265.132451
 11
66.57217
 21
267.132463
  0
LINE
  5
3D6
100
AcDbEntity
  8
M0
 62
     4
100
AcDbLine
 10
68.172161
 20
267.132462
 11
68.17216
 21
265.13245
  0
LINE
  5
3D7
100
AcDbEntity
  8
M0
 62
     4
100
AcDbLine
 10
66.572169
 20
265.132451
 11
66.372172
 21
264.932455
  0
LINE
  5
3D8
100
AcDbEntity
  8
M0
 62
     4
100
AcDbLine
 10
68.17216
 20
265.13245
 11
68.372172
 21
264.932453
  0
LINE
  5
3D9
100
AcDbEntity
  8
M0
 62
     4
100
AcDbLine
 10
78.372187
 20
264.932453
 11
78.372181
 21
255.632463
  0
LINE
  5
3DA
100
AcDbEntity
  8
M0
 62
     4
100
AcDbLine
 10
76.372183
 20
259.332464
 11
76.372187
 21
264.932455
  0
LINE
  5
3DB
100
AcDbEntity
  8
M0
 62
     4
100
AcDbLine
 10
76.572184
 20
265.132451
 11
76.572185
 21
267.132463
  0
LINE
  5
3DC
100
AcDbEntity
  8
M0
 62
     4
100
AcDbLine
 10
78.172176
 20
267.132462
 11
78.172175
 21
265.13245
  0
LINE
  5
3DD
100
AcDbEntity
  8
M0
 62
     4
100
AcDbLine
 10
76.572184
 20
265.132451
 11
76.372187
 21
264.932455
  0
LINE
  5
3DE
100
AcDbEntity
  8
M0
 62
     4
100
AcDbLine
 10
78.172175
 20
265.13245
 11
78.372187
 21
264.932453
  0
LINE
  5
3DF
100
AcDbEntity
  8
M0
 62
     7
100
AcDbLine
 10
219.131076
 20
226.832467
 11
219.131084
 21
252.332421
  0
LINE
  5
3E0
100
AcDbEntity
  8
M0
 62
     7
100
AcDbLine
 10
216.131083
 20
249.832468
 11
179.131114
 21
249.83248
  0
LINE
  5
3E1
100
AcDbEntity
  8
M0
 62
     7
100
AcDbLine
 10
145.131083
 20
249.83249
 11
145.131094
 21
234.83249
  0
LINE
  5
3E2
100
AcDbEntity
  8
M0
 62
     7
100
AcDbLine
 10
194.631074
 20
220.832475
 11
210.631074
 21
220.83247
  0
LINE
  5
3E3
100
AcDbEntity
  8
M0
 62
     7
100
AcDbLine
 10
219.131084
 20
252.332421
 11
216.131084
 21
252.332422
  0
LINE
  5
3E4
100
AcDbEntity
  8
M0
 62
     7
100
AcDbLine
 10
216.131084
 20
252.332422
 11
216.131083
 21
249.832468
  0
LINE
  5
3E5
100
AcDbEntity
  8
M0
 62
     7
100
AcDbLine
 10
211.631074
 20
221.83247
 11
211.631075
 21
225.33247
  0
LINE
  5
3E6
100
AcDbEntity
  8
M0
 62
     7
100
AcDbLine
 10
212.131076
 20
225.832469
 11
218.131076
 21
225.832467
  0
ARC
  5
3E7
100
AcDbEntity
  8
M0
 62
     7
100
AcDbCircle
 10
218.131076
 20
226.832467
 40
1.0
100
AcDbArc
 50
270.0
 51
359.999982
  0
ARC
  5
3E8
100
AcDbEntity
  8
M0
 62
     7
100
AcDbCircle
 10
210.631074
 20
221.83247
 40
1.0
100
AcDbArc
 50
270.0
 51
359.999982
  0
LINE
  5
3E9
100
AcDbEntity
  8
M0
 62
     7
100
AcDbLine
 10
179.131098
 20
249.83248
 11
179.131097
 21
245.83248
  0
LINE
  5
3EA
100
AcDbEntity
  8
M0
 62
     7
100
AcDbLine
 10
179.131097
 20
245.83248
 11
169.631112
 21
245.832483
  0
LINE
  5
3EB
100
AcDbEntity
  8
M0
 62
     7
100
AcDbLine
 10
169.631112
 20
244.832483
 11
166.631112
 21
244.832484
  0
LINE
  5
3EC
100
AcDbEntity
  8
M0
 62
     7
100
AcDbLine
 10
161.131097
 20
245.332485
 11
145.131082
 21
245.33249
  0
LINE
  5
3ED
100
AcDbEntity
  8
M0
 62
     7
100
AcDbLine
 10
161.131097
 20
245.332485
 11
161.131097
 21
245.832485
  0
LINE
  5
3EE
100
AcDbEntity
  8
M0
 62
     7
100
AcDbLine
 10
150.531133
 20
234.832489
 11
145.131078
 21
234.83249
  0
LINE
  5
3EF
100
AcDbEntity
  8
M0
 62
     7
100
AcDbLine
 10
150.531134
 20
238.332473
 11
150.531132
 21
229.832473
  0
LINE
  5
3F0
100
AcDbEntity
  8
M0
 62
     7
100
AcDbLine
 10
156.531145
 20
223.832487
 11
162.131106
 21
223.832485
  0
LINE
  5
3F1
100
AcDbEntity
  8
M0
 62
     7
100
AcDbLine
 10
155.231126
 20
221.832487
 11
163.501787
 21
221.832485
  0
ARC
  5
3F2
100
AcDbEntity
  8
M0
 62
     7
100
AcDbCircle
 10
156.531132
 20
229.832487
 40
6.0
100
AcDbArc
 50
179.999836
 51
270.0
  0
LINE
  5
3F3
100
AcDbEntity
  8
M0
 62
     7
100
AcDbLine
 10
185.873928
 20
205.332478
 11
173.710033
 21
205.332481
  0
LINE
  5
3F4
100
AcDbEntity
  8
M0
 62
     7
100
AcDbLine
 10
188.078442
 20
207.832477
 11
176.131131
 21
207.832481
  0
LINE
  5
3F5
100
AcDbEntity
  8
M0
 62
     7
100
AcDbLine
 10
194.631074
 20
220.832475
 11
191.669477
 21
209.779558
  0
ARC
  5
3F6
100
AcDbEntity
  8
M0
 62
     7
100
AcDbCircle
 10
188.078444
 20
211.832477
 40
4.0
100
AcDbArc
 50
270.0
 51
344.999972
  0
ARC
  5
3F7
100
AcDbEntity
  8
M0
 62
     7
100
AcDbCircle
 10
185.87393
 20
211.332478
 40
6.0
100
AcDbArc
 50
270.0
 51
344.999972
  0
LINE
  5
3F8
100
AcDbEntity
  8
M0
 62
     7
100
AcDbLine
 10
216.131083
 20
250.032373
 11
219.131083
 21
250.032373
  0
LINE
  5
3F9
100
AcDbEntity
  8
M0
 62
     7
100
AcDbLine
 10
169.631112
 20
245.832483
 11
169.631112
 21
244.832483
  0
LINE
  5
3FA
100
AcDbEntity
  8
M0
 62
     7
100
AcDbLine
 10
166.631112
 20
245.832468
 11
166.631112
 21
244.832468
  0
LINE
  5
3FB
100
AcDbEntity
  8
M0
 62
     7
100
AcDbLine
 10
166.631112
 20
245.832484
 11
161.131097
 21
245.832485
  0
LINE
  5
3FC
100
AcDbEntity
  8
M0
 62
     7
100
AcDbLine
 10
163.131105
 20
221.832485
 11
163.131106
 21
225.832485
  0
ARC
  5
3FD
100
AcDbEntity
  8
M0
 62
     7
100
AcDbCircle
 10
162.131106
 20
224.832485
 40
1.0
100
AcDbArc
 50
270.0
 51
359.999982
  0
LINE
  5
3FE
100
AcDbEntity
  8
M0
 62
     7
100
AcDbLine
 10
149.231113
 20
227.832489
 11
149.231115
 21
234.832489
  0
ARC
  5
3FF
100
AcDbEntity
  8
M0
 62
     7
100
AcDbCircle
 10
155.231113
 20
227.832487
 40
6.0
100
AcDbArc
 50
179.999836
 51
270.0
  0
LINE
  5
400
100
AcDbEntity
  8
M0
 62
     7
100
AcDbLine
 10
166.131105
 20
222.332484
 11
166.131106
 21
225.832484
  0
LINE
  5
401
100
AcDbEntity
  8
M0
 62
     7
100
AcDbLine
 10
163.131106
 20
225.832485
 11
166.131106
 21
225.832484
  0
LINE
  5
402
100
AcDbEntity
  8
M0
 62
     7
100
AcDbLine
 10
170.131104
 20
218.832483
 11
169.631104
 21
218.832483
  0
LINE
  5
403
100
AcDbEntity
  8
M0
 62
     7
100
AcDbLine
 10
165.631044
 20
222.332484
 11
166.131105
 21
222.332484
  0
LINE
  5
404
100
AcDbEntity
  8
M0
 62
     7
100
AcDbLine
 10
165.631044
 20
222.332484
 11
164.019441
 21
221.900645
  0
LINE
  5
405
100
AcDbEntity
  8
M0
 62
     7
100
AcDbLine
 10
166.131105
 20
222.332484
 11
169.631104
 21
218.832483
  0
LINE
  5
406
100
AcDbEntity
  8
M0
 62
     7
100
AcDbLine
 10
170.131119
 20
218.832483
 11
170.131132
 21
211.332467
  0
ARC
  5
407
100
AcDbEntity
  8
M0
 62
     7
100
AcDbCircle
 10
176.131133
 20
213.832481
 40
6.0
100
AcDbArc
 50
179.999836
 51
270.0
  0
ARC
  5
408
100
AcDbEntity
  8
M0
 62
     7
100
AcDbCircle
 10
176.131132
 20
211.332481
 40
6.0
100
AcDbArc
 50
179.999836
 51
270.0
  0
ARC
  5
409
100
AcDbEntity
  8
M0
 62
     7
100
AcDbCircle
 10
163.501787
 20
223.832485
 40
2.0
100
AcDbArc
 50
270.0
 51
285.00095
  0
LINE
  5
40A
100
AcDbEntity
  8
M0
 62
     7
100
AcDbLine
 10
168.631102
 20
212.832483
 11
168.631104
 21
219.832483
  0
LINE
  5
40B
100
AcDbEntity
  8
M0
 62
     7
100
AcDbLine
 10
168.631102
 20
212.832483
 11
169.846326
 21
208.297204
  0
ARC
  5
40C
100
AcDbEntity
  8
M0
 62
     7
100
AcDbCircle
 10
173.710035
 20
209.332481
 40
4.0
100
AcDbArc
 50
194.999838
 51
270.0
  0
LINE
  5
40D
100
AcDbEntity
  8
M0
 62
     7
100
AcDbLine
 10
199.532578
 20
219.332473
 11
194.229157
 21
219.332475
  0
ARC
  5
40E
100
AcDbEntity
  8
M0
 62
     7
100
AcDbCircle
 10
199.532579
 20
223.332473
 40
4.0
100
AcDbArc
 50
270.0
 51
321.318004
  0
ARC
  5
40F
100
AcDbEntity
  8
M0
 62
     7
100
AcDbCircle
 10
212.131075
 20
225.332469
 40
0.5
100
AcDbArc
 50
90.0
 51
179.998233
  0
LINE
  5
410
100
AcDbEntity
  8
M0
 62
   114
100
AcDbLine
 10
143.631101
 20
245.132455
 11
141.131116
 21
245.132471
  0
LINE
  5
411
100
AcDbEntity
  8
M0
 62
   114
100
AcDbLine
 10
140.631085
 20
244.632471
 11
140.631099
 21
239.632471
  0
LINE
  5
412
100
AcDbEntity
  8
M0
 62
   114
100
AcDbLine
 10
141.131099
 20
239.132471
 11
143.631099
 21
239.132455
  0
ARC
  5
413
100
AcDbEntity
  8
M0
 62
   114
100
AcDbCircle
 10
141.131101
 20
244.632471
 40
0.5
100
AcDbArc
 50
90.0
 51
179.999982
  0
ARC
  5
414
100
AcDbEntity
  8
M0
 62
   114
100
AcDbCircle
 10
141.131099
 20
239.632471
 40
0.5
100
AcDbArc
 50
179.999982
 51
270.0
  0
LINE
  5
415
100
AcDbEntity
  8
M0
  6
DASHED
 62
   114
100
AcDbLine
 10
138.082318
 20
242.132487
 11
147.507266
 21
242.132423
  0
LINE
  5
416
100
AcDbEntity
  8
M0
 62
     7
100
AcDbLine
 10
161.131114
 20
246.832484
 11
178.931102
 21
246.832479
  0
LINE
  5
417
100
AcDbEntity
  8
M0
 62
     7
100
AcDbLine
 10
161.131114
 20
245.332484
 11
161.131114
 21
246.832484
  0
LINE
  5
418
100
AcDbEntity
  8
M0
 62
     7
100
AcDbLine
 10
161.131114
 20
245.332484
 11
145.431147
 21
245.332489
  0
LINE
  5
419
100
AcDbEntity
  8
M0
 62
     7
100
AcDbLine
 10
178.931102
 20
246.832479
 11
178.931103
 21
249.832479
  0
LINE
  5
41A
100
AcDbEntity
  8
M0
 62
     7
100
AcDbLine
 10
201.431118
 20
249.832472
 11
201.431119
 21
252.332457
  0
LINE
  5
41B
100
AcDbEntity
  8
M0
 62
     7
100
AcDbLine
 10
198.431118
 20
249.832473
 11
198.431119
 21
252.332457
  0
LINE
  5
41C
100
AcDbEntity
  8
M0
 62
     7
100
AcDbLine
 10
160.131114
 20
247.832485
 11
160.131116
 21
252.332469
  0
LINE
  5
41D
100
AcDbEntity
  8
M0
 62
     7
100
AcDbLine
 10
160.131114
 20
247.832485
 11
145.131114
 21
247.832489
  0
LINE
  5
41E
100
AcDbEntity
  8
M0
 62
     7
100
AcDbLine
 10
216.131115
 20
249.832467
 11
216.131116
 21
252.332452
  0
LINE
  5
41F
100
AcDbEntity
  8
M0
 62
     7
100
AcDbLine
 10
216.131116
 20
252.332452
 11
214.431104
 21
252.332452
  0
LINE
  5
420
100
AcDbEntity
  8
M0
 62
     7
100
AcDbLine
 10
214.431104
 20
252.332452
 11
214.431106
 21
260.432459
  0
LINE
  5
421
100
AcDbEntity
  8
M0
 62
     7
100
AcDbLine
 10
213.931122
 20
260.932459
 11
212.431106
 21
260.932459
  0
LINE
  5
422
100
AcDbEntity
  8
M0
 62
     7
100
AcDbLine
 10
211.431107
 20
261.932459
 11
211.431107
 21
262.632456
  0
LINE
  5
423
100
AcDbEntity
  8
M0
 62
     7
100
AcDbLine
 10
201.431118
 20
249.832472
 11
216.131115
 21
249.832467
  0
LINE
  5
424
100
AcDbEntity
  8
M0
 62
     7
100
AcDbLine
 10
178.931103
 20
249.832479
 11
198.431118
 21
249.832473
  0
LINE
  5
425
100
AcDbEntity
  8
M0
 62
     7
100
AcDbLine
 10
152.931195
 20
251.332487
 11
149.453991
 21
251.332488
  0
LINE
  5
426
100
AcDbEntity
  8
M0
 62
     7
100
AcDbLine
 10
205.737225
 20
252.332455
 11
160.131116
 21
252.332469
  0
ARC
  5
427
100
AcDbEntity
  8
M0
 62
     7
100
AcDbCircle
 10
212.431107
 20
261.932459
 40
1.0
100
AcDbArc
 50
179.999982
 51
270.0
  0
LINE
  5
428
100
AcDbEntity
  8
M0
 62
     7
100
AcDbLine
 10
150.431195
 20
251.332488
 11
150.431196
 21
255.032469
  0
LINE
  5
429
100
AcDbEntity
  8
M0
 62
     7
100
AcDbLine
 10
150.431196
 20
255.032469
 11
152.931196
 21
255.032469
  0
LINE
  5
42A
100
AcDbEntity
  8
M0
 62
     7
100
AcDbLine
 10
152.931195
 20
251.332487
 11
152.931196
 21
255.032469
  0
LINE
  5
42B
100
AcDbEntity
  8
M0
 62
     7
100
AcDbLine
 10
154.931211
 20
253.332486
 11
171.431195
 21
253.332481
  0
LINE
  5
42C
100
AcDbEntity
  8
M0
 62
     7
100
AcDbLine
 10
167.431196
 20
255.63247
 11
174.931196
 21
255.632468
  0
LINE
  5
42D
100
AcDbEntity
  8
M0
 62
     7
100
AcDbLine
 10
152.93121
 20
251.332487
 11
154.931195
 21
253.332486
  0
LINE
  5
42E
100
AcDbEntity
  8
M0
 62
     7
100
AcDbLine
 10
171.431195
 20
253.332481
 11
172.43121
 21
252.332466
  0
LINE
  5
42F
100
AcDbEntity
  8
M0
 62
     7
100
AcDbLine
 10
208.431106
 20
261.132442
 11
208.431108
 21
265.632503
  0
LINE
  5
430
100
AcDbEntity
  8
M0
 62
     7
100
AcDbLine
 10
205.737225
 20
252.332455
 11
208.431106
 21
261.132457
  0
LINE
  5
431
100
AcDbEntity
  8
M0
 62
     7
100
AcDbLine
 10
152.931196
 20
254.032469
 11
155.431196
 21
254.032468
  0
LINE
  5
432
100
AcDbEntity
  8
M0
 62
     7
100
AcDbLine
 10
155.431196
 20
254.832471
 11
160.931196
 21
254.832469
  0
LINE
  5
433
100
AcDbEntity
  8
M0
 62
     7
100
AcDbLine
 10
155.431196
 20
254.032468
 11
155.431196
 21
254.832471
  0
LINE
  5
434
100
AcDbEntity
  8
M0
 62
     7
100
AcDbLine
 10
165.431197
 20
257.632471
 11
165.431198
 21
260.632517
  0
LINE
  5
435
100
AcDbEntity
  8
M0
 62
     7
100
AcDbLine
 10
161.406616
 20
260.632518
 11
160.931196
 21
254.832469
  0
ARC
  5
436
100
AcDbEntity
  8
M0
 62
     7
100
AcDbCircle
 10
167.431197
 20
257.63247
 40
2.0
100
AcDbArc
 50
179.999982
 51
270.0
  0
LINE
  5
437
100
AcDbEntity
  8
M0
 62
     7
100
AcDbLine
 10
174.931196
 20
255.632468
 11
178.231198
 21
252.332464
  0
ARC
  5
438
100
AcDbEntity
  8
M0
 62
     7
100
AcDbCircle
 10
213.931106
 20
260.432459
 40
0.5
100
AcDbArc
 50
359.998233
 51
450.0
  0
ARC
  5
439
100
AcDbEntity
  8
M0
 62
     7
100
AcDbCircle
 10
211.931107
 20
262.632456
 40
0.5
100
AcDbArc
 50
113.582647
 51
179.999982
  0
LINE
  5
43A
100
AcDbEntity
  8
M0
 62
     1
100
AcDbLine
 10
150.531115
 20
234.832467
 11
150.531116
 21
238.332467
  0
LINE
  5
43B
100
AcDbEntity
  8
M0
 62
     1
100
AcDbLine
 10
148.131136
 20
251.832468
 11
143.63112
 21
251.832469
  0
LINE
  5
43C
100
AcDbEntity
  8
M0
 62
     1
100
AcDbLine
 10
143.63112
 20
251.832469
 11
143.631115
 21
234.832469
  0
LINE
  5
43D
100
AcDbEntity
  8
M0
 62
     1
100
AcDbLine
 10
143.631115
 20
234.832469
 11
150.531115
 21
234.832467
  0
LINE
  5
43E
100
AcDbEntity
  8
M0
 62
     1
100
AcDbLine
 10
150.531116
 20
238.332467
 11
145.131116
 21
238.332469
  0
LINE
  5
43F
100
AcDbEntity
  8
M0
 62
     1
100
AcDbLine
 10
145.131115
 20
234.832469
 11
145.13112
 21
251.832469
  0
LINE
  5
440
100
AcDbEntity
  8
M0
 62
     1
100
AcDbLine
 10
145.131119
 20
247.832469
 11
147.131134
 21
247.832468
  0
ARC
  5
441
100
AcDbEntity
  8
M0
 62
     1
100
AcDbCircle
 10
148.13112
 20
249.832468
 40
2.0
100
AcDbArc
 50
359.999545
 51
450.0
  0
LINE
  5
442
100
AcDbEntity
  8
M0
 62
     1
100
AcDbLine
 10
147.13115
 20
248.132456
 11
148.431122
 21
248.132455
  0
ARC
  5
443
100
AcDbEntity
  8
M0
 62
     1
100
AcDbCircle
 10
148.431123
 20
249.832452
 40
1.7
100
AcDbArc
 50
270.0
 51
359.999468
  0
LINE
  5
444
100
AcDbEntity
  8
M0
 62
     1
100
AcDbLine
 10
147.131134
 20
248.132456
 11
147.131134
 21
247.832438
  0
ARC
  5
445
100
AcDbEntity
  8
M0
 62
     6
100
AcDbCircle
 10
60.372138
 20
263.632548
 40
3.0
100
AcDbArc
 50
228.190508
 51
497.166039
  0
LINE
  5
446
100
AcDbEntity
  8
M0
 62
     6
100
AcDbLine
 10
63.468817
 20
267.132441
 11
64.147131
 21
264.932597
  0
LINE
  5
447
100
AcDbEntity
  8
M0
 62
     6
100
AcDbLine
 10
63.330863
 20
259.685282
 11
64.147131
 21
262.332621
  0
LINE
  5
448
100
AcDbEntity
  8
M0
 62
     6
100
AcDbLine
 10
57.891181
 20
259.332621
 11
62.853049
 21
259.332621
  0
LINE
  5
449
100
AcDbEntity
  8
M0
 62
     6
100
AcDbLine
 10
64.147131
 20
262.332621
 11
64.147131
 21
264.932597
  0
LINE
  5
44A
100
AcDbEntity
  8
M0
  6
DASHDOT
 62
     6
100
AcDbLine
 10
54.097128
 20
263.632548
 11
66.647131
 21
263.632548
  0
LINE
  5
44B
100
AcDbEntity
  8
M0
  6
DASHDOT
 62
     6
100
AcDbLine
 10
60.372138
 20
256.832636
 11
60.372138
 21
270.432597
  0
LINE
  5
44C
100
AcDbEntity
  8
M0
 62
     6
100
AcDbLine
 10
61.962912
 20
262.041727
 11
58.781104
 21
265.22349
  0
LINE
  5
44D
100
AcDbEntity
  8
M0
 62
     6
100
AcDbLine
 10
60.725546
 20
265.046732
 11
58.957877
 21
263.279032
  0
LINE
  5
44E
100
AcDbEntity
  8
M0
 62
     6
100
AcDbLine
 10
61.786154
 20
263.986063
 11
60.01853
 21
262.218485
  0
ARC
  5
44F
100
AcDbEntity
  8
M0
 62
     6
100
AcDbCircle
 10
62.853049
 20
259.832621
 40
0.5
100
AcDbArc
 50
270.0
 51
342.861653
  0
LINE
  5
450
100
AcDbEntity
  8
M0
  6
DIVIDE
 62
     4
100
AcDbLine
 10
53.872168
 20
68.225192
 11
105.872168
 21
68.225192
  0
LINE
  5
451
100
AcDbEntity
  8
M0
  6
DIVIDE
 62
     4
100
AcDbLine
 10
106.872168
 20
102.225187
 11
106.872168
 21
167.225187
  0
LINE
  5
452
100
AcDbEntity
  8
M0
  6
DIVIDE
 62
     4
100
AcDbLine
 10
106.872168
 20
167.225187
 11
53.872168
 21
167.225187
  0
LINE
  5
453
100
AcDbEntity
  8
M0
  6
DIVIDE
 62
     4
100
AcDbLine
 10
53.872168
 20
167.225187
 11
53.872168
 21
68.225192
  0
CIRCLE
  5
454
100
AcDbEntity
  8
M0
 62
     4
100
AcDbCircle
 10
63.372168
 20
162.225172
 40
2.5
  0
CIRCLE
  5
455
100
AcDbEntity
  8
M0
 62
     4
100
AcDbCircle
 10
96.372168
 20
107.225187
 40
2.5
  0
CIRCLE
  5
456
100
AcDbEntity
  8
M0
 62
     4
100
AcDbCircle
 10
96.372168
 20
107.225187
 40
1.249997
  0
CIRCLE
  5
457
100
AcDbEntity
  8
M0
 62
     4
100
AcDbCircle
 10
63.372168
 20
162.225172
 40
1.249997
  0
LINE
  5
458
100
AcDbEntity
  8
M0
  6
DASHDOT
 62
     4
100
AcDbLine
 10
100.969565
 20
107.225187
 11
91.774756
 21
107.225187
  0
LINE
  5
459
100
AcDbEntity
  8
M0
  6
DASHDOT
 62
     4
100
AcDbLine
 10
96.372153
 20
111.822584
 11
96.372168
 21
102.627775
  0
LINE
  5
45A
100
AcDbEntity
  8
M0
  6
DASHDOT
 62
     4
100
AcDbLine
 10
67.469565
 20
162.225172
 11
59.274756
 21
162.225172
  0
LINE
  5
45B
100
AcDbEntity
  8
M0
  6
DASHDOT
 62
     4
100
AcDbLine
 10
63.372153
 20
166.322569
 11
63.372168
 21
158.12776
  0
LINE
  5
45C
100
AcDbEntity
  8
M0
  6
DASHDOT
 62
     4
100
AcDbLine
 10
80.372168
 20
64.231703
 11
80.372168
 21
171.218687
  0
LINE
  5
45D
100
AcDbEntity
  8
M0
  6
DIVIDE
 62
     4
100
AcDbLine
 10
105.872168
 20
68.225192
 11
105.872168
 21
102.225187
  0
LINE
  5
45E
100
AcDbEntity
  8
M0
  6
DIVIDE
 62
     4
100
AcDbLine
 10
105.872168
 20
102.225187
 11
106.872168
 21
102.225187
  0
LINE
  5
45F
100
AcDbEntity
  8
M1
 62
     2
100
AcDbLine
 10
12.987013
 20
12.987013
 11
12.987013
 21
370.129879
  0
LINE
  5
460
100
AcDbEntity
  8
M1
 62
     2
100
AcDbLine
 10
12.987013
 20
370.129879
 11
259.740266
 21
370.129879
  0
LINE
  5
461
100
AcDbEntity
  8
M1
 62
     2
100
AcDbLine
 10
259.740266
 20
370.129879
 11
259.740266
 21
12.987013
  0
LINE
  5
462
100
AcDbEntity
  8
M1
 62
     2
100
AcDbLine
 10
259.740266
 20
12.987013
 11
12.987013
 21
12.987013
  0
LINE
  5
463
100
AcDbEntity
  8
M1
 62
     2
100
AcDbLine
 10
259.740266
 20
25.974027
 11
129.870133
 21
25.974027
  0
LINE
  5
464
100
AcDbEntity
  8
M1
 62
     2
100
AcDbLine
 10
259.740266
 20
38.96104
 11
129.870133
 21
38.96104
  0
LINE
  5
465
100
AcDbEntity
  8
M1
 62
     2
100
AcDbLine
 10
259.740266
 20
51.948053
 11
129.870133
 21
51.948053
  0
LINE
  5
466
100
AcDbEntity
  8
M1
 62
     2
100
AcDbLine
 10
129.870133
 20
12.987013
 11
129.870133
 21
51.948053
  0
TEXT
  5
467
100
AcDbEntity
  8
M1
 62
     2
100
AcDbText
 10
133.116886
 20
16.233767
 40
6.493506
  1
適　用；
  7
STANDARD
100
AcDbText
  0
TEXT
  5
468
100
AcDbEntity
  8
M1
 62
     2
100
AcDbText
 10
133.116886
 20
42.207793
 40
6.493506
  1
登録名：
  7
STANDARD
100
AcDbText
  0
TEXT
  5
469
100
AcDbEntity
  8
M1
 62
     2
100
AcDbText
 10
164.285718
 20
42.207793
 40
6.493506
  1
ＤＭＨ１１ＴＲ００
 41
0.5
  7
STANDARD
100
AcDbText
  0
TEXT
  5
46A
100
AcDbEntity
  8
M1
 62
     2
100
AcDbText
 10
133.116886
 20
29.22078
 40
6.493506
  1
形　式；
  7
STANDARD
100
AcDbText
  0
TEXT
  5
46B
100
AcDbEntity
  8
M1
 62
     2
100
AcDbText
 10
164.285718
 20
29.22078
 40
6.493506
  1
Ｈ１１－Ｔ，Ｈ１１－ＴＫ
 41
0.5
  7
STANDARD
100
AcDbText
  0
LINE
  5
46C
100
AcDbEntity
  8
DN0
100
AcDbLine
 10
67.578732
 20
50.32012
 11
91.293024
 21
50.32012
  0
TEXT
  5
46D
100
AcDbEntity
  8
DN0
100
AcDbText
 10
68.234576
 20
50.904535
 40
5.844156
  1
せん孔図
 41
0.833333
  7
STANDARD
100
AcDbText
  0
ENDSEC
  0
SECTION
  2
OBJECTS
  0
DICTIONARY
  5
C
100
AcDbDictionary
  3
ACAD_GROUP
350
D
  3
ACAD_MLINESTYLE
350
E
  0
DICTIONARY
  5
D
102
{ACAD_REACTORS
330
C
102
}
100
AcDbDictionary
  0
DICTIONARY
  5
E
102
{ACAD_REACTORS
330
C
102
}
100
AcDbDictionary
  3
STANDARD
350
13
  0
MLINESTYLE
  5
13
102
{ACAD_REACTORS
330
E
102
}
100
AcDbMlineStyle
  2
STANDARD
 70
     0
  3

 62
     0
 51
90.0
 52
90.0
 71
     2
 49
0.5
 62
   256
  6
BYLAYER
 49
-0.5
 62
   256
  6
BYLAYER
  0
ENDSEC
  0
EOF
