  0
SECTION
  2
HEADER
  9
$ACADVER
  1
AC1014
  9
$INSBASE
 10
0.000000
 20
0.000000
 30
0.0
  9
$VIEWCTR
 10
7.531722
 20
4.5
  9
$VIEWSIZE
 40
9.0
  9
$SNAPMODE
 70
     0
  9
$SNAPUNIT
 10
1.0
 20
1.0
  9
$SNAPBASE
 10
0.0
 20
0.0
  9
$SNAPANG
 50
0.0
  9
$SNAPSTYLE
 70
     0
  9
$SNAPISOPAIR
 70
     0
  9
$GRIDMODE
 70
     0
  9
$GRIDUNIT
 10
0.0
 20
0.0
  9
$ORTHOMODE
 70
     0
  9
$REGENMODE
 70
     1
  9
$FILLMODE
 70
     1
  9
$QTEXTMODE
 70
     0
  9
$DRAGMODE
 70
     2
  9
$LTSCALE
  40
     1.000000
  9
$OSMODE
 70
     0
  9
$ATTMODE
 70
     1
  9
$TEXTSIZE
 40
0.2
  9
$TRACEWID
 40
0.05
  9
$TEXTSTYLE
  7
STANDARD
  9
$CELTYPE
  6
BYLAYER
  9
$CECOLOR
 62
   256
  9
$DIMSCALE
 40
1.0
  9
$DIMASZ
 40
0.18
  9
$DIMEXO
 40
0.0625
  9
$DIMDLI
 40
0.38
  9
$DIMRND
 40
0.0
  9
$DIMDLE
 40
0.0
  9
$DIMEXE
 40
0.18
  9
$DIMTP
 40
0.0
  9
$DIMTM
 40
0.0
  9
$DIMTXT
 40
0.18
  9
$DIMCEN
 40
0.09
  9
$DIMTSZ
 40
0.0
  9
$DIMTOL
 70
     0
  9
$DIMLIM
 70
     0
  9
$DIMTIH
 70
     1
  9
$DIMTOH
 70
     1
  9
$DIMSE1
 70
     0
  9
$DIMSE2
 70
     0
  9
$DIMTAD
 70
     0
  9
$DIMZIN
 70
     0
  9
$DIMBLK
  1

  9
$LUNITS
 70
     2
  9
$LUPREC
 70
     4
  9
$AXISMODE
 70
     0
  9
$AXISUNIT
 10
0.0
 20
0.0
  9
$SKETCHINC
 40
0.1
  9
$FILLETRAD
 40
0.0
  9
$AUNITS
 70
     0
  9
$AUPREC
 70
     0
  9
$MENU
  1
ACAD
  9
$ELEVATION
 40
0.0
  9
$THICKNESS
 40
0.0
  9
$VIEWDIR
 10
0.0
 20
0.0
 30
1.0
  9
$LIMCHECK
 70
     0
  9
$BLIPMODE
 70
     1
  9
$CHAMFERA
 40
0.0
  9
$CHAMFERB
 40
0.0
  9
$FASTZOOM
 70
     1
  9
$SKPOLY
 70
     0
  9
$TDCREATE
 40
0000000.0000000000
  9
$TDUPDATE
 40
0000000.0000000000
  9
$TDINDWG
 40
0.0000000000
  9
$TDUSRTIMER
 40
0.0000000000
  9
$USRTIMER
 70
     1
  9
$ANGBASE
 50
0.0
  9
$ANGDIR
 70
     0
  9
$PDMODE
 70
     0
  9
$PDSIZE
 40
0.0
  9
$PLINEWID
 40
0.0
  9
$COORDS
 70
     0
  9
$USERI1
 70
     0
  9
$USERI2
 70
     0
  9
$USERI3
 70
     0
  9
$USERI4
 70
     0
  9
$USERI5
 70
     0
  9
$USERR1
 40
0.0
  9
$USERR2
 40
0.0
  9
$USERR3
 40
0.0
  9
$USERR4
 40
0.0
  9
$USERR5
 40
0.0
  9
$CLAYER
  8
M20
  9
$EXTMIN
 10
12.5
 20
12.5
  9
$EXTMAX
 10
249.999996
 20
356.249995
  9
$LIMMIN
 10
0.0
 20
0.0
  9
$LIMMAX
 10
210.0
 20
297.0
  9
$HANDSEED
  5
2F0
  0
ENDSEC
  0
SECTION
  2
CLASSES
  0
ENDSEC
  0
SECTION
  2
TABLES
  0
TABLE
  2
VPORT
  5
8
100
AcDbSymbolTable
 70
     2
  0
VPORT
  5
14
100
AcDbSymbolTableRecord
100
AcDbViewportTableRecord
  2
*ACTIVE
 70
     0
 10
0.0
 20
0.0
 11
1.0
 21
1.0
 12
484.0
 22
297.0
 13
0.0
 23
0.0
 14
1.0
 24
1.0
 15
0.0
 25
0.0
 16
0.0
 26
0.0
 36
1.0
 17
0.0
 27
0.0
 37
0.0
 40
594.0
 41
2.0
 42
50.0
 43
0.0
 44
0.0
 50
0.0
 51
0.0
 71
     0
 72
   100
 73
     1
 74
     1
 75
     0
 76
     0
 77
     0
 78
     0
  0
ENDTAB
  0
TABLE
  2
LTYPE
  5
5
100
AcDbSymbolTable
 70
     5
  0
LTYPE
  5
15
100
AcDbSymbolTableRecord
100
AcDbLinetypeTableRecord
  2
BYBLOCK
 70
     0
  3

 72
    65
 73
     0
 40
0.0
  0
LTYPE
  5
16
100
AcDbSymbolTableRecord
100
AcDbLinetypeTableRecord
  2
BYLAYER
 70
     0
  3

 72
    65
 73
     0
 40
0.0
  0
LTYPE
  5
17
100
AcDbSymbolTableRecord
100
AcDbLinetypeTableRecord
  2
CONTINUOUS
 70
    64
  3
Solid line
 72
    65
 73
     0
 40
0.0
  0
LTYPE
  5
18
100
AcDbSymbolTableRecord
100
AcDbLinetypeTableRecord
  2
DASHED
 70
    64
  3
__ __ __ __ __ __ __ __ __ __ __ __ __ __ __ __
 72
    65
 73
     2
 40
0.75
 49
0.5
 74
     0
 49
-0.25
 74
     0
  0
LTYPE
  5
19
100
AcDbSymbolTableRecord
100
AcDbLinetypeTableRecord
  2
DASHDOT
 70
    64
  3
__ . __ . __ . __ . __ . __ . __ . __ . __ . __
 72
    65
 73
     4
 40
1.0
 49
0.5
 74
     0
 49
-0.25
 74
     0
 49
0.0
 74
     0
 49
-0.25
 74
     0
  0
LTYPE
  5
1A
100
AcDbSymbolTableRecord
100
AcDbLinetypeTableRecord
  2
DIVIDE
 70
    64
  3
____ . . ____ . . ____ . . ____ . . ____ . . __
 72
    65
 73
     6
 40
1.25
 49
0.5
 74
     0
 49
-0.25
 74
     0
 49
0.0
 74
     0
 49
-0.25
 74
     0
 49
0.0
 74
     0
 49
-0.25
 74
     0
  0
LTYPE
  5
1B
100
AcDbSymbolTableRecord
100
AcDbLinetypeTableRecord
  2
DOT
 70
    64
  3
. . . . . . . . . . . . . . . . . . . . . . . .
 72
    65
 73
     2
 40
0.25
 49
0.0
 74
     0
 49
-0.25
 74
     0
  0
ENDTAB
  0
TABLE
  2
LAYER
  5
2
100
AcDbSymbolTable
 70
   102
  0
LAYER
  5
F
100
AcDbSymbolTableRecord
100
AcDbLayerTableRecord
  2
0
 70
     0
 62
     7
  6
CONTINUOUS
  0
LAYER
  5
1C
100
AcDbSymbolTableRecord
100
AcDbLayerTableRecord
  2
DEFPOINTS
 70
     0
 62
     7
  6
CONTINUOUS
  0
LAYER
  5
1D
100
AcDbSymbolTableRecord
100
AcDbLayerTableRecord
  2
M0
 70
     0
 62
     3
  6
CONTINUOUS
  0
LAYER
  5
1E
100
AcDbSymbolTableRecord
100
AcDbLayerTableRecord
  2
M1
 70
     0
 62
     3
  6
CONTINUOUS
  0
LAYER
  5
1F
100
AcDbSymbolTableRecord
100
AcDbLayerTableRecord
  2
M20
 70
     0
 62
     3
  6
CONTINUOUS
  0
LAYER
  5
20
100
AcDbSymbolTableRecord
100
AcDbLayerTableRecord
  2
DD0
 70
     0
 62
     4
  6
CONTINUOUS
  0
LAYER
  5
21
100
AcDbSymbolTableRecord
100
AcDbLayerTableRecord
  2
DN0
 70
     0
 62
     2
  6
CONTINUOUS
  0
ENDTAB
  0
TABLE
  2
STYLE
  5
3
100
AcDbSymbolTable
 70
     2
  0
STYLE
  5
10
100
AcDbSymbolTableRecord
100
AcDbTextStyleTableRecord
  2
STANDARD
 70
     0
 40
0.0
 41
1.0
 50
0.0
 71
     0
 42
0.2
  3
txt
  4
BIGFONT
  0
ENDTAB
  0
TABLE
  2
VIEW
  5
6
100
AcDbSymbolTable
 70
     0
  0
ENDTAB
  0
TABLE
  2
UCS
  5
7
100
AcDbSymbolTable
 70
     0
  0
ENDTAB
  0
TABLE
  2
APPID
  5
9
100
AcDbSymbolTable
 70
     1
  0
APPID
  5
11
100
AcDbSymbolTableRecord
100
AcDbRegAppTableRecord
  2
ACAD
 70
     0
  0
ENDTAB
  0
TABLE
  2
DIMSTYLE
  5
A
100
AcDbSymbolTable
 70
     2
  0
DIMSTYLE
105
28
100
AcDbSymbolTableRecord
100
AcDbDimStyleTableRecord
  2
STANDARD
 70
     0
  3

  4

  5

  6
_OPEN
  7
_OPEN
 40
1.0
 41
3.125
 42
1.0
 43
6.0
 44
1.0
 45
0.0
 46
0.0
 47
0.0
 48
0.0
140
3.937499
141
0.09
142
0.0
143
0.03937
144
1.0
145
0.0
146
1.0
147
0.6
 71
     0
 72
     0
 73
     1
 74
     1
 75
     0
 76
     0
 77
     3
 78
     8
170
     0
171
     2
172
     0
173
     1
174
     0
175
     0
176
     0
177
     0
178
     0
270
     2
271
     2
272
     4
273
     2
274
     2
340
10
275
     0
280
     0
281
     0
282
     0
283
     1
284
     0
285
     0
286
     0
287
     3
288
     0
  0
DIMSTYLE
105
29
100
AcDbSymbolTableRecord
100
AcDbDimStyleTableRecord
  2
LEADSTYL
 70
     0
  3

  4

  5

  6
_OPEN
  7
_OPEN
 40
1.0
 41
3.125
 42
0.0625
 43
0.38
 44
0.18
 45
0.0
 46
0.0
 47
0.0
 48
0.0
140
3.937499
141
0.09
142
0.0
143
25.4
144
1.0
145
0.0
146
1.0
147
0.6
 71
     0
 72
     0
 73
     1
 74
     1
 75
     0
 76
     0
 77
     0
 78
     0
170
     0
171
     2
172
     0
173
     1
174
     0
175
     0
176
     0
177
     0
178
     0
270
     2
271
     4
272
     4
273
     2
274
     2
340
10
275
     0
280
     0
281
     0
282
     0
283
     1
284
     0
285
     0
286
     0
287
     3
288
     0
  0
ENDTAB
  0
TABLE
  2
BLOCK_RECORD
  5
1
100
AcDbSymbolTable
 70
    15
  0
BLOCK_RECORD
  5
22
100
AcDbSymbolTableRecord
100
AcDbBlockTableRecord
  2
*MODEL_SPACE
  0
BLOCK_RECORD
  5
25
100
AcDbSymbolTableRecord
100
AcDbBlockTableRecord
  2
*PAPER_SPACE
  0
BLOCK_RECORD
  5
2A
100
AcDbSymbolTableRecord
100
AcDbBlockTableRecord
  2
_NONE
  0
BLOCK_RECORD
  5
2E
100
AcDbSymbolTableRecord
100
AcDbBlockTableRecord
  2
_OPEN
  0
BLOCK_RECORD
  5
34
100
AcDbSymbolTableRecord
100
AcDbBlockTableRecord
  2
_CLOSED
  0
BLOCK_RECORD
  5
3B
100
AcDbSymbolTableRecord
100
AcDbBlockTableRecord
  2
_ORIGIN
  0
BLOCK_RECORD
  5
40
100
AcDbSymbolTableRecord
100
AcDbBlockTableRecord
  2
_DOT
  0
BLOCK_RECORD
  5
48
100
AcDbSymbolTableRecord
100
AcDbBlockTableRecord
  2
_OBLIQUE
  0
BLOCK_RECORD
  5
4C
100
AcDbSymbolTableRecord
100
AcDbBlockTableRecord
  2
DIMS0
  0
BLOCK_RECORD
  5
58
100
AcDbSymbolTableRecord
100
AcDbBlockTableRecord
  2
DIMS1
  0
BLOCK_RECORD
  5
64
100
AcDbSymbolTableRecord
100
AcDbBlockTableRecord
  2
DIMS2
  0
BLOCK_RECORD
  5
70
100
AcDbSymbolTableRecord
100
AcDbBlockTableRecord
  2
DIMS3
  0
BLOCK_RECORD
  5
7C
100
AcDbSymbolTableRecord
100
AcDbBlockTableRecord
  2
DIMS4
  0
BLOCK_RECORD
  5
88
100
AcDbSymbolTableRecord
100
AcDbBlockTableRecord
  2
DIMS5
  0
BLOCK_RECORD
  5
94
100
AcDbSymbolTableRecord
100
AcDbBlockTableRecord
  2
DIMS6
  0
BLOCK_RECORD
  5
A0
100
AcDbSymbolTableRecord
100
AcDbBlockTableRecord
  2
DIMS7
  0
BLOCK_RECORD
  5
AC
100
AcDbSymbolTableRecord
100
AcDbBlockTableRecord
  2
DIMS8
  0
ENDTAB
  0
ENDSEC
  0
SECTION
  2
BLOCKS
  0
BLOCK
  5
23
100
AcDbEntity
  8
0
100
AcDbBlockBegin
  2
*MODEL_SPACE
 70
     0
 10
0.0
 20
0.0
 30
0.0
  3
*MODEL_SPACE
  1

  0
ENDBLK
  5
24
100
AcDbEntity
  8
0
100
AcDbBlockEnd
  0
BLOCK
  5
26
100
AcDbEntity
 67
     1
  8
0
100
AcDbBlockBegin
  2
*PAPER_SPACE
 70
     0
 10
0.0
 20
0.0
 30
0.0
  3
*PAPER_SPACE
  1

  0
ENDBLK
  5
27
100
AcDbEntity
 67
     1
  8
0
100
AcDbBlockEnd
  0
BLOCK
  5
2B
100
AcDbEntity
  8
0
100
AcDbBlockBegin
  2
_NONE
 70
     0
 10
0.0
 20
0.0
  0
CIRCLE
  5
2C
100
AcDbEntity
  8
0
 62
     0
100
AcDbCircle
 10
0.0
 20
0.0
 40
0.25
  0
ENDBLK
  5
2D
100
AcDbEntity
  8
0
100
AcDbBlockEnd
  0
BLOCK
  5
2F
100
AcDbEntity
  8
0
100
AcDbBlockBegin
  2
_OPEN
 70
     0
 10
0.0
 20
0.0
  0
LINE
  5
30
100
AcDbEntity
  8
0
 62
     0
100
AcDbLine
 10
-0.965926
 20
0.25882
 11
0.0
 21
0.0
  0
LINE
  5
31
100
AcDbEntity
  8
0
 62
     0
100
AcDbLine
 10
0.0
 20
0.0
 11
-0.965926
 21
-0.25882
  0
LINE
  5
32
100
AcDbEntity
  8
0
 62
     0
100
AcDbLine
 10
0.0
 20
0.0
 11
-1.0
 21
0.0
  0
ENDBLK
  5
33
100
AcDbEntity
  8
0
100
AcDbBlockEnd
  0
BLOCK
  5
35
100
AcDbEntity
  8
0
100
AcDbBlockBegin
  2
_CLOSED
 70
     0
 10
0.0
 20
0.0
  0
LINE
  5
36
100
AcDbEntity
  8
0
 62
     0
100
AcDbLine
 10
-0.965926
 20
0.25882
 11
0.0
 21
0.0
  0
LINE
  5
37
100
AcDbEntity
  8
0
 62
     0
100
AcDbLine
 10
0.0
 20
0.0
 11
-0.965926
 21
-0.25882
  0
LINE
  5
38
100
AcDbEntity
  8
0
 62
     0
100
AcDbLine
 10
-0.965926
 20
0.25882
 11
-0.965926
 21
-0.25882
  0
LINE
  5
39
100
AcDbEntity
  8
0
 62
     0
100
AcDbLine
 10
0.0
 20
0.0
 11
-1.0
 21
0.0
  0
ENDBLK
  5
3A
100
AcDbEntity
  8
0
100
AcDbBlockEnd
  0
BLOCK
  5
3C
100
AcDbEntity
  8
0
100
AcDbBlockBegin
  2
_ORIGIN
 70
     0
 10
0.0
 20
0.0
  0
CIRCLE
  5
3D
100
AcDbEntity
  8
0
 62
     0
100
AcDbCircle
 10
0.0
 20
0.0
 40
0.5
  0
LINE
  5
3E
100
AcDbEntity
  8
0
 62
     0
100
AcDbLine
 10
0.0
 20
0.0
 11
-1.0
 21
0.0
  0
ENDBLK
  5
3F
100
AcDbEntity
  8
0
100
AcDbBlockEnd
  0
BLOCK
  5
41
100
AcDbEntity
  8
0
100
AcDbBlockBegin
  2
_DOT
 70
     0
 10
0.0
 20
0.0
  0
POLYLINE
  5
42
100
AcDbEntity
  8
0
 62
     0
100
AcDb2dPolyline
 66
     1
 70
     1
 40
0.5
 41
0.5
  0
VERTEX
  5
43
100
AcDbEntity
  8
0
 62
     0
100
AcDbVertex
100
AcDb2dVertex
 10
-0.25
 20
0.0
 42
1.0
  0
VERTEX
  5
44
100
AcDbEntity
  8
0
 62
     0
100
AcDbVertex
100
AcDb2dVertex
 10
0.25
 20
0.0
 42
1.0
  0
SEQEND
  5
45
100
AcDbEntity
  8
0
 62
     0
  0
LINE
  5
46
100
AcDbEntity
  8
0
 62
     0
100
AcDbLine
 10
-0.5
 20
0.0
 11
-1.0
 21
0.0
  0
ENDBLK
  5
47
100
AcDbEntity
  8
0
100
AcDbBlockEnd
  0
BLOCK
  5
49
100
AcDbEntity
  8
0
100
AcDbBlockBegin
  2
_OBLIQUE
 70
     0
 10
0.0
 20
0.0
  0
LINE
  5
4A
100
AcDbEntity
  8
0
 62
     0
100
AcDbLine
 10
-0.353553
 20
-0.353553
 11
0.353553
 21
0.353553
  0
ENDBLK
  5
4B
100
AcDbEntity
  8
0
100
AcDbBlockEnd
  0
BLOCK
  5
4D
100
AcDbEntity
  8
DD0
100
AcDbBlockBegin
  2
DIMS0
 70
     0
 10
0.0
 20
0.0
  0
LINE
  5
4E
100
AcDbEntity
  8
DD0
100
AcDbLine
 10
135.250185
 20
235.957085
 11
135.250185
 21
210.957143
  0
LINE
  5
4F
100
AcDbEntity
  8
DD0
100
AcDbLine
 10
145.250242
 20
231.457116
 11
145.250242
 21
210.957143
  0
LINE
  5
50
100
AcDbEntity
  8
DD0
100
AcDbLine
 10
138.268703
 20
213.015954
 11
135.250185
 21
212.207143
  0
LINE
  5
51
100
AcDbEntity
  8
DD0
100
AcDbLine
 10
135.250185
 20
212.207143
 11
138.268703
 21
211.398331
  0
LINE
  5
52
100
AcDbEntity
  8
DD0
100
AcDbLine
 10
142.231724
 20
211.398331
 11
145.250242
 21
212.207143
  0
LINE
  5
53
100
AcDbEntity
  8
DD0
100
AcDbLine
 10
145.250242
 20
212.207143
 11
142.231724
 21
213.015954
  0
LINE
  5
54
100
AcDbEntity
  8
DD0
100
AcDbLine
 10
135.250185
 20
212.207143
 11
145.250242
 21
212.207143
  0
TEXT
  5
55
100
AcDbEntity
  8
DD0
100
AcDbText
 10
134.212712
 20
207.394654
 40
3.937499
  1
最小１０
 41
0.666667
  7
STANDARD
100
AcDbText
  0
ENDBLK
  5
56
100
AcDbEntity
  8
DD0
100
AcDbBlockEnd
  0
BLOCK
  5
59
100
AcDbEntity
  8
DD0
100
AcDbBlockBegin
  2
DIMS1
 70
     0
 10
0.0
 20
0.0
  0
LINE
  5
5A
100
AcDbEntity
  8
DD0
100
AcDbLine
 10
53.362731
 20
182.484891
 11
53.362731
 21
191.5262
  0
LINE
  5
5B
100
AcDbEntity
  8
DD0
100
AcDbLine
 10
86.362733
 20
127.484892
 11
86.362733
 21
191.5262
  0
LINE
  5
5C
100
AcDbEntity
  8
DD0
100
AcDbLine
 10
56.381249
 20
191.085012
 11
53.362731
 21
190.2762
  0
LINE
  5
5D
100
AcDbEntity
  8
DD0
100
AcDbLine
 10
53.362731
 20
190.2762
 11
56.381249
 21
189.467389
  0
LINE
  5
5E
100
AcDbEntity
  8
DD0
100
AcDbLine
 10
83.344215
 20
189.467389
 11
86.362733
 21
190.2762
  0
LINE
  5
5F
100
AcDbEntity
  8
DD0
100
AcDbLine
 10
86.362733
 20
190.2762
 11
83.344215
 21
191.085012
  0
LINE
  5
60
100
AcDbEntity
  8
DD0
100
AcDbLine
 10
53.362731
 20
190.2762
 11
86.362733
 21
190.2762
  0
TEXT
  5
61
100
AcDbEntity
  8
DD0
100
AcDbText
 10
66.247111
 20
191.026208
 40
3.937499
  1
３３
 41
0.833333
  7
STANDARD
100
AcDbText
  0
ENDBLK
  5
62
100
AcDbEntity
  8
DD0
100
AcDbBlockEnd
  0
BLOCK
  5
65
100
AcDbEntity
  8
DD0
100
AcDbBlockBegin
  2
DIMS2
 70
     0
 10
0.0
 20
0.0
  0
LINE
  5
66
100
AcDbEntity
  8
DD0
100
AcDbLine
 10
93.612736
 20
120.234888
 11
117.170466
 21
120.234888
  0
LINE
  5
67
100
AcDbEntity
  8
DD0
100
AcDbLine
 10
60.61273
 20
175.234887
 11
117.170466
 21
175.234887
  0
LINE
  5
68
100
AcDbEntity
  8
DD0
100
AcDbLine
 10
115.111654
 20
123.253406
 11
115.920466
 21
120.234888
  0
LINE
  5
69
100
AcDbEntity
  8
DD0
100
AcDbLine
 10
115.920466
 20
120.234888
 11
116.729277
 21
123.253406
  0
LINE
  5
6A
100
AcDbEntity
  8
DD0
100
AcDbLine
 10
116.729277
 20
172.21637
 11
115.920466
 21
175.234887
  0
LINE
  5
6B
100
AcDbEntity
  8
DD0
100
AcDbLine
 10
115.920466
 20
175.234887
 11
115.111654
 21
172.21637
  0
LINE
  5
6C
100
AcDbEntity
  8
DD0
100
AcDbLine
 10
115.920466
 20
120.234888
 11
115.920466
 21
175.234887
  0
TEXT
  5
6D
100
AcDbEntity
  8
DD0
100
AcDbText
 10
115.170468
 20
144.119263
 40
3.937499
  1
５５
 50
90.000003
 41
0.833333
  7
STANDARD
100
AcDbText
  0
ENDBLK
  5
6E
100
AcDbEntity
  8
DD0
100
AcDbBlockEnd
  0
BLOCK
  5
71
100
AcDbEntity
  8
DD0
100
AcDbBlockBegin
  2
DIMS3
 70
     0
 10
0.0
 20
0.0
  0
LINE
  5
72
100
AcDbEntity
  8
DD0
100
AcDbLine
 10
38.362731
 20
286.457534
 11
38.362731
 21
310.70354
  0
LINE
  5
73
100
AcDbEntity
  8
DD0
100
AcDbLine
 10
101.362732
 20
286.457572
 11
101.362732
 21
310.70354
  0
LINE
  5
74
100
AcDbEntity
  8
DD0
100
AcDbLine
 10
41.381249
 20
310.262351
 11
38.362731
 21
309.45354
  0
LINE
  5
75
100
AcDbEntity
  8
DD0
100
AcDbLine
 10
38.362731
 20
309.45354
 11
41.381249
 21
308.644729
  0
LINE
  5
76
100
AcDbEntity
  8
DD0
100
AcDbLine
 10
98.344215
 20
308.644729
 11
101.362732
 21
309.45354
  0
LINE
  5
77
100
AcDbEntity
  8
DD0
100
AcDbLine
 10
101.362732
 20
309.45354
 11
98.344215
 21
310.262351
  0
LINE
  5
78
100
AcDbEntity
  8
DD0
100
AcDbLine
 10
38.362731
 20
309.45354
 11
101.362732
 21
309.45354
  0
TEXT
  5
79
100
AcDbEntity
  8
DD0
100
AcDbText
 10
66.247111
 20
310.203548
 40
3.937499
  1
６３
 41
0.833333
  7
STANDARD
100
AcDbText
  0
ENDBLK
  5
7A
100
AcDbEntity
  8
DD0
100
AcDbBlockEnd
  0
BLOCK
  5
7D
100
AcDbEntity
  8
DD0
100
AcDbBlockBegin
  2
DIMS4
 70
     0
 10
0.0
 20
0.0
  0
LINE
  5
7E
100
AcDbEntity
  8
DD0
100
AcDbLine
 10
92.162722
 20
224.707581
 11
117.170466
 21
224.707581
  0
LINE
  5
7F
100
AcDbEntity
  8
DD0
100
AcDbLine
 10
59.062728
 20
289.707561
 11
117.170466
 21
289.707618
  0
LINE
  5
80
100
AcDbEntity
  8
DD0
100
AcDbLine
 10
115.111654
 20
227.726099
 11
115.920466
 21
224.707581
  0
LINE
  5
81
100
AcDbEntity
  8
DD0
100
AcDbLine
 10
115.920466
 20
224.707581
 11
116.729277
 21
227.726099
  0
LINE
  5
82
100
AcDbEntity
  8
DD0
100
AcDbLine
 10
116.729277
 20
286.689101
 11
115.920466
 21
289.707618
  0
LINE
  5
83
100
AcDbEntity
  8
DD0
100
AcDbLine
 10
115.920466
 20
289.707618
 11
115.111654
 21
286.689101
  0
LINE
  5
84
100
AcDbEntity
  8
DD0
100
AcDbLine
 10
115.920466
 20
224.707581
 11
115.920466
 21
289.707618
  0
TEXT
  5
85
100
AcDbEntity
  8
DD0
100
AcDbText
 10
115.170468
 20
253.591984
 40
3.937499
  1
６５
 50
90.000003
 41
0.833333
  7
STANDARD
100
AcDbText
  0
ENDBLK
  5
86
100
AcDbEntity
  8
DD0
100
AcDbBlockEnd
  0
BLOCK
  5
89
100
AcDbEntity
  8
DD0
100
AcDbBlockBegin
  2
DIMS5
 70
     0
 10
0.0
 20
0.0
  0
LINE
  5
8A
100
AcDbEntity
  8
DD0
100
AcDbLine
 10
141.250227
 20
260.457073
 11
141.250036
 21
310.70354
  0
LINE
  5
8B
100
AcDbEntity
  8
DD0
100
AcDbLine
 10
145.250232
 20
282.957073
 11
145.250042
 21
310.70354
  0
LINE
  5
8C
100
AcDbEntity
  8
DD0
100
AcDbLine
 10
138.231528
 20
308.644729
 11
141.250046
 21
309.45354
  0
LINE
  5
8D
100
AcDbEntity
  8
DD0
100
AcDbLine
 10
141.250046
 20
309.45354
 11
138.231528
 21
310.262351
  0
LINE
  5
8E
100
AcDbEntity
  8
DD0
100
AcDbLine
 10
148.268569
 20
310.262351
 11
145.250051
 21
309.45354
  0
LINE
  5
8F
100
AcDbEntity
  8
DD0
100
AcDbLine
 10
145.250051
 20
309.45354
 11
148.268569
 21
308.644729
  0
LINE
  5
90
100
AcDbEntity
  8
DD0
100
AcDbLine
 10
135.625046
 20
309.45354
 11
150.875051
 21
309.45354
  0
TEXT
  5
91
100
AcDbEntity
  8
DD0
100
AcDbText
 10
141.603174
 20
310.203548
 40
3.937499
  1
４
 41
0.833333
  7
STANDARD
100
AcDbText
  0
ENDBLK
  5
92
100
AcDbEntity
  8
DD0
100
AcDbBlockEnd
  0
BLOCK
  5
95
100
AcDbEntity
  8
DD0
100
AcDbBlockBegin
  2
DIMS6
 70
     0
 10
0.0
 20
0.0
  0
LINE
  5
96
100
AcDbEntity
  8
DD0
 60
     1
100
AcDbLine
 10
222.750184
 20
290.957084
 11
222.750184
 21
301.625495
  0
LINE
  5
97
100
AcDbEntity
  8
DD0
100
AcDbLine
 10
212.750184
 20
290.957065
 11
212.750184
 21
301.625495
  0
LINE
  5
98
100
AcDbEntity
  8
DD0
100
AcDbLine
 10
219.731666
 20
299.566684
 11
222.750184
 21
300.375495
  0
LINE
  5
99
100
AcDbEntity
  8
DD0
100
AcDbLine
 10
222.750184
 20
300.375495
 11
219.731666
 21
301.184307
  0
LINE
  5
9A
100
AcDbEntity
  8
DD0
100
AcDbLine
 10
215.768701
 20
301.184307
 11
212.750184
 21
300.375495
  0
LINE
  5
9B
100
AcDbEntity
  8
DD0
100
AcDbLine
 10
212.750184
 20
300.375495
 11
215.768701
 21
299.566684
  0
LINE
  5
9C
100
AcDbEntity
  8
DD0
100
AcDbLine
 10
222.750184
 20
300.375495
 11
212.750184
 21
300.375495
  0
TEXT
  5
9D
100
AcDbEntity
  8
DD0
100
AcDbText
 10
214.134568
 20
301.125503
 40
3.937499
  1
１０
 41
0.833333
  7
STANDARD
100
AcDbText
  0
ENDBLK
  5
9E
100
AcDbEntity
  8
DD0
100
AcDbBlockEnd
  0
BLOCK
  5
A1
100
AcDbEntity
  8
DD0
100
AcDbBlockBegin
  2
DIMS7
 70
     0
 10
0.0
 20
0.0
  0
LINE
  5
A2
100
AcDbEntity
  8
DD0
100
AcDbLine
 10
222.750184
 20
290.957084
 11
222.750184
 21
310.70354
  0
LINE
  5
A3
100
AcDbEntity
  8
DD0
100
AcDbLine
 10
145.250242
 20
282.957073
 11
145.250242
 21
310.70354
  0
LINE
  5
A4
100
AcDbEntity
  8
DD0
100
AcDbLine
 10
219.731666
 20
308.644729
 11
222.750184
 21
309.45354
  0
LINE
  5
A5
100
AcDbEntity
  8
DD0
100
AcDbLine
 10
222.750184
 20
309.45354
 11
219.731666
 21
310.262351
  0
LINE
  5
A6
100
AcDbEntity
  8
DD0
100
AcDbLine
 10
148.26876
 20
310.262351
 11
145.250242
 21
309.45354
  0
LINE
  5
A7
100
AcDbEntity
  8
DD0
100
AcDbLine
 10
145.250242
 20
309.45354
 11
148.26876
 21
308.644729
  0
LINE
  5
A8
100
AcDbEntity
  8
DD0
100
AcDbLine
 10
222.750184
 20
309.45354
 11
145.250242
 21
309.45354
  0
TEXT
  5
A9
100
AcDbEntity
  8
DD0
100
AcDbText
 10
180.384588
 20
310.203548
 40
3.937499
  1
７８
 41
0.833333
  7
STANDARD
100
AcDbText
  0
ENDBLK
  5
AA
100
AcDbEntity
  8
DD0
100
AcDbBlockEnd
  0
BLOCK
  5
AD
100
AcDbEntity
  8
DD0
100
AcDbBlockBegin
  2
DIMS8
 70
     0
 10
0.0
 20
0.0
  0
LINE
  5
AE
100
AcDbEntity
  8
DD0
100
AcDbLine
 10
89.686053
 20
116.498654
 11
87.23235
 21
118.433846
  0
LINE
  5
AF
100
AcDbEntity
  8
DD0
100
AcDbLine
 10
87.23235
 20
118.433846
 11
88.389719
 21
115.531067
  0
LINE
  5
B0
100
AcDbEntity
  8
DD0
100
AcDbLine
 10
87.23235
 20
118.433846
 11
97.280138
 21
104.972218
  0
LINE
  5
B1
100
AcDbEntity
  8
DD0
100
AcDbLine
 10
97.280138
 20
104.972218
 11
119.11764
 21
104.972218
  0
TEXT
  5
B2
100
AcDbEntity
  8
DD0
100
AcDbText
 10
98.760352
 20
105.847214
 40
3.937499
  1
２－Ｍ４ねじ穴
 41
0.584656
  7
STANDARD
100
AcDbText
  0
ENDBLK
  5
B3
100
AcDbEntity
  8
DD0
100
AcDbBlockEnd
  0
ENDSEC
  0
SECTION
  2
ENTITIES
  0
INSERT
  5
57
100
AcDbEntity
  8
DD0
100
AcDbBlockReference
  2
DIMS0
 10
0.0
 20
0.0
  0
INSERT
  5
63
100
AcDbEntity
  8
DD0
100
AcDbBlockReference
  2
DIMS1
 10
0.0
 20
0.0
  0
INSERT
  5
6F
100
AcDbEntity
  8
DD0
100
AcDbBlockReference
  2
DIMS2
 10
0.0
 20
0.0
  0
INSERT
  5
7B
100
AcDbEntity
  8
DD0
100
AcDbBlockReference
  2
DIMS3
 10
0.0
 20
0.0
  0
INSERT
  5
87
100
AcDbEntity
  8
DD0
100
AcDbBlockReference
  2
DIMS4
 10
0.0
 20
0.0
  0
INSERT
  5
93
100
AcDbEntity
  8
DD0
100
AcDbBlockReference
  2
DIMS5
 10
0.0
 20
0.0
  0
INSERT
  5
9F
100
AcDbEntity
  8
DD0
100
AcDbBlockReference
  2
DIMS6
 10
0.0
 20
0.0
  0
INSERT
  5
AB
100
AcDbEntity
  8
DD0
100
AcDbBlockReference
  2
DIMS7
 10
0.0
 20
0.0
  0
INSERT
  5
B4
100
AcDbEntity
  8
DD0
100
AcDbBlockReference
  2
DIMS8
 10
0.0
 20
0.0
  0
LINE
  5
B5
100
AcDbEntity
  8
M0
 62
     7
100
AcDbLine
 10
212.750183
 20
224.707087
 11
212.750183
 21
236.207072
  0
LINE
  5
B6
100
AcDbEntity
  8
M0
 62
     7
100
AcDbLine
 10
203.850174
 20
231.707087
 11
203.850174
 21
227.707087
  0
LINE
  5
B7
100
AcDbEntity
  8
M0
 62
     7
100
AcDbLine
 10
208.350174
 20
231.707087
 11
208.350174
 21
226.707087
  0
LINE
  5
B8
100
AcDbEntity
  8
M0
 62
     7
100
AcDbLine
 10
204.850174
 20
226.707087
 11
208.350174
 21
226.707087
  0
ARC
  5
B9
100
AcDbEntity
  8
M0
 62
     7
100
AcDbCircle
 10
204.850174
 20
227.707087
 40
1.0
100
AcDbArc
 50
179.999945
 51
270.0
  0
LINE
  5
BA
100
AcDbEntity
  8
M0
 62
     7
100
AcDbLine
 10
193.250183
 20
237.207087
 11
211.750183
 21
237.207087
  0
ARC
  5
BB
100
AcDbEntity
  8
M0
 62
     7
100
AcDbCircle
 10
211.750183
 20
236.207087
 40
1.0
100
AcDbArc
 50
0.0
 51
90.0
  0
ARC
  5
BC
100
AcDbEntity
  8
M0
 62
     7
100
AcDbCircle
 10
203.350174
 20
231.707087
 40
0.5
100
AcDbArc
 50
0.0
 51
90.0
  0
ARC
  5
BD
100
AcDbEntity
  8
M0
 62
     7
100
AcDbCircle
 10
203.350174
 20
230.75413
 40
0.5
100
AcDbArc
 50
0.0
 51
84.348228
  0
LINE
  5
BE
100
AcDbEntity
  8
M0
 62
     7
100
AcDbLine
 10
212.750183
 20
224.707087
 11
222.750183
 21
224.707087
  0
LINE
  5
BF
100
AcDbEntity
  8
M0
 62
     7
100
AcDbLine
 10
222.750183
 20
224.707087
 11
222.750167
 21
238.557094
  0
LINE
  5
C0
100
AcDbEntity
  8
M0
 62
     7
100
AcDbLine
 10
222.750183
 20
289.707087
 11
212.750183
 21
289.707072
  0
LINE
  5
C1
100
AcDbEntity
  8
M0
  6
DASHDOT
 62
     7
100
AcDbLine
 10
192.250183
 20
257.207087
 11
222.750183
 21
257.207087
  0
LINE
  5
C2
100
AcDbEntity
  8
M0
 62
     7
100
AcDbLine
 10
192.250183
 20
283.207087
 11
222.750183
 21
283.207087
  0
LINE
  5
C3
100
AcDbEntity
  8
M0
 62
     7
100
AcDbLine
 10
222.45018
 20
238.857081
 11
222.45018
 21
239.557078
  0
LINE
  5
C4
100
AcDbEntity
  8
M0
 62
     7
100
AcDbLine
 10
217.95018
 20
239.557094
 11
221.750183
 21
239.557094
  0
LINE
  5
C5
100
AcDbEntity
  8
M0
 62
     7
100
AcDbLine
 10
217.95018
 20
274.857081
 11
222.750183
 21
274.857081
  0
LINE
  5
C6
100
AcDbEntity
  8
M0
 62
     7
100
AcDbLine
 10
217.950134
 20
240.056941
 11
219.049987
 21
240.056941
  0
LINE
  5
C7
100
AcDbEntity
  8
M0
 62
     7
100
AcDbLine
 10
219.050109
 20
241.557094
 11
220.050109
 21
241.557094
  0
LINE
  5
C8
100
AcDbEntity
  8
M0
 62
     7
100
AcDbLine
 10
222.750183
 20
274.857081
 11
222.750183
 21
289.707087
  0
LINE
  5
C9
100
AcDbEntity
  8
M0
 62
     7
100
AcDbLine
 10
219.750152
 20
272.857081
 11
220.750152
 21
272.857081
  0
LINE
  5
CA
100
AcDbEntity
  8
M0
 62
     7
100
AcDbLine
 10
220.750167
 20
272.857081
 11
222.45018
 21
274.857081
  0
LINE
  5
CB
100
AcDbEntity
  8
M0
 62
     7
100
AcDbLine
 10
219.750167
 20
272.857081
 11
219.05017
 21
274.857081
  0
LINE
  5
CC
100
AcDbEntity
  8
M0
 62
     7
100
AcDbLine
 10
219.050109
 20
241.557094
 11
219.050109
 21
240.057094
  0
LINE
  5
CD
100
AcDbEntity
  8
M0
 62
     7
100
AcDbLine
 10
193.250183
 20
232.207087
 11
208.705993
 21
232.207087
  0
LINE
  5
CE
100
AcDbEntity
  8
M0
 62
     7
100
AcDbLine
 10
192.250183
 20
231.207087
 11
203.561706
 21
231.207087
  0
LINE
  5
CF
100
AcDbEntity
  8
M0
 62
     7
100
AcDbLine
 10
194.750198
 20
232.108073
 11
203.399429
 21
231.251704
  0
ARC
  5
D0
100
AcDbEntity
  8
M0
 62
     7
100
AcDbCircle
 10
208.850036
 20
231.707087
 40
0.5
100
AcDbArc
 50
107.036915
 51
179.999966
  0
ARC
  5
D1
100
AcDbEntity
  8
M0
 62
     7
100
AcDbCircle
 10
208.850036
 20
230.707087
 40
0.5
100
AcDbArc
 50
113.547633
 51
179.999959
  0
LINE
  5
D2
100
AcDbEntity
  8
M0
 62
     7
100
AcDbLine
 10
212.750183
 20
289.707072
 11
212.750183
 21
283.207087
  0
LINE
  5
D3
100
AcDbEntity
  8
M0
 62
     7
100
AcDbLine
 10
217.95018
 20
239.557094
 11
217.95018
 21
274.857081
  0
LINE
  5
D4
100
AcDbEntity
  8
M0
 62
     7
100
AcDbLine
 10
221.750183
 20
239.557094
 11
222.750167
 21
238.557094
  0
LINE
  5
D5
100
AcDbEntity
  8
M0
 62
     7
100
AcDbLine
 10
220.050109
 20
241.557094
 11
220.050109
 21
239.557094
  0
LINE
  5
D6
100
AcDbEntity
  8
M0
 62
     7
100
AcDbLine
 10
222.45018
 20
239.557078
 11
220.050109
 21
241.557094
  0
LINE
  5
D7
100
AcDbEntity
  8
M0
 62
     2
100
AcDbLine
 10
141.250232
 20
259.207072
 11
141.250247
 21
255.207072
  0
LINE
  5
D8
100
AcDbEntity
  8
M0
 62
     2
100
AcDbLine
 10
145.250231
 20
259.707056
 11
141.750232
 21
259.707071
  0
LINE
  5
D9
100
AcDbEntity
  8
M0
 62
     2
100
AcDbLine
 10
145.250231
 20
254.707087
 11
141.750248
 21
254.707087
  0
ARC
  5
DA
100
AcDbEntity
  8
M0
 62
     2
100
AcDbCircle
 10
141.750232
 20
259.207071
 40
0.5
100
AcDbArc
 50
90.0
 51
179.999982
  0
ARC
  5
DB
100
AcDbEntity
  8
M0
 62
     2
100
AcDbCircle
 10
141.750247
 20
255.207072
 40
0.5
100
AcDbArc
 50
179.999968
 51
270.0
  0
LINE
  5
DC
100
AcDbEntity
  8
M0
100
AcDbLine
 10
135.250183
 20
237.207087
 11
135.250183
 21
277.207087
  0
LINE
  5
DD
100
AcDbEntity
  8
M0
100
AcDbLine
 10
132.250198
 20
238.449702
 11
135.250198
 21
241.449717
  0
LINE
  5
DE
100
AcDbEntity
  8
M0
100
AcDbLine
 10
132.250183
 20
242.692332
 11
135.250183
 21
245.692347
  0
LINE
  5
DF
100
AcDbEntity
  8
M0
100
AcDbLine
 10
132.250183
 20
246.934977
 11
135.250183
 21
249.934977
  0
LINE
  5
E0
100
AcDbEntity
  8
M0
100
AcDbLine
 10
132.250183
 20
251.177623
 11
135.250183
 21
254.177623
  0
LINE
  5
E1
100
AcDbEntity
  8
M0
100
AcDbLine
 10
132.250183
 20
255.420268
 11
135.250183
 21
258.420268
  0
LINE
  5
E2
100
AcDbEntity
  8
M0
100
AcDbLine
 10
132.250183
 20
259.662913
 11
135.250183
 21
262.662913
  0
LINE
  5
E3
100
AcDbEntity
  8
M0
100
AcDbLine
 10
132.250167
 20
263.905543
 11
135.250167
 21
266.905543
  0
LINE
  5
E4
100
AcDbEntity
  8
M0
100
AcDbLine
 10
132.250183
 20
268.148189
 11
135.250183
 21
271.148189
  0
LINE
  5
E5
100
AcDbEntity
  8
M0
100
AcDbLine
 10
132.250183
 20
272.390834
 11
135.250183
 21
275.390834
  0
LINE
  5
E6
100
AcDbEntity
  8
M0
 62
     4
100
AcDbLine
 10
178.749984
 20
224.707087
 11
192.250183
 21
224.707087
  0
LINE
  5
E7
100
AcDbEntity
  8
M0
 62
     4
100
AcDbLine
 10
192.250183
 20
224.707087
 11
192.250183
 21
234.707087
  0
LINE
  5
E8
100
AcDbEntity
  8
M0
 62
     4
100
AcDbLine
 10
192.250183
 20
289.707087
 11
178.749969
 21
289.707072
  0
LINE
  5
E9
100
AcDbEntity
  8
M0
 62
     4
100
AcDbLine
 10
145.250244
 20
281.707072
 11
145.250244
 21
232.707118
  0
LINE
  5
EA
100
AcDbEntity
  8
M0
  6
DASHDOT
 62
     4
100
AcDbLine
 10
137.050232
 20
257.207087
 11
192.250167
 21
257.207087
  0
LINE
  5
EB
100
AcDbEntity
  8
M0
 62
     4
100
AcDbLine
 10
150.250274
 20
228.707118
 11
169.750183
 21
228.707118
  0
LINE
  5
EC
100
AcDbEntity
  8
M0
 62
     4
100
AcDbLine
 10
150.250259
 20
227.707118
 11
174.167388
 21
227.707118
  0
LINE
  5
ED
100
AcDbEntity
  8
M0
 62
     4
100
AcDbLine
 10
150.250259
 20
285.707087
 11
169.750183
 21
285.707087
  0
LINE
  5
EE
100
AcDbEntity
  8
M0
 62
     4
100
AcDbLine
 10
150.250259
 20
286.707072
 11
174.167404
 21
286.707072
  0
ARC
  5
EF
100
AcDbEntity
  8
M0
 62
     4
100
AcDbCircle
 10
150.250274
 20
233.707118
 40
5.0
100
AcDbArc
 50
179.999825
 51
269.999825
  0
ARC
  5
F0
100
AcDbEntity
  8
M0
 62
     4
100
AcDbCircle
 10
150.250259
 20
232.707118
 40
5.0
100
AcDbArc
 50
179.999825
 51
269.999825
  0
ARC
  5
F1
100
AcDbEntity
  8
M0
 62
     4
100
AcDbCircle
 10
150.250259
 20
280.707087
 40
5.0
100
AcDbArc
 50
90.0
 51
180.0
  0
ARC
  5
F2
100
AcDbEntity
  8
M0
 62
     4
100
AcDbCircle
 10
150.250259
 20
281.707072
 40
5.0
100
AcDbArc
 50
90.0
 51
180.0
  0
ARC
  5
F3
100
AcDbEntity
  8
M0
 62
     4
100
AcDbCircle
 10
178.749984
 20
229.707087
 40
5.0
100
AcDbArc
 50
179.999825
 51
269.999825
  0
ARC
  5
F4
100
AcDbEntity
  8
M0
 62
     4
100
AcDbCircle
 10
178.749984
 20
284.707072
 40
5.0
100
AcDbArc
 50
90.0
 51
180.0
  0
LINE
  5
F5
100
AcDbEntity
  8
M0
 62
     4
100
AcDbLine
 10
172.750183
 20
279.707087
 11
193.250183
 21
279.707087
  0
LINE
  5
F6
100
AcDbEntity
  8
M0
 62
     4
100
AcDbLine
 10
172.750183
 20
234.707087
 11
193.250183
 21
234.707087
  0
LINE
  5
F7
100
AcDbEntity
  8
M0
 62
     4
100
AcDbLine
 10
173.750244
 20
284.707057
 11
173.750244
 21
279.707087
  0
LINE
  5
F8
100
AcDbEntity
  8
M0
 62
     4
100
AcDbLine
 10
171.750183
 20
230.707103
 11
171.750183
 21
233.707087
  0
ARC
  5
F9
100
AcDbEntity
  8
M0
 62
     4
100
AcDbCircle
 10
169.750183
 20
230.707118
 40
2.0
100
AcDbArc
 50
269.999563
 51
360.0
  0
ARC
  5
FA
100
AcDbEntity
  8
M0
 62
     4
100
AcDbCircle
 10
169.750183
 20
283.707087
 40
2.0
100
AcDbArc
 50
0.0
 51
90.0
  0
LINE
  5
FB
100
AcDbEntity
  8
M0
 62
     4
100
AcDbLine
 10
173.750244
 20
234.707087
 11
173.750244
 21
229.707087
  0
LINE
  5
FC
100
AcDbEntity
  8
M0
 62
     4
100
AcDbLine
 10
171.750183
 20
280.707087
 11
171.750183
 21
283.707087
  0
ARC
  5
FD
100
AcDbEntity
  8
M0
 62
     4
100
AcDbCircle
 10
172.750183
 20
280.707087
 40
1.0
100
AcDbArc
 50
180.0
 51
269.999126
  0
ARC
  5
FE
100
AcDbEntity
  8
M0
 62
     4
100
AcDbCircle
 10
172.750183
 20
233.707087
 40
1.0
100
AcDbArc
 50
90.0
 51
179.999126
  0
ARC
  5
FF
100
AcDbEntity
  8
M0
 62
     4
100
AcDbCircle
 10
171.749984
 20
229.707118
 40
2.0
100
AcDbArc
 50
269.999563
 51
360.0
  0
ARC
  5
100
100
AcDbEntity
  8
M0
 62
     4
100
AcDbCircle
 10
171.749984
 20
284.707072
 40
2.0
100
AcDbArc
 50
0.0
 51
90.0
  0
LINE
  5
101
100
AcDbEntity
  8
M0
 62
     4
100
AcDbLine
 10
193.250183
 20
283.207087
 11
193.250183
 21
231.207087
  0
LINE
  5
102
100
AcDbEntity
  8
M0
 62
     4
100
AcDbLine
 10
192.250183
 20
279.707087
 11
192.250183
 21
289.707087
  0
CIRCLE
  5
103
100
AcDbEntity
  8
M0
 62
     6
100
AcDbCircle
 10
54.862732
 20
229.207576
 40
3.0
  0
LINE
  5
104
100
AcDbEntity
  8
M0
 62
     6
100
AcDbLine
 10
51.766006
 20
232.707484
 11
51.087722
 21
230.507625
  0
LINE
  5
105
100
AcDbEntity
  8
M0
 62
     6
100
AcDbLine
 10
51.903976
 20
225.260325
 11
51.087722
 21
227.907649
  0
LINE
  5
106
100
AcDbEntity
  8
M0
 62
     6
100
AcDbLine
 10
57.959411
 20
232.707484
 11
58.637725
 21
230.507625
  0
LINE
  5
107
100
AcDbEntity
  8
M0
 62
     6
100
AcDbLine
 10
57.821456
 20
225.26031
 11
58.637725
 21
227.907649
  0
LINE
  5
108
100
AcDbEntity
  8
M0
 62
     6
100
AcDbLine
 10
52.381774
 20
224.907649
 11
57.343643
 21
224.907649
  0
LINE
  5
109
100
AcDbEntity
  8
M0
 62
     6
100
AcDbLine
 10
58.637725
 20
227.907649
 11
58.637725
 21
230.507625
  0
LINE
  5
10A
100
AcDbEntity
  8
M0
 62
     6
100
AcDbLine
 10
51.087722
 20
230.507625
 11
51.087722
 21
227.907649
  0
LINE
  5
10B
100
AcDbEntity
  8
M0
  6
DASHDOT
 62
     6
100
AcDbLine
 10
48.587722
 20
229.207576
 11
61.137725
 21
229.207576
  0
LINE
  5
10C
100
AcDbEntity
  8
M0
  6
DASHDOT
 62
     6
100
AcDbLine
 10
54.862732
 20
222.407664
 11
54.862732
 21
236.007625
  0
LINE
  5
10D
100
AcDbEntity
  8
M0
 62
     6
100
AcDbLine
 10
56.453506
 20
227.616755
 11
53.271698
 21
230.798518
  0
LINE
  5
10E
100
AcDbEntity
  8
M0
 62
     6
100
AcDbLine
 10
55.21614
 20
230.62176
 11
53.448471
 21
228.85406
  0
LINE
  5
10F
100
AcDbEntity
  8
M0
 62
     6
100
AcDbLine
 10
56.276748
 20
229.561091
 11
54.509124
 21
227.793513
  0
ARC
  5
110
100
AcDbEntity
  8
M0
 62
     6
100
AcDbCircle
 10
52.381774
 20
225.407649
 40
0.5
100
AcDbArc
 50
197.137519
 51
270.0
  0
ARC
  5
111
100
AcDbEntity
  8
M0
 62
     6
100
AcDbCircle
 10
57.343643
 20
225.407649
 40
0.5
100
AcDbArc
 50
270.0
 51
342.859476
  0
CIRCLE
  5
112
100
AcDbEntity
  8
M0
 62
     6
100
AcDbCircle
 10
44.862732
 20
237.207576
 40
3.0
  0
LINE
  5
113
100
AcDbEntity
  8
M0
 62
     6
100
AcDbLine
 10
41.903976
 20
241.154918
 11
41.087722
 21
238.507625
  0
LINE
  5
114
100
AcDbEntity
  8
M0
 62
     6
100
AcDbLine
 10
41.903976
 20
233.260325
 11
41.087722
 21
235.907649
  0
LINE
  5
115
100
AcDbEntity
  8
M0
 62
     6
100
AcDbLine
 10
47.821456
 20
241.154933
 11
48.637725
 21
238.507625
  0
LINE
  5
116
100
AcDbEntity
  8
M0
 62
     6
100
AcDbLine
 10
47.821456
 20
233.26031
 11
48.637725
 21
235.907649
  0
LINE
  5
117
100
AcDbEntity
  8
M0
 62
     6
100
AcDbLine
 10
42.381774
 20
232.907649
 11
47.343643
 21
232.907649
  0
LINE
  5
118
100
AcDbEntity
  8
M0
 62
     6
100
AcDbLine
 10
48.637725
 20
235.907649
 11
48.637725
 21
238.507625
  0
LINE
  5
119
100
AcDbEntity
  8
M0
 62
     6
100
AcDbLine
 10
47.343643
 20
241.507625
 11
42.381774
 21
241.507609
  0
LINE
  5
11A
100
AcDbEntity
  8
M0
 62
     6
100
AcDbLine
 10
41.087722
 20
238.507625
 11
41.087722
 21
235.907649
  0
LINE
  5
11B
100
AcDbEntity
  8
M0
  6
DASHDOT
 62
     6
100
AcDbLine
 10
38.587722
 20
237.207576
 11
51.137725
 21
237.207576
  0
LINE
  5
11C
100
AcDbEntity
  8
M0
  6
DASHDOT
 62
     6
100
AcDbLine
 10
44.862732
 20
230.407664
 11
44.862732
 21
244.007625
  0
LINE
  5
11D
100
AcDbEntity
  8
M0
 62
     6
100
AcDbLine
 10
46.453506
 20
235.616755
 11
43.271698
 21
238.798518
  0
LINE
  5
11E
100
AcDbEntity
  8
M0
 62
     6
100
AcDbLine
 10
45.21614
 20
238.62176
 11
43.448471
 21
236.85406
  0
LINE
  5
11F
100
AcDbEntity
  8
M0
 62
     6
100
AcDbLine
 10
46.276748
 20
237.561091
 11
44.509124
 21
235.793513
  0
ARC
  5
120
100
AcDbEntity
  8
M0
 62
     6
100
AcDbCircle
 10
42.381774
 20
241.007609
 40
0.5
100
AcDbArc
 50
90.0
 51
162.867254
  0
ARC
  5
121
100
AcDbEntity
  8
M0
 62
     6
100
AcDbCircle
 10
42.381774
 20
233.407649
 40
0.5
100
AcDbArc
 50
197.137551
 51
270.0
  0
ARC
  5
122
100
AcDbEntity
  8
M0
 62
     6
100
AcDbCircle
 10
47.343643
 20
233.407649
 40
0.5
100
AcDbArc
 50
270.0
 51
342.859508
  0
ARC
  5
123
100
AcDbEntity
  8
M0
 62
     6
100
AcDbCircle
 10
47.343643
 20
241.007609
 40
0.5
100
AcDbArc
 50
17.134755
 51
90.0
  0
LINE
  5
124
100
AcDbEntity
  8
M0
  6
DASHDOT
 62
     6
100
AcDbLine
 10
64.862701
 20
230.407649
 11
64.862732
 21
244.007609
  0
CIRCLE
  5
125
100
AcDbEntity
  8
M0
 62
     6
100
AcDbCircle
 10
54.862732
 20
237.207576
 40
3.0
  0
LINE
  5
126
100
AcDbEntity
  8
M0
 62
     6
100
AcDbLine
 10
51.903976
 20
241.154918
 11
51.087722
 21
238.507625
  0
LINE
  5
127
100
AcDbEntity
  8
M0
 62
     6
100
AcDbLine
 10
51.903976
 20
233.260325
 11
51.087722
 21
235.907649
  0
LINE
  5
128
100
AcDbEntity
  8
M0
 62
     6
100
AcDbLine
 10
57.821456
 20
241.154933
 11
58.637725
 21
238.507625
  0
LINE
  5
129
100
AcDbEntity
  8
M0
 62
     6
100
AcDbLine
 10
57.821456
 20
233.26031
 11
58.637725
 21
235.907649
  0
LINE
  5
12A
100
AcDbEntity
  8
M0
 62
     6
100
AcDbLine
 10
52.381774
 20
232.907649
 11
57.343643
 21
232.907649
  0
LINE
  5
12B
100
AcDbEntity
  8
M0
 62
     6
100
AcDbLine
 10
58.637725
 20
235.907649
 11
58.637725
 21
238.507625
  0
LINE
  5
12C
100
AcDbEntity
  8
M0
 62
     6
100
AcDbLine
 10
57.343643
 20
241.507625
 11
52.381774
 21
241.507609
  0
LINE
  5
12D
100
AcDbEntity
  8
M0
 62
     6
100
AcDbLine
 10
51.087722
 20
238.507625
 11
51.087722
 21
235.907649
  0
LINE
  5
12E
100
AcDbEntity
  8
M0
  6
DASHDOT
 62
     6
100
AcDbLine
 10
48.587722
 20
237.207576
 11
61.137725
 21
237.207576
  0
LINE
  5
12F
100
AcDbEntity
  8
M0
  6
DASHDOT
 62
     6
100
AcDbLine
 10
54.862732
 20
230.407664
 11
54.862732
 21
244.007625
  0
LINE
  5
130
100
AcDbEntity
  8
M0
 62
     6
100
AcDbLine
 10
56.453506
 20
235.616755
 11
53.271698
 21
238.798518
  0
LINE
  5
131
100
AcDbEntity
  8
M0
 62
     6
100
AcDbLine
 10
55.21614
 20
238.62176
 11
53.448471
 21
236.85406
  0
LINE
  5
132
100
AcDbEntity
  8
M0
 62
     6
100
AcDbLine
 10
56.276748
 20
237.561091
 11
54.509124
 21
235.793513
  0
ARC
  5
133
100
AcDbEntity
  8
M0
 62
     6
100
AcDbCircle
 10
52.381774
 20
241.007609
 40
0.5
100
AcDbArc
 50
90.0
 51
162.867254
  0
ARC
  5
134
100
AcDbEntity
  8
M0
 62
     6
100
AcDbCircle
 10
52.381774
 20
233.407649
 40
0.5
100
AcDbArc
 50
197.137551
 51
270.0
  0
ARC
  5
135
100
AcDbEntity
  8
M0
 62
     6
100
AcDbCircle
 10
57.343643
 20
233.407649
 40
0.5
100
AcDbArc
 50
270.0
 51
342.859508
  0
ARC
  5
136
100
AcDbEntity
  8
M0
 62
     6
100
AcDbCircle
 10
57.343643
 20
241.007609
 40
0.5
100
AcDbArc
 50
17.134755
 51
90.0
  0
CIRCLE
  5
137
100
AcDbEntity
  8
M0
 62
     6
100
AcDbCircle
 10
74.862732
 20
237.207576
 40
3.0
  0
LINE
  5
138
100
AcDbEntity
  8
M0
 62
     6
100
AcDbLine
 10
71.903976
 20
241.154918
 11
71.087722
 21
238.507625
  0
LINE
  5
139
100
AcDbEntity
  8
M0
 62
     6
100
AcDbLine
 10
71.903976
 20
233.260325
 11
71.087722
 21
235.907649
  0
LINE
  5
13A
100
AcDbEntity
  8
M0
 62
     6
100
AcDbLine
 10
77.821456
 20
241.154933
 11
78.637725
 21
238.507625
  0
LINE
  5
13B
100
AcDbEntity
  8
M0
 62
     6
100
AcDbLine
 10
77.821456
 20
233.26031
 11
78.637725
 21
235.907649
  0
LINE
  5
13C
100
AcDbEntity
  8
M0
 62
     6
100
AcDbLine
 10
72.381774
 20
232.907649
 11
77.343643
 21
232.907649
  0
LINE
  5
13D
100
AcDbEntity
  8
M0
 62
     6
100
AcDbLine
 10
78.637725
 20
235.907649
 11
78.637725
 21
238.507625
  0
LINE
  5
13E
100
AcDbEntity
  8
M0
 62
     6
100
AcDbLine
 10
77.343643
 20
241.507625
 11
72.381774
 21
241.507609
  0
LINE
  5
13F
100
AcDbEntity
  8
M0
 62
     6
100
AcDbLine
 10
71.087722
 20
238.507625
 11
71.087722
 21
235.907649
  0
LINE
  5
140
100
AcDbEntity
  8
M0
  6
DASHDOT
 62
     6
100
AcDbLine
 10
58.587722
 20
237.207576
 11
71.137725
 21
237.207576
  0
LINE
  5
141
100
AcDbEntity
  8
M0
 62
     6
100
AcDbLine
 10
76.453506
 20
235.616755
 11
73.271698
 21
238.798518
  0
LINE
  5
142
100
AcDbEntity
  8
M0
 62
     6
100
AcDbLine
 10
75.21614
 20
238.62176
 11
73.448471
 21
236.85406
  0
LINE
  5
143
100
AcDbEntity
  8
M0
 62
     6
100
AcDbLine
 10
76.276748
 20
237.561091
 11
74.509124
 21
235.793513
  0
ARC
  5
144
100
AcDbEntity
  8
M0
 62
     6
100
AcDbCircle
 10
72.381774
 20
241.007609
 40
0.5
100
AcDbArc
 50
90.0
 51
162.86739
  0
ARC
  5
145
100
AcDbEntity
  8
M0
 62
     6
100
AcDbCircle
 10
72.381774
 20
233.407649
 40
0.5
100
AcDbArc
 50
197.137519
 51
270.0
  0
ARC
  5
146
100
AcDbEntity
  8
M0
 62
     6
100
AcDbCircle
 10
77.343643
 20
233.407649
 40
0.5
100
AcDbArc
 50
270.0
 51
342.859476
  0
ARC
  5
147
100
AcDbEntity
  8
M0
 62
     6
100
AcDbCircle
 10
77.343643
 20
241.007609
 40
0.5
100
AcDbArc
 50
17.134787
 51
90.0
  0
CIRCLE
  5
148
100
AcDbEntity
  8
M0
 62
     6
100
AcDbCircle
 10
84.862732
 20
237.207576
 40
3.0
  0
LINE
  5
149
100
AcDbEntity
  8
M0
 62
     6
100
AcDbLine
 10
81.903976
 20
241.154918
 11
81.087722
 21
238.507625
  0
LINE
  5
14A
100
AcDbEntity
  8
M0
 62
     6
100
AcDbLine
 10
81.903976
 20
233.260325
 11
81.087722
 21
235.907649
  0
LINE
  5
14B
100
AcDbEntity
  8
M0
 62
     6
100
AcDbLine
 10
87.821456
 20
241.154933
 11
88.637725
 21
238.507625
  0
LINE
  5
14C
100
AcDbEntity
  8
M0
 62
     6
100
AcDbLine
 10
87.821456
 20
233.26031
 11
88.637725
 21
235.907649
  0
LINE
  5
14D
100
AcDbEntity
  8
M0
 62
     6
100
AcDbLine
 10
82.381774
 20
232.907649
 11
87.343643
 21
232.907649
  0
LINE
  5
14E
100
AcDbEntity
  8
M0
 62
     6
100
AcDbLine
 10
88.637725
 20
235.907649
 11
88.637725
 21
238.507625
  0
LINE
  5
14F
100
AcDbEntity
  8
M0
 62
     6
100
AcDbLine
 10
87.343643
 20
241.507625
 11
82.381774
 21
241.507609
  0
LINE
  5
150
100
AcDbEntity
  8
M0
 62
     6
100
AcDbLine
 10
81.087722
 20
238.507625
 11
81.087722
 21
235.907649
  0
LINE
  5
151
100
AcDbEntity
  8
M0
  6
DASHDOT
 62
     6
100
AcDbLine
 10
78.587722
 20
237.207576
 11
91.137725
 21
237.207576
  0
LINE
  5
152
100
AcDbEntity
  8
M0
  6
DASHDOT
 62
     6
100
AcDbLine
 10
84.862732
 20
230.407664
 11
84.862732
 21
244.007625
  0
LINE
  5
153
100
AcDbEntity
  8
M0
 62
     6
100
AcDbLine
 10
86.453506
 20
235.616755
 11
83.271698
 21
238.798518
  0
LINE
  5
154
100
AcDbEntity
  8
M0
 62
     6
100
AcDbLine
 10
85.21614
 20
238.62176
 11
83.448471
 21
236.85406
  0
LINE
  5
155
100
AcDbEntity
  8
M0
 62
     6
100
AcDbLine
 10
86.276748
 20
237.561091
 11
84.509124
 21
235.793513
  0
ARC
  5
156
100
AcDbEntity
  8
M0
 62
     6
100
AcDbCircle
 10
82.381774
 20
241.007609
 40
0.5
100
AcDbArc
 50
90.0
 51
162.86739
  0
ARC
  5
157
100
AcDbEntity
  8
M0
 62
     6
100
AcDbCircle
 10
82.381774
 20
233.407649
 40
0.5
100
AcDbArc
 50
197.137519
 51
270.0
  0
ARC
  5
158
100
AcDbEntity
  8
M0
 62
     6
100
AcDbCircle
 10
87.343643
 20
233.407649
 40
0.5
100
AcDbArc
 50
270.0
 51
342.859476
  0
ARC
  5
159
100
AcDbEntity
  8
M0
 62
     6
100
AcDbCircle
 10
87.343643
 20
241.007609
 40
0.5
100
AcDbArc
 50
17.134787
 51
90.0
  0
CIRCLE
  5
15A
100
AcDbEntity
  8
M0
 62
     6
100
AcDbCircle
 10
54.862732
 20
277.207332
 40
3.0
  0
LINE
  5
15B
100
AcDbEntity
  8
M0
 62
     6
100
AcDbLine
 10
51.903976
 20
281.154674
 11
51.087722
 21
278.50738
  0
LINE
  5
15C
100
AcDbEntity
  8
M0
 62
     6
100
AcDbLine
 10
51.903976
 20
273.260081
 11
51.087722
 21
275.907405
  0
LINE
  5
15D
100
AcDbEntity
  8
M0
 62
     6
100
AcDbLine
 10
57.821456
 20
281.154689
 11
58.637725
 21
278.50738
  0
LINE
  5
15E
100
AcDbEntity
  8
M0
 62
     6
100
AcDbLine
 10
57.821456
 20
273.260066
 11
58.637725
 21
275.907405
  0
LINE
  5
15F
100
AcDbEntity
  8
M0
 62
     6
100
AcDbLine
 10
52.381774
 20
272.907405
 11
57.343643
 21
272.907405
  0
LINE
  5
160
100
AcDbEntity
  8
M0
 62
     6
100
AcDbLine
 10
58.637725
 20
275.907405
 11
58.637725
 21
278.50738
  0
LINE
  5
161
100
AcDbEntity
  8
M0
 62
     6
100
AcDbLine
 10
57.343643
 20
281.50738
 11
52.381774
 21
281.507365
  0
LINE
  5
162
100
AcDbEntity
  8
M0
 62
     6
100
AcDbLine
 10
51.087722
 20
278.50738
 11
51.087722
 21
275.907405
  0
LINE
  5
163
100
AcDbEntity
  8
M0
  6
DASHDOT
 62
     6
100
AcDbLine
 10
48.587722
 20
277.207332
 11
61.137725
 21
277.207332
  0
LINE
  5
164
100
AcDbEntity
  8
M0
  6
DASHDOT
 62
     6
100
AcDbLine
 10
54.862732
 20
270.40742
 11
54.862732
 21
284.00738
  0
LINE
  5
165
100
AcDbEntity
  8
M0
 62
     6
100
AcDbLine
 10
56.453506
 20
275.616511
 11
53.271698
 21
278.798274
  0
LINE
  5
166
100
AcDbEntity
  8
M0
 62
     6
100
AcDbLine
 10
55.21614
 20
278.621516
 11
53.448471
 21
276.853816
  0
LINE
  5
167
100
AcDbEntity
  8
M0
 62
     6
100
AcDbLine
 10
56.276748
 20
277.560847
 11
54.509124
 21
275.793269
  0
ARC
  5
168
100
AcDbEntity
  8
M0
 62
     6
100
AcDbCircle
 10
52.381774
 20
281.007365
 40
0.5
100
AcDbArc
 50
90.0
 51
162.867254
  0
ARC
  5
169
100
AcDbEntity
  8
M0
 62
     6
100
AcDbCircle
 10
52.381774
 20
273.407405
 40
0.5
100
AcDbArc
 50
197.137551
 51
270.0
  0
ARC
  5
16A
100
AcDbEntity
  8
M0
 62
     6
100
AcDbCircle
 10
57.343643
 20
273.407405
 40
0.5
100
AcDbArc
 50
270.0
 51
342.859508
  0
ARC
  5
16B
100
AcDbEntity
  8
M0
 62
     6
100
AcDbCircle
 10
57.343643
 20
281.007365
 40
0.5
100
AcDbArc
 50
17.134755
 51
90.0
  0
CIRCLE
  5
16C
100
AcDbEntity
  8
M0
 62
     6
100
AcDbCircle
 10
74.862732
 20
277.207332
 40
3.0
  0
LINE
  5
16D
100
AcDbEntity
  8
M0
 62
     6
100
AcDbLine
 10
71.903976
 20
281.154674
 11
71.087722
 21
278.50738
  0
LINE
  5
16E
100
AcDbEntity
  8
M0
 62
     6
100
AcDbLine
 10
71.903976
 20
273.260081
 11
71.087722
 21
275.907405
  0
LINE
  5
16F
100
AcDbEntity
  8
M0
 62
     6
100
AcDbLine
 10
77.821456
 20
281.154689
 11
78.637725
 21
278.50738
  0
LINE
  5
170
100
AcDbEntity
  8
M0
 62
     6
100
AcDbLine
 10
77.821456
 20
273.260066
 11
78.637725
 21
275.907405
  0
LINE
  5
171
100
AcDbEntity
  8
M0
 62
     6
100
AcDbLine
 10
72.381774
 20
272.907405
 11
77.343643
 21
272.907405
  0
LINE
  5
172
100
AcDbEntity
  8
M0
 62
     6
100
AcDbLine
 10
78.637725
 20
275.907405
 11
78.637725
 21
278.50738
  0
LINE
  5
173
100
AcDbEntity
  8
M0
 62
     6
100
AcDbLine
 10
77.343643
 20
281.50738
 11
72.381774
 21
281.507365
  0
LINE
  5
174
100
AcDbEntity
  8
M0
 62
     6
100
AcDbLine
 10
71.087722
 20
278.50738
 11
71.087722
 21
275.907405
  0
LINE
  5
175
100
AcDbEntity
  8
M0
  6
DASHDOT
 62
     6
100
AcDbLine
 10
58.587722
 20
277.207332
 11
71.137725
 21
277.207332
  0
LINE
  5
176
100
AcDbEntity
  8
M0
 62
     6
100
AcDbLine
 10
76.453506
 20
275.616511
 11
73.271698
 21
278.798274
  0
LINE
  5
177
100
AcDbEntity
  8
M0
 62
     6
100
AcDbLine
 10
75.21614
 20
278.621516
 11
73.448471
 21
276.853816
  0
LINE
  5
178
100
AcDbEntity
  8
M0
 62
     6
100
AcDbLine
 10
76.276748
 20
277.560847
 11
74.509124
 21
275.793269
  0
ARC
  5
179
100
AcDbEntity
  8
M0
 62
     6
100
AcDbCircle
 10
72.381774
 20
281.007365
 40
0.5
100
AcDbArc
 50
90.0
 51
162.86739
  0
ARC
  5
17A
100
AcDbEntity
  8
M0
 62
     6
100
AcDbCircle
 10
72.381774
 20
273.407405
 40
0.5
100
AcDbArc
 50
197.137519
 51
270.0
  0
ARC
  5
17B
100
AcDbEntity
  8
M0
 62
     6
100
AcDbCircle
 10
77.343643
 20
273.407405
 40
0.5
100
AcDbArc
 50
270.0
 51
342.859476
  0
ARC
  5
17C
100
AcDbEntity
  8
M0
 62
     6
100
AcDbCircle
 10
77.343643
 20
281.007365
 40
0.5
100
AcDbArc
 50
17.134787
 51
90.0
  0
LINE
  5
17D
100
AcDbEntity
  8
M0
 62
     6
100
AcDbLine
 10
67.34375
 20
272.907405
 11
62.381881
 21
272.907405
  0
LINE
  5
17E
100
AcDbEntity
  8
M0
 62
     6
100
AcDbLine
 10
67.821548
 20
273.260081
 11
68.637802
 21
275.907405
  0
LINE
  5
17F
100
AcDbEntity
  8
M0
 62
     6
100
AcDbLine
 10
61.904068
 20
273.260066
 11
61.087799
 21
275.907405
  0
LINE
  5
180
100
AcDbEntity
  8
M0
 62
     6
100
AcDbLine
 10
61.904068
 20
281.154689
 11
61.087799
 21
278.50738
  0
LINE
  5
181
100
AcDbEntity
  8
M0
 62
     6
100
AcDbLine
 10
61.087799
 20
275.907405
 11
61.087799
 21
278.50738
  0
LINE
  5
182
100
AcDbEntity
  8
M0
 62
     6
100
AcDbLine
 10
67.821548
 20
281.154674
 11
68.637802
 21
278.50738
  0
LINE
  5
183
100
AcDbEntity
  8
M0
 62
     6
100
AcDbLine
 10
68.637802
 20
278.50738
 11
68.637802
 21
275.907405
  0
CIRCLE
  5
184
100
AcDbEntity
  8
M0
 62
     6
100
AcDbCircle
 10
64.862793
 20
277.207332
 40
3.0
  0
LINE
  5
185
100
AcDbEntity
  8
M0
 62
     6
100
AcDbLine
 10
63.272018
 20
275.616511
 11
66.453826
 21
278.798274
  0
LINE
  5
186
100
AcDbEntity
  8
M0
 62
     6
100
AcDbLine
 10
64.509384
 20
278.621516
 11
66.277053
 21
276.853816
  0
LINE
  5
187
100
AcDbEntity
  8
M0
 62
     6
100
AcDbLine
 10
63.448776
 20
277.560847
 11
65.2164
 21
275.793269
  0
ARC
  5
188
100
AcDbEntity
  8
M0
 62
     6
100
AcDbCircle
 10
67.34375
 20
273.407405
 40
0.5
100
AcDbArc
 50
270.0
 51
342.862377
  0
ARC
  5
189
100
AcDbEntity
  8
M0
 62
     6
100
AcDbCircle
 10
62.381881
 20
273.407405
 40
0.5
100
AcDbArc
 50
197.14201
 51
270.0
  0
LINE
  5
18A
100
AcDbEntity
  8
M0
 62
     6
100
AcDbLine
 10
62.381881
 20
281.50738
 11
67.34375
 21
281.507365
  0
ARC
  5
18B
100
AcDbEntity
  8
M0
 62
     6
100
AcDbCircle
 10
67.34375
 20
281.007365
 40
0.5
100
AcDbArc
 50
17.13261
 51
90.0
  0
ARC
  5
18C
100
AcDbEntity
  8
M0
 62
     6
100
AcDbCircle
 10
62.381881
 20
281.007365
 40
0.5
100
AcDbArc
 50
90.0
 51
162.865076
  0
LINE
  5
18D
100
AcDbEntity
  8
M0
 62
     6
100
AcDbLine
 10
61.904037
 20
233.260158
 11
61.087768
 21
235.907466
  0
LINE
  5
18E
100
AcDbEntity
  8
M0
 62
     6
100
AcDbLine
 10
67.821518
 20
233.260173
 11
68.637771
 21
235.907466
  0
CIRCLE
  5
18F
100
AcDbEntity
  8
M0
 62
     6
100
AcDbCircle
 10
64.862762
 20
237.207515
 40
3.0
  0
LINE
  5
190
100
AcDbEntity
  8
M0
 62
     6
100
AcDbLine
 10
63.448745
 20
236.853999
 11
65.216369
 21
238.621577
  0
LINE
  5
191
100
AcDbEntity
  8
M0
 62
     6
100
AcDbLine
 10
64.509353
 20
235.79333
 11
66.277023
 21
237.56103
  0
LINE
  5
192
100
AcDbEntity
  8
M0
 62
     6
100
AcDbLine
 10
63.271987
 20
238.798335
 11
66.453796
 21
235.616572
  0
LINE
  5
193
100
AcDbEntity
  8
M0
 62
     6
100
AcDbLine
 10
61.904052
 20
241.15478
 11
61.087768
 21
238.507441
  0
LINE
  5
194
100
AcDbEntity
  8
M0
 62
     6
100
AcDbLine
 10
67.343734
 20
241.507441
 11
62.381866
 21
241.507441
  0
ARC
  5
195
100
AcDbEntity
  8
M0
 62
     6
100
AcDbCircle
 10
62.381866
 20
241.007441
 40
0.5
100
AcDbArc
 50
90.0
 51
162.856423
  0
ARC
  5
196
100
AcDbEntity
  8
M0
 62
     6
100
AcDbCircle
 10
67.343734
 20
241.007441
 40
0.5
100
AcDbArc
 50
17.138146
 51
90.0
  0
LINE
  5
197
100
AcDbEntity
  8
M0
 62
     6
100
AcDbLine
 10
67.821533
 20
241.154765
 11
68.637771
 21
238.507441
  0
LINE
  5
198
100
AcDbEntity
  8
M0
 62
     6
100
AcDbLine
 10
61.087768
 20
238.507441
 11
61.087768
 21
235.907466
  0
LINE
  5
199
100
AcDbEntity
  8
M0
 62
     6
100
AcDbLine
 10
68.637771
 20
235.907466
 11
68.637771
 21
238.507441
  0
LINE
  5
19A
100
AcDbEntity
  8
M0
 62
     6
100
AcDbLine
 10
62.381851
 20
232.907466
 11
67.343719
 21
232.907481
  0
ARC
  5
19B
100
AcDbEntity
  8
M0
 62
     6
100
AcDbCircle
 10
62.381851
 20
233.407481
 40
0.5
100
AcDbArc
 50
197.134611
 51
270.0
  0
ARC
  5
19C
100
AcDbEntity
  8
M0
 62
     6
100
AcDbCircle
 10
67.343719
 20
233.407481
 40
0.5
100
AcDbArc
 50
270.0
 51
342.868957
  0
CIRCLE
  5
19D
100
AcDbEntity
  8
M0
 62
     6
100
AcDbCircle
 10
84.862732
 20
277.207332
 40
3.0
  0
LINE
  5
19E
100
AcDbEntity
  8
M0
 62
     6
100
AcDbLine
 10
81.903976
 20
281.154674
 11
81.087722
 21
278.50738
  0
LINE
  5
19F
100
AcDbEntity
  8
M0
 62
     6
100
AcDbLine
 10
81.903976
 20
273.260081
 11
81.087722
 21
275.907405
  0
LINE
  5
1A0
100
AcDbEntity
  8
M0
 62
     6
100
AcDbLine
 10
87.821456
 20
281.154689
 11
88.637725
 21
278.50738
  0
LINE
  5
1A1
100
AcDbEntity
  8
M0
 62
     6
100
AcDbLine
 10
87.821456
 20
273.260066
 11
88.637725
 21
275.907405
  0
LINE
  5
1A2
100
AcDbEntity
  8
M0
 62
     6
100
AcDbLine
 10
82.381774
 20
272.907405
 11
87.343643
 21
272.907405
  0
LINE
  5
1A3
100
AcDbEntity
  8
M0
 62
     6
100
AcDbLine
 10
88.637725
 20
275.907405
 11
88.637725
 21
278.50738
  0
LINE
  5
1A4
100
AcDbEntity
  8
M0
 62
     6
100
AcDbLine
 10
87.343643
 20
281.50738
 11
82.381774
 21
281.507365
  0
LINE
  5
1A5
100
AcDbEntity
  8
M0
 62
     6
100
AcDbLine
 10
81.087722
 20
278.50738
 11
81.087722
 21
275.907405
  0
LINE
  5
1A6
100
AcDbEntity
  8
M0
  6
DASHDOT
 62
     6
100
AcDbLine
 10
78.587722
 20
277.207332
 11
91.137725
 21
277.207332
  0
LINE
  5
1A7
100
AcDbEntity
  8
M0
  6
DASHDOT
 62
     6
100
AcDbLine
 10
84.862732
 20
270.40742
 11
84.862732
 21
284.00738
  0
LINE
  5
1A8
100
AcDbEntity
  8
M0
 62
     6
100
AcDbLine
 10
86.453506
 20
275.616511
 11
83.271698
 21
278.798274
  0
LINE
  5
1A9
100
AcDbEntity
  8
M0
 62
     6
100
AcDbLine
 10
85.21614
 20
278.621516
 11
83.448471
 21
276.853816
  0
LINE
  5
1AA
100
AcDbEntity
  8
M0
 62
     6
100
AcDbLine
 10
86.276748
 20
277.560847
 11
84.509124
 21
275.793269
  0
ARC
  5
1AB
100
AcDbEntity
  8
M0
 62
     6
100
AcDbCircle
 10
82.381774
 20
281.007365
 40
0.5
100
AcDbArc
 50
90.0
 51
162.86739
  0
ARC
  5
1AC
100
AcDbEntity
  8
M0
 62
     6
100
AcDbCircle
 10
82.381774
 20
273.407405
 40
0.5
100
AcDbArc
 50
197.137519
 51
270.0
  0
ARC
  5
1AD
100
AcDbEntity
  8
M0
 62
     6
100
AcDbCircle
 10
87.343643
 20
273.407405
 40
0.5
100
AcDbArc
 50
270.0
 51
342.859476
  0
ARC
  5
1AE
100
AcDbEntity
  8
M0
 62
     6
100
AcDbCircle
 10
87.343643
 20
281.007365
 40
0.5
100
AcDbArc
 50
17.134787
 51
90.0
  0
CIRCLE
  5
1AF
100
AcDbEntity
  8
M0
 62
     6
100
AcDbCircle
 10
84.862732
 20
285.207087
 40
3.0
  0
LINE
  5
1B0
100
AcDbEntity
  8
M0
 62
     6
100
AcDbLine
 10
81.903976
 20
289.154429
 11
81.087722
 21
286.507136
  0
LINE
  5
1B1
100
AcDbEntity
  8
M0
 62
     6
100
AcDbLine
 10
81.766098
 20
281.706996
 11
81.087722
 21
283.907161
  0
LINE
  5
1B2
100
AcDbEntity
  8
M0
 62
     6
100
AcDbLine
 10
87.821456
 20
289.154445
 11
88.637725
 21
286.507136
  0
LINE
  5
1B3
100
AcDbEntity
  8
M0
 62
     6
100
AcDbLine
 10
87.959335
 20
281.706996
 11
88.637725
 21
283.907161
  0
LINE
  5
1B4
100
AcDbEntity
  8
M0
 62
     6
100
AcDbLine
 10
88.637725
 20
283.907161
 11
88.637725
 21
286.507136
  0
LINE
  5
1B5
100
AcDbEntity
  8
M0
 62
     6
100
AcDbLine
 10
87.343643
 20
289.507136
 11
82.381774
 21
289.507121
  0
LINE
  5
1B6
100
AcDbEntity
  8
M0
 62
     6
100
AcDbLine
 10
81.087722
 20
286.507136
 11
81.087722
 21
283.907161
  0
LINE
  5
1B7
100
AcDbEntity
  8
M0
  6
DASHDOT
 62
     6
100
AcDbLine
 10
78.587722
 20
285.207087
 11
91.137725
 21
285.207087
  0
LINE
  5
1B8
100
AcDbEntity
  8
M0
  6
DASHDOT
 62
     6
100
AcDbLine
 10
84.862732
 20
278.407176
 11
84.862732
 21
292.007136
  0
LINE
  5
1B9
100
AcDbEntity
  8
M0
 62
     6
100
AcDbLine
 10
86.453506
 20
283.616267
 11
83.271698
 21
286.79803
  0
LINE
  5
1BA
100
AcDbEntity
  8
M0
 62
     6
100
AcDbLine
 10
85.21614
 20
286.621272
 11
83.448471
 21
284.853572
  0
LINE
  5
1BB
100
AcDbEntity
  8
M0
 62
     6
100
AcDbLine
 10
86.276748
 20
285.560603
 11
84.509124
 21
283.793025
  0
ARC
  5
1BC
100
AcDbEntity
  8
M0
 62
     6
100
AcDbCircle
 10
82.381774
 20
289.007121
 40
0.5
100
AcDbArc
 50
90.0
 51
162.867254
  0
ARC
  5
1BD
100
AcDbEntity
  8
M0
 62
     6
100
AcDbCircle
 10
87.343643
 20
289.007121
 40
0.5
100
AcDbArc
 50
17.134755
 51
90.0
  0
CIRCLE
  5
1BE
100
AcDbEntity
  8
M0
 62
     6
100
AcDbCircle
 10
94.862732
 20
277.207332
 40
3.0
  0
LINE
  5
1BF
100
AcDbEntity
  8
M0
 62
     6
100
AcDbLine
 10
91.903976
 20
281.154674
 11
91.087722
 21
278.50738
  0
LINE
  5
1C0
100
AcDbEntity
  8
M0
 62
     6
100
AcDbLine
 10
91.903976
 20
273.260081
 11
91.087722
 21
275.907405
  0
LINE
  5
1C1
100
AcDbEntity
  8
M0
 62
     6
100
AcDbLine
 10
97.821456
 20
281.154689
 11
98.637725
 21
278.50738
  0
LINE
  5
1C2
100
AcDbEntity
  8
M0
 62
     6
100
AcDbLine
 10
97.821456
 20
273.260066
 11
98.637725
 21
275.907405
  0
LINE
  5
1C3
100
AcDbEntity
  8
M0
 62
     6
100
AcDbLine
 10
92.381774
 20
272.907405
 11
97.343643
 21
272.907405
  0
LINE
  5
1C4
100
AcDbEntity
  8
M0
 62
     6
100
AcDbLine
 10
98.637725
 20
275.907405
 11
98.637725
 21
278.50738
  0
LINE
  5
1C5
100
AcDbEntity
  8
M0
 62
     6
100
AcDbLine
 10
97.343643
 20
281.50738
 11
92.381774
 21
281.507365
  0
LINE
  5
1C6
100
AcDbEntity
  8
M0
 62
     6
100
AcDbLine
 10
91.087722
 20
278.50738
 11
91.087722
 21
275.907405
  0
LINE
  5
1C7
100
AcDbEntity
  8
M0
  6
DASHDOT
 62
     6
100
AcDbLine
 10
88.587722
 20
277.207332
 11
101.137725
 21
277.207332
  0
LINE
  5
1C8
100
AcDbEntity
  8
M0
  6
DASHDOT
 62
     6
100
AcDbLine
 10
94.862732
 20
270.40742
 11
94.862732
 21
284.00738
  0
LINE
  5
1C9
100
AcDbEntity
  8
M0
 62
     6
100
AcDbLine
 10
96.453506
 20
275.616511
 11
93.271698
 21
278.798274
  0
LINE
  5
1CA
100
AcDbEntity
  8
M0
 62
     6
100
AcDbLine
 10
95.21614
 20
278.621516
 11
93.448471
 21
276.853816
  0
LINE
  5
1CB
100
AcDbEntity
  8
M0
 62
     6
100
AcDbLine
 10
96.276748
 20
277.560847
 11
94.509124
 21
275.793269
  0
ARC
  5
1CC
100
AcDbEntity
  8
M0
 62
     6
100
AcDbCircle
 10
92.381774
 20
281.007365
 40
0.5
100
AcDbArc
 50
90.0
 51
162.86739
  0
ARC
  5
1CD
100
AcDbEntity
  8
M0
 62
     6
100
AcDbCircle
 10
92.381774
 20
273.407405
 40
0.5
100
AcDbArc
 50
197.137519
 51
270.0
  0
ARC
  5
1CE
100
AcDbEntity
  8
M0
 62
     6
100
AcDbCircle
 10
97.343643
 20
273.407405
 40
0.5
100
AcDbArc
 50
270.0
 51
342.859476
  0
ARC
  5
1CF
100
AcDbEntity
  8
M0
 62
     6
100
AcDbCircle
 10
97.343643
 20
281.007365
 40
0.5
100
AcDbArc
 50
17.134787
 51
90.0
  0
LINE
  5
1D0
100
AcDbEntity
  8
M0
  6
DASHDOT
 62
     6
100
AcDbLine
 10
74.862732
 20
270.40742
 11
74.862732
 21
284.00738
  0
LINE
  5
1D1
100
AcDbEntity
  8
M0
 62
     1
100
AcDbLine
 10
65.262725
 20
225.707652
 11
74.262725
 21
225.707652
  0
ARC
  5
1D2
100
AcDbEntity
  8
M0
 62
     1
100
AcDbCircle
 10
74.262725
 20
226.707652
 40
1.0
100
AcDbArc
 50
270.0
 51
329.995752
  0
LINE
  5
1D3
100
AcDbEntity
  8
M0
 62
     1
100
AcDbLine
 10
66.812728
 20
228.00764
 11
68.85466
 21
228.00764
  0
LINE
  5
1D4
100
AcDbEntity
  8
M0
 62
     1
100
AcDbLine
 10
73.112732
 20
228.207576
 11
73.112732
 21
230.707576
  0
ARC
  5
1D5
100
AcDbEntity
  8
M0
 62
     1
100
AcDbCircle
 10
66.812728
 20
228.207637
 40
0.2
100
AcDbArc
 50
179.999727
 51
270.0
  0
ARC
  5
1D6
100
AcDbEntity
  8
M0
 62
     1
100
AcDbCircle
 10
72.912719
 20
228.207637
 40
0.2
100
AcDbArc
 50
270.0
 51
360.0
  0
LINE
  5
1D7
100
AcDbEntity
  8
M0
 62
     1
100
AcDbLine
 10
66.612701
 20
230.707576
 11
66.612732
 21
228.207576
  0
LINE
  5
1D8
100
AcDbEntity
  8
M0
 62
     1
100
AcDbLine
 10
70.912796
 20
228.00764
 11
72.912719
 21
228.00764
  0
ARC
  5
1D9
100
AcDbEntity
  8
M0
 62
     1
100
AcDbCircle
 10
65.462768
 20
226.707652
 40
1.0
100
AcDbArc
 50
210.004201
 51
270.0
  0
LINE
  5
1DA
100
AcDbEntity
  8
M0
 62
     1
100
AcDbLine
 10
64.596771
 20
226.207576
 11
64.596771
 21
230.707576
  0
LINE
  5
1DB
100
AcDbEntity
  8
M0
 62
     1
100
AcDbLine
 10
75.128692
 20
226.207576
 11
75.128692
 21
230.707576
  0
LINE
  5
1DC
100
AcDbEntity
  8
M0
 62
     4
100
AcDbLine
 10
101.362732
 20
229.207561
 11
101.362732
 21
285.207576
  0
LINE
  5
1DD
100
AcDbEntity
  8
M0
 62
     4
100
AcDbLine
 10
38.362732
 20
285.20753
 11
38.362732
 21
229.207591
  0
LINE
  5
1DE
100
AcDbEntity
  8
M0
  6
DASHDOT
 62
     4
100
AcDbLine
 10
38.362732
 20
257.207576
 11
101.362732
 21
257.207576
  0
LINE
  5
1DF
100
AcDbEntity
  8
M0
  6
DASHDOT
 62
     4
100
AcDbLine
 10
69.862732
 20
219.707576
 11
69.862732
 21
294.707576
  0
LINE
  5
1E0
100
AcDbEntity
  8
M0
 62
     4
100
AcDbLine
 10
70.912536
 20
273.207576
 11
70.912536
 21
287.70753
  0
LINE
  5
1E1
100
AcDbEntity
  8
M0
 62
     4
100
AcDbLine
 10
78.812683
 20
273.207576
 11
78.812683
 21
289.207576
  0
LINE
  5
1E2
100
AcDbEntity
  8
M0
 62
     4
100
AcDbLine
 10
60.412536
 20
288.207561
 11
59.312683
 21
288.207561
  0
LINE
  5
1E3
100
AcDbEntity
  8
M0
 62
     4
100
AcDbLine
 10
71.912536
 20
272.207576
 11
77.812683
 21
272.207576
  0
ARC
  5
1E4
100
AcDbEntity
  8
M0
 62
     4
100
AcDbCircle
 10
71.912536
 20
273.207576
 40
1.0
100
AcDbArc
 50
180.0
 51
270.0
  0
ARC
  5
1E5
100
AcDbEntity
  8
M0
 62
     4
100
AcDbCircle
 10
77.812683
 20
273.207576
 40
1.0
100
AcDbArc
 50
269.915907
 51
360.0
  0
ARC
  5
1E6
100
AcDbEntity
  8
M0
 62
     4
100
AcDbCircle
 10
79.312683
 20
287.707561
 40
0.5
100
AcDbArc
 50
90.0
 51
180.0
  0
ARC
  5
1E7
100
AcDbEntity
  8
M0
 62
     4
100
AcDbCircle
 10
70.412536
 20
287.707545
 40
0.5
100
AcDbArc
 50
0.0
 51
90.0
  0
LINE
  5
1E8
100
AcDbEntity
  8
M0
 62
     4
100
AcDbLine
 10
40.412551
 20
285.707545
 11
38.862747
 21
285.707545
  0
LINE
  5
1E9
100
AcDbEntity
  8
M0
 62
     4
100
AcDbLine
 10
50.412536
 20
288.207545
 11
49.312683
 21
288.207545
  0
LINE
  5
1EA
100
AcDbEntity
  8
M0
 62
     4
100
AcDbLine
 10
80.412536
 20
288.207561
 11
79.312683
 21
288.207561
  0
LINE
  5
1EB
100
AcDbEntity
  8
M0
 62
     4
100
AcDbLine
 10
90.412536
 20
288.207561
 11
89.312683
 21
288.207561
  0
ARC
  5
1EC
100
AcDbEntity
  8
M0
 62
     4
100
AcDbCircle
 10
89.312683
 20
287.707561
 40
0.5
100
AcDbArc
 50
90.0
 51
180.0
  0
ARC
  5
1ED
100
AcDbEntity
  8
M0
 62
     4
100
AcDbCircle
 10
59.312683
 20
287.707545
 40
0.5
100
AcDbArc
 50
90.0
 51
180.0
  0
ARC
  5
1EE
100
AcDbEntity
  8
M0
 62
     4
100
AcDbCircle
 10
49.312683
 20
287.70753
 40
0.5
100
AcDbArc
 50
89.998251
 51
180.0
  0
ARC
  5
1EF
100
AcDbEntity
  8
M0
 62
     4
100
AcDbCircle
 10
38.862747
 20
285.20753
 40
0.5
100
AcDbArc
 50
89.998251
 51
180.0
  0
LINE
  5
1F0
100
AcDbEntity
  8
M0
 62
     4
100
AcDbLine
 10
90.912536
 20
281.707576
 11
98.812683
 21
281.707576
  0
LINE
  5
1F1
100
AcDbEntity
  8
M0
 62
     4
100
AcDbLine
 10
80.912536
 20
281.707576
 11
88.812683
 21
281.707576
  0
LINE
  5
1F2
100
AcDbEntity
  8
M0
 62
     4
100
AcDbLine
 10
70.912536
 20
281.707576
 11
78.812683
 21
281.707576
  0
LINE
  5
1F3
100
AcDbEntity
  8
M0
 62
     4
100
AcDbLine
 10
50.912536
 20
281.707576
 11
58.812683
 21
281.707576
  0
LINE
  5
1F4
100
AcDbEntity
  8
M0
 62
     4
100
AcDbLine
 10
48.812683
 20
281.707576
 11
40.912536
 21
281.707576
  0
LINE
  5
1F5
100
AcDbEntity
  8
M0
 62
     4
100
AcDbLine
 10
79.312683
 20
289.707576
 11
90.412536
 21
289.707576
  0
ARC
  5
1F6
100
AcDbEntity
  8
M0
 62
     4
100
AcDbCircle
 10
79.312683
 20
289.207576
 40
0.5
100
AcDbArc
 50
90.0
 51
180.0
  0
ARC
  5
1F7
100
AcDbEntity
  8
M0
 62
     4
100
AcDbCircle
 10
89.312683
 20
289.207576
 40
0.5
100
AcDbArc
 50
90.0
 51
180.0
  0
LINE
  5
1F8
100
AcDbEntity
  8
M0
 62
     4
100
AcDbLine
 10
80.912536
 20
273.207576
 11
80.912536
 21
289.207576
  0
ARC
  5
1F9
100
AcDbEntity
  8
M0
 62
     4
100
AcDbCircle
 10
81.912536
 20
273.207576
 40
1.0
100
AcDbArc
 50
180.0
 51
269.929895
  0
LINE
  5
1FA
100
AcDbEntity
  8
M0
 62
     4
100
AcDbLine
 10
81.912536
 20
272.207576
 11
87.812683
 21
272.207576
  0
ARC
  5
1FB
100
AcDbEntity
  8
M0
 62
     4
100
AcDbCircle
 10
87.812683
 20
273.207576
 40
1.0
100
AcDbArc
 50
269.914322
 51
360.0
  0
LINE
  5
1FC
100
AcDbEntity
  8
M0
 62
     4
100
AcDbLine
 10
88.812683
 20
273.207576
 11
88.812683
 21
289.207576
  0
ARC
  5
1FD
100
AcDbEntity
  8
M0
 62
     4
100
AcDbCircle
 10
80.412536
 20
287.707545
 40
0.5
100
AcDbArc
 50
0.0
 51
90.0
  0
LINE
  5
1FE
100
AcDbEntity
  8
M0
 62
     4
100
AcDbLine
 10
50.912536
 20
273.207576
 11
50.912536
 21
287.707515
  0
ARC
  5
1FF
100
AcDbEntity
  8
M0
 62
     4
100
AcDbCircle
 10
51.912536
 20
273.207576
 40
1.0
100
AcDbArc
 50
180.0
 51
269.930059
  0
LINE
  5
200
100
AcDbEntity
  8
M0
 62
     4
100
AcDbLine
 10
51.912536
 20
272.207576
 11
57.812683
 21
272.207576
  0
ARC
  5
201
100
AcDbEntity
  8
M0
 62
     4
100
AcDbCircle
 10
57.812683
 20
273.207576
 40
1.0
100
AcDbArc
 50
269.887985
 51
360.0
  0
LINE
  5
202
100
AcDbEntity
  8
M0
 62
     4
100
AcDbLine
 10
58.812683
 20
273.207576
 11
58.812683
 21
287.707545
  0
ARC
  5
203
100
AcDbEntity
  8
M0
 62
     4
100
AcDbCircle
 10
50.412536
 20
287.70753
 40
0.5
100
AcDbArc
 50
0.0
 51
89.998251
  0
LINE
  5
204
100
AcDbEntity
  8
M0
 62
     4
100
AcDbLine
 10
90.912536
 20
273.207576
 11
90.912536
 21
289.207576
  0
ARC
  5
205
100
AcDbEntity
  8
M0
 62
     4
100
AcDbCircle
 10
91.912536
 20
273.207576
 40
1.0
100
AcDbArc
 50
180.0
 51
269.92831
  0
LINE
  5
206
100
AcDbEntity
  8
M0
 62
     4
100
AcDbLine
 10
91.912536
 20
272.207576
 11
97.812683
 21
272.207576
  0
ARC
  5
207
100
AcDbEntity
  8
M0
 62
     4
100
AcDbCircle
 10
97.812683
 20
273.207576
 40
1.0
100
AcDbArc
 50
269.914322
 51
360.0
  0
LINE
  5
208
100
AcDbEntity
  8
M0
 62
     4
100
AcDbLine
 10
98.812683
 20
273.207576
 11
98.812683
 21
285.207576
  0
ARC
  5
209
100
AcDbEntity
  8
M0
 62
     4
100
AcDbCircle
 10
90.412536
 20
287.707545
 40
0.5
100
AcDbArc
 50
0.0
 51
90.0
  0
ARC
  5
20A
100
AcDbEntity
  8
M0
 62
     4
100
AcDbCircle
 10
80.412536
 20
289.207576
 40
0.5
100
AcDbArc
 50
0.0
 51
90.0
  0
ARC
  5
20B
100
AcDbEntity
  8
M0
 62
     4
100
AcDbCircle
 10
41.912536
 20
273.207576
 40
1.0
100
AcDbArc
 50
180.0
 51
269.969401
  0
LINE
  5
20C
100
AcDbEntity
  8
M0
 62
     4
100
AcDbLine
 10
40.912536
 20
273.207576
 11
40.912536
 21
285.207515
  0
LINE
  5
20D
100
AcDbEntity
  8
M0
 62
     4
100
AcDbLine
 10
41.912536
 20
272.207576
 11
47.812683
 21
272.207576
  0
ARC
  5
20E
100
AcDbEntity
  8
M0
 62
     4
100
AcDbCircle
 10
47.812683
 20
273.207576
 40
1.0
100
AcDbArc
 50
269.927436
 51
360.0
  0
LINE
  5
20F
100
AcDbEntity
  8
M0
 62
     4
100
AcDbLine
 10
48.812683
 20
273.207576
 11
48.812683
 21
287.70753
  0
ARC
  5
210
100
AcDbEntity
  8
M0
 62
     4
100
AcDbCircle
 10
40.412551
 20
285.20753
 40
0.5
100
AcDbArc
 50
0.0
 51
89.998251
  0
LINE
  5
211
100
AcDbEntity
  8
M0
 62
     4
100
AcDbLine
 10
38.862732
 20
228.707576
 11
40.41278
 21
228.707576
  0
LINE
  5
212
100
AcDbEntity
  8
M0
 62
     4
100
AcDbLine
 10
78.812927
 20
241.207576
 11
78.812927
 21
228.207606
  0
LINE
  5
213
100
AcDbEntity
  8
M0
 62
     4
100
AcDbLine
 10
70.91278
 20
241.207576
 11
70.91278
 21
228.207591
  0
LINE
  5
214
100
AcDbEntity
  8
M0
 62
     4
100
AcDbLine
 10
79.312927
 20
227.707591
 11
80.41278
 21
227.707591
  0
LINE
  5
215
100
AcDbEntity
  8
M0
 62
     4
100
AcDbLine
 10
77.812927
 20
242.207576
 11
71.91278
 21
242.207576
  0
ARC
  5
216
100
AcDbEntity
  8
M0
 62
     4
100
AcDbCircle
 10
77.812927
 20
241.207576
 40
1.0
100
AcDbArc
 50
0.0
 51
90.0
  0
ARC
  5
217
100
AcDbEntity
  8
M0
 62
     4
100
AcDbCircle
 10
71.91278
 20
241.207576
 40
1.0
100
AcDbArc
 50
89.916071
 51
179.999945
  0
ARC
  5
218
100
AcDbEntity
  8
M0
 62
     4
100
AcDbCircle
 10
70.41278
 20
228.207591
 40
0.5
100
AcDbArc
 50
270.026119
 51
360.0
  0
ARC
  5
219
100
AcDbEntity
  8
M0
 62
     4
100
AcDbCircle
 10
79.312927
 20
228.207606
 40
0.5
100
AcDbArc
 50
179.998251
 51
270.026119
  0
LINE
  5
21A
100
AcDbEntity
  8
M0
 62
     4
100
AcDbLine
 10
89.312927
 20
227.707606
 11
90.41278
 21
227.707606
  0
LINE
  5
21B
100
AcDbEntity
  8
M0
 62
     4
100
AcDbLine
 10
59.312928
 20
227.707591
 11
60.412781
 21
227.707591
  0
LINE
  5
21C
100
AcDbEntity
  8
M0
 62
     4
100
AcDbLine
 10
49.312927
 20
227.707591
 11
50.41278
 21
227.707591
  0
ARC
  5
21D
100
AcDbEntity
  8
M0
 62
     4
100
AcDbCircle
 10
40.41278
 20
229.207591
 40
0.5
100
AcDbArc
 50
270.029726
 51
360.0
  0
ARC
  5
21E
100
AcDbEntity
  8
M0
 62
     4
100
AcDbCircle
 10
50.41278
 20
228.207591
 40
0.5
100
AcDbArc
 50
270.029726
 51
360.0
  0
ARC
  5
21F
100
AcDbEntity
  8
M0
 62
     4
100
AcDbCircle
 10
80.41278
 20
228.207606
 40
0.5
100
AcDbArc
 50
270.026119
 51
360.0
  0
ARC
  5
220
100
AcDbEntity
  8
M0
 62
     4
100
AcDbCircle
 10
90.41278
 20
228.207622
 40
0.5
100
AcDbArc
 50
270.02448
 51
360.0
  0
LINE
  5
221
100
AcDbEntity
  8
M0
 62
     4
100
AcDbLine
 10
48.812927
 20
232.707576
 11
40.91278
 21
232.707576
  0
LINE
  5
222
100
AcDbEntity
  8
M0
 62
     4
100
AcDbLine
 10
58.812927
 20
232.707576
 11
50.91278
 21
232.707576
  0
LINE
  5
223
100
AcDbEntity
  8
M0
 62
     4
100
AcDbLine
 10
78.812927
 20
232.707576
 11
70.91278
 21
232.707576
  0
LINE
  5
224
100
AcDbEntity
  8
M0
 62
     4
100
AcDbLine
 10
88.812927
 20
232.707576
 11
80.91278
 21
232.707576
  0
LINE
  5
225
100
AcDbEntity
  8
M0
 62
     4
100
AcDbLine
 10
90.91278
 20
232.707576
 11
98.812927
 21
232.707576
  0
LINE
  5
226
100
AcDbEntity
  8
M0
 62
     4
100
AcDbLine
 10
60.41278
 20
224.707576
 11
49.312927
 21
224.707561
  0
ARC
  5
227
100
AcDbEntity
  8
M0
 62
     4
100
AcDbCircle
 10
60.41278
 20
225.207576
 40
0.5
100
AcDbArc
 50
270.028087
 51
360.0
  0
ARC
  5
228
100
AcDbEntity
  8
M0
 62
     4
100
AcDbCircle
 10
50.41278
 20
225.207576
 40
0.5
100
AcDbArc
 50
270.029726
 51
360.0
  0
LINE
  5
229
100
AcDbEntity
  8
M0
 62
     4
100
AcDbLine
 10
58.812927
 20
241.207576
 11
58.812927
 21
225.207576
  0
ARC
  5
22A
100
AcDbEntity
  8
M0
 62
     4
100
AcDbCircle
 10
57.812927
 20
241.207576
 40
1.0
100
AcDbArc
 50
0.0
 51
89.943938
  0
LINE
  5
22B
100
AcDbEntity
  8
M0
 62
     4
100
AcDbLine
 10
57.812927
 20
242.207576
 11
51.91278
 21
242.207576
  0
ARC
  5
22C
100
AcDbEntity
  8
M0
 62
     4
100
AcDbCircle
 10
51.91278
 20
241.207576
 40
1.0
100
AcDbArc
 50
89.914322
 51
179.999945
  0
LINE
  5
22D
100
AcDbEntity
  8
M0
 62
     4
100
AcDbLine
 10
50.91278
 20
241.207576
 11
50.91278
 21
225.207576
  0
ARC
  5
22E
100
AcDbEntity
  8
M0
 62
     4
100
AcDbCircle
 10
59.312927
 20
228.207606
 40
0.5
100
AcDbArc
 50
179.998251
 51
270.028087
  0
LINE
  5
22F
100
AcDbEntity
  8
M0
 62
     4
100
AcDbLine
 10
88.812927
 20
241.207576
 11
88.812927
 21
228.207622
  0
ARC
  5
230
100
AcDbEntity
  8
M0
 62
     4
100
AcDbCircle
 10
87.812927
 20
241.207576
 40
1.0
100
AcDbArc
 50
0.0
 51
89.944047
  0
LINE
  5
231
100
AcDbEntity
  8
M0
 62
     4
100
AcDbLine
 10
87.812927
 20
242.207576
 11
81.91278
 21
242.207576
  0
ARC
  5
232
100
AcDbEntity
  8
M0
 62
     4
100
AcDbCircle
 10
81.91278
 20
241.207576
 40
1.0
100
AcDbArc
 50
89.888094
 51
179.999945
  0
LINE
  5
233
100
AcDbEntity
  8
M0
 62
     4
100
AcDbLine
 10
80.91278
 20
241.207576
 11
80.91278
 21
228.207606
  0
ARC
  5
234
100
AcDbEntity
  8
M0
 62
     4
100
AcDbCircle
 10
89.312927
 20
228.207622
 40
0.5
100
AcDbArc
 50
179.998251
 51
270.02448
  0
LINE
  5
235
100
AcDbEntity
  8
M0
 62
     4
100
AcDbLine
 10
48.812927
 20
241.207576
 11
48.812927
 21
225.207561
  0
ARC
  5
236
100
AcDbEntity
  8
M0
 62
     4
100
AcDbCircle
 10
47.812927
 20
241.207576
 40
1.0
100
AcDbArc
 50
0.0
 51
89.929185
  0
LINE
  5
237
100
AcDbEntity
  8
M0
 62
     4
100
AcDbLine
 10
47.812927
 20
242.207576
 11
41.91278
 21
242.207576
  0
ARC
  5
238
100
AcDbEntity
  8
M0
 62
     4
100
AcDbCircle
 10
41.91278
 20
241.207576
 40
1.0
100
AcDbArc
 50
89.914322
 51
179.999945
  0
LINE
  5
239
100
AcDbEntity
  8
M0
 62
     4
100
AcDbLine
 10
40.91278
 20
241.207576
 11
40.91278
 21
229.207591
  0
ARC
  5
23A
100
AcDbEntity
  8
M0
 62
     4
100
AcDbCircle
 10
49.312927
 20
228.207606
 40
0.5
100
AcDbArc
 50
179.998251
 51
270.029726
  0
ARC
  5
23B
100
AcDbEntity
  8
M0
 62
     4
100
AcDbCircle
 10
59.312927
 20
225.207576
 40
0.5
100
AcDbArc
 50
179.998251
 51
270.028087
  0
ARC
  5
23C
100
AcDbEntity
  8
M0
 62
     4
100
AcDbCircle
 10
97.812927
 20
241.207576
 40
1.0
100
AcDbArc
 50
0.0
 51
89.972024
  0
LINE
  5
23D
100
AcDbEntity
  8
M0
 62
     4
100
AcDbLine
 10
98.812927
 20
241.207576
 11
98.812927
 21
229.207576
  0
LINE
  5
23E
100
AcDbEntity
  8
M0
 62
     4
100
AcDbLine
 10
97.812927
 20
242.207576
 11
91.91278
 21
242.207576
  0
ARC
  5
23F
100
AcDbEntity
  8
M0
 62
     4
100
AcDbCircle
 10
91.91278
 20
241.207576
 40
1.0
100
AcDbArc
 50
89.930059
 51
179.999945
  0
LINE
  5
240
100
AcDbEntity
  8
M0
 62
     4
100
AcDbLine
 10
90.91278
 20
241.207576
 11
90.91278
 21
228.207622
  0
ARC
  5
241
100
AcDbEntity
  8
M0
 62
     4
100
AcDbCircle
 10
38.862732
 20
229.207591
 40
0.5
100
AcDbArc
 50
179.998251
 51
270.029726
  0
LINE
  5
242
100
AcDbEntity
  8
M0
 62
     4
100
AcDbLine
 10
66.862732
 20
253.557567
 11
68.862732
 21
253.557567
  0
LINE
  5
243
100
AcDbEntity
  8
M0
 62
     4
100
AcDbLine
 10
72.862732
 20
254.057567
 11
72.862732
 21
259.857539
  0
LINE
  5
244
100
AcDbEntity
  8
M0
 62
     4
100
AcDbLine
 10
72.362732
 20
260.35757
 11
70.862732
 21
260.357554
  0
LINE
  5
245
100
AcDbEntity
  8
M0
 62
     4
100
AcDbLine
 10
66.362732
 20
259.857539
 11
66.362732
 21
254.057567
  0
ARC
  5
246
100
AcDbEntity
  8
M0
 62
     4
100
AcDbCircle
 10
72.362732
 20
254.057567
 40
0.5
100
AcDbArc
 50
270.0
 51
360.0
  0
ARC
  5
247
100
AcDbEntity
  8
M0
 62
     4
100
AcDbCircle
 10
72.362732
 20
259.857554
 40
0.5
100
AcDbArc
 50
0.0
 51
90.0
  0
ARC
  5
248
100
AcDbEntity
  8
M0
 62
     4
100
AcDbCircle
 10
66.862732
 20
259.857553
 40
0.5
100
AcDbArc
 50
90.0
 51
180.0
  0
ARC
  5
249
100
AcDbEntity
  8
M0
 62
     4
100
AcDbCircle
 10
66.862732
 20
254.057567
 40
0.5
100
AcDbArc
 50
179.999891
 51
270.0
  0
ARC
  5
24A
100
AcDbEntity
  8
M0
 62
     4
100
AcDbCircle
 10
69.312957
 20
287.707545
 40
0.5
100
AcDbArc
 50
90.0
 51
180.0
  0
LINE
  5
24B
100
AcDbEntity
  8
M0
 62
     4
100
AcDbLine
 10
68.812957
 20
273.207576
 11
68.812957
 21
287.70753
  0
LINE
  5
24C
100
AcDbEntity
  8
M0
 62
     4
100
AcDbLine
 10
68.812957
 20
281.707576
 11
60.912811
 21
281.707576
  0
LINE
  5
24D
100
AcDbEntity
  8
M0
 62
     4
100
AcDbLine
 10
67.812957
 20
272.207576
 11
61.912811
 21
272.207576
  0
ARC
  5
24E
100
AcDbEntity
  8
M0
 62
     4
100
AcDbCircle
 10
67.812957
 20
273.207576
 40
1.0
100
AcDbArc
 50
-90.0
 51
0.0
  0
ARC
  5
24F
100
AcDbEntity
  8
M0
 62
     4
100
AcDbCircle
 10
61.912811
 20
273.207576
 40
1.0
100
AcDbArc
 50
180.0
 51
270.084804
  0
LINE
  5
250
100
AcDbEntity
  8
M0
 62
     4
100
AcDbLine
 10
60.912811
 20
273.207576
 11
60.912811
 21
287.707561
  0
LINE
  5
251
100
AcDbEntity
  8
M0
 62
     4
100
AcDbLine
 10
60.912811
 20
273.207576
 11
60.912811
 21
287.707561
  0
ARC
  5
252
100
AcDbEntity
  8
M0
 62
     4
100
AcDbCircle
 10
60.412811
 20
287.707561
 40
0.5
100
AcDbArc
 50
0.0
 51
90.0
  0
LINE
  5
253
100
AcDbEntity
  8
M0
 62
     4
100
AcDbLine
 10
60.912796
 20
241.207576
 11
60.912796
 21
225.207576
  0
ARC
  5
254
100
AcDbEntity
  8
M0
 62
     4
100
AcDbCircle
 10
61.912796
 20
241.207576
 40
1.0
100
AcDbArc
 50
89.915142
 51
179.999945
  0
LINE
  5
255
100
AcDbEntity
  8
M0
 62
     4
100
AcDbLine
 10
67.812942
 20
242.207576
 11
61.912796
 21
242.207576
  0
ARC
  5
256
100
AcDbEntity
  8
M0
 62
     4
100
AcDbCircle
 10
67.812942
 20
241.207576
 40
1.0
100
AcDbArc
 50
0.0
 51
90.0
  0
LINE
  5
257
100
AcDbEntity
  8
M0
 62
     4
100
AcDbLine
 10
68.812942
 20
241.207576
 11
68.812942
 21
228.207606
  0
LINE
  5
258
100
AcDbEntity
  8
M0
 62
     4
100
AcDbLine
 10
68.812927
 20
232.707576
 11
60.91278
 21
232.707576
  0
ARC
  5
259
100
AcDbEntity
  8
M0
 62
     4
100
AcDbCircle
 10
69.312927
 20
228.207606
 40
0.5
100
AcDbArc
 50
179.998251
 51
270.0
  0
ARC
  5
25A
100
AcDbEntity
  8
M0
 62
     4
100
AcDbCircle
 10
60.41278
 20
228.207591
 40
0.5
100
AcDbArc
 50
270.0
 51
360.0
  0
ARC
  5
25B
100
AcDbEntity
  8
M0
 62
     4
100
AcDbCircle
 10
90.412536
 20
289.207576
 40
0.5
100
AcDbArc
 50
0.0
 51
90.0
  0
LINE
  5
25C
100
AcDbEntity
  8
M0
 62
     4
100
AcDbLine
 10
99.312927
 20
228.707576
 11
100.862732
 21
228.707576
  0
LINE
  5
25D
100
AcDbEntity
  8
M0
 62
     4
100
AcDbLine
 10
99.312683
 20
285.707576
 11
100.862732
 21
285.707576
  0
ARC
  5
25E
100
AcDbEntity
  8
M0
 62
     4
100
AcDbCircle
 10
100.862732
 20
285.207576
 40
0.5
100
AcDbArc
 50
0.0
 51
90.0
  0
ARC
  5
25F
100
AcDbEntity
  8
M0
 62
     4
100
AcDbCircle
 10
99.312683
 20
285.207576
 40
0.5
100
AcDbArc
 50
90.0
 51
180.0
  0
ARC
  5
260
100
AcDbEntity
  8
M0
 62
     4
100
AcDbCircle
 10
99.312927
 20
229.207576
 40
0.5
100
AcDbArc
 50
179.998251
 51
269.998251
  0
ARC
  5
261
100
AcDbEntity
  8
M0
 62
     4
100
AcDbCircle
 10
100.862732
 20
229.207576
 40
0.5
100
AcDbArc
 50
269.998251
 51
360.0
  0
ARC
  5
262
100
AcDbEntity
  8
M0
 62
     4
100
AcDbCircle
 10
49.312927
 20
225.207561
 40
0.5
100
AcDbArc
 50
179.998251
 51
270.0
  0
LINE
  5
263
100
AcDbEntity
  8
M0
 62
     4
100
AcDbLine
 10
68.862732
 20
260.357554
 11
68.862732
 21
259.207576
  0
LINE
  5
264
100
AcDbEntity
  8
M0
 62
     4
100
AcDbLine
 10
70.862732
 20
260.357554
 11
70.862732
 21
259.207576
  0
LINE
  5
265
100
AcDbEntity
  8
M0
 62
     4
100
AcDbLine
 10
68.862732
 20
255.207576
 11
70.862732
 21
255.207576
  0
LINE
  5
266
100
AcDbEntity
  8
M0
 62
     4
100
AcDbLine
 10
68.862732
 20
259.207576
 11
70.862732
 21
259.207576
  0
LINE
  5
267
100
AcDbEntity
  8
M0
 62
     4
100
AcDbLine
 10
70.862732
 20
253.557567
 11
72.362732
 21
253.557567
  0
LINE
  5
268
100
AcDbEntity
  8
M0
 62
     4
100
AcDbLine
 10
68.862732
 20
260.357554
 11
66.862732
 21
260.357554
  0
LINE
  5
269
100
AcDbEntity
  8
M0
 62
     4
100
AcDbLine
 10
68.862732
 20
255.207576
 11
68.862732
 21
253.557567
  0
LINE
  5
26A
100
AcDbEntity
  8
M0
 62
     4
100
AcDbLine
 10
70.862732
 20
255.207576
 11
70.862732
 21
253.557567
  0
LINE
  5
26B
100
AcDbEntity
  8
M0
 62
     7
100
AcDbLine
 10
58.81273
 20
285.207576
 11
58.812486
 21
288.707561
  0
LINE
  5
26C
100
AcDbEntity
  8
M0
 62
     7
100
AcDbLine
 10
58.812486
 20
288.707561
 11
57.81273
 21
289.707561
  0
LINE
  5
26D
100
AcDbEntity
  8
M0
 62
     7
100
AcDbLine
 10
82.412719
 20
224.707576
 11
90.912719
 21
224.707576
  0
LINE
  5
26E
100
AcDbEntity
  8
M0
 62
     7
100
AcDbLine
 10
90.912719
 20
224.707576
 11
90.912719
 21
232.707576
  0
LINE
  5
26F
100
AcDbEntity
  8
M0
 62
     7
100
AcDbLine
 10
57.81273
 20
289.707561
 11
50.312744
 21
289.707545
  0
LINE
  5
270
100
AcDbEntity
  8
M0
 62
     7
100
AcDbLine
 10
48.312744
 20
287.707545
 11
48.312744
 21
281.707561
  0
ARC
  5
271
100
AcDbEntity
  8
M0
 62
     7
100
AcDbCircle
 10
50.312744
 20
287.707545
 40
2.0
100
AcDbArc
 50
89.999563
 51
180.0
  0
LINE
  5
272
100
AcDbEntity
  8
M0
 62
     7
100
AcDbLine
 10
76.412719
 20
228.707576
 11
76.412719
 21
230.707576
  0
LINE
  5
273
100
AcDbEntity
  8
M0
 62
     7
100
AcDbLine
 10
77.912719
 20
226.707576
 11
77.912719
 21
230.707576
  0
LINE
  5
274
100
AcDbEntity
  8
M0
 62
     7
100
AcDbLine
 10
81.412719
 20
225.707332
 11
81.412719
 21
232.707576
  0
LINE
  5
275
100
AcDbEntity
  8
M0
 62
     7
100
AcDbLine
 10
81.412719
 20
225.707561
 11
82.412719
 21
224.707576
  0
LINE
  5
276
100
AcDbEntity
  8
M0
 62
     7
100
AcDbLine
 10
78.412719
 20
226.707576
 11
78.412719
 21
230.707576
  0
LINE
  5
277
100
AcDbEntity
  8
M0
 62
     7
100
AcDbLine
 10
75.128692
 20
226.707576
 11
77.912719
 21
226.707576
  0
LINE
  5
278
100
AcDbEntity
  8
M0
 62
     7
100
AcDbLine
 10
75.128692
 20
228.707576
 11
76.412719
 21
228.707576
  0
LINE
  5
279
100
AcDbEntity
  8
M0
 62
     7
100
AcDbLine
 10
80.91278
 20
228.707576
 11
81.412719
 21
228.707576
  0
LINE
  5
27A
100
AcDbEntity
  8
M0
 62
     7
100
AcDbLine
 10
78.412719
 20
226.707576
 11
81.412719
 21
226.707576
  0
LINE
  5
27B
100
AcDbEntity
  8
M0
 62
     7
100
AcDbLine
 10
60.91278
 20
230.707576
 11
68.812927
 21
230.707576
  0
LINE
  5
27C
100
AcDbEntity
  8
M0
 62
     7
100
AcDbLine
 10
70.91278
 20
230.707576
 11
78.812927
 21
230.707576
  0
LINE
  5
27D
100
AcDbEntity
  8
M0
 62
     7
100
AcDbLine
 10
60.912536
 20
283.707576
 11
68.812683
 21
283.707576
  0
LINE
  5
27E
100
AcDbEntity
  8
M0
 62
     7
100
AcDbLine
 10
70.912292
 20
283.707576
 11
78.812439
 21
283.707576
  0
LINE
  5
27F
100
AcDbEntity
  8
M0
 62
     7
100
AcDbLine
 10
54.811706
 20
286.116511
 11
54.811706
 21
286.411921
  0
LINE
  5
280
100
AcDbEntity
  8
M0
 62
     7
100
AcDbLine
 10
51.012085
 20
286.17657
 11
51.012146
 21
286.411921
  0
ARC
  5
281
100
AcDbEntity
  8
M0
 62
     7
100
AcDbCircle
 10
52.912536
 20
285.207332
 40
2.25
100
AcDbArc
 50
32.417144
 51
147.648103
  0
ARC
  5
282
100
AcDbEntity
  8
M0
 62
     7
100
AcDbCircle
 10
84.362487
 20
231.207332
 40
2.25
100
AcDbArc
 50
138.184064
 51
192.609358
  0
LINE
  5
283
100
AcDbEntity
  8
M0
 62
     7
100
AcDbLine
 10
82.166687
 20
230.716121
 11
83.871032
 21
229.011531
  0
LINE
  5
284
100
AcDbEntity
  8
M0
 62
     7
100
AcDbLine
 10
84.70697
 20
228.307429
 11
84.906112
 21
228.307429
  0
ARC
  5
285
100
AcDbEntity
  8
M0
 62
     7
100
AcDbCircle
 10
84.362487
 20
231.207332
 40
2.25
100
AcDbArc
 50
257.382805
 51
261.369552
  0
ARC
  5
286
100
AcDbEntity
  8
M0
 62
     7
100
AcDbCircle
 10
85.912292
 20
230.207332
 40
2.25
100
AcDbArc
 50
212.975871
 51
237.61363
  0
CIRCLE
  5
287
100
AcDbEntity
  8
M0
 62
     6
100
AcDbCircle
 10
44.862732
 20
277.207332
 40
3.0
  0
LINE
  5
288
100
AcDbEntity
  8
M0
 62
     6
100
AcDbLine
 10
41.903976
 20
281.154674
 11
41.087722
 21
278.50738
  0
LINE
  5
289
100
AcDbEntity
  8
M0
 62
     6
100
AcDbLine
 10
41.903976
 20
273.260081
 11
41.087722
 21
275.907405
  0
LINE
  5
28A
100
AcDbEntity
  8
M0
 62
     6
100
AcDbLine
 10
47.821456
 20
281.154689
 11
48.637725
 21
278.50738
  0
LINE
  5
28B
100
AcDbEntity
  8
M0
 62
     6
100
AcDbLine
 10
47.821456
 20
273.260066
 11
48.637725
 21
275.907405
  0
LINE
  5
28C
100
AcDbEntity
  8
M0
 62
     6
100
AcDbLine
 10
42.381774
 20
272.907405
 11
47.343643
 21
272.907405
  0
LINE
  5
28D
100
AcDbEntity
  8
M0
 62
     6
100
AcDbLine
 10
48.637725
 20
275.907405
 11
48.637725
 21
278.50738
  0
LINE
  5
28E
100
AcDbEntity
  8
M0
 62
     6
100
AcDbLine
 10
47.343643
 20
281.50738
 11
42.381774
 21
281.507365
  0
LINE
  5
28F
100
AcDbEntity
  8
M0
 62
     6
100
AcDbLine
 10
41.087722
 20
278.50738
 11
41.087722
 21
275.907405
  0
LINE
  5
290
100
AcDbEntity
  8
M0
  6
DASHDOT
 62
     6
100
AcDbLine
 10
38.587722
 20
277.207332
 11
51.137725
 21
277.207332
  0
LINE
  5
291
100
AcDbEntity
  8
M0
  6
DASHDOT
 62
     6
100
AcDbLine
 10
44.862732
 20
270.40742
 11
44.862732
 21
284.00738
  0
LINE
  5
292
100
AcDbEntity
  8
M0
 62
     6
100
AcDbLine
 10
46.453506
 20
275.616511
 11
43.271698
 21
278.798274
  0
LINE
  5
293
100
AcDbEntity
  8
M0
 62
     6
100
AcDbLine
 10
45.21614
 20
278.621516
 11
43.448471
 21
276.853816
  0
LINE
  5
294
100
AcDbEntity
  8
M0
 62
     6
100
AcDbLine
 10
46.276748
 20
277.560847
 11
44.509124
 21
275.793269
  0
ARC
  5
295
100
AcDbEntity
  8
M0
 62
     6
100
AcDbCircle
 10
42.381774
 20
281.007365
 40
0.5
100
AcDbArc
 50
90.0
 51
162.867254
  0
ARC
  5
296
100
AcDbEntity
  8
M0
 62
     6
100
AcDbCircle
 10
42.381774
 20
273.407405
 40
0.5
100
AcDbArc
 50
197.137551
 51
270.0
  0
ARC
  5
297
100
AcDbEntity
  8
M0
 62
     6
100
AcDbCircle
 10
47.343643
 20
273.407405
 40
0.5
100
AcDbArc
 50
270.0
 51
342.859508
  0
ARC
  5
298
100
AcDbEntity
  8
M0
 62
     6
100
AcDbCircle
 10
47.343643
 20
281.007365
 40
0.5
100
AcDbArc
 50
17.134755
 51
90.0
  0
LINE
  5
299
100
AcDbEntity
  8
M0
  6
DASHDOT
 62
     6
100
AcDbLine
 10
64.86267
 20
270.407405
 11
64.862701
 21
284.007365
  0
CIRCLE
  5
29A
100
AcDbEntity
  8
M0
 62
     6
100
AcDbCircle
 10
94.862732
 20
237.207576
 40
3.0
  0
LINE
  5
29B
100
AcDbEntity
  8
M0
 62
     6
100
AcDbLine
 10
91.903976
 20
241.154918
 11
91.087722
 21
238.507625
  0
LINE
  5
29C
100
AcDbEntity
  8
M0
 62
     6
100
AcDbLine
 10
91.903976
 20
233.260325
 11
91.087722
 21
235.907649
  0
LINE
  5
29D
100
AcDbEntity
  8
M0
 62
     6
100
AcDbLine
 10
97.821456
 20
241.154933
 11
98.637725
 21
238.507625
  0
LINE
  5
29E
100
AcDbEntity
  8
M0
 62
     6
100
AcDbLine
 10
97.821456
 20
233.26031
 11
98.637725
 21
235.907649
  0
LINE
  5
29F
100
AcDbEntity
  8
M0
 62
     6
100
AcDbLine
 10
92.381774
 20
232.907649
 11
97.343643
 21
232.907649
  0
LINE
  5
2A0
100
AcDbEntity
  8
M0
 62
     6
100
AcDbLine
 10
98.637725
 20
235.907649
 11
98.637725
 21
238.507625
  0
LINE
  5
2A1
100
AcDbEntity
  8
M0
 62
     6
100
AcDbLine
 10
97.343643
 20
241.507625
 11
92.381774
 21
241.507609
  0
LINE
  5
2A2
100
AcDbEntity
  8
M0
 62
     6
100
AcDbLine
 10
91.087722
 20
238.507625
 11
91.087722
 21
235.907649
  0
LINE
  5
2A3
100
AcDbEntity
  8
M0
  6
DASHDOT
 62
     6
100
AcDbLine
 10
88.587722
 20
237.207576
 11
101.137725
 21
237.207576
  0
LINE
  5
2A4
100
AcDbEntity
  8
M0
  6
DASHDOT
 62
     6
100
AcDbLine
 10
94.862732
 20
230.407664
 11
94.862732
 21
244.007625
  0
LINE
  5
2A5
100
AcDbEntity
  8
M0
 62
     6
100
AcDbLine
 10
96.453506
 20
235.616755
 11
93.271698
 21
238.798518
  0
LINE
  5
2A6
100
AcDbEntity
  8
M0
 62
     6
100
AcDbLine
 10
95.21614
 20
238.62176
 11
93.448471
 21
236.85406
  0
LINE
  5
2A7
100
AcDbEntity
  8
M0
 62
     6
100
AcDbLine
 10
96.276748
 20
237.561091
 11
94.509124
 21
235.793513
  0
ARC
  5
2A8
100
AcDbEntity
  8
M0
 62
     6
100
AcDbCircle
 10
92.381774
 20
241.007609
 40
0.5
100
AcDbArc
 50
90.0
 51
162.86739
  0
ARC
  5
2A9
100
AcDbEntity
  8
M0
 62
     6
100
AcDbCircle
 10
92.381774
 20
233.407649
 40
0.5
100
AcDbArc
 50
197.137519
 51
270.0
  0
ARC
  5
2AA
100
AcDbEntity
  8
M0
 62
     6
100
AcDbCircle
 10
97.343643
 20
233.407649
 40
0.5
100
AcDbArc
 50
270.0
 51
342.859476
  0
ARC
  5
2AB
100
AcDbEntity
  8
M0
 62
     6
100
AcDbCircle
 10
97.343643
 20
241.007609
 40
0.5
100
AcDbArc
 50
17.134787
 51
90.0
  0
LINE
  5
2AC
100
AcDbEntity
  8
M0
  6
DASHDOT
 62
     6
100
AcDbLine
 10
74.862701
 20
230.407664
 11
74.862701
 21
244.007625
  0
ARC
  5
2AD
100
AcDbEntity
  8
M0
 62
     2
100
AcDbCircle
 10
52.865478
 20
283.207576
 40
3.499993
100
AcDbArc
 50
334.62294
 51
483.918097
  0
LINE
  5
2AE
100
AcDbEntity
  8
M0
 62
     2
100
AcDbLine
 10
51.451217
 20
284.621608
 11
54.279625
 21
281.792514
  0
LINE
  5
2AF
100
AcDbEntity
  8
M0
 62
     2
100
AcDbLine
 10
53.57257
 20
285.328181
 11
50.912536
 21
282.668025
  0
LINE
  5
2B0
100
AcDbEntity
  8
M0
 62
     2
100
AcDbLine
 10
54.986785
 20
283.914363
 11
52.780151
 21
281.707576
  0
LINE
  5
2B1
100
AcDbEntity
  8
M0
 62
     2
100
AcDbLine
 10
212.250183
 20
227.206599
 11
212.750183
 21
227.206599
  0
LINE
  5
2B2
100
AcDbEntity
  8
M0
 62
     2
100
AcDbLine
 10
212.750183
 20
227.206599
 11
212.750183
 21
235.207087
  0
LINE
  5
2B3
100
AcDbEntity
  8
M0
 62
     2
100
AcDbLine
 10
212.750183
 20
235.207087
 11
212.250183
 21
235.207087
  0
LINE
  5
2B4
100
AcDbEntity
  8
M0
 62
     2
100
AcDbLine
 10
212.250183
 20
235.207087
 11
212.250183
 21
227.206599
  0
LINE
  5
2B5
100
AcDbEntity
  8
M0
 62
     2
100
AcDbLine
 10
211.250183
 20
227.707087
 11
212.250183
 21
227.707087
  0
LINE
  5
2B6
100
AcDbEntity
  8
M0
 62
     2
100
AcDbLine
 10
212.250183
 20
234.706599
 11
211.250183
 21
234.706599
  0
LINE
  5
2B7
100
AcDbEntity
  8
M0
 62
     2
100
AcDbLine
 10
211.250183
 20
227.707087
 11
211.250183
 21
234.706599
  0
LINE
  5
2B8
100
AcDbEntity
  8
M0
 62
     2
100
AcDbLine
 10
210.130798
 20
227.804744
 11
211.250183
 21
227.706599
  0
LINE
  5
2B9
100
AcDbEntity
  8
M0
 62
     2
100
AcDbLine
 10
210.130798
 20
234.608455
 11
211.250183
 21
234.706599
  0
ARC
  5
2BA
100
AcDbEntity
  8
M0
 62
     2
100
AcDbCircle
 10
217.650329
 20
231.206843
 40
8.999985
100
AcDbArc
 50
164.121632
 51
195.884306
  0
ARC
  5
2BB
100
AcDbEntity
  8
M0
 62
     2
100
AcDbCircle
 10
210.244079
 20
229.099421
 40
1.299995
100
AcDbArc
 50
195.889213
 51
264.999484
  0
ARC
  5
2BC
100
AcDbEntity
  8
M0
 62
     2
100
AcDbCircle
 10
210.244079
 20
233.313777
 40
1.299995
100
AcDbArc
 50
95.000474
 51
164.13141
  0
ARC
  5
2BD
100
AcDbEntity
  8
M0
 62
     2
100
AcDbCircle
 10
86.865478
 20
231.207576
 40
3.499993
100
AcDbArc
 50
154.623024
 51
303.807791
  0
LINE
  5
2BE
100
AcDbEntity
  8
M0
 62
     2
100
AcDbLine
 10
85.451217
 20
232.621608
 11
88.279625
 21
229.792514
  0
LINE
  5
2BF
100
AcDbEntity
  8
M0
 62
     2
100
AcDbLine
 10
86.95195
 20
232.707332
 11
84.744155
 21
230.499812
  0
LINE
  5
2C0
100
AcDbEntity
  8
M0
 62
     2
100
AcDbLine
 10
88.812927
 20
231.740291
 11
86.158371
 21
229.08575
  0
LINE
  5
2C1
100
AcDbEntity
  8
M0
 62
     2
100
AcDbLine
 10
212.750183
 20
283.207087
 11
212.750183
 21
287.207087
  0
LINE
  5
2C2
100
AcDbEntity
  8
M0
 62
     2
100
AcDbLine
 10
212.750183
 20
287.207087
 11
212.250183
 21
287.207087
  0
LINE
  5
2C3
100
AcDbEntity
  8
M0
 62
     2
100
AcDbLine
 10
212.250183
 20
287.207087
 11
212.250183
 21
283.207087
  0
LINE
  5
2C4
100
AcDbEntity
  8
M0
  6
DASHDOT
 62
     2
100
AcDbLine
 10
206.254821
 20
283.206843
 11
223.741394
 21
283.206843
  0
LINE
  5
2C5
100
AcDbEntity
  8
M0
 62
     2
100
AcDbLine
 10
212.250183
 20
286.706599
 11
211.250183
 21
286.706599
  0
LINE
  5
2C6
100
AcDbEntity
  8
M0
 62
     2
100
AcDbLine
 10
211.250183
 20
283.207087
 11
211.250183
 21
286.706599
  0
LINE
  5
2C7
100
AcDbEntity
  8
M0
 62
     2
100
AcDbLine
 10
210.130798
 20
286.608455
 11
211.250183
 21
286.706599
  0
ARC
  5
2C8
100
AcDbEntity
  8
M0
 62
     2
100
AcDbCircle
 10
217.650329
 20
283.206843
 40
8.999985
100
AcDbArc
 50
164.121632
 51
179.999964
  0
ARC
  5
2C9
100
AcDbEntity
  8
M0
 62
     2
100
AcDbCircle
 10
210.244079
 20
285.313777
 40
1.299995
100
AcDbArc
 50
95.000474
 51
164.13141
  0
LINE
  5
2CA
100
AcDbEntity
  8
M0
  6
DIVIDE
100
AcDbLine
 10
225.750136
 20
267.207087
 11
225.750158
 21
247.207087
  0
LINE
  5
2CB
100
AcDbEntity
  8
M0
  6
DIVIDE
100
AcDbLine
 10
219.45018
 20
247.207087
 11
225.750158
 21
247.207087
  0
LINE
  5
2CC
100
AcDbEntity
  8
M0
  6
DIVIDE
100
AcDbLine
 10
219.45018
 20
267.207087
 11
225.750136
 21
267.207087
  0
LINE
  5
2CD
100
AcDbEntity
  8
M0
  6
DIVIDE
100
AcDbLine
 10
224.250138
 20
265.707087
 11
224.250156
 21
248.707087
  0
LINE
  5
2CE
100
AcDbEntity
  8
M0
  6
DIVIDE
100
AcDbLine
 10
219.45018
 20
274.857081
 11
219.45018
 21
267.207087
  0
LINE
  5
2CF
100
AcDbEntity
  8
M0
  6
DIVIDE
100
AcDbLine
 10
217.95018
 20
265.707087
 11
224.250138
 21
265.707087
  0
LINE
  5
2D0
100
AcDbEntity
  8
M0
  6
DIVIDE
100
AcDbLine
 10
217.95018
 20
248.707087
 11
224.250156
 21
248.707087
  0
LINE
  5
2D1
100
AcDbEntity
  8
M0
  6
DIVIDE
100
AcDbLine
 10
219.45018
 20
247.207087
 11
219.45018
 21
239.557094
  0
LINE
  5
2D2
100
AcDbEntity
  8
M1
 62
     2
100
AcDbLine
 10
12.5
 20
12.5
 11
12.5
 21
356.249995
  0
LINE
  5
2D3
100
AcDbEntity
  8
M1
 62
     2
100
AcDbLine
 10
12.5
 20
356.249995
 11
249.999996
 21
356.249995
  0
LINE
  5
2D4
100
AcDbEntity
  8
M1
 62
     2
100
AcDbLine
 10
249.999996
 20
356.249995
 11
249.999996
 21
12.5
  0
LINE
  5
2D5
100
AcDbEntity
  8
M1
 62
     2
100
AcDbLine
 10
249.999996
 20
12.5
 11
12.5
 21
12.5
  0
LINE
  5
2D6
100
AcDbEntity
  8
M1
 62
     2
100
AcDbLine
 10
249.999996
 20
25.0
 11
124.999998
 21
25.0
  0
LINE
  5
2D7
100
AcDbEntity
  8
M1
 62
     2
100
AcDbLine
 10
249.999996
 20
37.499999
 11
124.999998
 21
37.499999
  0
LINE
  5
2D8
100
AcDbEntity
  8
M1
 62
     2
100
AcDbLine
 10
249.999996
 20
49.999999
 11
124.999998
 21
49.999999
  0
LINE
  5
2D9
100
AcDbEntity
  8
M1
 62
     2
100
AcDbLine
 10
124.999998
 20
12.5
 11
124.999998
 21
49.999999
  0
TEXT
  5
2DA
100
AcDbEntity
  8
M1
 62
     2
100
AcDbText
 10
128.124998
 20
15.625
 40
6.25
  1
適　用；
  7
STANDARD
100
AcDbText
  0
TEXT
  5
2DB
100
AcDbEntity
  8
M1
 62
     2
100
AcDbText
 10
128.124998
 20
28.125
 40
6.25
  1
形　式；
  7
STANDARD
100
AcDbText
  0
TEXT
  5
2DC
100
AcDbEntity
  8
M1
 62
     2
100
AcDbText
 10
158.124998
 20
28.125
 40
6.25
  1
Ｈ１２
 41
0.5
  7
STANDARD
100
AcDbText
  0
TEXT
  5
2DD
100
AcDbEntity
  8
M1
 62
     2
100
AcDbText
 10
128.124998
 20
40.624999
 40
6.25
  1
登録名：
  7
STANDARD
100
AcDbText
  0
TEXT
  5
2DE
100
AcDbEntity
  8
M1
 62
     2
100
AcDbText
 10
158.124998
 20
40.624999
 40
6.25
  1
ＤＭＨ１２Ｒ００
 41
0.5
  7
STANDARD
100
AcDbText
  0
LINE
  5
2DF
100
AcDbEntity
  8
M20
  6
DIVIDE
100
AcDbLine
 10
101.362732
 20
115.234888
 11
101.362732
 21
180.234888
  0
LINE
  5
2E0
100
AcDbEntity
  8
M20
  6
DIVIDE
100
AcDbLine
 10
101.362732
 20
180.234888
 11
38.362732
 21
180.234888
  0
LINE
  5
2E1
100
AcDbEntity
  8
M20
  6
DIVIDE
100
AcDbLine
 10
38.362732
 20
180.234888
 11
38.362732
 21
115.234888
  0
LINE
  5
2E2
100
AcDbEntity
  8
M20
  6
DIVIDE
100
AcDbLine
 10
38.362732
 20
115.234888
 11
101.362732
 21
115.234888
  0
LINE
  5
2E3
100
AcDbEntity
  8
M20
  6
DASHDOT
100
AcDbLine
 10
28.362732
 20
147.734888
 11
111.362732
 21
147.734888
  0
LINE
  5
2E4
100
AcDbEntity
  8
M20
  6
DASHDOT
100
AcDbLine
 10
69.862732
 20
105.234888
 11
69.862732
 21
190.234888
  0
CIRCLE
  5
2E5
100
AcDbEntity
  8
M20
100
AcDbCircle
 10
53.362732
 20
175.234888
 40
2.0
  0
CIRCLE
  5
2E6
100
AcDbEntity
  8
M20
100
AcDbCircle
 10
86.362732
 20
120.234888
 40
2.0
  0
CIRCLE
  5
2E7
100
AcDbEntity
  8
M20
100
AcDbCircle
 10
86.362732
 20
120.234888
 40
1.6
  0
CIRCLE
  5
2E8
100
AcDbEntity
  8
M20
100
AcDbCircle
 10
53.362732
 20
175.234888
 40
1.6
  0
LINE
  5
2E9
100
AcDbEntity
  8
M20
  6
DASHDOT
100
AcDbLine
 10
47.362732
 20
175.234888
 11
59.362732
 21
175.234888
  0
LINE
  5
2EA
100
AcDbEntity
  8
M20
  6
DASHDOT
100
AcDbLine
 10
53.362732
 20
169.234888
 11
53.362732
 21
181.234888
  0
LINE
  5
2EB
100
AcDbEntity
  8
M20
  6
DASHDOT
100
AcDbLine
 10
80.362732
 20
120.234888
 11
92.362732
 21
120.234888
  0
LINE
  5
2EC
100
AcDbEntity
  8
M20
  6
DASHDOT
100
AcDbLine
 10
86.362732
 20
114.234888
 11
86.362732
 21
126.234888
  0
LINE
  5
2ED
100
AcDbEntity
  8
DN0
100
AcDbLine
 10
59.334321
 20
92.214999
 11
82.159322
 21
92.214999
  0
TEXT
  5
2EE
100
AcDbEntity
  8
DN0
100
AcDbText
 10
59.965571
 20
92.777499
 40
5.625
  1
せん孔図
 41
0.833333
  7
STANDARD
100
AcDbText
  0
ENDSEC
  0
SECTION
  2
OBJECTS
  0
DICTIONARY
  5
C
100
AcDbDictionary
  3
ACAD_GROUP
350
D
  3
ACAD_MLINESTYLE
350
E
  0
DICTIONARY
  5
D
102
{ACAD_REACTORS
330
C
102
}
100
AcDbDictionary
  0
DICTIONARY
  5
E
102
{ACAD_REACTORS
330
C
102
}
100
AcDbDictionary
  3
STANDARD
350
13
  0
MLINESTYLE
  5
13
102
{ACAD_REACTORS
330
E
102
}
100
AcDbMlineStyle
  2
STANDARD
 70
     0
  3

 62
     0
 51
90.0
 52
90.0
 71
     2
 49
0.5
 62
   256
  6
BYLAYER
 49
-0.5
 62
   256
  6
BYLAYER
  0
ENDSEC
  0
EOF
