  0
SECTION
  2
HEADER
  9
$ACADVER
  1
AC1014
  9
$INSBASE
 10
0.000000
 20
0.000000
 30
0.0
  9
$VIEWCTR
 10
7.531722
 20
4.5
  9
$VIEWSIZE
 40
9.0
  9
$SNAPMODE
 70
     0
  9
$SNAPUNIT
 10
1.0
 20
1.0
  9
$SNAPBASE
 10
0.0
 20
0.0
  9
$SNAPANG
 50
0.0
  9
$SNAPSTYLE
 70
     0
  9
$SNAPISOPAIR
 70
     0
  9
$GRIDMODE
 70
     0
  9
$GRIDUNIT
 10
0.0
 20
0.0
  9
$ORTHOMODE
 70
     0
  9
$REGENMODE
 70
     1
  9
$FILLMODE
 70
     1
  9
$QTEXTMODE
 70
     0
  9
$DRAGMODE
 70
     2
  9
$LTSCALE
  40
     1.000000
  9
$OSMODE
 70
     0
  9
$ATTMODE
 70
     1
  9
$TEXTSIZE
 40
0.2
  9
$TRACEWID
 40
0.05
  9
$TEXTSTYLE
  7
STANDARD
  9
$CELTYPE
  6
BYLAYER
  9
$CECOLOR
 62
   256
  9
$DIMSCALE
 40
1.0
  9
$DIMASZ
 40
0.18
  9
$DIMEXO
 40
0.0625
  9
$DIMDLI
 40
0.38
  9
$DIMRND
 40
0.0
  9
$DIMDLE
 40
0.0
  9
$DIMEXE
 40
0.18
  9
$DIMTP
 40
0.0
  9
$DIMTM
 40
0.0
  9
$DIMTXT
 40
0.18
  9
$DIMCEN
 40
0.09
  9
$DIMTSZ
 40
0.0
  9
$DIMTOL
 70
     0
  9
$DIMLIM
 70
     0
  9
$DIMTIH
 70
     1
  9
$DIMTOH
 70
     1
  9
$DIMSE1
 70
     0
  9
$DIMSE2
 70
     0
  9
$DIMTAD
 70
     0
  9
$DIMZIN
 70
     0
  9
$DIMBLK
  1

  9
$LUNITS
 70
     2
  9
$LUPREC
 70
     4
  9
$AXISMODE
 70
     0
  9
$AXISUNIT
 10
0.0
 20
0.0
  9
$SKETCHINC
 40
0.1
  9
$FILLETRAD
 40
0.0
  9
$AUNITS
 70
     0
  9
$AUPREC
 70
     0
  9
$MENU
  1
ACAD
  9
$ELEVATION
 40
0.0
  9
$THICKNESS
 40
0.0
  9
$VIEWDIR
 10
0.0
 20
0.0
 30
1.0
  9
$LIMCHECK
 70
     0
  9
$BLIPMODE
 70
     1
  9
$CHAMFERA
 40
0.0
  9
$CHAMFERB
 40
0.0
  9
$FASTZOOM
 70
     1
  9
$SKPOLY
 70
     0
  9
$TDCREATE
 40
0000000.0000000000
  9
$TDUPDATE
 40
0000000.0000000000
  9
$TDINDWG
 40
0.0000000000
  9
$TDUSRTIMER
 40
0.0000000000
  9
$USRTIMER
 70
     1
  9
$ANGBASE
 50
0.0
  9
$ANGDIR
 70
     0
  9
$PDMODE
 70
     0
  9
$PDSIZE
 40
0.0
  9
$PLINEWID
 40
0.0
  9
$COORDS
 70
     0
  9
$USERI1
 70
     0
  9
$USERI2
 70
     0
  9
$USERI3
 70
     0
  9
$USERI4
 70
     0
  9
$USERI5
 70
     0
  9
$USERR1
 40
0.0
  9
$USERR2
 40
0.0
  9
$USERR3
 40
0.0
  9
$USERR4
 40
0.0
  9
$USERR5
 40
0.0
  9
$CLAYER
  8
M0
  9
$EXTMIN
 10
20.0
 20
20.0
  9
$EXTMAX
 10
400.0
 20
570.0
  9
$LIMMIN
 10
0.0
 20
0.0
  9
$LIMMAX
 10
210.0
 20
297.0
  9
$HANDSEED
  5
509
  0
ENDSEC
  0
SECTION
  2
CLASSES
  0
ENDSEC
  0
SECTION
  2
TABLES
  0
TABLE
  2
VPORT
  5
8
100
AcDbSymbolTable
 70
     2
  0
VPORT
  5
14
100
AcDbSymbolTableRecord
100
AcDbViewportTableRecord
  2
*ACTIVE
 70
     0
 10
0.0
 20
0.0
 11
1.0
 21
1.0
 12
484.0
 22
297.0
 13
0.0
 23
0.0
 14
1.0
 24
1.0
 15
0.0
 25
0.0
 16
0.0
 26
0.0
 36
1.0
 17
0.0
 27
0.0
 37
0.0
 40
594.0
 41
2.0
 42
50.0
 43
0.0
 44
0.0
 50
0.0
 51
0.0
 71
     0
 72
   100
 73
     1
 74
     1
 75
     0
 76
     0
 77
     0
 78
     0
  0
ENDTAB
  0
TABLE
  2
LTYPE
  5
5
100
AcDbSymbolTable
 70
     5
  0
LTYPE
  5
15
100
AcDbSymbolTableRecord
100
AcDbLinetypeTableRecord
  2
BYBLOCK
 70
     0
  3

 72
    65
 73
     0
 40
0.0
  0
LTYPE
  5
16
100
AcDbSymbolTableRecord
100
AcDbLinetypeTableRecord
  2
BYLAYER
 70
     0
  3

 72
    65
 73
     0
 40
0.0
  0
LTYPE
  5
17
100
AcDbSymbolTableRecord
100
AcDbLinetypeTableRecord
  2
CONTINUOUS
 70
    64
  3
Solid line
 72
    65
 73
     0
 40
0.0
  0
LTYPE
  5
18
100
AcDbSymbolTableRecord
100
AcDbLinetypeTableRecord
  2
DASHED
 70
    64
  3
__ __ __ __ __ __ __ __ __ __ __ __ __ __ __ __
 72
    65
 73
     2
 40
0.75
 49
0.5
 74
     0
 49
-0.25
 74
     0
  0
LTYPE
  5
19
100
AcDbSymbolTableRecord
100
AcDbLinetypeTableRecord
  2
DASHDOT
 70
    64
  3
__ . __ . __ . __ . __ . __ . __ . __ . __ . __
 72
    65
 73
     4
 40
1.0
 49
0.5
 74
     0
 49
-0.25
 74
     0
 49
0.0
 74
     0
 49
-0.25
 74
     0
  0
LTYPE
  5
1A
100
AcDbSymbolTableRecord
100
AcDbLinetypeTableRecord
  2
DIVIDE
 70
    64
  3
____ . . ____ . . ____ . . ____ . . ____ . . __
 72
    65
 73
     6
 40
1.25
 49
0.5
 74
     0
 49
-0.25
 74
     0
 49
0.0
 74
     0
 49
-0.25
 74
     0
 49
0.0
 74
     0
 49
-0.25
 74
     0
  0
LTYPE
  5
1B
100
AcDbSymbolTableRecord
100
AcDbLinetypeTableRecord
  2
DOT
 70
    64
  3
. . . . . . . . . . . . . . . . . . . . . . . .
 72
    65
 73
     2
 40
0.25
 49
0.0
 74
     0
 49
-0.25
 74
     0
  0
ENDTAB
  0
TABLE
  2
LAYER
  5
2
100
AcDbSymbolTable
 70
   102
  0
LAYER
  5
F
100
AcDbSymbolTableRecord
100
AcDbLayerTableRecord
  2
0
 70
     0
 62
     7
  6
CONTINUOUS
  0
LAYER
  5
1C
100
AcDbSymbolTableRecord
100
AcDbLayerTableRecord
  2
DEFPOINTS
 70
     0
 62
     7
  6
CONTINUOUS
  0
LAYER
  5
1D
100
AcDbSymbolTableRecord
100
AcDbLayerTableRecord
  2
M0
 70
     0
 62
     3
  6
CONTINUOUS
  0
LAYER
  5
1E
100
AcDbSymbolTableRecord
100
AcDbLayerTableRecord
  2
M1
 70
     0
 62
     3
  6
CONTINUOUS
  0
LAYER
  5
1F
100
AcDbSymbolTableRecord
100
AcDbLayerTableRecord
  2
DD0
 70
     0
 62
     4
  6
CONTINUOUS
  0
LAYER
  5
20
100
AcDbSymbolTableRecord
100
AcDbLayerTableRecord
  2
DN0
 70
     0
 62
     2
  6
CONTINUOUS
  0
ENDTAB
  0
TABLE
  2
STYLE
  5
3
100
AcDbSymbolTable
 70
     2
  0
STYLE
  5
10
100
AcDbSymbolTableRecord
100
AcDbTextStyleTableRecord
  2
STANDARD
 70
     0
 40
0.0
 41
1.0
 50
0.0
 71
     0
 42
0.2
  3
txt
  4
BIGFONT
  0
ENDTAB
  0
TABLE
  2
VIEW
  5
6
100
AcDbSymbolTable
 70
     0
  0
ENDTAB
  0
TABLE
  2
UCS
  5
7
100
AcDbSymbolTable
 70
     0
  0
ENDTAB
  0
TABLE
  2
APPID
  5
9
100
AcDbSymbolTable
 70
     1
  0
APPID
  5
11
100
AcDbSymbolTableRecord
100
AcDbRegAppTableRecord
  2
ACAD
 70
     0
  0
ENDTAB
  0
TABLE
  2
DIMSTYLE
  5
A
100
AcDbSymbolTable
 70
     2
  0
DIMSTYLE
105
27
100
AcDbSymbolTableRecord
100
AcDbDimStyleTableRecord
  2
STANDARD
 70
     0
  3

  4

  5

  6
_OPEN
  7
_OPEN
 40
1.0
 41
6.0
 42
1.0
 43
8.0
 44
1.0
 45
0.0
 46
0.0
 47
0.0
 48
0.0
140
6.3
141
0.09
142
0.0
143
0.03937
144
1.0
145
0.0
146
1.0
147
0.6
 71
     0
 72
     0
 73
     1
 74
     1
 75
     0
 76
     0
 77
     3
 78
     8
170
     0
171
     2
172
     0
173
     1
174
     0
175
     0
176
     0
177
     0
178
     0
270
     2
271
     2
272
     4
273
     2
274
     2
340
10
275
     0
280
     0
281
     0
282
     0
283
     1
284
     0
285
     0
286
     0
287
     3
288
     0
  0
DIMSTYLE
105
28
100
AcDbSymbolTableRecord
100
AcDbDimStyleTableRecord
  2
LEADSTYL
 70
     0
  3

  4

  5

  6
_OPEN
  7
_OPEN
 40
1.0
 41
6.0
 42
0.0625
 43
0.38
 44
0.18
 45
0.0
 46
0.0
 47
0.0
 48
0.0
140
6.3
141
0.09
142
0.0
143
25.4
144
1.0
145
0.0
146
1.0
147
0.6
 71
     0
 72
     0
 73
     1
 74
     1
 75
     0
 76
     0
 77
     0
 78
     0
170
     0
171
     2
172
     0
173
     1
174
     0
175
     0
176
     0
177
     0
178
     0
270
     2
271
     4
272
     4
273
     2
274
     2
340
10
275
     0
280
     0
281
     0
282
     0
283
     1
284
     0
285
     0
286
     0
287
     3
288
     0
  0
ENDTAB
  0
TABLE
  2
BLOCK_RECORD
  5
1
100
AcDbSymbolTable
 70
    18
  0
BLOCK_RECORD
  5
21
100
AcDbSymbolTableRecord
100
AcDbBlockTableRecord
  2
*MODEL_SPACE
  0
BLOCK_RECORD
  5
24
100
AcDbSymbolTableRecord
100
AcDbBlockTableRecord
  2
*PAPER_SPACE
  0
BLOCK_RECORD
  5
29
100
AcDbSymbolTableRecord
100
AcDbBlockTableRecord
  2
_NONE
  0
BLOCK_RECORD
  5
2D
100
AcDbSymbolTableRecord
100
AcDbBlockTableRecord
  2
_OPEN
  0
BLOCK_RECORD
  5
33
100
AcDbSymbolTableRecord
100
AcDbBlockTableRecord
  2
_CLOSED
  0
BLOCK_RECORD
  5
3A
100
AcDbSymbolTableRecord
100
AcDbBlockTableRecord
  2
_ORIGIN
  0
BLOCK_RECORD
  5
3F
100
AcDbSymbolTableRecord
100
AcDbBlockTableRecord
  2
_DOT
  0
BLOCK_RECORD
  5
47
100
AcDbSymbolTableRecord
100
AcDbBlockTableRecord
  2
_OBLIQUE
  0
BLOCK_RECORD
  5
4B
100
AcDbSymbolTableRecord
100
AcDbBlockTableRecord
  2
DIMS0
  0
BLOCK_RECORD
  5
57
100
AcDbSymbolTableRecord
100
AcDbBlockTableRecord
  2
DIMS1
  0
BLOCK_RECORD
  5
5C
100
AcDbSymbolTableRecord
100
AcDbBlockTableRecord
  2
DIMS2
  0
BLOCK_RECORD
  5
68
100
AcDbSymbolTableRecord
100
AcDbBlockTableRecord
  2
DIMS3
  0
BLOCK_RECORD
  5
74
100
AcDbSymbolTableRecord
100
AcDbBlockTableRecord
  2
DIMS4
  0
BLOCK_RECORD
  5
7B
100
AcDbSymbolTableRecord
100
AcDbBlockTableRecord
  2
DIMS5
  0
BLOCK_RECORD
  5
85
100
AcDbSymbolTableRecord
100
AcDbBlockTableRecord
  2
DIMS6
  0
BLOCK_RECORD
  5
91
100
AcDbSymbolTableRecord
100
AcDbBlockTableRecord
  2
DIMS7
  0
BLOCK_RECORD
  5
9D
100
AcDbSymbolTableRecord
100
AcDbBlockTableRecord
  2
DIMS8
  0
BLOCK_RECORD
  5
A9
100
AcDbSymbolTableRecord
100
AcDbBlockTableRecord
  2
DIMS9
  0
BLOCK_RECORD
  5
B5
100
AcDbSymbolTableRecord
100
AcDbBlockTableRecord
  2
DIMS10
  0
BLOCK_RECORD
  5
C1
100
AcDbSymbolTableRecord
100
AcDbBlockTableRecord
  2
DIMS11
  0
ENDTAB
  0
ENDSEC
  0
SECTION
  2
BLOCKS
  0
BLOCK
  5
22
100
AcDbEntity
  8
0
100
AcDbBlockBegin
  2
*MODEL_SPACE
 70
     0
 10
0.0
 20
0.0
 30
0.0
  3
*MODEL_SPACE
  1

  0
ENDBLK
  5
23
100
AcDbEntity
  8
0
100
AcDbBlockEnd
  0
BLOCK
  5
25
100
AcDbEntity
 67
     1
  8
0
100
AcDbBlockBegin
  2
*PAPER_SPACE
 70
     0
 10
0.0
 20
0.0
 30
0.0
  3
*PAPER_SPACE
  1

  0
ENDBLK
  5
26
100
AcDbEntity
 67
     1
  8
0
100
AcDbBlockEnd
  0
BLOCK
  5
2A
100
AcDbEntity
  8
0
100
AcDbBlockBegin
  2
_NONE
 70
     0
 10
0.0
 20
0.0
  0
CIRCLE
  5
2B
100
AcDbEntity
  8
0
 62
     0
100
AcDbCircle
 10
0.0
 20
0.0
 40
0.25
  0
ENDBLK
  5
2C
100
AcDbEntity
  8
0
100
AcDbBlockEnd
  0
BLOCK
  5
2E
100
AcDbEntity
  8
0
100
AcDbBlockBegin
  2
_OPEN
 70
     0
 10
0.0
 20
0.0
  0
LINE
  5
2F
100
AcDbEntity
  8
0
 62
     0
100
AcDbLine
 10
-0.965926
 20
0.258819
 11
0.0
 21
0.0
  0
LINE
  5
30
100
AcDbEntity
  8
0
 62
     0
100
AcDbLine
 10
0.0
 20
0.0
 11
-0.965926
 21
-0.258819
  0
LINE
  5
31
100
AcDbEntity
  8
0
 62
     0
100
AcDbLine
 10
0.0
 20
0.0
 11
-1.0
 21
0.0
  0
ENDBLK
  5
32
100
AcDbEntity
  8
0
100
AcDbBlockEnd
  0
BLOCK
  5
34
100
AcDbEntity
  8
0
100
AcDbBlockBegin
  2
_CLOSED
 70
     0
 10
0.0
 20
0.0
  0
LINE
  5
35
100
AcDbEntity
  8
0
 62
     0
100
AcDbLine
 10
-0.965926
 20
0.258819
 11
0.0
 21
0.0
  0
LINE
  5
36
100
AcDbEntity
  8
0
 62
     0
100
AcDbLine
 10
0.0
 20
0.0
 11
-0.965926
 21
-0.258819
  0
LINE
  5
37
100
AcDbEntity
  8
0
 62
     0
100
AcDbLine
 10
-0.965926
 20
0.258819
 11
-0.965926
 21
-0.258819
  0
LINE
  5
38
100
AcDbEntity
  8
0
 62
     0
100
AcDbLine
 10
0.0
 20
0.0
 11
-1.0
 21
0.0
  0
ENDBLK
  5
39
100
AcDbEntity
  8
0
100
AcDbBlockEnd
  0
BLOCK
  5
3B
100
AcDbEntity
  8
0
100
AcDbBlockBegin
  2
_ORIGIN
 70
     0
 10
0.0
 20
0.0
  0
CIRCLE
  5
3C
100
AcDbEntity
  8
0
 62
     0
100
AcDbCircle
 10
0.0
 20
0.0
 40
0.5
  0
LINE
  5
3D
100
AcDbEntity
  8
0
 62
     0
100
AcDbLine
 10
0.0
 20
0.0
 11
-1.0
 21
0.0
  0
ENDBLK
  5
3E
100
AcDbEntity
  8
0
100
AcDbBlockEnd
  0
BLOCK
  5
40
100
AcDbEntity
  8
0
100
AcDbBlockBegin
  2
_DOT
 70
     0
 10
0.0
 20
0.0
  0
POLYLINE
  5
41
100
AcDbEntity
  8
0
 62
     0
100
AcDb2dPolyline
 66
     1
 70
     1
 40
0.5
 41
0.5
  0
VERTEX
  5
42
100
AcDbEntity
  8
0
 62
     0
100
AcDbVertex
100
AcDb2dVertex
 10
-0.25
 20
0.0
 42
1.0
  0
VERTEX
  5
43
100
AcDbEntity
  8
0
 62
     0
100
AcDbVertex
100
AcDb2dVertex
 10
0.25
 20
0.0
 42
1.0
  0
SEQEND
  5
44
100
AcDbEntity
  8
0
 62
     0
  0
LINE
  5
45
100
AcDbEntity
  8
0
 62
     0
100
AcDbLine
 10
-0.5
 20
0.0
 11
-1.0
 21
0.0
  0
ENDBLK
  5
46
100
AcDbEntity
  8
0
100
AcDbBlockEnd
  0
BLOCK
  5
48
100
AcDbEntity
  8
0
100
AcDbBlockBegin
  2
_OBLIQUE
 70
     0
 10
0.0
 20
0.0
  0
LINE
  5
49
100
AcDbEntity
  8
0
 62
     0
100
AcDbLine
 10
-0.353553
 20
-0.353553
 11
0.353553
 21
0.353553
  0
ENDBLK
  5
4A
100
AcDbEntity
  8
0
100
AcDbBlockEnd
  0
BLOCK
  5
4C
100
AcDbEntity
  8
DD0
100
AcDbBlockBegin
  2
DIMS0
 70
     0
 10
0.0
 20
0.0
  0
LINE
  5
4D
100
AcDbEntity
  8
DD0
100
AcDbLine
 10
80.965843
 20
268.500824
 11
50.805042
 21
268.500824
  0
LINE
  5
4E
100
AcDbEntity
  8
DD0
100
AcDbLine
 10
125.465599
 20
193.501541
 11
50.805042
 21
193.501541
  0
LINE
  5
4F
100
AcDbEntity
  8
DD0
100
AcDbLine
 10
54.357957
 20
262.705269
 11
52.805042
 21
268.500824
  0
LINE
  5
50
100
AcDbEntity
  8
DD0
100
AcDbLine
 10
52.805042
 20
268.500824
 11
51.252128
 21
262.705269
  0
LINE
  5
51
100
AcDbEntity
  8
DD0
100
AcDbLine
 10
51.252128
 20
199.297096
 11
52.805042
 21
193.501541
  0
LINE
  5
52
100
AcDbEntity
  8
DD0
100
AcDbLine
 10
52.805042
 20
193.501541
 11
54.357957
 21
199.297096
  0
LINE
  5
53
100
AcDbEntity
  8
DD0
100
AcDbLine
 10
52.805042
 20
268.500824
 11
52.805042
 21
193.501541
  0
TEXT
  5
54
100
AcDbEntity
  8
DD0
100
AcDbText
 10
51.605042
 20
225.21619
 40
6.3
  1
７５
 50
90.000003
 41
0.833333
  7
STANDARD
100
AcDbText
  0
ENDBLK
  5
55
100
AcDbEntity
  8
DD0
100
AcDbBlockEnd
  0
BLOCK
  5
58
100
AcDbEntity
  8
DD0
100
AcDbBlockBegin
  2
DIMS1
 70
     0
 10
0.0
 20
0.0
  0
TEXT
  5
59
100
AcDbEntity
  8
DD0
100
AcDbText
 10
97.805034
 20
168.688263
 40
6.3
  1
３－Ｍ４ねじ穴
 41
0.833333
  7
STANDARD
100
AcDbText
  0
ENDBLK
  5
5A
100
AcDbEntity
  8
DD0
100
AcDbBlockEnd
  0
BLOCK
  5
5D
100
AcDbEntity
  8
DD0
100
AcDbBlockBegin
  2
DIMS2
 70
     0
 10
0.0
 20
0.0
  0
LINE
  5
5E
100
AcDbEntity
  8
DD0
100
AcDbLine
 10
89.063011
 20
276.597992
 11
89.063011
 21
297.779114
  0
LINE
  5
5F
100
AcDbEntity
  8
DD0
100
AcDbLine
 10
179.062775
 20
277.097504
 11
179.062775
 21
297.779114
  0
LINE
  5
60
100
AcDbEntity
  8
DD0
100
AcDbLine
 10
94.858566
 20
297.332028
 11
89.063011
 21
295.779114
  0
LINE
  5
61
100
AcDbEntity
  8
DD0
100
AcDbLine
 10
89.063011
 20
295.779114
 11
94.858566
 21
294.226199
  0
LINE
  5
62
100
AcDbEntity
  8
DD0
100
AcDbLine
 10
173.26722
 20
294.226199
 11
179.062775
 21
295.779114
  0
LINE
  5
63
100
AcDbEntity
  8
DD0
100
AcDbLine
 10
179.062775
 20
295.779114
 11
173.26722
 21
297.332028
  0
LINE
  5
64
100
AcDbEntity
  8
DD0
100
AcDbLine
 10
89.063011
 20
295.779114
 11
179.062775
 21
295.779114
  0
TEXT
  5
65
100
AcDbEntity
  8
DD0
100
AcDbText
 10
128.277896
 20
296.979126
 40
6.3
  1
９０
 41
0.833333
  7
STANDARD
100
AcDbText
  0
ENDBLK
  5
66
100
AcDbEntity
  8
DD0
100
AcDbBlockEnd
  0
BLOCK
  5
69
100
AcDbEntity
  8
DD0
100
AcDbBlockBegin
  2
DIMS3
 70
     0
 10
0.0
 20
0.0
  0
LINE
  5
6A
100
AcDbEntity
  8
DD0
100
AcDbLine
 10
179.062775
 20
277.097504
 11
179.062775
 21
297.779114
  0
LINE
  5
6B
100
AcDbEntity
  8
DD0
100
AcDbLine
 10
198.562531
 20
258.000824
 11
198.562531
 21
297.779114
  0
LINE
  5
6C
100
AcDbEntity
  8
DD0
100
AcDbLine
 10
184.85833
 20
297.332028
 11
179.062775
 21
295.779114
  0
LINE
  5
6D
100
AcDbEntity
  8
DD0
100
AcDbLine
 10
179.062775
 20
295.779114
 11
184.85833
 21
294.226199
  0
LINE
  5
6E
100
AcDbEntity
  8
DD0
100
AcDbLine
 10
192.766976
 20
294.226199
 11
198.562531
 21
295.779114
  0
LINE
  5
6F
100
AcDbEntity
  8
DD0
100
AcDbLine
 10
198.562531
 20
295.779114
 11
192.766976
 21
297.332028
  0
LINE
  5
70
100
AcDbEntity
  8
DD0
100
AcDbLine
 10
179.062775
 20
295.779114
 11
232.36253
 21
295.779114
  0
TEXT
  5
71
100
AcDbEntity
  8
DD0
100
AcDbText
 10
205.677539
 20
296.979126
 40
6.3
  1
１９．５
 41
0.833333
  7
STANDARD
100
AcDbText
  0
ENDBLK
  5
72
100
AcDbEntity
  8
DD0
100
AcDbBlockEnd
  0
BLOCK
  5
75
100
AcDbEntity
  8
DD0
100
AcDbBlockBegin
  2
DIMS4
 70
     0
 10
0.0
 20
0.0
  0
LINE
  5
76
100
AcDbEntity
  8
DD0
100
AcDbLine
 10
130.603962
 20
184.486828
 11
131.516235
 21
190.417068
  0
LINE
  5
77
100
AcDbEntity
  8
DD0
100
AcDbLine
 10
131.516235
 20
190.417068
 11
127.761063
 21
185.737466
  0
LINE
  5
78
100
AcDbEntity
  8
DD0
100
AcDbLine
 10
131.516235
 20
190.417068
 11
125.801132
 21
177.425735
  0
ENDBLK
  5
79
100
AcDbEntity
  8
DD0
100
AcDbBlockEnd
  0
BLOCK
  5
7C
100
AcDbEntity
  8
DD0
100
AcDbBlockBegin
  2
DIMS5
 70
     0
 10
0.0
 20
0.0
  0
LINE
  5
7D
100
AcDbEntity
  8
DD0
 60
     1
100
AcDbLine
 10
278.450531
 20
425.567566
 11
278.450531
 21
473.339905
  0
LINE
  5
7E
100
AcDbEntity
  8
DD0
100
AcDbLine
 10
274.4505
 20
403.067566
 11
274.4505
 21
473.339905
  0
LINE
  5
7F
100
AcDbEntity
  8
DD0
100
AcDbLine
 10
268.654946
 20
469.78699
 11
274.4505
 21
471.339905
  0
LINE
  5
80
100
AcDbEntity
  8
DD0
100
AcDbLine
 10
274.4505
 20
471.339905
 11
268.654946
 21
472.892819
  0
LINE
  5
81
100
AcDbEntity
  8
DD0
100
AcDbLine
 10
278.450531
 20
471.339905
 11
267.850501
 21
471.339905
  0
TEXT
  5
82
100
AcDbEntity
  8
DD0
100
AcDbText
 10
273.815509
 20
472.539917
 40
6.3
  1
４
 41
0.833333
  7
STANDARD
100
AcDbText
  0
ENDBLK
  5
83
100
AcDbEntity
  8
DD0
100
AcDbBlockEnd
  0
BLOCK
  5
86
100
AcDbEntity
  8
DD0
100
AcDbBlockBegin
  2
DIMS6
 70
     0
 10
0.0
 20
0.0
  0
LINE
  5
87
100
AcDbEntity
  8
DD0
100
AcDbLine
 10
268.45047
 20
377.067596
 11
268.45047
 21
337.067688
  0
LINE
  5
88
100
AcDbEntity
  8
DD0
100
AcDbLine
 10
278.450531
 20
372.567627
 11
278.450531
 21
337.067688
  0
LINE
  5
89
100
AcDbEntity
  8
DD0
100
AcDbLine
 10
262.654915
 20
337.514774
 11
268.45047
 21
339.067688
  0
LINE
  5
8A
100
AcDbEntity
  8
DD0
100
AcDbLine
 10
268.45047
 20
339.067688
 11
262.654915
 21
340.620602
  0
LINE
  5
8B
100
AcDbEntity
  8
DD0
100
AcDbLine
 10
284.246086
 20
340.620602
 11
278.450531
 21
339.067688
  0
LINE
  5
8C
100
AcDbEntity
  8
DD0
100
AcDbLine
 10
278.450531
 20
339.067688
 11
284.246086
 21
337.514774
  0
LINE
  5
8D
100
AcDbEntity
  8
DD0
100
AcDbLine
 10
261.85047
 20
339.067688
 11
285.050531
 21
339.067688
  0
TEXT
  5
8E
100
AcDbEntity
  8
DD0
100
AcDbText
 10
263.790499
 20
331.367706
 40
6.3
  1
最小１０
 41
0.666667
  7
STANDARD
100
AcDbText
  0
ENDBLK
  5
8F
100
AcDbEntity
  8
DD0
100
AcDbBlockEnd
  0
BLOCK
  5
92
100
AcDbEntity
  8
DD0
100
AcDbBlockBegin
  2
DIMS7
 70
     0
 10
0.0
 20
0.0
  0
LINE
  5
93
100
AcDbEntity
  8
DD0
100
AcDbLine
 10
278.450531
 20
425.567566
 11
278.450531
 21
473.339905
  0
LINE
  5
94
100
AcDbEntity
  8
DD0
100
AcDbLine
 10
360.45047
 20
446.067596
 11
360.45047
 21
473.339905
  0
LINE
  5
95
100
AcDbEntity
  8
DD0
100
AcDbLine
 10
284.246086
 20
472.892819
 11
278.450531
 21
471.339905
  0
LINE
  5
96
100
AcDbEntity
  8
DD0
100
AcDbLine
 10
278.450531
 20
471.339905
 11
284.246086
 21
469.78699
  0
LINE
  5
97
100
AcDbEntity
  8
DD0
100
AcDbLine
 10
354.654915
 20
469.78699
 11
360.45047
 21
471.339905
  0
LINE
  5
98
100
AcDbEntity
  8
DD0
100
AcDbLine
 10
360.45047
 20
471.339905
 11
354.654915
 21
472.892819
  0
LINE
  5
99
100
AcDbEntity
  8
DD0
100
AcDbLine
 10
278.450531
 20
471.339905
 11
360.45047
 21
471.339905
  0
TEXT
  5
9A
100
AcDbEntity
  8
DD0
100
AcDbText
 10
313.665515
 20
472.539917
 40
6.3
  1
８２
 41
0.833333
  7
STANDARD
100
AcDbText
  0
ENDBLK
  5
9B
100
AcDbEntity
  8
DD0
100
AcDbBlockEnd
  0
BLOCK
  5
9E
100
AcDbEntity
  8
DD0
100
AcDbBlockBegin
  2
DIMS8
 70
     0
 10
0.0
 20
0.0
  0
LINE
  5
9F
100
AcDbEntity
  8
DD0
100
AcDbLine
 10
359.250275
 20
446.067596
 11
359.250275
 21
458.944427
  0
LINE
  5
A0
100
AcDbEntity
  8
DD0
 60
     1
100
AcDbLine
 10
360.45047
 20
446.067596
 11
360.45047
 21
458.944427
  0
LINE
  5
A1
100
AcDbEntity
  8
DD0
100
AcDbLine
 10
353.45472
 20
455.391513
 11
359.250275
 21
456.944427
  0
LINE
  5
A2
100
AcDbEntity
  8
DD0
100
AcDbLine
 10
359.250275
 20
456.944427
 11
353.45472
 21
458.497342
  0
LINE
  5
A3
100
AcDbEntity
  8
DD0
100
AcDbLine
 10
366.246025
 20
458.497342
 11
360.45047
 21
456.944427
  0
LINE
  5
A4
100
AcDbEntity
  8
DD0
100
AcDbLine
 10
360.45047
 20
456.944427
 11
366.246025
 21
455.391513
  0
LINE
  5
A5
100
AcDbEntity
  8
DD0
100
AcDbLine
 10
331.750273
 20
456.944427
 11
367.05047
 21
456.944427
  0
TEXT
  5
A6
100
AcDbEntity
  8
DD0
100
AcDbText
 10
333.365283
 20
458.14444
 40
6.3
  1
１．２
 41
0.833333
  7
STANDARD
100
AcDbText
  0
ENDBLK
  5
A7
100
AcDbEntity
  8
DD0
100
AcDbBlockEnd
  0
BLOCK
  5
AA
100
AcDbEntity
  8
DD0
100
AcDbBlockBegin
  2
DIMS9
 70
     0
 10
0.0
 20
0.0
  0
LINE
  5
AB
100
AcDbEntity
  8
DD0
100
AcDbLine
 10
133.565765
 20
451.067566
 11
133.565765
 21
473.339996
  0
LINE
  5
AC
100
AcDbEntity
  8
DD0
100
AcDbLine
 10
198.061569
 20
429.067596
 11
198.061569
 21
473.339996
  0
LINE
  5
AD
100
AcDbEntity
  8
DD0
100
AcDbLine
 10
139.36132
 20
472.892911
 11
133.565765
 21
471.339996
  0
LINE
  5
AE
100
AcDbEntity
  8
DD0
100
AcDbLine
 10
133.565765
 20
471.339996
 11
139.36132
 21
469.787082
  0
LINE
  5
AF
100
AcDbEntity
  8
DD0
100
AcDbLine
 10
192.266014
 20
469.787082
 11
198.061569
 21
471.339996
  0
LINE
  5
B0
100
AcDbEntity
  8
DD0
100
AcDbLine
 10
198.061569
 20
471.339996
 11
192.266014
 21
472.892911
  0
LINE
  5
B1
100
AcDbEntity
  8
DD0
100
AcDbLine
 10
133.565765
 20
471.339996
 11
198.061569
 21
471.339996
  0
TEXT
  5
B2
100
AcDbEntity
  8
DD0
100
AcDbText
 10
153.728656
 20
472.540009
 40
6.3
  1
６４．５
 41
0.833333
  7
STANDARD
100
AcDbText
  0
ENDBLK
  5
B3
100
AcDbEntity
  8
DD0
100
AcDbBlockEnd
  0
BLOCK
  5
B6
100
AcDbEntity
  8
DD0
100
AcDbBlockBegin
  2
DIMS10
 70
     0
 10
0.0
 20
0.0
  0
LINE
  5
B7
100
AcDbEntity
  8
DD0
100
AcDbLine
 10
71.063011
 20
429.068024
 11
71.063011
 21
473.339935
  0
LINE
  5
B8
100
AcDbEntity
  8
DD0
 60
     1
100
AcDbLine
 10
133.565765
 20
451.067566
 11
133.565765
 21
473.339935
  0
LINE
  5
B9
100
AcDbEntity
  8
DD0
100
AcDbLine
 10
76.858566
 20
472.89285
 11
71.063011
 21
471.339935
  0
LINE
  5
BA
100
AcDbEntity
  8
DD0
100
AcDbLine
 10
71.063011
 20
471.339935
 11
76.858566
 21
469.787021
  0
LINE
  5
BB
100
AcDbEntity
  8
DD0
100
AcDbLine
 10
127.77021
 20
469.787021
 11
133.565765
 21
471.339935
  0
LINE
  5
BC
100
AcDbEntity
  8
DD0
100
AcDbLine
 10
133.565765
 20
471.339935
 11
127.77021
 21
472.89285
  0
LINE
  5
BD
100
AcDbEntity
  8
DD0
100
AcDbLine
 10
71.063011
 20
471.339935
 11
133.565765
 21
471.339935
  0
TEXT
  5
BE
100
AcDbEntity
  8
DD0
100
AcDbText
 10
90.229396
 20
472.539948
 40
6.3
  1
６２．５
 41
0.833333
  7
STANDARD
100
AcDbText
  0
ENDBLK
  5
BF
100
AcDbEntity
  8
DD0
100
AcDbBlockEnd
  0
BLOCK
  5
C2
100
AcDbEntity
  8
DD0
100
AcDbBlockBegin
  2
DIMS11
 70
     0
 10
0.0
 20
0.0
  0
LINE
  5
C3
100
AcDbEntity
  8
DD0
100
AcDbLine
 10
195.565765
 20
444.067566
 11
221.239746
 21
444.067566
  0
LINE
  5
C4
100
AcDbEntity
  8
DD0
100
AcDbLine
 10
195.565765
 20
354.067749
 11
221.239746
 21
354.067749
  0
LINE
  5
C5
100
AcDbEntity
  8
DD0
100
AcDbLine
 10
220.79266
 20
438.272011
 11
219.239746
 21
444.067566
  0
LINE
  5
C6
100
AcDbEntity
  8
DD0
100
AcDbLine
 10
219.239746
 20
444.067566
 11
217.686832
 21
438.272011
  0
LINE
  5
C7
100
AcDbEntity
  8
DD0
100
AcDbLine
 10
217.686832
 20
359.863304
 11
219.239746
 21
354.067749
  0
LINE
  5
C8
100
AcDbEntity
  8
DD0
100
AcDbLine
 10
219.239746
 20
354.067749
 11
220.79266
 21
359.863304
  0
LINE
  5
C9
100
AcDbEntity
  8
DD0
100
AcDbLine
 10
219.239746
 20
444.067566
 11
219.239746
 21
354.067749
  0
TEXT
  5
CA
100
AcDbEntity
  8
DD0
100
AcDbText
 10
218.039749
 20
393.282672
 40
6.3
  1
９０
 50
90.000003
 41
0.833333
  7
STANDARD
100
AcDbText
  0
ENDBLK
  5
CB
100
AcDbEntity
  8
DD0
100
AcDbBlockEnd
  0
ENDSEC
  0
SECTION
  2
ENTITIES
  0
INSERT
  5
56
100
AcDbEntity
  8
DD0
100
AcDbBlockReference
  2
DIMS0
 10
0.0
 20
0.0
  0
INSERT
  5
5B
100
AcDbEntity
  8
DD0
100
AcDbBlockReference
  2
DIMS1
 10
0.0
 20
0.0
  0
INSERT
  5
67
100
AcDbEntity
  8
DD0
100
AcDbBlockReference
  2
DIMS2
 10
0.0
 20
0.0
  0
INSERT
  5
73
100
AcDbEntity
  8
DD0
100
AcDbBlockReference
  2
DIMS3
 10
0.0
 20
0.0
  0
INSERT
  5
7A
100
AcDbEntity
  8
DD0
100
AcDbBlockReference
  2
DIMS4
 10
0.0
 20
0.0
  0
INSERT
  5
84
100
AcDbEntity
  8
DD0
100
AcDbBlockReference
  2
DIMS5
 10
0.0
 20
0.0
  0
INSERT
  5
90
100
AcDbEntity
  8
DD0
100
AcDbBlockReference
  2
DIMS6
 10
0.0
 20
0.0
  0
INSERT
  5
9C
100
AcDbEntity
  8
DD0
100
AcDbBlockReference
  2
DIMS7
 10
0.0
 20
0.0
  0
INSERT
  5
A8
100
AcDbEntity
  8
DD0
100
AcDbBlockReference
  2
DIMS8
 10
0.0
 20
0.0
  0
INSERT
  5
B4
100
AcDbEntity
  8
DD0
100
AcDbBlockReference
  2
DIMS9
 10
0.0
 20
0.0
  0
INSERT
  5
C0
100
AcDbEntity
  8
DD0
100
AcDbBlockReference
  2
DIMS10
 10
0.0
 20
0.0
  0
INSERT
  5
CC
100
AcDbEntity
  8
DD0
100
AcDbBlockReference
  2
DIMS11
 10
0.0
 20
0.0
  0
LINE
  5
CD
100
AcDbEntity
  8
M0
  6
DIVIDE
100
AcDbLine
 10
79.563256
 20
188.501054
 11
188.562523
 21
188.501054
  0
LINE
  5
CE
100
AcDbEntity
  8
M0
  6
DIVIDE
100
AcDbLine
 10
188.562523
 20
273.500322
 11
79.563256
 21
273.500322
  0
LINE
  5
CF
100
AcDbEntity
  8
M0
  6
DIVIDE
100
AcDbLine
 10
69.563256
 20
256.00081
 11
69.563256
 21
206.00081
  0
CIRCLE
  5
D0
100
AcDbEntity
  8
M0
100
AcDbCircle
 10
89.063256
 20
268.50081
 40
3.999998
  0
CIRCLE
  5
D1
100
AcDbEntity
  8
M0
100
AcDbCircle
 10
89.063256
 20
268.50081
 40
1.749995
  0
LINE
  5
D2
100
AcDbEntity
  8
M0
  6
DASHDOT
100
AcDbLine
 10
95.160424
 20
268.50081
 11
82.965844
 21
268.50081
  0
LINE
  5
D3
100
AcDbEntity
  8
M0
  6
DASHDOT
100
AcDbLine
 10
89.063012
 20
274.597978
 11
89.06324
 21
262.403398
  0
LINE
  5
D4
100
AcDbEntity
  8
M0
  6
DASHDOT
100
AcDbLine
 10
134.063012
 20
279.307939
 11
134.063012
 21
180.317949
  0
LINE
  5
D5
100
AcDbEntity
  8
M0
  6
DIVIDE
100
AcDbLine
 10
198.562523
 20
256.00081
 11
198.562523
 21
206.00081
  0
LINE
  5
D6
100
AcDbEntity
  8
M0
  6
DASHDOT
100
AcDbLine
 10
62.479943
 20
231.00081
 11
202.780541
 21
231.00081
  0
LINE
  5
D7
100
AcDbEntity
  8
M0
  6
DIVIDE
100
AcDbLine
 10
79.563256
 20
273.50081
 11
79.563256
 21
256.00081
  0
LINE
  5
D8
100
AcDbEntity
  8
M0
  6
DIVIDE
100
AcDbLine
 10
188.562523
 20
273.50081
 11
188.562523
 21
256.00081
  0
LINE
  5
D9
100
AcDbEntity
  8
M0
  6
DIVIDE
100
AcDbLine
 10
69.563256
 20
256.00081
 11
79.563256
 21
256.00081
  0
LINE
  5
DA
100
AcDbEntity
  8
M0
  6
DIVIDE
100
AcDbLine
 10
69.563256
 20
206.00081
 11
79.563256
 21
206.00081
  0
LINE
  5
DB
100
AcDbEntity
  8
M0
  6
DIVIDE
100
AcDbLine
 10
188.562523
 20
256.00081
 11
198.562523
 21
256.00081
  0
LINE
  5
DC
100
AcDbEntity
  8
M0
  6
DIVIDE
100
AcDbLine
 10
188.562523
 20
206.00081
 11
198.562523
 21
206.00081
  0
LINE
  5
DD
100
AcDbEntity
  8
M0
  6
DIVIDE
100
AcDbLine
 10
188.562523
 20
206.00081
 11
188.562523
 21
188.501054
  0
LINE
  5
DE
100
AcDbEntity
  8
M0
  6
DIVIDE
100
AcDbLine
 10
79.563256
 20
206.00081
 11
79.563256
 21
188.501054
  0
CIRCLE
  5
DF
100
AcDbEntity
  8
M0
100
AcDbCircle
 10
179.063012
 20
268.500566
 40
3.999996
  0
CIRCLE
  5
E0
100
AcDbEntity
  8
M0
100
AcDbCircle
 10
179.063012
 20
268.500566
 40
1.749993
  0
LINE
  5
E1
100
AcDbEntity
  8
M0
  6
DASHDOT
100
AcDbLine
 10
185.660179
 20
268.500566
 11
172.465599
 21
268.500566
  0
LINE
  5
E2
100
AcDbEntity
  8
M0
  6
DASHDOT
100
AcDbLine
 10
179.062767
 20
275.09749
 11
179.062767
 21
261.903154
  0
CIRCLE
  5
E3
100
AcDbEntity
  8
M0
100
AcDbCircle
 10
134.063012
 20
193.501542
 40
3.999996
  0
CIRCLE
  5
E4
100
AcDbEntity
  8
M0
100
AcDbCircle
 10
134.063012
 20
193.501542
 40
1.749993
  0
LINE
  5
E5
100
AcDbEntity
  8
M0
  6
DASHDOT
100
AcDbLine
 10
140.660179
 20
193.501542
 11
127.465599
 21
193.501542
  0
LINE
  5
E6
100
AcDbEntity
  8
M0
  6
DASHDOT
100
AcDbLine
 10
134.062767
 20
188.904375
 11
134.063012
 21
198.098955
  0
LINE
  5
E7
100
AcDbEntity
  8
M0
 62
     7
100
AcDbLine
 10
345.950463
 20
366.567594
 11
345.950463
 21
378.067579
  0
LINE
  5
E8
100
AcDbEntity
  8
M0
 62
     7
100
AcDbLine
 10
337.050454
 20
373.567594
 11
337.050454
 21
369.567594
  0
LINE
  5
E9
100
AcDbEntity
  8
M0
 62
     7
100
AcDbLine
 10
341.550454
 20
373.567594
 11
341.550454
 21
368.567594
  0
LINE
  5
EA
100
AcDbEntity
  8
M0
 62
     7
100
AcDbLine
 10
338.050454
 20
368.567594
 11
341.550454
 21
368.567594
  0
ARC
  5
EB
100
AcDbEntity
  8
M0
 62
     7
100
AcDbCircle
 10
338.050454
 20
369.567594
 40
1.0
100
AcDbArc
 50
179.999945
 51
270.0
  0
LINE
  5
EC
100
AcDbEntity
  8
M0
 62
     7
100
AcDbLine
 10
326.450463
 20
379.067594
 11
344.950463
 21
379.067594
  0
ARC
  5
ED
100
AcDbEntity
  8
M0
 62
     7
100
AcDbCircle
 10
344.950463
 20
378.067594
 40
1.0
100
AcDbArc
 50
0.0
 51
90.0
  0
ARC
  5
EE
100
AcDbEntity
  8
M0
 62
     7
100
AcDbCircle
 10
336.550454
 20
373.567594
 40
0.5
100
AcDbArc
 50
0.0
 51
90.0
  0
ARC
  5
EF
100
AcDbEntity
  8
M0
 62
     7
100
AcDbCircle
 10
336.550454
 20
372.614637
 40
0.5
100
AcDbArc
 50
0.0
 51
84.348228
  0
LINE
  5
F0
100
AcDbEntity
  8
M0
 62
     7
100
AcDbLine
 10
345.950463
 20
366.567594
 11
355.950463
 21
366.567594
  0
LINE
  5
F1
100
AcDbEntity
  8
M0
 62
     7
100
AcDbLine
 10
355.950463
 20
366.567594
 11
355.950447
 21
380.4176
  0
LINE
  5
F2
100
AcDbEntity
  8
M0
 62
     7
100
AcDbLine
 10
355.950463
 20
431.567594
 11
345.950463
 21
431.567579
  0
LINE
  5
F3
100
AcDbEntity
  8
M0
  6
DASHDOT
 62
     7
100
AcDbLine
 10
325.450463
 20
399.067594
 11
355.950463
 21
399.067594
  0
LINE
  5
F4
100
AcDbEntity
  8
M0
 62
     7
100
AcDbLine
 10
325.450463
 20
425.067594
 11
355.950463
 21
425.067594
  0
LINE
  5
F5
100
AcDbEntity
  8
M0
 62
     7
100
AcDbLine
 10
355.65046
 20
380.717588
 11
355.65046
 21
381.417585
  0
LINE
  5
F6
100
AcDbEntity
  8
M0
 62
     7
100
AcDbLine
 10
351.15046
 20
381.4176
 11
354.950463
 21
381.4176
  0
LINE
  5
F7
100
AcDbEntity
  8
M0
 62
     7
100
AcDbLine
 10
351.15046
 20
416.717588
 11
355.950463
 21
416.717588
  0
LINE
  5
F8
100
AcDbEntity
  8
M0
 62
     7
100
AcDbLine
 10
351.150414
 20
381.917447
 11
352.250267
 21
381.917447
  0
LINE
  5
F9
100
AcDbEntity
  8
M0
 62
     7
100
AcDbLine
 10
352.250389
 20
383.4176
 11
353.250389
 21
383.4176
  0
LINE
  5
FA
100
AcDbEntity
  8
M0
 62
     7
100
AcDbLine
 10
355.950463
 20
416.717588
 11
355.950463
 21
431.567594
  0
LINE
  5
FB
100
AcDbEntity
  8
M0
 62
     7
100
AcDbLine
 10
352.950432
 20
414.717588
 11
353.950432
 21
414.717588
  0
LINE
  5
FC
100
AcDbEntity
  8
M0
 62
     7
100
AcDbLine
 10
353.950447
 20
414.717588
 11
355.65046
 21
416.717588
  0
LINE
  5
FD
100
AcDbEntity
  8
M0
 62
     7
100
AcDbLine
 10
352.950447
 20
414.717588
 11
352.25045
 21
416.717588
  0
LINE
  5
FE
100
AcDbEntity
  8
M0
 62
     7
100
AcDbLine
 10
352.250389
 20
383.4176
 11
352.250389
 21
381.9176
  0
LINE
  5
FF
100
AcDbEntity
  8
M0
 62
     7
100
AcDbLine
 10
326.450463
 20
374.067594
 11
341.906273
 21
374.067594
  0
LINE
  5
100
100
AcDbEntity
  8
M0
 62
     7
100
AcDbLine
 10
325.450463
 20
373.067594
 11
336.761986
 21
373.067594
  0
LINE
  5
101
100
AcDbEntity
  8
M0
 62
     7
100
AcDbLine
 10
327.950478
 20
373.96858
 11
336.599709
 21
373.112211
  0
ARC
  5
102
100
AcDbEntity
  8
M0
 62
     7
100
AcDbCircle
 10
342.050316
 20
373.567594
 40
0.5
100
AcDbArc
 50
107.036915
 51
179.999966
  0
ARC
  5
103
100
AcDbEntity
  8
M0
 62
     7
100
AcDbCircle
 10
342.050316
 20
372.567594
 40
0.5
100
AcDbArc
 50
113.547633
 51
179.999959
  0
LINE
  5
104
100
AcDbEntity
  8
M0
 62
     7
100
AcDbLine
 10
345.950463
 20
431.567579
 11
345.950463
 21
425.067594
  0
LINE
  5
105
100
AcDbEntity
  8
M0
 62
     7
100
AcDbLine
 10
351.15046
 20
381.4176
 11
351.15046
 21
416.717588
  0
LINE
  5
106
100
AcDbEntity
  8
M0
 62
     7
100
AcDbLine
 10
354.950463
 20
381.4176
 11
355.950447
 21
380.4176
  0
LINE
  5
107
100
AcDbEntity
  8
M0
 62
     7
100
AcDbLine
 10
353.250389
 20
383.4176
 11
353.250389
 21
381.4176
  0
LINE
  5
108
100
AcDbEntity
  8
M0
 62
     7
100
AcDbLine
 10
355.65046
 20
381.417585
 11
353.250389
 21
383.4176
  0
CIRCLE
  5
109
100
AcDbEntity
  8
M0
 62
     6
100
AcDbCircle
 10
151.561562
 20
371.067594
 40
3.0
  0
LINE
  5
10A
100
AcDbEntity
  8
M0
 62
     6
100
AcDbLine
 10
148.464836
 20
374.567502
 11
147.786553
 21
372.367643
  0
LINE
  5
10B
100
AcDbEntity
  8
M0
 62
     6
100
AcDbLine
 10
148.602806
 20
367.120344
 11
147.786553
 21
369.767667
  0
LINE
  5
10C
100
AcDbEntity
  8
M0
 62
     6
100
AcDbLine
 10
154.658242
 20
374.567502
 11
155.336556
 21
372.367643
  0
LINE
  5
10D
100
AcDbEntity
  8
M0
 62
     6
100
AcDbLine
 10
154.520287
 20
367.120328
 11
155.336556
 21
369.767667
  0
LINE
  5
10E
100
AcDbEntity
  8
M0
 62
     6
100
AcDbLine
 10
149.080605
 20
366.767667
 11
154.042473
 21
366.767667
  0
LINE
  5
10F
100
AcDbEntity
  8
M0
 62
     6
100
AcDbLine
 10
155.336556
 20
369.767667
 11
155.336556
 21
372.367643
  0
LINE
  5
110
100
AcDbEntity
  8
M0
 62
     6
100
AcDbLine
 10
147.786553
 20
372.367643
 11
147.786553
 21
369.767667
  0
LINE
  5
111
100
AcDbEntity
  8
M0
  6
DASHDOT
 62
     6
100
AcDbLine
 10
145.286553
 20
371.067594
 11
157.836556
 21
371.067594
  0
LINE
  5
112
100
AcDbEntity
  8
M0
  6
DASHDOT
 62
     6
100
AcDbLine
 10
151.561562
 20
364.267682
 11
151.561562
 21
377.867643
  0
LINE
  5
113
100
AcDbEntity
  8
M0
 62
     6
100
AcDbLine
 10
153.152336
 20
369.476774
 11
149.970528
 21
372.658536
  0
LINE
  5
114
100
AcDbEntity
  8
M0
 62
     6
100
AcDbLine
 10
151.914971
 20
372.481778
 11
150.147301
 21
370.714078
  0
LINE
  5
115
100
AcDbEntity
  8
M0
 62
     6
100
AcDbLine
 10
152.975579
 20
371.42111
 11
151.207955
 21
369.653531
  0
ARC
  5
116
100
AcDbEntity
  8
M0
 62
     6
100
AcDbCircle
 10
149.080605
 20
367.267667
 40
0.5
100
AcDbArc
 50
197.137519
 51
270.0
  0
ARC
  5
117
100
AcDbEntity
  8
M0
 62
     6
100
AcDbCircle
 10
154.042473
 20
367.267667
 40
0.5
100
AcDbArc
 50
270.0
 51
342.859476
  0
CIRCLE
  5
118
100
AcDbEntity
  8
M0
 62
     6
100
AcDbCircle
 10
141.561562
 20
379.067594
 40
3.0
  0
LINE
  5
119
100
AcDbEntity
  8
M0
 62
     6
100
AcDbLine
 10
138.602806
 20
383.014936
 11
137.786553
 21
380.367643
  0
LINE
  5
11A
100
AcDbEntity
  8
M0
 62
     6
100
AcDbLine
 10
138.602806
 20
375.120344
 11
137.786553
 21
377.767667
  0
LINE
  5
11B
100
AcDbEntity
  8
M0
 62
     6
100
AcDbLine
 10
144.520287
 20
383.014951
 11
145.336556
 21
380.367643
  0
LINE
  5
11C
100
AcDbEntity
  8
M0
 62
     6
100
AcDbLine
 10
144.520287
 20
375.120328
 11
145.336556
 21
377.767667
  0
LINE
  5
11D
100
AcDbEntity
  8
M0
 62
     6
100
AcDbLine
 10
139.080605
 20
374.767667
 11
144.042473
 21
374.767667
  0
LINE
  5
11E
100
AcDbEntity
  8
M0
 62
     6
100
AcDbLine
 10
145.336556
 20
377.767667
 11
145.336556
 21
380.367643
  0
LINE
  5
11F
100
AcDbEntity
  8
M0
 62
     6
100
AcDbLine
 10
144.042473
 20
383.367643
 11
139.080605
 21
383.367627
  0
LINE
  5
120
100
AcDbEntity
  8
M0
 62
     6
100
AcDbLine
 10
137.786553
 20
380.367643
 11
137.786553
 21
377.767667
  0
LINE
  5
121
100
AcDbEntity
  8
M0
  6
DASHDOT
 62
     6
100
AcDbLine
 10
135.286553
 20
379.067594
 11
147.836556
 21
379.067594
  0
LINE
  5
122
100
AcDbEntity
  8
M0
  6
DASHDOT
 62
     6
100
AcDbLine
 10
141.561562
 20
372.267682
 11
141.561562
 21
385.867643
  0
LINE
  5
123
100
AcDbEntity
  8
M0
 62
     6
100
AcDbLine
 10
143.152336
 20
377.476774
 11
139.970528
 21
380.658536
  0
LINE
  5
124
100
AcDbEntity
  8
M0
 62
     6
100
AcDbLine
 10
141.914971
 20
380.481778
 11
140.147301
 21
378.714078
  0
LINE
  5
125
100
AcDbEntity
  8
M0
 62
     6
100
AcDbLine
 10
142.975579
 20
379.42111
 11
141.207955
 21
377.653531
  0
ARC
  5
126
100
AcDbEntity
  8
M0
 62
     6
100
AcDbCircle
 10
139.080605
 20
382.867627
 40
0.5
100
AcDbArc
 50
90.0
 51
162.867254
  0
ARC
  5
127
100
AcDbEntity
  8
M0
 62
     6
100
AcDbCircle
 10
139.080605
 20
375.267667
 40
0.5
100
AcDbArc
 50
197.137551
 51
270.0
  0
ARC
  5
128
100
AcDbEntity
  8
M0
 62
     6
100
AcDbCircle
 10
144.042473
 20
375.267667
 40
0.5
100
AcDbArc
 50
270.0
 51
342.859508
  0
ARC
  5
129
100
AcDbEntity
  8
M0
 62
     6
100
AcDbCircle
 10
144.042473
 20
382.867627
 40
0.5
100
AcDbArc
 50
17.134755
 51
90.0
  0
LINE
  5
12A
100
AcDbEntity
  8
M0
  6
DASHDOT
 62
     6
100
AcDbLine
 10
161.561531
 20
372.267667
 11
161.561562
 21
385.867627
  0
CIRCLE
  5
12B
100
AcDbEntity
  8
M0
 62
     6
100
AcDbCircle
 10
151.561562
 20
379.067594
 40
3.0
  0
LINE
  5
12C
100
AcDbEntity
  8
M0
 62
     6
100
AcDbLine
 10
148.602806
 20
383.014936
 11
147.786553
 21
380.367643
  0
LINE
  5
12D
100
AcDbEntity
  8
M0
 62
     6
100
AcDbLine
 10
148.602806
 20
375.120344
 11
147.786553
 21
377.767667
  0
LINE
  5
12E
100
AcDbEntity
  8
M0
 62
     6
100
AcDbLine
 10
154.520287
 20
383.014951
 11
155.336556
 21
380.367643
  0
LINE
  5
12F
100
AcDbEntity
  8
M0
 62
     6
100
AcDbLine
 10
154.520287
 20
375.120328
 11
155.336556
 21
377.767667
  0
LINE
  5
130
100
AcDbEntity
  8
M0
 62
     6
100
AcDbLine
 10
149.080605
 20
374.767667
 11
154.042473
 21
374.767667
  0
LINE
  5
131
100
AcDbEntity
  8
M0
 62
     6
100
AcDbLine
 10
155.336556
 20
377.767667
 11
155.336556
 21
380.367643
  0
LINE
  5
132
100
AcDbEntity
  8
M0
 62
     6
100
AcDbLine
 10
154.042473
 20
383.367643
 11
149.080605
 21
383.367627
  0
LINE
  5
133
100
AcDbEntity
  8
M0
 62
     6
100
AcDbLine
 10
147.786553
 20
380.367643
 11
147.786553
 21
377.767667
  0
LINE
  5
134
100
AcDbEntity
  8
M0
  6
DASHDOT
 62
     6
100
AcDbLine
 10
145.286553
 20
379.067594
 11
157.836556
 21
379.067594
  0
LINE
  5
135
100
AcDbEntity
  8
M0
  6
DASHDOT
 62
     6
100
AcDbLine
 10
151.561562
 20
372.267682
 11
151.561562
 21
385.867643
  0
LINE
  5
136
100
AcDbEntity
  8
M0
 62
     6
100
AcDbLine
 10
153.152336
 20
377.476774
 11
149.970528
 21
380.658536
  0
LINE
  5
137
100
AcDbEntity
  8
M0
 62
     6
100
AcDbLine
 10
151.914971
 20
380.481778
 11
150.147301
 21
378.714078
  0
LINE
  5
138
100
AcDbEntity
  8
M0
 62
     6
100
AcDbLine
 10
152.975579
 20
379.42111
 11
151.207955
 21
377.653531
  0
ARC
  5
139
100
AcDbEntity
  8
M0
 62
     6
100
AcDbCircle
 10
149.080605
 20
382.867627
 40
0.5
100
AcDbArc
 50
90.0
 51
162.867254
  0
ARC
  5
13A
100
AcDbEntity
  8
M0
 62
     6
100
AcDbCircle
 10
149.080605
 20
375.267667
 40
0.5
100
AcDbArc
 50
197.137551
 51
270.0
  0
ARC
  5
13B
100
AcDbEntity
  8
M0
 62
     6
100
AcDbCircle
 10
154.042473
 20
375.267667
 40
0.5
100
AcDbArc
 50
270.0
 51
342.859508
  0
ARC
  5
13C
100
AcDbEntity
  8
M0
 62
     6
100
AcDbCircle
 10
154.042473
 20
382.867627
 40
0.5
100
AcDbArc
 50
17.134755
 51
90.0
  0
CIRCLE
  5
13D
100
AcDbEntity
  8
M0
 62
     6
100
AcDbCircle
 10
171.561562
 20
379.067594
 40
3.0
  0
LINE
  5
13E
100
AcDbEntity
  8
M0
 62
     6
100
AcDbLine
 10
168.602806
 20
383.014936
 11
167.786553
 21
380.367643
  0
LINE
  5
13F
100
AcDbEntity
  8
M0
 62
     6
100
AcDbLine
 10
168.602806
 20
375.120344
 11
167.786553
 21
377.767667
  0
LINE
  5
140
100
AcDbEntity
  8
M0
 62
     6
100
AcDbLine
 10
174.520287
 20
383.014951
 11
175.336556
 21
380.367643
  0
LINE
  5
141
100
AcDbEntity
  8
M0
 62
     6
100
AcDbLine
 10
174.520287
 20
375.120328
 11
175.336556
 21
377.767667
  0
LINE
  5
142
100
AcDbEntity
  8
M0
 62
     6
100
AcDbLine
 10
169.080605
 20
374.767667
 11
174.042473
 21
374.767667
  0
LINE
  5
143
100
AcDbEntity
  8
M0
 62
     6
100
AcDbLine
 10
175.336556
 20
377.767667
 11
175.336556
 21
380.367643
  0
LINE
  5
144
100
AcDbEntity
  8
M0
 62
     6
100
AcDbLine
 10
174.042473
 20
383.367643
 11
169.080605
 21
383.367627
  0
LINE
  5
145
100
AcDbEntity
  8
M0
 62
     6
100
AcDbLine
 10
167.786553
 20
380.367643
 11
167.786553
 21
377.767667
  0
LINE
  5
146
100
AcDbEntity
  8
M0
  6
DASHDOT
 62
     6
100
AcDbLine
 10
155.286553
 20
379.067594
 11
167.836556
 21
379.067594
  0
LINE
  5
147
100
AcDbEntity
  8
M0
 62
     6
100
AcDbLine
 10
173.152336
 20
377.476774
 11
169.970528
 21
380.658536
  0
LINE
  5
148
100
AcDbEntity
  8
M0
 62
     6
100
AcDbLine
 10
171.914971
 20
380.481778
 11
170.147301
 21
378.714078
  0
LINE
  5
149
100
AcDbEntity
  8
M0
 62
     6
100
AcDbLine
 10
172.975579
 20
379.42111
 11
171.207955
 21
377.653531
  0
ARC
  5
14A
100
AcDbEntity
  8
M0
 62
     6
100
AcDbCircle
 10
169.080605
 20
382.867627
 40
0.5
100
AcDbArc
 50
90.0
 51
162.86739
  0
ARC
  5
14B
100
AcDbEntity
  8
M0
 62
     6
100
AcDbCircle
 10
169.080605
 20
375.267667
 40
0.5
100
AcDbArc
 50
197.137519
 51
270.0
  0
ARC
  5
14C
100
AcDbEntity
  8
M0
 62
     6
100
AcDbCircle
 10
174.042473
 20
375.267667
 40
0.5
100
AcDbArc
 50
270.0
 51
342.859476
  0
ARC
  5
14D
100
AcDbEntity
  8
M0
 62
     6
100
AcDbCircle
 10
174.042473
 20
382.867627
 40
0.5
100
AcDbArc
 50
17.134787
 51
90.0
  0
CIRCLE
  5
14E
100
AcDbEntity
  8
M0
 62
     6
100
AcDbCircle
 10
181.561562
 20
379.067594
 40
3.0
  0
LINE
  5
14F
100
AcDbEntity
  8
M0
 62
     6
100
AcDbLine
 10
178.602806
 20
383.014936
 11
177.786553
 21
380.367643
  0
LINE
  5
150
100
AcDbEntity
  8
M0
 62
     6
100
AcDbLine
 10
178.602806
 20
375.120344
 11
177.786553
 21
377.767667
  0
LINE
  5
151
100
AcDbEntity
  8
M0
 62
     6
100
AcDbLine
 10
184.520287
 20
383.014951
 11
185.336556
 21
380.367643
  0
LINE
  5
152
100
AcDbEntity
  8
M0
 62
     6
100
AcDbLine
 10
184.520287
 20
375.120328
 11
185.336556
 21
377.767667
  0
LINE
  5
153
100
AcDbEntity
  8
M0
 62
     6
100
AcDbLine
 10
179.080605
 20
374.767667
 11
184.042473
 21
374.767667
  0
LINE
  5
154
100
AcDbEntity
  8
M0
 62
     6
100
AcDbLine
 10
185.336556
 20
377.767667
 11
185.336556
 21
380.367643
  0
LINE
  5
155
100
AcDbEntity
  8
M0
 62
     6
100
AcDbLine
 10
184.042473
 20
383.367643
 11
179.080605
 21
383.367627
  0
LINE
  5
156
100
AcDbEntity
  8
M0
 62
     6
100
AcDbLine
 10
177.786553
 20
380.367643
 11
177.786553
 21
377.767667
  0
LINE
  5
157
100
AcDbEntity
  8
M0
  6
DASHDOT
 62
     6
100
AcDbLine
 10
175.286553
 20
379.067594
 11
187.836556
 21
379.067594
  0
LINE
  5
158
100
AcDbEntity
  8
M0
  6
DASHDOT
 62
     6
100
AcDbLine
 10
181.561562
 20
372.267682
 11
181.561562
 21
385.867643
  0
LINE
  5
159
100
AcDbEntity
  8
M0
 62
     6
100
AcDbLine
 10
183.152336
 20
377.476774
 11
179.970528
 21
380.658536
  0
LINE
  5
15A
100
AcDbEntity
  8
M0
 62
     6
100
AcDbLine
 10
181.914971
 20
380.481778
 11
180.147301
 21
378.714078
  0
LINE
  5
15B
100
AcDbEntity
  8
M0
 62
     6
100
AcDbLine
 10
182.975579
 20
379.42111
 11
181.207955
 21
377.653531
  0
ARC
  5
15C
100
AcDbEntity
  8
M0
 62
     6
100
AcDbCircle
 10
179.080605
 20
382.867627
 40
0.5
100
AcDbArc
 50
90.0
 51
162.86739
  0
ARC
  5
15D
100
AcDbEntity
  8
M0
 62
     6
100
AcDbCircle
 10
179.080605
 20
375.267667
 40
0.5
100
AcDbArc
 50
197.137519
 51
270.0
  0
ARC
  5
15E
100
AcDbEntity
  8
M0
 62
     6
100
AcDbCircle
 10
184.042473
 20
375.267667
 40
0.5
100
AcDbArc
 50
270.0
 51
342.859476
  0
ARC
  5
15F
100
AcDbEntity
  8
M0
 62
     6
100
AcDbCircle
 10
184.042473
 20
382.867627
 40
0.5
100
AcDbArc
 50
17.134787
 51
90.0
  0
CIRCLE
  5
160
100
AcDbEntity
  8
M0
 62
     6
100
AcDbCircle
 10
151.561562
 20
419.067594
 40
3.0
  0
LINE
  5
161
100
AcDbEntity
  8
M0
 62
     6
100
AcDbLine
 10
148.602806
 20
423.014936
 11
147.786553
 21
420.367643
  0
LINE
  5
162
100
AcDbEntity
  8
M0
 62
     6
100
AcDbLine
 10
148.602806
 20
415.120344
 11
147.786553
 21
417.767667
  0
LINE
  5
163
100
AcDbEntity
  8
M0
 62
     6
100
AcDbLine
 10
154.520287
 20
423.014951
 11
155.336556
 21
420.367643
  0
LINE
  5
164
100
AcDbEntity
  8
M0
 62
     6
100
AcDbLine
 10
154.520287
 20
415.120328
 11
155.336556
 21
417.767667
  0
LINE
  5
165
100
AcDbEntity
  8
M0
 62
     6
100
AcDbLine
 10
149.080605
 20
414.767667
 11
154.042473
 21
414.767667
  0
LINE
  5
166
100
AcDbEntity
  8
M0
 62
     6
100
AcDbLine
 10
155.336556
 20
417.767667
 11
155.336556
 21
420.367643
  0
LINE
  5
167
100
AcDbEntity
  8
M0
 62
     6
100
AcDbLine
 10
154.042473
 20
423.367643
 11
149.080605
 21
423.367627
  0
LINE
  5
168
100
AcDbEntity
  8
M0
 62
     6
100
AcDbLine
 10
147.786553
 20
420.367643
 11
147.786553
 21
417.767667
  0
LINE
  5
169
100
AcDbEntity
  8
M0
  6
DASHDOT
 62
     6
100
AcDbLine
 10
145.286553
 20
419.067594
 11
157.836556
 21
419.067594
  0
LINE
  5
16A
100
AcDbEntity
  8
M0
  6
DASHDOT
 62
     6
100
AcDbLine
 10
151.561562
 20
412.267682
 11
151.561562
 21
425.867643
  0
LINE
  5
16B
100
AcDbEntity
  8
M0
 62
     6
100
AcDbLine
 10
153.152336
 20
417.476774
 11
149.970528
 21
420.658536
  0
LINE
  5
16C
100
AcDbEntity
  8
M0
 62
     6
100
AcDbLine
 10
151.914971
 20
420.481778
 11
150.147301
 21
418.714078
  0
LINE
  5
16D
100
AcDbEntity
  8
M0
 62
     6
100
AcDbLine
 10
152.975579
 20
419.42111
 11
151.207955
 21
417.653531
  0
ARC
  5
16E
100
AcDbEntity
  8
M0
 62
     6
100
AcDbCircle
 10
149.080605
 20
422.867627
 40
0.5
100
AcDbArc
 50
90.0
 51
162.867254
  0
ARC
  5
16F
100
AcDbEntity
  8
M0
 62
     6
100
AcDbCircle
 10
149.080605
 20
415.267667
 40
0.5
100
AcDbArc
 50
197.137551
 51
270.0
  0
ARC
  5
170
100
AcDbEntity
  8
M0
 62
     6
100
AcDbCircle
 10
154.042473
 20
415.267667
 40
0.5
100
AcDbArc
 50
270.0
 51
342.859508
  0
ARC
  5
171
100
AcDbEntity
  8
M0
 62
     6
100
AcDbCircle
 10
154.042473
 20
422.867627
 40
0.5
100
AcDbArc
 50
17.134755
 51
90.0
  0
CIRCLE
  5
172
100
AcDbEntity
  8
M0
 62
     6
100
AcDbCircle
 10
171.561562
 20
419.067594
 40
3.0
  0
LINE
  5
173
100
AcDbEntity
  8
M0
 62
     6
100
AcDbLine
 10
168.602806
 20
423.014936
 11
167.786553
 21
420.367643
  0
LINE
  5
174
100
AcDbEntity
  8
M0
 62
     6
100
AcDbLine
 10
168.602806
 20
415.120344
 11
167.786553
 21
417.767667
  0
LINE
  5
175
100
AcDbEntity
  8
M0
 62
     6
100
AcDbLine
 10
174.520287
 20
423.014951
 11
175.336556
 21
420.367643
  0
LINE
  5
176
100
AcDbEntity
  8
M0
 62
     6
100
AcDbLine
 10
174.520287
 20
415.120328
 11
175.336556
 21
417.767667
  0
LINE
  5
177
100
AcDbEntity
  8
M0
 62
     6
100
AcDbLine
 10
169.080605
 20
414.767667
 11
174.042473
 21
414.767667
  0
LINE
  5
178
100
AcDbEntity
  8
M0
 62
     6
100
AcDbLine
 10
175.336556
 20
417.767667
 11
175.336556
 21
420.367643
  0
LINE
  5
179
100
AcDbEntity
  8
M0
 62
     6
100
AcDbLine
 10
174.042473
 20
423.367643
 11
169.080605
 21
423.367627
  0
LINE
  5
17A
100
AcDbEntity
  8
M0
 62
     6
100
AcDbLine
 10
167.786553
 20
420.367643
 11
167.786553
 21
417.767667
  0
LINE
  5
17B
100
AcDbEntity
  8
M0
  6
DASHDOT
 62
     6
100
AcDbLine
 10
155.286553
 20
419.067594
 11
167.836556
 21
419.067594
  0
LINE
  5
17C
100
AcDbEntity
  8
M0
 62
     6
100
AcDbLine
 10
173.152336
 20
417.476774
 11
169.970528
 21
420.658536
  0
LINE
  5
17D
100
AcDbEntity
  8
M0
 62
     6
100
AcDbLine
 10
171.914971
 20
420.481778
 11
170.147301
 21
418.714078
  0
LINE
  5
17E
100
AcDbEntity
  8
M0
 62
     6
100
AcDbLine
 10
172.975579
 20
419.42111
 11
171.207955
 21
417.653531
  0
ARC
  5
17F
100
AcDbEntity
  8
M0
 62
     6
100
AcDbCircle
 10
169.080605
 20
422.867627
 40
0.5
100
AcDbArc
 50
90.0
 51
162.86739
  0
ARC
  5
180
100
AcDbEntity
  8
M0
 62
     6
100
AcDbCircle
 10
169.080605
 20
415.267667
 40
0.5
100
AcDbArc
 50
197.137519
 51
270.0
  0
ARC
  5
181
100
AcDbEntity
  8
M0
 62
     6
100
AcDbCircle
 10
174.042473
 20
415.267667
 40
0.5
100
AcDbArc
 50
270.0
 51
342.859476
  0
ARC
  5
182
100
AcDbEntity
  8
M0
 62
     6
100
AcDbCircle
 10
174.042473
 20
422.867627
 40
0.5
100
AcDbArc
 50
17.134787
 51
90.0
  0
LINE
  5
183
100
AcDbEntity
  8
M0
 62
     6
100
AcDbLine
 10
164.04258
 20
414.767667
 11
159.080712
 21
414.767667
  0
LINE
  5
184
100
AcDbEntity
  8
M0
 62
     6
100
AcDbLine
 10
164.520378
 20
415.120344
 11
165.336632
 21
417.767667
  0
LINE
  5
185
100
AcDbEntity
  8
M0
 62
     6
100
AcDbLine
 10
158.602898
 20
415.120328
 11
157.786629
 21
417.767667
  0
LINE
  5
186
100
AcDbEntity
  8
M0
 62
     6
100
AcDbLine
 10
158.602898
 20
423.014951
 11
157.786629
 21
420.367643
  0
LINE
  5
187
100
AcDbEntity
  8
M0
 62
     6
100
AcDbLine
 10
157.786629
 20
417.767667
 11
157.786629
 21
420.367643
  0
LINE
  5
188
100
AcDbEntity
  8
M0
 62
     6
100
AcDbLine
 10
164.520378
 20
423.014936
 11
165.336632
 21
420.367643
  0
LINE
  5
189
100
AcDbEntity
  8
M0
 62
     6
100
AcDbLine
 10
165.336632
 20
420.367643
 11
165.336632
 21
417.767667
  0
CIRCLE
  5
18A
100
AcDbEntity
  8
M0
 62
     6
100
AcDbCircle
 10
161.561623
 20
419.067594
 40
3.0
  0
LINE
  5
18B
100
AcDbEntity
  8
M0
 62
     6
100
AcDbLine
 10
159.970848
 20
417.476774
 11
163.152657
 21
420.658536
  0
LINE
  5
18C
100
AcDbEntity
  8
M0
 62
     6
100
AcDbLine
 10
161.208214
 20
420.481778
 11
162.975884
 21
418.714078
  0
LINE
  5
18D
100
AcDbEntity
  8
M0
 62
     6
100
AcDbLine
 10
160.147606
 20
419.42111
 11
161.91523
 21
417.653531
  0
ARC
  5
18E
100
AcDbEntity
  8
M0
 62
     6
100
AcDbCircle
 10
164.04258
 20
415.267667
 40
0.5
100
AcDbArc
 50
270.0
 51
342.862377
  0
ARC
  5
18F
100
AcDbEntity
  8
M0
 62
     6
100
AcDbCircle
 10
159.080712
 20
415.267667
 40
0.5
100
AcDbArc
 50
197.14201
 51
270.0
  0
LINE
  5
190
100
AcDbEntity
  8
M0
 62
     6
100
AcDbLine
 10
159.080712
 20
423.367643
 11
164.04258
 21
423.367627
  0
ARC
  5
191
100
AcDbEntity
  8
M0
 62
     6
100
AcDbCircle
 10
164.04258
 20
422.867627
 40
0.5
100
AcDbArc
 50
17.13261
 51
90.0
  0
ARC
  5
192
100
AcDbEntity
  8
M0
 62
     6
100
AcDbCircle
 10
159.080712
 20
422.867627
 40
0.5
100
AcDbArc
 50
90.0
 51
162.865076
  0
LINE
  5
193
100
AcDbEntity
  8
M0
 62
     6
100
AcDbLine
 10
158.602867
 20
375.12042
 11
157.786599
 21
377.767728
  0
LINE
  5
194
100
AcDbEntity
  8
M0
 62
     6
100
AcDbLine
 10
164.520348
 20
375.120435
 11
165.336602
 21
377.767728
  0
CIRCLE
  5
195
100
AcDbEntity
  8
M0
 62
     6
100
AcDbCircle
 10
161.561592
 20
379.067777
 40
3.0
  0
LINE
  5
196
100
AcDbEntity
  8
M0
 62
     6
100
AcDbLine
 10
160.147576
 20
378.714261
 11
161.9152
 21
380.481839
  0
LINE
  5
197
100
AcDbEntity
  8
M0
 62
     6
100
AcDbLine
 10
161.208184
 20
377.653592
 11
162.975853
 21
379.421293
  0
LINE
  5
198
100
AcDbEntity
  8
M0
 62
     6
100
AcDbLine
 10
159.970818
 20
380.658597
 11
163.152626
 21
377.476835
  0
LINE
  5
199
100
AcDbEntity
  8
M0
 62
     6
100
AcDbLine
 10
158.602883
 20
383.015043
 11
157.786599
 21
380.367704
  0
LINE
  5
19A
100
AcDbEntity
  8
M0
 62
     6
100
AcDbLine
 10
164.042565
 20
383.367704
 11
159.080696
 21
383.367704
  0
ARC
  5
19B
100
AcDbEntity
  8
M0
 62
     6
100
AcDbCircle
 10
159.080696
 20
382.867704
 40
0.5
100
AcDbArc
 50
90.0
 51
162.856423
  0
ARC
  5
19C
100
AcDbEntity
  8
M0
 62
     6
100
AcDbCircle
 10
164.042565
 20
382.867704
 40
0.5
100
AcDbArc
 50
17.138146
 51
90.0
  0
LINE
  5
19D
100
AcDbEntity
  8
M0
 62
     6
100
AcDbLine
 10
164.520363
 20
383.015027
 11
165.336602
 21
380.367704
  0
LINE
  5
19E
100
AcDbEntity
  8
M0
 62
     6
100
AcDbLine
 10
157.786599
 20
380.367704
 11
157.786599
 21
377.767728
  0
LINE
  5
19F
100
AcDbEntity
  8
M0
 62
     6
100
AcDbLine
 10
165.336602
 20
377.767728
 11
165.336602
 21
380.367704
  0
LINE
  5
1A0
100
AcDbEntity
  8
M0
 62
     6
100
AcDbLine
 10
159.080681
 20
374.767728
 11
164.042549
 21
374.767743
  0
ARC
  5
1A1
100
AcDbEntity
  8
M0
 62
     6
100
AcDbCircle
 10
159.080681
 20
375.267743
 40
0.5
100
AcDbArc
 50
197.134611
 51
270.0
  0
ARC
  5
1A2
100
AcDbEntity
  8
M0
 62
     6
100
AcDbCircle
 10
164.042549
 20
375.267743
 40
0.5
100
AcDbArc
 50
270.0
 51
342.868957
  0
CIRCLE
  5
1A3
100
AcDbEntity
  8
M0
 62
     6
100
AcDbCircle
 10
181.561562
 20
419.067594
 40
3.0
  0
LINE
  5
1A4
100
AcDbEntity
  8
M0
 62
     6
100
AcDbLine
 10
178.602806
 20
423.014936
 11
177.786553
 21
420.367643
  0
LINE
  5
1A5
100
AcDbEntity
  8
M0
 62
     6
100
AcDbLine
 10
178.602806
 20
415.120344
 11
177.786553
 21
417.767667
  0
LINE
  5
1A6
100
AcDbEntity
  8
M0
 62
     6
100
AcDbLine
 10
184.520287
 20
423.014951
 11
185.336556
 21
420.367643
  0
LINE
  5
1A7
100
AcDbEntity
  8
M0
 62
     6
100
AcDbLine
 10
184.520287
 20
415.120328
 11
185.336556
 21
417.767667
  0
LINE
  5
1A8
100
AcDbEntity
  8
M0
 62
     6
100
AcDbLine
 10
179.080605
 20
414.767667
 11
184.042473
 21
414.767667
  0
LINE
  5
1A9
100
AcDbEntity
  8
M0
 62
     6
100
AcDbLine
 10
185.336556
 20
417.767667
 11
185.336556
 21
420.367643
  0
LINE
  5
1AA
100
AcDbEntity
  8
M0
 62
     6
100
AcDbLine
 10
184.042473
 20
423.367643
 11
179.080605
 21
423.367627
  0
LINE
  5
1AB
100
AcDbEntity
  8
M0
 62
     6
100
AcDbLine
 10
177.786553
 20
420.367643
 11
177.786553
 21
417.767667
  0
LINE
  5
1AC
100
AcDbEntity
  8
M0
  6
DASHDOT
 62
     6
100
AcDbLine
 10
175.286553
 20
419.067594
 11
187.836556
 21
419.067594
  0
LINE
  5
1AD
100
AcDbEntity
  8
M0
  6
DASHDOT
 62
     6
100
AcDbLine
 10
181.561562
 20
412.267682
 11
181.561562
 21
425.867643
  0
LINE
  5
1AE
100
AcDbEntity
  8
M0
 62
     6
100
AcDbLine
 10
183.152336
 20
417.476774
 11
179.970528
 21
420.658536
  0
LINE
  5
1AF
100
AcDbEntity
  8
M0
 62
     6
100
AcDbLine
 10
181.914971
 20
420.481778
 11
180.147301
 21
418.714078
  0
LINE
  5
1B0
100
AcDbEntity
  8
M0
 62
     6
100
AcDbLine
 10
182.975579
 20
419.42111
 11
181.207955
 21
417.653531
  0
ARC
  5
1B1
100
AcDbEntity
  8
M0
 62
     6
100
AcDbCircle
 10
179.080605
 20
422.867627
 40
0.5
100
AcDbArc
 50
90.0
 51
162.86739
  0
ARC
  5
1B2
100
AcDbEntity
  8
M0
 62
     6
100
AcDbCircle
 10
179.080605
 20
415.267667
 40
0.5
100
AcDbArc
 50
197.137519
 51
270.0
  0
ARC
  5
1B3
100
AcDbEntity
  8
M0
 62
     6
100
AcDbCircle
 10
184.042473
 20
415.267667
 40
0.5
100
AcDbArc
 50
270.0
 51
342.859476
  0
ARC
  5
1B4
100
AcDbEntity
  8
M0
 62
     6
100
AcDbCircle
 10
184.042473
 20
422.867627
 40
0.5
100
AcDbArc
 50
17.134787
 51
90.0
  0
CIRCLE
  5
1B5
100
AcDbEntity
  8
M0
 62
     6
100
AcDbCircle
 10
181.561562
 20
427.06735
 40
3.0
  0
LINE
  5
1B6
100
AcDbEntity
  8
M0
 62
     6
100
AcDbLine
 10
178.602806
 20
431.014692
 11
177.786553
 21
428.367399
  0
LINE
  5
1B7
100
AcDbEntity
  8
M0
 62
     6
100
AcDbLine
 10
178.464928
 20
423.567258
 11
177.786553
 21
425.767423
  0
LINE
  5
1B8
100
AcDbEntity
  8
M0
 62
     6
100
AcDbLine
 10
184.520287
 20
431.014707
 11
185.336556
 21
428.367399
  0
LINE
  5
1B9
100
AcDbEntity
  8
M0
 62
     6
100
AcDbLine
 10
184.658165
 20
423.567258
 11
185.336556
 21
425.767423
  0
LINE
  5
1BA
100
AcDbEntity
  8
M0
 62
     6
100
AcDbLine
 10
185.336556
 20
425.767423
 11
185.336556
 21
428.367399
  0
LINE
  5
1BB
100
AcDbEntity
  8
M0
 62
     6
100
AcDbLine
 10
184.042473
 20
431.367399
 11
179.080605
 21
431.367383
  0
LINE
  5
1BC
100
AcDbEntity
  8
M0
 62
     6
100
AcDbLine
 10
177.786553
 20
428.367399
 11
177.786553
 21
425.767423
  0
LINE
  5
1BD
100
AcDbEntity
  8
M0
  6
DASHDOT
 62
     6
100
AcDbLine
 10
175.511513
 20
427.06735
 11
187.836556
 21
427.06735
  0
LINE
  5
1BE
100
AcDbEntity
  8
M0
  6
DASHDOT
 62
     6
100
AcDbLine
 10
181.561562
 20
420.267438
 11
181.561562
 21
433.867399
  0
LINE
  5
1BF
100
AcDbEntity
  8
M0
 62
     6
100
AcDbLine
 10
183.152336
 20
425.476529
 11
179.970528
 21
428.658292
  0
LINE
  5
1C0
100
AcDbEntity
  8
M0
 62
     6
100
AcDbLine
 10
181.914971
 20
428.481534
 11
180.147301
 21
426.713834
  0
LINE
  5
1C1
100
AcDbEntity
  8
M0
 62
     6
100
AcDbLine
 10
182.975579
 20
427.420865
 11
181.207955
 21
425.653287
  0
ARC
  5
1C2
100
AcDbEntity
  8
M0
 62
     6
100
AcDbCircle
 10
179.080605
 20
430.867383
 40
0.5
100
AcDbArc
 50
90.0
 51
162.867254
  0
ARC
  5
1C3
100
AcDbEntity
  8
M0
 62
     6
100
AcDbCircle
 10
184.042473
 20
430.867383
 40
0.5
100
AcDbArc
 50
17.134755
 51
90.0
  0
CIRCLE
  5
1C4
100
AcDbEntity
  8
M0
 62
     6
100
AcDbCircle
 10
191.561562
 20
419.067594
 40
3.0
  0
LINE
  5
1C5
100
AcDbEntity
  8
M0
 62
     6
100
AcDbLine
 10
188.602806
 20
423.014936
 11
187.786553
 21
420.367643
  0
LINE
  5
1C6
100
AcDbEntity
  8
M0
 62
     6
100
AcDbLine
 10
188.602806
 20
415.120344
 11
187.786553
 21
417.767667
  0
LINE
  5
1C7
100
AcDbEntity
  8
M0
 62
     6
100
AcDbLine
 10
194.520287
 20
423.014951
 11
195.336556
 21
420.367643
  0
LINE
  5
1C8
100
AcDbEntity
  8
M0
 62
     6
100
AcDbLine
 10
194.520287
 20
415.120328
 11
195.336556
 21
417.767667
  0
LINE
  5
1C9
100
AcDbEntity
  8
M0
 62
     6
100
AcDbLine
 10
189.080605
 20
414.767667
 11
194.042473
 21
414.767667
  0
LINE
  5
1CA
100
AcDbEntity
  8
M0
 62
     6
100
AcDbLine
 10
195.336556
 20
417.767667
 11
195.336556
 21
420.367643
  0
LINE
  5
1CB
100
AcDbEntity
  8
M0
 62
     6
100
AcDbLine
 10
194.042473
 20
423.367643
 11
189.080605
 21
423.367627
  0
LINE
  5
1CC
100
AcDbEntity
  8
M0
 62
     6
100
AcDbLine
 10
187.786553
 20
420.367643
 11
187.786553
 21
417.767667
  0
LINE
  5
1CD
100
AcDbEntity
  8
M0
  6
DASHDOT
 62
     6
100
AcDbLine
 10
185.286553
 20
419.067594
 11
197.836556
 21
419.067594
  0
LINE
  5
1CE
100
AcDbEntity
  8
M0
  6
DASHDOT
 62
     6
100
AcDbLine
 10
191.561562
 20
412.267682
 11
191.561562
 21
425.867643
  0
LINE
  5
1CF
100
AcDbEntity
  8
M0
 62
     6
100
AcDbLine
 10
193.152336
 20
417.476774
 11
189.970528
 21
420.658536
  0
LINE
  5
1D0
100
AcDbEntity
  8
M0
 62
     6
100
AcDbLine
 10
191.914971
 20
420.481778
 11
190.147301
 21
418.714078
  0
LINE
  5
1D1
100
AcDbEntity
  8
M0
 62
     6
100
AcDbLine
 10
192.975579
 20
419.42111
 11
191.207955
 21
417.653531
  0
ARC
  5
1D2
100
AcDbEntity
  8
M0
 62
     6
100
AcDbCircle
 10
189.080605
 20
422.867627
 40
0.5
100
AcDbArc
 50
90.0
 51
162.86739
  0
ARC
  5
1D3
100
AcDbEntity
  8
M0
 62
     6
100
AcDbCircle
 10
189.080605
 20
415.267667
 40
0.5
100
AcDbArc
 50
197.137519
 51
270.0
  0
ARC
  5
1D4
100
AcDbEntity
  8
M0
 62
     6
100
AcDbCircle
 10
194.042473
 20
415.267667
 40
0.5
100
AcDbArc
 50
270.0
 51
342.859476
  0
ARC
  5
1D5
100
AcDbEntity
  8
M0
 62
     6
100
AcDbCircle
 10
194.042473
 20
422.867627
 40
0.5
100
AcDbArc
 50
17.134787
 51
90.0
  0
LINE
  5
1D6
100
AcDbEntity
  8
M0
  6
DASHDOT
 62
     6
100
AcDbLine
 10
171.561562
 20
412.267682
 11
171.561562
 21
425.867643
  0
LINE
  5
1D7
100
AcDbEntity
  8
M0
 62
     1
100
AcDbLine
 10
161.961556
 20
367.56767
 11
170.961556
 21
367.56767
  0
ARC
  5
1D8
100
AcDbEntity
  8
M0
 62
     1
100
AcDbCircle
 10
170.961556
 20
368.56767
 40
1.0
100
AcDbArc
 50
270.0
 51
329.995752
  0
LINE
  5
1D9
100
AcDbEntity
  8
M0
 62
     1
100
AcDbLine
 10
163.511559
 20
369.867658
 11
165.55349
 21
369.867658
  0
LINE
  5
1DA
100
AcDbEntity
  8
M0
 62
     1
100
AcDbLine
 10
169.811547
 20
370.067594
 11
169.811547
 21
372.567594
  0
ARC
  5
1DB
100
AcDbEntity
  8
M0
 62
     1
100
AcDbCircle
 10
163.511559
 20
370.067655
 40
0.2
100
AcDbArc
 50
179.999727
 51
270.0
  0
ARC
  5
1DC
100
AcDbEntity
  8
M0
 62
     1
100
AcDbCircle
 10
169.61155
 20
370.067655
 40
0.2
100
AcDbArc
 50
270.0
 51
360.0
  0
LINE
  5
1DD
100
AcDbEntity
  8
M0
 62
     1
100
AcDbLine
 10
163.311547
 20
372.567594
 11
163.311547
 21
370.067594
  0
LINE
  5
1DE
100
AcDbEntity
  8
M0
 62
     1
100
AcDbLine
 10
167.611626
 20
369.867658
 11
169.61155
 21
369.867658
  0
ARC
  5
1DF
100
AcDbEntity
  8
M0
 62
     1
100
AcDbCircle
 10
162.161599
 20
368.56767
 40
1.0
100
AcDbArc
 50
210.004201
 51
270.0
  0
LINE
  5
1E0
100
AcDbEntity
  8
M0
 62
     1
100
AcDbLine
 10
161.295616
 20
368.067594
 11
161.295616
 21
372.567594
  0
LINE
  5
1E1
100
AcDbEntity
  8
M0
 62
     1
100
AcDbLine
 10
171.827538
 20
368.067594
 11
171.827538
 21
372.567594
  0
LINE
  5
1E2
100
AcDbEntity
  8
M0
 62
     2
100
AcDbLine
 10
274.450512
 20
401.067578
 11
274.450527
 21
397.067579
  0
LINE
  5
1E3
100
AcDbEntity
  8
M0
 62
     2
100
AcDbLine
 10
278.450511
 20
401.567562
 11
274.950512
 21
401.567578
  0
LINE
  5
1E4
100
AcDbEntity
  8
M0
 62
     2
100
AcDbLine
 10
278.450511
 20
396.567594
 11
274.950528
 21
396.567594
  0
ARC
  5
1E5
100
AcDbEntity
  8
M0
 62
     2
100
AcDbCircle
 10
274.950512
 20
401.067578
 40
0.5
100
AcDbArc
 50
90.0
 51
179.999982
  0
ARC
  5
1E6
100
AcDbEntity
  8
M0
 62
     2
100
AcDbCircle
 10
274.950527
 20
397.067578
 40
0.5
100
AcDbArc
 50
179.999968
 51
270.0
  0
LINE
  5
1E7
100
AcDbEntity
  8
M0
100
AcDbLine
 10
268.450463
 20
379.067594
 11
268.450463
 21
419.067594
  0
LINE
  5
1E8
100
AcDbEntity
  8
M0
100
AcDbLine
 10
265.450478
 20
380.310209
 11
268.450478
 21
383.310224
  0
LINE
  5
1E9
100
AcDbEntity
  8
M0
100
AcDbLine
 10
265.450463
 20
384.552839
 11
268.450463
 21
387.552854
  0
LINE
  5
1EA
100
AcDbEntity
  8
M0
100
AcDbLine
 10
265.450463
 20
388.795484
 11
268.450463
 21
391.795484
  0
LINE
  5
1EB
100
AcDbEntity
  8
M0
100
AcDbLine
 10
265.450463
 20
393.038129
 11
268.450463
 21
396.038129
  0
LINE
  5
1EC
100
AcDbEntity
  8
M0
100
AcDbLine
 10
265.450463
 20
397.280774
 11
268.450463
 21
400.280774
  0
LINE
  5
1ED
100
AcDbEntity
  8
M0
100
AcDbLine
 10
265.450463
 20
401.52342
 11
268.450463
 21
404.52342
  0
LINE
  5
1EE
100
AcDbEntity
  8
M0
100
AcDbLine
 10
265.450447
 20
405.76605
 11
268.450447
 21
408.76605
  0
LINE
  5
1EF
100
AcDbEntity
  8
M0
100
AcDbLine
 10
265.450463
 20
410.008695
 11
268.450463
 21
413.008695
  0
LINE
  5
1F0
100
AcDbEntity
  8
M0
100
AcDbLine
 10
265.450463
 20
414.25134
 11
268.450463
 21
417.25134
  0
LINE
  5
1F1
100
AcDbEntity
  8
M0
 62
     4
100
AcDbLine
 10
198.061562
 20
371.067579
 11
198.061562
 21
427.067594
  0
LINE
  5
1F2
100
AcDbEntity
  8
M0
 62
     4
100
AcDbLine
 10
135.061562
 20
427.067548
 11
135.061562
 21
371.067609
  0
LINE
  5
1F3
100
AcDbEntity
  8
M0
  6
DASHDOT
 62
     4
100
AcDbLine
 10
135.061562
 20
399.067594
 11
198.061562
 21
399.067594
  0
LINE
  5
1F4
100
AcDbEntity
  8
M0
  6
DASHDOT
 62
     4
100
AcDbLine
 10
166.561562
 20
361.567594
 11
166.561562
 21
436.567594
  0
LINE
  5
1F5
100
AcDbEntity
  8
M0
 62
     4
100
AcDbLine
 10
167.611367
 20
415.067594
 11
167.611367
 21
429.567548
  0
LINE
  5
1F6
100
AcDbEntity
  8
M0
 62
     4
100
AcDbLine
 10
175.511513
 20
415.067594
 11
175.511513
 21
431.067594
  0
LINE
  5
1F7
100
AcDbEntity
  8
M0
 62
     4
100
AcDbLine
 10
157.111367
 20
430.067579
 11
156.011513
 21
430.067579
  0
LINE
  5
1F8
100
AcDbEntity
  8
M0
 62
     4
100
AcDbLine
 10
168.611367
 20
414.067594
 11
174.511513
 21
414.067594
  0
ARC
  5
1F9
100
AcDbEntity
  8
M0
 62
     4
100
AcDbCircle
 10
168.611367
 20
415.067594
 40
1.0
100
AcDbArc
 50
180.0
 51
270.0
  0
ARC
  5
1FA
100
AcDbEntity
  8
M0
 62
     4
100
AcDbCircle
 10
174.511513
 20
415.067594
 40
1.0
100
AcDbArc
 50
269.915907
 51
360.0
  0
ARC
  5
1FB
100
AcDbEntity
  8
M0
 62
     4
100
AcDbCircle
 10
176.011513
 20
429.567579
 40
0.5
100
AcDbArc
 50
90.0
 51
180.0
  0
ARC
  5
1FC
100
AcDbEntity
  8
M0
 62
     4
100
AcDbCircle
 10
167.111367
 20
429.567563
 40
0.5
100
AcDbArc
 50
0.0
 51
90.0
  0
LINE
  5
1FD
100
AcDbEntity
  8
M0
 62
     4
100
AcDbLine
 10
137.111382
 20
427.567563
 11
135.561577
 21
427.567563
  0
LINE
  5
1FE
100
AcDbEntity
  8
M0
 62
     4
100
AcDbLine
 10
147.111367
 20
430.067563
 11
146.011513
 21
430.067563
  0
LINE
  5
1FF
100
AcDbEntity
  8
M0
 62
     4
100
AcDbLine
 10
177.111367
 20
430.067579
 11
176.011513
 21
430.067579
  0
LINE
  5
200
100
AcDbEntity
  8
M0
 62
     4
100
AcDbLine
 10
187.111367
 20
430.067579
 11
186.011513
 21
430.067579
  0
ARC
  5
201
100
AcDbEntity
  8
M0
 62
     4
100
AcDbCircle
 10
186.011513
 20
429.567579
 40
0.5
100
AcDbArc
 50
90.0
 51
180.0
  0
ARC
  5
202
100
AcDbEntity
  8
M0
 62
     4
100
AcDbCircle
 10
156.011513
 20
429.567563
 40
0.5
100
AcDbArc
 50
90.0
 51
180.0
  0
ARC
  5
203
100
AcDbEntity
  8
M0
 62
     4
100
AcDbCircle
 10
146.011513
 20
429.567548
 40
0.5
100
AcDbArc
 50
89.998251
 51
180.0
  0
ARC
  5
204
100
AcDbEntity
  8
M0
 62
     4
100
AcDbCircle
 10
135.561577
 20
427.067548
 40
0.5
100
AcDbArc
 50
89.998251
 51
180.0
  0
LINE
  5
205
100
AcDbEntity
  8
M0
 62
     4
100
AcDbLine
 10
187.611367
 20
423.567594
 11
195.511513
 21
423.567594
  0
LINE
  5
206
100
AcDbEntity
  8
M0
 62
     4
100
AcDbLine
 10
177.611367
 20
423.567594
 11
185.511513
 21
423.567594
  0
LINE
  5
207
100
AcDbEntity
  8
M0
 62
     4
100
AcDbLine
 10
167.611367
 20
423.567594
 11
175.511513
 21
423.567594
  0
LINE
  5
208
100
AcDbEntity
  8
M0
 62
     4
100
AcDbLine
 10
147.611367
 20
423.567594
 11
155.511513
 21
423.567594
  0
LINE
  5
209
100
AcDbEntity
  8
M0
 62
     4
100
AcDbLine
 10
145.511513
 20
423.567594
 11
137.611367
 21
423.567594
  0
LINE
  5
20A
100
AcDbEntity
  8
M0
 62
     4
100
AcDbLine
 10
176.011513
 20
431.567594
 11
187.111367
 21
431.567594
  0
ARC
  5
20B
100
AcDbEntity
  8
M0
 62
     4
100
AcDbCircle
 10
176.011513
 20
431.067594
 40
0.5
100
AcDbArc
 50
90.0
 51
180.0
  0
ARC
  5
20C
100
AcDbEntity
  8
M0
 62
     4
100
AcDbCircle
 10
186.011513
 20
431.067594
 40
0.5
100
AcDbArc
 50
90.0
 51
180.0
  0
LINE
  5
20D
100
AcDbEntity
  8
M0
 62
     4
100
AcDbLine
 10
177.611367
 20
415.067594
 11
177.611367
 21
431.067594
  0
ARC
  5
20E
100
AcDbEntity
  8
M0
 62
     4
100
AcDbCircle
 10
178.611367
 20
415.067594
 40
1.0
100
AcDbArc
 50
180.0
 51
269.929895
  0
LINE
  5
20F
100
AcDbEntity
  8
M0
 62
     4
100
AcDbLine
 10
178.611367
 20
414.067594
 11
184.511513
 21
414.067594
  0
ARC
  5
210
100
AcDbEntity
  8
M0
 62
     4
100
AcDbCircle
 10
184.511513
 20
415.067594
 40
1.0
100
AcDbArc
 50
269.914322
 51
360.0
  0
LINE
  5
211
100
AcDbEntity
  8
M0
 62
     4
100
AcDbLine
 10
185.511513
 20
415.067594
 11
185.511513
 21
431.067594
  0
ARC
  5
212
100
AcDbEntity
  8
M0
 62
     4
100
AcDbCircle
 10
177.111367
 20
429.567563
 40
0.5
100
AcDbArc
 50
0.0
 51
90.0
  0
LINE
  5
213
100
AcDbEntity
  8
M0
 62
     4
100
AcDbLine
 10
147.611367
 20
415.067594
 11
147.611367
 21
429.567533
  0
ARC
  5
214
100
AcDbEntity
  8
M0
 62
     4
100
AcDbCircle
 10
148.611367
 20
415.067594
 40
1.0
100
AcDbArc
 50
180.0
 51
269.930059
  0
LINE
  5
215
100
AcDbEntity
  8
M0
 62
     4
100
AcDbLine
 10
148.611367
 20
414.067594
 11
154.511513
 21
414.067594
  0
ARC
  5
216
100
AcDbEntity
  8
M0
 62
     4
100
AcDbCircle
 10
154.511513
 20
415.067594
 40
1.0
100
AcDbArc
 50
269.887985
 51
360.0
  0
LINE
  5
217
100
AcDbEntity
  8
M0
 62
     4
100
AcDbLine
 10
155.511513
 20
415.067594
 11
155.511513
 21
429.567563
  0
ARC
  5
218
100
AcDbEntity
  8
M0
 62
     4
100
AcDbCircle
 10
147.111367
 20
429.567548
 40
0.5
100
AcDbArc
 50
0.0
 51
89.998251
  0
LINE
  5
219
100
AcDbEntity
  8
M0
 62
     4
100
AcDbLine
 10
187.611367
 20
415.067594
 11
187.611367
 21
431.067594
  0
ARC
  5
21A
100
AcDbEntity
  8
M0
 62
     4
100
AcDbCircle
 10
188.611367
 20
415.067594
 40
1.0
100
AcDbArc
 50
180.0
 51
269.92831
  0
LINE
  5
21B
100
AcDbEntity
  8
M0
 62
     4
100
AcDbLine
 10
188.611367
 20
414.067594
 11
194.511513
 21
414.067594
  0
ARC
  5
21C
100
AcDbEntity
  8
M0
 62
     4
100
AcDbCircle
 10
194.511513
 20
415.067594
 40
1.0
100
AcDbArc
 50
269.914322
 51
360.0
  0
LINE
  5
21D
100
AcDbEntity
  8
M0
 62
     4
100
AcDbLine
 10
195.511513
 20
415.067594
 11
195.511513
 21
427.067594
  0
ARC
  5
21E
100
AcDbEntity
  8
M0
 62
     4
100
AcDbCircle
 10
187.111367
 20
429.567563
 40
0.5
100
AcDbArc
 50
0.0
 51
90.0
  0
ARC
  5
21F
100
AcDbEntity
  8
M0
 62
     4
100
AcDbCircle
 10
177.111367
 20
431.067594
 40
0.5
100
AcDbArc
 50
0.0
 51
90.0
  0
ARC
  5
220
100
AcDbEntity
  8
M0
 62
     4
100
AcDbCircle
 10
138.611367
 20
415.067594
 40
1.0
100
AcDbArc
 50
180.0
 51
269.969401
  0
LINE
  5
221
100
AcDbEntity
  8
M0
 62
     4
100
AcDbLine
 10
137.611367
 20
415.067594
 11
137.611367
 21
427.067533
  0
LINE
  5
222
100
AcDbEntity
  8
M0
 62
     4
100
AcDbLine
 10
138.611367
 20
414.067594
 11
144.511513
 21
414.067594
  0
ARC
  5
223
100
AcDbEntity
  8
M0
 62
     4
100
AcDbCircle
 10
144.511513
 20
415.067594
 40
1.0
100
AcDbArc
 50
269.927436
 51
360.0
  0
LINE
  5
224
100
AcDbEntity
  8
M0
 62
     4
100
AcDbLine
 10
145.511513
 20
415.067594
 11
145.511513
 21
429.567548
  0
ARC
  5
225
100
AcDbEntity
  8
M0
 62
     4
100
AcDbCircle
 10
137.111382
 20
427.067548
 40
0.5
100
AcDbArc
 50
0.0
 51
89.998251
  0
LINE
  5
226
100
AcDbEntity
  8
M0
 62
     4
100
AcDbLine
 10
135.561562
 20
370.567594
 11
137.111611
 21
370.567594
  0
LINE
  5
227
100
AcDbEntity
  8
M0
 62
     4
100
AcDbLine
 10
175.511757
 20
383.067594
 11
175.511757
 21
370.067624
  0
LINE
  5
228
100
AcDbEntity
  8
M0
 62
     4
100
AcDbLine
 10
167.611611
 20
383.067594
 11
167.611611
 21
370.067609
  0
LINE
  5
229
100
AcDbEntity
  8
M0
 62
     4
100
AcDbLine
 10
176.011757
 20
369.567609
 11
177.111611
 21
369.567609
  0
LINE
  5
22A
100
AcDbEntity
  8
M0
 62
     4
100
AcDbLine
 10
174.511757
 20
384.067594
 11
168.611611
 21
384.067594
  0
ARC
  5
22B
100
AcDbEntity
  8
M0
 62
     4
100
AcDbCircle
 10
174.511757
 20
383.067594
 40
1.0
100
AcDbArc
 50
0.0
 51
90.0
  0
ARC
  5
22C
100
AcDbEntity
  8
M0
 62
     4
100
AcDbCircle
 10
168.611611
 20
383.067594
 40
1.0
100
AcDbArc
 50
89.916071
 51
179.999945
  0
ARC
  5
22D
100
AcDbEntity
  8
M0
 62
     4
100
AcDbCircle
 10
167.111611
 20
370.067609
 40
0.5
100
AcDbArc
 50
270.026119
 51
360.0
  0
ARC
  5
22E
100
AcDbEntity
  8
M0
 62
     4
100
AcDbCircle
 10
176.011757
 20
370.067624
 40
0.5
100
AcDbArc
 50
179.998251
 51
270.026119
  0
LINE
  5
22F
100
AcDbEntity
  8
M0
 62
     4
100
AcDbLine
 10
186.011757
 20
369.567624
 11
187.111611
 21
369.567624
  0
LINE
  5
230
100
AcDbEntity
  8
M0
 62
     4
100
AcDbLine
 10
156.011758
 20
369.567609
 11
157.111612
 21
369.567609
  0
LINE
  5
231
100
AcDbEntity
  8
M0
 62
     4
100
AcDbLine
 10
146.011757
 20
369.567609
 11
147.111611
 21
369.567609
  0
ARC
  5
232
100
AcDbEntity
  8
M0
 62
     4
100
AcDbCircle
 10
137.111611
 20
371.067609
 40
0.5
100
AcDbArc
 50
270.029726
 51
360.0
  0
ARC
  5
233
100
AcDbEntity
  8
M0
 62
     4
100
AcDbCircle
 10
147.111611
 20
370.067609
 40
0.5
100
AcDbArc
 50
270.029726
 51
360.0
  0
ARC
  5
234
100
AcDbEntity
  8
M0
 62
     4
100
AcDbCircle
 10
177.111611
 20
370.067624
 40
0.5
100
AcDbArc
 50
270.026119
 51
360.0
  0
ARC
  5
235
100
AcDbEntity
  8
M0
 62
     4
100
AcDbCircle
 10
187.111611
 20
370.06764
 40
0.5
100
AcDbArc
 50
270.02448
 51
360.0
  0
LINE
  5
236
100
AcDbEntity
  8
M0
 62
     4
100
AcDbLine
 10
145.511757
 20
374.567594
 11
137.611611
 21
374.567594
  0
LINE
  5
237
100
AcDbEntity
  8
M0
 62
     4
100
AcDbLine
 10
155.511757
 20
374.567594
 11
147.611611
 21
374.567594
  0
LINE
  5
238
100
AcDbEntity
  8
M0
 62
     4
100
AcDbLine
 10
175.511757
 20
374.567594
 11
167.611611
 21
374.567594
  0
LINE
  5
239
100
AcDbEntity
  8
M0
 62
     4
100
AcDbLine
 10
185.511757
 20
374.567594
 11
177.611611
 21
374.567594
  0
LINE
  5
23A
100
AcDbEntity
  8
M0
 62
     4
100
AcDbLine
 10
187.611611
 20
374.567594
 11
195.511757
 21
374.567594
  0
LINE
  5
23B
100
AcDbEntity
  8
M0
 62
     4
100
AcDbLine
 10
157.111611
 20
366.567594
 11
146.011757
 21
366.567579
  0
ARC
  5
23C
100
AcDbEntity
  8
M0
 62
     4
100
AcDbCircle
 10
157.111611
 20
367.067594
 40
0.5
100
AcDbArc
 50
270.028087
 51
360.0
  0
ARC
  5
23D
100
AcDbEntity
  8
M0
 62
     4
100
AcDbCircle
 10
147.111611
 20
367.067594
 40
0.5
100
AcDbArc
 50
270.029726
 51
360.0
  0
LINE
  5
23E
100
AcDbEntity
  8
M0
 62
     4
100
AcDbLine
 10
155.511757
 20
383.067594
 11
155.511757
 21
367.067594
  0
ARC
  5
23F
100
AcDbEntity
  8
M0
 62
     4
100
AcDbCircle
 10
154.511757
 20
383.067594
 40
1.0
100
AcDbArc
 50
0.0
 51
89.943938
  0
LINE
  5
240
100
AcDbEntity
  8
M0
 62
     4
100
AcDbLine
 10
154.511757
 20
384.067594
 11
148.611611
 21
384.067594
  0
ARC
  5
241
100
AcDbEntity
  8
M0
 62
     4
100
AcDbCircle
 10
148.611611
 20
383.067594
 40
1.0
100
AcDbArc
 50
89.914322
 51
179.999945
  0
LINE
  5
242
100
AcDbEntity
  8
M0
 62
     4
100
AcDbLine
 10
147.611611
 20
383.067594
 11
147.611611
 21
367.067594
  0
ARC
  5
243
100
AcDbEntity
  8
M0
 62
     4
100
AcDbCircle
 10
156.011757
 20
370.067624
 40
0.5
100
AcDbArc
 50
179.998251
 51
270.028087
  0
LINE
  5
244
100
AcDbEntity
  8
M0
 62
     4
100
AcDbLine
 10
185.511757
 20
383.067594
 11
185.511757
 21
370.06764
  0
ARC
  5
245
100
AcDbEntity
  8
M0
 62
     4
100
AcDbCircle
 10
184.511757
 20
383.067594
 40
1.0
100
AcDbArc
 50
0.0
 51
89.944047
  0
LINE
  5
246
100
AcDbEntity
  8
M0
 62
     4
100
AcDbLine
 10
184.511757
 20
384.067594
 11
178.611611
 21
384.067594
  0
ARC
  5
247
100
AcDbEntity
  8
M0
 62
     4
100
AcDbCircle
 10
178.611611
 20
383.067594
 40
1.0
100
AcDbArc
 50
89.888094
 51
179.999945
  0
LINE
  5
248
100
AcDbEntity
  8
M0
 62
     4
100
AcDbLine
 10
177.611611
 20
383.067594
 11
177.611611
 21
370.067624
  0
ARC
  5
249
100
AcDbEntity
  8
M0
 62
     4
100
AcDbCircle
 10
186.011757
 20
370.06764
 40
0.5
100
AcDbArc
 50
179.998251
 51
270.02448
  0
LINE
  5
24A
100
AcDbEntity
  8
M0
 62
     4
100
AcDbLine
 10
145.511757
 20
383.067594
 11
145.511757
 21
367.067579
  0
ARC
  5
24B
100
AcDbEntity
  8
M0
 62
     4
100
AcDbCircle
 10
144.511757
 20
383.067594
 40
1.0
100
AcDbArc
 50
0.0
 51
89.929185
  0
LINE
  5
24C
100
AcDbEntity
  8
M0
 62
     4
100
AcDbLine
 10
144.511757
 20
384.067594
 11
138.611611
 21
384.067594
  0
ARC
  5
24D
100
AcDbEntity
  8
M0
 62
     4
100
AcDbCircle
 10
138.611611
 20
383.067594
 40
1.0
100
AcDbArc
 50
89.914322
 51
179.999945
  0
LINE
  5
24E
100
AcDbEntity
  8
M0
 62
     4
100
AcDbLine
 10
137.611611
 20
383.067594
 11
137.611611
 21
371.067609
  0
ARC
  5
24F
100
AcDbEntity
  8
M0
 62
     4
100
AcDbCircle
 10
146.011757
 20
370.067624
 40
0.5
100
AcDbArc
 50
179.998251
 51
270.029726
  0
ARC
  5
250
100
AcDbEntity
  8
M0
 62
     4
100
AcDbCircle
 10
156.011757
 20
367.067594
 40
0.5
100
AcDbArc
 50
179.998251
 51
270.028087
  0
ARC
  5
251
100
AcDbEntity
  8
M0
 62
     4
100
AcDbCircle
 10
194.511757
 20
383.067594
 40
1.0
100
AcDbArc
 50
0.0
 51
89.972024
  0
LINE
  5
252
100
AcDbEntity
  8
M0
 62
     4
100
AcDbLine
 10
195.511757
 20
383.067594
 11
195.511757
 21
371.067594
  0
LINE
  5
253
100
AcDbEntity
  8
M0
 62
     4
100
AcDbLine
 10
194.511757
 20
384.067594
 11
188.611611
 21
384.067594
  0
ARC
  5
254
100
AcDbEntity
  8
M0
 62
     4
100
AcDbCircle
 10
188.611611
 20
383.067594
 40
1.0
100
AcDbArc
 50
89.930059
 51
179.999945
  0
LINE
  5
255
100
AcDbEntity
  8
M0
 62
     4
100
AcDbLine
 10
187.611611
 20
383.067594
 11
187.611611
 21
370.06764
  0
ARC
  5
256
100
AcDbEntity
  8
M0
 62
     4
100
AcDbCircle
 10
135.561562
 20
371.067609
 40
0.5
100
AcDbArc
 50
179.998251
 51
270.029726
  0
LINE
  5
257
100
AcDbEntity
  8
M0
 62
     4
100
AcDbLine
 10
163.561562
 20
395.417585
 11
165.561562
 21
395.417585
  0
LINE
  5
258
100
AcDbEntity
  8
M0
 62
     4
100
AcDbLine
 10
169.561562
 20
395.917585
 11
169.561562
 21
401.717557
  0
LINE
  5
259
100
AcDbEntity
  8
M0
 62
     4
100
AcDbLine
 10
169.061562
 20
402.217588
 11
167.561562
 21
402.217573
  0
LINE
  5
25A
100
AcDbEntity
  8
M0
 62
     4
100
AcDbLine
 10
163.061562
 20
401.717557
 11
163.061562
 21
395.917585
  0
ARC
  5
25B
100
AcDbEntity
  8
M0
 62
     4
100
AcDbCircle
 10
169.061562
 20
395.917585
 40
0.5
100
AcDbArc
 50
270.0
 51
360.0
  0
ARC
  5
25C
100
AcDbEntity
  8
M0
 62
     4
100
AcDbCircle
 10
169.061562
 20
401.717573
 40
0.5
100
AcDbArc
 50
0.0
 51
90.0
  0
ARC
  5
25D
100
AcDbEntity
  8
M0
 62
     4
100
AcDbCircle
 10
163.561562
 20
401.717572
 40
0.5
100
AcDbArc
 50
90.0
 51
180.0
  0
ARC
  5
25E
100
AcDbEntity
  8
M0
 62
     4
100
AcDbCircle
 10
163.561563
 20
395.917585
 40
0.5
100
AcDbArc
 50
179.999891
 51
270.0
  0
ARC
  5
25F
100
AcDbEntity
  8
M0
 62
     4
100
AcDbCircle
 10
166.011788
 20
429.567563
 40
0.5
100
AcDbArc
 50
90.0
 51
180.0
  0
LINE
  5
260
100
AcDbEntity
  8
M0
 62
     4
100
AcDbLine
 10
165.511788
 20
415.067594
 11
165.511788
 21
429.567548
  0
LINE
  5
261
100
AcDbEntity
  8
M0
 62
     4
100
AcDbLine
 10
165.511788
 20
423.567594
 11
157.611641
 21
423.567594
  0
LINE
  5
262
100
AcDbEntity
  8
M0
 62
     4
100
AcDbLine
 10
164.511788
 20
414.067594
 11
158.611641
 21
414.067594
  0
ARC
  5
263
100
AcDbEntity
  8
M0
 62
     4
100
AcDbCircle
 10
164.511788
 20
415.067594
 40
1.0
100
AcDbArc
 50
-90.0
 51
0.0
  0
ARC
  5
264
100
AcDbEntity
  8
M0
 62
     4
100
AcDbCircle
 10
158.611641
 20
415.067594
 40
1.0
100
AcDbArc
 50
180.0
 51
270.084804
  0
LINE
  5
265
100
AcDbEntity
  8
M0
 62
     4
100
AcDbLine
 10
157.611641
 20
415.067594
 11
157.611641
 21
429.567579
  0
LINE
  5
266
100
AcDbEntity
  8
M0
 62
     4
100
AcDbLine
 10
157.611641
 20
415.067594
 11
157.611641
 21
429.567579
  0
ARC
  5
267
100
AcDbEntity
  8
M0
 62
     4
100
AcDbCircle
 10
157.111641
 20
429.567579
 40
0.5
100
AcDbArc
 50
0.0
 51
90.0
  0
LINE
  5
268
100
AcDbEntity
  8
M0
 62
     4
100
AcDbLine
 10
157.611626
 20
383.067594
 11
157.611626
 21
367.067594
  0
ARC
  5
269
100
AcDbEntity
  8
M0
 62
     4
100
AcDbCircle
 10
158.611626
 20
383.067594
 40
1.0
100
AcDbArc
 50
89.915142
 51
179.999945
  0
LINE
  5
26A
100
AcDbEntity
  8
M0
 62
     4
100
AcDbLine
 10
164.511772
 20
384.067594
 11
158.611626
 21
384.067594
  0
ARC
  5
26B
100
AcDbEntity
  8
M0
 62
     4
100
AcDbCircle
 10
164.511772
 20
383.067594
 40
1.0
100
AcDbArc
 50
0.0
 51
90.0
  0
LINE
  5
26C
100
AcDbEntity
  8
M0
 62
     4
100
AcDbLine
 10
165.511772
 20
383.067594
 11
165.511772
 21
370.067624
  0
LINE
  5
26D
100
AcDbEntity
  8
M0
 62
     4
100
AcDbLine
 10
165.511757
 20
374.567594
 11
157.611611
 21
374.567594
  0
ARC
  5
26E
100
AcDbEntity
  8
M0
 62
     4
100
AcDbCircle
 10
166.011757
 20
370.067624
 40
0.5
100
AcDbArc
 50
179.998251
 51
270.0
  0
ARC
  5
26F
100
AcDbEntity
  8
M0
 62
     4
100
AcDbCircle
 10
157.111611
 20
370.067609
 40
0.5
100
AcDbArc
 50
270.0
 51
360.0
  0
ARC
  5
270
100
AcDbEntity
  8
M0
 62
     4
100
AcDbCircle
 10
187.111367
 20
431.067594
 40
0.5
100
AcDbArc
 50
0.0
 51
90.0
  0
LINE
  5
271
100
AcDbEntity
  8
M0
 62
     4
100
AcDbLine
 10
196.011757
 20
370.567594
 11
197.561562
 21
370.567594
  0
LINE
  5
272
100
AcDbEntity
  8
M0
 62
     4
100
AcDbLine
 10
196.011513
 20
427.567594
 11
197.561562
 21
427.567594
  0
ARC
  5
273
100
AcDbEntity
  8
M0
 62
     4
100
AcDbCircle
 10
197.561562
 20
427.067594
 40
0.5
100
AcDbArc
 50
0.0
 51
90.0
  0
ARC
  5
274
100
AcDbEntity
  8
M0
 62
     4
100
AcDbCircle
 10
196.011513
 20
427.067594
 40
0.5
100
AcDbArc
 50
90.0
 51
180.0
  0
ARC
  5
275
100
AcDbEntity
  8
M0
 62
     4
100
AcDbCircle
 10
196.011757
 20
371.067594
 40
0.5
100
AcDbArc
 50
179.998251
 51
269.998251
  0
ARC
  5
276
100
AcDbEntity
  8
M0
 62
     4
100
AcDbCircle
 10
197.561562
 20
371.067594
 40
0.5
100
AcDbArc
 50
269.998251
 51
360.0
  0
ARC
  5
277
100
AcDbEntity
  8
M0
 62
     4
100
AcDbCircle
 10
146.011757
 20
367.067579
 40
0.5
100
AcDbArc
 50
179.998251
 51
270.0
  0
LINE
  5
278
100
AcDbEntity
  8
M0
 62
     4
100
AcDbLine
 10
165.561562
 20
402.217573
 11
165.561562
 21
401.067594
  0
LINE
  5
279
100
AcDbEntity
  8
M0
 62
     4
100
AcDbLine
 10
167.561562
 20
402.217573
 11
167.561562
 21
401.067594
  0
LINE
  5
27A
100
AcDbEntity
  8
M0
 62
     4
100
AcDbLine
 10
165.561562
 20
397.067594
 11
167.561562
 21
397.067594
  0
LINE
  5
27B
100
AcDbEntity
  8
M0
 62
     4
100
AcDbLine
 10
165.561562
 20
401.067594
 11
167.561562
 21
401.067594
  0
LINE
  5
27C
100
AcDbEntity
  8
M0
 62
     4
100
AcDbLine
 10
167.561562
 20
395.417585
 11
169.061562
 21
395.417585
  0
LINE
  5
27D
100
AcDbEntity
  8
M0
 62
     4
100
AcDbLine
 10
165.561562
 20
402.217573
 11
163.561562
 21
402.217573
  0
LINE
  5
27E
100
AcDbEntity
  8
M0
 62
     4
100
AcDbLine
 10
165.561562
 20
397.067594
 11
165.561562
 21
395.417585
  0
LINE
  5
27F
100
AcDbEntity
  8
M0
 62
     4
100
AcDbLine
 10
167.561562
 20
397.067594
 11
167.561562
 21
395.417585
  0
LINE
  5
280
100
AcDbEntity
  8
M0
 62
     4
100
AcDbLine
 10
311.950264
 20
366.567594
 11
325.450463
 21
366.567594
  0
LINE
  5
281
100
AcDbEntity
  8
M0
 62
     4
100
AcDbLine
 10
325.450463
 20
366.567594
 11
325.450463
 21
376.567594
  0
LINE
  5
282
100
AcDbEntity
  8
M0
 62
     4
100
AcDbLine
 10
325.450463
 20
431.567594
 11
311.950249
 21
431.567579
  0
LINE
  5
283
100
AcDbEntity
  8
M0
 62
     4
100
AcDbLine
 10
278.450524
 20
423.567579
 11
278.450524
 21
374.567624
  0
LINE
  5
284
100
AcDbEntity
  8
M0
  6
DASHDOT
 62
     4
100
AcDbLine
 10
270.250512
 20
399.067594
 11
325.450447
 21
399.067594
  0
LINE
  5
285
100
AcDbEntity
  8
M0
 62
     4
100
AcDbLine
 10
283.450554
 20
370.567624
 11
302.950463
 21
370.567624
  0
LINE
  5
286
100
AcDbEntity
  8
M0
 62
     4
100
AcDbLine
 10
283.450539
 20
369.567624
 11
307.367668
 21
369.567624
  0
LINE
  5
287
100
AcDbEntity
  8
M0
 62
     4
100
AcDbLine
 10
283.450539
 20
427.567594
 11
302.950463
 21
427.567594
  0
LINE
  5
288
100
AcDbEntity
  8
M0
 62
     4
100
AcDbLine
 10
283.450539
 20
428.567579
 11
307.367684
 21
428.567579
  0
ARC
  5
289
100
AcDbEntity
  8
M0
 62
     4
100
AcDbCircle
 10
283.450554
 20
375.567624
 40
5.0
100
AcDbArc
 50
179.999825
 51
269.999825
  0
ARC
  5
28A
100
AcDbEntity
  8
M0
 62
     4
100
AcDbCircle
 10
283.450539
 20
374.567624
 40
5.0
100
AcDbArc
 50
179.999825
 51
269.999825
  0
ARC
  5
28B
100
AcDbEntity
  8
M0
 62
     4
100
AcDbCircle
 10
283.450539
 20
422.567594
 40
5.0
100
AcDbArc
 50
90.0
 51
180.0
  0
ARC
  5
28C
100
AcDbEntity
  8
M0
 62
     4
100
AcDbCircle
 10
283.450539
 20
423.567579
 40
5.0
100
AcDbArc
 50
90.0
 51
180.0
  0
ARC
  5
28D
100
AcDbEntity
  8
M0
 62
     4
100
AcDbCircle
 10
311.950264
 20
371.567594
 40
5.0
100
AcDbArc
 50
179.999825
 51
269.999825
  0
ARC
  5
28E
100
AcDbEntity
  8
M0
 62
     4
100
AcDbCircle
 10
311.950264
 20
426.567579
 40
5.0
100
AcDbArc
 50
90.0
 51
180.0
  0
LINE
  5
28F
100
AcDbEntity
  8
M0
 62
     4
100
AcDbLine
 10
305.950463
 20
421.567594
 11
326.450463
 21
421.567594
  0
LINE
  5
290
100
AcDbEntity
  8
M0
 62
     4
100
AcDbLine
 10
305.950463
 20
376.567594
 11
326.450463
 21
376.567594
  0
LINE
  5
291
100
AcDbEntity
  8
M0
 62
     4
100
AcDbLine
 10
306.950524
 20
426.567563
 11
306.950524
 21
421.567594
  0
LINE
  5
292
100
AcDbEntity
  8
M0
 62
     4
100
AcDbLine
 10
304.950463
 20
372.567609
 11
304.950463
 21
375.567594
  0
ARC
  5
293
100
AcDbEntity
  8
M0
 62
     4
100
AcDbCircle
 10
302.950463
 20
372.567624
 40
2.0
100
AcDbArc
 50
269.999563
 51
360.0
  0
ARC
  5
294
100
AcDbEntity
  8
M0
 62
     4
100
AcDbCircle
 10
302.950463
 20
425.567594
 40
2.0
100
AcDbArc
 50
0.0
 51
90.0
  0
LINE
  5
295
100
AcDbEntity
  8
M0
 62
     4
100
AcDbLine
 10
306.950524
 20
376.567594
 11
306.950524
 21
371.567594
  0
LINE
  5
296
100
AcDbEntity
  8
M0
 62
     4
100
AcDbLine
 10
304.950463
 20
422.567594
 11
304.950463
 21
425.567594
  0
ARC
  5
297
100
AcDbEntity
  8
M0
 62
     4
100
AcDbCircle
 10
305.950463
 20
422.567594
 40
1.0
100
AcDbArc
 50
180.0
 51
269.999126
  0
ARC
  5
298
100
AcDbEntity
  8
M0
 62
     4
100
AcDbCircle
 10
305.950463
 20
375.567594
 40
1.0
100
AcDbArc
 50
90.0
 51
179.999126
  0
ARC
  5
299
100
AcDbEntity
  8
M0
 62
     4
100
AcDbCircle
 10
304.950264
 20
371.567624
 40
2.0
100
AcDbArc
 50
269.999563
 51
360.0
  0
ARC
  5
29A
100
AcDbEntity
  8
M0
 62
     4
100
AcDbCircle
 10
304.950264
 20
426.567579
 40
2.0
100
AcDbArc
 50
0.0
 51
90.0
  0
LINE
  5
29B
100
AcDbEntity
  8
M0
 62
     4
100
AcDbLine
 10
326.450463
 20
425.067594
 11
326.450463
 21
373.067594
  0
LINE
  5
29C
100
AcDbEntity
  8
M0
 62
     4
100
AcDbLine
 10
325.450463
 20
421.567594
 11
325.450463
 21
431.567594
  0
LINE
  5
29D
100
AcDbEntity
  8
M0
 62
     7
100
AcDbLine
 10
155.511561
 20
427.067594
 11
155.511317
 21
430.567579
  0
LINE
  5
29E
100
AcDbEntity
  8
M0
 62
     7
100
AcDbLine
 10
155.511317
 20
430.567579
 11
154.511561
 21
431.567579
  0
LINE
  5
29F
100
AcDbEntity
  8
M0
 62
     7
100
AcDbLine
 10
179.11155
 20
366.567594
 11
187.61155
 21
366.567594
  0
LINE
  5
2A0
100
AcDbEntity
  8
M0
 62
     7
100
AcDbLine
 10
187.61155
 20
366.567594
 11
187.61155
 21
374.567594
  0
LINE
  5
2A1
100
AcDbEntity
  8
M0
 62
     7
100
AcDbLine
 10
154.511561
 20
431.567579
 11
147.011574
 21
431.567563
  0
LINE
  5
2A2
100
AcDbEntity
  8
M0
 62
     7
100
AcDbLine
 10
145.011574
 20
429.567563
 11
145.011574
 21
423.567579
  0
ARC
  5
2A3
100
AcDbEntity
  8
M0
 62
     7
100
AcDbCircle
 10
147.011574
 20
429.567563
 40
2.0
100
AcDbArc
 50
89.999563
 51
180.0
  0
LINE
  5
2A4
100
AcDbEntity
  8
M0
 62
     7
100
AcDbLine
 10
173.111534
 20
370.567594
 11
173.111534
 21
372.567594
  0
LINE
  5
2A5
100
AcDbEntity
  8
M0
 62
     7
100
AcDbLine
 10
174.611534
 20
368.567594
 11
174.611534
 21
372.567594
  0
LINE
  5
2A6
100
AcDbEntity
  8
M0
 62
     7
100
AcDbLine
 10
178.11155
 20
367.56735
 11
178.11155
 21
374.56735
  0
LINE
  5
2A7
100
AcDbEntity
  8
M0
 62
     7
100
AcDbLine
 10
178.11155
 20
367.567579
 11
179.11155
 21
366.567594
  0
LINE
  5
2A8
100
AcDbEntity
  8
M0
 62
     7
100
AcDbLine
 10
175.111534
 20
368.567594
 11
175.111534
 21
372.567594
  0
LINE
  5
2A9
100
AcDbEntity
  8
M0
 62
     7
100
AcDbLine
 10
171.827523
 20
368.567594
 11
174.61155
 21
368.567594
  0
LINE
  5
2AA
100
AcDbEntity
  8
M0
 62
     7
100
AcDbLine
 10
171.827523
 20
370.567594
 11
173.11155
 21
370.567594
  0
LINE
  5
2AB
100
AcDbEntity
  8
M0
 62
     7
100
AcDbLine
 10
177.611611
 20
370.567594
 11
178.11155
 21
370.567594
  0
LINE
  5
2AC
100
AcDbEntity
  8
M0
 62
     7
100
AcDbLine
 10
175.11155
 20
368.567594
 11
178.11155
 21
368.567594
  0
LINE
  5
2AD
100
AcDbEntity
  8
M0
 62
     7
100
AcDbLine
 10
157.611611
 20
372.567594
 11
165.511757
 21
372.567594
  0
LINE
  5
2AE
100
AcDbEntity
  8
M0
 62
     7
100
AcDbLine
 10
167.611611
 20
372.567594
 11
175.511757
 21
372.567594
  0
LINE
  5
2AF
100
AcDbEntity
  8
M0
 62
     7
100
AcDbLine
 10
157.611367
 20
425.567594
 11
165.511513
 21
425.567594
  0
LINE
  5
2B0
100
AcDbEntity
  8
M0
 62
     7
100
AcDbLine
 10
167.611122
 20
425.567594
 11
175.511269
 21
425.567594
  0
LINE
  5
2B1
100
AcDbEntity
  8
M0
 62
     7
100
AcDbLine
 10
151.510537
 20
427.977506
 11
151.510537
 21
428.27194
  0
LINE
  5
2B2
100
AcDbEntity
  8
M0
 62
     7
100
AcDbLine
 10
147.710915
 20
428.035611
 11
147.710976
 21
428.27194
  0
ARC
  5
2B3
100
AcDbEntity
  8
M0
 62
     7
100
AcDbCircle
 10
149.611367
 20
427.06735
 40
2.25
100
AcDbArc
 50
32.417144
 51
147.648103
  0
ARC
  5
2B4
100
AcDbEntity
  8
M0
 62
     7
100
AcDbCircle
 10
181.061318
 20
373.06735
 40
2.25
100
AcDbArc
 50
138.184064
 51
192.609358
  0
LINE
  5
2B5
100
AcDbEntity
  8
M0
 62
     7
100
AcDbLine
 10
178.865517
 20
372.576139
 11
180.569863
 21
370.871549
  0
LINE
  5
2B6
100
AcDbEntity
  8
M0
 62
     7
100
AcDbLine
 10
181.4058
 20
370.167447
 11
181.606392
 21
370.167447
  0
ARC
  5
2B7
100
AcDbEntity
  8
M0
 62
     7
100
AcDbCircle
 10
181.061318
 20
373.06735
 40
2.25
100
AcDbArc
 50
257.382805
 51
261.369552
  0
ARC
  5
2B8
100
AcDbEntity
  8
M0
 62
     7
100
AcDbCircle
 10
182.611122
 20
372.06735
 40
2.25
100
AcDbArc
 50
212.975871
 51
237.61363
  0
CIRCLE
  5
2B9
100
AcDbEntity
  8
M0
 62
     6
100
AcDbCircle
 10
141.561562
 20
419.067594
 40
3.0
  0
LINE
  5
2BA
100
AcDbEntity
  8
M0
 62
     6
100
AcDbLine
 10
138.602806
 20
423.014936
 11
137.786553
 21
420.367643
  0
LINE
  5
2BB
100
AcDbEntity
  8
M0
 62
     6
100
AcDbLine
 10
138.602806
 20
415.120344
 11
137.786553
 21
417.767667
  0
LINE
  5
2BC
100
AcDbEntity
  8
M0
 62
     6
100
AcDbLine
 10
144.520287
 20
423.014951
 11
145.336556
 21
420.367643
  0
LINE
  5
2BD
100
AcDbEntity
  8
M0
 62
     6
100
AcDbLine
 10
144.520287
 20
415.120328
 11
145.336556
 21
417.767667
  0
LINE
  5
2BE
100
AcDbEntity
  8
M0
 62
     6
100
AcDbLine
 10
139.080605
 20
414.767667
 11
144.042473
 21
414.767667
  0
LINE
  5
2BF
100
AcDbEntity
  8
M0
 62
     6
100
AcDbLine
 10
145.336556
 20
417.767667
 11
145.336556
 21
420.367643
  0
LINE
  5
2C0
100
AcDbEntity
  8
M0
 62
     6
100
AcDbLine
 10
144.042473
 20
423.367643
 11
139.080605
 21
423.367627
  0
LINE
  5
2C1
100
AcDbEntity
  8
M0
 62
     6
100
AcDbLine
 10
137.786553
 20
420.367643
 11
137.786553
 21
417.767667
  0
LINE
  5
2C2
100
AcDbEntity
  8
M0
  6
DASHDOT
 62
     6
100
AcDbLine
 10
135.286553
 20
419.067594
 11
147.836556
 21
419.067594
  0
LINE
  5
2C3
100
AcDbEntity
  8
M0
  6
DASHDOT
 62
     6
100
AcDbLine
 10
141.561562
 20
412.267682
 11
141.561562
 21
425.867643
  0
LINE
  5
2C4
100
AcDbEntity
  8
M0
 62
     6
100
AcDbLine
 10
143.152336
 20
417.476774
 11
139.970528
 21
420.658536
  0
LINE
  5
2C5
100
AcDbEntity
  8
M0
 62
     6
100
AcDbLine
 10
141.914971
 20
420.481778
 11
140.147301
 21
418.714078
  0
LINE
  5
2C6
100
AcDbEntity
  8
M0
 62
     6
100
AcDbLine
 10
142.975579
 20
419.42111
 11
141.207955
 21
417.653531
  0
ARC
  5
2C7
100
AcDbEntity
  8
M0
 62
     6
100
AcDbCircle
 10
139.080605
 20
422.867627
 40
0.5
100
AcDbArc
 50
90.0
 51
162.867254
  0
ARC
  5
2C8
100
AcDbEntity
  8
M0
 62
     6
100
AcDbCircle
 10
139.080605
 20
415.267667
 40
0.5
100
AcDbArc
 50
197.137551
 51
270.0
  0
ARC
  5
2C9
100
AcDbEntity
  8
M0
 62
     6
100
AcDbCircle
 10
144.042473
 20
415.267667
 40
0.5
100
AcDbArc
 50
270.0
 51
342.859508
  0
ARC
  5
2CA
100
AcDbEntity
  8
M0
 62
     6
100
AcDbCircle
 10
144.042473
 20
422.867627
 40
0.5
100
AcDbArc
 50
17.134755
 51
90.0
  0
LINE
  5
2CB
100
AcDbEntity
  8
M0
  6
DASHDOT
 62
     6
100
AcDbLine
 10
161.561501
 20
412.267667
 11
161.561531
 21
425.867627
  0
CIRCLE
  5
2CC
100
AcDbEntity
  8
M0
 62
     6
100
AcDbCircle
 10
191.561562
 20
379.067594
 40
3.0
  0
LINE
  5
2CD
100
AcDbEntity
  8
M0
 62
     6
100
AcDbLine
 10
188.602806
 20
383.014936
 11
187.786553
 21
380.367643
  0
LINE
  5
2CE
100
AcDbEntity
  8
M0
 62
     6
100
AcDbLine
 10
188.602806
 20
375.120344
 11
187.786553
 21
377.767667
  0
LINE
  5
2CF
100
AcDbEntity
  8
M0
 62
     6
100
AcDbLine
 10
194.520287
 20
383.014951
 11
195.336556
 21
380.367643
  0
LINE
  5
2D0
100
AcDbEntity
  8
M0
 62
     6
100
AcDbLine
 10
194.520287
 20
375.120328
 11
195.336556
 21
377.767667
  0
LINE
  5
2D1
100
AcDbEntity
  8
M0
 62
     6
100
AcDbLine
 10
189.080605
 20
374.767667
 11
194.042473
 21
374.767667
  0
LINE
  5
2D2
100
AcDbEntity
  8
M0
 62
     6
100
AcDbLine
 10
195.336556
 20
377.767667
 11
195.336556
 21
380.367643
  0
LINE
  5
2D3
100
AcDbEntity
  8
M0
 62
     6
100
AcDbLine
 10
194.042473
 20
383.367643
 11
189.080605
 21
383.367627
  0
LINE
  5
2D4
100
AcDbEntity
  8
M0
 62
     6
100
AcDbLine
 10
187.786553
 20
380.367643
 11
187.786553
 21
377.767667
  0
LINE
  5
2D5
100
AcDbEntity
  8
M0
  6
DASHDOT
 62
     6
100
AcDbLine
 10
185.286553
 20
379.067594
 11
197.836556
 21
379.067594
  0
LINE
  5
2D6
100
AcDbEntity
  8
M0
  6
DASHDOT
 62
     6
100
AcDbLine
 10
191.561562
 20
372.267682
 11
191.561562
 21
385.867643
  0
LINE
  5
2D7
100
AcDbEntity
  8
M0
 62
     6
100
AcDbLine
 10
193.152336
 20
377.476774
 11
189.970528
 21
380.658536
  0
LINE
  5
2D8
100
AcDbEntity
  8
M0
 62
     6
100
AcDbLine
 10
191.914971
 20
380.481778
 11
190.147301
 21
378.714078
  0
LINE
  5
2D9
100
AcDbEntity
  8
M0
 62
     6
100
AcDbLine
 10
192.975579
 20
379.42111
 11
191.207955
 21
377.653531
  0
ARC
  5
2DA
100
AcDbEntity
  8
M0
 62
     6
100
AcDbCircle
 10
189.080605
 20
382.867627
 40
0.5
100
AcDbArc
 50
90.0
 51
162.86739
  0
ARC
  5
2DB
100
AcDbEntity
  8
M0
 62
     6
100
AcDbCircle
 10
189.080605
 20
375.267667
 40
0.5
100
AcDbArc
 50
197.137519
 51
270.0
  0
ARC
  5
2DC
100
AcDbEntity
  8
M0
 62
     6
100
AcDbCircle
 10
194.042473
 20
375.267667
 40
0.5
100
AcDbArc
 50
270.0
 51
342.859476
  0
ARC
  5
2DD
100
AcDbEntity
  8
M0
 62
     6
100
AcDbCircle
 10
194.042473
 20
382.867627
 40
0.5
100
AcDbArc
 50
17.134787
 51
90.0
  0
LINE
  5
2DE
100
AcDbEntity
  8
M0
  6
DASHDOT
 62
     6
100
AcDbLine
 10
171.561531
 20
372.267682
 11
171.561531
 21
385.867643
  0
CIRCLE
  5
2DF
100
AcDbEntity
  8
M0
 62
     6
100
AcDbCircle
 10
87.563012
 20
371.068082
 40
3.0
  0
LINE
  5
2E0
100
AcDbEntity
  8
M0
 62
     6
100
AcDbLine
 10
84.466286
 20
374.567991
 11
83.788002
 21
372.368131
  0
LINE
  5
2E1
100
AcDbEntity
  8
M0
 62
     6
100
AcDbLine
 10
84.604256
 20
367.120832
 11
83.788002
 21
369.768155
  0
LINE
  5
2E2
100
AcDbEntity
  8
M0
 62
     6
100
AcDbLine
 10
90.659691
 20
374.567991
 11
91.338005
 21
372.368131
  0
LINE
  5
2E3
100
AcDbEntity
  8
M0
 62
     6
100
AcDbLine
 10
90.521736
 20
367.120817
 11
91.338005
 21
369.768155
  0
LINE
  5
2E4
100
AcDbEntity
  8
M0
 62
     6
100
AcDbLine
 10
85.082054
 20
366.768155
 11
90.043923
 21
366.768155
  0
LINE
  5
2E5
100
AcDbEntity
  8
M0
 62
     6
100
AcDbLine
 10
91.338005
 20
369.768155
 11
91.338005
 21
372.368131
  0
LINE
  5
2E6
100
AcDbEntity
  8
M0
 62
     6
100
AcDbLine
 10
83.788002
 20
372.368131
 11
83.788002
 21
369.768155
  0
LINE
  5
2E7
100
AcDbEntity
  8
M0
  6
DASHDOT
 62
     6
100
AcDbLine
 10
81.288002
 20
371.068082
 11
93.838005
 21
371.068082
  0
LINE
  5
2E8
100
AcDbEntity
  8
M0
  6
DASHDOT
 62
     6
100
AcDbLine
 10
87.563012
 20
364.268171
 11
87.563012
 21
377.868131
  0
LINE
  5
2E9
100
AcDbEntity
  8
M0
 62
     6
100
AcDbLine
 10
89.153786
 20
369.477262
 11
85.971978
 21
372.659025
  0
LINE
  5
2EA
100
AcDbEntity
  8
M0
 62
     6
100
AcDbLine
 10
87.91642
 20
372.482267
 11
86.148751
 21
370.714567
  0
LINE
  5
2EB
100
AcDbEntity
  8
M0
 62
     6
100
AcDbLine
 10
88.977028
 20
371.421598
 11
87.209404
 21
369.65402
  0
ARC
  5
2EC
100
AcDbEntity
  8
M0
 62
     6
100
AcDbCircle
 10
85.082054
 20
367.268155
 40
0.5
100
AcDbArc
 50
197.137519
 51
270.0
  0
ARC
  5
2ED
100
AcDbEntity
  8
M0
 62
     6
100
AcDbCircle
 10
90.043923
 20
367.268155
 40
0.5
100
AcDbArc
 50
270.0
 51
342.859476
  0
CIRCLE
  5
2EE
100
AcDbEntity
  8
M0
 62
     6
100
AcDbCircle
 10
77.563012
 20
379.068082
 40
3.0
  0
LINE
  5
2EF
100
AcDbEntity
  8
M0
 62
     6
100
AcDbLine
 10
74.604256
 20
383.015424
 11
73.788002
 21
380.368131
  0
LINE
  5
2F0
100
AcDbEntity
  8
M0
 62
     6
100
AcDbLine
 10
74.604256
 20
375.120832
 11
73.788002
 21
377.768155
  0
LINE
  5
2F1
100
AcDbEntity
  8
M0
 62
     6
100
AcDbLine
 10
80.521736
 20
383.015439
 11
81.338005
 21
380.368131
  0
LINE
  5
2F2
100
AcDbEntity
  8
M0
 62
     6
100
AcDbLine
 10
80.521736
 20
375.120817
 11
81.338005
 21
377.768155
  0
LINE
  5
2F3
100
AcDbEntity
  8
M0
 62
     6
100
AcDbLine
 10
75.082054
 20
374.768155
 11
80.043923
 21
374.768155
  0
LINE
  5
2F4
100
AcDbEntity
  8
M0
 62
     6
100
AcDbLine
 10
81.338005
 20
377.768155
 11
81.338005
 21
380.368131
  0
LINE
  5
2F5
100
AcDbEntity
  8
M0
 62
     6
100
AcDbLine
 10
80.043923
 20
383.368131
 11
75.082054
 21
383.368116
  0
LINE
  5
2F6
100
AcDbEntity
  8
M0
 62
     6
100
AcDbLine
 10
73.788002
 20
380.368131
 11
73.788002
 21
377.768155
  0
LINE
  5
2F7
100
AcDbEntity
  8
M0
  6
DASHDOT
 62
     6
100
AcDbLine
 10
71.288002
 20
379.068082
 11
83.838005
 21
379.068082
  0
LINE
  5
2F8
100
AcDbEntity
  8
M0
  6
DASHDOT
 62
     6
100
AcDbLine
 10
77.563012
 20
372.268171
 11
77.563012
 21
385.868131
  0
LINE
  5
2F9
100
AcDbEntity
  8
M0
 62
     6
100
AcDbLine
 10
79.153786
 20
377.477262
 11
75.971978
 21
380.659025
  0
LINE
  5
2FA
100
AcDbEntity
  8
M0
 62
     6
100
AcDbLine
 10
77.91642
 20
380.482267
 11
76.148751
 21
378.714567
  0
LINE
  5
2FB
100
AcDbEntity
  8
M0
 62
     6
100
AcDbLine
 10
78.977028
 20
379.421598
 11
77.209404
 21
377.65402
  0
ARC
  5
2FC
100
AcDbEntity
  8
M0
 62
     6
100
AcDbCircle
 10
75.082054
 20
382.868116
 40
0.5
100
AcDbArc
 50
90.0
 51
162.867254
  0
ARC
  5
2FD
100
AcDbEntity
  8
M0
 62
     6
100
AcDbCircle
 10
75.082054
 20
375.268155
 40
0.5
100
AcDbArc
 50
197.137551
 51
270.0
  0
ARC
  5
2FE
100
AcDbEntity
  8
M0
 62
     6
100
AcDbCircle
 10
80.043923
 20
375.268155
 40
0.5
100
AcDbArc
 50
270.0
 51
342.859508
  0
ARC
  5
2FF
100
AcDbEntity
  8
M0
 62
     6
100
AcDbCircle
 10
80.043923
 20
382.868116
 40
0.5
100
AcDbArc
 50
17.134755
 51
90.0
  0
LINE
  5
300
100
AcDbEntity
  8
M0
  6
DASHDOT
 62
     6
100
AcDbLine
 10
97.562981
 20
372.268155
 11
97.563012
 21
385.868116
  0
CIRCLE
  5
301
100
AcDbEntity
  8
M0
 62
     6
100
AcDbCircle
 10
87.563012
 20
379.068082
 40
3.0
  0
LINE
  5
302
100
AcDbEntity
  8
M0
 62
     6
100
AcDbLine
 10
84.604256
 20
383.015424
 11
83.788002
 21
380.368131
  0
LINE
  5
303
100
AcDbEntity
  8
M0
 62
     6
100
AcDbLine
 10
84.604256
 20
375.120832
 11
83.788002
 21
377.768155
  0
LINE
  5
304
100
AcDbEntity
  8
M0
 62
     6
100
AcDbLine
 10
90.521736
 20
383.015439
 11
91.338005
 21
380.368131
  0
LINE
  5
305
100
AcDbEntity
  8
M0
 62
     6
100
AcDbLine
 10
90.521736
 20
375.120817
 11
91.338005
 21
377.768155
  0
LINE
  5
306
100
AcDbEntity
  8
M0
 62
     6
100
AcDbLine
 10
85.082054
 20
374.768155
 11
90.043923
 21
374.768155
  0
LINE
  5
307
100
AcDbEntity
  8
M0
 62
     6
100
AcDbLine
 10
91.338005
 20
377.768155
 11
91.338005
 21
380.368131
  0
LINE
  5
308
100
AcDbEntity
  8
M0
 62
     6
100
AcDbLine
 10
90.043923
 20
383.368131
 11
85.082054
 21
383.368116
  0
LINE
  5
309
100
AcDbEntity
  8
M0
 62
     6
100
AcDbLine
 10
83.788002
 20
380.368131
 11
83.788002
 21
377.768155
  0
LINE
  5
30A
100
AcDbEntity
  8
M0
  6
DASHDOT
 62
     6
100
AcDbLine
 10
81.288002
 20
379.068082
 11
93.838005
 21
379.068082
  0
LINE
  5
30B
100
AcDbEntity
  8
M0
  6
DASHDOT
 62
     6
100
AcDbLine
 10
87.563012
 20
372.268171
 11
87.563012
 21
385.868131
  0
LINE
  5
30C
100
AcDbEntity
  8
M0
 62
     6
100
AcDbLine
 10
89.153786
 20
377.477262
 11
85.971978
 21
380.659025
  0
LINE
  5
30D
100
AcDbEntity
  8
M0
 62
     6
100
AcDbLine
 10
87.91642
 20
380.482267
 11
86.148751
 21
378.714567
  0
LINE
  5
30E
100
AcDbEntity
  8
M0
 62
     6
100
AcDbLine
 10
88.977028
 20
379.421598
 11
87.209404
 21
377.65402
  0
ARC
  5
30F
100
AcDbEntity
  8
M0
 62
     6
100
AcDbCircle
 10
85.082054
 20
382.868116
 40
0.5
100
AcDbArc
 50
90.0
 51
162.867254
  0
ARC
  5
310
100
AcDbEntity
  8
M0
 62
     6
100
AcDbCircle
 10
85.082054
 20
375.268155
 40
0.5
100
AcDbArc
 50
197.137551
 51
270.0
  0
ARC
  5
311
100
AcDbEntity
  8
M0
 62
     6
100
AcDbCircle
 10
90.043923
 20
375.268155
 40
0.5
100
AcDbArc
 50
270.0
 51
342.859508
  0
ARC
  5
312
100
AcDbEntity
  8
M0
 62
     6
100
AcDbCircle
 10
90.043923
 20
382.868116
 40
0.5
100
AcDbArc
 50
17.134755
 51
90.0
  0
CIRCLE
  5
313
100
AcDbEntity
  8
M0
 62
     6
100
AcDbCircle
 10
107.563012
 20
379.068082
 40
3.0
  0
LINE
  5
314
100
AcDbEntity
  8
M0
 62
     6
100
AcDbLine
 10
104.604256
 20
383.015424
 11
103.788002
 21
380.368131
  0
LINE
  5
315
100
AcDbEntity
  8
M0
 62
     6
100
AcDbLine
 10
104.604256
 20
375.120832
 11
103.788002
 21
377.768155
  0
LINE
  5
316
100
AcDbEntity
  8
M0
 62
     6
100
AcDbLine
 10
110.521736
 20
383.015439
 11
111.338005
 21
380.368131
  0
LINE
  5
317
100
AcDbEntity
  8
M0
 62
     6
100
AcDbLine
 10
110.521736
 20
375.120817
 11
111.338005
 21
377.768155
  0
LINE
  5
318
100
AcDbEntity
  8
M0
 62
     6
100
AcDbLine
 10
105.082054
 20
374.768155
 11
110.043923
 21
374.768155
  0
LINE
  5
319
100
AcDbEntity
  8
M0
 62
     6
100
AcDbLine
 10
111.338005
 20
377.768155
 11
111.338005
 21
380.368131
  0
LINE
  5
31A
100
AcDbEntity
  8
M0
 62
     6
100
AcDbLine
 10
110.043923
 20
383.368131
 11
105.082054
 21
383.368116
  0
LINE
  5
31B
100
AcDbEntity
  8
M0
 62
     6
100
AcDbLine
 10
103.788002
 20
380.368131
 11
103.788002
 21
377.768155
  0
LINE
  5
31C
100
AcDbEntity
  8
M0
  6
DASHDOT
 62
     6
100
AcDbLine
 10
91.288002
 20
379.068082
 11
103.838005
 21
379.068082
  0
LINE
  5
31D
100
AcDbEntity
  8
M0
 62
     6
100
AcDbLine
 10
109.153786
 20
377.477262
 11
105.971978
 21
380.659025
  0
LINE
  5
31E
100
AcDbEntity
  8
M0
 62
     6
100
AcDbLine
 10
107.91642
 20
380.482267
 11
106.148751
 21
378.714567
  0
LINE
  5
31F
100
AcDbEntity
  8
M0
 62
     6
100
AcDbLine
 10
108.977028
 20
379.421598
 11
107.209404
 21
377.65402
  0
ARC
  5
320
100
AcDbEntity
  8
M0
 62
     6
100
AcDbCircle
 10
105.082054
 20
382.868116
 40
0.5
100
AcDbArc
 50
90.0
 51
162.86739
  0
ARC
  5
321
100
AcDbEntity
  8
M0
 62
     6
100
AcDbCircle
 10
105.082054
 20
375.268155
 40
0.5
100
AcDbArc
 50
197.137519
 51
270.0
  0
ARC
  5
322
100
AcDbEntity
  8
M0
 62
     6
100
AcDbCircle
 10
110.043923
 20
375.268155
 40
0.5
100
AcDbArc
 50
270.0
 51
342.859476
  0
ARC
  5
323
100
AcDbEntity
  8
M0
 62
     6
100
AcDbCircle
 10
110.043923
 20
382.868116
 40
0.5
100
AcDbArc
 50
17.134787
 51
90.0
  0
CIRCLE
  5
324
100
AcDbEntity
  8
M0
 62
     6
100
AcDbCircle
 10
117.563012
 20
379.068082
 40
3.0
  0
LINE
  5
325
100
AcDbEntity
  8
M0
 62
     6
100
AcDbLine
 10
114.604256
 20
383.015424
 11
113.788002
 21
380.368131
  0
LINE
  5
326
100
AcDbEntity
  8
M0
 62
     6
100
AcDbLine
 10
114.604256
 20
375.120832
 11
113.788002
 21
377.768155
  0
LINE
  5
327
100
AcDbEntity
  8
M0
 62
     6
100
AcDbLine
 10
120.521736
 20
383.015439
 11
121.338005
 21
380.368131
  0
LINE
  5
328
100
AcDbEntity
  8
M0
 62
     6
100
AcDbLine
 10
120.521736
 20
375.120817
 11
121.338005
 21
377.768155
  0
LINE
  5
329
100
AcDbEntity
  8
M0
 62
     6
100
AcDbLine
 10
115.082054
 20
374.768155
 11
120.043923
 21
374.768155
  0
LINE
  5
32A
100
AcDbEntity
  8
M0
 62
     6
100
AcDbLine
 10
121.338005
 20
377.768155
 11
121.338005
 21
380.368131
  0
LINE
  5
32B
100
AcDbEntity
  8
M0
 62
     6
100
AcDbLine
 10
120.043923
 20
383.368131
 11
115.082054
 21
383.368116
  0
LINE
  5
32C
100
AcDbEntity
  8
M0
 62
     6
100
AcDbLine
 10
113.788002
 20
380.368131
 11
113.788002
 21
377.768155
  0
LINE
  5
32D
100
AcDbEntity
  8
M0
  6
DASHDOT
 62
     6
100
AcDbLine
 10
111.288002
 20
379.068082
 11
123.838005
 21
379.068082
  0
LINE
  5
32E
100
AcDbEntity
  8
M0
  6
DASHDOT
 62
     6
100
AcDbLine
 10
117.563012
 20
372.268171
 11
117.563012
 21
385.868131
  0
LINE
  5
32F
100
AcDbEntity
  8
M0
 62
     6
100
AcDbLine
 10
119.153786
 20
377.477262
 11
115.971978
 21
380.659025
  0
LINE
  5
330
100
AcDbEntity
  8
M0
 62
     6
100
AcDbLine
 10
117.91642
 20
380.482267
 11
116.148751
 21
378.714567
  0
LINE
  5
331
100
AcDbEntity
  8
M0
 62
     6
100
AcDbLine
 10
118.977028
 20
379.421598
 11
117.209404
 21
377.65402
  0
ARC
  5
332
100
AcDbEntity
  8
M0
 62
     6
100
AcDbCircle
 10
115.082054
 20
382.868116
 40
0.5
100
AcDbArc
 50
90.0
 51
162.86739
  0
ARC
  5
333
100
AcDbEntity
  8
M0
 62
     6
100
AcDbCircle
 10
115.082054
 20
375.268155
 40
0.5
100
AcDbArc
 50
197.137519
 51
270.0
  0
ARC
  5
334
100
AcDbEntity
  8
M0
 62
     6
100
AcDbCircle
 10
120.043923
 20
375.268155
 40
0.5
100
AcDbArc
 50
270.0
 51
342.859476
  0
ARC
  5
335
100
AcDbEntity
  8
M0
 62
     6
100
AcDbCircle
 10
120.043923
 20
382.868116
 40
0.5
100
AcDbArc
 50
17.134787
 51
90.0
  0
CIRCLE
  5
336
100
AcDbEntity
  8
M0
 62
     6
100
AcDbCircle
 10
87.563012
 20
419.067838
 40
3.0
  0
LINE
  5
337
100
AcDbEntity
  8
M0
 62
     6
100
AcDbLine
 10
84.604256
 20
423.01518
 11
83.788002
 21
420.367887
  0
LINE
  5
338
100
AcDbEntity
  8
M0
 62
     6
100
AcDbLine
 10
84.604256
 20
415.120588
 11
83.788002
 21
417.767911
  0
LINE
  5
339
100
AcDbEntity
  8
M0
 62
     6
100
AcDbLine
 10
90.521736
 20
423.015195
 11
91.338005
 21
420.367887
  0
LINE
  5
33A
100
AcDbEntity
  8
M0
 62
     6
100
AcDbLine
 10
90.521736
 20
415.120572
 11
91.338005
 21
417.767911
  0
LINE
  5
33B
100
AcDbEntity
  8
M0
 62
     6
100
AcDbLine
 10
85.082054
 20
414.767911
 11
90.043923
 21
414.767911
  0
LINE
  5
33C
100
AcDbEntity
  8
M0
 62
     6
100
AcDbLine
 10
91.338005
 20
417.767911
 11
91.338005
 21
420.367887
  0
LINE
  5
33D
100
AcDbEntity
  8
M0
 62
     6
100
AcDbLine
 10
90.043923
 20
423.367887
 11
85.082054
 21
423.367872
  0
LINE
  5
33E
100
AcDbEntity
  8
M0
 62
     6
100
AcDbLine
 10
83.788002
 20
420.367887
 11
83.788002
 21
417.767911
  0
LINE
  5
33F
100
AcDbEntity
  8
M0
  6
DASHDOT
 62
     6
100
AcDbLine
 10
81.288002
 20
419.067838
 11
93.838005
 21
419.067838
  0
LINE
  5
340
100
AcDbEntity
  8
M0
  6
DASHDOT
 62
     6
100
AcDbLine
 10
87.563012
 20
412.267927
 11
87.563012
 21
425.867887
  0
LINE
  5
341
100
AcDbEntity
  8
M0
 62
     6
100
AcDbLine
 10
89.153786
 20
417.477018
 11
85.971978
 21
420.65878
  0
LINE
  5
342
100
AcDbEntity
  8
M0
 62
     6
100
AcDbLine
 10
87.91642
 20
420.482023
 11
86.148751
 21
418.714322
  0
LINE
  5
343
100
AcDbEntity
  8
M0
 62
     6
100
AcDbLine
 10
88.977028
 20
419.421354
 11
87.209404
 21
417.653776
  0
ARC
  5
344
100
AcDbEntity
  8
M0
 62
     6
100
AcDbCircle
 10
85.082054
 20
422.867872
 40
0.5
100
AcDbArc
 50
90.0
 51
162.867254
  0
ARC
  5
345
100
AcDbEntity
  8
M0
 62
     6
100
AcDbCircle
 10
85.082054
 20
415.267911
 40
0.5
100
AcDbArc
 50
197.137551
 51
270.0
  0
ARC
  5
346
100
AcDbEntity
  8
M0
 62
     6
100
AcDbCircle
 10
90.043923
 20
415.267911
 40
0.5
100
AcDbArc
 50
270.0
 51
342.859508
  0
ARC
  5
347
100
AcDbEntity
  8
M0
 62
     6
100
AcDbCircle
 10
90.043923
 20
422.867872
 40
0.5
100
AcDbArc
 50
17.134755
 51
90.0
  0
CIRCLE
  5
348
100
AcDbEntity
  8
M0
 62
     6
100
AcDbCircle
 10
107.563012
 20
419.067838
 40
3.0
  0
LINE
  5
349
100
AcDbEntity
  8
M0
 62
     6
100
AcDbLine
 10
104.604256
 20
423.01518
 11
103.788002
 21
420.367887
  0
LINE
  5
34A
100
AcDbEntity
  8
M0
 62
     6
100
AcDbLine
 10
104.604256
 20
415.120588
 11
103.788002
 21
417.767911
  0
LINE
  5
34B
100
AcDbEntity
  8
M0
 62
     6
100
AcDbLine
 10
110.521736
 20
423.015195
 11
111.338005
 21
420.367887
  0
LINE
  5
34C
100
AcDbEntity
  8
M0
 62
     6
100
AcDbLine
 10
110.521736
 20
415.120572
 11
111.338005
 21
417.767911
  0
LINE
  5
34D
100
AcDbEntity
  8
M0
 62
     6
100
AcDbLine
 10
105.082054
 20
414.767911
 11
110.043923
 21
414.767911
  0
LINE
  5
34E
100
AcDbEntity
  8
M0
 62
     6
100
AcDbLine
 10
111.338005
 20
417.767911
 11
111.338005
 21
420.367887
  0
LINE
  5
34F
100
AcDbEntity
  8
M0
 62
     6
100
AcDbLine
 10
110.043923
 20
423.367887
 11
105.082054
 21
423.367872
  0
LINE
  5
350
100
AcDbEntity
  8
M0
 62
     6
100
AcDbLine
 10
103.788002
 20
420.367887
 11
103.788002
 21
417.767911
  0
LINE
  5
351
100
AcDbEntity
  8
M0
  6
DASHDOT
 62
     6
100
AcDbLine
 10
91.288002
 20
419.067838
 11
103.838005
 21
419.067838
  0
LINE
  5
352
100
AcDbEntity
  8
M0
 62
     6
100
AcDbLine
 10
109.153786
 20
417.477018
 11
105.971978
 21
420.65878
  0
LINE
  5
353
100
AcDbEntity
  8
M0
 62
     6
100
AcDbLine
 10
107.91642
 20
420.482023
 11
106.148751
 21
418.714322
  0
LINE
  5
354
100
AcDbEntity
  8
M0
 62
     6
100
AcDbLine
 10
108.977028
 20
419.421354
 11
107.209404
 21
417.653776
  0
ARC
  5
355
100
AcDbEntity
  8
M0
 62
     6
100
AcDbCircle
 10
105.082054
 20
422.867872
 40
0.5
100
AcDbArc
 50
90.0
 51
162.86739
  0
ARC
  5
356
100
AcDbEntity
  8
M0
 62
     6
100
AcDbCircle
 10
105.082054
 20
415.267911
 40
0.5
100
AcDbArc
 50
197.137519
 51
270.0
  0
ARC
  5
357
100
AcDbEntity
  8
M0
 62
     6
100
AcDbCircle
 10
110.043923
 20
415.267911
 40
0.5
100
AcDbArc
 50
270.0
 51
342.859476
  0
ARC
  5
358
100
AcDbEntity
  8
M0
 62
     6
100
AcDbCircle
 10
110.043923
 20
422.867872
 40
0.5
100
AcDbArc
 50
17.134787
 51
90.0
  0
LINE
  5
359
100
AcDbEntity
  8
M0
 62
     6
100
AcDbLine
 10
100.04403
 20
414.767911
 11
95.082161
 21
414.767911
  0
LINE
  5
35A
100
AcDbEntity
  8
M0
 62
     6
100
AcDbLine
 10
100.521828
 20
415.120588
 11
101.338082
 21
417.767911
  0
LINE
  5
35B
100
AcDbEntity
  8
M0
 62
     6
100
AcDbLine
 10
94.604348
 20
415.120572
 11
93.788079
 21
417.767911
  0
LINE
  5
35C
100
AcDbEntity
  8
M0
 62
     6
100
AcDbLine
 10
94.604348
 20
423.015195
 11
93.788079
 21
420.367887
  0
LINE
  5
35D
100
AcDbEntity
  8
M0
 62
     6
100
AcDbLine
 10
93.788079
 20
417.767911
 11
93.788079
 21
420.367887
  0
LINE
  5
35E
100
AcDbEntity
  8
M0
 62
     6
100
AcDbLine
 10
100.521828
 20
423.01518
 11
101.338082
 21
420.367887
  0
LINE
  5
35F
100
AcDbEntity
  8
M0
 62
     6
100
AcDbLine
 10
101.338082
 20
420.367887
 11
101.338082
 21
417.767911
  0
CIRCLE
  5
360
100
AcDbEntity
  8
M0
 62
     6
100
AcDbCircle
 10
97.563073
 20
419.067838
 40
3.0
  0
LINE
  5
361
100
AcDbEntity
  8
M0
 62
     6
100
AcDbLine
 10
95.972298
 20
417.477018
 11
99.154106
 21
420.65878
  0
LINE
  5
362
100
AcDbEntity
  8
M0
 62
     6
100
AcDbLine
 10
97.209664
 20
420.482023
 11
98.977333
 21
418.714322
  0
LINE
  5
363
100
AcDbEntity
  8
M0
 62
     6
100
AcDbLine
 10
96.149056
 20
419.421354
 11
97.91668
 21
417.653776
  0
ARC
  5
364
100
AcDbEntity
  8
M0
 62
     6
100
AcDbCircle
 10
100.04403
 20
415.267911
 40
0.5
100
AcDbArc
 50
270.0
 51
342.862377
  0
ARC
  5
365
100
AcDbEntity
  8
M0
 62
     6
100
AcDbCircle
 10
95.082161
 20
415.267911
 40
0.5
100
AcDbArc
 50
197.14201
 51
270.0
  0
LINE
  5
366
100
AcDbEntity
  8
M0
 62
     6
100
AcDbLine
 10
95.082161
 20
423.367887
 11
100.04403
 21
423.367872
  0
ARC
  5
367
100
AcDbEntity
  8
M0
 62
     6
100
AcDbCircle
 10
100.04403
 20
422.867872
 40
0.5
100
AcDbArc
 50
17.13261
 51
90.0
  0
ARC
  5
368
100
AcDbEntity
  8
M0
 62
     6
100
AcDbCircle
 10
95.082161
 20
422.867872
 40
0.5
100
AcDbArc
 50
90.0
 51
162.865076
  0
LINE
  5
369
100
AcDbEntity
  8
M0
 62
     6
100
AcDbLine
 10
94.604317
 20
375.120664
 11
93.788048
 21
377.767972
  0
LINE
  5
36A
100
AcDbEntity
  8
M0
 62
     6
100
AcDbLine
 10
100.521798
 20
375.120679
 11
101.338051
 21
377.767972
  0
CIRCLE
  5
36B
100
AcDbEntity
  8
M0
 62
     6
100
AcDbCircle
 10
97.563042
 20
379.068021
 40
3.0
  0
LINE
  5
36C
100
AcDbEntity
  8
M0
 62
     6
100
AcDbLine
 10
96.149025
 20
378.714506
 11
97.916649
 21
380.482084
  0
LINE
  5
36D
100
AcDbEntity
  8
M0
 62
     6
100
AcDbLine
 10
97.209633
 20
377.653837
 11
98.977303
 21
379.421537
  0
LINE
  5
36E
100
AcDbEntity
  8
M0
 62
     6
100
AcDbLine
 10
95.972267
 20
380.658841
 11
99.154076
 21
377.477079
  0
LINE
  5
36F
100
AcDbEntity
  8
M0
 62
     6
100
AcDbLine
 10
94.604332
 20
383.015287
 11
93.788048
 21
380.367948
  0
LINE
  5
370
100
AcDbEntity
  8
M0
 62
     6
100
AcDbLine
 10
100.044014
 20
383.367948
 11
95.082146
 21
383.367948
  0
ARC
  5
371
100
AcDbEntity
  8
M0
 62
     6
100
AcDbCircle
 10
95.082146
 20
382.867948
 40
0.5
100
AcDbArc
 50
90.0
 51
162.856423
  0
ARC
  5
372
100
AcDbEntity
  8
M0
 62
     6
100
AcDbCircle
 10
100.044014
 20
382.867948
 40
0.5
100
AcDbArc
 50
17.138146
 51
90.0
  0
LINE
  5
373
100
AcDbEntity
  8
M0
 62
     6
100
AcDbLine
 10
100.521813
 20
383.015271
 11
101.338051
 21
380.367948
  0
LINE
  5
374
100
AcDbEntity
  8
M0
 62
     6
100
AcDbLine
 10
93.788048
 20
380.367948
 11
93.788048
 21
377.767972
  0
LINE
  5
375
100
AcDbEntity
  8
M0
 62
     6
100
AcDbLine
 10
101.338051
 20
377.767972
 11
101.338051
 21
380.367948
  0
LINE
  5
376
100
AcDbEntity
  8
M0
 62
     6
100
AcDbLine
 10
95.082131
 20
374.767972
 11
100.043999
 21
374.767988
  0
ARC
  5
377
100
AcDbEntity
  8
M0
 62
     6
100
AcDbCircle
 10
95.082131
 20
375.267988
 40
0.5
100
AcDbArc
 50
197.134611
 51
270.0
  0
ARC
  5
378
100
AcDbEntity
  8
M0
 62
     6
100
AcDbCircle
 10
100.043999
 20
375.267988
 40
0.5
100
AcDbArc
 50
270.0
 51
342.868957
  0
CIRCLE
  5
379
100
AcDbEntity
  8
M0
 62
     6
100
AcDbCircle
 10
117.563012
 20
419.067838
 40
3.0
  0
LINE
  5
37A
100
AcDbEntity
  8
M0
 62
     6
100
AcDbLine
 10
114.604256
 20
423.01518
 11
113.788002
 21
420.367887
  0
LINE
  5
37B
100
AcDbEntity
  8
M0
 62
     6
100
AcDbLine
 10
114.604256
 20
415.120588
 11
113.788002
 21
417.767911
  0
LINE
  5
37C
100
AcDbEntity
  8
M0
 62
     6
100
AcDbLine
 10
120.521736
 20
423.015195
 11
121.338005
 21
420.367887
  0
LINE
  5
37D
100
AcDbEntity
  8
M0
 62
     6
100
AcDbLine
 10
120.521736
 20
415.120572
 11
121.338005
 21
417.767911
  0
LINE
  5
37E
100
AcDbEntity
  8
M0
 62
     6
100
AcDbLine
 10
115.082054
 20
414.767911
 11
120.043923
 21
414.767911
  0
LINE
  5
37F
100
AcDbEntity
  8
M0
 62
     6
100
AcDbLine
 10
121.338005
 20
417.767911
 11
121.338005
 21
420.367887
  0
LINE
  5
380
100
AcDbEntity
  8
M0
 62
     6
100
AcDbLine
 10
120.043923
 20
423.367887
 11
115.082054
 21
423.367872
  0
LINE
  5
381
100
AcDbEntity
  8
M0
 62
     6
100
AcDbLine
 10
113.788002
 20
420.367887
 11
113.788002
 21
417.767911
  0
LINE
  5
382
100
AcDbEntity
  8
M0
  6
DASHDOT
 62
     6
100
AcDbLine
 10
111.288002
 20
419.067838
 11
123.838005
 21
419.067838
  0
LINE
  5
383
100
AcDbEntity
  8
M0
  6
DASHDOT
 62
     6
100
AcDbLine
 10
117.563012
 20
412.267927
 11
117.563012
 21
425.867887
  0
LINE
  5
384
100
AcDbEntity
  8
M0
 62
     6
100
AcDbLine
 10
119.153786
 20
417.477018
 11
115.971978
 21
420.65878
  0
LINE
  5
385
100
AcDbEntity
  8
M0
 62
     6
100
AcDbLine
 10
117.91642
 20
420.482023
 11
116.148751
 21
418.714322
  0
LINE
  5
386
100
AcDbEntity
  8
M0
 62
     6
100
AcDbLine
 10
118.977028
 20
419.421354
 11
117.209404
 21
417.653776
  0
ARC
  5
387
100
AcDbEntity
  8
M0
 62
     6
100
AcDbCircle
 10
115.082054
 20
422.867872
 40
0.5
100
AcDbArc
 50
90.0
 51
162.86739
  0
ARC
  5
388
100
AcDbEntity
  8
M0
 62
     6
100
AcDbCircle
 10
115.082054
 20
415.267911
 40
0.5
100
AcDbArc
 50
197.137519
 51
270.0
  0
ARC
  5
389
100
AcDbEntity
  8
M0
 62
     6
100
AcDbCircle
 10
120.043923
 20
415.267911
 40
0.5
100
AcDbArc
 50
270.0
 51
342.859476
  0
ARC
  5
38A
100
AcDbEntity
  8
M0
 62
     6
100
AcDbCircle
 10
120.043923
 20
422.867872
 40
0.5
100
AcDbArc
 50
17.134787
 51
90.0
  0
CIRCLE
  5
38B
100
AcDbEntity
  8
M0
 62
     6
100
AcDbCircle
 10
117.563012
 20
427.067594
 40
3.0
  0
LINE
  5
38C
100
AcDbEntity
  8
M0
 62
     6
100
AcDbLine
 10
114.604256
 20
431.014936
 11
113.788002
 21
428.367643
  0
LINE
  5
38D
100
AcDbEntity
  8
M0
 62
     6
100
AcDbLine
 10
114.466378
 20
423.567502
 11
113.788002
 21
425.767667
  0
LINE
  5
38E
100
AcDbEntity
  8
M0
 62
     6
100
AcDbLine
 10
120.521736
 20
431.014951
 11
121.338005
 21
428.367643
  0
LINE
  5
38F
100
AcDbEntity
  8
M0
 62
     6
100
AcDbLine
 10
120.659615
 20
423.567502
 11
121.338005
 21
425.767667
  0
LINE
  5
390
100
AcDbEntity
  8
M0
 62
     6
100
AcDbLine
 10
121.338005
 20
425.767667
 11
121.338005
 21
428.367643
  0
LINE
  5
391
100
AcDbEntity
  8
M0
 62
     6
100
AcDbLine
 10
120.043923
 20
431.367643
 11
115.082054
 21
431.367627
  0
LINE
  5
392
100
AcDbEntity
  8
M0
 62
     6
100
AcDbLine
 10
113.788002
 20
428.367643
 11
113.788002
 21
425.767667
  0
LINE
  5
393
100
AcDbEntity
  8
M0
  6
DASHDOT
 62
     6
100
AcDbLine
 10
111.288002
 20
427.067594
 11
123.838005
 21
427.067594
  0
LINE
  5
394
100
AcDbEntity
  8
M0
  6
DASHDOT
 62
     6
100
AcDbLine
 10
117.563012
 20
420.267682
 11
117.563012
 21
433.867643
  0
LINE
  5
395
100
AcDbEntity
  8
M0
 62
     6
100
AcDbLine
 10
119.153786
 20
425.476774
 11
115.971978
 21
428.658536
  0
LINE
  5
396
100
AcDbEntity
  8
M0
 62
     6
100
AcDbLine
 10
117.91642
 20
428.481778
 11
116.148751
 21
426.714078
  0
LINE
  5
397
100
AcDbEntity
  8
M0
 62
     6
100
AcDbLine
 10
118.977028
 20
427.42111
 11
117.209404
 21
425.653531
  0
ARC
  5
398
100
AcDbEntity
  8
M0
 62
     6
100
AcDbCircle
 10
115.082054
 20
430.867627
 40
0.5
100
AcDbArc
 50
90.0
 51
162.867254
  0
ARC
  5
399
100
AcDbEntity
  8
M0
 62
     6
100
AcDbCircle
 10
120.043923
 20
430.867627
 40
0.5
100
AcDbArc
 50
17.134755
 51
90.0
  0
CIRCLE
  5
39A
100
AcDbEntity
  8
M0
 62
     6
100
AcDbCircle
 10
127.563012
 20
419.067838
 40
3.0
  0
LINE
  5
39B
100
AcDbEntity
  8
M0
 62
     6
100
AcDbLine
 10
124.604256
 20
423.01518
 11
123.788002
 21
420.367887
  0
LINE
  5
39C
100
AcDbEntity
  8
M0
 62
     6
100
AcDbLine
 10
124.604256
 20
415.120588
 11
123.788002
 21
417.767911
  0
LINE
  5
39D
100
AcDbEntity
  8
M0
 62
     6
100
AcDbLine
 10
130.521736
 20
423.015195
 11
131.338005
 21
420.367887
  0
LINE
  5
39E
100
AcDbEntity
  8
M0
 62
     6
100
AcDbLine
 10
130.521736
 20
415.120572
 11
131.338005
 21
417.767911
  0
LINE
  5
39F
100
AcDbEntity
  8
M0
 62
     6
100
AcDbLine
 10
125.082054
 20
414.767911
 11
130.043923
 21
414.767911
  0
LINE
  5
3A0
100
AcDbEntity
  8
M0
 62
     6
100
AcDbLine
 10
131.338005
 20
417.767911
 11
131.338005
 21
420.367887
  0
LINE
  5
3A1
100
AcDbEntity
  8
M0
 62
     6
100
AcDbLine
 10
130.043923
 20
423.367887
 11
125.082054
 21
423.367872
  0
LINE
  5
3A2
100
AcDbEntity
  8
M0
 62
     6
100
AcDbLine
 10
123.788002
 20
420.367887
 11
123.788002
 21
417.767911
  0
LINE
  5
3A3
100
AcDbEntity
  8
M0
  6
DASHDOT
 62
     6
100
AcDbLine
 10
121.288002
 20
419.067838
 11
133.838005
 21
419.067838
  0
LINE
  5
3A4
100
AcDbEntity
  8
M0
  6
DASHDOT
 62
     6
100
AcDbLine
 10
127.563012
 20
412.267927
 11
127.563012
 21
425.867887
  0
LINE
  5
3A5
100
AcDbEntity
  8
M0
 62
     6
100
AcDbLine
 10
129.153786
 20
417.477018
 11
125.971978
 21
420.65878
  0
LINE
  5
3A6
100
AcDbEntity
  8
M0
 62
     6
100
AcDbLine
 10
127.91642
 20
420.482023
 11
126.148751
 21
418.714322
  0
LINE
  5
3A7
100
AcDbEntity
  8
M0
 62
     6
100
AcDbLine
 10
128.977028
 20
419.421354
 11
127.209404
 21
417.653776
  0
ARC
  5
3A8
100
AcDbEntity
  8
M0
 62
     6
100
AcDbCircle
 10
125.082054
 20
422.867872
 40
0.5
100
AcDbArc
 50
90.0
 51
162.86739
  0
ARC
  5
3A9
100
AcDbEntity
  8
M0
 62
     6
100
AcDbCircle
 10
125.082054
 20
415.267911
 40
0.5
100
AcDbArc
 50
197.137519
 51
270.0
  0
ARC
  5
3AA
100
AcDbEntity
  8
M0
 62
     6
100
AcDbCircle
 10
130.043923
 20
415.267911
 40
0.5
100
AcDbArc
 50
270.0
 51
342.859476
  0
ARC
  5
3AB
100
AcDbEntity
  8
M0
 62
     6
100
AcDbCircle
 10
130.043923
 20
422.867872
 40
0.5
100
AcDbArc
 50
17.134787
 51
90.0
  0
LINE
  5
3AC
100
AcDbEntity
  8
M0
  6
DASHDOT
 62
     6
100
AcDbLine
 10
107.563012
 20
412.267927
 11
107.563012
 21
425.867887
  0
LINE
  5
3AD
100
AcDbEntity
  8
M0
 62
     1
100
AcDbLine
 10
97.963005
 20
367.568158
 11
106.963005
 21
367.568158
  0
ARC
  5
3AE
100
AcDbEntity
  8
M0
 62
     1
100
AcDbCircle
 10
106.963005
 20
368.568158
 40
1.0
100
AcDbArc
 50
270.0
 51
329.995752
  0
LINE
  5
3AF
100
AcDbEntity
  8
M0
 62
     1
100
AcDbLine
 10
99.513008
 20
369.868146
 11
101.55494
 21
369.868146
  0
LINE
  5
3B0
100
AcDbEntity
  8
M0
 62
     1
100
AcDbLine
 10
105.813012
 20
370.068082
 11
105.813012
 21
372.568082
  0
ARC
  5
3B1
100
AcDbEntity
  8
M0
 62
     1
100
AcDbCircle
 10
99.513008
 20
370.068143
 40
0.2
100
AcDbArc
 50
179.999727
 51
270.0
  0
ARC
  5
3B2
100
AcDbEntity
  8
M0
 62
     1
100
AcDbCircle
 10
105.612999
 20
370.068143
 40
0.2
100
AcDbArc
 50
270.0
 51
360.0
  0
LINE
  5
3B3
100
AcDbEntity
  8
M0
 62
     1
100
AcDbLine
 10
99.312981
 20
372.568082
 11
99.313012
 21
370.068082
  0
LINE
  5
3B4
100
AcDbEntity
  8
M0
 62
     1
100
AcDbLine
 10
103.613076
 20
369.868146
 11
105.612999
 21
369.868146
  0
ARC
  5
3B5
100
AcDbEntity
  8
M0
 62
     1
100
AcDbCircle
 10
98.163048
 20
368.568158
 40
1.0
100
AcDbArc
 50
210.004201
 51
270.0
  0
LINE
  5
3B6
100
AcDbEntity
  8
M0
 62
     1
100
AcDbLine
 10
97.297051
 20
368.068082
 11
97.297051
 21
372.568082
  0
LINE
  5
3B7
100
AcDbEntity
  8
M0
 62
     1
100
AcDbLine
 10
107.828972
 20
368.068082
 11
107.828972
 21
372.568082
  0
LINE
  5
3B8
100
AcDbEntity
  8
M0
 62
     4
100
AcDbLine
 10
134.063012
 20
371.068067
 11
134.063012
 21
427.068082
  0
LINE
  5
3B9
100
AcDbEntity
  8
M0
 62
     4
100
AcDbLine
 10
71.063012
 20
427.068036
 11
71.063012
 21
371.068097
  0
LINE
  5
3BA
100
AcDbEntity
  8
M0
  6
DASHDOT
 62
     4
100
AcDbLine
 10
71.063012
 20
399.068082
 11
134.063012
 21
399.068082
  0
LINE
  5
3BB
100
AcDbEntity
  8
M0
  6
DASHDOT
 62
     4
100
AcDbLine
 10
102.563012
 20
361.568082
 11
102.563012
 21
436.568082
  0
LINE
  5
3BC
100
AcDbEntity
  8
M0
 62
     4
100
AcDbLine
 10
103.612816
 20
415.068082
 11
103.612816
 21
429.568036
  0
LINE
  5
3BD
100
AcDbEntity
  8
M0
 62
     4
100
AcDbLine
 10
111.512963
 20
415.068082
 11
111.512963
 21
431.068082
  0
LINE
  5
3BE
100
AcDbEntity
  8
M0
 62
     4
100
AcDbLine
 10
93.112816
 20
430.068067
 11
92.012963
 21
430.068067
  0
LINE
  5
3BF
100
AcDbEntity
  8
M0
 62
     4
100
AcDbLine
 10
104.612816
 20
414.068082
 11
110.512963
 21
414.068082
  0
ARC
  5
3C0
100
AcDbEntity
  8
M0
 62
     4
100
AcDbCircle
 10
104.612816
 20
415.068082
 40
1.0
100
AcDbArc
 50
180.0
 51
270.0
  0
ARC
  5
3C1
100
AcDbEntity
  8
M0
 62
     4
100
AcDbCircle
 10
110.512963
 20
415.068082
 40
1.0
100
AcDbArc
 50
269.915907
 51
360.0
  0
ARC
  5
3C2
100
AcDbEntity
  8
M0
 62
     4
100
AcDbCircle
 10
112.012963
 20
429.568067
 40
0.5
100
AcDbArc
 50
90.0
 51
180.0
  0
ARC
  5
3C3
100
AcDbEntity
  8
M0
 62
     4
100
AcDbCircle
 10
103.112816
 20
429.568052
 40
0.5
100
AcDbArc
 50
0.0
 51
90.0
  0
LINE
  5
3C4
100
AcDbEntity
  8
M0
 62
     4
100
AcDbLine
 10
73.112831
 20
427.568052
 11
71.563027
 21
427.568052
  0
LINE
  5
3C5
100
AcDbEntity
  8
M0
 62
     4
100
AcDbLine
 10
83.112816
 20
430.068052
 11
82.012963
 21
430.068052
  0
LINE
  5
3C6
100
AcDbEntity
  8
M0
 62
     4
100
AcDbLine
 10
113.112816
 20
430.068067
 11
112.012963
 21
430.068067
  0
LINE
  5
3C7
100
AcDbEntity
  8
M0
 62
     4
100
AcDbLine
 10
123.112816
 20
430.068067
 11
122.012963
 21
430.068067
  0
ARC
  5
3C8
100
AcDbEntity
  8
M0
 62
     4
100
AcDbCircle
 10
122.012963
 20
429.568067
 40
0.5
100
AcDbArc
 50
90.0
 51
180.0
  0
ARC
  5
3C9
100
AcDbEntity
  8
M0
 62
     4
100
AcDbCircle
 10
92.012963
 20
429.568052
 40
0.5
100
AcDbArc
 50
90.0
 51
180.0
  0
ARC
  5
3CA
100
AcDbEntity
  8
M0
 62
     4
100
AcDbCircle
 10
82.012963
 20
429.568036
 40
0.5
100
AcDbArc
 50
89.998251
 51
180.0
  0
ARC
  5
3CB
100
AcDbEntity
  8
M0
 62
     4
100
AcDbCircle
 10
71.563027
 20
427.068036
 40
0.5
100
AcDbArc
 50
89.998251
 51
180.0
  0
LINE
  5
3CC
100
AcDbEntity
  8
M0
 62
     4
100
AcDbLine
 10
123.612816
 20
423.568082
 11
131.512963
 21
423.568082
  0
LINE
  5
3CD
100
AcDbEntity
  8
M0
 62
     4
100
AcDbLine
 10
113.612816
 20
423.568082
 11
121.512963
 21
423.568082
  0
LINE
  5
3CE
100
AcDbEntity
  8
M0
 62
     4
100
AcDbLine
 10
103.612816
 20
423.568082
 11
111.512963
 21
423.568082
  0
LINE
  5
3CF
100
AcDbEntity
  8
M0
 62
     4
100
AcDbLine
 10
83.612816
 20
423.568082
 11
91.512963
 21
423.568082
  0
LINE
  5
3D0
100
AcDbEntity
  8
M0
 62
     4
100
AcDbLine
 10
81.512963
 20
423.568082
 11
73.612816
 21
423.568082
  0
LINE
  5
3D1
100
AcDbEntity
  8
M0
 62
     4
100
AcDbLine
 10
112.012963
 20
431.568082
 11
123.112816
 21
431.568082
  0
ARC
  5
3D2
100
AcDbEntity
  8
M0
 62
     4
100
AcDbCircle
 10
112.012963
 20
431.068082
 40
0.5
100
AcDbArc
 50
90.0
 51
180.0
  0
ARC
  5
3D3
100
AcDbEntity
  8
M0
 62
     4
100
AcDbCircle
 10
122.012963
 20
431.068082
 40
0.5
100
AcDbArc
 50
90.0
 51
180.0
  0
LINE
  5
3D4
100
AcDbEntity
  8
M0
 62
     4
100
AcDbLine
 10
113.612816
 20
415.068082
 11
113.612816
 21
431.068082
  0
ARC
  5
3D5
100
AcDbEntity
  8
M0
 62
     4
100
AcDbCircle
 10
114.612816
 20
415.068082
 40
1.0
100
AcDbArc
 50
180.0
 51
269.929895
  0
LINE
  5
3D6
100
AcDbEntity
  8
M0
 62
     4
100
AcDbLine
 10
114.612816
 20
414.068082
 11
120.512963
 21
414.068082
  0
ARC
  5
3D7
100
AcDbEntity
  8
M0
 62
     4
100
AcDbCircle
 10
120.512963
 20
415.068082
 40
1.0
100
AcDbArc
 50
269.914322
 51
360.0
  0
LINE
  5
3D8
100
AcDbEntity
  8
M0
 62
     4
100
AcDbLine
 10
121.512963
 20
415.068082
 11
121.512963
 21
431.068082
  0
ARC
  5
3D9
100
AcDbEntity
  8
M0
 62
     4
100
AcDbCircle
 10
113.112816
 20
429.568052
 40
0.5
100
AcDbArc
 50
0.0
 51
90.0
  0
LINE
  5
3DA
100
AcDbEntity
  8
M0
 62
     4
100
AcDbLine
 10
83.612816
 20
415.068082
 11
83.612816
 21
429.568021
  0
ARC
  5
3DB
100
AcDbEntity
  8
M0
 62
     4
100
AcDbCircle
 10
84.612816
 20
415.068082
 40
1.0
100
AcDbArc
 50
180.0
 51
269.930059
  0
LINE
  5
3DC
100
AcDbEntity
  8
M0
 62
     4
100
AcDbLine
 10
84.612816
 20
414.068082
 11
90.512963
 21
414.068082
  0
ARC
  5
3DD
100
AcDbEntity
  8
M0
 62
     4
100
AcDbCircle
 10
90.512963
 20
415.068082
 40
1.0
100
AcDbArc
 50
269.887985
 51
360.0
  0
LINE
  5
3DE
100
AcDbEntity
  8
M0
 62
     4
100
AcDbLine
 10
91.512963
 20
415.068082
 11
91.512963
 21
429.568052
  0
ARC
  5
3DF
100
AcDbEntity
  8
M0
 62
     4
100
AcDbCircle
 10
83.112816
 20
429.568036
 40
0.5
100
AcDbArc
 50
0.0
 51
89.998251
  0
LINE
  5
3E0
100
AcDbEntity
  8
M0
 62
     4
100
AcDbLine
 10
123.612816
 20
415.068082
 11
123.612816
 21
431.068082
  0
ARC
  5
3E1
100
AcDbEntity
  8
M0
 62
     4
100
AcDbCircle
 10
124.612816
 20
415.068082
 40
1.0
100
AcDbArc
 50
180.0
 51
269.92831
  0
LINE
  5
3E2
100
AcDbEntity
  8
M0
 62
     4
100
AcDbLine
 10
124.612816
 20
414.068082
 11
130.512963
 21
414.068082
  0
ARC
  5
3E3
100
AcDbEntity
  8
M0
 62
     4
100
AcDbCircle
 10
130.512963
 20
415.068082
 40
1.0
100
AcDbArc
 50
269.914322
 51
360.0
  0
LINE
  5
3E4
100
AcDbEntity
  8
M0
 62
     4
100
AcDbLine
 10
131.512963
 20
415.068082
 11
131.512963
 21
427.068082
  0
ARC
  5
3E5
100
AcDbEntity
  8
M0
 62
     4
100
AcDbCircle
 10
123.112816
 20
429.568052
 40
0.5
100
AcDbArc
 50
0.0
 51
90.0
  0
ARC
  5
3E6
100
AcDbEntity
  8
M0
 62
     4
100
AcDbCircle
 10
113.112816
 20
431.068082
 40
0.5
100
AcDbArc
 50
0.0
 51
90.0
  0
ARC
  5
3E7
100
AcDbEntity
  8
M0
 62
     4
100
AcDbCircle
 10
74.612816
 20
415.068082
 40
1.0
100
AcDbArc
 50
180.0
 51
269.969401
  0
LINE
  5
3E8
100
AcDbEntity
  8
M0
 62
     4
100
AcDbLine
 10
73.612816
 20
415.068082
 11
73.612816
 21
427.068021
  0
LINE
  5
3E9
100
AcDbEntity
  8
M0
 62
     4
100
AcDbLine
 10
74.612816
 20
414.068082
 11
80.512963
 21
414.068082
  0
ARC
  5
3EA
100
AcDbEntity
  8
M0
 62
     4
100
AcDbCircle
 10
80.512963
 20
415.068082
 40
1.0
100
AcDbArc
 50
269.927436
 51
360.0
  0
LINE
  5
3EB
100
AcDbEntity
  8
M0
 62
     4
100
AcDbLine
 10
81.512963
 20
415.068082
 11
81.512963
 21
429.568036
  0
ARC
  5
3EC
100
AcDbEntity
  8
M0
 62
     4
100
AcDbCircle
 10
73.112831
 20
427.068036
 40
0.5
100
AcDbArc
 50
0.0
 51
89.998251
  0
LINE
  5
3ED
100
AcDbEntity
  8
M0
 62
     4
100
AcDbLine
 10
71.563012
 20
370.568082
 11
73.11306
 21
370.568082
  0
LINE
  5
3EE
100
AcDbEntity
  8
M0
 62
     4
100
AcDbLine
 10
111.513207
 20
383.068082
 11
111.513207
 21
370.068113
  0
LINE
  5
3EF
100
AcDbEntity
  8
M0
 62
     4
100
AcDbLine
 10
103.61306
 20
383.068082
 11
103.61306
 21
370.068097
  0
LINE
  5
3F0
100
AcDbEntity
  8
M0
 62
     4
100
AcDbLine
 10
112.013207
 20
369.568097
 11
113.11306
 21
369.568097
  0
LINE
  5
3F1
100
AcDbEntity
  8
M0
 62
     4
100
AcDbLine
 10
110.513207
 20
384.068082
 11
104.61306
 21
384.068082
  0
ARC
  5
3F2
100
AcDbEntity
  8
M0
 62
     4
100
AcDbCircle
 10
110.513207
 20
383.068082
 40
1.0
100
AcDbArc
 50
0.0
 51
90.0
  0
ARC
  5
3F3
100
AcDbEntity
  8
M0
 62
     4
100
AcDbCircle
 10
104.61306
 20
383.068082
 40
1.0
100
AcDbArc
 50
89.916071
 51
179.999945
  0
ARC
  5
3F4
100
AcDbEntity
  8
M0
 62
     4
100
AcDbCircle
 10
103.11306
 20
370.068097
 40
0.5
100
AcDbArc
 50
270.026119
 51
360.0
  0
ARC
  5
3F5
100
AcDbEntity
  8
M0
 62
     4
100
AcDbCircle
 10
112.013207
 20
370.068113
 40
0.5
100
AcDbArc
 50
179.998251
 51
270.026119
  0
LINE
  5
3F6
100
AcDbEntity
  8
M0
 62
     4
100
AcDbLine
 10
122.013207
 20
369.568113
 11
123.11306
 21
369.568113
  0
LINE
  5
3F7
100
AcDbEntity
  8
M0
 62
     4
100
AcDbLine
 10
92.013208
 20
369.568097
 11
93.113061
 21
369.568097
  0
LINE
  5
3F8
100
AcDbEntity
  8
M0
 62
     4
100
AcDbLine
 10
82.013207
 20
369.568097
 11
83.11306
 21
369.568097
  0
ARC
  5
3F9
100
AcDbEntity
  8
M0
 62
     4
100
AcDbCircle
 10
73.11306
 20
371.068097
 40
0.5
100
AcDbArc
 50
270.029726
 51
360.0
  0
ARC
  5
3FA
100
AcDbEntity
  8
M0
 62
     4
100
AcDbCircle
 10
83.11306
 20
370.068097
 40
0.5
100
AcDbArc
 50
270.029726
 51
360.0
  0
ARC
  5
3FB
100
AcDbEntity
  8
M0
 62
     4
100
AcDbCircle
 10
113.11306
 20
370.068113
 40
0.5
100
AcDbArc
 50
270.026119
 51
360.0
  0
ARC
  5
3FC
100
AcDbEntity
  8
M0
 62
     4
100
AcDbCircle
 10
123.11306
 20
370.068128
 40
0.5
100
AcDbArc
 50
270.02448
 51
360.0
  0
LINE
  5
3FD
100
AcDbEntity
  8
M0
 62
     4
100
AcDbLine
 10
81.513207
 20
374.568082
 11
73.61306
 21
374.568082
  0
LINE
  5
3FE
100
AcDbEntity
  8
M0
 62
     4
100
AcDbLine
 10
91.513207
 20
374.568082
 11
83.61306
 21
374.568082
  0
LINE
  5
3FF
100
AcDbEntity
  8
M0
 62
     4
100
AcDbLine
 10
111.513207
 20
374.568082
 11
103.61306
 21
374.568082
  0
LINE
  5
400
100
AcDbEntity
  8
M0
 62
     4
100
AcDbLine
 10
121.513207
 20
374.568082
 11
113.61306
 21
374.568082
  0
LINE
  5
401
100
AcDbEntity
  8
M0
 62
     4
100
AcDbLine
 10
123.61306
 20
374.568082
 11
131.513207
 21
374.568082
  0
LINE
  5
402
100
AcDbEntity
  8
M0
 62
     4
100
AcDbLine
 10
93.11306
 20
366.568082
 11
82.013207
 21
366.568067
  0
ARC
  5
403
100
AcDbEntity
  8
M0
 62
     4
100
AcDbCircle
 10
93.11306
 20
367.068082
 40
0.5
100
AcDbArc
 50
270.028087
 51
360.0
  0
ARC
  5
404
100
AcDbEntity
  8
M0
 62
     4
100
AcDbCircle
 10
83.11306
 20
367.068082
 40
0.5
100
AcDbArc
 50
270.029726
 51
360.0
  0
LINE
  5
405
100
AcDbEntity
  8
M0
 62
     4
100
AcDbLine
 10
91.513207
 20
383.068082
 11
91.513207
 21
367.068082
  0
ARC
  5
406
100
AcDbEntity
  8
M0
 62
     4
100
AcDbCircle
 10
90.513207
 20
383.068082
 40
1.0
100
AcDbArc
 50
0.0
 51
89.943938
  0
LINE
  5
407
100
AcDbEntity
  8
M0
 62
     4
100
AcDbLine
 10
90.513207
 20
384.068082
 11
84.61306
 21
384.068082
  0
ARC
  5
408
100
AcDbEntity
  8
M0
 62
     4
100
AcDbCircle
 10
84.61306
 20
383.068082
 40
1.0
100
AcDbArc
 50
89.914322
 51
179.999945
  0
LINE
  5
409
100
AcDbEntity
  8
M0
 62
     4
100
AcDbLine
 10
83.61306
 20
383.068082
 11
83.61306
 21
367.068082
  0
ARC
  5
40A
100
AcDbEntity
  8
M0
 62
     4
100
AcDbCircle
 10
92.013207
 20
370.068113
 40
0.5
100
AcDbArc
 50
179.998251
 51
270.028087
  0
LINE
  5
40B
100
AcDbEntity
  8
M0
 62
     4
100
AcDbLine
 10
121.513207
 20
383.068082
 11
121.513207
 21
370.068128
  0
ARC
  5
40C
100
AcDbEntity
  8
M0
 62
     4
100
AcDbCircle
 10
120.513207
 20
383.068082
 40
1.0
100
AcDbArc
 50
0.0
 51
89.944047
  0
LINE
  5
40D
100
AcDbEntity
  8
M0
 62
     4
100
AcDbLine
 10
120.513207
 20
384.068082
 11
114.61306
 21
384.068082
  0
ARC
  5
40E
100
AcDbEntity
  8
M0
 62
     4
100
AcDbCircle
 10
114.61306
 20
383.068082
 40
1.0
100
AcDbArc
 50
89.888094
 51
179.999945
  0
LINE
  5
40F
100
AcDbEntity
  8
M0
 62
     4
100
AcDbLine
 10
113.61306
 20
383.068082
 11
113.61306
 21
370.068113
  0
ARC
  5
410
100
AcDbEntity
  8
M0
 62
     4
100
AcDbCircle
 10
122.013207
 20
370.068128
 40
0.5
100
AcDbArc
 50
179.998251
 51
270.02448
  0
LINE
  5
411
100
AcDbEntity
  8
M0
 62
     4
100
AcDbLine
 10
81.513207
 20
383.068082
 11
81.513207
 21
367.068067
  0
ARC
  5
412
100
AcDbEntity
  8
M0
 62
     4
100
AcDbCircle
 10
80.513207
 20
383.068082
 40
1.0
100
AcDbArc
 50
0.0
 51
89.929185
  0
LINE
  5
413
100
AcDbEntity
  8
M0
 62
     4
100
AcDbLine
 10
80.513207
 20
384.068082
 11
74.61306
 21
384.068082
  0
ARC
  5
414
100
AcDbEntity
  8
M0
 62
     4
100
AcDbCircle
 10
74.61306
 20
383.068082
 40
1.0
100
AcDbArc
 50
89.914322
 51
179.999945
  0
LINE
  5
415
100
AcDbEntity
  8
M0
 62
     4
100
AcDbLine
 10
73.61306
 20
383.068082
 11
73.61306
 21
371.068097
  0
ARC
  5
416
100
AcDbEntity
  8
M0
 62
     4
100
AcDbCircle
 10
82.013207
 20
370.068113
 40
0.5
100
AcDbArc
 50
179.998251
 51
270.029726
  0
ARC
  5
417
100
AcDbEntity
  8
M0
 62
     4
100
AcDbCircle
 10
92.013207
 20
367.068082
 40
0.5
100
AcDbArc
 50
179.998251
 51
270.028087
  0
ARC
  5
418
100
AcDbEntity
  8
M0
 62
     4
100
AcDbCircle
 10
130.513207
 20
383.068082
 40
1.0
100
AcDbArc
 50
0.0
 51
89.972024
  0
LINE
  5
419
100
AcDbEntity
  8
M0
 62
     4
100
AcDbLine
 10
131.513207
 20
383.068082
 11
131.513207
 21
371.068082
  0
LINE
  5
41A
100
AcDbEntity
  8
M0
 62
     4
100
AcDbLine
 10
130.513207
 20
384.068082
 11
124.61306
 21
384.068082
  0
ARC
  5
41B
100
AcDbEntity
  8
M0
 62
     4
100
AcDbCircle
 10
124.61306
 20
383.068082
 40
1.0
100
AcDbArc
 50
89.930059
 51
179.999945
  0
LINE
  5
41C
100
AcDbEntity
  8
M0
 62
     4
100
AcDbLine
 10
123.61306
 20
383.068082
 11
123.61306
 21
370.068128
  0
ARC
  5
41D
100
AcDbEntity
  8
M0
 62
     4
100
AcDbCircle
 10
71.563012
 20
371.068097
 40
0.5
100
AcDbArc
 50
179.998251
 51
270.029726
  0
LINE
  5
41E
100
AcDbEntity
  8
M0
 62
     4
100
AcDbLine
 10
99.563012
 20
395.418073
 11
101.563012
 21
395.418073
  0
LINE
  5
41F
100
AcDbEntity
  8
M0
 62
     4
100
AcDbLine
 10
105.563012
 20
395.918073
 11
105.563012
 21
401.718046
  0
LINE
  5
420
100
AcDbEntity
  8
M0
 62
     4
100
AcDbLine
 10
105.063012
 20
402.218076
 11
103.563012
 21
402.218061
  0
LINE
  5
421
100
AcDbEntity
  8
M0
 62
     4
100
AcDbLine
 10
99.063012
 20
401.718046
 11
99.063012
 21
395.918073
  0
ARC
  5
422
100
AcDbEntity
  8
M0
 62
     4
100
AcDbCircle
 10
105.063012
 20
395.918073
 40
0.5
100
AcDbArc
 50
270.0
 51
360.0
  0
ARC
  5
423
100
AcDbEntity
  8
M0
 62
     4
100
AcDbCircle
 10
105.063012
 20
401.718061
 40
0.5
100
AcDbArc
 50
0.0
 51
90.0
  0
ARC
  5
424
100
AcDbEntity
  8
M0
 62
     4
100
AcDbCircle
 10
99.563012
 20
401.71806
 40
0.5
100
AcDbArc
 50
90.0
 51
180.0
  0
ARC
  5
425
100
AcDbEntity
  8
M0
 62
     4
100
AcDbCircle
 10
99.563012
 20
395.918073
 40
0.5
100
AcDbArc
 50
179.999891
 51
270.0
  0
ARC
  5
426
100
AcDbEntity
  8
M0
 62
     4
100
AcDbCircle
 10
102.013237
 20
429.568052
 40
0.5
100
AcDbArc
 50
90.0
 51
180.0
  0
LINE
  5
427
100
AcDbEntity
  8
M0
 62
     4
100
AcDbLine
 10
101.513237
 20
415.068082
 11
101.513237
 21
429.568036
  0
LINE
  5
428
100
AcDbEntity
  8
M0
 62
     4
100
AcDbLine
 10
101.513237
 20
423.568082
 11
93.613091
 21
423.568082
  0
LINE
  5
429
100
AcDbEntity
  8
M0
 62
     4
100
AcDbLine
 10
100.513237
 20
414.068082
 11
94.613091
 21
414.068082
  0
ARC
  5
42A
100
AcDbEntity
  8
M0
 62
     4
100
AcDbCircle
 10
100.513237
 20
415.068082
 40
1.0
100
AcDbArc
 50
-90.0
 51
0.0
  0
ARC
  5
42B
100
AcDbEntity
  8
M0
 62
     4
100
AcDbCircle
 10
94.613091
 20
415.068082
 40
1.0
100
AcDbArc
 50
180.0
 51
270.084804
  0
LINE
  5
42C
100
AcDbEntity
  8
M0
 62
     4
100
AcDbLine
 10
93.613091
 20
415.068082
 11
93.613091
 21
429.568067
  0
LINE
  5
42D
100
AcDbEntity
  8
M0
 62
     4
100
AcDbLine
 10
93.613091
 20
415.068082
 11
93.613091
 21
429.568067
  0
ARC
  5
42E
100
AcDbEntity
  8
M0
 62
     4
100
AcDbCircle
 10
93.113091
 20
429.568067
 40
0.5
100
AcDbArc
 50
0.0
 51
90.0
  0
LINE
  5
42F
100
AcDbEntity
  8
M0
 62
     4
100
AcDbLine
 10
93.613076
 20
383.068082
 11
93.613076
 21
367.068082
  0
ARC
  5
430
100
AcDbEntity
  8
M0
 62
     4
100
AcDbCircle
 10
94.613076
 20
383.068082
 40
1.0
100
AcDbArc
 50
89.915142
 51
179.999945
  0
LINE
  5
431
100
AcDbEntity
  8
M0
 62
     4
100
AcDbLine
 10
100.513222
 20
384.068082
 11
94.613076
 21
384.068082
  0
ARC
  5
432
100
AcDbEntity
  8
M0
 62
     4
100
AcDbCircle
 10
100.513222
 20
383.068082
 40
1.0
100
AcDbArc
 50
0.0
 51
90.0
  0
LINE
  5
433
100
AcDbEntity
  8
M0
 62
     4
100
AcDbLine
 10
101.513222
 20
383.068082
 11
101.513222
 21
370.068113
  0
LINE
  5
434
100
AcDbEntity
  8
M0
 62
     4
100
AcDbLine
 10
101.513207
 20
374.568082
 11
93.61306
 21
374.568082
  0
ARC
  5
435
100
AcDbEntity
  8
M0
 62
     4
100
AcDbCircle
 10
102.013207
 20
370.068113
 40
0.5
100
AcDbArc
 50
179.998251
 51
270.0
  0
ARC
  5
436
100
AcDbEntity
  8
M0
 62
     4
100
AcDbCircle
 10
93.11306
 20
370.068097
 40
0.5
100
AcDbArc
 50
270.0
 51
360.0
  0
ARC
  5
437
100
AcDbEntity
  8
M0
 62
     4
100
AcDbCircle
 10
123.112816
 20
431.068082
 40
0.5
100
AcDbArc
 50
0.0
 51
90.0
  0
LINE
  5
438
100
AcDbEntity
  8
M0
 62
     4
100
AcDbLine
 10
132.013207
 20
370.568082
 11
133.563012
 21
370.568082
  0
LINE
  5
439
100
AcDbEntity
  8
M0
 62
     4
100
AcDbLine
 10
132.012963
 20
427.568082
 11
133.563012
 21
427.568082
  0
ARC
  5
43A
100
AcDbEntity
  8
M0
 62
     4
100
AcDbCircle
 10
133.563012
 20
427.068082
 40
0.5
100
AcDbArc
 50
0.0
 51
90.0
  0
ARC
  5
43B
100
AcDbEntity
  8
M0
 62
     4
100
AcDbCircle
 10
132.012963
 20
427.068082
 40
0.5
100
AcDbArc
 50
90.0
 51
180.0
  0
ARC
  5
43C
100
AcDbEntity
  8
M0
 62
     4
100
AcDbCircle
 10
132.013207
 20
371.068082
 40
0.5
100
AcDbArc
 50
179.998251
 51
269.998251
  0
ARC
  5
43D
100
AcDbEntity
  8
M0
 62
     4
100
AcDbCircle
 10
133.563012
 20
371.068082
 40
0.5
100
AcDbArc
 50
269.998251
 51
360.0
  0
ARC
  5
43E
100
AcDbEntity
  8
M0
 62
     4
100
AcDbCircle
 10
82.013207
 20
367.068067
 40
0.5
100
AcDbArc
 50
179.998251
 51
270.0
  0
LINE
  5
43F
100
AcDbEntity
  8
M0
 62
     4
100
AcDbLine
 10
101.563012
 20
402.218061
 11
101.563012
 21
401.068082
  0
LINE
  5
440
100
AcDbEntity
  8
M0
 62
     4
100
AcDbLine
 10
103.563012
 20
402.218061
 11
103.563012
 21
401.068082
  0
LINE
  5
441
100
AcDbEntity
  8
M0
 62
     4
100
AcDbLine
 10
101.563012
 20
397.068082
 11
103.563012
 21
397.068082
  0
LINE
  5
442
100
AcDbEntity
  8
M0
 62
     4
100
AcDbLine
 10
101.563012
 20
401.068082
 11
103.563012
 21
401.068082
  0
LINE
  5
443
100
AcDbEntity
  8
M0
 62
     4
100
AcDbLine
 10
103.563012
 20
395.418073
 11
105.063012
 21
395.418073
  0
LINE
  5
444
100
AcDbEntity
  8
M0
 62
     4
100
AcDbLine
 10
101.563012
 20
402.218061
 11
99.563012
 21
402.218061
  0
LINE
  5
445
100
AcDbEntity
  8
M0
 62
     4
100
AcDbLine
 10
101.563012
 20
397.068082
 11
101.563012
 21
395.418073
  0
LINE
  5
446
100
AcDbEntity
  8
M0
 62
     4
100
AcDbLine
 10
103.563012
 20
397.068082
 11
103.563012
 21
395.418073
  0
LINE
  5
447
100
AcDbEntity
  8
M0
 62
     7
100
AcDbLine
 10
91.51301
 20
427.068082
 11
91.512766
 21
430.568067
  0
LINE
  5
448
100
AcDbEntity
  8
M0
 62
     7
100
AcDbLine
 10
91.512766
 20
430.568067
 11
90.51301
 21
431.568067
  0
LINE
  5
449
100
AcDbEntity
  8
M0
 62
     7
100
AcDbLine
 10
115.112999
 20
366.568082
 11
123.612999
 21
366.568082
  0
LINE
  5
44A
100
AcDbEntity
  8
M0
 62
     7
100
AcDbLine
 10
123.612999
 20
366.568082
 11
123.612999
 21
374.568082
  0
LINE
  5
44B
100
AcDbEntity
  8
M0
 62
     7
100
AcDbLine
 10
90.51301
 20
431.568067
 11
83.013024
 21
431.568052
  0
LINE
  5
44C
100
AcDbEntity
  8
M0
 62
     7
100
AcDbLine
 10
81.013024
 20
429.568052
 11
81.013024
 21
423.568067
  0
ARC
  5
44D
100
AcDbEntity
  8
M0
 62
     7
100
AcDbCircle
 10
83.013024
 20
429.568052
 40
2.0
100
AcDbArc
 50
89.999563
 51
180.0
  0
LINE
  5
44E
100
AcDbEntity
  8
M0
 62
     7
100
AcDbLine
 10
109.112999
 20
370.568082
 11
109.112999
 21
372.568082
  0
LINE
  5
44F
100
AcDbEntity
  8
M0
 62
     7
100
AcDbLine
 10
110.612999
 20
368.568082
 11
110.612999
 21
372.568082
  0
LINE
  5
450
100
AcDbEntity
  8
M0
 62
     7
100
AcDbLine
 10
114.112999
 20
367.567838
 11
114.112999
 21
374.568082
  0
LINE
  5
451
100
AcDbEntity
  8
M0
 62
     7
100
AcDbLine
 10
114.112999
 20
367.568067
 11
115.112999
 21
366.568082
  0
LINE
  5
452
100
AcDbEntity
  8
M0
 62
     7
100
AcDbLine
 10
111.112999
 20
368.568082
 11
111.112999
 21
372.568082
  0
LINE
  5
453
100
AcDbEntity
  8
M0
 62
     7
100
AcDbLine
 10
107.828972
 20
368.568082
 11
110.612999
 21
368.568082
  0
LINE
  5
454
100
AcDbEntity
  8
M0
 62
     7
100
AcDbLine
 10
107.828972
 20
370.568082
 11
109.112999
 21
370.568082
  0
LINE
  5
455
100
AcDbEntity
  8
M0
 62
     7
100
AcDbLine
 10
113.61306
 20
370.568082
 11
114.112999
 21
370.568082
  0
LINE
  5
456
100
AcDbEntity
  8
M0
 62
     7
100
AcDbLine
 10
111.112999
 20
368.568082
 11
114.112999
 21
368.568082
  0
LINE
  5
457
100
AcDbEntity
  8
M0
 62
     7
100
AcDbLine
 10
93.61306
 20
372.568082
 11
101.513207
 21
372.568082
  0
LINE
  5
458
100
AcDbEntity
  8
M0
 62
     7
100
AcDbLine
 10
103.61306
 20
372.568082
 11
111.513207
 21
372.568082
  0
LINE
  5
459
100
AcDbEntity
  8
M0
 62
     7
100
AcDbLine
 10
93.612816
 20
425.568082
 11
101.512963
 21
425.568082
  0
LINE
  5
45A
100
AcDbEntity
  8
M0
 62
     7
100
AcDbLine
 10
103.612572
 20
425.568082
 11
111.512719
 21
425.568082
  0
LINE
  5
45B
100
AcDbEntity
  8
M0
 62
     7
100
AcDbLine
 10
87.511986
 20
427.977018
 11
87.511986
 21
428.272428
  0
LINE
  5
45C
100
AcDbEntity
  8
M0
 62
     7
100
AcDbLine
 10
83.712365
 20
428.037076
 11
83.712426
 21
428.272428
  0
ARC
  5
45D
100
AcDbEntity
  8
M0
 62
     7
100
AcDbCircle
 10
85.612816
 20
427.067838
 40
2.25
100
AcDbArc
 50
32.417144
 51
147.648103
  0
ARC
  5
45E
100
AcDbEntity
  8
M0
 62
     7
100
AcDbCircle
 10
117.062767
 20
373.067838
 40
2.25
100
AcDbArc
 50
138.184064
 51
192.609358
  0
LINE
  5
45F
100
AcDbEntity
  8
M0
 62
     7
100
AcDbLine
 10
114.866967
 20
372.576627
 11
116.571312
 21
370.872037
  0
LINE
  5
460
100
AcDbEntity
  8
M0
 62
     7
100
AcDbLine
 10
117.40725
 20
370.167936
 11
117.606392
 21
370.167936
  0
ARC
  5
461
100
AcDbEntity
  8
M0
 62
     7
100
AcDbCircle
 10
117.062767
 20
373.067838
 40
2.25
100
AcDbArc
 50
257.382805
 51
261.369552
  0
ARC
  5
462
100
AcDbEntity
  8
M0
 62
     7
100
AcDbCircle
 10
118.612572
 20
372.067838
 40
2.25
100
AcDbArc
 50
212.975871
 51
237.61363
  0
CIRCLE
  5
463
100
AcDbEntity
  8
M0
 62
     6
100
AcDbCircle
 10
77.563012
 20
419.067838
 40
3.0
  0
LINE
  5
464
100
AcDbEntity
  8
M0
 62
     6
100
AcDbLine
 10
74.604256
 20
423.01518
 11
73.788002
 21
420.367887
  0
LINE
  5
465
100
AcDbEntity
  8
M0
 62
     6
100
AcDbLine
 10
74.604256
 20
415.120588
 11
73.788002
 21
417.767911
  0
LINE
  5
466
100
AcDbEntity
  8
M0
 62
     6
100
AcDbLine
 10
80.521736
 20
423.015195
 11
81.338005
 21
420.367887
  0
LINE
  5
467
100
AcDbEntity
  8
M0
 62
     6
100
AcDbLine
 10
80.521736
 20
415.120572
 11
81.338005
 21
417.767911
  0
LINE
  5
468
100
AcDbEntity
  8
M0
 62
     6
100
AcDbLine
 10
75.082054
 20
414.767911
 11
80.043923
 21
414.767911
  0
LINE
  5
469
100
AcDbEntity
  8
M0
 62
     6
100
AcDbLine
 10
81.338005
 20
417.767911
 11
81.338005
 21
420.367887
  0
LINE
  5
46A
100
AcDbEntity
  8
M0
 62
     6
100
AcDbLine
 10
80.043923
 20
423.367887
 11
75.082054
 21
423.367872
  0
LINE
  5
46B
100
AcDbEntity
  8
M0
 62
     6
100
AcDbLine
 10
73.788002
 20
420.367887
 11
73.788002
 21
417.767911
  0
LINE
  5
46C
100
AcDbEntity
  8
M0
  6
DASHDOT
 62
     6
100
AcDbLine
 10
71.288002
 20
419.067838
 11
83.838005
 21
419.067838
  0
LINE
  5
46D
100
AcDbEntity
  8
M0
  6
DASHDOT
 62
     6
100
AcDbLine
 10
77.563012
 20
412.267927
 11
77.563012
 21
425.867887
  0
LINE
  5
46E
100
AcDbEntity
  8
M0
 62
     6
100
AcDbLine
 10
79.153786
 20
417.477018
 11
75.971978
 21
420.65878
  0
LINE
  5
46F
100
AcDbEntity
  8
M0
 62
     6
100
AcDbLine
 10
77.91642
 20
420.482023
 11
76.148751
 21
418.714322
  0
LINE
  5
470
100
AcDbEntity
  8
M0
 62
     6
100
AcDbLine
 10
78.977028
 20
419.421354
 11
77.209404
 21
417.653776
  0
ARC
  5
471
100
AcDbEntity
  8
M0
 62
     6
100
AcDbCircle
 10
75.082054
 20
422.867872
 40
0.5
100
AcDbArc
 50
90.0
 51
162.867254
  0
ARC
  5
472
100
AcDbEntity
  8
M0
 62
     6
100
AcDbCircle
 10
75.082054
 20
415.267911
 40
0.5
100
AcDbArc
 50
197.137551
 51
270.0
  0
ARC
  5
473
100
AcDbEntity
  8
M0
 62
     6
100
AcDbCircle
 10
80.043923
 20
415.267911
 40
0.5
100
AcDbArc
 50
270.0
 51
342.859508
  0
ARC
  5
474
100
AcDbEntity
  8
M0
 62
     6
100
AcDbCircle
 10
80.043923
 20
422.867872
 40
0.5
100
AcDbArc
 50
17.134755
 51
90.0
  0
LINE
  5
475
100
AcDbEntity
  8
M0
  6
DASHDOT
 62
     6
100
AcDbLine
 10
97.56295
 20
412.267911
 11
97.562981
 21
425.867872
  0
CIRCLE
  5
476
100
AcDbEntity
  8
M0
 62
     6
100
AcDbCircle
 10
127.563012
 20
379.068082
 40
3.0
  0
LINE
  5
477
100
AcDbEntity
  8
M0
 62
     6
100
AcDbLine
 10
124.604256
 20
383.015424
 11
123.788002
 21
380.368131
  0
LINE
  5
478
100
AcDbEntity
  8
M0
 62
     6
100
AcDbLine
 10
124.604256
 20
375.120832
 11
123.788002
 21
377.768155
  0
LINE
  5
479
100
AcDbEntity
  8
M0
 62
     6
100
AcDbLine
 10
130.521736
 20
383.015439
 11
131.338005
 21
380.368131
  0
LINE
  5
47A
100
AcDbEntity
  8
M0
 62
     6
100
AcDbLine
 10
130.521736
 20
375.120817
 11
131.338005
 21
377.768155
  0
LINE
  5
47B
100
AcDbEntity
  8
M0
 62
     6
100
AcDbLine
 10
125.082054
 20
374.768155
 11
130.043923
 21
374.768155
  0
LINE
  5
47C
100
AcDbEntity
  8
M0
 62
     6
100
AcDbLine
 10
131.338005
 20
377.768155
 11
131.338005
 21
380.368131
  0
LINE
  5
47D
100
AcDbEntity
  8
M0
 62
     6
100
AcDbLine
 10
130.043923
 20
383.368131
 11
125.082054
 21
383.368116
  0
LINE
  5
47E
100
AcDbEntity
  8
M0
 62
     6
100
AcDbLine
 10
123.788002
 20
380.368131
 11
123.788002
 21
377.768155
  0
LINE
  5
47F
100
AcDbEntity
  8
M0
  6
DASHDOT
 62
     6
100
AcDbLine
 10
121.288002
 20
379.068082
 11
133.838005
 21
379.068082
  0
LINE
  5
480
100
AcDbEntity
  8
M0
  6
DASHDOT
 62
     6
100
AcDbLine
 10
127.563012
 20
372.268171
 11
127.563012
 21
385.868131
  0
LINE
  5
481
100
AcDbEntity
  8
M0
 62
     6
100
AcDbLine
 10
129.153786
 20
377.477262
 11
125.971978
 21
380.659025
  0
LINE
  5
482
100
AcDbEntity
  8
M0
 62
     6
100
AcDbLine
 10
127.91642
 20
380.482267
 11
126.148751
 21
378.714567
  0
LINE
  5
483
100
AcDbEntity
  8
M0
 62
     6
100
AcDbLine
 10
128.977028
 20
379.421598
 11
127.209404
 21
377.65402
  0
ARC
  5
484
100
AcDbEntity
  8
M0
 62
     6
100
AcDbCircle
 10
125.082054
 20
382.868116
 40
0.5
100
AcDbArc
 50
90.0
 51
162.86739
  0
ARC
  5
485
100
AcDbEntity
  8
M0
 62
     6
100
AcDbCircle
 10
125.082054
 20
375.268155
 40
0.5
100
AcDbArc
 50
197.137519
 51
270.0
  0
ARC
  5
486
100
AcDbEntity
  8
M0
 62
     6
100
AcDbCircle
 10
130.043923
 20
375.268155
 40
0.5
100
AcDbArc
 50
270.0
 51
342.859476
  0
ARC
  5
487
100
AcDbEntity
  8
M0
 62
     6
100
AcDbCircle
 10
130.043923
 20
382.868116
 40
0.5
100
AcDbArc
 50
17.134787
 51
90.0
  0
LINE
  5
488
100
AcDbEntity
  8
M0
  6
DASHDOT
 62
     6
100
AcDbLine
 10
107.562981
 20
372.268171
 11
107.562981
 21
385.868131
  0
LINE
  5
489
100
AcDbEntity
  8
M0
100
AcDbLine
 10
73.565758
 20
354.067746
 11
193.565758
 21
354.067746
  0
LINE
  5
48A
100
AcDbEntity
  8
M0
100
AcDbLine
 10
193.565758
 20
354.067746
 11
193.565758
 21
374.567594
  0
LINE
  5
48B
100
AcDbEntity
  8
M0
100
AcDbLine
 10
193.565758
 20
444.067563
 11
73.565758
 21
444.067563
  0
LINE
  5
48C
100
AcDbEntity
  8
M0
100
AcDbLine
 10
73.565758
 20
444.067563
 11
73.565758
 21
427.279508
  0
ARC
  5
48D
100
AcDbEntity
  8
M0
100
AcDbCircle
 10
178.565758
 20
436.567594
 40
5.5
100
AcDbArc
 50
180.0
 51
245.379855
  0
LINE
  5
48E
100
AcDbEntity
  8
M0
100
AcDbLine
 10
187.611367
 20
431.067594
 11
193.565758
 21
431.067594
  0
LINE
  5
48F
100
AcDbEntity
  8
M0
100
AcDbLine
 10
173.065758
 20
444.067563
 11
173.065758
 21
436.567746
  0
ARC
  5
490
100
AcDbEntity
  8
M0
100
AcDbCircle
 10
178.565758
 20
361.567746
 40
5.5
100
AcDbArc
 50
90.0
 51
179.99997
  0
LINE
  5
491
100
AcDbEntity
  8
M0
100
AcDbLine
 10
187.61155
 20
367.067594
 11
193.565758
 21
367.067594
  0
LINE
  5
492
100
AcDbEntity
  8
M0
100
AcDbLine
 10
173.065758
 20
361.567746
 11
173.065758
 21
354.067746
  0
ARC
  5
493
100
AcDbEntity
  8
M0
100
AcDbCircle
 10
88.565758
 20
361.567594
 40
5.5
100
AcDbArc
 50
0.0
 51
65.392341
  0
LINE
  5
494
100
AcDbEntity
  8
M0
100
AcDbLine
 10
73.565758
 20
367.067594
 11
81.513207
 21
367.067594
  0
LINE
  5
495
100
AcDbEntity
  8
M0
100
AcDbLine
 10
94.065758
 20
361.567731
 11
94.065758
 21
354.067746
  0
ARC
  5
496
100
AcDbEntity
  8
M0
100
AcDbCircle
 10
88.565758
 20
436.567594
 40
5.5
100
AcDbArc
 50
-68.107686
 51
0.0
  0
LINE
  5
497
100
AcDbEntity
  8
M0
100
AcDbLine
 10
73.565758
 20
431.067594
 11
81.689858
 21
431.067594
  0
LINE
  5
498
100
AcDbEntity
  8
M0
100
AcDbLine
 10
94.065758
 20
444.067563
 11
94.065758
 21
436.567731
  0
CIRCLE
  5
499
100
AcDbEntity
  8
M0
100
AcDbCircle
 10
178.565758
 20
436.567746
 40
2.5
  0
LINE
  5
49A
100
AcDbEntity
  8
M0
  6
DASHDOT
100
AcDbLine
 10
166.065758
 20
436.567746
 11
191.065758
 21
436.567746
  0
LINE
  5
49B
100
AcDbEntity
  8
M0
  6
DASHDOT
100
AcDbLine
 10
178.565758
 20
431.567594
 11
178.565758
 21
449.06735
  0
CIRCLE
  5
49C
100
AcDbEntity
  8
M0
100
AcDbCircle
 10
88.565758
 20
436.567746
 40
2.5
  0
LINE
  5
49D
100
AcDbEntity
  8
M0
  6
DASHDOT
100
AcDbLine
 10
76.065758
 20
436.567746
 11
101.065758
 21
436.567746
  0
LINE
  5
49E
100
AcDbEntity
  8
M0
  6
DASHDOT
100
AcDbLine
 10
88.565758
 20
431.567594
 11
88.565758
 21
449.06735
  0
CIRCLE
  5
49F
100
AcDbEntity
  8
M0
100
AcDbCircle
 10
178.565758
 20
361.567746
 40
2.5
  0
LINE
  5
4A0
100
AcDbEntity
  8
M0
  6
DASHDOT
100
AcDbLine
 10
166.065758
 20
361.567746
 11
191.065758
 21
361.567746
  0
LINE
  5
4A1
100
AcDbEntity
  8
M0
  6
DASHDOT
100
AcDbLine
 10
178.565758
 20
349.067594
 11
178.565758
 21
367.113248
  0
CIRCLE
  5
4A2
100
AcDbEntity
  8
M0
100
AcDbCircle
 10
88.565758
 20
361.567746
 40
2.5
  0
LINE
  5
4A3
100
AcDbEntity
  8
M0
  6
DASHDOT
100
AcDbLine
 10
76.065758
 20
361.567746
 11
101.065758
 21
361.567746
  0
LINE
  5
4A4
100
AcDbEntity
  8
M0
  6
DASHDOT
100
AcDbLine
 10
88.565758
 20
349.067594
 11
88.565758
 21
366.567838
  0
ARC
  5
4A5
100
AcDbEntity
  8
M0
100
AcDbCircle
 10
133.565758
 20
436.567746
 40
5.5
100
AcDbArc
 50
180.0
 51
360.0
  0
LINE
  5
4A6
100
AcDbEntity
  8
M0
100
AcDbLine
 10
139.065758
 20
361.567746
 11
139.065758
 21
354.067746
  0
LINE
  5
4A7
100
AcDbEntity
  8
M0
100
AcDbLine
 10
128.065758
 20
361.567746
 11
128.065758
 21
354.067746
  0
LINE
  5
4A8
100
AcDbEntity
  8
M0
100
AcDbLine
 10
139.065758
 20
444.067563
 11
139.065758
 21
436.567746
  0
LINE
  5
4A9
100
AcDbEntity
  8
M0
100
AcDbLine
 10
128.065758
 20
444.067563
 11
128.065758
 21
436.567746
  0
ARC
  5
4AA
100
AcDbEntity
  8
M0
100
AcDbCircle
 10
133.565758
 20
361.567746
 40
5.5
100
AcDbArc
 50
0.0
 51
179.99997
  0
CIRCLE
  5
4AB
100
AcDbEntity
  8
M0
100
AcDbCircle
 10
133.565758
 20
361.567746
 40
2.5
  0
LINE
  5
4AC
100
AcDbEntity
  8
M0
  6
DASHDOT
100
AcDbLine
 10
121.065758
 20
361.567746
 11
146.065758
 21
361.567746
  0
CIRCLE
  5
4AD
100
AcDbEntity
  8
M0
100
AcDbCircle
 10
133.565758
 20
436.567746
 40
2.5
  0
LINE
  5
4AE
100
AcDbEntity
  8
M0
  6
DASHDOT
100
AcDbLine
 10
121.065758
 20
436.567746
 11
146.065758
 21
436.567746
  0
LINE
  5
4AF
100
AcDbEntity
  8
M0
  6
DASHDOT
100
AcDbLine
 10
133.565758
 20
349.077894
 11
133.565758
 21
449.067563
  0
LINE
  5
4B0
100
AcDbEntity
  8
M0
  6
DASHDOT
100
AcDbLine
 10
66.426339
 20
399.06735
 11
202.961281
 21
399.067106
  0
LINE
  5
4B1
100
AcDbEntity
  8
M0
100
AcDbLine
 10
193.565758
 20
423.567594
 11
193.565758
 21
444.067563
  0
LINE
  5
4B2
100
AcDbEntity
  8
M0
100
AcDbLine
 10
73.565758
 20
370.85568
 11
73.565758
 21
354.067746
  0
LINE
  5
4B3
100
AcDbEntity
  8
M0
100
AcDbLine
 10
355.950508
 20
354.067594
 11
360.450508
 21
354.067594
  0
LINE
  5
4B4
100
AcDbEntity
  8
M0
100
AcDbLine
 10
360.450463
 20
354.067594
 11
360.450463
 21
367.267301
  0
LINE
  5
4B5
100
AcDbEntity
  8
M0
100
AcDbLine
 10
360.450508
 20
444.067594
 11
355.950508
 21
444.067594
  0
LINE
  5
4B6
100
AcDbEntity
  8
M0
100
AcDbLine
 10
355.950508
 20
444.067594
 11
355.950508
 21
354.067594
  0
LINE
  5
4B7
100
AcDbEntity
  8
M0
  6
DASHDOT
100
AcDbLine
 10
355.950463
 20
399.067594
 11
365.250267
 21
399.067594
  0
LINE
  5
4B8
100
AcDbEntity
  8
M0
100
AcDbLine
 10
356.950509
 20
367.067594
 11
358.250496
 21
367.067594
  0
LINE
  5
4B9
100
AcDbEntity
  8
M0
100
AcDbLine
 10
358.250496
 20
431.067594
 11
356.950509
 21
431.067594
  0
LINE
  5
4BA
100
AcDbEntity
  8
M0
100
AcDbLine
 10
359.450508
 20
429.867399
 11
358.150505
 21
429.867399
  0
LINE
  5
4BB
100
AcDbEntity
  8
M0
100
AcDbLine
 10
358.150505
 20
368.267545
 11
359.450508
 21
368.267545
  0
LINE
  5
4BC
100
AcDbEntity
  8
M0
100
AcDbLine
 10
357.150414
 20
428.867154
 11
357.150414
 21
369.267545
  0
LINE
  5
4BD
100
AcDbEntity
  8
M0
100
AcDbLine
 10
359.250267
 20
444.067594
 11
359.250267
 21
432.06735
  0
LINE
  5
4BE
100
AcDbEntity
  8
M0
100
AcDbLine
 10
359.250267
 20
366.067594
 11
359.250267
 21
354.067594
  0
LINE
  5
4BF
100
AcDbEntity
  8
M0
100
AcDbLine
 10
360.450463
 20
430.867154
 11
360.450463
 21
444.067594
  0
ARC
  5
4C0
100
AcDbEntity
  8
M0
100
AcDbCircle
 10
358.250496
 20
366.067594
 40
1.0
100
AcDbArc
 50
0.0
 51
90.0
  0
ARC
  5
4C1
100
AcDbEntity
  8
M0
100
AcDbCircle
 10
359.450508
 20
367.267545
 40
1.0
100
AcDbArc
 50
359.985957
 51
450.0
  0
ARC
  5
4C2
100
AcDbEntity
  8
M0
100
AcDbCircle
 10
356.950509
 20
368.067594
 40
1.0
100
AcDbArc
 50
180.0
 51
270.0
  0
ARC
  5
4C3
100
AcDbEntity
  8
M0
100
AcDbCircle
 10
358.150505
 20
369.267545
 40
1.0
100
AcDbArc
 50
180.0
 51
270.0
  0
ARC
  5
4C4
100
AcDbEntity
  8
M0
100
AcDbCircle
 10
359.450508
 20
430.867154
 40
1.0
100
AcDbArc
 50
270.0
 51
359.985137
  0
ARC
  5
4C5
100
AcDbEntity
  8
M0
100
AcDbCircle
 10
358.250496
 20
432.06735
 40
1.0
100
AcDbArc
 50
270.0
 51
360.0
  0
ARC
  5
4C6
100
AcDbEntity
  8
M0
100
AcDbCircle
 10
358.150505
 20
428.867154
 40
1.0
100
AcDbArc
 50
90.0
 51
180.0
  0
ARC
  5
4C7
100
AcDbEntity
  8
M0
100
AcDbCircle
 10
356.950509
 20
430.06735
 40
1.0
100
AcDbArc
 50
90.0
 51
180.0
  0
LINE
  5
4C8
100
AcDbEntity
  8
M0
  6
DASHDOT
100
AcDbLine
 10
353.099068
 20
373.067594
 11
360.764061
 21
373.067594
  0
LINE
  5
4C9
100
AcDbEntity
  8
M0
  6
DASHDOT
100
AcDbLine
 10
351.432778
 20
425.067594
 11
362.0971
 21
425.067594
  0
LINE
  5
4CA
100
AcDbEntity
  8
M0
100
AcDbLine
 10
357.150505
 20
427.067594
 11
358.350502
 21
427.067594
  0
LINE
  5
4CB
100
AcDbEntity
  8
M0
100
AcDbLine
 10
357.150505
 20
423.067594
 11
358.350502
 21
423.067594
  0
LINE
  5
4CC
100
AcDbEntity
  8
M0
100
AcDbLine
 10
357.150505
 20
375.067594
 11
358.350502
 21
375.067594
  0
LINE
  5
4CD
100
AcDbEntity
  8
M0
100
AcDbLine
 10
357.150505
 20
371.067594
 11
358.350502
 21
371.067594
  0
LINE
  5
4CE
100
AcDbEntity
  8
M0
100
AcDbLine
 10
358.350502
 20
427.067594
 11
358.350502
 21
423.067594
  0
LINE
  5
4CF
100
AcDbEntity
  8
M0
100
AcDbLine
 10
358.350502
 20
375.067594
 11
358.350502
 21
371.067594
  0
LINE
  5
4D0
100
AcDbEntity
  8
M0
100
AcDbLine
 10
166.011788
 20
430.06735
 11
167.111367
 21
430.06735
  0
LINE
  5
4D1
100
AcDbEntity
  8
M0
100
AcDbLine
 10
166.011757
 20
369.567594
 11
167.111824
 21
369.567594
  0
LINE
  5
4D2
100
AcDbEntity
  8
M0
100
AcDbLine
 10
102.013207
 20
369.568082
 11
103.113274
 21
369.568082
  0
LINE
  5
4D3
100
AcDbEntity
  8
M0
100
AcDbLine
 10
102.013237
 20
430.067838
 11
103.112816
 21
430.067838
  0
ARC
  5
4D4
100
AcDbEntity
  8
M0
 62
     2
100
AcDbCircle
 10
85.565758
 20
425.068082
 40
3.499993
100
AcDbArc
 50
334.62294
 51
483.918097
  0
LINE
  5
4D5
100
AcDbEntity
  8
M0
 62
     2
100
AcDbLine
 10
84.151497
 20
426.482114
 11
86.979905
 21
423.65302
  0
LINE
  5
4D6
100
AcDbEntity
  8
M0
 62
     2
100
AcDbLine
 10
86.27285
 20
427.188688
 11
83.612816
 21
424.528531
  0
LINE
  5
4D7
100
AcDbEntity
  8
M0
 62
     2
100
AcDbLine
 10
87.687065
 20
425.774869
 11
85.480431
 21
423.568082
  0
LINE
  5
4D8
100
AcDbEntity
  8
M0
 62
     2
100
AcDbLine
 10
345.450463
 20
369.067106
 11
345.950463
 21
369.067106
  0
LINE
  5
4D9
100
AcDbEntity
  8
M0
 62
     2
100
AcDbLine
 10
345.950463
 20
369.067106
 11
345.950463
 21
377.067594
  0
LINE
  5
4DA
100
AcDbEntity
  8
M0
 62
     2
100
AcDbLine
 10
345.950463
 20
377.067594
 11
345.450463
 21
377.067594
  0
LINE
  5
4DB
100
AcDbEntity
  8
M0
 62
     2
100
AcDbLine
 10
345.450463
 20
377.067594
 11
345.450463
 21
369.067106
  0
LINE
  5
4DC
100
AcDbEntity
  8
M0
 62
     2
100
AcDbLine
 10
344.450463
 20
369.567594
 11
345.450463
 21
369.567594
  0
LINE
  5
4DD
100
AcDbEntity
  8
M0
 62
     2
100
AcDbLine
 10
345.450463
 20
376.567106
 11
344.450463
 21
376.567106
  0
LINE
  5
4DE
100
AcDbEntity
  8
M0
 62
     2
100
AcDbLine
 10
344.450463
 20
369.567594
 11
344.450463
 21
376.567106
  0
LINE
  5
4DF
100
AcDbEntity
  8
M0
 62
     2
100
AcDbLine
 10
343.331078
 20
369.66525
 11
344.450463
 21
369.567106
  0
LINE
  5
4E0
100
AcDbEntity
  8
M0
 62
     2
100
AcDbLine
 10
343.331078
 20
376.468961
 11
344.450463
 21
376.567106
  0
ARC
  5
4E1
100
AcDbEntity
  8
M0
 62
     2
100
AcDbCircle
 10
350.850609
 20
373.06735
 40
8.999985
100
AcDbArc
 50
164.121632
 51
195.884306
  0
ARC
  5
4E2
100
AcDbEntity
  8
M0
 62
     2
100
AcDbCircle
 10
343.444359
 20
370.959928
 40
1.299995
100
AcDbArc
 50
195.889213
 51
264.999484
  0
ARC
  5
4E3
100
AcDbEntity
  8
M0
 62
     2
100
AcDbCircle
 10
343.444359
 20
375.174283
 40
1.299995
100
AcDbArc
 50
95.000474
 51
164.13141
  0
ARC
  5
4E4
100
AcDbEntity
  8
M0
 62
     2
100
AcDbCircle
 10
183.565758
 20
373.067594
 40
3.499993
100
AcDbArc
 50
154.623024
 51
303.779217
  0
LINE
  5
4E5
100
AcDbEntity
  8
M0
 62
     2
100
AcDbLine
 10
182.151497
 20
374.481626
 11
184.979905
 21
371.652532
  0
LINE
  5
4E6
100
AcDbEntity
  8
M0
 62
     2
100
AcDbLine
 10
183.65223
 20
374.56735
 11
181.444435
 21
372.35983
  0
LINE
  5
4E7
100
AcDbEntity
  8
M0
 62
     2
100
AcDbLine
 10
185.511757
 20
373.598844
 11
182.858651
 21
370.945768
  0
ARC
  5
4E8
100
AcDbEntity
  8
M0
 62
     2
100
AcDbCircle
 10
149.565758
 20
425.067594
 40
3.499993
100
AcDbArc
 50
334.62294
 51
483.946735
  0
LINE
  5
4E9
100
AcDbEntity
  8
M0
 62
     2
100
AcDbLine
 10
148.151497
 20
426.481626
 11
150.979905
 21
423.652532
  0
LINE
  5
4EA
100
AcDbEntity
  8
M0
 62
     2
100
AcDbLine
 10
150.27285
 20
427.188199
 11
147.611367
 21
424.526578
  0
LINE
  5
4EB
100
AcDbEntity
  8
M0
 62
     2
100
AcDbLine
 10
151.687065
 20
425.774381
 11
149.480431
 21
423.567594
  0
ARC
  5
4EC
100
AcDbEntity
  8
M0
 62
     2
100
AcDbCircle
 10
119.565758
 20
373.068082
 40
3.499993
100
AcDbArc
 50
154.623024
 51
303.807791
  0
LINE
  5
4ED
100
AcDbEntity
  8
M0
 62
     2
100
AcDbLine
 10
118.151497
 20
374.482114
 11
120.979905
 21
371.65302
  0
LINE
  5
4EE
100
AcDbEntity
  8
M0
 62
     2
100
AcDbLine
 10
119.65223
 20
374.567838
 11
117.444435
 21
372.360318
  0
LINE
  5
4EF
100
AcDbEntity
  8
M0
 62
     2
100
AcDbLine
 10
121.513207
 20
373.600797
 11
118.858651
 21
370.946256
  0
LINE
  5
4F0
100
AcDbEntity
  8
M0
 62
     2
100
AcDbLine
 10
345.950463
 20
425.067594
 11
345.950463
 21
429.067594
  0
LINE
  5
4F1
100
AcDbEntity
  8
M0
 62
     2
100
AcDbLine
 10
345.950463
 20
429.067594
 11
345.450463
 21
429.067594
  0
LINE
  5
4F2
100
AcDbEntity
  8
M0
 62
     2
100
AcDbLine
 10
345.450463
 20
429.067594
 11
345.450463
 21
425.067594
  0
LINE
  5
4F3
100
AcDbEntity
  8
M0
  6
DASHDOT
 62
     2
100
AcDbLine
 10
339.455101
 20
425.06735
 11
356.941674
 21
425.06735
  0
LINE
  5
4F4
100
AcDbEntity
  8
M0
 62
     2
100
AcDbLine
 10
345.450463
 20
428.567106
 11
344.450463
 21
428.567106
  0
LINE
  5
4F5
100
AcDbEntity
  8
M0
 62
     2
100
AcDbLine
 10
344.450463
 20
425.067594
 11
344.450463
 21
428.567106
  0
LINE
  5
4F6
100
AcDbEntity
  8
M0
 62
     2
100
AcDbLine
 10
343.331078
 20
428.468961
 11
344.450463
 21
428.567106
  0
ARC
  5
4F7
100
AcDbEntity
  8
M0
 62
     2
100
AcDbCircle
 10
350.850609
 20
425.06735
 40
8.999985
100
AcDbArc
 50
164.121632
 51
179.999964
  0
ARC
  5
4F8
100
AcDbEntity
  8
M0
 62
     2
100
AcDbCircle
 10
343.444359
 20
427.174283
 40
1.299995
100
AcDbArc
 50
95.000474
 51
164.13141
  0
LINE
  5
4F9
100
AcDbEntity
  8
M1
 62
     2
100
AcDbLine
 10
20.0
 20
20.0
 11
20.0
 21
570.0
  0
LINE
  5
4FA
100
AcDbEntity
  8
M1
 62
     2
100
AcDbLine
 10
20.0
 20
570.0
 11
400.0
 21
570.0
  0
LINE
  5
4FB
100
AcDbEntity
  8
M1
 62
     2
100
AcDbLine
 10
400.0
 20
570.0
 11
400.0
 21
20.0
  0
LINE
  5
4FC
100
AcDbEntity
  8
M1
 62
     2
100
AcDbLine
 10
400.0
 20
20.0
 11
20.0
 21
20.0
  0
LINE
  5
4FD
100
AcDbEntity
  8
M1
 62
     2
100
AcDbLine
 10
400.0
 20
40.0
 11
200.0
 21
40.0
  0
LINE
  5
4FE
100
AcDbEntity
  8
M1
 62
     2
100
AcDbLine
 10
400.0
 20
60.0
 11
200.0
 21
60.0
  0
LINE
  5
4FF
100
AcDbEntity
  8
M1
 62
     2
100
AcDbLine
 10
400.0
 20
80.0
 11
200.0
 21
80.0
  0
LINE
  5
500
100
AcDbEntity
  8
M1
 62
     2
100
AcDbLine
 10
200.0
 20
20.0
 11
200.0
 21
80.0
  0
TEXT
  5
501
100
AcDbEntity
  8
M1
 62
     2
100
AcDbText
 10
205.0
 20
25.0
 40
10.0
  1
適　用；
  7
STANDARD
100
AcDbText
  0
TEXT
  5
502
100
AcDbEntity
  8
M1
 62
     2
100
AcDbText
 10
205.0
 20
65.0
 40
10.0
  1
登録名：
  7
STANDARD
100
AcDbText
  0
TEXT
  5
503
100
AcDbEntity
  8
M1
 62
     2
100
AcDbText
 10
253.0
 20
65.0
 40
10.0
  1
ＤＭＨ１２ＲＲ００
 41
0.5
  7
STANDARD
100
AcDbText
  0
TEXT
  5
504
100
AcDbEntity
  8
M1
 62
     2
100
AcDbText
 10
205.0
 20
45.0
 40
10.0
  1
形　式；
  7
STANDARD
100
AcDbText
  0
TEXT
  5
505
100
AcDbEntity
  8
M1
 62
     2
100
AcDbText
 10
253.0
 20
45.0
 40
10.0
  1
Ｈ１２－Ｒ
 41
0.5
  7
STANDARD
100
AcDbText
  0
LINE
  5
506
100
AcDbEntity
  8
DN0
100
AcDbLine
 10
116.226396
 20
139.667245
 11
152.746405
 21
139.667245
  0
TEXT
  5
507
100
AcDbEntity
  8
DN0
100
AcDbText
 10
117.236396
 20
140.567245
 40
9.0
  1
せん孔図
 41
0.833333
  7
STANDARD
100
AcDbText
  0
ENDSEC
  0
SECTION
  2
OBJECTS
  0
DICTIONARY
  5
C
100
AcDbDictionary
  3
ACAD_GROUP
350
D
  3
ACAD_MLINESTYLE
350
E
  0
DICTIONARY
  5
D
102
{ACAD_REACTORS
330
C
102
}
100
AcDbDictionary
  0
DICTIONARY
  5
E
102
{ACAD_REACTORS
330
C
102
}
100
AcDbDictionary
  3
STANDARD
350
13
  0
MLINESTYLE
  5
13
102
{ACAD_REACTORS
330
E
102
}
100
AcDbMlineStyle
  2
STANDARD
 70
     0
  3

 62
     0
 51
90.0
 52
90.0
 71
     2
 49
0.5
 62
   256
  6
BYLAYER
 49
-0.5
 62
   256
  6
BYLAYER
  0
ENDSEC
  0
EOF
