  0
SECTION
  2
HEADER
  9
$ACADVER
  1
AC1014
  9
$INSBASE
 10
0.000000
 20
0.000000
 30
0.0
  9
$VIEWCTR
 10
7.531722
 20
4.5
  9
$VIEWSIZE
 40
9.0
  9
$SNAPMODE
 70
     0
  9
$SNAPUNIT
 10
1.0
 20
1.0
  9
$SNAPBASE
 10
0.0
 20
0.0
  9
$SNAPANG
 50
0.0
  9
$SNAPSTYLE
 70
     0
  9
$SNAPISOPAIR
 70
     0
  9
$GRIDMODE
 70
     0
  9
$GRIDUNIT
 10
0.0
 20
0.0
  9
$ORTHOMODE
 70
     0
  9
$REGENMODE
 70
     1
  9
$FILLMODE
 70
     1
  9
$QTEXTMODE
 70
     0
  9
$DRAGMODE
 70
     2
  9
$LTSCALE
  40
     1.000000
  9
$OSMODE
 70
     0
  9
$ATTMODE
 70
     1
  9
$TEXTSIZE
 40
0.2
  9
$TRACEWID
 40
0.05
  9
$TEXTSTYLE
  7
STANDARD
  9
$CELTYPE
  6
BYLAYER
  9
$CECOLOR
 62
   256
  9
$DIMSCALE
 40
1.0
  9
$DIMASZ
 40
0.18
  9
$DIMEXO
 40
0.0625
  9
$DIMDLI
 40
0.38
  9
$DIMRND
 40
0.0
  9
$DIMDLE
 40
0.0
  9
$DIMEXE
 40
0.18
  9
$DIMTP
 40
0.0
  9
$DIMTM
 40
0.0
  9
$DIMTXT
 40
0.18
  9
$DIMCEN
 40
0.09
  9
$DIMTSZ
 40
0.0
  9
$DIMTOL
 70
     0
  9
$DIMLIM
 70
     0
  9
$DIMTIH
 70
     1
  9
$DIMTOH
 70
     1
  9
$DIMSE1
 70
     0
  9
$DIMSE2
 70
     0
  9
$DIMTAD
 70
     0
  9
$DIMZIN
 70
     0
  9
$DIMBLK
  1

  9
$LUNITS
 70
     2
  9
$LUPREC
 70
     4
  9
$AXISMODE
 70
     0
  9
$AXISUNIT
 10
0.0
 20
0.0
  9
$SKETCHINC
 40
0.1
  9
$FILLETRAD
 40
0.0
  9
$AUNITS
 70
     0
  9
$AUPREC
 70
     0
  9
$MENU
  1
ACAD
  9
$ELEVATION
 40
0.0
  9
$THICKNESS
 40
0.0
  9
$VIEWDIR
 10
0.0
 20
0.0
 30
1.0
  9
$LIMCHECK
 70
     0
  9
$BLIPMODE
 70
     1
  9
$CHAMFERA
 40
0.0
  9
$CHAMFERB
 40
0.0
  9
$FASTZOOM
 70
     1
  9
$SKPOLY
 70
     0
  9
$TDCREATE
 40
0000000.0000000000
  9
$TDUPDATE
 40
0000000.0000000000
  9
$TDINDWG
 40
0.0000000000
  9
$TDUSRTIMER
 40
0.0000000000
  9
$USRTIMER
 70
     1
  9
$ANGBASE
 50
0.0
  9
$ANGDIR
 70
     0
  9
$PDMODE
 70
     0
  9
$PDSIZE
 40
0.0
  9
$PLINEWID
 40
0.0
  9
$COORDS
 70
     0
  9
$USERI1
 70
     0
  9
$USERI2
 70
     0
  9
$USERI3
 70
     0
  9
$USERI4
 70
     0
  9
$USERI5
 70
     0
  9
$USERR1
 40
0.0
  9
$USERR2
 40
0.0
  9
$USERR3
 40
0.0
  9
$USERR4
 40
0.0
  9
$USERR5
 40
0.0
  9
$CLAYER
  8
M0
  9
$EXTMIN
 10
16.666666
 20
16.666666
  9
$EXTMAX
 10
333.33332
 20
474.999981
  9
$LIMMIN
 10
0.0
 20
0.0
  9
$LIMMAX
 10
210.0
 20
297.0
  9
$HANDSEED
  5
6F8
  0
ENDSEC
  0
SECTION
  2
CLASSES
  0
ENDSEC
  0
SECTION
  2
TABLES
  0
TABLE
  2
VPORT
  5
8
100
AcDbSymbolTable
 70
     2
  0
VPORT
  5
14
100
AcDbSymbolTableRecord
100
AcDbViewportTableRecord
  2
*ACTIVE
 70
     0
 10
0.0
 20
0.0
 11
1.0
 21
1.0
 12
484.0
 22
297.0
 13
0.0
 23
0.0
 14
1.0
 24
1.0
 15
0.0
 25
0.0
 16
0.0
 26
0.0
 36
1.0
 17
0.0
 27
0.0
 37
0.0
 40
594.0
 41
2.0
 42
50.0
 43
0.0
 44
0.0
 50
0.0
 51
0.0
 71
     0
 72
   100
 73
     1
 74
     1
 75
     0
 76
     0
 77
     0
 78
     0
  0
ENDTAB
  0
TABLE
  2
LTYPE
  5
5
100
AcDbSymbolTable
 70
     5
  0
LTYPE
  5
15
100
AcDbSymbolTableRecord
100
AcDbLinetypeTableRecord
  2
BYBLOCK
 70
     0
  3

 72
    65
 73
     0
 40
0.0
  0
LTYPE
  5
16
100
AcDbSymbolTableRecord
100
AcDbLinetypeTableRecord
  2
BYLAYER
 70
     0
  3

 72
    65
 73
     0
 40
0.0
  0
LTYPE
  5
17
100
AcDbSymbolTableRecord
100
AcDbLinetypeTableRecord
  2
CONTINUOUS
 70
    64
  3
Solid line
 72
    65
 73
     0
 40
0.0
  0
LTYPE
  5
18
100
AcDbSymbolTableRecord
100
AcDbLinetypeTableRecord
  2
DASHED
 70
    64
  3
__ __ __ __ __ __ __ __ __ __ __ __ __ __ __ __
 72
    65
 73
     2
 40
0.75
 49
0.5
 74
     0
 49
-0.25
 74
     0
  0
LTYPE
  5
19
100
AcDbSymbolTableRecord
100
AcDbLinetypeTableRecord
  2
DASHDOT
 70
    64
  3
__ . __ . __ . __ . __ . __ . __ . __ . __ . __
 72
    65
 73
     4
 40
1.0
 49
0.5
 74
     0
 49
-0.25
 74
     0
 49
0.0
 74
     0
 49
-0.25
 74
     0
  0
LTYPE
  5
1A
100
AcDbSymbolTableRecord
100
AcDbLinetypeTableRecord
  2
DIVIDE
 70
    64
  3
____ . . ____ . . ____ . . ____ . . ____ . . __
 72
    65
 73
     6
 40
1.25
 49
0.5
 74
     0
 49
-0.25
 74
     0
 49
0.0
 74
     0
 49
-0.25
 74
     0
 49
0.0
 74
     0
 49
-0.25
 74
     0
  0
LTYPE
  5
1B
100
AcDbSymbolTableRecord
100
AcDbLinetypeTableRecord
  2
DOT
 70
    64
  3
. . . . . . . . . . . . . . . . . . . . . . . .
 72
    65
 73
     2
 40
0.25
 49
0.0
 74
     0
 49
-0.25
 74
     0
  0
ENDTAB
  0
TABLE
  2
LAYER
  5
2
100
AcDbSymbolTable
 70
   102
  0
LAYER
  5
F
100
AcDbSymbolTableRecord
100
AcDbLayerTableRecord
  2
0
 70
     0
 62
     7
  6
CONTINUOUS
  0
LAYER
  5
1C
100
AcDbSymbolTableRecord
100
AcDbLayerTableRecord
  2
DEFPOINTS
 70
     0
 62
     7
  6
CONTINUOUS
  0
LAYER
  5
1D
100
AcDbSymbolTableRecord
100
AcDbLayerTableRecord
  2
M0
 70
     0
 62
     3
  6
CONTINUOUS
  0
LAYER
  5
1E
100
AcDbSymbolTableRecord
100
AcDbLayerTableRecord
  2
M1
 70
     0
 62
     3
  6
CONTINUOUS
  0
LAYER
  5
1F
100
AcDbSymbolTableRecord
100
AcDbLayerTableRecord
  2
DD0
 70
     0
 62
     4
  6
CONTINUOUS
  0
LAYER
  5
20
100
AcDbSymbolTableRecord
100
AcDbLayerTableRecord
  2
DN0
 70
     0
 62
     2
  6
CONTINUOUS
  0
ENDTAB
  0
TABLE
  2
STYLE
  5
3
100
AcDbSymbolTable
 70
     2
  0
STYLE
  5
10
100
AcDbSymbolTableRecord
100
AcDbTextStyleTableRecord
  2
STANDARD
 70
     0
 40
0.0
 41
1.0
 50
0.0
 71
     0
 42
0.2
  3
txt
  4
BIGFONT
  0
ENDTAB
  0
TABLE
  2
VIEW
  5
6
100
AcDbSymbolTable
 70
     0
  0
ENDTAB
  0
TABLE
  2
UCS
  5
7
100
AcDbSymbolTable
 70
     0
  0
ENDTAB
  0
TABLE
  2
APPID
  5
9
100
AcDbSymbolTable
 70
     1
  0
APPID
  5
11
100
AcDbSymbolTableRecord
100
AcDbRegAppTableRecord
  2
ACAD
 70
     0
  0
ENDTAB
  0
TABLE
  2
DIMSTYLE
  5
A
100
AcDbSymbolTable
 70
     2
  0
DIMSTYLE
105
27
100
AcDbSymbolTableRecord
100
AcDbDimStyleTableRecord
  2
STANDARD
 70
     0
  3

  4

  5

  6
_OPEN
  7
_OPEN
 40
1.0
 41
5.0
 42
1.0
 43
8.0
 44
1.0
 45
0.0
 46
0.0
 47
0.0
 48
0.0
140
5.25
141
0.09
142
0.0
143
0.03937
144
1.0
145
0.0
146
1.0
147
0.6
 71
     0
 72
     0
 73
     1
 74
     1
 75
     0
 76
     0
 77
     3
 78
     8
170
     0
171
     2
172
     0
173
     1
174
     0
175
     0
176
     0
177
     0
178
     0
270
     2
271
     2
272
     4
273
     2
274
     2
340
10
275
     0
280
     0
281
     0
282
     0
283
     1
284
     0
285
     0
286
     0
287
     3
288
     0
  0
DIMSTYLE
105
28
100
AcDbSymbolTableRecord
100
AcDbDimStyleTableRecord
  2
LEADSTYL
 70
     0
  3

  4

  5

  6
_OPEN
  7
_OPEN
 40
1.0
 41
5.0
 42
0.0625
 43
0.38
 44
0.18
 45
0.0
 46
0.0
 47
0.0
 48
0.0
140
5.25
141
0.09
142
0.0
143
25.4
144
1.0
145
0.0
146
1.0
147
0.6
 71
     0
 72
     0
 73
     1
 74
     1
 75
     0
 76
     0
 77
     0
 78
     0
170
     0
171
     2
172
     0
173
     1
174
     0
175
     0
176
     0
177
     0
178
     0
270
     2
271
     4
272
     4
273
     2
274
     2
340
10
275
     0
280
     0
281
     0
282
     0
283
     1
284
     0
285
     0
286
     0
287
     3
288
     0
  0
ENDTAB
  0
TABLE
  2
BLOCK_RECORD
  5
1
100
AcDbSymbolTable
 70
    19
  0
BLOCK_RECORD
  5
21
100
AcDbSymbolTableRecord
100
AcDbBlockTableRecord
  2
*MODEL_SPACE
  0
BLOCK_RECORD
  5
24
100
AcDbSymbolTableRecord
100
AcDbBlockTableRecord
  2
*PAPER_SPACE
  0
BLOCK_RECORD
  5
29
100
AcDbSymbolTableRecord
100
AcDbBlockTableRecord
  2
_NONE
  0
BLOCK_RECORD
  5
2D
100
AcDbSymbolTableRecord
100
AcDbBlockTableRecord
  2
_OPEN
  0
BLOCK_RECORD
  5
33
100
AcDbSymbolTableRecord
100
AcDbBlockTableRecord
  2
_CLOSED
  0
BLOCK_RECORD
  5
3A
100
AcDbSymbolTableRecord
100
AcDbBlockTableRecord
  2
_ORIGIN
  0
BLOCK_RECORD
  5
3F
100
AcDbSymbolTableRecord
100
AcDbBlockTableRecord
  2
_DOT
  0
BLOCK_RECORD
  5
47
100
AcDbSymbolTableRecord
100
AcDbBlockTableRecord
  2
_OBLIQUE
  0
BLOCK_RECORD
  5
4B
100
AcDbSymbolTableRecord
100
AcDbBlockTableRecord
  2
DIMS0
  0
BLOCK_RECORD
  5
57
100
AcDbSymbolTableRecord
100
AcDbBlockTableRecord
  2
DIMS1
  0
BLOCK_RECORD
  5
63
100
AcDbSymbolTableRecord
100
AcDbBlockTableRecord
  2
DIMS2
  0
BLOCK_RECORD
  5
6F
100
AcDbSymbolTableRecord
100
AcDbBlockTableRecord
  2
DIMS3
  0
BLOCK_RECORD
  5
7B
100
AcDbSymbolTableRecord
100
AcDbBlockTableRecord
  2
DIMS4
  0
BLOCK_RECORD
  5
82
100
AcDbSymbolTableRecord
100
AcDbBlockTableRecord
  2
DIMS5
  0
BLOCK_RECORD
  5
87
100
AcDbSymbolTableRecord
100
AcDbBlockTableRecord
  2
DIMS6
  0
BLOCK_RECORD
  5
91
100
AcDbSymbolTableRecord
100
AcDbBlockTableRecord
  2
DIMS7
  0
BLOCK_RECORD
  5
9D
100
AcDbSymbolTableRecord
100
AcDbBlockTableRecord
  2
DIMS8
  0
BLOCK_RECORD
  5
A9
100
AcDbSymbolTableRecord
100
AcDbBlockTableRecord
  2
DIMS9
  0
BLOCK_RECORD
  5
B5
100
AcDbSymbolTableRecord
100
AcDbBlockTableRecord
  2
DIMS10
  0
BLOCK_RECORD
  5
C1
100
AcDbSymbolTableRecord
100
AcDbBlockTableRecord
  2
DIMS11
  0
BLOCK_RECORD
  5
CD
100
AcDbSymbolTableRecord
100
AcDbBlockTableRecord
  2
DIMS12
  0
ENDTAB
  0
ENDSEC
  0
SECTION
  2
BLOCKS
  0
BLOCK
  5
22
100
AcDbEntity
  8
0
100
AcDbBlockBegin
  2
*MODEL_SPACE
 70
     0
 10
0.0
 20
0.0
 30
0.0
  3
*MODEL_SPACE
  1

  0
ENDBLK
  5
23
100
AcDbEntity
  8
0
100
AcDbBlockEnd
  0
BLOCK
  5
25
100
AcDbEntity
 67
     1
  8
0
100
AcDbBlockBegin
  2
*PAPER_SPACE
 70
     0
 10
0.0
 20
0.0
 30
0.0
  3
*PAPER_SPACE
  1

  0
ENDBLK
  5
26
100
AcDbEntity
 67
     1
  8
0
100
AcDbBlockEnd
  0
BLOCK
  5
2A
100
AcDbEntity
  8
0
100
AcDbBlockBegin
  2
_NONE
 70
     0
 10
0.0
 20
0.0
  0
CIRCLE
  5
2B
100
AcDbEntity
  8
0
 62
     0
100
AcDbCircle
 10
0.0
 20
0.0
 40
0.25
  0
ENDBLK
  5
2C
100
AcDbEntity
  8
0
100
AcDbBlockEnd
  0
BLOCK
  5
2E
100
AcDbEntity
  8
0
100
AcDbBlockBegin
  2
_OPEN
 70
     0
 10
0.0
 20
0.0
  0
LINE
  5
2F
100
AcDbEntity
  8
0
 62
     0
100
AcDbLine
 10
-0.965926
 20
0.258819
 11
0.0
 21
0.0
  0
LINE
  5
30
100
AcDbEntity
  8
0
 62
     0
100
AcDbLine
 10
0.0
 20
0.0
 11
-0.965926
 21
-0.258819
  0
LINE
  5
31
100
AcDbEntity
  8
0
 62
     0
100
AcDbLine
 10
0.0
 20
0.0
 11
-1.0
 21
0.0
  0
ENDBLK
  5
32
100
AcDbEntity
  8
0
100
AcDbBlockEnd
  0
BLOCK
  5
34
100
AcDbEntity
  8
0
100
AcDbBlockBegin
  2
_CLOSED
 70
     0
 10
0.0
 20
0.0
  0
LINE
  5
35
100
AcDbEntity
  8
0
 62
     0
100
AcDbLine
 10
-0.965926
 20
0.258819
 11
0.0
 21
0.0
  0
LINE
  5
36
100
AcDbEntity
  8
0
 62
     0
100
AcDbLine
 10
0.0
 20
0.0
 11
-0.965926
 21
-0.258819
  0
LINE
  5
37
100
AcDbEntity
  8
0
 62
     0
100
AcDbLine
 10
-0.965926
 20
0.258819
 11
-0.965926
 21
-0.258819
  0
LINE
  5
38
100
AcDbEntity
  8
0
 62
     0
100
AcDbLine
 10
0.0
 20
0.0
 11
-1.0
 21
0.0
  0
ENDBLK
  5
39
100
AcDbEntity
  8
0
100
AcDbBlockEnd
  0
BLOCK
  5
3B
100
AcDbEntity
  8
0
100
AcDbBlockBegin
  2
_ORIGIN
 70
     0
 10
0.0
 20
0.0
  0
CIRCLE
  5
3C
100
AcDbEntity
  8
0
 62
     0
100
AcDbCircle
 10
0.0
 20
0.0
 40
0.5
  0
LINE
  5
3D
100
AcDbEntity
  8
0
 62
     0
100
AcDbLine
 10
0.0
 20
0.0
 11
-1.0
 21
0.0
  0
ENDBLK
  5
3E
100
AcDbEntity
  8
0
100
AcDbBlockEnd
  0
BLOCK
  5
40
100
AcDbEntity
  8
0
100
AcDbBlockBegin
  2
_DOT
 70
     0
 10
0.0
 20
0.0
  0
POLYLINE
  5
41
100
AcDbEntity
  8
0
 62
     0
100
AcDb2dPolyline
 66
     1
 70
     1
 40
0.5
 41
0.5
  0
VERTEX
  5
42
100
AcDbEntity
  8
0
 62
     0
100
AcDbVertex
100
AcDb2dVertex
 10
-0.25
 20
0.0
 42
1.0
  0
VERTEX
  5
43
100
AcDbEntity
  8
0
 62
     0
100
AcDbVertex
100
AcDb2dVertex
 10
0.25
 20
0.0
 42
1.0
  0
SEQEND
  5
44
100
AcDbEntity
  8
0
 62
     0
  0
LINE
  5
45
100
AcDbEntity
  8
0
 62
     0
100
AcDbLine
 10
-0.5
 20
0.0
 11
-1.0
 21
0.0
  0
ENDBLK
  5
46
100
AcDbEntity
  8
0
100
AcDbBlockEnd
  0
BLOCK
  5
48
100
AcDbEntity
  8
0
100
AcDbBlockBegin
  2
_OBLIQUE
 70
     0
 10
0.0
 20
0.0
  0
LINE
  5
49
100
AcDbEntity
  8
0
 62
     0
100
AcDbLine
 10
-0.353553
 20
-0.353553
 11
0.353553
 21
0.353553
  0
ENDBLK
  5
4A
100
AcDbEntity
  8
0
100
AcDbBlockEnd
  0
BLOCK
  5
4C
100
AcDbEntity
  8
DD0
100
AcDbBlockBegin
  2
DIMS0
 70
     0
 10
0.0
 20
0.0
  0
LINE
  5
4D
100
AcDbEntity
  8
DD0
100
AcDbLine
 10
162.302405
 20
221.243964
 11
182.823517
 21
221.243964
  0
LINE
  5
4E
100
AcDbEntity
  8
DD0
100
AcDbLine
 10
153.900064
 20
213.743735
 11
182.823517
 21
213.743735
  0
LINE
  5
4F
100
AcDbEntity
  8
DD0
100
AcDbLine
 10
179.862755
 20
226.073593
 11
181.156851
 21
221.243964
  0
LINE
  5
50
100
AcDbEntity
  8
DD0
100
AcDbLine
 10
181.156851
 20
221.243964
 11
182.450946
 21
226.073593
  0
LINE
  5
51
100
AcDbEntity
  8
DD0
100
AcDbLine
 10
182.450946
 20
208.914106
 11
181.156851
 21
213.743735
  0
LINE
  5
52
100
AcDbEntity
  8
DD0
100
AcDbLine
 10
181.156851
 20
213.743735
 11
179.862755
 21
208.914106
  0
LINE
  5
53
100
AcDbEntity
  8
DD0
100
AcDbLine
 10
181.156851
 20
242.120307
 11
181.156851
 21
208.243736
  0
TEXT
  5
54
100
AcDbEntity
  8
DD0
100
AcDbText
 10
180.156955
 20
225.132809
 40
5.25
  1
７．５
 50
89.999982
 41
0.833333
  7
STANDARD
100
AcDbText
  0
ENDBLK
  5
55
100
AcDbEntity
  8
DD0
100
AcDbBlockEnd
  0
BLOCK
  5
58
100
AcDbEntity
  8
DD0
100
AcDbBlockBegin
  2
DIMS1
 70
     0
 10
0.0
 20
0.0
  0
LINE
  5
59
100
AcDbEntity
  8
DD0
100
AcDbLine
 10
55.635984
 20
221.507814
 11
55.635984
 21
240.577002
  0
LINE
  5
5A
100
AcDbEntity
  8
DD0
100
AcDbLine
 10
145.635981
 20
222.00731
 11
145.635981
 21
240.577002
  0
LINE
  5
5B
100
AcDbEntity
  8
DD0
100
AcDbLine
 10
60.465613
 20
240.20443
 11
55.635984
 21
238.910335
  0
LINE
  5
5C
100
AcDbEntity
  8
DD0
100
AcDbLine
 10
55.635984
 20
238.910335
 11
60.465613
 21
237.61624
  0
LINE
  5
5D
100
AcDbEntity
  8
DD0
100
AcDbLine
 10
140.806352
 20
237.61624
 11
145.635981
 21
238.910335
  0
LINE
  5
5E
100
AcDbEntity
  8
DD0
100
AcDbLine
 10
145.635981
 20
238.910335
 11
140.806352
 21
240.20443
  0
LINE
  5
5F
100
AcDbEntity
  8
DD0
100
AcDbLine
 10
55.635984
 20
238.910335
 11
145.635981
 21
238.910335
  0
TEXT
  5
60
100
AcDbEntity
  8
DD0
100
AcDbText
 10
95.815149
 20
239.910345
 40
5.25
  1
９０
 41
0.833333
  7
STANDARD
100
AcDbText
  0
ENDBLK
  5
61
100
AcDbEntity
  8
DD0
100
AcDbBlockEnd
  0
BLOCK
  5
64
100
AcDbEntity
  8
DD0
100
AcDbBlockBegin
  2
DIMS2
 70
     0
 10
0.0
 20
0.0
  0
LINE
  5
65
100
AcDbEntity
  8
DD0
100
AcDbLine
 10
165.135746
 20
206.410629
 11
165.135746
 21
240.577002
  0
LINE
  5
66
100
AcDbEntity
  8
DD0
100
AcDbLine
 10
145.635942
 20
222.00731
 11
145.635446
 21
240.577002
  0
LINE
  5
67
100
AcDbEntity
  8
DD0
100
AcDbLine
 10
160.306117
 20
237.61624
 11
165.135746
 21
238.910335
  0
LINE
  5
68
100
AcDbEntity
  8
DD0
100
AcDbLine
 10
165.135746
 20
238.910335
 11
160.306117
 21
240.20443
  0
LINE
  5
69
100
AcDbEntity
  8
DD0
100
AcDbLine
 10
150.465114
 20
240.20443
 11
145.635485
 21
238.910335
  0
LINE
  5
6A
100
AcDbEntity
  8
DD0
100
AcDbLine
 10
145.635485
 20
238.910335
 11
150.465114
 21
237.61624
  0
LINE
  5
6B
100
AcDbEntity
  8
DD0
100
AcDbLine
 10
165.135746
 20
238.910335
 11
145.635485
 21
238.910335
  0
TEXT
  5
6C
100
AcDbEntity
  8
DD0
100
AcDbText
 10
145.314773
 20
239.910345
 40
5.25
  1
１９．５
 41
0.833333
  7
STANDARD
100
AcDbText
  0
ENDBLK
  5
6D
100
AcDbEntity
  8
DD0
100
AcDbBlockEnd
  0
BLOCK
  5
70
100
AcDbEntity
  8
DD0
100
AcDbBlockBegin
  2
DIMS3
 70
     0
 10
0.0
 20
0.0
  0
LINE
  5
71
100
AcDbEntity
  8
DD0
100
AcDbLine
 10
153.900064
 20
213.743735
 11
182.823517
 21
213.743735
  0
LINE
  5
72
100
AcDbEntity
  8
DD0
100
AcDbLine
 10
108.900066
 20
138.748367
 11
182.823517
 21
138.748367
  0
LINE
  5
73
100
AcDbEntity
  8
DD0
100
AcDbLine
 10
182.450946
 20
208.914106
 11
181.156851
 21
213.743735
  0
LINE
  5
74
100
AcDbEntity
  8
DD0
100
AcDbLine
 10
181.156851
 20
213.743735
 11
179.862755
 21
208.914106
  0
LINE
  5
75
100
AcDbEntity
  8
DD0
100
AcDbLine
 10
179.862755
 20
143.577996
 11
181.156851
 21
138.748367
  0
LINE
  5
76
100
AcDbEntity
  8
DD0
100
AcDbLine
 10
181.156851
 20
138.748367
 11
182.450946
 21
143.577996
  0
LINE
  5
77
100
AcDbEntity
  8
DD0
100
AcDbLine
 10
181.156851
 20
213.743735
 11
181.156851
 21
138.748367
  0
TEXT
  5
78
100
AcDbEntity
  8
DD0
100
AcDbText
 10
180.156853
 20
171.425217
 40
5.25
  1
７５
 50
90.000003
 41
0.833333
  7
STANDARD
100
AcDbText
  0
ENDBLK
  5
79
100
AcDbEntity
  8
DD0
100
AcDbBlockEnd
  0
BLOCK
  5
7C
100
AcDbEntity
  8
DD0
100
AcDbBlockBegin
  2
DIMS4
 70
     0
 10
0.0
 20
0.0
  0
LINE
  5
7D
100
AcDbEntity
  8
DD0
100
AcDbLine
 10
107.253618
 20
132.650538
 11
103.525711
 21
135.98261
  0
LINE
  5
7E
100
AcDbEntity
  8
DD0
100
AcDbLine
 10
103.525711
 20
135.98261
 11
105.088137
 21
131.232997
  0
LINE
  5
7F
100
AcDbEntity
  8
DD0
100
AcDbLine
 10
103.525711
 20
135.98261
 11
113.097886
 21
121.359846
  0
ENDBLK
  5
80
100
AcDbEntity
  8
DD0
100
AcDbBlockEnd
  0
BLOCK
  5
83
100
AcDbEntity
  8
DD0
100
AcDbBlockBegin
  2
DIMS5
 70
     0
 10
0.0
 20
0.0
  0
TEXT
  5
84
100
AcDbEntity
  8
DD0
100
AcDbText
 10
114.987003
 20
117.590645
 40
5.25
  1
３－Ｍ４ねじ穴
 41
0.833333
  7
STANDARD
100
AcDbText
  0
ENDBLK
  5
85
100
AcDbEntity
  8
DD0
100
AcDbBlockEnd
  0
BLOCK
  5
88
100
AcDbEntity
  8
DD0
100
AcDbBlockBegin
  2
DIMS6
 70
     0
 10
0.0
 20
0.0
  0
LINE
  5
89
100
AcDbEntity
  8
DD0
 60
     1
100
AcDbLine
 10
219.775128
 20
394.179774
 11
219.775128
 21
429.76927
  0
LINE
  5
8A
100
AcDbEntity
  8
DD0
100
AcDbLine
 10
215.775138
 20
370.179785
 11
215.775138
 21
429.76927
  0
LINE
  5
8B
100
AcDbEntity
  8
DD0
100
AcDbLine
 10
210.945509
 20
426.808508
 11
215.775138
 21
428.102603
  0
LINE
  5
8C
100
AcDbEntity
  8
DD0
100
AcDbLine
 10
215.775138
 20
428.102603
 11
210.945509
 21
429.396699
  0
LINE
  5
8D
100
AcDbEntity
  8
DD0
100
AcDbLine
 10
219.775128
 20
428.102603
 11
210.275138
 21
428.102603
  0
TEXT
  5
8E
100
AcDbEntity
  8
DD0
100
AcDbText
 10
215.579307
 20
429.102614
 40
5.25
  1
４
 41
0.833333
  7
STANDARD
100
AcDbText
  0
ENDBLK
  5
8F
100
AcDbEntity
  8
DD0
100
AcDbBlockEnd
  0
BLOCK
  5
92
100
AcDbEntity
  8
DD0
100
AcDbBlockBegin
  2
DIMS7
 70
     0
 10
0.0
 20
0.0
  0
LINE
  5
93
100
AcDbEntity
  8
DD0
100
AcDbLine
 10
219.775128
 20
394.179774
 11
219.775128
 21
429.76927
  0
LINE
  5
94
100
AcDbEntity
  8
DD0
100
AcDbLine
 10
301.774839
 20
413.179813
 11
301.774839
 21
429.76927
  0
LINE
  5
95
100
AcDbEntity
  8
DD0
100
AcDbLine
 10
224.604757
 20
429.396699
 11
219.775128
 21
428.102603
  0
LINE
  5
96
100
AcDbEntity
  8
DD0
100
AcDbLine
 10
219.775128
 20
428.102603
 11
224.604757
 21
426.808508
  0
LINE
  5
97
100
AcDbEntity
  8
DD0
100
AcDbLine
 10
296.945211
 20
426.808508
 11
301.774839
 21
428.102603
  0
LINE
  5
98
100
AcDbEntity
  8
DD0
100
AcDbLine
 10
301.774839
 20
428.102603
 11
296.945211
 21
429.396699
  0
LINE
  5
99
100
AcDbEntity
  8
DD0
100
AcDbLine
 10
219.775128
 20
428.102603
 11
301.774839
 21
428.102603
  0
TEXT
  5
9A
100
AcDbEntity
  8
DD0
100
AcDbText
 10
255.954163
 20
429.102614
 40
5.25
  1
８２
 41
0.833333
  7
STANDARD
100
AcDbText
  0
ENDBLK
  5
9B
100
AcDbEntity
  8
DD0
100
AcDbBlockEnd
  0
BLOCK
  5
9E
100
AcDbEntity
  8
DD0
100
AcDbBlockBegin
  2
DIMS8
 70
     0
 10
0.0
 20
0.0
  0
LINE
  5
9F
100
AcDbEntity
  8
DD0
100
AcDbLine
 10
300.574659
 20
413.179813
 11
300.574659
 21
419.846302
  0
LINE
  5
A0
100
AcDbEntity
  8
DD0
 60
     1
100
AcDbLine
 10
301.774839
 20
413.179813
 11
301.774839
 21
419.846302
  0
LINE
  5
A1
100
AcDbEntity
  8
DD0
100
AcDbLine
 10
295.745031
 20
416.88554
 11
300.574659
 21
418.179635
  0
LINE
  5
A2
100
AcDbEntity
  8
DD0
100
AcDbLine
 10
300.574659
 20
418.179635
 11
295.745031
 21
419.47373
  0
LINE
  5
A3
100
AcDbEntity
  8
DD0
100
AcDbLine
 10
306.604468
 20
419.47373
 11
301.774839
 21
418.179635
  0
LINE
  5
A4
100
AcDbEntity
  8
DD0
100
AcDbLine
 10
301.774839
 20
418.179635
 11
306.604468
 21
416.88554
  0
LINE
  5
A5
100
AcDbEntity
  8
DD0
100
AcDbLine
 10
295.07466
 20
418.179635
 11
324.691507
 21
418.179635
  0
TEXT
  5
A6
100
AcDbEntity
  8
DD0
100
AcDbText
 10
307.704013
 20
419.179645
 40
5.25
  1
１．２
 41
0.833333
  7
STANDARD
100
AcDbText
  0
ENDBLK
  5
A7
100
AcDbEntity
  8
DD0
100
AcDbBlockEnd
  0
BLOCK
  5
AA
100
AcDbEntity
  8
DD0
100
AcDbBlockBegin
  2
DIMS9
 70
     0
 10
0.0
 20
0.0
  0
LINE
  5
AB
100
AcDbEntity
  8
DD0
100
AcDbLine
 10
80.306851
 20
280.209441
 11
182.823517
 21
280.209517
  0
LINE
  5
AC
100
AcDbEntity
  8
DD0
100
AcDbLine
 10
162.303753
 20
411.513198
 11
182.823441
 21
411.513274
  0
LINE
  5
AD
100
AcDbEntity
  8
DD0
100
AcDbLine
 10
179.862753
 20
285.039146
 11
181.156851
 21
280.209517
  0
LINE
  5
AE
100
AcDbEntity
  8
DD0
100
AcDbLine
 10
181.156851
 20
280.209517
 11
182.450943
 21
285.039147
  0
LINE
  5
AF
100
AcDbEntity
  8
DD0
100
AcDbLine
 10
182.450872
 20
406.683646
 11
181.156774
 21
411.513274
  0
LINE
  5
B0
100
AcDbEntity
  8
DD0
100
AcDbLine
 10
181.156774
 20
411.513274
 11
179.862682
 21
406.683644
  0
LINE
  5
B1
100
AcDbEntity
  8
DD0
100
AcDbLine
 10
181.156851
 20
280.209517
 11
181.156774
 21
411.513274
  0
TEXT
  5
B2
100
AcDbEntity
  8
DD0
100
AcDbText
 10
180.156815
 20
338.415555
 40
5.25
  1
１３２
 50
90.000037
 41
0.833333
  7
STANDARD
100
AcDbText
  0
ENDBLK
  5
B3
100
AcDbEntity
  8
DD0
100
AcDbBlockEnd
  0
BLOCK
  5
B6
100
AcDbEntity
  8
DD0
100
AcDbBlockBegin
  2
DIMS10
 70
     0
 10
0.0
 20
0.0
  0
LINE
  5
B7
100
AcDbEntity
  8
DD0
100
AcDbLine
 10
100.637089
 20
418.179864
 11
100.637089
 21
429.76927
  0
LINE
  5
B8
100
AcDbEntity
  8
DD0
100
AcDbLine
 10
165.134334
 20
396.179819
 11
165.134334
 21
429.76927
  0
LINE
  5
B9
100
AcDbEntity
  8
DD0
100
AcDbLine
 10
105.466718
 20
429.396699
 11
100.637089
 21
428.102603
  0
LINE
  5
BA
100
AcDbEntity
  8
DD0
100
AcDbLine
 10
100.637089
 20
428.102603
 11
105.466718
 21
426.808508
  0
LINE
  5
BB
100
AcDbEntity
  8
DD0
100
AcDbLine
 10
160.304705
 20
426.808508
 11
165.134334
 21
428.102603
  0
LINE
  5
BC
100
AcDbEntity
  8
DD0
100
AcDbLine
 10
165.134334
 20
428.102603
 11
160.304705
 21
429.396699
  0
LINE
  5
BD
100
AcDbEntity
  8
DD0
100
AcDbLine
 10
100.637089
 20
428.102603
 11
165.134334
 21
428.102603
  0
TEXT
  5
BE
100
AcDbEntity
  8
DD0
100
AcDbText
 10
122.814875
 20
429.102614
 40
5.25
  1
６４．５
 41
0.833333
  7
STANDARD
100
AcDbText
  0
ENDBLK
  5
BF
100
AcDbEntity
  8
DD0
100
AcDbBlockEnd
  0
BLOCK
  5
C2
100
AcDbEntity
  8
DD0
100
AcDbBlockBegin
  2
DIMS11
 70
     0
 10
0.0
 20
0.0
  0
LINE
  5
C3
100
AcDbEntity
  8
DD0
100
AcDbLine
 10
38.134338
 20
396.179768
 11
38.134338
 21
429.76927
  0
LINE
  5
C4
100
AcDbEntity
  8
DD0
 60
     1
100
AcDbLine
 10
100.637089
 20
418.179864
 11
100.637089
 21
429.76927
  0
LINE
  5
C5
100
AcDbEntity
  8
DD0
100
AcDbLine
 10
42.963967
 20
429.396699
 11
38.134338
 21
428.102603
  0
LINE
  5
C6
100
AcDbEntity
  8
DD0
100
AcDbLine
 10
38.134338
 20
428.102603
 11
42.963967
 21
426.808508
  0
LINE
  5
C7
100
AcDbEntity
  8
DD0
100
AcDbLine
 10
95.80746
 20
426.808508
 11
100.637089
 21
428.102603
  0
LINE
  5
C8
100
AcDbEntity
  8
DD0
100
AcDbLine
 10
100.637089
 20
428.102603
 11
95.80746
 21
429.396699
  0
LINE
  5
C9
100
AcDbEntity
  8
DD0
100
AcDbLine
 10
38.134338
 20
428.102603
 11
100.637089
 21
428.102603
  0
TEXT
  5
CA
100
AcDbEntity
  8
DD0
100
AcDbText
 10
59.314887
 20
429.102614
 40
5.25
  1
６２．５
 41
0.833333
  7
STANDARD
100
AcDbText
  0
ENDBLK
  5
CB
100
AcDbEntity
  8
DD0
100
AcDbBlockEnd
  0
BLOCK
  5
CE
100
AcDbEntity
  8
DD0
100
AcDbBlockBegin
  2
DIMS12
 70
     0
 10
0.0
 20
0.0
  0
LINE
  5
CF
100
AcDbEntity
  8
DD0
100
AcDbLine
 10
301.774839
 20
319.846484
 11
301.774839
 21
257.208115
  0
LINE
  5
D0
100
AcDbEntity
  8
DD0
100
AcDbLine
 10
206.274838
 20
312.842649
 11
206.274838
 21
257.208115
  0
LINE
  5
D1
100
AcDbEntity
  8
DD0
100
AcDbLine
 10
296.945211
 20
257.580686
 11
301.774839
 21
258.874781
  0
LINE
  5
D2
100
AcDbEntity
  8
DD0
100
AcDbLine
 10
301.774839
 20
258.874781
 11
296.945211
 21
260.168876
  0
LINE
  5
D3
100
AcDbEntity
  8
DD0
100
AcDbLine
 10
211.104467
 20
260.168876
 11
206.274838
 21
258.874781
  0
LINE
  5
D4
100
AcDbEntity
  8
DD0
100
AcDbLine
 10
206.274838
 20
258.874781
 11
211.104467
 21
257.580686
  0
LINE
  5
D5
100
AcDbEntity
  8
DD0
100
AcDbLine
 10
301.774839
 20
258.874781
 11
206.274838
 21
258.874781
  0
TEXT
  5
D6
100
AcDbEntity
  8
DD0
100
AcDbText
 10
243.954016
 20
259.874791
 40
5.25
  1
９５．５
 41
0.833333
  7
STANDARD
100
AcDbText
  0
ENDBLK
  5
D7
100
AcDbEntity
  8
DD0
100
AcDbBlockEnd
  0
ENDSEC
  0
SECTION
  2
ENTITIES
  0
INSERT
  5
56
100
AcDbEntity
  8
DD0
100
AcDbBlockReference
  2
DIMS0
 10
0.0
 20
0.0
  0
INSERT
  5
62
100
AcDbEntity
  8
DD0
100
AcDbBlockReference
  2
DIMS1
 10
0.0
 20
0.0
  0
INSERT
  5
6E
100
AcDbEntity
  8
DD0
100
AcDbBlockReference
  2
DIMS2
 10
0.0
 20
0.0
  0
INSERT
  5
7A
100
AcDbEntity
  8
DD0
100
AcDbBlockReference
  2
DIMS3
 10
0.0
 20
0.0
  0
INSERT
  5
81
100
AcDbEntity
  8
DD0
100
AcDbBlockReference
  2
DIMS4
 10
0.0
 20
0.0
  0
INSERT
  5
86
100
AcDbEntity
  8
DD0
100
AcDbBlockReference
  2
DIMS5
 10
0.0
 20
0.0
  0
INSERT
  5
90
100
AcDbEntity
  8
DD0
100
AcDbBlockReference
  2
DIMS6
 10
0.0
 20
0.0
  0
INSERT
  5
9C
100
AcDbEntity
  8
DD0
100
AcDbBlockReference
  2
DIMS7
 10
0.0
 20
0.0
  0
INSERT
  5
A8
100
AcDbEntity
  8
DD0
100
AcDbBlockReference
  2
DIMS8
 10
0.0
 20
0.0
  0
INSERT
  5
B4
100
AcDbEntity
  8
DD0
100
AcDbBlockReference
  2
DIMS9
 10
0.0
 20
0.0
  0
INSERT
  5
C0
100
AcDbEntity
  8
DD0
100
AcDbBlockReference
  2
DIMS10
 10
0.0
 20
0.0
  0
INSERT
  5
CC
100
AcDbEntity
  8
DD0
100
AcDbBlockReference
  2
DIMS11
 10
0.0
 20
0.0
  0
INSERT
  5
D8
100
AcDbEntity
  8
DD0
100
AcDbBlockReference
  2
DIMS12
 10
0.0
 20
0.0
  0
LINE
  5
D9
100
AcDbEntity
  8
M0
  6
DIVIDE
 62
     7
100
AcDbLine
 10
95.136231
 20
131.243975
 11
160.635742
 21
131.243975
  0
LINE
  5
DA
100
AcDbEntity
  8
M0
  6
DIVIDE
 62
     7
100
AcDbLine
 10
160.635742
 20
221.243975
 11
37.636231
 21
221.244225
  0
LINE
  5
DB
100
AcDbEntity
  8
M0
  6
DIVIDE
 62
     7
100
AcDbLine
 10
37.636231
 20
221.244219
 11
37.636231
 21
204.744225
  0
CIRCLE
  5
DC
100
AcDbEntity
  8
M0
 62
     7
100
AcDbCircle
 10
55.636231
 20
213.743975
 40
3.999996
  0
CIRCLE
  5
DD
100
AcDbEntity
  8
M0
 62
     7
100
AcDbCircle
 10
55.636231
 20
213.743975
 40
1.749993
  0
LINE
  5
DE
100
AcDbEntity
  8
M0
  6
DASHDOT
 62
     7
100
AcDbLine
 10
61.733398
 20
213.743975
 11
49.538818
 21
213.743975
  0
LINE
  5
DF
100
AcDbEntity
  8
M0
  6
DASHDOT
 62
     7
100
AcDbLine
 10
55.635986
 20
219.841143
 11
55.635986
 21
207.646563
  0
LINE
  5
E0
100
AcDbEntity
  8
M0
  6
DIVIDE
 62
     7
100
AcDbLine
 10
160.635742
 20
221.243975
 11
160.635742
 21
204.743975
  0
CIRCLE
  5
E1
100
AcDbEntity
  8
M0
 62
     7
100
AcDbCircle
 10
145.635986
 20
213.743731
 40
3.999994
  0
CIRCLE
  5
E2
100
AcDbEntity
  8
M0
 62
     7
100
AcDbCircle
 10
145.635986
 20
213.743731
 40
1.749991
  0
LINE
  5
E3
100
AcDbEntity
  8
M0
  6
DASHDOT
 62
     7
100
AcDbLine
 10
152.233398
 20
213.743731
 11
139.038574
 21
213.743731
  0
LINE
  5
E4
100
AcDbEntity
  8
M0
  6
DASHDOT
 62
     7
100
AcDbLine
 10
145.635986
 20
220.340655
 11
145.635742
 21
207.146319
  0
CIRCLE
  5
E5
100
AcDbEntity
  8
M0
 62
     7
100
AcDbCircle
 10
100.635986
 20
138.74837
 40
3.999994
  0
CIRCLE
  5
E6
100
AcDbEntity
  8
M0
 62
     7
100
AcDbCircle
 10
100.635986
 20
138.74837
 40
1.749991
  0
LINE
  5
E7
100
AcDbEntity
  8
M0
  6
DASHDOT
 62
     7
100
AcDbLine
 10
107.233398
 20
138.74837
 11
94.038574
 21
138.74837
  0
LINE
  5
E8
100
AcDbEntity
  8
M0
  6
DASHDOT
 62
     7
100
AcDbLine
 10
100.637451
 20
227.48543
 11
100.635742
 21
132.141192
  0
LINE
  5
E9
100
AcDbEntity
  8
M0
  6
DIVIDE
 62
     7
100
AcDbLine
 10
37.636231
 20
109.744219
 11
95.136231
 21
109.744219
  0
LINE
  5
EA
100
AcDbEntity
  8
M0
  6
DIVIDE
 62
     7
100
AcDbLine
 10
95.136231
 20
109.744219
 11
95.136231
 21
131.243975
  0
LINE
  5
EB
100
AcDbEntity
  8
M0
  6
DIVIDE
 62
     7
100
AcDbLine
 10
160.635742
 20
147.743975
 11
160.635742
 21
131.23421
  0
LINE
  5
EC
100
AcDbEntity
  8
M0
  6
DIVIDE
 62
     7
100
AcDbLine
 10
37.636231
 20
147.744225
 11
37.636231
 21
109.744219
  0
LINE
  5
ED
100
AcDbEntity
  8
M0
  6
DIVIDE
 62
     7
100
AcDbLine
 10
33.136231
 20
204.744235
 11
33.136231
 21
147.744235
  0
LINE
  5
EE
100
AcDbEntity
  8
M0
  6
DIVIDE
 62
     7
100
AcDbLine
 10
165.135742
 20
204.743966
 11
165.135742
 21
147.743966
  0
LINE
  5
EF
100
AcDbEntity
  8
M0
  6
DIVIDE
 62
     7
100
AcDbLine
 10
165.135626
 20
147.743966
 11
160.635742
 21
147.743975
  0
LINE
  5
F0
100
AcDbEntity
  8
M0
  6
DIVIDE
 62
     7
100
AcDbLine
 10
37.636231
 20
147.744225
 11
33.136115
 21
147.744235
  0
LINE
  5
F1
100
AcDbEntity
  8
M0
  6
DIVIDE
 62
     7
100
AcDbLine
 10
33.136231
 20
204.744235
 11
37.636231
 21
204.744225
  0
LINE
  5
F2
100
AcDbEntity
  8
M0
  6
DIVIDE
 62
     7
100
AcDbLine
 10
160.635742
 20
204.743975
 11
165.135742
 21
204.743966
  0
LINE
  5
F3
100
AcDbEntity
  8
M0
 62
     7
100
AcDbLine
 10
287.275086
 20
334.013144
 11
287.275086
 21
345.513129
  0
LINE
  5
F4
100
AcDbEntity
  8
M0
 62
     7
100
AcDbLine
 10
278.375077
 20
341.013144
 11
278.375077
 21
337.013144
  0
LINE
  5
F5
100
AcDbEntity
  8
M0
 62
     7
100
AcDbLine
 10
282.875077
 20
341.013144
 11
282.875077
 21
336.013144
  0
LINE
  5
F6
100
AcDbEntity
  8
M0
 62
     7
100
AcDbLine
 10
279.375077
 20
336.013144
 11
282.875077
 21
336.013144
  0
ARC
  5
F7
100
AcDbEntity
  8
M0
 62
     7
100
AcDbCircle
 10
279.375077
 20
337.013144
 40
1.0
100
AcDbArc
 50
179.999945
 51
270.0
  0
LINE
  5
F8
100
AcDbEntity
  8
M0
 62
     7
100
AcDbLine
 10
268.275086
 20
346.513144
 11
286.275086
 21
346.513144
  0
ARC
  5
F9
100
AcDbEntity
  8
M0
 62
     7
100
AcDbCircle
 10
286.275086
 20
345.513144
 40
1.0
100
AcDbArc
 50
0.0
 51
90.0
  0
ARC
  5
FA
100
AcDbEntity
  8
M0
 62
     7
100
AcDbCircle
 10
277.875077
 20
341.013144
 40
0.5
100
AcDbArc
 50
0.0
 51
90.0
  0
ARC
  5
FB
100
AcDbEntity
  8
M0
 62
     7
100
AcDbCircle
 10
277.875077
 20
340.060187
 40
0.5
100
AcDbArc
 50
0.0
 51
84.348228
  0
LINE
  5
FC
100
AcDbEntity
  8
M0
 62
     7
100
AcDbLine
 10
287.275086
 20
334.013144
 11
297.275086
 21
334.013144
  0
LINE
  5
FD
100
AcDbEntity
  8
M0
 62
     7
100
AcDbLine
 10
297.275086
 20
334.013144
 11
297.275071
 21
347.86315
  0
LINE
  5
FE
100
AcDbEntity
  8
M0
 62
     7
100
AcDbLine
 10
297.275086
 20
399.013144
 11
287.275086
 21
399.013129
  0
LINE
  5
FF
100
AcDbEntity
  8
M0
  6
DASHDOT
 62
     7
100
AcDbLine
 10
268.275086
 20
366.513144
 11
302.862718
 21
366.513144
  0
LINE
  5
100
100
AcDbEntity
  8
M0
 62
     7
100
AcDbLine
 10
269.975086
 20
392.513144
 11
297.275086
 21
392.513144
  0
LINE
  5
101
100
AcDbEntity
  8
M0
 62
     7
100
AcDbLine
 10
296.975083
 20
348.163138
 11
296.975083
 21
348.863135
  0
LINE
  5
102
100
AcDbEntity
  8
M0
 62
     7
100
AcDbLine
 10
292.475083
 20
348.86315
 11
296.275086
 21
348.86315
  0
LINE
  5
103
100
AcDbEntity
  8
M0
 62
     7
100
AcDbLine
 10
292.475083
 20
384.163138
 11
297.275086
 21
384.163138
  0
LINE
  5
104
100
AcDbEntity
  8
M0
 62
     7
100
AcDbLine
 10
292.475038
 20
349.362997
 11
293.574891
 21
349.362997
  0
LINE
  5
105
100
AcDbEntity
  8
M0
 62
     7
100
AcDbLine
 10
293.575013
 20
350.86315
 11
294.575013
 21
350.86315
  0
LINE
  5
106
100
AcDbEntity
  8
M0
 62
     7
100
AcDbLine
 10
297.275086
 20
384.163138
 11
297.275086
 21
399.013144
  0
LINE
  5
107
100
AcDbEntity
  8
M0
 62
     7
100
AcDbLine
 10
294.275056
 20
382.163138
 11
295.275056
 21
382.163138
  0
LINE
  5
108
100
AcDbEntity
  8
M0
 62
     7
100
AcDbLine
 10
295.275071
 20
382.163138
 11
296.975083
 21
384.163138
  0
LINE
  5
109
100
AcDbEntity
  8
M0
 62
     7
100
AcDbLine
 10
294.275071
 20
382.163138
 11
293.575074
 21
384.163138
  0
LINE
  5
10A
100
AcDbEntity
  8
M0
 62
     7
100
AcDbLine
 10
293.575013
 20
350.86315
 11
293.575013
 21
349.36315
  0
LINE
  5
10B
100
AcDbEntity
  8
M0
 62
     7
100
AcDbLine
 10
269.975086
 20
341.513144
 11
283.230897
 21
341.513144
  0
LINE
  5
10C
100
AcDbEntity
  8
M0
 62
     7
100
AcDbLine
 10
269.975086
 20
340.513144
 11
278.086793
 21
340.513144
  0
LINE
  5
10D
100
AcDbEntity
  8
M0
 62
     7
100
AcDbLine
 10
269.975086
 20
341.344825
 11
277.924333
 21
340.557761
  0
ARC
  5
10E
100
AcDbEntity
  8
M0
 62
     7
100
AcDbCircle
 10
283.37494
 20
341.013144
 40
0.5
100
AcDbArc
 50
107.036915
 51
179.999966
  0
ARC
  5
10F
100
AcDbEntity
  8
M0
 62
     7
100
AcDbCircle
 10
283.37494
 20
340.013144
 40
0.5
100
AcDbArc
 50
113.547633
 51
179.999959
  0
LINE
  5
110
100
AcDbEntity
  8
M0
 62
     7
100
AcDbLine
 10
287.275086
 20
399.013129
 11
287.275086
 21
392.513144
  0
LINE
  5
111
100
AcDbEntity
  8
M0
 62
     7
100
AcDbLine
 10
292.475083
 20
348.86315
 11
292.475083
 21
384.163138
  0
LINE
  5
112
100
AcDbEntity
  8
M0
 62
     7
100
AcDbLine
 10
296.275086
 20
348.86315
 11
297.275071
 21
347.86315
  0
LINE
  5
113
100
AcDbEntity
  8
M0
 62
     7
100
AcDbLine
 10
294.575013
 20
350.86315
 11
294.575013
 21
348.86315
  0
LINE
  5
114
100
AcDbEntity
  8
M0
 62
     7
100
AcDbLine
 10
296.975083
 20
348.863135
 11
294.575013
 21
350.86315
  0
LINE
  5
115
100
AcDbEntity
  8
M0
 62
     2
100
AcDbLine
 10
215.775136
 20
368.513128
 11
215.775151
 21
364.513128
  0
LINE
  5
116
100
AcDbEntity
  8
M0
 62
     2
100
AcDbLine
 10
219.775135
 20
369.013112
 11
216.275136
 21
369.013128
  0
LINE
  5
117
100
AcDbEntity
  8
M0
 62
     2
100
AcDbLine
 10
219.775135
 20
364.013144
 11
216.275151
 21
364.013144
  0
ARC
  5
118
100
AcDbEntity
  8
M0
 62
     2
100
AcDbCircle
 10
216.275136
 20
368.513128
 40
0.5
100
AcDbArc
 50
90.0
 51
179.999982
  0
ARC
  5
119
100
AcDbEntity
  8
M0
 62
     2
100
AcDbCircle
 10
216.275151
 20
364.513128
 40
0.5
100
AcDbArc
 50
179.999968
 51
270.0
  0
LINE
  5
11A
100
AcDbEntity
  8
M0
 62
     4
100
AcDbLine
 10
254.774891
 20
334.013144
 11
269.975086
 21
334.013144
  0
LINE
  5
11B
100
AcDbEntity
  8
M0
 62
     4
100
AcDbLine
 10
269.975086
 20
334.013144
 11
269.975086
 21
399.013144
  0
LINE
  5
11C
100
AcDbEntity
  8
M0
 62
     4
100
AcDbLine
 10
269.975086
 20
399.013144
 11
254.774891
 21
399.013129
  0
LINE
  5
11D
100
AcDbEntity
  8
M0
 62
     4
100
AcDbLine
 10
219.775135
 20
392.513113
 11
219.775135
 21
340.513174
  0
LINE
  5
11E
100
AcDbEntity
  8
M0
  6
DASHDOT
 62
     4
100
AcDbLine
 10
207.557469
 20
366.513144
 11
269.975071
 21
366.513144
  0
LINE
  5
11F
100
AcDbEntity
  8
M0
 62
     4
100
AcDbLine
 10
224.775135
 20
337.513174
 11
245.774891
 21
337.513174
  0
LINE
  5
120
100
AcDbEntity
  8
M0
 62
     4
100
AcDbLine
 10
224.775135
 20
335.513174
 11
251.20409
 21
335.513174
  0
LINE
  5
121
100
AcDbEntity
  8
M0
 62
     4
100
AcDbLine
 10
224.775135
 20
397.513129
 11
228.442888
 21
397.512997
  0
ARC
  5
122
100
AcDbEntity
  8
M0
 62
     4
100
AcDbCircle
 10
224.775135
 20
342.513174
 40
5.0
100
AcDbArc
 50
179.999825
 51
270.0
  0
ARC
  5
123
100
AcDbEntity
  8
M0
 62
     4
100
AcDbCircle
 10
224.775135
 20
340.513174
 40
5.0
100
AcDbArc
 50
179.999825
 51
270.0
  0
ARC
  5
124
100
AcDbEntity
  8
M0
 62
     4
100
AcDbCircle
 10
224.775135
 20
392.513129
 40
5.0
100
AcDbArc
 50
89.999825
 51
180.0
  0
LINE
  5
125
100
AcDbEntity
  8
M0
 62
     4
100
AcDbLine
 10
250.774891
 20
346.513144
 11
269.975086
 21
346.513144
  0
LINE
  5
126
100
AcDbEntity
  8
M0
 62
     4
100
AcDbLine
 10
249.774891
 20
337.513174
 11
249.774891
 21
345.513144
  0
LINE
  5
127
100
AcDbEntity
  8
M0
 62
     4
100
AcDbLine
 10
247.774891
 20
339.513174
 11
247.774891
 21
343.513144
  0
ARC
  5
128
100
AcDbEntity
  8
M0
 62
     4
100
AcDbCircle
 10
250.774891
 20
345.513144
 40
1.0
100
AcDbArc
 50
90.0
 51
179.999126
  0
ARC
  5
129
100
AcDbEntity
  8
M0
 62
     4
100
AcDbCircle
 10
250.774891
 20
343.513144
 40
3.0
100
AcDbArc
 50
90.0
 51
179.999709
  0
ARC
  5
12A
100
AcDbEntity
  8
M0
 62
     4
100
AcDbCircle
 10
245.774891
 20
339.513174
 40
2.0
100
AcDbArc
 50
270.0
 51
360.0
  0
ARC
  5
12B
100
AcDbEntity
  8
M0
 62
     4
100
AcDbCircle
 10
254.774891
 20
339.013144
 40
5.0
100
AcDbArc
 50
179.999825
 51
270.0
  0
ARC
  5
12C
100
AcDbEntity
  8
M0
 62
     4
100
AcDbCircle
 10
254.774891
 20
394.013129
 40
5.0
100
AcDbArc
 50
90.0
 51
135.573713
  0
LINE
  5
12D
100
AcDbEntity
  8
M0
 62
     4
100
AcDbLine
 10
231.755599
 20
397.512863
 11
251.20409
 21
397.513129
  0
LINE
  5
12E
100
AcDbEntity
  8
M0
 62
     4
100
AcDbLine
 10
249.774891
 20
395.513113
 11
249.774891
 21
386.684717
  0
ARC
  5
12F
100
AcDbEntity
  8
M0
 62
     4
100
AcDbCircle
 10
254.774891
 20
394.013144
 40
5.0
100
AcDbArc
 50
90.0
 51
180.000175
  0
LINE
  5
130
100
AcDbEntity
  8
M0
 62
     4
100
AcDbLine
 10
254.774891
 20
399.013144
 11
269.975086
 21
399.013144
  0
ARC
  5
131
100
AcDbEntity
  8
M0
 62
     4
100
AcDbCircle
 10
245.774891
 20
393.513113
 40
2.0
100
AcDbArc
 50
0.0
 51
90.0
  0
LINE
  5
132
100
AcDbEntity
  8
M0
 62
     4
100
AcDbLine
 10
224.775135
 20
395.513113
 11
245.774891
 21
395.513113
  0
LINE
  5
133
100
AcDbEntity
  8
M0
 62
     4
100
AcDbLine
 10
247.774891
 20
393.513113
 11
247.774891
 21
389.513144
  0
ARC
  5
134
100
AcDbEntity
  8
M0
 62
     4
100
AcDbCircle
 10
250.774891
 20
389.513144
 40
3.0
100
AcDbArc
 50
180.000291
 51
270.0
  0
LINE
  5
135
100
AcDbEntity
  8
M0
 62
     4
100
AcDbLine
 10
250.774891
 20
386.513144
 11
269.975086
 21
386.513144
  0
ARC
  5
136
100
AcDbEntity
  8
M0
 62
     4
100
AcDbCircle
 10
224.775135
 20
390.513113
 40
5.0
100
AcDbArc
 50
90.0
 51
180.000175
  0
LINE
  5
137
100
AcDbEntity
  8
M0
 62
     2
100
AcDbLine
 10
131.636552
 20
364.013144
 11
135.636552
 21
364.013144
  0
LINE
  5
138
100
AcDbEntity
  8
M0
 62
     2
100
AcDbLine
 10
136.136552
 20
364.513129
 11
136.136552
 21
368.513113
  0
LINE
  5
139
100
AcDbEntity
  8
M0
 62
     2
100
AcDbLine
 10
135.636552
 20
369.013144
 11
131.636552
 21
369.013129
  0
LINE
  5
13A
100
AcDbEntity
  8
M0
 62
     2
100
AcDbLine
 10
131.136552
 20
368.513129
 11
131.136552
 21
364.513144
  0
ARC
  5
13B
100
AcDbEntity
  8
M0
 62
     2
100
AcDbCircle
 10
131.636552
 20
364.513144
 40
0.5
100
AcDbArc
 50
179.999891
 51
270.0
  0
ARC
  5
13C
100
AcDbEntity
  8
M0
 62
     2
100
AcDbCircle
 10
135.636552
 20
364.513144
 40
0.5
100
AcDbArc
 50
270.0
 51
360.0
  0
ARC
  5
13D
100
AcDbEntity
  8
M0
 62
     2
100
AcDbCircle
 10
135.636552
 20
368.513129
 40
0.5
100
AcDbArc
 50
0.0
 51
90.0
  0
ARC
  5
13E
100
AcDbEntity
  8
M0
 62
     2
100
AcDbCircle
 10
131.636552
 20
368.513129
 40
0.5
100
AcDbArc
 50
90.0
 51
180.0
  0
LINE
  5
13F
100
AcDbEntity
  8
M0
100
AcDbLine
 10
40.637086
 20
321.513296
 11
47.140158
 21
321.512899
  0
LINE
  5
140
100
AcDbEntity
  8
M0
100
AcDbLine
 10
160.637086
 20
321.513296
 11
160.637086
 21
342.013144
  0
LINE
  5
141
100
AcDbEntity
  8
M0
100
AcDbLine
 10
160.637086
 20
411.513205
 11
40.637086
 21
411.513205
  0
LINE
  5
142
100
AcDbEntity
  8
M0
100
AcDbLine
 10
40.637086
 20
411.513205
 11
40.637086
 21
391.013144
  0
LINE
  5
143
100
AcDbEntity
  8
M0
100
AcDbLine
 10
106.137086
 20
329.013296
 11
106.137086
 21
321.513296
  0
LINE
  5
144
100
AcDbEntity
  8
M0
100
AcDbLine
 10
95.137086
 20
329.013296
 11
95.137086
 21
321.513296
  0
LINE
  5
145
100
AcDbEntity
  8
M0
100
AcDbLine
 10
106.137086
 20
411.513144
 11
106.137086
 21
410.008993
  0
LINE
  5
146
100
AcDbEntity
  8
M0
100
AcDbLine
 10
95.137086
 20
411.513144
 11
95.137086
 21
410.008993
  0
ARC
  5
147
100
AcDbEntity
  8
M0
100
AcDbCircle
 10
100.637086
 20
404.013144
 40
5.5
100
AcDbArc
 50
220.940387
 51
319.059613
  0
ARC
  5
148
100
AcDbEntity
  8
M0
100
AcDbCircle
 10
100.637086
 20
329.013296
 40
5.5
100
AcDbArc
 50
175.872491
 51
180.0
  0
ARC
  5
149
100
AcDbEntity
  8
M0
100
AcDbCircle
 10
145.637086
 20
404.013205
 40
5.5
100
AcDbArc
 50
180.0
 51
269.999841
  0
LINE
  5
14A
100
AcDbEntity
  8
M0
100
AcDbLine
 10
145.637086
 20
398.513144
 11
147.514802
 21
398.513144
  0
LINE
  5
14B
100
AcDbEntity
  8
M0
100
AcDbLine
 10
140.137086
 20
411.513205
 11
140.137086
 21
404.013205
  0
ARC
  5
14C
100
AcDbEntity
  8
M0
100
AcDbCircle
 10
145.637086
 20
329.013388
 40
5.5
100
AcDbArc
 50
90.0
 51
179.99997
  0
LINE
  5
14D
100
AcDbEntity
  8
M0
100
AcDbLine
 10
145.637086
 20
334.513388
 11
146.13617
 21
334.513388
  0
LINE
  5
14E
100
AcDbEntity
  8
M0
100
AcDbLine
 10
140.137086
 20
329.013388
 11
140.137086
 21
321.513296
  0
LINE
  5
14F
100
AcDbEntity
  8
M0
100
AcDbLine
 10
40.637086
 20
398.513144
 11
48.040193
 21
398.513144
  0
LINE
  5
150
100
AcDbEntity
  8
M0
100
AcDbLine
 10
61.137101
 20
411.513144
 11
61.137101
 21
410.008993
  0
LINE
  5
151
100
AcDbEntity
  8
M0
100
AcDbLine
 10
40.637086
 20
334.513388
 11
48.084535
 21
334.513388
  0
CIRCLE
  5
152
100
AcDbEntity
  8
M0
100
AcDbCircle
 10
145.637086
 20
404.013205
 40
2.5
  0
CIRCLE
  5
153
100
AcDbEntity
  8
M0
100
AcDbCircle
 10
145.637086
 20
329.013388
 40
2.5
  0
ARC
  5
154
100
AcDbEntity
  8
M0
100
AcDbCircle
 10
100.637086
 20
329.013296
 40
2.5
100
AcDbArc
 50
170.888575
 51
369.112093
  0
LINE
  5
155
100
AcDbEntity
  8
M0
  6
DASHDOT
100
AcDbLine
 10
100.637086
 20
315.985693
 11
100.637086
 21
416.513205
  0
LINE
  5
156
100
AcDbEntity
  8
M0
100
AcDbLine
 10
155.136552
 20
334.513388
 11
160.637086
 21
334.513388
  0
LINE
  5
157
100
AcDbEntity
  8
M0
100
AcDbLine
 10
92.140242
 20
321.513137
 11
160.637086
 21
321.513296
  0
ARC
  5
158
100
AcDbEntity
  8
M0
100
AcDbCircle
 10
100.637086
 20
329.013296
 40
5.5
100
AcDbArc
 50
175.870226
 51
179.99997
  0
ARC
  5
159
100
AcDbEntity
  8
M0
100
AcDbCircle
 10
100.637086
 20
329.013296
 40
5.5
100
AcDbArc
 50
0.0
 51
4.128177
  0
ARC
  5
15A
100
AcDbEntity
  8
M0
100
AcDbCircle
 10
55.637086
 20
404.013205
 40
5.5
100
AcDbArc
 50
-72.179248
 51
0.0
  0
LINE
  5
15B
100
AcDbEntity
  8
M0
100
AcDbLine
 10
160.637086
 20
398.513144
 11
153.233979
 21
398.513144
  0
LINE
  5
15C
100
AcDbEntity
  8
M0
100
AcDbLine
 10
160.637086
 20
391.013144
 11
160.637086
 21
411.513205
  0
LINE
  5
15D
100
AcDbEntity
  8
M0
100
AcDbLine
 10
40.637086
 20
342.013144
 11
40.637086
 21
321.513296
  0
LINE
  5
15E
100
AcDbEntity
  8
M0
100
AcDbLine
 10
61.137101
 20
406.809042
 11
61.137101
 21
403.693538
  0
ARC
  5
15F
100
AcDbEntity
  8
M0
100
AcDbCircle
 10
55.637116
 20
404.013205
 40
2.5
100
AcDbArc
 50
272.312532
 51
410.147888
  0
LINE
  5
160
100
AcDbEntity
  8
M0
  6
DASHDOT
100
AcDbLine
 10
139.137086
 20
404.013205
 11
152.137086
 21
404.013205
  0
LINE
  5
161
100
AcDbEntity
  8
M0
  6
DASHDOT
100
AcDbLine
 10
145.637086
 20
397.513205
 11
145.637086
 21
410.513205
  0
LINE
  5
162
100
AcDbEntity
  8
M0
  6
DASHDOT
100
AcDbLine
 10
49.137116
 20
404.013205
 11
62.137116
 21
404.013205
  0
LINE
  5
163
100
AcDbEntity
  8
M0
  6
DASHDOT
100
AcDbLine
 10
55.637116
 20
397.513205
 11
55.637116
 21
410.513205
  0
LINE
  5
164
100
AcDbEntity
  8
M0
 62
     2
100
AcDbLine
 10
67.640199
 20
364.009482
 11
71.640199
 21
364.009482
  0
LINE
  5
165
100
AcDbEntity
  8
M0
 62
     2
100
AcDbLine
 10
72.140199
 20
364.509466
 11
72.140199
 21
368.509451
  0
LINE
  5
166
100
AcDbEntity
  8
M0
 62
     2
100
AcDbLine
 10
71.640199
 20
369.009482
 11
67.640199
 21
369.009466
  0
LINE
  5
167
100
AcDbEntity
  8
M0
 62
     2
100
AcDbLine
 10
67.140199
 20
368.509466
 11
67.140199
 21
364.509482
  0
ARC
  5
168
100
AcDbEntity
  8
M0
 62
     2
100
AcDbCircle
 10
67.640199
 20
364.509482
 40
0.5
100
AcDbArc
 50
179.999891
 51
270.0
  0
ARC
  5
169
100
AcDbEntity
  8
M0
 62
     2
100
AcDbCircle
 10
71.640199
 20
364.509482
 40
0.5
100
AcDbArc
 50
270.0
 51
360.0
  0
ARC
  5
16A
100
AcDbEntity
  8
M0
 62
     2
100
AcDbCircle
 10
71.640199
 20
368.509466
 40
0.5
100
AcDbArc
 50
0.0
 51
90.0
  0
ARC
  5
16B
100
AcDbEntity
  8
M0
 62
     2
100
AcDbCircle
 10
67.640199
 20
368.509466
 40
0.5
100
AcDbArc
 50
90.0
 51
180.0
  0
LINE
  5
16C
100
AcDbEntity
  8
M0
100
AcDbLine
 10
297.274873
 20
321.513235
 11
301.774873
 21
321.513235
  0
LINE
  5
16D
100
AcDbEntity
  8
M0
100
AcDbLine
 10
301.774842
 20
321.513144
 11
301.774842
 21
334.712851
  0
LINE
  5
16E
100
AcDbEntity
  8
M0
100
AcDbLine
 10
301.774873
 20
411.513235
 11
297.274873
 21
411.513235
  0
LINE
  5
16F
100
AcDbEntity
  8
M0
100
AcDbLine
 10
297.274873
 20
411.513235
 11
297.274873
 21
321.513235
  0
LINE
  5
170
100
AcDbEntity
  8
M0
  6
DASHDOT
100
AcDbLine
 10
287.274873
 20
366.513235
 11
311.774873
 21
366.513235
  0
LINE
  5
171
100
AcDbEntity
  8
M0
100
AcDbLine
 10
299.574861
 20
398.513235
 11
298.274873
 21
398.513235
  0
LINE
  5
172
100
AcDbEntity
  8
M0
100
AcDbLine
 10
298.274873
 20
334.513235
 11
299.574861
 21
334.513235
  0
LINE
  5
173
100
AcDbEntity
  8
M0
100
AcDbLine
 10
300.774873
 20
397.31304
 11
299.47487
 21
397.31304
  0
LINE
  5
174
100
AcDbEntity
  8
M0
100
AcDbLine
 10
299.47487
 20
335.713232
 11
300.774873
 21
335.713232
  0
LINE
  5
175
100
AcDbEntity
  8
M0
100
AcDbLine
 10
298.474793
 20
396.312704
 11
298.474793
 21
336.713095
  0
LINE
  5
176
100
AcDbEntity
  8
M0
100
AcDbLine
 10
300.574647
 20
411.513144
 11
300.574647
 21
399.5129
  0
LINE
  5
177
100
AcDbEntity
  8
M0
100
AcDbLine
 10
300.574647
 20
333.513144
 11
300.574647
 21
321.513144
  0
LINE
  5
178
100
AcDbEntity
  8
M0
100
AcDbLine
 10
301.774842
 20
398.312704
 11
301.774842
 21
411.513144
  0
ARC
  5
179
100
AcDbEntity
  8
M0
100
AcDbCircle
 10
300.774873
 20
334.713232
 40
1.0
100
AcDbArc
 50
0.0
 51
90.0
  0
ARC
  5
17A
100
AcDbEntity
  8
M0
100
AcDbCircle
 10
300.774873
 20
398.312796
 40
1.0
100
AcDbArc
 50
270.0
 51
359.985137
  0
ARC
  5
17B
100
AcDbEntity
  8
M0
100
AcDbCircle
 10
299.574861
 20
399.512991
 40
1.0
100
AcDbArc
 50
270.0
 51
360.0
  0
ARC
  5
17C
100
AcDbEntity
  8
M0
100
AcDbCircle
 10
298.274873
 20
397.512991
 40
1.0
100
AcDbArc
 50
90.0
 51
180.0
  0
ARC
  5
17D
100
AcDbEntity
  8
M0
100
AcDbCircle
 10
299.47487
 20
396.312796
 40
1.0
100
AcDbArc
 50
90.0
 51
180.0
  0
ARC
  5
17E
100
AcDbEntity
  8
M0
100
AcDbCircle
 10
298.274873
 20
335.513235
 40
1.0
100
AcDbArc
 50
180.0
 51
270.0
  0
ARC
  5
17F
100
AcDbEntity
  8
M0
100
AcDbCircle
 10
299.47487
 20
336.713232
 40
1.0
100
AcDbArc
 50
180.0
 51
270.0
  0
ARC
  5
180
100
AcDbEntity
  8
M0
100
AcDbCircle
 10
299.574861
 20
333.513235
 40
1.0
100
AcDbArc
 50
0.0
 51
90.0
  0
LINE
  5
181
100
AcDbEntity
  8
M0
  6
DASHDOT
100
AcDbLine
 10
293.782533
 20
392.513235
 11
301.370591
 21
392.513235
  0
LINE
  5
182
100
AcDbEntity
  8
M0
  6
DASHDOT
100
AcDbLine
 10
294.013246
 20
340.513235
 11
302.11403
 21
340.513235
  0
LINE
  5
183
100
AcDbEntity
  8
M0
100
AcDbLine
 10
299.674867
 20
394.513235
 11
299.674867
 21
390.513235
  0
LINE
  5
184
100
AcDbEntity
  8
M0
100
AcDbLine
 10
298.47487
 20
394.513235
 11
299.674867
 21
394.513235
  0
LINE
  5
185
100
AcDbEntity
  8
M0
100
AcDbLine
 10
298.47487
 20
390.513235
 11
299.674867
 21
390.513235
  0
LINE
  5
186
100
AcDbEntity
  8
M0
100
AcDbLine
 10
298.47487
 20
342.513235
 11
299.674867
 21
342.513235
  0
LINE
  5
187
100
AcDbEntity
  8
M0
100
AcDbLine
 10
298.47487
 20
338.513235
 11
299.674867
 21
338.513235
  0
LINE
  5
188
100
AcDbEntity
  8
M0
100
AcDbLine
 10
299.674867
 20
342.513235
 11
299.674867
 21
338.513235
  0
ARC
  5
189
100
AcDbEntity
  8
M0
 62
     2
100
AcDbCircle
 10
151.137086
 20
340.513144
 40
3.499993
100
AcDbArc
 50
254.243242
 51
385.381501
  0
LINE
  5
18A
100
AcDbEntity
  8
M0
 62
     2
100
AcDbLine
 10
150.186601
 20
341.462851
 11
152.551225
 21
339.097861
  0
LINE
  5
18B
100
AcDbEntity
  8
M0
 62
     2
100
AcDbLine
 10
151.223802
 20
342.013144
 11
150.186601
 21
340.97579
  0
LINE
  5
18C
100
AcDbEntity
  8
M0
 62
     2
100
AcDbLine
 10
153.258402
 20
341.219931
 11
150.429993
 21
338.391561
  0
LINE
  5
18D
100
AcDbEntity
  8
M0
 62
     2
100
AcDbLine
 10
286.775086
 20
336.512411
 11
287.275086
 21
336.512411
  0
LINE
  5
18E
100
AcDbEntity
  8
M0
 62
     2
100
AcDbLine
 10
287.275086
 20
336.512411
 11
287.275086
 21
344.5129
  0
LINE
  5
18F
100
AcDbEntity
  8
M0
 62
     2
100
AcDbLine
 10
287.275086
 20
344.5129
 11
286.775086
 21
344.5129
  0
LINE
  5
190
100
AcDbEntity
  8
M0
 62
     2
100
AcDbLine
 10
286.775086
 20
344.5129
 11
286.775086
 21
336.512411
  0
LINE
  5
191
100
AcDbEntity
  8
M0
 62
     2
100
AcDbLine
 10
285.775086
 20
337.0129
 11
286.775086
 21
337.0129
  0
LINE
  5
192
100
AcDbEntity
  8
M0
 62
     2
100
AcDbLine
 10
286.775086
 20
344.012411
 11
285.775086
 21
344.012411
  0
LINE
  5
193
100
AcDbEntity
  8
M0
 62
     2
100
AcDbLine
 10
285.775086
 20
337.0129
 11
285.775086
 21
344.012411
  0
LINE
  5
194
100
AcDbEntity
  8
M0
 62
     2
100
AcDbLine
 10
284.655702
 20
337.110556
 11
285.775086
 21
337.012411
  0
LINE
  5
195
100
AcDbEntity
  8
M0
 62
     2
100
AcDbLine
 10
284.655702
 20
343.914267
 11
285.775086
 21
344.012411
  0
ARC
  5
196
100
AcDbEntity
  8
M0
 62
     2
100
AcDbCircle
 10
292.175233
 20
340.512656
 40
8.999985
100
AcDbArc
 50
164.121632
 51
195.884306
  0
ARC
  5
197
100
AcDbEntity
  8
M0
 62
     2
100
AcDbCircle
 10
284.768983
 20
338.405234
 40
1.299995
100
AcDbArc
 50
195.889213
 51
264.999484
  0
ARC
  5
198
100
AcDbEntity
  8
M0
 62
     2
100
AcDbCircle
 10
284.768983
 20
342.619589
 40
1.299995
100
AcDbArc
 50
95.000474
 51
164.13141
  0
LINE
  5
199
100
AcDbEntity
  8
M0
 62
     2
100
AcDbLine
 10
287.275086
 20
392.513144
 11
287.275086
 21
396.272665
  0
LINE
  5
19A
100
AcDbEntity
  8
M0
 62
     2
100
AcDbLine
 10
287.275086
 20
396.272665
 11
286.775086
 21
396.272665
  0
LINE
  5
19B
100
AcDbEntity
  8
M0
 62
     2
100
AcDbLine
 10
286.775086
 20
396.272665
 11
286.775086
 21
392.513144
  0
LINE
  5
19C
100
AcDbEntity
  8
M0
 62
     2
100
AcDbLine
 10
286.775086
 20
395.772177
 11
285.775086
 21
395.772177
  0
LINE
  5
19D
100
AcDbEntity
  8
M0
 62
     2
100
AcDbLine
 10
285.775086
 20
392.513144
 11
285.775086
 21
395.772177
  0
LINE
  5
19E
100
AcDbEntity
  8
M0
 62
     2
100
AcDbLine
 10
284.655702
 20
395.674032
 11
285.775086
 21
395.772177
  0
ARC
  5
19F
100
AcDbEntity
  8
M0
 62
     2
100
AcDbCircle
 10
292.175233
 20
392.272421
 40
8.999985
100
AcDbArc
 50
164.121632
 51
178.467324
  0
ARC
  5
1A0
100
AcDbEntity
  8
M0
 62
     2
100
AcDbCircle
 10
284.768983
 20
394.379355
 40
1.299995
100
AcDbArc
 50
95.000474
 51
164.13141
  0
ARC
  5
1A1
100
AcDbEntity
  8
M0
 62
     2
100
AcDbCircle
 10
87.137086
 20
340.513144
 40
3.499993
100
AcDbArc
 50
254.305043
 51
385.381501
  0
LINE
  5
1A2
100
AcDbEntity
  8
M0
 62
     2
100
AcDbLine
 10
86.190248
 20
341.459189
 11
88.551225
 21
339.097861
  0
LINE
  5
1A3
100
AcDbEntity
  8
M0
 62
     2
100
AcDbLine
 10
87.223847
 20
342.013388
 11
86.190248
 21
340.979697
  0
LINE
  5
1A4
100
AcDbEntity
  8
M0
 62
     2
100
AcDbLine
 10
89.258402
 20
341.219931
 11
86.429993
 21
338.391561
  0
LINE
  5
1A5
100
AcDbEntity
  8
M0
 62
     5
100
AcDbLine
 10
231.473329
 20
408.823202
 11
228.174989
 21
396.513144
  0
ARC
  5
1A6
100
AcDbEntity
  8
M0
 62
     5
100
AcDbCircle
 10
233.018739
 20
408.40914
 40
1.599999
100
AcDbArc
 50
344.992507
 51
525.000999
  0
LINE
  5
1A7
100
AcDbEntity
  8
M0
 62
     5
100
AcDbLine
 10
234.564149
 20
407.994833
 11
231.219784
 21
395.513113
  0
ARC
  5
1A8
100
AcDbEntity
  8
M0
 62
     5
100
AcDbCircle
 10
224.1745
 20
333.413046
 40
1.599999
100
AcDbArc
 50
165.009375
 51
344.994769
  0
LINE
  5
1A9
100
AcDbEntity
  8
M0
 62
     5
100
AcDbLine
 10
223.08075
 20
335.513144
 11
222.62909
 21
333.826865
  0
LINE
  5
1AA
100
AcDbEntity
  8
M0
 62
     5
100
AcDbLine
 10
226.393983
 20
335.513144
 11
225.720155
 21
332.99874
  0
ARC
  5
1AB
100
AcDbEntity
  8
M0
 62
     5
100
AcDbCircle
 10
225.974061
 20
331.009238
 40
1.599999
100
AcDbArc
 50
147.044611
 51
354.993144
  0
LINE
  5
1AC
100
AcDbEntity
  8
M0
 62
     5
100
AcDbLine
 10
227.974305
 20
335.513144
 11
227.568055
 21
330.869589
  0
ARC
  5
1AD
100
AcDbEntity
  8
M0
 62
     5
100
AcDbCircle
 10
228.725038
 20
331.009238
 40
1.599999
100
AcDbArc
 50
210.720826
 51
224.769696
  0
LINE
  5
1AE
100
AcDbEntity
  8
M0
 62
     7
100
AcDbLine
 10
47.140156
 20
324.709423
 11
47.140182
 21
282.709423
  0
LINE
  5
1AF
100
AcDbEntity
  8
M0
 62
     7
100
AcDbLine
 10
57.640184
 20
280.209429
 11
58.640184
 21
280.20943
  0
LINE
  5
1B0
100
AcDbEntity
  8
M0
 62
     7
100
AcDbLine
 10
92.140181
 20
283.209451
 11
92.140165
 21
308.709451
  0
LINE
  5
1B1
100
AcDbEntity
  8
M0
 62
     7
100
AcDbLine
 10
90.140181
 20
283.20945
 11
90.14018
 21
284.70945
  0
LINE
  5
1B2
100
AcDbEntity
  8
M0
 62
     7
100
AcDbLine
 10
79.140182
 20
280.709443
 11
79.14018
 21
284.709443
  0
LINE
  5
1B3
100
AcDbEntity
  8
M0
 62
     7
100
AcDbLine
 10
47.140156
 20
324.709423
 11
52.140156
 21
324.709426
  0
LINE
  5
1B4
100
AcDbEntity
  8
M0
 62
     7
100
AcDbLine
 10
90.14018
 20
284.70945
 11
79.14018
 21
284.709443
  0
LINE
  5
1B5
100
AcDbEntity
  8
M0
 62
     7
100
AcDbLine
 10
91.640181
 20
282.709451
 11
90.640181
 21
282.70945
  0
LINE
  5
1B6
100
AcDbEntity
  8
M0
 62
     7
100
AcDbLine
 10
77.140175
 20
292.209442
 11
77.140182
 21
280.709442
  0
LINE
  5
1B7
100
AcDbEntity
  8
M0
 62
     7
100
AcDbLine
 10
69.140172
 20
297.209437
 11
69.140182
 21
280.709437
  0
LINE
  5
1B8
100
AcDbEntity
  8
M0
 62
     7
100
AcDbLine
 10
67.140172
 20
297.209435
 11
67.140182
 21
280.709435
  0
LINE
  5
1B9
100
AcDbEntity
  8
M0
 62
     7
100
AcDbLine
 10
59.140183
 20
280.70943
 11
59.140173
 21
297.20943
  0
LINE
  5
1BA
100
AcDbEntity
  8
M0
 62
     7
100
AcDbLine
 10
57.140173
 20
297.209429
 11
57.140183
 21
280.709429
  0
LINE
  5
1BB
100
AcDbEntity
  8
M0
 62
     7
100
AcDbLine
 10
80.64018
 20
284.709444
 11
80.640175
 21
292.209444
  0
LINE
  5
1BC
100
AcDbEntity
  8
M0
 62
     7
100
AcDbLine
 10
77.140181
 20
282.709442
 11
69.140181
 21
282.709437
  0
LINE
  5
1BD
100
AcDbEntity
  8
M0
 62
     7
100
AcDbLine
 10
67.140181
 20
282.709435
 11
59.140182
 21
282.70943
  0
LINE
  5
1BE
100
AcDbEntity
  8
M0
 62
     7
100
AcDbLine
 10
57.140182
 20
282.709429
 11
47.140182
 21
282.709423
  0
LINE
  5
1BF
100
AcDbEntity
  8
M0
 62
     7
100
AcDbLine
 10
76.140175
 20
293.209441
 11
70.140175
 21
293.209437
  0
LINE
  5
1C0
100
AcDbEntity
  8
M0
 62
     7
100
AcDbLine
 10
66.140175
 20
293.209435
 11
60.140176
 21
293.209431
  0
LINE
  5
1C1
100
AcDbEntity
  8
M0
 62
     7
100
AcDbLine
 10
77.640183
 20
280.209442
 11
78.640183
 21
280.209443
  0
LINE
  5
1C2
100
AcDbEntity
  8
M0
 62
     7
100
AcDbLine
 10
67.640183
 20
280.209436
 11
68.640183
 21
280.209436
  0
LINE
  5
1C3
100
AcDbEntity
  8
M0
 62
     7
100
AcDbLine
 10
52.140172
 20
299.209426
 11
52.140156
 21
324.709426
  0
LINE
  5
1C4
100
AcDbEntity
  8
M0
 62
     7
100
AcDbLine
 10
50.140156
 20
324.709425
 11
50.140172
 21
298.709425
  0
LINE
  5
1C5
100
AcDbEntity
  8
M0
 62
     7
100
AcDbLine
 10
51.640172
 20
298.709426
 11
47.640172
 21
298.709423
  0
LINE
  5
1C6
100
AcDbEntity
  8
M0
 62
     7
100
AcDbLine
 10
90.140171
 20
299.20945
 11
90.140166
 21
306.109444
  0
LINE
  5
1C7
100
AcDbEntity
  8
M0
 62
     7
100
AcDbLine
 10
82.140166
 20
306.109439
 11
82.140172
 21
297.709445
  0
LINE
  5
1C8
100
AcDbEntity
  8
M0
 62
     7
100
AcDbLine
 10
80.140172
 20
297.709444
 11
80.140165
 21
308.709444
  0
LINE
  5
1C9
100
AcDbEntity
  8
M0
 62
     7
100
AcDbLine
 10
72.140165
 20
308.709439
 11
72.140172
 21
297.709439
  0
LINE
  5
1CA
100
AcDbEntity
  8
M0
 62
     7
100
AcDbLine
 10
70.140172
 20
297.709437
 11
70.140165
 21
308.709437
  0
LINE
  5
1CB
100
AcDbEntity
  8
M0
 62
     7
100
AcDbLine
 10
62.140165
 20
308.709432
 11
62.140172
 21
297.709432
  0
LINE
  5
1CC
100
AcDbEntity
  8
M0
 62
     7
100
AcDbLine
 10
60.140166
 20
308.709431
 11
60.140173
 21
297.709431
  0
LINE
  5
1CD
100
AcDbEntity
  8
M0
 62
     7
100
AcDbLine
 10
91.640171
 20
298.709451
 11
90.640171
 21
298.70945
  0
LINE
  5
1CE
100
AcDbEntity
  8
M0
 62
     7
100
AcDbLine
 10
68.640176
 20
290.209436
 11
67.640176
 21
290.209436
  0
LINE
  5
1CF
100
AcDbEntity
  8
M0
 62
     7
100
AcDbLine
 10
58.640177
 20
290.20943
 11
57.640177
 21
290.209429
  0
LINE
  5
1D0
100
AcDbEntity
  8
M0
 62
     7
100
AcDbLine
 10
61.640173
 20
297.209432
 11
60.640173
 21
297.209431
  0
LINE
  5
1D1
100
AcDbEntity
  8
M0
 62
     7
100
AcDbLine
 10
71.640172
 20
297.209438
 11
70.640172
 21
297.209438
  0
LINE
  5
1D2
100
AcDbEntity
  8
M0
 62
     7
100
AcDbLine
 10
81.640172
 20
297.209444
 11
80.640172
 21
297.209444
  0
LINE
  5
1D3
100
AcDbEntity
  8
M0
 62
     7
100
AcDbLine
 10
82.140172
 20
297.709445
 11
92.140172
 21
297.709451
  0
LINE
  5
1D4
100
AcDbEntity
  8
M0
 62
     7
100
AcDbLine
 10
72.140172
 20
297.709439
 11
80.140172
 21
297.709444
  0
LINE
  5
1D5
100
AcDbEntity
  8
M0
 62
     7
100
AcDbLine
 10
62.140172
 20
297.709432
 11
70.140172
 21
297.709437
  0
ARC
  5
1D6
100
AcDbEntity
  8
M0
 62
     7
100
AcDbCircle
 10
57.640183
 20
280.709429
 40
0.5
100
AcDbArc
 50
180.000036
 51
270.0
  0
ARC
  5
1D7
100
AcDbEntity
  8
M0
 62
     7
100
AcDbCircle
 10
58.640183
 20
280.70943
 40
0.5
100
AcDbArc
 50
270.0
 51
359.998287
  0
ARC
  5
1D8
100
AcDbEntity
  8
M0
 62
     7
100
AcDbCircle
 10
67.640182
 20
280.709436
 40
0.5
100
AcDbArc
 50
180.000036
 51
270.0
  0
ARC
  5
1D9
100
AcDbEntity
  8
M0
 62
     7
100
AcDbCircle
 10
68.640182
 20
280.709436
 40
0.5
100
AcDbArc
 50
270.0
 51
359.998287
  0
ARC
  5
1DA
100
AcDbEntity
  8
M0
 62
     7
100
AcDbCircle
 10
77.640182
 20
280.709442
 40
0.5
100
AcDbArc
 50
180.000036
 51
270.0
  0
ARC
  5
1DB
100
AcDbEntity
  8
M0
 62
     7
100
AcDbCircle
 10
78.640182
 20
280.709443
 40
0.5
100
AcDbArc
 50
270.0
 51
359.998287
  0
ARC
  5
1DC
100
AcDbEntity
  8
M0
 62
     7
100
AcDbCircle
 10
90.640181
 20
283.20945
 40
0.5
100
AcDbArc
 50
180.000036
 51
269.998287
  0
ARC
  5
1DD
100
AcDbEntity
  8
M0
 62
     7
100
AcDbCircle
 10
91.640181
 20
283.209451
 40
0.5
100
AcDbArc
 50
269.998287
 51
359.998287
  0
ARC
  5
1DE
100
AcDbEntity
  8
M0
 62
     7
100
AcDbCircle
 10
57.640177
 20
290.709429
 40
0.5
100
AcDbArc
 50
180.000036
 51
270.0
  0
ARC
  5
1DF
100
AcDbEntity
  8
M0
 62
     7
100
AcDbCircle
 10
58.640177
 20
290.70943
 40
0.5
100
AcDbArc
 50
270.0
 51
359.998287
  0
ARC
  5
1E0
100
AcDbEntity
  8
M0
 62
     7
100
AcDbCircle
 10
67.640176
 20
290.709436
 40
0.5
100
AcDbArc
 50
180.000036
 51
270.0
  0
ARC
  5
1E1
100
AcDbEntity
  8
M0
 62
     7
100
AcDbCircle
 10
68.640176
 20
290.709436
 40
0.5
100
AcDbArc
 50
270.0
 51
359.998287
  0
ARC
  5
1E2
100
AcDbEntity
  8
M0
 62
     7
100
AcDbCircle
 10
90.640171
 20
299.20945
 40
0.5
100
AcDbArc
 50
180.000036
 51
269.998287
  0
ARC
  5
1E3
100
AcDbEntity
  8
M0
 62
     7
100
AcDbCircle
 10
91.640171
 20
299.209451
 40
0.5
100
AcDbArc
 50
269.998287
 51
359.998287
  0
ARC
  5
1E4
100
AcDbEntity
  8
M0
 62
     7
100
AcDbCircle
 10
91.140165
 20
308.70945
 40
1.0
100
AcDbArc
 50
359.999162
 51
450.0
  0
ARC
  5
1E5
100
AcDbEntity
  8
M0
 62
     7
100
AcDbCircle
 10
79.140165
 20
308.709443
 40
1.0
100
AcDbArc
 50
359.999162
 51
450.0
  0
ARC
  5
1E6
100
AcDbEntity
  8
M0
 62
     7
100
AcDbCircle
 10
73.140165
 20
308.709439
 40
1.0
100
AcDbArc
 50
90.0
 51
180.000036
  0
ARC
  5
1E7
100
AcDbEntity
  8
M0
 62
     7
100
AcDbCircle
 10
69.140165
 20
308.709437
 40
1.0
100
AcDbArc
 50
359.999162
 51
450.0
  0
LINE
  5
1E8
100
AcDbEntity
  8
M0
 62
     7
100
AcDbLine
 10
87.140175
 20
293.209448
 11
81.640175
 21
293.209444
  0
LINE
  5
1E9
100
AcDbEntity
  8
M0
 62
     7
100
AcDbLine
 10
88.64018
 20
284.709449
 11
88.640177
 21
289.209449
  0
LINE
  5
1EA
100
AcDbEntity
  8
M0
 62
     7
100
AcDbLine
 10
47.640173
 20
297.709423
 11
60.140173
 21
297.709431
  0
LINE
  5
1EB
100
AcDbEntity
  8
M0
 62
     7
100
AcDbLine
 10
56.140176
 20
293.209428
 11
50.640176
 21
293.209425
  0
LINE
  5
1EC
100
AcDbEntity
  8
M0
 62
     7
100
AcDbLine
 10
49.140182
 20
282.709424
 11
49.140176
 21
291.709424
  0
LINE
  5
1ED
100
AcDbEntity
  8
M0
 62
     7
100
AcDbLine
 10
91.140164
 20
309.70945
 11
53.900251
 21
309.709427
  0
ARC
  5
1EE
100
AcDbEntity
  8
M0
 62
     7
100
AcDbCircle
 10
63.140165
 20
308.709433
 40
1.0
100
AcDbArc
 50
90.0
 51
180.000036
  0
ARC
  5
1EF
100
AcDbEntity
  8
M0
 62
     7
100
AcDbCircle
 10
59.140166
 20
308.70943
 40
1.0
100
AcDbArc
 50
359.999162
 51
450.0
  0
ARC
  5
1F0
100
AcDbEntity
  8
M0
 62
     7
100
AcDbCircle
 10
66.140172
 20
296.709435
 40
1.0
100
AcDbArc
 50
359.999162
 51
450.0
  0
ARC
  5
1F1
100
AcDbEntity
  8
M0
 62
     7
100
AcDbCircle
 10
60.140173
 20
296.709431
 40
1.0
100
AcDbArc
 50
90.0
 51
180.000036
  0
ARC
  5
1F2
100
AcDbEntity
  8
M0
 62
     7
100
AcDbCircle
 10
70.140172
 20
296.709437
 40
1.0
100
AcDbArc
 50
90.0
 51
180.000036
  0
ARC
  5
1F3
100
AcDbEntity
  8
M0
 62
     7
100
AcDbCircle
 10
68.640172
 20
297.209436
 40
0.5
100
AcDbArc
 50
359.998287
 51
450.0
  0
ARC
  5
1F4
100
AcDbEntity
  8
M0
 62
     7
100
AcDbCircle
 10
67.640172
 20
297.209436
 40
0.5
100
AcDbArc
 50
90.0
 51
180.000036
  0
ARC
  5
1F5
100
AcDbEntity
  8
M0
 62
     7
100
AcDbCircle
 10
58.640173
 20
297.20943
 40
0.5
100
AcDbArc
 50
359.998287
 51
450.0
  0
ARC
  5
1F6
100
AcDbEntity
  8
M0
 62
     7
100
AcDbCircle
 10
57.640173
 20
297.209429
 40
0.5
100
AcDbArc
 50
90.0
 51
180.000036
  0
ARC
  5
1F7
100
AcDbEntity
  8
M0
 62
     7
100
AcDbCircle
 10
60.640173
 20
297.709431
 40
0.5
100
AcDbArc
 50
180.000036
 51
270.0
  0
ARC
  5
1F8
100
AcDbEntity
  8
M0
 62
     7
100
AcDbCircle
 10
61.640173
 20
297.709432
 40
0.5
100
AcDbArc
 50
270.0
 51
359.998287
  0
ARC
  5
1F9
100
AcDbEntity
  8
M0
 62
     7
100
AcDbCircle
 10
70.640172
 20
297.709438
 40
0.5
100
AcDbArc
 50
180.000036
 51
270.0
  0
ARC
  5
1FA
100
AcDbEntity
  8
M0
 62
     7
100
AcDbCircle
 10
71.640172
 20
297.709438
 40
0.5
100
AcDbArc
 50
270.0
 51
359.998287
  0
ARC
  5
1FB
100
AcDbEntity
  8
M0
 62
     7
100
AcDbCircle
 10
80.640172
 20
297.709444
 40
0.5
100
AcDbArc
 50
180.000036
 51
269.998287
  0
ARC
  5
1FC
100
AcDbEntity
  8
M0
 62
     7
100
AcDbCircle
 10
81.640172
 20
297.709444
 40
0.5
100
AcDbArc
 50
269.998287
 51
359.998287
  0
ARC
  5
1FD
100
AcDbEntity
  8
M0
 62
     7
100
AcDbCircle
 10
51.640172
 20
299.209426
 40
0.5
100
AcDbArc
 50
270.0
 51
359.998287
  0
ARC
  5
1FE
100
AcDbEntity
  8
M0
 62
     7
100
AcDbCircle
 10
47.640172
 20
299.209423
 40
0.5
100
AcDbArc
 50
180.000036
 51
270.0
  0
ARC
  5
1FF
100
AcDbEntity
  8
M0
 62
     7
100
AcDbCircle
 10
81.640175
 20
292.209444
 40
1.0
100
AcDbArc
 50
90.0
 51
180.000036
  0
ARC
  5
200
100
AcDbEntity
  8
M0
 62
     7
100
AcDbCircle
 10
76.140175
 20
292.209441
 40
1.0
100
AcDbArc
 50
359.999162
 51
450.0
  0
ARC
  5
201
100
AcDbEntity
  8
M0
 62
     7
100
AcDbCircle
 10
70.140175
 20
292.209437
 40
1.0
100
AcDbArc
 50
90.0
 51
180.000036
  0
ARC
  5
202
100
AcDbEntity
  8
M0
 62
     7
100
AcDbCircle
 10
66.140175
 20
292.209435
 40
1.0
100
AcDbArc
 50
359.999162
 51
450.0
  0
ARC
  5
203
100
AcDbEntity
  8
M0
 62
     7
100
AcDbCircle
 10
60.140176
 20
292.209431
 40
1.0
100
AcDbArc
 50
90.0
 51
180.000036
  0
ARC
  5
204
100
AcDbEntity
  8
M0
 62
     7
100
AcDbCircle
 10
56.140176
 20
292.209428
 40
1.0
100
AcDbArc
 50
359.999162
 51
450.0
  0
LINE
  5
205
100
AcDbEntity
  8
M0
 62
     7
100
AcDbLine
 10
52.140167
 20
306.10942
 11
52.936734
 21
308.977066
  0
LINE
  5
206
100
AcDbEntity
  8
M0
 62
     7
100
AcDbLine
 10
82.140166
 20
306.109439
 11
82.936719
 21
308.977084
  0
ARC
  5
207
100
AcDbEntity
  8
M0
 62
     7
100
AcDbCircle
 10
83.900236
 20
308.709446
 40
1.0
100
AcDbArc
 50
90.0
 51
164.476393
  0
ARC
  5
208
100
AcDbEntity
  8
M0
 62
     7
100
AcDbCircle
 10
53.900252
 20
308.709427
 40
1.0
100
AcDbArc
 50
90.0
 51
164.476188
  0
LINE
  5
209
100
AcDbEntity
  8
M0
 62
     7
100
AcDbLine
 10
88.640177
 20
289.209449
 11
88.170022
 21
291.090018
  0
ARC
  5
20A
100
AcDbEntity
  8
M0
 62
     7
100
AcDbCircle
 10
89.140176
 20
291.332542
 40
1.0
100
AcDbArc
 50
180.000036
 51
194.035431
  0
LINE
  5
20B
100
AcDbEntity
  8
M0
 62
     7
100
AcDbLine
 10
88.140175
 20
292.209449
 11
88.140176
 21
291.332541
  0
ARC
  5
20C
100
AcDbEntity
  8
M0
 62
     7
100
AcDbCircle
 10
87.140175
 20
292.209448
 40
1.0
100
AcDbArc
 50
359.999162
 51
450.0
  0
ARC
  5
20D
100
AcDbEntity
  8
M0
 62
     7
100
AcDbCircle
 10
47.640172
 20
298.209423
 40
0.5
100
AcDbArc
 50
180.000036
 51
270.0
  0
ARC
  5
20E
100
AcDbEntity
  8
M0
 62
     7
100
AcDbCircle
 10
50.640176
 20
291.709425
 40
1.5
100
AcDbArc
 50
90.0
 51
180.000036
  0
LINE
  5
20F
100
AcDbEntity
  8
M0
 62
     7
100
AcDbLine
 10
50.44017
 20
302.209425
 11
50.14017
 21
302.209425
  0
LINE
  5
210
100
AcDbEntity
  8
M0
 62
     7
100
AcDbLine
 10
50.940171
 20
300.709425
 11
50.440171
 21
300.709425
  0
LINE
  5
211
100
AcDbEntity
  8
M0
 62
     7
100
AcDbLine
 10
50.440171
 20
300.709425
 11
50.44017
 21
302.209425
  0
LINE
  5
212
100
AcDbEntity
  8
M0
 62
     7
100
AcDbLine
 10
50.940172
 20
298.709425
 11
50.940171
 21
300.709425
  0
LINE
  5
213
100
AcDbEntity
  8
M0
 62
     7
100
AcDbLine
 10
90.140166
 20
306.109444
 11
89.44531
 21
308.610908
  0
ARC
  5
214
100
AcDbEntity
  8
M0
 62
     7
100
AcDbCircle
 10
88.000028
 20
308.209448
 40
1.5
100
AcDbArc
 50
15.523429
 51
90.0
  0
LINE
  5
215
100
AcDbEntity
  8
M0
 62
     1
100
AcDbLine
 10
82.940248
 20
326.709428
 11
51.640259
 21
326.709447
  0
LINE
  5
216
100
AcDbEntity
  8
M0
 62
     1
100
AcDbLine
 10
51.140259
 20
326.209463
 11
51.140249
 21
309.709463
  0
LINE
  5
217
100
AcDbEntity
  8
M0
 62
     1
100
AcDbLine
 10
51.140249
 20
309.709432
 11
91.640234
 21
309.709437
  0
LINE
  5
218
100
AcDbEntity
  8
M0
 62
     1
100
AcDbLine
 10
92.140235
 20
310.209437
 11
92.140241
 21
321.209422
  0
LINE
  5
219
100
AcDbEntity
  8
M0
 62
     1
100
AcDbLine
 10
91.640242
 20
321.709422
 11
83.940245
 21
321.709427
  0
LINE
  5
21A
100
AcDbEntity
  8
M0
 62
     1
100
AcDbLine
 10
83.440245
 20
322.209427
 11
83.440248
 21
326.209427
  0
ARC
  5
21B
100
AcDbEntity
  8
M0
 62
     1
100
AcDbCircle
 10
91.640235
 20
310.209437
 40
0.5
100
AcDbArc
 50
270.0
 51
359.998215
  0
ARC
  5
21C
100
AcDbEntity
  8
M0
 62
     1
100
AcDbCircle
 10
82.940248
 20
326.209428
 40
0.5
100
AcDbArc
 50
359.998215
 51
450.0
  0
ARC
  5
21D
100
AcDbEntity
  8
M0
 62
     1
100
AcDbCircle
 10
51.640259
 20
326.209447
 40
0.5
100
AcDbArc
 50
89.998215
 51
179.999964
  0
ARC
  5
21E
100
AcDbEntity
  8
M0
 62
     1
100
AcDbCircle
 10
91.640241
 20
321.209422
 40
0.5
100
AcDbArc
 50
359.998215
 51
450.0
  0
ARC
  5
21F
100
AcDbEntity
  8
M0
 62
     1
100
AcDbCircle
 10
83.940245
 20
322.209427
 40
0.5
100
AcDbArc
 50
179.999964
 51
270.0
  0
CIRCLE
  5
220
100
AcDbEntity
  8
M0
 62
     1
100
AcDbCircle
 10
60.140253
 20
317.00946
 40
4.5
  0
LINE
  5
221
100
AcDbEntity
  8
M0
  6
DASHDOT
 62
     1
100
AcDbLine
 10
70.356882
 20
317.009454
 11
53.140253
 21
317.009465
  0
LINE
  5
222
100
AcDbEntity
  8
M0
  6
DASHDOT
 62
     1
100
AcDbLine
 10
60.140257
 20
324.00946
 11
60.140249
 21
310.00946
  0
LINE
  5
223
100
AcDbEntity
  8
M0
 62
    34
100
AcDbLine
 10
47.140264
 20
330.509459
 11
47.140261
 21
324.709456
  0
LINE
  5
224
100
AcDbEntity
  8
M0
 62
    34
100
AcDbLine
 10
92.140244
 20
320.209428
 11
92.140248
 21
327.209443
  0
LINE
  5
225
100
AcDbEntity
  8
M0
 62
    34
100
AcDbLine
 10
83.440263
 20
323.589804
 11
83.944107
 21
321.709433
  0
LINE
  5
226
100
AcDbEntity
  8
M0
 62
    34
100
AcDbLine
 10
83.740253
 20
326.33396
 11
84.711442
 21
322.709432
  0
LINE
  5
227
100
AcDbEntity
  8
M0
 62
    34
100
AcDbLine
 10
92.140245
 20
322.709428
 11
84.711442
 21
322.709432
  0
LINE
  5
228
100
AcDbEntity
  8
M0
 62
    34
100
AcDbLine
 10
83.740253
 20
327.209448
 11
92.140248
 21
327.209428
  0
LINE
  5
229
100
AcDbEntity
  8
M0
 62
    34
100
AcDbLine
 10
83.140263
 20
328.209433
 11
83.140264
 21
329.409095
  0
LINE
  5
22A
100
AcDbEntity
  8
M0
 62
    34
100
AcDbLine
 10
83.740253
 20
326.209448
 11
83.740254
 21
328.209433
  0
LINE
  5
22B
100
AcDbEntity
  8
M0
 62
    34
100
AcDbLine
 10
83.740253
 20
326.209448
 11
92.140247
 21
326.209428
  0
LINE
  5
22C
100
AcDbEntity
  8
M0
 62
    34
100
AcDbLine
 10
83.740254
 20
328.209433
 11
67.640263
 21
328.209443
  0
LINE
  5
22D
100
AcDbEntity
  8
M0
 62
    34
100
AcDbLine
 10
57.140263
 20
328.909447
 11
64.640263
 21
328.909457
  0
LINE
  5
22E
100
AcDbEntity
  8
M0
 62
    34
100
AcDbLine
 10
57.140264
 20
329.709434
 11
64.640264
 21
329.70943
  0
LINE
  5
22F
100
AcDbEntity
  8
M0
 62
    34
100
AcDbLine
 10
66.415869
 20
330.509447
 11
47.140264
 21
330.509459
  0
LINE
  5
230
100
AcDbEntity
  8
M0
 62
    34
100
AcDbLine
 10
57.140262
 20
326.70945
 11
57.140264
 21
329.709465
  0
LINE
  5
231
100
AcDbEntity
  8
M0
 62
    34
100
AcDbLine
 10
67.640263
 20
328.209458
 11
67.640264
 21
329.895631
  0
LINE
  5
232
100
AcDbEntity
  8
M0
 62
    34
100
AcDbLine
 10
64.640263
 20
328.909457
 11
64.640264
 21
329.895633
  0
LINE
  5
233
100
AcDbEntity
  8
M0
 62
    34
100
AcDbLine
 10
81.640263
 20
328.209434
 11
81.640264
 21
329.409095
  0
LINE
  5
234
100
AcDbEntity
  8
M0
 62
    34
100
AcDbLine
 10
49.140282
 20
334.009229
 11
49.14028
 21
330.509473
  0
LINE
  5
235
100
AcDbEntity
  8
M0
 62
    34
100
AcDbLine
 10
54.14028
 20
330.50947
 11
54.140282
 21
334.009226
  0
LINE
  5
236
100
AcDbEntity
  8
M0
 62
    34
100
AcDbLine
 10
59.14028
 20
331.812903
 11
59.14028
 21
330.509467
  0
LINE
  5
237
100
AcDbEntity
  8
M0
 62
    34
100
AcDbLine
 10
54.440267
 20
330.509454
 11
54.44027
 21
334.009225
  0
LINE
  5
238
100
AcDbEntity
  8
M0
 62
    34
100
AcDbLine
 10
57.440267
 20
330.509452
 11
57.440269
 21
332.378822
  0
LINE
  5
239
100
AcDbEntity
  8
M0
 62
    34
100
AcDbLine
 10
67.640264
 20
329.895631
 11
64.640264
 21
329.895633
  0
CIRCLE
  5
23A
100
AcDbEntity
  8
M0
 62
   114
100
AcDbCircle
 10
60.140199
 20
317.009482
 40
3.799999
  0
LINE
  5
23B
100
AcDbEntity
  8
M0
 62
   114
100
AcDbLine
 10
60.640199
 20
320.776434
 11
60.640199
 21
313.242514
  0
LINE
  5
23C
100
AcDbEntity
  8
M0
 62
   114
100
AcDbLine
 10
59.640199
 20
320.776434
 11
59.640199
 21
313.242514
  0
CIRCLE
  5
23D
100
AcDbEntity
  8
M0
 62
     4
100
AcDbCircle
 10
56.140199
 20
305.009482
 40
2.999997
  0
LINE
  5
23E
100
AcDbEntity
  8
M0
 62
     4
100
AcDbLine
 10
53.181214
 20
308.956824
 11
52.365052
 21
306.309531
  0
LINE
  5
23F
100
AcDbEntity
  8
M0
 62
     4
100
AcDbLine
 10
53.181214
 20
301.062231
 11
52.365052
 21
303.709555
  0
LINE
  5
240
100
AcDbEntity
  8
M0
 62
     4
100
AcDbLine
 10
59.098695
 20
308.956839
 11
59.915101
 21
306.309531
  0
LINE
  5
241
100
AcDbEntity
  8
M0
 62
     4
100
AcDbLine
 10
59.098695
 20
301.062216
 11
59.915101
 21
303.709555
  0
LINE
  5
242
100
AcDbEntity
  8
M0
 62
     4
100
AcDbLine
 10
53.659242
 20
300.709555
 11
58.620912
 21
300.709555
  0
LINE
  5
243
100
AcDbEntity
  8
M0
 62
     4
100
AcDbLine
 10
59.915101
 20
303.709555
 11
59.915101
 21
306.309531
  0
LINE
  5
244
100
AcDbEntity
  8
M0
 62
     4
100
AcDbLine
 10
58.620912
 20
309.309531
 11
53.659242
 21
309.309515
  0
LINE
  5
245
100
AcDbEntity
  8
M0
 62
     4
100
AcDbLine
 10
52.365052
 20
306.309531
 11
52.365052
 21
303.709555
  0
LINE
  5
246
100
AcDbEntity
  8
M0
 62
     4
100
AcDbLine
 10
57.730775
 20
303.418661
 11
54.549134
 21
306.600424
  0
LINE
  5
247
100
AcDbEntity
  8
M0
 62
     4
100
AcDbLine
 10
56.49347
 20
306.423666
 11
54.725892
 21
304.655966
  0
LINE
  5
248
100
AcDbEntity
  8
M0
 62
     4
100
AcDbLine
 10
57.554017
 20
305.362997
 11
55.786439
 21
303.595419
  0
ARC
  5
249
100
AcDbEntity
  8
M0
 62
     4
100
AcDbCircle
 10
53.659242
 20
308.809515
 40
0.5
100
AcDbArc
 50
89.998251
 51
162.874002
  0
ARC
  5
24A
100
AcDbEntity
  8
M0
 62
     4
100
AcDbCircle
 10
53.659242
 20
301.209555
 40
0.5
100
AcDbArc
 50
197.12934
 51
270.0
  0
ARC
  5
24B
100
AcDbEntity
  8
M0
 62
     4
100
AcDbCircle
 10
58.620912
 20
301.209555
 40
0.5
100
AcDbArc
 50
270.0
 51
342.860087
  0
ARC
  5
24C
100
AcDbEntity
  8
M0
 62
     4
100
AcDbCircle
 10
58.620912
 20
308.809515
 40
0.5
100
AcDbArc
 50
17.136442
 51
90.0
  0
LINE
  5
24D
100
AcDbEntity
  8
M0
  6
DASHDOT
 62
     4
100
AcDbLine
 10
59.640199
 20
305.009482
 11
52.640199
 21
305.009482
  0
LINE
  5
24E
100
AcDbEntity
  8
M0
  6
DASHDOT
 62
     4
100
AcDbLine
 10
56.140183
 20
308.509482
 11
56.140199
 21
301.509482
  0
CIRCLE
  5
24F
100
AcDbEntity
  8
M0
 62
     4
100
AcDbCircle
 10
66.140199
 20
305.009482
 40
2.999997
  0
LINE
  5
250
100
AcDbEntity
  8
M0
 62
     4
100
AcDbLine
 10
63.181214
 20
308.956824
 11
62.365052
 21
306.309531
  0
LINE
  5
251
100
AcDbEntity
  8
M0
 62
     4
100
AcDbLine
 10
63.181214
 20
301.062231
 11
62.365052
 21
303.709555
  0
LINE
  5
252
100
AcDbEntity
  8
M0
 62
     4
100
AcDbLine
 10
69.098695
 20
308.956839
 11
69.915101
 21
306.309531
  0
LINE
  5
253
100
AcDbEntity
  8
M0
 62
     4
100
AcDbLine
 10
69.098695
 20
301.062216
 11
69.915101
 21
303.709555
  0
LINE
  5
254
100
AcDbEntity
  8
M0
 62
     4
100
AcDbLine
 10
63.659242
 20
300.709555
 11
68.620912
 21
300.709555
  0
LINE
  5
255
100
AcDbEntity
  8
M0
 62
     4
100
AcDbLine
 10
69.915101
 20
303.709555
 11
69.915101
 21
306.309531
  0
LINE
  5
256
100
AcDbEntity
  8
M0
 62
     4
100
AcDbLine
 10
68.620912
 20
309.309531
 11
63.659242
 21
309.309515
  0
LINE
  5
257
100
AcDbEntity
  8
M0
 62
     4
100
AcDbLine
 10
62.365052
 20
306.309531
 11
62.365052
 21
303.709555
  0
LINE
  5
258
100
AcDbEntity
  8
M0
 62
     4
100
AcDbLine
 10
67.730775
 20
303.418661
 11
64.549134
 21
306.600424
  0
LINE
  5
259
100
AcDbEntity
  8
M0
 62
     4
100
AcDbLine
 10
66.49347
 20
306.423666
 11
64.725892
 21
304.655966
  0
LINE
  5
25A
100
AcDbEntity
  8
M0
 62
     4
100
AcDbLine
 10
67.554017
 20
305.362997
 11
65.786439
 21
303.595419
  0
ARC
  5
25B
100
AcDbEntity
  8
M0
 62
     4
100
AcDbCircle
 10
63.659242
 20
308.809515
 40
0.5
100
AcDbArc
 50
89.998251
 51
162.874002
  0
ARC
  5
25C
100
AcDbEntity
  8
M0
 62
     4
100
AcDbCircle
 10
63.659242
 20
301.209555
 40
0.5
100
AcDbArc
 50
197.12934
 51
270.0
  0
ARC
  5
25D
100
AcDbEntity
  8
M0
 62
     4
100
AcDbCircle
 10
68.620912
 20
301.209555
 40
0.5
100
AcDbArc
 50
270.0
 51
342.860087
  0
ARC
  5
25E
100
AcDbEntity
  8
M0
 62
     4
100
AcDbCircle
 10
68.620912
 20
308.809515
 40
0.5
100
AcDbArc
 50
17.136442
 51
90.0
  0
LINE
  5
25F
100
AcDbEntity
  8
M0
  6
DASHDOT
 62
     4
100
AcDbLine
 10
69.640199
 20
305.009482
 11
62.640199
 21
305.009482
  0
LINE
  5
260
100
AcDbEntity
  8
M0
  6
DASHDOT
 62
     4
100
AcDbLine
 10
66.140183
 20
308.509482
 11
66.140199
 21
301.509482
  0
CIRCLE
  5
261
100
AcDbEntity
  8
M0
 62
     4
100
AcDbCircle
 10
76.140199
 20
305.009482
 40
2.999997
  0
LINE
  5
262
100
AcDbEntity
  8
M0
 62
     4
100
AcDbLine
 10
73.181214
 20
308.956824
 11
72.365052
 21
306.309531
  0
LINE
  5
263
100
AcDbEntity
  8
M0
 62
     4
100
AcDbLine
 10
73.181214
 20
301.062231
 11
72.365052
 21
303.709555
  0
LINE
  5
264
100
AcDbEntity
  8
M0
 62
     4
100
AcDbLine
 10
79.098695
 20
308.956839
 11
79.915101
 21
306.309531
  0
LINE
  5
265
100
AcDbEntity
  8
M0
 62
     4
100
AcDbLine
 10
79.098695
 20
301.062216
 11
79.915101
 21
303.709555
  0
LINE
  5
266
100
AcDbEntity
  8
M0
 62
     4
100
AcDbLine
 10
73.659242
 20
300.709555
 11
78.620912
 21
300.709555
  0
LINE
  5
267
100
AcDbEntity
  8
M0
 62
     4
100
AcDbLine
 10
79.915101
 20
303.709555
 11
79.915101
 21
306.309531
  0
LINE
  5
268
100
AcDbEntity
  8
M0
 62
     4
100
AcDbLine
 10
78.620912
 20
309.309531
 11
73.659242
 21
309.309515
  0
LINE
  5
269
100
AcDbEntity
  8
M0
 62
     4
100
AcDbLine
 10
72.365052
 20
306.309531
 11
72.365052
 21
303.709555
  0
LINE
  5
26A
100
AcDbEntity
  8
M0
 62
     4
100
AcDbLine
 10
77.730775
 20
303.418661
 11
74.549134
 21
306.600424
  0
LINE
  5
26B
100
AcDbEntity
  8
M0
 62
     4
100
AcDbLine
 10
76.49347
 20
306.423666
 11
74.725892
 21
304.655966
  0
LINE
  5
26C
100
AcDbEntity
  8
M0
 62
     4
100
AcDbLine
 10
77.554017
 20
305.362997
 11
75.786439
 21
303.595419
  0
ARC
  5
26D
100
AcDbEntity
  8
M0
 62
     4
100
AcDbCircle
 10
73.659242
 20
308.809515
 40
0.5
100
AcDbArc
 50
89.998251
 51
162.874002
  0
ARC
  5
26E
100
AcDbEntity
  8
M0
 62
     4
100
AcDbCircle
 10
73.659242
 20
301.209555
 40
0.5
100
AcDbArc
 50
197.12934
 51
270.0
  0
ARC
  5
26F
100
AcDbEntity
  8
M0
 62
     4
100
AcDbCircle
 10
78.620912
 20
301.209555
 40
0.5
100
AcDbArc
 50
270.0
 51
342.860087
  0
ARC
  5
270
100
AcDbEntity
  8
M0
 62
     4
100
AcDbCircle
 10
78.620912
 20
308.809515
 40
0.5
100
AcDbArc
 50
17.136442
 51
90.0
  0
LINE
  5
271
100
AcDbEntity
  8
M0
  6
DASHDOT
 62
     4
100
AcDbLine
 10
79.640199
 20
305.009482
 11
72.640199
 21
305.009482
  0
LINE
  5
272
100
AcDbEntity
  8
M0
  6
DASHDOT
 62
     4
100
AcDbLine
 10
76.140183
 20
308.509482
 11
76.140199
 21
301.509482
  0
CIRCLE
  5
273
100
AcDbEntity
  8
M0
 62
     4
100
AcDbCircle
 10
86.140199
 20
305.009482
 40
2.999997
  0
LINE
  5
274
100
AcDbEntity
  8
M0
 62
     4
100
AcDbLine
 10
83.181214
 20
308.956824
 11
82.365052
 21
306.309531
  0
LINE
  5
275
100
AcDbEntity
  8
M0
 62
     4
100
AcDbLine
 10
83.181214
 20
301.062231
 11
82.365052
 21
303.709555
  0
LINE
  5
276
100
AcDbEntity
  8
M0
 62
     4
100
AcDbLine
 10
89.098695
 20
308.956839
 11
89.915101
 21
306.309531
  0
LINE
  5
277
100
AcDbEntity
  8
M0
 62
     4
100
AcDbLine
 10
89.098695
 20
301.062216
 11
89.915101
 21
303.709555
  0
LINE
  5
278
100
AcDbEntity
  8
M0
 62
     4
100
AcDbLine
 10
83.659242
 20
300.709555
 11
88.620912
 21
300.709555
  0
LINE
  5
279
100
AcDbEntity
  8
M0
 62
     4
100
AcDbLine
 10
89.915101
 20
303.709555
 11
89.915101
 21
306.309531
  0
LINE
  5
27A
100
AcDbEntity
  8
M0
 62
     4
100
AcDbLine
 10
88.620912
 20
309.309531
 11
83.659242
 21
309.309515
  0
LINE
  5
27B
100
AcDbEntity
  8
M0
 62
     4
100
AcDbLine
 10
82.365052
 20
306.309531
 11
82.365052
 21
303.709555
  0
LINE
  5
27C
100
AcDbEntity
  8
M0
 62
     4
100
AcDbLine
 10
87.730775
 20
303.418661
 11
84.549134
 21
306.600424
  0
LINE
  5
27D
100
AcDbEntity
  8
M0
 62
     4
100
AcDbLine
 10
86.49347
 20
306.423666
 11
84.725892
 21
304.655966
  0
LINE
  5
27E
100
AcDbEntity
  8
M0
 62
     4
100
AcDbLine
 10
87.554017
 20
305.362997
 11
85.786439
 21
303.595419
  0
ARC
  5
27F
100
AcDbEntity
  8
M0
 62
     4
100
AcDbCircle
 10
83.659242
 20
308.809515
 40
0.5
100
AcDbArc
 50
89.998251
 51
162.874002
  0
ARC
  5
280
100
AcDbEntity
  8
M0
 62
     4
100
AcDbCircle
 10
83.659242
 20
301.209555
 40
0.5
100
AcDbArc
 50
197.12934
 51
270.0
  0
ARC
  5
281
100
AcDbEntity
  8
M0
 62
     4
100
AcDbCircle
 10
88.620912
 20
301.209555
 40
0.5
100
AcDbArc
 50
270.0
 51
342.860087
  0
ARC
  5
282
100
AcDbEntity
  8
M0
 62
     4
100
AcDbCircle
 10
88.620912
 20
308.809515
 40
0.5
100
AcDbArc
 50
17.136442
 51
90.0
  0
LINE
  5
283
100
AcDbEntity
  8
M0
  6
DASHDOT
 62
     4
100
AcDbLine
 10
89.640199
 20
305.009482
 11
82.640199
 21
305.009482
  0
LINE
  5
284
100
AcDbEntity
  8
M0
  6
DASHDOT
 62
     4
100
AcDbLine
 10
86.140183
 20
308.509482
 11
86.140199
 21
301.509482
  0
CIRCLE
  5
285
100
AcDbEntity
  8
M0
  6
DASHED
 62
    74
100
AcDbCircle
 10
77.140199
 20
317.009482
 40
5.9
  0
LINE
  5
286
100
AcDbEntity
  8
M0
  6
DASHDOT
 62
    74
100
AcDbLine
 10
70.240205
 20
317.009482
 11
84.040199
 21
317.009482
  0
LINE
  5
287
100
AcDbEntity
  8
M0
  6
DASHDOT
 62
    74
100
AcDbLine
 10
77.140199
 20
310.109473
 11
77.140199
 21
323.909476
  0
LINE
  5
288
100
AcDbEntity
  8
M0
  6
DASHED
 62
    74
100
AcDbLine
 10
77.640199
 20
315.259482
 11
77.640199
 21
316.509482
  0
LINE
  5
289
100
AcDbEntity
  8
M0
  6
DASHED
 62
    74
100
AcDbLine
 10
77.640199
 20
316.509482
 11
78.890199
 21
316.509482
  0
LINE
  5
28A
100
AcDbEntity
  8
M0
  6
DASHED
 62
    74
100
AcDbLine
 10
78.890199
 20
316.509482
 11
78.890199
 21
317.509482
  0
LINE
  5
28B
100
AcDbEntity
  8
M0
  6
DASHED
 62
    74
100
AcDbLine
 10
78.890199
 20
317.509482
 11
77.640199
 21
317.509482
  0
LINE
  5
28C
100
AcDbEntity
  8
M0
  6
DASHED
 62
    74
100
AcDbLine
 10
77.640199
 20
317.509482
 11
77.640199
 21
318.759482
  0
LINE
  5
28D
100
AcDbEntity
  8
M0
  6
DASHED
 62
    74
100
AcDbLine
 10
77.640199
 20
318.759482
 11
76.640199
 21
318.759482
  0
LINE
  5
28E
100
AcDbEntity
  8
M0
  6
DASHED
 62
    74
100
AcDbLine
 10
76.640199
 20
318.759482
 11
76.640199
 21
317.509482
  0
LINE
  5
28F
100
AcDbEntity
  8
M0
  6
DASHED
 62
    74
100
AcDbLine
 10
76.640199
 20
317.509482
 11
75.390199
 21
317.509482
  0
LINE
  5
290
100
AcDbEntity
  8
M0
  6
DASHED
 62
    74
100
AcDbLine
 10
75.390199
 20
317.509482
 11
75.390199
 21
316.509482
  0
LINE
  5
291
100
AcDbEntity
  8
M0
  6
DASHED
 62
    74
100
AcDbLine
 10
75.390199
 20
316.509482
 11
76.640199
 21
316.509482
  0
LINE
  5
292
100
AcDbEntity
  8
M0
  6
DASHED
 62
    74
100
AcDbLine
 10
76.640199
 20
316.509482
 11
76.640199
 21
315.259482
  0
LINE
  5
293
100
AcDbEntity
  8
M0
  6
DASHED
 62
    74
100
AcDbLine
 10
76.640199
 20
315.259482
 11
77.640199
 21
315.259482
  0
CIRCLE
  5
294
100
AcDbEntity
  8
M0
 62
   253
100
AcDbCircle
 10
53.140199
 20
288.509497
 40
2.999997
  0
LINE
  5
295
100
AcDbEntity
  8
M0
 62
   253
100
AcDbLine
 10
50.181214
 20
292.456839
 11
49.365052
 21
289.809546
  0
LINE
  5
296
100
AcDbEntity
  8
M0
 62
   253
100
AcDbLine
 10
50.181214
 20
284.562247
 11
49.365052
 21
287.20957
  0
LINE
  5
297
100
AcDbEntity
  8
M0
 62
   253
100
AcDbLine
 10
56.098695
 20
292.456854
 11
56.915101
 21
289.809546
  0
LINE
  5
298
100
AcDbEntity
  8
M0
 62
   253
100
AcDbLine
 10
56.098695
 20
284.562231
 11
56.915101
 21
287.20957
  0
LINE
  5
299
100
AcDbEntity
  8
M0
 62
   253
100
AcDbLine
 10
50.659242
 20
284.20957
 11
55.620912
 21
284.20957
  0
LINE
  5
29A
100
AcDbEntity
  8
M0
 62
   253
100
AcDbLine
 10
56.915101
 20
287.20957
 11
56.915101
 21
289.809546
  0
LINE
  5
29B
100
AcDbEntity
  8
M0
 62
   253
100
AcDbLine
 10
55.620912
 20
292.809546
 11
50.659242
 21
292.809531
  0
LINE
  5
29C
100
AcDbEntity
  8
M0
 62
   253
100
AcDbLine
 10
49.365052
 20
289.809546
 11
49.365052
 21
287.20957
  0
LINE
  5
29D
100
AcDbEntity
  8
M0
  6
DASHDOT
 62
   253
100
AcDbLine
 10
46.865052
 20
288.509497
 11
59.415101
 21
288.509497
  0
LINE
  5
29E
100
AcDbEntity
  8
M0
  6
DASHDOT
 62
   253
100
AcDbLine
 10
53.140199
 20
281.709585
 11
53.140199
 21
295.309546
  0
LINE
  5
29F
100
AcDbEntity
  8
M0
 62
   253
100
AcDbLine
 10
54.730775
 20
286.918677
 11
51.549134
 21
290.100439
  0
LINE
  5
2A0
100
AcDbEntity
  8
M0
 62
   253
100
AcDbLine
 10
53.49347
 20
289.923682
 11
51.725892
 21
288.155981
  0
LINE
  5
2A1
100
AcDbEntity
  8
M0
 62
   253
100
AcDbLine
 10
54.554017
 20
288.863013
 11
52.786439
 21
287.095434
  0
ARC
  5
2A2
100
AcDbEntity
  8
M0
 62
   253
100
AcDbCircle
 10
50.659242
 20
292.309531
 40
0.5
100
AcDbArc
 50
89.998251
 51
162.874002
  0
ARC
  5
2A3
100
AcDbEntity
  8
M0
 62
   253
100
AcDbCircle
 10
50.659242
 20
284.70957
 40
0.5
100
AcDbArc
 50
197.12934
 51
270.0
  0
ARC
  5
2A4
100
AcDbEntity
  8
M0
 62
   253
100
AcDbCircle
 10
55.620912
 20
284.70957
 40
0.5
100
AcDbArc
 50
270.0
 51
342.860087
  0
ARC
  5
2A5
100
AcDbEntity
  8
M0
 62
   253
100
AcDbCircle
 10
55.620912
 20
292.309531
 40
0.5
100
AcDbArc
 50
17.136442
 51
90.0
  0
CIRCLE
  5
2A6
100
AcDbEntity
  8
M0
 62
   253
100
AcDbCircle
 10
63.140199
 20
288.509497
 40
2.999997
  0
LINE
  5
2A7
100
AcDbEntity
  8
M0
 62
   253
100
AcDbLine
 10
60.181214
 20
292.456839
 11
59.365052
 21
289.809546
  0
LINE
  5
2A8
100
AcDbEntity
  8
M0
 62
   253
100
AcDbLine
 10
60.181214
 20
284.562247
 11
59.365052
 21
287.20957
  0
LINE
  5
2A9
100
AcDbEntity
  8
M0
 62
   253
100
AcDbLine
 10
66.098695
 20
292.456854
 11
66.915101
 21
289.809546
  0
LINE
  5
2AA
100
AcDbEntity
  8
M0
 62
   253
100
AcDbLine
 10
66.098695
 20
284.562231
 11
66.915101
 21
287.20957
  0
LINE
  5
2AB
100
AcDbEntity
  8
M0
 62
   253
100
AcDbLine
 10
60.659242
 20
284.20957
 11
65.620912
 21
284.20957
  0
LINE
  5
2AC
100
AcDbEntity
  8
M0
 62
   253
100
AcDbLine
 10
66.915101
 20
287.20957
 11
66.915101
 21
289.809546
  0
LINE
  5
2AD
100
AcDbEntity
  8
M0
 62
   253
100
AcDbLine
 10
65.620912
 20
292.809546
 11
60.659242
 21
292.809531
  0
LINE
  5
2AE
100
AcDbEntity
  8
M0
 62
   253
100
AcDbLine
 10
59.365052
 20
289.809546
 11
59.365052
 21
287.20957
  0
LINE
  5
2AF
100
AcDbEntity
  8
M0
  6
DASHDOT
 62
   253
100
AcDbLine
 10
56.865052
 20
288.509497
 11
69.415101
 21
288.509497
  0
LINE
  5
2B0
100
AcDbEntity
  8
M0
  6
DASHDOT
 62
   253
100
AcDbLine
 10
63.140199
 20
281.709585
 11
63.140199
 21
295.309546
  0
LINE
  5
2B1
100
AcDbEntity
  8
M0
 62
   253
100
AcDbLine
 10
64.730775
 20
286.918677
 11
61.549134
 21
290.100439
  0
LINE
  5
2B2
100
AcDbEntity
  8
M0
 62
   253
100
AcDbLine
 10
63.49347
 20
289.923682
 11
61.725892
 21
288.155981
  0
LINE
  5
2B3
100
AcDbEntity
  8
M0
 62
   253
100
AcDbLine
 10
64.554017
 20
288.863013
 11
62.786439
 21
287.095434
  0
ARC
  5
2B4
100
AcDbEntity
  8
M0
 62
   253
100
AcDbCircle
 10
60.659242
 20
292.309531
 40
0.5
100
AcDbArc
 50
89.998251
 51
162.874002
  0
ARC
  5
2B5
100
AcDbEntity
  8
M0
 62
   253
100
AcDbCircle
 10
60.659242
 20
284.70957
 40
0.5
100
AcDbArc
 50
197.12934
 51
270.0
  0
ARC
  5
2B6
100
AcDbEntity
  8
M0
 62
   253
100
AcDbCircle
 10
65.620912
 20
284.70957
 40
0.5
100
AcDbArc
 50
270.0
 51
342.860087
  0
ARC
  5
2B7
100
AcDbEntity
  8
M0
 62
   253
100
AcDbCircle
 10
65.620912
 20
292.309531
 40
0.5
100
AcDbArc
 50
17.136442
 51
90.0
  0
CIRCLE
  5
2B8
100
AcDbEntity
  8
M0
 62
   253
100
AcDbCircle
 10
73.140199
 20
288.509497
 40
2.999997
  0
LINE
  5
2B9
100
AcDbEntity
  8
M0
 62
   253
100
AcDbLine
 10
70.181214
 20
292.456839
 11
69.365052
 21
289.809546
  0
LINE
  5
2BA
100
AcDbEntity
  8
M0
 62
   253
100
AcDbLine
 10
70.181214
 20
284.562247
 11
69.365052
 21
287.20957
  0
LINE
  5
2BB
100
AcDbEntity
  8
M0
 62
   253
100
AcDbLine
 10
76.098695
 20
292.456854
 11
76.915101
 21
289.809546
  0
LINE
  5
2BC
100
AcDbEntity
  8
M0
 62
   253
100
AcDbLine
 10
76.098695
 20
284.562231
 11
76.915101
 21
287.20957
  0
LINE
  5
2BD
100
AcDbEntity
  8
M0
 62
   253
100
AcDbLine
 10
70.659242
 20
284.20957
 11
75.620912
 21
284.20957
  0
LINE
  5
2BE
100
AcDbEntity
  8
M0
 62
   253
100
AcDbLine
 10
76.915101
 20
287.20957
 11
76.915101
 21
289.809546
  0
LINE
  5
2BF
100
AcDbEntity
  8
M0
 62
   253
100
AcDbLine
 10
75.620912
 20
292.809546
 11
70.659242
 21
292.809531
  0
LINE
  5
2C0
100
AcDbEntity
  8
M0
 62
   253
100
AcDbLine
 10
69.365052
 20
289.809546
 11
69.365052
 21
287.20957
  0
LINE
  5
2C1
100
AcDbEntity
  8
M0
  6
DASHDOT
 62
   253
100
AcDbLine
 10
66.865052
 20
288.509497
 11
79.415101
 21
288.509497
  0
LINE
  5
2C2
100
AcDbEntity
  8
M0
  6
DASHDOT
 62
   253
100
AcDbLine
 10
73.140199
 20
281.709585
 11
73.140199
 21
295.309546
  0
LINE
  5
2C3
100
AcDbEntity
  8
M0
 62
   253
100
AcDbLine
 10
74.730775
 20
286.918677
 11
71.549134
 21
290.100439
  0
LINE
  5
2C4
100
AcDbEntity
  8
M0
 62
   253
100
AcDbLine
 10
73.49347
 20
289.923682
 11
71.725892
 21
288.155981
  0
LINE
  5
2C5
100
AcDbEntity
  8
M0
 62
   253
100
AcDbLine
 10
74.554017
 20
288.863013
 11
72.786439
 21
287.095434
  0
ARC
  5
2C6
100
AcDbEntity
  8
M0
 62
   253
100
AcDbCircle
 10
70.659242
 20
292.309531
 40
0.5
100
AcDbArc
 50
89.998251
 51
162.874002
  0
ARC
  5
2C7
100
AcDbEntity
  8
M0
 62
   253
100
AcDbCircle
 10
70.659242
 20
284.70957
 40
0.5
100
AcDbArc
 50
197.12934
 51
270.0
  0
ARC
  5
2C8
100
AcDbEntity
  8
M0
 62
   253
100
AcDbCircle
 10
75.620912
 20
284.70957
 40
0.5
100
AcDbArc
 50
270.0
 51
342.860087
  0
ARC
  5
2C9
100
AcDbEntity
  8
M0
 62
   253
100
AcDbCircle
 10
75.620912
 20
292.309531
 40
0.5
100
AcDbArc
 50
17.136442
 51
90.0
  0
CIRCLE
  5
2CA
100
AcDbEntity
  8
M0
 62
   253
100
AcDbCircle
 10
84.640199
 20
288.509497
 40
2.999997
  0
LINE
  5
2CB
100
AcDbEntity
  8
M0
 62
   253
100
AcDbLine
 10
81.681214
 20
292.456839
 11
80.865052
 21
289.809546
  0
LINE
  5
2CC
100
AcDbEntity
  8
M0
 62
   253
100
AcDbLine
 10
81.635819
 20
284.709524
 11
80.865052
 21
287.20957
  0
LINE
  5
2CD
100
AcDbEntity
  8
M0
 62
   253
100
AcDbLine
 10
87.598695
 20
292.456854
 11
88.415101
 21
289.809546
  0
LINE
  5
2CE
100
AcDbEntity
  8
M0
 62
   253
100
AcDbLine
 10
87.644118
 20
284.709524
 11
88.415101
 21
287.20957
  0
LINE
  5
2CF
100
AcDbEntity
  8
M0
 62
   253
100
AcDbLine
 10
88.415101
 20
287.20957
 11
88.415101
 21
289.809546
  0
LINE
  5
2D0
100
AcDbEntity
  8
M0
 62
   253
100
AcDbLine
 10
87.120912
 20
292.809546
 11
82.159242
 21
292.809531
  0
LINE
  5
2D1
100
AcDbEntity
  8
M0
 62
   253
100
AcDbLine
 10
80.865052
 20
289.809546
 11
80.865052
 21
287.20957
  0
LINE
  5
2D2
100
AcDbEntity
  8
M0
  6
DASHDOT
 62
   253
100
AcDbLine
 10
78.365052
 20
288.509497
 11
90.915101
 21
288.509497
  0
LINE
  5
2D3
100
AcDbEntity
  8
M0
  6
DASHDOT
 62
   253
100
AcDbLine
 10
84.640199
 20
281.709585
 11
84.640199
 21
295.309546
  0
LINE
  5
2D4
100
AcDbEntity
  8
M0
 62
   253
100
AcDbLine
 10
86.230775
 20
286.918677
 11
83.049134
 21
290.100439
  0
LINE
  5
2D5
100
AcDbEntity
  8
M0
 62
   253
100
AcDbLine
 10
84.99347
 20
289.923682
 11
83.225892
 21
288.155981
  0
LINE
  5
2D6
100
AcDbEntity
  8
M0
 62
   253
100
AcDbLine
 10
86.054017
 20
288.863013
 11
84.286439
 21
287.095434
  0
ARC
  5
2D7
100
AcDbEntity
  8
M0
 62
   253
100
AcDbCircle
 10
82.159242
 20
292.309531
 40
0.5
100
AcDbArc
 50
89.998251
 51
162.874002
  0
ARC
  5
2D8
100
AcDbEntity
  8
M0
 62
   253
100
AcDbCircle
 10
87.120912
 20
292.309531
 40
0.5
100
AcDbArc
 50
17.136442
 51
90.0
  0
LINE
  5
2D9
100
AcDbEntity
  8
M0
  6
DASHED
 62
   154
100
AcDbLine
 10
88.140199
 20
317.909476
 11
88.140199
 21
319.109473
  0
LINE
  5
2DA
100
AcDbEntity
  8
M0
  6
DASHED
 62
   154
100
AcDbLine
 10
88.140199
 20
319.109473
 11
85.140199
 21
319.109473
  0
LINE
  5
2DB
100
AcDbEntity
  8
M0
  6
DASHED
 62
   154
100
AcDbLine
 10
85.140199
 20
319.109473
 11
85.140199
 21
317.909476
  0
LINE
  5
2DC
100
AcDbEntity
  8
M0
  6
DASHED
 62
   154
100
AcDbLine
 10
85.140199
 20
317.909476
 11
88.140199
 21
317.909476
  0
LINE
  5
2DD
100
AcDbEntity
  8
M0
  6
DASHDOT
 62
   154
100
AcDbLine
 10
83.746426
 20
318.509482
 11
89.572195
 21
318.509482
  0
LINE
  5
2DE
100
AcDbEntity
  8
M0
  6
DASHDOT
 62
   154
100
AcDbLine
 10
86.640199
 20
316.671545
 11
86.640199
 21
320.827261
  0
LINE
  5
2DF
100
AcDbEntity
  8
M0
 62
   154
100
AcDbLine
 10
62.140199
 20
322.609473
 11
62.140199
 21
325.409476
  0
LINE
  5
2E0
100
AcDbEntity
  8
M0
 62
   154
100
AcDbLine
 10
62.140199
 20
325.409476
 11
58.140199
 21
325.409476
  0
LINE
  5
2E1
100
AcDbEntity
  8
M0
 62
   154
100
AcDbLine
 10
58.140199
 20
325.409476
 11
58.140199
 21
322.609473
  0
LINE
  5
2E2
100
AcDbEntity
  8
M0
 62
   154
100
AcDbLine
 10
58.140199
 20
322.609473
 11
62.140199
 21
322.609473
  0
LINE
  5
2E3
100
AcDbEntity
  8
M0
  6
DASHDOT
 62
   154
100
AcDbLine
 10
60.140199
 20
317.609473
 11
60.140199
 21
330.409476
  0
LINE
  5
2E4
100
AcDbEntity
  8
M0
  6
DASHED
 62
   154
100
AcDbLine
 10
62.140199
 20
324.909476
 11
58.140199
 21
324.909476
  0
LINE
  5
2E5
100
AcDbEntity
  8
M0
  6
DASHED
 62
   154
100
AcDbLine
 10
62.140199
 20
323.109473
 11
58.140199
 21
323.109473
  0
LINE
  5
2E6
100
AcDbEntity
  8
M0
100
AcDbLine
 10
284.774674
 20
301.709218
 11
284.774735
 21
328.209158
  0
LINE
  5
2E7
100
AcDbEntity
  8
M0
100
AcDbLine
 10
281.77472
 20
324.709219
 11
244.774763
 21
324.709296
  0
LINE
  5
2E8
100
AcDbEntity
  8
M0
100
AcDbLine
 10
210.774735
 20
324.709372
 11
210.77472
 21
309.709372
  0
LINE
  5
2E9
100
AcDbEntity
  8
M0
100
AcDbLine
 10
260.274659
 20
295.709273
 11
276.274659
 21
295.709236
  0
LINE
  5
2EA
100
AcDbEntity
  8
M0
100
AcDbLine
 10
284.774735
 20
328.209158
 11
281.774735
 21
328.209173
  0
LINE
  5
2EB
100
AcDbEntity
  8
M0
100
AcDbLine
 10
281.774735
 20
328.209173
 11
281.77472
 21
324.709219
  0
LINE
  5
2EC
100
AcDbEntity
  8
M0
100
AcDbLine
 10
277.274659
 20
296.709234
 11
277.274674
 21
300.209234
  0
LINE
  5
2ED
100
AcDbEntity
  8
M0
100
AcDbLine
 10
277.774674
 20
300.709234
 11
283.774674
 21
300.70922
  0
ARC
  5
2EE
100
AcDbEntity
  8
M0
100
AcDbCircle
 10
283.774674
 20
301.70922
 40
1.0
100
AcDbArc
 50
269.999126
 51
360.0
  0
ARC
  5
2EF
100
AcDbEntity
  8
M0
100
AcDbCircle
 10
276.274659
 20
296.709236
 40
1.0
100
AcDbArc
 50
269.999126
 51
360.0
  0
LINE
  5
2F0
100
AcDbEntity
  8
M0
100
AcDbLine
 10
244.774748
 20
324.709296
 11
244.774738
 21
320.709296
  0
LINE
  5
2F1
100
AcDbEntity
  8
M0
100
AcDbLine
 10
244.774738
 20
320.709296
 11
235.274754
 21
320.709326
  0
LINE
  5
2F2
100
AcDbEntity
  8
M0
100
AcDbLine
 10
235.274752
 20
319.709326
 11
232.274753
 21
319.709326
  0
LINE
  5
2F3
100
AcDbEntity
  8
M0
100
AcDbLine
 10
226.774738
 20
320.209341
 11
210.774735
 21
320.209372
  0
LINE
  5
2F4
100
AcDbEntity
  8
M0
100
AcDbLine
 10
226.774738
 20
320.209341
 11
226.774739
 21
320.709341
  0
LINE
  5
2F5
100
AcDbEntity
  8
M0
100
AcDbLine
 10
216.17476
 20
309.709357
 11
210.774705
 21
309.709372
  0
LINE
  5
2F6
100
AcDbEntity
  8
M0
100
AcDbLine
 10
216.174775
 20
313.209357
 11
216.174745
 21
304.709341
  0
LINE
  5
2F7
100
AcDbEntity
  8
M0
100
AcDbLine
 10
222.174746
 20
298.709357
 11
227.774706
 21
298.709344
  0
LINE
  5
2F8
100
AcDbEntity
  8
M0
100
AcDbLine
 10
220.874723
 20
296.70936
 11
229.145383
 21
296.709341
  0
ARC
  5
2F9
100
AcDbEntity
  8
M0
100
AcDbCircle
 10
222.174744
 20
304.709357
 40
6.0
100
AcDbArc
 50
180.0
 51
270.0
  0
LINE
  5
2FA
100
AcDbEntity
  8
M0
100
AcDbLine
 10
251.517492
 20
280.209293
 11
239.353598
 21
280.209319
  0
LINE
  5
2FB
100
AcDbEntity
  8
M0
100
AcDbLine
 10
253.722001
 20
282.709288
 11
241.7747
 21
282.709315
  0
LINE
  5
2FC
100
AcDbEntity
  8
M0
100
AcDbLine
 10
260.274659
 20
295.709273
 11
257.313035
 21
284.656363
  0
ARC
  5
2FD
100
AcDbEntity
  8
M0
100
AcDbCircle
 10
253.722016
 20
286.709287
 40
4.0
100
AcDbArc
 50
269.999781
 51
344.999771
  0
ARC
  5
2FE
100
AcDbEntity
  8
M0
100
AcDbCircle
 10
251.517506
 20
286.209292
 40
6.0
100
AcDbArc
 50
270.0
 51
344.99979
  0
LINE
  5
2FF
100
AcDbEntity
  8
M0
100
AcDbLine
 10
281.77472
 20
325.409125
 11
284.77472
 21
325.409109
  0
LINE
  5
300
100
AcDbEntity
  8
M0
100
AcDbLine
 10
235.274754
 20
320.709326
 11
235.274752
 21
319.709326
  0
LINE
  5
301
100
AcDbEntity
  8
M0
100
AcDbLine
 10
232.274755
 20
320.709311
 11
232.274753
 21
319.709311
  0
LINE
  5
302
100
AcDbEntity
  8
M0
100
AcDbLine
 10
232.274755
 20
320.709326
 11
226.774739
 21
320.709341
  0
LINE
  5
303
100
AcDbEntity
  8
M0
100
AcDbLine
 10
228.774701
 20
296.709342
 11
228.774711
 21
300.709342
  0
ARC
  5
304
100
AcDbEntity
  8
M0
100
AcDbCircle
 10
227.774708
 20
299.709344
 40
1.0
100
AcDbArc
 50
270.0
 51
360.0
  0
LINE
  5
305
100
AcDbEntity
  8
M0
100
AcDbLine
 10
214.874726
 20
302.709372
 11
214.874742
 21
309.709372
  0
ARC
  5
306
100
AcDbEntity
  8
M0
100
AcDbCircle
 10
220.874721
 20
302.709357
 40
6.0
100
AcDbArc
 50
180.0
 51
270.0
  0
LINE
  5
307
100
AcDbEntity
  8
M0
100
AcDbLine
 10
231.774703
 20
297.209336
 11
231.774711
 21
300.709336
  0
LINE
  5
308
100
AcDbEntity
  8
M0
100
AcDbLine
 10
228.774711
 20
300.709342
 11
231.774711
 21
300.709336
  0
LINE
  5
309
100
AcDbEntity
  8
M0
100
AcDbLine
 10
235.774694
 20
293.709327
 11
235.274694
 21
293.709328
  0
LINE
  5
30A
100
AcDbEntity
  8
M0
100
AcDbLine
 10
231.274642
 20
297.209337
 11
231.774703
 21
297.209336
  0
LINE
  5
30B
100
AcDbEntity
  8
M0
100
AcDbLine
 10
231.274642
 20
297.209337
 11
229.663038
 21
296.777501
  0
LINE
  5
30C
100
AcDbEntity
  8
M0
100
AcDbLine
 10
231.774703
 20
297.209336
 11
235.274694
 21
293.709328
  0
LINE
  5
30D
100
AcDbEntity
  8
M0
100
AcDbLine
 10
235.77471
 20
293.709327
 11
235.774708
 21
286.209312
  0
ARC
  5
30E
100
AcDbEntity
  8
M0
100
AcDbCircle
 10
241.774714
 20
288.709314
 40
6.0
100
AcDbArc
 50
179.999973
 51
270.0
  0
ARC
  5
30F
100
AcDbEntity
  8
M0
100
AcDbCircle
 10
241.774708
 20
286.209314
 40
6.0
100
AcDbArc
 50
179.999964
 51
270.0
  0
ARC
  5
310
100
AcDbEntity
  8
M0
100
AcDbCircle
 10
229.145388
 20
298.709341
 40
2.0
100
AcDbArc
 50
270.0
 51
285.000422
  0
LINE
  5
311
100
AcDbEntity
  8
M0
100
AcDbLine
 10
234.274681
 20
287.70933
 11
234.274697
 21
294.70933
  0
LINE
  5
312
100
AcDbEntity
  8
M0
100
AcDbLine
 10
234.274681
 20
287.70933
 11
235.489896
 21
283.17405
  0
ARC
  5
313
100
AcDbEntity
  8
M0
100
AcDbCircle
 10
239.353606
 20
284.209319
 40
4.0
100
AcDbArc
 50
194.999876
 51
270.0
  0
LINE
  5
314
100
AcDbEntity
  8
M0
100
AcDbLine
 10
265.176164
 20
294.209261
 11
259.872743
 21
294.209274
  0
ARC
  5
315
100
AcDbEntity
  8
M0
100
AcDbCircle
 10
265.176164
 20
298.209261
 40
4.0
100
AcDbArc
 50
269.999781
 51
321.31781
  0
ARC
  5
316
100
AcDbEntity
  8
M0
100
AcDbCircle
 10
277.774674
 20
300.209234
 40
0.5
100
AcDbArc
 50
90.0
 51
180.0
  0
LINE
  5
317
100
AcDbEntity
  8
M0
100
AcDbLine
 10
216.174851
 20
309.709311
 11
216.174851
 21
313.209311
  0
LINE
  5
318
100
AcDbEntity
  8
M0
100
AcDbLine
 10
213.774873
 20
326.709311
 11
209.274858
 21
326.709311
  0
LINE
  5
319
100
AcDbEntity
  8
M0
100
AcDbLine
 10
209.274858
 20
326.709311
 11
209.274858
 21
309.709311
  0
LINE
  5
31A
100
AcDbEntity
  8
M0
100
AcDbLine
 10
209.274858
 20
309.709311
 11
216.174851
 21
309.709311
  0
LINE
  5
31B
100
AcDbEntity
  8
M0
100
AcDbLine
 10
216.174851
 20
313.209311
 11
210.774858
 21
313.209311
  0
LINE
  5
31C
100
AcDbEntity
  8
M0
100
AcDbLine
 10
210.774858
 20
309.709311
 11
210.774858
 21
326.709311
  0
LINE
  5
31D
100
AcDbEntity
  8
M0
100
AcDbLine
 10
210.774858
 20
322.709311
 11
212.774873
 21
322.709311
  0
ARC
  5
31E
100
AcDbEntity
  8
M0
100
AcDbCircle
 10
213.774858
 20
324.709311
 40
2.0
100
AcDbArc
 50
0.0
 51
89.999563
  0
LINE
  5
31F
100
AcDbEntity
  8
M0
100
AcDbLine
 10
212.774888
 20
323.009299
 11
214.074861
 21
323.009299
  0
ARC
  5
320
100
AcDbEntity
  8
M0
100
AcDbCircle
 10
214.074861
 20
324.709296
 40
1.7
100
AcDbArc
 50
270.0
 51
360.0
  0
LINE
  5
321
100
AcDbEntity
  8
M0
100
AcDbLine
 10
212.774873
 20
323.009299
 11
212.774873
 21
322.70928
  0
LINE
  5
322
100
AcDbEntity
  8
M0
100
AcDbLine
 10
226.774846
 20
321.709326
 11
244.574833
 21
321.709311
  0
LINE
  5
323
100
AcDbEntity
  8
M0
100
AcDbLine
 10
226.774846
 20
320.209326
 11
226.774846
 21
321.709326
  0
LINE
  5
324
100
AcDbEntity
  8
M0
100
AcDbLine
 10
226.774846
 20
320.209326
 11
211.074891
 21
320.209326
  0
LINE
  5
325
100
AcDbEntity
  8
M0
100
AcDbLine
 10
244.574833
 20
321.709311
 11
244.574834
 21
324.709311
  0
LINE
  5
326
100
AcDbEntity
  8
M0
100
AcDbLine
 10
267.074845
 20
324.709311
 11
267.074845
 21
327.209296
  0
LINE
  5
327
100
AcDbEntity
  8
M0
100
AcDbLine
 10
264.074845
 20
324.709311
 11
264.074845
 21
327.209296
  0
LINE
  5
328
100
AcDbEntity
  8
M0
100
AcDbLine
 10
225.774846
 20
322.709326
 11
225.774848
 21
327.209311
  0
LINE
  5
329
100
AcDbEntity
  8
M0
100
AcDbLine
 10
225.774846
 20
322.709326
 11
210.774858
 21
322.709326
  0
LINE
  5
32A
100
AcDbEntity
  8
M0
100
AcDbLine
 10
281.774842
 20
324.709311
 11
281.774842
 21
328.209296
  0
LINE
  5
32B
100
AcDbEntity
  8
M0
100
AcDbLine
 10
280.07483
 20
327.209296
 11
280.07483
 21
336.013068
  0
LINE
  5
32C
100
AcDbEntity
  8
M0
100
AcDbLine
 10
267.074845
 20
324.709311
 11
281.774842
 21
324.709311
  0
LINE
  5
32D
100
AcDbEntity
  8
M0
100
AcDbLine
 10
244.574834
 20
324.709311
 11
264.074845
 21
324.709311
  0
LINE
  5
32E
100
AcDbEntity
  8
M0
100
AcDbLine
 10
218.574937
 20
326.209326
 11
215.097734
 21
326.209326
  0
LINE
  5
32F
100
AcDbEntity
  8
M0
100
AcDbLine
 10
271.380952
 20
327.209296
 11
225.774848
 21
327.209311
  0
LINE
  5
330
100
AcDbEntity
  8
M0
100
AcDbLine
 10
216.074937
 20
326.209326
 11
216.074937
 21
329.909308
  0
LINE
  5
331
100
AcDbEntity
  8
M0
100
AcDbLine
 10
216.074937
 20
329.909308
 11
218.574937
 21
329.909308
  0
LINE
  5
332
100
AcDbEntity
  8
M0
100
AcDbLine
 10
218.574937
 20
326.209326
 11
218.574937
 21
329.909308
  0
LINE
  5
333
100
AcDbEntity
  8
M0
100
AcDbLine
 10
220.574943
 20
328.209326
 11
237.074926
 21
328.209311
  0
LINE
  5
334
100
AcDbEntity
  8
M0
100
AcDbLine
 10
233.074928
 20
330.509314
 11
240.574927
 21
330.509299
  0
LINE
  5
335
100
AcDbEntity
  8
M0
100
AcDbLine
 10
218.574952
 20
326.209326
 11
220.574927
 21
328.209326
  0
LINE
  5
336
100
AcDbEntity
  8
M0
100
AcDbLine
 10
237.074926
 20
328.209311
 11
238.074942
 21
327.209296
  0
LINE
  5
337
100
AcDbEntity
  8
M0
100
AcDbLine
 10
274.07483
 20
336.009283
 11
274.07483
 21
340.509253
  0
LINE
  5
338
100
AcDbEntity
  8
M0
100
AcDbLine
 10
271.380952
 20
327.209296
 11
274.07483
 21
336.009299
  0
LINE
  5
339
100
AcDbEntity
  8
M0
100
AcDbLine
 10
218.574937
 20
328.909308
 11
221.074928
 21
328.909308
  0
LINE
  5
33A
100
AcDbEntity
  8
M0
100
AcDbLine
 10
221.074928
 20
329.709311
 11
226.574928
 21
329.709311
  0
LINE
  5
33B
100
AcDbEntity
  8
M0
100
AcDbLine
 10
221.074928
 20
328.909308
 11
221.074928
 21
329.709311
  0
LINE
  5
33C
100
AcDbEntity
  8
M0
100
AcDbLine
 10
231.074929
 20
332.509314
 11
231.07493
 21
335.513098
  0
LINE
  5
33D
100
AcDbEntity
  8
M0
100
AcDbLine
 10
227.050651
 20
335.513098
 11
226.574928
 21
329.709311
  0
ARC
  5
33E
100
AcDbEntity
  8
M0
100
AcDbCircle
 10
233.074929
 20
332.509314
 40
2.0
100
AcDbArc
 50
180.0
 51
270.0
  0
LINE
  5
33F
100
AcDbEntity
  8
M0
100
AcDbLine
 10
240.574927
 20
330.509299
 11
243.874929
 21
327.209296
  0
LINE
  5
340
100
AcDbEntity
  8
M0
100
AcDbLine
 10
280.07483
 20
327.209296
 11
281.774827
 21
327.209296
  0
LINE
  5
341
100
AcDbEntity
  8
M0
100
AcDbLine
 10
209.274842
 20
320.009299
 11
206.774858
 21
320.009314
  0
LINE
  5
342
100
AcDbEntity
  8
M0
100
AcDbLine
 10
206.274827
 20
319.509314
 11
206.274842
 21
314.509314
  0
LINE
  5
343
100
AcDbEntity
  8
M0
100
AcDbLine
 10
206.774842
 20
314.009314
 11
209.274842
 21
314.009299
  0
ARC
  5
344
100
AcDbEntity
  8
M0
100
AcDbCircle
 10
206.774842
 20
319.509314
 40
0.5
100
AcDbArc
 50
89.998251
 51
180.0
  0
ARC
  5
345
100
AcDbEntity
  8
M0
100
AcDbCircle
 10
206.774842
 20
314.509314
 40
0.5
100
AcDbArc
 50
180.0
 51
270.0
  0
LINE
  5
346
100
AcDbEntity
  8
M0
  6
DASHDOT
100
AcDbLine
 10
202.831071
 20
317.009329
 11
211.771852
 21
317.009268
  0
LINE
  5
347
100
AcDbEntity
  8
M0
 62
     4
100
AcDbLine
 10
165.134339
 20
338.513129
 11
165.134339
 21
394.513144
  0
LINE
  5
348
100
AcDbEntity
  8
M0
 62
     4
100
AcDbLine
 10
102.134339
 20
394.513098
 11
102.134339
 21
338.513159
  0
LINE
  5
349
100
AcDbEntity
  8
M0
  6
DASHDOT
 62
     4
100
AcDbLine
 10
102.134339
 20
366.513144
 11
169.856487
 21
366.513144
  0
LINE
  5
34A
100
AcDbEntity
  8
M0
  6
DASHDOT
 62
     4
100
AcDbLine
 10
133.634339
 20
329.013144
 11
133.634339
 21
404.013144
  0
LINE
  5
34B
100
AcDbEntity
  8
M0
 62
     4
100
AcDbLine
 10
134.684144
 20
382.513144
 11
134.684144
 21
397.013098
  0
LINE
  5
34C
100
AcDbEntity
  8
M0
 62
     4
100
AcDbLine
 10
142.584291
 20
382.513144
 11
142.584291
 21
398.513144
  0
LINE
  5
34D
100
AcDbEntity
  8
M0
 62
     4
100
AcDbLine
 10
124.184144
 20
397.513129
 11
123.084291
 21
397.513129
  0
LINE
  5
34E
100
AcDbEntity
  8
M0
 62
     4
100
AcDbLine
 10
135.684144
 20
381.513144
 11
141.584291
 21
381.513144
  0
ARC
  5
34F
100
AcDbEntity
  8
M0
 62
     4
100
AcDbCircle
 10
135.684144
 20
382.513144
 40
1.0
100
AcDbArc
 50
180.0
 51
270.0
  0
ARC
  5
350
100
AcDbEntity
  8
M0
 62
     4
100
AcDbCircle
 10
141.584291
 20
382.513144
 40
1.0
100
AcDbArc
 50
269.915907
 51
360.0
  0
ARC
  5
351
100
AcDbEntity
  8
M0
 62
     4
100
AcDbCircle
 10
143.084291
 20
397.013129
 40
0.5
100
AcDbArc
 50
90.0
 51
180.0
  0
ARC
  5
352
100
AcDbEntity
  8
M0
 62
     4
100
AcDbCircle
 10
134.184144
 20
397.013113
 40
0.5
100
AcDbArc
 50
0.0
 51
90.0
  0
LINE
  5
353
100
AcDbEntity
  8
M0
 62
     4
100
AcDbLine
 10
104.184159
 20
395.013113
 11
102.634355
 21
395.013113
  0
LINE
  5
354
100
AcDbEntity
  8
M0
 62
     4
100
AcDbLine
 10
114.184144
 20
397.513113
 11
113.084291
 21
397.513113
  0
LINE
  5
355
100
AcDbEntity
  8
M0
 62
     4
100
AcDbLine
 10
144.184144
 20
397.513129
 11
143.084291
 21
397.513129
  0
LINE
  5
356
100
AcDbEntity
  8
M0
 62
     4
100
AcDbLine
 10
154.184144
 20
397.513129
 11
153.084291
 21
397.513129
  0
ARC
  5
357
100
AcDbEntity
  8
M0
 62
     4
100
AcDbCircle
 10
153.084291
 20
397.013129
 40
0.5
100
AcDbArc
 50
90.0
 51
180.0
  0
ARC
  5
358
100
AcDbEntity
  8
M0
 62
     4
100
AcDbCircle
 10
123.084291
 20
397.013113
 40
0.5
100
AcDbArc
 50
90.0
 51
180.0
  0
ARC
  5
359
100
AcDbEntity
  8
M0
 62
     4
100
AcDbCircle
 10
113.084291
 20
397.013098
 40
0.5
100
AcDbArc
 50
89.998251
 51
180.0
  0
ARC
  5
35A
100
AcDbEntity
  8
M0
 62
     4
100
AcDbCircle
 10
102.634355
 20
394.513098
 40
0.5
100
AcDbArc
 50
89.998251
 51
180.0
  0
LINE
  5
35B
100
AcDbEntity
  8
M0
 62
     4
100
AcDbLine
 10
154.684144
 20
391.013144
 11
162.584291
 21
391.013144
  0
LINE
  5
35C
100
AcDbEntity
  8
M0
 62
     4
100
AcDbLine
 10
144.684144
 20
391.013144
 11
152.584291
 21
391.013144
  0
LINE
  5
35D
100
AcDbEntity
  8
M0
 62
     4
100
AcDbLine
 10
134.684144
 20
391.013144
 11
137.03795
 21
391.013144
  0
LINE
  5
35E
100
AcDbEntity
  8
M0
 62
     4
100
AcDbLine
 10
114.684144
 20
391.013144
 11
117.037965
 21
391.013144
  0
LINE
  5
35F
100
AcDbEntity
  8
M0
 62
     4
100
AcDbLine
 10
112.584291
 20
391.013144
 11
104.684144
 21
391.013144
  0
LINE
  5
360
100
AcDbEntity
  8
M0
 62
     4
100
AcDbLine
 10
143.084291
 20
399.013144
 11
154.184144
 21
399.013144
  0
ARC
  5
361
100
AcDbEntity
  8
M0
 62
     4
100
AcDbCircle
 10
143.084291
 20
398.513144
 40
0.5
100
AcDbArc
 50
90.0
 51
180.0
  0
ARC
  5
362
100
AcDbEntity
  8
M0
 62
     4
100
AcDbCircle
 10
153.084291
 20
398.513144
 40
0.5
100
AcDbArc
 50
90.0
 51
180.0
  0
LINE
  5
363
100
AcDbEntity
  8
M0
 62
     4
100
AcDbLine
 10
144.684144
 20
382.513144
 11
144.684144
 21
398.513144
  0
ARC
  5
364
100
AcDbEntity
  8
M0
 62
     4
100
AcDbCircle
 10
145.684144
 20
382.513144
 40
1.0
100
AcDbArc
 50
180.0
 51
269.929895
  0
LINE
  5
365
100
AcDbEntity
  8
M0
 62
     4
100
AcDbLine
 10
145.684144
 20
381.513144
 11
151.584291
 21
381.513144
  0
ARC
  5
366
100
AcDbEntity
  8
M0
 62
     4
100
AcDbCircle
 10
151.584291
 20
382.513144
 40
1.0
100
AcDbArc
 50
269.914322
 51
360.0
  0
LINE
  5
367
100
AcDbEntity
  8
M0
 62
     4
100
AcDbLine
 10
152.584291
 20
382.513144
 11
152.584291
 21
398.513144
  0
ARC
  5
368
100
AcDbEntity
  8
M0
 62
     4
100
AcDbCircle
 10
144.184144
 20
397.013113
 40
0.5
100
AcDbArc
 50
0.0
 51
90.0
  0
LINE
  5
369
100
AcDbEntity
  8
M0
 62
     4
100
AcDbLine
 10
114.684144
 20
382.513144
 11
114.684144
 21
397.013083
  0
ARC
  5
36A
100
AcDbEntity
  8
M0
 62
     4
100
AcDbCircle
 10
115.684144
 20
382.513144
 40
1.0
100
AcDbArc
 50
180.0
 51
269.930059
  0
LINE
  5
36B
100
AcDbEntity
  8
M0
 62
     4
100
AcDbLine
 10
115.684144
 20
381.513144
 11
121.584291
 21
381.513144
  0
ARC
  5
36C
100
AcDbEntity
  8
M0
 62
     4
100
AcDbCircle
 10
121.584291
 20
382.513144
 40
1.0
100
AcDbArc
 50
269.887985
 51
360.0
  0
LINE
  5
36D
100
AcDbEntity
  8
M0
 62
     4
100
AcDbLine
 10
122.584291
 20
382.513144
 11
122.584291
 21
397.013113
  0
ARC
  5
36E
100
AcDbEntity
  8
M0
 62
     4
100
AcDbCircle
 10
114.184144
 20
397.013098
 40
0.5
100
AcDbArc
 50
0.0
 51
89.998251
  0
LINE
  5
36F
100
AcDbEntity
  8
M0
 62
     4
100
AcDbLine
 10
154.684144
 20
382.513144
 11
154.684144
 21
398.513144
  0
ARC
  5
370
100
AcDbEntity
  8
M0
 62
     4
100
AcDbCircle
 10
155.684144
 20
382.513144
 40
1.0
100
AcDbArc
 50
180.0
 51
269.92831
  0
LINE
  5
371
100
AcDbEntity
  8
M0
 62
     4
100
AcDbLine
 10
155.684144
 20
381.513144
 11
161.584291
 21
381.513144
  0
ARC
  5
372
100
AcDbEntity
  8
M0
 62
     4
100
AcDbCircle
 10
161.584291
 20
382.513144
 40
1.0
100
AcDbArc
 50
269.914322
 51
360.0
  0
LINE
  5
373
100
AcDbEntity
  8
M0
 62
     4
100
AcDbLine
 10
162.584291
 20
382.513144
 11
162.584291
 21
394.513144
  0
ARC
  5
374
100
AcDbEntity
  8
M0
 62
     4
100
AcDbCircle
 10
154.184144
 20
397.013113
 40
0.5
100
AcDbArc
 50
0.0
 51
90.0
  0
ARC
  5
375
100
AcDbEntity
  8
M0
 62
     4
100
AcDbCircle
 10
144.184144
 20
398.513144
 40
0.5
100
AcDbArc
 50
0.0
 51
90.0
  0
ARC
  5
376
100
AcDbEntity
  8
M0
 62
     4
100
AcDbCircle
 10
105.684144
 20
382.513144
 40
1.0
100
AcDbArc
 50
180.0
 51
269.969401
  0
LINE
  5
377
100
AcDbEntity
  8
M0
 62
     4
100
AcDbLine
 10
104.684144
 20
382.513144
 11
104.684144
 21
394.513083
  0
LINE
  5
378
100
AcDbEntity
  8
M0
 62
     4
100
AcDbLine
 10
105.684144
 20
381.513144
 11
111.584291
 21
381.513144
  0
ARC
  5
379
100
AcDbEntity
  8
M0
 62
     4
100
AcDbCircle
 10
111.584291
 20
382.513144
 40
1.0
100
AcDbArc
 50
269.927436
 51
360.0
  0
LINE
  5
37A
100
AcDbEntity
  8
M0
 62
     4
100
AcDbLine
 10
112.584291
 20
382.513144
 11
112.584291
 21
397.013098
  0
ARC
  5
37B
100
AcDbEntity
  8
M0
 62
     4
100
AcDbCircle
 10
104.184159
 20
394.513098
 40
0.5
100
AcDbArc
 50
0.0
 51
89.998251
  0
LINE
  5
37C
100
AcDbEntity
  8
M0
 62
     4
100
AcDbLine
 10
102.634339
 20
338.013144
 11
104.184388
 21
338.013144
  0
LINE
  5
37D
100
AcDbEntity
  8
M0
 62
     4
100
AcDbLine
 10
142.584535
 20
350.513144
 11
142.584535
 21
337.513174
  0
LINE
  5
37E
100
AcDbEntity
  8
M0
 62
     4
100
AcDbLine
 10
134.684388
 20
350.513144
 11
134.684388
 21
337.513159
  0
LINE
  5
37F
100
AcDbEntity
  8
M0
 62
     4
100
AcDbLine
 10
143.084535
 20
337.013159
 11
144.184388
 21
337.013159
  0
LINE
  5
380
100
AcDbEntity
  8
M0
 62
     4
100
AcDbLine
 10
141.584535
 20
351.513144
 11
135.684388
 21
351.513144
  0
ARC
  5
381
100
AcDbEntity
  8
M0
 62
     4
100
AcDbCircle
 10
141.584535
 20
350.513144
 40
1.0
100
AcDbArc
 50
0.0
 51
90.0
  0
ARC
  5
382
100
AcDbEntity
  8
M0
 62
     4
100
AcDbCircle
 10
135.684388
 20
350.513144
 40
1.0
100
AcDbArc
 50
89.916071
 51
179.999945
  0
ARC
  5
383
100
AcDbEntity
  8
M0
 62
     4
100
AcDbCircle
 10
134.184388
 20
337.513159
 40
0.5
100
AcDbArc
 50
270.026119
 51
360.0
  0
ARC
  5
384
100
AcDbEntity
  8
M0
 62
     4
100
AcDbCircle
 10
143.084535
 20
337.513174
 40
0.5
100
AcDbArc
 50
179.998251
 51
270.026119
  0
LINE
  5
385
100
AcDbEntity
  8
M0
 62
     4
100
AcDbLine
 10
153.084535
 20
337.013174
 11
154.184388
 21
337.013174
  0
LINE
  5
386
100
AcDbEntity
  8
M0
 62
     4
100
AcDbLine
 10
123.084536
 20
337.013159
 11
124.184389
 21
337.013159
  0
LINE
  5
387
100
AcDbEntity
  8
M0
 62
     4
100
AcDbLine
 10
113.084535
 20
337.013159
 11
114.184388
 21
337.013159
  0
ARC
  5
388
100
AcDbEntity
  8
M0
 62
     4
100
AcDbCircle
 10
104.184388
 20
338.513159
 40
0.5
100
AcDbArc
 50
270.029726
 51
360.0
  0
ARC
  5
389
100
AcDbEntity
  8
M0
 62
     4
100
AcDbCircle
 10
114.184388
 20
337.513159
 40
0.5
100
AcDbArc
 50
270.029726
 51
360.0
  0
ARC
  5
38A
100
AcDbEntity
  8
M0
 62
     4
100
AcDbCircle
 10
144.184388
 20
337.513174
 40
0.5
100
AcDbArc
 50
270.026119
 51
360.0
  0
ARC
  5
38B
100
AcDbEntity
  8
M0
 62
     4
100
AcDbCircle
 10
154.184388
 20
337.51319
 40
0.5
100
AcDbArc
 50
270.02448
 51
360.0
  0
LINE
  5
38C
100
AcDbEntity
  8
M0
 62
     4
100
AcDbLine
 10
112.584535
 20
342.013144
 11
104.684388
 21
342.013144
  0
LINE
  5
38D
100
AcDbEntity
  8
M0
 62
     4
100
AcDbLine
 10
122.584535
 20
342.013144
 11
114.684388
 21
342.013144
  0
LINE
  5
38E
100
AcDbEntity
  8
M0
 62
     4
100
AcDbLine
 10
142.584535
 20
342.013144
 11
140.237962
 21
342.013144
  0
LINE
  5
38F
100
AcDbEntity
  8
M0
 62
     4
100
AcDbLine
 10
152.584535
 20
342.013144
 11
144.684388
 21
342.013144
  0
LINE
  5
390
100
AcDbEntity
  8
M0
 62
     4
100
AcDbLine
 10
154.684388
 20
342.013144
 11
162.584535
 21
342.013144
  0
LINE
  5
391
100
AcDbEntity
  8
M0
 62
     4
100
AcDbLine
 10
124.184388
 20
334.013144
 11
118.214586
 21
334.013136
  0
ARC
  5
392
100
AcDbEntity
  8
M0
 62
     4
100
AcDbCircle
 10
124.184388
 20
334.513144
 40
0.5
100
AcDbArc
 50
270.028087
 51
360.0
  0
LINE
  5
393
100
AcDbEntity
  8
M0
 62
     4
100
AcDbLine
 10
122.584535
 20
350.513144
 11
122.584535
 21
334.513144
  0
ARC
  5
394
100
AcDbEntity
  8
M0
 62
     4
100
AcDbCircle
 10
121.584535
 20
350.513144
 40
1.0
100
AcDbArc
 50
0.0
 51
89.943938
  0
LINE
  5
395
100
AcDbEntity
  8
M0
 62
     4
100
AcDbLine
 10
121.584535
 20
351.513144
 11
115.684388
 21
351.513144
  0
ARC
  5
396
100
AcDbEntity
  8
M0
 62
     4
100
AcDbCircle
 10
115.684388
 20
350.513144
 40
1.0
100
AcDbArc
 50
89.914322
 51
179.999945
  0
LINE
  5
397
100
AcDbEntity
  8
M0
 62
     4
100
AcDbLine
 10
114.684388
 20
350.513144
 11
114.684388
 21
335.369338
  0
ARC
  5
398
100
AcDbEntity
  8
M0
 62
     4
100
AcDbCircle
 10
123.084535
 20
337.513174
 40
0.5
100
AcDbArc
 50
179.998251
 51
270.028087
  0
LINE
  5
399
100
AcDbEntity
  8
M0
 62
     4
100
AcDbLine
 10
152.584535
 20
350.513144
 11
152.584535
 21
337.51319
  0
ARC
  5
39A
100
AcDbEntity
  8
M0
 62
     4
100
AcDbCircle
 10
151.584535
 20
350.513144
 40
1.0
100
AcDbArc
 50
0.0
 51
89.944047
  0
LINE
  5
39B
100
AcDbEntity
  8
M0
 62
     4
100
AcDbLine
 10
151.584535
 20
351.513144
 11
145.684388
 21
351.513144
  0
ARC
  5
39C
100
AcDbEntity
  8
M0
 62
     4
100
AcDbCircle
 10
145.684388
 20
350.513144
 40
1.0
100
AcDbArc
 50
89.888094
 51
179.999945
  0
LINE
  5
39D
100
AcDbEntity
  8
M0
 62
     4
100
AcDbLine
 10
144.684388
 20
350.513144
 11
144.684388
 21
337.513174
  0
ARC
  5
39E
100
AcDbEntity
  8
M0
 62
     4
100
AcDbCircle
 10
153.084535
 20
337.51319
 40
0.5
100
AcDbArc
 50
179.998251
 51
270.02448
  0
LINE
  5
39F
100
AcDbEntity
  8
M0
 62
     4
100
AcDbLine
 10
112.584535
 20
350.513144
 11
112.584535
 21
335.013144
  0
ARC
  5
3A0
100
AcDbEntity
  8
M0
 62
     4
100
AcDbCircle
 10
111.584535
 20
350.513144
 40
1.0
100
AcDbArc
 50
0.0
 51
89.929185
  0
LINE
  5
3A1
100
AcDbEntity
  8
M0
 62
     4
100
AcDbLine
 10
111.584535
 20
351.513144
 11
105.684388
 21
351.513144
  0
ARC
  5
3A2
100
AcDbEntity
  8
M0
 62
     4
100
AcDbCircle
 10
105.684388
 20
350.513144
 40
1.0
100
AcDbArc
 50
89.914322
 51
179.999945
  0
LINE
  5
3A3
100
AcDbEntity
  8
M0
 62
     4
100
AcDbLine
 10
104.684388
 20
350.513144
 11
104.684388
 21
338.513159
  0
ARC
  5
3A4
100
AcDbEntity
  8
M0
 62
     4
100
AcDbCircle
 10
113.084535
 20
337.513174
 40
0.5
100
AcDbArc
 50
179.998251
 51
270.029726
  0
ARC
  5
3A5
100
AcDbEntity
  8
M0
 62
     4
100
AcDbCircle
 10
123.084535
 20
334.513144
 40
0.5
100
AcDbArc
 50
179.998251
 51
270.028087
  0
ARC
  5
3A6
100
AcDbEntity
  8
M0
 62
     4
100
AcDbCircle
 10
161.584535
 20
350.513144
 40
1.0
100
AcDbArc
 50
0.0
 51
89.972024
  0
LINE
  5
3A7
100
AcDbEntity
  8
M0
 62
     4
100
AcDbLine
 10
162.584535
 20
350.513144
 11
162.584535
 21
338.513144
  0
LINE
  5
3A8
100
AcDbEntity
  8
M0
 62
     4
100
AcDbLine
 10
161.584535
 20
351.513144
 11
155.684388
 21
351.513144
  0
ARC
  5
3A9
100
AcDbEntity
  8
M0
 62
     4
100
AcDbCircle
 10
155.684388
 20
350.513144
 40
1.0
100
AcDbArc
 50
89.930059
 51
179.999945
  0
LINE
  5
3AA
100
AcDbEntity
  8
M0
 62
     4
100
AcDbLine
 10
154.684388
 20
350.513144
 11
154.684388
 21
337.51319
  0
ARC
  5
3AB
100
AcDbEntity
  8
M0
 62
     4
100
AcDbCircle
 10
102.634339
 20
338.513159
 40
0.5
100
AcDbArc
 50
179.998251
 51
270.029726
  0
LINE
  5
3AC
100
AcDbEntity
  8
M0
 62
     4
100
AcDbLine
 10
130.634339
 20
362.863135
 11
132.634339
 21
362.863135
  0
LINE
  5
3AD
100
AcDbEntity
  8
M0
 62
     4
100
AcDbLine
 10
136.634339
 20
363.363135
 11
136.634339
 21
369.163107
  0
LINE
  5
3AE
100
AcDbEntity
  8
M0
 62
     4
100
AcDbLine
 10
136.134339
 20
369.663138
 11
134.634339
 21
369.663122
  0
LINE
  5
3AF
100
AcDbEntity
  8
M0
 62
     4
100
AcDbLine
 10
130.134339
 20
369.163107
 11
130.134339
 21
363.363135
  0
ARC
  5
3B0
100
AcDbEntity
  8
M0
 62
     4
100
AcDbCircle
 10
136.134339
 20
363.363135
 40
0.5
100
AcDbArc
 50
270.0
 51
360.0
  0
ARC
  5
3B1
100
AcDbEntity
  8
M0
 62
     4
100
AcDbCircle
 10
136.134339
 20
369.163122
 40
0.5
100
AcDbArc
 50
0.0
 51
90.0
  0
ARC
  5
3B2
100
AcDbEntity
  8
M0
 62
     4
100
AcDbCircle
 10
130.634339
 20
369.163121
 40
0.5
100
AcDbArc
 50
90.0
 51
180.0
  0
ARC
  5
3B3
100
AcDbEntity
  8
M0
 62
     4
100
AcDbCircle
 10
130.63434
 20
363.363135
 40
0.5
100
AcDbArc
 50
179.999891
 51
270.0
  0
ARC
  5
3B4
100
AcDbEntity
  8
M0
 62
     4
100
AcDbCircle
 10
133.084565
 20
397.013113
 40
0.5
100
AcDbArc
 50
90.0
 51
180.0
  0
LINE
  5
3B5
100
AcDbEntity
  8
M0
 62
     4
100
AcDbLine
 10
132.584565
 20
382.513144
 11
132.584565
 21
397.013098
  0
LINE
  5
3B6
100
AcDbEntity
  8
M0
 62
     4
100
AcDbLine
 10
132.584565
 20
391.013144
 11
130.237962
 21
391.013144
  0
LINE
  5
3B7
100
AcDbEntity
  8
M0
 62
     4
100
AcDbLine
 10
131.584565
 20
381.513144
 11
125.684419
 21
381.513144
  0
ARC
  5
3B8
100
AcDbEntity
  8
M0
 62
     4
100
AcDbCircle
 10
131.584565
 20
382.513144
 40
1.0
100
AcDbArc
 50
-90.0
 51
0.0
  0
ARC
  5
3B9
100
AcDbEntity
  8
M0
 62
     4
100
AcDbCircle
 10
125.684419
 20
382.513144
 40
1.0
100
AcDbArc
 50
180.0
 51
270.084804
  0
LINE
  5
3BA
100
AcDbEntity
  8
M0
 62
     4
100
AcDbLine
 10
124.684419
 20
382.513144
 11
124.684419
 21
397.013129
  0
LINE
  5
3BB
100
AcDbEntity
  8
M0
 62
     4
100
AcDbLine
 10
124.684419
 20
382.513144
 11
124.684419
 21
397.013129
  0
ARC
  5
3BC
100
AcDbEntity
  8
M0
 62
     4
100
AcDbCircle
 10
124.184419
 20
397.013129
 40
0.5
100
AcDbArc
 50
0.0
 51
90.0
  0
LINE
  5
3BD
100
AcDbEntity
  8
M0
 62
     4
100
AcDbLine
 10
124.684403
 20
350.513144
 11
124.684403
 21
334.513144
  0
ARC
  5
3BE
100
AcDbEntity
  8
M0
 62
     4
100
AcDbCircle
 10
125.684403
 20
350.513144
 40
1.0
100
AcDbArc
 50
89.915142
 51
179.999945
  0
LINE
  5
3BF
100
AcDbEntity
  8
M0
 62
     4
100
AcDbLine
 10
131.58455
 20
351.513144
 11
125.684403
 21
351.513144
  0
ARC
  5
3C0
100
AcDbEntity
  8
M0
 62
     4
100
AcDbCircle
 10
131.58455
 20
350.513144
 40
1.0
100
AcDbArc
 50
0.0
 51
90.0
  0
LINE
  5
3C1
100
AcDbEntity
  8
M0
 62
     4
100
AcDbLine
 10
132.58455
 20
350.513144
 11
132.58455
 21
337.513174
  0
LINE
  5
3C2
100
AcDbEntity
  8
M0
 62
     4
100
AcDbLine
 10
132.584535
 20
342.013144
 11
124.684388
 21
342.013144
  0
ARC
  5
3C3
100
AcDbEntity
  8
M0
 62
     4
100
AcDbCircle
 10
133.084535
 20
337.513174
 40
0.5
100
AcDbArc
 50
179.998251
 51
270.0
  0
ARC
  5
3C4
100
AcDbEntity
  8
M0
 62
     4
100
AcDbCircle
 10
124.184388
 20
337.513159
 40
0.5
100
AcDbArc
 50
270.0
 51
360.0
  0
ARC
  5
3C5
100
AcDbEntity
  8
M0
 62
     4
100
AcDbCircle
 10
154.184144
 20
398.513144
 40
0.5
100
AcDbArc
 50
0.0
 51
90.0
  0
LINE
  5
3C6
100
AcDbEntity
  8
M0
 62
     4
100
AcDbLine
 10
163.084535
 20
338.013144
 11
164.634339
 21
338.013144
  0
LINE
  5
3C7
100
AcDbEntity
  8
M0
 62
     4
100
AcDbLine
 10
163.084291
 20
395.013144
 11
164.634339
 21
395.013144
  0
ARC
  5
3C8
100
AcDbEntity
  8
M0
 62
     4
100
AcDbCircle
 10
164.634339
 20
394.513144
 40
0.5
100
AcDbArc
 50
0.0
 51
90.0
  0
ARC
  5
3C9
100
AcDbEntity
  8
M0
 62
     4
100
AcDbCircle
 10
163.084291
 20
394.513144
 40
0.5
100
AcDbArc
 50
90.0
 51
180.0
  0
ARC
  5
3CA
100
AcDbEntity
  8
M0
 62
     4
100
AcDbCircle
 10
163.084535
 20
338.513144
 40
0.5
100
AcDbArc
 50
179.998251
 51
269.998251
  0
ARC
  5
3CB
100
AcDbEntity
  8
M0
 62
     4
100
AcDbCircle
 10
164.634339
 20
338.513144
 40
0.5
100
AcDbArc
 50
269.998251
 51
360.0
  0
LINE
  5
3CC
100
AcDbEntity
  8
M0
 62
     4
100
AcDbLine
 10
132.634339
 20
369.663122
 11
132.634339
 21
368.513144
  0
LINE
  5
3CD
100
AcDbEntity
  8
M0
 62
     4
100
AcDbLine
 10
134.634339
 20
369.663122
 11
134.634339
 21
368.513144
  0
LINE
  5
3CE
100
AcDbEntity
  8
M0
 62
     4
100
AcDbLine
 10
132.634339
 20
364.513144
 11
134.634339
 21
364.513144
  0
LINE
  5
3CF
100
AcDbEntity
  8
M0
 62
     4
100
AcDbLine
 10
132.634339
 20
368.513144
 11
134.634339
 21
368.513144
  0
LINE
  5
3D0
100
AcDbEntity
  8
M0
 62
     4
100
AcDbLine
 10
134.634339
 20
362.863135
 11
136.134339
 21
362.863135
  0
LINE
  5
3D1
100
AcDbEntity
  8
M0
 62
     4
100
AcDbLine
 10
132.634339
 20
369.663122
 11
130.634339
 21
369.663122
  0
LINE
  5
3D2
100
AcDbEntity
  8
M0
 62
     4
100
AcDbLine
 10
132.634339
 20
364.513144
 11
132.634339
 21
362.863135
  0
LINE
  5
3D3
100
AcDbEntity
  8
M0
 62
     4
100
AcDbLine
 10
134.634339
 20
364.513144
 11
134.634339
 21
362.863135
  0
LINE
  5
3D4
100
AcDbEntity
  8
M0
 62
     4
100
AcDbLine
 10
140.237962
 20
391.013144
 11
142.584291
 21
391.013144
  0
LINE
  5
3D5
100
AcDbEntity
  8
M0
 62
     4
100
AcDbLine
 10
127.03795
 20
391.013144
 11
124.684419
 21
391.013144
  0
LINE
  5
3D6
100
AcDbEntity
  8
M0
 62
     4
100
AcDbLine
 10
120.237977
 20
391.013144
 11
122.584291
 21
391.013144
  0
LINE
  5
3D7
100
AcDbEntity
  8
M0
 62
     4
100
AcDbLine
 10
137.03795
 20
342.013144
 11
134.684388
 21
342.013144
  0
CIRCLE
  5
3D8
100
AcDbEntity
  8
M0
 62
     6
100
AcDbCircle
 10
158.634339
 20
386.5129
 40
3.0
  0
LINE
  5
3D9
100
AcDbEntity
  8
M0
 62
     6
100
AcDbLine
 10
155.675584
 20
390.460242
 11
154.85933
 21
387.812948
  0
LINE
  5
3DA
100
AcDbEntity
  8
M0
 62
     6
100
AcDbLine
 10
155.675584
 20
382.565649
 11
154.85933
 21
385.212973
  0
LINE
  5
3DB
100
AcDbEntity
  8
M0
 62
     6
100
AcDbLine
 10
161.593064
 20
390.460257
 11
162.409333
 21
387.812948
  0
LINE
  5
3DC
100
AcDbEntity
  8
M0
 62
     6
100
AcDbLine
 10
161.593064
 20
382.565634
 11
162.409333
 21
385.212973
  0
LINE
  5
3DD
100
AcDbEntity
  8
M0
 62
     6
100
AcDbLine
 10
156.153382
 20
382.212973
 11
161.115251
 21
382.212973
  0
LINE
  5
3DE
100
AcDbEntity
  8
M0
 62
     6
100
AcDbLine
 10
162.409333
 20
385.212973
 11
162.409333
 21
387.812948
  0
LINE
  5
3DF
100
AcDbEntity
  8
M0
 62
     6
100
AcDbLine
 10
161.115251
 20
390.812948
 11
156.153382
 21
390.812933
  0
LINE
  5
3E0
100
AcDbEntity
  8
M0
 62
     6
100
AcDbLine
 10
154.85933
 20
387.812948
 11
154.85933
 21
385.212973
  0
LINE
  5
3E1
100
AcDbEntity
  8
M0
  6
DASHDOT
 62
     6
100
AcDbLine
 10
152.35933
 20
386.5129
 11
164.909333
 21
386.5129
  0
LINE
  5
3E2
100
AcDbEntity
  8
M0
  6
DASHDOT
 62
     6
100
AcDbLine
 10
158.634339
 20
379.712988
 11
158.634339
 21
393.312948
  0
LINE
  5
3E3
100
AcDbEntity
  8
M0
 62
     6
100
AcDbLine
 10
160.225114
 20
384.922079
 11
157.043305
 21
388.103842
  0
LINE
  5
3E4
100
AcDbEntity
  8
M0
 62
     6
100
AcDbLine
 10
158.987748
 20
387.927084
 11
157.220078
 21
386.159384
  0
LINE
  5
3E5
100
AcDbEntity
  8
M0
 62
     6
100
AcDbLine
 10
160.048356
 20
386.866415
 11
158.280732
 21
385.098837
  0
ARC
  5
3E6
100
AcDbEntity
  8
M0
 62
     6
100
AcDbCircle
 10
156.153382
 20
390.312933
 40
0.5
100
AcDbArc
 50
90.0
 51
162.86739
  0
ARC
  5
3E7
100
AcDbEntity
  8
M0
 62
     6
100
AcDbCircle
 10
156.153382
 20
382.712973
 40
0.5
100
AcDbArc
 50
197.137519
 51
270.0
  0
ARC
  5
3E8
100
AcDbEntity
  8
M0
 62
     6
100
AcDbCircle
 10
161.115251
 20
382.712973
 40
0.5
100
AcDbArc
 50
270.0
 51
342.859476
  0
ARC
  5
3E9
100
AcDbEntity
  8
M0
 62
     6
100
AcDbCircle
 10
161.115251
 20
390.312933
 40
0.5
100
AcDbArc
 50
17.134787
 51
90.0
  0
LINE
  5
3EA
100
AcDbEntity
  8
M0
  6
DASHDOT
 62
     6
100
AcDbLine
 10
138.634339
 20
379.712988
 11
138.634339
 21
393.312948
  0
CIRCLE
  5
3EB
100
AcDbEntity
  8
M0
 62
     6
100
AcDbCircle
 10
148.634339
 20
386.5129
 40
3.0
  0
LINE
  5
3EC
100
AcDbEntity
  8
M0
 62
     6
100
AcDbLine
 10
145.675584
 20
390.460242
 11
144.85933
 21
387.812948
  0
LINE
  5
3ED
100
AcDbEntity
  8
M0
 62
     6
100
AcDbLine
 10
145.675584
 20
382.565649
 11
144.85933
 21
385.212973
  0
LINE
  5
3EE
100
AcDbEntity
  8
M0
 62
     6
100
AcDbLine
 10
151.593064
 20
390.460257
 11
152.409333
 21
387.812948
  0
LINE
  5
3EF
100
AcDbEntity
  8
M0
 62
     6
100
AcDbLine
 10
151.593064
 20
382.565634
 11
152.409333
 21
385.212973
  0
LINE
  5
3F0
100
AcDbEntity
  8
M0
 62
     6
100
AcDbLine
 10
146.153382
 20
382.212973
 11
151.115251
 21
382.212973
  0
LINE
  5
3F1
100
AcDbEntity
  8
M0
 62
     6
100
AcDbLine
 10
152.409333
 20
385.212973
 11
152.409333
 21
387.812948
  0
LINE
  5
3F2
100
AcDbEntity
  8
M0
 62
     6
100
AcDbLine
 10
151.115251
 20
390.812948
 11
146.153382
 21
390.812933
  0
LINE
  5
3F3
100
AcDbEntity
  8
M0
 62
     6
100
AcDbLine
 10
144.85933
 20
387.812948
 11
144.85933
 21
385.212973
  0
LINE
  5
3F4
100
AcDbEntity
  8
M0
  6
DASHDOT
 62
     6
100
AcDbLine
 10
142.35933
 20
386.5129
 11
154.909333
 21
386.5129
  0
LINE
  5
3F5
100
AcDbEntity
  8
M0
  6
DASHDOT
 62
     6
100
AcDbLine
 10
148.634339
 20
379.712988
 11
148.634339
 21
393.312948
  0
LINE
  5
3F6
100
AcDbEntity
  8
M0
 62
     6
100
AcDbLine
 10
150.225114
 20
384.922079
 11
147.043305
 21
388.103842
  0
LINE
  5
3F7
100
AcDbEntity
  8
M0
 62
     6
100
AcDbLine
 10
148.987748
 20
387.927084
 11
147.220078
 21
386.159384
  0
LINE
  5
3F8
100
AcDbEntity
  8
M0
 62
     6
100
AcDbLine
 10
150.048356
 20
386.866415
 11
148.280732
 21
385.098837
  0
ARC
  5
3F9
100
AcDbEntity
  8
M0
 62
     6
100
AcDbCircle
 10
146.153382
 20
390.312933
 40
0.5
100
AcDbArc
 50
90.0
 51
162.86739
  0
ARC
  5
3FA
100
AcDbEntity
  8
M0
 62
     6
100
AcDbCircle
 10
146.153382
 20
382.712973
 40
0.5
100
AcDbArc
 50
197.137519
 51
270.0
  0
ARC
  5
3FB
100
AcDbEntity
  8
M0
 62
     6
100
AcDbCircle
 10
151.115251
 20
382.712973
 40
0.5
100
AcDbArc
 50
270.0
 51
342.859476
  0
ARC
  5
3FC
100
AcDbEntity
  8
M0
 62
     6
100
AcDbCircle
 10
151.115251
 20
390.312933
 40
0.5
100
AcDbArc
 50
17.134787
 51
90.0
  0
CIRCLE
  5
3FD
100
AcDbEntity
  8
M0
 62
     6
100
AcDbCircle
 10
148.634339
 20
394.512656
 40
3.0
  0
LINE
  5
3FE
100
AcDbEntity
  8
M0
 62
     6
100
AcDbLine
 10
145.675584
 20
398.459997
 11
144.85933
 21
395.812704
  0
LINE
  5
3FF
100
AcDbEntity
  8
M0
 62
     6
100
AcDbLine
 10
145.537705
 20
391.012564
 11
144.85933
 21
393.212729
  0
LINE
  5
400
100
AcDbEntity
  8
M0
 62
     6
100
AcDbLine
 10
151.593064
 20
398.460013
 11
152.409333
 21
395.812704
  0
LINE
  5
401
100
AcDbEntity
  8
M0
 62
     6
100
AcDbLine
 10
151.730943
 20
391.012564
 11
152.409333
 21
393.212729
  0
LINE
  5
402
100
AcDbEntity
  8
M0
 62
     6
100
AcDbLine
 10
152.409333
 20
393.212729
 11
152.409333
 21
395.812704
  0
LINE
  5
403
100
AcDbEntity
  8
M0
 62
     6
100
AcDbLine
 10
151.115251
 20
398.812704
 11
146.153382
 21
398.812689
  0
LINE
  5
404
100
AcDbEntity
  8
M0
 62
     6
100
AcDbLine
 10
144.85933
 20
395.812704
 11
144.85933
 21
393.212729
  0
LINE
  5
405
100
AcDbEntity
  8
M0
  6
DASHDOT
 62
     6
100
AcDbLine
 10
142.35933
 20
394.512656
 11
154.909333
 21
394.512656
  0
LINE
  5
406
100
AcDbEntity
  8
M0
  6
DASHDOT
 62
     6
100
AcDbLine
 10
148.634339
 20
387.712744
 11
148.634339
 21
401.312704
  0
LINE
  5
407
100
AcDbEntity
  8
M0
 62
     6
100
AcDbLine
 10
150.225114
 20
392.921835
 11
147.043305
 21
396.103598
  0
LINE
  5
408
100
AcDbEntity
  8
M0
 62
     6
100
AcDbLine
 10
148.987748
 20
395.92684
 11
147.220078
 21
394.15914
  0
LINE
  5
409
100
AcDbEntity
  8
M0
 62
     6
100
AcDbLine
 10
150.048356
 20
394.866171
 11
148.280732
 21
393.098593
  0
ARC
  5
40A
100
AcDbEntity
  8
M0
 62
     6
100
AcDbCircle
 10
146.153382
 20
398.312689
 40
0.5
100
AcDbArc
 50
90.0
 51
162.867254
  0
ARC
  5
40B
100
AcDbEntity
  8
M0
 62
     6
100
AcDbCircle
 10
151.115251
 20
398.312689
 40
0.5
100
AcDbArc
 50
17.134755
 51
90.0
  0
CIRCLE
  5
40C
100
AcDbEntity
  8
M0
 62
     6
100
AcDbCircle
 10
138.634339
 20
386.5129
 40
3.0
  0
LINE
  5
40D
100
AcDbEntity
  8
M0
 62
     6
100
AcDbLine
 10
135.675584
 20
390.460242
 11
134.85933
 21
387.812948
  0
LINE
  5
40E
100
AcDbEntity
  8
M0
 62
     6
100
AcDbLine
 10
135.675584
 20
382.565649
 11
134.85933
 21
385.212973
  0
LINE
  5
40F
100
AcDbEntity
  8
M0
 62
     6
100
AcDbLine
 10
141.593064
 20
390.460257
 11
142.409333
 21
387.812948
  0
LINE
  5
410
100
AcDbEntity
  8
M0
 62
     6
100
AcDbLine
 10
141.593064
 20
382.565634
 11
142.409333
 21
385.212973
  0
LINE
  5
411
100
AcDbEntity
  8
M0
 62
     6
100
AcDbLine
 10
136.153382
 20
382.212973
 11
141.115251
 21
382.212973
  0
LINE
  5
412
100
AcDbEntity
  8
M0
 62
     6
100
AcDbLine
 10
142.409333
 20
385.212973
 11
142.409333
 21
387.812948
  0
LINE
  5
413
100
AcDbEntity
  8
M0
 62
     6
100
AcDbLine
 10
141.115251
 20
390.812948
 11
136.153382
 21
390.812933
  0
LINE
  5
414
100
AcDbEntity
  8
M0
 62
     6
100
AcDbLine
 10
134.85933
 20
387.812948
 11
134.85933
 21
385.212973
  0
LINE
  5
415
100
AcDbEntity
  8
M0
  6
DASHDOT
 62
     6
100
AcDbLine
 10
122.35933
 20
386.5129
 11
134.909333
 21
386.5129
  0
LINE
  5
416
100
AcDbEntity
  8
M0
 62
     6
100
AcDbLine
 10
140.225114
 20
384.922079
 11
137.043305
 21
388.103842
  0
LINE
  5
417
100
AcDbEntity
  8
M0
 62
     6
100
AcDbLine
 10
138.987748
 20
387.927084
 11
137.220078
 21
386.159384
  0
LINE
  5
418
100
AcDbEntity
  8
M0
 62
     6
100
AcDbLine
 10
140.048356
 20
386.866415
 11
138.280732
 21
385.098837
  0
ARC
  5
419
100
AcDbEntity
  8
M0
 62
     6
100
AcDbCircle
 10
136.153382
 20
390.312933
 40
0.5
100
AcDbArc
 50
90.0
 51
162.86739
  0
ARC
  5
41A
100
AcDbEntity
  8
M0
 62
     6
100
AcDbCircle
 10
136.153382
 20
382.712973
 40
0.5
100
AcDbArc
 50
197.137519
 51
270.0
  0
ARC
  5
41B
100
AcDbEntity
  8
M0
 62
     6
100
AcDbCircle
 10
141.115251
 20
382.712973
 40
0.5
100
AcDbArc
 50
270.0
 51
342.859476
  0
ARC
  5
41C
100
AcDbEntity
  8
M0
 62
     6
100
AcDbCircle
 10
141.115251
 20
390.312933
 40
0.5
100
AcDbArc
 50
17.134787
 51
90.0
  0
LINE
  5
41D
100
AcDbEntity
  8
M0
 62
     6
100
AcDbLine
 10
131.115357
 20
382.212973
 11
126.153489
 21
382.212973
  0
LINE
  5
41E
100
AcDbEntity
  8
M0
 62
     6
100
AcDbLine
 10
131.593156
 20
382.565649
 11
132.40941
 21
385.212973
  0
LINE
  5
41F
100
AcDbEntity
  8
M0
 62
     6
100
AcDbLine
 10
125.675675
 20
382.565634
 11
124.859406
 21
385.212973
  0
LINE
  5
420
100
AcDbEntity
  8
M0
 62
     6
100
AcDbLine
 10
125.675675
 20
390.460257
 11
124.859406
 21
387.812948
  0
LINE
  5
421
100
AcDbEntity
  8
M0
 62
     6
100
AcDbLine
 10
124.859406
 20
385.212973
 11
124.859406
 21
387.812948
  0
LINE
  5
422
100
AcDbEntity
  8
M0
 62
     6
100
AcDbLine
 10
131.593156
 20
390.460242
 11
132.40941
 21
387.812948
  0
LINE
  5
423
100
AcDbEntity
  8
M0
 62
     6
100
AcDbLine
 10
132.40941
 20
387.812948
 11
132.40941
 21
385.212973
  0
CIRCLE
  5
424
100
AcDbEntity
  8
M0
 62
     6
100
AcDbCircle
 10
128.6344
 20
386.5129
 40
3.0
  0
LINE
  5
425
100
AcDbEntity
  8
M0
 62
     6
100
AcDbLine
 10
127.043626
 20
384.922079
 11
130.225434
 21
388.103842
  0
LINE
  5
426
100
AcDbEntity
  8
M0
 62
     6
100
AcDbLine
 10
128.280992
 20
387.927084
 11
130.048661
 21
386.159384
  0
LINE
  5
427
100
AcDbEntity
  8
M0
 62
     6
100
AcDbLine
 10
127.220384
 20
386.866415
 11
128.988008
 21
385.098837
  0
ARC
  5
428
100
AcDbEntity
  8
M0
 62
     6
100
AcDbCircle
 10
131.115357
 20
382.712973
 40
0.5
100
AcDbArc
 50
270.0
 51
342.862377
  0
ARC
  5
429
100
AcDbEntity
  8
M0
 62
     6
100
AcDbCircle
 10
126.153489
 20
382.712973
 40
0.5
100
AcDbArc
 50
197.14201
 51
270.0
  0
LINE
  5
42A
100
AcDbEntity
  8
M0
 62
     6
100
AcDbLine
 10
126.153489
 20
390.812948
 11
131.115357
 21
390.812933
  0
ARC
  5
42B
100
AcDbEntity
  8
M0
 62
     6
100
AcDbCircle
 10
131.115357
 20
390.312933
 40
0.5
100
AcDbArc
 50
17.13261
 51
90.0
  0
ARC
  5
42C
100
AcDbEntity
  8
M0
 62
     6
100
AcDbCircle
 10
126.153489
 20
390.312933
 40
0.5
100
AcDbArc
 50
90.0
 51
162.865076
  0
LINE
  5
42D
100
AcDbEntity
  8
M0
 62
     6
100
AcDbLine
 10
125.675645
 20
342.565726
 11
124.859376
 21
345.213034
  0
LINE
  5
42E
100
AcDbEntity
  8
M0
 62
     6
100
AcDbLine
 10
131.593125
 20
342.565741
 11
132.409379
 21
345.213034
  0
CIRCLE
  5
42F
100
AcDbEntity
  8
M0
 62
     6
100
AcDbCircle
 10
128.63437
 20
346.513083
 40
3.0
  0
LINE
  5
430
100
AcDbEntity
  8
M0
 62
     6
100
AcDbLine
 10
127.220353
 20
346.159567
 11
128.987977
 21
347.927145
  0
LINE
  5
431
100
AcDbEntity
  8
M0
 62
     6
100
AcDbLine
 10
128.280961
 20
345.098898
 11
130.048631
 21
346.866598
  0
LINE
  5
432
100
AcDbEntity
  8
M0
 62
     6
100
AcDbLine
 10
127.043595
 20
348.103903
 11
130.225404
 21
344.92214
  0
LINE
  5
433
100
AcDbEntity
  8
M0
 62
     6
100
AcDbLine
 10
125.67566
 20
350.460348
 11
124.859376
 21
347.81301
  0
LINE
  5
434
100
AcDbEntity
  8
M0
 62
     6
100
AcDbLine
 10
131.115342
 20
350.81301
 11
126.153474
 21
350.81301
  0
ARC
  5
435
100
AcDbEntity
  8
M0
 62
     6
100
AcDbCircle
 10
126.153474
 20
350.31301
 40
0.5
100
AcDbArc
 50
90.0
 51
162.856423
  0
ARC
  5
436
100
AcDbEntity
  8
M0
 62
     6
100
AcDbCircle
 10
131.115342
 20
350.31301
 40
0.5
100
AcDbArc
 50
17.138146
 51
90.0
  0
LINE
  5
437
100
AcDbEntity
  8
M0
 62
     6
100
AcDbLine
 10
131.593141
 20
350.460333
 11
132.409379
 21
347.81301
  0
LINE
  5
438
100
AcDbEntity
  8
M0
 62
     6
100
AcDbLine
 10
124.859376
 20
347.81301
 11
124.859376
 21
345.213034
  0
LINE
  5
439
100
AcDbEntity
  8
M0
 62
     6
100
AcDbLine
 10
132.409379
 20
345.213034
 11
132.409379
 21
347.81301
  0
LINE
  5
43A
100
AcDbEntity
  8
M0
 62
     6
100
AcDbLine
 10
126.153459
 20
342.213034
 11
131.115327
 21
342.213049
  0
ARC
  5
43B
100
AcDbEntity
  8
M0
 62
     6
100
AcDbCircle
 10
126.153459
 20
342.713049
 40
0.5
100
AcDbArc
 50
197.134611
 51
270.0
  0
ARC
  5
43C
100
AcDbEntity
  8
M0
 62
     6
100
AcDbCircle
 10
131.115327
 20
342.713049
 40
0.5
100
AcDbArc
 50
270.0
 51
342.868957
  0
LINE
  5
43D
100
AcDbEntity
  8
M0
 62
     7
100
AcDbLine
 10
122.584338
 20
394.513144
 11
122.584094
 21
398.013129
  0
LINE
  5
43E
100
AcDbEntity
  8
M0
 62
     7
100
AcDbLine
 10
122.584094
 20
398.013129
 11
121.584338
 21
399.013129
  0
LINE
  5
43F
100
AcDbEntity
  8
M0
 62
     7
100
AcDbLine
 10
146.184327
 20
334.013144
 11
154.684327
 21
334.013144
  0
LINE
  5
440
100
AcDbEntity
  8
M0
 62
     7
100
AcDbLine
 10
154.684327
 20
334.013144
 11
154.684327
 21
342.013144
  0
LINE
  5
441
100
AcDbEntity
  8
M0
 62
     7
100
AcDbLine
 10
121.584338
 20
399.013129
 11
119.750394
 21
399.013125
  0
LINE
  5
442
100
AcDbEntity
  8
M0
 62
     7
100
AcDbLine
 10
112.084352
 20
397.013113
 11
112.084352
 21
391.013129
  0
ARC
  5
443
100
AcDbEntity
  8
M0
 62
     7
100
AcDbCircle
 10
114.084352
 20
397.013113
 40
2.0
100
AcDbArc
 50
89.999563
 51
180.0
  0
LINE
  5
444
100
AcDbEntity
  8
M0
 62
     7
100
AcDbLine
 10
140.184327
 20
338.013144
 11
140.184327
 21
340.013144
  0
LINE
  5
445
100
AcDbEntity
  8
M0
 62
     7
100
AcDbLine
 10
141.684327
 20
336.013144
 11
141.684327
 21
340.013144
  0
LINE
  5
446
100
AcDbEntity
  8
M0
 62
     7
100
AcDbLine
 10
145.184327
 20
335.0129
 11
145.184327
 21
342.013144
  0
LINE
  5
447
100
AcDbEntity
  8
M0
 62
     7
100
AcDbLine
 10
145.184327
 20
335.013129
 11
146.184327
 21
334.013144
  0
LINE
  5
448
100
AcDbEntity
  8
M0
 62
     7
100
AcDbLine
 10
142.184327
 20
336.013144
 11
142.184327
 21
340.013144
  0
LINE
  5
449
100
AcDbEntity
  8
M0
 62
     7
100
AcDbLine
 10
140.237962
 20
336.013144
 11
141.684327
 21
336.013144
  0
LINE
  5
44A
100
AcDbEntity
  8
M0
 62
     7
100
AcDbLine
 10
144.684388
 20
338.013144
 11
145.184327
 21
338.013144
  0
LINE
  5
44B
100
AcDbEntity
  8
M0
 62
     7
100
AcDbLine
 10
142.184327
 20
336.013144
 11
145.184327
 21
336.013144
  0
LINE
  5
44C
100
AcDbEntity
  8
M0
 62
     7
100
AcDbLine
 10
124.684388
 20
340.013144
 11
127.03795
 21
340.013144
  0
LINE
  5
44D
100
AcDbEntity
  8
M0
 62
     7
100
AcDbLine
 10
134.684388
 20
340.013144
 11
137.03795
 21
340.013144
  0
LINE
  5
44E
100
AcDbEntity
  8
M0
 62
     7
100
AcDbLine
 10
124.684144
 20
393.013144
 11
127.03795
 21
393.013144
  0
LINE
  5
44F
100
AcDbEntity
  8
M0
 62
     7
100
AcDbLine
 10
134.6839
 20
393.013144
 11
137.03795
 21
393.013144
  0
LINE
  5
450
100
AcDbEntity
  8
M0
 62
     7
100
AcDbLine
 10
114.783692
 20
395.482138
 11
114.783753
 21
395.71749
  0
ARC
  5
451
100
AcDbEntity
  8
M0
 62
     7
100
AcDbCircle
 10
116.684144
 20
394.5129
 40
2.25
100
AcDbArc
 50
81.299377
 51
147.648103
  0
ARC
  5
452
100
AcDbEntity
  8
M0
 62
     7
100
AcDbCircle
 10
148.134095
 20
340.5129
 40
2.25
100
AcDbArc
 50
138.184064
 51
192.609358
  0
LINE
  5
453
100
AcDbEntity
  8
M0
 62
     7
100
AcDbLine
 10
145.938294
 20
340.021689
 11
147.64264
 21
338.317099
  0
LINE
  5
454
100
AcDbEntity
  8
M0
 62
     7
100
AcDbLine
 10
148.478578
 20
337.612997
 11
148.67772
 21
337.612997
  0
ARC
  5
455
100
AcDbEntity
  8
M0
 62
     7
100
AcDbCircle
 10
148.134095
 20
340.5129
 40
2.25
100
AcDbArc
 50
257.382805
 51
261.369552
  0
ARC
  5
456
100
AcDbEntity
  8
M0
 62
     7
100
AcDbCircle
 10
149.6839
 20
339.5129
 40
2.25
100
AcDbArc
 50
212.975871
 51
237.61363
  0
LINE
  5
457
100
AcDbEntity
  8
M0
 62
     7
100
AcDbLine
 10
140.237962
 20
393.013144
 11
142.584046
 21
393.013144
  0
LINE
  5
458
100
AcDbEntity
  8
M0
 62
     7
100
AcDbLine
 10
130.237962
 20
393.013144
 11
132.584291
 21
393.013144
  0
LINE
  5
459
100
AcDbEntity
  8
M0
 62
     7
100
AcDbLine
 10
116.074295
 20
399.013117
 11
114.084352
 21
399.013113
  0
LINE
  5
45A
100
AcDbEntity
  8
M0
 62
     7
100
AcDbLine
 10
140.237962
 20
340.013144
 11
142.584535
 21
340.013144
  0
LINE
  5
45B
100
AcDbEntity
  8
M0
 62
     7
100
AcDbLine
 10
130.237962
 20
340.013144
 11
132.584535
 21
340.013144
  0
CIRCLE
  5
45C
100
AcDbEntity
  8
M0
 62
     6
100
AcDbCircle
 10
118.634339
 20
386.5129
 40
3.0
  0
LINE
  5
45D
100
AcDbEntity
  8
M0
 62
     6
100
AcDbLine
 10
115.675584
 20
390.460242
 11
114.85933
 21
387.812948
  0
LINE
  5
45E
100
AcDbEntity
  8
M0
 62
     6
100
AcDbLine
 10
115.675584
 20
382.565649
 11
114.85933
 21
385.212973
  0
LINE
  5
45F
100
AcDbEntity
  8
M0
 62
     6
100
AcDbLine
 10
121.593064
 20
390.460257
 11
122.409333
 21
387.812948
  0
LINE
  5
460
100
AcDbEntity
  8
M0
 62
     6
100
AcDbLine
 10
121.593064
 20
382.565634
 11
122.409333
 21
385.212973
  0
LINE
  5
461
100
AcDbEntity
  8
M0
 62
     6
100
AcDbLine
 10
116.153382
 20
382.212973
 11
121.115251
 21
382.212973
  0
LINE
  5
462
100
AcDbEntity
  8
M0
 62
     6
100
AcDbLine
 10
122.409333
 20
385.212973
 11
122.409333
 21
387.812948
  0
LINE
  5
463
100
AcDbEntity
  8
M0
 62
     6
100
AcDbLine
 10
121.115251
 20
390.812948
 11
116.153382
 21
390.812933
  0
LINE
  5
464
100
AcDbEntity
  8
M0
 62
     6
100
AcDbLine
 10
114.85933
 20
387.812948
 11
114.85933
 21
385.212973
  0
LINE
  5
465
100
AcDbEntity
  8
M0
  6
DASHDOT
 62
     6
100
AcDbLine
 10
112.35933
 20
386.5129
 11
124.909333
 21
386.5129
  0
LINE
  5
466
100
AcDbEntity
  8
M0
  6
DASHDOT
 62
     6
100
AcDbLine
 10
118.634339
 20
379.712988
 11
118.634339
 21
393.312948
  0
LINE
  5
467
100
AcDbEntity
  8
M0
 62
     6
100
AcDbLine
 10
120.225114
 20
384.922079
 11
117.043305
 21
388.103842
  0
LINE
  5
468
100
AcDbEntity
  8
M0
 62
     6
100
AcDbLine
 10
118.987748
 20
387.927084
 11
117.220078
 21
386.159384
  0
LINE
  5
469
100
AcDbEntity
  8
M0
 62
     6
100
AcDbLine
 10
120.048356
 20
386.866415
 11
118.280732
 21
385.098837
  0
ARC
  5
46A
100
AcDbEntity
  8
M0
 62
     6
100
AcDbCircle
 10
116.153382
 20
390.312933
 40
0.5
100
AcDbArc
 50
90.0
 51
162.867254
  0
ARC
  5
46B
100
AcDbEntity
  8
M0
 62
     6
100
AcDbCircle
 10
116.153382
 20
382.712973
 40
0.5
100
AcDbArc
 50
197.137551
 51
270.0
  0
ARC
  5
46C
100
AcDbEntity
  8
M0
 62
     6
100
AcDbCircle
 10
121.115251
 20
382.712973
 40
0.5
100
AcDbArc
 50
270.0
 51
342.859508
  0
ARC
  5
46D
100
AcDbEntity
  8
M0
 62
     6
100
AcDbCircle
 10
121.115251
 20
390.312933
 40
0.5
100
AcDbArc
 50
17.134755
 51
90.0
  0
ARC
  5
46E
100
AcDbEntity
  8
M0
 62
     2
100
AcDbCircle
 10
116.637086
 20
392.513144
 40
3.499993
100
AcDbArc
 50
83.781416
 51
123.918097
  0
LINE
  5
46F
100
AcDbEntity
  8
M0
 62
     2
100
AcDbLine
 10
115.222825
 20
393.927176
 11
117.037965
 21
392.111595
  0
LINE
  5
470
100
AcDbEntity
  8
M0
 62
     2
100
AcDbLine
 10
117.037965
 20
394.327522
 11
114.684144
 21
391.973593
  0
LINE
  5
471
100
AcDbEntity
  8
M0
 62
     2
100
AcDbLine
 10
117.037965
 20
391.499383
 11
116.551759
 21
391.013144
  0
LINE
  5
472
100
AcDbEntity
  8
M0
  6
DASHDOT
 62
     2
100
AcDbLine
 10
109.137093
 20
392.513144
 11
124.137079
 21
392.513144
  0
LINE
  5
473
100
AcDbEntity
  8
M0
  6
DASHDOT
 62
     2
100
AcDbLine
 10
116.637086
 20
385.01315
 11
116.637086
 21
400.013137
  0
CIRCLE
  5
474
100
AcDbEntity
  8
M0
 62
     6
100
AcDbCircle
 10
108.634339
 20
386.5129
 40
3.0
  0
LINE
  5
475
100
AcDbEntity
  8
M0
 62
     6
100
AcDbLine
 10
105.675584
 20
390.460242
 11
104.85933
 21
387.812948
  0
LINE
  5
476
100
AcDbEntity
  8
M0
 62
     6
100
AcDbLine
 10
105.675584
 20
382.565649
 11
104.85933
 21
385.212973
  0
LINE
  5
477
100
AcDbEntity
  8
M0
 62
     6
100
AcDbLine
 10
111.593064
 20
390.460257
 11
112.409333
 21
387.812948
  0
LINE
  5
478
100
AcDbEntity
  8
M0
 62
     6
100
AcDbLine
 10
111.593064
 20
382.565634
 11
112.409333
 21
385.212973
  0
LINE
  5
479
100
AcDbEntity
  8
M0
 62
     6
100
AcDbLine
 10
106.153382
 20
382.212973
 11
111.115251
 21
382.212973
  0
LINE
  5
47A
100
AcDbEntity
  8
M0
 62
     6
100
AcDbLine
 10
112.409333
 20
385.212973
 11
112.409333
 21
387.812948
  0
LINE
  5
47B
100
AcDbEntity
  8
M0
 62
     6
100
AcDbLine
 10
111.115251
 20
390.812948
 11
106.153382
 21
390.812933
  0
LINE
  5
47C
100
AcDbEntity
  8
M0
 62
     6
100
AcDbLine
 10
104.85933
 20
387.812948
 11
104.85933
 21
385.212973
  0
LINE
  5
47D
100
AcDbEntity
  8
M0
  6
DASHDOT
 62
     6
100
AcDbLine
 10
102.35933
 20
386.5129
 11
114.909333
 21
386.5129
  0
LINE
  5
47E
100
AcDbEntity
  8
M0
  6
DASHDOT
 62
     6
100
AcDbLine
 10
108.634339
 20
379.712988
 11
108.634339
 21
393.312948
  0
LINE
  5
47F
100
AcDbEntity
  8
M0
 62
     6
100
AcDbLine
 10
110.225114
 20
384.922079
 11
107.043305
 21
388.103842
  0
LINE
  5
480
100
AcDbEntity
  8
M0
 62
     6
100
AcDbLine
 10
108.987748
 20
387.927084
 11
107.220078
 21
386.159384
  0
LINE
  5
481
100
AcDbEntity
  8
M0
 62
     6
100
AcDbLine
 10
110.048356
 20
386.866415
 11
108.280732
 21
385.098837
  0
ARC
  5
482
100
AcDbEntity
  8
M0
 62
     6
100
AcDbCircle
 10
106.153382
 20
390.312933
 40
0.5
100
AcDbArc
 50
90.0
 51
162.867254
  0
ARC
  5
483
100
AcDbEntity
  8
M0
 62
     6
100
AcDbCircle
 10
106.153382
 20
382.712973
 40
0.5
100
AcDbArc
 50
197.137551
 51
270.0
  0
ARC
  5
484
100
AcDbEntity
  8
M0
 62
     6
100
AcDbCircle
 10
111.115251
 20
382.712973
 40
0.5
100
AcDbArc
 50
270.0
 51
342.859508
  0
ARC
  5
485
100
AcDbEntity
  8
M0
 62
     6
100
AcDbCircle
 10
111.115251
 20
390.312933
 40
0.5
100
AcDbArc
 50
17.134755
 51
90.0
  0
LINE
  5
486
100
AcDbEntity
  8
M0
  6
DASHDOT
 62
     6
100
AcDbLine
 10
128.634278
 20
379.712973
 11
128.634309
 21
393.312933
  0
CIRCLE
  5
487
100
AcDbEntity
  8
M0
 62
     6
100
AcDbCircle
 10
108.634339
 20
346.513144
 40
3.0
  0
LINE
  5
488
100
AcDbEntity
  8
M0
 62
     6
100
AcDbLine
 10
105.675584
 20
350.460486
 11
104.85933
 21
347.813193
  0
LINE
  5
489
100
AcDbEntity
  8
M0
 62
     6
100
AcDbLine
 10
105.675584
 20
342.565893
 11
104.85933
 21
345.213217
  0
LINE
  5
48A
100
AcDbEntity
  8
M0
 62
     6
100
AcDbLine
 10
111.593064
 20
350.460501
 11
112.409333
 21
347.813193
  0
LINE
  5
48B
100
AcDbEntity
  8
M0
 62
     6
100
AcDbLine
 10
111.593064
 20
342.565878
 11
112.409333
 21
345.213217
  0
LINE
  5
48C
100
AcDbEntity
  8
M0
 62
     6
100
AcDbLine
 10
106.153382
 20
342.213217
 11
111.115251
 21
342.213217
  0
LINE
  5
48D
100
AcDbEntity
  8
M0
 62
     6
100
AcDbLine
 10
112.409333
 20
345.213217
 11
112.409333
 21
347.813193
  0
LINE
  5
48E
100
AcDbEntity
  8
M0
 62
     6
100
AcDbLine
 10
111.115251
 20
350.813193
 11
106.153382
 21
350.813177
  0
LINE
  5
48F
100
AcDbEntity
  8
M0
 62
     6
100
AcDbLine
 10
104.85933
 20
347.813193
 11
104.85933
 21
345.213217
  0
LINE
  5
490
100
AcDbEntity
  8
M0
  6
DASHDOT
 62
     6
100
AcDbLine
 10
102.35933
 20
346.513144
 11
114.909333
 21
346.513144
  0
LINE
  5
491
100
AcDbEntity
  8
M0
  6
DASHDOT
 62
     6
100
AcDbLine
 10
108.634339
 20
339.713232
 11
108.634339
 21
353.313193
  0
LINE
  5
492
100
AcDbEntity
  8
M0
 62
     6
100
AcDbLine
 10
110.225114
 20
344.922323
 11
107.043305
 21
348.104086
  0
LINE
  5
493
100
AcDbEntity
  8
M0
 62
     6
100
AcDbLine
 10
108.987748
 20
347.927328
 11
107.220078
 21
346.159628
  0
LINE
  5
494
100
AcDbEntity
  8
M0
 62
     6
100
AcDbLine
 10
110.048356
 20
346.866659
 11
108.280732
 21
345.099081
  0
ARC
  5
495
100
AcDbEntity
  8
M0
 62
     6
100
AcDbCircle
 10
106.153382
 20
350.313177
 40
0.5
100
AcDbArc
 50
90.0
 51
162.867254
  0
ARC
  5
496
100
AcDbEntity
  8
M0
 62
     6
100
AcDbCircle
 10
106.153382
 20
342.713217
 40
0.5
100
AcDbArc
 50
197.137551
 51
270.0
  0
ARC
  5
497
100
AcDbEntity
  8
M0
 62
     6
100
AcDbCircle
 10
111.115251
 20
342.713217
 40
0.5
100
AcDbArc
 50
270.0
 51
342.859508
  0
ARC
  5
498
100
AcDbEntity
  8
M0
 62
     6
100
AcDbCircle
 10
111.115251
 20
350.313177
 40
0.5
100
AcDbArc
 50
17.134755
 51
90.0
  0
LINE
  5
499
100
AcDbEntity
  8
M0
  6
DASHDOT
 62
     6
100
AcDbLine
 10
128.634309
 20
339.713217
 11
128.634339
 21
353.313177
  0
CIRCLE
  5
49A
100
AcDbEntity
  8
M0
 62
     6
100
AcDbCircle
 10
118.634339
 20
346.513144
 40
3.0
  0
LINE
  5
49B
100
AcDbEntity
  8
M0
 62
     6
100
AcDbLine
 10
115.675584
 20
350.460486
 11
114.85933
 21
347.813193
  0
LINE
  5
49C
100
AcDbEntity
  8
M0
 62
     6
100
AcDbLine
 10
115.675584
 20
342.565893
 11
114.85933
 21
345.213217
  0
LINE
  5
49D
100
AcDbEntity
  8
M0
 62
     6
100
AcDbLine
 10
121.593064
 20
350.460501
 11
122.409333
 21
347.813193
  0
LINE
  5
49E
100
AcDbEntity
  8
M0
 62
     6
100
AcDbLine
 10
121.593064
 20
342.565878
 11
122.409333
 21
345.213217
  0
LINE
  5
49F
100
AcDbEntity
  8
M0
 62
     6
100
AcDbLine
 10
116.153382
 20
342.213217
 11
121.115251
 21
342.213217
  0
LINE
  5
4A0
100
AcDbEntity
  8
M0
 62
     6
100
AcDbLine
 10
122.409333
 20
345.213217
 11
122.409333
 21
347.813193
  0
LINE
  5
4A1
100
AcDbEntity
  8
M0
 62
     6
100
AcDbLine
 10
121.115251
 20
350.813193
 11
116.153382
 21
350.813177
  0
LINE
  5
4A2
100
AcDbEntity
  8
M0
 62
     6
100
AcDbLine
 10
114.85933
 20
347.813193
 11
114.85933
 21
345.213217
  0
LINE
  5
4A3
100
AcDbEntity
  8
M0
  6
DASHDOT
 62
     6
100
AcDbLine
 10
112.35933
 20
346.513144
 11
124.909333
 21
346.513144
  0
LINE
  5
4A4
100
AcDbEntity
  8
M0
  6
DASHDOT
 62
     6
100
AcDbLine
 10
118.634339
 20
339.713232
 11
118.634339
 21
353.313193
  0
LINE
  5
4A5
100
AcDbEntity
  8
M0
 62
     6
100
AcDbLine
 10
120.225114
 20
344.922323
 11
117.043305
 21
348.104086
  0
LINE
  5
4A6
100
AcDbEntity
  8
M0
 62
     6
100
AcDbLine
 10
118.987748
 20
347.927328
 11
117.220078
 21
346.159628
  0
LINE
  5
4A7
100
AcDbEntity
  8
M0
 62
     6
100
AcDbLine
 10
120.048356
 20
346.866659
 11
118.280732
 21
345.099081
  0
ARC
  5
4A8
100
AcDbEntity
  8
M0
 62
     6
100
AcDbCircle
 10
116.153382
 20
350.313177
 40
0.5
100
AcDbArc
 50
90.0
 51
162.867254
  0
ARC
  5
4A9
100
AcDbEntity
  8
M0
 62
     6
100
AcDbCircle
 10
116.153382
 20
342.713217
 40
0.5
100
AcDbArc
 50
197.137551
 51
270.0
  0
ARC
  5
4AA
100
AcDbEntity
  8
M0
 62
     6
100
AcDbCircle
 10
121.115251
 20
342.713217
 40
0.5
100
AcDbArc
 50
270.0
 51
342.859508
  0
ARC
  5
4AB
100
AcDbEntity
  8
M0
 62
     6
100
AcDbCircle
 10
121.115251
 20
350.313177
 40
0.5
100
AcDbArc
 50
17.134755
 51
90.0
  0
LINE
  5
4AC
100
AcDbEntity
  8
M0
 62
     6
100
AcDbLine
 10
115.537614
 20
342.013052
 11
114.85933
 21
339.813193
  0
LINE
  5
4AD
100
AcDbEntity
  8
M0
 62
     6
100
AcDbLine
 10
115.317116
 20
335.728497
 11
114.85933
 21
337.213217
  0
LINE
  5
4AE
100
AcDbEntity
  8
M0
 62
     6
100
AcDbLine
 10
121.731019
 20
342.013052
 11
122.409333
 21
339.813193
  0
LINE
  5
4AF
100
AcDbEntity
  8
M0
 62
     6
100
AcDbLine
 10
121.593064
 20
334.565878
 11
122.409333
 21
337.213217
  0
LINE
  5
4B0
100
AcDbEntity
  8
M0
 62
     6
100
AcDbLine
 10
118.400524
 20
334.213217
 11
121.115251
 21
334.213217
  0
LINE
  5
4B1
100
AcDbEntity
  8
M0
 62
     6
100
AcDbLine
 10
122.409333
 20
337.213217
 11
122.409333
 21
339.813193
  0
LINE
  5
4B2
100
AcDbEntity
  8
M0
 62
     6
100
AcDbLine
 10
114.85933
 20
339.813193
 11
114.85933
 21
337.213217
  0
LINE
  5
4B3
100
AcDbEntity
  8
M0
  6
DASHDOT
 62
     6
100
AcDbLine
 10
112.35933
 20
338.513144
 11
124.909333
 21
338.513144
  0
LINE
  5
4B4
100
AcDbEntity
  8
M0
  6
DASHDOT
 62
     6
100
AcDbLine
 10
118.634339
 20
331.713232
 11
118.634339
 21
345.313193
  0
ARC
  5
4B5
100
AcDbEntity
  8
M0
 62
     6
100
AcDbCircle
 10
121.115251
 20
334.713217
 40
0.5
100
AcDbArc
 50
270.0
 51
342.859476
  0
ARC
  5
4B6
100
AcDbEntity
  8
M0
 62
     6
100
AcDbCircle
 10
118.634339
 20
338.513144
 40
3.0
100
AcDbArc
 50
122.23109
 51
218.050032
  0
ARC
  5
4B7
100
AcDbEntity
  8
M0
 62
     6
100
AcDbCircle
 10
118.634339
 20
338.513144
 40
3.0
100
AcDbArc
 50
284.336676
 51
417.76891
  0
CIRCLE
  5
4B8
100
AcDbEntity
  8
M0
 62
     6
100
AcDbCircle
 10
138.634339
 20
346.513144
 40
3.0
  0
LINE
  5
4B9
100
AcDbEntity
  8
M0
 62
     6
100
AcDbLine
 10
135.675584
 20
350.460486
 11
134.85933
 21
347.813193
  0
LINE
  5
4BA
100
AcDbEntity
  8
M0
 62
     6
100
AcDbLine
 10
135.675584
 20
342.565893
 11
134.85933
 21
345.213217
  0
LINE
  5
4BB
100
AcDbEntity
  8
M0
 62
     6
100
AcDbLine
 10
141.593064
 20
350.460501
 11
142.409333
 21
347.813193
  0
LINE
  5
4BC
100
AcDbEntity
  8
M0
 62
     6
100
AcDbLine
 10
141.593064
 20
342.565878
 11
142.409333
 21
345.213217
  0
LINE
  5
4BD
100
AcDbEntity
  8
M0
 62
     6
100
AcDbLine
 10
136.153382
 20
342.213217
 11
141.115251
 21
342.213217
  0
LINE
  5
4BE
100
AcDbEntity
  8
M0
 62
     6
100
AcDbLine
 10
142.409333
 20
345.213217
 11
142.409333
 21
347.813193
  0
LINE
  5
4BF
100
AcDbEntity
  8
M0
 62
     6
100
AcDbLine
 10
141.115251
 20
350.813193
 11
136.153382
 21
350.813177
  0
LINE
  5
4C0
100
AcDbEntity
  8
M0
 62
     6
100
AcDbLine
 10
134.85933
 20
347.813193
 11
134.85933
 21
345.213217
  0
LINE
  5
4C1
100
AcDbEntity
  8
M0
  6
DASHDOT
 62
     6
100
AcDbLine
 10
122.35933
 20
346.513144
 11
134.909333
 21
346.513144
  0
LINE
  5
4C2
100
AcDbEntity
  8
M0
 62
     6
100
AcDbLine
 10
140.225114
 20
344.922323
 11
137.043305
 21
348.104086
  0
LINE
  5
4C3
100
AcDbEntity
  8
M0
 62
     6
100
AcDbLine
 10
138.987748
 20
347.927328
 11
137.220078
 21
346.159628
  0
LINE
  5
4C4
100
AcDbEntity
  8
M0
 62
     6
100
AcDbLine
 10
140.048356
 20
346.866659
 11
138.280732
 21
345.099081
  0
ARC
  5
4C5
100
AcDbEntity
  8
M0
 62
     6
100
AcDbCircle
 10
136.153382
 20
350.313177
 40
0.5
100
AcDbArc
 50
90.0
 51
162.86739
  0
ARC
  5
4C6
100
AcDbEntity
  8
M0
 62
     6
100
AcDbCircle
 10
136.153382
 20
342.713217
 40
0.5
100
AcDbArc
 50
197.137519
 51
270.0
  0
ARC
  5
4C7
100
AcDbEntity
  8
M0
 62
     6
100
AcDbCircle
 10
141.115251
 20
342.713217
 40
0.5
100
AcDbArc
 50
270.0
 51
342.859476
  0
ARC
  5
4C8
100
AcDbEntity
  8
M0
 62
     6
100
AcDbCircle
 10
141.115251
 20
350.313177
 40
0.5
100
AcDbArc
 50
17.134787
 51
90.0
  0
LINE
  5
4C9
100
AcDbEntity
  8
M0
 62
     1
100
AcDbLine
 10
130.058693
 20
335.01322
 11
136.705703
 21
335.01322
  0
LINE
  5
4CA
100
AcDbEntity
  8
M0
 62
     1
100
AcDbLine
 10
130.584336
 20
337.313208
 11
132.626267
 21
337.313208
  0
LINE
  5
4CB
100
AcDbEntity
  8
M0
 62
     1
100
AcDbLine
 10
136.884339
 20
337.513144
 11
136.884339
 21
340.013144
  0
ARC
  5
4CC
100
AcDbEntity
  8
M0
 62
     1
100
AcDbCircle
 10
130.584336
 20
337.513205
 40
0.2
100
AcDbArc
 50
179.999727
 51
270.0
  0
ARC
  5
4CD
100
AcDbEntity
  8
M0
 62
     1
100
AcDbCircle
 10
136.684327
 20
337.513205
 40
0.2
100
AcDbArc
 50
270.0
 51
360.0
  0
LINE
  5
4CE
100
AcDbEntity
  8
M0
 62
     1
100
AcDbLine
 10
130.384309
 20
340.013144
 11
130.384339
 21
337.513144
  0
LINE
  5
4CF
100
AcDbEntity
  8
M0
 62
     1
100
AcDbLine
 10
134.684403
 20
337.313208
 11
136.684327
 21
337.313208
  0
CIRCLE
  5
4D0
100
AcDbEntity
  8
M0
 62
     6
100
AcDbCircle
 10
148.634339
 20
346.513144
 40
3.0
  0
LINE
  5
4D1
100
AcDbEntity
  8
M0
 62
     6
100
AcDbLine
 10
145.675584
 20
350.460486
 11
144.85933
 21
347.813193
  0
LINE
  5
4D2
100
AcDbEntity
  8
M0
 62
     6
100
AcDbLine
 10
145.675584
 20
342.565893
 11
144.85933
 21
345.213217
  0
LINE
  5
4D3
100
AcDbEntity
  8
M0
 62
     6
100
AcDbLine
 10
151.593064
 20
350.460501
 11
152.409333
 21
347.813193
  0
LINE
  5
4D4
100
AcDbEntity
  8
M0
 62
     6
100
AcDbLine
 10
151.593064
 20
342.565878
 11
152.409333
 21
345.213217
  0
LINE
  5
4D5
100
AcDbEntity
  8
M0
 62
     6
100
AcDbLine
 10
146.153382
 20
342.213217
 11
151.115251
 21
342.213217
  0
LINE
  5
4D6
100
AcDbEntity
  8
M0
 62
     6
100
AcDbLine
 10
152.409333
 20
345.213217
 11
152.409333
 21
347.813193
  0
LINE
  5
4D7
100
AcDbEntity
  8
M0
 62
     6
100
AcDbLine
 10
151.115251
 20
350.813193
 11
146.153382
 21
350.813177
  0
LINE
  5
4D8
100
AcDbEntity
  8
M0
 62
     6
100
AcDbLine
 10
144.85933
 20
347.813193
 11
144.85933
 21
345.213217
  0
LINE
  5
4D9
100
AcDbEntity
  8
M0
  6
DASHDOT
 62
     6
100
AcDbLine
 10
142.35933
 20
346.513144
 11
154.909333
 21
346.513144
  0
LINE
  5
4DA
100
AcDbEntity
  8
M0
  6
DASHDOT
 62
     6
100
AcDbLine
 10
148.634339
 20
339.713232
 11
148.634339
 21
353.313193
  0
LINE
  5
4DB
100
AcDbEntity
  8
M0
 62
     6
100
AcDbLine
 10
150.225114
 20
344.922323
 11
147.043305
 21
348.104086
  0
LINE
  5
4DC
100
AcDbEntity
  8
M0
 62
     6
100
AcDbLine
 10
148.987748
 20
347.927328
 11
147.220078
 21
346.159628
  0
LINE
  5
4DD
100
AcDbEntity
  8
M0
 62
     6
100
AcDbLine
 10
150.048356
 20
346.866659
 11
148.280732
 21
345.099081
  0
ARC
  5
4DE
100
AcDbEntity
  8
M0
 62
     6
100
AcDbCircle
 10
146.153382
 20
350.313177
 40
0.5
100
AcDbArc
 50
90.0
 51
162.86739
  0
ARC
  5
4DF
100
AcDbEntity
  8
M0
 62
     6
100
AcDbCircle
 10
146.153382
 20
342.713217
 40
0.5
100
AcDbArc
 50
197.137519
 51
270.0
  0
ARC
  5
4E0
100
AcDbEntity
  8
M0
 62
     6
100
AcDbCircle
 10
151.115251
 20
342.713217
 40
0.5
100
AcDbArc
 50
270.0
 51
342.859476
  0
ARC
  5
4E1
100
AcDbEntity
  8
M0
 62
     6
100
AcDbCircle
 10
151.115251
 20
350.313177
 40
0.5
100
AcDbArc
 50
17.134787
 51
90.0
  0
CIRCLE
  5
4E2
100
AcDbEntity
  8
M0
 62
     6
100
AcDbCircle
 10
158.634339
 20
346.513144
 40
3.0
  0
LINE
  5
4E3
100
AcDbEntity
  8
M0
 62
     6
100
AcDbLine
 10
155.675584
 20
350.460486
 11
154.85933
 21
347.813193
  0
LINE
  5
4E4
100
AcDbEntity
  8
M0
 62
     6
100
AcDbLine
 10
155.675584
 20
342.565893
 11
154.85933
 21
345.213217
  0
LINE
  5
4E5
100
AcDbEntity
  8
M0
 62
     6
100
AcDbLine
 10
161.593064
 20
350.460501
 11
162.409333
 21
347.813193
  0
LINE
  5
4E6
100
AcDbEntity
  8
M0
 62
     6
100
AcDbLine
 10
161.593064
 20
342.565878
 11
162.409333
 21
345.213217
  0
LINE
  5
4E7
100
AcDbEntity
  8
M0
 62
     6
100
AcDbLine
 10
156.153382
 20
342.213217
 11
161.115251
 21
342.213217
  0
LINE
  5
4E8
100
AcDbEntity
  8
M0
 62
     6
100
AcDbLine
 10
162.409333
 20
345.213217
 11
162.409333
 21
347.813193
  0
LINE
  5
4E9
100
AcDbEntity
  8
M0
 62
     6
100
AcDbLine
 10
161.115251
 20
350.813193
 11
156.153382
 21
350.813177
  0
LINE
  5
4EA
100
AcDbEntity
  8
M0
 62
     6
100
AcDbLine
 10
154.85933
 20
347.813193
 11
154.85933
 21
345.213217
  0
LINE
  5
4EB
100
AcDbEntity
  8
M0
  6
DASHDOT
 62
     6
100
AcDbLine
 10
152.35933
 20
346.513144
 11
164.909333
 21
346.513144
  0
LINE
  5
4EC
100
AcDbEntity
  8
M0
  6
DASHDOT
 62
     6
100
AcDbLine
 10
158.634339
 20
339.713232
 11
158.634339
 21
353.313193
  0
LINE
  5
4ED
100
AcDbEntity
  8
M0
 62
     6
100
AcDbLine
 10
160.225114
 20
344.922323
 11
157.043305
 21
348.104086
  0
LINE
  5
4EE
100
AcDbEntity
  8
M0
 62
     6
100
AcDbLine
 10
158.987748
 20
347.927328
 11
157.220078
 21
346.159628
  0
LINE
  5
4EF
100
AcDbEntity
  8
M0
 62
     6
100
AcDbLine
 10
160.048356
 20
346.866659
 11
158.280732
 21
345.099081
  0
ARC
  5
4F0
100
AcDbEntity
  8
M0
 62
     6
100
AcDbCircle
 10
156.153382
 20
350.313177
 40
0.5
100
AcDbArc
 50
90.0
 51
162.86739
  0
ARC
  5
4F1
100
AcDbEntity
  8
M0
 62
     6
100
AcDbCircle
 10
156.153382
 20
342.713217
 40
0.5
100
AcDbArc
 50
197.137519
 51
270.0
  0
ARC
  5
4F2
100
AcDbEntity
  8
M0
 62
     6
100
AcDbCircle
 10
161.115251
 20
342.713217
 40
0.5
100
AcDbArc
 50
270.0
 51
342.859476
  0
ARC
  5
4F3
100
AcDbEntity
  8
M0
 62
     6
100
AcDbCircle
 10
161.115251
 20
350.313177
 40
0.5
100
AcDbArc
 50
17.134787
 51
90.0
  0
LINE
  5
4F4
100
AcDbEntity
  8
M0
  6
DASHDOT
 62
     6
100
AcDbLine
 10
138.634309
 20
339.713232
 11
138.634309
 21
353.313193
  0
ARC
  5
4F5
100
AcDbEntity
  8
M0
 62
     2
100
AcDbCircle
 10
150.637086
 20
340.513144
 40
3.499993
100
AcDbArc
 50
154.623024
 51
303.807791
  0
LINE
  5
4F6
100
AcDbEntity
  8
M0
 62
     2
100
AcDbLine
 10
149.222825
 20
341.927176
 11
152.051232
 21
339.098082
  0
LINE
  5
4F7
100
AcDbEntity
  8
M0
 62
     2
100
AcDbLine
 10
150.723557
 20
342.0129
 11
148.515763
 21
339.80538
  0
LINE
  5
4F8
100
AcDbEntity
  8
M0
 62
     2
100
AcDbLine
 10
152.584535
 20
341.045859
 11
149.929978
 21
338.391318
  0
LINE
  5
4F9
100
AcDbEntity
  8
M0
 62
     4
100
AcDbLine
 10
101.134339
 20
338.513129
 11
101.134339
 21
394.513144
  0
LINE
  5
4FA
100
AcDbEntity
  8
M0
 62
     4
100
AcDbLine
 10
38.134339
 20
394.513098
 11
38.134339
 21
338.513159
  0
LINE
  5
4FB
100
AcDbEntity
  8
M0
  6
DASHDOT
 62
     4
100
AcDbLine
 10
30.888246
 20
366.513144
 11
101.134339
 21
366.513144
  0
LINE
  5
4FC
100
AcDbEntity
  8
M0
  6
DASHDOT
 62
     4
100
AcDbLine
 10
69.634339
 20
329.013144
 11
69.634339
 21
404.013144
  0
LINE
  5
4FD
100
AcDbEntity
  8
M0
 62
     4
100
AcDbLine
 10
70.684144
 20
382.513144
 11
70.684144
 21
397.013098
  0
LINE
  5
4FE
100
AcDbEntity
  8
M0
 62
     4
100
AcDbLine
 10
78.584291
 20
382.513144
 11
78.584291
 21
398.513144
  0
LINE
  5
4FF
100
AcDbEntity
  8
M0
 62
     4
100
AcDbLine
 10
70.231912
 20
397.513129
 11
68.905038
 21
397.513129
  0
LINE
  5
500
100
AcDbEntity
  8
M0
 62
     4
100
AcDbLine
 10
71.684144
 20
381.513144
 11
77.584291
 21
381.513144
  0
ARC
  5
501
100
AcDbEntity
  8
M0
 62
     4
100
AcDbCircle
 10
71.684144
 20
382.513144
 40
1.0
100
AcDbArc
 50
180.0
 51
270.0
  0
ARC
  5
502
100
AcDbEntity
  8
M0
 62
     4
100
AcDbCircle
 10
77.584291
 20
382.513144
 40
1.0
100
AcDbArc
 50
269.915907
 51
360.0
  0
ARC
  5
503
100
AcDbEntity
  8
M0
 62
     4
100
AcDbCircle
 10
79.084291
 20
397.013129
 40
0.5
100
AcDbArc
 50
90.0
 51
180.0
  0
ARC
  5
504
100
AcDbEntity
  8
M0
 62
     4
100
AcDbCircle
 10
70.184144
 20
397.013113
 40
0.5
100
AcDbArc
 50
0.0
 51
90.0
  0
LINE
  5
505
100
AcDbEntity
  8
M0
 62
     4
100
AcDbLine
 10
40.184159
 20
395.013113
 11
38.634355
 21
395.013113
  0
LINE
  5
506
100
AcDbEntity
  8
M0
 62
     4
100
AcDbLine
 10
50.184144
 20
397.513113
 11
49.084291
 21
397.513113
  0
LINE
  5
507
100
AcDbEntity
  8
M0
 62
     4
100
AcDbLine
 10
80.184144
 20
397.513129
 11
79.084291
 21
397.513129
  0
LINE
  5
508
100
AcDbEntity
  8
M0
 62
     4
100
AcDbLine
 10
90.184144
 20
397.513129
 11
89.084291
 21
397.513129
  0
ARC
  5
509
100
AcDbEntity
  8
M0
 62
     4
100
AcDbCircle
 10
89.084291
 20
397.013129
 40
0.5
100
AcDbArc
 50
90.0
 51
180.0
  0
ARC
  5
50A
100
AcDbEntity
  8
M0
 62
     4
100
AcDbCircle
 10
59.084291
 20
397.013113
 40
0.5
100
AcDbArc
 50
90.0
 51
180.0
  0
ARC
  5
50B
100
AcDbEntity
  8
M0
 62
     4
100
AcDbCircle
 10
49.084291
 20
397.013098
 40
0.5
100
AcDbArc
 50
89.998251
 51
180.0
  0
ARC
  5
50C
100
AcDbEntity
  8
M0
 62
     4
100
AcDbCircle
 10
38.634355
 20
394.513098
 40
0.5
100
AcDbArc
 50
89.998251
 51
180.0
  0
LINE
  5
50D
100
AcDbEntity
  8
M0
 62
     4
100
AcDbLine
 10
90.684144
 20
391.013144
 11
98.584291
 21
391.013144
  0
LINE
  5
50E
100
AcDbEntity
  8
M0
 62
     4
100
AcDbLine
 10
80.684144
 20
391.013144
 11
88.584291
 21
391.013144
  0
LINE
  5
50F
100
AcDbEntity
  8
M0
 62
     4
100
AcDbLine
 10
70.684144
 20
391.013144
 11
73.037995
 21
391.013144
  0
LINE
  5
510
100
AcDbEntity
  8
M0
 62
     4
100
AcDbLine
 10
50.684144
 20
391.013144
 11
53.037995
 21
391.013144
  0
LINE
  5
511
100
AcDbEntity
  8
M0
 62
     4
100
AcDbLine
 10
48.584291
 20
391.013144
 11
40.684144
 21
391.013144
  0
LINE
  5
512
100
AcDbEntity
  8
M0
 62
     4
100
AcDbLine
 10
79.084291
 20
399.013144
 11
90.184144
 21
399.013144
  0
ARC
  5
513
100
AcDbEntity
  8
M0
 62
     4
100
AcDbCircle
 10
79.084291
 20
398.513144
 40
0.5
100
AcDbArc
 50
90.0
 51
180.0
  0
ARC
  5
514
100
AcDbEntity
  8
M0
 62
     4
100
AcDbCircle
 10
89.084291
 20
398.513144
 40
0.5
100
AcDbArc
 50
90.0
 51
180.0
  0
LINE
  5
515
100
AcDbEntity
  8
M0
 62
     4
100
AcDbLine
 10
80.684144
 20
382.513144
 11
80.684144
 21
398.513144
  0
ARC
  5
516
100
AcDbEntity
  8
M0
 62
     4
100
AcDbCircle
 10
81.684144
 20
382.513144
 40
1.0
100
AcDbArc
 50
180.0
 51
269.929895
  0
LINE
  5
517
100
AcDbEntity
  8
M0
 62
     4
100
AcDbLine
 10
81.684144
 20
381.513144
 11
87.584291
 21
381.513144
  0
ARC
  5
518
100
AcDbEntity
  8
M0
 62
     4
100
AcDbCircle
 10
87.584291
 20
382.513144
 40
1.0
100
AcDbArc
 50
269.914322
 51
360.0
  0
LINE
  5
519
100
AcDbEntity
  8
M0
 62
     4
100
AcDbLine
 10
88.584291
 20
382.513144
 11
88.584291
 21
398.513144
  0
ARC
  5
51A
100
AcDbEntity
  8
M0
 62
     4
100
AcDbCircle
 10
80.184144
 20
397.013113
 40
0.5
100
AcDbArc
 50
0.0
 51
90.0
  0
LINE
  5
51B
100
AcDbEntity
  8
M0
 62
     4
100
AcDbLine
 10
50.684144
 20
382.513144
 11
50.684144
 21
397.013083
  0
ARC
  5
51C
100
AcDbEntity
  8
M0
 62
     4
100
AcDbCircle
 10
51.684144
 20
382.513144
 40
1.0
100
AcDbArc
 50
180.0
 51
269.930059
  0
LINE
  5
51D
100
AcDbEntity
  8
M0
 62
     4
100
AcDbLine
 10
51.684144
 20
381.513144
 11
57.584291
 21
381.513144
  0
ARC
  5
51E
100
AcDbEntity
  8
M0
 62
     4
100
AcDbCircle
 10
57.584291
 20
382.513144
 40
1.0
100
AcDbArc
 50
269.887985
 51
360.0
  0
LINE
  5
51F
100
AcDbEntity
  8
M0
 62
     4
100
AcDbLine
 10
58.584291
 20
382.513144
 11
58.584291
 21
397.013113
  0
ARC
  5
520
100
AcDbEntity
  8
M0
 62
     4
100
AcDbCircle
 10
50.184144
 20
397.013098
 40
0.5
100
AcDbArc
 50
0.0
 51
89.998251
  0
LINE
  5
521
100
AcDbEntity
  8
M0
 62
     4
100
AcDbLine
 10
90.684144
 20
382.513144
 11
90.684144
 21
398.513144
  0
ARC
  5
522
100
AcDbEntity
  8
M0
 62
     4
100
AcDbCircle
 10
91.684144
 20
382.513144
 40
1.0
100
AcDbArc
 50
180.0
 51
269.92831
  0
LINE
  5
523
100
AcDbEntity
  8
M0
 62
     4
100
AcDbLine
 10
91.684144
 20
381.513144
 11
97.584291
 21
381.513144
  0
ARC
  5
524
100
AcDbEntity
  8
M0
 62
     4
100
AcDbCircle
 10
97.584291
 20
382.513144
 40
1.0
100
AcDbArc
 50
269.914322
 51
360.0
  0
LINE
  5
525
100
AcDbEntity
  8
M0
 62
     4
100
AcDbLine
 10
98.584291
 20
382.513144
 11
98.584291
 21
394.513144
  0
ARC
  5
526
100
AcDbEntity
  8
M0
 62
     4
100
AcDbCircle
 10
90.184144
 20
397.013113
 40
0.5
100
AcDbArc
 50
0.0
 51
90.0
  0
ARC
  5
527
100
AcDbEntity
  8
M0
 62
     4
100
AcDbCircle
 10
80.184144
 20
398.513144
 40
0.5
100
AcDbArc
 50
0.0
 51
90.0
  0
ARC
  5
528
100
AcDbEntity
  8
M0
 62
     4
100
AcDbCircle
 10
41.684144
 20
382.513144
 40
1.0
100
AcDbArc
 50
180.0
 51
269.969401
  0
LINE
  5
529
100
AcDbEntity
  8
M0
 62
     4
100
AcDbLine
 10
40.684144
 20
382.513144
 11
40.684144
 21
394.513083
  0
LINE
  5
52A
100
AcDbEntity
  8
M0
 62
     4
100
AcDbLine
 10
41.684144
 20
381.513144
 11
47.584291
 21
381.513144
  0
ARC
  5
52B
100
AcDbEntity
  8
M0
 62
     4
100
AcDbCircle
 10
47.584291
 20
382.513144
 40
1.0
100
AcDbArc
 50
269.927436
 51
360.0
  0
LINE
  5
52C
100
AcDbEntity
  8
M0
 62
     4
100
AcDbLine
 10
48.584291
 20
382.513144
 11
48.584291
 21
397.013098
  0
ARC
  5
52D
100
AcDbEntity
  8
M0
 62
     4
100
AcDbCircle
 10
40.184159
 20
394.513098
 40
0.5
100
AcDbArc
 50
0.0
 51
89.998251
  0
LINE
  5
52E
100
AcDbEntity
  8
M0
 62
     4
100
AcDbLine
 10
38.634339
 20
338.013144
 11
40.184388
 21
338.013144
  0
LINE
  5
52F
100
AcDbEntity
  8
M0
 62
     4
100
AcDbLine
 10
78.584535
 20
350.513144
 11
78.584535
 21
337.513174
  0
LINE
  5
530
100
AcDbEntity
  8
M0
 62
     4
100
AcDbLine
 10
70.684388
 20
350.513144
 11
70.684388
 21
337.513159
  0
LINE
  5
531
100
AcDbEntity
  8
M0
 62
     4
100
AcDbLine
 10
79.084535
 20
337.013159
 11
80.184388
 21
337.013159
  0
LINE
  5
532
100
AcDbEntity
  8
M0
 62
     4
100
AcDbLine
 10
77.584535
 20
351.513144
 11
71.684388
 21
351.513144
  0
ARC
  5
533
100
AcDbEntity
  8
M0
 62
     4
100
AcDbCircle
 10
77.584535
 20
350.513144
 40
1.0
100
AcDbArc
 50
0.0
 51
90.0
  0
ARC
  5
534
100
AcDbEntity
  8
M0
 62
     4
100
AcDbCircle
 10
71.684388
 20
350.513144
 40
1.0
100
AcDbArc
 50
89.916071
 51
179.999945
  0
ARC
  5
535
100
AcDbEntity
  8
M0
 62
     4
100
AcDbCircle
 10
70.184388
 20
337.513159
 40
0.5
100
AcDbArc
 50
270.026119
 51
360.0
  0
ARC
  5
536
100
AcDbEntity
  8
M0
 62
     4
100
AcDbCircle
 10
79.084535
 20
337.513174
 40
0.5
100
AcDbArc
 50
179.998251
 51
270.026119
  0
LINE
  5
537
100
AcDbEntity
  8
M0
 62
     4
100
AcDbLine
 10
89.084535
 20
337.013174
 11
90.184388
 21
337.013174
  0
LINE
  5
538
100
AcDbEntity
  8
M0
 62
     4
100
AcDbLine
 10
59.084536
 20
337.013159
 11
60.184389
 21
337.013159
  0
LINE
  5
539
100
AcDbEntity
  8
M0
 62
     4
100
AcDbLine
 10
49.084535
 20
337.013159
 11
50.184388
 21
337.013159
  0
ARC
  5
53A
100
AcDbEntity
  8
M0
 62
     4
100
AcDbCircle
 10
40.184388
 20
338.513159
 40
0.5
100
AcDbArc
 50
270.029726
 51
360.0
  0
ARC
  5
53B
100
AcDbEntity
  8
M0
 62
     4
100
AcDbCircle
 10
50.184388
 20
337.513159
 40
0.5
100
AcDbArc
 50
270.029726
 51
360.0
  0
ARC
  5
53C
100
AcDbEntity
  8
M0
 62
     4
100
AcDbCircle
 10
80.184388
 20
337.513174
 40
0.5
100
AcDbArc
 50
270.026119
 51
360.0
  0
ARC
  5
53D
100
AcDbEntity
  8
M0
 62
     4
100
AcDbCircle
 10
90.184388
 20
337.51319
 40
0.5
100
AcDbArc
 50
270.02448
 51
360.0
  0
LINE
  5
53E
100
AcDbEntity
  8
M0
 62
     4
100
AcDbLine
 10
48.584535
 20
342.013144
 11
40.684388
 21
342.013144
  0
LINE
  5
53F
100
AcDbEntity
  8
M0
 62
     4
100
AcDbLine
 10
58.584535
 20
342.013144
 11
56.234376
 21
342.013144
  0
LINE
  5
540
100
AcDbEntity
  8
M0
 62
     4
100
AcDbLine
 10
78.584535
 20
342.013144
 11
76.237992
 21
342.013144
  0
LINE
  5
541
100
AcDbEntity
  8
M0
 62
     4
100
AcDbLine
 10
88.584535
 20
342.013144
 11
80.684388
 21
342.013144
  0
LINE
  5
542
100
AcDbEntity
  8
M0
 62
     4
100
AcDbLine
 10
90.684388
 20
342.013144
 11
98.584535
 21
342.013144
  0
LINE
  5
543
100
AcDbEntity
  8
M0
 62
     4
100
AcDbLine
 10
55.054122
 20
334.013137
 11
49.084535
 21
334.013129
  0
ARC
  5
544
100
AcDbEntity
  8
M0
 62
     4
100
AcDbCircle
 10
50.184388
 20
334.513144
 40
0.5
100
AcDbArc
 50
270.029726
 51
360.0
  0
LINE
  5
545
100
AcDbEntity
  8
M0
 62
     4
100
AcDbLine
 10
58.584535
 20
350.513144
 11
58.584535
 21
335.369242
  0
ARC
  5
546
100
AcDbEntity
  8
M0
 62
     4
100
AcDbCircle
 10
57.584535
 20
350.513144
 40
1.0
100
AcDbArc
 50
0.0
 51
89.943938
  0
LINE
  5
547
100
AcDbEntity
  8
M0
 62
     4
100
AcDbLine
 10
57.584535
 20
351.513144
 11
51.684388
 21
351.513144
  0
ARC
  5
548
100
AcDbEntity
  8
M0
 62
     4
100
AcDbCircle
 10
51.684388
 20
350.513144
 40
1.0
100
AcDbArc
 50
89.914322
 51
179.999945
  0
LINE
  5
549
100
AcDbEntity
  8
M0
 62
     4
100
AcDbLine
 10
50.684388
 20
350.513144
 11
50.684388
 21
334.513144
  0
ARC
  5
54A
100
AcDbEntity
  8
M0
 62
     4
100
AcDbCircle
 10
59.084535
 20
337.513174
 40
0.5
100
AcDbArc
 50
179.998251
 51
270.028087
  0
LINE
  5
54B
100
AcDbEntity
  8
M0
 62
     4
100
AcDbLine
 10
88.584535
 20
350.513144
 11
88.584535
 21
337.51319
  0
ARC
  5
54C
100
AcDbEntity
  8
M0
 62
     4
100
AcDbCircle
 10
87.584535
 20
350.513144
 40
1.0
100
AcDbArc
 50
0.0
 51
89.944047
  0
LINE
  5
54D
100
AcDbEntity
  8
M0
 62
     4
100
AcDbLine
 10
87.584535
 20
351.513144
 11
81.684388
 21
351.513144
  0
ARC
  5
54E
100
AcDbEntity
  8
M0
 62
     4
100
AcDbCircle
 10
81.684388
 20
350.513144
 40
1.0
100
AcDbArc
 50
89.888094
 51
179.999945
  0
LINE
  5
54F
100
AcDbEntity
  8
M0
 62
     4
100
AcDbLine
 10
80.684388
 20
350.513144
 11
80.684388
 21
337.513174
  0
ARC
  5
550
100
AcDbEntity
  8
M0
 62
     4
100
AcDbCircle
 10
89.084535
 20
337.51319
 40
0.5
100
AcDbArc
 50
179.998251
 51
270.02448
  0
LINE
  5
551
100
AcDbEntity
  8
M0
 62
     4
100
AcDbLine
 10
48.584535
 20
350.513144
 11
48.584535
 21
334.513129
  0
ARC
  5
552
100
AcDbEntity
  8
M0
 62
     4
100
AcDbCircle
 10
47.584535
 20
350.513144
 40
1.0
100
AcDbArc
 50
0.0
 51
89.929185
  0
LINE
  5
553
100
AcDbEntity
  8
M0
 62
     4
100
AcDbLine
 10
47.584535
 20
351.513144
 11
41.684388
 21
351.513144
  0
ARC
  5
554
100
AcDbEntity
  8
M0
 62
     4
100
AcDbCircle
 10
41.684388
 20
350.513144
 40
1.0
100
AcDbArc
 50
89.914322
 51
179.999945
  0
LINE
  5
555
100
AcDbEntity
  8
M0
 62
     4
100
AcDbLine
 10
40.684388
 20
350.513144
 11
40.684388
 21
338.513159
  0
ARC
  5
556
100
AcDbEntity
  8
M0
 62
     4
100
AcDbCircle
 10
49.084535
 20
337.513174
 40
0.5
100
AcDbArc
 50
179.998251
 51
270.029726
  0
ARC
  5
557
100
AcDbEntity
  8
M0
 62
     4
100
AcDbCircle
 10
97.584535
 20
350.513144
 40
1.0
100
AcDbArc
 50
0.0
 51
89.972024
  0
LINE
  5
558
100
AcDbEntity
  8
M0
 62
     4
100
AcDbLine
 10
98.584535
 20
350.513144
 11
98.584535
 21
338.513144
  0
LINE
  5
559
100
AcDbEntity
  8
M0
 62
     4
100
AcDbLine
 10
97.584535
 20
351.513144
 11
91.684388
 21
351.513144
  0
ARC
  5
55A
100
AcDbEntity
  8
M0
 62
     4
100
AcDbCircle
 10
91.684388
 20
350.513144
 40
1.0
100
AcDbArc
 50
89.930059
 51
179.999945
  0
LINE
  5
55B
100
AcDbEntity
  8
M0
 62
     4
100
AcDbLine
 10
90.684388
 20
350.513144
 11
90.684388
 21
337.51319
  0
ARC
  5
55C
100
AcDbEntity
  8
M0
 62
     4
100
AcDbCircle
 10
38.634339
 20
338.513159
 40
0.5
100
AcDbArc
 50
179.998251
 51
270.029726
  0
LINE
  5
55D
100
AcDbEntity
  8
M0
 62
     4
100
AcDbLine
 10
66.634339
 20
362.863135
 11
68.634339
 21
362.863135
  0
LINE
  5
55E
100
AcDbEntity
  8
M0
 62
     4
100
AcDbLine
 10
72.634339
 20
363.363135
 11
72.634339
 21
369.163107
  0
LINE
  5
55F
100
AcDbEntity
  8
M0
 62
     4
100
AcDbLine
 10
72.134339
 20
369.663138
 11
70.634339
 21
369.663122
  0
LINE
  5
560
100
AcDbEntity
  8
M0
 62
     4
100
AcDbLine
 10
66.134339
 20
369.163107
 11
66.134339
 21
363.363135
  0
ARC
  5
561
100
AcDbEntity
  8
M0
 62
     4
100
AcDbCircle
 10
72.134339
 20
363.363135
 40
0.5
100
AcDbArc
 50
270.0
 51
360.0
  0
ARC
  5
562
100
AcDbEntity
  8
M0
 62
     4
100
AcDbCircle
 10
72.134339
 20
369.163122
 40
0.5
100
AcDbArc
 50
0.0
 51
90.0
  0
ARC
  5
563
100
AcDbEntity
  8
M0
 62
     4
100
AcDbCircle
 10
66.634339
 20
369.163121
 40
0.5
100
AcDbArc
 50
90.0
 51
180.0
  0
ARC
  5
564
100
AcDbEntity
  8
M0
 62
     4
100
AcDbCircle
 10
66.63434
 20
363.363135
 40
0.5
100
AcDbArc
 50
179.999891
 51
270.0
  0
ARC
  5
565
100
AcDbEntity
  8
M0
 62
     4
100
AcDbCircle
 10
69.084565
 20
397.013113
 40
0.5
100
AcDbArc
 50
90.0
 51
180.0
  0
LINE
  5
566
100
AcDbEntity
  8
M0
 62
     4
100
AcDbLine
 10
68.584565
 20
382.513144
 11
68.584565
 21
397.013098
  0
LINE
  5
567
100
AcDbEntity
  8
M0
 62
     4
100
AcDbLine
 10
68.584565
 20
391.013144
 11
66.237992
 21
391.013144
  0
LINE
  5
568
100
AcDbEntity
  8
M0
 62
     4
100
AcDbLine
 10
67.584565
 20
381.513144
 11
61.684419
 21
381.513144
  0
ARC
  5
569
100
AcDbEntity
  8
M0
 62
     4
100
AcDbCircle
 10
67.584565
 20
382.513144
 40
1.0
100
AcDbArc
 50
-90.0
 51
0.0
  0
ARC
  5
56A
100
AcDbEntity
  8
M0
 62
     4
100
AcDbCircle
 10
61.684419
 20
382.513144
 40
1.0
100
AcDbArc
 50
180.0
 51
270.084804
  0
LINE
  5
56B
100
AcDbEntity
  8
M0
 62
     4
100
AcDbLine
 10
60.684419
 20
382.513144
 11
60.684419
 21
397.013129
  0
LINE
  5
56C
100
AcDbEntity
  8
M0
 62
     4
100
AcDbLine
 10
60.684419
 20
382.513144
 11
60.684419
 21
397.013129
  0
ARC
  5
56D
100
AcDbEntity
  8
M0
 62
     4
100
AcDbCircle
 10
60.184419
 20
397.013129
 40
0.5
100
AcDbArc
 50
0.0
 51
90.0
  0
LINE
  5
56E
100
AcDbEntity
  8
M0
 62
     4
100
AcDbLine
 10
60.684403
 20
350.513144
 11
60.684403
 21
335.013144
  0
ARC
  5
56F
100
AcDbEntity
  8
M0
 62
     4
100
AcDbCircle
 10
61.684403
 20
350.513144
 40
1.0
100
AcDbArc
 50
89.915142
 51
179.999945
  0
LINE
  5
570
100
AcDbEntity
  8
M0
 62
     4
100
AcDbLine
 10
67.58455
 20
351.513144
 11
61.684403
 21
351.513144
  0
ARC
  5
571
100
AcDbEntity
  8
M0
 62
     4
100
AcDbCircle
 10
67.58455
 20
350.513144
 40
1.0
100
AcDbArc
 50
0.0
 51
90.0
  0
LINE
  5
572
100
AcDbEntity
  8
M0
 62
     4
100
AcDbLine
 10
68.58455
 20
350.513144
 11
68.58455
 21
337.513174
  0
LINE
  5
573
100
AcDbEntity
  8
M0
 62
     4
100
AcDbLine
 10
68.584535
 20
342.013144
 11
66.237992
 21
342.013144
  0
ARC
  5
574
100
AcDbEntity
  8
M0
 62
     4
100
AcDbCircle
 10
69.084535
 20
337.513174
 40
0.5
100
AcDbArc
 50
179.998251
 51
270.0
  0
ARC
  5
575
100
AcDbEntity
  8
M0
 62
     4
100
AcDbCircle
 10
60.184388
 20
337.513159
 40
0.5
100
AcDbArc
 50
270.0
 51
360.0
  0
ARC
  5
576
100
AcDbEntity
  8
M0
 62
     4
100
AcDbCircle
 10
90.184144
 20
398.513144
 40
0.5
100
AcDbArc
 50
0.0
 51
90.0
  0
LINE
  5
577
100
AcDbEntity
  8
M0
 62
     4
100
AcDbLine
 10
99.084535
 20
338.013144
 11
100.634339
 21
338.013144
  0
LINE
  5
578
100
AcDbEntity
  8
M0
 62
     4
100
AcDbLine
 10
99.084291
 20
395.013144
 11
100.634339
 21
395.013144
  0
ARC
  5
579
100
AcDbEntity
  8
M0
 62
     4
100
AcDbCircle
 10
100.634339
 20
394.513144
 40
0.5
100
AcDbArc
 50
0.0
 51
90.0
  0
ARC
  5
57A
100
AcDbEntity
  8
M0
 62
     4
100
AcDbCircle
 10
99.084291
 20
394.513144
 40
0.5
100
AcDbArc
 50
90.0
 51
180.0
  0
ARC
  5
57B
100
AcDbEntity
  8
M0
 62
     4
100
AcDbCircle
 10
99.084535
 20
338.513144
 40
0.5
100
AcDbArc
 50
179.998251
 51
269.998251
  0
ARC
  5
57C
100
AcDbEntity
  8
M0
 62
     4
100
AcDbCircle
 10
100.634339
 20
338.513144
 40
0.5
100
AcDbArc
 50
269.998251
 51
360.0
  0
ARC
  5
57D
100
AcDbEntity
  8
M0
 62
     4
100
AcDbCircle
 10
49.084535
 20
334.513129
 40
0.5
100
AcDbArc
 50
179.998251
 51
270.0
  0
LINE
  5
57E
100
AcDbEntity
  8
M0
 62
     4
100
AcDbLine
 10
68.634339
 20
369.663122
 11
68.634339
 21
368.513144
  0
LINE
  5
57F
100
AcDbEntity
  8
M0
 62
     4
100
AcDbLine
 10
70.634339
 20
369.663122
 11
70.634339
 21
368.513144
  0
LINE
  5
580
100
AcDbEntity
  8
M0
 62
     4
100
AcDbLine
 10
68.634339
 20
364.513144
 11
70.634339
 21
364.513144
  0
LINE
  5
581
100
AcDbEntity
  8
M0
 62
     4
100
AcDbLine
 10
68.634339
 20
368.513144
 11
70.634339
 21
368.513144
  0
LINE
  5
582
100
AcDbEntity
  8
M0
 62
     4
100
AcDbLine
 10
70.634339
 20
362.863135
 11
72.134339
 21
362.863135
  0
LINE
  5
583
100
AcDbEntity
  8
M0
 62
     4
100
AcDbLine
 10
68.634339
 20
369.663122
 11
66.634339
 21
369.663122
  0
LINE
  5
584
100
AcDbEntity
  8
M0
 62
     4
100
AcDbLine
 10
68.634339
 20
364.513144
 11
68.634339
 21
362.863135
  0
LINE
  5
585
100
AcDbEntity
  8
M0
 62
     4
100
AcDbLine
 10
70.634339
 20
364.513144
 11
70.634339
 21
362.863135
  0
LINE
  5
586
100
AcDbEntity
  8
M0
 62
     4
100
AcDbLine
 10
76.237992
 20
391.013144
 11
78.584291
 21
391.013144
  0
LINE
  5
587
100
AcDbEntity
  8
M0
 62
     4
100
AcDbLine
 10
63.037995
 20
391.013144
 11
60.684419
 21
391.013144
  0
LINE
  5
588
100
AcDbEntity
  8
M0
 62
     4
100
AcDbLine
 10
56.237992
 20
391.013144
 11
58.584291
 21
391.013144
  0
LINE
  5
589
100
AcDbEntity
  8
M0
 62
     4
100
AcDbLine
 10
60.184419
 20
397.513129
 11
59.084291
 21
397.513129
  0
LINE
  5
58A
100
AcDbEntity
  8
M0
 62
     4
100
AcDbLine
 10
73.037995
 20
342.013144
 11
70.684388
 21
342.013144
  0
LINE
  5
58B
100
AcDbEntity
  8
M0
 62
     4
100
AcDbLine
 10
63.037995
 20
342.013144
 11
60.684388
 21
342.013144
  0
LINE
  5
58C
100
AcDbEntity
  8
M0
 62
     4
100
AcDbLine
 10
53.034379
 20
342.013144
 11
50.684388
 21
342.013144
  0
CIRCLE
  5
58D
100
AcDbEntity
  8
M0
 62
     6
100
AcDbCircle
 10
94.634339
 20
386.5129
 40
3.0
  0
LINE
  5
58E
100
AcDbEntity
  8
M0
 62
     6
100
AcDbLine
 10
91.675584
 20
390.460242
 11
90.85933
 21
387.812948
  0
LINE
  5
58F
100
AcDbEntity
  8
M0
 62
     6
100
AcDbLine
 10
91.675584
 20
382.565649
 11
90.85933
 21
385.212973
  0
LINE
  5
590
100
AcDbEntity
  8
M0
 62
     6
100
AcDbLine
 10
97.593064
 20
390.460257
 11
98.409333
 21
387.812948
  0
LINE
  5
591
100
AcDbEntity
  8
M0
 62
     6
100
AcDbLine
 10
97.593064
 20
382.565634
 11
98.409333
 21
385.212973
  0
LINE
  5
592
100
AcDbEntity
  8
M0
 62
     6
100
AcDbLine
 10
92.153382
 20
382.212973
 11
97.115251
 21
382.212973
  0
LINE
  5
593
100
AcDbEntity
  8
M0
 62
     6
100
AcDbLine
 10
98.409333
 20
385.212973
 11
98.409333
 21
387.812948
  0
LINE
  5
594
100
AcDbEntity
  8
M0
 62
     6
100
AcDbLine
 10
97.115251
 20
390.812948
 11
92.153382
 21
390.812933
  0
LINE
  5
595
100
AcDbEntity
  8
M0
 62
     6
100
AcDbLine
 10
90.85933
 20
387.812948
 11
90.85933
 21
385.212973
  0
LINE
  5
596
100
AcDbEntity
  8
M0
  6
DASHDOT
 62
     6
100
AcDbLine
 10
88.35933
 20
386.5129
 11
100.909333
 21
386.5129
  0
LINE
  5
597
100
AcDbEntity
  8
M0
  6
DASHDOT
 62
     6
100
AcDbLine
 10
94.634339
 20
379.712988
 11
94.634339
 21
393.312948
  0
LINE
  5
598
100
AcDbEntity
  8
M0
 62
     6
100
AcDbLine
 10
96.225114
 20
384.922079
 11
93.043305
 21
388.103842
  0
LINE
  5
599
100
AcDbEntity
  8
M0
 62
     6
100
AcDbLine
 10
94.987748
 20
387.927084
 11
93.220078
 21
386.159384
  0
LINE
  5
59A
100
AcDbEntity
  8
M0
 62
     6
100
AcDbLine
 10
96.048356
 20
386.866415
 11
94.280732
 21
385.098837
  0
ARC
  5
59B
100
AcDbEntity
  8
M0
 62
     6
100
AcDbCircle
 10
92.153382
 20
390.312933
 40
0.5
100
AcDbArc
 50
90.0
 51
162.86739
  0
ARC
  5
59C
100
AcDbEntity
  8
M0
 62
     6
100
AcDbCircle
 10
92.153382
 20
382.712973
 40
0.5
100
AcDbArc
 50
197.137519
 51
270.0
  0
ARC
  5
59D
100
AcDbEntity
  8
M0
 62
     6
100
AcDbCircle
 10
97.115251
 20
382.712973
 40
0.5
100
AcDbArc
 50
270.0
 51
342.859476
  0
ARC
  5
59E
100
AcDbEntity
  8
M0
 62
     6
100
AcDbCircle
 10
97.115251
 20
390.312933
 40
0.5
100
AcDbArc
 50
17.134787
 51
90.0
  0
LINE
  5
59F
100
AcDbEntity
  8
M0
  6
DASHDOT
 62
     6
100
AcDbLine
 10
74.634339
 20
379.712988
 11
74.634339
 21
393.312948
  0
CIRCLE
  5
5A0
100
AcDbEntity
  8
M0
 62
     6
100
AcDbCircle
 10
84.634339
 20
386.5129
 40
3.0
  0
LINE
  5
5A1
100
AcDbEntity
  8
M0
 62
     6
100
AcDbLine
 10
81.675584
 20
390.460242
 11
80.85933
 21
387.812948
  0
LINE
  5
5A2
100
AcDbEntity
  8
M0
 62
     6
100
AcDbLine
 10
81.675584
 20
382.565649
 11
80.85933
 21
385.212973
  0
LINE
  5
5A3
100
AcDbEntity
  8
M0
 62
     6
100
AcDbLine
 10
87.593064
 20
390.460257
 11
88.409333
 21
387.812948
  0
LINE
  5
5A4
100
AcDbEntity
  8
M0
 62
     6
100
AcDbLine
 10
87.593064
 20
382.565634
 11
88.409333
 21
385.212973
  0
LINE
  5
5A5
100
AcDbEntity
  8
M0
 62
     6
100
AcDbLine
 10
82.153382
 20
382.212973
 11
87.115251
 21
382.212973
  0
LINE
  5
5A6
100
AcDbEntity
  8
M0
 62
     6
100
AcDbLine
 10
88.409333
 20
385.212973
 11
88.409333
 21
387.812948
  0
LINE
  5
5A7
100
AcDbEntity
  8
M0
 62
     6
100
AcDbLine
 10
87.115251
 20
390.812948
 11
82.153382
 21
390.812933
  0
LINE
  5
5A8
100
AcDbEntity
  8
M0
 62
     6
100
AcDbLine
 10
80.85933
 20
387.812948
 11
80.85933
 21
385.212973
  0
LINE
  5
5A9
100
AcDbEntity
  8
M0
  6
DASHDOT
 62
     6
100
AcDbLine
 10
78.35933
 20
386.5129
 11
90.909333
 21
386.5129
  0
LINE
  5
5AA
100
AcDbEntity
  8
M0
  6
DASHDOT
 62
     6
100
AcDbLine
 10
84.634339
 20
379.712988
 11
84.634339
 21
393.312948
  0
LINE
  5
5AB
100
AcDbEntity
  8
M0
 62
     6
100
AcDbLine
 10
86.225114
 20
384.922079
 11
83.043305
 21
388.103842
  0
LINE
  5
5AC
100
AcDbEntity
  8
M0
 62
     6
100
AcDbLine
 10
84.987748
 20
387.927084
 11
83.220078
 21
386.159384
  0
LINE
  5
5AD
100
AcDbEntity
  8
M0
 62
     6
100
AcDbLine
 10
86.048356
 20
386.866415
 11
84.280732
 21
385.098837
  0
ARC
  5
5AE
100
AcDbEntity
  8
M0
 62
     6
100
AcDbCircle
 10
82.153382
 20
390.312933
 40
0.5
100
AcDbArc
 50
90.0
 51
162.86739
  0
ARC
  5
5AF
100
AcDbEntity
  8
M0
 62
     6
100
AcDbCircle
 10
82.153382
 20
382.712973
 40
0.5
100
AcDbArc
 50
197.137519
 51
270.0
  0
ARC
  5
5B0
100
AcDbEntity
  8
M0
 62
     6
100
AcDbCircle
 10
87.115251
 20
382.712973
 40
0.5
100
AcDbArc
 50
270.0
 51
342.859476
  0
ARC
  5
5B1
100
AcDbEntity
  8
M0
 62
     6
100
AcDbCircle
 10
87.115251
 20
390.312933
 40
0.5
100
AcDbArc
 50
17.134787
 51
90.0
  0
CIRCLE
  5
5B2
100
AcDbEntity
  8
M0
 62
     6
100
AcDbCircle
 10
84.634339
 20
394.512656
 40
3.0
  0
LINE
  5
5B3
100
AcDbEntity
  8
M0
 62
     6
100
AcDbLine
 10
81.675584
 20
398.459997
 11
80.85933
 21
395.812704
  0
LINE
  5
5B4
100
AcDbEntity
  8
M0
 62
     6
100
AcDbLine
 10
81.537705
 20
391.012564
 11
80.85933
 21
393.212729
  0
LINE
  5
5B5
100
AcDbEntity
  8
M0
 62
     6
100
AcDbLine
 10
87.593064
 20
398.460013
 11
88.409333
 21
395.812704
  0
LINE
  5
5B6
100
AcDbEntity
  8
M0
 62
     6
100
AcDbLine
 10
87.730943
 20
391.012564
 11
88.409333
 21
393.212729
  0
LINE
  5
5B7
100
AcDbEntity
  8
M0
 62
     6
100
AcDbLine
 10
88.409333
 20
393.212729
 11
88.409333
 21
395.812704
  0
LINE
  5
5B8
100
AcDbEntity
  8
M0
 62
     6
100
AcDbLine
 10
87.115251
 20
398.812704
 11
82.153382
 21
398.812689
  0
LINE
  5
5B9
100
AcDbEntity
  8
M0
 62
     6
100
AcDbLine
 10
80.85933
 20
395.812704
 11
80.85933
 21
393.212729
  0
LINE
  5
5BA
100
AcDbEntity
  8
M0
  6
DASHDOT
 62
     6
100
AcDbLine
 10
78.35933
 20
394.512656
 11
90.909333
 21
394.512656
  0
LINE
  5
5BB
100
AcDbEntity
  8
M0
  6
DASHDOT
 62
     6
100
AcDbLine
 10
84.634339
 20
387.712744
 11
84.634339
 21
401.312704
  0
LINE
  5
5BC
100
AcDbEntity
  8
M0
 62
     6
100
AcDbLine
 10
86.225114
 20
392.921835
 11
83.043305
 21
396.103598
  0
LINE
  5
5BD
100
AcDbEntity
  8
M0
 62
     6
100
AcDbLine
 10
84.987748
 20
395.92684
 11
83.220078
 21
394.15914
  0
LINE
  5
5BE
100
AcDbEntity
  8
M0
 62
     6
100
AcDbLine
 10
86.048356
 20
394.866171
 11
84.280732
 21
393.098593
  0
ARC
  5
5BF
100
AcDbEntity
  8
M0
 62
     6
100
AcDbCircle
 10
82.153382
 20
398.312689
 40
0.5
100
AcDbArc
 50
90.0
 51
162.867254
  0
ARC
  5
5C0
100
AcDbEntity
  8
M0
 62
     6
100
AcDbCircle
 10
87.115251
 20
398.312689
 40
0.5
100
AcDbArc
 50
17.134755
 51
90.0
  0
CIRCLE
  5
5C1
100
AcDbEntity
  8
M0
 62
     6
100
AcDbCircle
 10
74.634339
 20
386.5129
 40
3.0
  0
LINE
  5
5C2
100
AcDbEntity
  8
M0
 62
     6
100
AcDbLine
 10
71.675584
 20
390.460242
 11
70.85933
 21
387.812948
  0
LINE
  5
5C3
100
AcDbEntity
  8
M0
 62
     6
100
AcDbLine
 10
71.675584
 20
382.565649
 11
70.85933
 21
385.212973
  0
LINE
  5
5C4
100
AcDbEntity
  8
M0
 62
     6
100
AcDbLine
 10
77.593064
 20
390.460257
 11
78.409333
 21
387.812948
  0
LINE
  5
5C5
100
AcDbEntity
  8
M0
 62
     6
100
AcDbLine
 10
77.593064
 20
382.565634
 11
78.409333
 21
385.212973
  0
LINE
  5
5C6
100
AcDbEntity
  8
M0
 62
     6
100
AcDbLine
 10
72.153382
 20
382.212973
 11
77.115251
 21
382.212973
  0
LINE
  5
5C7
100
AcDbEntity
  8
M0
 62
     6
100
AcDbLine
 10
78.409333
 20
385.212973
 11
78.409333
 21
387.812948
  0
LINE
  5
5C8
100
AcDbEntity
  8
M0
 62
     6
100
AcDbLine
 10
77.115251
 20
390.812948
 11
72.153382
 21
390.812933
  0
LINE
  5
5C9
100
AcDbEntity
  8
M0
 62
     6
100
AcDbLine
 10
70.85933
 20
387.812948
 11
70.85933
 21
385.212973
  0
LINE
  5
5CA
100
AcDbEntity
  8
M0
  6
DASHDOT
 62
     6
100
AcDbLine
 10
58.35933
 20
386.5129
 11
70.909333
 21
386.5129
  0
LINE
  5
5CB
100
AcDbEntity
  8
M0
 62
     6
100
AcDbLine
 10
76.225114
 20
384.922079
 11
73.043305
 21
388.103842
  0
LINE
  5
5CC
100
AcDbEntity
  8
M0
 62
     6
100
AcDbLine
 10
74.987748
 20
387.927084
 11
73.220078
 21
386.159384
  0
LINE
  5
5CD
100
AcDbEntity
  8
M0
 62
     6
100
AcDbLine
 10
76.048356
 20
386.866415
 11
74.280732
 21
385.098837
  0
ARC
  5
5CE
100
AcDbEntity
  8
M0
 62
     6
100
AcDbCircle
 10
72.153382
 20
390.312933
 40
0.5
100
AcDbArc
 50
90.0
 51
162.86739
  0
ARC
  5
5CF
100
AcDbEntity
  8
M0
 62
     6
100
AcDbCircle
 10
72.153382
 20
382.712973
 40
0.5
100
AcDbArc
 50
197.137519
 51
270.0
  0
ARC
  5
5D0
100
AcDbEntity
  8
M0
 62
     6
100
AcDbCircle
 10
77.115251
 20
382.712973
 40
0.5
100
AcDbArc
 50
270.0
 51
342.859476
  0
ARC
  5
5D1
100
AcDbEntity
  8
M0
 62
     6
100
AcDbCircle
 10
77.115251
 20
390.312933
 40
0.5
100
AcDbArc
 50
17.134787
 51
90.0
  0
LINE
  5
5D2
100
AcDbEntity
  8
M0
 62
     6
100
AcDbLine
 10
67.115357
 20
382.212973
 11
62.153489
 21
382.212973
  0
LINE
  5
5D3
100
AcDbEntity
  8
M0
 62
     6
100
AcDbLine
 10
67.593156
 20
382.565649
 11
68.40941
 21
385.212973
  0
LINE
  5
5D4
100
AcDbEntity
  8
M0
 62
     6
100
AcDbLine
 10
61.675675
 20
382.565634
 11
60.859406
 21
385.212973
  0
LINE
  5
5D5
100
AcDbEntity
  8
M0
 62
     6
100
AcDbLine
 10
61.675675
 20
390.460257
 11
60.859406
 21
387.812948
  0
LINE
  5
5D6
100
AcDbEntity
  8
M0
 62
     6
100
AcDbLine
 10
60.859406
 20
385.212973
 11
60.859406
 21
387.812948
  0
LINE
  5
5D7
100
AcDbEntity
  8
M0
 62
     6
100
AcDbLine
 10
67.593156
 20
390.460242
 11
68.40941
 21
387.812948
  0
LINE
  5
5D8
100
AcDbEntity
  8
M0
 62
     6
100
AcDbLine
 10
68.40941
 20
387.812948
 11
68.40941
 21
385.212973
  0
CIRCLE
  5
5D9
100
AcDbEntity
  8
M0
 62
     6
100
AcDbCircle
 10
64.6344
 20
386.5129
 40
3.0
  0
LINE
  5
5DA
100
AcDbEntity
  8
M0
 62
     6
100
AcDbLine
 10
63.043626
 20
384.922079
 11
66.225434
 21
388.103842
  0
LINE
  5
5DB
100
AcDbEntity
  8
M0
 62
     6
100
AcDbLine
 10
64.280992
 20
387.927084
 11
66.048661
 21
386.159384
  0
LINE
  5
5DC
100
AcDbEntity
  8
M0
 62
     6
100
AcDbLine
 10
63.220384
 20
386.866415
 11
64.988008
 21
385.098837
  0
ARC
  5
5DD
100
AcDbEntity
  8
M0
 62
     6
100
AcDbCircle
 10
67.115357
 20
382.712973
 40
0.5
100
AcDbArc
 50
270.0
 51
342.862377
  0
ARC
  5
5DE
100
AcDbEntity
  8
M0
 62
     6
100
AcDbCircle
 10
62.153489
 20
382.712973
 40
0.5
100
AcDbArc
 50
197.14201
 51
270.0
  0
LINE
  5
5DF
100
AcDbEntity
  8
M0
 62
     6
100
AcDbLine
 10
62.153489
 20
390.812948
 11
67.115357
 21
390.812933
  0
ARC
  5
5E0
100
AcDbEntity
  8
M0
 62
     6
100
AcDbCircle
 10
67.115357
 20
390.312933
 40
0.5
100
AcDbArc
 50
17.13261
 51
90.0
  0
ARC
  5
5E1
100
AcDbEntity
  8
M0
 62
     6
100
AcDbCircle
 10
62.153489
 20
390.312933
 40
0.5
100
AcDbArc
 50
90.0
 51
162.865076
  0
LINE
  5
5E2
100
AcDbEntity
  8
M0
 62
     6
100
AcDbLine
 10
61.675645
 20
342.565726
 11
60.859376
 21
345.213034
  0
LINE
  5
5E3
100
AcDbEntity
  8
M0
 62
     6
100
AcDbLine
 10
67.593125
 20
342.565741
 11
68.409379
 21
345.213034
  0
CIRCLE
  5
5E4
100
AcDbEntity
  8
M0
 62
     6
100
AcDbCircle
 10
64.63437
 20
346.513083
 40
3.0
  0
LINE
  5
5E5
100
AcDbEntity
  8
M0
 62
     6
100
AcDbLine
 10
63.220353
 20
346.159567
 11
64.987977
 21
347.927145
  0
LINE
  5
5E6
100
AcDbEntity
  8
M0
 62
     6
100
AcDbLine
 10
64.280961
 20
345.098898
 11
66.048631
 21
346.866598
  0
LINE
  5
5E7
100
AcDbEntity
  8
M0
 62
     6
100
AcDbLine
 10
63.043595
 20
348.103903
 11
66.225404
 21
344.92214
  0
LINE
  5
5E8
100
AcDbEntity
  8
M0
 62
     6
100
AcDbLine
 10
61.67566
 20
350.460348
 11
60.859376
 21
347.81301
  0
LINE
  5
5E9
100
AcDbEntity
  8
M0
 62
     6
100
AcDbLine
 10
67.115342
 20
350.81301
 11
62.153474
 21
350.81301
  0
ARC
  5
5EA
100
AcDbEntity
  8
M0
 62
     6
100
AcDbCircle
 10
62.153474
 20
350.31301
 40
0.5
100
AcDbArc
 50
90.0
 51
162.856423
  0
ARC
  5
5EB
100
AcDbEntity
  8
M0
 62
     6
100
AcDbCircle
 10
67.115342
 20
350.31301
 40
0.5
100
AcDbArc
 50
17.138146
 51
90.0
  0
LINE
  5
5EC
100
AcDbEntity
  8
M0
 62
     6
100
AcDbLine
 10
67.593141
 20
350.460333
 11
68.409379
 21
347.81301
  0
LINE
  5
5ED
100
AcDbEntity
  8
M0
 62
     6
100
AcDbLine
 10
60.859376
 20
347.81301
 11
60.859376
 21
345.213034
  0
LINE
  5
5EE
100
AcDbEntity
  8
M0
 62
     6
100
AcDbLine
 10
68.409379
 20
345.213034
 11
68.409379
 21
347.81301
  0
LINE
  5
5EF
100
AcDbEntity
  8
M0
 62
     6
100
AcDbLine
 10
62.153459
 20
342.213034
 11
67.115327
 21
342.213049
  0
ARC
  5
5F0
100
AcDbEntity
  8
M0
 62
     6
100
AcDbCircle
 10
62.153459
 20
342.713049
 40
0.5
100
AcDbArc
 50
197.134611
 51
270.0
  0
ARC
  5
5F1
100
AcDbEntity
  8
M0
 62
     6
100
AcDbCircle
 10
67.115327
 20
342.713049
 40
0.5
100
AcDbArc
 50
270.0
 51
342.868957
  0
LINE
  5
5F2
100
AcDbEntity
  8
M0
 62
     7
100
AcDbLine
 10
58.584338
 20
394.513144
 11
58.584094
 21
398.013129
  0
LINE
  5
5F3
100
AcDbEntity
  8
M0
 62
     7
100
AcDbLine
 10
58.584094
 20
398.013129
 11
57.584338
 21
399.013129
  0
LINE
  5
5F4
100
AcDbEntity
  8
M0
 62
     7
100
AcDbLine
 10
82.184327
 20
334.013144
 11
90.684327
 21
334.013144
  0
LINE
  5
5F5
100
AcDbEntity
  8
M0
 62
     7
100
AcDbLine
 10
90.684327
 20
335.013144
 11
90.684327
 21
342.013144
  0
LINE
  5
5F6
100
AcDbEntity
  8
M0
 62
     7
100
AcDbLine
 10
57.584338
 20
399.013129
 11
56.237992
 21
399.013126
  0
LINE
  5
5F7
100
AcDbEntity
  8
M0
 62
     7
100
AcDbLine
 10
48.084352
 20
397.013113
 11
48.084352
 21
391.013129
  0
ARC
  5
5F8
100
AcDbEntity
  8
M0
 62
     7
100
AcDbCircle
 10
50.084352
 20
397.013113
 40
2.0
100
AcDbArc
 50
89.999563
 51
180.0
  0
LINE
  5
5F9
100
AcDbEntity
  8
M0
 62
     7
100
AcDbLine
 10
77.684327
 20
336.013144
 11
77.684327
 21
340.013144
  0
LINE
  5
5FA
100
AcDbEntity
  8
M0
 62
     7
100
AcDbLine
 10
81.184327
 20
335.0129
 11
81.184327
 21
342.013144
  0
LINE
  5
5FB
100
AcDbEntity
  8
M0
 62
     7
100
AcDbLine
 10
81.184327
 20
335.013129
 11
82.184327
 21
334.013144
  0
LINE
  5
5FC
100
AcDbEntity
  8
M0
 62
     7
100
AcDbLine
 10
78.184327
 20
336.013144
 11
78.184327
 21
340.013144
  0
LINE
  5
5FD
100
AcDbEntity
  8
M0
 62
     7
100
AcDbLine
 10
76.237992
 20
336.013144
 11
77.684327
 21
336.013144
  0
LINE
  5
5FE
100
AcDbEntity
  8
M0
 62
     7
100
AcDbLine
 10
80.684388
 20
338.013144
 11
81.184327
 21
338.013144
  0
LINE
  5
5FF
100
AcDbEntity
  8
M0
 62
     7
100
AcDbLine
 10
78.184327
 20
336.013144
 11
81.184327
 21
336.013144
  0
LINE
  5
600
100
AcDbEntity
  8
M0
 62
     7
100
AcDbLine
 10
60.684388
 20
340.013144
 11
63.037995
 21
340.013144
  0
LINE
  5
601
100
AcDbEntity
  8
M0
 62
     7
100
AcDbLine
 10
70.684388
 20
340.013144
 11
73.037995
 21
340.013144
  0
LINE
  5
602
100
AcDbEntity
  8
M0
 62
     7
100
AcDbLine
 10
60.684144
 20
393.013144
 11
63.037995
 21
393.013144
  0
LINE
  5
603
100
AcDbEntity
  8
M0
 62
     7
100
AcDbLine
 10
70.6839
 20
393.013144
 11
73.037995
 21
393.013144
  0
LINE
  5
604
100
AcDbEntity
  8
M0
 62
     7
100
AcDbLine
 10
50.783692
 20
395.482138
 11
50.783753
 21
395.71749
  0
ARC
  5
605
100
AcDbEntity
  8
M0
 62
     7
100
AcDbCircle
 10
52.684144
 20
394.5129
 40
2.25
100
AcDbArc
 50
80.951687
 51
147.648103
  0
ARC
  5
606
100
AcDbEntity
  8
M0
 62
     7
100
AcDbCircle
 10
84.134095
 20
340.5129
 40
2.25
100
AcDbArc
 50
138.184064
 51
192.609358
  0
LINE
  5
607
100
AcDbEntity
  8
M0
 62
     7
100
AcDbLine
 10
81.938294
 20
340.021689
 11
83.64264
 21
338.317099
  0
LINE
  5
608
100
AcDbEntity
  8
M0
 62
     7
100
AcDbLine
 10
84.478578
 20
337.612997
 11
84.67772
 21
337.612997
  0
ARC
  5
609
100
AcDbEntity
  8
M0
 62
     7
100
AcDbCircle
 10
84.134095
 20
340.5129
 40
2.25
100
AcDbArc
 50
257.382805
 51
261.369552
  0
ARC
  5
60A
100
AcDbEntity
  8
M0
 62
     7
100
AcDbCircle
 10
85.6839
 20
339.5129
 40
2.25
100
AcDbArc
 50
212.975871
 51
237.61363
  0
LINE
  5
60B
100
AcDbEntity
  8
M0
 62
     7
100
AcDbLine
 10
76.237992
 20
393.013144
 11
78.584046
 21
393.013144
  0
LINE
  5
60C
100
AcDbEntity
  8
M0
 62
     7
100
AcDbLine
 10
66.237992
 20
393.013144
 11
68.584291
 21
393.013144
  0
LINE
  5
60D
100
AcDbEntity
  8
M0
 62
     7
100
AcDbLine
 10
53.037995
 20
399.013119
 11
50.084352
 21
399.013113
  0
LINE
  5
60E
100
AcDbEntity
  8
M0
 62
     7
100
AcDbLine
 10
76.237992
 20
340.013144
 11
78.584535
 21
340.013144
  0
LINE
  5
60F
100
AcDbEntity
  8
M0
 62
     7
100
AcDbLine
 10
66.237992
 20
340.013144
 11
68.584535
 21
340.013144
  0
CIRCLE
  5
610
100
AcDbEntity
  8
M0
 62
     6
100
AcDbCircle
 10
54.634339
 20
386.5129
 40
3.0
  0
LINE
  5
611
100
AcDbEntity
  8
M0
 62
     6
100
AcDbLine
 10
51.675584
 20
390.460242
 11
50.85933
 21
387.812948
  0
LINE
  5
612
100
AcDbEntity
  8
M0
 62
     6
100
AcDbLine
 10
51.675584
 20
382.565649
 11
50.85933
 21
385.212973
  0
LINE
  5
613
100
AcDbEntity
  8
M0
 62
     6
100
AcDbLine
 10
57.593064
 20
390.460257
 11
58.409333
 21
387.812948
  0
LINE
  5
614
100
AcDbEntity
  8
M0
 62
     6
100
AcDbLine
 10
57.593064
 20
382.565634
 11
58.409333
 21
385.212973
  0
LINE
  5
615
100
AcDbEntity
  8
M0
 62
     6
100
AcDbLine
 10
52.153382
 20
382.212973
 11
57.115251
 21
382.212973
  0
LINE
  5
616
100
AcDbEntity
  8
M0
 62
     6
100
AcDbLine
 10
58.409333
 20
385.212973
 11
58.409333
 21
387.812948
  0
LINE
  5
617
100
AcDbEntity
  8
M0
 62
     6
100
AcDbLine
 10
57.115251
 20
390.812948
 11
52.153382
 21
390.812933
  0
LINE
  5
618
100
AcDbEntity
  8
M0
 62
     6
100
AcDbLine
 10
50.85933
 20
387.812948
 11
50.85933
 21
385.212973
  0
LINE
  5
619
100
AcDbEntity
  8
M0
  6
DASHDOT
 62
     6
100
AcDbLine
 10
48.35933
 20
386.5129
 11
60.909333
 21
386.5129
  0
LINE
  5
61A
100
AcDbEntity
  8
M0
  6
DASHDOT
 62
     6
100
AcDbLine
 10
54.634339
 20
379.712988
 11
54.634339
 21
393.312948
  0
LINE
  5
61B
100
AcDbEntity
  8
M0
 62
     6
100
AcDbLine
 10
56.225114
 20
384.922079
 11
53.043305
 21
388.103842
  0
LINE
  5
61C
100
AcDbEntity
  8
M0
 62
     6
100
AcDbLine
 10
54.987748
 20
387.927084
 11
53.220078
 21
386.159384
  0
LINE
  5
61D
100
AcDbEntity
  8
M0
 62
     6
100
AcDbLine
 10
56.048356
 20
386.866415
 11
54.280732
 21
385.098837
  0
ARC
  5
61E
100
AcDbEntity
  8
M0
 62
     6
100
AcDbCircle
 10
52.153382
 20
390.312933
 40
0.5
100
AcDbArc
 50
90.0
 51
162.867254
  0
ARC
  5
61F
100
AcDbEntity
  8
M0
 62
     6
100
AcDbCircle
 10
52.153382
 20
382.712973
 40
0.5
100
AcDbArc
 50
197.137551
 51
270.0
  0
ARC
  5
620
100
AcDbEntity
  8
M0
 62
     6
100
AcDbCircle
 10
57.115251
 20
382.712973
 40
0.5
100
AcDbArc
 50
270.0
 51
342.859508
  0
ARC
  5
621
100
AcDbEntity
  8
M0
 62
     6
100
AcDbCircle
 10
57.115251
 20
390.312933
 40
0.5
100
AcDbArc
 50
17.134755
 51
90.0
  0
ARC
  5
622
100
AcDbEntity
  8
M0
 62
     2
100
AcDbCircle
 10
52.637086
 20
392.513144
 40
3.499993
100
AcDbArc
 50
83.422574
 51
123.918097
  0
LINE
  5
623
100
AcDbEntity
  8
M0
 62
     2
100
AcDbLine
 10
51.222825
 20
393.927176
 11
53.037995
 21
392.111565
  0
LINE
  5
624
100
AcDbEntity
  8
M0
 62
     2
100
AcDbLine
 10
53.037995
 20
394.327552
 11
50.684144
 21
391.973593
  0
LINE
  5
625
100
AcDbEntity
  8
M0
 62
     2
100
AcDbLine
 10
53.037995
 20
391.499414
 11
52.551759
 21
391.013144
  0
CIRCLE
  5
626
100
AcDbEntity
  8
M0
 62
     6
100
AcDbCircle
 10
44.634339
 20
386.5129
 40
3.0
  0
LINE
  5
627
100
AcDbEntity
  8
M0
 62
     6
100
AcDbLine
 10
41.675584
 20
390.460242
 11
40.85933
 21
387.812948
  0
LINE
  5
628
100
AcDbEntity
  8
M0
 62
     6
100
AcDbLine
 10
41.675584
 20
382.565649
 11
40.85933
 21
385.212973
  0
LINE
  5
629
100
AcDbEntity
  8
M0
 62
     6
100
AcDbLine
 10
47.593064
 20
390.460257
 11
48.409333
 21
387.812948
  0
LINE
  5
62A
100
AcDbEntity
  8
M0
 62
     6
100
AcDbLine
 10
47.593064
 20
382.565634
 11
48.409333
 21
385.212973
  0
LINE
  5
62B
100
AcDbEntity
  8
M0
 62
     6
100
AcDbLine
 10
42.153382
 20
382.212973
 11
47.115251
 21
382.212973
  0
LINE
  5
62C
100
AcDbEntity
  8
M0
 62
     6
100
AcDbLine
 10
48.409333
 20
385.212973
 11
48.409333
 21
387.812948
  0
LINE
  5
62D
100
AcDbEntity
  8
M0
 62
     6
100
AcDbLine
 10
47.115251
 20
390.812948
 11
42.153382
 21
390.812933
  0
LINE
  5
62E
100
AcDbEntity
  8
M0
 62
     6
100
AcDbLine
 10
40.85933
 20
387.812948
 11
40.85933
 21
385.212973
  0
LINE
  5
62F
100
AcDbEntity
  8
M0
  6
DASHDOT
 62
     6
100
AcDbLine
 10
38.35933
 20
386.5129
 11
50.909333
 21
386.5129
  0
LINE
  5
630
100
AcDbEntity
  8
M0
  6
DASHDOT
 62
     6
100
AcDbLine
 10
44.634339
 20
379.712988
 11
44.634339
 21
393.312948
  0
LINE
  5
631
100
AcDbEntity
  8
M0
 62
     6
100
AcDbLine
 10
46.225114
 20
384.922079
 11
43.043305
 21
388.103842
  0
LINE
  5
632
100
AcDbEntity
  8
M0
 62
     6
100
AcDbLine
 10
44.987748
 20
387.927084
 11
43.220078
 21
386.159384
  0
LINE
  5
633
100
AcDbEntity
  8
M0
 62
     6
100
AcDbLine
 10
46.048356
 20
386.866415
 11
44.280732
 21
385.098837
  0
ARC
  5
634
100
AcDbEntity
  8
M0
 62
     6
100
AcDbCircle
 10
42.153382
 20
390.312933
 40
0.5
100
AcDbArc
 50
90.0
 51
162.867254
  0
ARC
  5
635
100
AcDbEntity
  8
M0
 62
     6
100
AcDbCircle
 10
42.153382
 20
382.712973
 40
0.5
100
AcDbArc
 50
197.137551
 51
270.0
  0
ARC
  5
636
100
AcDbEntity
  8
M0
 62
     6
100
AcDbCircle
 10
47.115251
 20
382.712973
 40
0.5
100
AcDbArc
 50
270.0
 51
342.859508
  0
ARC
  5
637
100
AcDbEntity
  8
M0
 62
     6
100
AcDbCircle
 10
47.115251
 20
390.312933
 40
0.5
100
AcDbArc
 50
17.134755
 51
90.0
  0
LINE
  5
638
100
AcDbEntity
  8
M0
  6
DASHDOT
 62
     6
100
AcDbLine
 10
64.634278
 20
379.712973
 11
64.634309
 21
393.312933
  0
CIRCLE
  5
639
100
AcDbEntity
  8
M0
 62
     6
100
AcDbCircle
 10
44.634339
 20
346.513144
 40
3.0
  0
LINE
  5
63A
100
AcDbEntity
  8
M0
 62
     6
100
AcDbLine
 10
41.675584
 20
350.460486
 11
40.85933
 21
347.813193
  0
LINE
  5
63B
100
AcDbEntity
  8
M0
 62
     6
100
AcDbLine
 10
41.675584
 20
342.565893
 11
40.85933
 21
345.213217
  0
LINE
  5
63C
100
AcDbEntity
  8
M0
 62
     6
100
AcDbLine
 10
47.593064
 20
350.460501
 11
48.409333
 21
347.813193
  0
LINE
  5
63D
100
AcDbEntity
  8
M0
 62
     6
100
AcDbLine
 10
47.593064
 20
342.565878
 11
48.409333
 21
345.213217
  0
LINE
  5
63E
100
AcDbEntity
  8
M0
 62
     6
100
AcDbLine
 10
42.153382
 20
342.213217
 11
47.115251
 21
342.213217
  0
LINE
  5
63F
100
AcDbEntity
  8
M0
 62
     6
100
AcDbLine
 10
48.409333
 20
345.213217
 11
48.409333
 21
347.813193
  0
LINE
  5
640
100
AcDbEntity
  8
M0
 62
     6
100
AcDbLine
 10
47.115251
 20
350.813193
 11
42.153382
 21
350.813177
  0
LINE
  5
641
100
AcDbEntity
  8
M0
 62
     6
100
AcDbLine
 10
40.85933
 20
347.813193
 11
40.85933
 21
345.213217
  0
LINE
  5
642
100
AcDbEntity
  8
M0
  6
DASHDOT
 62
     6
100
AcDbLine
 10
38.35933
 20
346.513144
 11
50.909333
 21
346.513144
  0
LINE
  5
643
100
AcDbEntity
  8
M0
  6
DASHDOT
 62
     6
100
AcDbLine
 10
44.634339
 20
339.713232
 11
44.634339
 21
353.313193
  0
LINE
  5
644
100
AcDbEntity
  8
M0
 62
     6
100
AcDbLine
 10
46.225114
 20
344.922323
 11
43.043305
 21
348.104086
  0
LINE
  5
645
100
AcDbEntity
  8
M0
 62
     6
100
AcDbLine
 10
44.987748
 20
347.927328
 11
43.220078
 21
346.159628
  0
LINE
  5
646
100
AcDbEntity
  8
M0
 62
     6
100
AcDbLine
 10
46.048356
 20
346.866659
 11
44.280732
 21
345.099081
  0
ARC
  5
647
100
AcDbEntity
  8
M0
 62
     6
100
AcDbCircle
 10
42.153382
 20
350.313177
 40
0.5
100
AcDbArc
 50
90.0
 51
162.867254
  0
ARC
  5
648
100
AcDbEntity
  8
M0
 62
     6
100
AcDbCircle
 10
42.153382
 20
342.713217
 40
0.5
100
AcDbArc
 50
197.137551
 51
270.0
  0
ARC
  5
649
100
AcDbEntity
  8
M0
 62
     6
100
AcDbCircle
 10
47.115251
 20
342.713217
 40
0.5
100
AcDbArc
 50
270.0
 51
342.859508
  0
ARC
  5
64A
100
AcDbEntity
  8
M0
 62
     6
100
AcDbCircle
 10
47.115251
 20
350.313177
 40
0.5
100
AcDbArc
 50
17.134755
 51
90.0
  0
LINE
  5
64B
100
AcDbEntity
  8
M0
  6
DASHDOT
 62
     6
100
AcDbLine
 10
64.634309
 20
339.713217
 11
64.634339
 21
353.313177
  0
CIRCLE
  5
64C
100
AcDbEntity
  8
M0
 62
     6
100
AcDbCircle
 10
54.634339
 20
346.513144
 40
3.0
  0
LINE
  5
64D
100
AcDbEntity
  8
M0
 62
     6
100
AcDbLine
 10
51.675584
 20
350.460486
 11
50.85933
 21
347.813193
  0
LINE
  5
64E
100
AcDbEntity
  8
M0
 62
     6
100
AcDbLine
 10
51.675584
 20
342.565893
 11
50.85933
 21
345.213217
  0
LINE
  5
64F
100
AcDbEntity
  8
M0
 62
     6
100
AcDbLine
 10
57.593064
 20
350.460501
 11
58.409333
 21
347.813193
  0
LINE
  5
650
100
AcDbEntity
  8
M0
 62
     6
100
AcDbLine
 10
57.593064
 20
342.565878
 11
58.409333
 21
345.213217
  0
LINE
  5
651
100
AcDbEntity
  8
M0
 62
     6
100
AcDbLine
 10
52.153382
 20
342.213217
 11
57.115251
 21
342.213217
  0
LINE
  5
652
100
AcDbEntity
  8
M0
 62
     6
100
AcDbLine
 10
58.409333
 20
345.213217
 11
58.409333
 21
347.813193
  0
LINE
  5
653
100
AcDbEntity
  8
M0
 62
     6
100
AcDbLine
 10
57.115251
 20
350.813193
 11
52.153382
 21
350.813177
  0
LINE
  5
654
100
AcDbEntity
  8
M0
 62
     6
100
AcDbLine
 10
50.85933
 20
347.813193
 11
50.85933
 21
345.213217
  0
LINE
  5
655
100
AcDbEntity
  8
M0
  6
DASHDOT
 62
     6
100
AcDbLine
 10
48.35933
 20
346.513144
 11
60.909333
 21
346.513144
  0
LINE
  5
656
100
AcDbEntity
  8
M0
  6
DASHDOT
 62
     6
100
AcDbLine
 10
54.634339
 20
339.713232
 11
54.634339
 21
353.313193
  0
LINE
  5
657
100
AcDbEntity
  8
M0
 62
     6
100
AcDbLine
 10
56.225114
 20
344.922323
 11
53.043305
 21
348.104086
  0
LINE
  5
658
100
AcDbEntity
  8
M0
 62
     6
100
AcDbLine
 10
54.987748
 20
347.927328
 11
53.220078
 21
346.159628
  0
LINE
  5
659
100
AcDbEntity
  8
M0
 62
     6
100
AcDbLine
 10
56.048356
 20
346.866659
 11
54.280732
 21
345.099081
  0
ARC
  5
65A
100
AcDbEntity
  8
M0
 62
     6
100
AcDbCircle
 10
52.153382
 20
350.313177
 40
0.5
100
AcDbArc
 50
90.0
 51
162.867254
  0
ARC
  5
65B
100
AcDbEntity
  8
M0
 62
     6
100
AcDbCircle
 10
52.153382
 20
342.713217
 40
0.5
100
AcDbArc
 50
197.137551
 51
270.0
  0
ARC
  5
65C
100
AcDbEntity
  8
M0
 62
     6
100
AcDbCircle
 10
57.115251
 20
342.713217
 40
0.5
100
AcDbArc
 50
270.0
 51
342.859508
  0
ARC
  5
65D
100
AcDbEntity
  8
M0
 62
     6
100
AcDbCircle
 10
57.115251
 20
350.313177
 40
0.5
100
AcDbArc
 50
17.134755
 51
90.0
  0
LINE
  5
65E
100
AcDbEntity
  8
M0
 62
     6
100
AcDbLine
 10
51.537614
 20
342.013052
 11
50.85933
 21
339.813193
  0
LINE
  5
65F
100
AcDbEntity
  8
M0
 62
     6
100
AcDbLine
 10
51.675584
 20
334.565893
 11
50.85933
 21
337.213217
  0
LINE
  5
660
100
AcDbEntity
  8
M0
 62
     6
100
AcDbLine
 10
57.731019
 20
342.013052
 11
58.409333
 21
339.813193
  0
LINE
  5
661
100
AcDbEntity
  8
M0
 62
     6
100
AcDbLine
 10
57.95155
 20
335.728527
 11
58.409333
 21
337.213217
  0
LINE
  5
662
100
AcDbEntity
  8
M0
 62
     6
100
AcDbLine
 10
52.153382
 20
334.213217
 11
54.868186
 21
334.213217
  0
LINE
  5
663
100
AcDbEntity
  8
M0
 62
     6
100
AcDbLine
 10
58.409333
 20
337.213217
 11
58.409333
 21
339.813193
  0
LINE
  5
664
100
AcDbEntity
  8
M0
 62
     6
100
AcDbLine
 10
50.85933
 20
339.813193
 11
50.85933
 21
337.213217
  0
LINE
  5
665
100
AcDbEntity
  8
M0
  6
DASHDOT
 62
     6
100
AcDbLine
 10
48.35933
 20
338.513144
 11
60.909333
 21
338.513144
  0
LINE
  5
666
100
AcDbEntity
  8
M0
  6
DASHDOT
 62
     6
100
AcDbLine
 10
54.634339
 20
331.713232
 11
54.634339
 21
345.313193
  0
ARC
  5
667
100
AcDbEntity
  8
M0
 62
     6
100
AcDbCircle
 10
52.153382
 20
334.713217
 40
0.5
100
AcDbArc
 50
197.137519
 51
270.0
  0
ARC
  5
668
100
AcDbEntity
  8
M0
 62
     6
100
AcDbCircle
 10
54.634339
 20
338.513144
 40
3.0
100
AcDbArc
 50
122.230057
 51
255.664021
  0
ARC
  5
669
100
AcDbEntity
  8
M0
 62
     6
100
AcDbCircle
 10
54.634339
 20
338.513144
 40
3.0
100
AcDbArc
 50
321.950459
 51
417.768221
  0
CIRCLE
  5
66A
100
AcDbEntity
  8
M0
 62
     6
100
AcDbCircle
 10
74.634339
 20
346.513144
 40
3.0
  0
LINE
  5
66B
100
AcDbEntity
  8
M0
 62
     6
100
AcDbLine
 10
71.675584
 20
350.460486
 11
70.85933
 21
347.813193
  0
LINE
  5
66C
100
AcDbEntity
  8
M0
 62
     6
100
AcDbLine
 10
71.675584
 20
342.565893
 11
70.85933
 21
345.213217
  0
LINE
  5
66D
100
AcDbEntity
  8
M0
 62
     6
100
AcDbLine
 10
77.593064
 20
350.460501
 11
78.409333
 21
347.813193
  0
LINE
  5
66E
100
AcDbEntity
  8
M0
 62
     6
100
AcDbLine
 10
77.593064
 20
342.565878
 11
78.409333
 21
345.213217
  0
LINE
  5
66F
100
AcDbEntity
  8
M0
 62
     6
100
AcDbLine
 10
72.153382
 20
342.213217
 11
77.115251
 21
342.213217
  0
LINE
  5
670
100
AcDbEntity
  8
M0
 62
     6
100
AcDbLine
 10
78.409333
 20
345.213217
 11
78.409333
 21
347.813193
  0
LINE
  5
671
100
AcDbEntity
  8
M0
 62
     6
100
AcDbLine
 10
77.115251
 20
350.813193
 11
72.153382
 21
350.813177
  0
LINE
  5
672
100
AcDbEntity
  8
M0
 62
     6
100
AcDbLine
 10
70.85933
 20
347.813193
 11
70.85933
 21
345.213217
  0
LINE
  5
673
100
AcDbEntity
  8
M0
  6
DASHDOT
 62
     6
100
AcDbLine
 10
58.35933
 20
346.513144
 11
70.909333
 21
346.513144
  0
LINE
  5
674
100
AcDbEntity
  8
M0
 62
     6
100
AcDbLine
 10
76.225114
 20
344.922323
 11
73.043305
 21
348.104086
  0
LINE
  5
675
100
AcDbEntity
  8
M0
 62
     6
100
AcDbLine
 10
74.987748
 20
347.927328
 11
73.220078
 21
346.159628
  0
LINE
  5
676
100
AcDbEntity
  8
M0
 62
     6
100
AcDbLine
 10
76.048356
 20
346.866659
 11
74.280732
 21
345.099081
  0
ARC
  5
677
100
AcDbEntity
  8
M0
 62
     6
100
AcDbCircle
 10
72.153382
 20
350.313177
 40
0.5
100
AcDbArc
 50
90.0
 51
162.86739
  0
ARC
  5
678
100
AcDbEntity
  8
M0
 62
     6
100
AcDbCircle
 10
72.153382
 20
342.713217
 40
0.5
100
AcDbArc
 50
197.137519
 51
270.0
  0
ARC
  5
679
100
AcDbEntity
  8
M0
 62
     6
100
AcDbCircle
 10
77.115251
 20
342.713217
 40
0.5
100
AcDbArc
 50
270.0
 51
342.859476
  0
ARC
  5
67A
100
AcDbEntity
  8
M0
 62
     6
100
AcDbCircle
 10
77.115251
 20
350.313177
 40
0.5
100
AcDbArc
 50
17.134787
 51
90.0
  0
LINE
  5
67B
100
AcDbEntity
  8
M0
 62
     1
100
AcDbLine
 10
66.570239
 20
335.01322
 11
74.034333
 21
335.01322
  0
LINE
  5
67C
100
AcDbEntity
  8
M0
 62
     1
100
AcDbLine
 10
66.584336
 20
337.313208
 11
68.626267
 21
337.313208
  0
LINE
  5
67D
100
AcDbEntity
  8
M0
 62
     1
100
AcDbLine
 10
72.884339
 20
337.513144
 11
72.884339
 21
340.013144
  0
ARC
  5
67E
100
AcDbEntity
  8
M0
 62
     1
100
AcDbCircle
 10
66.584336
 20
337.513205
 40
0.2
100
AcDbArc
 50
179.999727
 51
270.0
  0
ARC
  5
67F
100
AcDbEntity
  8
M0
 62
     1
100
AcDbCircle
 10
72.684327
 20
337.513205
 40
0.2
100
AcDbArc
 50
270.0
 51
360.0
  0
LINE
  5
680
100
AcDbEntity
  8
M0
 62
     1
100
AcDbLine
 10
66.384309
 20
340.013144
 11
66.384339
 21
337.513144
  0
LINE
  5
681
100
AcDbEntity
  8
M0
 62
     1
100
AcDbLine
 10
70.684403
 20
337.313208
 11
72.684327
 21
337.313208
  0
CIRCLE
  5
682
100
AcDbEntity
  8
M0
 62
     6
100
AcDbCircle
 10
84.634339
 20
346.513144
 40
3.0
  0
LINE
  5
683
100
AcDbEntity
  8
M0
 62
     6
100
AcDbLine
 10
81.675584
 20
350.460486
 11
80.85933
 21
347.813193
  0
LINE
  5
684
100
AcDbEntity
  8
M0
 62
     6
100
AcDbLine
 10
81.675584
 20
342.565893
 11
80.85933
 21
345.213217
  0
LINE
  5
685
100
AcDbEntity
  8
M0
 62
     6
100
AcDbLine
 10
87.593064
 20
350.460501
 11
88.409333
 21
347.813193
  0
LINE
  5
686
100
AcDbEntity
  8
M0
 62
     6
100
AcDbLine
 10
87.593064
 20
342.565878
 11
88.409333
 21
345.213217
  0
LINE
  5
687
100
AcDbEntity
  8
M0
 62
     6
100
AcDbLine
 10
82.153382
 20
342.213217
 11
87.115251
 21
342.213217
  0
LINE
  5
688
100
AcDbEntity
  8
M0
 62
     6
100
AcDbLine
 10
88.409333
 20
345.213217
 11
88.409333
 21
347.813193
  0
LINE
  5
689
100
AcDbEntity
  8
M0
 62
     6
100
AcDbLine
 10
87.115251
 20
350.813193
 11
82.153382
 21
350.813177
  0
LINE
  5
68A
100
AcDbEntity
  8
M0
 62
     6
100
AcDbLine
 10
80.85933
 20
347.813193
 11
80.85933
 21
345.213217
  0
LINE
  5
68B
100
AcDbEntity
  8
M0
  6
DASHDOT
 62
     6
100
AcDbLine
 10
78.35933
 20
346.513144
 11
90.909333
 21
346.513144
  0
LINE
  5
68C
100
AcDbEntity
  8
M0
  6
DASHDOT
 62
     6
100
AcDbLine
 10
84.634339
 20
339.713232
 11
84.634339
 21
353.313193
  0
LINE
  5
68D
100
AcDbEntity
  8
M0
 62
     6
100
AcDbLine
 10
86.225114
 20
344.922323
 11
83.043305
 21
348.104086
  0
LINE
  5
68E
100
AcDbEntity
  8
M0
 62
     6
100
AcDbLine
 10
84.987748
 20
347.927328
 11
83.220078
 21
346.159628
  0
LINE
  5
68F
100
AcDbEntity
  8
M0
 62
     6
100
AcDbLine
 10
86.048356
 20
346.866659
 11
84.280732
 21
345.099081
  0
ARC
  5
690
100
AcDbEntity
  8
M0
 62
     6
100
AcDbCircle
 10
82.153382
 20
350.313177
 40
0.5
100
AcDbArc
 50
90.0
 51
162.86739
  0
ARC
  5
691
100
AcDbEntity
  8
M0
 62
     6
100
AcDbCircle
 10
82.153382
 20
342.713217
 40
0.5
100
AcDbArc
 50
197.137519
 51
270.0
  0
ARC
  5
692
100
AcDbEntity
  8
M0
 62
     6
100
AcDbCircle
 10
87.115251
 20
342.713217
 40
0.5
100
AcDbArc
 50
270.0
 51
342.859476
  0
ARC
  5
693
100
AcDbEntity
  8
M0
 62
     6
100
AcDbCircle
 10
87.115251
 20
350.313177
 40
0.5
100
AcDbArc
 50
17.134787
 51
90.0
  0
CIRCLE
  5
694
100
AcDbEntity
  8
M0
 62
     6
100
AcDbCircle
 10
94.634339
 20
346.513144
 40
3.0
  0
LINE
  5
695
100
AcDbEntity
  8
M0
 62
     6
100
AcDbLine
 10
91.675584
 20
350.460486
 11
90.85933
 21
347.813193
  0
LINE
  5
696
100
AcDbEntity
  8
M0
 62
     6
100
AcDbLine
 10
91.675584
 20
342.565893
 11
90.85933
 21
345.213217
  0
LINE
  5
697
100
AcDbEntity
  8
M0
 62
     6
100
AcDbLine
 10
97.593064
 20
350.460501
 11
98.409333
 21
347.813193
  0
LINE
  5
698
100
AcDbEntity
  8
M0
 62
     6
100
AcDbLine
 10
97.593064
 20
342.565878
 11
98.409333
 21
345.213217
  0
LINE
  5
699
100
AcDbEntity
  8
M0
 62
     6
100
AcDbLine
 10
92.153382
 20
342.213217
 11
97.115251
 21
342.213217
  0
LINE
  5
69A
100
AcDbEntity
  8
M0
 62
     6
100
AcDbLine
 10
98.409333
 20
345.213217
 11
98.409333
 21
347.813193
  0
LINE
  5
69B
100
AcDbEntity
  8
M0
 62
     6
100
AcDbLine
 10
97.115251
 20
350.813193
 11
92.153382
 21
350.813177
  0
LINE
  5
69C
100
AcDbEntity
  8
M0
 62
     6
100
AcDbLine
 10
90.85933
 20
347.813193
 11
90.85933
 21
345.213217
  0
LINE
  5
69D
100
AcDbEntity
  8
M0
  6
DASHDOT
 62
     6
100
AcDbLine
 10
88.35933
 20
346.513144
 11
100.909333
 21
346.513144
  0
LINE
  5
69E
100
AcDbEntity
  8
M0
  6
DASHDOT
 62
     6
100
AcDbLine
 10
94.634339
 20
339.713232
 11
94.634339
 21
353.313193
  0
LINE
  5
69F
100
AcDbEntity
  8
M0
 62
     6
100
AcDbLine
 10
96.225114
 20
344.922323
 11
93.043305
 21
348.104086
  0
LINE
  5
6A0
100
AcDbEntity
  8
M0
 62
     6
100
AcDbLine
 10
94.987748
 20
347.927328
 11
93.220078
 21
346.159628
  0
LINE
  5
6A1
100
AcDbEntity
  8
M0
 62
     6
100
AcDbLine
 10
96.048356
 20
346.866659
 11
94.280732
 21
345.099081
  0
ARC
  5
6A2
100
AcDbEntity
  8
M0
 62
     6
100
AcDbCircle
 10
92.153382
 20
350.313177
 40
0.5
100
AcDbArc
 50
90.0
 51
162.86739
  0
ARC
  5
6A3
100
AcDbEntity
  8
M0
 62
     6
100
AcDbCircle
 10
92.153382
 20
342.713217
 40
0.5
100
AcDbArc
 50
197.137519
 51
270.0
  0
ARC
  5
6A4
100
AcDbEntity
  8
M0
 62
     6
100
AcDbCircle
 10
97.115251
 20
342.713217
 40
0.5
100
AcDbArc
 50
270.0
 51
342.859476
  0
ARC
  5
6A5
100
AcDbEntity
  8
M0
 62
     6
100
AcDbCircle
 10
97.115251
 20
350.313177
 40
0.5
100
AcDbArc
 50
17.134787
 51
90.0
  0
LINE
  5
6A6
100
AcDbEntity
  8
M0
  6
DASHDOT
 62
     6
100
AcDbLine
 10
74.634309
 20
339.713232
 11
74.634309
 21
353.313193
  0
ARC
  5
6A7
100
AcDbEntity
  8
M0
 62
     2
100
AcDbCircle
 10
86.637086
 20
340.513144
 40
3.499993
100
AcDbArc
 50
154.623024
 51
303.807791
  0
LINE
  5
6A8
100
AcDbEntity
  8
M0
 62
     2
100
AcDbLine
 10
85.222825
 20
341.927176
 11
88.051232
 21
339.098082
  0
LINE
  5
6A9
100
AcDbEntity
  8
M0
 62
     2
100
AcDbLine
 10
86.723557
 20
342.0129
 11
84.515763
 21
339.80538
  0
LINE
  5
6AA
100
AcDbEntity
  8
M0
 62
     2
100
AcDbLine
 10
88.584535
 20
341.045859
 11
85.929978
 21
338.391318
  0
ARC
  5
6AB
100
AcDbEntity
  8
M0
 62
     5
100
AcDbCircle
 10
80.237992
 20
396.408652
 40
7.199999
100
AcDbArc
 50
90.0
 51
179.99997
  0
LINE
  5
6AC
100
AcDbEntity
  8
M0
 62
     5
100
AcDbLine
 10
76.237992
 20
396.40914
 11
76.237992
 21
391.009238
  0
ARC
  5
6AD
100
AcDbEntity
  8
M0
 62
     5
100
AcDbCircle
 10
80.237992
 20
396.40914
 40
4.0
100
AcDbArc
 50
90.0
 51
179.999973
  0
LINE
  5
6AE
100
AcDbEntity
  8
M0
 62
     5
100
AcDbLine
 10
73.037995
 20
396.408652
 11
73.037995
 21
391.009238
  0
LINE
  5
6AF
100
AcDbEntity
  8
M0
 62
     5
100
AcDbLine
 10
113.03795
 20
403.609091
 11
80.237992
 21
403.609091
  0
LINE
  5
6B0
100
AcDbEntity
  8
M0
 62
     5
100
AcDbLine
 10
80.237992
 20
400.40914
 11
113.037965
 21
400.40914
  0
ARC
  5
6B1
100
AcDbEntity
  8
M0
 62
     5
100
AcDbCircle
 10
113.037965
 20
396.408652
 40
7.199999
100
AcDbArc
 50
0.0
 51
90.0
  0
ARC
  5
6B2
100
AcDbEntity
  8
M0
 62
     5
100
AcDbCircle
 10
113.037965
 20
396.40914
 40
4.0
100
AcDbArc
 50
0.0
 51
90.0
  0
LINE
  5
6B3
100
AcDbEntity
  8
M0
 62
     5
100
AcDbLine
 10
117.037965
 20
391.012656
 11
117.037965
 21
396.408896
  0
LINE
  5
6B4
100
AcDbEntity
  8
M0
 62
     5
100
AcDbLine
 10
120.237977
 20
391.012656
 11
120.237977
 21
396.408407
  0
ARC
  5
6B5
100
AcDbEntity
  8
M0
 62
     5
100
AcDbCircle
 10
70.237992
 20
399.608603
 40
7.199999
100
AcDbArc
 50
90.0
 51
179.99997
  0
LINE
  5
6B6
100
AcDbEntity
  8
M0
 62
     5
100
AcDbLine
 10
66.237992
 20
399.609091
 11
66.237992
 21
391.009238
  0
ARC
  5
6B7
100
AcDbEntity
  8
M0
 62
     5
100
AcDbCircle
 10
70.237992
 20
399.609091
 40
4.0
100
AcDbArc
 50
90.0
 51
179.999973
  0
LINE
  5
6B8
100
AcDbEntity
  8
M0
 62
     5
100
AcDbLine
 10
63.037995
 20
399.608603
 11
63.037995
 21
391.009238
  0
LINE
  5
6B9
100
AcDbEntity
  8
M0
 62
     5
100
AcDbLine
 10
123.037934
 20
406.809042
 11
70.237992
 21
406.809042
  0
LINE
  5
6BA
100
AcDbEntity
  8
M0
 62
     5
100
AcDbLine
 10
70.237992
 20
403.609091
 11
123.03795
 21
403.609091
  0
ARC
  5
6BB
100
AcDbEntity
  8
M0
 62
     5
100
AcDbCircle
 10
123.03795
 20
399.608603
 40
7.199999
100
AcDbArc
 50
0.0
 51
90.0
  0
ARC
  5
6BC
100
AcDbEntity
  8
M0
 62
     5
100
AcDbCircle
 10
123.03795
 20
399.609091
 40
4.0
100
AcDbArc
 50
0.0
 51
90.0
  0
LINE
  5
6BD
100
AcDbEntity
  8
M0
 62
     5
100
AcDbLine
 10
127.03795
 20
391.0129
 11
127.03795
 21
399.608847
  0
LINE
  5
6BE
100
AcDbEntity
  8
M0
 62
     5
100
AcDbLine
 10
130.237962
 20
391.0129
 11
130.237962
 21
399.608359
  0
ARC
  5
6BF
100
AcDbEntity
  8
M0
 62
     5
100
AcDbCircle
 10
60.237992
 20
402.808554
 40
7.199999
100
AcDbArc
 50
90.0
 51
179.99997
  0
LINE
  5
6C0
100
AcDbEntity
  8
M0
 62
     5
100
AcDbLine
 10
56.237992
 20
402.809042
 11
56.237992
 21
391.008993
  0
ARC
  5
6C1
100
AcDbEntity
  8
M0
 62
     5
100
AcDbCircle
 10
60.237992
 20
402.809042
 40
4.0
100
AcDbArc
 50
90.0
 51
179.999973
  0
LINE
  5
6C2
100
AcDbEntity
  8
M0
 62
     5
100
AcDbLine
 10
53.037995
 20
402.808554
 11
53.037995
 21
391.008993
  0
LINE
  5
6C3
100
AcDbEntity
  8
M0
 62
     5
100
AcDbLine
 10
133.037934
 20
410.008993
 11
60.237992
 21
410.008993
  0
LINE
  5
6C4
100
AcDbEntity
  8
M0
 62
     5
100
AcDbLine
 10
60.237992
 20
406.809042
 11
133.03795
 21
406.809042
  0
ARC
  5
6C5
100
AcDbEntity
  8
M0
 62
     5
100
AcDbCircle
 10
133.03795
 20
402.808554
 40
7.199999
100
AcDbArc
 50
0.0
 51
90.0
  0
ARC
  5
6C6
100
AcDbEntity
  8
M0
 62
     5
100
AcDbCircle
 10
133.03795
 20
402.809042
 40
4.0
100
AcDbArc
 50
0.0
 51
90.0
  0
LINE
  5
6C7
100
AcDbEntity
  8
M0
 62
     5
100
AcDbLine
 10
137.03795
 20
391.0129
 11
137.03795
 21
402.808798
  0
LINE
  5
6C8
100
AcDbEntity
  8
M0
 62
     5
100
AcDbLine
 10
140.237962
 20
391.0129
 11
140.237962
 21
402.80831
  0
ARC
  5
6C9
100
AcDbEntity
  8
M0
 62
     5
100
AcDbCircle
 10
80.237992
 20
336.609823
 40
7.199999
100
AcDbArc
 50
179.999962
 51
192.842358
  0
LINE
  5
6CA
100
AcDbEntity
  8
M0
 62
     5
100
AcDbLine
 10
76.237992
 20
336.609335
 11
76.237992
 21
342.009238
  0
ARC
  5
6CB
100
AcDbEntity
  8
M0
 62
     5
100
AcDbCircle
 10
80.237992
 20
336.609335
 40
4.0
100
AcDbArc
 50
179.999959
 51
203.518593
  0
LINE
  5
6CC
100
AcDbEntity
  8
M0
 62
     5
100
AcDbLine
 10
73.037995
 20
336.609823
 11
73.037995
 21
342.009238
  0
LINE
  5
6CD
100
AcDbEntity
  8
M0
 62
     5
100
AcDbLine
 10
133.037934
 20
329.409384
 11
91.134889
 21
329.40914
  0
LINE
  5
6CE
100
AcDbEntity
  8
M0
 62
     5
100
AcDbLine
 10
129.024262
 20
332.609335
 11
133.03795
 21
332.609335
  0
ARC
  5
6CF
100
AcDbEntity
  8
M0
 62
     5
100
AcDbCircle
 10
133.03795
 20
336.609823
 40
7.199999
100
AcDbArc
 50
-90.000121
 51
0.0
  0
ARC
  5
6D0
100
AcDbEntity
  8
M0
 62
     5
100
AcDbCircle
 10
133.03795
 20
336.609335
 40
4.0
100
AcDbArc
 50
-90.000219
 51
0.0
  0
LINE
  5
6D1
100
AcDbEntity
  8
M0
 62
     5
100
AcDbLine
 10
137.03795
 20
342.0129
 11
137.03795
 21
336.609579
  0
LINE
  5
6D2
100
AcDbEntity
  8
M0
 62
     5
100
AcDbLine
 10
140.237962
 20
342.0129
 11
140.237962
 21
336.610068
  0
ARC
  5
6D3
100
AcDbEntity
  8
M0
 62
     2
100
AcDbCircle
 10
70.237992
 20
336.609823
 40
7.199999
100
AcDbArc
 50
179.999962
 51
269.920709
  0
LINE
  5
6D4
100
AcDbEntity
  8
M0
 62
     2
100
AcDbLine
 10
66.237992
 20
336.609335
 11
66.237992
 21
342.009238
  0
ARC
  5
6D5
100
AcDbEntity
  8
M0
 62
     2
100
AcDbCircle
 10
70.237992
 20
336.609335
 40
4.0
100
AcDbArc
 50
179.999959
 51
270.0
  0
LINE
  5
6D6
100
AcDbEntity
  8
M0
 62
     2
100
AcDbLine
 10
63.037995
 20
336.609823
 11
63.037995
 21
342.009238
  0
LINE
  5
6D7
100
AcDbEntity
  8
M0
 62
     2
100
AcDbLine
 10
123.037934
 20
329.409384
 11
70.771884
 21
329.40908
  0
LINE
  5
6D8
100
AcDbEntity
  8
M0
 62
     2
100
AcDbLine
 10
70.237992
 20
332.609335
 11
123.03795
 21
332.609335
  0
ARC
  5
6D9
100
AcDbEntity
  8
M0
 62
     2
100
AcDbCircle
 10
123.03795
 20
336.609823
 40
7.199999
100
AcDbArc
 50
-90.000121
 51
0.0
  0
ARC
  5
6DA
100
AcDbEntity
  8
M0
 62
     2
100
AcDbCircle
 10
123.03795
 20
336.609335
 40
4.0
100
AcDbArc
 50
-90.000219
 51
0.0
  0
LINE
  5
6DB
100
AcDbEntity
  8
M0
 62
     2
100
AcDbLine
 10
127.03795
 20
342.0129
 11
127.03795
 21
336.609579
  0
LINE
  5
6DC
100
AcDbEntity
  8
M0
 62
     2
100
AcDbLine
 10
130.237962
 20
342.0129
 11
130.237962
 21
336.610068
  0
ARC
  5
6DD
100
AcDbEntity
  8
M0
 62
     2
100
AcDbCircle
 10
60.234376
 20
339.013632
 40
7.199999
100
AcDbArc
 50
179.999962
 51
270.0
  0
LINE
  5
6DE
100
AcDbEntity
  8
M0
 62
     2
100
AcDbLine
 10
56.234376
 20
339.013144
 11
56.234376
 21
342.009238
  0
ARC
  5
6DF
100
AcDbEntity
  8
M0
 62
     2
100
AcDbCircle
 10
60.234376
 20
339.013144
 40
4.0
100
AcDbArc
 50
179.999959
 51
270.0
  0
LINE
  5
6E0
100
AcDbEntity
  8
M0
 62
     2
100
AcDbLine
 10
53.034379
 20
339.013632
 11
53.034379
 21
342.009238
  0
LINE
  5
6E1
100
AcDbEntity
  8
M0
 62
     2
100
AcDbLine
 10
64.868409
 20
331.812948
 11
60.234376
 21
331.813193
  0
LINE
  5
6E2
100
AcDbEntity
  8
M0
 62
     2
100
AcDbLine
 10
60.234376
 20
335.013144
 11
63.217256
 21
335.013144
  0
ARC
  5
6E3
100
AcDbEntity
  8
M0
 62
     2
100
AcDbCircle
 10
113.034333
 20
339.013632
 40
7.199999
100
AcDbArc
 50
-62.808827
 51
0.0
  0
ARC
  5
6E4
100
AcDbEntity
  8
M0
 62
     2
100
AcDbCircle
 10
113.034333
 20
339.013144
 40
4.0
100
AcDbArc
 50
-90.000219
 51
0.0
  0
LINE
  5
6E5
100
AcDbEntity
  8
M0
 62
     2
100
AcDbLine
 10
117.034333
 20
342.0129
 11
117.034333
 21
339.013388
  0
LINE
  5
6E6
100
AcDbEntity
  8
M0
 62
     2
100
AcDbLine
 10
120.234345
 20
342.0129
 11
120.234345
 21
339.013876
  0
LINE
  5
6E7
100
AcDbEntity
  8
M0
 62
     2
100
AcDbLine
 10
66.570268
 20
335.013144
 11
113.034333
 21
335.013144
  0
LINE
  5
6E8
100
AcDbEntity
  8
M1
 62
     2
100
AcDbLine
 10
16.666666
 20
16.666666
 11
16.666666
 21
474.999981
  0
LINE
  5
6E9
100
AcDbEntity
  8
M1
 62
     2
100
AcDbLine
 10
16.666666
 20
474.999981
 11
333.33332
 21
474.999981
  0
LINE
  5
6EA
100
AcDbEntity
  8
M1
 62
     2
100
AcDbLine
 10
333.33332
 20
474.999981
 11
333.33332
 21
16.666666
  0
LINE
  5
6EB
100
AcDbEntity
  8
M1
 62
     2
100
AcDbLine
 10
333.33332
 20
16.666666
 11
16.666666
 21
16.666666
  0
LINE
  5
6EC
100
AcDbEntity
  8
M1
 62
     2
100
AcDbLine
 10
333.33332
 20
33.333332
 11
166.66666
 21
33.333332
  0
LINE
  5
6ED
100
AcDbEntity
  8
M1
 62
     2
100
AcDbLine
 10
333.33332
 20
49.999998
 11
166.66666
 21
49.999998
  0
LINE
  5
6EE
100
AcDbEntity
  8
M1
 62
     2
100
AcDbLine
 10
333.33332
 20
66.666664
 11
166.66666
 21
66.666664
  0
LINE
  5
6EF
100
AcDbEntity
  8
M1
 62
     2
100
AcDbLine
 10
166.66666
 20
16.666666
 11
166.66666
 21
66.666664
  0
TEXT
  5
6F0
100
AcDbEntity
  8
M1
 62
     2
100
AcDbText
 10
170.833327
 20
20.833333
 40
8.333333
  1
適　用；
 41
1.0
  7
STANDARD
100
AcDbText
  0
TEXT
  5
6F1
100
AcDbEntity
  8
M1
 62
     2
100
AcDbText
 10
170.833327
 20
54.166665
 40
8.333333
  1
登録名：
 41
1.0
  7
STANDARD
100
AcDbText
  0
TEXT
  5
6F2
100
AcDbEntity
  8
M1
 62
     2
100
AcDbText
 10
210.833325
 20
54.166665
 40
8.333333
  1
ＤＭＨ１２ＲＴＲ００
 41
0.5
  7
STANDARD
100
AcDbText
  0
TEXT
  5
6F3
100
AcDbEntity
  8
M1
 62
     2
100
AcDbText
 10
170.833327
 20
37.499999
 40
8.333333
  1
形　式；
 41
1.0
  7
STANDARD
100
AcDbText
  0
TEXT
  5
6F4
100
AcDbEntity
  8
M1
 62
     2
100
AcDbText
 10
210.833325
 20
37.499999
 40
8.333333
  1
Ｈ１２－ＲＴ，Ｈ１２－ＲＴＫ
 41
0.5
  7
STANDARD
100
AcDbText
  0
LINE
  5
6F5
100
AcDbEntity
  8
DN0
100
AcDbLine
 10
85.725757
 20
90.333866
 11
116.159084
 21
90.333866
  0
TEXT
  5
6F6
100
AcDbEntity
  8
DN0
100
AcDbText
 10
86.567423
 20
91.083866
 40
7.5
  1
せん孔図
 41
0.833333
  7
STANDARD
100
AcDbText
  0
ENDSEC
  0
SECTION
  2
OBJECTS
  0
DICTIONARY
  5
C
100
AcDbDictionary
  3
ACAD_GROUP
350
D
  3
ACAD_MLINESTYLE
350
E
  0
DICTIONARY
  5
D
102
{ACAD_REACTORS
330
C
102
}
100
AcDbDictionary
  0
DICTIONARY
  5
E
102
{ACAD_REACTORS
330
C
102
}
100
AcDbDictionary
  3
STANDARD
350
13
  0
MLINESTYLE
  5
13
102
{ACAD_REACTORS
330
E
102
}
100
AcDbMlineStyle
  2
STANDARD
 70
     0
  3

 62
     0
 51
90.0
 52
90.0
 71
     2
 49
0.5
 62
   256
  6
BYLAYER
 49
-0.5
 62
   256
  6
BYLAYER
  0
ENDSEC
  0
EOF
