  0
SECTION
  2
HEADER
  9
$ACADVER
  1
AC1014
  9
$INSBASE
 10
0.000000
 20
0.000000
 30
0.0
  9
$VIEWCTR
 10
7.531722
 20
4.5
  9
$VIEWSIZE
 40
9.0
  9
$SNAPMODE
 70
     0
  9
$SNAPUNIT
 10
1.0
 20
1.0
  9
$SNAPBASE
 10
0.0
 20
0.0
  9
$SNAPANG
 50
0.0
  9
$SNAPSTYLE
 70
     0
  9
$SNAPISOPAIR
 70
     0
  9
$GRIDMODE
 70
     0
  9
$GRIDUNIT
 10
0.0
 20
0.0
  9
$ORTHOMODE
 70
     0
  9
$REGENMODE
 70
     1
  9
$FILLMODE
 70
     1
  9
$QTEXTMODE
 70
     0
  9
$DRAGMODE
 70
     2
  9
$LTSCALE
  40
     1.000000
  9
$OSMODE
 70
     0
  9
$ATTMODE
 70
     1
  9
$TEXTSIZE
 40
0.2
  9
$TRACEWID
 40
0.05
  9
$TEXTSTYLE
  7
STANDARD
  9
$CELTYPE
  6
BYLAYER
  9
$CECOLOR
 62
   256
  9
$DIMSCALE
 40
1.0
  9
$DIMASZ
 40
0.18
  9
$DIMEXO
 40
0.0625
  9
$DIMDLI
 40
0.38
  9
$DIMRND
 40
0.0
  9
$DIMDLE
 40
0.0
  9
$DIMEXE
 40
0.18
  9
$DIMTP
 40
0.0
  9
$DIMTM
 40
0.0
  9
$DIMTXT
 40
0.18
  9
$DIMCEN
 40
0.09
  9
$DIMTSZ
 40
0.0
  9
$DIMTOL
 70
     0
  9
$DIMLIM
 70
     0
  9
$DIMTIH
 70
     1
  9
$DIMTOH
 70
     1
  9
$DIMSE1
 70
     0
  9
$DIMSE2
 70
     0
  9
$DIMTAD
 70
     0
  9
$DIMZIN
 70
     0
  9
$DIMBLK
  1

  9
$LUNITS
 70
     2
  9
$LUPREC
 70
     4
  9
$AXISMODE
 70
     0
  9
$AXISUNIT
 10
0.0
 20
0.0
  9
$SKETCHINC
 40
0.1
  9
$FILLETRAD
 40
0.0
  9
$AUNITS
 70
     0
  9
$AUPREC
 70
     0
  9
$MENU
  1
ACAD
  9
$ELEVATION
 40
0.0
  9
$THICKNESS
 40
0.0
  9
$VIEWDIR
 10
0.0
 20
0.0
 30
1.0
  9
$LIMCHECK
 70
     0
  9
$BLIPMODE
 70
     1
  9
$CHAMFERA
 40
0.0
  9
$CHAMFERB
 40
0.0
  9
$FASTZOOM
 70
     1
  9
$SKPOLY
 70
     0
  9
$TDCREATE
 40
0000000.0000000000
  9
$TDUPDATE
 40
0000000.0000000000
  9
$TDINDWG
 40
0.0000000000
  9
$TDUSRTIMER
 40
0.0000000000
  9
$USRTIMER
 70
     1
  9
$ANGBASE
 50
0.0
  9
$ANGDIR
 70
     0
  9
$PDMODE
 70
     0
  9
$PDSIZE
 40
0.0
  9
$PLINEWID
 40
0.0
  9
$COORDS
 70
     0
  9
$USERI1
 70
     0
  9
$USERI2
 70
     0
  9
$USERI3
 70
     0
  9
$USERI4
 70
     0
  9
$USERI5
 70
     0
  9
$USERR1
 40
0.0
  9
$USERR2
 40
0.0
  9
$USERR3
 40
0.0
  9
$USERR4
 40
0.0
  9
$USERR5
 40
0.0
  9
$CLAYER
  8
M0
  9
$EXTMIN
 10
14.285715
 20
14.285715
  9
$EXTMAX
 10
285.714291
 20
407.142864
  9
$LIMMIN
 10
0.0
 20
0.0
  9
$LIMMAX
 10
210.0
 20
297.0
  9
$HANDSEED
  5
492
  0
ENDSEC
  0
SECTION
  2
CLASSES
  0
ENDSEC
  0
SECTION
  2
TABLES
  0
TABLE
  2
VPORT
  5
8
100
AcDbSymbolTable
 70
     2
  0
VPORT
  5
14
100
AcDbSymbolTableRecord
100
AcDbViewportTableRecord
  2
*ACTIVE
 70
     0
 10
0.0
 20
0.0
 11
1.0
 21
1.0
 12
484.0
 22
297.0
 13
0.0
 23
0.0
 14
1.0
 24
1.0
 15
0.0
 25
0.0
 16
0.0
 26
0.0
 36
1.0
 17
0.0
 27
0.0
 37
0.0
 40
594.0
 41
2.0
 42
50.0
 43
0.0
 44
0.0
 50
0.0
 51
0.0
 71
     0
 72
   100
 73
     1
 74
     1
 75
     0
 76
     0
 77
     0
 78
     0
  0
ENDTAB
  0
TABLE
  2
LTYPE
  5
5
100
AcDbSymbolTable
 70
     5
  0
LTYPE
  5
15
100
AcDbSymbolTableRecord
100
AcDbLinetypeTableRecord
  2
BYBLOCK
 70
     0
  3

 72
    65
 73
     0
 40
0.0
  0
LTYPE
  5
16
100
AcDbSymbolTableRecord
100
AcDbLinetypeTableRecord
  2
BYLAYER
 70
     0
  3

 72
    65
 73
     0
 40
0.0
  0
LTYPE
  5
17
100
AcDbSymbolTableRecord
100
AcDbLinetypeTableRecord
  2
CONTINUOUS
 70
    64
  3
Solid line
 72
    65
 73
     0
 40
0.0
  0
LTYPE
  5
18
100
AcDbSymbolTableRecord
100
AcDbLinetypeTableRecord
  2
DASHED
 70
    64
  3
__ __ __ __ __ __ __ __ __ __ __ __ __ __ __ __
 72
    65
 73
     2
 40
0.75
 49
0.5
 74
     0
 49
-0.25
 74
     0
  0
LTYPE
  5
19
100
AcDbSymbolTableRecord
100
AcDbLinetypeTableRecord
  2
DASHDOT
 70
    64
  3
__ . __ . __ . __ . __ . __ . __ . __ . __ . __
 72
    65
 73
     4
 40
1.0
 49
0.5
 74
     0
 49
-0.25
 74
     0
 49
0.0
 74
     0
 49
-0.25
 74
     0
  0
LTYPE
  5
1A
100
AcDbSymbolTableRecord
100
AcDbLinetypeTableRecord
  2
DIVIDE
 70
    64
  3
____ . . ____ . . ____ . . ____ . . ____ . . __
 72
    65
 73
     6
 40
1.25
 49
0.5
 74
     0
 49
-0.25
 74
     0
 49
0.0
 74
     0
 49
-0.25
 74
     0
 49
0.0
 74
     0
 49
-0.25
 74
     0
  0
LTYPE
  5
1B
100
AcDbSymbolTableRecord
100
AcDbLinetypeTableRecord
  2
DOT
 70
    64
  3
. . . . . . . . . . . . . . . . . . . . . . . .
 72
    65
 73
     2
 40
0.25
 49
0.0
 74
     0
 49
-0.25
 74
     0
  0
ENDTAB
  0
TABLE
  2
LAYER
  5
2
100
AcDbSymbolTable
 70
   102
  0
LAYER
  5
F
100
AcDbSymbolTableRecord
100
AcDbLayerTableRecord
  2
0
 70
     0
 62
     7
  6
CONTINUOUS
  0
LAYER
  5
1C
100
AcDbSymbolTableRecord
100
AcDbLayerTableRecord
  2
DEFPOINTS
 70
     0
 62
     7
  6
CONTINUOUS
  0
LAYER
  5
1D
100
AcDbSymbolTableRecord
100
AcDbLayerTableRecord
  2
M0
 70
     0
 62
     3
  6
CONTINUOUS
  0
LAYER
  5
1E
100
AcDbSymbolTableRecord
100
AcDbLayerTableRecord
  2
M1
 70
     0
 62
     3
  6
CONTINUOUS
  0
LAYER
  5
1F
100
AcDbSymbolTableRecord
100
AcDbLayerTableRecord
  2
DD0
 70
     0
 62
     4
  6
CONTINUOUS
  0
LAYER
  5
20
100
AcDbSymbolTableRecord
100
AcDbLayerTableRecord
  2
DN0
 70
     0
 62
     2
  6
CONTINUOUS
  0
ENDTAB
  0
TABLE
  2
STYLE
  5
3
100
AcDbSymbolTable
 70
     2
  0
STYLE
  5
10
100
AcDbSymbolTableRecord
100
AcDbTextStyleTableRecord
  2
STANDARD
 70
     0
 40
0.0
 41
1.0
 50
0.0
 71
     0
 42
0.2
  3
txt
  4
BIGFONT
  0
ENDTAB
  0
TABLE
  2
VIEW
  5
6
100
AcDbSymbolTable
 70
     0
  0
ENDTAB
  0
TABLE
  2
UCS
  5
7
100
AcDbSymbolTable
 70
     0
  0
ENDTAB
  0
TABLE
  2
APPID
  5
9
100
AcDbSymbolTable
 70
     1
  0
APPID
  5
11
100
AcDbSymbolTableRecord
100
AcDbRegAppTableRecord
  2
ACAD
 70
     0
  0
ENDTAB
  0
TABLE
  2
DIMSTYLE
  5
A
100
AcDbSymbolTable
 70
     2
  0
DIMSTYLE
105
27
100
AcDbSymbolTableRecord
100
AcDbDimStyleTableRecord
  2
STANDARD
 70
     0
  3

  4

  5

  6
_OPEN
  7
_OPEN
 40
1.0
 41
4.285714
 42
1.0
 43
8.0
 44
1.0
 45
0.0
 46
0.0
 47
0.0
 48
0.0
140
4.5
141
0.09
142
0.0
143
0.03937
144
1.0
145
0.0
146
1.0
147
0.6
 71
     0
 72
     0
 73
     1
 74
     1
 75
     0
 76
     0
 77
     3
 78
     8
170
     0
171
     2
172
     0
173
     1
174
     0
175
     0
176
     0
177
     0
178
     0
270
     2
271
     2
272
     4
273
     2
274
     2
340
10
275
     0
280
     0
281
     0
282
     0
283
     1
284
     0
285
     0
286
     0
287
     3
288
     0
  0
DIMSTYLE
105
28
100
AcDbSymbolTableRecord
100
AcDbDimStyleTableRecord
  2
LEADSTYL
 70
     0
  3

  4

  5

  6
_OPEN
  7
_OPEN
 40
1.0
 41
4.285714
 42
0.0625
 43
0.38
 44
0.18
 45
0.0
 46
0.0
 47
0.0
 48
0.0
140
4.5
141
0.09
142
0.0
143
25.4
144
1.0
145
0.0
146
1.0
147
0.6
 71
     0
 72
     0
 73
     1
 74
     1
 75
     0
 76
     0
 77
     0
 78
     0
170
     0
171
     2
172
     0
173
     1
174
     0
175
     0
176
     0
177
     0
178
     0
270
     2
271
     4
272
     4
273
     2
274
     2
340
10
275
     0
280
     0
281
     0
282
     0
283
     1
284
     0
285
     0
286
     0
287
     3
288
     0
  0
ENDTAB
  0
TABLE
  2
BLOCK_RECORD
  5
1
100
AcDbSymbolTable
 70
    16
  0
BLOCK_RECORD
  5
21
100
AcDbSymbolTableRecord
100
AcDbBlockTableRecord
  2
*MODEL_SPACE
  0
BLOCK_RECORD
  5
24
100
AcDbSymbolTableRecord
100
AcDbBlockTableRecord
  2
*PAPER_SPACE
  0
BLOCK_RECORD
  5
29
100
AcDbSymbolTableRecord
100
AcDbBlockTableRecord
  2
_NONE
  0
BLOCK_RECORD
  5
2D
100
AcDbSymbolTableRecord
100
AcDbBlockTableRecord
  2
_OPEN
  0
BLOCK_RECORD
  5
33
100
AcDbSymbolTableRecord
100
AcDbBlockTableRecord
  2
_CLOSED
  0
BLOCK_RECORD
  5
3A
100
AcDbSymbolTableRecord
100
AcDbBlockTableRecord
  2
_ORIGIN
  0
BLOCK_RECORD
  5
3F
100
AcDbSymbolTableRecord
100
AcDbBlockTableRecord
  2
_DOT
  0
BLOCK_RECORD
  5
47
100
AcDbSymbolTableRecord
100
AcDbBlockTableRecord
  2
_OBLIQUE
  0
BLOCK_RECORD
  5
4B
100
AcDbSymbolTableRecord
100
AcDbBlockTableRecord
  2
DIMS0
  0
BLOCK_RECORD
  5
57
100
AcDbSymbolTableRecord
100
AcDbBlockTableRecord
  2
DIMS1
  0
BLOCK_RECORD
  5
63
100
AcDbSymbolTableRecord
100
AcDbBlockTableRecord
  2
DIMS2
  0
BLOCK_RECORD
  5
6F
100
AcDbSymbolTableRecord
100
AcDbBlockTableRecord
  2
DIMS3
  0
BLOCK_RECORD
  5
7B
100
AcDbSymbolTableRecord
100
AcDbBlockTableRecord
  2
DIMS4
  0
BLOCK_RECORD
  5
87
100
AcDbSymbolTableRecord
100
AcDbBlockTableRecord
  2
DIMS5
  0
BLOCK_RECORD
  5
93
100
AcDbSymbolTableRecord
100
AcDbBlockTableRecord
  2
DIMS6
  0
BLOCK_RECORD
  5
9B
100
AcDbSymbolTableRecord
100
AcDbBlockTableRecord
  2
DIMS7
  0
BLOCK_RECORD
  5
A7
100
AcDbSymbolTableRecord
100
AcDbBlockTableRecord
  2
DIMS8
  0
BLOCK_RECORD
  5
B3
100
AcDbSymbolTableRecord
100
AcDbBlockTableRecord
  2
DIMS9
  0
ENDTAB
  0
ENDSEC
  0
SECTION
  2
BLOCKS
  0
BLOCK
  5
22
100
AcDbEntity
  8
0
100
AcDbBlockBegin
  2
*MODEL_SPACE
 70
     0
 10
0.0
 20
0.0
 30
0.0
  3
*MODEL_SPACE
  1

  0
ENDBLK
  5
23
100
AcDbEntity
  8
0
100
AcDbBlockEnd
  0
BLOCK
  5
25
100
AcDbEntity
 67
     1
  8
0
100
AcDbBlockBegin
  2
*PAPER_SPACE
 70
     0
 10
0.0
 20
0.0
 30
0.0
  3
*PAPER_SPACE
  1

  0
ENDBLK
  5
26
100
AcDbEntity
 67
     1
  8
0
100
AcDbBlockEnd
  0
BLOCK
  5
2A
100
AcDbEntity
  8
0
100
AcDbBlockBegin
  2
_NONE
 70
     0
 10
0.0
 20
0.0
  0
CIRCLE
  5
2B
100
AcDbEntity
  8
0
 62
     0
100
AcDbCircle
 10
0.0
 20
0.0
 40
0.25
  0
ENDBLK
  5
2C
100
AcDbEntity
  8
0
100
AcDbBlockEnd
  0
BLOCK
  5
2E
100
AcDbEntity
  8
0
100
AcDbBlockBegin
  2
_OPEN
 70
     0
 10
0.0
 20
0.0
  0
LINE
  5
2F
100
AcDbEntity
  8
0
 62
     0
100
AcDbLine
 10
-0.965926
 20
0.258819
 11
0.0
 21
0.0
  0
LINE
  5
30
100
AcDbEntity
  8
0
 62
     0
100
AcDbLine
 10
0.0
 20
0.0
 11
-0.965926
 21
-0.258819
  0
LINE
  5
31
100
AcDbEntity
  8
0
 62
     0
100
AcDbLine
 10
0.0
 20
0.0
 11
-1.0
 21
0.0
  0
ENDBLK
  5
32
100
AcDbEntity
  8
0
100
AcDbBlockEnd
  0
BLOCK
  5
34
100
AcDbEntity
  8
0
100
AcDbBlockBegin
  2
_CLOSED
 70
     0
 10
0.0
 20
0.0
  0
LINE
  5
35
100
AcDbEntity
  8
0
 62
     0
100
AcDbLine
 10
-0.965926
 20
0.258819
 11
0.0
 21
0.0
  0
LINE
  5
36
100
AcDbEntity
  8
0
 62
     0
100
AcDbLine
 10
0.0
 20
0.0
 11
-0.965926
 21
-0.258819
  0
LINE
  5
37
100
AcDbEntity
  8
0
 62
     0
100
AcDbLine
 10
-0.965926
 20
0.258819
 11
-0.965926
 21
-0.258819
  0
LINE
  5
38
100
AcDbEntity
  8
0
 62
     0
100
AcDbLine
 10
0.0
 20
0.0
 11
-1.0
 21
0.0
  0
ENDBLK
  5
39
100
AcDbEntity
  8
0
100
AcDbBlockEnd
  0
BLOCK
  5
3B
100
AcDbEntity
  8
0
100
AcDbBlockBegin
  2
_ORIGIN
 70
     0
 10
0.0
 20
0.0
  0
CIRCLE
  5
3C
100
AcDbEntity
  8
0
 62
     0
100
AcDbCircle
 10
0.0
 20
0.0
 40
0.5
  0
LINE
  5
3D
100
AcDbEntity
  8
0
 62
     0
100
AcDbLine
 10
0.0
 20
0.0
 11
-1.0
 21
0.0
  0
ENDBLK
  5
3E
100
AcDbEntity
  8
0
100
AcDbBlockEnd
  0
BLOCK
  5
40
100
AcDbEntity
  8
0
100
AcDbBlockBegin
  2
_DOT
 70
     0
 10
0.0
 20
0.0
  0
POLYLINE
  5
41
100
AcDbEntity
  8
0
 62
     0
100
AcDb2dPolyline
 66
     1
 70
     1
 40
0.5
 41
0.5
  0
VERTEX
  5
42
100
AcDbEntity
  8
0
 62
     0
100
AcDbVertex
100
AcDb2dVertex
 10
-0.25
 20
0.0
 42
1.0
  0
VERTEX
  5
43
100
AcDbEntity
  8
0
 62
     0
100
AcDbVertex
100
AcDb2dVertex
 10
0.25
 20
0.0
 42
1.0
  0
SEQEND
  5
44
100
AcDbEntity
  8
0
 62
     0
  0
LINE
  5
45
100
AcDbEntity
  8
0
 62
     0
100
AcDbLine
 10
-0.5
 20
0.0
 11
-1.0
 21
0.0
  0
ENDBLK
  5
46
100
AcDbEntity
  8
0
100
AcDbBlockEnd
  0
BLOCK
  5
48
100
AcDbEntity
  8
0
100
AcDbBlockBegin
  2
_OBLIQUE
 70
     0
 10
0.0
 20
0.0
  0
LINE
  5
49
100
AcDbEntity
  8
0
 62
     0
100
AcDbLine
 10
-0.353553
 20
-0.353553
 11
0.353553
 21
0.353553
  0
ENDBLK
  5
4A
100
AcDbEntity
  8
0
100
AcDbBlockEnd
  0
BLOCK
  5
4C
100
AcDbEntity
  8
DD0
100
AcDbBlockBegin
  2
DIMS0
 70
     0
 10
0.0
 20
0.0
  0
LINE
  5
4D
100
AcDbEntity
  8
DD0
100
AcDbLine
 10
157.89175
 20
281.181144
 11
157.89175
 21
226.880693
  0
LINE
  5
4E
100
AcDbEntity
  8
DD0
100
AcDbLine
 10
248.891802
 20
300.681375
 11
248.891802
 21
226.880693
  0
LINE
  5
4F
100
AcDbEntity
  8
DD0
100
AcDbLine
 10
162.031432
 20
229.418489
 11
157.89175
 21
228.309265
  0
LINE
  5
50
100
AcDbEntity
  8
DD0
100
AcDbLine
 10
157.89175
 20
228.309265
 11
162.031432
 21
227.20004
  0
LINE
  5
51
100
AcDbEntity
  8
DD0
100
AcDbLine
 10
244.75212
 20
227.20004
 11
248.891802
 21
228.309265
  0
LINE
  5
52
100
AcDbEntity
  8
DD0
100
AcDbLine
 10
248.891802
 20
228.309265
 11
244.75212
 21
229.418489
  0
LINE
  5
53
100
AcDbEntity
  8
DD0
100
AcDbLine
 10
157.89175
 20
228.309265
 11
248.891802
 21
228.309265
  0
TEXT
  5
54
100
AcDbEntity
  8
DD0
100
AcDbText
 10
199.259638
 20
229.166416
 40
4.5
  1
９１
 41
0.833333
  7
STANDARD
100
AcDbText
  0
ENDBLK
  5
55
100
AcDbEntity
  8
DD0
100
AcDbBlockEnd
  0
BLOCK
  5
58
100
AcDbEntity
  8
DD0
100
AcDbBlockBegin
  2
DIMS1
 70
     0
 10
0.0
 20
0.0
  0
LINE
  5
59
100
AcDbEntity
  8
DD0
100
AcDbLine
 10
60.418599
 20
364.037983
 11
60.418599
 21
389.674253
  0
LINE
  5
5A
100
AcDbEntity
  8
DD0
100
AcDbLine
 10
123.418603
 20
364.038027
 11
123.418603
 21
389.674253
  0
LINE
  5
5B
100
AcDbEntity
  8
DD0
100
AcDbLine
 10
64.558281
 20
389.354906
 11
60.418599
 21
388.245682
  0
LINE
  5
5C
100
AcDbEntity
  8
DD0
100
AcDbLine
 10
60.418599
 20
388.245682
 11
64.558281
 21
387.136457
  0
LINE
  5
5D
100
AcDbEntity
  8
DD0
100
AcDbLine
 10
119.278921
 20
387.136457
 11
123.418603
 21
388.245682
  0
LINE
  5
5E
100
AcDbEntity
  8
DD0
100
AcDbLine
 10
123.418603
 20
388.245682
 11
119.278921
 21
389.354906
  0
LINE
  5
5F
100
AcDbEntity
  8
DD0
100
AcDbLine
 10
60.418599
 20
388.245682
 11
123.418603
 21
388.245682
  0
TEXT
  5
60
100
AcDbEntity
  8
DD0
100
AcDbText
 10
87.786455
 20
389.102833
 40
4.5
  1
６３
 41
0.833333
  7
STANDARD
100
AcDbText
  0
ENDBLK
  5
61
100
AcDbEntity
  8
DD0
100
AcDbBlockEnd
  0
BLOCK
  5
64
100
AcDbEntity
  8
DD0
100
AcDbBlockBegin
  2
DIMS2
 70
     0
 10
0.0
 20
0.0
  0
LINE
  5
65
100
AcDbEntity
  8
DD0
100
AcDbLine
 10
113.896977
 20
367.109468
 11
139.915785
 21
367.109468
  0
LINE
  5
66
100
AcDbEntity
  8
DD0
100
AcDbLine
 10
102.347054
 20
248.309723
 11
139.915785
 21
248.309723
  0
LINE
  5
67
100
AcDbEntity
  8
DD0
100
AcDbLine
 10
139.596438
 20
362.969786
 11
138.487213
 21
367.109468
  0
LINE
  5
68
100
AcDbEntity
  8
DD0
100
AcDbLine
 10
138.487213
 20
367.109468
 11
137.377989
 21
362.969786
  0
LINE
  5
69
100
AcDbEntity
  8
DD0
100
AcDbLine
 10
137.377989
 20
252.449405
 11
138.487213
 21
248.309723
  0
LINE
  5
6A
100
AcDbEntity
  8
DD0
100
AcDbLine
 10
138.487213
 20
248.309723
 11
139.596438
 21
252.449405
  0
LINE
  5
6B
100
AcDbEntity
  8
DD0
100
AcDbLine
 10
138.487213
 20
367.109468
 11
138.487213
 21
248.309723
  0
TEXT
  5
6C
100
AcDbEntity
  8
DD0
100
AcDbText
 10
137.630073
 20
301.327446
 40
4.5
  1
１１９
 50
90.000003
 41
0.833333
  7
STANDARD
100
AcDbText
  0
ENDBLK
  5
6D
100
AcDbEntity
  8
DD0
100
AcDbBlockEnd
  0
BLOCK
  5
70
100
AcDbEntity
  8
DD0
100
AcDbBlockBegin
  2
DIMS3
 70
     0
 10
0.0
 20
0.0
  0
LINE
  5
71
100
AcDbEntity
  8
DD0
100
AcDbLine
 10
248.891802
 20
368.538519
 11
248.891802
 21
389.674253
  0
LINE
  5
72
100
AcDbEntity
  8
DD0
100
AcDbLine
 10
170.891912
 20
360.538489
 11
170.891912
 21
389.674253
  0
LINE
  5
73
100
AcDbEntity
  8
DD0
100
AcDbLine
 10
244.75212
 20
387.136457
 11
248.891802
 21
388.245682
  0
LINE
  5
74
100
AcDbEntity
  8
DD0
100
AcDbLine
 10
248.891802
 20
388.245682
 11
244.75212
 21
389.354906
  0
LINE
  5
75
100
AcDbEntity
  8
DD0
100
AcDbLine
 10
175.031594
 20
389.354906
 11
170.891912
 21
388.245682
  0
LINE
  5
76
100
AcDbEntity
  8
DD0
100
AcDbLine
 10
170.891912
 20
388.245682
 11
175.031594
 21
387.136457
  0
LINE
  5
77
100
AcDbEntity
  8
DD0
100
AcDbLine
 10
248.891802
 20
388.245682
 11
170.891912
 21
388.245682
  0
TEXT
  5
78
100
AcDbEntity
  8
DD0
100
AcDbText
 10
205.75973
 20
389.102833
 40
4.5
  1
７８
 41
0.833333
  7
STANDARD
100
AcDbText
  0
ENDBLK
  5
79
100
AcDbEntity
  8
DD0
100
AcDbBlockEnd
  0
BLOCK
  5
7C
100
AcDbEntity
  8
DD0
100
AcDbBlockBegin
  2
DIMS4
 70
     0
 10
0.0
 20
0.0
  0
LINE
  5
7D
100
AcDbEntity
  8
DD0
100
AcDbLine
 10
166.891842
 20
338.038488
 11
166.891842
 21
389.674253
  0
LINE
  5
7E
100
AcDbEntity
  8
DD0
100
AcDbLine
 10
170.891912
 20
360.538489
 11
170.891912
 21
389.674253
  0
LINE
  5
7F
100
AcDbEntity
  8
DD0
100
AcDbLine
 10
162.75216
 20
387.136457
 11
166.891842
 21
388.245682
  0
LINE
  5
80
100
AcDbEntity
  8
DD0
100
AcDbLine
 10
166.891842
 20
388.245682
 11
162.75216
 21
389.354906
  0
LINE
  5
81
100
AcDbEntity
  8
DD0
100
AcDbLine
 10
175.031594
 20
389.354906
 11
170.891912
 21
388.245682
  0
LINE
  5
82
100
AcDbEntity
  8
DD0
100
AcDbLine
 10
170.891912
 20
388.245682
 11
175.031594
 21
387.136457
  0
LINE
  5
83
100
AcDbEntity
  8
DD0
100
AcDbLine
 10
156.248985
 20
388.245682
 11
175.606198
 21
388.245682
  0
TEXT
  5
84
100
AcDbEntity
  8
DD0
100
AcDbText
 10
157.402545
 20
389.102833
 40
4.5
  1
４
 41
0.833333
  7
STANDARD
100
AcDbText
  0
ENDBLK
  5
85
100
AcDbEntity
  8
DD0
100
AcDbBlockEnd
  0
BLOCK
  5
88
100
AcDbEntity
  8
DD0
100
AcDbBlockBegin
  2
DIMS5
 70
     0
 10
0.0
 20
0.0
  0
LINE
  5
89
100
AcDbEntity
  8
DD0
 60
     1
100
AcDbLine
 10
248.891802
 20
368.538519
 11
248.891802
 21
377.994609
  0
LINE
  5
8A
100
AcDbEntity
  8
DD0
100
AcDbLine
 10
238.891802
 20
368.538476
 11
238.891802
 21
377.994609
  0
LINE
  5
8B
100
AcDbEntity
  8
DD0
100
AcDbLine
 10
244.75212
 20
375.456813
 11
248.891802
 21
376.566038
  0
LINE
  5
8C
100
AcDbEntity
  8
DD0
100
AcDbLine
 10
248.891802
 20
376.566038
 11
244.75212
 21
377.675262
  0
LINE
  5
8D
100
AcDbEntity
  8
DD0
100
AcDbLine
 10
243.031484
 20
377.675262
 11
238.891802
 21
376.566038
  0
LINE
  5
8E
100
AcDbEntity
  8
DD0
100
AcDbLine
 10
238.891802
 20
376.566038
 11
243.031484
 21
375.456813
  0
LINE
  5
8F
100
AcDbEntity
  8
DD0
100
AcDbLine
 10
248.891802
 20
376.566038
 11
238.891802
 21
376.566038
  0
TEXT
  5
90
100
AcDbEntity
  8
DD0
100
AcDbText
 10
239.759669
 20
377.423189
 40
4.5
  1
１０
 41
0.833333
  7
STANDARD
100
AcDbText
  0
ENDBLK
  5
91
100
AcDbEntity
  8
DD0
100
AcDbBlockEnd
  0
BLOCK
  5
94
100
AcDbEntity
  8
DD0
100
AcDbBlockBegin
  2
DIMS6
 70
     0
 10
0.0
 20
0.0
  0
TEXT
  5
95
100
AcDbEntity
  8
DD0
100
AcDbText
 10
44.43237
 20
212.976012
 40
4.5
  1
２－Ｍ４ねじ穴
 50
-5.464151E-005
 41
0.666667
  7
STANDARD
100
AcDbText
  0
LINE
  5
96
100
AcDbEntity
  8
DD0
100
AcDbLine
 10
69.315039
 20
200.21645
 11
73.042985
 21
198.102268
  0
LINE
  5
97
100
AcDbEntity
  8
DD0
100
AcDbLine
 10
73.042985
 20
198.102268
 11
70.87158
 21
201.797176
  0
LINE
  5
98
100
AcDbEntity
  8
DD0
100
AcDbLine
 10
73.042985
 20
198.102268
 11
60.817578
 21
210.140624
  0
ENDBLK
  5
99
100
AcDbEntity
  8
DD0
100
AcDbBlockEnd
  0
BLOCK
  5
9C
100
AcDbEntity
  8
DD0
100
AcDbBlockBegin
  2
DIMS7
 70
     0
 10
0.0
 20
0.0
  0
LINE
  5
9D
100
AcDbEntity
  8
DD0
100
AcDbLine
 10
124.847174
 20
201.27045
 11
139.915785
 21
201.27045
  0
LINE
  5
9E
100
AcDbEntity
  8
DD0
100
AcDbLine
 10
91.347167
 20
196.27021
 11
139.915785
 21
196.27021
  0
LINE
  5
9F
100
AcDbEntity
  8
DD0
100
AcDbLine
 10
137.377989
 20
205.410132
 11
138.487213
 21
201.27045
  0
LINE
  5
A0
100
AcDbEntity
  8
DD0
100
AcDbLine
 10
138.487213
 20
201.27045
 11
139.596438
 21
205.410132
  0
LINE
  5
A1
100
AcDbEntity
  8
DD0
100
AcDbLine
 10
139.596438
 20
192.130528
 11
138.487213
 21
196.27021
  0
LINE
  5
A2
100
AcDbEntity
  8
DD0
100
AcDbLine
 10
138.487213
 20
196.27021
 11
137.377989
 21
192.130528
  0
LINE
  5
A3
100
AcDbEntity
  8
DD0
100
AcDbLine
 10
138.487213
 20
211.913307
 11
138.487213
 21
191.555925
  0
TEXT
  5
A4
100
AcDbEntity
  8
DD0
100
AcDbText
 10
137.630073
 20
206.352599
 40
4.5
  1
５
 50
90.000003
 41
0.833333
  7
STANDARD
100
AcDbText
  0
ENDBLK
  5
A5
100
AcDbEntity
  8
DD0
100
AcDbBlockEnd
  0
BLOCK
  5
A8
100
AcDbEntity
  8
DD0
100
AcDbBlockBegin
  2
DIMS8
 70
     0
 10
0.0
 20
0.0
  0
LINE
  5
A9
100
AcDbEntity
  8
DD0
100
AcDbLine
 10
75.418599
 20
212.198773
 11
75.418599
 21
229.737836
  0
LINE
  5
AA
100
AcDbEntity
  8
DD0
100
AcDbLine
 10
108.418603
 20
157.199012
 11
108.418603
 21
229.737836
  0
LINE
  5
AB
100
AcDbEntity
  8
DD0
100
AcDbLine
 10
79.558281
 20
229.418489
 11
75.418599
 21
228.309265
  0
LINE
  5
AC
100
AcDbEntity
  8
DD0
100
AcDbLine
 10
75.418599
 20
228.309265
 11
79.558281
 21
227.20004
  0
LINE
  5
AD
100
AcDbEntity
  8
DD0
100
AcDbLine
 10
104.278921
 20
227.20004
 11
108.418603
 21
228.309265
  0
LINE
  5
AE
100
AcDbEntity
  8
DD0
100
AcDbLine
 10
108.418603
 20
228.309265
 11
104.278921
 21
229.418489
  0
LINE
  5
AF
100
AcDbEntity
  8
DD0
100
AcDbLine
 10
75.418599
 20
228.309265
 11
108.418603
 21
228.309265
  0
TEXT
  5
B0
100
AcDbEntity
  8
DD0
100
AcDbText
 10
87.786455
 20
229.166416
 40
4.5
  1
３３
 41
0.833333
  7
STANDARD
100
AcDbText
  0
ENDBLK
  5
B1
100
AcDbEntity
  8
DD0
100
AcDbBlockEnd
  0
BLOCK
  5
B4
100
AcDbEntity
  8
DD0
100
AcDbBlockBegin
  2
DIMS9
 70
     0
 10
0.0
 20
0.0
  0
LINE
  5
B5
100
AcDbEntity
  8
DD0
100
AcDbLine
 10
91.347167
 20
196.27021
 11
139.915785
 21
196.27021
  0
LINE
  5
B6
100
AcDbEntity
  8
DD0
100
AcDbLine
 10
124.347166
 20
141.270449
 11
139.915785
 21
141.270449
  0
LINE
  5
B7
100
AcDbEntity
  8
DD0
100
AcDbLine
 10
139.596438
 20
192.130528
 11
138.487213
 21
196.27021
  0
LINE
  5
B8
100
AcDbEntity
  8
DD0
100
AcDbLine
 10
138.487213
 20
196.27021
 11
137.377989
 21
192.130528
  0
LINE
  5
B9
100
AcDbEntity
  8
DD0
100
AcDbLine
 10
137.377989
 20
145.410131
 11
138.487213
 21
141.270449
  0
LINE
  5
BA
100
AcDbEntity
  8
DD0
100
AcDbLine
 10
138.487213
 20
141.270449
 11
139.596438
 21
145.410131
  0
LINE
  5
BB
100
AcDbEntity
  8
DD0
100
AcDbLine
 10
138.487213
 20
196.27021
 11
138.487213
 21
141.270449
  0
TEXT
  5
BC
100
AcDbEntity
  8
DD0
100
AcDbText
 10
137.630073
 20
164.638186
 40
4.5
  1
５５
 50
90.000003
 41
0.833333
  7
STANDARD
100
AcDbText
  0
ENDBLK
  5
BD
100
AcDbEntity
  8
DD0
100
AcDbBlockEnd
  0
ENDSEC
  0
SECTION
  2
ENTITIES
  0
INSERT
  5
56
100
AcDbEntity
  8
DD0
100
AcDbBlockReference
  2
DIMS0
 10
0.0
 20
0.0
  0
INSERT
  5
62
100
AcDbEntity
  8
DD0
100
AcDbBlockReference
  2
DIMS1
 10
0.0
 20
0.0
  0
INSERT
  5
6E
100
AcDbEntity
  8
DD0
100
AcDbBlockReference
  2
DIMS2
 10
0.0
 20
0.0
  0
INSERT
  5
7A
100
AcDbEntity
  8
DD0
100
AcDbBlockReference
  2
DIMS3
 10
0.0
 20
0.0
  0
INSERT
  5
86
100
AcDbEntity
  8
DD0
100
AcDbBlockReference
  2
DIMS4
 10
0.0
 20
0.0
  0
INSERT
  5
92
100
AcDbEntity
  8
DD0
100
AcDbBlockReference
  2
DIMS5
 10
0.0
 20
0.0
  0
INSERT
  5
9A
100
AcDbEntity
  8
DD0
100
AcDbBlockReference
  2
DIMS6
 10
0.0
 20
0.0
  0
INSERT
  5
A6
100
AcDbEntity
  8
DD0
100
AcDbBlockReference
  2
DIMS7
 10
0.0
 20
0.0
  0
INSERT
  5
B2
100
AcDbEntity
  8
DD0
100
AcDbBlockReference
  2
DIMS8
 10
0.0
 20
0.0
  0
INSERT
  5
BE
100
AcDbEntity
  8
DD0
100
AcDbBlockReference
  2
DIMS9
 10
0.0
 20
0.0
  0
LINE
  5
BF
100
AcDbEntity
  8
M0
100
AcDbLine
 10
219.49184
 20
309.609938
 11
229.703525
 21
308.609938
  0
LINE
  5
C0
100
AcDbEntity
  8
M0
 62
     4
100
AcDbLine
 10
123.418598
 20
306.609435
 11
123.418598
 21
362.60945
  0
LINE
  5
C1
100
AcDbEntity
  8
M0
 62
     4
100
AcDbLine
 10
60.418598
 20
362.609404
 11
60.418598
 21
306.609465
  0
LINE
  5
C2
100
AcDbEntity
  8
M0
  6
DASHDOT
 62
     4
100
AcDbLine
 10
54.657459
 20
334.60945
 11
128.85384
 21
334.60945
  0
LINE
  5
C3
100
AcDbEntity
  8
M0
  6
DASHDOT
 62
     4
100
AcDbLine
 10
91.918598
 20
297.10945
 11
91.918598
 21
372.10945
  0
LINE
  5
C4
100
AcDbEntity
  8
M0
 62
     4
100
AcDbLine
 10
92.968403
 20
350.60945
 11
92.968403
 21
365.109404
  0
LINE
  5
C5
100
AcDbEntity
  8
M0
 62
     4
100
AcDbLine
 10
100.868549
 20
350.60945
 11
100.868549
 21
366.60945
  0
LINE
  5
C6
100
AcDbEntity
  8
M0
 62
     4
100
AcDbLine
 10
82.468403
 20
365.609435
 11
81.368549
 21
365.609435
  0
LINE
  5
C7
100
AcDbEntity
  8
M0
 62
     4
100
AcDbLine
 10
93.968403
 20
349.60945
 11
99.868549
 21
349.60945
  0
ARC
  5
C8
100
AcDbEntity
  8
M0
 62
     4
100
AcDbCircle
 10
93.968403
 20
350.60945
 40
1.0
100
AcDbArc
 50
180.0
 51
270.0
  0
ARC
  5
C9
100
AcDbEntity
  8
M0
 62
     4
100
AcDbCircle
 10
99.868549
 20
350.60945
 40
1.0
100
AcDbArc
 50
269.915907
 51
360.0
  0
ARC
  5
CA
100
AcDbEntity
  8
M0
 62
     4
100
AcDbCircle
 10
101.368549
 20
365.109435
 40
0.5
100
AcDbArc
 50
90.0
 51
180.0
  0
ARC
  5
CB
100
AcDbEntity
  8
M0
 62
     4
100
AcDbCircle
 10
92.468403
 20
365.109419
 40
0.5
100
AcDbArc
 50
0.0
 51
90.0
  0
LINE
  5
CC
100
AcDbEntity
  8
M0
 62
     4
100
AcDbLine
 10
62.468418
 20
363.109419
 11
60.918613
 21
363.109419
  0
LINE
  5
CD
100
AcDbEntity
  8
M0
 62
     4
100
AcDbLine
 10
72.468403
 20
365.609419
 11
71.368549
 21
365.609419
  0
LINE
  5
CE
100
AcDbEntity
  8
M0
 62
     4
100
AcDbLine
 10
102.468403
 20
365.609435
 11
101.368549
 21
365.609435
  0
LINE
  5
CF
100
AcDbEntity
  8
M0
 62
     4
100
AcDbLine
 10
112.468403
 20
365.609435
 11
111.368549
 21
365.609435
  0
ARC
  5
D0
100
AcDbEntity
  8
M0
 62
     4
100
AcDbCircle
 10
111.368549
 20
365.109435
 40
0.5
100
AcDbArc
 50
90.0
 51
180.0
  0
ARC
  5
D1
100
AcDbEntity
  8
M0
 62
     4
100
AcDbCircle
 10
81.368549
 20
365.109419
 40
0.5
100
AcDbArc
 50
90.0
 51
180.0
  0
ARC
  5
D2
100
AcDbEntity
  8
M0
 62
     4
100
AcDbCircle
 10
71.368549
 20
365.109404
 40
0.5
100
AcDbArc
 50
89.998251
 51
180.0
  0
ARC
  5
D3
100
AcDbEntity
  8
M0
 62
     4
100
AcDbCircle
 10
60.918613
 20
362.609404
 40
0.5
100
AcDbArc
 50
89.998251
 51
180.0
  0
LINE
  5
D4
100
AcDbEntity
  8
M0
 62
     4
100
AcDbLine
 10
112.968403
 20
359.10945
 11
120.868549
 21
359.10945
  0
LINE
  5
D5
100
AcDbEntity
  8
M0
 62
     4
100
AcDbLine
 10
102.968403
 20
359.10945
 11
110.868549
 21
359.10945
  0
LINE
  5
D6
100
AcDbEntity
  8
M0
 62
     4
100
AcDbLine
 10
92.968403
 20
359.10945
 11
100.868549
 21
359.10945
  0
LINE
  5
D7
100
AcDbEntity
  8
M0
 62
     4
100
AcDbLine
 10
72.968403
 20
359.10945
 11
80.868549
 21
359.10945
  0
LINE
  5
D8
100
AcDbEntity
  8
M0
 62
     4
100
AcDbLine
 10
70.868549
 20
359.10945
 11
62.968403
 21
359.10945
  0
LINE
  5
D9
100
AcDbEntity
  8
M0
 62
     4
100
AcDbLine
 10
101.368549
 20
367.10945
 11
112.468403
 21
367.10945
  0
ARC
  5
DA
100
AcDbEntity
  8
M0
 62
     4
100
AcDbCircle
 10
101.368549
 20
366.60945
 40
0.5
100
AcDbArc
 50
90.0
 51
180.0
  0
ARC
  5
DB
100
AcDbEntity
  8
M0
 62
     4
100
AcDbCircle
 10
111.368549
 20
366.60945
 40
0.5
100
AcDbArc
 50
90.0
 51
180.0
  0
LINE
  5
DC
100
AcDbEntity
  8
M0
 62
     4
100
AcDbLine
 10
102.968403
 20
350.60945
 11
102.968403
 21
366.60945
  0
ARC
  5
DD
100
AcDbEntity
  8
M0
 62
     4
100
AcDbCircle
 10
103.968403
 20
350.60945
 40
1.0
100
AcDbArc
 50
180.0
 51
269.929895
  0
LINE
  5
DE
100
AcDbEntity
  8
M0
 62
     4
100
AcDbLine
 10
103.968403
 20
349.60945
 11
109.868549
 21
349.60945
  0
ARC
  5
DF
100
AcDbEntity
  8
M0
 62
     4
100
AcDbCircle
 10
109.868549
 20
350.60945
 40
1.0
100
AcDbArc
 50
269.914322
 51
360.0
  0
LINE
  5
E0
100
AcDbEntity
  8
M0
 62
     4
100
AcDbLine
 10
110.868549
 20
350.60945
 11
110.868549
 21
366.60945
  0
ARC
  5
E1
100
AcDbEntity
  8
M0
 62
     4
100
AcDbCircle
 10
102.468403
 20
365.109419
 40
0.5
100
AcDbArc
 50
0.0
 51
90.0
  0
LINE
  5
E2
100
AcDbEntity
  8
M0
 62
     4
100
AcDbLine
 10
72.968403
 20
350.60945
 11
72.968403
 21
365.109389
  0
ARC
  5
E3
100
AcDbEntity
  8
M0
 62
     4
100
AcDbCircle
 10
73.968403
 20
350.60945
 40
1.0
100
AcDbArc
 50
180.0
 51
269.930059
  0
LINE
  5
E4
100
AcDbEntity
  8
M0
 62
     4
100
AcDbLine
 10
73.968403
 20
349.60945
 11
79.868549
 21
349.60945
  0
ARC
  5
E5
100
AcDbEntity
  8
M0
 62
     4
100
AcDbCircle
 10
79.868549
 20
350.60945
 40
1.0
100
AcDbArc
 50
269.887985
 51
360.0
  0
LINE
  5
E6
100
AcDbEntity
  8
M0
 62
     4
100
AcDbLine
 10
80.868549
 20
350.60945
 11
80.868549
 21
365.109419
  0
ARC
  5
E7
100
AcDbEntity
  8
M0
 62
     4
100
AcDbCircle
 10
72.468403
 20
365.109404
 40
0.5
100
AcDbArc
 50
0.0
 51
89.998251
  0
LINE
  5
E8
100
AcDbEntity
  8
M0
 62
     4
100
AcDbLine
 10
112.968403
 20
350.60945
 11
112.968403
 21
366.60945
  0
ARC
  5
E9
100
AcDbEntity
  8
M0
 62
     4
100
AcDbCircle
 10
113.968403
 20
350.60945
 40
1.0
100
AcDbArc
 50
180.0
 51
269.92831
  0
LINE
  5
EA
100
AcDbEntity
  8
M0
 62
     4
100
AcDbLine
 10
113.968403
 20
349.60945
 11
119.868549
 21
349.60945
  0
ARC
  5
EB
100
AcDbEntity
  8
M0
 62
     4
100
AcDbCircle
 10
119.868549
 20
350.60945
 40
1.0
100
AcDbArc
 50
269.914322
 51
360.0
  0
LINE
  5
EC
100
AcDbEntity
  8
M0
 62
     4
100
AcDbLine
 10
120.868549
 20
350.60945
 11
120.868549
 21
362.60945
  0
ARC
  5
ED
100
AcDbEntity
  8
M0
 62
     4
100
AcDbCircle
 10
112.468403
 20
365.109419
 40
0.5
100
AcDbArc
 50
0.0
 51
90.0
  0
ARC
  5
EE
100
AcDbEntity
  8
M0
 62
     4
100
AcDbCircle
 10
102.468403
 20
366.60945
 40
0.5
100
AcDbArc
 50
0.0
 51
90.0
  0
ARC
  5
EF
100
AcDbEntity
  8
M0
 62
     4
100
AcDbCircle
 10
63.968403
 20
350.60945
 40
1.0
100
AcDbArc
 50
180.0
 51
269.969401
  0
LINE
  5
F0
100
AcDbEntity
  8
M0
 62
     4
100
AcDbLine
 10
62.968403
 20
350.60945
 11
62.968403
 21
362.609389
  0
LINE
  5
F1
100
AcDbEntity
  8
M0
 62
     4
100
AcDbLine
 10
63.968403
 20
349.60945
 11
69.868549
 21
349.60945
  0
ARC
  5
F2
100
AcDbEntity
  8
M0
 62
     4
100
AcDbCircle
 10
69.868549
 20
350.60945
 40
1.0
100
AcDbArc
 50
269.927436
 51
360.0
  0
LINE
  5
F3
100
AcDbEntity
  8
M0
 62
     4
100
AcDbLine
 10
70.868549
 20
350.60945
 11
70.868549
 21
365.109404
  0
ARC
  5
F4
100
AcDbEntity
  8
M0
 62
     4
100
AcDbCircle
 10
62.468418
 20
362.609404
 40
0.5
100
AcDbArc
 50
0.0
 51
89.998251
  0
LINE
  5
F5
100
AcDbEntity
  8
M0
 62
     4
100
AcDbLine
 10
60.918598
 20
306.10945
 11
62.468647
 21
306.10945
  0
LINE
  5
F6
100
AcDbEntity
  8
M0
 62
     4
100
AcDbLine
 10
100.868793
 20
318.60945
 11
100.868793
 21
305.60948
  0
LINE
  5
F7
100
AcDbEntity
  8
M0
 62
     4
100
AcDbLine
 10
92.968647
 20
318.60945
 11
92.968647
 21
305.609465
  0
LINE
  5
F8
100
AcDbEntity
  8
M0
 62
     4
100
AcDbLine
 10
101.368793
 20
305.109465
 11
102.468647
 21
305.109465
  0
LINE
  5
F9
100
AcDbEntity
  8
M0
 62
     4
100
AcDbLine
 10
99.868793
 20
319.60945
 11
93.968647
 21
319.60945
  0
ARC
  5
FA
100
AcDbEntity
  8
M0
 62
     4
100
AcDbCircle
 10
99.868793
 20
318.60945
 40
1.0
100
AcDbArc
 50
0.0
 51
90.0
  0
ARC
  5
FB
100
AcDbEntity
  8
M0
 62
     4
100
AcDbCircle
 10
93.968647
 20
318.60945
 40
1.0
100
AcDbArc
 50
89.916071
 51
179.999945
  0
ARC
  5
FC
100
AcDbEntity
  8
M0
 62
     4
100
AcDbCircle
 10
92.468647
 20
305.609465
 40
0.5
100
AcDbArc
 50
270.026119
 51
360.0
  0
ARC
  5
FD
100
AcDbEntity
  8
M0
 62
     4
100
AcDbCircle
 10
101.368793
 20
305.60948
 40
0.5
100
AcDbArc
 50
179.998251
 51
270.026119
  0
LINE
  5
FE
100
AcDbEntity
  8
M0
 62
     4
100
AcDbLine
 10
111.368793
 20
305.10948
 11
112.468647
 21
305.10948
  0
LINE
  5
FF
100
AcDbEntity
  8
M0
 62
     4
100
AcDbLine
 10
81.368794
 20
305.109465
 11
82.468648
 21
305.109465
  0
LINE
  5
100
100
AcDbEntity
  8
M0
 62
     4
100
AcDbLine
 10
71.368793
 20
305.109465
 11
72.468647
 21
305.109465
  0
ARC
  5
101
100
AcDbEntity
  8
M0
 62
     4
100
AcDbCircle
 10
62.468647
 20
306.609465
 40
0.5
100
AcDbArc
 50
270.029726
 51
360.0
  0
ARC
  5
102
100
AcDbEntity
  8
M0
 62
     4
100
AcDbCircle
 10
72.468647
 20
305.609465
 40
0.5
100
AcDbArc
 50
270.029726
 51
360.0
  0
ARC
  5
103
100
AcDbEntity
  8
M0
 62
     4
100
AcDbCircle
 10
102.468647
 20
305.60948
 40
0.5
100
AcDbArc
 50
270.026119
 51
360.0
  0
ARC
  5
104
100
AcDbEntity
  8
M0
 62
     4
100
AcDbCircle
 10
112.468647
 20
305.609496
 40
0.5
100
AcDbArc
 50
270.02448
 51
360.0
  0
LINE
  5
105
100
AcDbEntity
  8
M0
 62
     4
100
AcDbLine
 10
70.868793
 20
310.10945
 11
62.968647
 21
310.10945
  0
LINE
  5
106
100
AcDbEntity
  8
M0
 62
     4
100
AcDbLine
 10
80.868793
 20
310.10945
 11
72.968647
 21
310.10945
  0
LINE
  5
107
100
AcDbEntity
  8
M0
 62
     4
100
AcDbLine
 10
100.868793
 20
310.10945
 11
94.71844
 21
310.10945
  0
LINE
  5
108
100
AcDbEntity
  8
M0
 62
     4
100
AcDbLine
 10
110.868793
 20
310.10945
 11
102.968647
 21
310.10945
  0
LINE
  5
109
100
AcDbEntity
  8
M0
 62
     4
100
AcDbLine
 10
112.968647
 20
310.10945
 11
120.868793
 21
310.10945
  0
ARC
  5
10A
100
AcDbEntity
  8
M0
 62
     4
100
AcDbCircle
 10
82.468647
 20
302.60945
 40
0.5
100
AcDbArc
 50
323.079329
 51
360.0
  0
ARC
  5
10B
100
AcDbEntity
  8
M0
 62
     4
100
AcDbCircle
 10
72.468647
 20
302.60945
 40
0.5
100
AcDbArc
 50
270.029726
 51
360.0
  0
LINE
  5
10C
100
AcDbEntity
  8
M0
 62
     4
100
AcDbLine
 10
80.868793
 20
318.60945
 11
80.868793
 21
302.60945
  0
ARC
  5
10D
100
AcDbEntity
  8
M0
 62
     4
100
AcDbCircle
 10
79.868793
 20
318.60945
 40
1.0
100
AcDbArc
 50
0.0
 51
89.943938
  0
LINE
  5
10E
100
AcDbEntity
  8
M0
 62
     4
100
AcDbLine
 10
79.868793
 20
319.60945
 11
73.968647
 21
319.60945
  0
ARC
  5
10F
100
AcDbEntity
  8
M0
 62
     4
100
AcDbCircle
 10
73.968647
 20
318.60945
 40
1.0
100
AcDbArc
 50
89.914322
 51
179.999945
  0
LINE
  5
110
100
AcDbEntity
  8
M0
 62
     4
100
AcDbLine
 10
72.968647
 20
318.60945
 11
72.968647
 21
302.60945
  0
ARC
  5
111
100
AcDbEntity
  8
M0
 62
     4
100
AcDbCircle
 10
81.368793
 20
305.60948
 40
0.5
100
AcDbArc
 50
179.998251
 51
270.028087
  0
LINE
  5
112
100
AcDbEntity
  8
M0
 62
     4
100
AcDbLine
 10
110.868793
 20
318.60945
 11
110.868793
 21
305.609496
  0
ARC
  5
113
100
AcDbEntity
  8
M0
 62
     4
100
AcDbCircle
 10
109.868793
 20
318.60945
 40
1.0
100
AcDbArc
 50
0.0
 51
89.944047
  0
LINE
  5
114
100
AcDbEntity
  8
M0
 62
     4
100
AcDbLine
 10
109.868793
 20
319.60945
 11
103.968647
 21
319.60945
  0
ARC
  5
115
100
AcDbEntity
  8
M0
 62
     4
100
AcDbCircle
 10
103.968647
 20
318.60945
 40
1.0
100
AcDbArc
 50
89.888094
 51
179.999945
  0
LINE
  5
116
100
AcDbEntity
  8
M0
 62
     4
100
AcDbLine
 10
102.968647
 20
318.60945
 11
102.968647
 21
305.60948
  0
ARC
  5
117
100
AcDbEntity
  8
M0
 62
     4
100
AcDbCircle
 10
111.368793
 20
305.609496
 40
0.5
100
AcDbArc
 50
179.998251
 51
270.02448
  0
LINE
  5
118
100
AcDbEntity
  8
M0
 62
     4
100
AcDbLine
 10
70.868793
 20
318.60945
 11
70.868793
 21
302.609435
  0
ARC
  5
119
100
AcDbEntity
  8
M0
 62
     4
100
AcDbCircle
 10
69.868793
 20
318.60945
 40
1.0
100
AcDbArc
 50
0.0
 51
89.929185
  0
LINE
  5
11A
100
AcDbEntity
  8
M0
 62
     4
100
AcDbLine
 10
69.868793
 20
319.60945
 11
63.968647
 21
319.60945
  0
ARC
  5
11B
100
AcDbEntity
  8
M0
 62
     4
100
AcDbCircle
 10
63.968647
 20
318.60945
 40
1.0
100
AcDbArc
 50
89.914322
 51
179.999945
  0
LINE
  5
11C
100
AcDbEntity
  8
M0
 62
     4
100
AcDbLine
 10
62.968647
 20
318.60945
 11
62.968647
 21
306.609465
  0
ARC
  5
11D
100
AcDbEntity
  8
M0
 62
     4
100
AcDbCircle
 10
71.368793
 20
305.60948
 40
0.5
100
AcDbArc
 50
179.998251
 51
270.029726
  0
ARC
  5
11E
100
AcDbEntity
  8
M0
 62
     4
100
AcDbCircle
 10
81.368793
 20
302.60945
 40
0.5
100
AcDbArc
 50
179.998251
 51
270.028087
  0
ARC
  5
11F
100
AcDbEntity
  8
M0
 62
     4
100
AcDbCircle
 10
119.868793
 20
318.60945
 40
1.0
100
AcDbArc
 50
0.0
 51
89.972024
  0
LINE
  5
120
100
AcDbEntity
  8
M0
 62
     4
100
AcDbLine
 10
120.868793
 20
318.60945
 11
120.868793
 21
306.60945
  0
LINE
  5
121
100
AcDbEntity
  8
M0
 62
     4
100
AcDbLine
 10
119.868793
 20
319.60945
 11
113.968647
 21
319.60945
  0
ARC
  5
122
100
AcDbEntity
  8
M0
 62
     4
100
AcDbCircle
 10
113.968647
 20
318.60945
 40
1.0
100
AcDbArc
 50
89.930059
 51
179.999945
  0
LINE
  5
123
100
AcDbEntity
  8
M0
 62
     4
100
AcDbLine
 10
112.968647
 20
318.60945
 11
112.968647
 21
305.609496
  0
ARC
  5
124
100
AcDbEntity
  8
M0
 62
     4
100
AcDbCircle
 10
60.918598
 20
306.609465
 40
0.5
100
AcDbArc
 50
179.998251
 51
270.029726
  0
LINE
  5
125
100
AcDbEntity
  8
M0
 62
     4
100
AcDbLine
 10
88.918598
 20
330.959441
 11
90.918598
 21
330.959441
  0
LINE
  5
126
100
AcDbEntity
  8
M0
 62
     4
100
AcDbLine
 10
94.918598
 20
331.459441
 11
94.918598
 21
337.259413
  0
LINE
  5
127
100
AcDbEntity
  8
M0
 62
     4
100
AcDbLine
 10
94.418598
 20
337.759444
 11
92.918598
 21
337.759429
  0
LINE
  5
128
100
AcDbEntity
  8
M0
 62
     4
100
AcDbLine
 10
88.418598
 20
337.259413
 11
88.418598
 21
331.459441
  0
ARC
  5
129
100
AcDbEntity
  8
M0
 62
     4
100
AcDbCircle
 10
94.418598
 20
331.459441
 40
0.5
100
AcDbArc
 50
270.0
 51
360.0
  0
ARC
  5
12A
100
AcDbEntity
  8
M0
 62
     4
100
AcDbCircle
 10
94.418598
 20
337.259429
 40
0.5
100
AcDbArc
 50
0.0
 51
90.0
  0
ARC
  5
12B
100
AcDbEntity
  8
M0
 62
     4
100
AcDbCircle
 10
88.918598
 20
337.259428
 40
0.5
100
AcDbArc
 50
90.0
 51
180.0
  0
ARC
  5
12C
100
AcDbEntity
  8
M0
 62
     4
100
AcDbCircle
 10
88.918599
 20
331.459441
 40
0.5
100
AcDbArc
 50
179.999891
 51
270.0
  0
ARC
  5
12D
100
AcDbEntity
  8
M0
 62
     4
100
AcDbCircle
 10
91.368824
 20
365.109419
 40
0.5
100
AcDbArc
 50
90.0
 51
180.0
  0
LINE
  5
12E
100
AcDbEntity
  8
M0
 62
     4
100
AcDbLine
 10
90.868824
 20
350.60945
 11
90.868824
 21
365.109404
  0
LINE
  5
12F
100
AcDbEntity
  8
M0
 62
     4
100
AcDbLine
 10
90.868824
 20
359.10945
 11
82.968677
 21
359.10945
  0
LINE
  5
130
100
AcDbEntity
  8
M0
 62
     4
100
AcDbLine
 10
89.868824
 20
349.60945
 11
83.968677
 21
349.60945
  0
ARC
  5
131
100
AcDbEntity
  8
M0
 62
     4
100
AcDbCircle
 10
89.868824
 20
350.60945
 40
1.0
100
AcDbArc
 50
-90.0
 51
0.0
  0
ARC
  5
132
100
AcDbEntity
  8
M0
 62
     4
100
AcDbCircle
 10
83.968677
 20
350.60945
 40
1.0
100
AcDbArc
 50
180.0
 51
270.084804
  0
LINE
  5
133
100
AcDbEntity
  8
M0
 62
     4
100
AcDbLine
 10
82.968677
 20
350.60945
 11
82.968677
 21
365.109435
  0
LINE
  5
134
100
AcDbEntity
  8
M0
 62
     4
100
AcDbLine
 10
82.968677
 20
350.60945
 11
82.968677
 21
365.109435
  0
ARC
  5
135
100
AcDbEntity
  8
M0
 62
     4
100
AcDbCircle
 10
82.468677
 20
365.109435
 40
0.5
100
AcDbArc
 50
0.0
 51
90.0
  0
LINE
  5
136
100
AcDbEntity
  8
M0
 62
     4
100
AcDbLine
 10
82.968662
 20
318.60945
 11
82.968662
 21
302.60945
  0
ARC
  5
137
100
AcDbEntity
  8
M0
 62
     4
100
AcDbCircle
 10
83.968662
 20
318.60945
 40
1.0
100
AcDbArc
 50
89.915142
 51
179.999945
  0
LINE
  5
138
100
AcDbEntity
  8
M0
 62
     4
100
AcDbLine
 10
89.868809
 20
319.60945
 11
83.968662
 21
319.60945
  0
ARC
  5
139
100
AcDbEntity
  8
M0
 62
     4
100
AcDbCircle
 10
89.868809
 20
318.60945
 40
1.0
100
AcDbArc
 50
0.0
 51
90.0
  0
LINE
  5
13A
100
AcDbEntity
  8
M0
 62
     4
100
AcDbLine
 10
90.868809
 20
318.60945
 11
90.868809
 21
305.60948
  0
LINE
  5
13B
100
AcDbEntity
  8
M0
 62
     4
100
AcDbLine
 10
90.868793
 20
310.10945
 11
84.718442
 21
310.10945
  0
ARC
  5
13C
100
AcDbEntity
  8
M0
 62
     4
100
AcDbCircle
 10
91.368793
 20
305.60948
 40
0.5
100
AcDbArc
 50
179.998251
 51
270.0
  0
ARC
  5
13D
100
AcDbEntity
  8
M0
 62
     4
100
AcDbCircle
 10
82.468647
 20
305.609465
 40
0.5
100
AcDbArc
 50
270.0
 51
360.0
  0
ARC
  5
13E
100
AcDbEntity
  8
M0
 62
     4
100
AcDbCircle
 10
112.468403
 20
366.60945
 40
0.5
100
AcDbArc
 50
0.0
 51
90.0
  0
LINE
  5
13F
100
AcDbEntity
  8
M0
 62
     4
100
AcDbLine
 10
121.368793
 20
306.10945
 11
122.918598
 21
306.10945
  0
LINE
  5
140
100
AcDbEntity
  8
M0
 62
     4
100
AcDbLine
 10
121.368549
 20
363.10945
 11
122.918598
 21
363.10945
  0
ARC
  5
141
100
AcDbEntity
  8
M0
 62
     4
100
AcDbCircle
 10
122.918598
 20
362.60945
 40
0.5
100
AcDbArc
 50
0.0
 51
90.0
  0
ARC
  5
142
100
AcDbEntity
  8
M0
 62
     4
100
AcDbCircle
 10
121.368549
 20
362.60945
 40
0.5
100
AcDbArc
 50
90.0
 51
180.0
  0
ARC
  5
143
100
AcDbEntity
  8
M0
 62
     4
100
AcDbCircle
 10
121.368793
 20
306.60945
 40
0.5
100
AcDbArc
 50
179.998251
 51
269.998251
  0
ARC
  5
144
100
AcDbEntity
  8
M0
 62
     4
100
AcDbCircle
 10
122.918598
 20
306.60945
 40
0.5
100
AcDbArc
 50
269.998251
 51
360.0
  0
ARC
  5
145
100
AcDbEntity
  8
M0
 62
     4
100
AcDbCircle
 10
71.368793
 20
302.609435
 40
0.5
100
AcDbArc
 50
179.998251
 51
270.0
  0
LINE
  5
146
100
AcDbEntity
  8
M0
 62
     4
100
AcDbLine
 10
90.918598
 20
337.759429
 11
90.918598
 21
336.60945
  0
LINE
  5
147
100
AcDbEntity
  8
M0
 62
     4
100
AcDbLine
 10
92.918598
 20
337.759429
 11
92.918598
 21
336.60945
  0
LINE
  5
148
100
AcDbEntity
  8
M0
 62
     4
100
AcDbLine
 10
90.918598
 20
332.60945
 11
92.918598
 21
332.60945
  0
LINE
  5
149
100
AcDbEntity
  8
M0
 62
     4
100
AcDbLine
 10
90.918598
 20
336.60945
 11
92.918598
 21
336.60945
  0
LINE
  5
14A
100
AcDbEntity
  8
M0
 62
     4
100
AcDbLine
 10
92.918598
 20
330.959441
 11
94.418598
 21
330.959441
  0
LINE
  5
14B
100
AcDbEntity
  8
M0
 62
     4
100
AcDbLine
 10
90.918598
 20
337.759429
 11
88.918598
 21
337.759429
  0
LINE
  5
14C
100
AcDbEntity
  8
M0
 62
     4
100
AcDbLine
 10
90.918598
 20
332.60945
 11
90.918598
 21
330.959441
  0
LINE
  5
14D
100
AcDbEntity
  8
M0
 62
     4
100
AcDbLine
 10
92.918598
 20
332.60945
 11
92.918598
 21
330.959441
  0
LINE
  5
14E
100
AcDbEntity
  8
M0
 62
     4
100
AcDbLine
 10
94.71844
 20
308.10945
 11
100.868793
 21
308.10945
  0
LINE
  5
14F
100
AcDbEntity
  8
M0
 62
     4
100
AcDbLine
 10
84.718442
 20
308.10945
 11
90.868809
 21
308.10945
  0
LINE
  5
150
100
AcDbEntity
  8
M0
  6
DASHDOT
 62
     6
100
AcDbLine
 10
93.347202
 20
306.609938
 11
83.347202
 21
306.609938
  0
LINE
  5
151
100
AcDbEntity
  8
M0
  6
DASHDOT
 62
     6
100
AcDbLine
 10
88.347187
 20
311.609938
 11
88.347202
 21
301.609938
  0
LINE
  5
152
100
AcDbEntity
  8
M0
 62
     2
100
AcDbLine
 10
166.891837
 20
336.609922
 11
166.891852
 21
332.609923
  0
LINE
  5
153
100
AcDbEntity
  8
M0
 62
     2
100
AcDbLine
 10
170.891837
 20
337.109907
 11
167.391838
 21
337.109922
  0
LINE
  5
154
100
AcDbEntity
  8
M0
 62
     2
100
AcDbLine
 10
170.891837
 20
332.109938
 11
167.391853
 21
332.109938
  0
ARC
  5
155
100
AcDbEntity
  8
M0
 62
     2
100
AcDbCircle
 10
167.391837
 20
336.609922
 40
0.5
100
AcDbArc
 50
90.0
 51
179.999982
  0
ARC
  5
156
100
AcDbEntity
  8
M0
 62
     2
100
AcDbCircle
 10
167.391852
 20
332.609923
 40
0.5
100
AcDbArc
 50
179.999968
 51
270.0
  0
LINE
  5
157
100
AcDbEntity
  8
M0
 62
     7
100
AcDbLine
 10
238.891804
 20
302.109938
 11
238.891804
 21
313.609923
  0
LINE
  5
158
100
AcDbEntity
  8
M0
 62
     7
100
AcDbLine
 10
229.991794
 20
309.109938
 11
229.991794
 21
305.109938
  0
LINE
  5
159
100
AcDbEntity
  8
M0
 62
     7
100
AcDbLine
 10
234.491794
 20
309.109938
 11
234.491794
 21
304.109938
  0
LINE
  5
15A
100
AcDbEntity
  8
M0
 62
     7
100
AcDbLine
 10
230.991794
 20
304.109938
 11
234.491794
 21
304.109938
  0
ARC
  5
15B
100
AcDbEntity
  8
M0
 62
     7
100
AcDbCircle
 10
230.991794
 20
305.109938
 40
1.0
100
AcDbArc
 50
179.999945
 51
270.0
  0
LINE
  5
15C
100
AcDbEntity
  8
M0
 62
     7
100
AcDbLine
 10
219.491825
 20
314.609938
 11
237.891804
 21
314.609938
  0
ARC
  5
15D
100
AcDbEntity
  8
M0
 62
     7
100
AcDbCircle
 10
237.891804
 20
313.609938
 40
1.0
100
AcDbArc
 50
0.0
 51
90.0
  0
ARC
  5
15E
100
AcDbEntity
  8
M0
 62
     7
100
AcDbCircle
 10
229.491794
 20
309.109938
 40
0.5
100
AcDbArc
 50
0.0
 51
90.0
  0
ARC
  5
15F
100
AcDbEntity
  8
M0
 62
     7
100
AcDbCircle
 10
229.491794
 20
308.156981
 40
0.5
100
AcDbArc
 50
0.0
 51
84.348228
  0
LINE
  5
160
100
AcDbEntity
  8
M0
 62
     7
100
AcDbLine
 10
238.891804
 20
302.109938
 11
248.891804
 21
302.109938
  0
LINE
  5
161
100
AcDbEntity
  8
M0
 62
     7
100
AcDbLine
 10
248.891804
 20
302.109938
 11
248.891788
 21
315.959944
  0
LINE
  5
162
100
AcDbEntity
  8
M0
 62
     7
100
AcDbLine
 10
248.891804
 20
367.109938
 11
238.891804
 21
367.109923
  0
LINE
  5
163
100
AcDbEntity
  8
M0
  6
DASHDOT
 62
     7
100
AcDbLine
 10
220.891804
 20
334.609938
 11
254.479435
 21
334.609938
  0
LINE
  5
164
100
AcDbEntity
  8
M0
 62
     7
100
AcDbLine
 10
219.491825
 20
360.609938
 11
248.891804
 21
360.609938
  0
LINE
  5
165
100
AcDbEntity
  8
M0
 62
     7
100
AcDbLine
 10
248.591801
 20
316.259932
 11
248.591801
 21
316.959929
  0
LINE
  5
166
100
AcDbEntity
  8
M0
 62
     7
100
AcDbLine
 10
244.091801
 20
316.959944
 11
247.891804
 21
316.959944
  0
LINE
  5
167
100
AcDbEntity
  8
M0
 62
     7
100
AcDbLine
 10
244.091801
 20
352.259932
 11
248.891804
 21
352.259932
  0
LINE
  5
168
100
AcDbEntity
  8
M0
 62
     7
100
AcDbLine
 10
245.091801
 20
317.459944
 11
245.19173
 21
317.459944
  0
LINE
  5
169
100
AcDbEntity
  8
M0
 62
     7
100
AcDbLine
 10
245.19173
 20
318.959944
 11
246.19173
 21
318.959944
  0
LINE
  5
16A
100
AcDbEntity
  8
M0
 62
     7
100
AcDbLine
 10
248.891804
 20
352.259932
 11
248.891804
 21
367.109938
  0
LINE
  5
16B
100
AcDbEntity
  8
M0
 62
     7
100
AcDbLine
 10
245.891773
 20
350.259932
 11
246.891773
 21
350.259932
  0
LINE
  5
16C
100
AcDbEntity
  8
M0
 62
     7
100
AcDbLine
 10
246.891788
 20
350.259932
 11
248.591801
 21
352.259932
  0
LINE
  5
16D
100
AcDbEntity
  8
M0
 62
     7
100
AcDbLine
 10
245.891788
 20
350.259932
 11
245.191791
 21
352.259932
  0
LINE
  5
16E
100
AcDbEntity
  8
M0
 62
     7
100
AcDbLine
 10
245.19173
 20
318.959944
 11
245.19173
 21
317.459944
  0
LINE
  5
16F
100
AcDbEntity
  8
M0
 62
     7
100
AcDbLine
 10
219.491825
 20
309.609938
 11
238.891804
 21
309.609938
  0
LINE
  5
170
100
AcDbEntity
  8
M0
 62
     7
100
AcDbLine
 10
219.491825
 20
308.609938
 11
229.70351
 21
308.609938
  0
ARC
  5
171
100
AcDbEntity
  8
M0
 62
     7
100
AcDbCircle
 10
234.991794
 20
309.109938
 40
0.5
100
AcDbArc
 50
90.0
 51
179.999966
  0
ARC
  5
172
100
AcDbEntity
  8
M0
 62
     7
100
AcDbCircle
 10
234.991794
 20
308.109938
 40
0.5
100
AcDbArc
 50
90.0
 51
179.999959
  0
LINE
  5
173
100
AcDbEntity
  8
M0
 62
     7
100
AcDbLine
 10
234.991794
 20
308.609938
 11
238.891804
 21
308.609938
  0
LINE
  5
174
100
AcDbEntity
  8
M0
 62
     7
100
AcDbLine
 10
238.891804
 20
367.109923
 11
238.891804
 21
360.609938
  0
LINE
  5
175
100
AcDbEntity
  8
M0
 62
     7
100
AcDbLine
 10
244.091801
 20
316.959944
 11
244.091801
 21
352.259932
  0
LINE
  5
176
100
AcDbEntity
  8
M0
 62
     7
100
AcDbLine
 10
247.891804
 20
316.959944
 11
248.891788
 21
315.959944
  0
LINE
  5
177
100
AcDbEntity
  8
M0
 62
     7
100
AcDbLine
 10
246.19173
 20
318.959944
 11
246.19173
 21
316.959944
  0
LINE
  5
178
100
AcDbEntity
  8
M0
 62
     7
100
AcDbLine
 10
248.591801
 20
316.959929
 11
246.19173
 21
318.959944
  0
LINE
  5
179
100
AcDbEntity
  8
M0
  6
DIVIDE
100
AcDbLine
 10
245.091785
 20
316.959944
 11
245.091785
 21
323.109938
  0
LINE
  5
17A
100
AcDbEntity
  8
M0
  6
DIVIDE
100
AcDbLine
 10
245.091785
 20
323.109938
 11
251.891788
 21
323.109938
  0
LINE
  5
17B
100
AcDbEntity
  8
M0
  6
DIVIDE
100
AcDbLine
 10
244.091785
 20
324.109938
 11
250.891788
 21
324.109938
  0
LINE
  5
17C
100
AcDbEntity
  8
M0
  6
DIVIDE
100
AcDbLine
 10
250.891788
 20
345.109938
 11
250.891788
 21
324.109938
  0
LINE
  5
17D
100
AcDbEntity
  8
M0
  6
DIVIDE
100
AcDbLine
 10
251.891788
 20
323.109938
 11
251.891788
 21
346.109938
  0
LINE
  5
17E
100
AcDbEntity
  8
M0
  6
DIVIDE
100
AcDbLine
 10
245.091785
 20
346.109938
 11
245.091785
 21
352.259932
  0
LINE
  5
17F
100
AcDbEntity
  8
M0
  6
DIVIDE
100
AcDbLine
 10
245.091785
 20
346.109938
 11
251.891788
 21
346.109938
  0
LINE
  5
180
100
AcDbEntity
  8
M0
  6
DIVIDE
100
AcDbLine
 10
244.091785
 20
345.109938
 11
250.891788
 21
345.109938
  0
LINE
  5
181
100
AcDbEntity
  8
M0
 62
     7
100
AcDbLine
 10
236.391724
 20
269.80969
 11
236.391732
 21
295.809659
  0
LINE
  5
182
100
AcDbEntity
  8
M0
 62
     7
100
AcDbLine
 10
233.391731
 20
292.809691
 11
196.391762
 21
292.809702
  0
LINE
  5
183
100
AcDbEntity
  8
M0
 62
     7
100
AcDbLine
 10
162.391731
 20
292.809713
 11
162.391743
 21
281.309713
  0
LINE
  5
184
100
AcDbEntity
  8
M0
 62
     7
100
AcDbLine
 10
211.891722
 20
263.809697
 11
227.891722
 21
263.809692
  0
LINE
  5
185
100
AcDbEntity
  8
M0
 62
     7
100
AcDbLine
 10
233.391732
 20
295.809645
 11
233.391731
 21
292.809691
  0
LINE
  5
186
100
AcDbEntity
  8
M0
 62
     7
100
AcDbLine
 10
228.891722
 20
264.809692
 11
228.891724
 21
268.309692
  0
LINE
  5
187
100
AcDbEntity
  8
M0
 62
     7
100
AcDbLine
 10
229.391724
 20
268.809692
 11
235.391724
 21
268.80969
  0
ARC
  5
188
100
AcDbEntity
  8
M0
 62
     7
100
AcDbCircle
 10
235.391724
 20
269.80969
 40
1.0
100
AcDbArc
 50
270.0
 51
359.999982
  0
ARC
  5
189
100
AcDbEntity
  8
M0
 62
     7
100
AcDbCircle
 10
227.891722
 20
264.809692
 40
1.0
100
AcDbArc
 50
270.0
 51
359.999982
  0
LINE
  5
18A
100
AcDbEntity
  8
M0
 62
     7
100
AcDbLine
 10
196.391747
 20
292.809702
 11
196.391745
 21
288.809702
  0
LINE
  5
18B
100
AcDbEntity
  8
M0
 62
     7
100
AcDbLine
 10
196.391745
 20
288.809702
 11
186.891761
 21
288.809705
  0
LINE
  5
18C
100
AcDbEntity
  8
M0
 62
     7
100
AcDbLine
 10
186.89176
 20
287.809705
 11
183.89176
 21
287.809706
  0
LINE
  5
18D
100
AcDbEntity
  8
M0
 62
     7
100
AcDbLine
 10
178.391745
 20
288.309708
 11
162.39173
 21
288.309713
  0
LINE
  5
18E
100
AcDbEntity
  8
M0
 62
     7
100
AcDbLine
 10
178.391745
 20
288.309708
 11
178.391745
 21
288.809708
  0
LINE
  5
18F
100
AcDbEntity
  8
M0
 62
     7
100
AcDbLine
 10
167.791781
 20
277.809711
 11
162.391727
 21
277.809713
  0
LINE
  5
190
100
AcDbEntity
  8
M0
 62
     7
100
AcDbLine
 10
167.791783
 20
281.309711
 11
167.79178
 21
272.809696
  0
LINE
  5
191
100
AcDbEntity
  8
M0
 62
     7
100
AcDbLine
 10
173.791793
 20
266.809709
 11
179.391754
 21
266.809708
  0
LINE
  5
192
100
AcDbEntity
  8
M0
 62
     7
100
AcDbLine
 10
172.491774
 20
264.80971
 11
180.762435
 21
264.809707
  0
ARC
  5
193
100
AcDbEntity
  8
M0
 62
     7
100
AcDbCircle
 10
173.79178
 20
272.809709
 40
6.0
100
AcDbArc
 50
179.999836
 51
270.0
  0
LINE
  5
194
100
AcDbEntity
  8
M0
 62
     7
100
AcDbLine
 10
203.134576
 20
248.3097
 11
190.970682
 21
248.309704
  0
LINE
  5
195
100
AcDbEntity
  8
M0
 62
     7
100
AcDbLine
 10
205.339091
 20
250.8097
 11
193.391779
 21
250.809703
  0
LINE
  5
196
100
AcDbEntity
  8
M0
 62
     7
100
AcDbLine
 10
211.891722
 20
263.809697
 11
208.930125
 21
252.756781
  0
ARC
  5
197
100
AcDbEntity
  8
M0
 62
     7
100
AcDbCircle
 10
205.339092
 20
254.8097
 40
4.0
100
AcDbArc
 50
270.0
 51
344.999972
  0
ARC
  5
198
100
AcDbEntity
  8
M0
 62
     7
100
AcDbCircle
 10
203.134578
 20
254.3097
 40
6.0
100
AcDbArc
 50
270.0
 51
344.999972
  0
LINE
  5
199
100
AcDbEntity
  8
M0
 62
     7
100
AcDbLine
 10
186.891761
 20
288.809705
 11
186.89176
 21
287.809705
  0
LINE
  5
19A
100
AcDbEntity
  8
M0
 62
     7
100
AcDbLine
 10
183.891761
 20
288.809691
 11
183.89176
 21
287.809691
  0
LINE
  5
19B
100
AcDbEntity
  8
M0
 62
     7
100
AcDbLine
 10
183.891761
 20
288.809706
 11
178.391745
 21
288.809708
  0
LINE
  5
19C
100
AcDbEntity
  8
M0
 62
     7
100
AcDbLine
 10
180.391753
 20
264.809707
 11
180.391754
 21
268.809707
  0
ARC
  5
19D
100
AcDbEntity
  8
M0
 62
     7
100
AcDbCircle
 10
179.391754
 20
267.809708
 40
1.0
100
AcDbArc
 50
270.0
 51
359.999982
  0
LINE
  5
19E
100
AcDbEntity
  8
M0
 62
     7
100
AcDbLine
 10
166.491761
 20
270.809712
 11
166.491763
 21
277.809712
  0
ARC
  5
19F
100
AcDbEntity
  8
M0
 62
     7
100
AcDbCircle
 10
172.491761
 20
270.80971
 40
6.0
100
AcDbArc
 50
179.999836
 51
270.0
  0
LINE
  5
1A0
100
AcDbEntity
  8
M0
 62
     7
100
AcDbLine
 10
183.391753
 20
265.309706
 11
183.391754
 21
268.809706
  0
LINE
  5
1A1
100
AcDbEntity
  8
M0
 62
     7
100
AcDbLine
 10
180.391754
 20
268.809707
 11
183.391754
 21
268.809706
  0
LINE
  5
1A2
100
AcDbEntity
  8
M0
 62
     7
100
AcDbLine
 10
187.391752
 20
261.809705
 11
186.891752
 21
261.809705
  0
LINE
  5
1A3
100
AcDbEntity
  8
M0
 62
     7
100
AcDbLine
 10
182.891692
 20
265.309707
 11
183.391753
 21
265.309706
  0
LINE
  5
1A4
100
AcDbEntity
  8
M0
 62
     7
100
AcDbLine
 10
182.891692
 20
265.309707
 11
181.280089
 21
264.877868
  0
LINE
  5
1A5
100
AcDbEntity
  8
M0
 62
     7
100
AcDbLine
 10
183.391753
 20
265.309706
 11
186.891752
 21
261.809705
  0
LINE
  5
1A6
100
AcDbEntity
  8
M0
 62
     7
100
AcDbLine
 10
187.391767
 20
261.809705
 11
187.39178
 21
254.30969
  0
ARC
  5
1A7
100
AcDbEntity
  8
M0
 62
     7
100
AcDbCircle
 10
193.391781
 20
256.809703
 40
6.0
100
AcDbArc
 50
179.999836
 51
270.0
  0
ARC
  5
1A8
100
AcDbEntity
  8
M0
 62
     7
100
AcDbCircle
 10
193.39178
 20
254.309703
 40
6.0
100
AcDbArc
 50
179.999836
 51
270.0
  0
ARC
  5
1A9
100
AcDbEntity
  8
M0
 62
     7
100
AcDbCircle
 10
180.762435
 20
266.809707
 40
2.0
100
AcDbArc
 50
270.0
 51
285.00095
  0
LINE
  5
1AA
100
AcDbEntity
  8
M0
 62
     7
100
AcDbLine
 10
185.89175
 20
255.809706
 11
185.891752
 21
262.809706
  0
LINE
  5
1AB
100
AcDbEntity
  8
M0
 62
     7
100
AcDbLine
 10
185.89175
 20
255.809706
 11
187.106974
 21
251.274427
  0
ARC
  5
1AC
100
AcDbEntity
  8
M0
 62
     7
100
AcDbCircle
 10
190.970683
 20
252.309704
 40
4.0
100
AcDbArc
 50
194.999838
 51
270.0
  0
LINE
  5
1AD
100
AcDbEntity
  8
M0
 62
     7
100
AcDbLine
 10
216.793226
 20
262.309696
 11
211.489805
 21
262.309698
  0
ARC
  5
1AE
100
AcDbEntity
  8
M0
 62
     7
100
AcDbCircle
 10
216.793227
 20
266.309696
 40
4.0
100
AcDbArc
 50
270.0
 51
321.318004
  0
ARC
  5
1AF
100
AcDbEntity
  8
M0
 62
     7
100
AcDbCircle
 10
229.391724
 20
268.309692
 40
0.5
100
AcDbArc
 50
90.0
 51
179.998233
  0
LINE
  5
1B0
100
AcDbEntity
  8
M0
 62
     7
100
AcDbLine
 10
178.391762
 20
289.809753
 11
196.19175
 21
289.809747
  0
LINE
  5
1B1
100
AcDbEntity
  8
M0
 62
     7
100
AcDbLine
 10
178.391762
 20
288.309753
 11
178.391762
 21
289.809753
  0
LINE
  5
1B2
100
AcDbEntity
  8
M0
 62
     7
100
AcDbLine
 10
178.391762
 20
288.309753
 11
162.691795
 21
288.309758
  0
LINE
  5
1B3
100
AcDbEntity
  8
M0
 62
     7
100
AcDbLine
 10
196.19175
 20
289.809747
 11
196.191751
 21
292.809747
  0
LINE
  5
1B4
100
AcDbEntity
  8
M0
 62
     7
100
AcDbLine
 10
218.691766
 20
292.80974
 11
218.691767
 21
295.309725
  0
LINE
  5
1B5
100
AcDbEntity
  8
M0
 62
     7
100
AcDbLine
 10
215.691766
 20
292.809741
 11
215.691767
 21
295.309726
  0
LINE
  5
1B6
100
AcDbEntity
  8
M0
 62
     7
100
AcDbLine
 10
177.391763
 20
290.809753
 11
177.391764
 21
295.309738
  0
LINE
  5
1B7
100
AcDbEntity
  8
M0
 62
     7
100
AcDbLine
 10
177.391763
 20
290.809753
 11
162.391763
 21
290.809758
  0
LINE
  5
1B8
100
AcDbEntity
  8
M0
 62
     7
100
AcDbLine
 10
233.391763
 20
292.809736
 11
233.391764
 21
295.30972
  0
LINE
  5
1B9
100
AcDbEntity
  8
M0
 62
     7
100
AcDbLine
 10
233.391764
 20
295.30972
 11
231.691752
 21
295.309721
  0
LINE
  5
1BA
100
AcDbEntity
  8
M0
 62
     7
100
AcDbLine
 10
231.691752
 20
295.309721
 11
231.691754
 21
304.110121
  0
LINE
  5
1BB
100
AcDbEntity
  8
M0
 62
     7
100
AcDbLine
 10
218.691766
 20
292.80974
 11
233.391763
 21
292.809736
  0
LINE
  5
1BC
100
AcDbEntity
  8
M0
 62
     7
100
AcDbLine
 10
196.191751
 20
292.809747
 11
215.691766
 21
292.809741
  0
LINE
  5
1BD
100
AcDbEntity
  8
M0
 62
     7
100
AcDbLine
 10
170.191843
 20
294.309755
 11
166.71464
 21
294.309756
  0
LINE
  5
1BE
100
AcDbEntity
  8
M0
 62
     7
100
AcDbLine
 10
222.997874
 20
295.309724
 11
177.391764
 21
295.309738
  0
LINE
  5
1BF
100
AcDbEntity
  8
M0
 62
     7
100
AcDbLine
 10
167.691843
 20
294.309756
 11
167.691844
 21
298.009738
  0
LINE
  5
1C0
100
AcDbEntity
  8
M0
 62
     7
100
AcDbLine
 10
167.691844
 20
298.009738
 11
170.191844
 21
298.009737
  0
LINE
  5
1C1
100
AcDbEntity
  8
M0
 62
     7
100
AcDbLine
 10
170.191843
 20
294.309755
 11
170.191844
 21
298.009737
  0
LINE
  5
1C2
100
AcDbEntity
  8
M0
 62
     7
100
AcDbLine
 10
172.191859
 20
296.309755
 11
188.691844
 21
296.30975
  0
LINE
  5
1C3
100
AcDbEntity
  8
M0
 62
     7
100
AcDbLine
 10
178.691846
 20
303.909744
 11
182.691846
 21
303.909742
  0
LINE
  5
1C4
100
AcDbEntity
  8
M0
 62
     7
100
AcDbLine
 10
184.691844
 20
298.609739
 11
192.191844
 21
298.609736
  0
LINE
  5
1C5
100
AcDbEntity
  8
M0
 62
     7
100
AcDbLine
 10
170.191858
 20
294.309755
 11
172.191844
 21
296.309755
  0
LINE
  5
1C6
100
AcDbEntity
  8
M0
 62
     7
100
AcDbLine
 10
188.691844
 20
296.30975
 11
189.691859
 21
295.309734
  0
LINE
  5
1C7
100
AcDbEntity
  8
M0
 62
     7
100
AcDbLine
 10
225.691754
 20
304.109711
 11
225.691756
 21
308.610123
  0
LINE
  5
1C8
100
AcDbEntity
  8
M0
 62
     7
100
AcDbLine
 10
222.997874
 20
295.309724
 11
225.691754
 21
304.109726
  0
LINE
  5
1C9
100
AcDbEntity
  8
M0
 62
     7
100
AcDbLine
 10
170.191844
 20
297.009737
 11
172.691844
 21
297.009736
  0
LINE
  5
1CA
100
AcDbEntity
  8
M0
 62
     7
100
AcDbLine
 10
172.691844
 20
297.809739
 11
178.191844
 21
297.809738
  0
LINE
  5
1CB
100
AcDbEntity
  8
M0
 62
     7
100
AcDbLine
 10
172.691844
 20
297.009736
 11
172.691844
 21
297.809739
  0
LINE
  5
1CC
100
AcDbEntity
  8
M0
 62
     7
100
AcDbLine
 10
182.691845
 20
300.609739
 11
182.691846
 21
303.909742
  0
LINE
  5
1CD
100
AcDbEntity
  8
M0
 62
     7
100
AcDbLine
 10
178.691846
 20
303.909744
 11
178.191844
 21
297.809738
  0
ARC
  5
1CE
100
AcDbEntity
  8
M0
 62
     7
100
AcDbCircle
 10
184.691845
 20
300.609739
 40
2.0
100
AcDbArc
 50
179.999982
 51
270.0
  0
LINE
  5
1CF
100
AcDbEntity
  8
M0
 62
     7
100
AcDbLine
 10
192.191844
 20
298.609736
 11
195.491846
 21
295.309732
  0
LINE
  5
1D0
100
AcDbEntity
  8
M0
 62
     1
100
AcDbLine
 10
167.791748
 20
277.80972
 11
167.791749
 21
281.30972
  0
LINE
  5
1D1
100
AcDbEntity
  8
M0
 62
     1
100
AcDbLine
 10
165.391768
 20
294.809721
 11
160.891753
 21
294.809722
  0
LINE
  5
1D2
100
AcDbEntity
  8
M0
 62
     1
100
AcDbLine
 10
160.891753
 20
294.809722
 11
160.891748
 21
277.809722
  0
LINE
  5
1D3
100
AcDbEntity
  8
M0
 62
     1
100
AcDbLine
 10
160.891748
 20
277.809722
 11
167.791748
 21
277.80972
  0
LINE
  5
1D4
100
AcDbEntity
  8
M0
 62
     1
100
AcDbLine
 10
167.791749
 20
281.30972
 11
162.391749
 21
281.309722
  0
LINE
  5
1D5
100
AcDbEntity
  8
M0
 62
     1
100
AcDbLine
 10
162.391749
 20
281.309722
 11
162.391753
 21
294.809722
  0
LINE
  5
1D6
100
AcDbEntity
  8
M0
 62
     1
100
AcDbLine
 10
162.391752
 20
290.809722
 11
164.391767
 21
290.809721
  0
ARC
  5
1D7
100
AcDbEntity
  8
M0
 62
     1
100
AcDbCircle
 10
165.391753
 20
292.809721
 40
2.0
100
AcDbArc
 50
359.999545
 51
450.0
  0
LINE
  5
1D8
100
AcDbEntity
  8
M0
 62
     1
100
AcDbLine
 10
164.391783
 20
291.109709
 11
165.691755
 21
291.109709
  0
ARC
  5
1D9
100
AcDbEntity
  8
M0
 62
     1
100
AcDbCircle
 10
165.691756
 20
292.809706
 40
1.7
100
AcDbArc
 50
270.0
 51
359.999468
  0
LINE
  5
1DA
100
AcDbEntity
  8
M0
 62
     1
100
AcDbLine
 10
164.391767
 20
291.109709
 11
164.391767
 21
290.809691
  0
LINE
  5
1DB
100
AcDbEntity
  8
M0
 62
   114
100
AcDbLine
 10
160.891749
 20
288.109708
 11
158.391764
 21
288.109724
  0
LINE
  5
1DC
100
AcDbEntity
  8
M0
 62
   114
100
AcDbLine
 10
157.891733
 20
287.609724
 11
157.891747
 21
282.609724
  0
LINE
  5
1DD
100
AcDbEntity
  8
M0
 62
   114
100
AcDbLine
 10
158.391747
 20
282.109724
 11
160.891747
 21
282.109708
  0
ARC
  5
1DE
100
AcDbEntity
  8
M0
 62
   114
100
AcDbCircle
 10
158.391749
 20
287.609724
 40
0.5
100
AcDbArc
 50
90.0
 51
179.999982
  0
ARC
  5
1DF
100
AcDbEntity
  8
M0
 62
   114
100
AcDbCircle
 10
158.391747
 20
282.609724
 40
0.5
100
AcDbArc
 50
179.999982
 51
270.0
  0
LINE
  5
1E0
100
AcDbEntity
  8
M0
 62
     6
100
AcDbLine
 10
179.891744
 20
305.110144
 11
179.891745
 21
303.909714
  0
LINE
  5
1E1
100
AcDbEntity
  8
M0
 62
     6
100
AcDbLine
 10
180.891745
 20
303.909714
 11
180.891744
 21
305.110145
  0
CIRCLE
  5
1E2
100
AcDbEntity
  8
M0
 62
   253
100
AcDbCircle
 10
106.918476
 20
256.609694
 40
2.999997
  0
LINE
  5
1E3
100
AcDbEntity
  8
M0
 62
   253
100
AcDbLine
 10
103.959492
 20
260.557036
 11
103.143329
 21
257.909743
  0
LINE
  5
1E4
100
AcDbEntity
  8
M0
 62
   253
100
AcDbLine
 10
103.914097
 20
252.809722
 11
103.143329
 21
255.309767
  0
LINE
  5
1E5
100
AcDbEntity
  8
M0
 62
   253
100
AcDbLine
 10
109.876972
 20
260.557051
 11
110.693378
 21
257.909743
  0
LINE
  5
1E6
100
AcDbEntity
  8
M0
 62
   253
100
AcDbLine
 10
109.922396
 20
252.809722
 11
110.693378
 21
255.309767
  0
LINE
  5
1E7
100
AcDbEntity
  8
M0
 62
   253
100
AcDbLine
 10
110.693378
 20
255.309767
 11
110.693378
 21
257.909743
  0
LINE
  5
1E8
100
AcDbEntity
  8
M0
 62
   253
100
AcDbLine
 10
109.399189
 20
260.909743
 11
104.437519
 21
260.909728
  0
LINE
  5
1E9
100
AcDbEntity
  8
M0
 62
   253
100
AcDbLine
 10
103.143329
 20
257.909743
 11
103.143329
 21
255.309767
  0
LINE
  5
1EA
100
AcDbEntity
  8
M0
  6
DASHDOT
 62
   253
100
AcDbLine
 10
100.643329
 20
256.609694
 11
113.193378
 21
256.609694
  0
LINE
  5
1EB
100
AcDbEntity
  8
M0
  6
DASHDOT
 62
   253
100
AcDbLine
 10
106.918476
 20
249.809783
 11
106.918476
 21
263.409743
  0
LINE
  5
1EC
100
AcDbEntity
  8
M0
 62
   253
100
AcDbLine
 10
108.509052
 20
255.018874
 11
105.327412
 21
258.200636
  0
LINE
  5
1ED
100
AcDbEntity
  8
M0
 62
   253
100
AcDbLine
 10
107.271747
 20
258.023879
 11
105.504169
 21
256.256178
  0
LINE
  5
1EE
100
AcDbEntity
  8
M0
 62
   253
100
AcDbLine
 10
108.332294
 20
256.96321
 11
106.564716
 21
255.195632
  0
ARC
  5
1EF
100
AcDbEntity
  8
M0
 62
   253
100
AcDbCircle
 10
104.437519
 20
260.409728
 40
0.5
100
AcDbArc
 50
89.998251
 51
162.874002
  0
ARC
  5
1F0
100
AcDbEntity
  8
M0
 62
   253
100
AcDbCircle
 10
109.399189
 20
260.409728
 40
0.5
100
AcDbArc
 50
17.136442
 51
90.0
  0
LINE
  5
1F1
100
AcDbEntity
  8
M0
 62
     7
100
AcDbLine
 10
69.41845
 20
292.809696
 11
69.418476
 21
250.809696
  0
LINE
  5
1F2
100
AcDbEntity
  8
M0
 62
     7
100
AcDbLine
 10
79.918478
 20
248.309703
 11
80.918478
 21
248.309703
  0
LINE
  5
1F3
100
AcDbEntity
  8
M0
 62
     7
100
AcDbLine
 10
114.418476
 20
251.309725
 11
114.41846
 21
276.809725
  0
LINE
  5
1F4
100
AcDbEntity
  8
M0
 62
     7
100
AcDbLine
 10
112.418476
 20
251.309723
 11
112.418475
 21
252.809723
  0
LINE
  5
1F5
100
AcDbEntity
  8
M0
 62
     7
100
AcDbLine
 10
101.418478
 20
248.809716
 11
101.418475
 21
252.809716
  0
LINE
  5
1F6
100
AcDbEntity
  8
M0
 62
     7
100
AcDbLine
 10
69.41845
 20
292.809681
 11
73.418465
 21
292.809684
  0
LINE
  5
1F7
100
AcDbEntity
  8
M0
 62
     7
100
AcDbLine
 10
112.418475
 20
252.809723
 11
101.418475
 21
252.809716
  0
LINE
  5
1F8
100
AcDbEntity
  8
M0
 62
     7
100
AcDbLine
 10
113.918476
 20
250.809724
 11
112.918476
 21
250.809724
  0
LINE
  5
1F9
100
AcDbEntity
  8
M0
 62
     7
100
AcDbLine
 10
99.41847
 20
260.309715
 11
99.418478
 21
248.809715
  0
LINE
  5
1FA
100
AcDbEntity
  8
M0
 62
     7
100
AcDbLine
 10
91.418467
 20
265.30971
 11
91.418478
 21
248.80971
  0
LINE
  5
1FB
100
AcDbEntity
  8
M0
 62
     7
100
AcDbLine
 10
89.418467
 20
265.309709
 11
89.418478
 21
248.809709
  0
LINE
  5
1FC
100
AcDbEntity
  8
M0
 62
     7
100
AcDbLine
 10
81.418478
 20
248.809704
 11
81.418467
 21
265.309704
  0
LINE
  5
1FD
100
AcDbEntity
  8
M0
 62
     7
100
AcDbLine
 10
79.418467
 20
265.309703
 11
79.418478
 21
248.809703
  0
LINE
  5
1FE
100
AcDbEntity
  8
M0
 62
     7
100
AcDbLine
 10
102.918475
 20
252.809717
 11
102.91847
 21
260.309717
  0
LINE
  5
1FF
100
AcDbEntity
  8
M0
 62
     7
100
AcDbLine
 10
99.418476
 20
250.809715
 11
91.418476
 21
250.80971
  0
LINE
  5
200
100
AcDbEntity
  8
M0
 62
     7
100
AcDbLine
 10
89.418476
 20
250.809709
 11
81.418476
 21
250.809704
  0
LINE
  5
201
100
AcDbEntity
  8
M0
 62
     7
100
AcDbLine
 10
79.418476
 20
250.809703
 11
69.418476
 21
250.809696
  0
LINE
  5
202
100
AcDbEntity
  8
M0
 62
     7
100
AcDbLine
 10
98.41847
 20
261.309714
 11
92.41847
 21
261.309711
  0
LINE
  5
203
100
AcDbEntity
  8
M0
 62
     7
100
AcDbLine
 10
88.41847
 20
261.309708
 11
82.41847
 21
261.309704
  0
LINE
  5
204
100
AcDbEntity
  8
M0
 62
     7
100
AcDbLine
 10
99.918478
 20
248.309715
 11
100.918478
 21
248.309716
  0
LINE
  5
205
100
AcDbEntity
  8
M0
 62
     7
100
AcDbLine
 10
89.918478
 20
248.309709
 11
90.918478
 21
248.30971
  0
LINE
  5
206
100
AcDbEntity
  8
M0
 62
     7
100
AcDbLine
 10
74.418466
 20
267.309684
 11
74.418459
 21
277.809699
  0
LINE
  5
207
100
AcDbEntity
  8
M0
 62
     7
100
AcDbLine
 10
72.41845
 20
292.809698
 11
72.418466
 21
266.809698
  0
LINE
  5
208
100
AcDbEntity
  8
M0
 62
     7
100
AcDbLine
 10
73.918466
 20
266.809699
 11
69.918466
 21
266.809697
  0
LINE
  5
209
100
AcDbEntity
  8
M0
 62
     7
100
AcDbLine
 10
112.418466
 20
267.309723
 11
112.418462
 21
274.209724
  0
LINE
  5
20A
100
AcDbEntity
  8
M0
 62
     7
100
AcDbLine
 10
104.418462
 20
274.209719
 11
104.418467
 21
265.809718
  0
LINE
  5
20B
100
AcDbEntity
  8
M0
 62
     7
100
AcDbLine
 10
102.418467
 20
265.809717
 11
102.41846
 21
276.809717
  0
LINE
  5
20C
100
AcDbEntity
  8
M0
 62
     7
100
AcDbLine
 10
94.41846
 20
276.809712
 11
94.418467
 21
265.809712
  0
LINE
  5
20D
100
AcDbEntity
  8
M0
 62
     7
100
AcDbLine
 10
92.418467
 20
265.809711
 11
92.41846
 21
276.809711
  0
LINE
  5
20E
100
AcDbEntity
  8
M0
 62
     7
100
AcDbLine
 10
84.41846
 20
276.809706
 11
84.418467
 21
265.809706
  0
LINE
  5
20F
100
AcDbEntity
  8
M0
 62
     7
100
AcDbLine
 10
82.41846
 20
276.809704
 11
82.418467
 21
265.809704
  0
LINE
  5
210
100
AcDbEntity
  8
M0
 62
     7
100
AcDbLine
 10
113.918466
 20
266.809724
 11
112.918466
 21
266.809724
  0
LINE
  5
211
100
AcDbEntity
  8
M0
 62
     7
100
AcDbLine
 10
90.918472
 20
258.30971
 11
89.918472
 21
258.309709
  0
LINE
  5
212
100
AcDbEntity
  8
M0
 62
     7
100
AcDbLine
 10
80.918472
 20
258.309703
 11
79.918472
 21
258.309703
  0
LINE
  5
213
100
AcDbEntity
  8
M0
 62
     7
100
AcDbLine
 10
83.918467
 20
265.309705
 11
82.918467
 21
265.309705
  0
LINE
  5
214
100
AcDbEntity
  8
M0
 62
     7
100
AcDbLine
 10
93.918467
 20
265.309712
 11
92.918467
 21
265.309711
  0
LINE
  5
215
100
AcDbEntity
  8
M0
 62
     7
100
AcDbLine
 10
103.918467
 20
265.309718
 11
102.918467
 21
265.309717
  0
LINE
  5
216
100
AcDbEntity
  8
M0
 62
     7
100
AcDbLine
 10
104.418467
 20
265.809718
 11
114.418467
 21
265.809725
  0
LINE
  5
217
100
AcDbEntity
  8
M0
 62
     7
100
AcDbLine
 10
94.418467
 20
265.809712
 11
102.418467
 21
265.809717
  0
LINE
  5
218
100
AcDbEntity
  8
M0
 62
     7
100
AcDbLine
 10
84.418467
 20
265.809706
 11
92.418467
 21
265.809711
  0
ARC
  5
219
100
AcDbEntity
  8
M0
 62
     7
100
AcDbCircle
 10
79.918478
 20
248.809703
 40
0.5
100
AcDbArc
 50
180.000036
 51
270.0
  0
ARC
  5
21A
100
AcDbEntity
  8
M0
 62
     7
100
AcDbCircle
 10
80.918478
 20
248.809703
 40
0.5
100
AcDbArc
 50
270.0
 51
360.000036
  0
ARC
  5
21B
100
AcDbEntity
  8
M0
 62
     7
100
AcDbCircle
 10
89.918478
 20
248.809709
 40
0.5
100
AcDbArc
 50
180.000036
 51
270.0
  0
ARC
  5
21C
100
AcDbEntity
  8
M0
 62
     7
100
AcDbCircle
 10
90.918478
 20
248.80971
 40
0.5
100
AcDbArc
 50
270.0
 51
360.000036
  0
ARC
  5
21D
100
AcDbEntity
  8
M0
 62
     7
100
AcDbCircle
 10
99.918478
 20
248.809715
 40
0.5
100
AcDbArc
 50
180.000036
 51
270.0
  0
ARC
  5
21E
100
AcDbEntity
  8
M0
 62
     7
100
AcDbCircle
 10
100.918478
 20
248.809716
 40
0.5
100
AcDbArc
 50
270.0
 51
360.000036
  0
ARC
  5
21F
100
AcDbEntity
  8
M0
 62
     7
100
AcDbCircle
 10
112.918476
 20
251.309724
 40
0.5
100
AcDbArc
 50
180.000036
 51
269.998287
  0
ARC
  5
220
100
AcDbEntity
  8
M0
 62
     7
100
AcDbCircle
 10
113.918476
 20
251.309724
 40
0.5
100
AcDbArc
 50
269.998287
 51
360.000036
  0
ARC
  5
221
100
AcDbEntity
  8
M0
 62
     7
100
AcDbCircle
 10
79.918471
 20
258.809703
 40
0.5
100
AcDbArc
 50
180.000036
 51
270.0
  0
ARC
  5
222
100
AcDbEntity
  8
M0
 62
     7
100
AcDbCircle
 10
80.918471
 20
258.809703
 40
0.5
100
AcDbArc
 50
270.0
 51
360.000036
  0
ARC
  5
223
100
AcDbEntity
  8
M0
 62
     7
100
AcDbCircle
 10
89.918471
 20
258.809709
 40
0.5
100
AcDbArc
 50
180.000036
 51
270.0
  0
ARC
  5
224
100
AcDbEntity
  8
M0
 62
     7
100
AcDbCircle
 10
90.918471
 20
258.80971
 40
0.5
100
AcDbArc
 50
270.0
 51
360.000036
  0
ARC
  5
225
100
AcDbEntity
  8
M0
 62
     7
100
AcDbCircle
 10
112.918466
 20
267.309724
 40
0.5
100
AcDbArc
 50
180.000036
 51
269.998287
  0
ARC
  5
226
100
AcDbEntity
  8
M0
 62
     7
100
AcDbCircle
 10
113.918466
 20
267.309724
 40
0.5
100
AcDbArc
 50
269.998287
 51
360.000036
  0
ARC
  5
227
100
AcDbEntity
  8
M0
 62
     7
100
AcDbCircle
 10
113.41846
 20
276.809724
 40
1.0
100
AcDbArc
 50
0.0
 51
90.0
  0
ARC
  5
228
100
AcDbEntity
  8
M0
 62
     7
100
AcDbCircle
 10
101.41846
 20
276.809716
 40
1.0
100
AcDbArc
 50
0.0
 51
90.0
  0
ARC
  5
229
100
AcDbEntity
  8
M0
 62
     7
100
AcDbCircle
 10
95.41846
 20
276.809713
 40
1.0
100
AcDbArc
 50
90.0
 51
180.000036
  0
ARC
  5
22A
100
AcDbEntity
  8
M0
 62
     7
100
AcDbCircle
 10
91.41846
 20
276.80971
 40
1.0
100
AcDbArc
 50
0.0
 51
90.0
  0
LINE
  5
22B
100
AcDbEntity
  8
M0
 62
     7
100
AcDbLine
 10
109.41847
 20
261.309721
 11
103.91847
 21
261.309718
  0
LINE
  5
22C
100
AcDbEntity
  8
M0
 62
     7
100
AcDbLine
 10
110.918475
 20
252.809722
 11
110.918472
 21
257.309722
  0
LINE
  5
22D
100
AcDbEntity
  8
M0
 62
     7
100
AcDbLine
 10
69.918467
 20
265.559697
 11
82.418467
 21
265.559704
  0
LINE
  5
22E
100
AcDbEntity
  8
M0
 62
     7
100
AcDbLine
 10
78.41847
 20
261.309702
 11
72.91847
 21
261.309698
  0
LINE
  5
22F
100
AcDbEntity
  8
M0
 62
     7
100
AcDbLine
 10
71.418476
 20
250.809698
 11
71.418471
 21
259.809698
  0
LINE
  5
230
100
AcDbEntity
  8
M0
 62
     7
100
AcDbLine
 10
113.418459
 20
277.809724
 11
76.178546
 21
277.809701
  0
ARC
  5
231
100
AcDbEntity
  8
M0
 62
     7
100
AcDbCircle
 10
85.41846
 20
276.809706
 40
1.0
100
AcDbArc
 50
90.0
 51
180.000036
  0
ARC
  5
232
100
AcDbEntity
  8
M0
 62
     7
100
AcDbCircle
 10
81.41846
 20
276.809704
 40
1.0
100
AcDbArc
 50
0.0
 51
90.0
  0
ARC
  5
233
100
AcDbEntity
  8
M0
 62
     7
100
AcDbCircle
 10
88.418468
 20
264.809708
 40
1.0
100
AcDbArc
 50
3.597218E-005
 51
90.0
  0
ARC
  5
234
100
AcDbEntity
  8
M0
 62
     7
100
AcDbCircle
 10
82.418468
 20
264.809704
 40
1.0
100
AcDbArc
 50
90.0
 51
180.000036
  0
ARC
  5
235
100
AcDbEntity
  8
M0
 62
     7
100
AcDbCircle
 10
92.418468
 20
264.809711
 40
1.0
100
AcDbArc
 50
90.0
 51
180.000036
  0
ARC
  5
236
100
AcDbEntity
  8
M0
 62
     7
100
AcDbCircle
 10
90.918467
 20
265.30971
 40
0.5
100
AcDbArc
 50
3.597218E-005
 51
90.0
  0
ARC
  5
237
100
AcDbEntity
  8
M0
 62
     7
100
AcDbCircle
 10
89.918467
 20
265.309709
 40
0.5
100
AcDbArc
 50
90.0
 51
180.000036
  0
ARC
  5
238
100
AcDbEntity
  8
M0
 62
     7
100
AcDbCircle
 10
80.918467
 20
265.309703
 40
0.5
100
AcDbArc
 50
3.597218E-005
 51
90.0
  0
ARC
  5
239
100
AcDbEntity
  8
M0
 62
     7
100
AcDbCircle
 10
79.918467
 20
265.309703
 40
0.5
100
AcDbArc
 50
90.0
 51
180.000036
  0
ARC
  5
23A
100
AcDbEntity
  8
M0
 62
     7
100
AcDbCircle
 10
82.918467
 20
265.809705
 40
0.5
100
AcDbArc
 50
180.000036
 51
270.0
  0
ARC
  5
23B
100
AcDbEntity
  8
M0
 62
     7
100
AcDbCircle
 10
83.918467
 20
265.809705
 40
0.5
100
AcDbArc
 50
270.0
 51
360.000036
  0
ARC
  5
23C
100
AcDbEntity
  8
M0
 62
     7
100
AcDbCircle
 10
92.918467
 20
265.809711
 40
0.5
100
AcDbArc
 50
180.000036
 51
270.0
  0
ARC
  5
23D
100
AcDbEntity
  8
M0
 62
     7
100
AcDbCircle
 10
93.918467
 20
265.809712
 40
0.5
100
AcDbArc
 50
270.0
 51
360.000036
  0
ARC
  5
23E
100
AcDbEntity
  8
M0
 62
     7
100
AcDbCircle
 10
102.918467
 20
265.809717
 40
0.5
100
AcDbArc
 50
180.000036
 51
269.998287
  0
ARC
  5
23F
100
AcDbEntity
  8
M0
 62
     7
100
AcDbCircle
 10
103.918467
 20
265.809718
 40
0.5
100
AcDbArc
 50
269.998287
 51
360.000036
  0
ARC
  5
240
100
AcDbEntity
  8
M0
 62
     7
100
AcDbCircle
 10
73.918466
 20
267.309699
 40
0.5
100
AcDbArc
 50
270.0
 51
360.000036
  0
ARC
  5
241
100
AcDbEntity
  8
M0
 62
     7
100
AcDbCircle
 10
69.918466
 20
267.309697
 40
0.5
100
AcDbArc
 50
180.000036
 51
270.0
  0
ARC
  5
242
100
AcDbEntity
  8
M0
 62
     7
100
AcDbCircle
 10
103.91847
 20
260.309718
 40
1.0
100
AcDbArc
 50
90.0
 51
180.000036
  0
ARC
  5
243
100
AcDbEntity
  8
M0
 62
     7
100
AcDbCircle
 10
98.41847
 20
260.309714
 40
1.0
100
AcDbArc
 50
3.597218E-005
 51
90.0
  0
ARC
  5
244
100
AcDbEntity
  8
M0
 62
     7
100
AcDbCircle
 10
92.41847
 20
260.309711
 40
1.0
100
AcDbArc
 50
90.0
 51
180.000036
  0
ARC
  5
245
100
AcDbEntity
  8
M0
 62
     7
100
AcDbCircle
 10
88.41847
 20
260.309708
 40
1.0
100
AcDbArc
 50
3.597218E-005
 51
90.0
  0
ARC
  5
246
100
AcDbEntity
  8
M0
 62
     7
100
AcDbCircle
 10
82.41847
 20
260.309704
 40
1.0
100
AcDbArc
 50
90.0
 51
180.000036
  0
ARC
  5
247
100
AcDbEntity
  8
M0
 62
     7
100
AcDbCircle
 10
78.41847
 20
260.309702
 40
1.0
100
AcDbArc
 50
3.597218E-005
 51
90.0
  0
LINE
  5
248
100
AcDbEntity
  8
M0
 62
     7
100
AcDbLine
 10
74.418462
 20
274.2097
 11
75.215028
 21
277.077343
  0
LINE
  5
249
100
AcDbEntity
  8
M0
 62
     7
100
AcDbLine
 10
104.418462
 20
274.209719
 11
105.215014
 21
277.077362
  0
ARC
  5
24A
100
AcDbEntity
  8
M0
 62
     7
100
AcDbCircle
 10
106.178531
 20
276.809719
 40
1.0
100
AcDbArc
 50
90.0
 51
164.476182
  0
ARC
  5
24B
100
AcDbEntity
  8
M0
 62
     7
100
AcDbCircle
 10
76.178546
 20
276.809701
 40
1.0
100
AcDbArc
 50
90.0
 51
164.475963
  0
LINE
  5
24C
100
AcDbEntity
  8
M0
 62
     7
100
AcDbLine
 10
110.918472
 20
257.309722
 11
110.448317
 21
259.190307
  0
ARC
  5
24D
100
AcDbEntity
  8
M0
 62
     7
100
AcDbCircle
 10
111.418471
 20
259.432831
 40
1.0
100
AcDbArc
 50
180.000036
 51
194.034583
  0
LINE
  5
24E
100
AcDbEntity
  8
M0
 62
     7
100
AcDbLine
 10
110.41847
 20
260.309722
 11
110.418471
 21
259.43283
  0
ARC
  5
24F
100
AcDbEntity
  8
M0
 62
     7
100
AcDbCircle
 10
109.41847
 20
260.309721
 40
1.0
100
AcDbArc
 50
3.597218E-005
 51
90.0
  0
ARC
  5
250
100
AcDbEntity
  8
M0
 62
     7
100
AcDbCircle
 10
69.918467
 20
266.309697
 40
0.5
100
AcDbArc
 50
180.000036
 51
270.0
  0
ARC
  5
251
100
AcDbEntity
  8
M0
 62
     7
100
AcDbCircle
 10
72.918471
 20
259.809698
 40
1.5
100
AcDbArc
 50
90.0
 51
180.000036
  0
LINE
  5
252
100
AcDbEntity
  8
M0
 62
     7
100
AcDbLine
 10
72.718464
 20
270.309698
 11
72.418464
 21
270.309698
  0
LINE
  5
253
100
AcDbEntity
  8
M0
 62
     7
100
AcDbLine
 10
73.218465
 20
268.809699
 11
72.718465
 21
268.809698
  0
LINE
  5
254
100
AcDbEntity
  8
M0
 62
     7
100
AcDbLine
 10
72.718465
 20
268.809698
 11
72.718464
 21
270.309698
  0
LINE
  5
255
100
AcDbEntity
  8
M0
 62
     7
100
AcDbLine
 10
73.218467
 20
266.809699
 11
73.218465
 21
268.809699
  0
LINE
  5
256
100
AcDbEntity
  8
M0
 62
     7
100
AcDbLine
 10
112.418462
 20
274.209724
 11
111.723605
 21
276.711189
  0
ARC
  5
257
100
AcDbEntity
  8
M0
 62
     7
100
AcDbCircle
 10
110.278324
 20
276.309722
 40
1.5
100
AcDbArc
 50
15.524197
 51
90.0
  0
CIRCLE
  5
258
100
AcDbEntity
  8
M0
 62
     4
100
AcDbCircle
 10
108.418476
 20
273.109694
 40
2.999997
  0
LINE
  5
259
100
AcDbEntity
  8
M0
 62
     4
100
AcDbLine
 10
105.459492
 20
277.057036
 11
104.643329
 21
274.409743
  0
LINE
  5
25A
100
AcDbEntity
  8
M0
 62
     4
100
AcDbLine
 10
105.459492
 20
269.162444
 11
104.643329
 21
271.809767
  0
LINE
  5
25B
100
AcDbEntity
  8
M0
 62
     4
100
AcDbLine
 10
111.376972
 20
277.057051
 11
112.193378
 21
274.409743
  0
LINE
  5
25C
100
AcDbEntity
  8
M0
 62
     4
100
AcDbLine
 10
111.376972
 20
269.162428
 11
112.193378
 21
271.809767
  0
LINE
  5
25D
100
AcDbEntity
  8
M0
 62
     4
100
AcDbLine
 10
105.937519
 20
268.809767
 11
110.899189
 21
268.809767
  0
LINE
  5
25E
100
AcDbEntity
  8
M0
 62
     4
100
AcDbLine
 10
112.193378
 20
271.809767
 11
112.193378
 21
274.409743
  0
LINE
  5
25F
100
AcDbEntity
  8
M0
 62
     4
100
AcDbLine
 10
110.899189
 20
277.409743
 11
105.937519
 21
277.409728
  0
LINE
  5
260
100
AcDbEntity
  8
M0
 62
     4
100
AcDbLine
 10
104.643329
 20
274.409743
 11
104.643329
 21
271.809767
  0
LINE
  5
261
100
AcDbEntity
  8
M0
 62
     4
100
AcDbLine
 10
110.009052
 20
271.518874
 11
106.827412
 21
274.700636
  0
LINE
  5
262
100
AcDbEntity
  8
M0
 62
     4
100
AcDbLine
 10
108.771747
 20
274.523879
 11
107.004169
 21
272.756178
  0
LINE
  5
263
100
AcDbEntity
  8
M0
 62
     4
100
AcDbLine
 10
109.832294
 20
273.46321
 11
108.064716
 21
271.695632
  0
ARC
  5
264
100
AcDbEntity
  8
M0
 62
     4
100
AcDbCircle
 10
105.937519
 20
276.909728
 40
0.5
100
AcDbArc
 50
89.998251
 51
162.874002
  0
ARC
  5
265
100
AcDbEntity
  8
M0
 62
     4
100
AcDbCircle
 10
105.937519
 20
269.309767
 40
0.5
100
AcDbArc
 50
197.129131
 51
270.0
  0
ARC
  5
266
100
AcDbEntity
  8
M0
 62
     4
100
AcDbCircle
 10
110.899189
 20
269.309767
 40
0.5
100
AcDbArc
 50
270.0
 51
342.861236
  0
ARC
  5
267
100
AcDbEntity
  8
M0
 62
     4
100
AcDbCircle
 10
110.899189
 20
276.909728
 40
0.5
100
AcDbArc
 50
17.136442
 51
90.0
  0
LINE
  5
268
100
AcDbEntity
  8
M0
  6
DASHDOT
 62
     4
100
AcDbLine
 10
111.918476
 20
273.109694
 11
104.918476
 21
273.109694
  0
LINE
  5
269
100
AcDbEntity
  8
M0
  6
DASHDOT
 62
     4
100
AcDbLine
 10
108.418461
 20
276.609694
 11
108.418476
 21
269.609694
  0
CIRCLE
  5
26A
100
AcDbEntity
  8
M0
 62
     4
100
AcDbCircle
 10
98.418476
 20
273.109694
 40
2.999997
  0
LINE
  5
26B
100
AcDbEntity
  8
M0
 62
     4
100
AcDbLine
 10
95.459492
 20
277.057036
 11
94.643329
 21
274.409743
  0
LINE
  5
26C
100
AcDbEntity
  8
M0
 62
     4
100
AcDbLine
 10
95.459492
 20
269.162444
 11
94.643329
 21
271.809767
  0
LINE
  5
26D
100
AcDbEntity
  8
M0
 62
     4
100
AcDbLine
 10
101.376972
 20
277.057051
 11
102.193378
 21
274.409743
  0
LINE
  5
26E
100
AcDbEntity
  8
M0
 62
     4
100
AcDbLine
 10
101.376972
 20
269.162428
 11
102.193378
 21
271.809767
  0
LINE
  5
26F
100
AcDbEntity
  8
M0
 62
     4
100
AcDbLine
 10
95.937519
 20
268.809767
 11
100.899189
 21
268.809767
  0
LINE
  5
270
100
AcDbEntity
  8
M0
 62
     4
100
AcDbLine
 10
102.193378
 20
271.809767
 11
102.193378
 21
274.409743
  0
LINE
  5
271
100
AcDbEntity
  8
M0
 62
     4
100
AcDbLine
 10
100.899189
 20
277.409743
 11
95.937519
 21
277.409728
  0
LINE
  5
272
100
AcDbEntity
  8
M0
 62
     4
100
AcDbLine
 10
94.643329
 20
274.409743
 11
94.643329
 21
271.809767
  0
LINE
  5
273
100
AcDbEntity
  8
M0
 62
     4
100
AcDbLine
 10
100.009052
 20
271.518874
 11
96.827412
 21
274.700636
  0
LINE
  5
274
100
AcDbEntity
  8
M0
 62
     4
100
AcDbLine
 10
98.771747
 20
274.523879
 11
97.004169
 21
272.756178
  0
LINE
  5
275
100
AcDbEntity
  8
M0
 62
     4
100
AcDbLine
 10
99.832294
 20
273.46321
 11
98.064716
 21
271.695632
  0
ARC
  5
276
100
AcDbEntity
  8
M0
 62
     4
100
AcDbCircle
 10
95.937519
 20
276.909728
 40
0.5
100
AcDbArc
 50
89.998251
 51
162.874002
  0
ARC
  5
277
100
AcDbEntity
  8
M0
 62
     4
100
AcDbCircle
 10
95.937519
 20
269.309767
 40
0.5
100
AcDbArc
 50
197.129131
 51
270.0
  0
ARC
  5
278
100
AcDbEntity
  8
M0
 62
     4
100
AcDbCircle
 10
100.899189
 20
269.309767
 40
0.5
100
AcDbArc
 50
270.0
 51
342.861236
  0
ARC
  5
279
100
AcDbEntity
  8
M0
 62
     4
100
AcDbCircle
 10
100.899189
 20
276.909728
 40
0.5
100
AcDbArc
 50
17.136442
 51
90.0
  0
LINE
  5
27A
100
AcDbEntity
  8
M0
  6
DASHDOT
 62
     4
100
AcDbLine
 10
101.918476
 20
273.109694
 11
94.918476
 21
273.109694
  0
LINE
  5
27B
100
AcDbEntity
  8
M0
  6
DASHDOT
 62
     4
100
AcDbLine
 10
98.418461
 20
276.609694
 11
98.418476
 21
269.609694
  0
CIRCLE
  5
27C
100
AcDbEntity
  8
M0
 62
     4
100
AcDbCircle
 10
88.418476
 20
273.109694
 40
2.999997
  0
LINE
  5
27D
100
AcDbEntity
  8
M0
 62
     4
100
AcDbLine
 10
85.459492
 20
277.057036
 11
84.643329
 21
274.409743
  0
LINE
  5
27E
100
AcDbEntity
  8
M0
 62
     4
100
AcDbLine
 10
85.459492
 20
269.162444
 11
84.643329
 21
271.809767
  0
LINE
  5
27F
100
AcDbEntity
  8
M0
 62
     4
100
AcDbLine
 10
91.376972
 20
277.057051
 11
92.193378
 21
274.409743
  0
LINE
  5
280
100
AcDbEntity
  8
M0
 62
     4
100
AcDbLine
 10
91.376972
 20
269.162428
 11
92.193378
 21
271.809767
  0
LINE
  5
281
100
AcDbEntity
  8
M0
 62
     4
100
AcDbLine
 10
85.937519
 20
268.809767
 11
90.899189
 21
268.809767
  0
LINE
  5
282
100
AcDbEntity
  8
M0
 62
     4
100
AcDbLine
 10
92.193378
 20
271.809767
 11
92.193378
 21
274.409743
  0
LINE
  5
283
100
AcDbEntity
  8
M0
 62
     4
100
AcDbLine
 10
90.899189
 20
277.409743
 11
85.937519
 21
277.409728
  0
LINE
  5
284
100
AcDbEntity
  8
M0
 62
     4
100
AcDbLine
 10
84.643329
 20
274.409743
 11
84.643329
 21
271.809767
  0
LINE
  5
285
100
AcDbEntity
  8
M0
 62
     4
100
AcDbLine
 10
90.009052
 20
271.518874
 11
86.827412
 21
274.700636
  0
LINE
  5
286
100
AcDbEntity
  8
M0
 62
     4
100
AcDbLine
 10
88.771747
 20
274.523879
 11
87.004169
 21
272.756178
  0
LINE
  5
287
100
AcDbEntity
  8
M0
 62
     4
100
AcDbLine
 10
89.832294
 20
273.46321
 11
88.064716
 21
271.695632
  0
ARC
  5
288
100
AcDbEntity
  8
M0
 62
     4
100
AcDbCircle
 10
85.937519
 20
276.909728
 40
0.5
100
AcDbArc
 50
89.998251
 51
162.874002
  0
ARC
  5
289
100
AcDbEntity
  8
M0
 62
     4
100
AcDbCircle
 10
85.937519
 20
269.309767
 40
0.5
100
AcDbArc
 50
197.129131
 51
270.0
  0
ARC
  5
28A
100
AcDbEntity
  8
M0
 62
     4
100
AcDbCircle
 10
90.899189
 20
269.309767
 40
0.5
100
AcDbArc
 50
270.0
 51
342.861236
  0
ARC
  5
28B
100
AcDbEntity
  8
M0
 62
     4
100
AcDbCircle
 10
90.899189
 20
276.909728
 40
0.5
100
AcDbArc
 50
17.136442
 51
90.0
  0
LINE
  5
28C
100
AcDbEntity
  8
M0
  6
DASHDOT
 62
     4
100
AcDbLine
 10
91.918476
 20
273.109694
 11
84.918476
 21
273.109694
  0
LINE
  5
28D
100
AcDbEntity
  8
M0
  6
DASHDOT
 62
     4
100
AcDbLine
 10
88.418461
 20
276.609694
 11
88.418476
 21
269.609694
  0
CIRCLE
  5
28E
100
AcDbEntity
  8
M0
 62
     4
100
AcDbCircle
 10
78.418476
 20
273.109694
 40
2.999997
  0
LINE
  5
28F
100
AcDbEntity
  8
M0
 62
     4
100
AcDbLine
 10
75.459492
 20
277.057036
 11
74.643329
 21
274.409743
  0
LINE
  5
290
100
AcDbEntity
  8
M0
 62
     4
100
AcDbLine
 10
75.459492
 20
269.162444
 11
74.643329
 21
271.809767
  0
LINE
  5
291
100
AcDbEntity
  8
M0
 62
     4
100
AcDbLine
 10
81.376972
 20
277.057051
 11
82.193378
 21
274.409743
  0
LINE
  5
292
100
AcDbEntity
  8
M0
 62
     4
100
AcDbLine
 10
81.376972
 20
269.162428
 11
82.193378
 21
271.809767
  0
LINE
  5
293
100
AcDbEntity
  8
M0
 62
     4
100
AcDbLine
 10
75.937519
 20
268.809767
 11
80.899189
 21
268.809767
  0
LINE
  5
294
100
AcDbEntity
  8
M0
 62
     4
100
AcDbLine
 10
82.193378
 20
271.809767
 11
82.193378
 21
274.409743
  0
LINE
  5
295
100
AcDbEntity
  8
M0
 62
     4
100
AcDbLine
 10
80.899189
 20
277.409743
 11
75.937519
 21
277.409728
  0
LINE
  5
296
100
AcDbEntity
  8
M0
 62
     4
100
AcDbLine
 10
74.643329
 20
274.409743
 11
74.643329
 21
271.809767
  0
LINE
  5
297
100
AcDbEntity
  8
M0
 62
     4
100
AcDbLine
 10
80.009052
 20
271.518874
 11
76.827412
 21
274.700636
  0
LINE
  5
298
100
AcDbEntity
  8
M0
 62
     4
100
AcDbLine
 10
78.771747
 20
274.523879
 11
77.004169
 21
272.756178
  0
LINE
  5
299
100
AcDbEntity
  8
M0
 62
     4
100
AcDbLine
 10
79.832294
 20
273.46321
 11
78.064716
 21
271.695632
  0
ARC
  5
29A
100
AcDbEntity
  8
M0
 62
     4
100
AcDbCircle
 10
75.937519
 20
276.909728
 40
0.5
100
AcDbArc
 50
89.998251
 51
162.874002
  0
ARC
  5
29B
100
AcDbEntity
  8
M0
 62
     4
100
AcDbCircle
 10
75.937519
 20
269.309767
 40
0.5
100
AcDbArc
 50
197.129131
 51
270.0
  0
ARC
  5
29C
100
AcDbEntity
  8
M0
 62
     4
100
AcDbCircle
 10
80.899189
 20
269.309767
 40
0.5
100
AcDbArc
 50
270.0
 51
342.861236
  0
ARC
  5
29D
100
AcDbEntity
  8
M0
 62
     4
100
AcDbCircle
 10
80.899189
 20
276.909728
 40
0.5
100
AcDbArc
 50
17.136442
 51
90.0
  0
LINE
  5
29E
100
AcDbEntity
  8
M0
  6
DASHDOT
 62
     4
100
AcDbLine
 10
81.918476
 20
273.109694
 11
74.918476
 21
273.109694
  0
LINE
  5
29F
100
AcDbEntity
  8
M0
  6
DASHDOT
 62
     4
100
AcDbLine
 10
78.418461
 20
276.609694
 11
78.418476
 21
269.609694
  0
CIRCLE
  5
2A0
100
AcDbEntity
  8
M0
 62
   253
100
AcDbCircle
 10
75.418476
 20
256.609694
 40
2.999997
  0
LINE
  5
2A1
100
AcDbEntity
  8
M0
 62
   253
100
AcDbLine
 10
72.459492
 20
260.557036
 11
71.643329
 21
257.909743
  0
LINE
  5
2A2
100
AcDbEntity
  8
M0
 62
   253
100
AcDbLine
 10
72.459492
 20
252.662444
 11
71.643329
 21
255.309767
  0
LINE
  5
2A3
100
AcDbEntity
  8
M0
 62
   253
100
AcDbLine
 10
78.376972
 20
260.557051
 11
79.193378
 21
257.909743
  0
LINE
  5
2A4
100
AcDbEntity
  8
M0
 62
   253
100
AcDbLine
 10
78.376972
 20
252.662428
 11
79.193378
 21
255.309767
  0
LINE
  5
2A5
100
AcDbEntity
  8
M0
 62
   253
100
AcDbLine
 10
72.937519
 20
252.309767
 11
77.899189
 21
252.309767
  0
LINE
  5
2A6
100
AcDbEntity
  8
M0
 62
   253
100
AcDbLine
 10
79.193378
 20
255.309767
 11
79.193378
 21
257.909743
  0
LINE
  5
2A7
100
AcDbEntity
  8
M0
 62
   253
100
AcDbLine
 10
77.899189
 20
260.909743
 11
72.937519
 21
260.909728
  0
LINE
  5
2A8
100
AcDbEntity
  8
M0
 62
   253
100
AcDbLine
 10
71.643329
 20
257.909743
 11
71.643329
 21
255.309767
  0
LINE
  5
2A9
100
AcDbEntity
  8
M0
  6
DASHDOT
 62
   253
100
AcDbLine
 10
69.143329
 20
256.609694
 11
81.693378
 21
256.609694
  0
LINE
  5
2AA
100
AcDbEntity
  8
M0
  6
DASHDOT
 62
   253
100
AcDbLine
 10
75.418476
 20
249.809783
 11
75.418476
 21
263.409743
  0
LINE
  5
2AB
100
AcDbEntity
  8
M0
 62
   253
100
AcDbLine
 10
77.009052
 20
255.018874
 11
73.827412
 21
258.200636
  0
LINE
  5
2AC
100
AcDbEntity
  8
M0
 62
   253
100
AcDbLine
 10
75.771747
 20
258.023879
 11
74.004169
 21
256.256178
  0
LINE
  5
2AD
100
AcDbEntity
  8
M0
 62
   253
100
AcDbLine
 10
76.832294
 20
256.96321
 11
75.064716
 21
255.195632
  0
ARC
  5
2AE
100
AcDbEntity
  8
M0
 62
   253
100
AcDbCircle
 10
72.937519
 20
260.409728
 40
0.5
100
AcDbArc
 50
89.998251
 51
162.874002
  0
ARC
  5
2AF
100
AcDbEntity
  8
M0
 62
   253
100
AcDbCircle
 10
72.937519
 20
252.809767
 40
0.5
100
AcDbArc
 50
197.129131
 51
270.0
  0
ARC
  5
2B0
100
AcDbEntity
  8
M0
 62
   253
100
AcDbCircle
 10
77.899189
 20
252.809767
 40
0.5
100
AcDbArc
 50
270.0
 51
342.861236
  0
ARC
  5
2B1
100
AcDbEntity
  8
M0
 62
   253
100
AcDbCircle
 10
77.899189
 20
260.409728
 40
0.5
100
AcDbArc
 50
17.136442
 51
90.0
  0
CIRCLE
  5
2B2
100
AcDbEntity
  8
M0
 62
   253
100
AcDbCircle
 10
85.418476
 20
256.609694
 40
2.999997
  0
LINE
  5
2B3
100
AcDbEntity
  8
M0
 62
   253
100
AcDbLine
 10
82.459492
 20
260.557036
 11
81.643329
 21
257.909743
  0
LINE
  5
2B4
100
AcDbEntity
  8
M0
 62
   253
100
AcDbLine
 10
82.459492
 20
252.662444
 11
81.643329
 21
255.309767
  0
LINE
  5
2B5
100
AcDbEntity
  8
M0
 62
   253
100
AcDbLine
 10
88.376972
 20
260.557051
 11
89.193378
 21
257.909743
  0
LINE
  5
2B6
100
AcDbEntity
  8
M0
 62
   253
100
AcDbLine
 10
88.376972
 20
252.662428
 11
89.193378
 21
255.309767
  0
LINE
  5
2B7
100
AcDbEntity
  8
M0
 62
   253
100
AcDbLine
 10
82.937519
 20
252.309767
 11
87.899189
 21
252.309767
  0
LINE
  5
2B8
100
AcDbEntity
  8
M0
 62
   253
100
AcDbLine
 10
89.193378
 20
255.309767
 11
89.193378
 21
257.909743
  0
LINE
  5
2B9
100
AcDbEntity
  8
M0
 62
   253
100
AcDbLine
 10
87.899189
 20
260.909743
 11
82.937519
 21
260.909728
  0
LINE
  5
2BA
100
AcDbEntity
  8
M0
 62
   253
100
AcDbLine
 10
81.643329
 20
257.909743
 11
81.643329
 21
255.309767
  0
LINE
  5
2BB
100
AcDbEntity
  8
M0
  6
DASHDOT
 62
   253
100
AcDbLine
 10
79.143329
 20
256.609694
 11
91.693378
 21
256.609694
  0
LINE
  5
2BC
100
AcDbEntity
  8
M0
  6
DASHDOT
 62
   253
100
AcDbLine
 10
85.418476
 20
249.809783
 11
85.418476
 21
263.409743
  0
LINE
  5
2BD
100
AcDbEntity
  8
M0
 62
   253
100
AcDbLine
 10
87.009052
 20
255.018874
 11
83.827412
 21
258.200636
  0
LINE
  5
2BE
100
AcDbEntity
  8
M0
 62
   253
100
AcDbLine
 10
85.771747
 20
258.023879
 11
84.004169
 21
256.256178
  0
LINE
  5
2BF
100
AcDbEntity
  8
M0
 62
   253
100
AcDbLine
 10
86.832294
 20
256.96321
 11
85.064716
 21
255.195632
  0
ARC
  5
2C0
100
AcDbEntity
  8
M0
 62
   253
100
AcDbCircle
 10
82.937519
 20
260.409728
 40
0.5
100
AcDbArc
 50
89.998251
 51
162.874002
  0
ARC
  5
2C1
100
AcDbEntity
  8
M0
 62
   253
100
AcDbCircle
 10
82.937519
 20
252.809767
 40
0.5
100
AcDbArc
 50
197.129131
 51
270.0
  0
ARC
  5
2C2
100
AcDbEntity
  8
M0
 62
   253
100
AcDbCircle
 10
87.899189
 20
252.809767
 40
0.5
100
AcDbArc
 50
270.0
 51
342.861236
  0
ARC
  5
2C3
100
AcDbEntity
  8
M0
 62
   253
100
AcDbCircle
 10
87.899189
 20
260.409728
 40
0.5
100
AcDbArc
 50
17.136442
 51
90.0
  0
CIRCLE
  5
2C4
100
AcDbEntity
  8
M0
 62
   253
100
AcDbCircle
 10
95.418476
 20
256.609694
 40
2.999997
  0
LINE
  5
2C5
100
AcDbEntity
  8
M0
 62
   253
100
AcDbLine
 10
92.459492
 20
260.557036
 11
91.643329
 21
257.909743
  0
LINE
  5
2C6
100
AcDbEntity
  8
M0
 62
   253
100
AcDbLine
 10
92.459492
 20
252.662444
 11
91.643329
 21
255.309767
  0
LINE
  5
2C7
100
AcDbEntity
  8
M0
 62
   253
100
AcDbLine
 10
98.376972
 20
260.557051
 11
99.193378
 21
257.909743
  0
LINE
  5
2C8
100
AcDbEntity
  8
M0
 62
   253
100
AcDbLine
 10
98.376972
 20
252.662428
 11
99.193378
 21
255.309767
  0
LINE
  5
2C9
100
AcDbEntity
  8
M0
 62
   253
100
AcDbLine
 10
92.937519
 20
252.309767
 11
97.899189
 21
252.309767
  0
LINE
  5
2CA
100
AcDbEntity
  8
M0
 62
   253
100
AcDbLine
 10
99.193378
 20
255.309767
 11
99.193378
 21
257.909743
  0
LINE
  5
2CB
100
AcDbEntity
  8
M0
 62
   253
100
AcDbLine
 10
97.899189
 20
260.909743
 11
92.937519
 21
260.909728
  0
LINE
  5
2CC
100
AcDbEntity
  8
M0
 62
   253
100
AcDbLine
 10
91.643329
 20
257.909743
 11
91.643329
 21
255.309767
  0
LINE
  5
2CD
100
AcDbEntity
  8
M0
  6
DASHDOT
 62
   253
100
AcDbLine
 10
89.143329
 20
256.609694
 11
101.693378
 21
256.609694
  0
LINE
  5
2CE
100
AcDbEntity
  8
M0
  6
DASHDOT
 62
   253
100
AcDbLine
 10
95.418476
 20
249.809783
 11
95.418476
 21
263.409743
  0
LINE
  5
2CF
100
AcDbEntity
  8
M0
 62
   253
100
AcDbLine
 10
97.009052
 20
255.018874
 11
93.827412
 21
258.200636
  0
LINE
  5
2D0
100
AcDbEntity
  8
M0
 62
   253
100
AcDbLine
 10
95.771747
 20
258.023879
 11
94.004169
 21
256.256178
  0
LINE
  5
2D1
100
AcDbEntity
  8
M0
 62
   253
100
AcDbLine
 10
96.832294
 20
256.96321
 11
95.064716
 21
255.195632
  0
ARC
  5
2D2
100
AcDbEntity
  8
M0
 62
   253
100
AcDbCircle
 10
92.937519
 20
260.409728
 40
0.5
100
AcDbArc
 50
89.998251
 51
162.874002
  0
ARC
  5
2D3
100
AcDbEntity
  8
M0
 62
   253
100
AcDbCircle
 10
92.937519
 20
252.809767
 40
0.5
100
AcDbArc
 50
197.129131
 51
270.0
  0
ARC
  5
2D4
100
AcDbEntity
  8
M0
 62
   253
100
AcDbCircle
 10
97.899189
 20
252.809767
 40
0.5
100
AcDbArc
 50
270.0
 51
342.861236
  0
ARC
  5
2D5
100
AcDbEntity
  8
M0
 62
   253
100
AcDbCircle
 10
97.899189
 20
260.409728
 40
0.5
100
AcDbArc
 50
17.136442
 51
90.0
  0
CIRCLE
  5
2D6
100
AcDbEntity
  8
M0
  6
DASHED
 62
    74
100
AcDbCircle
 10
99.418476
 20
285.109694
 40
5.9
  0
LINE
  5
2D7
100
AcDbEntity
  8
M0
  6
DASHDOT
 62
    74
100
AcDbLine
 10
92.518482
 20
285.109694
 11
106.318477
 21
285.109694
  0
LINE
  5
2D8
100
AcDbEntity
  8
M0
  6
DASHDOT
 62
    74
100
AcDbLine
 10
99.418476
 20
278.209694
 11
99.418476
 21
292.009688
  0
LINE
  5
2D9
100
AcDbEntity
  8
M0
  6
DASHED
 62
    74
100
AcDbLine
 10
99.918476
 20
283.359694
 11
99.918476
 21
284.609694
  0
LINE
  5
2DA
100
AcDbEntity
  8
M0
  6
DASHED
 62
    74
100
AcDbLine
 10
99.918476
 20
284.609694
 11
101.168476
 21
284.609694
  0
LINE
  5
2DB
100
AcDbEntity
  8
M0
  6
DASHED
 62
    74
100
AcDbLine
 10
101.168476
 20
284.609694
 11
101.168476
 21
285.609694
  0
LINE
  5
2DC
100
AcDbEntity
  8
M0
  6
DASHED
 62
    74
100
AcDbLine
 10
101.168476
 20
285.609694
 11
99.918476
 21
285.609694
  0
LINE
  5
2DD
100
AcDbEntity
  8
M0
  6
DASHED
 62
    74
100
AcDbLine
 10
99.918476
 20
285.609694
 11
99.918476
 21
286.859694
  0
LINE
  5
2DE
100
AcDbEntity
  8
M0
  6
DASHED
 62
    74
100
AcDbLine
 10
99.918476
 20
286.859694
 11
98.918476
 21
286.859694
  0
LINE
  5
2DF
100
AcDbEntity
  8
M0
  6
DASHED
 62
    74
100
AcDbLine
 10
98.918476
 20
286.859694
 11
98.918476
 21
285.609694
  0
LINE
  5
2E0
100
AcDbEntity
  8
M0
  6
DASHED
 62
    74
100
AcDbLine
 10
98.918476
 20
285.609694
 11
97.668476
 21
285.609694
  0
LINE
  5
2E1
100
AcDbEntity
  8
M0
  6
DASHED
 62
    74
100
AcDbLine
 10
97.668476
 20
285.609694
 11
97.668476
 21
284.609694
  0
LINE
  5
2E2
100
AcDbEntity
  8
M0
  6
DASHED
 62
    74
100
AcDbLine
 10
97.668476
 20
284.609694
 11
98.918476
 21
284.609694
  0
LINE
  5
2E3
100
AcDbEntity
  8
M0
  6
DASHED
 62
    74
100
AcDbLine
 10
98.918476
 20
284.609694
 11
98.918476
 21
283.359694
  0
LINE
  5
2E4
100
AcDbEntity
  8
M0
  6
DASHED
 62
    74
100
AcDbLine
 10
98.918476
 20
283.359694
 11
99.918476
 21
283.359694
  0
LINE
  5
2E5
100
AcDbEntity
  8
M0
 62
     7
100
AcDbLine
 10
104.868497
 20
309.409698
 11
102.968717
 21
309.409699
  0
LINE
  5
2E6
100
AcDbEntity
  8
M0
 62
     7
100
AcDbLine
 10
69.418493
 20
298.609732
 11
69.418489
 21
292.809729
  0
LINE
  5
2E7
100
AcDbEntity
  8
M0
 62
     7
100
AcDbLine
 10
114.418487
 20
288.309701
 11
114.418491
 21
295.309716
  0
LINE
  5
2E8
100
AcDbEntity
  8
M0
 62
     7
100
AcDbLine
 10
105.718492
 20
291.690078
 11
106.222336
 21
289.809706
  0
LINE
  5
2E9
100
AcDbEntity
  8
M0
 62
     7
100
AcDbLine
 10
106.018481
 20
294.434233
 11
106.98967
 21
290.809706
  0
LINE
  5
2EA
100
AcDbEntity
  8
M0
 62
     7
100
AcDbLine
 10
114.418488
 20
290.809701
 11
106.98967
 21
290.809706
  0
LINE
  5
2EB
100
AcDbEntity
  8
M0
 62
     7
100
AcDbLine
 10
106.018482
 20
295.309722
 11
114.418491
 21
295.309701
  0
LINE
  5
2EC
100
AcDbEntity
  8
M0
 62
     7
100
AcDbLine
 10
105.418492
 20
296.309707
 11
105.418495
 21
301.309707
  0
LINE
  5
2ED
100
AcDbEntity
  8
M0
 62
     7
100
AcDbLine
 10
106.018481
 20
294.309722
 11
106.018483
 21
296.309706
  0
LINE
  5
2EE
100
AcDbEntity
  8
M0
 62
     7
100
AcDbLine
 10
106.018481
 20
294.309722
 11
114.41849
 21
294.309701
  0
LINE
  5
2EF
100
AcDbEntity
  8
M0
 62
     7
100
AcDbLine
 10
106.018483
 20
296.309706
 11
89.918492
 21
296.309716
  0
LINE
  5
2F0
100
AcDbEntity
  8
M0
 62
     7
100
AcDbLine
 10
79.418492
 20
297.00972
 11
86.918492
 21
297.009731
  0
LINE
  5
2F1
100
AcDbEntity
  8
M0
 62
     7
100
AcDbLine
 10
79.418493
 20
297.809708
 11
86.918493
 21
297.809718
  0
LINE
  5
2F2
100
AcDbEntity
  8
M0
 62
     7
100
AcDbLine
 10
86.918493
 20
298.009746
 11
89.918493
 21
298.009713
  0
LINE
  5
2F3
100
AcDbEntity
  8
M0
 62
     7
100
AcDbLine
 10
103.918493
 20
298.609711
 11
69.418493
 21
298.609732
  0
LINE
  5
2F4
100
AcDbEntity
  8
M0
 62
     7
100
AcDbLine
 10
79.418491
 20
294.809723
 11
79.418493
 21
297.809738
  0
LINE
  5
2F5
100
AcDbEntity
  8
M0
 62
     7
100
AcDbLine
 10
89.918492
 20
296.309732
 11
89.918493
 21
298.009744
  0
LINE
  5
2F6
100
AcDbEntity
  8
M0
 62
     7
100
AcDbLine
 10
86.918492
 20
297.009731
 11
86.918493
 21
298.009746
  0
LINE
  5
2F7
100
AcDbEntity
  8
M0
 62
     7
100
AcDbLine
 10
103.918492
 20
296.309708
 11
103.918493
 21
298.609711
  0
LINE
  5
2F8
100
AcDbEntity
  8
M0
 62
     7
100
AcDbLine
 10
71.418511
 20
302.309728
 11
71.418508
 21
298.609746
  0
LINE
  5
2F9
100
AcDbEntity
  8
M0
 62
     7
100
AcDbLine
 10
76.418508
 20
298.609743
 11
76.418511
 21
302.309725
  0
LINE
  5
2FA
100
AcDbEntity
  8
M0
 62
     7
100
AcDbLine
 10
81.418511
 20
302.309722
 11
81.418508
 21
298.60974
  0
LINE
  5
2FB
100
AcDbEntity
  8
M0
 62
     7
100
AcDbLine
 10
86.418508
 20
298.609737
 11
86.418511
 21
302.309719
  0
LINE
  5
2FC
100
AcDbEntity
  8
M0
 62
     7
100
AcDbLine
 10
91.418511
 20
302.309716
 11
91.418508
 21
298.609734
  0
LINE
  5
2FD
100
AcDbEntity
  8
M0
 62
     7
100
AcDbLine
 10
94.718511
 20
298.609732
 11
94.718514
 21
302.309713
  0
LINE
  5
2FE
100
AcDbEntity
  8
M0
 62
     7
100
AcDbLine
 10
76.718496
 20
298.609728
 11
76.718498
 21
302.310228
  0
LINE
  5
2FF
100
AcDbEntity
  8
M0
 62
     7
100
AcDbLine
 10
79.718496
 20
298.609726
 11
79.718499
 21
302.425156
  0
LINE
  5
300
100
AcDbEntity
  8
M0
 62
     7
100
AcDbLine
 10
96.718481
 20
298.609715
 11
96.718487
 21
308.110066
  0
LINE
  5
301
100
AcDbEntity
  8
M0
 62
     7
100
AcDbLine
 10
99.718481
 20
298.609713
 11
99.718487
 21
308.110064
  0
LINE
  5
302
100
AcDbEntity
  8
M0
 62
     7
100
AcDbLine
 10
102.718481
 20
298.609711
 11
102.718485
 21
305.110078
  0
LINE
  5
303
100
AcDbEntity
  8
M0
 62
     7
100
AcDbLine
 10
104.868492
 20
301.309707
 11
104.868497
 21
309.409698
  0
LINE
  5
304
100
AcDbEntity
  8
M0
 62
     7
100
AcDbLine
 10
105.418495
 20
301.309707
 11
104.868492
 21
301.309707
  0
LINE
  5
305
100
AcDbEntity
  8
M0
 62
     7
100
AcDbLine
 10
104.868494
 20
304.10971
 11
102.718484
 21
304.109711
  0
LINE
  5
306
100
AcDbEntity
  8
M0
 62
     7
100
AcDbLine
 10
99.718484
 20
304.109713
 11
96.718484
 21
304.109715
  0
LINE
  5
307
100
AcDbEntity
  8
M0
 62
     7
100
AcDbLine
 10
102.718483
 20
301.809724
 11
99.718483
 21
301.809726
  0
LINE
  5
308
100
AcDbEntity
  8
M0
 62
     7
100
AcDbLine
 10
81.41851
 20
301.809737
 11
79.718498
 21
301.809738
  0
LINE
  5
309
100
AcDbEntity
  8
M0
 62
     7
100
AcDbLine
 10
94.718514
 20
302.309713
 11
91.418511
 21
302.309716
  0
LINE
  5
30A
100
AcDbEntity
  8
M0
 62
     7
100
AcDbLine
 10
86.418511
 20
302.309719
 11
81.418511
 21
302.309722
  0
LINE
  5
30B
100
AcDbEntity
  8
M0
 62
     7
100
AcDbLine
 10
76.418511
 20
302.309725
 11
71.418511
 21
302.309728
  0
LINE
  5
30C
100
AcDbEntity
  8
M0
 62
     1
100
AcDbLine
 10
105.218491
 20
294.809716
 11
73.918488
 21
294.809736
  0
LINE
  5
30D
100
AcDbEntity
  8
M0
 62
     1
100
AcDbLine
 10
73.418488
 20
294.309752
 11
73.418477
 21
277.809754
  0
LINE
  5
30E
100
AcDbEntity
  8
M0
 62
     1
100
AcDbLine
 10
73.418477
 20
277.809735
 11
113.918477
 21
277.809726
  0
LINE
  5
30F
100
AcDbEntity
  8
M0
 62
     1
100
AcDbLine
 10
114.418478
 20
278.309726
 11
114.418484
 21
289.309711
  0
LINE
  5
310
100
AcDbEntity
  8
M0
 62
     1
100
AcDbLine
 10
113.918485
 20
289.809711
 11
106.218488
 21
289.809716
  0
LINE
  5
311
100
AcDbEntity
  8
M0
 62
     1
100
AcDbLine
 10
105.718488
 20
290.309716
 11
105.718491
 21
294.309716
  0
ARC
  5
312
100
AcDbEntity
  8
M0
 62
     1
100
AcDbCircle
 10
113.918478
 20
278.309726
 40
0.5
100
AcDbArc
 50
270.0
 51
359.999855
  0
ARC
  5
313
100
AcDbEntity
  8
M0
 62
     1
100
AcDbCircle
 10
105.218491
 20
294.309716
 40
0.5
100
AcDbArc
 50
359.998215
 51
450.0
  0
ARC
  5
314
100
AcDbEntity
  8
M0
 62
     1
100
AcDbCircle
 10
73.918488
 20
294.309736
 40
0.5
100
AcDbArc
 50
89.998215
 51
179.999964
  0
ARC
  5
315
100
AcDbEntity
  8
M0
 62
     1
100
AcDbCircle
 10
113.918484
 20
289.309711
 40
0.5
100
AcDbArc
 50
359.999855
 51
450.0
  0
ARC
  5
316
100
AcDbEntity
  8
M0
 62
     1
100
AcDbCircle
 10
106.218488
 20
290.309716
 40
0.5
100
AcDbArc
 50
179.999964
 51
270.0
  0
CIRCLE
  5
317
100
AcDbEntity
  8
M0
 62
     1
100
AcDbCircle
 10
82.418482
 20
285.109749
 40
4.5
  0
LINE
  5
318
100
AcDbEntity
  8
M0
  6
DASHDOT
 62
     1
100
AcDbLine
 10
89.418482
 20
285.109745
 11
75.418482
 21
285.109753
  0
LINE
  5
319
100
AcDbEntity
  8
M0
  6
DASHDOT
 62
     1
100
AcDbLine
 10
82.418486
 20
292.109749
 11
82.418477
 21
278.109749
  0
LINE
  5
31A
100
AcDbEntity
  8
M0
 62
   154
100
AcDbLine
 10
84.418476
 20
290.709724
 11
84.418476
 21
293.509719
  0
LINE
  5
31B
100
AcDbEntity
  8
M0
 62
   154
100
AcDbLine
 10
84.418476
 20
293.509719
 11
80.418476
 21
293.509719
  0
LINE
  5
31C
100
AcDbEntity
  8
M0
 62
   154
100
AcDbLine
 10
80.418476
 20
293.509719
 11
80.418476
 21
290.709724
  0
LINE
  5
31D
100
AcDbEntity
  8
M0
 62
   154
100
AcDbLine
 10
80.418476
 20
290.709724
 11
84.418476
 21
290.709724
  0
LINE
  5
31E
100
AcDbEntity
  8
M0
  6
DASHDOT
 62
   154
100
AcDbLine
 10
82.418476
 20
285.709724
 11
82.418476
 21
298.509719
  0
LINE
  5
31F
100
AcDbEntity
  8
M0
  6
DASHED
 62
   154
100
AcDbLine
 10
84.418476
 20
293.009719
 11
80.418476
 21
293.009719
  0
LINE
  5
320
100
AcDbEntity
  8
M0
  6
DASHED
 62
   154
100
AcDbLine
 10
84.418476
 20
291.209715
 11
80.418476
 21
291.209715
  0
CIRCLE
  5
321
100
AcDbEntity
  8
M0
 62
   114
100
AcDbCircle
 10
82.418476
 20
285.109725
 40
3.799999
  0
LINE
  5
322
100
AcDbEntity
  8
M0
 62
   114
100
AcDbLine
 10
82.918476
 20
288.876677
 11
82.918476
 21
281.342757
  0
LINE
  5
323
100
AcDbEntity
  8
M0
 62
   114
100
AcDbLine
 10
81.918476
 20
288.876677
 11
81.918476
 21
281.342757
  0
LINE
  5
324
100
AcDbEntity
  8
M0
 62
     6
100
AcDbLine
 10
84.918495
 20
307.909676
 11
84.918491
 21
302.309685
  0
LINE
  5
325
100
AcDbEntity
  8
M0
 62
     6
100
AcDbLine
 10
82.918491
 20
302.309686
 11
82.918495
 21
307.909677
  0
LINE
  5
326
100
AcDbEntity
  8
M0
 62
     6
100
AcDbLine
 10
83.118492
 20
308.109674
 11
83.118498
 21
318.309686
  0
LINE
  5
327
100
AcDbEntity
  8
M0
 62
     6
100
AcDbLine
 10
84.718484
 20
310.31009
 11
84.718483
 21
308.109673
  0
LINE
  5
328
100
AcDbEntity
  8
M0
 62
     6
100
AcDbLine
 10
83.118492
 20
308.109674
 11
82.918495
 21
307.909677
  0
LINE
  5
329
100
AcDbEntity
  8
M0
 62
     6
100
AcDbLine
 10
84.718483
 20
308.109673
 11
84.918495
 21
307.909676
  0
ARC
  5
32A
100
AcDbEntity
  8
M0
 62
     6
100
AcDbCircle
 10
83.918486
 20
318.309686
 40
0.8
100
AcDbArc
 50
89.998871
 51
179.999964
  0
ARC
  5
32B
100
AcDbEntity
  8
M0
 62
     6
100
AcDbCircle
 10
83.918486
 20
318.309686
 40
0.8
100
AcDbArc
 50
48.630891
 51
89.998871
  0
LINE
  5
32C
100
AcDbEntity
  8
M0
 62
     6
100
AcDbLine
 10
74.918495
 20
307.909676
 11
74.918491
 21
302.309685
  0
LINE
  5
32D
100
AcDbEntity
  8
M0
 62
     6
100
AcDbLine
 10
72.918491
 20
302.309686
 11
72.918495
 21
307.909677
  0
LINE
  5
32E
100
AcDbEntity
  8
M0
 62
     6
100
AcDbLine
 10
73.118492
 20
308.109674
 11
73.118498
 21
318.309686
  0
LINE
  5
32F
100
AcDbEntity
  8
M0
 62
     6
100
AcDbLine
 10
74.718484
 20
310.310196
 11
74.718483
 21
308.109673
  0
LINE
  5
330
100
AcDbEntity
  8
M0
 62
     6
100
AcDbLine
 10
73.118492
 20
308.109674
 11
72.918495
 21
307.909677
  0
LINE
  5
331
100
AcDbEntity
  8
M0
 62
     6
100
AcDbLine
 10
74.718483
 20
308.109673
 11
74.918495
 21
307.909676
  0
ARC
  5
332
100
AcDbEntity
  8
M0
 62
     6
100
AcDbCircle
 10
73.918486
 20
318.309686
 40
0.8
100
AcDbArc
 50
89.998871
 51
179.999964
  0
ARC
  5
333
100
AcDbEntity
  8
M0
 62
     6
100
AcDbCircle
 10
73.918486
 20
318.309686
 40
0.8
100
AcDbArc
 50
48.640812
 51
89.998871
  0
LINE
  5
334
100
AcDbEntity
  8
M0
 62
     6
100
AcDbLine
 10
94.918495
 20
307.909676
 11
94.918489
 21
298.609685
  0
LINE
  5
335
100
AcDbEntity
  8
M0
 62
     6
100
AcDbLine
 10
92.918491
 20
302.309686
 11
92.918495
 21
307.909677
  0
LINE
  5
336
100
AcDbEntity
  8
M0
 62
     6
100
AcDbLine
 10
93.118492
 20
308.109674
 11
93.118498
 21
318.309686
  0
LINE
  5
337
100
AcDbEntity
  8
M0
 62
     6
100
AcDbLine
 10
94.718484
 20
310.110046
 11
94.718483
 21
308.109673
  0
LINE
  5
338
100
AcDbEntity
  8
M0
 62
     6
100
AcDbLine
 10
93.118492
 20
308.109674
 11
92.918495
 21
307.909677
  0
LINE
  5
339
100
AcDbEntity
  8
M0
 62
     6
100
AcDbLine
 10
94.718483
 20
308.109673
 11
94.918495
 21
307.909676
  0
ARC
  5
33A
100
AcDbEntity
  8
M0
 62
     6
100
AcDbCircle
 10
93.918486
 20
318.309686
 40
0.8
100
AcDbArc
 50
89.998871
 51
179.999964
  0
ARC
  5
33B
100
AcDbEntity
  8
M0
 62
     6
100
AcDbCircle
 10
93.918486
 20
318.309686
 40
0.8
100
AcDbArc
 50
48.640812
 51
89.998871
  0
CIRCLE
  5
33C
100
AcDbEntity
  8
M0
 62
     6
100
AcDbCircle
 10
106.918629
 20
354.609938
 40
3.0
  0
LINE
  5
33D
100
AcDbEntity
  8
M0
 62
     6
100
AcDbLine
 10
103.959873
 20
358.55728
 11
103.143619
 21
355.909987
  0
LINE
  5
33E
100
AcDbEntity
  8
M0
 62
     6
100
AcDbLine
 10
103.959873
 20
350.662688
 11
103.143619
 21
353.310011
  0
LINE
  5
33F
100
AcDbEntity
  8
M0
 62
     6
100
AcDbLine
 10
109.877354
 20
358.557295
 11
110.693622
 21
355.909987
  0
LINE
  5
340
100
AcDbEntity
  8
M0
 62
     6
100
AcDbLine
 10
109.877354
 20
350.662673
 11
110.693622
 21
353.310011
  0
LINE
  5
341
100
AcDbEntity
  8
M0
 62
     6
100
AcDbLine
 10
104.437672
 20
350.310011
 11
109.39954
 21
350.310011
  0
LINE
  5
342
100
AcDbEntity
  8
M0
 62
     6
100
AcDbLine
 10
110.693622
 20
353.310011
 11
110.693622
 21
355.909987
  0
LINE
  5
343
100
AcDbEntity
  8
M0
 62
     6
100
AcDbLine
 10
109.39954
 20
358.909987
 11
104.437672
 21
358.909972
  0
LINE
  5
344
100
AcDbEntity
  8
M0
 62
     6
100
AcDbLine
 10
103.143619
 20
355.909987
 11
103.143619
 21
353.310011
  0
LINE
  5
345
100
AcDbEntity
  8
M0
  6
DASHDOT
 62
     6
100
AcDbLine
 10
100.643619
 20
354.609938
 11
113.193622
 21
354.609938
  0
LINE
  5
346
100
AcDbEntity
  8
M0
  6
DASHDOT
 62
     6
100
AcDbLine
 10
106.918629
 20
347.810027
 11
106.918629
 21
361.409987
  0
LINE
  5
347
100
AcDbEntity
  8
M0
 62
     6
100
AcDbLine
 10
108.509403
 20
353.019118
 11
105.327595
 21
356.200881
  0
LINE
  5
348
100
AcDbEntity
  8
M0
 62
     6
100
AcDbLine
 10
107.272037
 20
356.024123
 11
105.504368
 21
354.256423
  0
LINE
  5
349
100
AcDbEntity
  8
M0
 62
     6
100
AcDbLine
 10
108.332645
 20
354.963454
 11
106.565021
 21
353.195876
  0
ARC
  5
34A
100
AcDbEntity
  8
M0
 62
     6
100
AcDbCircle
 10
104.437672
 20
358.409972
 40
0.5
100
AcDbArc
 50
90.0
 51
162.86739
  0
ARC
  5
34B
100
AcDbEntity
  8
M0
 62
     6
100
AcDbCircle
 10
104.437672
 20
350.810011
 40
0.5
100
AcDbArc
 50
197.137519
 51
270.0
  0
ARC
  5
34C
100
AcDbEntity
  8
M0
 62
     6
100
AcDbCircle
 10
109.39954
 20
350.810011
 40
0.5
100
AcDbArc
 50
270.0
 51
342.859476
  0
ARC
  5
34D
100
AcDbEntity
  8
M0
 62
     6
100
AcDbCircle
 10
109.39954
 20
358.409972
 40
0.5
100
AcDbArc
 50
17.134787
 51
90.0
  0
LINE
  5
34E
100
AcDbEntity
  8
M0
 62
     7
100
AcDbLine
 10
80.868627
 20
362.609938
 11
80.868383
 21
366.109923
  0
LINE
  5
34F
100
AcDbEntity
  8
M0
 62
     7
100
AcDbLine
 10
80.868383
 20
366.109923
 11
79.868627
 21
367.109923
  0
LINE
  5
350
100
AcDbEntity
  8
M0
 62
     7
100
AcDbLine
 10
104.868463
 20
302.109938
 11
112.968616
 21
302.109938
  0
LINE
  5
351
100
AcDbEntity
  8
M0
 62
     7
100
AcDbLine
 10
112.968616
 20
302.109938
 11
112.968616
 21
310.109938
  0
LINE
  5
352
100
AcDbEntity
  8
M0
 62
     7
100
AcDbLine
 10
79.868627
 20
367.109923
 11
72.368641
 21
367.109908
  0
LINE
  5
353
100
AcDbEntity
  8
M0
 62
     7
100
AcDbLine
 10
70.368641
 20
365.109908
 11
70.368641
 21
359.109923
  0
ARC
  5
354
100
AcDbEntity
  8
M0
 62
     7
100
AcDbCircle
 10
72.368641
 20
365.109908
 40
2.0
100
AcDbArc
 50
89.999563
 51
180.0
  0
LINE
  5
355
100
AcDbEntity
  8
M0
 62
     7
100
AcDbLine
 10
99.968616
 20
304.109938
 11
99.968616
 21
308.109938
  0
LINE
  5
356
100
AcDbEntity
  8
M0
 62
     7
100
AcDbLine
 10
103.468616
 20
309.409575
 11
103.468616
 21
310.109923
  0
LINE
  5
357
100
AcDbEntity
  8
M0
 62
     7
100
AcDbLine
 10
100.468616
 20
304.109938
 11
100.468616
 21
308.109938
  0
LINE
  5
358
100
AcDbEntity
  8
M0
 62
     7
100
AcDbLine
 10
97.184589
 20
304.109938
 11
99.968616
 21
304.109938
  0
LINE
  5
359
100
AcDbEntity
  8
M0
 62
     7
100
AcDbLine
 10
100.468616
 20
304.109938
 11
103.468616
 21
304.109938
  0
ARC
  5
35A
100
AcDbEntity
  8
M0
 62
     7
100
AcDbCircle
 10
106.418415
 20
308.609831
 40
2.25
100
AcDbArc
 50
257.383398
 51
261.369239
  0
ARC
  5
35B
100
AcDbEntity
  8
M0
 62
     7
100
AcDbCircle
 10
106.418415
 20
308.609831
 40
2.25
100
AcDbArc
 50
138.186678
 51
159.179129
  0
LINE
  5
35C
100
AcDbEntity
  8
M0
 62
     7
100
AcDbLine
 10
104.868463
 20
307.47264
 11
105.926929
 21
306.414122
  0
ARC
  5
35D
100
AcDbEntity
  8
M0
 62
     7
100
AcDbCircle
 10
107.968189
 20
307.609831
 40
2.25
100
AcDbArc
 50
212.974417
 51
237.615092
  0
LINE
  5
35E
100
AcDbEntity
  8
M0
 62
     7
100
AcDbLine
 10
106.763004
 20
305.709822
 11
109.173694
 21
305.709822
  0
ARC
  5
35F
100
AcDbEntity
  8
M0
 62
     7
100
AcDbCircle
 10
107.968616
 20
307.609831
 40
2.25
100
AcDbArc
 50
302.384559
 51
327.025424
  0
LINE
  5
360
100
AcDbEntity
  8
M0
 62
     7
100
AcDbLine
 10
110.868824
 20
307.2731
 11
110.009876
 21
306.414122
  0
ARC
  5
361
100
AcDbEntity
  8
M0
 62
     7
100
AcDbCircle
 10
109.518421
 20
308.609831
 40
2.25
100
AcDbArc
 50
278.630328
 51
282.616176
  0
ARC
  5
362
100
AcDbEntity
  8
M0
 62
     7
100
AcDbCircle
 10
74.968433
 20
362.609725
 40
2.25
100
AcDbArc
 50
32.417537
 51
147.644974
  0
LINE
  5
363
100
AcDbEntity
  8
M0
 62
     7
100
AcDbLine
 10
73.067142
 20
359.109938
 11
73.068043
 21
363.814314
  0
LINE
  5
364
100
AcDbEntity
  8
M0
 62
     7
100
AcDbLine
 10
76.867802
 20
359.109938
 11
76.867802
 21
363.814314
  0
CIRCLE
  5
365
100
AcDbEntity
  8
M0
 62
     6
100
AcDbCircle
 10
76.918629
 20
354.609938
 40
3.0
  0
LINE
  5
366
100
AcDbEntity
  8
M0
 62
     6
100
AcDbLine
 10
73.959873
 20
358.55728
 11
73.143619
 21
355.909987
  0
LINE
  5
367
100
AcDbEntity
  8
M0
 62
     6
100
AcDbLine
 10
73.959873
 20
350.662688
 11
73.143619
 21
353.310011
  0
LINE
  5
368
100
AcDbEntity
  8
M0
 62
     6
100
AcDbLine
 10
79.877354
 20
358.557295
 11
80.693622
 21
355.909987
  0
LINE
  5
369
100
AcDbEntity
  8
M0
 62
     6
100
AcDbLine
 10
79.877354
 20
350.662673
 11
80.693622
 21
353.310011
  0
LINE
  5
36A
100
AcDbEntity
  8
M0
 62
     6
100
AcDbLine
 10
74.437672
 20
350.310011
 11
79.39954
 21
350.310011
  0
LINE
  5
36B
100
AcDbEntity
  8
M0
 62
     6
100
AcDbLine
 10
80.693622
 20
353.310011
 11
80.693622
 21
355.909987
  0
LINE
  5
36C
100
AcDbEntity
  8
M0
 62
     6
100
AcDbLine
 10
79.39954
 20
358.909987
 11
74.437672
 21
358.909972
  0
LINE
  5
36D
100
AcDbEntity
  8
M0
 62
     6
100
AcDbLine
 10
73.143619
 20
355.909987
 11
73.143619
 21
353.310011
  0
LINE
  5
36E
100
AcDbEntity
  8
M0
  6
DASHDOT
 62
     6
100
AcDbLine
 10
70.643619
 20
354.609938
 11
83.193622
 21
354.609938
  0
LINE
  5
36F
100
AcDbEntity
  8
M0
  6
DASHDOT
 62
     6
100
AcDbLine
 10
76.918629
 20
347.810027
 11
76.918629
 21
361.409987
  0
LINE
  5
370
100
AcDbEntity
  8
M0
 62
     6
100
AcDbLine
 10
78.509403
 20
353.019118
 11
75.327595
 21
356.200881
  0
LINE
  5
371
100
AcDbEntity
  8
M0
 62
     6
100
AcDbLine
 10
77.272037
 20
356.024123
 11
75.504368
 21
354.256423
  0
LINE
  5
372
100
AcDbEntity
  8
M0
 62
     6
100
AcDbLine
 10
78.332645
 20
354.963454
 11
76.565021
 21
353.195876
  0
ARC
  5
373
100
AcDbEntity
  8
M0
 62
     6
100
AcDbCircle
 10
74.437672
 20
358.409972
 40
0.5
100
AcDbArc
 50
90.0
 51
162.867254
  0
ARC
  5
374
100
AcDbEntity
  8
M0
 62
     6
100
AcDbCircle
 10
74.437672
 20
350.810011
 40
0.5
100
AcDbArc
 50
197.137551
 51
270.0
  0
ARC
  5
375
100
AcDbEntity
  8
M0
 62
     6
100
AcDbCircle
 10
79.39954
 20
350.810011
 40
0.5
100
AcDbArc
 50
270.0
 51
342.859508
  0
ARC
  5
376
100
AcDbEntity
  8
M0
 62
     6
100
AcDbCircle
 10
79.39954
 20
358.409972
 40
0.5
100
AcDbArc
 50
17.134755
 51
90.0
  0
CIRCLE
  5
377
100
AcDbEntity
  8
M0
 62
     6
100
AcDbCircle
 10
96.918613
 20
354.609938
 40
3.0
  0
LINE
  5
378
100
AcDbEntity
  8
M0
 62
     6
100
AcDbLine
 10
93.959858
 20
358.55728
 11
93.143604
 21
355.909987
  0
LINE
  5
379
100
AcDbEntity
  8
M0
 62
     6
100
AcDbLine
 10
93.959858
 20
350.662688
 11
93.143604
 21
353.310011
  0
LINE
  5
37A
100
AcDbEntity
  8
M0
 62
     6
100
AcDbLine
 10
99.877338
 20
358.557295
 11
100.693607
 21
355.909987
  0
LINE
  5
37B
100
AcDbEntity
  8
M0
 62
     6
100
AcDbLine
 10
99.877338
 20
350.662673
 11
100.693607
 21
353.310011
  0
LINE
  5
37C
100
AcDbEntity
  8
M0
 62
     6
100
AcDbLine
 10
94.437656
 20
350.310011
 11
99.399525
 21
350.310011
  0
LINE
  5
37D
100
AcDbEntity
  8
M0
 62
     6
100
AcDbLine
 10
100.693607
 20
353.310011
 11
100.693607
 21
355.909987
  0
LINE
  5
37E
100
AcDbEntity
  8
M0
 62
     6
100
AcDbLine
 10
99.399525
 20
358.909987
 11
94.437656
 21
358.909972
  0
LINE
  5
37F
100
AcDbEntity
  8
M0
 62
     6
100
AcDbLine
 10
93.143604
 20
355.909987
 11
93.143604
 21
353.310011
  0
LINE
  5
380
100
AcDbEntity
  8
M0
  6
DASHDOT
 62
     6
100
AcDbLine
 10
80.643604
 20
354.609938
 11
93.193607
 21
354.609938
  0
LINE
  5
381
100
AcDbEntity
  8
M0
 62
     6
100
AcDbLine
 10
98.509388
 20
353.019118
 11
95.327579
 21
356.200881
  0
LINE
  5
382
100
AcDbEntity
  8
M0
 62
     6
100
AcDbLine
 10
97.272022
 20
356.024123
 11
95.504352
 21
354.256423
  0
LINE
  5
383
100
AcDbEntity
  8
M0
 62
     6
100
AcDbLine
 10
98.33263
 20
354.963454
 11
96.565006
 21
353.195876
  0
ARC
  5
384
100
AcDbEntity
  8
M0
 62
     6
100
AcDbCircle
 10
94.437656
 20
358.409972
 40
0.5
100
AcDbArc
 50
90.0
 51
162.86739
  0
ARC
  5
385
100
AcDbEntity
  8
M0
 62
     6
100
AcDbCircle
 10
94.437656
 20
350.810011
 40
0.5
100
AcDbArc
 50
197.137519
 51
270.0
  0
ARC
  5
386
100
AcDbEntity
  8
M0
 62
     6
100
AcDbCircle
 10
99.399525
 20
350.810011
 40
0.5
100
AcDbArc
 50
270.0
 51
342.859476
  0
ARC
  5
387
100
AcDbEntity
  8
M0
 62
     6
100
AcDbCircle
 10
99.399525
 20
358.409972
 40
0.5
100
AcDbArc
 50
17.134787
 51
90.0
  0
LINE
  5
388
100
AcDbEntity
  8
M0
 62
     6
100
AcDbLine
 10
89.399631
 20
350.310011
 11
84.437763
 21
350.310011
  0
LINE
  5
389
100
AcDbEntity
  8
M0
 62
     6
100
AcDbLine
 10
89.87743
 20
350.662688
 11
90.693683
 21
353.310011
  0
LINE
  5
38A
100
AcDbEntity
  8
M0
 62
     6
100
AcDbLine
 10
83.959949
 20
350.662673
 11
83.14368
 21
353.310011
  0
LINE
  5
38B
100
AcDbEntity
  8
M0
 62
     6
100
AcDbLine
 10
83.959949
 20
358.557295
 11
83.14368
 21
355.909987
  0
LINE
  5
38C
100
AcDbEntity
  8
M0
 62
     6
100
AcDbLine
 10
83.14368
 20
353.310011
 11
83.14368
 21
355.909987
  0
LINE
  5
38D
100
AcDbEntity
  8
M0
 62
     6
100
AcDbLine
 10
89.87743
 20
358.55728
 11
90.693683
 21
355.909987
  0
LINE
  5
38E
100
AcDbEntity
  8
M0
 62
     6
100
AcDbLine
 10
90.693683
 20
355.909987
 11
90.693683
 21
353.310011
  0
CIRCLE
  5
38F
100
AcDbEntity
  8
M0
 62
     6
100
AcDbCircle
 10
86.918674
 20
354.609938
 40
3.0
  0
LINE
  5
390
100
AcDbEntity
  8
M0
 62
     6
100
AcDbLine
 10
85.3279
 20
353.019118
 11
88.509708
 21
356.200881
  0
LINE
  5
391
100
AcDbEntity
  8
M0
 62
     6
100
AcDbLine
 10
86.565266
 20
356.024123
 11
88.332935
 21
354.256423
  0
LINE
  5
392
100
AcDbEntity
  8
M0
 62
     6
100
AcDbLine
 10
85.504658
 20
354.963454
 11
87.272282
 21
353.195876
  0
ARC
  5
393
100
AcDbEntity
  8
M0
 62
     6
100
AcDbCircle
 10
89.399631
 20
350.810011
 40
0.5
100
AcDbArc
 50
270.0
 51
342.862377
  0
ARC
  5
394
100
AcDbEntity
  8
M0
 62
     6
100
AcDbCircle
 10
84.437763
 20
350.810011
 40
0.5
100
AcDbArc
 50
197.14201
 51
270.0
  0
LINE
  5
395
100
AcDbEntity
  8
M0
 62
     6
100
AcDbLine
 10
84.437763
 20
358.909987
 11
89.399631
 21
358.909972
  0
ARC
  5
396
100
AcDbEntity
  8
M0
 62
     6
100
AcDbCircle
 10
89.399631
 20
358.409972
 40
0.5
100
AcDbArc
 50
17.13261
 51
90.0
  0
ARC
  5
397
100
AcDbEntity
  8
M0
 62
     6
100
AcDbCircle
 10
84.437763
 20
358.409972
 40
0.5
100
AcDbArc
 50
90.0
 51
162.865076
  0
LINE
  5
398
100
AcDbEntity
  8
M0
 62
     6
100
AcDbLine
 10
83.959919
 20
310.662764
 11
83.14365
 21
313.310073
  0
LINE
  5
399
100
AcDbEntity
  8
M0
 62
     6
100
AcDbLine
 10
89.877399
 20
310.662779
 11
90.693653
 21
313.310073
  0
CIRCLE
  5
39A
100
AcDbEntity
  8
M0
 62
     6
100
AcDbCircle
 10
86.918644
 20
314.610121
 40
3.0
  0
LINE
  5
39B
100
AcDbEntity
  8
M0
 62
     6
100
AcDbLine
 10
85.504627
 20
314.256606
 11
87.272251
 21
316.024184
  0
LINE
  5
39C
100
AcDbEntity
  8
M0
 62
     6
100
AcDbLine
 10
86.565235
 20
313.195937
 11
88.332905
 21
314.963637
  0
LINE
  5
39D
100
AcDbEntity
  8
M0
 62
     6
100
AcDbLine
 10
85.327869
 20
316.200942
 11
88.509678
 21
313.019179
  0
LINE
  5
39E
100
AcDbEntity
  8
M0
 62
     6
100
AcDbLine
 10
83.959934
 20
318.557387
 11
83.14365
 21
315.910048
  0
LINE
  5
39F
100
AcDbEntity
  8
M0
 62
     6
100
AcDbLine
 10
89.399616
 20
318.910048
 11
84.437748
 21
318.910048
  0
ARC
  5
3A0
100
AcDbEntity
  8
M0
 62
     6
100
AcDbCircle
 10
84.437748
 20
318.410048
 40
0.5
100
AcDbArc
 50
90.0
 51
162.856423
  0
ARC
  5
3A1
100
AcDbEntity
  8
M0
 62
     6
100
AcDbCircle
 10
89.399616
 20
318.410048
 40
0.5
100
AcDbArc
 50
17.138146
 51
90.0
  0
LINE
  5
3A2
100
AcDbEntity
  8
M0
 62
     6
100
AcDbLine
 10
89.877415
 20
318.557372
 11
90.693653
 21
315.910048
  0
LINE
  5
3A3
100
AcDbEntity
  8
M0
 62
     6
100
AcDbLine
 10
83.14365
 20
315.910048
 11
83.14365
 21
313.310073
  0
LINE
  5
3A4
100
AcDbEntity
  8
M0
 62
     6
100
AcDbLine
 10
90.693653
 20
313.310073
 11
90.693653
 21
315.910048
  0
LINE
  5
3A5
100
AcDbEntity
  8
M0
 62
     6
100
AcDbLine
 10
84.437733
 20
310.310073
 11
89.399601
 21
310.310088
  0
ARC
  5
3A6
100
AcDbEntity
  8
M0
 62
     6
100
AcDbCircle
 10
84.437733
 20
310.810088
 40
0.5
100
AcDbArc
 50
197.134611
 51
270.0
  0
ARC
  5
3A7
100
AcDbEntity
  8
M0
 62
     6
100
AcDbCircle
 10
89.399601
 20
310.810088
 40
0.5
100
AcDbArc
 50
270.0
 51
342.868957
  0
CIRCLE
  5
3A8
100
AcDbEntity
  8
M0
 62
     6
100
AcDbCircle
 10
106.918629
 20
362.609694
 40
3.0
  0
LINE
  5
3A9
100
AcDbEntity
  8
M0
 62
     6
100
AcDbLine
 10
103.959873
 20
366.557036
 11
103.143619
 21
363.909743
  0
LINE
  5
3AA
100
AcDbEntity
  8
M0
 62
     6
100
AcDbLine
 10
103.821995
 20
359.109603
 11
103.143619
 21
361.309767
  0
LINE
  5
3AB
100
AcDbEntity
  8
M0
 62
     6
100
AcDbLine
 10
109.877354
 20
366.557051
 11
110.693622
 21
363.909743
  0
LINE
  5
3AC
100
AcDbEntity
  8
M0
 62
     6
100
AcDbLine
 10
110.015232
 20
359.109603
 11
110.693622
 21
361.309767
  0
LINE
  5
3AD
100
AcDbEntity
  8
M0
 62
     6
100
AcDbLine
 10
110.693622
 20
361.309767
 11
110.693622
 21
363.909743
  0
LINE
  5
3AE
100
AcDbEntity
  8
M0
 62
     6
100
AcDbLine
 10
109.39954
 20
366.909743
 11
104.437672
 21
366.909728
  0
LINE
  5
3AF
100
AcDbEntity
  8
M0
 62
     6
100
AcDbLine
 10
103.143619
 20
363.909743
 11
103.143619
 21
361.309767
  0
LINE
  5
3B0
100
AcDbEntity
  8
M0
  6
DASHDOT
 62
     6
100
AcDbLine
 10
100.643619
 20
362.609694
 11
113.193622
 21
362.609694
  0
LINE
  5
3B1
100
AcDbEntity
  8
M0
  6
DASHDOT
 62
     6
100
AcDbLine
 10
106.918629
 20
355.809783
 11
106.918629
 21
369.409743
  0
LINE
  5
3B2
100
AcDbEntity
  8
M0
 62
     6
100
AcDbLine
 10
108.509403
 20
361.018874
 11
105.327595
 21
364.200636
  0
LINE
  5
3B3
100
AcDbEntity
  8
M0
 62
     6
100
AcDbLine
 10
107.272037
 20
364.023879
 11
105.504368
 21
362.256178
  0
LINE
  5
3B4
100
AcDbEntity
  8
M0
 62
     6
100
AcDbLine
 10
108.332645
 20
362.96321
 11
106.565021
 21
361.195632
  0
ARC
  5
3B5
100
AcDbEntity
  8
M0
 62
     6
100
AcDbCircle
 10
104.437672
 20
366.409728
 40
0.5
100
AcDbArc
 50
90.0
 51
162.867254
  0
ARC
  5
3B6
100
AcDbEntity
  8
M0
 62
     6
100
AcDbCircle
 10
109.39954
 20
366.409728
 40
0.5
100
AcDbArc
 50
17.134755
 51
90.0
  0
CIRCLE
  5
3B7
100
AcDbEntity
  8
M0
 62
     6
100
AcDbCircle
 10
116.918629
 20
354.609938
 40
3.0
  0
LINE
  5
3B8
100
AcDbEntity
  8
M0
 62
     6
100
AcDbLine
 10
113.959873
 20
358.55728
 11
113.143619
 21
355.909987
  0
LINE
  5
3B9
100
AcDbEntity
  8
M0
 62
     6
100
AcDbLine
 10
113.959873
 20
350.662688
 11
113.143619
 21
353.310011
  0
LINE
  5
3BA
100
AcDbEntity
  8
M0
 62
     6
100
AcDbLine
 10
119.877354
 20
358.557295
 11
120.693622
 21
355.909987
  0
LINE
  5
3BB
100
AcDbEntity
  8
M0
 62
     6
100
AcDbLine
 10
119.877354
 20
350.662673
 11
120.693622
 21
353.310011
  0
LINE
  5
3BC
100
AcDbEntity
  8
M0
 62
     6
100
AcDbLine
 10
114.437672
 20
350.310011
 11
119.39954
 21
350.310011
  0
LINE
  5
3BD
100
AcDbEntity
  8
M0
 62
     6
100
AcDbLine
 10
120.693622
 20
353.310011
 11
120.693622
 21
355.909987
  0
LINE
  5
3BE
100
AcDbEntity
  8
M0
 62
     6
100
AcDbLine
 10
119.39954
 20
358.909987
 11
114.437672
 21
358.909972
  0
LINE
  5
3BF
100
AcDbEntity
  8
M0
 62
     6
100
AcDbLine
 10
113.143619
 20
355.909987
 11
113.143619
 21
353.310011
  0
LINE
  5
3C0
100
AcDbEntity
  8
M0
  6
DASHDOT
 62
     6
100
AcDbLine
 10
110.643619
 20
354.609938
 11
123.193622
 21
354.609938
  0
LINE
  5
3C1
100
AcDbEntity
  8
M0
  6
DASHDOT
 62
     6
100
AcDbLine
 10
116.918629
 20
347.810027
 11
116.918629
 21
361.409987
  0
LINE
  5
3C2
100
AcDbEntity
  8
M0
 62
     6
100
AcDbLine
 10
118.509403
 20
353.019118
 11
115.327595
 21
356.200881
  0
LINE
  5
3C3
100
AcDbEntity
  8
M0
 62
     6
100
AcDbLine
 10
117.272037
 20
356.024123
 11
115.504368
 21
354.256423
  0
LINE
  5
3C4
100
AcDbEntity
  8
M0
 62
     6
100
AcDbLine
 10
118.332645
 20
354.963454
 11
116.565021
 21
353.195876
  0
ARC
  5
3C5
100
AcDbEntity
  8
M0
 62
     6
100
AcDbCircle
 10
114.437672
 20
358.409972
 40
0.5
100
AcDbArc
 50
90.0
 51
162.86739
  0
ARC
  5
3C6
100
AcDbEntity
  8
M0
 62
     6
100
AcDbCircle
 10
114.437672
 20
350.810011
 40
0.5
100
AcDbArc
 50
197.137519
 51
270.0
  0
ARC
  5
3C7
100
AcDbEntity
  8
M0
 62
     6
100
AcDbCircle
 10
119.39954
 20
350.810011
 40
0.5
100
AcDbArc
 50
270.0
 51
342.859476
  0
ARC
  5
3C8
100
AcDbEntity
  8
M0
 62
     6
100
AcDbCircle
 10
119.39954
 20
358.409972
 40
0.5
100
AcDbArc
 50
17.134787
 51
90.0
  0
LINE
  5
3C9
100
AcDbEntity
  8
M0
  6
DASHDOT
 62
     6
100
AcDbLine
 10
96.918629
 20
347.810027
 11
96.918629
 21
361.409987
  0
CIRCLE
  5
3CA
100
AcDbEntity
  8
M0
 62
     6
100
AcDbCircle
 10
116.918644
 20
314.609938
 40
3.0
  0
LINE
  5
3CB
100
AcDbEntity
  8
M0
 62
     6
100
AcDbLine
 10
113.959888
 20
318.55728
 11
113.143635
 21
315.909987
  0
LINE
  5
3CC
100
AcDbEntity
  8
M0
 62
     6
100
AcDbLine
 10
113.959888
 20
310.662688
 11
113.143635
 21
313.310011
  0
LINE
  5
3CD
100
AcDbEntity
  8
M0
 62
     6
100
AcDbLine
 10
119.877369
 20
318.557295
 11
120.693638
 21
315.909987
  0
LINE
  5
3CE
100
AcDbEntity
  8
M0
 62
     6
100
AcDbLine
 10
119.877369
 20
310.662673
 11
120.693638
 21
313.310011
  0
LINE
  5
3CF
100
AcDbEntity
  8
M0
 62
     6
100
AcDbLine
 10
114.437687
 20
310.310011
 11
119.399555
 21
310.310011
  0
LINE
  5
3D0
100
AcDbEntity
  8
M0
 62
     6
100
AcDbLine
 10
120.693638
 20
313.310011
 11
120.693638
 21
315.909987
  0
LINE
  5
3D1
100
AcDbEntity
  8
M0
 62
     6
100
AcDbLine
 10
119.399555
 20
318.909987
 11
114.437687
 21
318.909972
  0
LINE
  5
3D2
100
AcDbEntity
  8
M0
 62
     6
100
AcDbLine
 10
113.143635
 20
315.909987
 11
113.143635
 21
313.310011
  0
LINE
  5
3D3
100
AcDbEntity
  8
M0
  6
DASHDOT
 62
     6
100
AcDbLine
 10
110.643635
 20
314.609938
 11
123.193638
 21
314.609938
  0
LINE
  5
3D4
100
AcDbEntity
  8
M0
  6
DASHDOT
 62
     6
100
AcDbLine
 10
116.918644
 20
307.810027
 11
116.918644
 21
321.409987
  0
LINE
  5
3D5
100
AcDbEntity
  8
M0
 62
     6
100
AcDbLine
 10
118.509418
 20
313.019118
 11
115.32761
 21
316.200881
  0
LINE
  5
3D6
100
AcDbEntity
  8
M0
 62
     6
100
AcDbLine
 10
117.272053
 20
316.024123
 11
115.504383
 21
314.256423
  0
LINE
  5
3D7
100
AcDbEntity
  8
M0
 62
     6
100
AcDbLine
 10
118.332661
 20
314.963454
 11
116.565037
 21
313.195876
  0
ARC
  5
3D8
100
AcDbEntity
  8
M0
 62
     6
100
AcDbCircle
 10
114.437687
 20
318.409972
 40
0.5
100
AcDbArc
 50
90.0
 51
162.86739
  0
ARC
  5
3D9
100
AcDbEntity
  8
M0
 62
     6
100
AcDbCircle
 10
114.437687
 20
310.810011
 40
0.5
100
AcDbArc
 50
197.137519
 51
270.0
  0
ARC
  5
3DA
100
AcDbEntity
  8
M0
 62
     6
100
AcDbCircle
 10
119.399555
 20
310.810011
 40
0.5
100
AcDbArc
 50
270.0
 51
342.859476
  0
ARC
  5
3DB
100
AcDbEntity
  8
M0
 62
     6
100
AcDbCircle
 10
119.399555
 20
318.409972
 40
0.5
100
AcDbArc
 50
17.134787
 51
90.0
  0
LINE
  5
3DC
100
AcDbEntity
  8
M0
  6
DASHDOT
 62
     6
100
AcDbLine
 10
96.918613
 20
307.810027
 11
96.918613
 21
321.409987
  0
CIRCLE
  5
3DD
100
AcDbEntity
  8
M0
 62
     6
100
AcDbCircle
 10
106.918629
 20
314.609938
 40
3.0
  0
LINE
  5
3DE
100
AcDbEntity
  8
M0
 62
     6
100
AcDbLine
 10
103.959873
 20
318.55728
 11
103.143619
 21
315.909987
  0
LINE
  5
3DF
100
AcDbEntity
  8
M0
 62
     6
100
AcDbLine
 10
103.959873
 20
310.662688
 11
103.143619
 21
313.310011
  0
LINE
  5
3E0
100
AcDbEntity
  8
M0
 62
     6
100
AcDbLine
 10
109.877354
 20
318.557295
 11
110.693622
 21
315.909987
  0
LINE
  5
3E1
100
AcDbEntity
  8
M0
 62
     6
100
AcDbLine
 10
109.877354
 20
310.662673
 11
110.693622
 21
313.310011
  0
LINE
  5
3E2
100
AcDbEntity
  8
M0
 62
     6
100
AcDbLine
 10
104.437672
 20
310.310011
 11
109.39954
 21
310.310011
  0
LINE
  5
3E3
100
AcDbEntity
  8
M0
 62
     6
100
AcDbLine
 10
110.693622
 20
313.310011
 11
110.693622
 21
315.909987
  0
LINE
  5
3E4
100
AcDbEntity
  8
M0
 62
     6
100
AcDbLine
 10
109.39954
 20
318.909987
 11
104.437672
 21
318.909972
  0
LINE
  5
3E5
100
AcDbEntity
  8
M0
 62
     6
100
AcDbLine
 10
103.143619
 20
315.909987
 11
103.143619
 21
313.310011
  0
LINE
  5
3E6
100
AcDbEntity
  8
M0
  6
DASHDOT
 62
     6
100
AcDbLine
 10
100.643619
 20
314.609938
 11
113.193622
 21
314.609938
  0
LINE
  5
3E7
100
AcDbEntity
  8
M0
  6
DASHDOT
 62
     6
100
AcDbLine
 10
106.918629
 20
307.810027
 11
106.918629
 21
321.409987
  0
LINE
  5
3E8
100
AcDbEntity
  8
M0
 62
     6
100
AcDbLine
 10
108.509403
 20
313.019118
 11
105.327595
 21
316.200881
  0
LINE
  5
3E9
100
AcDbEntity
  8
M0
 62
     6
100
AcDbLine
 10
107.272037
 20
316.024123
 11
105.504368
 21
314.256423
  0
LINE
  5
3EA
100
AcDbEntity
  8
M0
 62
     6
100
AcDbLine
 10
108.332645
 20
314.963454
 11
106.565021
 21
313.195876
  0
ARC
  5
3EB
100
AcDbEntity
  8
M0
 62
     6
100
AcDbCircle
 10
104.437672
 20
318.409972
 40
0.5
100
AcDbArc
 50
90.0
 51
162.86739
  0
ARC
  5
3EC
100
AcDbEntity
  8
M0
 62
     6
100
AcDbCircle
 10
104.437672
 20
310.810011
 40
0.5
100
AcDbArc
 50
197.137519
 51
270.0
  0
ARC
  5
3ED
100
AcDbEntity
  8
M0
 62
     6
100
AcDbCircle
 10
109.39954
 20
310.810011
 40
0.5
100
AcDbArc
 50
270.0
 51
342.859476
  0
ARC
  5
3EE
100
AcDbEntity
  8
M0
 62
     6
100
AcDbCircle
 10
109.39954
 20
318.409972
 40
0.5
100
AcDbArc
 50
17.134787
 51
90.0
  0
CIRCLE
  5
3EF
100
AcDbEntity
  8
M0
 62
     6
100
AcDbCircle
 10
96.918629
 20
314.609938
 40
3.0
  0
LINE
  5
3F0
100
AcDbEntity
  8
M0
 62
     6
100
AcDbLine
 10
93.959873
 20
318.55728
 11
93.143619
 21
315.909987
  0
LINE
  5
3F1
100
AcDbEntity
  8
M0
 62
     6
100
AcDbLine
 10
93.959873
 20
310.662688
 11
93.143619
 21
313.310011
  0
LINE
  5
3F2
100
AcDbEntity
  8
M0
 62
     6
100
AcDbLine
 10
99.877354
 20
318.557295
 11
100.693622
 21
315.909987
  0
LINE
  5
3F3
100
AcDbEntity
  8
M0
 62
     6
100
AcDbLine
 10
99.877354
 20
310.662673
 11
100.693622
 21
313.310011
  0
LINE
  5
3F4
100
AcDbEntity
  8
M0
 62
     6
100
AcDbLine
 10
94.437672
 20
310.310011
 11
99.39954
 21
310.310011
  0
LINE
  5
3F5
100
AcDbEntity
  8
M0
 62
     6
100
AcDbLine
 10
100.693622
 20
313.310011
 11
100.693622
 21
315.909987
  0
LINE
  5
3F6
100
AcDbEntity
  8
M0
 62
     6
100
AcDbLine
 10
99.39954
 20
318.909987
 11
94.437672
 21
318.909972
  0
LINE
  5
3F7
100
AcDbEntity
  8
M0
 62
     6
100
AcDbLine
 10
93.143619
 20
315.909987
 11
93.143619
 21
313.310011
  0
LINE
  5
3F8
100
AcDbEntity
  8
M0
  6
DASHDOT
 62
     6
100
AcDbLine
 10
80.643619
 20
314.609938
 11
93.193622
 21
314.609938
  0
LINE
  5
3F9
100
AcDbEntity
  8
M0
 62
     6
100
AcDbLine
 10
98.509403
 20
313.019118
 11
95.327595
 21
316.200881
  0
LINE
  5
3FA
100
AcDbEntity
  8
M0
 62
     6
100
AcDbLine
 10
97.272037
 20
316.024123
 11
95.504368
 21
314.256423
  0
LINE
  5
3FB
100
AcDbEntity
  8
M0
 62
     6
100
AcDbLine
 10
98.332645
 20
314.963454
 11
96.565021
 21
313.195876
  0
ARC
  5
3FC
100
AcDbEntity
  8
M0
 62
     6
100
AcDbCircle
 10
94.437672
 20
318.409972
 40
0.5
100
AcDbArc
 50
90.0
 51
162.86739
  0
ARC
  5
3FD
100
AcDbEntity
  8
M0
 62
     6
100
AcDbCircle
 10
94.437672
 20
310.810011
 40
0.5
100
AcDbArc
 50
197.137519
 51
270.0
  0
ARC
  5
3FE
100
AcDbEntity
  8
M0
 62
     6
100
AcDbCircle
 10
99.39954
 20
310.810011
 40
0.5
100
AcDbArc
 50
270.0
 51
342.859476
  0
ARC
  5
3FF
100
AcDbEntity
  8
M0
 62
     6
100
AcDbCircle
 10
99.39954
 20
318.409972
 40
0.5
100
AcDbArc
 50
17.134787
 51
90.0
  0
LINE
  5
400
100
AcDbEntity
  8
M0
 62
     6
100
AcDbLine
 10
80.015308
 20
310.109847
 11
80.693622
 21
307.909987
  0
LINE
  5
401
100
AcDbEntity
  8
M0
 62
     6
100
AcDbLine
 10
79.877354
 20
302.662673
 11
80.693622
 21
305.310011
  0
LINE
  5
402
100
AcDbEntity
  8
M0
 62
     6
100
AcDbLine
 10
74.437672
 20
302.310011
 11
79.39954
 21
302.310011
  0
LINE
  5
403
100
AcDbEntity
  8
M0
 62
     6
100
AcDbLine
 10
80.693622
 20
305.310011
 11
80.693622
 21
307.909987
  0
LINE
  5
404
100
AcDbEntity
  8
M0
 62
     6
100
AcDbLine
 10
78.509403
 20
305.019118
 11
75.327595
 21
308.200881
  0
LINE
  5
405
100
AcDbEntity
  8
M0
 62
     6
100
AcDbLine
 10
77.272037
 20
308.024123
 11
75.504368
 21
306.256423
  0
LINE
  5
406
100
AcDbEntity
  8
M0
 62
     6
100
AcDbLine
 10
78.332645
 20
306.963454
 11
76.565021
 21
305.195876
  0
ARC
  5
407
100
AcDbEntity
  8
M0
 62
     6
100
AcDbCircle
 10
79.39954
 20
302.810011
 40
0.5
100
AcDbArc
 50
270.0
 51
342.859476
  0
LINE
  5
408
100
AcDbEntity
  8
M0
  6
DASHDOT
 62
     6
100
AcDbLine
 10
81.918629
 20
306.609938
 11
71.918629
 21
306.609938
  0
LINE
  5
409
100
AcDbEntity
  8
M0
  6
DASHDOT
 62
     6
100
AcDbLine
 10
76.918613
 20
311.609938
 11
76.918629
 21
301.609938
  0
ARC
  5
40A
100
AcDbEntity
  8
M0
 62
     6
100
AcDbCircle
 10
76.918629
 20
306.609938
 40
3.0
100
AcDbArc
 50
228.186341
 51
497.170536
  0
CIRCLE
  5
40B
100
AcDbEntity
  8
M0
 62
     6
100
AcDbCircle
 10
76.918629
 20
314.609938
 40
3.0
  0
LINE
  5
40C
100
AcDbEntity
  8
M0
 62
     6
100
AcDbLine
 10
73.959873
 20
318.55728
 11
73.143619
 21
315.909987
  0
LINE
  5
40D
100
AcDbEntity
  8
M0
 62
     6
100
AcDbLine
 10
73.959873
 20
310.662688
 11
73.143619
 21
313.310011
  0
LINE
  5
40E
100
AcDbEntity
  8
M0
 62
     6
100
AcDbLine
 10
79.877354
 20
318.557295
 11
80.693622
 21
315.909987
  0
LINE
  5
40F
100
AcDbEntity
  8
M0
 62
     6
100
AcDbLine
 10
79.877354
 20
310.662673
 11
80.693622
 21
313.310011
  0
LINE
  5
410
100
AcDbEntity
  8
M0
 62
     6
100
AcDbLine
 10
74.437672
 20
310.310011
 11
79.39954
 21
310.310011
  0
LINE
  5
411
100
AcDbEntity
  8
M0
 62
     6
100
AcDbLine
 10
80.693622
 20
313.310011
 11
80.693622
 21
315.909987
  0
LINE
  5
412
100
AcDbEntity
  8
M0
 62
     6
100
AcDbLine
 10
79.39954
 20
318.909987
 11
74.437672
 21
318.909972
  0
LINE
  5
413
100
AcDbEntity
  8
M0
 62
     6
100
AcDbLine
 10
73.143619
 20
315.909987
 11
73.143619
 21
313.310011
  0
LINE
  5
414
100
AcDbEntity
  8
M0
  6
DASHDOT
 62
     6
100
AcDbLine
 10
70.643619
 20
314.609938
 11
83.193622
 21
314.609938
  0
LINE
  5
415
100
AcDbEntity
  8
M0
  6
DASHDOT
 62
     6
100
AcDbLine
 10
76.918629
 20
307.810027
 11
76.918629
 21
321.409987
  0
LINE
  5
416
100
AcDbEntity
  8
M0
 62
     6
100
AcDbLine
 10
78.509403
 20
313.019118
 11
75.327595
 21
316.200881
  0
LINE
  5
417
100
AcDbEntity
  8
M0
 62
     6
100
AcDbLine
 10
77.272037
 20
316.024123
 11
75.504368
 21
314.256423
  0
LINE
  5
418
100
AcDbEntity
  8
M0
 62
     6
100
AcDbLine
 10
78.332645
 20
314.963454
 11
76.565021
 21
313.195876
  0
ARC
  5
419
100
AcDbEntity
  8
M0
 62
     6
100
AcDbCircle
 10
74.437672
 20
318.409972
 40
0.5
100
AcDbArc
 50
90.0
 51
162.867254
  0
ARC
  5
41A
100
AcDbEntity
  8
M0
 62
     6
100
AcDbCircle
 10
74.437672
 20
310.810011
 40
0.5
100
AcDbArc
 50
197.137551
 51
270.0
  0
ARC
  5
41B
100
AcDbEntity
  8
M0
 62
     6
100
AcDbCircle
 10
79.39954
 20
310.810011
 40
0.5
100
AcDbArc
 50
270.0
 51
342.859508
  0
ARC
  5
41C
100
AcDbEntity
  8
M0
 62
     6
100
AcDbCircle
 10
79.39954
 20
318.409972
 40
0.5
100
AcDbArc
 50
17.134755
 51
90.0
  0
CIRCLE
  5
41D
100
AcDbEntity
  8
M0
 62
     6
100
AcDbCircle
 10
66.918629
 20
314.609938
 40
3.0
  0
LINE
  5
41E
100
AcDbEntity
  8
M0
 62
     6
100
AcDbLine
 10
63.959873
 20
318.55728
 11
63.143619
 21
315.909987
  0
LINE
  5
41F
100
AcDbEntity
  8
M0
 62
     6
100
AcDbLine
 10
63.959873
 20
310.662688
 11
63.143619
 21
313.310011
  0
LINE
  5
420
100
AcDbEntity
  8
M0
 62
     6
100
AcDbLine
 10
69.877354
 20
318.557295
 11
70.693622
 21
315.909987
  0
LINE
  5
421
100
AcDbEntity
  8
M0
 62
     6
100
AcDbLine
 10
69.877354
 20
310.662673
 11
70.693622
 21
313.310011
  0
LINE
  5
422
100
AcDbEntity
  8
M0
 62
     6
100
AcDbLine
 10
64.437672
 20
310.310011
 11
69.39954
 21
310.310011
  0
LINE
  5
423
100
AcDbEntity
  8
M0
 62
     6
100
AcDbLine
 10
70.693622
 20
313.310011
 11
70.693622
 21
315.909987
  0
LINE
  5
424
100
AcDbEntity
  8
M0
 62
     6
100
AcDbLine
 10
69.39954
 20
318.909987
 11
64.437672
 21
318.909972
  0
LINE
  5
425
100
AcDbEntity
  8
M0
 62
     6
100
AcDbLine
 10
63.143619
 20
315.909987
 11
63.143619
 21
313.310011
  0
LINE
  5
426
100
AcDbEntity
  8
M0
  6
DASHDOT
 62
     6
100
AcDbLine
 10
60.643619
 20
314.609938
 11
73.193622
 21
314.609938
  0
LINE
  5
427
100
AcDbEntity
  8
M0
  6
DASHDOT
 62
     6
100
AcDbLine
 10
66.918629
 20
307.810027
 11
66.918629
 21
321.409987
  0
LINE
  5
428
100
AcDbEntity
  8
M0
 62
     6
100
AcDbLine
 10
68.509403
 20
313.019118
 11
65.327595
 21
316.200881
  0
LINE
  5
429
100
AcDbEntity
  8
M0
 62
     6
100
AcDbLine
 10
67.272037
 20
316.024123
 11
65.504368
 21
314.256423
  0
LINE
  5
42A
100
AcDbEntity
  8
M0
 62
     6
100
AcDbLine
 10
68.332645
 20
314.963454
 11
66.565021
 21
313.195876
  0
ARC
  5
42B
100
AcDbEntity
  8
M0
 62
     6
100
AcDbCircle
 10
64.437672
 20
318.409972
 40
0.5
100
AcDbArc
 50
90.0
 51
162.867254
  0
ARC
  5
42C
100
AcDbEntity
  8
M0
 62
     6
100
AcDbCircle
 10
64.437672
 20
310.810011
 40
0.5
100
AcDbArc
 50
197.137551
 51
270.0
  0
ARC
  5
42D
100
AcDbEntity
  8
M0
 62
     6
100
AcDbCircle
 10
69.39954
 20
310.810011
 40
0.5
100
AcDbArc
 50
270.0
 51
342.859508
  0
ARC
  5
42E
100
AcDbEntity
  8
M0
 62
     6
100
AcDbCircle
 10
69.39954
 20
318.409972
 40
0.5
100
AcDbArc
 50
17.134755
 51
90.0
  0
LINE
  5
42F
100
AcDbEntity
  8
M0
  6
DASHDOT
 62
     6
100
AcDbLine
 10
86.918598
 20
307.810011
 11
86.918629
 21
321.409972
  0
LINE
  5
430
100
AcDbEntity
  8
M0
 62
     1
100
AcDbLine
 10
87.318622
 20
303.110015
 11
92.918498
 21
303.110015
  0
ARC
  5
431
100
AcDbEntity
  8
M0
 62
     1
100
AcDbCircle
 10
96.318622
 20
304.110015
 40
1.0
100
AcDbArc
 50
270.0
 51
293.568561
  0
LINE
  5
432
100
AcDbEntity
  8
M0
 62
     1
100
AcDbLine
 10
88.868625
 20
305.410002
 11
90.910557
 21
305.410002
  0
LINE
  5
433
100
AcDbEntity
  8
M0
 62
     1
100
AcDbLine
 10
95.168629
 20
305.609984
 11
95.168629
 21
308.109938
  0
ARC
  5
434
100
AcDbEntity
  8
M0
 62
     1
100
AcDbCircle
 10
88.868625
 20
305.609999
 40
0.2
100
AcDbArc
 50
179.999727
 51
270.0
  0
ARC
  5
435
100
AcDbEntity
  8
M0
 62
     1
100
AcDbCircle
 10
94.968616
 20
305.609999
 40
0.2
100
AcDbArc
 50
270.0
 51
360.0
  0
LINE
  5
436
100
AcDbEntity
  8
M0
 62
     1
100
AcDbLine
 10
88.668613
 20
308.109938
 11
88.668629
 21
305.609999
  0
LINE
  5
437
100
AcDbEntity
  8
M0
 62
     1
100
AcDbLine
 10
94.918498
 20
305.410002
 11
94.968616
 21
305.410002
  0
ARC
  5
438
100
AcDbEntity
  8
M0
 62
     1
100
AcDbCircle
 10
87.518665
 20
304.110015
 40
1.0
100
AcDbArc
 50
210.004201
 51
270.0
  0
LINE
  5
439
100
AcDbEntity
  8
M0
 62
     1
100
AcDbLine
 10
86.652683
 20
303.609953
 11
86.652683
 21
308.109938
  0
LINE
  5
43A
100
AcDbEntity
  8
M0
 62
     1
100
AcDbLine
 10
94.918498
 20
303.110015
 11
96.318622
 21
303.110015
  0
CIRCLE
  5
43B
100
AcDbEntity
  8
M0
 62
     6
100
AcDbCircle
 10
66.918644
 20
354.609938
 40
3.0
  0
LINE
  5
43C
100
AcDbEntity
  8
M0
 62
     6
100
AcDbLine
 10
63.959888
 20
358.55728
 11
63.143635
 21
355.909987
  0
LINE
  5
43D
100
AcDbEntity
  8
M0
 62
     6
100
AcDbLine
 10
63.959888
 20
350.662688
 11
63.143635
 21
353.310011
  0
LINE
  5
43E
100
AcDbEntity
  8
M0
 62
     6
100
AcDbLine
 10
69.877369
 20
358.557295
 11
70.693638
 21
355.909987
  0
LINE
  5
43F
100
AcDbEntity
  8
M0
 62
     6
100
AcDbLine
 10
69.877369
 20
350.662673
 11
70.693638
 21
353.310011
  0
LINE
  5
440
100
AcDbEntity
  8
M0
 62
     6
100
AcDbLine
 10
64.437687
 20
350.310011
 11
69.399555
 21
350.310011
  0
LINE
  5
441
100
AcDbEntity
  8
M0
 62
     6
100
AcDbLine
 10
70.693638
 20
353.310011
 11
70.693638
 21
355.909987
  0
LINE
  5
442
100
AcDbEntity
  8
M0
 62
     6
100
AcDbLine
 10
69.399555
 20
358.909987
 11
64.437687
 21
358.909972
  0
LINE
  5
443
100
AcDbEntity
  8
M0
 62
     6
100
AcDbLine
 10
63.143635
 20
355.909987
 11
63.143635
 21
353.310011
  0
LINE
  5
444
100
AcDbEntity
  8
M0
  6
DASHDOT
 62
     6
100
AcDbLine
 10
60.643635
 20
354.609938
 11
73.193638
 21
354.609938
  0
LINE
  5
445
100
AcDbEntity
  8
M0
  6
DASHDOT
 62
     6
100
AcDbLine
 10
66.918644
 20
347.810027
 11
66.918644
 21
361.409987
  0
LINE
  5
446
100
AcDbEntity
  8
M0
 62
     6
100
AcDbLine
 10
68.509418
 20
353.019118
 11
65.32761
 21
356.200881
  0
LINE
  5
447
100
AcDbEntity
  8
M0
 62
     6
100
AcDbLine
 10
67.272053
 20
356.024123
 11
65.504383
 21
354.256423
  0
LINE
  5
448
100
AcDbEntity
  8
M0
 62
     6
100
AcDbLine
 10
68.332661
 20
354.963454
 11
66.565037
 21
353.195876
  0
ARC
  5
449
100
AcDbEntity
  8
M0
 62
     6
100
AcDbCircle
 10
64.437687
 20
358.409972
 40
0.5
100
AcDbArc
 50
90.0
 51
162.867254
  0
ARC
  5
44A
100
AcDbEntity
  8
M0
 62
     6
100
AcDbCircle
 10
64.437687
 20
350.810011
 40
0.5
100
AcDbArc
 50
197.137551
 51
270.0
  0
ARC
  5
44B
100
AcDbEntity
  8
M0
 62
     6
100
AcDbCircle
 10
69.399555
 20
350.810011
 40
0.5
100
AcDbArc
 50
270.0
 51
342.859508
  0
ARC
  5
44C
100
AcDbEntity
  8
M0
 62
     6
100
AcDbCircle
 10
69.399555
 20
358.409972
 40
0.5
100
AcDbArc
 50
17.134755
 51
90.0
  0
LINE
  5
44D
100
AcDbEntity
  8
M0
  6
DASHDOT
 62
     6
100
AcDbLine
 10
86.918583
 20
347.810011
 11
86.918613
 21
361.409972
  0
LINE
  5
44E
100
AcDbEntity
  8
M0
 62
     4
100
AcDbLine
 10
91.36887
 20
365.609847
 11
92.468448
 21
365.609847
  0
LINE
  5
44F
100
AcDbEntity
  8
M0
 62
     4
100
AcDbLine
 10
91.368839
 20
305.109938
 11
92.468418
 21
305.109938
  0
LINE
  5
450
100
AcDbEntity
  8
M0
 62
     4
100
AcDbLine
 10
82.968738
 20
361.109938
 11
90.868885
 21
361.109938
  0
LINE
  5
451
100
AcDbEntity
  8
M0
 62
     4
100
AcDbLine
 10
92.968464
 20
361.109938
 11
100.86861
 21
361.109938
  0
LINE
  5
452
100
AcDbEntity
  8
M0
 62
     4
100
AcDbLine
 10
204.391651
 20
302.109938
 11
217.891849
 21
302.109938
  0
LINE
  5
453
100
AcDbEntity
  8
M0
 62
     4
100
AcDbLine
 10
217.891849
 20
302.109938
 11
217.891849
 21
312.109938
  0
LINE
  5
454
100
AcDbEntity
  8
M0
 62
     4
100
AcDbLine
 10
217.891849
 20
367.109938
 11
204.391636
 21
367.109923
  0
LINE
  5
455
100
AcDbEntity
  8
M0
 62
     4
100
AcDbLine
 10
170.89191
 20
359.109923
 11
170.89191
 21
310.109969
  0
LINE
  5
456
100
AcDbEntity
  8
M0
  6
DASHDOT
 62
     4
100
AcDbLine
 10
162.691898
 20
334.609938
 11
217.891834
 21
334.609938
  0
LINE
  5
457
100
AcDbEntity
  8
M0
 62
     4
100
AcDbLine
 10
175.891941
 20
306.109969
 11
195.391849
 21
306.109969
  0
LINE
  5
458
100
AcDbEntity
  8
M0
 62
     4
100
AcDbLine
 10
175.891926
 20
305.109969
 11
199.809055
 21
305.109969
  0
LINE
  5
459
100
AcDbEntity
  8
M0
 62
     4
100
AcDbLine
 10
175.891926
 20
363.109938
 11
195.391849
 21
363.109938
  0
LINE
  5
45A
100
AcDbEntity
  8
M0
 62
     4
100
AcDbLine
 10
175.891926
 20
364.109923
 11
199.80907
 21
364.109923
  0
ARC
  5
45B
100
AcDbEntity
  8
M0
 62
     4
100
AcDbCircle
 10
175.891941
 20
311.109969
 40
5.0
100
AcDbArc
 50
179.999825
 51
270.0
  0
ARC
  5
45C
100
AcDbEntity
  8
M0
 62
     4
100
AcDbCircle
 10
175.891926
 20
310.109969
 40
5.0
100
AcDbArc
 50
179.999825
 51
270.0
  0
ARC
  5
45D
100
AcDbEntity
  8
M0
 62
     4
100
AcDbCircle
 10
175.891926
 20
358.109938
 40
5.0
100
AcDbArc
 50
89.999825
 51
180.0
  0
ARC
  5
45E
100
AcDbEntity
  8
M0
 62
     4
100
AcDbCircle
 10
175.891926
 20
359.109923
 40
5.0
100
AcDbArc
 50
89.999825
 51
180.0
  0
ARC
  5
45F
100
AcDbEntity
  8
M0
 62
     4
100
AcDbCircle
 10
204.391654
 20
307.109938
 40
5.0
100
AcDbArc
 50
179.999825
 51
270.0
  0
ARC
  5
460
100
AcDbEntity
  8
M0
 62
     4
100
AcDbCircle
 10
204.391651
 20
362.109923
 40
5.0
100
AcDbArc
 50
90.0
 51
180.0
  0
LINE
  5
461
100
AcDbEntity
  8
M0
 62
     4
100
AcDbLine
 10
198.391849
 20
357.109938
 11
219.49184
 21
357.109938
  0
LINE
  5
462
100
AcDbEntity
  8
M0
 62
     4
100
AcDbLine
 10
198.391849
 20
312.109938
 11
219.49184
 21
312.109938
  0
LINE
  5
463
100
AcDbEntity
  8
M0
 62
     4
100
AcDbLine
 10
199.39191
 20
362.109908
 11
199.39191
 21
357.109938
  0
LINE
  5
464
100
AcDbEntity
  8
M0
 62
     4
100
AcDbLine
 10
197.391849
 20
308.109953
 11
197.391849
 21
311.109938
  0
ARC
  5
465
100
AcDbEntity
  8
M0
 62
     4
100
AcDbCircle
 10
195.391849
 20
308.109969
 40
2.0
100
AcDbArc
 50
270.0
 51
360.0
  0
ARC
  5
466
100
AcDbEntity
  8
M0
 62
     4
100
AcDbCircle
 10
195.391849
 20
361.109938
 40
2.0
100
AcDbArc
 50
0.0
 51
90.0
  0
LINE
  5
467
100
AcDbEntity
  8
M0
 62
     4
100
AcDbLine
 10
199.39191
 20
312.109938
 11
199.39191
 21
307.109938
  0
LINE
  5
468
100
AcDbEntity
  8
M0
 62
     4
100
AcDbLine
 10
197.391849
 20
358.109938
 11
197.391849
 21
361.109938
  0
ARC
  5
469
100
AcDbEntity
  8
M0
 62
     4
100
AcDbCircle
 10
198.391849
 20
358.109938
 40
1.0
100
AcDbArc
 50
180.0
 51
270.0
  0
ARC
  5
46A
100
AcDbEntity
  8
M0
 62
     4
100
AcDbCircle
 10
198.391849
 20
311.109938
 40
1.0
100
AcDbArc
 50
90.0
 51
179.999126
  0
ARC
  5
46B
100
AcDbEntity
  8
M0
 62
     4
100
AcDbCircle
 10
197.391651
 20
307.109969
 40
2.0
100
AcDbArc
 50
270.0
 51
360.0
  0
ARC
  5
46C
100
AcDbEntity
  8
M0
 62
     4
100
AcDbCircle
 10
197.391651
 20
362.109923
 40
2.0
100
AcDbArc
 50
0.0
 51
90.0
  0
LINE
  5
46D
100
AcDbEntity
  8
M0
 62
     4
100
AcDbLine
 10
219.49184
 20
308.609938
 11
219.49184
 21
360.609938
  0
LINE
  5
46E
100
AcDbEntity
  8
M0
 62
     4
100
AcDbLine
 10
217.891849
 20
357.109938
 11
217.891849
 21
367.109938
  0
LINE
  5
46F
100
AcDbEntity
  8
M0
100
AcDbLine
 10
233.391747
 20
294.009658
 11
236.391747
 21
294.009658
  0
LINE
  5
470
100
AcDbEntity
  8
M0
100
AcDbLine
 10
233.391747
 20
295.809706
 11
236.391747
 21
295.809706
  0
CIRCLE
  5
471
100
AcDbEntity
  8
M0
100
AcDbCircle
 10
75.418598
 20
196.270201
 40
2.999994
  0
CIRCLE
  5
472
100
AcDbEntity
  8
M0
100
AcDbCircle
 10
108.418598
 20
141.270445
 40
2.999994
  0
LINE
  5
473
100
AcDbEntity
  8
M0
  6
DIVIDE
100
AcDbLine
 10
69.418598
 20
82.270461
 11
114.418598
 21
82.270461
  0
LINE
  5
474
100
AcDbEntity
  8
M0
  6
DIVIDE
100
AcDbLine
 10
123.418598
 20
140.270445
 11
123.418598
 21
201.270445
  0
LINE
  5
475
100
AcDbEntity
  8
M0
  6
DIVIDE
100
AcDbLine
 10
123.418598
 20
201.270445
 11
60.418598
 21
201.270445
  0
LINE
  5
476
100
AcDbEntity
  8
M0
  6
DIVIDE
100
AcDbLine
 10
60.418598
 20
201.270445
 11
60.418598
 21
140.270445
  0
LINE
  5
477
100
AcDbEntity
  8
M0
  6
DASHDOT
100
AcDbLine
 10
91.918598
 20
75.127608
 11
91.918598
 21
208.413268
  0
LINE
  5
478
100
AcDbEntity
  8
M0
  6
DIVIDE
100
AcDbLine
 10
123.418598
 20
140.270461
 11
114.418598
 21
140.270445
  0
LINE
  5
479
100
AcDbEntity
  8
M0
  6
DIVIDE
100
AcDbLine
 10
114.418598
 20
140.270461
 11
114.418598
 21
82.270461
  0
LINE
  5
47A
100
AcDbEntity
  8
M0
  6
DIVIDE
100
AcDbLine
 10
69.418598
 20
140.270461
 11
69.418598
 21
82.270461
  0
LINE
  5
47B
100
AcDbEntity
  8
M0
  6
DIVIDE
100
AcDbLine
 10
69.418598
 20
140.270445
 11
60.418598
 21
140.270461
  0
CIRCLE
  5
47C
100
AcDbEntity
  8
M0
100
AcDbCircle
 10
75.418598
 20
196.270201
 40
2.0
  0
LINE
  5
47D
100
AcDbEntity
  8
M0
  6
DASHDOT
100
AcDbLine
 10
60.918598
 20
196.270201
 11
89.918598
 21
196.270201
  0
LINE
  5
47E
100
AcDbEntity
  8
M0
  6
DASHDOT
100
AcDbLine
 10
75.418598
 20
181.770217
 11
75.418598
 21
210.770201
  0
CIRCLE
  5
47F
100
AcDbEntity
  8
M0
100
AcDbCircle
 10
108.418598
 20
141.270445
 40
2.0
  0
LINE
  5
480
100
AcDbEntity
  8
M0
  6
DASHDOT
100
AcDbLine
 10
93.918598
 20
141.270445
 11
122.918598
 21
141.270445
  0
LINE
  5
481
100
AcDbEntity
  8
M0
  6
DASHDOT
100
AcDbLine
 10
108.418598
 20
126.770445
 11
108.418598
 21
155.770445
  0
LINE
  5
482
100
AcDbEntity
  8
M1
 62
     2
100
AcDbLine
 10
14.285715
 20
14.285715
 11
14.285715
 21
407.142864
  0
LINE
  5
483
100
AcDbEntity
  8
M1
 62
     2
100
AcDbLine
 10
14.285715
 20
407.142864
 11
285.714291
 21
407.142864
  0
LINE
  5
484
100
AcDbEntity
  8
M1
 62
     2
100
AcDbLine
 10
285.714291
 20
407.142864
 11
285.714291
 21
14.285715
  0
LINE
  5
485
100
AcDbEntity
  8
M1
 62
     2
100
AcDbLine
 10
285.714291
 20
14.285715
 11
14.285715
 21
14.285715
  0
LINE
  5
486
100
AcDbEntity
  8
M1
 62
     2
100
AcDbLine
 10
285.714291
 20
28.571429
 11
142.857145
 21
28.571429
  0
LINE
  5
487
100
AcDbEntity
  8
M1
 62
     2
100
AcDbLine
 10
285.714291
 20
42.857144
 11
142.857145
 21
42.857144
  0
LINE
  5
488
100
AcDbEntity
  8
M1
 62
     2
100
AcDbLine
 10
285.714291
 20
57.142858
 11
142.857145
 21
57.142858
  0
LINE
  5
489
100
AcDbEntity
  8
M1
 62
     2
100
AcDbLine
 10
142.857145
 20
14.285715
 11
142.857145
 21
57.142858
  0
TEXT
  5
48A
100
AcDbEntity
  8
M1
 62
     2
100
AcDbText
 10
146.428574
 20
17.857143
 40
7.142857
  1
適　用；
 41
1.0
  7
STANDARD
100
AcDbText
  0
TEXT
  5
48B
100
AcDbEntity
  8
M1
 62
     2
100
AcDbText
 10
146.428574
 20
46.428572
 40
7.142857
  1
登録名：
 41
1.0
  7
STANDARD
100
AcDbText
  0
TEXT
  5
48C
100
AcDbEntity
  8
M1
 62
     2
100
AcDbText
 10
180.714289
 20
46.428572
 40
7.142857
  1
ＤＭＨ１２ＴＲ００
 41
0.5
  7
STANDARD
100
AcDbText
  0
TEXT
  5
48D
100
AcDbEntity
  8
M1
 62
     2
100
AcDbText
 10
146.428574
 20
32.142858
 40
7.142857
  1
形　式；
 41
1.0
  7
STANDARD
100
AcDbText
  0
TEXT
  5
48E
100
AcDbEntity
  8
M1
 62
     2
100
AcDbText
 10
180.714289
 20
32.142858
 40
7.142857
  1
Ｈ１２－Ｔ，Ｈ１２－ＴＫ
 41
0.5
  7
STANDARD
100
AcDbText
  0
LINE
  5
48F
100
AcDbEntity
  8
DN0
100
AcDbLine
 10
77.588754
 20
60.023991
 11
103.674475
 21
60.023991
  0
TEXT
  5
490
100
AcDbEntity
  8
DN0
100
AcDbText
 10
78.310183
 20
60.666848
 40
6.428572
  1
せん孔図
 41
0.833333
  7
STANDARD
100
AcDbText
  0
ENDSEC
  0
SECTION
  2
OBJECTS
  0
DICTIONARY
  5
C
100
AcDbDictionary
  3
ACAD_GROUP
350
D
  3
ACAD_MLINESTYLE
350
E
  0
DICTIONARY
  5
D
102
{ACAD_REACTORS
330
C
102
}
100
AcDbDictionary
  0
DICTIONARY
  5
E
102
{ACAD_REACTORS
330
C
102
}
100
AcDbDictionary
  3
STANDARD
350
13
  0
MLINESTYLE
  5
13
102
{ACAD_REACTORS
330
E
102
}
100
AcDbMlineStyle
  2
STANDARD
 70
     0
  3

 62
     0
 51
90.0
 52
90.0
 71
     2
 49
0.5
 62
   256
  6
BYLAYER
 49
-0.5
 62
   256
  6
BYLAYER
  0
ENDSEC
  0
EOF
