  0
SECTION
  2
HEADER
  9
$ACADVER
  1
AC1014
  9
$INSBASE
 10
0.000000
 20
0.000000
 30
0.0
  9
$VIEWCTR
 10
7.531722
 20
4.5
  9
$VIEWSIZE
 40
9.0
  9
$SNAPMODE
 70
     0
  9
$SNAPUNIT
 10
1.0
 20
1.0
  9
$SNAPBASE
 10
0.0
 20
0.0
  9
$SNAPANG
 50
0.0
  9
$SNAPSTYLE
 70
     0
  9
$SNAPISOPAIR
 70
     0
  9
$GRIDMODE
 70
     0
  9
$GRIDUNIT
 10
0.0
 20
0.0
  9
$ORTHOMODE
 70
     0
  9
$REGENMODE
 70
     1
  9
$FILLMODE
 70
     1
  9
$QTEXTMODE
 70
     0
  9
$DRAGMODE
 70
     2
  9
$LTSCALE
  40
     1.000000
  9
$OSMODE
 70
     0
  9
$ATTMODE
 70
     1
  9
$TEXTSIZE
 40
0.2
  9
$TRACEWID
 40
0.05
  9
$TEXTSTYLE
  7
STANDARD
  9
$CELTYPE
  6
BYLAYER
  9
$CECOLOR
 62
   256
  9
$DIMSCALE
 40
1.0
  9
$DIMASZ
 40
0.18
  9
$DIMEXO
 40
0.0625
  9
$DIMDLI
 40
0.38
  9
$DIMRND
 40
0.0
  9
$DIMDLE
 40
0.0
  9
$DIMEXE
 40
0.18
  9
$DIMTP
 40
0.0
  9
$DIMTM
 40
0.0
  9
$DIMTXT
 40
0.18
  9
$DIMCEN
 40
0.09
  9
$DIMTSZ
 40
0.0
  9
$DIMTOL
 70
     0
  9
$DIMLIM
 70
     0
  9
$DIMTIH
 70
     1
  9
$DIMTOH
 70
     1
  9
$DIMSE1
 70
     0
  9
$DIMSE2
 70
     0
  9
$DIMTAD
 70
     0
  9
$DIMZIN
 70
     0
  9
$DIMBLK
  1

  9
$LUNITS
 70
     2
  9
$LUPREC
 70
     4
  9
$AXISMODE
 70
     0
  9
$AXISUNIT
 10
0.0
 20
0.0
  9
$SKETCHINC
 40
0.1
  9
$FILLETRAD
 40
0.0
  9
$AUNITS
 70
     0
  9
$AUPREC
 70
     0
  9
$MENU
  1
ACAD
  9
$ELEVATION
 40
0.0
  9
$THICKNESS
 40
0.0
  9
$VIEWDIR
 10
0.0
 20
0.0
 30
1.0
  9
$LIMCHECK
 70
     0
  9
$BLIPMODE
 70
     1
  9
$CHAMFERA
 40
0.0
  9
$CHAMFERB
 40
0.0
  9
$FASTZOOM
 70
     1
  9
$SKPOLY
 70
     0
  9
$TDCREATE
 40
0000000.0000000000
  9
$TDUPDATE
 40
0000000.0000000000
  9
$TDINDWG
 40
0.0000000000
  9
$TDUSRTIMER
 40
0.0000000000
  9
$USRTIMER
 70
     1
  9
$ANGBASE
 50
0.0
  9
$ANGDIR
 70
     0
  9
$PDMODE
 70
     0
  9
$PDSIZE
 40
0.0
  9
$PLINEWID
 40
0.0
  9
$COORDS
 70
     0
  9
$USERI1
 70
     0
  9
$USERI2
 70
     0
  9
$USERI3
 70
     0
  9
$USERI4
 70
     0
  9
$USERI5
 70
     0
  9
$USERR1
 40
0.0
  9
$USERR2
 40
0.0
  9
$USERR3
 40
0.0
  9
$USERR4
 40
0.0
  9
$USERR5
 40
0.0
  9
$CLAYER
  8
M0
  9
$EXTMIN
 10
33.333332
 20
33.333332
  9
$EXTMAX
 10
666.66664
 20
949.999962
  9
$LIMMIN
 10
0.0
 20
0.0
  9
$LIMMAX
 10
210.0
 20
297.0
  9
$HANDSEED
  5
881
  0
ENDSEC
  0
SECTION
  2
CLASSES
  0
ENDSEC
  0
SECTION
  2
TABLES
  0
TABLE
  2
VPORT
  5
8
100
AcDbSymbolTable
 70
     2
  0
VPORT
  5
14
100
AcDbSymbolTableRecord
100
AcDbViewportTableRecord
  2
*ACTIVE
 70
     0
 10
0.0
 20
0.0
 11
1.0
 21
1.0
 12
484.0
 22
297.0
 13
0.0
 23
0.0
 14
1.0
 24
1.0
 15
0.0
 25
0.0
 16
0.0
 26
0.0
 36
1.0
 17
0.0
 27
0.0
 37
0.0
 40
594.0
 41
2.0
 42
50.0
 43
0.0
 44
0.0
 50
0.0
 51
0.0
 71
     0
 72
   100
 73
     1
 74
     1
 75
     0
 76
     0
 77
     0
 78
     0
  0
ENDTAB
  0
TABLE
  2
LTYPE
  5
5
100
AcDbSymbolTable
 70
     5
  0
LTYPE
  5
15
100
AcDbSymbolTableRecord
100
AcDbLinetypeTableRecord
  2
BYBLOCK
 70
     0
  3

 72
    65
 73
     0
 40
0.0
  0
LTYPE
  5
16
100
AcDbSymbolTableRecord
100
AcDbLinetypeTableRecord
  2
BYLAYER
 70
     0
  3

 72
    65
 73
     0
 40
0.0
  0
LTYPE
  5
17
100
AcDbSymbolTableRecord
100
AcDbLinetypeTableRecord
  2
CONTINUOUS
 70
    64
  3
Solid line
 72
    65
 73
     0
 40
0.0
  0
LTYPE
  5
18
100
AcDbSymbolTableRecord
100
AcDbLinetypeTableRecord
  2
DASHED
 70
    64
  3
__ __ __ __ __ __ __ __ __ __ __ __ __ __ __ __
 72
    65
 73
     2
 40
0.75
 49
0.5
 74
     0
 49
-0.25
 74
     0
  0
LTYPE
  5
19
100
AcDbSymbolTableRecord
100
AcDbLinetypeTableRecord
  2
DASHDOT
 70
    64
  3
__ . __ . __ . __ . __ . __ . __ . __ . __ . __
 72
    65
 73
     4
 40
1.0
 49
0.5
 74
     0
 49
-0.25
 74
     0
 49
0.0
 74
     0
 49
-0.25
 74
     0
  0
LTYPE
  5
1A
100
AcDbSymbolTableRecord
100
AcDbLinetypeTableRecord
  2
DIVIDE
 70
    64
  3
____ . . ____ . . ____ . . ____ . . ____ . . __
 72
    65
 73
     6
 40
1.25
 49
0.5
 74
     0
 49
-0.25
 74
     0
 49
0.0
 74
     0
 49
-0.25
 74
     0
 49
0.0
 74
     0
 49
-0.25
 74
     0
  0
LTYPE
  5
1B
100
AcDbSymbolTableRecord
100
AcDbLinetypeTableRecord
  2
DOT
 70
    64
  3
. . . . . . . . . . . . . . . . . . . . . . . .
 72
    65
 73
     2
 40
0.25
 49
0.0
 74
     0
 49
-0.25
 74
     0
  0
ENDTAB
  0
TABLE
  2
LAYER
  5
2
100
AcDbSymbolTable
 70
   102
  0
LAYER
  5
F
100
AcDbSymbolTableRecord
100
AcDbLayerTableRecord
  2
0
 70
     0
 62
     7
  6
CONTINUOUS
  0
LAYER
  5
1C
100
AcDbSymbolTableRecord
100
AcDbLayerTableRecord
  2
DEFPOINTS
 70
     0
 62
     7
  6
CONTINUOUS
  0
LAYER
  5
1D
100
AcDbSymbolTableRecord
100
AcDbLayerTableRecord
  2
M0
 70
     0
 62
     3
  6
CONTINUOUS
  0
LAYER
  5
1E
100
AcDbSymbolTableRecord
100
AcDbLayerTableRecord
  2
M1
 70
     0
 62
     3
  6
CONTINUOUS
  0
LAYER
  5
1F
100
AcDbSymbolTableRecord
100
AcDbLayerTableRecord
  2
DD0
 70
     0
 62
     4
  6
CONTINUOUS
  0
LAYER
  5
20
100
AcDbSymbolTableRecord
100
AcDbLayerTableRecord
  2
DN0
 70
     0
 62
     2
  6
CONTINUOUS
  0
ENDTAB
  0
TABLE
  2
STYLE
  5
3
100
AcDbSymbolTable
 70
     2
  0
STYLE
  5
10
100
AcDbSymbolTableRecord
100
AcDbTextStyleTableRecord
  2
STANDARD
 70
     0
 40
0.0
 41
1.0
 50
0.0
 71
     0
 42
0.2
  3
txt
  4
BIGFONT
  0
ENDTAB
  0
TABLE
  2
VIEW
  5
6
100
AcDbSymbolTable
 70
     0
  0
ENDTAB
  0
TABLE
  2
UCS
  5
7
100
AcDbSymbolTable
 70
     0
  0
ENDTAB
  0
TABLE
  2
APPID
  5
9
100
AcDbSymbolTable
 70
     1
  0
APPID
  5
11
100
AcDbSymbolTableRecord
100
AcDbRegAppTableRecord
  2
ACAD
 70
     0
  0
ENDTAB
  0
TABLE
  2
DIMSTYLE
  5
A
100
AcDbSymbolTable
 70
     2
  0
DIMSTYLE
105
27
100
AcDbSymbolTableRecord
100
AcDbDimStyleTableRecord
  2
STANDARD
 70
     0
  3

  4

  5

  6
_OPEN
  7
_OPEN
 40
1.0
 41
10.0
 42
1.0
 43
8.0
 44
1.0
 45
0.0
 46
0.0
 47
0.0
 48
0.0
140
10.5
141
0.09
142
0.0
143
0.03937
144
1.0
145
0.0
146
1.0
147
0.6
 71
     0
 72
     0
 73
     1
 74
     1
 75
     0
 76
     0
 77
     3
 78
     8
170
     0
171
     2
172
     0
173
     1
174
     0
175
     0
176
     0
177
     0
178
     0
270
     2
271
     2
272
     4
273
     2
274
     2
340
10
275
     0
280
     0
281
     0
282
     0
283
     1
284
     0
285
     0
286
     0
287
     3
288
     0
  0
DIMSTYLE
105
28
100
AcDbSymbolTableRecord
100
AcDbDimStyleTableRecord
  2
LEADSTYL
 70
     0
  3

  4

  5

  6
_OPEN
  7
_OPEN
 40
1.0
 41
10.0
 42
0.0625
 43
0.38
 44
0.18
 45
0.0
 46
0.0
 47
0.0
 48
0.0
140
10.5
141
0.09
142
0.0
143
25.4
144
1.0
145
0.0
146
1.0
147
0.6
 71
     0
 72
     0
 73
     1
 74
     1
 75
     0
 76
     0
 77
     0
 78
     0
170
     0
171
     2
172
     0
173
     1
174
     0
175
     0
176
     0
177
     0
178
     0
270
     2
271
     4
272
     4
273
     2
274
     2
340
10
275
     0
280
     0
281
     0
282
     0
283
     1
284
     0
285
     0
286
     0
287
     3
288
     0
  0
ENDTAB
  0
TABLE
  2
BLOCK_RECORD
  5
1
100
AcDbSymbolTable
 70
    15
  0
BLOCK_RECORD
  5
21
100
AcDbSymbolTableRecord
100
AcDbBlockTableRecord
  2
*MODEL_SPACE
  0
BLOCK_RECORD
  5
24
100
AcDbSymbolTableRecord
100
AcDbBlockTableRecord
  2
*PAPER_SPACE
  0
BLOCK_RECORD
  5
29
100
AcDbSymbolTableRecord
100
AcDbBlockTableRecord
  2
_NONE
  0
BLOCK_RECORD
  5
2D
100
AcDbSymbolTableRecord
100
AcDbBlockTableRecord
  2
_OPEN
  0
BLOCK_RECORD
  5
33
100
AcDbSymbolTableRecord
100
AcDbBlockTableRecord
  2
_CLOSED
  0
BLOCK_RECORD
  5
3A
100
AcDbSymbolTableRecord
100
AcDbBlockTableRecord
  2
_ORIGIN
  0
BLOCK_RECORD
  5
3F
100
AcDbSymbolTableRecord
100
AcDbBlockTableRecord
  2
_DOT
  0
BLOCK_RECORD
  5
47
100
AcDbSymbolTableRecord
100
AcDbBlockTableRecord
  2
_OBLIQUE
  0
BLOCK_RECORD
  5
4B
100
AcDbSymbolTableRecord
100
AcDbBlockTableRecord
  2
DIMS0
  0
BLOCK_RECORD
  5
57
100
AcDbSymbolTableRecord
100
AcDbBlockTableRecord
  2
DIMS1
  0
BLOCK_RECORD
  5
63
100
AcDbSymbolTableRecord
100
AcDbBlockTableRecord
  2
DIMS2
  0
BLOCK_RECORD
  5
6F
100
AcDbSymbolTableRecord
100
AcDbBlockTableRecord
  2
DIMS3
  0
BLOCK_RECORD
  5
78
100
AcDbSymbolTableRecord
100
AcDbBlockTableRecord
  2
DIMS4
  0
BLOCK_RECORD
  5
84
100
AcDbSymbolTableRecord
100
AcDbBlockTableRecord
  2
DIMS5
  0
BLOCK_RECORD
  5
8E
100
AcDbSymbolTableRecord
100
AcDbBlockTableRecord
  2
DIMS6
  0
BLOCK_RECORD
  5
9A
100
AcDbSymbolTableRecord
100
AcDbBlockTableRecord
  2
DIMS7
  0
BLOCK_RECORD
  5
A6
100
AcDbSymbolTableRecord
100
AcDbBlockTableRecord
  2
DIMS8
  0
ENDTAB
  0
ENDSEC
  0
SECTION
  2
BLOCKS
  0
BLOCK
  5
22
100
AcDbEntity
  8
0
100
AcDbBlockBegin
  2
*MODEL_SPACE
 70
     0
 10
0.0
 20
0.0
 30
0.0
  3
*MODEL_SPACE
  1

  0
ENDBLK
  5
23
100
AcDbEntity
  8
0
100
AcDbBlockEnd
  0
BLOCK
  5
25
100
AcDbEntity
 67
     1
  8
0
100
AcDbBlockBegin
  2
*PAPER_SPACE
 70
     0
 10
0.0
 20
0.0
 30
0.0
  3
*PAPER_SPACE
  1

  0
ENDBLK
  5
26
100
AcDbEntity
 67
     1
  8
0
100
AcDbBlockEnd
  0
BLOCK
  5
2A
100
AcDbEntity
  8
0
100
AcDbBlockBegin
  2
_NONE
 70
     0
 10
0.0
 20
0.0
  0
CIRCLE
  5
2B
100
AcDbEntity
  8
0
 62
     0
100
AcDbCircle
 10
0.0
 20
0.0
 40
0.25
  0
ENDBLK
  5
2C
100
AcDbEntity
  8
0
100
AcDbBlockEnd
  0
BLOCK
  5
2E
100
AcDbEntity
  8
0
100
AcDbBlockBegin
  2
_OPEN
 70
     0
 10
0.0
 20
0.0
  0
LINE
  5
2F
100
AcDbEntity
  8
0
 62
     0
100
AcDbLine
 10
-0.965926
 20
0.258819
 11
0.0
 21
0.0
  0
LINE
  5
30
100
AcDbEntity
  8
0
 62
     0
100
AcDbLine
 10
0.0
 20
0.0
 11
-0.965926
 21
-0.258819
  0
LINE
  5
31
100
AcDbEntity
  8
0
 62
     0
100
AcDbLine
 10
0.0
 20
0.0
 11
-1.0
 21
0.0
  0
ENDBLK
  5
32
100
AcDbEntity
  8
0
100
AcDbBlockEnd
  0
BLOCK
  5
34
100
AcDbEntity
  8
0
100
AcDbBlockBegin
  2
_CLOSED
 70
     0
 10
0.0
 20
0.0
  0
LINE
  5
35
100
AcDbEntity
  8
0
 62
     0
100
AcDbLine
 10
-0.965926
 20
0.258819
 11
0.0
 21
0.0
  0
LINE
  5
36
100
AcDbEntity
  8
0
 62
     0
100
AcDbLine
 10
0.0
 20
0.0
 11
-0.965926
 21
-0.258819
  0
LINE
  5
37
100
AcDbEntity
  8
0
 62
     0
100
AcDbLine
 10
-0.965926
 20
0.258819
 11
-0.965926
 21
-0.258819
  0
LINE
  5
38
100
AcDbEntity
  8
0
 62
     0
100
AcDbLine
 10
0.0
 20
0.0
 11
-1.0
 21
0.0
  0
ENDBLK
  5
39
100
AcDbEntity
  8
0
100
AcDbBlockEnd
  0
BLOCK
  5
3B
100
AcDbEntity
  8
0
100
AcDbBlockBegin
  2
_ORIGIN
 70
     0
 10
0.0
 20
0.0
  0
CIRCLE
  5
3C
100
AcDbEntity
  8
0
 62
     0
100
AcDbCircle
 10
0.0
 20
0.0
 40
0.5
  0
LINE
  5
3D
100
AcDbEntity
  8
0
 62
     0
100
AcDbLine
 10
0.0
 20
0.0
 11
-1.0
 21
0.0
  0
ENDBLK
  5
3E
100
AcDbEntity
  8
0
100
AcDbBlockEnd
  0
BLOCK
  5
40
100
AcDbEntity
  8
0
100
AcDbBlockBegin
  2
_DOT
 70
     0
 10
0.0
 20
0.0
  0
POLYLINE
  5
41
100
AcDbEntity
  8
0
 62
     0
100
AcDb2dPolyline
 66
     1
 70
     1
 40
0.5
 41
0.5
  0
VERTEX
  5
42
100
AcDbEntity
  8
0
 62
     0
100
AcDbVertex
100
AcDb2dVertex
 10
-0.25
 20
0.0
 42
1.0
  0
VERTEX
  5
43
100
AcDbEntity
  8
0
 62
     0
100
AcDbVertex
100
AcDb2dVertex
 10
0.25
 20
0.0
 42
1.0
  0
SEQEND
  5
44
100
AcDbEntity
  8
0
 62
     0
  0
LINE
  5
45
100
AcDbEntity
  8
0
 62
     0
100
AcDbLine
 10
-0.5
 20
0.0
 11
-1.0
 21
0.0
  0
ENDBLK
  5
46
100
AcDbEntity
  8
0
100
AcDbBlockEnd
  0
BLOCK
  5
48
100
AcDbEntity
  8
0
100
AcDbBlockBegin
  2
_OBLIQUE
 70
     0
 10
0.0
 20
0.0
  0
LINE
  5
49
100
AcDbEntity
  8
0
 62
     0
100
AcDbLine
 10
-0.353553
 20
-0.353553
 11
0.353553
 21
0.353553
  0
ENDBLK
  5
4A
100
AcDbEntity
  8
0
100
AcDbBlockEnd
  0
BLOCK
  5
4C
100
AcDbEntity
  8
DD0
100
AcDbBlockBegin
  2
DIMS0
 70
     0
 10
0.0
 20
0.0
  0
LINE
  5
4D
100
AcDbEntity
  8
DD0
100
AcDbLine
 10
362.353705
 20
825.614439
 11
399.853398
 21
825.61454
  0
LINE
  5
4E
100
AcDbEntity
  8
DD0
100
AcDbLine
 10
362.353705
 20
625.614701
 11
399.853779
 21
625.614752
  0
LINE
  5
4F
100
AcDbEntity
  8
DD0
100
AcDbLine
 10
399.108274
 20
815.955237
 11
396.520065
 21
825.614489
  0
LINE
  5
50
100
AcDbEntity
  8
DD0
100
AcDbLine
 10
396.520065
 20
825.614489
 11
393.931893
 21
815.955227
  0
LINE
  5
51
100
AcDbEntity
  8
DD0
100
AcDbLine
 10
393.932237
 20
635.274005
 11
396.520446
 21
625.614752
  0
LINE
  5
52
100
AcDbEntity
  8
DD0
100
AcDbLine
 10
396.520446
 20
625.614752
 11
399.108618
 21
635.274015
  0
LINE
  5
53
100
AcDbEntity
  8
DD0
100
AcDbLine
 10
396.520065
 20
825.614489
 11
396.520446
 21
625.614752
  0
TEXT
  5
54
100
AcDbEntity
  8
DD0
100
AcDbText
 10
394.18697
 20
713.714575
 40
10.5
  1
２００
 50
90.000112
 41
0.666667
  7
STANDARD
100
AcDbText
  0
ENDBLK
  5
55
100
AcDbEntity
  8
DD0
100
AcDbBlockEnd
  0
BLOCK
  5
58
100
AcDbEntity
  8
DD0
100
AcDbBlockBegin
  2
DIMS1
 70
     0
 10
0.0
 20
0.0
  0
LINE
  5
59
100
AcDbEntity
  8
DD0
100
AcDbLine
 10
84.02037
 20
823.947518
 11
84.02037
 21
856.119758
  0
LINE
  5
5A
100
AcDbEntity
  8
DD0
100
AcDbLine
 10
364.020142
 20
823.947772
 11
364.020142
 21
856.119758
  0
LINE
  5
5B
100
AcDbEntity
  8
DD0
100
AcDbLine
 10
93.679628
 20
855.374564
 11
84.02037
 21
852.786374
  0
LINE
  5
5C
100
AcDbEntity
  8
DD0
100
AcDbLine
 10
84.02037
 20
852.786374
 11
93.679628
 21
850.198183
  0
LINE
  5
5D
100
AcDbEntity
  8
DD0
100
AcDbLine
 10
354.360885
 20
850.198183
 11
364.020142
 21
852.786374
  0
LINE
  5
5E
100
AcDbEntity
  8
DD0
100
AcDbLine
 10
364.020142
 20
852.786374
 11
354.360885
 21
855.374564
  0
LINE
  5
5F
100
AcDbEntity
  8
DD0
100
AcDbLine
 10
84.02037
 20
852.786374
 11
364.020142
 21
852.786374
  0
TEXT
  5
60
100
AcDbEntity
  8
DD0
100
AcDbText
 10
212.120255
 20
855.119697
 40
10.5
  1
２８０
 41
0.666667
  7
STANDARD
100
AcDbText
  0
ENDBLK
  5
61
100
AcDbEntity
  8
DD0
100
AcDbBlockEnd
  0
BLOCK
  5
64
100
AcDbEntity
  8
DD0
100
AcDbBlockBegin
  2
DIMS2
 70
     0
 10
0.0
 20
0.0
  0
LINE
  5
65
100
AcDbEntity
  8
DD0
100
AcDbLine
 10
365.52059
 20
768.949453
 11
365.52059
 21
888.858811
  0
LINE
  5
66
100
AcDbEntity
  8
DD0
100
AcDbLine
 10
82.520533
 20
768.949198
 11
82.520533
 21
888.858811
  0
LINE
  5
67
100
AcDbEntity
  8
DD0
100
AcDbLine
 10
355.861332
 20
882.937287
 11
365.52059
 21
885.525478
  0
LINE
  5
68
100
AcDbEntity
  8
DD0
100
AcDbLine
 10
365.52059
 20
885.525478
 11
355.861332
 21
888.113668
  0
LINE
  5
69
100
AcDbEntity
  8
DD0
100
AcDbLine
 10
92.17979
 20
888.113668
 11
82.520533
 21
885.525478
  0
LINE
  5
6A
100
AcDbEntity
  8
DD0
100
AcDbLine
 10
82.520533
 20
885.525478
 11
92.17979
 21
882.937287
  0
LINE
  5
6B
100
AcDbEntity
  8
DD0
100
AcDbLine
 10
365.52059
 20
885.525478
 11
82.520533
 21
885.525478
  0
TEXT
  5
6C
100
AcDbEntity
  8
DD0
100
AcDbText
 10
144.920551
 20
887.858851
 40
10.5
  1
２８３（追加補助接点ユニット付の場合）
 41
0.666667
  7
STANDARD
100
AcDbText
  0
ENDBLK
  5
6D
100
AcDbEntity
  8
DD0
100
AcDbBlockEnd
  0
BLOCK
  5
70
100
AcDbEntity
  8
DD0
100
AcDbBlockBegin
  2
DIMS3
 70
     0
 10
0.0
 20
0.0
  0
TEXT
  5
71
100
AcDbEntity
  8
DD0
100
AcDbText
 10
252.420165
 20
287.87805
 40
10.5
  1
３－Ｍ６ねじ穴
 41
0.666667
  7
STANDARD
100
AcDbText
  0
LINE
  5
72
100
AcDbEntity
  8
DD0
100
AcDbLine
 10
234.946148
 20
316.236673
 11
228.115887
 21
323.540611
  0
LINE
  5
73
100
AcDbEntity
  8
DD0
100
AcDbLine
 10
228.115887
 20
323.540611
 11
230.379097
 21
313.800084
  0
LINE
  5
74
100
AcDbEntity
  8
DD0
100
AcDbLine
 10
228.115887
 20
323.540611
 11
248.387085
 21
285.545033
  0
LINE
  5
75
100
AcDbEntity
  8
DD0
100
AcDbLine
 10
248.387085
 20
285.545033
 11
313.853696
 21
285.544931
  0
ENDBLK
  5
76
100
AcDbEntity
  8
DD0
100
AcDbBlockEnd
  0
BLOCK
  5
79
100
AcDbEntity
  8
DD0
100
AcDbBlockBegin
  2
DIMS4
 70
     0
 10
0.0
 20
0.0
  0
LINE
  5
7A
100
AcDbEntity
  8
DD0
100
AcDbLine
 10
367.353704
 20
517.925445
 11
399.853779
 21
517.925445
  0
LINE
  5
7B
100
AcDbEntity
  8
DD0
100
AcDbLine
 10
382.575872
 20
507.925191
 11
399.853779
 21
507.925191
  0
LINE
  5
7C
100
AcDbEntity
  8
DD0
100
AcDbLine
 10
393.932256
 20
527.584703
 11
396.520446
 21
517.925445
  0
LINE
  5
7D
100
AcDbEntity
  8
DD0
100
AcDbLine
 10
396.520446
 20
517.925445
 11
399.108637
 21
527.584703
  0
LINE
  5
7E
100
AcDbEntity
  8
DD0
100
AcDbLine
 10
399.108637
 20
498.265934
 11
396.520446
 21
507.925191
  0
LINE
  5
7F
100
AcDbEntity
  8
DD0
100
AcDbLine
 10
396.520446
 20
507.925191
 11
393.932256
 21
498.265934
  0
LINE
  5
80
100
AcDbEntity
  8
DD0
100
AcDbLine
 10
396.520446
 20
549.058778
 11
396.520446
 21
496.925192
  0
TEXT
  5
81
100
AcDbEntity
  8
DD0
100
AcDbText
 10
394.187123
 20
529.625431
 40
10.5
  1
１０
 50
90.000003
 41
0.666667
  7
STANDARD
100
AcDbText
  0
ENDBLK
  5
82
100
AcDbEntity
  8
DD0
100
AcDbBlockEnd
  0
BLOCK
  5
85
100
AcDbEntity
  8
DD0
100
AcDbBlockBegin
  2
DIMS5
 70
     0
 10
0.0
 20
0.0
  0
LINE
  5
86
100
AcDbEntity
  8
DD0
 60
     1
100
AcDbLine
 10
382.575872
 20
507.925191
 11
399.853779
 21
507.925191
  0
LINE
  5
87
100
AcDbEntity
  8
DD0
100
AcDbLine
 10
252.575877
 20
327.925453
 11
399.853779
 21
327.925453
  0
LINE
  5
88
100
AcDbEntity
  8
DD0
100
AcDbLine
 10
393.932256
 20
337.584711
 11
396.520446
 21
327.925453
  0
LINE
  5
89
100
AcDbEntity
  8
DD0
100
AcDbLine
 10
396.520446
 20
327.925453
 11
399.108637
 21
337.584711
  0
LINE
  5
8A
100
AcDbEntity
  8
DD0
100
AcDbLine
 10
396.520446
 20
507.925191
 11
396.520446
 21
327.925453
  0
TEXT
  5
8B
100
AcDbEntity
  8
DD0
100
AcDbText
 10
394.187123
 20
406.025328
 40
10.5
  1
１８０
 50
90.000003
 41
0.666667
  7
STANDARD
100
AcDbText
  0
ENDBLK
  5
8C
100
AcDbEntity
  8
DD0
100
AcDbBlockEnd
  0
BLOCK
  5
8F
100
AcDbEntity
  8
DD0
100
AcDbBlockBegin
  2
DIMS6
 70
     0
 10
0.0
 20
0.0
  0
LINE
  5
90
100
AcDbEntity
  8
DD0
100
AcDbLine
 10
94.020382
 20
536.480692
 11
94.020382
 21
556.666238
  0
LINE
  5
91
100
AcDbEntity
  8
DD0
100
AcDbLine
 10
354.020372
 20
536.480692
 11
354.020372
 21
556.666238
  0
LINE
  5
92
100
AcDbEntity
  8
DD0
100
AcDbLine
 10
103.67964
 20
555.921095
 11
94.020382
 21
553.332904
  0
LINE
  5
93
100
AcDbEntity
  8
DD0
100
AcDbLine
 10
94.020382
 20
553.332904
 11
103.67964
 21
550.744714
  0
LINE
  5
94
100
AcDbEntity
  8
DD0
100
AcDbLine
 10
344.361114
 20
550.744714
 11
354.020372
 21
553.332904
  0
LINE
  5
95
100
AcDbEntity
  8
DD0
100
AcDbLine
 10
354.020372
 20
553.332904
 11
344.361114
 21
555.921095
  0
LINE
  5
96
100
AcDbEntity
  8
DD0
100
AcDbLine
 10
94.020382
 20
553.332904
 11
354.020372
 21
553.332904
  0
TEXT
  5
97
100
AcDbEntity
  8
DD0
100
AcDbText
 10
212.120383
 20
555.666228
 40
10.5
  1
２６０
 41
0.666667
  7
STANDARD
100
AcDbText
  0
ENDBLK
  5
98
100
AcDbEntity
  8
DD0
100
AcDbBlockEnd
  0
BLOCK
  5
9B
100
AcDbEntity
  8
DD0
100
AcDbBlockBegin
  2
DIMS7
 70
     0
 10
0.0
 20
0.0
  0
LINE
  5
9C
100
AcDbEntity
  8
DD0
100
AcDbLine
 10
611.842169
 20
828.948026
 11
611.842169
 21
856.119656
  0
LINE
  5
9D
100
AcDbEntity
  8
DD0
100
AcDbLine
 10
614.141974
 20
828.948026
 11
614.141974
 21
856.119656
  0
LINE
  5
9E
100
AcDbEntity
  8
DD0
100
AcDbLine
 10
602.182911
 20
850.198183
 11
611.842169
 21
852.786374
  0
LINE
  5
9F
100
AcDbEntity
  8
DD0
100
AcDbLine
 10
611.842169
 20
852.786374
 11
602.182911
 21
855.374564
  0
LINE
  5
A0
100
AcDbEntity
  8
DD0
100
AcDbLine
 10
623.801232
 20
855.374564
 11
614.141974
 21
852.786374
  0
LINE
  5
A1
100
AcDbEntity
  8
DD0
100
AcDbLine
 10
614.141974
 20
852.786374
 11
623.801232
 21
850.198183
  0
LINE
  5
A2
100
AcDbEntity
  8
DD0
100
AcDbLine
 10
600.84217
 20
852.786374
 11
659.975309
 21
852.786374
  0
TEXT
  5
A3
100
AcDbEntity
  8
DD0
100
AcDbText
 10
626.000321
 20
854.786343
 40
10.5
  1
２．３
 41
0.833333
  7
STANDARD
100
AcDbText
  0
ENDBLK
  5
A4
100
AcDbEntity
  8
DD0
100
AcDbBlockEnd
  0
BLOCK
  5
A7
100
AcDbEntity
  8
DD0
100
AcDbBlockBegin
  2
DIMS8
 70
     0
 10
0.0
 20
0.0
  0
LINE
  5
A8
100
AcDbEntity
  8
DD0
100
AcDbLine
 10
614.141974
 20
828.948026
 11
614.141974
 21
888.858811
  0
LINE
  5
A9
100
AcDbEntity
  8
DD0
100
AcDbLine
 10
443.142072
 20
789.949462
 11
443.142072
 21
888.858811
  0
LINE
  5
AA
100
AcDbEntity
  8
DD0
100
AcDbLine
 10
604.482716
 20
882.937287
 11
614.141974
 21
885.525478
  0
LINE
  5
AB
100
AcDbEntity
  8
DD0
100
AcDbLine
 10
614.141974
 20
885.525478
 11
604.482716
 21
888.113668
  0
LINE
  5
AC
100
AcDbEntity
  8
DD0
100
AcDbLine
 10
452.80133
 20
888.113668
 11
443.142072
 21
885.525478
  0
LINE
  5
AD
100
AcDbEntity
  8
DD0
100
AcDbLine
 10
443.142072
 20
885.525478
 11
452.80133
 21
882.937287
  0
LINE
  5
AE
100
AcDbEntity
  8
DD0
100
AcDbLine
 10
614.141974
 20
885.525478
 11
443.142072
 21
885.525478
  0
TEXT
  5
AF
100
AcDbEntity
  8
DD0
100
AcDbText
 10
513.750366
 20
887.525498
 40
10.5
  1
１７１
 41
0.833333
  7
STANDARD
100
AcDbText
  0
ENDBLK
  5
B0
100
AcDbEntity
  8
DD0
100
AcDbBlockEnd
  0
ENDSEC
  0
SECTION
  2
ENTITIES
  0
INSERT
  5
56
100
AcDbEntity
  8
DD0
100
AcDbBlockReference
  2
DIMS0
 10
0.0
 20
0.0
  0
INSERT
  5
62
100
AcDbEntity
  8
DD0
100
AcDbBlockReference
  2
DIMS1
 10
0.0
 20
0.0
  0
INSERT
  5
6E
100
AcDbEntity
  8
DD0
100
AcDbBlockReference
  2
DIMS2
 10
0.0
 20
0.0
  0
INSERT
  5
77
100
AcDbEntity
  8
DD0
100
AcDbBlockReference
  2
DIMS3
 10
0.0
 20
0.0
  0
INSERT
  5
83
100
AcDbEntity
  8
DD0
100
AcDbBlockReference
  2
DIMS4
 10
0.0
 20
0.0
  0
INSERT
  5
8D
100
AcDbEntity
  8
DD0
100
AcDbBlockReference
  2
DIMS5
 10
0.0
 20
0.0
  0
INSERT
  5
99
100
AcDbEntity
  8
DD0
100
AcDbBlockReference
  2
DIMS6
 10
0.0
 20
0.0
  0
INSERT
  5
A5
100
AcDbEntity
  8
DD0
100
AcDbBlockReference
  2
DIMS7
 10
0.0
 20
0.0
  0
INSERT
  5
B1
100
AcDbEntity
  8
DD0
100
AcDbBlockReference
  2
DIMS8
 10
0.0
 20
0.0
  0
LINE
  5
B2
100
AcDbEntity
  8
M0
 62
     5
100
AcDbLine
 10
214.770382
 20
695.867619
 11
214.770382
 21
709.867619
  0
LINE
  5
B3
100
AcDbEntity
  8
M0
 62
     5
100
AcDbLine
 10
233.270336
 20
695.867619
 11
233.270336
 21
732.867619
  0
LINE
  5
B4
100
AcDbEntity
  8
M0
 62
     5
100
AcDbLine
 10
214.770382
 20
743.367863
 11
214.770382
 21
750.367619
  0
LINE
  5
B5
100
AcDbEntity
  8
M0
 62
     5
100
AcDbLine
 10
214.770657
 20
750.367619
 11
233.270336
 21
750.367619
  0
LINE
  5
B6
100
AcDbEntity
  8
M0
 62
     5
100
AcDbLine
 10
214.770138
 20
695.867619
 11
233.270336
 21
695.867619
  0
LINE
  5
B7
100
AcDbEntity
  8
M0
 62
     5
100
AcDbLine
 10
225.770382
 20
736.367619
 11
233.270336
 21
736.367619
  0
LINE
  5
B8
100
AcDbEntity
  8
M0
 62
     5
100
AcDbLine
 10
214.770138
 20
709.867619
 11
222.270336
 21
709.867619
  0
LINE
  5
B9
100
AcDbEntity
  8
M0
 62
     5
100
AcDbLine
 10
214.770657
 20
724.367619
 11
225.770382
 21
724.367619
  0
LINE
  5
BA
100
AcDbEntity
  8
M0
 62
     5
100
AcDbLine
 10
222.270336
 20
721.867619
 11
233.270336
 21
721.867619
  0
LINE
  5
BB
100
AcDbEntity
  8
M0
 62
     5
100
AcDbLine
 10
225.770382
 20
724.367619
 11
225.770382
 21
743.367619
  0
LINE
  5
BC
100
AcDbEntity
  8
M0
 62
     5
100
AcDbLine
 10
222.270336
 20
702.867619
 11
222.270336
 21
721.867619
  0
LINE
  5
BD
100
AcDbEntity
  8
M0
 62
     5
100
AcDbLine
 10
219.770382
 20
713.367619
 11
219.770382
 21
724.367619
  0
LINE
  5
BE
100
AcDbEntity
  8
M0
 62
     5
100
AcDbLine
 10
228.270336
 20
721.867619
 11
228.270336
 21
732.867619
  0
LINE
  5
BF
100
AcDbEntity
  8
M0
 62
     5
100
AcDbLine
 10
214.770657
 20
713.367619
 11
219.770382
 21
713.367619
  0
LINE
  5
C0
100
AcDbEntity
  8
M0
 62
     5
100
AcDbLine
 10
228.270336
 20
732.867619
 11
233.270336
 21
732.867619
  0
LINE
  5
C1
100
AcDbEntity
  8
M0
 62
     5
100
AcDbLine
 10
214.770382
 20
713.367619
 11
214.770382
 21
750.367619
  0
LINE
  5
C2
100
AcDbEntity
  8
M0
 62
     5
100
AcDbLine
 10
233.270336
 20
736.367619
 11
233.270336
 21
750.367619
  0
LINE
  5
C3
100
AcDbEntity
  8
M0
 62
   234
100
AcDbLine
 10
89.020367
 20
625.614689
 11
359.020382
 21
625.614689
  0
LINE
  5
C4
100
AcDbEntity
  8
M0
 62
   234
100
AcDbLine
 10
364.020382
 20
630.614674
 11
364.020138
 21
820.614445
  0
LINE
  5
C5
100
AcDbEntity
  8
M0
 62
   234
100
AcDbLine
 10
359.020382
 20
825.614445
 11
89.020367
 21
825.613957
  0
LINE
  5
C6
100
AcDbEntity
  8
M0
 62
   234
100
AcDbLine
 10
84.020367
 20
820.614201
 11
84.020367
 21
630.614674
  0
LINE
  5
C7
100
AcDbEntity
  8
M0
  6
DASHDOT
 62
   234
100
AcDbLine
 10
224.020382
 20
611.331913
 11
224.020382
 21
839.461857
  0
LINE
  5
C8
100
AcDbEntity
  8
M0
  6
DASHDOT
 62
   234
100
AcDbLine
 10
364.020382
 20
815.614689
 11
341.21986
 21
815.614323
  0
LINE
  5
C9
100
AcDbEntity
  8
M0
 62
   234
100
AcDbLine
 10
364.020382
 20
805.614689
 11
345.614819
 21
805.614689
  0
LINE
  5
CA
100
AcDbEntity
  8
M0
  6
DASHDOT
 62
   234
100
AcDbLine
 10
364.020382
 20
635.614689
 11
344.020153
 21
635.614674
  0
LINE
  5
CB
100
AcDbEntity
  8
M0
 62
   234
100
AcDbLine
 10
364.020382
 20
645.614689
 11
354.020382
 21
645.614674
  0
LINE
  5
CC
100
AcDbEntity
  8
M0
  6
DASHDOT
 62
   234
100
AcDbLine
 10
233.519909
 20
678.114674
 11
214.522686
 21
678.114674
  0
CIRCLE
  5
CD
100
AcDbEntity
  8
M0
 62
   234
100
AcDbCircle
 10
224.020382
 20
678.114674
 40
3.0
  0
CIRCLE
  5
CE
100
AcDbEntity
  8
M0
 62
   234
100
AcDbCircle
 10
224.020382
 20
635.614674
 40
3.5
  0
LINE
  5
CF
100
AcDbEntity
  8
M0
  6
DASHDOT
 62
   234
100
AcDbLine
 10
94.020382
 20
625.614689
 11
94.020382
 21
645.614659
  0
LINE
  5
D0
100
AcDbEntity
  8
M0
  6
DASHDOT
 62
   234
100
AcDbLine
 10
354.020153
 20
625.614689
 11
354.020153
 21
645.614674
  0
CIRCLE
  5
D1
100
AcDbEntity
  8
M0
 62
   234
100
AcDbCircle
 10
224.020382
 20
678.114674
 40
2.0
  0
CIRCLE
  5
D2
100
AcDbEntity
  8
M0
 62
   234
100
AcDbCircle
 10
94.020382
 20
635.614674
 40
3.5
  0
CIRCLE
  5
D3
100
AcDbEntity
  8
M0
 62
   234
100
AcDbCircle
 10
94.020382
 20
815.614445
 40
3.5
  0
CIRCLE
  5
D4
100
AcDbEntity
  8
M0
 62
   234
100
AcDbCircle
 10
354.020382
 20
815.614445
 40
3.5
  0
CIRCLE
  5
D5
100
AcDbEntity
  8
M0
 62
   234
100
AcDbCircle
 10
354.020382
 20
635.614674
 40
3.5
  0
LINE
  5
D6
100
AcDbEntity
  8
M0
 62
   234
100
AcDbLine
 10
344.020382
 20
635.614659
 11
344.020382
 21
625.614689
  0
LINE
  5
D7
100
AcDbEntity
  8
M0
 62
   234
100
AcDbLine
 10
104.020382
 20
635.614674
 11
104.020382
 21
625.614689
  0
ARC
  5
D8
100
AcDbEntity
  8
M0
 62
   234
100
AcDbCircle
 10
94.020382
 20
635.614674
 40
10.0
100
AcDbArc
 50
0.0
 51
89.999913
  0
ARC
  5
D9
100
AcDbEntity
  8
M0
 62
   234
100
AcDbCircle
 10
354.020382
 20
635.614674
 40
10.0
100
AcDbArc
 50
90.0
 51
179.999913
  0
LINE
  5
DA
100
AcDbEntity
  8
M0
 62
   234
100
AcDbLine
 10
94.020382
 20
645.614674
 11
84.020382
 21
645.614689
  0
LINE
  5
DB
100
AcDbEntity
  8
M0
 62
   234
100
AcDbLine
 10
214.020382
 20
635.614674
 11
214.020382
 21
625.614689
  0
LINE
  5
DC
100
AcDbEntity
  8
M0
 62
   234
100
AcDbLine
 10
234.020382
 20
625.614689
 11
234.020382
 21
635.614674
  0
ARC
  5
DD
100
AcDbEntity
  8
M0
 62
   234
100
AcDbCircle
 10
224.020382
 20
635.614689
 40
10.0
100
AcDbArc
 50
0.0
 51
90.0
  0
ARC
  5
DE
100
AcDbEntity
  8
M0
 62
   234
100
AcDbCircle
 10
224.020382
 20
635.614689
 40
10.0
100
AcDbArc
 50
90.0
 51
179.999913
  0
LINE
  5
DF
100
AcDbEntity
  8
M0
  6
DASHDOT
 62
   234
100
AcDbLine
 10
187.520382
 20
644.042515
 11
187.520382
 21
631.788777
  0
LINE
  5
E0
100
AcDbEntity
  8
M0
  6
DASHDOT
 62
   234
100
AcDbLine
 10
137.520382
 20
644.247624
 11
137.520382
 21
631.070973
  0
LINE
  5
E1
100
AcDbEntity
  8
M0
  6
DASHDOT
 62
   234
100
AcDbLine
 10
201.520382
 20
636.838963
 11
201.520382
 21
625.614689
  0
LINE
  5
E2
100
AcDbEntity
  8
M0
  6
DASHDOT
 62
   234
100
AcDbLine
 10
129.732968
 20
638.114689
 11
144.52293
 21
638.114689
  0
LINE
  5
E3
100
AcDbEntity
  8
M0
  6
DASHDOT
 62
   234
100
AcDbLine
 10
194.334347
 20
631.114689
 11
209.561886
 21
631.114689
  0
CIRCLE
  5
E4
100
AcDbEntity
  8
M0
 62
   234
100
AcDbCircle
 10
137.520382
 20
638.114689
 40
2.5
  0
CIRCLE
  5
E5
100
AcDbEntity
  8
M0
 62
   234
100
AcDbCircle
 10
187.520382
 20
638.114689
 40
2.5
  0
CIRCLE
  5
E6
100
AcDbEntity
  8
M0
 62
   234
100
AcDbCircle
 10
201.520382
 20
631.114689
 40
2.5
  0
CIRCLE
  5
E7
100
AcDbEntity
  8
M0
 62
   234
100
AcDbCircle
 10
137.520382
 20
638.114689
 40
1.5
  0
CIRCLE
  5
E8
100
AcDbEntity
  8
M0
 62
   234
100
AcDbCircle
 10
187.520382
 20
638.114689
 40
1.5
  0
LINE
  5
E9
100
AcDbEntity
  8
M0
 62
   234
100
AcDbLine
 10
364.020138
 20
820.614445
 11
359.020382
 21
825.614445
  0
LINE
  5
EA
100
AcDbEntity
  8
M0
 62
   234
100
AcDbLine
 10
89.020367
 20
825.613957
 11
84.020367
 21
820.614201
  0
LINE
  5
EB
100
AcDbEntity
  8
M0
 62
   234
100
AcDbLine
 10
84.020367
 20
630.614674
 11
89.020367
 21
625.614689
  0
LINE
  5
EC
100
AcDbEntity
  8
M0
 62
   234
100
AcDbLine
 10
359.020382
 20
625.614689
 11
364.020382
 21
630.614674
  0
LINE
  5
ED
100
AcDbEntity
  8
M0
  6
DASHDOT
 62
   234
100
AcDbLine
 10
106.822598
 20
815.614323
 11
84.020382
 21
815.614689
  0
LINE
  5
EE
100
AcDbEntity
  8
M0
  6
DASHDOT
 62
   234
100
AcDbLine
 10
354.020153
 20
805.614323
 11
354.020382
 21
825.132023
  0
LINE
  5
EF
100
AcDbEntity
  8
M0
  6
DASHDOT
 62
   234
100
AcDbLine
 10
94.020382
 20
805.614323
 11
94.020382
 21
825.614201
  0
LINE
  5
F0
100
AcDbEntity
  8
M0
  6
DASHDOT
 62
   234
100
AcDbLine
 10
104.020382
 20
635.614674
 11
84.020382
 21
635.614689
  0
LINE
  5
F1
100
AcDbEntity
  8
M0
  6
DASHDOT
 62
   234
100
AcDbLine
 10
234.020382
 20
635.614674
 11
214.020382
 21
635.614674
  0
LINE
  5
F2
100
AcDbEntity
  8
M0
  6
DASHDOT
 62
   234
100
AcDbLine
 10
182.22276
 20
638.114689
 11
195.052121
 21
638.114689
  0
LINE
  5
F3
100
AcDbEntity
  8
M0
  6
DASHDOT
 62
   234
100
AcDbLine
 10
233.519909
 20
768.114323
 11
214.522686
 21
768.114323
  0
CIRCLE
  5
F4
100
AcDbEntity
  8
M0
 62
   234
100
AcDbCircle
 10
224.020382
 20
768.114323
 40
2.0
  0
CIRCLE
  5
F5
100
AcDbEntity
  8
M0
 62
   234
100
AcDbCircle
 10
224.020382
 20
768.114323
 40
2.999998
  0
LINE
  5
F6
100
AcDbEntity
  8
M0
 62
   234
100
AcDbLine
 10
241.426693
 20
805.614689
 11
206.590237
 21
805.614689
  0
LINE
  5
F7
100
AcDbEntity
  8
M0
 62
   234
100
AcDbLine
 10
102.451306
 20
805.614689
 11
84.020382
 21
805.614689
  0
LINE
  5
F8
100
AcDbEntity
  8
M0
 62
   234
100
AcDbLine
 10
608.042355
 20
625.614689
 11
614.142208
 21
625.614689
  0
LINE
  5
F9
100
AcDbEntity
  8
M0
 62
   234
100
AcDbLine
 10
614.142208
 20
625.614689
 11
614.142208
 21
644.614674
  0
LINE
  5
FA
100
AcDbEntity
  8
M0
 62
   234
100
AcDbLine
 10
614.142208
 20
825.614689
 11
611.84216
 21
825.614445
  0
LINE
  5
FB
100
AcDbEntity
  8
M0
 62
   234
100
AcDbLine
 10
608.042355
 20
802.314396
 11
608.042355
 21
625.614689
  0
LINE
  5
FC
100
AcDbEntity
  8
M0
 62
   234
100
AcDbLine
 10
611.84216
 20
825.614689
 11
611.84216
 21
806.585148
  0
LINE
  5
FD
100
AcDbEntity
  8
M0
 62
   234
100
AcDbLine
 10
610.34216
 20
802.343205
 11
610.34216
 21
648.885197
  0
ARC
  5
FE
100
AcDbEntity
  8
M0
 62
   234
100
AcDbCircle
 10
610.84216
 20
806.614201
 40
3.299999
100
AcDbArc
 50
276.67366
 51
360.0
  0
ARC
  5
FF
100
AcDbEntity
  8
M0
 62
   234
100
AcDbCircle
 10
611.34216
 20
802.314396
 40
3.299999
100
AcDbArc
 50
96.679118
 51
180.0
  0
LINE
  5
100
100
AcDbEntity
  8
M0
 62
   234
100
AcDbLine
 10
611.84216
 20
644.643498
 11
611.84216
 21
625.614689
  0
ARC
  5
101
100
AcDbEntity
  8
M0
 62
   234
100
AcDbCircle
 10
610.84216
 20
644.614445
 40
3.299999
100
AcDbArc
 50
0.0
 51
83.325043
  0
ARC
  5
102
100
AcDbEntity
  8
M0
 62
   234
100
AcDbCircle
 10
611.34216
 20
648.914494
 40
3.299999
100
AcDbArc
 50
179.999735
 51
263.321597
  0
LINE
  5
103
100
AcDbEntity
  8
M0
 62
   234
100
AcDbLine
 10
614.141964
 20
825.614689
 11
614.141964
 21
806.614445
  0
LINE
  5
104
100
AcDbEntity
  8
M0
 62
   234
100
AcDbLine
 10
611.84216
 20
632.114689
 11
614.142208
 21
632.114689
  0
LINE
  5
105
100
AcDbEntity
  8
M0
 62
   234
100
AcDbLine
 10
611.84216
 20
639.114689
 11
614.142208
 21
639.114689
  0
ARC
  5
106
100
AcDbEntity
  8
M0
 62
   234
100
AcDbCircle
 10
610.84216
 20
644.643498
 40
1.0
100
AcDbArc
 50
0.0
 51
83.326077
  0
ARC
  5
107
100
AcDbEntity
  8
M0
 62
   234
100
AcDbCircle
 10
611.34216
 20
648.885197
 40
1.0
100
AcDbArc
 50
179.999126
 51
263.313355
  0
ARC
  5
108
100
AcDbEntity
  8
M0
 62
   234
100
AcDbCircle
 10
611.34216
 20
802.343205
 40
1.0
100
AcDbArc
 50
96.687731
 51
180.0
  0
ARC
  5
109
100
AcDbEntity
  8
M0
 62
   234
100
AcDbCircle
 10
610.84216
 20
806.585148
 40
1.0
100
AcDbArc
 50
276.671701
 51
360.0
  0
LINE
  5
10A
100
AcDbEntity
  8
M0
  6
DASHDOT
 62
   114
100
AcDbLine
 10
154.520382
 20
817.979466
 11
154.520382
 21
637.109913
  0
LINE
  5
10B
100
AcDbEntity
  8
M0
 62
   114
100
AcDbLine
 10
127.996609
 20
675.115895
 11
132.320477
 21
675.115895
  0
LINE
  5
10C
100
AcDbEntity
  8
M0
 62
   114
100
AcDbLine
 10
214.520382
 20
684.615864
 11
214.520382
 21
785.615589
  0
LINE
  5
10D
100
AcDbEntity
  8
M0
 62
   114
100
AcDbLine
 10
94.520382
 20
792.115345
 11
94.520382
 21
684.615879
  0
LINE
  5
10E
100
AcDbEntity
  8
M0
 62
   114
100
AcDbLine
 10
127.996945
 20
786.115834
 11
132.320477
 21
786.115834
  0
LINE
  5
10F
100
AcDbEntity
  8
M0
 62
   114
100
AcDbLine
 10
212.520382
 20
787.615834
 11
201.761731
 21
787.615589
  0
LINE
  5
110
100
AcDbEntity
  8
M0
 62
   114
100
AcDbLine
 10
169.520382
 20
804.615345
 11
169.520382
 21
794.115589
  0
LINE
  5
111
100
AcDbEntity
  8
M0
 62
   114
100
AcDbLine
 10
139.520382
 20
804.615345
 11
139.520382
 21
794.115589
  0
ARC
  5
112
100
AcDbEntity
  8
M0
 62
   114
100
AcDbCircle
 10
212.520382
 20
785.615589
 40
2.0
100
AcDbArc
 50
0.0
 51
90.0
  0
LINE
  5
113
100
AcDbEntity
  8
M0
 62
   114
100
AcDbLine
 10
202.020382
 20
677.115879
 11
202.020382
 21
705.615879
  0
LINE
  5
114
100
AcDbEntity
  8
M0
 62
   114
100
AcDbLine
 10
107.020367
 20
677.115895
 11
107.020367
 21
705.615895
  0
ARC
  5
115
100
AcDbEntity
  8
M0
 62
   114
100
AcDbCircle
 10
200.020382
 20
784.115834
 40
2.0
100
AcDbArc
 50
0.0
 51
80.219821
  0
ARC
  5
116
100
AcDbEntity
  8
M0
 62
   114
100
AcDbCircle
 10
109.020382
 20
784.115834
 40
2.0
100
AcDbArc
 50
99.781115
 51
180.0
  0
ARC
  5
117
100
AcDbEntity
  8
M0
 62
   114
100
AcDbCircle
 10
109.020382
 20
677.115895
 40
2.0
100
AcDbArc
 50
179.999563
 51
260.210478
  0
ARC
  5
118
100
AcDbEntity
  8
M0
 62
   114
100
AcDbCircle
 10
200.020382
 20
677.115895
 40
2.0
100
AcDbArc
 50
279.786863
 51
360.0
  0
LINE
  5
119
100
AcDbEntity
  8
M0
 62
   114
100
AcDbLine
 10
212.520382
 20
682.615895
 11
203.020382
 21
682.615879
  0
ARC
  5
11A
100
AcDbEntity
  8
M0
 62
   114
100
AcDbCircle
 10
96.520382
 20
684.615879
 40
2.0
100
AcDbArc
 50
179.999563
 51
270.0
  0
ARC
  5
11B
100
AcDbEntity
  8
M0
 62
   114
100
AcDbCircle
 10
212.520382
 20
684.615879
 40
2.0
100
AcDbArc
 50
269.999563
 51
360.0
  0
LINE
  5
11C
100
AcDbEntity
  8
M0
 62
   114
100
AcDbLine
 10
106.020382
 20
682.615879
 11
96.520382
 21
682.615879
  0
ARC
  5
11D
100
AcDbEntity
  8
M0
 62
   114
100
AcDbCircle
 10
106.020382
 20
681.615864
 40
1.0
100
AcDbArc
 50
0.0
 51
89.999126
  0
ARC
  5
11E
100
AcDbEntity
  8
M0
 62
   114
100
AcDbCircle
 10
203.020382
 20
681.615879
 40
1.0
100
AcDbArc
 50
90.0
 51
179.999126
  0
LINE
  5
11F
100
AcDbEntity
  8
M0
 62
   114
100
AcDbLine
 10
162.020382
 20
682.615895
 11
162.020382
 21
684.116368
  0
LINE
  5
120
100
AcDbEntity
  8
M0
 62
   114
100
AcDbLine
 10
147.020382
 20
682.615895
 11
147.020382
 21
684.116383
  0
LINE
  5
121
100
AcDbEntity
  8
M0
 62
   114
100
AcDbLine
 10
116.320385
 20
685.115879
 11
109.520382
 21
685.115864
  0
LINE
  5
122
100
AcDbEntity
  8
M0
 62
   114
100
AcDbLine
 10
94.520382
 20
703.115879
 11
98.020382
 21
703.115879
  0
LINE
  5
123
100
AcDbEntity
  8
M0
 62
   114
100
AcDbLine
 10
102.520382
 20
733.365895
 11
102.520382
 21
727.865895
  0
LINE
  5
124
100
AcDbEntity
  8
M0
 62
   114
100
AcDbLine
 10
94.520382
 20
734.365895
 11
101.520382
 21
734.365895
  0
LINE
  5
125
100
AcDbEntity
  8
M0
 62
   114
100
AcDbLine
 10
94.520382
 20
726.865895
 11
101.520382
 21
726.865895
  0
ARC
  5
126
100
AcDbEntity
  8
M0
 62
   114
100
AcDbCircle
 10
101.520382
 20
727.865895
 40
1.0
100
AcDbArc
 50
270.0
 51
360.0
  0
ARC
  5
127
100
AcDbEntity
  8
M0
 62
   114
100
AcDbCircle
 10
101.520382
 20
733.365895
 40
1.0
100
AcDbArc
 50
0.0
 51
89.999126
  0
LINE
  5
128
100
AcDbEntity
  8
M0
 62
   114
100
AcDbLine
 10
95.020382
 20
733.365895
 11
98.520382
 21
733.365895
  0
LINE
  5
129
100
AcDbEntity
  8
M0
 62
   114
100
AcDbLine
 10
95.020382
 20
727.865895
 11
98.520382
 21
727.865895
  0
LINE
  5
12A
100
AcDbEntity
  8
M0
 62
   114
100
AcDbLine
 10
98.520382
 20
734.365895
 11
98.520382
 21
733.365895
  0
LINE
  5
12B
100
AcDbEntity
  8
M0
 62
   114
100
AcDbLine
 10
98.520382
 20
727.865895
 11
98.520382
 21
726.865895
  0
LINE
  5
12C
100
AcDbEntity
  8
M0
 62
   114
100
AcDbLine
 10
95.020382
 20
734.365895
 11
95.020382
 21
733.365895
  0
LINE
  5
12D
100
AcDbEntity
  8
M0
 62
   114
100
AcDbLine
 10
95.020382
 20
727.865895
 11
95.020382
 21
726.865895
  0
LINE
  5
12E
100
AcDbEntity
  8
M0
 62
   114
100
AcDbLine
 10
95.020382
 20
748.115834
 11
98.020382
 21
748.115834
  0
LINE
  5
12F
100
AcDbEntity
  8
M0
 62
   114
100
AcDbLine
 10
95.020382
 20
713.115895
 11
98.020382
 21
713.115895
  0
ARC
  5
130
100
AcDbEntity
  8
M0
 62
   114
100
AcDbCircle
 10
95.020382
 20
713.615895
 40
0.5
100
AcDbArc
 50
179.998251
 51
270.0
  0
ARC
  5
131
100
AcDbEntity
  8
M0
 62
   114
100
AcDbCircle
 10
95.020382
 20
747.615834
 40
0.5
100
AcDbArc
 50
89.998251
 51
180.0
  0
LINE
  5
132
100
AcDbEntity
  8
M0
 62
   114
100
AcDbLine
 10
95.020382
 20
758.115834
 11
98.020382
 21
758.115834
  0
LINE
  5
133
100
AcDbEntity
  8
M0
 62
   114
100
AcDbLine
 10
94.520382
 20
700.615879
 11
105.020367
 21
700.615879
  0
ARC
  5
134
100
AcDbEntity
  8
M0
 62
   114
100
AcDbCircle
 10
105.020367
 20
698.615879
 40
2.0
100
AcDbArc
 50
0.0
 51
89.999563
  0
LINE
  5
135
100
AcDbEntity
  8
M0
 62
   114
100
AcDbLine
 10
98.520382
 20
703.615879
 11
98.520382
 21
723.915943
  0
LINE
  5
136
100
AcDbEntity
  8
M0
 62
   114
100
AcDbLine
 10
106.520382
 20
737.315785
 11
106.520382
 21
755.115834
  0
ARC
  5
137
100
AcDbEntity
  8
M0
 62
   114
100
AcDbCircle
 10
98.020382
 20
757.615834
 40
0.5
100
AcDbArc
 50
0.0
 51
89.998251
  0
ARC
  5
138
100
AcDbEntity
  8
M0
 62
   114
100
AcDbCircle
 10
95.020382
 20
757.615834
 40
0.5
100
AcDbArc
 50
89.998251
 51
180.0
  0
ARC
  5
139
100
AcDbEntity
  8
M0
 62
   114
100
AcDbCircle
 10
98.020382
 20
747.615834
 40
0.5
100
AcDbArc
 50
0.0
 51
89.998251
  0
ARC
  5
13A
100
AcDbEntity
  8
M0
 62
   114
100
AcDbCircle
 10
98.020382
 20
713.615895
 40
0.5
100
AcDbArc
 50
270.0
 51
360.0
  0
ARC
  5
13B
100
AcDbEntity
  8
M0
 62
   114
100
AcDbCircle
 10
98.020382
 20
703.615879
 40
0.5
100
AcDbArc
 50
270.0
 51
360.0
  0
LINE
  5
13C
100
AcDbEntity
  8
M0
 62
   114
100
AcDbLine
 10
98.520382
 20
755.615834
 11
107.020474
 21
755.615834
  0
LINE
  5
13D
100
AcDbEntity
  8
M0
 62
   114
100
AcDbLine
 10
98.520382
 20
705.615895
 11
107.020367
 21
705.615895
  0
LINE
  5
13E
100
AcDbEntity
  8
M0
 62
   114
100
AcDbLine
 10
107.020367
 20
755.615834
 11
107.020382
 21
784.115834
  0
LINE
  5
13F
100
AcDbEntity
  8
M0
 62
   114
100
AcDbLine
 10
98.520382
 20
745.115834
 11
99.370373
 21
745.115834
  0
ARC
  5
140
100
AcDbEntity
  8
M0
  6
DASHED
 62
   114
100
AcDbCircle
 10
99.520382
 20
737.315785
 40
1.0
100
AcDbArc
 50
180.0
 51
270.0
  0
ARC
  5
141
100
AcDbEntity
  8
M0
 62
   114
100
AcDbCircle
 10
99.520382
 20
737.615834
 40
1.0
100
AcDbArc
 50
180.0
 51
270.0
  0
LINE
  5
142
100
AcDbEntity
  8
M0
 62
   114
100
AcDbLine
 10
98.520382
 20
738.615834
 11
99.020382
 21
738.615834
  0
LINE
  5
143
100
AcDbEntity
  8
M0
 62
   114
100
AcDbLine
 10
98.520382
 20
754.715687
 11
99.120373
 21
754.715687
  0
ARC
  5
144
100
AcDbEntity
  8
M0
 62
   114
100
AcDbCircle
 10
107.020382
 20
755.115834
 40
0.5
100
AcDbArc
 50
89.998251
 51
180.0
  0
LINE
  5
145
100
AcDbEntity
  8
M0
 62
   114
100
AcDbLine
 10
106.020382
 20
737.115589
 11
106.020382
 21
738.615834
  0
LINE
  5
146
100
AcDbEntity
  8
M0
 62
   114
100
AcDbLine
 10
99.020382
 20
737.115834
 11
99.020382
 21
738.615834
  0
LINE
  5
147
100
AcDbEntity
  8
M0
 62
   114
100
AcDbLine
 10
98.520382
 20
740.115834
 11
99.020382
 21
738.615834
  0
LINE
  5
148
100
AcDbEntity
  8
M0
 62
   114
100
AcDbLine
 10
106.520382
 20
740.115834
 11
106.020382
 21
738.615834
  0
ARC
  5
149
100
AcDbEntity
  8
M0
 62
   114
100
AcDbCircle
 10
99.520382
 20
737.115834
 40
0.5
100
AcDbArc
 50
180.0
 51
270.0
  0
LINE
  5
14A
100
AcDbEntity
  8
M0
 62
   114
100
AcDbLine
 10
106.020382
 20
738.615834
 11
106.520382
 21
738.615834
  0
LINE
  5
14B
100
AcDbEntity
  8
M0
 62
   114
100
AcDbLine
 10
99.270382
 20
745.415638
 11
99.370373
 21
745.415638
  0
LINE
  5
14C
100
AcDbEntity
  8
M0
 62
   114
100
AcDbLine
 10
99.270382
 20
745.115834
 11
99.270382
 21
746.115589
  0
LINE
  5
14D
100
AcDbEntity
  8
M0
 62
   114
100
AcDbLine
 10
105.770382
 20
746.115834
 11
105.770382
 21
745.115834
  0
ARC
  5
14E
100
AcDbEntity
  8
M0
 62
   114
100
AcDbCircle
 10
98.770382
 20
746.115834
 40
0.5
100
AcDbArc
 50
359.971477
 51
449.998251
  0
ARC
  5
14F
100
AcDbEntity
  8
M0
 62
   114
100
AcDbCircle
 10
106.270382
 20
746.115834
 40
0.5
100
AcDbArc
 50
89.998251
 51
180.0
  0
LINE
  5
150
100
AcDbEntity
  8
M0
 62
   114
100
AcDbLine
 10
98.520382
 20
746.615834
 11
99.020382
 21
746.615834
  0
LINE
  5
151
100
AcDbEntity
  8
M0
 62
   114
100
AcDbLine
 10
106.020382
 20
748.215687
 11
106.020382
 21
746.615834
  0
LINE
  5
152
100
AcDbEntity
  8
M0
 62
   114
100
AcDbLine
 10
99.020382
 20
748.215687
 11
99.020382
 21
746.615834
  0
LINE
  5
153
100
AcDbEntity
  8
M0
 62
   114
100
AcDbLine
 10
98.520382
 20
748.215687
 11
99.020382
 21
748.215687
  0
LINE
  5
154
100
AcDbEntity
  8
M0
 62
   114
100
AcDbLine
 10
98.520382
 20
749.715687
 11
99.020382
 21
748.215687
  0
LINE
  5
155
100
AcDbEntity
  8
M0
 62
   114
100
AcDbLine
 10
106.520382
 20
749.715687
 11
106.020382
 21
748.215687
  0
LINE
  5
156
100
AcDbEntity
  8
M0
 62
   114
100
AcDbLine
 10
106.020382
 20
748.215687
 11
106.520382
 21
748.215687
  0
LINE
  5
157
100
AcDbEntity
  8
M0
 62
   114
100
AcDbLine
 10
98.520382
 20
737.315785
 11
98.520382
 21
757.615834
  0
ARC
  5
158
100
AcDbEntity
  8
M0
 62
   114
100
AcDbCircle
 10
107.020382
 20
746.615834
 40
0.5
100
AcDbArc
 50
89.998251
 51
180.0
  0
ARC
  5
159
100
AcDbEntity
  8
M0
 62
   114
100
AcDbCircle
 10
109.520397
 20
773.615834
 40
2.5
100
AcDbArc
 50
89.99965
 51
180.0
  0
LINE
  5
15A
100
AcDbEntity
  8
M0
 62
   114
100
AcDbLine
 10
116.320401
 20
776.115834
 11
109.520397
 21
776.115834
  0
LINE
  5
15B
100
AcDbEntity
  8
M0
 62
   114
100
AcDbLine
 10
97.520382
 20
760.615589
 11
97.520382
 21
758.115834
  0
LINE
  5
15C
100
AcDbEntity
  8
M0
 62
   114
100
AcDbLine
 10
94.520382
 20
760.615834
 11
97.520382
 21
760.615834
  0
LINE
  5
15D
100
AcDbEntity
  8
M0
 62
   114
100
AcDbLine
 10
97.520382
 20
703.115879
 11
97.520382
 21
700.615879
  0
LINE
  5
15E
100
AcDbEntity
  8
M0
 62
   114
100
AcDbLine
 10
202.020382
 20
755.615589
 11
202.020382
 21
784.115834
  0
LINE
  5
15F
100
AcDbEntity
  8
M0
 62
   114
100
AcDbLine
 10
202.520413
 20
737.315541
 11
202.520413
 21
755.115589
  0
ARC
  5
160
100
AcDbEntity
  8
M0
 62
   114
100
AcDbCircle
 10
202.020413
 20
755.115589
 40
0.5
100
AcDbArc
 50
0.0
 51
90.0
  0
LINE
  5
161
100
AcDbEntity
  8
M0
 62
   114
100
AcDbLine
 10
144.520382
 20
786.115834
 11
144.633419
 21
785.776478
  0
LINE
  5
162
100
AcDbEntity
  8
M0
 62
   114
100
AcDbLine
 10
164.407299
 20
785.776478
 11
164.520382
 21
786.115834
  0
LINE
  5
163
100
AcDbEntity
  8
M0
 62
   114
100
AcDbLine
 10
176.720364
 20
676.115895
 11
176.720364
 21
684.116368
  0
LINE
  5
164
100
AcDbEntity
  8
M0
 62
   114
100
AcDbLine
 10
176.720364
 20
785.115834
 11
176.720364
 21
777.116322
  0
LINE
  5
165
100
AcDbEntity
  8
M0
 62
   114
100
AcDbLine
 10
132.32037
 20
785.115589
 11
132.32037
 21
777.101673
  0
LINE
  5
166
100
AcDbEntity
  8
M0
  6
DASHED
 62
   114
100
AcDbLine
 10
99.520382
 20
736.315785
 11
105.520382
 21
736.315785
  0
LINE
  5
167
100
AcDbEntity
  8
M0
 62
   114
100
AcDbLine
 10
99.520382
 20
736.615834
 11
105.520382
 21
736.615834
  0
ARC
  5
168
100
AcDbEntity
  8
M0
 62
   114
100
AcDbCircle
 10
105.520382
 20
737.615834
 40
1.0
100
AcDbArc
 50
270.0
 51
360.0
  0
ARC
  5
169
100
AcDbEntity
  8
M0
  6
DASHED
 62
   114
100
AcDbCircle
 10
105.520382
 20
737.315785
 40
1.0
100
AcDbArc
 50
270.0
 51
360.0
  0
ARC
  5
16A
100
AcDbEntity
  8
M0
 62
   114
100
AcDbCircle
 10
105.520382
 20
737.115834
 40
0.5
100
AcDbArc
 50
270.0
 51
359.971477
  0
LINE
  5
16B
100
AcDbEntity
  8
M0
 62
   114
100
AcDbLine
 10
106.520382
 20
723.915943
 11
106.520382
 21
706.115895
  0
LINE
  5
16C
100
AcDbEntity
  8
M0
 62
   114
100
AcDbLine
 10
98.520382
 20
716.115895
 11
99.370373
 21
716.115895
  0
ARC
  5
16D
100
AcDbEntity
  8
M0
  6
DASHED
 62
   114
100
AcDbCircle
 10
99.520382
 20
723.915943
 40
1.0
100
AcDbArc
 50
89.999126
 51
179.999945
  0
ARC
  5
16E
100
AcDbEntity
  8
M0
 62
   114
100
AcDbCircle
 10
99.520382
 20
723.615895
 40
1.0
100
AcDbArc
 50
89.999126
 51
179.999945
  0
LINE
  5
16F
100
AcDbEntity
  8
M0
 62
   114
100
AcDbLine
 10
98.520382
 20
722.615895
 11
99.020382
 21
722.615895
  0
LINE
  5
170
100
AcDbEntity
  8
M0
 62
   114
100
AcDbLine
 10
98.520382
 20
706.516041
 11
99.370373
 21
706.516041
  0
ARC
  5
171
100
AcDbEntity
  8
M0
 62
   114
100
AcDbCircle
 10
107.020382
 20
706.115895
 40
0.5
100
AcDbArc
 50
179.998251
 51
270.0
  0
LINE
  5
172
100
AcDbEntity
  8
M0
 62
   114
100
AcDbLine
 10
106.020382
 20
724.116139
 11
106.020382
 21
722.615895
  0
LINE
  5
173
100
AcDbEntity
  8
M0
 62
   114
100
AcDbLine
 10
99.020382
 20
724.115895
 11
99.020382
 21
722.615895
  0
LINE
  5
174
100
AcDbEntity
  8
M0
 62
   114
100
AcDbLine
 10
98.520382
 20
721.115895
 11
99.020382
 21
722.615895
  0
LINE
  5
175
100
AcDbEntity
  8
M0
 62
   114
100
AcDbLine
 10
106.520382
 20
721.115895
 11
106.020382
 21
722.615895
  0
ARC
  5
176
100
AcDbEntity
  8
M0
 62
   114
100
AcDbCircle
 10
99.520382
 20
724.115895
 40
0.5
100
AcDbArc
 50
89.998251
 51
179.999891
  0
LINE
  5
177
100
AcDbEntity
  8
M0
 62
   114
100
AcDbLine
 10
106.020382
 20
722.615895
 11
106.520382
 21
722.615895
  0
LINE
  5
178
100
AcDbEntity
  8
M0
 62
   114
100
AcDbLine
 10
99.270382
 20
715.81609
 11
99.370373
 21
715.81609
  0
LINE
  5
179
100
AcDbEntity
  8
M0
 62
   114
100
AcDbLine
 10
98.520382
 20
714.615895
 11
99.020382
 21
714.615895
  0
LINE
  5
17A
100
AcDbEntity
  8
M0
 62
   114
100
AcDbLine
 10
99.270382
 20
716.115895
 11
99.270382
 21
715.116139
  0
LINE
  5
17B
100
AcDbEntity
  8
M0
 62
   114
100
AcDbLine
 10
105.770382
 20
715.115895
 11
105.770382
 21
716.115895
  0
ARC
  5
17C
100
AcDbEntity
  8
M0
 62
   114
100
AcDbCircle
 10
98.770382
 20
715.115895
 40
0.5
100
AcDbArc
 50
-90.0
 51
0.028086
  0
ARC
  5
17D
100
AcDbEntity
  8
M0
 62
   114
100
AcDbCircle
 10
106.270382
 20
715.115895
 40
0.5
100
AcDbArc
 50
180.027431
 51
270.0
  0
LINE
  5
17E
100
AcDbEntity
  8
M0
 62
   114
100
AcDbLine
 10
106.020382
 20
714.615895
 11
106.520382
 21
714.615895
  0
LINE
  5
17F
100
AcDbEntity
  8
M0
 62
   114
100
AcDbLine
 10
106.020382
 20
713.016041
 11
106.020382
 21
714.615895
  0
LINE
  5
180
100
AcDbEntity
  8
M0
 62
   114
100
AcDbLine
 10
99.020382
 20
713.016041
 11
99.020382
 21
714.615895
  0
LINE
  5
181
100
AcDbEntity
  8
M0
 62
   114
100
AcDbLine
 10
98.520382
 20
713.016041
 11
99.020382
 21
713.016041
  0
LINE
  5
182
100
AcDbEntity
  8
M0
 62
   114
100
AcDbLine
 10
98.520382
 20
711.516041
 11
99.020382
 21
713.016041
  0
LINE
  5
183
100
AcDbEntity
  8
M0
 62
   114
100
AcDbLine
 10
106.520382
 20
711.516041
 11
106.020382
 21
713.016041
  0
LINE
  5
184
100
AcDbEntity
  8
M0
 62
   114
100
AcDbLine
 10
106.020382
 20
713.016041
 11
106.520382
 21
713.016041
  0
ARC
  5
185
100
AcDbEntity
  8
M0
 62
   114
100
AcDbCircle
 10
107.020382
 20
714.615895
 40
0.5
100
AcDbArc
 50
180.019234
 51
270.0
  0
LINE
  5
186
100
AcDbEntity
  8
M0
  6
DASHED
 62
   114
100
AcDbLine
 10
99.520382
 20
724.915943
 11
105.520382
 21
724.915943
  0
LINE
  5
187
100
AcDbEntity
  8
M0
 62
   114
100
AcDbLine
 10
99.520382
 20
724.615895
 11
105.520382
 21
724.615895
  0
ARC
  5
188
100
AcDbEntity
  8
M0
 62
   114
100
AcDbCircle
 10
105.520382
 20
723.615895
 40
1.0
100
AcDbArc
 50
0.0
 51
89.999126
  0
ARC
  5
189
100
AcDbEntity
  8
M0
  6
DASHED
 62
   114
100
AcDbCircle
 10
105.520382
 20
723.915943
 40
1.0
100
AcDbArc
 50
0.0
 51
89.999126
  0
ARC
  5
18A
100
AcDbEntity
  8
M0
 62
   114
100
AcDbCircle
 10
105.520382
 20
724.115895
 40
0.5
100
AcDbArc
 50
0.028086
 51
89.998251
  0
LINE
  5
18B
100
AcDbEntity
  8
M0
 62
   114
100
AcDbLine
 10
202.520413
 20
723.915699
 11
202.520382
 21
706.115879
  0
ARC
  5
18C
100
AcDbEntity
  8
M0
 62
   114
100
AcDbCircle
 10
202.020382
 20
706.115879
 40
0.5
100
AcDbArc
 50
269.998251
 51
360.0
  0
LINE
  5
18D
100
AcDbEntity
  8
M0
 62
   114
100
AcDbLine
 10
192.720379
 20
685.115879
 11
199.520382
 21
685.115864
  0
ARC
  5
18E
100
AcDbEntity
  8
M0
 62
   114
100
AcDbCircle
 10
199.520382
 20
687.615864
 40
2.5
100
AcDbArc
 50
-90.00035
 51
0.0
  0
LINE
  5
18F
100
AcDbEntity
  8
M0
 62
   114
100
AcDbLine
 10
210.520382
 20
705.615895
 11
202.020382
 21
705.615879
  0
LINE
  5
190
100
AcDbEntity
  8
M0
 62
   114
100
AcDbLine
 10
192.720364
 20
776.115834
 11
200.020382
 21
776.115834
  0
LINE
  5
191
100
AcDbEntity
  8
M0
 62
   114
100
AcDbLine
 10
214.520382
 20
703.115879
 11
211.020382
 21
703.115879
  0
LINE
  5
192
100
AcDbEntity
  8
M0
 62
   114
100
AcDbLine
 10
206.520382
 20
733.365895
 11
206.520382
 21
727.865895
  0
LINE
  5
193
100
AcDbEntity
  8
M0
 62
   114
100
AcDbLine
 10
214.520382
 20
734.365895
 11
207.520382
 21
734.365895
  0
LINE
  5
194
100
AcDbEntity
  8
M0
 62
   114
100
AcDbLine
 10
214.520382
 20
726.865895
 11
207.520382
 21
726.865895
  0
ARC
  5
195
100
AcDbEntity
  8
M0
 62
   114
100
AcDbCircle
 10
207.520382
 20
727.865895
 40
1.0
100
AcDbArc
 50
179.999945
 51
269.999126
  0
ARC
  5
196
100
AcDbEntity
  8
M0
 62
   114
100
AcDbCircle
 10
207.520382
 20
733.365895
 40
1.0
100
AcDbArc
 50
90.0
 51
180.0
  0
LINE
  5
197
100
AcDbEntity
  8
M0
 62
   114
100
AcDbLine
 10
214.520382
 20
733.365635
 11
210.520382
 21
733.365879
  0
LINE
  5
198
100
AcDbEntity
  8
M0
 62
   114
100
AcDbLine
 10
214.520382
 20
727.865635
 11
210.520382
 21
727.865879
  0
LINE
  5
199
100
AcDbEntity
  8
M0
 62
   114
100
AcDbLine
 10
210.520382
 20
734.365895
 11
210.520382
 21
733.365895
  0
LINE
  5
19A
100
AcDbEntity
  8
M0
 62
   114
100
AcDbLine
 10
210.520382
 20
727.865895
 11
210.520382
 21
726.865895
  0
LINE
  5
19B
100
AcDbEntity
  8
M0
 62
   114
100
AcDbLine
 10
214.020382
 20
748.115635
 11
211.020382
 21
748.115635
  0
LINE
  5
19C
100
AcDbEntity
  8
M0
 62
   114
100
AcDbLine
 10
214.020382
 20
713.115879
 11
211.020382
 21
713.115879
  0
LINE
  5
19D
100
AcDbEntity
  8
M0
 62
   114
100
AcDbLine
 10
214.020382
 20
758.115635
 11
211.020382
 21
758.115635
  0
LINE
  5
19E
100
AcDbEntity
  8
M0
 62
   114
100
AcDbLine
 10
214.520382
 20
700.615879
 11
204.020397
 21
700.615879
  0
ARC
  5
19F
100
AcDbEntity
  8
M0
 62
   114
100
AcDbCircle
 10
204.020397
 20
698.615879
 40
2.0
100
AcDbArc
 50
90.0
 51
179.999563
  0
LINE
  5
1A0
100
AcDbEntity
  8
M0
 62
   114
100
AcDbLine
 10
210.520382
 20
703.615879
 11
210.520382
 21
723.915943
  0
ARC
  5
1A1
100
AcDbEntity
  8
M0
 62
   114
100
AcDbCircle
 10
211.020382
 20
757.615834
 40
0.5
100
AcDbArc
 50
90.0
 51
180.0
  0
ARC
  5
1A2
100
AcDbEntity
  8
M0
 62
   114
100
AcDbCircle
 10
211.020382
 20
747.615834
 40
0.5
100
AcDbArc
 50
90.0
 51
180.0
  0
ARC
  5
1A3
100
AcDbEntity
  8
M0
 62
   114
100
AcDbCircle
 10
211.020382
 20
713.615895
 40
0.5
100
AcDbArc
 50
179.998251
 51
269.998251
  0
ARC
  5
1A4
100
AcDbEntity
  8
M0
 62
   114
100
AcDbCircle
 10
211.020382
 20
703.615879
 40
0.5
100
AcDbArc
 50
179.998251
 51
269.998251
  0
LINE
  5
1A5
100
AcDbEntity
  8
M0
 62
   114
100
AcDbLine
 10
210.520382
 20
755.615834
 11
202.020382
 21
755.615589
  0
LINE
  5
1A6
100
AcDbEntity
  8
M0
 62
   114
100
AcDbLine
 10
210.520382
 20
705.615895
 11
202.020382
 21
705.615879
  0
LINE
  5
1A7
100
AcDbEntity
  8
M0
 62
   114
100
AcDbLine
 10
210.520382
 20
745.115834
 11
209.670376
 21
745.115589
  0
ARC
  5
1A8
100
AcDbEntity
  8
M0
  6
DASHED
 62
   114
100
AcDbCircle
 10
209.520382
 20
737.315785
 40
1.0
100
AcDbArc
 50
-90.000874
 51
0.0
  0
ARC
  5
1A9
100
AcDbEntity
  8
M0
 62
   114
100
AcDbCircle
 10
209.520382
 20
737.615834
 40
1.0
100
AcDbArc
 50
-90.000874
 51
0.0
  0
LINE
  5
1AA
100
AcDbEntity
  8
M0
 62
   114
100
AcDbLine
 10
210.520382
 20
738.615834
 11
210.020382
 21
738.615834
  0
LINE
  5
1AB
100
AcDbEntity
  8
M0
 62
   114
100
AcDbLine
 10
210.520382
 20
754.715687
 11
209.670376
 21
754.715443
  0
LINE
  5
1AC
100
AcDbEntity
  8
M0
 62
   114
100
AcDbLine
 10
203.020382
 20
737.115589
 11
203.020382
 21
738.615834
  0
LINE
  5
1AD
100
AcDbEntity
  8
M0
 62
   114
100
AcDbLine
 10
210.020382
 20
737.115834
 11
210.020382
 21
738.615834
  0
LINE
  5
1AE
100
AcDbEntity
  8
M0
 62
   114
100
AcDbLine
 10
210.520382
 20
740.115834
 11
210.020382
 21
738.615834
  0
LINE
  5
1AF
100
AcDbEntity
  8
M0
 62
   114
100
AcDbLine
 10
202.520382
 20
740.115834
 11
203.020382
 21
738.615834
  0
ARC
  5
1B0
100
AcDbEntity
  8
M0
 62
   114
100
AcDbCircle
 10
209.520382
 20
737.115834
 40
0.5
100
AcDbArc
 50
-90.001749
 51
0.0
  0
LINE
  5
1B1
100
AcDbEntity
  8
M0
 62
   114
100
AcDbLine
 10
203.020382
 20
738.615834
 11
202.520382
 21
738.615834
  0
LINE
  5
1B2
100
AcDbEntity
  8
M0
 62
   114
100
AcDbLine
 10
209.770382
 20
745.415638
 11
209.670376
 21
745.415394
  0
LINE
  5
1B3
100
AcDbEntity
  8
M0
 62
   114
100
AcDbLine
 10
210.520382
 20
746.615834
 11
210.020382
 21
746.615589
  0
LINE
  5
1B4
100
AcDbEntity
  8
M0
 62
   114
100
AcDbLine
 10
209.770382
 20
745.115834
 11
209.770382
 21
746.115589
  0
LINE
  5
1B5
100
AcDbEntity
  8
M0
 62
   114
100
AcDbLine
 10
203.270382
 20
746.115834
 11
203.270382
 21
745.115834
  0
ARC
  5
1B6
100
AcDbEntity
  8
M0
 62
   114
100
AcDbCircle
 10
210.270382
 20
746.115834
 40
0.5
100
AcDbArc
 50
90.0
 51
180.055953
  0
ARC
  5
1B7
100
AcDbEntity
  8
M0
 62
   114
100
AcDbCircle
 10
202.770382
 20
746.115834
 40
0.5
100
AcDbArc
 50
0.0
 51
90.0
  0
LINE
  5
1B8
100
AcDbEntity
  8
M0
 62
   114
100
AcDbLine
 10
203.020382
 20
746.615589
 11
202.520382
 21
746.615834
  0
LINE
  5
1B9
100
AcDbEntity
  8
M0
 62
   114
100
AcDbLine
 10
203.020382
 20
748.215687
 11
203.020382
 21
746.615834
  0
LINE
  5
1BA
100
AcDbEntity
  8
M0
 62
   114
100
AcDbLine
 10
210.020382
 20
748.215687
 11
210.020382
 21
746.615834
  0
LINE
  5
1BB
100
AcDbEntity
  8
M0
 62
   114
100
AcDbLine
 10
210.520382
 20
748.215687
 11
210.020382
 21
748.215687
  0
LINE
  5
1BC
100
AcDbEntity
  8
M0
 62
   114
100
AcDbLine
 10
210.520382
 20
749.715687
 11
210.020382
 21
748.215687
  0
LINE
  5
1BD
100
AcDbEntity
  8
M0
 62
   114
100
AcDbLine
 10
202.520382
 20
749.715687
 11
203.020382
 21
748.215687
  0
LINE
  5
1BE
100
AcDbEntity
  8
M0
 62
   114
100
AcDbLine
 10
203.020382
 20
748.215687
 11
202.520382
 21
748.215687
  0
LINE
  5
1BF
100
AcDbEntity
  8
M0
 62
   114
100
AcDbLine
 10
210.520382
 20
737.315785
 11
210.520382
 21
757.615834
  0
LINE
  5
1C0
100
AcDbEntity
  8
M0
 62
   114
100
AcDbLine
 10
211.520382
 20
760.615589
 11
211.520382
 21
758.115834
  0
LINE
  5
1C1
100
AcDbEntity
  8
M0
 62
   114
100
AcDbLine
 10
214.520382
 20
760.615834
 11
211.520382
 21
760.615834
  0
LINE
  5
1C2
100
AcDbEntity
  8
M0
 62
   114
100
AcDbLine
 10
211.520382
 20
703.115879
 11
211.520382
 21
700.615879
  0
LINE
  5
1C3
100
AcDbEntity
  8
M0
  6
DASHED
 62
   114
100
AcDbLine
 10
209.520382
 20
736.315785
 11
203.520382
 21
736.315785
  0
LINE
  5
1C4
100
AcDbEntity
  8
M0
 62
   114
100
AcDbLine
 10
209.520382
 20
736.615834
 11
203.520382
 21
736.615834
  0
ARC
  5
1C5
100
AcDbEntity
  8
M0
 62
   114
100
AcDbCircle
 10
203.520382
 20
737.615834
 40
1.0
100
AcDbArc
 50
180.0
 51
269.999126
  0
ARC
  5
1C6
100
AcDbEntity
  8
M0
  6
DASHED
 62
   114
100
AcDbCircle
 10
203.520382
 20
737.315785
 40
1.0
100
AcDbArc
 50
180.0
 51
269.999126
  0
ARC
  5
1C7
100
AcDbEntity
  8
M0
 62
   114
100
AcDbCircle
 10
203.520382
 20
737.115834
 40
0.5
100
AcDbArc
 50
180.055953
 51
269.998251
  0
LINE
  5
1C8
100
AcDbEntity
  8
M0
 62
   114
100
AcDbLine
 10
210.520382
 20
716.115895
 11
209.670376
 21
716.115879
  0
ARC
  5
1C9
100
AcDbEntity
  8
M0
  6
DASHED
 62
   114
100
AcDbCircle
 10
209.520382
 20
723.915943
 40
1.0
100
AcDbArc
 50
0.0
 51
90.0
  0
ARC
  5
1CA
100
AcDbEntity
  8
M0
 62
   114
100
AcDbCircle
 10
209.520382
 20
723.615895
 40
1.0
100
AcDbArc
 50
0.0
 51
90.0
  0
LINE
  5
1CB
100
AcDbEntity
  8
M0
 62
   114
100
AcDbLine
 10
210.520382
 20
722.615895
 11
210.020382
 21
722.615895
  0
LINE
  5
1CC
100
AcDbEntity
  8
M0
 62
   114
100
AcDbLine
 10
210.520382
 20
706.516041
 11
209.920376
 21
706.516026
  0
LINE
  5
1CD
100
AcDbEntity
  8
M0
 62
   114
100
AcDbLine
 10
203.020382
 20
724.116139
 11
203.020382
 21
722.615895
  0
LINE
  5
1CE
100
AcDbEntity
  8
M0
 62
   114
100
AcDbLine
 10
210.020382
 20
724.115895
 11
210.020382
 21
722.615895
  0
LINE
  5
1CF
100
AcDbEntity
  8
M0
 62
   114
100
AcDbLine
 10
210.520382
 20
721.115895
 11
210.020382
 21
722.615895
  0
LINE
  5
1D0
100
AcDbEntity
  8
M0
 62
   114
100
AcDbLine
 10
202.520382
 20
721.115895
 11
203.020382
 21
722.615895
  0
ARC
  5
1D1
100
AcDbEntity
  8
M0
 62
   114
100
AcDbCircle
 10
209.520382
 20
724.115895
 40
0.5
100
AcDbArc
 50
0.0
 51
90.0
  0
LINE
  5
1D2
100
AcDbEntity
  8
M0
 62
   114
100
AcDbLine
 10
203.020382
 20
722.615895
 11
202.520382
 21
722.615895
  0
LINE
  5
1D3
100
AcDbEntity
  8
M0
 62
   114
100
AcDbLine
 10
209.770382
 20
715.81609
 11
209.670376
 21
715.816075
  0
LINE
  5
1D4
100
AcDbEntity
  8
M0
 62
   114
100
AcDbLine
 10
210.520382
 20
714.615895
 11
210.020382
 21
714.615879
  0
LINE
  5
1D5
100
AcDbEntity
  8
M0
 62
   114
100
AcDbLine
 10
209.770382
 20
716.115895
 11
209.770382
 21
715.116139
  0
LINE
  5
1D6
100
AcDbEntity
  8
M0
 62
   114
100
AcDbLine
 10
203.270382
 20
715.115895
 11
203.270382
 21
716.115895
  0
ARC
  5
1D7
100
AcDbEntity
  8
M0
 62
   114
100
AcDbCircle
 10
210.270382
 20
715.115895
 40
0.5
100
AcDbArc
 50
179.971477
 51
269.998251
  0
ARC
  5
1D8
100
AcDbEntity
  8
M0
 62
   114
100
AcDbCircle
 10
202.770382
 20
715.115895
 40
0.5
100
AcDbArc
 50
269.998251
 51
359.972023
  0
LINE
  5
1D9
100
AcDbEntity
  8
M0
 62
   114
100
AcDbLine
 10
203.020382
 20
714.615879
 11
202.520382
 21
714.615895
  0
LINE
  5
1DA
100
AcDbEntity
  8
M0
 62
   114
100
AcDbLine
 10
203.020382
 20
713.016041
 11
203.020382
 21
714.615895
  0
LINE
  5
1DB
100
AcDbEntity
  8
M0
 62
   114
100
AcDbLine
 10
210.020382
 20
713.016041
 11
210.020382
 21
714.615895
  0
LINE
  5
1DC
100
AcDbEntity
  8
M0
 62
   114
100
AcDbLine
 10
210.520382
 20
713.016041
 11
210.020382
 21
713.016041
  0
LINE
  5
1DD
100
AcDbEntity
  8
M0
 62
   114
100
AcDbLine
 10
210.520382
 20
711.516041
 11
210.020382
 21
713.016041
  0
LINE
  5
1DE
100
AcDbEntity
  8
M0
 62
   114
100
AcDbLine
 10
202.520382
 20
711.516041
 11
203.020382
 21
713.016041
  0
LINE
  5
1DF
100
AcDbEntity
  8
M0
 62
   114
100
AcDbLine
 10
203.020382
 20
713.016041
 11
202.520382
 21
713.016041
  0
LINE
  5
1E0
100
AcDbEntity
  8
M0
  6
DASHED
 62
   114
100
AcDbLine
 10
209.520382
 20
724.915943
 11
203.520382
 21
724.915943
  0
LINE
  5
1E1
100
AcDbEntity
  8
M0
 62
   114
100
AcDbLine
 10
209.520382
 20
724.615895
 11
203.520382
 21
724.615895
  0
ARC
  5
1E2
100
AcDbEntity
  8
M0
 62
   114
100
AcDbCircle
 10
203.520382
 20
723.615895
 40
1.0
100
AcDbArc
 50
90.0
 51
179.999945
  0
ARC
  5
1E3
100
AcDbEntity
  8
M0
  6
DASHED
 62
   114
100
AcDbCircle
 10
203.520382
 20
723.915943
 40
1.0
100
AcDbArc
 50
90.0
 51
179.999945
  0
ARC
  5
1E4
100
AcDbEntity
  8
M0
 62
   114
100
AcDbCircle
 10
203.520382
 20
724.115895
 40
0.5
100
AcDbArc
 50
90.0
 51
179.999891
  0
ARC
  5
1E5
100
AcDbEntity
  8
M0
 62
   114
100
AcDbCircle
 10
200.020382
 20
774.115834
 40
2.0
100
AcDbArc
 50
0.0
 51
90.0
  0
ARC
  5
1E6
100
AcDbEntity
  8
M0
 62
   114
100
AcDbCircle
 10
144.159985
 20
675.615895
 40
0.5
100
AcDbArc
 50
270.0
 51
341.565328
  0
ARC
  5
1E7
100
AcDbEntity
  8
M0
 62
   114
100
AcDbCircle
 10
164.880749
 20
675.615895
 40
0.5
100
AcDbArc
 50
198.430975
 51
270.0
  0
LINE
  5
1E8
100
AcDbEntity
  8
M0
 62
   114
100
AcDbLine
 10
182.220349
 20
794.115589
 11
169.520382
 21
794.115589
  0
LINE
  5
1E9
100
AcDbEntity
  8
M0
 62
   114
100
AcDbLine
 10
168.520382
 20
805.615589
 11
164.520428
 21
805.615345
  0
ARC
  5
1EA
100
AcDbEntity
  8
M0
 62
   114
100
AcDbCircle
 10
96.520382
 20
792.115589
 40
2.0
100
AcDbArc
 50
89.999563
 51
180.006994
  0
ARC
  5
1EB
100
AcDbEntity
  8
M0
 62
   114
100
AcDbCircle
 10
168.520382
 20
804.615345
 40
1.0
100
AcDbArc
 50
0.0
 51
90.0
  0
ARC
  5
1EC
100
AcDbEntity
  8
M0
 62
   114
100
AcDbCircle
 10
140.520382
 20
804.615345
 40
1.0
100
AcDbArc
 50
90.0
 51
180.0
  0
LINE
  5
1ED
100
AcDbEntity
  8
M0
 62
   114
100
AcDbLine
 10
139.520382
 20
794.115589
 11
126.820431
 21
794.115345
  0
TEXT
  5
1EE
100
AcDbEntity
  8
M0
 62
   114
100
AcDbText
 10
141.770353
 20
799.615071
 40
4.0
  1
Ｃ
 41
0.625003
  7
STANDARD
100
AcDbText
  0
TEXT
  5
1EF
100
AcDbEntity
  8
M0
 62
   114
100
AcDbText
 10
162.770353
 20
799.615071
 40
4.0
  1
　１
 41
0.625003
  7
STANDARD
100
AcDbText
  0
LINE
  5
1F0
100
AcDbEntity
  8
M0
 62
   114
100
AcDbLine
 10
139.520382
 20
796.115589
 11
144.520489
 21
796.115589
  0
LINE
  5
1F1
100
AcDbEntity
  8
M0
 62
   114
100
AcDbLine
 10
154.578503
 20
693.599186
 11
154.520382
 21
693.565876
  0
LINE
  5
1F2
100
AcDbEntity
  8
M0
 62
   114
100
AcDbLine
 10
176.720364
 20
786.115834
 11
181.043667
 21
786.115834
  0
LINE
  5
1F3
100
AcDbEntity
  8
M0
 62
   114
100
AcDbLine
 10
142.020474
 20
786.115834
 11
145.226437
 21
786.115834
  0
LINE
  5
1F4
100
AcDbEntity
  8
M0
 62
   114
100
AcDbLine
 10
176.720471
 20
675.115895
 11
181.044094
 21
675.115895
  0
LINE
  5
1F5
100
AcDbEntity
  8
M0
 62
   114
100
AcDbLine
 10
106.820431
 20
794.115345
 11
96.520382
 21
794.115589
  0
LINE
  5
1F6
100
AcDbEntity
  8
M0
 62
   114
100
AcDbLine
 10
163.81477
 20
786.115834
 11
167.020474
 21
786.115834
  0
LINE
  5
1F7
100
AcDbEntity
  8
M0
 62
   114
100
AcDbLine
 10
164.520428
 20
796.115589
 11
169.520382
 21
796.115589
  0
LINE
  5
1F8
100
AcDbEntity
  8
M0
 62
   114
100
AcDbLine
 10
144.520489
 20
805.615345
 11
140.520382
 21
805.615589
  0
LINE
  5
1F9
100
AcDbEntity
  8
M0
 62
   114
100
AcDbLine
 10
105.670376
 20
745.115834
 11
106.520382
 21
745.115834
  0
LINE
  5
1FA
100
AcDbEntity
  8
M0
 62
   114
100
AcDbLine
 10
105.670376
 20
745.415638
 11
105.770382
 21
745.415638
  0
LINE
  5
1FB
100
AcDbEntity
  8
M0
 62
   114
100
AcDbLine
 10
106.020382
 20
746.615834
 11
106.520382
 21
746.615834
  0
LINE
  5
1FC
100
AcDbEntity
  8
M0
 62
   114
100
AcDbLine
 10
105.670376
 20
754.715687
 11
106.520382
 21
754.715687
  0
LINE
  5
1FD
100
AcDbEntity
  8
M0
 62
   114
100
AcDbLine
 10
203.120373
 20
754.715443
 11
202.520382
 21
754.715687
  0
LINE
  5
1FE
100
AcDbEntity
  8
M0
 62
   114
100
AcDbLine
 10
203.370373
 20
745.415394
 11
203.270382
 21
745.415638
  0
LINE
  5
1FF
100
AcDbEntity
  8
M0
 62
   114
100
AcDbLine
 10
203.370373
 20
745.115589
 11
202.520382
 21
745.115834
  0
LINE
  5
200
100
AcDbEntity
  8
M0
 62
   114
100
AcDbLine
 10
203.370373
 20
716.115879
 11
202.520382
 21
716.115895
  0
LINE
  5
201
100
AcDbEntity
  8
M0
 62
   114
100
AcDbLine
 10
203.370373
 20
715.816075
 11
203.270382
 21
715.81609
  0
LINE
  5
202
100
AcDbEntity
  8
M0
 62
   114
100
AcDbLine
 10
203.370373
 20
706.516026
 11
202.520382
 21
706.516041
  0
LINE
  5
203
100
AcDbEntity
  8
M0
 62
   114
100
AcDbLine
 10
105.920376
 20
706.516041
 11
106.520382
 21
706.516041
  0
LINE
  5
204
100
AcDbEntity
  8
M0
 62
   114
100
AcDbLine
 10
105.670376
 20
715.81609
 11
105.770382
 21
715.81609
  0
LINE
  5
205
100
AcDbEntity
  8
M0
 62
   114
100
AcDbLine
 10
105.670376
 20
716.115895
 11
106.520382
 21
716.115895
  0
ARC
  5
206
100
AcDbEntity
  8
M0
 62
   114
100
AcDbCircle
 10
214.020382
 20
747.615391
 40
0.5
100
AcDbArc
 50
0.0
 51
90.0
  0
ARC
  5
207
100
AcDbEntity
  8
M0
 62
   114
100
AcDbCircle
 10
214.020382
 20
757.615391
 40
0.5
100
AcDbArc
 50
0.0
 51
90.0
  0
ARC
  5
208
100
AcDbEntity
  8
M0
 62
   114
100
AcDbCircle
 10
214.020382
 20
713.615635
 40
0.5
100
AcDbArc
 50
269.998251
 51
360.0
  0
LINE
  5
209
100
AcDbEntity
  8
M0
 62
   114
100
AcDbLine
 10
214.520779
 20
663.615437
 11
214.520779
 21
797.614765
  0
LINE
  5
20A
100
AcDbEntity
  8
M0
 62
   114
100
AcDbLine
 10
206.520764
 20
805.615254
 11
202.220242
 21
805.614796
  0
LINE
  5
20B
100
AcDbEntity
  8
M0
 62
   114
100
AcDbLine
 10
94.520779
 20
797.61501
 11
94.520779
 21
663.615452
  0
ARC
  5
20C
100
AcDbEntity
  8
M0
 62
   114
100
AcDbCircle
 10
102.520779
 20
797.61501
 40
8.0
100
AcDbArc
 50
89.999891
 51
180.0
  0
ARC
  5
20D
100
AcDbEntity
  8
M0
 62
   114
100
AcDbCircle
 10
102.520779
 20
663.615452
 40
8.0
100
AcDbArc
 50
179.999891
 51
270.0
  0
ARC
  5
20E
100
AcDbEntity
  8
M0
 62
   114
100
AcDbCircle
 10
206.520779
 20
663.615452
 40
8.0
100
AcDbArc
 50
269.999891
 51
360.0
  0
ARC
  5
20F
100
AcDbEntity
  8
M0
 62
   114
100
AcDbCircle
 10
206.520779
 20
797.61501
 40
8.0
100
AcDbArc
 50
0.0
 51
90.0
  0
LINE
  5
210
100
AcDbEntity
  8
M0
 62
   114
100
AcDbLine
 10
107.020779
 20
677.115452
 11
107.020779
 21
681.615437
  0
ARC
  5
211
100
AcDbEntity
  8
M0
 62
   114
100
AcDbCircle
 10
109.020779
 20
677.115452
 40
2.0
100
AcDbArc
 50
179.999563
 51
260.210908
  0
LINE
  5
212
100
AcDbEntity
  8
M0
 62
   114
100
AcDbLine
 10
96.520779
 20
682.615452
 11
106.020779
 21
682.615452
  0
ARC
  5
213
100
AcDbEntity
  8
M0
 62
   114
100
AcDbCircle
 10
96.520779
 20
684.615452
 40
2.0
100
AcDbArc
 50
179.999563
 51
270.0
  0
ARC
  5
214
100
AcDbEntity
  8
M0
 62
   114
100
AcDbCircle
 10
106.020779
 20
681.615452
 40
1.0
100
AcDbArc
 50
0.0
 51
89.999126
  0
LINE
  5
215
100
AcDbEntity
  8
M0
 62
   114
100
AcDbLine
 10
177.520779
 20
794.114552
 11
177.520779
 21
803.114552
  0
LINE
  5
216
100
AcDbEntity
  8
M0
 62
   114
100
AcDbLine
 10
169.520779
 20
794.11504
 11
169.520779
 21
803.614308
  0
LINE
  5
217
100
AcDbEntity
  8
M0
 62
   114
100
AcDbLine
 10
181.520779
 20
797.11501
 11
181.520779
 21
804.614765
  0
ARC
  5
218
100
AcDbEntity
  8
M0
 62
   114
100
AcDbCircle
 10
184.520779
 20
797.114796
 40
3.0
100
AcDbArc
 50
180.0
 51
219.928703
  0
ARC
  5
219
100
AcDbEntity
  8
M0
 62
   114
100
AcDbCircle
 10
180.520779
 20
804.61501
 40
1.0
100
AcDbArc
 50
359.98164
 51
450.0
  0
ARC
  5
21A
100
AcDbEntity
  8
M0
 62
   114
100
AcDbCircle
 10
181.020779
 20
803.114765
 40
0.5
100
AcDbArc
 50
359.96328
 51
450.0
  0
LINE
  5
21B
100
AcDbEntity
  8
M0
 62
   114
100
AcDbLine
 10
202.020779
 20
677.115452
 11
202.020779
 21
681.615437
  0
ARC
  5
21C
100
AcDbEntity
  8
M0
 62
   114
100
AcDbCircle
 10
200.020779
 20
677.115452
 40
2.0
100
AcDbArc
 50
-80.242385
 51
0.0
  0
LINE
  5
21D
100
AcDbEntity
  8
M0
 62
   114
100
AcDbLine
 10
212.520779
 20
682.615452
 11
203.020779
 21
682.615452
  0
ARC
  5
21E
100
AcDbEntity
  8
M0
 62
   114
100
AcDbCircle
 10
212.520779
 20
684.615452
 40
2.0
100
AcDbArc
 50
-90.000437
 51
0.0
  0
ARC
  5
21F
100
AcDbEntity
  8
M0
 62
   114
100
AcDbCircle
 10
203.020779
 20
681.615452
 40
1.0
100
AcDbArc
 50
90.0
 51
179.999126
  0
LINE
  5
220
100
AcDbEntity
  8
M0
 62
   114
100
AcDbLine
 10
98.520779
 20
748.115254
 11
98.520779
 21
752.865254
  0
LINE
  5
221
100
AcDbEntity
  8
M0
 62
   114
100
AcDbLine
 10
182.220211
 20
794.114796
 11
181.020779
 21
794.11504
  0
LINE
  5
222
100
AcDbEntity
  8
M0
 62
   114
100
AcDbLine
 10
212.520779
 20
787.61504
 11
201.761822
 21
787.614796
  0
ARC
  5
223
100
AcDbEntity
  8
M0
 62
   114
100
AcDbCircle
 10
212.520779
 20
785.615254
 40
2.0
100
AcDbArc
 50
0.0
 51
90.0
  0
LINE
  5
224
100
AcDbEntity
  8
M0
 62
   114
100
AcDbLine
 10
169.520779
 20
794.115254
 11
177.520779
 21
794.115254
  0
LINE
  5
225
100
AcDbEntity
  8
M0
 62
   114
100
AcDbLine
 10
181.020779
 20
803.61501
 11
178.020779
 21
803.61501
  0
ARC
  5
226
100
AcDbEntity
  8
M0
 62
   114
100
AcDbCircle
 10
178.020779
 20
803.114765
 40
0.5
100
AcDbArc
 50
90.0
 51
180.0
  0
LINE
  5
227
100
AcDbEntity
  8
M0
 62
   114
100
AcDbLine
 10
131.520779
 20
794.114308
 11
131.520779
 21
803.114552
  0
LINE
  5
228
100
AcDbEntity
  8
M0
 62
   114
100
AcDbLine
 10
139.520779
 20
794.114796
 11
139.520779
 21
803.614308
  0
LINE
  5
229
100
AcDbEntity
  8
M0
 62
   114
100
AcDbLine
 10
127.520779
 20
797.11501
 11
127.520779
 21
804.614765
  0
ARC
  5
22A
100
AcDbEntity
  8
M0
 62
   114
100
AcDbCircle
 10
124.520779
 20
797.114796
 40
3.0
100
AcDbArc
 50
-39.959523
 51
0.0
  0
ARC
  5
22B
100
AcDbEntity
  8
M0
 62
   114
100
AcDbCircle
 10
128.520779
 20
804.61501
 40
1.0
100
AcDbArc
 50
89.999126
 51
180.027977
  0
ARC
  5
22C
100
AcDbEntity
  8
M0
 62
   114
100
AcDbCircle
 10
128.020779
 20
803.114765
 40
0.5
100
AcDbArc
 50
89.998251
 51
180.055955
  0
LINE
  5
22D
100
AcDbEntity
  8
M0
 62
   114
100
AcDbLine
 10
139.520779
 20
794.115254
 11
131.520779
 21
794.115254
  0
LINE
  5
22E
100
AcDbEntity
  8
M0
 62
   114
100
AcDbLine
 10
128.020779
 20
803.61501
 11
131.020779
 21
803.61501
  0
ARC
  5
22F
100
AcDbEntity
  8
M0
 62
   114
100
AcDbCircle
 10
131.020779
 20
803.114765
 40
0.5
100
AcDbArc
 50
0.0
 51
89.998251
  0
ARC
  5
230
100
AcDbEntity
  8
M0
 62
   114
100
AcDbCircle
 10
99.020779
 20
803.114765
 40
0.5
100
AcDbArc
 50
0.0
 51
89.998251
  0
LINE
  5
231
100
AcDbEntity
  8
M0
 62
   114
100
AcDbLine
 10
99.520779
 20
794.11504
 11
99.520779
 21
803.114552
  0
LINE
  5
232
100
AcDbEntity
  8
M0
 62
   114
100
AcDbLine
 10
99.020779
 20
803.61501
 11
97.229275
 21
803.61501
  0
LINE
  5
233
100
AcDbEntity
  8
M0
 62
   114
100
AcDbLine
 10
99.520779
 20
802.61504
 11
106.820294
 21
802.61504
  0
LINE
  5
234
100
AcDbEntity
  8
M0
 62
   114
100
AcDbLine
 10
131.520779
 20
802.615254
 11
139.520779
 21
802.615254
  0
LINE
  5
235
100
AcDbEntity
  8
M0
 62
   114
100
AcDbLine
 10
169.520779
 20
802.615254
 11
177.520779
 21
802.615254
  0
LINE
  5
236
100
AcDbEntity
  8
M0
 62
   114
100
AcDbLine
 10
106.820294
 20
805.614796
 11
102.520779
 21
805.61501
  0
LINE
  5
237
100
AcDbEntity
  8
M0
 62
   114
100
AcDbLine
 10
182.220211
 20
805.614796
 11
164.520291
 21
805.614552
  0
LINE
  5
238
100
AcDbEntity
  8
M0
 62
   114
100
AcDbLine
 10
202.220455
 20
655.615452
 11
206.520779
 21
655.615452
  0
LINE
  5
239
100
AcDbEntity
  8
M0
 62
   114
100
AcDbLine
 10
144.520352
 20
805.614552
 11
126.820294
 21
805.614796
  0
CIRCLE
  5
23A
100
AcDbEntity
  8
M0
 62
   114
100
AcDbCircle
 10
192.220471
 20
663.115116
 40
3.999995
  0
CIRCLE
  5
23B
100
AcDbEntity
  8
M0
 62
   114
100
AcDbCircle
 10
192.220471
 20
663.115116
 40
3.499995
  0
LINE
  5
23C
100
AcDbEntity
  8
M0
 62
   114
100
AcDbLine
 10
177.220227
 20
681.614659
 11
177.220227
 21
684.981312
  0
LINE
  5
23D
100
AcDbEntity
  8
M0
 62
   114
100
AcDbLine
 10
177.220242
 20
681.614887
 11
182.220471
 21
673.114887
  0
LINE
  5
23E
100
AcDbEntity
  8
M0
 62
   114
100
AcDbLine
 10
191.220242
 20
685.114872
 11
202.220227
 21
673.114872
  0
CIRCLE
  5
23F
100
AcDbEntity
  8
M0
 62
   114
100
AcDbCircle
 10
116.819958
 20
663.115177
 40
3.999995
  0
CIRCLE
  5
240
100
AcDbEntity
  8
M0
 62
   114
100
AcDbCircle
 10
116.819958
 20
663.115177
 40
3.499995
  0
LINE
  5
241
100
AcDbEntity
  8
M0
 62
   114
100
AcDbLine
 10
126.819943
 20
673.115147
 11
126.819943
 21
664.321949
  0
LINE
  5
242
100
AcDbEntity
  8
M0
 62
   114
100
AcDbLine
 10
164.52026
 20
655.615452
 11
182.220425
 21
655.615452
  0
LINE
  5
243
100
AcDbEntity
  8
M0
 62
   114
100
AcDbLine
 10
126.820294
 20
655.615452
 11
144.520291
 21
655.615452
  0
LINE
  5
244
100
AcDbEntity
  8
M0
 62
   114
100
AcDbLine
 10
102.520779
 20
655.615452
 11
106.819928
 21
655.615452
  0
LINE
  5
245
100
AcDbEntity
  8
M0
 62
   114
100
AcDbLine
 10
200.041134
 20
654.114887
 11
202.22041
 21
654.114872
  0
LINE
  5
246
100
AcDbEntity
  8
M0
 62
   114
100
AcDbLine
 10
202.220455
 20
654.114872
 11
202.220425
 21
661.408238
  0
LINE
  5
247
100
AcDbEntity
  8
M0
 62
   114
100
AcDbLine
 10
108.483639
 20
654.114887
 11
106.819912
 21
654.114979
  0
LINE
  5
248
100
AcDbEntity
  8
M0
 62
   114
100
AcDbLine
 10
182.22044
 20
673.115147
 11
182.220425
 21
654.116764
  0
LINE
  5
249
100
AcDbEntity
  8
M0
 62
   114
100
AcDbLine
 10
202.22102
 20
654.117008
 11
202.220227
 21
673.114872
  0
LINE
  5
24A
100
AcDbEntity
  8
M0
 62
   114
100
AcDbLine
 10
131.820233
 20
681.614643
 11
131.820233
 21
684.981419
  0
LINE
  5
24B
100
AcDbEntity
  8
M0
 62
   114
100
AcDbLine
 10
131.820248
 20
681.614887
 11
126.819973
 21
673.114903
  0
LINE
  5
24C
100
AcDbEntity
  8
M0
 62
   114
100
AcDbLine
 10
117.820248
 20
685.114933
 11
106.820248
 21
673.114964
  0
LINE
  5
24D
100
AcDbEntity
  8
M0
 62
   114
100
AcDbLine
 10
106.819912
 20
670.525944
 11
106.820248
 21
673.114964
  0
LINE
  5
24E
100
AcDbEntity
  8
M0
 62
   114
100
AcDbLine
 10
161.520253
 20
684.981434
 11
161.520254
 21
681.615147
  0
LINE
  5
24F
100
AcDbEntity
  8
M0
 62
   114
100
AcDbLine
 10
147.520301
 20
684.981343
 11
147.520302
 21
681.615116
  0
LINE
  5
250
100
AcDbEntity
  8
M0
 62
   114
100
AcDbLine
 10
161.520254
 20
681.614887
 11
162.020347
 21
680.19785
  0
LINE
  5
251
100
AcDbEntity
  8
M0
 62
   114
100
AcDbLine
 10
147.520302
 20
681.614872
 11
147.020348
 21
680.198323
  0
CIRCLE
  5
252
100
AcDbEntity
  8
M0
 62
   114
100
AcDbCircle
 10
154.520307
 20
663.114887
 40
3.499995
  0
CIRCLE
  5
253
100
AcDbEntity
  8
M0
 62
   114
100
AcDbCircle
 10
154.520307
 20
663.114887
 40
3.999995
  0
LINE
  5
254
100
AcDbEntity
  8
M0
 62
   114
100
AcDbLine
 10
145.542307
 20
676.010548
 11
144.520305
 21
673.114872
  0
LINE
  5
255
100
AcDbEntity
  8
M0
 62
   114
100
AcDbLine
 10
163.497963
 20
676.010899
 11
164.520013
 21
673.114887
  0
CIRCLE
  5
256
100
AcDbEntity
  8
M0
 62
   114
100
AcDbCircle
 10
207.520245
 20
780.614582
 40
3.499997
  0
CIRCLE
  5
257
100
AcDbEntity
  8
M0
 62
   114
100
AcDbCircle
 10
207.520245
 20
780.614582
 40
3.999995
  0
CIRCLE
  5
258
100
AcDbEntity
  8
M0
 62
   114
100
AcDbCircle
 10
101.520245
 20
760.614582
 40
3.499997
  0
CIRCLE
  5
259
100
AcDbEntity
  8
M0
 62
   114
100
AcDbCircle
 10
101.520245
 20
760.614582
 40
3.999995
  0
CIRCLE
  5
25A
100
AcDbEntity
  8
M0
 62
   114
100
AcDbCircle
 10
101.520245
 20
690.614842
 40
3.499997
  0
CIRCLE
  5
25B
100
AcDbEntity
  8
M0
 62
   114
100
AcDbCircle
 10
101.520245
 20
690.614842
 40
3.999995
  0
CIRCLE
  5
25C
100
AcDbEntity
  8
M0
 62
   114
100
AcDbCircle
 10
207.520245
 20
690.614796
 40
3.499997
  0
CIRCLE
  5
25D
100
AcDbEntity
  8
M0
 62
   114
100
AcDbCircle
 10
207.520245
 20
690.614796
 40
3.999995
  0
CIRCLE
  5
25E
100
AcDbEntity
  8
M0
 62
   114
100
AcDbCircle
 10
139.670239
 20
779.614582
 40
3.499997
  0
CIRCLE
  5
25F
100
AcDbEntity
  8
M0
 62
   114
100
AcDbCircle
 10
139.670239
 20
779.614582
 40
3.999995
  0
CIRCLE
  5
260
100
AcDbEntity
  8
M0
 62
   114
100
AcDbCircle
 10
169.370236
 20
681.614842
 40
3.499997
  0
CIRCLE
  5
261
100
AcDbEntity
  8
M0
 62
   114
100
AcDbCircle
 10
169.370236
 20
681.614842
 40
3.999995
  0
LINE
  5
262
100
AcDbEntity
  8
M0
 62
   114
100
AcDbLine
 10
106.470806
 20
802.614567
 11
100.570797
 21
802.614582
  0
LINE
  5
263
100
AcDbEntity
  8
M0
 62
   114
100
AcDbLine
 10
99.570797
 20
801.614826
 11
99.570782
 21
794.814778
  0
LINE
  5
264
100
AcDbEntity
  8
M0
 62
   114
100
AcDbLine
 10
106.670788
 20
794.115299
 11
106.920788
 21
794.115299
  0
LINE
  5
265
100
AcDbEntity
  8
M0
 62
   114
100
AcDbLine
 10
100.37077
 20
794.114094
 11
100.37077
 21
794.315266
  0
LINE
  5
266
100
AcDbEntity
  8
M0
 62
   114
100
AcDbLine
 10
106.670773
 20
794.114079
 11
106.670773
 21
794.315006
  0
LINE
  5
267
100
AcDbEntity
  8
M0
 62
   114
100
AcDbLine
 10
99.570782
 20
794.814778
 11
99.870648
 21
794.815022
  0
ARC
  5
268
100
AcDbEntity
  8
M0
 62
   114
100
AcDbCircle
 10
99.870785
 20
794.315266
 40
0.5
100
AcDbArc
 50
0.0
 51
90.006994
  0
ARC
  5
269
100
AcDbEntity
  8
M0
 62
   114
100
AcDbCircle
 10
107.170773
 20
794.315006
 40
0.5
100
AcDbArc
 50
134.51656
 51
180.0
  0
ARC
  5
26A
100
AcDbEntity
  8
M0
 62
   114
100
AcDbCircle
 10
106.470806
 20
801.614323
 40
1.0
100
AcDbArc
 50
69.536457
 51
89.999126
  0
ARC
  5
26B
100
AcDbEntity
  8
M0
 62
   114
100
AcDbCircle
 10
100.570797
 20
801.614582
 40
1.0
100
AcDbArc
 50
89.999126
 51
179.986012
  0
LINE
  5
26C
100
AcDbEntity
  8
M0
 62
   114
100
AcDbLine
 10
138.470806
 20
802.614323
 11
132.570797
 21
802.614338
  0
LINE
  5
26D
100
AcDbEntity
  8
M0
 62
   114
100
AcDbLine
 10
131.570797
 20
801.614582
 11
131.570782
 21
794.814533
  0
LINE
  5
26E
100
AcDbEntity
  8
M0
 62
   114
100
AcDbLine
 10
144.520305
 20
673.114872
 11
144.520311
 21
655.615452
  0
LINE
  5
26F
100
AcDbEntity
  8
M0
 62
   114
100
AcDbLine
 10
164.524412
 20
655.615452
 11
164.520013
 21
673.114887
  0
LINE
  5
270
100
AcDbEntity
  8
M0
 62
   114
100
AcDbLine
 10
144.520311
 20
654.114887
 11
144.641481
 21
654.114887
  0
LINE
  5
271
100
AcDbEntity
  8
M0
 62
   114
100
AcDbLine
 10
164.520263
 20
654.114887
 11
164.520275
 21
662.815144
  0
LINE
  5
272
100
AcDbEntity
  8
M0
 62
   114
100
AcDbLine
 10
144.520311
 20
655.468815
 11
144.520311
 21
654.114887
  0
LINE
  5
273
100
AcDbEntity
  8
M0
 62
   114
100
AcDbLine
 10
163.985198
 20
654.114887
 11
164.520263
 21
654.114887
  0
LINE
  5
274
100
AcDbEntity
  8
M0
 62
   114
100
AcDbLine
 10
106.819943
 20
654.114964
 11
106.819866
 21
673.114552
  0
LINE
  5
275
100
AcDbEntity
  8
M0
 62
   114
100
AcDbLine
 10
139.470789
 20
794.814762
 11
139.470794
 21
801.614323
  0
LINE
  5
276
100
AcDbEntity
  8
M0
 62
   114
100
AcDbLine
 10
138.670786
 20
794.115055
 11
138.920786
 21
794.115055
  0
LINE
  5
277
100
AcDbEntity
  8
M0
 62
   114
100
AcDbLine
 10
132.37077
 20
794.114338
 11
132.37077
 21
794.315022
  0
LINE
  5
278
100
AcDbEntity
  8
M0
 62
   114
100
AcDbLine
 10
138.670771
 20
794.114323
 11
138.670771
 21
794.314762
  0
LINE
  5
279
100
AcDbEntity
  8
M0
 62
   114
100
AcDbLine
 10
131.570782
 20
794.814533
 11
131.870648
 21
794.814778
  0
LINE
  5
27A
100
AcDbEntity
  8
M0
 62
   114
100
AcDbLine
 10
139.170939
 20
794.814762
 11
139.470789
 21
794.814518
  0
ARC
  5
27B
100
AcDbEntity
  8
M0
 62
   114
100
AcDbCircle
 10
131.870785
 20
794.315022
 40
0.5
100
AcDbArc
 50
0.0
 51
90.006994
  0
ARC
  5
27C
100
AcDbEntity
  8
M0
 62
   114
100
AcDbCircle
 10
139.170786
 20
794.315006
 40
0.5
100
AcDbArc
 50
89.981968
 51
180.0
  0
ARC
  5
27D
100
AcDbEntity
  8
M0
 62
   114
100
AcDbCircle
 10
138.470806
 20
801.614323
 40
1.0
100
AcDbArc
 50
0.0
 51
89.999126
  0
ARC
  5
27E
100
AcDbEntity
  8
M0
 62
   114
100
AcDbCircle
 10
132.570797
 20
801.614338
 40
1.0
100
AcDbArc
 50
89.999126
 51
179.986012
  0
LINE
  5
27F
100
AcDbEntity
  8
M0
 62
   114
100
AcDbLine
 10
176.470791
 20
802.614567
 11
170.570782
 21
802.614582
  0
LINE
  5
280
100
AcDbEntity
  8
M0
 62
   114
100
AcDbLine
 10
169.570784
 20
801.614826
 11
169.57078
 21
794.814778
  0
LINE
  5
281
100
AcDbEntity
  8
M0
 62
   114
100
AcDbLine
 10
177.470776
 20
794.815006
 11
177.470791
 21
801.614567
  0
LINE
  5
282
100
AcDbEntity
  8
M0
 62
   114
100
AcDbLine
 10
176.670773
 20
794.115299
 11
176.920773
 21
794.115299
  0
LINE
  5
283
100
AcDbEntity
  8
M0
 62
   114
100
AcDbLine
 10
170.370767
 20
794.114338
 11
170.370767
 21
794.315266
  0
LINE
  5
284
100
AcDbEntity
  8
M0
 62
   114
100
AcDbLine
 10
176.670758
 20
794.114323
 11
176.670758
 21
794.315006
  0
LINE
  5
285
100
AcDbEntity
  8
M0
 62
   114
100
AcDbLine
 10
169.57078
 20
794.814778
 11
169.870646
 21
794.815022
  0
LINE
  5
286
100
AcDbEntity
  8
M0
 62
   114
100
AcDbLine
 10
177.170925
 20
794.815006
 11
177.470776
 21
794.814762
  0
ARC
  5
287
100
AcDbEntity
  8
M0
 62
   114
100
AcDbCircle
 10
169.870782
 20
794.315266
 40
0.5
100
AcDbArc
 50
0.0
 51
90.015628
  0
ARC
  5
288
100
AcDbEntity
  8
M0
 62
   114
100
AcDbCircle
 10
177.170773
 20
794.315251
 40
0.5
100
AcDbArc
 50
89.982514
 51
180.0
  0
ARC
  5
289
100
AcDbEntity
  8
M0
 62
   114
100
AcDbCircle
 10
176.470791
 20
801.614567
 40
1.0
100
AcDbArc
 50
0.0
 51
90.0
  0
ARC
  5
28A
100
AcDbEntity
  8
M0
 62
   114
100
AcDbCircle
 10
170.570782
 20
801.614582
 40
1.0
100
AcDbArc
 50
90.0
 51
179.986012
  0
LINE
  5
28B
100
AcDbEntity
  8
M0
 62
   114
100
AcDbLine
 10
99.570233
 20
746.115071
 11
105.470242
 21
746.115071
  0
LINE
  5
28C
100
AcDbEntity
  8
M0
 62
   114
100
AcDbLine
 10
106.470242
 20
749.564533
 11
106.470242
 21
753.914875
  0
LINE
  5
28D
100
AcDbEntity
  8
M0
 62
   114
100
AcDbLine
 10
105.670239
 20
755.614826
 11
99.120236
 21
755.614826
  0
LINE
  5
28E
100
AcDbEntity
  8
M0
 62
   114
100
AcDbLine
 10
98.570233
 20
753.914631
 11
98.570233
 21
749.564533
  0
LINE
  5
28F
100
AcDbEntity
  8
M0
 62
   114
100
AcDbLine
 10
99.370236
 20
754.614338
 11
99.120236
 21
754.614338
  0
LINE
  5
290
100
AcDbEntity
  8
M0
 62
   114
100
AcDbLine
 10
105.670239
 20
755.615071
 11
105.670239
 21
754.414387
  0
LINE
  5
291
100
AcDbEntity
  8
M0
 62
   114
100
AcDbLine
 10
99.370236
 20
755.615071
 11
99.370236
 21
754.414387
  0
LINE
  5
292
100
AcDbEntity
  8
M0
 62
   114
100
AcDbLine
 10
106.470242
 20
753.914875
 11
106.170376
 21
753.914631
  0
LINE
  5
293
100
AcDbEntity
  8
M0
 62
   114
100
AcDbLine
 10
98.870083
 20
753.914631
 11
98.570233
 21
753.914875
  0
ARC
  5
294
100
AcDbEntity
  8
M0
 62
   114
100
AcDbCircle
 10
106.170239
 20
754.414387
 40
0.5
100
AcDbArc
 50
180.0
 51
270.017485
  0
ARC
  5
295
100
AcDbEntity
  8
M0
 62
   114
100
AcDbCircle
 10
98.870236
 20
754.414387
 40
0.5
100
AcDbArc
 50
269.982515
 51
360.0
  0
LINE
  5
296
100
AcDbEntity
  8
M0
 62
   114
100
AcDbLine
 10
99.120236
 20
755.615071
 11
99.120236
 21
754.615071
  0
ARC
  5
297
100
AcDbEntity
  8
M0
 62
   114
100
AcDbCircle
 10
105.470242
 20
747.115071
 40
1.0
100
AcDbArc
 50
270.0
 51
287.588879
  0
ARC
  5
298
100
AcDbEntity
  8
M0
 62
   114
100
AcDbCircle
 10
99.570233
 20
747.115071
 40
1.0
100
AcDbArc
 50
252.412037
 51
270.0
  0
LINE
  5
299
100
AcDbEntity
  8
M0
 62
   114
100
AcDbLine
 10
99.570233
 20
736.615284
 11
105.470242
 21
736.615284
  0
LINE
  5
29A
100
AcDbEntity
  8
M0
 62
   114
100
AcDbLine
 10
106.470242
 20
739.964649
 11
106.470242
 21
744.415089
  0
LINE
  5
29B
100
AcDbEntity
  8
M0
 62
   114
100
AcDbLine
 10
105.670239
 20
746.11504
 11
99.270245
 21
746.114796
  0
LINE
  5
29C
100
AcDbEntity
  8
M0
 62
   114
100
AcDbLine
 10
98.570233
 20
744.414845
 11
98.570233
 21
739.964649
  0
LINE
  5
29D
100
AcDbEntity
  8
M0
 62
   114
100
AcDbLine
 10
99.370236
 20
745.114552
 11
99.120236
 21
745.114552
  0
LINE
  5
29E
100
AcDbEntity
  8
M0
 62
   114
100
AcDbLine
 10
105.670239
 20
746.115284
 11
105.670239
 21
744.914601
  0
LINE
  5
29F
100
AcDbEntity
  8
M0
 62
   114
100
AcDbLine
 10
99.370236
 20
746.115284
 11
99.370236
 21
744.914601
  0
LINE
  5
2A0
100
AcDbEntity
  8
M0
 62
   114
100
AcDbLine
 10
106.470242
 20
744.415089
 11
106.170376
 21
744.414845
  0
LINE
  5
2A1
100
AcDbEntity
  8
M0
 62
   114
100
AcDbLine
 10
98.870083
 20
744.414845
 11
98.570233
 21
744.415089
  0
ARC
  5
2A2
100
AcDbEntity
  8
M0
 62
   114
100
AcDbCircle
 10
106.170239
 20
744.914601
 40
0.5
100
AcDbArc
 50
180.0
 51
270.017485
  0
ARC
  5
2A3
100
AcDbEntity
  8
M0
 62
   114
100
AcDbCircle
 10
98.870236
 20
744.914601
 40
0.5
100
AcDbArc
 50
269.982515
 51
360.0
  0
LINE
  5
2A4
100
AcDbEntity
  8
M0
 62
   114
100
AcDbLine
 10
203.570233
 20
746.114826
 11
209.470242
 21
746.114826
  0
LINE
  5
2A5
100
AcDbEntity
  8
M0
 62
   114
100
AcDbLine
 10
210.470242
 20
749.564533
 11
210.470242
 21
753.914631
  0
LINE
  5
2A6
100
AcDbEntity
  8
M0
 62
   114
100
AcDbLine
 10
209.670239
 20
755.614582
 11
203.120236
 21
755.614582
  0
LINE
  5
2A7
100
AcDbEntity
  8
M0
 62
   114
100
AcDbLine
 10
202.570233
 20
753.914387
 11
202.570233
 21
749.564533
  0
LINE
  5
2A8
100
AcDbEntity
  8
M0
 62
   114
100
AcDbLine
 10
203.370236
 20
754.614094
 11
203.120236
 21
754.614094
  0
LINE
  5
2A9
100
AcDbEntity
  8
M0
 62
   114
100
AcDbLine
 10
209.670239
 20
755.614826
 11
209.670239
 21
754.414143
  0
LINE
  5
2AA
100
AcDbEntity
  8
M0
 62
   114
100
AcDbLine
 10
203.370236
 20
755.614826
 11
203.370236
 21
754.414143
  0
LINE
  5
2AB
100
AcDbEntity
  8
M0
 62
   114
100
AcDbLine
 10
210.470242
 20
753.914631
 11
210.170376
 21
753.914387
  0
LINE
  5
2AC
100
AcDbEntity
  8
M0
 62
   114
100
AcDbLine
 10
202.870083
 20
753.914387
 11
202.570233
 21
753.914631
  0
ARC
  5
2AD
100
AcDbEntity
  8
M0
 62
   114
100
AcDbCircle
 10
210.170239
 20
754.414143
 40
0.5
100
AcDbArc
 50
180.0
 51
270.008743
  0
ARC
  5
2AE
100
AcDbEntity
  8
M0
 62
   114
100
AcDbCircle
 10
202.870236
 20
754.414143
 40
0.5
100
AcDbArc
 50
269.973772
 51
360.0
  0
LINE
  5
2AF
100
AcDbEntity
  8
M0
 62
   114
100
AcDbLine
 10
203.120236
 20
755.614826
 11
203.120236
 21
754.614826
  0
ARC
  5
2B0
100
AcDbEntity
  8
M0
 62
   114
100
AcDbCircle
 10
203.570233
 20
747.114826
 40
1.0
100
AcDbArc
 50
252.411121
 51
269.999126
  0
ARC
  5
2B1
100
AcDbEntity
  8
M0
 62
   114
100
AcDbCircle
 10
209.470242
 20
747.114826
 40
1.0
100
AcDbArc
 50
269.999126
 51
287.584382
  0
LINE
  5
2B2
100
AcDbEntity
  8
M0
 62
   114
100
AcDbLine
 10
203.570233
 20
736.61504
 11
209.470242
 21
736.61504
  0
LINE
  5
2B3
100
AcDbEntity
  8
M0
 62
   114
100
AcDbLine
 10
210.470242
 20
739.964649
 11
210.470242
 21
744.414845
  0
LINE
  5
2B4
100
AcDbEntity
  8
M0
 62
   114
100
AcDbLine
 10
209.670239
 20
746.114796
 11
203.270245
 21
746.114552
  0
LINE
  5
2B5
100
AcDbEntity
  8
M0
 62
   114
100
AcDbLine
 10
202.570233
 20
744.414601
 11
202.570233
 21
739.964649
  0
LINE
  5
2B6
100
AcDbEntity
  8
M0
 62
   114
100
AcDbLine
 10
203.370236
 20
745.114308
 11
203.120236
 21
745.114308
  0
LINE
  5
2B7
100
AcDbEntity
  8
M0
 62
   114
100
AcDbLine
 10
209.670239
 20
746.11504
 11
209.670239
 21
744.914356
  0
LINE
  5
2B8
100
AcDbEntity
  8
M0
 62
   114
100
AcDbLine
 10
203.370236
 20
746.11504
 11
203.370236
 21
744.914356
  0
LINE
  5
2B9
100
AcDbEntity
  8
M0
 62
   114
100
AcDbLine
 10
210.470242
 20
744.414845
 11
210.170376
 21
744.414601
  0
LINE
  5
2BA
100
AcDbEntity
  8
M0
 62
   114
100
AcDbLine
 10
202.870083
 20
744.414601
 11
202.570233
 21
744.414845
  0
ARC
  5
2BB
100
AcDbEntity
  8
M0
 62
   114
100
AcDbCircle
 10
210.170239
 20
744.914356
 40
0.5
100
AcDbArc
 50
180.0
 51
270.008743
  0
ARC
  5
2BC
100
AcDbEntity
  8
M0
 62
   114
100
AcDbCircle
 10
202.870236
 20
744.914356
 40
0.5
100
AcDbArc
 50
269.973772
 51
360.0
  0
LINE
  5
2BD
100
AcDbEntity
  8
M0
 62
   114
100
AcDbLine
 10
209.470257
 20
724.614351
 11
203.570248
 21
724.614355
  0
LINE
  5
2BE
100
AcDbEntity
  8
M0
 62
   114
100
AcDbLine
 10
202.570248
 20
721.264869
 11
202.570217
 21
716.814552
  0
LINE
  5
2BF
100
AcDbEntity
  8
M0
 62
   114
100
AcDbLine
 10
203.37022
 20
715.1146
 11
209.77023
 21
715.114597
  0
LINE
  5
2C0
100
AcDbEntity
  8
M0
 62
   114
100
AcDbLine
 10
210.470227
 20
716.814776
 11
210.470242
 21
721.264864
  0
LINE
  5
2C1
100
AcDbEntity
  8
M0
 62
   114
100
AcDbLine
 10
209.670239
 20
716.115085
 11
209.920239
 21
716.115085
  0
LINE
  5
2C2
100
AcDbEntity
  8
M0
 62
   114
100
AcDbLine
 10
203.370236
 20
715.114356
 11
203.370236
 21
716.31504
  0
LINE
  5
2C3
100
AcDbEntity
  8
M0
 62
   114
100
AcDbLine
 10
209.670239
 20
715.114352
 11
209.670239
 21
716.315036
  0
LINE
  5
2C4
100
AcDbEntity
  8
M0
 62
   114
100
AcDbLine
 10
202.570233
 20
716.814552
 11
202.870098
 21
716.814796
  0
LINE
  5
2C5
100
AcDbEntity
  8
M0
 62
   114
100
AcDbLine
 10
210.170391
 20
716.814791
 11
210.470242
 21
716.814547
  0
ARC
  5
2C6
100
AcDbEntity
  8
M0
 62
   114
100
AcDbCircle
 10
202.870236
 20
716.31504
 40
0.5
100
AcDbArc
 50
0.0
 51
90.015737
  0
ARC
  5
2C7
100
AcDbEntity
  8
M0
 62
   114
100
AcDbCircle
 10
210.170239
 20
716.315035
 40
0.5
100
AcDbArc
 50
89.982515
 51
179.999891
  0
LINE
  5
2C8
100
AcDbEntity
  8
M0
 62
   114
100
AcDbLine
 10
209.470257
 20
715.114596
 11
203.570248
 21
715.114599
  0
LINE
  5
2C9
100
AcDbEntity
  8
M0
 62
   114
100
AcDbLine
 10
202.570248
 20
711.665028
 11
202.570217
 21
707.314808
  0
LINE
  5
2CA
100
AcDbEntity
  8
M0
 62
   114
100
AcDbLine
 10
203.370236
 20
705.614857
 11
209.920239
 21
705.614842
  0
LINE
  5
2CB
100
AcDbEntity
  8
M0
 62
   114
100
AcDbLine
 10
210.470227
 20
707.315022
 11
210.470242
 21
711.665013
  0
LINE
  5
2CC
100
AcDbEntity
  8
M0
 62
   114
100
AcDbLine
 10
209.670239
 20
706.61533
 11
209.920239
 21
706.61533
  0
LINE
  5
2CD
100
AcDbEntity
  8
M0
 62
   114
100
AcDbLine
 10
203.370236
 20
705.614613
 11
203.370236
 21
706.815296
  0
LINE
  5
2CE
100
AcDbEntity
  8
M0
 62
   114
100
AcDbLine
 10
209.670239
 20
705.614598
 11
209.670239
 21
706.815281
  0
LINE
  5
2CF
100
AcDbEntity
  8
M0
 62
   114
100
AcDbLine
 10
202.570233
 20
707.314808
 11
202.870098
 21
707.315052
  0
LINE
  5
2D0
100
AcDbEntity
  8
M0
 62
   114
100
AcDbLine
 10
210.170391
 20
707.315037
 11
210.470242
 21
707.314793
  0
ARC
  5
2D1
100
AcDbEntity
  8
M0
 62
   114
100
AcDbCircle
 10
202.870236
 20
706.815296
 40
0.5
100
AcDbArc
 50
0.0
 51
90.015737
  0
ARC
  5
2D2
100
AcDbEntity
  8
M0
 62
   114
100
AcDbCircle
 10
210.170239
 20
706.815281
 40
0.5
100
AcDbArc
 50
89.982515
 51
179.998251
  0
LINE
  5
2D3
100
AcDbEntity
  8
M0
 62
   114
100
AcDbLine
 10
209.920239
 20
705.614598
 11
209.920239
 21
706.614598
  0
ARC
  5
2D4
100
AcDbEntity
  8
M0
 62
   114
100
AcDbCircle
 10
209.470257
 20
714.114582
 40
1.0
100
AcDbArc
 50
72.543134
 51
90.0
  0
ARC
  5
2D5
100
AcDbEntity
  8
M0
 62
   114
100
AcDbCircle
 10
203.570248
 20
714.114613
 40
1.0
100
AcDbArc
 50
90.0
 51
107.458698
  0
LINE
  5
2D6
100
AcDbEntity
  8
M0
 62
   114
100
AcDbLine
 10
105.470272
 20
724.614367
 11
99.570263
 21
724.614371
  0
LINE
  5
2D7
100
AcDbEntity
  8
M0
 62
   114
100
AcDbLine
 10
98.570263
 20
721.264869
 11
98.570233
 21
716.814567
  0
LINE
  5
2D8
100
AcDbEntity
  8
M0
 62
   114
100
AcDbLine
 10
99.370236
 20
715.114616
 11
105.770245
 21
715.114612
  0
LINE
  5
2D9
100
AcDbEntity
  8
M0
 62
   114
100
AcDbLine
 10
106.470242
 20
716.814791
 11
106.470257
 21
721.264864
  0
LINE
  5
2DA
100
AcDbEntity
  8
M0
 62
   114
100
AcDbLine
 10
105.670254
 20
716.1151
 11
105.920254
 21
716.1151
  0
LINE
  5
2DB
100
AcDbEntity
  8
M0
 62
   114
100
AcDbLine
 10
99.370251
 20
715.114372
 11
99.370251
 21
716.315055
  0
LINE
  5
2DC
100
AcDbEntity
  8
M0
 62
   114
100
AcDbLine
 10
105.670254
 20
715.114368
 11
105.670254
 21
716.315051
  0
LINE
  5
2DD
100
AcDbEntity
  8
M0
 62
   114
100
AcDbLine
 10
98.570248
 20
716.814567
 11
98.870114
 21
716.814811
  0
LINE
  5
2DE
100
AcDbEntity
  8
M0
 62
   114
100
AcDbLine
 10
106.170407
 20
716.814806
 11
106.470257
 21
716.814562
  0
ARC
  5
2DF
100
AcDbEntity
  8
M0
 62
   114
100
AcDbCircle
 10
98.870251
 20
716.315055
 40
0.5
100
AcDbArc
 50
0.0
 51
90.006994
  0
ARC
  5
2E0
100
AcDbEntity
  8
M0
 62
   114
100
AcDbCircle
 10
106.170254
 20
716.31505
 40
0.5
100
AcDbArc
 50
89.973772
 51
179.999891
  0
LINE
  5
2E1
100
AcDbEntity
  8
M0
 62
   114
100
AcDbLine
 10
105.470272
 20
715.114611
 11
99.570263
 21
715.114615
  0
LINE
  5
2E2
100
AcDbEntity
  8
M0
 62
   114
100
AcDbLine
 10
98.570263
 20
711.665028
 11
98.570233
 21
707.314823
  0
LINE
  5
2E3
100
AcDbEntity
  8
M0
 62
   114
100
AcDbLine
 10
99.370251
 20
705.614872
 11
105.920254
 21
705.614857
  0
LINE
  5
2E4
100
AcDbEntity
  8
M0
 62
   114
100
AcDbLine
 10
106.470242
 20
707.315037
 11
106.470257
 21
711.665013
  0
LINE
  5
2E5
100
AcDbEntity
  8
M0
 62
   114
100
AcDbLine
 10
105.670254
 20
706.615345
 11
105.920254
 21
706.615345
  0
LINE
  5
2E6
100
AcDbEntity
  8
M0
 62
   114
100
AcDbLine
 10
99.370251
 20
705.614628
 11
99.370251
 21
706.815312
  0
LINE
  5
2E7
100
AcDbEntity
  8
M0
 62
   114
100
AcDbLine
 10
105.670254
 20
705.614613
 11
105.670254
 21
706.815296
  0
LINE
  5
2E8
100
AcDbEntity
  8
M0
 62
   114
100
AcDbLine
 10
98.570248
 20
707.314823
 11
98.870114
 21
707.315068
  0
LINE
  5
2E9
100
AcDbEntity
  8
M0
 62
   114
100
AcDbLine
 10
106.170407
 20
707.315052
 11
106.470257
 21
707.314808
  0
ARC
  5
2EA
100
AcDbEntity
  8
M0
 62
   114
100
AcDbCircle
 10
98.870251
 20
706.815312
 40
0.5
100
AcDbArc
 50
0.0
 51
90.006994
  0
ARC
  5
2EB
100
AcDbEntity
  8
M0
 62
   114
100
AcDbCircle
 10
106.170254
 20
706.815296
 40
0.5
100
AcDbArc
 50
89.973772
 51
179.998251
  0
LINE
  5
2EC
100
AcDbEntity
  8
M0
 62
   114
100
AcDbLine
 10
105.920254
 20
705.614613
 11
105.920254
 21
706.614613
  0
ARC
  5
2ED
100
AcDbEntity
  8
M0
 62
   114
100
AcDbCircle
 10
105.470272
 20
714.114598
 40
1.0
100
AcDbArc
 50
72.541302
 51
89.999126
  0
ARC
  5
2EE
100
AcDbEntity
  8
M0
 62
   114
100
AcDbCircle
 10
99.570263
 20
714.114628
 40
1.0
100
AcDbArc
 50
89.999126
 51
107.45595
  0
ARC
  5
2EF
100
AcDbEntity
  8
M0
 62
   114
100
AcDbCircle
 10
184.219967
 20
778.615071
 40
3.499997
100
AcDbArc
 50
314.41959
 51
585.578818
  0
ARC
  5
2F0
100
AcDbEntity
  8
M0
 62
   114
100
AcDbCircle
 10
154.520733
 20
778.614338
 40
3.499997
100
AcDbArc
 50
314.437453
 51
585.561885
  0
ARC
  5
2F1
100
AcDbEntity
  8
M0
 62
   114
100
AcDbCircle
 10
124.820278
 20
778.614582
 40
3.499997
100
AcDbArc
 50
314.43231
 51
585.5684
  0
ARC
  5
2F2
100
AcDbEntity
  8
M0
 62
   114
100
AcDbCircle
 10
184.220257
 20
682.614872
 40
3.499997
100
AcDbArc
 50
134.404754
 51
405.596309
  0
ARC
  5
2F3
100
AcDbEntity
  8
M0
 62
   114
100
AcDbCircle
 10
154.520291
 20
682.614872
 40
3.499997
100
AcDbArc
 50
134.403527
 51
405.596164
  0
ARC
  5
2F4
100
AcDbEntity
  8
M0
 62
   114
100
AcDbCircle
 10
124.820233
 20
682.614872
 40
3.499997
100
AcDbArc
 50
134.402984
 51
405.595952
  0
CIRCLE
  5
2F5
100
AcDbEntity
  8
M0
 62
   114
100
AcDbCircle
 10
206.520245
 20
750.614338
 40
2.999997
  0
CIRCLE
  5
2F6
100
AcDbEntity
  8
M0
 62
   114
100
AcDbCircle
 10
206.520245
 20
741.114796
 40
2.999997
  0
CIRCLE
  5
2F7
100
AcDbEntity
  8
M0
 62
   114
100
AcDbCircle
 10
206.520245
 20
720.115895
 40
2.999997
  0
CIRCLE
  5
2F8
100
AcDbEntity
  8
M0
 62
   114
100
AcDbCircle
 10
206.520245
 20
710.614842
 40
2.999994
  0
CIRCLE
  5
2F9
100
AcDbEntity
  8
M0
 62
   114
100
AcDbCircle
 10
173.520779
 20
798.115071
 40
2.999994
  0
ARC
  5
2FA
100
AcDbEntity
  8
M0
 62
   114
100
AcDbCircle
 10
171.039822
 20
794.315022
 40
0.5
100
AcDbArc
 50
197.11777
 51
203.510836
  0
ARC
  5
2FB
100
AcDbEntity
  8
M0
 62
   114
100
AcDbCircle
 10
176.001492
 20
794.315022
 40
0.5
100
AcDbArc
 50
336.481355
 51
342.868989
  0
CIRCLE
  5
2FC
100
AcDbEntity
  8
M0
 62
   114
100
AcDbCircle
 10
135.520779
 20
798.114826
 40
2.999994
  0
ARC
  5
2FD
100
AcDbEntity
  8
M0
 62
   114
100
AcDbCircle
 10
133.039822
 20
794.314778
 40
0.5
100
AcDbArc
 50
197.119955
 51
203.486504
  0
ARC
  5
2FE
100
AcDbEntity
  8
M0
 62
   114
100
AcDbCircle
 10
138.001492
 20
794.314778
 40
0.5
100
AcDbArc
 50
336.518097
 51
342.875032
  0
CIRCLE
  5
2FF
100
AcDbEntity
  8
M0
 62
   114
100
AcDbCircle
 10
103.520779
 20
798.115071
 40
2.999994
  0
ARC
  5
300
100
AcDbEntity
  8
M0
 62
   114
100
AcDbCircle
 10
101.039822
 20
794.315022
 40
0.5
100
AcDbArc
 50
197.119955
 51
203.547578
  0
LINE
  5
301
100
AcDbEntity
  8
M0
 62
   114
100
AcDbLine
 10
146.521328
 20
724.915562
 11
146.671231
 21
724.915562
  0
LINE
  5
302
100
AcDbEntity
  8
M0
 62
   114
100
AcDbLine
 10
146.671231
 20
720.315708
 11
146.671231
 21
724.915562
  0
ARC
  5
303
100
AcDbEntity
  8
M0
 62
   114
100
AcDbCircle
 10
146.521328
 20
727.915562
 40
2.999994
100
AcDbArc
 50
179.999964
 51
270.0
  0
LINE
  5
304
100
AcDbEntity
  8
M0
 62
   114
100
AcDbLine
 10
143.521328
 20
737.615467
 11
143.521328
 21
727.915562
  0
ARC
  5
305
100
AcDbEntity
  8
M0
 62
   114
100
AcDbCircle
 10
146.521328
 20
737.615467
 40
2.999994
100
AcDbArc
 50
90.0
 51
179.999982
  0
LINE
  5
306
100
AcDbEntity
  8
M0
 62
   114
100
AcDbLine
 10
146.671231
 20
720.315708
 11
162.371182
 21
720.315708
  0
LINE
  5
307
100
AcDbEntity
  8
M0
 62
   114
100
AcDbLine
 10
162.371182
 20
720.315708
 11
162.371182
 21
724.915562
  0
ARC
  5
308
100
AcDbEntity
  8
M0
 62
   114
100
AcDbCircle
 10
162.521328
 20
727.915562
 40
2.999992
100
AcDbArc
 50
270.0
 51
360.0
  0
LINE
  5
309
100
AcDbEntity
  8
M0
 62
   114
100
AcDbLine
 10
162.371182
 20
724.915562
 11
162.521328
 21
724.915562
  0
LINE
  5
30A
100
AcDbEntity
  8
M0
 62
   114
100
AcDbLine
 10
158.271328
 20
742.115315
 11
150.771328
 21
742.115315
  0
LINE
  5
30B
100
AcDbEntity
  8
M0
 62
   114
100
AcDbLine
 10
150.771328
 20
742.615086
 11
158.271328
 21
742.615086
  0
LINE
  5
30C
100
AcDbEntity
  8
M0
 62
   114
100
AcDbLine
 10
152.271328
 20
744.315266
 11
156.771328
 21
744.315266
  0
LINE
  5
30D
100
AcDbEntity
  8
M0
 62
   114
100
AcDbLine
 10
156.771328
 20
744.315037
 11
156.771328
 21
742.615086
  0
LINE
  5
30E
100
AcDbEntity
  8
M0
 62
   114
100
AcDbLine
 10
152.271328
 20
744.315037
 11
152.271328
 21
742.615086
  0
LINE
  5
30F
100
AcDbEntity
  8
M0
 62
   114
100
AcDbLine
 10
165.521328
 20
727.915318
 11
165.521328
 21
737.615223
  0
LINE
  5
310
100
AcDbEntity
  8
M0
 62
   114
100
AcDbLine
 10
162.521084
 20
740.615711
 11
158.271328
 21
740.615467
  0
ARC
  5
311
100
AcDbEntity
  8
M0
 62
   114
100
AcDbCircle
 10
162.521328
 20
737.615467
 40
2.999992
100
AcDbArc
 50
0.0
 51
90.0
  0
LINE
  5
312
100
AcDbEntity
  8
M0
 62
   114
100
AcDbLine
 10
158.271328
 20
742.615528
 11
158.271328
 21
740.615528
  0
LINE
  5
313
100
AcDbEntity
  8
M0
 62
   114
100
AcDbLine
 10
150.771328
 20
742.61504
 11
150.771328
 21
740.615528
  0
LINE
  5
314
100
AcDbEntity
  8
M0
 62
   114
100
AcDbLine
 10
150.771328
 20
740.615467
 11
146.521328
 21
740.615711
  0
LINE
  5
315
100
AcDbEntity
  8
M0
 62
   114
100
AcDbLine
 10
151.521328
 20
730.615513
 11
157.521328
 21
730.615513
  0
LINE
  5
316
100
AcDbEntity
  8
M0
 62
   114
100
AcDbLine
 10
151.521328
 20
735.115513
 11
157.521328
 21
735.115513
  0
LINE
  5
317
100
AcDbEntity
  8
M0
 62
   114
100
AcDbLine
 10
157.521328
 20
735.115513
 11
157.521328
 21
730.615513
  0
LINE
  5
318
100
AcDbEntity
  8
M0
 62
   114
100
AcDbLine
 10
151.521328
 20
735.115513
 11
151.521328
 21
730.615513
  0
LINE
  5
319
100
AcDbEntity
  8
M0
 62
   114
100
AcDbLine
 10
198.720486
 20
659.356526
 11
198.720486
 21
666.873158
  0
LINE
  5
31A
100
AcDbEntity
  8
M0
 62
   114
100
AcDbLine
 10
185.720501
 20
659.356495
 11
185.720501
 21
666.873188
  0
LINE
  5
31B
100
AcDbEntity
  8
M0
 62
   114
100
AcDbLine
 10
192.220501
 20
670.614872
 11
185.720501
 21
666.873188
  0
LINE
  5
31C
100
AcDbEntity
  8
M0
 62
   114
100
AcDbLine
 10
192.220501
 20
670.614872
 11
198.720486
 21
666.873173
  0
LINE
  5
31D
100
AcDbEntity
  8
M0
 62
   114
100
AcDbLine
 10
192.220501
 20
655.614872
 11
185.720501
 21
659.35651
  0
LINE
  5
31E
100
AcDbEntity
  8
M0
 62
   114
100
AcDbLine
 10
192.220501
 20
655.614872
 11
198.720486
 21
659.356526
  0
CIRCLE
  5
31F
100
AcDbEntity
  8
M0
 62
   114
100
AcDbCircle
 10
116.820294
 20
798.114582
 40
3.999992
  0
CIRCLE
  5
320
100
AcDbEntity
  8
M0
 62
   114
100
AcDbCircle
 10
116.820294
 20
798.114582
 40
3.499992
  0
LINE
  5
321
100
AcDbEntity
  8
M0
 62
   114
100
AcDbLine
 10
131.820538
 20
779.615071
 11
131.820538
 21
776.249348
  0
LINE
  5
322
100
AcDbEntity
  8
M0
 62
   114
100
AcDbLine
 10
131.820538
 20
779.614826
 11
126.820294
 21
788.114826
  0
LINE
  5
323
100
AcDbEntity
  8
M0
 62
   114
100
AcDbLine
 10
117.820538
 20
776.114826
 11
106.820538
 21
788.114826
  0
LINE
  5
324
100
AcDbEntity
  8
M0
 62
   114
100
AcDbLine
 10
126.820294
 20
788.114582
 11
126.820294
 21
807.114826
  0
LINE
  5
325
100
AcDbEntity
  8
M0
 62
   114
100
AcDbLine
 10
126.820294
 20
807.114826
 11
106.820294
 21
807.114826
  0
LINE
  5
326
100
AcDbEntity
  8
M0
 62
   114
100
AcDbLine
 10
106.820294
 20
807.114826
 11
106.820538
 21
788.114826
  0
LINE
  5
327
100
AcDbEntity
  8
M0
 62
   114
100
AcDbLine
 10
164.520336
 20
788.114338
 11
164.520352
 21
807.114338
  0
LINE
  5
328
100
AcDbEntity
  8
M0
 62
   114
100
AcDbLine
 10
164.520352
 20
807.114338
 11
144.520413
 21
807.114582
  0
LINE
  5
329
100
AcDbEntity
  8
M0
 62
   114
100
AcDbLine
 10
147.520367
 20
776.249104
 11
147.520367
 21
779.614338
  0
LINE
  5
32A
100
AcDbEntity
  8
M0
 62
   114
100
AcDbLine
 10
161.520321
 20
776.24886
 11
161.520321
 21
779.61385
  0
LINE
  5
32B
100
AcDbEntity
  8
M0
 62
   114
100
AcDbLine
 10
147.520367
 20
779.614582
 11
147.020367
 21
781.03133
  0
LINE
  5
32C
100
AcDbEntity
  8
M0
 62
   114
100
AcDbLine
 10
161.520321
 20
779.614338
 11
162.020367
 21
781.030842
  0
LINE
  5
32D
100
AcDbEntity
  8
M0
 62
   114
100
AcDbLine
 10
163.499005
 20
785.220295
 11
164.520336
 21
788.114338
  0
LINE
  5
32E
100
AcDbEntity
  8
M0
 62
   114
100
AcDbLine
 10
145.542034
 20
785.220295
 11
144.520626
 21
788.114582
  0
CIRCLE
  5
32F
100
AcDbEntity
  8
M0
 62
   114
100
AcDbCircle
 10
154.520397
 20
798.114094
 40
3.999989
  0
CIRCLE
  5
330
100
AcDbEntity
  8
M0
 62
   114
100
AcDbCircle
 10
154.520397
 20
798.114094
 40
3.499989
  0
LINE
  5
331
100
AcDbEntity
  8
M0
 62
   114
100
AcDbLine
 10
177.219952
 20
779.615315
 11
177.219952
 21
776.249348
  0
LINE
  5
332
100
AcDbEntity
  8
M0
 62
   114
100
AcDbLine
 10
177.219952
 20
779.615071
 11
182.220211
 21
788.115071
  0
LINE
  5
333
100
AcDbEntity
  8
M0
 62
   114
100
AcDbLine
 10
191.219937
 20
776.114826
 11
202.219937
 21
788.114826
  0
CIRCLE
  5
334
100
AcDbEntity
  8
M0
 62
   114
100
AcDbCircle
 10
192.219967
 20
798.114826
 40
3.499989
  0
LINE
  5
335
100
AcDbEntity
  8
M0
  6
DASHDOT
 62
   114
100
AcDbLine
 10
202.219967
 20
798.115071
 11
182.219967
 21
798.115071
  0
ARC
  5
336
100
AcDbEntity
  8
M0
 62
   114
100
AcDbCircle
 10
204.520809
 20
795.614826
 40
5.249997
100
AcDbArc
 50
244.011303
 51
475.989887
  0
ARC
  5
337
100
AcDbEntity
  8
M0
 62
   114
100
AcDbCircle
 10
204.520809
 20
795.614826
 40
5.749994
100
AcDbArc
 50
246.415851
 51
473.585368
  0
ARC
  5
338
100
AcDbEntity
  8
M0
 62
   114
100
AcDbCircle
 10
104.520779
 20
665.615452
 40
5.249997
100
AcDbArc
 50
66.034721
 51
298.677881
  0
LINE
  5
339
100
AcDbEntity
  8
M0
  6
DASHDOT
 62
   114
100
AcDbLine
 10
116.820294
 20
807.114826
 11
116.820538
 21
788.114826
  0
LINE
  5
33A
100
AcDbEntity
  8
M0
  6
DASHDOT
 62
   114
100
AcDbLine
 10
126.820294
 20
798.114826
 11
106.820294
 21
798.114826
  0
ARC
  5
33B
100
AcDbEntity
  8
M0
 62
   114
100
AcDbCircle
 10
104.520779
 20
665.615452
 40
5.749994
100
AcDbArc
 50
63.338801
 51
297.354523
  0
CIRCLE
  5
33C
100
AcDbEntity
  8
M0
 62
   114
100
AcDbCircle
 10
192.219967
 20
798.114826
 40
3.999989
  0
LINE
  5
33D
100
AcDbEntity
  8
M0
 62
   114
100
AcDbLine
 10
182.220211
 20
788.114826
 11
182.220242
 21
807.115071
  0
LINE
  5
33E
100
AcDbEntity
  8
M0
 62
   114
100
AcDbLine
 10
182.220242
 20
807.115071
 11
202.220242
 21
807.114826
  0
LINE
  5
33F
100
AcDbEntity
  8
M0
 62
   114
100
AcDbLine
 10
202.220242
 20
807.114826
 11
202.219937
 21
788.114826
  0
LINE
  5
340
100
AcDbEntity
  8
M0
  6
DASHDOT
 62
   114
100
AcDbLine
 10
192.219967
 20
807.115071
 11
192.220211
 21
788.115071
  0
LINE
  5
341
100
AcDbEntity
  8
M0
 62
   114
100
AcDbLine
 10
144.520413
 20
807.114582
 11
144.520626
 21
788.114582
  0
LINE
  5
342
100
AcDbEntity
  8
M0
 62
   114
100
AcDbLine
 10
132.820401
 20
672.615971
 11
139.020397
 21
672.615971
  0
LINE
  5
343
100
AcDbEntity
  8
M0
 62
   114
100
AcDbLine
 10
107.020397
 20
774.115772
 11
107.020397
 21
687.115971
  0
LINE
  5
344
100
AcDbEntity
  8
M0
 62
   114
100
AcDbLine
 10
142.020397
 20
673.115956
 11
142.020397
 21
674.615971
  0
LINE
  5
345
100
AcDbEntity
  8
M0
 62
   114
100
AcDbLine
 10
138.520397
 20
673.115971
 11
138.520397
 21
674.615956
  0
LINE
  5
346
100
AcDbEntity
  8
M0
 62
   114
100
AcDbLine
 10
135.520397
 20
673.115956
 11
135.520397
 21
674.615971
  0
LINE
  5
347
100
AcDbEntity
  8
M0
 62
   114
100
AcDbLine
 10
132.320401
 20
673.115971
 11
132.320401
 21
684.115956
  0
LINE
  5
348
100
AcDbEntity
  8
M0
 62
   114
100
AcDbLine
 10
109.020397
 20
685.115971
 11
131.320401
 21
685.115971
  0
LINE
  5
349
100
AcDbEntity
  8
M0
 62
   114
100
AcDbLine
 10
147.020397
 20
684.115971
 11
147.020397
 21
679.115971
  0
LINE
  5
34A
100
AcDbEntity
  8
M0
 62
   114
100
AcDbLine
 10
148.020397
 20
685.115971
 11
161.020397
 21
685.115971
  0
ARC
  5
34B
100
AcDbEntity
  8
M0
 62
   114
100
AcDbCircle
 10
143.020397
 20
679.115971
 40
3.999996
100
AcDbArc
 50
270.0
 51
360.0
  0
LINE
  5
34C
100
AcDbEntity
  8
M0
 62
   114
100
AcDbLine
 10
139.020397
 20
672.615971
 11
141.520397
 21
672.615971
  0
ARC
  5
34D
100
AcDbEntity
  8
M0
 62
   114
100
AcDbCircle
 10
132.820401
 20
673.115971
 40
0.5
100
AcDbArc
 50
179.998251
 51
270.0
  0
ARC
  5
34E
100
AcDbEntity
  8
M0
 62
   114
100
AcDbCircle
 10
135.020397
 20
673.115971
 40
0.5
100
AcDbArc
 50
270.0
 51
360.0
  0
ARC
  5
34F
100
AcDbEntity
  8
M0
 62
   114
100
AcDbCircle
 10
139.020397
 20
673.115971
 40
0.5
100
AcDbArc
 50
179.998251
 51
270.0
  0
ARC
  5
350
100
AcDbEntity
  8
M0
 62
   114
100
AcDbCircle
 10
141.520397
 20
673.115971
 40
0.5
100
AcDbArc
 50
270.0
 51
360.0
  0
ARC
  5
351
100
AcDbEntity
  8
M0
 62
   114
100
AcDbCircle
 10
131.320401
 20
684.115971
 40
1.0
100
AcDbArc
 50
0.0
 51
89.999126
  0
LINE
  5
352
100
AcDbEntity
  8
M0
 62
   114
100
AcDbLine
 10
132.020336
 20
675.115971
 11
132.320401
 21
675.115971
  0
LINE
  5
353
100
AcDbEntity
  8
M0
 62
   114
100
AcDbLine
 10
142.520397
 20
675.115971
 11
143.020397
 21
675.115971
  0
ARC
  5
354
100
AcDbEntity
  8
M0
 62
   114
100
AcDbCircle
 10
109.020397
 20
687.115971
 40
2.0
100
AcDbArc
 50
179.999563
 51
270.0
  0
LINE
  5
355
100
AcDbEntity
  8
M0
 62
   114
100
AcDbLine
 10
118.820401
 20
688.615971
 11
130.820401
 21
688.615971
  0
LINE
  5
356
100
AcDbEntity
  8
M0
 62
   114
100
AcDbLine
 10
130.820401
 20
688.615971
 11
130.820401
 21
685.615971
  0
LINE
  5
357
100
AcDbEntity
  8
M0
 62
   114
100
AcDbLine
 10
118.820401
 20
688.615971
 11
118.820401
 21
685.615971
  0
LINE
  5
358
100
AcDbEntity
  8
M0
 62
   114
100
AcDbLine
 10
148.520397
 20
685.615956
 11
148.520397
 21
688.615971
  0
LINE
  5
359
100
AcDbEntity
  8
M0
 62
   114
100
AcDbLine
 10
148.520397
 20
688.615971
 11
160.520397
 21
688.61594
  0
ARC
  5
35A
100
AcDbEntity
  8
M0
 62
   114
100
AcDbCircle
 10
148.020397
 20
684.115971
 40
1.0
100
AcDbArc
 50
90.0
 51
179.999126
  0
ARC
  5
35B
100
AcDbEntity
  8
M0
 62
   114
100
AcDbCircle
 10
148.020397
 20
685.615971
 40
0.5
100
AcDbArc
 50
270.0
 51
360.0
  0
LINE
  5
35C
100
AcDbEntity
  8
M0
 62
   114
100
AcDbLine
 10
176.220394
 20
672.615956
 11
174.020397
 21
672.615971
  0
LINE
  5
35D
100
AcDbEntity
  8
M0
 62
   114
100
AcDbLine
 10
202.020397
 20
774.115772
 11
202.020397
 21
687.11594
  0
LINE
  5
35E
100
AcDbEntity
  8
M0
 62
   114
100
AcDbLine
 10
167.020397
 20
673.115956
 11
167.020397
 21
674.61594
  0
LINE
  5
35F
100
AcDbEntity
  8
M0
 62
   114
100
AcDbLine
 10
170.520397
 20
673.115971
 11
170.520397
 21
674.615956
  0
LINE
  5
360
100
AcDbEntity
  8
M0
 62
   114
100
AcDbLine
 10
173.520397
 20
673.115956
 11
173.520397
 21
674.61594
  0
LINE
  5
361
100
AcDbEntity
  8
M0
 62
   114
100
AcDbLine
 10
176.720394
 20
673.115956
 11
176.720394
 21
684.11594
  0
LINE
  5
362
100
AcDbEntity
  8
M0
 62
   114
100
AcDbLine
 10
200.020397
 20
685.115956
 11
177.720394
 21
685.115956
  0
LINE
  5
363
100
AcDbEntity
  8
M0
 62
   114
100
AcDbLine
 10
162.020397
 20
684.115971
 11
162.020397
 21
679.115971
  0
ARC
  5
364
100
AcDbEntity
  8
M0
 62
   114
100
AcDbCircle
 10
166.020397
 20
679.115971
 40
3.999996
100
AcDbArc
 50
179.999781
 51
270.0
  0
LINE
  5
365
100
AcDbEntity
  8
M0
 62
   114
100
AcDbLine
 10
174.020397
 20
672.615971
 11
167.520397
 21
672.615971
  0
ARC
  5
366
100
AcDbEntity
  8
M0
 62
   114
100
AcDbCircle
 10
176.220394
 20
673.115956
 40
0.5
100
AcDbArc
 50
-90.001749
 51
0.0
  0
ARC
  5
367
100
AcDbEntity
  8
M0
 62
   114
100
AcDbCircle
 10
174.020397
 20
673.115971
 40
0.5
100
AcDbArc
 50
179.998251
 51
269.998251
  0
ARC
  5
368
100
AcDbEntity
  8
M0
 62
   114
100
AcDbCircle
 10
170.020397
 20
673.115971
 40
0.5
100
AcDbArc
 50
-90.0
 51
0.0
  0
ARC
  5
369
100
AcDbEntity
  8
M0
 62
   114
100
AcDbCircle
 10
167.520397
 20
673.115971
 40
0.5
100
AcDbArc
 50
179.998251
 51
270.0
  0
ARC
  5
36A
100
AcDbEntity
  8
M0
 62
   114
100
AcDbCircle
 10
177.720394
 20
684.115956
 40
1.0
100
AcDbArc
 50
90.0
 51
179.999126
  0
LINE
  5
36B
100
AcDbEntity
  8
M0
 62
   114
100
AcDbLine
 10
177.020321
 20
675.115971
 11
176.720394
 21
675.115956
  0
LINE
  5
36C
100
AcDbEntity
  8
M0
 62
   114
100
AcDbLine
 10
166.520397
 20
675.115971
 11
166.020397
 21
675.115971
  0
ARC
  5
36D
100
AcDbEntity
  8
M0
 62
   114
100
AcDbCircle
 10
200.020397
 20
687.11594
 40
2.0
100
AcDbArc
 50
-90.000437
 51
0.0
  0
LINE
  5
36E
100
AcDbEntity
  8
M0
 62
   114
100
AcDbLine
 10
190.220394
 20
688.61594
 11
178.220394
 21
688.61594
  0
LINE
  5
36F
100
AcDbEntity
  8
M0
 62
   114
100
AcDbLine
 10
178.220394
 20
688.61594
 11
178.220394
 21
685.61594
  0
LINE
  5
370
100
AcDbEntity
  8
M0
 62
   114
100
AcDbLine
 10
190.220394
 20
688.61594
 11
190.220394
 21
685.61594
  0
LINE
  5
371
100
AcDbEntity
  8
M0
 62
   114
100
AcDbLine
 10
160.520397
 20
685.615956
 11
160.520397
 21
688.61594
  0
ARC
  5
372
100
AcDbEntity
  8
M0
 62
   114
100
AcDbCircle
 10
161.020397
 20
684.115971
 40
1.0
100
AcDbArc
 50
0.0
 51
90.0
  0
ARC
  5
373
100
AcDbEntity
  8
M0
 62
   114
100
AcDbCircle
 10
161.020397
 20
685.615971
 40
0.5
100
AcDbArc
 50
179.998251
 51
270.0
  0
LINE
  5
374
100
AcDbEntity
  8
M0
 62
   114
100
AcDbLine
 10
132.820401
 20
788.615772
 11
139.020397
 21
788.615772
  0
LINE
  5
375
100
AcDbEntity
  8
M0
 62
   114
100
AcDbLine
 10
142.020397
 20
788.115772
 11
142.020397
 21
786.115772
  0
LINE
  5
376
100
AcDbEntity
  8
M0
 62
   114
100
AcDbLine
 10
138.520397
 20
788.115772
 11
138.520397
 21
786.115772
  0
LINE
  5
377
100
AcDbEntity
  8
M0
 62
   114
100
AcDbLine
 10
135.520397
 20
788.115772
 11
135.520397
 21
786.115772
  0
LINE
  5
378
100
AcDbEntity
  8
M0
 62
   114
100
AcDbLine
 10
132.320401
 20
788.115772
 11
132.320401
 21
777.115772
  0
LINE
  5
379
100
AcDbEntity
  8
M0
 62
   114
100
AcDbLine
 10
109.020397
 20
776.115772
 11
131.320401
 21
776.115772
  0
LINE
  5
37A
100
AcDbEntity
  8
M0
 62
   114
100
AcDbLine
 10
147.020397
 20
777.115772
 11
147.020397
 21
782.115772
  0
LINE
  5
37B
100
AcDbEntity
  8
M0
 62
   114
100
AcDbLine
 10
148.020397
 20
776.115772
 11
161.020397
 21
776.115772
  0
ARC
  5
37C
100
AcDbEntity
  8
M0
 62
   114
100
AcDbCircle
 10
143.020397
 20
782.115772
 40
3.999996
100
AcDbArc
 50
0.0
 51
90.0
  0
LINE
  5
37D
100
AcDbEntity
  8
M0
 62
   114
100
AcDbLine
 10
139.020397
 20
788.615772
 11
141.520397
 21
788.615772
  0
ARC
  5
37E
100
AcDbEntity
  8
M0
 62
   114
100
AcDbCircle
 10
132.820401
 20
788.115772
 40
0.5
100
AcDbArc
 50
89.998251
 51
180.0
  0
ARC
  5
37F
100
AcDbEntity
  8
M0
 62
   114
100
AcDbCircle
 10
135.020397
 20
788.115772
 40
0.5
100
AcDbArc
 50
0.0
 51
89.998251
  0
ARC
  5
380
100
AcDbEntity
  8
M0
 62
   114
100
AcDbCircle
 10
139.020397
 20
788.115772
 40
0.5
100
AcDbArc
 50
90.0
 51
180.0
  0
ARC
  5
381
100
AcDbEntity
  8
M0
 62
   114
100
AcDbCircle
 10
141.520397
 20
788.115772
 40
0.5
100
AcDbArc
 50
0.0
 51
90.0
  0
ARC
  5
382
100
AcDbEntity
  8
M0
 62
   114
100
AcDbCircle
 10
131.320401
 20
777.115772
 40
1.0
100
AcDbArc
 50
-90.0
 51
0.0
  0
LINE
  5
383
100
AcDbEntity
  8
M0
 62
   114
100
AcDbLine
 10
132.020336
 20
786.115772
 11
132.320401
 21
786.115772
  0
LINE
  5
384
100
AcDbEntity
  8
M0
 62
   114
100
AcDbLine
 10
142.020397
 20
786.115772
 11
143.020397
 21
786.115772
  0
ARC
  5
385
100
AcDbEntity
  8
M0
 62
   114
100
AcDbCircle
 10
109.020397
 20
774.115772
 40
2.0
100
AcDbArc
 50
89.999563
 51
180.0
  0
LINE
  5
386
100
AcDbEntity
  8
M0
 62
   114
100
AcDbLine
 10
118.820401
 20
772.615772
 11
130.820401
 21
772.615772
  0
LINE
  5
387
100
AcDbEntity
  8
M0
 62
   114
100
AcDbLine
 10
130.820401
 20
772.615772
 11
130.820401
 21
776.115772
  0
LINE
  5
388
100
AcDbEntity
  8
M0
 62
   114
100
AcDbLine
 10
118.820401
 20
772.615772
 11
118.820401
 21
776.115772
  0
LINE
  5
389
100
AcDbEntity
  8
M0
 62
   114
100
AcDbLine
 10
148.520397
 20
775.615772
 11
148.520397
 21
772.615772
  0
LINE
  5
38A
100
AcDbEntity
  8
M0
 62
   114
100
AcDbLine
 10
148.520397
 20
772.615772
 11
160.520397
 21
772.615772
  0
ARC
  5
38B
100
AcDbEntity
  8
M0
 62
   114
100
AcDbCircle
 10
148.020397
 20
777.115772
 40
1.0
100
AcDbArc
 50
180.0
 51
270.0
  0
ARC
  5
38C
100
AcDbEntity
  8
M0
 62
   114
100
AcDbCircle
 10
148.020397
 20
775.615772
 40
0.5
100
AcDbArc
 50
0.0
 51
90.0
  0
LINE
  5
38D
100
AcDbEntity
  8
M0
 62
   114
100
AcDbLine
 10
176.220394
 20
788.615772
 11
170.020397
 21
788.615772
  0
LINE
  5
38E
100
AcDbEntity
  8
M0
 62
   114
100
AcDbLine
 10
167.020397
 20
788.115772
 11
167.020397
 21
786.115772
  0
LINE
  5
38F
100
AcDbEntity
  8
M0
 62
   114
100
AcDbLine
 10
170.520397
 20
788.115772
 11
170.520397
 21
786.115772
  0
LINE
  5
390
100
AcDbEntity
  8
M0
 62
   114
100
AcDbLine
 10
173.520397
 20
788.115772
 11
173.520397
 21
786.115772
  0
LINE
  5
391
100
AcDbEntity
  8
M0
 62
   114
100
AcDbLine
 10
176.720394
 20
788.115772
 11
176.720394
 21
777.115772
  0
LINE
  5
392
100
AcDbEntity
  8
M0
 62
   114
100
AcDbLine
 10
200.020397
 20
776.115772
 11
177.720394
 21
776.115772
  0
LINE
  5
393
100
AcDbEntity
  8
M0
 62
   114
100
AcDbLine
 10
162.020397
 20
777.115772
 11
162.020397
 21
782.115772
  0
ARC
  5
394
100
AcDbEntity
  8
M0
 62
   114
100
AcDbCircle
 10
166.020397
 20
782.115772
 40
3.999996
100
AcDbArc
 50
90.0
 51
180.0
  0
LINE
  5
395
100
AcDbEntity
  8
M0
 62
   114
100
AcDbLine
 10
170.020397
 20
788.615772
 11
167.520397
 21
788.615772
  0
ARC
  5
396
100
AcDbEntity
  8
M0
 62
   114
100
AcDbCircle
 10
176.220394
 20
788.115772
 40
0.5
100
AcDbArc
 50
0.0
 51
90.0
  0
ARC
  5
397
100
AcDbEntity
  8
M0
 62
   114
100
AcDbCircle
 10
174.020397
 20
788.115772
 40
0.5
100
AcDbArc
 50
90.0
 51
180.0
  0
ARC
  5
398
100
AcDbEntity
  8
M0
 62
   114
100
AcDbCircle
 10
170.020397
 20
788.115772
 40
0.5
100
AcDbArc
 50
0.0
 51
90.0
  0
ARC
  5
399
100
AcDbEntity
  8
M0
 62
   114
100
AcDbCircle
 10
167.520397
 20
788.115772
 40
0.5
100
AcDbArc
 50
90.0
 51
180.0
  0
ARC
  5
39A
100
AcDbEntity
  8
M0
 62
   114
100
AcDbCircle
 10
177.720394
 20
777.115772
 40
1.0
100
AcDbArc
 50
180.0
 51
269.999126
  0
LINE
  5
39B
100
AcDbEntity
  8
M0
 62
   114
100
AcDbLine
 10
177.020336
 20
786.115772
 11
176.720394
 21
786.115772
  0
LINE
  5
39C
100
AcDbEntity
  8
M0
 62
   114
100
AcDbLine
 10
167.020397
 20
786.115772
 11
166.020397
 21
786.115772
  0
ARC
  5
39D
100
AcDbEntity
  8
M0
 62
   114
100
AcDbCircle
 10
200.020397
 20
774.115772
 40
2.0
100
AcDbArc
 50
0.0
 51
90.0
  0
LINE
  5
39E
100
AcDbEntity
  8
M0
 62
   114
100
AcDbLine
 10
190.220394
 20
772.615772
 11
178.220394
 21
772.615772
  0
LINE
  5
39F
100
AcDbEntity
  8
M0
 62
   114
100
AcDbLine
 10
178.220394
 20
772.615772
 11
178.220394
 21
776.115772
  0
LINE
  5
3A0
100
AcDbEntity
  8
M0
 62
   114
100
AcDbLine
 10
190.220394
 20
772.615772
 11
190.220394
 21
776.115772
  0
LINE
  5
3A1
100
AcDbEntity
  8
M0
 62
   114
100
AcDbLine
 10
160.520397
 20
775.615772
 11
160.520397
 21
772.615772
  0
ARC
  5
3A2
100
AcDbEntity
  8
M0
 62
   114
100
AcDbCircle
 10
161.020397
 20
777.115772
 40
1.0
100
AcDbArc
 50
270.0
 51
360.0
  0
ARC
  5
3A3
100
AcDbEntity
  8
M0
 62
   114
100
AcDbCircle
 10
161.020397
 20
775.615772
 40
0.5
100
AcDbArc
 50
90.0
 51
180.0
  0
CIRCLE
  5
3A4
100
AcDbEntity
  8
M0
 62
   114
100
AcDbCircle
 10
139.67033
 20
779.615772
 40
4.499997
  0
CIRCLE
  5
3A5
100
AcDbEntity
  8
M0
 62
   114
100
AcDbCircle
 10
169.370327
 20
681.615925
 40
4.499997
  0
CIRCLE
  5
3A6
100
AcDbEntity
  8
M0
 62
   114
100
AcDbCircle
 10
112.020336
 20
692.365925
 40
1.859998
  0
CIRCLE
  5
3A7
100
AcDbEntity
  8
M0
 62
   114
100
AcDbCircle
 10
112.020336
 20
768.865772
 40
1.859998
  0
CIRCLE
  5
3A8
100
AcDbEntity
  8
M0
 62
   114
100
AcDbCircle
 10
197.020336
 20
768.865772
 40
1.859998
  0
CIRCLE
  5
3A9
100
AcDbEntity
  8
M0
 62
   114
100
AcDbCircle
 10
197.020336
 20
692.365925
 40
1.859998
  0
CIRCLE
  5
3AA
100
AcDbEntity
  8
M0
 62
   114
100
AcDbCircle
 10
112.020336
 20
768.865772
 40
1.359998
  0
CIRCLE
  5
3AB
100
AcDbEntity
  8
M0
 62
   114
100
AcDbCircle
 10
112.020336
 20
692.365925
 40
1.359998
  0
CIRCLE
  5
3AC
100
AcDbEntity
  8
M0
 62
   114
100
AcDbCircle
 10
197.020336
 20
692.365925
 40
1.359998
  0
CIRCLE
  5
3AD
100
AcDbEntity
  8
M0
 62
   114
100
AcDbCircle
 10
197.020336
 20
768.865772
 40
1.359998
  0
LINE
  5
3AE
100
AcDbEntity
  8
M0
  6
DASHDOT
 62
   114
100
AcDbLine
 10
77.63496
 20
730.61591
 11
231.233303
 21
730.61591
  0
ARC
  5
3AF
100
AcDbEntity
  8
M0
 62
   114
100
AcDbCircle
 10
118.320401
 20
685.615971
 40
0.5
100
AcDbArc
 50
270.0
 51
360.0
  0
ARC
  5
3B0
100
AcDbEntity
  8
M0
 62
   114
100
AcDbCircle
 10
131.320401
 20
685.615971
 40
0.5
100
AcDbArc
 50
179.998251
 51
270.0
  0
ARC
  5
3B1
100
AcDbEntity
  8
M0
 62
   114
100
AcDbCircle
 10
190.720394
 20
685.61594
 40
0.5
100
AcDbArc
 50
179.998251
 51
269.998251
  0
ARC
  5
3B2
100
AcDbEntity
  8
M0
 62
   114
100
AcDbCircle
 10
177.720394
 20
685.61594
 40
0.5
100
AcDbArc
 50
269.998251
 51
360.0
  0
ARC
  5
3B3
100
AcDbEntity
  8
M0
 62
   114
100
AcDbCircle
 10
173.020397
 20
674.615956
 40
0.5
100
AcDbArc
 50
0.0
 51
90.0
  0
ARC
  5
3B4
100
AcDbEntity
  8
M0
 62
   114
100
AcDbCircle
 10
171.020397
 20
674.615956
 40
0.5
100
AcDbArc
 50
90.0
 51
179.998251
  0
ARC
  5
3B5
100
AcDbEntity
  8
M0
 62
   114
100
AcDbCircle
 10
138.020397
 20
674.615971
 40
0.5
100
AcDbArc
 50
0.0
 51
89.998251
  0
ARC
  5
3B6
100
AcDbEntity
  8
M0
 62
   114
100
AcDbCircle
 10
136.020397
 20
674.615971
 40
0.5
100
AcDbArc
 50
89.998251
 51
179.998251
  0
ARC
  5
3B7
100
AcDbEntity
  8
M0
 62
   114
100
AcDbCircle
 10
142.520397
 20
674.615971
 40
0.5
100
AcDbArc
 50
90.0
 51
179.998251
  0
ARC
  5
3B8
100
AcDbEntity
  8
M0
 62
   114
100
AcDbCircle
 10
166.520397
 20
674.615956
 40
0.5
100
AcDbArc
 50
0.0
 51
90.0
  0
LINE
  5
3B9
100
AcDbEntity
  8
M0
 62
   114
100
AcDbLine
 10
133.020336
 20
667.115971
 11
140.020321
 21
667.115971
  0
LINE
  5
3BA
100
AcDbEntity
  8
M0
 62
   114
100
AcDbLine
 10
173.520336
 20
670.115971
 11
173.520336
 21
667.115971
  0
LINE
  5
3BB
100
AcDbEntity
  8
M0
 62
   114
100
AcDbLine
 10
171.520336
 20
670.115971
 11
171.520336
 21
667.115971
  0
LINE
  5
3BC
100
AcDbEntity
  8
M0
 62
   114
100
AcDbLine
 10
137.520336
 20
670.115971
 11
137.520336
 21
667.115971
  0
LINE
  5
3BD
100
AcDbEntity
  8
M0
 62
   114
100
AcDbLine
 10
135.520336
 20
670.115971
 11
135.520336
 21
667.115971
  0
LINE
  5
3BE
100
AcDbEntity
  8
M0
 62
   114
100
AcDbLine
 10
139.020336
 20
672.615971
 11
139.020336
 21
670.115971
  0
LINE
  5
3BF
100
AcDbEntity
  8
M0
 62
   114
100
AcDbLine
 10
134.020336
 20
672.615971
 11
134.020336
 21
670.115971
  0
LINE
  5
3C0
100
AcDbEntity
  8
M0
 62
   114
100
AcDbLine
 10
175.020336
 20
672.615956
 11
175.020336
 21
670.115971
  0
LINE
  5
3C1
100
AcDbEntity
  8
M0
 62
   114
100
AcDbLine
 10
170.020336
 20
672.615971
 11
170.020336
 21
670.115971
  0
LINE
  5
3C2
100
AcDbEntity
  8
M0
 62
   114
100
AcDbLine
 10
142.020336
 20
673.108158
 11
142.020336
 21
670.115971
  0
LINE
  5
3C3
100
AcDbEntity
  8
M0
 62
   114
100
AcDbLine
 10
131.020336
 20
674.115971
 11
131.020336
 21
669.115971
  0
LINE
  5
3C4
100
AcDbEntity
  8
M0
 62
   114
100
AcDbLine
 10
178.020336
 20
674.115956
 11
178.020336
 21
669.115971
  0
LINE
  5
3C5
100
AcDbEntity
  8
M0
 62
   114
100
AcDbLine
 10
167.020336
 20
673.115956
 11
167.020336
 21
670.115956
  0
LINE
  5
3C6
100
AcDbEntity
  8
M0
 62
   114
100
AcDbLine
 10
134.020336
 20
670.115971
 11
135.520336
 21
670.115971
  0
LINE
  5
3C7
100
AcDbEntity
  8
M0
 62
   114
100
AcDbLine
 10
167.020336
 20
670.115971
 11
169.020336
 21
667.115971
  0
LINE
  5
3C8
100
AcDbEntity
  8
M0
 62
   114
100
AcDbLine
 10
142.020336
 20
670.115971
 11
140.020336
 21
667.115971
  0
LINE
  5
3C9
100
AcDbEntity
  8
M0
 62
   114
100
AcDbLine
 10
169.020321
 20
667.115971
 11
176.020336
 21
667.115971
  0
LINE
  5
3CA
100
AcDbEntity
  8
M0
 62
   114
100
AcDbLine
 10
170.020336
 20
670.115971
 11
171.520336
 21
670.115971
  0
LINE
  5
3CB
100
AcDbEntity
  8
M0
 62
   114
100
AcDbLine
 10
137.520336
 20
670.115971
 11
139.020336
 21
670.115971
  0
LINE
  5
3CC
100
AcDbEntity
  8
M0
 62
   114
100
AcDbLine
 10
173.520336
 20
670.115971
 11
175.020336
 21
670.115971
  0
ARC
  5
3CD
100
AcDbEntity
  8
M0
 62
   114
100
AcDbCircle
 10
177.020336
 20
674.115956
 40
1.0
100
AcDbArc
 50
0.0
 51
90.0
  0
ARC
  5
3CE
100
AcDbEntity
  8
M0
 62
   114
100
AcDbCircle
 10
132.020336
 20
674.115971
 40
1.0
100
AcDbArc
 50
89.999126
 51
179.999126
  0
LINE
  5
3CF
100
AcDbEntity
  8
M0
 62
   114
100
AcDbLine
 10
136.020397
 20
675.115971
 11
138.020397
 21
675.115971
  0
LINE
  5
3D0
100
AcDbEntity
  8
M0
 62
   114
100
AcDbLine
 10
173.020397
 20
675.115956
 11
171.020397
 21
675.115971
  0
ARC
  5
3D1
100
AcDbEntity
  8
M0
 62
   114
100
AcDbCircle
 10
133.020336
 20
669.115971
 40
2.0
100
AcDbArc
 50
179.999563
 51
270.0
  0
ARC
  5
3D2
100
AcDbEntity
  8
M0
 62
   114
100
AcDbCircle
 10
176.020336
 20
669.115971
 40
2.0
100
AcDbArc
 50
269.999563
 51
360.0
  0
LINE
  5
3D3
100
AcDbEntity
  8
M0
 62
   114
100
AcDbLine
 10
133.020336
 20
794.115772
 11
140.020321
 21
794.115772
  0
LINE
  5
3D4
100
AcDbEntity
  8
M0
 62
   114
100
AcDbLine
 10
134.020336
 20
791.115772
 11
135.520336
 21
791.115772
  0
LINE
  5
3D5
100
AcDbEntity
  8
M0
 62
   114
100
AcDbLine
 10
137.520336
 20
794.115772
 11
137.520336
 21
791.115772
  0
LINE
  5
3D6
100
AcDbEntity
  8
M0
 62
   114
100
AcDbLine
 10
171.520336
 20
794.115772
 11
171.520336
 21
791.115772
  0
LINE
  5
3D7
100
AcDbEntity
  8
M0
 62
   114
100
AcDbLine
 10
135.520336
 20
794.115772
 11
135.520336
 21
791.115772
  0
LINE
  5
3D8
100
AcDbEntity
  8
M0
 62
   114
100
AcDbLine
 10
173.520336
 20
794.115772
 11
173.520336
 21
791.115772
  0
LINE
  5
3D9
100
AcDbEntity
  8
M0
 62
   114
100
AcDbLine
 10
139.020336
 20
791.115772
 11
139.020336
 21
788.615772
  0
LINE
  5
3DA
100
AcDbEntity
  8
M0
 62
   114
100
AcDbLine
 10
134.020336
 20
791.115772
 11
134.020336
 21
788.615772
  0
LINE
  5
3DB
100
AcDbEntity
  8
M0
 62
   114
100
AcDbLine
 10
175.020336
 20
791.115772
 11
175.020336
 21
788.615772
  0
LINE
  5
3DC
100
AcDbEntity
  8
M0
 62
   114
100
AcDbLine
 10
170.020336
 20
791.115772
 11
170.020336
 21
788.615772
  0
LINE
  5
3DD
100
AcDbEntity
  8
M0
 62
   114
100
AcDbLine
 10
142.020336
 20
788.123585
 11
142.020336
 21
791.115772
  0
LINE
  5
3DE
100
AcDbEntity
  8
M0
 62
   114
100
AcDbLine
 10
131.020336
 20
787.115772
 11
131.020336
 21
792.115772
  0
LINE
  5
3DF
100
AcDbEntity
  8
M0
 62
   114
100
AcDbLine
 10
167.020336
 20
788.115772
 11
167.020336
 21
791.115772
  0
LINE
  5
3E0
100
AcDbEntity
  8
M0
 62
   114
100
AcDbLine
 10
178.020336
 20
787.115772
 11
178.020336
 21
792.115772
  0
ARC
  5
3E1
100
AcDbEntity
  8
M0
 62
   114
100
AcDbCircle
 10
176.020336
 20
792.115772
 40
2.0
100
AcDbArc
 50
0.0
 51
90.0
  0
ARC
  5
3E2
100
AcDbEntity
  8
M0
 62
   114
100
AcDbCircle
 10
133.020336
 20
792.115772
 40
2.0
100
AcDbArc
 50
89.999563
 51
180.0
  0
LINE
  5
3E3
100
AcDbEntity
  8
M0
 62
   114
100
AcDbLine
 10
140.020336
 20
794.115772
 11
142.020336
 21
791.115772
  0
LINE
  5
3E4
100
AcDbEntity
  8
M0
 62
   114
100
AcDbLine
 10
169.020336
 20
794.115772
 11
167.020336
 21
791.115772
  0
LINE
  5
3E5
100
AcDbEntity
  8
M0
 62
   114
100
AcDbLine
 10
170.020336
 20
791.115772
 11
171.520336
 21
791.115772
  0
LINE
  5
3E6
100
AcDbEntity
  8
M0
 62
   114
100
AcDbLine
 10
137.520336
 20
791.115772
 11
139.020336
 21
791.115772
  0
LINE
  5
3E7
100
AcDbEntity
  8
M0
 62
   114
100
AcDbLine
 10
173.520336
 20
791.115772
 11
175.020336
 21
791.115772
  0
ARC
  5
3E8
100
AcDbEntity
  8
M0
 62
   114
100
AcDbCircle
 10
132.020336
 20
787.115772
 40
1.0
100
AcDbArc
 50
180.0
 51
270.0
  0
ARC
  5
3E9
100
AcDbEntity
  8
M0
 62
   114
100
AcDbCircle
 10
177.020336
 20
787.115772
 40
1.0
100
AcDbArc
 50
269.999126
 51
360.0
  0
LINE
  5
3EA
100
AcDbEntity
  8
M0
 62
   114
100
AcDbLine
 10
135.520397
 20
786.115772
 11
138.520397
 21
786.115772
  0
LINE
  5
3EB
100
AcDbEntity
  8
M0
 62
   114
100
AcDbLine
 10
173.520397
 20
786.115772
 11
170.520397
 21
786.115772
  0
LINE
  5
3EC
100
AcDbEntity
  8
M0
 62
   114
100
AcDbLine
 10
169.020321
 20
794.115772
 11
176.020336
 21
794.115772
  0
LINE
  5
3ED
100
AcDbEntity
  8
M0
  6
DIVIDE
 62
   114
100
AcDbLine
 10
82.520535
 20
765.615879
 11
82.520535
 21
695.615879
  0
LINE
  5
3EE
100
AcDbEntity
  8
M0
  6
DIVIDE
 62
   114
100
AcDbLine
 10
82.520535
 20
765.615879
 11
94.520535
 21
765.615879
  0
LINE
  5
3EF
100
AcDbEntity
  8
M0
  6
DIVIDE
 62
   114
100
AcDbLine
 10
82.520535
 20
695.615879
 11
94.520535
 21
695.615879
  0
LINE
  5
3F0
100
AcDbEntity
  8
M0
 62
   114
100
AcDbLine
 10
126.820294
 20
673.117237
 11
126.820294
 21
654.116993
  0
LINE
  5
3F1
100
AcDbEntity
  8
M0
 62
   114
100
AcDbLine
 10
126.820294
 20
654.116993
 11
106.820294
 21
654.116993
  0
LINE
  5
3F2
100
AcDbEntity
  8
M0
 62
   114
100
AcDbLine
 10
164.520352
 20
654.117481
 11
144.520413
 21
654.117237
  0
LINE
  5
3F3
100
AcDbEntity
  8
M0
 62
   114
100
AcDbLine
 10
182.220242
 20
654.116749
 11
202.220242
 21
654.116993
  0
LINE
  5
3F4
100
AcDbEntity
  8
M0
 62
   114
100
AcDbLine
 10
192.220471
 20
670.620457
 11
198.72192
 21
666.867863
  0
LINE
  5
3F5
100
AcDbEntity
  8
M0
 62
   114
100
AcDbLine
 10
198.72192
 20
666.867863
 11
198.72192
 21
659.362217
  0
LINE
  5
3F6
100
AcDbEntity
  8
M0
 62
   114
100
AcDbLine
 10
198.72192
 20
659.362217
 11
192.220471
 21
655.609471
  0
LINE
  5
3F7
100
AcDbEntity
  8
M0
 62
   114
100
AcDbLine
 10
192.220471
 20
655.609471
 11
185.721447
 21
659.362217
  0
LINE
  5
3F8
100
AcDbEntity
  8
M0
 62
   114
100
AcDbLine
 10
185.721447
 20
659.362217
 11
185.721447
 21
666.867863
  0
LINE
  5
3F9
100
AcDbEntity
  8
M0
 62
   114
100
AcDbLine
 10
185.721447
 20
666.867863
 11
192.220471
 21
670.620457
  0
CIRCLE
  5
3FA
100
AcDbEntity
  8
M0
 62
   114
100
AcDbCircle
 10
192.220471
 20
663.115116
 40
4.0
  0
LINE
  5
3FB
100
AcDbEntity
  8
M0
  6
DASHDOT
 62
   114
100
AcDbLine
 10
202.372799
 20
663.115116
 11
182.068142
 21
663.115116
  0
LINE
  5
3FC
100
AcDbEntity
  8
M0
  6
DASHDOT
 62
   114
100
AcDbLine
 10
192.220455
 20
673.267445
 11
192.220471
 21
651.962788
  0
LINE
  5
3FD
100
AcDbEntity
  8
M0
 62
   114
100
AcDbLine
 10
116.820294
 20
670.620457
 11
110.318844
 21
666.867863
  0
LINE
  5
3FE
100
AcDbEntity
  8
M0
 62
   114
100
AcDbLine
 10
110.318844
 20
666.867863
 11
110.318844
 21
659.362217
  0
LINE
  5
3FF
100
AcDbEntity
  8
M0
 62
   114
100
AcDbLine
 10
110.318844
 20
659.362217
 11
116.820294
 21
655.609471
  0
LINE
  5
400
100
AcDbEntity
  8
M0
 62
   114
100
AcDbLine
 10
116.820294
 20
655.609471
 11
123.319317
 21
659.362217
  0
LINE
  5
401
100
AcDbEntity
  8
M0
 62
   114
100
AcDbLine
 10
123.319317
 20
659.362217
 11
123.319317
 21
666.867863
  0
LINE
  5
402
100
AcDbEntity
  8
M0
 62
   114
100
AcDbLine
 10
123.319317
 20
666.867863
 11
116.820294
 21
670.620457
  0
CIRCLE
  5
403
100
AcDbEntity
  8
M0
 62
   114
100
AcDbCircle
 10
116.820294
 20
663.115116
 40
4.0
  0
LINE
  5
404
100
AcDbEntity
  8
M0
  6
DASHDOT
 62
   114
100
AcDbLine
 10
106.667965
 20
663.115116
 11
126.972622
 21
663.115116
  0
LINE
  5
405
100
AcDbEntity
  8
M0
  6
DASHDOT
 62
   114
100
AcDbLine
 10
116.820309
 20
673.267445
 11
116.820294
 21
651.962788
  0
LINE
  5
406
100
AcDbEntity
  8
M0
 62
   114
100
AcDbLine
 10
116.820294
 20
790.611363
 11
110.318844
 21
794.363957
  0
LINE
  5
407
100
AcDbEntity
  8
M0
 62
   114
100
AcDbLine
 10
110.318844
 20
794.363957
 11
110.318844
 21
801.869602
  0
LINE
  5
408
100
AcDbEntity
  8
M0
 62
   114
100
AcDbLine
 10
110.318844
 20
801.869602
 11
116.820294
 21
805.622349
  0
LINE
  5
409
100
AcDbEntity
  8
M0
 62
   114
100
AcDbLine
 10
116.820294
 20
805.622349
 11
123.319317
 21
801.869602
  0
LINE
  5
40A
100
AcDbEntity
  8
M0
 62
   114
100
AcDbLine
 10
123.319317
 20
801.869602
 11
123.319317
 21
794.363957
  0
LINE
  5
40B
100
AcDbEntity
  8
M0
 62
   114
100
AcDbLine
 10
123.319317
 20
794.363957
 11
116.820294
 21
790.611363
  0
CIRCLE
  5
40C
100
AcDbEntity
  8
M0
 62
   114
100
AcDbCircle
 10
116.820294
 20
798.116703
 40
4.0
  0
LINE
  5
40D
100
AcDbEntity
  8
M0
 62
   114
100
AcDbLine
 10
192.220471
 20
790.611363
 11
198.72192
 21
794.363957
  0
LINE
  5
40E
100
AcDbEntity
  8
M0
 62
   114
100
AcDbLine
 10
198.72192
 20
794.363957
 11
198.72192
 21
801.869602
  0
LINE
  5
40F
100
AcDbEntity
  8
M0
 62
   114
100
AcDbLine
 10
198.72192
 20
801.869602
 11
192.220471
 21
805.622349
  0
LINE
  5
410
100
AcDbEntity
  8
M0
 62
   114
100
AcDbLine
 10
192.220471
 20
805.622349
 11
185.721447
 21
801.869602
  0
LINE
  5
411
100
AcDbEntity
  8
M0
 62
   114
100
AcDbLine
 10
185.721447
 20
801.869602
 11
185.721447
 21
794.363957
  0
LINE
  5
412
100
AcDbEntity
  8
M0
 62
   114
100
AcDbLine
 10
185.721447
 20
794.363957
 11
192.220471
 21
790.611363
  0
CIRCLE
  5
413
100
AcDbEntity
  8
M0
 62
   114
100
AcDbCircle
 10
192.220471
 20
798.116703
 40
4.0
  0
LINE
  5
414
100
AcDbEntity
  8
M0
 62
   114
100
AcDbLine
 10
154.520652
 20
670.620167
 11
148.019203
 21
666.867573
  0
LINE
  5
415
100
AcDbEntity
  8
M0
 62
   114
100
AcDbLine
 10
148.019203
 20
666.867573
 11
148.019203
 21
659.361927
  0
LINE
  5
416
100
AcDbEntity
  8
M0
 62
   114
100
AcDbLine
 10
148.019203
 20
659.361927
 11
154.520652
 21
655.609181
  0
LINE
  5
417
100
AcDbEntity
  8
M0
 62
   114
100
AcDbLine
 10
154.520652
 20
655.609181
 11
161.019675
 21
659.361927
  0
LINE
  5
418
100
AcDbEntity
  8
M0
 62
   114
100
AcDbLine
 10
161.019675
 20
659.361927
 11
161.019675
 21
666.867573
  0
LINE
  5
419
100
AcDbEntity
  8
M0
 62
   114
100
AcDbLine
 10
161.019675
 20
666.867573
 11
154.520652
 21
670.620167
  0
CIRCLE
  5
41A
100
AcDbEntity
  8
M0
 62
   114
100
AcDbCircle
 10
154.520652
 20
663.114826
 40
4.0
  0
LINE
  5
41B
100
AcDbEntity
  8
M0
  6
DASHDOT
 62
   114
100
AcDbLine
 10
144.368324
 20
663.114826
 11
164.67298
 21
663.114826
  0
LINE
  5
41C
100
AcDbEntity
  8
M0
 62
   114
100
AcDbLine
 10
154.520652
 20
790.611653
 11
148.019203
 21
794.364247
  0
LINE
  5
41D
100
AcDbEntity
  8
M0
 62
   114
100
AcDbLine
 10
148.019203
 20
794.364247
 11
148.019203
 21
801.869892
  0
LINE
  5
41E
100
AcDbEntity
  8
M0
 62
   114
100
AcDbLine
 10
148.019203
 20
801.869892
 11
154.520652
 21
805.622639
  0
LINE
  5
41F
100
AcDbEntity
  8
M0
 62
   114
100
AcDbLine
 10
154.520652
 20
805.622639
 11
161.019675
 21
801.869892
  0
LINE
  5
420
100
AcDbEntity
  8
M0
 62
   114
100
AcDbLine
 10
161.019675
 20
801.869892
 11
161.019675
 21
794.364247
  0
LINE
  5
421
100
AcDbEntity
  8
M0
 62
   114
100
AcDbLine
 10
161.019675
 20
794.364247
 11
154.520652
 21
790.611653
  0
CIRCLE
  5
422
100
AcDbEntity
  8
M0
 62
   114
100
AcDbCircle
 10
154.520652
 20
798.116993
 40
4.0
  0
LINE
  5
423
100
AcDbEntity
  8
M0
  6
DASHDOT
 62
   114
100
AcDbLine
 10
144.368324
 20
798.116993
 11
164.67298
 21
798.116993
  0
LINE
  5
424
100
AcDbEntity
  8
M0
  6
DASHED
 62
   114
100
AcDbLine
 10
137.520336
 20
672.615971
 11
136.020336
 21
672.615971
  0
LINE
  5
425
100
AcDbEntity
  8
M0
  6
DASHED
 62
   114
100
AcDbLine
 10
171.520428
 20
672.615971
 11
173.020428
 21
672.615971
  0
LINE
  5
426
100
AcDbEntity
  8
M0
  6
DASHED
 62
   114
100
AcDbLine
 10
171.520428
 20
788.615849
 11
173.020428
 21
788.615849
  0
LINE
  5
427
100
AcDbEntity
  8
M0
  6
DASHED
 62
   114
100
AcDbLine
 10
137.520352
 20
788.615849
 11
136.020352
 21
788.615849
  0
CIRCLE
  5
428
100
AcDbEntity
  8
M0
 62
   114
100
AcDbCircle
 10
102.52052
 20
750.614338
 40
2.999997
  0
CIRCLE
  5
429
100
AcDbEntity
  8
M0
 62
   114
100
AcDbCircle
 10
102.52052
 20
741.114796
 40
2.999997
  0
CIRCLE
  5
42A
100
AcDbEntity
  8
M0
 62
   114
100
AcDbCircle
 10
102.52052
 20
720.115895
 40
2.999997
  0
CIRCLE
  5
42B
100
AcDbEntity
  8
M0
 62
   114
100
AcDbCircle
 10
102.52052
 20
710.614842
 40
2.999994
  0
CIRCLE
  5
42C
100
AcDbEntity
  8
M0
 62
   114
100
AcDbCircle
 10
241.52052
 20
750.614338
 40
2.999997
  0
CIRCLE
  5
42D
100
AcDbEntity
  8
M0
 62
   114
100
AcDbCircle
 10
241.52052
 20
741.114796
 40
2.999997
  0
CIRCLE
  5
42E
100
AcDbEntity
  8
M0
 62
   114
100
AcDbCircle
 10
241.52052
 20
720.115895
 40
2.999997
  0
CIRCLE
  5
42F
100
AcDbEntity
  8
M0
 62
   114
100
AcDbCircle
 10
241.52052
 20
710.614842
 40
2.999994
  0
CIRCLE
  5
430
100
AcDbEntity
  8
M0
 62
   114
100
AcDbCircle
 10
345.520245
 20
750.614338
 40
2.999997
  0
CIRCLE
  5
431
100
AcDbEntity
  8
M0
 62
   114
100
AcDbCircle
 10
345.520245
 20
741.114796
 40
2.999997
  0
CIRCLE
  5
432
100
AcDbEntity
  8
M0
 62
   114
100
AcDbCircle
 10
345.520245
 20
720.115895
 40
2.999997
  0
LINE
  5
433
100
AcDbEntity
  8
M0
  6
DASHDOT
 62
   114
100
AcDbLine
 10
293.520382
 20
817.97971
 11
293.520382
 21
637.110157
  0
LINE
  5
434
100
AcDbEntity
  8
M0
 62
   114
100
AcDbLine
 10
266.996609
 20
675.116139
 11
271.320477
 21
675.116139
  0
LINE
  5
435
100
AcDbEntity
  8
M0
 62
   114
100
AcDbLine
 10
353.520382
 20
684.616108
 11
353.520382
 21
785.615834
  0
LINE
  5
436
100
AcDbEntity
  8
M0
 62
   114
100
AcDbLine
 10
233.520382
 20
792.115589
 11
233.520382
 21
684.616123
  0
LINE
  5
437
100
AcDbEntity
  8
M0
 62
   114
100
AcDbLine
 10
266.996945
 20
786.116078
 11
271.320477
 21
786.116078
  0
LINE
  5
438
100
AcDbEntity
  8
M0
 62
   114
100
AcDbLine
 10
351.520382
 20
787.616078
 11
340.761731
 21
787.615834
  0
LINE
  5
439
100
AcDbEntity
  8
M0
 62
   114
100
AcDbLine
 10
308.520382
 20
804.615589
 11
308.520382
 21
794.115834
  0
LINE
  5
43A
100
AcDbEntity
  8
M0
 62
   114
100
AcDbLine
 10
278.520382
 20
804.615589
 11
278.520382
 21
794.115834
  0
ARC
  5
43B
100
AcDbEntity
  8
M0
 62
   114
100
AcDbCircle
 10
351.520382
 20
785.615834
 40
2.0
100
AcDbArc
 50
0.0
 51
90.0
  0
LINE
  5
43C
100
AcDbEntity
  8
M0
 62
   114
100
AcDbLine
 10
341.020382
 20
677.116123
 11
341.020382
 21
705.616123
  0
LINE
  5
43D
100
AcDbEntity
  8
M0
 62
   114
100
AcDbLine
 10
246.020367
 20
677.116139
 11
246.020367
 21
705.616139
  0
ARC
  5
43E
100
AcDbEntity
  8
M0
 62
   114
100
AcDbCircle
 10
339.020382
 20
784.116078
 40
2.0
100
AcDbArc
 50
0.0
 51
80.219821
  0
ARC
  5
43F
100
AcDbEntity
  8
M0
 62
   114
100
AcDbCircle
 10
248.020382
 20
784.116078
 40
2.0
100
AcDbArc
 50
99.781115
 51
180.0
  0
ARC
  5
440
100
AcDbEntity
  8
M0
 62
   114
100
AcDbCircle
 10
248.020382
 20
677.116139
 40
2.0
100
AcDbArc
 50
179.999563
 51
260.210478
  0
ARC
  5
441
100
AcDbEntity
  8
M0
 62
   114
100
AcDbCircle
 10
339.020382
 20
677.116139
 40
2.0
100
AcDbArc
 50
279.786863
 51
360.0
  0
LINE
  5
442
100
AcDbEntity
  8
M0
 62
   114
100
AcDbLine
 10
351.520382
 20
682.616139
 11
342.020382
 21
682.616123
  0
ARC
  5
443
100
AcDbEntity
  8
M0
 62
   114
100
AcDbCircle
 10
235.520382
 20
684.616123
 40
2.0
100
AcDbArc
 50
179.999563
 51
270.0
  0
ARC
  5
444
100
AcDbEntity
  8
M0
 62
   114
100
AcDbCircle
 10
351.520382
 20
684.616123
 40
2.0
100
AcDbArc
 50
269.999563
 51
360.0
  0
LINE
  5
445
100
AcDbEntity
  8
M0
 62
   114
100
AcDbLine
 10
245.020382
 20
682.616123
 11
235.520382
 21
682.616123
  0
ARC
  5
446
100
AcDbEntity
  8
M0
 62
   114
100
AcDbCircle
 10
245.020382
 20
681.616108
 40
1.0
100
AcDbArc
 50
0.0
 51
89.999126
  0
ARC
  5
447
100
AcDbEntity
  8
M0
 62
   114
100
AcDbCircle
 10
342.020382
 20
681.616123
 40
1.0
100
AcDbArc
 50
90.0
 51
179.999126
  0
LINE
  5
448
100
AcDbEntity
  8
M0
 62
   114
100
AcDbLine
 10
301.020382
 20
682.616139
 11
301.020382
 21
684.116612
  0
LINE
  5
449
100
AcDbEntity
  8
M0
 62
   114
100
AcDbLine
 10
286.020382
 20
682.616139
 11
286.020382
 21
684.116627
  0
LINE
  5
44A
100
AcDbEntity
  8
M0
 62
   114
100
AcDbLine
 10
255.320385
 20
685.116123
 11
248.520382
 21
685.116108
  0
LINE
  5
44B
100
AcDbEntity
  8
M0
 62
   114
100
AcDbLine
 10
233.520382
 20
703.116123
 11
237.020382
 21
703.116123
  0
LINE
  5
44C
100
AcDbEntity
  8
M0
 62
   114
100
AcDbLine
 10
241.520382
 20
733.366139
 11
241.520382
 21
727.866139
  0
LINE
  5
44D
100
AcDbEntity
  8
M0
 62
   114
100
AcDbLine
 10
233.520382
 20
734.366139
 11
240.520382
 21
734.366139
  0
LINE
  5
44E
100
AcDbEntity
  8
M0
 62
   114
100
AcDbLine
 10
233.520382
 20
726.866139
 11
240.520382
 21
726.866139
  0
ARC
  5
44F
100
AcDbEntity
  8
M0
 62
   114
100
AcDbCircle
 10
240.520382
 20
727.866139
 40
1.0
100
AcDbArc
 50
270.0
 51
360.0
  0
ARC
  5
450
100
AcDbEntity
  8
M0
 62
   114
100
AcDbCircle
 10
240.520382
 20
733.366139
 40
1.0
100
AcDbArc
 50
0.0
 51
89.999126
  0
LINE
  5
451
100
AcDbEntity
  8
M0
 62
   114
100
AcDbLine
 10
234.020382
 20
733.366139
 11
237.520382
 21
733.366139
  0
LINE
  5
452
100
AcDbEntity
  8
M0
 62
   114
100
AcDbLine
 10
234.020382
 20
727.866139
 11
237.520382
 21
727.866139
  0
LINE
  5
453
100
AcDbEntity
  8
M0
 62
   114
100
AcDbLine
 10
237.520382
 20
734.366139
 11
237.520382
 21
733.366139
  0
LINE
  5
454
100
AcDbEntity
  8
M0
 62
   114
100
AcDbLine
 10
237.520382
 20
727.866139
 11
237.520382
 21
726.866139
  0
LINE
  5
455
100
AcDbEntity
  8
M0
 62
   114
100
AcDbLine
 10
234.020382
 20
734.366139
 11
234.020382
 21
733.366139
  0
LINE
  5
456
100
AcDbEntity
  8
M0
 62
   114
100
AcDbLine
 10
234.020382
 20
727.866139
 11
234.020382
 21
726.866139
  0
LINE
  5
457
100
AcDbEntity
  8
M0
 62
   114
100
AcDbLine
 10
234.020382
 20
748.116078
 11
237.020382
 21
748.116078
  0
LINE
  5
458
100
AcDbEntity
  8
M0
 62
   114
100
AcDbLine
 10
234.020382
 20
713.116139
 11
237.020382
 21
713.116139
  0
ARC
  5
459
100
AcDbEntity
  8
M0
 62
   114
100
AcDbCircle
 10
234.020382
 20
713.616139
 40
0.5
100
AcDbArc
 50
179.998251
 51
270.0
  0
ARC
  5
45A
100
AcDbEntity
  8
M0
 62
   114
100
AcDbCircle
 10
234.020382
 20
747.616078
 40
0.5
100
AcDbArc
 50
89.998251
 51
180.0
  0
LINE
  5
45B
100
AcDbEntity
  8
M0
 62
   114
100
AcDbLine
 10
234.020382
 20
758.116078
 11
237.020382
 21
758.116078
  0
LINE
  5
45C
100
AcDbEntity
  8
M0
 62
   114
100
AcDbLine
 10
233.520382
 20
700.616123
 11
244.020367
 21
700.616123
  0
ARC
  5
45D
100
AcDbEntity
  8
M0
 62
   114
100
AcDbCircle
 10
244.020367
 20
698.616123
 40
2.0
100
AcDbArc
 50
0.0
 51
89.999563
  0
LINE
  5
45E
100
AcDbEntity
  8
M0
 62
   114
100
AcDbLine
 10
237.520382
 20
703.616123
 11
237.520382
 21
723.916188
  0
LINE
  5
45F
100
AcDbEntity
  8
M0
 62
   114
100
AcDbLine
 10
245.520382
 20
737.316029
 11
245.520382
 21
755.116078
  0
ARC
  5
460
100
AcDbEntity
  8
M0
 62
   114
100
AcDbCircle
 10
237.020382
 20
757.616078
 40
0.5
100
AcDbArc
 50
0.0
 51
89.998251
  0
ARC
  5
461
100
AcDbEntity
  8
M0
 62
   114
100
AcDbCircle
 10
234.020382
 20
757.616078
 40
0.5
100
AcDbArc
 50
89.998251
 51
180.0
  0
ARC
  5
462
100
AcDbEntity
  8
M0
 62
   114
100
AcDbCircle
 10
237.020382
 20
747.616078
 40
0.5
100
AcDbArc
 50
0.0
 51
89.998251
  0
ARC
  5
463
100
AcDbEntity
  8
M0
 62
   114
100
AcDbCircle
 10
237.020382
 20
713.616139
 40
0.5
100
AcDbArc
 50
270.0
 51
360.0
  0
ARC
  5
464
100
AcDbEntity
  8
M0
 62
   114
100
AcDbCircle
 10
237.020382
 20
703.616123
 40
0.5
100
AcDbArc
 50
270.0
 51
360.0
  0
LINE
  5
465
100
AcDbEntity
  8
M0
 62
   114
100
AcDbLine
 10
237.520382
 20
755.616078
 11
246.020474
 21
755.616078
  0
LINE
  5
466
100
AcDbEntity
  8
M0
 62
   114
100
AcDbLine
 10
237.520382
 20
705.616139
 11
246.020367
 21
705.616139
  0
LINE
  5
467
100
AcDbEntity
  8
M0
 62
   114
100
AcDbLine
 10
246.020367
 20
755.616078
 11
246.020382
 21
784.116078
  0
LINE
  5
468
100
AcDbEntity
  8
M0
 62
   114
100
AcDbLine
 10
237.520382
 20
745.116078
 11
238.370373
 21
745.116078
  0
ARC
  5
469
100
AcDbEntity
  8
M0
  6
DASHED
 62
   114
100
AcDbCircle
 10
238.520382
 20
737.316029
 40
1.0
100
AcDbArc
 50
180.0
 51
270.0
  0
ARC
  5
46A
100
AcDbEntity
  8
M0
 62
   114
100
AcDbCircle
 10
238.520382
 20
737.616078
 40
1.0
100
AcDbArc
 50
180.0
 51
270.0
  0
LINE
  5
46B
100
AcDbEntity
  8
M0
 62
   114
100
AcDbLine
 10
237.520382
 20
738.616078
 11
238.020382
 21
738.616078
  0
LINE
  5
46C
100
AcDbEntity
  8
M0
 62
   114
100
AcDbLine
 10
237.520382
 20
754.715931
 11
238.120373
 21
754.715931
  0
ARC
  5
46D
100
AcDbEntity
  8
M0
 62
   114
100
AcDbCircle
 10
246.020382
 20
755.116078
 40
0.5
100
AcDbArc
 50
89.998251
 51
180.0
  0
LINE
  5
46E
100
AcDbEntity
  8
M0
 62
   114
100
AcDbLine
 10
245.020382
 20
737.115834
 11
245.020382
 21
738.616078
  0
LINE
  5
46F
100
AcDbEntity
  8
M0
 62
   114
100
AcDbLine
 10
238.020382
 20
737.116078
 11
238.020382
 21
738.616078
  0
LINE
  5
470
100
AcDbEntity
  8
M0
 62
   114
100
AcDbLine
 10
237.520382
 20
740.116078
 11
238.020382
 21
738.616078
  0
LINE
  5
471
100
AcDbEntity
  8
M0
 62
   114
100
AcDbLine
 10
245.520382
 20
740.116078
 11
245.020382
 21
738.616078
  0
ARC
  5
472
100
AcDbEntity
  8
M0
 62
   114
100
AcDbCircle
 10
238.520382
 20
737.116078
 40
0.5
100
AcDbArc
 50
180.0
 51
270.0
  0
LINE
  5
473
100
AcDbEntity
  8
M0
 62
   114
100
AcDbLine
 10
245.020382
 20
738.616078
 11
245.520382
 21
738.616078
  0
LINE
  5
474
100
AcDbEntity
  8
M0
 62
   114
100
AcDbLine
 10
238.270382
 20
745.415882
 11
238.370373
 21
745.415882
  0
LINE
  5
475
100
AcDbEntity
  8
M0
 62
   114
100
AcDbLine
 10
238.270382
 20
745.116078
 11
238.270382
 21
746.115834
  0
LINE
  5
476
100
AcDbEntity
  8
M0
 62
   114
100
AcDbLine
 10
244.770382
 20
746.116078
 11
244.770382
 21
745.116078
  0
ARC
  5
477
100
AcDbEntity
  8
M0
 62
   114
100
AcDbCircle
 10
237.770382
 20
746.116078
 40
0.5
100
AcDbArc
 50
359.971477
 51
449.998251
  0
ARC
  5
478
100
AcDbEntity
  8
M0
 62
   114
100
AcDbCircle
 10
245.270382
 20
746.116078
 40
0.5
100
AcDbArc
 50
89.998251
 51
180.0
  0
LINE
  5
479
100
AcDbEntity
  8
M0
 62
   114
100
AcDbLine
 10
237.520382
 20
746.616078
 11
238.020382
 21
746.616078
  0
LINE
  5
47A
100
AcDbEntity
  8
M0
 62
   114
100
AcDbLine
 10
245.020382
 20
748.215931
 11
245.020382
 21
746.616078
  0
LINE
  5
47B
100
AcDbEntity
  8
M0
 62
   114
100
AcDbLine
 10
238.020382
 20
748.215931
 11
238.020382
 21
746.616078
  0
LINE
  5
47C
100
AcDbEntity
  8
M0
 62
   114
100
AcDbLine
 10
237.520382
 20
748.215931
 11
238.020382
 21
748.215931
  0
LINE
  5
47D
100
AcDbEntity
  8
M0
 62
   114
100
AcDbLine
 10
237.520382
 20
749.715931
 11
238.020382
 21
748.215931
  0
LINE
  5
47E
100
AcDbEntity
  8
M0
 62
   114
100
AcDbLine
 10
245.520382
 20
749.715931
 11
245.020382
 21
748.215931
  0
LINE
  5
47F
100
AcDbEntity
  8
M0
 62
   114
100
AcDbLine
 10
245.020382
 20
748.215931
 11
245.520382
 21
748.215931
  0
LINE
  5
480
100
AcDbEntity
  8
M0
 62
   114
100
AcDbLine
 10
237.520382
 20
737.316029
 11
237.520382
 21
757.616078
  0
ARC
  5
481
100
AcDbEntity
  8
M0
 62
   114
100
AcDbCircle
 10
246.020382
 20
746.616078
 40
0.5
100
AcDbArc
 50
89.998251
 51
180.0
  0
ARC
  5
482
100
AcDbEntity
  8
M0
 62
   114
100
AcDbCircle
 10
248.520397
 20
773.616078
 40
2.5
100
AcDbArc
 50
89.99965
 51
180.0
  0
LINE
  5
483
100
AcDbEntity
  8
M0
 62
   114
100
AcDbLine
 10
255.320401
 20
776.116078
 11
248.520397
 21
776.116078
  0
LINE
  5
484
100
AcDbEntity
  8
M0
 62
   114
100
AcDbLine
 10
236.520382
 20
760.615834
 11
236.520382
 21
758.116078
  0
LINE
  5
485
100
AcDbEntity
  8
M0
 62
   114
100
AcDbLine
 10
233.520382
 20
760.616078
 11
236.520382
 21
760.616078
  0
LINE
  5
486
100
AcDbEntity
  8
M0
 62
   114
100
AcDbLine
 10
236.520382
 20
703.116123
 11
236.520382
 21
700.616123
  0
LINE
  5
487
100
AcDbEntity
  8
M0
 62
   114
100
AcDbLine
 10
341.020382
 20
755.615834
 11
341.020382
 21
784.116078
  0
LINE
  5
488
100
AcDbEntity
  8
M0
 62
   114
100
AcDbLine
 10
341.520413
 20
737.315785
 11
341.520413
 21
755.115834
  0
ARC
  5
489
100
AcDbEntity
  8
M0
 62
   114
100
AcDbCircle
 10
341.020413
 20
755.115834
 40
0.5
100
AcDbArc
 50
0.0
 51
90.0
  0
LINE
  5
48A
100
AcDbEntity
  8
M0
 62
   114
100
AcDbLine
 10
283.520382
 20
786.116078
 11
283.633419
 21
785.776722
  0
LINE
  5
48B
100
AcDbEntity
  8
M0
 62
   114
100
AcDbLine
 10
303.407299
 20
785.776722
 11
303.520382
 21
786.116078
  0
LINE
  5
48C
100
AcDbEntity
  8
M0
 62
   114
100
AcDbLine
 10
315.720364
 20
676.116139
 11
315.720364
 21
684.116612
  0
LINE
  5
48D
100
AcDbEntity
  8
M0
 62
   114
100
AcDbLine
 10
315.720364
 20
785.116078
 11
315.720364
 21
777.116566
  0
LINE
  5
48E
100
AcDbEntity
  8
M0
 62
   114
100
AcDbLine
 10
271.32037
 20
785.115834
 11
271.32037
 21
777.101917
  0
LINE
  5
48F
100
AcDbEntity
  8
M0
  6
DASHED
 62
   114
100
AcDbLine
 10
238.520382
 20
736.316029
 11
244.520382
 21
736.316029
  0
LINE
  5
490
100
AcDbEntity
  8
M0
 62
   114
100
AcDbLine
 10
238.520382
 20
736.616078
 11
244.520382
 21
736.616078
  0
ARC
  5
491
100
AcDbEntity
  8
M0
 62
   114
100
AcDbCircle
 10
244.520382
 20
737.616078
 40
1.0
100
AcDbArc
 50
270.0
 51
360.0
  0
ARC
  5
492
100
AcDbEntity
  8
M0
  6
DASHED
 62
   114
100
AcDbCircle
 10
244.520382
 20
737.316029
 40
1.0
100
AcDbArc
 50
270.0
 51
360.0
  0
ARC
  5
493
100
AcDbEntity
  8
M0
 62
   114
100
AcDbCircle
 10
244.520382
 20
737.116078
 40
0.5
100
AcDbArc
 50
270.0
 51
359.971477
  0
LINE
  5
494
100
AcDbEntity
  8
M0
 62
   114
100
AcDbLine
 10
245.520382
 20
723.916188
 11
245.520382
 21
706.116139
  0
LINE
  5
495
100
AcDbEntity
  8
M0
 62
   114
100
AcDbLine
 10
237.520382
 20
716.116139
 11
238.370373
 21
716.116139
  0
ARC
  5
496
100
AcDbEntity
  8
M0
  6
DASHED
 62
   114
100
AcDbCircle
 10
238.520382
 20
723.916188
 40
1.0
100
AcDbArc
 50
89.999126
 51
179.999945
  0
ARC
  5
497
100
AcDbEntity
  8
M0
 62
   114
100
AcDbCircle
 10
238.520382
 20
723.616139
 40
1.0
100
AcDbArc
 50
89.999126
 51
179.999945
  0
LINE
  5
498
100
AcDbEntity
  8
M0
 62
   114
100
AcDbLine
 10
237.520382
 20
722.616139
 11
238.020382
 21
722.616139
  0
LINE
  5
499
100
AcDbEntity
  8
M0
 62
   114
100
AcDbLine
 10
237.520382
 20
706.516285
 11
238.370373
 21
706.516285
  0
ARC
  5
49A
100
AcDbEntity
  8
M0
 62
   114
100
AcDbCircle
 10
246.020382
 20
706.116139
 40
0.5
100
AcDbArc
 50
179.998251
 51
270.0
  0
LINE
  5
49B
100
AcDbEntity
  8
M0
 62
   114
100
AcDbLine
 10
245.020382
 20
724.116383
 11
245.020382
 21
722.616139
  0
LINE
  5
49C
100
AcDbEntity
  8
M0
 62
   114
100
AcDbLine
 10
238.020382
 20
724.116139
 11
238.020382
 21
722.616139
  0
LINE
  5
49D
100
AcDbEntity
  8
M0
 62
   114
100
AcDbLine
 10
237.520382
 20
721.116139
 11
238.020382
 21
722.616139
  0
LINE
  5
49E
100
AcDbEntity
  8
M0
 62
   114
100
AcDbLine
 10
245.520382
 20
721.116139
 11
245.020382
 21
722.616139
  0
ARC
  5
49F
100
AcDbEntity
  8
M0
 62
   114
100
AcDbCircle
 10
238.520382
 20
724.116139
 40
0.5
100
AcDbArc
 50
89.998251
 51
179.999891
  0
LINE
  5
4A0
100
AcDbEntity
  8
M0
 62
   114
100
AcDbLine
 10
245.020382
 20
722.616139
 11
245.520382
 21
722.616139
  0
LINE
  5
4A1
100
AcDbEntity
  8
M0
 62
   114
100
AcDbLine
 10
238.270382
 20
715.816334
 11
238.370373
 21
715.816334
  0
LINE
  5
4A2
100
AcDbEntity
  8
M0
 62
   114
100
AcDbLine
 10
237.520382
 20
714.616139
 11
238.020382
 21
714.616139
  0
LINE
  5
4A3
100
AcDbEntity
  8
M0
 62
   114
100
AcDbLine
 10
238.270382
 20
716.116139
 11
238.270382
 21
715.116383
  0
LINE
  5
4A4
100
AcDbEntity
  8
M0
 62
   114
100
AcDbLine
 10
244.770382
 20
715.116139
 11
244.770382
 21
716.116139
  0
ARC
  5
4A5
100
AcDbEntity
  8
M0
 62
   114
100
AcDbCircle
 10
237.770382
 20
715.116139
 40
0.5
100
AcDbArc
 50
-90.0
 51
0.028086
  0
ARC
  5
4A6
100
AcDbEntity
  8
M0
 62
   114
100
AcDbCircle
 10
245.270382
 20
715.116139
 40
0.5
100
AcDbArc
 50
180.027431
 51
270.0
  0
LINE
  5
4A7
100
AcDbEntity
  8
M0
 62
   114
100
AcDbLine
 10
245.020382
 20
714.616139
 11
245.520382
 21
714.616139
  0
LINE
  5
4A8
100
AcDbEntity
  8
M0
 62
   114
100
AcDbLine
 10
245.020382
 20
713.016285
 11
245.020382
 21
714.616139
  0
LINE
  5
4A9
100
AcDbEntity
  8
M0
 62
   114
100
AcDbLine
 10
238.020382
 20
713.016285
 11
238.020382
 21
714.616139
  0
LINE
  5
4AA
100
AcDbEntity
  8
M0
 62
   114
100
AcDbLine
 10
237.520382
 20
713.016285
 11
238.020382
 21
713.016285
  0
LINE
  5
4AB
100
AcDbEntity
  8
M0
 62
   114
100
AcDbLine
 10
237.520382
 20
711.516285
 11
238.020382
 21
713.016285
  0
LINE
  5
4AC
100
AcDbEntity
  8
M0
 62
   114
100
AcDbLine
 10
245.520382
 20
711.516285
 11
245.020382
 21
713.016285
  0
LINE
  5
4AD
100
AcDbEntity
  8
M0
 62
   114
100
AcDbLine
 10
245.020382
 20
713.016285
 11
245.520382
 21
713.016285
  0
ARC
  5
4AE
100
AcDbEntity
  8
M0
 62
   114
100
AcDbCircle
 10
246.020382
 20
714.616139
 40
0.5
100
AcDbArc
 50
180.019234
 51
270.0
  0
LINE
  5
4AF
100
AcDbEntity
  8
M0
  6
DASHED
 62
   114
100
AcDbLine
 10
238.520382
 20
724.916188
 11
244.520382
 21
724.916188
  0
LINE
  5
4B0
100
AcDbEntity
  8
M0
 62
   114
100
AcDbLine
 10
238.520382
 20
724.616139
 11
244.520382
 21
724.616139
  0
ARC
  5
4B1
100
AcDbEntity
  8
M0
 62
   114
100
AcDbCircle
 10
244.520382
 20
723.616139
 40
1.0
100
AcDbArc
 50
0.0
 51
89.999126
  0
ARC
  5
4B2
100
AcDbEntity
  8
M0
  6
DASHED
 62
   114
100
AcDbCircle
 10
244.520382
 20
723.916188
 40
1.0
100
AcDbArc
 50
0.0
 51
89.999126
  0
ARC
  5
4B3
100
AcDbEntity
  8
M0
 62
   114
100
AcDbCircle
 10
244.520382
 20
724.116139
 40
0.5
100
AcDbArc
 50
0.028086
 51
89.998251
  0
LINE
  5
4B4
100
AcDbEntity
  8
M0
 62
   114
100
AcDbLine
 10
341.520413
 20
723.915943
 11
341.520382
 21
706.116123
  0
ARC
  5
4B5
100
AcDbEntity
  8
M0
 62
   114
100
AcDbCircle
 10
341.020382
 20
706.116123
 40
0.5
100
AcDbArc
 50
269.998251
 51
360.0
  0
LINE
  5
4B6
100
AcDbEntity
  8
M0
 62
   114
100
AcDbLine
 10
331.720379
 20
685.116123
 11
338.520382
 21
685.116108
  0
ARC
  5
4B7
100
AcDbEntity
  8
M0
 62
   114
100
AcDbCircle
 10
338.520382
 20
687.616108
 40
2.5
100
AcDbArc
 50
-90.00035
 51
0.0
  0
LINE
  5
4B8
100
AcDbEntity
  8
M0
 62
   114
100
AcDbLine
 10
349.520382
 20
705.616139
 11
341.020382
 21
705.616123
  0
LINE
  5
4B9
100
AcDbEntity
  8
M0
 62
   114
100
AcDbLine
 10
331.720364
 20
776.116078
 11
339.020382
 21
776.116078
  0
LINE
  5
4BA
100
AcDbEntity
  8
M0
 62
   114
100
AcDbLine
 10
353.520382
 20
703.116123
 11
350.020382
 21
703.116123
  0
LINE
  5
4BB
100
AcDbEntity
  8
M0
 62
   114
100
AcDbLine
 10
345.520382
 20
733.366139
 11
345.520382
 21
727.866139
  0
LINE
  5
4BC
100
AcDbEntity
  8
M0
 62
   114
100
AcDbLine
 10
353.520382
 20
734.366139
 11
346.520382
 21
734.366139
  0
LINE
  5
4BD
100
AcDbEntity
  8
M0
 62
   114
100
AcDbLine
 10
353.520382
 20
726.866139
 11
346.520382
 21
726.866139
  0
ARC
  5
4BE
100
AcDbEntity
  8
M0
 62
   114
100
AcDbCircle
 10
346.520382
 20
727.866139
 40
1.0
100
AcDbArc
 50
179.999945
 51
269.999126
  0
ARC
  5
4BF
100
AcDbEntity
  8
M0
 62
   114
100
AcDbCircle
 10
346.520382
 20
733.366139
 40
1.0
100
AcDbArc
 50
90.0
 51
180.0
  0
LINE
  5
4C0
100
AcDbEntity
  8
M0
 62
   114
100
AcDbLine
 10
353.520382
 20
733.365879
 11
349.520382
 21
733.366123
  0
LINE
  5
4C1
100
AcDbEntity
  8
M0
 62
   114
100
AcDbLine
 10
353.520382
 20
727.865879
 11
349.520382
 21
727.866123
  0
LINE
  5
4C2
100
AcDbEntity
  8
M0
 62
   114
100
AcDbLine
 10
349.520382
 20
734.366139
 11
349.520382
 21
733.366139
  0
LINE
  5
4C3
100
AcDbEntity
  8
M0
 62
   114
100
AcDbLine
 10
349.520382
 20
727.866139
 11
349.520382
 21
726.866139
  0
LINE
  5
4C4
100
AcDbEntity
  8
M0
 62
   114
100
AcDbLine
 10
353.020382
 20
748.115879
 11
350.020382
 21
748.115879
  0
LINE
  5
4C5
100
AcDbEntity
  8
M0
 62
   114
100
AcDbLine
 10
353.020382
 20
713.116123
 11
350.020382
 21
713.116123
  0
LINE
  5
4C6
100
AcDbEntity
  8
M0
 62
   114
100
AcDbLine
 10
353.020382
 20
758.115879
 11
350.020382
 21
758.115879
  0
LINE
  5
4C7
100
AcDbEntity
  8
M0
 62
   114
100
AcDbLine
 10
353.520382
 20
700.616123
 11
343.020397
 21
700.616123
  0
ARC
  5
4C8
100
AcDbEntity
  8
M0
 62
   114
100
AcDbCircle
 10
343.020397
 20
698.616123
 40
2.0
100
AcDbArc
 50
90.0
 51
179.999563
  0
LINE
  5
4C9
100
AcDbEntity
  8
M0
 62
   114
100
AcDbLine
 10
349.520382
 20
703.616123
 11
349.520382
 21
723.916188
  0
ARC
  5
4CA
100
AcDbEntity
  8
M0
 62
   114
100
AcDbCircle
 10
350.020382
 20
757.616078
 40
0.5
100
AcDbArc
 50
90.0
 51
180.0
  0
ARC
  5
4CB
100
AcDbEntity
  8
M0
 62
   114
100
AcDbCircle
 10
350.020382
 20
747.616078
 40
0.5
100
AcDbArc
 50
90.0
 51
180.0
  0
ARC
  5
4CC
100
AcDbEntity
  8
M0
 62
   114
100
AcDbCircle
 10
350.020382
 20
713.616139
 40
0.5
100
AcDbArc
 50
179.998251
 51
269.998251
  0
ARC
  5
4CD
100
AcDbEntity
  8
M0
 62
   114
100
AcDbCircle
 10
350.020382
 20
703.616123
 40
0.5
100
AcDbArc
 50
179.998251
 51
269.998251
  0
LINE
  5
4CE
100
AcDbEntity
  8
M0
 62
   114
100
AcDbLine
 10
349.520382
 20
755.616078
 11
341.020382
 21
755.615834
  0
LINE
  5
4CF
100
AcDbEntity
  8
M0
 62
   114
100
AcDbLine
 10
349.520382
 20
705.616139
 11
341.020382
 21
705.616123
  0
LINE
  5
4D0
100
AcDbEntity
  8
M0
 62
   114
100
AcDbLine
 10
349.520382
 20
745.116078
 11
348.670376
 21
745.115834
  0
ARC
  5
4D1
100
AcDbEntity
  8
M0
  6
DASHED
 62
   114
100
AcDbCircle
 10
348.520382
 20
737.316029
 40
1.0
100
AcDbArc
 50
-90.000874
 51
0.0
  0
ARC
  5
4D2
100
AcDbEntity
  8
M0
 62
   114
100
AcDbCircle
 10
348.520382
 20
737.616078
 40
1.0
100
AcDbArc
 50
-90.000874
 51
0.0
  0
LINE
  5
4D3
100
AcDbEntity
  8
M0
 62
   114
100
AcDbLine
 10
349.520382
 20
738.616078
 11
349.020382
 21
738.616078
  0
LINE
  5
4D4
100
AcDbEntity
  8
M0
 62
   114
100
AcDbLine
 10
349.520382
 20
754.715931
 11
348.670376
 21
754.715687
  0
LINE
  5
4D5
100
AcDbEntity
  8
M0
 62
   114
100
AcDbLine
 10
342.020382
 20
737.115834
 11
342.020382
 21
738.616078
  0
LINE
  5
4D6
100
AcDbEntity
  8
M0
 62
   114
100
AcDbLine
 10
349.020382
 20
737.116078
 11
349.020382
 21
738.616078
  0
LINE
  5
4D7
100
AcDbEntity
  8
M0
 62
   114
100
AcDbLine
 10
349.520382
 20
740.116078
 11
349.020382
 21
738.616078
  0
LINE
  5
4D8
100
AcDbEntity
  8
M0
 62
   114
100
AcDbLine
 10
341.520382
 20
740.116078
 11
342.020382
 21
738.616078
  0
ARC
  5
4D9
100
AcDbEntity
  8
M0
 62
   114
100
AcDbCircle
 10
348.520382
 20
737.116078
 40
0.5
100
AcDbArc
 50
-90.001749
 51
0.0
  0
LINE
  5
4DA
100
AcDbEntity
  8
M0
 62
   114
100
AcDbLine
 10
342.020382
 20
738.616078
 11
341.520382
 21
738.616078
  0
LINE
  5
4DB
100
AcDbEntity
  8
M0
 62
   114
100
AcDbLine
 10
348.770382
 20
745.415882
 11
348.670376
 21
745.415638
  0
LINE
  5
4DC
100
AcDbEntity
  8
M0
 62
   114
100
AcDbLine
 10
349.520382
 20
746.616078
 11
349.020382
 21
746.615834
  0
LINE
  5
4DD
100
AcDbEntity
  8
M0
 62
   114
100
AcDbLine
 10
348.770382
 20
745.116078
 11
348.770382
 21
746.115834
  0
LINE
  5
4DE
100
AcDbEntity
  8
M0
 62
   114
100
AcDbLine
 10
342.270382
 20
746.116078
 11
342.270382
 21
745.116078
  0
ARC
  5
4DF
100
AcDbEntity
  8
M0
 62
   114
100
AcDbCircle
 10
349.270382
 20
746.116078
 40
0.5
100
AcDbArc
 50
90.0
 51
180.055953
  0
ARC
  5
4E0
100
AcDbEntity
  8
M0
 62
   114
100
AcDbCircle
 10
341.770382
 20
746.116078
 40
0.5
100
AcDbArc
 50
0.0
 51
90.0
  0
LINE
  5
4E1
100
AcDbEntity
  8
M0
 62
   114
100
AcDbLine
 10
342.020382
 20
746.615834
 11
341.520382
 21
746.616078
  0
LINE
  5
4E2
100
AcDbEntity
  8
M0
 62
   114
100
AcDbLine
 10
342.020382
 20
748.215931
 11
342.020382
 21
746.616078
  0
LINE
  5
4E3
100
AcDbEntity
  8
M0
 62
   114
100
AcDbLine
 10
349.020382
 20
748.215931
 11
349.020382
 21
746.616078
  0
LINE
  5
4E4
100
AcDbEntity
  8
M0
 62
   114
100
AcDbLine
 10
349.520382
 20
748.215931
 11
349.020382
 21
748.215931
  0
LINE
  5
4E5
100
AcDbEntity
  8
M0
 62
   114
100
AcDbLine
 10
349.520382
 20
749.715931
 11
349.020382
 21
748.215931
  0
LINE
  5
4E6
100
AcDbEntity
  8
M0
 62
   114
100
AcDbLine
 10
341.520382
 20
749.715931
 11
342.020382
 21
748.215931
  0
LINE
  5
4E7
100
AcDbEntity
  8
M0
 62
   114
100
AcDbLine
 10
342.020382
 20
748.215931
 11
341.520382
 21
748.215931
  0
LINE
  5
4E8
100
AcDbEntity
  8
M0
 62
   114
100
AcDbLine
 10
349.520382
 20
737.316029
 11
349.520382
 21
757.616078
  0
LINE
  5
4E9
100
AcDbEntity
  8
M0
 62
   114
100
AcDbLine
 10
350.520382
 20
760.615834
 11
350.520382
 21
758.116078
  0
LINE
  5
4EA
100
AcDbEntity
  8
M0
 62
   114
100
AcDbLine
 10
353.520382
 20
760.616078
 11
350.520382
 21
760.616078
  0
LINE
  5
4EB
100
AcDbEntity
  8
M0
 62
   114
100
AcDbLine
 10
350.520382
 20
703.116123
 11
350.520382
 21
700.616123
  0
LINE
  5
4EC
100
AcDbEntity
  8
M0
  6
DASHED
 62
   114
100
AcDbLine
 10
348.520382
 20
736.316029
 11
342.520382
 21
736.316029
  0
LINE
  5
4ED
100
AcDbEntity
  8
M0
 62
   114
100
AcDbLine
 10
348.520382
 20
736.616078
 11
342.520382
 21
736.616078
  0
ARC
  5
4EE
100
AcDbEntity
  8
M0
 62
   114
100
AcDbCircle
 10
342.520382
 20
737.616078
 40
1.0
100
AcDbArc
 50
180.0
 51
269.999126
  0
ARC
  5
4EF
100
AcDbEntity
  8
M0
  6
DASHED
 62
   114
100
AcDbCircle
 10
342.520382
 20
737.316029
 40
1.0
100
AcDbArc
 50
180.0
 51
269.999126
  0
ARC
  5
4F0
100
AcDbEntity
  8
M0
 62
   114
100
AcDbCircle
 10
342.520382
 20
737.116078
 40
0.5
100
AcDbArc
 50
180.055953
 51
269.998251
  0
LINE
  5
4F1
100
AcDbEntity
  8
M0
 62
   114
100
AcDbLine
 10
349.520382
 20
716.116139
 11
348.670376
 21
716.116123
  0
ARC
  5
4F2
100
AcDbEntity
  8
M0
  6
DASHED
 62
   114
100
AcDbCircle
 10
348.520382
 20
723.916188
 40
1.0
100
AcDbArc
 50
0.0
 51
90.0
  0
ARC
  5
4F3
100
AcDbEntity
  8
M0
 62
   114
100
AcDbCircle
 10
348.520382
 20
723.616139
 40
1.0
100
AcDbArc
 50
0.0
 51
90.0
  0
LINE
  5
4F4
100
AcDbEntity
  8
M0
 62
   114
100
AcDbLine
 10
349.520382
 20
722.616139
 11
349.020382
 21
722.616139
  0
LINE
  5
4F5
100
AcDbEntity
  8
M0
 62
   114
100
AcDbLine
 10
349.520382
 20
706.516285
 11
348.920376
 21
706.51627
  0
LINE
  5
4F6
100
AcDbEntity
  8
M0
 62
   114
100
AcDbLine
 10
342.020382
 20
724.116383
 11
342.020382
 21
722.616139
  0
LINE
  5
4F7
100
AcDbEntity
  8
M0
 62
   114
100
AcDbLine
 10
349.020382
 20
724.116139
 11
349.020382
 21
722.616139
  0
LINE
  5
4F8
100
AcDbEntity
  8
M0
 62
   114
100
AcDbLine
 10
349.520382
 20
721.116139
 11
349.020382
 21
722.616139
  0
LINE
  5
4F9
100
AcDbEntity
  8
M0
 62
   114
100
AcDbLine
 10
341.520382
 20
721.116139
 11
342.020382
 21
722.616139
  0
ARC
  5
4FA
100
AcDbEntity
  8
M0
 62
   114
100
AcDbCircle
 10
348.520382
 20
724.116139
 40
0.5
100
AcDbArc
 50
0.0
 51
90.0
  0
LINE
  5
4FB
100
AcDbEntity
  8
M0
 62
   114
100
AcDbLine
 10
342.020382
 20
722.616139
 11
341.520382
 21
722.616139
  0
LINE
  5
4FC
100
AcDbEntity
  8
M0
 62
   114
100
AcDbLine
 10
348.770382
 20
715.816334
 11
348.670376
 21
715.816319
  0
LINE
  5
4FD
100
AcDbEntity
  8
M0
 62
   114
100
AcDbLine
 10
349.520382
 20
714.616139
 11
349.020382
 21
714.616123
  0
LINE
  5
4FE
100
AcDbEntity
  8
M0
 62
   114
100
AcDbLine
 10
348.770382
 20
716.116139
 11
348.770382
 21
715.116383
  0
LINE
  5
4FF
100
AcDbEntity
  8
M0
 62
   114
100
AcDbLine
 10
342.270382
 20
715.116139
 11
342.270382
 21
716.116139
  0
ARC
  5
500
100
AcDbEntity
  8
M0
 62
   114
100
AcDbCircle
 10
349.270382
 20
715.116139
 40
0.5
100
AcDbArc
 50
179.971477
 51
269.998251
  0
ARC
  5
501
100
AcDbEntity
  8
M0
 62
   114
100
AcDbCircle
 10
341.770382
 20
715.116139
 40
0.5
100
AcDbArc
 50
269.998251
 51
359.972023
  0
LINE
  5
502
100
AcDbEntity
  8
M0
 62
   114
100
AcDbLine
 10
342.020382
 20
714.616123
 11
341.520382
 21
714.616139
  0
LINE
  5
503
100
AcDbEntity
  8
M0
 62
   114
100
AcDbLine
 10
342.020382
 20
713.016285
 11
342.020382
 21
714.616139
  0
LINE
  5
504
100
AcDbEntity
  8
M0
 62
   114
100
AcDbLine
 10
349.020382
 20
713.016285
 11
349.020382
 21
714.616139
  0
LINE
  5
505
100
AcDbEntity
  8
M0
 62
   114
100
AcDbLine
 10
349.520382
 20
713.016285
 11
349.020382
 21
713.016285
  0
LINE
  5
506
100
AcDbEntity
  8
M0
 62
   114
100
AcDbLine
 10
349.520382
 20
711.516285
 11
349.020382
 21
713.016285
  0
LINE
  5
507
100
AcDbEntity
  8
M0
 62
   114
100
AcDbLine
 10
341.520382
 20
711.516285
 11
342.020382
 21
713.016285
  0
LINE
  5
508
100
AcDbEntity
  8
M0
 62
   114
100
AcDbLine
 10
342.020382
 20
713.016285
 11
341.520382
 21
713.016285
  0
LINE
  5
509
100
AcDbEntity
  8
M0
  6
DASHED
 62
   114
100
AcDbLine
 10
348.520382
 20
724.916188
 11
342.520382
 21
724.916188
  0
LINE
  5
50A
100
AcDbEntity
  8
M0
 62
   114
100
AcDbLine
 10
348.520382
 20
724.616139
 11
342.520382
 21
724.616139
  0
ARC
  5
50B
100
AcDbEntity
  8
M0
 62
   114
100
AcDbCircle
 10
342.520382
 20
723.616139
 40
1.0
100
AcDbArc
 50
90.0
 51
179.999945
  0
ARC
  5
50C
100
AcDbEntity
  8
M0
  6
DASHED
 62
   114
100
AcDbCircle
 10
342.520382
 20
723.916188
 40
1.0
100
AcDbArc
 50
90.0
 51
179.999945
  0
ARC
  5
50D
100
AcDbEntity
  8
M0
 62
   114
100
AcDbCircle
 10
342.520382
 20
724.116139
 40
0.5
100
AcDbArc
 50
90.0
 51
179.999891
  0
ARC
  5
50E
100
AcDbEntity
  8
M0
 62
   114
100
AcDbCircle
 10
339.020382
 20
774.116078
 40
2.0
100
AcDbArc
 50
0.0
 51
90.0
  0
ARC
  5
50F
100
AcDbEntity
  8
M0
 62
   114
100
AcDbCircle
 10
283.159985
 20
675.616139
 40
0.5
100
AcDbArc
 50
270.0
 51
341.565328
  0
ARC
  5
510
100
AcDbEntity
  8
M0
 62
   114
100
AcDbCircle
 10
303.880749
 20
675.616139
 40
0.5
100
AcDbArc
 50
198.430975
 51
270.0
  0
LINE
  5
511
100
AcDbEntity
  8
M0
 62
   114
100
AcDbLine
 10
321.220349
 20
794.115834
 11
308.520382
 21
794.115834
  0
LINE
  5
512
100
AcDbEntity
  8
M0
 62
   114
100
AcDbLine
 10
307.520382
 20
805.615834
 11
303.520428
 21
805.615589
  0
ARC
  5
513
100
AcDbEntity
  8
M0
 62
   114
100
AcDbCircle
 10
235.520382
 20
792.115834
 40
2.0
100
AcDbArc
 50
89.999563
 51
180.006994
  0
ARC
  5
514
100
AcDbEntity
  8
M0
 62
   114
100
AcDbCircle
 10
307.520382
 20
804.615589
 40
1.0
100
AcDbArc
 50
0.0
 51
90.0
  0
ARC
  5
515
100
AcDbEntity
  8
M0
 62
   114
100
AcDbCircle
 10
279.520382
 20
804.615589
 40
1.0
100
AcDbArc
 50
90.0
 51
180.0
  0
LINE
  5
516
100
AcDbEntity
  8
M0
 62
   114
100
AcDbLine
 10
278.520382
 20
794.115834
 11
265.820431
 21
794.115589
  0
TEXT
  5
517
100
AcDbEntity
  8
M0
 62
   114
100
AcDbText
 10
280.770353
 20
799.615315
 40
4.0
  1
Ｃ
 41
0.625003
  7
STANDARD
100
AcDbText
  0
TEXT
  5
518
100
AcDbEntity
  8
M0
 62
   114
100
AcDbText
 10
301.770353
 20
799.615315
 40
4.0
  1
　１
 41
0.625003
  7
STANDARD
100
AcDbText
  0
LINE
  5
519
100
AcDbEntity
  8
M0
 62
   114
100
AcDbLine
 10
278.520382
 20
796.115834
 11
283.520489
 21
796.115834
  0
LINE
  5
51A
100
AcDbEntity
  8
M0
 62
   114
100
AcDbLine
 10
293.578503
 20
693.59943
 11
293.520382
 21
693.56612
  0
LINE
  5
51B
100
AcDbEntity
  8
M0
 62
   114
100
AcDbLine
 10
315.720364
 20
786.116078
 11
320.043667
 21
786.116078
  0
LINE
  5
51C
100
AcDbEntity
  8
M0
 62
   114
100
AcDbLine
 10
281.020474
 20
786.116078
 11
284.226437
 21
786.116078
  0
LINE
  5
51D
100
AcDbEntity
  8
M0
 62
   114
100
AcDbLine
 10
315.720471
 20
675.116139
 11
320.044094
 21
675.116139
  0
LINE
  5
51E
100
AcDbEntity
  8
M0
 62
   114
100
AcDbLine
 10
245.820431
 20
794.115589
 11
235.520382
 21
794.115834
  0
LINE
  5
51F
100
AcDbEntity
  8
M0
 62
   114
100
AcDbLine
 10
302.81477
 20
786.116078
 11
306.020474
 21
786.116078
  0
LINE
  5
520
100
AcDbEntity
  8
M0
 62
   114
100
AcDbLine
 10
303.520428
 20
796.115834
 11
308.520382
 21
796.115834
  0
LINE
  5
521
100
AcDbEntity
  8
M0
 62
   114
100
AcDbLine
 10
283.520489
 20
805.615589
 11
279.520382
 21
805.615834
  0
LINE
  5
522
100
AcDbEntity
  8
M0
 62
   114
100
AcDbLine
 10
244.670376
 20
745.116078
 11
245.520382
 21
745.116078
  0
LINE
  5
523
100
AcDbEntity
  8
M0
 62
   114
100
AcDbLine
 10
244.670376
 20
745.415882
 11
244.770382
 21
745.415882
  0
LINE
  5
524
100
AcDbEntity
  8
M0
 62
   114
100
AcDbLine
 10
245.020382
 20
746.616078
 11
245.520382
 21
746.616078
  0
LINE
  5
525
100
AcDbEntity
  8
M0
 62
   114
100
AcDbLine
 10
244.670376
 20
754.715931
 11
245.520382
 21
754.715931
  0
LINE
  5
526
100
AcDbEntity
  8
M0
 62
   114
100
AcDbLine
 10
342.120373
 20
754.715687
 11
341.520382
 21
754.715931
  0
LINE
  5
527
100
AcDbEntity
  8
M0
 62
   114
100
AcDbLine
 10
342.370373
 20
745.415638
 11
342.270382
 21
745.415882
  0
LINE
  5
528
100
AcDbEntity
  8
M0
 62
   114
100
AcDbLine
 10
342.370373
 20
745.115834
 11
341.520382
 21
745.116078
  0
LINE
  5
529
100
AcDbEntity
  8
M0
 62
   114
100
AcDbLine
 10
342.370373
 20
716.116123
 11
341.520382
 21
716.116139
  0
LINE
  5
52A
100
AcDbEntity
  8
M0
 62
   114
100
AcDbLine
 10
342.370373
 20
715.816319
 11
342.270382
 21
715.816334
  0
LINE
  5
52B
100
AcDbEntity
  8
M0
 62
   114
100
AcDbLine
 10
342.370373
 20
706.51627
 11
341.520382
 21
706.516285
  0
LINE
  5
52C
100
AcDbEntity
  8
M0
 62
   114
100
AcDbLine
 10
244.920376
 20
706.516285
 11
245.520382
 21
706.516285
  0
LINE
  5
52D
100
AcDbEntity
  8
M0
 62
   114
100
AcDbLine
 10
244.670376
 20
715.816334
 11
244.770382
 21
715.816334
  0
LINE
  5
52E
100
AcDbEntity
  8
M0
 62
   114
100
AcDbLine
 10
244.670376
 20
716.116139
 11
245.520382
 21
716.116139
  0
ARC
  5
52F
100
AcDbEntity
  8
M0
 62
   114
100
AcDbCircle
 10
353.020382
 20
747.615635
 40
0.5
100
AcDbArc
 50
0.0
 51
90.0
  0
ARC
  5
530
100
AcDbEntity
  8
M0
 62
   114
100
AcDbCircle
 10
353.020382
 20
757.615635
 40
0.5
100
AcDbArc
 50
0.0
 51
90.0
  0
ARC
  5
531
100
AcDbEntity
  8
M0
 62
   114
100
AcDbCircle
 10
353.020382
 20
713.615879
 40
0.5
100
AcDbArc
 50
269.998251
 51
360.0
  0
LINE
  5
532
100
AcDbEntity
  8
M0
 62
   114
100
AcDbLine
 10
353.520779
 20
663.615681
 11
353.520779
 21
797.61501
  0
LINE
  5
533
100
AcDbEntity
  8
M0
 62
   114
100
AcDbLine
 10
345.520764
 20
805.615498
 11
341.220242
 21
805.61504
  0
LINE
  5
534
100
AcDbEntity
  8
M0
 62
   114
100
AcDbLine
 10
233.520779
 20
797.615254
 11
233.520779
 21
663.615696
  0
ARC
  5
535
100
AcDbEntity
  8
M0
 62
   114
100
AcDbCircle
 10
241.520779
 20
797.615254
 40
8.0
100
AcDbArc
 50
89.999891
 51
180.0
  0
ARC
  5
536
100
AcDbEntity
  8
M0
 62
   114
100
AcDbCircle
 10
241.520779
 20
663.615696
 40
8.0
100
AcDbArc
 50
179.999891
 51
270.0
  0
ARC
  5
537
100
AcDbEntity
  8
M0
 62
   114
100
AcDbCircle
 10
345.520779
 20
663.615696
 40
8.0
100
AcDbArc
 50
269.999891
 51
360.0
  0
ARC
  5
538
100
AcDbEntity
  8
M0
 62
   114
100
AcDbCircle
 10
345.520779
 20
797.615254
 40
8.0
100
AcDbArc
 50
0.0
 51
90.0
  0
LINE
  5
539
100
AcDbEntity
  8
M0
 62
   114
100
AcDbLine
 10
246.020779
 20
677.115696
 11
246.020779
 21
681.615681
  0
ARC
  5
53A
100
AcDbEntity
  8
M0
 62
   114
100
AcDbCircle
 10
248.020779
 20
677.115696
 40
2.0
100
AcDbArc
 50
179.999563
 51
260.210908
  0
LINE
  5
53B
100
AcDbEntity
  8
M0
 62
   114
100
AcDbLine
 10
235.520779
 20
682.615696
 11
245.020779
 21
682.615696
  0
ARC
  5
53C
100
AcDbEntity
  8
M0
 62
   114
100
AcDbCircle
 10
235.520779
 20
684.615696
 40
2.0
100
AcDbArc
 50
179.999563
 51
270.0
  0
ARC
  5
53D
100
AcDbEntity
  8
M0
 62
   114
100
AcDbCircle
 10
245.020779
 20
681.615696
 40
1.0
100
AcDbArc
 50
0.0
 51
89.999126
  0
LINE
  5
53E
100
AcDbEntity
  8
M0
 62
   114
100
AcDbLine
 10
316.520779
 20
794.114796
 11
316.520779
 21
803.114796
  0
LINE
  5
53F
100
AcDbEntity
  8
M0
 62
   114
100
AcDbLine
 10
308.520779
 20
794.115284
 11
308.520779
 21
803.614552
  0
LINE
  5
540
100
AcDbEntity
  8
M0
 62
   114
100
AcDbLine
 10
320.520779
 20
797.115254
 11
320.520779
 21
804.61501
  0
ARC
  5
541
100
AcDbEntity
  8
M0
 62
   114
100
AcDbCircle
 10
323.520779
 20
797.11504
 40
3.0
100
AcDbArc
 50
180.0
 51
219.928703
  0
ARC
  5
542
100
AcDbEntity
  8
M0
 62
   114
100
AcDbCircle
 10
319.520779
 20
804.615254
 40
1.0
100
AcDbArc
 50
359.98164
 51
450.0
  0
ARC
  5
543
100
AcDbEntity
  8
M0
 62
   114
100
AcDbCircle
 10
320.020779
 20
803.11501
 40
0.5
100
AcDbArc
 50
359.96328
 51
450.0
  0
LINE
  5
544
100
AcDbEntity
  8
M0
 62
   114
100
AcDbLine
 10
341.020779
 20
677.115696
 11
341.020779
 21
681.615681
  0
ARC
  5
545
100
AcDbEntity
  8
M0
 62
   114
100
AcDbCircle
 10
339.020779
 20
677.115696
 40
2.0
100
AcDbArc
 50
-80.242385
 51
0.0
  0
LINE
  5
546
100
AcDbEntity
  8
M0
 62
   114
100
AcDbLine
 10
351.520779
 20
682.615696
 11
342.020779
 21
682.615696
  0
ARC
  5
547
100
AcDbEntity
  8
M0
 62
   114
100
AcDbCircle
 10
351.520779
 20
684.615696
 40
2.0
100
AcDbArc
 50
-90.000437
 51
0.0
  0
ARC
  5
548
100
AcDbEntity
  8
M0
 62
   114
100
AcDbCircle
 10
342.020779
 20
681.615696
 40
1.0
100
AcDbArc
 50
90.0
 51
179.999126
  0
LINE
  5
549
100
AcDbEntity
  8
M0
 62
   114
100
AcDbLine
 10
237.520779
 20
748.115498
 11
237.520779
 21
752.865498
  0
LINE
  5
54A
100
AcDbEntity
  8
M0
 62
   114
100
AcDbLine
 10
321.220211
 20
794.11504
 11
320.020779
 21
794.115284
  0
LINE
  5
54B
100
AcDbEntity
  8
M0
 62
   114
100
AcDbLine
 10
351.520779
 20
787.615284
 11
340.761822
 21
787.61504
  0
ARC
  5
54C
100
AcDbEntity
  8
M0
 62
   114
100
AcDbCircle
 10
351.520779
 20
785.615498
 40
2.0
100
AcDbArc
 50
0.0
 51
90.0
  0
LINE
  5
54D
100
AcDbEntity
  8
M0
 62
   114
100
AcDbLine
 10
308.520779
 20
794.115498
 11
316.520779
 21
794.115498
  0
LINE
  5
54E
100
AcDbEntity
  8
M0
 62
   114
100
AcDbLine
 10
320.020779
 20
803.615254
 11
317.020779
 21
803.615254
  0
ARC
  5
54F
100
AcDbEntity
  8
M0
 62
   114
100
AcDbCircle
 10
317.020779
 20
803.11501
 40
0.5
100
AcDbArc
 50
90.0
 51
180.0
  0
LINE
  5
550
100
AcDbEntity
  8
M0
 62
   114
100
AcDbLine
 10
270.520779
 20
794.114552
 11
270.520779
 21
803.114796
  0
LINE
  5
551
100
AcDbEntity
  8
M0
 62
   114
100
AcDbLine
 10
278.520779
 20
794.11504
 11
278.520779
 21
803.614552
  0
LINE
  5
552
100
AcDbEntity
  8
M0
 62
   114
100
AcDbLine
 10
266.520779
 20
797.115254
 11
266.520779
 21
804.61501
  0
ARC
  5
553
100
AcDbEntity
  8
M0
 62
   114
100
AcDbCircle
 10
263.520779
 20
797.11504
 40
3.0
100
AcDbArc
 50
-39.959523
 51
0.0
  0
ARC
  5
554
100
AcDbEntity
  8
M0
 62
   114
100
AcDbCircle
 10
267.520779
 20
804.615254
 40
1.0
100
AcDbArc
 50
89.999126
 51
180.027977
  0
ARC
  5
555
100
AcDbEntity
  8
M0
 62
   114
100
AcDbCircle
 10
267.020779
 20
803.11501
 40
0.5
100
AcDbArc
 50
89.998251
 51
180.055955
  0
LINE
  5
556
100
AcDbEntity
  8
M0
 62
   114
100
AcDbLine
 10
278.520779
 20
794.115498
 11
270.520779
 21
794.115498
  0
LINE
  5
557
100
AcDbEntity
  8
M0
 62
   114
100
AcDbLine
 10
267.020779
 20
803.615254
 11
270.020779
 21
803.615254
  0
ARC
  5
558
100
AcDbEntity
  8
M0
 62
   114
100
AcDbCircle
 10
270.020779
 20
803.11501
 40
0.5
100
AcDbArc
 50
0.0
 51
89.998251
  0
ARC
  5
559
100
AcDbEntity
  8
M0
 62
   114
100
AcDbCircle
 10
238.020779
 20
803.11501
 40
0.5
100
AcDbArc
 50
0.0
 51
89.998251
  0
LINE
  5
55A
100
AcDbEntity
  8
M0
 62
   114
100
AcDbLine
 10
238.520779
 20
794.115284
 11
238.520779
 21
803.114796
  0
LINE
  5
55B
100
AcDbEntity
  8
M0
 62
   114
100
AcDbLine
 10
238.020779
 20
803.615254
 11
236.229275
 21
803.615254
  0
LINE
  5
55C
100
AcDbEntity
  8
M0
 62
   114
100
AcDbLine
 10
238.520779
 20
802.615284
 11
245.820294
 21
802.615284
  0
LINE
  5
55D
100
AcDbEntity
  8
M0
 62
   114
100
AcDbLine
 10
270.520779
 20
802.615498
 11
278.520779
 21
802.615498
  0
LINE
  5
55E
100
AcDbEntity
  8
M0
 62
   114
100
AcDbLine
 10
308.520779
 20
802.615498
 11
316.520779
 21
802.615498
  0
LINE
  5
55F
100
AcDbEntity
  8
M0
 62
   114
100
AcDbLine
 10
245.820294
 20
805.61504
 11
241.520779
 21
805.615254
  0
LINE
  5
560
100
AcDbEntity
  8
M0
 62
   114
100
AcDbLine
 10
321.220211
 20
805.61504
 11
303.520291
 21
805.614796
  0
LINE
  5
561
100
AcDbEntity
  8
M0
 62
   114
100
AcDbLine
 10
341.220455
 20
655.615696
 11
345.520779
 21
655.615696
  0
LINE
  5
562
100
AcDbEntity
  8
M0
 62
   114
100
AcDbLine
 10
283.520352
 20
805.614796
 11
265.820294
 21
805.61504
  0
CIRCLE
  5
563
100
AcDbEntity
  8
M0
 62
   114
100
AcDbCircle
 10
331.220471
 20
663.11536
 40
3.999995
  0
CIRCLE
  5
564
100
AcDbEntity
  8
M0
 62
   114
100
AcDbCircle
 10
331.220471
 20
663.11536
 40
3.499995
  0
LINE
  5
565
100
AcDbEntity
  8
M0
 62
   114
100
AcDbLine
 10
316.220227
 20
681.614903
 11
316.220227
 21
684.981556
  0
LINE
  5
566
100
AcDbEntity
  8
M0
 62
   114
100
AcDbLine
 10
316.220242
 20
681.615132
 11
321.220471
 21
673.115132
  0
LINE
  5
567
100
AcDbEntity
  8
M0
 62
   114
100
AcDbLine
 10
330.220242
 20
685.115116
 11
341.220227
 21
673.115116
  0
CIRCLE
  5
568
100
AcDbEntity
  8
M0
 62
   114
100
AcDbCircle
 10
255.819958
 20
663.115422
 40
3.999995
  0
CIRCLE
  5
569
100
AcDbEntity
  8
M0
 62
   114
100
AcDbCircle
 10
255.819958
 20
663.115422
 40
3.499995
  0
LINE
  5
56A
100
AcDbEntity
  8
M0
 62
   114
100
AcDbLine
 10
265.819943
 20
673.115391
 11
265.819943
 21
664.322193
  0
LINE
  5
56B
100
AcDbEntity
  8
M0
 62
   114
100
AcDbLine
 10
303.52026
 20
655.615696
 11
321.220425
 21
655.615696
  0
LINE
  5
56C
100
AcDbEntity
  8
M0
 62
   114
100
AcDbLine
 10
265.820294
 20
655.615696
 11
283.520291
 21
655.615696
  0
LINE
  5
56D
100
AcDbEntity
  8
M0
 62
   114
100
AcDbLine
 10
241.520779
 20
655.615696
 11
245.819928
 21
655.615696
  0
LINE
  5
56E
100
AcDbEntity
  8
M0
 62
   114
100
AcDbLine
 10
339.041134
 20
654.115132
 11
341.22041
 21
654.115116
  0
LINE
  5
56F
100
AcDbEntity
  8
M0
 62
   114
100
AcDbLine
 10
341.220455
 20
654.115116
 11
341.220425
 21
661.408482
  0
LINE
  5
570
100
AcDbEntity
  8
M0
 62
   114
100
AcDbLine
 10
247.483639
 20
654.115132
 11
245.819912
 21
654.115223
  0
LINE
  5
571
100
AcDbEntity
  8
M0
 62
   114
100
AcDbLine
 10
321.22044
 20
673.115391
 11
321.220425
 21
654.117008
  0
LINE
  5
572
100
AcDbEntity
  8
M0
 62
   114
100
AcDbLine
 10
341.22102
 20
654.117253
 11
341.220227
 21
673.115116
  0
LINE
  5
573
100
AcDbEntity
  8
M0
 62
   114
100
AcDbLine
 10
270.820233
 20
681.614887
 11
270.820233
 21
684.981663
  0
LINE
  5
574
100
AcDbEntity
  8
M0
 62
   114
100
AcDbLine
 10
270.820248
 20
681.615132
 11
265.819973
 21
673.115147
  0
LINE
  5
575
100
AcDbEntity
  8
M0
 62
   114
100
AcDbLine
 10
256.820248
 20
685.115177
 11
245.820248
 21
673.115208
  0
LINE
  5
576
100
AcDbEntity
  8
M0
 62
   114
100
AcDbLine
 10
245.819912
 20
670.526188
 11
245.820248
 21
673.115208
  0
LINE
  5
577
100
AcDbEntity
  8
M0
 62
   114
100
AcDbLine
 10
300.520253
 20
684.981678
 11
300.520254
 21
681.615391
  0
LINE
  5
578
100
AcDbEntity
  8
M0
 62
   114
100
AcDbLine
 10
286.520301
 20
684.981587
 11
286.520302
 21
681.61536
  0
LINE
  5
579
100
AcDbEntity
  8
M0
 62
   114
100
AcDbLine
 10
300.520254
 20
681.615132
 11
301.020347
 21
680.198094
  0
LINE
  5
57A
100
AcDbEntity
  8
M0
 62
   114
100
AcDbLine
 10
286.520302
 20
681.615116
 11
286.020348
 21
680.198567
  0
CIRCLE
  5
57B
100
AcDbEntity
  8
M0
 62
   114
100
AcDbCircle
 10
293.520307
 20
663.115132
 40
3.499995
  0
CIRCLE
  5
57C
100
AcDbEntity
  8
M0
 62
   114
100
AcDbCircle
 10
293.520307
 20
663.115132
 40
3.999995
  0
LINE
  5
57D
100
AcDbEntity
  8
M0
 62
   114
100
AcDbLine
 10
284.542307
 20
676.010792
 11
283.520305
 21
673.115116
  0
LINE
  5
57E
100
AcDbEntity
  8
M0
 62
   114
100
AcDbLine
 10
302.497963
 20
676.011143
 11
303.520013
 21
673.115132
  0
CIRCLE
  5
57F
100
AcDbEntity
  8
M0
 62
   114
100
AcDbCircle
 10
346.520245
 20
780.614826
 40
3.499997
  0
CIRCLE
  5
580
100
AcDbEntity
  8
M0
 62
   114
100
AcDbCircle
 10
346.520245
 20
780.614826
 40
3.999995
  0
CIRCLE
  5
581
100
AcDbEntity
  8
M0
 62
   114
100
AcDbCircle
 10
240.520245
 20
760.614826
 40
3.499997
  0
CIRCLE
  5
582
100
AcDbEntity
  8
M0
 62
   114
100
AcDbCircle
 10
240.520245
 20
760.614826
 40
3.999995
  0
CIRCLE
  5
583
100
AcDbEntity
  8
M0
 62
   114
100
AcDbCircle
 10
240.520245
 20
690.615086
 40
3.499997
  0
CIRCLE
  5
584
100
AcDbEntity
  8
M0
 62
   114
100
AcDbCircle
 10
240.520245
 20
690.615086
 40
3.999995
  0
CIRCLE
  5
585
100
AcDbEntity
  8
M0
 62
   114
100
AcDbCircle
 10
346.520245
 20
690.61504
 40
3.499997
  0
CIRCLE
  5
586
100
AcDbEntity
  8
M0
 62
   114
100
AcDbCircle
 10
346.520245
 20
690.61504
 40
3.999995
  0
CIRCLE
  5
587
100
AcDbEntity
  8
M0
 62
   114
100
AcDbCircle
 10
278.670239
 20
779.614826
 40
3.499997
  0
CIRCLE
  5
588
100
AcDbEntity
  8
M0
 62
   114
100
AcDbCircle
 10
278.670239
 20
779.614826
 40
3.999995
  0
CIRCLE
  5
589
100
AcDbEntity
  8
M0
 62
   114
100
AcDbCircle
 10
308.370236
 20
681.615086
 40
3.499997
  0
CIRCLE
  5
58A
100
AcDbEntity
  8
M0
 62
   114
100
AcDbCircle
 10
308.370236
 20
681.615086
 40
3.999995
  0
LINE
  5
58B
100
AcDbEntity
  8
M0
 62
   114
100
AcDbLine
 10
245.470806
 20
802.614811
 11
239.570797
 21
802.614826
  0
LINE
  5
58C
100
AcDbEntity
  8
M0
 62
   114
100
AcDbLine
 10
238.570797
 20
801.615071
 11
238.570782
 21
794.815022
  0
LINE
  5
58D
100
AcDbEntity
  8
M0
 62
   114
100
AcDbLine
 10
245.670788
 20
794.115544
 11
245.920788
 21
794.115544
  0
LINE
  5
58E
100
AcDbEntity
  8
M0
 62
   114
100
AcDbLine
 10
239.37077
 20
794.114338
 11
239.37077
 21
794.31551
  0
LINE
  5
58F
100
AcDbEntity
  8
M0
 62
   114
100
AcDbLine
 10
245.670773
 20
794.114323
 11
245.670773
 21
794.315251
  0
LINE
  5
590
100
AcDbEntity
  8
M0
 62
   114
100
AcDbLine
 10
238.570782
 20
794.815022
 11
238.870648
 21
794.815266
  0
ARC
  5
591
100
AcDbEntity
  8
M0
 62
   114
100
AcDbCircle
 10
238.870785
 20
794.31551
 40
0.5
100
AcDbArc
 50
0.0
 51
90.006994
  0
ARC
  5
592
100
AcDbEntity
  8
M0
 62
   114
100
AcDbCircle
 10
246.170773
 20
794.315251
 40
0.5
100
AcDbArc
 50
134.51656
 51
180.0
  0
ARC
  5
593
100
AcDbEntity
  8
M0
 62
   114
100
AcDbCircle
 10
245.470806
 20
801.614567
 40
1.0
100
AcDbArc
 50
69.536457
 51
89.999126
  0
ARC
  5
594
100
AcDbEntity
  8
M0
 62
   114
100
AcDbCircle
 10
239.570797
 20
801.614826
 40
1.0
100
AcDbArc
 50
89.999126
 51
179.986012
  0
LINE
  5
595
100
AcDbEntity
  8
M0
 62
   114
100
AcDbLine
 10
277.470806
 20
802.614567
 11
271.570797
 21
802.614582
  0
LINE
  5
596
100
AcDbEntity
  8
M0
 62
   114
100
AcDbLine
 10
270.570797
 20
801.614826
 11
270.570782
 21
794.814778
  0
LINE
  5
597
100
AcDbEntity
  8
M0
 62
   114
100
AcDbLine
 10
283.520305
 20
673.115116
 11
283.520311
 21
655.615696
  0
LINE
  5
598
100
AcDbEntity
  8
M0
 62
   114
100
AcDbLine
 10
303.524412
 20
655.615696
 11
303.520013
 21
673.115132
  0
LINE
  5
599
100
AcDbEntity
  8
M0
 62
   114
100
AcDbLine
 10
283.520311
 20
654.115132
 11
283.641481
 21
654.115132
  0
LINE
  5
59A
100
AcDbEntity
  8
M0
 62
   114
100
AcDbLine
 10
303.520263
 20
654.115132
 11
303.520275
 21
662.815388
  0
LINE
  5
59B
100
AcDbEntity
  8
M0
 62
   114
100
AcDbLine
 10
283.520311
 20
655.469059
 11
283.520311
 21
654.115132
  0
LINE
  5
59C
100
AcDbEntity
  8
M0
 62
   114
100
AcDbLine
 10
302.985198
 20
654.115132
 11
303.520263
 21
654.115132
  0
LINE
  5
59D
100
AcDbEntity
  8
M0
 62
   114
100
AcDbLine
 10
245.819943
 20
654.115208
 11
245.819866
 21
673.114796
  0
LINE
  5
59E
100
AcDbEntity
  8
M0
 62
   114
100
AcDbLine
 10
278.470789
 20
794.815006
 11
278.470794
 21
801.614567
  0
LINE
  5
59F
100
AcDbEntity
  8
M0
 62
   114
100
AcDbLine
 10
277.670786
 20
794.115299
 11
277.920786
 21
794.115299
  0
LINE
  5
5A0
100
AcDbEntity
  8
M0
 62
   114
100
AcDbLine
 10
271.37077
 20
794.114582
 11
271.37077
 21
794.315266
  0
LINE
  5
5A1
100
AcDbEntity
  8
M0
 62
   114
100
AcDbLine
 10
277.670771
 20
794.114567
 11
277.670771
 21
794.315006
  0
LINE
  5
5A2
100
AcDbEntity
  8
M0
 62
   114
100
AcDbLine
 10
270.570782
 20
794.814778
 11
270.870648
 21
794.815022
  0
LINE
  5
5A3
100
AcDbEntity
  8
M0
 62
   114
100
AcDbLine
 10
278.170939
 20
794.815006
 11
278.470789
 21
794.814762
  0
ARC
  5
5A4
100
AcDbEntity
  8
M0
 62
   114
100
AcDbCircle
 10
270.870785
 20
794.315266
 40
0.5
100
AcDbArc
 50
0.0
 51
90.006994
  0
ARC
  5
5A5
100
AcDbEntity
  8
M0
 62
   114
100
AcDbCircle
 10
278.170786
 20
794.315251
 40
0.5
100
AcDbArc
 50
89.981968
 51
180.0
  0
ARC
  5
5A6
100
AcDbEntity
  8
M0
 62
   114
100
AcDbCircle
 10
277.470806
 20
801.614567
 40
1.0
100
AcDbArc
 50
0.0
 51
89.999126
  0
ARC
  5
5A7
100
AcDbEntity
  8
M0
 62
   114
100
AcDbCircle
 10
271.570797
 20
801.614582
 40
1.0
100
AcDbArc
 50
89.999126
 51
179.986012
  0
LINE
  5
5A8
100
AcDbEntity
  8
M0
 62
   114
100
AcDbLine
 10
315.470791
 20
802.614811
 11
309.570782
 21
802.614826
  0
LINE
  5
5A9
100
AcDbEntity
  8
M0
 62
   114
100
AcDbLine
 10
308.570784
 20
801.615071
 11
308.57078
 21
794.815022
  0
LINE
  5
5AA
100
AcDbEntity
  8
M0
 62
   114
100
AcDbLine
 10
316.470776
 20
794.815251
 11
316.470791
 21
801.614811
  0
LINE
  5
5AB
100
AcDbEntity
  8
M0
 62
   114
100
AcDbLine
 10
315.670773
 20
794.115544
 11
315.920773
 21
794.115544
  0
LINE
  5
5AC
100
AcDbEntity
  8
M0
 62
   114
100
AcDbLine
 10
309.370767
 20
794.114582
 11
309.370767
 21
794.31551
  0
LINE
  5
5AD
100
AcDbEntity
  8
M0
 62
   114
100
AcDbLine
 10
315.670758
 20
794.114567
 11
315.670758
 21
794.315251
  0
LINE
  5
5AE
100
AcDbEntity
  8
M0
 62
   114
100
AcDbLine
 10
308.57078
 20
794.815022
 11
308.870646
 21
794.815266
  0
LINE
  5
5AF
100
AcDbEntity
  8
M0
 62
   114
100
AcDbLine
 10
316.170925
 20
794.815251
 11
316.470776
 21
794.815006
  0
ARC
  5
5B0
100
AcDbEntity
  8
M0
 62
   114
100
AcDbCircle
 10
308.870782
 20
794.31551
 40
0.5
100
AcDbArc
 50
0.0
 51
90.015628
  0
ARC
  5
5B1
100
AcDbEntity
  8
M0
 62
   114
100
AcDbCircle
 10
316.170773
 20
794.315495
 40
0.5
100
AcDbArc
 50
89.982514
 51
180.0
  0
ARC
  5
5B2
100
AcDbEntity
  8
M0
 62
   114
100
AcDbCircle
 10
315.470791
 20
801.614811
 40
1.0
100
AcDbArc
 50
0.0
 51
90.0
  0
ARC
  5
5B3
100
AcDbEntity
  8
M0
 62
   114
100
AcDbCircle
 10
309.570782
 20
801.614826
 40
1.0
100
AcDbArc
 50
90.0
 51
179.986012
  0
LINE
  5
5B4
100
AcDbEntity
  8
M0
 62
   114
100
AcDbLine
 10
238.570233
 20
746.115315
 11
244.470242
 21
746.115315
  0
LINE
  5
5B5
100
AcDbEntity
  8
M0
 62
   114
100
AcDbLine
 10
245.470242
 20
749.564778
 11
245.470242
 21
753.915119
  0
LINE
  5
5B6
100
AcDbEntity
  8
M0
 62
   114
100
AcDbLine
 10
244.670239
 20
755.615071
 11
238.120236
 21
755.615071
  0
LINE
  5
5B7
100
AcDbEntity
  8
M0
 62
   114
100
AcDbLine
 10
237.570233
 20
753.914875
 11
237.570233
 21
749.564778
  0
LINE
  5
5B8
100
AcDbEntity
  8
M0
 62
   114
100
AcDbLine
 10
238.370236
 20
754.614582
 11
238.120236
 21
754.614582
  0
LINE
  5
5B9
100
AcDbEntity
  8
M0
 62
   114
100
AcDbLine
 10
244.670239
 20
755.615315
 11
244.670239
 21
754.414631
  0
LINE
  5
5BA
100
AcDbEntity
  8
M0
 62
   114
100
AcDbLine
 10
238.370236
 20
755.615315
 11
238.370236
 21
754.414631
  0
LINE
  5
5BB
100
AcDbEntity
  8
M0
 62
   114
100
AcDbLine
 10
245.470242
 20
753.915119
 11
245.170376
 21
753.914875
  0
LINE
  5
5BC
100
AcDbEntity
  8
M0
 62
   114
100
AcDbLine
 10
237.870083
 20
753.914875
 11
237.570233
 21
753.915119
  0
ARC
  5
5BD
100
AcDbEntity
  8
M0
 62
   114
100
AcDbCircle
 10
245.170239
 20
754.414631
 40
0.5
100
AcDbArc
 50
180.0
 51
270.017485
  0
ARC
  5
5BE
100
AcDbEntity
  8
M0
 62
   114
100
AcDbCircle
 10
237.870236
 20
754.414631
 40
0.5
100
AcDbArc
 50
269.982515
 51
360.0
  0
LINE
  5
5BF
100
AcDbEntity
  8
M0
 62
   114
100
AcDbLine
 10
238.120236
 20
755.615315
 11
238.120236
 21
754.615315
  0
ARC
  5
5C0
100
AcDbEntity
  8
M0
 62
   114
100
AcDbCircle
 10
244.470242
 20
747.115315
 40
1.0
100
AcDbArc
 50
270.0
 51
287.588879
  0
ARC
  5
5C1
100
AcDbEntity
  8
M0
 62
   114
100
AcDbCircle
 10
238.570233
 20
747.115315
 40
1.0
100
AcDbArc
 50
252.412037
 51
270.0
  0
LINE
  5
5C2
100
AcDbEntity
  8
M0
 62
   114
100
AcDbLine
 10
238.570233
 20
736.615528
 11
244.470242
 21
736.615528
  0
LINE
  5
5C3
100
AcDbEntity
  8
M0
 62
   114
100
AcDbLine
 10
245.470242
 20
739.964894
 11
245.470242
 21
744.415333
  0
LINE
  5
5C4
100
AcDbEntity
  8
M0
 62
   114
100
AcDbLine
 10
244.670239
 20
746.115284
 11
238.270245
 21
746.11504
  0
LINE
  5
5C5
100
AcDbEntity
  8
M0
 62
   114
100
AcDbLine
 10
237.570233
 20
744.415089
 11
237.570233
 21
739.964894
  0
LINE
  5
5C6
100
AcDbEntity
  8
M0
 62
   114
100
AcDbLine
 10
238.370236
 20
745.114796
 11
238.120236
 21
745.114796
  0
LINE
  5
5C7
100
AcDbEntity
  8
M0
 62
   114
100
AcDbLine
 10
244.670239
 20
746.115528
 11
244.670239
 21
744.914845
  0
LINE
  5
5C8
100
AcDbEntity
  8
M0
 62
   114
100
AcDbLine
 10
238.370236
 20
746.115528
 11
238.370236
 21
744.914845
  0
LINE
  5
5C9
100
AcDbEntity
  8
M0
 62
   114
100
AcDbLine
 10
245.470242
 20
744.415333
 11
245.170376
 21
744.415089
  0
LINE
  5
5CA
100
AcDbEntity
  8
M0
 62
   114
100
AcDbLine
 10
237.870083
 20
744.415089
 11
237.570233
 21
744.415333
  0
ARC
  5
5CB
100
AcDbEntity
  8
M0
 62
   114
100
AcDbCircle
 10
245.170239
 20
744.914845
 40
0.5
100
AcDbArc
 50
180.0
 51
270.017485
  0
ARC
  5
5CC
100
AcDbEntity
  8
M0
 62
   114
100
AcDbCircle
 10
237.870236
 20
744.914845
 40
0.5
100
AcDbArc
 50
269.982515
 51
360.0
  0
LINE
  5
5CD
100
AcDbEntity
  8
M0
 62
   114
100
AcDbLine
 10
342.570233
 20
746.115071
 11
348.470242
 21
746.115071
  0
LINE
  5
5CE
100
AcDbEntity
  8
M0
 62
   114
100
AcDbLine
 10
349.470242
 20
749.564778
 11
349.470242
 21
753.914875
  0
LINE
  5
5CF
100
AcDbEntity
  8
M0
 62
   114
100
AcDbLine
 10
348.670239
 20
755.614826
 11
342.120236
 21
755.614826
  0
LINE
  5
5D0
100
AcDbEntity
  8
M0
 62
   114
100
AcDbLine
 10
341.570233
 20
753.914631
 11
341.570233
 21
749.564778
  0
LINE
  5
5D1
100
AcDbEntity
  8
M0
 62
   114
100
AcDbLine
 10
342.370236
 20
754.614338
 11
342.120236
 21
754.614338
  0
LINE
  5
5D2
100
AcDbEntity
  8
M0
 62
   114
100
AcDbLine
 10
348.670239
 20
755.615071
 11
348.670239
 21
754.414387
  0
LINE
  5
5D3
100
AcDbEntity
  8
M0
 62
   114
100
AcDbLine
 10
342.370236
 20
755.615071
 11
342.370236
 21
754.414387
  0
LINE
  5
5D4
100
AcDbEntity
  8
M0
 62
   114
100
AcDbLine
 10
349.470242
 20
753.914875
 11
349.170376
 21
753.914631
  0
LINE
  5
5D5
100
AcDbEntity
  8
M0
 62
   114
100
AcDbLine
 10
341.870083
 20
753.914631
 11
341.570233
 21
753.914875
  0
ARC
  5
5D6
100
AcDbEntity
  8
M0
 62
   114
100
AcDbCircle
 10
349.170239
 20
754.414387
 40
0.5
100
AcDbArc
 50
180.0
 51
270.008743
  0
ARC
  5
5D7
100
AcDbEntity
  8
M0
 62
   114
100
AcDbCircle
 10
341.870236
 20
754.414387
 40
0.5
100
AcDbArc
 50
269.973772
 51
360.0
  0
LINE
  5
5D8
100
AcDbEntity
  8
M0
 62
   114
100
AcDbLine
 10
342.120236
 20
755.615071
 11
342.120236
 21
754.615071
  0
ARC
  5
5D9
100
AcDbEntity
  8
M0
 62
   114
100
AcDbCircle
 10
342.570233
 20
747.115071
 40
1.0
100
AcDbArc
 50
252.411121
 51
269.999126
  0
ARC
  5
5DA
100
AcDbEntity
  8
M0
 62
   114
100
AcDbCircle
 10
348.470242
 20
747.115071
 40
1.0
100
AcDbArc
 50
269.999126
 51
287.584382
  0
LINE
  5
5DB
100
AcDbEntity
  8
M0
 62
   114
100
AcDbLine
 10
342.570233
 20
736.615284
 11
348.470242
 21
736.615284
  0
LINE
  5
5DC
100
AcDbEntity
  8
M0
 62
   114
100
AcDbLine
 10
349.470242
 20
739.964894
 11
349.470242
 21
744.415089
  0
LINE
  5
5DD
100
AcDbEntity
  8
M0
 62
   114
100
AcDbLine
 10
348.670239
 20
746.11504
 11
342.270245
 21
746.114796
  0
LINE
  5
5DE
100
AcDbEntity
  8
M0
 62
   114
100
AcDbLine
 10
341.570233
 20
744.414845
 11
341.570233
 21
739.964894
  0
LINE
  5
5DF
100
AcDbEntity
  8
M0
 62
   114
100
AcDbLine
 10
342.370236
 20
745.114552
 11
342.120236
 21
745.114552
  0
LINE
  5
5E0
100
AcDbEntity
  8
M0
 62
   114
100
AcDbLine
 10
348.670239
 20
746.115284
 11
348.670239
 21
744.914601
  0
LINE
  5
5E1
100
AcDbEntity
  8
M0
 62
   114
100
AcDbLine
 10
342.370236
 20
746.115284
 11
342.370236
 21
744.914601
  0
LINE
  5
5E2
100
AcDbEntity
  8
M0
 62
   114
100
AcDbLine
 10
349.470242
 20
744.415089
 11
349.170376
 21
744.414845
  0
LINE
  5
5E3
100
AcDbEntity
  8
M0
 62
   114
100
AcDbLine
 10
341.870083
 20
744.414845
 11
341.570233
 21
744.415089
  0
ARC
  5
5E4
100
AcDbEntity
  8
M0
 62
   114
100
AcDbCircle
 10
349.170239
 20
744.914601
 40
0.5
100
AcDbArc
 50
180.0
 51
270.008743
  0
ARC
  5
5E5
100
AcDbEntity
  8
M0
 62
   114
100
AcDbCircle
 10
341.870236
 20
744.914601
 40
0.5
100
AcDbArc
 50
269.973772
 51
360.0
  0
LINE
  5
5E6
100
AcDbEntity
  8
M0
 62
   114
100
AcDbLine
 10
348.470257
 20
724.614596
 11
342.570248
 21
724.614599
  0
LINE
  5
5E7
100
AcDbEntity
  8
M0
 62
   114
100
AcDbLine
 10
341.570248
 20
721.265113
 11
341.570217
 21
716.814796
  0
LINE
  5
5E8
100
AcDbEntity
  8
M0
 62
   114
100
AcDbLine
 10
342.37022
 20
715.114845
 11
348.77023
 21
715.114841
  0
LINE
  5
5E9
100
AcDbEntity
  8
M0
 62
   114
100
AcDbLine
 10
349.470227
 20
716.81502
 11
349.470242
 21
721.265108
  0
LINE
  5
5EA
100
AcDbEntity
  8
M0
 62
   114
100
AcDbLine
 10
348.670239
 20
716.115329
 11
348.920239
 21
716.115329
  0
LINE
  5
5EB
100
AcDbEntity
  8
M0
 62
   114
100
AcDbLine
 10
342.370236
 20
715.1146
 11
342.370236
 21
716.315284
  0
LINE
  5
5EC
100
AcDbEntity
  8
M0
 62
   114
100
AcDbLine
 10
348.670239
 20
715.114597
 11
348.670239
 21
716.31528
  0
LINE
  5
5ED
100
AcDbEntity
  8
M0
 62
   114
100
AcDbLine
 10
341.570233
 20
716.814796
 11
341.870098
 21
716.81504
  0
LINE
  5
5EE
100
AcDbEntity
  8
M0
 62
   114
100
AcDbLine
 10
349.170391
 20
716.815035
 11
349.470242
 21
716.814791
  0
ARC
  5
5EF
100
AcDbEntity
  8
M0
 62
   114
100
AcDbCircle
 10
341.870236
 20
716.315284
 40
0.5
100
AcDbArc
 50
0.0
 51
90.015737
  0
ARC
  5
5F0
100
AcDbEntity
  8
M0
 62
   114
100
AcDbCircle
 10
349.170239
 20
716.315279
 40
0.5
100
AcDbArc
 50
89.982515
 51
179.999891
  0
LINE
  5
5F1
100
AcDbEntity
  8
M0
 62
   114
100
AcDbLine
 10
348.470257
 20
715.11484
 11
342.570248
 21
715.114844
  0
LINE
  5
5F2
100
AcDbEntity
  8
M0
 62
   114
100
AcDbLine
 10
341.570248
 20
711.665272
 11
341.570217
 21
707.315052
  0
LINE
  5
5F3
100
AcDbEntity
  8
M0
 62
   114
100
AcDbLine
 10
342.370236
 20
705.615101
 11
348.920239
 21
705.615086
  0
LINE
  5
5F4
100
AcDbEntity
  8
M0
 62
   114
100
AcDbLine
 10
349.470227
 20
707.315266
 11
349.470242
 21
711.665257
  0
LINE
  5
5F5
100
AcDbEntity
  8
M0
 62
   114
100
AcDbLine
 10
348.670239
 20
706.615574
 11
348.920239
 21
706.615574
  0
LINE
  5
5F6
100
AcDbEntity
  8
M0
 62
   114
100
AcDbLine
 10
342.370236
 20
705.614857
 11
342.370236
 21
706.815541
  0
LINE
  5
5F7
100
AcDbEntity
  8
M0
 62
   114
100
AcDbLine
 10
348.670239
 20
705.614842
 11
348.670239
 21
706.815525
  0
LINE
  5
5F8
100
AcDbEntity
  8
M0
 62
   114
100
AcDbLine
 10
341.570233
 20
707.315052
 11
341.870098
 21
707.315296
  0
LINE
  5
5F9
100
AcDbEntity
  8
M0
 62
   114
100
AcDbLine
 10
349.170391
 20
707.315281
 11
349.470242
 21
707.315037
  0
ARC
  5
5FA
100
AcDbEntity
  8
M0
 62
   114
100
AcDbCircle
 10
341.870236
 20
706.815541
 40
0.5
100
AcDbArc
 50
0.0
 51
90.015737
  0
ARC
  5
5FB
100
AcDbEntity
  8
M0
 62
   114
100
AcDbCircle
 10
349.170239
 20
706.815525
 40
0.5
100
AcDbArc
 50
89.982515
 51
179.998251
  0
LINE
  5
5FC
100
AcDbEntity
  8
M0
 62
   114
100
AcDbLine
 10
348.920239
 20
705.614842
 11
348.920239
 21
706.614842
  0
ARC
  5
5FD
100
AcDbEntity
  8
M0
 62
   114
100
AcDbCircle
 10
348.470257
 20
714.114826
 40
1.0
100
AcDbArc
 50
72.543134
 51
90.0
  0
ARC
  5
5FE
100
AcDbEntity
  8
M0
 62
   114
100
AcDbCircle
 10
342.570248
 20
714.114857
 40
1.0
100
AcDbArc
 50
90.0
 51
107.458698
  0
LINE
  5
5FF
100
AcDbEntity
  8
M0
 62
   114
100
AcDbLine
 10
244.470272
 20
724.614611
 11
238.570263
 21
724.614615
  0
LINE
  5
600
100
AcDbEntity
  8
M0
 62
   114
100
AcDbLine
 10
237.570263
 20
721.265113
 11
237.570233
 21
716.814811
  0
LINE
  5
601
100
AcDbEntity
  8
M0
 62
   114
100
AcDbLine
 10
238.370236
 20
715.11486
 11
244.770245
 21
715.114856
  0
LINE
  5
602
100
AcDbEntity
  8
M0
 62
   114
100
AcDbLine
 10
245.470242
 20
716.815035
 11
245.470257
 21
721.265108
  0
LINE
  5
603
100
AcDbEntity
  8
M0
 62
   114
100
AcDbLine
 10
244.670254
 20
716.115344
 11
244.920254
 21
716.115344
  0
LINE
  5
604
100
AcDbEntity
  8
M0
 62
   114
100
AcDbLine
 10
238.370251
 20
715.114616
 11
238.370251
 21
716.315299
  0
LINE
  5
605
100
AcDbEntity
  8
M0
 62
   114
100
AcDbLine
 10
244.670254
 20
715.114612
 11
244.670254
 21
716.315295
  0
LINE
  5
606
100
AcDbEntity
  8
M0
 62
   114
100
AcDbLine
 10
237.570248
 20
716.814811
 11
237.870114
 21
716.815055
  0
LINE
  5
607
100
AcDbEntity
  8
M0
 62
   114
100
AcDbLine
 10
245.170407
 20
716.81505
 11
245.470257
 21
716.814806
  0
ARC
  5
608
100
AcDbEntity
  8
M0
 62
   114
100
AcDbCircle
 10
237.870251
 20
716.315299
 40
0.5
100
AcDbArc
 50
0.0
 51
90.006994
  0
ARC
  5
609
100
AcDbEntity
  8
M0
 62
   114
100
AcDbCircle
 10
245.170254
 20
716.315294
 40
0.5
100
AcDbArc
 50
89.973772
 51
179.999891
  0
LINE
  5
60A
100
AcDbEntity
  8
M0
 62
   114
100
AcDbLine
 10
244.470272
 20
715.114855
 11
238.570263
 21
715.114859
  0
LINE
  5
60B
100
AcDbEntity
  8
M0
 62
   114
100
AcDbLine
 10
237.570263
 20
711.665272
 11
237.570233
 21
707.315068
  0
LINE
  5
60C
100
AcDbEntity
  8
M0
 62
   114
100
AcDbLine
 10
238.370251
 20
705.615116
 11
244.920254
 21
705.615101
  0
LINE
  5
60D
100
AcDbEntity
  8
M0
 62
   114
100
AcDbLine
 10
245.470242
 20
707.315281
 11
245.470257
 21
711.665257
  0
LINE
  5
60E
100
AcDbEntity
  8
M0
 62
   114
100
AcDbLine
 10
244.670254
 20
706.615589
 11
244.920254
 21
706.615589
  0
LINE
  5
60F
100
AcDbEntity
  8
M0
 62
   114
100
AcDbLine
 10
238.370251
 20
705.614872
 11
238.370251
 21
706.815556
  0
LINE
  5
610
100
AcDbEntity
  8
M0
 62
   114
100
AcDbLine
 10
244.670254
 20
705.614857
 11
244.670254
 21
706.815541
  0
LINE
  5
611
100
AcDbEntity
  8
M0
 62
   114
100
AcDbLine
 10
237.570248
 20
707.315068
 11
237.870114
 21
707.315312
  0
LINE
  5
612
100
AcDbEntity
  8
M0
 62
   114
100
AcDbLine
 10
245.170407
 20
707.315296
 11
245.470257
 21
707.315052
  0
ARC
  5
613
100
AcDbEntity
  8
M0
 62
   114
100
AcDbCircle
 10
237.870251
 20
706.815556
 40
0.5
100
AcDbArc
 50
0.0
 51
90.006994
  0
ARC
  5
614
100
AcDbEntity
  8
M0
 62
   114
100
AcDbCircle
 10
245.170254
 20
706.815541
 40
0.5
100
AcDbArc
 50
89.973772
 51
179.998251
  0
LINE
  5
615
100
AcDbEntity
  8
M0
 62
   114
100
AcDbLine
 10
244.920254
 20
705.614857
 11
244.920254
 21
706.614857
  0
ARC
  5
616
100
AcDbEntity
  8
M0
 62
   114
100
AcDbCircle
 10
244.470272
 20
714.114842
 40
1.0
100
AcDbArc
 50
72.541302
 51
89.999126
  0
ARC
  5
617
100
AcDbEntity
  8
M0
 62
   114
100
AcDbCircle
 10
238.570263
 20
714.114872
 40
1.0
100
AcDbArc
 50
89.999126
 51
107.45595
  0
ARC
  5
618
100
AcDbEntity
  8
M0
 62
   114
100
AcDbCircle
 10
323.219967
 20
778.615315
 40
3.499997
100
AcDbArc
 50
314.41959
 51
585.578818
  0
ARC
  5
619
100
AcDbEntity
  8
M0
 62
   114
100
AcDbCircle
 10
293.520733
 20
778.614582
 40
3.499997
100
AcDbArc
 50
314.437453
 51
585.561885
  0
ARC
  5
61A
100
AcDbEntity
  8
M0
 62
   114
100
AcDbCircle
 10
263.820278
 20
778.614826
 40
3.499997
100
AcDbArc
 50
314.43231
 51
585.5684
  0
ARC
  5
61B
100
AcDbEntity
  8
M0
 62
   114
100
AcDbCircle
 10
323.220257
 20
682.615116
 40
3.499997
100
AcDbArc
 50
134.404754
 51
405.596309
  0
ARC
  5
61C
100
AcDbEntity
  8
M0
 62
   114
100
AcDbCircle
 10
293.520291
 20
682.615116
 40
3.499997
100
AcDbArc
 50
134.403527
 51
405.596164
  0
ARC
  5
61D
100
AcDbEntity
  8
M0
 62
   114
100
AcDbCircle
 10
263.820233
 20
682.615116
 40
3.499997
100
AcDbArc
 50
134.402984
 51
405.595952
  0
CIRCLE
  5
61E
100
AcDbEntity
  8
M0
 62
   114
100
AcDbCircle
 10
345.520245
 20
710.615086
 40
2.999994
  0
CIRCLE
  5
61F
100
AcDbEntity
  8
M0
 62
   114
100
AcDbCircle
 10
312.520779
 20
798.115315
 40
2.999994
  0
ARC
  5
620
100
AcDbEntity
  8
M0
 62
   114
100
AcDbCircle
 10
310.039822
 20
794.315266
 40
0.5
100
AcDbArc
 50
197.11777
 51
203.510836
  0
ARC
  5
621
100
AcDbEntity
  8
M0
 62
   114
100
AcDbCircle
 10
315.001492
 20
794.315266
 40
0.5
100
AcDbArc
 50
336.481355
 51
342.868989
  0
ARC
  5
622
100
AcDbEntity
  8
M0
 62
   114
100
AcDbCircle
 10
272.039822
 20
794.315022
 40
0.5
100
AcDbArc
 50
197.119955
 51
203.486504
  0
ARC
  5
623
100
AcDbEntity
  8
M0
 62
   114
100
AcDbCircle
 10
277.001492
 20
794.315022
 40
0.5
100
AcDbArc
 50
336.518097
 51
342.875032
  0
ARC
  5
624
100
AcDbEntity
  8
M0
 62
   114
100
AcDbCircle
 10
240.039822
 20
794.315266
 40
0.5
100
AcDbArc
 50
197.119955
 51
203.547578
  0
ARC
  5
625
100
AcDbEntity
  8
M0
 62
   114
100
AcDbCircle
 10
245.001492
 20
794.315266
 40
0.5
100
AcDbArc
 50
336.457025
 51
342.875032
  0
LINE
  5
626
100
AcDbEntity
  8
M0
 62
   114
100
AcDbLine
 10
285.521328
 20
724.915806
 11
285.671231
 21
724.915806
  0
LINE
  5
627
100
AcDbEntity
  8
M0
 62
   114
100
AcDbLine
 10
285.671231
 20
720.315953
 11
285.671231
 21
724.915806
  0
ARC
  5
628
100
AcDbEntity
  8
M0
 62
   114
100
AcDbCircle
 10
285.521328
 20
727.915806
 40
2.999994
100
AcDbArc
 50
179.999964
 51
270.0
  0
LINE
  5
629
100
AcDbEntity
  8
M0
 62
   114
100
AcDbLine
 10
282.521328
 20
737.615711
 11
282.521328
 21
727.915806
  0
ARC
  5
62A
100
AcDbEntity
  8
M0
 62
   114
100
AcDbCircle
 10
285.521328
 20
737.615711
 40
2.999994
100
AcDbArc
 50
90.0
 51
179.999982
  0
LINE
  5
62B
100
AcDbEntity
  8
M0
 62
   114
100
AcDbLine
 10
285.671231
 20
720.315953
 11
301.371182
 21
720.315953
  0
LINE
  5
62C
100
AcDbEntity
  8
M0
 62
   114
100
AcDbLine
 10
301.371182
 20
720.315953
 11
301.371182
 21
724.915806
  0
ARC
  5
62D
100
AcDbEntity
  8
M0
 62
   114
100
AcDbCircle
 10
301.521328
 20
727.915806
 40
2.999992
100
AcDbArc
 50
270.0
 51
360.0
  0
LINE
  5
62E
100
AcDbEntity
  8
M0
 62
   114
100
AcDbLine
 10
301.371182
 20
724.915806
 11
301.521328
 21
724.915806
  0
LINE
  5
62F
100
AcDbEntity
  8
M0
 62
   114
100
AcDbLine
 10
297.271328
 20
742.115559
 11
289.771328
 21
742.115559
  0
LINE
  5
630
100
AcDbEntity
  8
M0
 62
   114
100
AcDbLine
 10
289.771328
 20
742.61533
 11
297.271328
 21
742.61533
  0
LINE
  5
631
100
AcDbEntity
  8
M0
 62
   114
100
AcDbLine
 10
291.271328
 20
744.31551
 11
295.771328
 21
744.31551
  0
LINE
  5
632
100
AcDbEntity
  8
M0
 62
   114
100
AcDbLine
 10
295.771328
 20
744.315281
 11
295.771328
 21
742.61533
  0
LINE
  5
633
100
AcDbEntity
  8
M0
 62
   114
100
AcDbLine
 10
291.271328
 20
744.315281
 11
291.271328
 21
742.61533
  0
LINE
  5
634
100
AcDbEntity
  8
M0
 62
   114
100
AcDbLine
 10
304.521328
 20
727.915562
 11
304.521328
 21
737.615467
  0
LINE
  5
635
100
AcDbEntity
  8
M0
 62
   114
100
AcDbLine
 10
301.521084
 20
740.615956
 11
297.271328
 21
740.615711
  0
ARC
  5
636
100
AcDbEntity
  8
M0
 62
   114
100
AcDbCircle
 10
301.521328
 20
737.615711
 40
2.999992
100
AcDbArc
 50
0.0
 51
90.0
  0
LINE
  5
637
100
AcDbEntity
  8
M0
 62
   114
100
AcDbLine
 10
297.271328
 20
742.615772
 11
297.271328
 21
740.615772
  0
LINE
  5
638
100
AcDbEntity
  8
M0
 62
   114
100
AcDbLine
 10
289.771328
 20
742.615284
 11
289.771328
 21
740.615772
  0
LINE
  5
639
100
AcDbEntity
  8
M0
 62
   114
100
AcDbLine
 10
289.771328
 20
740.615711
 11
285.521328
 21
740.615956
  0
LINE
  5
63A
100
AcDbEntity
  8
M0
 62
   114
100
AcDbLine
 10
290.521328
 20
730.615757
 11
296.521328
 21
730.615757
  0
LINE
  5
63B
100
AcDbEntity
  8
M0
 62
   114
100
AcDbLine
 10
290.521328
 20
735.115757
 11
296.521328
 21
735.115757
  0
LINE
  5
63C
100
AcDbEntity
  8
M0
 62
   114
100
AcDbLine
 10
296.521328
 20
735.115757
 11
296.521328
 21
730.615757
  0
LINE
  5
63D
100
AcDbEntity
  8
M0
 62
   114
100
AcDbLine
 10
290.521328
 20
735.115757
 11
290.521328
 21
730.615757
  0
LINE
  5
63E
100
AcDbEntity
  8
M0
 62
   114
100
AcDbLine
 10
337.720486
 20
659.35677
 11
337.720486
 21
666.873402
  0
LINE
  5
63F
100
AcDbEntity
  8
M0
 62
   114
100
AcDbLine
 10
324.720501
 20
659.356739
 11
324.720501
 21
666.873432
  0
LINE
  5
640
100
AcDbEntity
  8
M0
 62
   114
100
AcDbLine
 10
331.220501
 20
670.615116
 11
324.720501
 21
666.873432
  0
LINE
  5
641
100
AcDbEntity
  8
M0
 62
   114
100
AcDbLine
 10
331.220501
 20
670.615116
 11
337.720486
 21
666.873417
  0
LINE
  5
642
100
AcDbEntity
  8
M0
 62
   114
100
AcDbLine
 10
331.220501
 20
655.615116
 11
324.720501
 21
659.356755
  0
LINE
  5
643
100
AcDbEntity
  8
M0
 62
   114
100
AcDbLine
 10
331.220501
 20
655.615116
 11
337.720486
 21
659.35677
  0
CIRCLE
  5
644
100
AcDbEntity
  8
M0
 62
   114
100
AcDbCircle
 10
255.820294
 20
798.114826
 40
3.999992
  0
CIRCLE
  5
645
100
AcDbEntity
  8
M0
 62
   114
100
AcDbCircle
 10
255.820294
 20
798.114826
 40
3.499992
  0
LINE
  5
646
100
AcDbEntity
  8
M0
 62
   114
100
AcDbLine
 10
270.820538
 20
779.615315
 11
270.820538
 21
776.249592
  0
LINE
  5
647
100
AcDbEntity
  8
M0
 62
   114
100
AcDbLine
 10
270.820538
 20
779.615071
 11
265.820294
 21
788.115071
  0
LINE
  5
648
100
AcDbEntity
  8
M0
 62
   114
100
AcDbLine
 10
256.820538
 20
776.115071
 11
245.820538
 21
788.115071
  0
LINE
  5
649
100
AcDbEntity
  8
M0
 62
   114
100
AcDbLine
 10
265.820294
 20
788.114826
 11
265.820294
 21
807.115071
  0
LINE
  5
64A
100
AcDbEntity
  8
M0
 62
   114
100
AcDbLine
 10
265.820294
 20
807.115071
 11
245.820294
 21
807.115071
  0
LINE
  5
64B
100
AcDbEntity
  8
M0
 62
   114
100
AcDbLine
 10
245.820294
 20
807.115071
 11
245.820538
 21
788.115071
  0
LINE
  5
64C
100
AcDbEntity
  8
M0
 62
   114
100
AcDbLine
 10
303.520336
 20
788.114582
 11
303.520352
 21
807.114582
  0
LINE
  5
64D
100
AcDbEntity
  8
M0
 62
   114
100
AcDbLine
 10
303.520352
 20
807.114582
 11
283.520413
 21
807.114826
  0
LINE
  5
64E
100
AcDbEntity
  8
M0
 62
   114
100
AcDbLine
 10
286.520367
 20
776.249348
 11
286.520367
 21
779.614582
  0
LINE
  5
64F
100
AcDbEntity
  8
M0
 62
   114
100
AcDbLine
 10
300.520321
 20
776.249104
 11
300.520321
 21
779.614094
  0
LINE
  5
650
100
AcDbEntity
  8
M0
 62
   114
100
AcDbLine
 10
286.520367
 20
779.614826
 11
286.020367
 21
781.031574
  0
LINE
  5
651
100
AcDbEntity
  8
M0
 62
   114
100
AcDbLine
 10
300.520321
 20
779.614582
 11
301.020367
 21
781.031086
  0
LINE
  5
652
100
AcDbEntity
  8
M0
 62
   114
100
AcDbLine
 10
302.499005
 20
785.220539
 11
303.520336
 21
788.114582
  0
LINE
  5
653
100
AcDbEntity
  8
M0
 62
   114
100
AcDbLine
 10
284.542034
 20
785.220539
 11
283.520626
 21
788.114826
  0
CIRCLE
  5
654
100
AcDbEntity
  8
M0
 62
   114
100
AcDbCircle
 10
293.520397
 20
798.114338
 40
3.999989
  0
CIRCLE
  5
655
100
AcDbEntity
  8
M0
 62
   114
100
AcDbCircle
 10
293.520397
 20
798.114338
 40
3.499989
  0
LINE
  5
656
100
AcDbEntity
  8
M0
 62
   114
100
AcDbLine
 10
316.219952
 20
779.615559
 11
316.219952
 21
776.249592
  0
LINE
  5
657
100
AcDbEntity
  8
M0
 62
   114
100
AcDbLine
 10
316.219952
 20
779.615315
 11
321.220211
 21
788.115315
  0
LINE
  5
658
100
AcDbEntity
  8
M0
 62
   114
100
AcDbLine
 10
330.219937
 20
776.115071
 11
341.219937
 21
788.115071
  0
CIRCLE
  5
659
100
AcDbEntity
  8
M0
 62
   114
100
AcDbCircle
 10
331.219967
 20
798.115071
 40
3.499989
  0
LINE
  5
65A
100
AcDbEntity
  8
M0
  6
DASHDOT
 62
   114
100
AcDbLine
 10
341.219967
 20
798.115315
 11
321.219967
 21
798.115315
  0
ARC
  5
65B
100
AcDbEntity
  8
M0
 62
   114
100
AcDbCircle
 10
343.520809
 20
795.615071
 40
5.249997
100
AcDbArc
 50
244.011303
 51
475.989887
  0
ARC
  5
65C
100
AcDbEntity
  8
M0
 62
   114
100
AcDbCircle
 10
343.520809
 20
795.615071
 40
5.749994
100
AcDbArc
 50
246.415851
 51
473.585368
  0
ARC
  5
65D
100
AcDbEntity
  8
M0
 62
   114
100
AcDbCircle
 10
243.520779
 20
665.615696
 40
5.249997
100
AcDbArc
 50
66.034721
 51
298.677881
  0
LINE
  5
65E
100
AcDbEntity
  8
M0
  6
DASHDOT
 62
   114
100
AcDbLine
 10
255.820294
 20
807.115071
 11
255.820538
 21
788.115071
  0
LINE
  5
65F
100
AcDbEntity
  8
M0
  6
DASHDOT
 62
   114
100
AcDbLine
 10
265.820294
 20
798.115071
 11
245.820294
 21
798.115071
  0
ARC
  5
660
100
AcDbEntity
  8
M0
 62
   114
100
AcDbCircle
 10
243.520779
 20
665.615696
 40
5.749994
100
AcDbArc
 50
63.338801
 51
297.354523
  0
CIRCLE
  5
661
100
AcDbEntity
  8
M0
 62
   114
100
AcDbCircle
 10
331.219967
 20
798.115071
 40
3.999989
  0
LINE
  5
662
100
AcDbEntity
  8
M0
 62
   114
100
AcDbLine
 10
321.220211
 20
788.115071
 11
321.220242
 21
807.115315
  0
LINE
  5
663
100
AcDbEntity
  8
M0
 62
   114
100
AcDbLine
 10
321.220242
 20
807.115315
 11
341.220242
 21
807.115071
  0
LINE
  5
664
100
AcDbEntity
  8
M0
 62
   114
100
AcDbLine
 10
341.220242
 20
807.115071
 11
341.219937
 21
788.115071
  0
LINE
  5
665
100
AcDbEntity
  8
M0
  6
DASHDOT
 62
   114
100
AcDbLine
 10
331.219967
 20
807.115315
 11
331.220211
 21
788.115315
  0
LINE
  5
666
100
AcDbEntity
  8
M0
 62
   114
100
AcDbLine
 10
283.520413
 20
807.114826
 11
283.520626
 21
788.114826
  0
LINE
  5
667
100
AcDbEntity
  8
M0
 62
   114
100
AcDbLine
 10
271.820401
 20
672.616215
 11
278.020397
 21
672.616215
  0
LINE
  5
668
100
AcDbEntity
  8
M0
 62
   114
100
AcDbLine
 10
246.020397
 20
774.116017
 11
246.020397
 21
687.116215
  0
LINE
  5
669
100
AcDbEntity
  8
M0
 62
   114
100
AcDbLine
 10
281.020397
 20
673.1162
 11
281.020397
 21
674.616215
  0
LINE
  5
66A
100
AcDbEntity
  8
M0
 62
   114
100
AcDbLine
 10
277.520397
 20
673.116215
 11
277.520397
 21
674.6162
  0
LINE
  5
66B
100
AcDbEntity
  8
M0
 62
   114
100
AcDbLine
 10
274.520397
 20
673.1162
 11
274.520397
 21
674.616215
  0
LINE
  5
66C
100
AcDbEntity
  8
M0
 62
   114
100
AcDbLine
 10
271.320401
 20
673.116215
 11
271.320401
 21
684.1162
  0
LINE
  5
66D
100
AcDbEntity
  8
M0
 62
   114
100
AcDbLine
 10
248.020397
 20
685.116215
 11
270.320401
 21
685.116215
  0
LINE
  5
66E
100
AcDbEntity
  8
M0
 62
   114
100
AcDbLine
 10
286.020397
 20
684.116215
 11
286.020397
 21
679.116215
  0
LINE
  5
66F
100
AcDbEntity
  8
M0
 62
   114
100
AcDbLine
 10
287.020397
 20
685.116215
 11
300.020397
 21
685.116215
  0
ARC
  5
670
100
AcDbEntity
  8
M0
 62
   114
100
AcDbCircle
 10
282.020397
 20
679.116215
 40
3.999996
100
AcDbArc
 50
270.0
 51
360.0
  0
LINE
  5
671
100
AcDbEntity
  8
M0
 62
   114
100
AcDbLine
 10
278.020397
 20
672.616215
 11
280.520397
 21
672.616215
  0
ARC
  5
672
100
AcDbEntity
  8
M0
 62
   114
100
AcDbCircle
 10
271.820401
 20
673.116215
 40
0.5
100
AcDbArc
 50
179.998251
 51
270.0
  0
ARC
  5
673
100
AcDbEntity
  8
M0
 62
   114
100
AcDbCircle
 10
274.020397
 20
673.116215
 40
0.5
100
AcDbArc
 50
270.0
 51
360.0
  0
ARC
  5
674
100
AcDbEntity
  8
M0
 62
   114
100
AcDbCircle
 10
278.020397
 20
673.116215
 40
0.5
100
AcDbArc
 50
179.998251
 51
270.0
  0
ARC
  5
675
100
AcDbEntity
  8
M0
 62
   114
100
AcDbCircle
 10
280.520397
 20
673.116215
 40
0.5
100
AcDbArc
 50
270.0
 51
360.0
  0
ARC
  5
676
100
AcDbEntity
  8
M0
 62
   114
100
AcDbCircle
 10
270.320401
 20
684.116215
 40
1.0
100
AcDbArc
 50
0.0
 51
89.999126
  0
LINE
  5
677
100
AcDbEntity
  8
M0
 62
   114
100
AcDbLine
 10
271.020336
 20
675.116215
 11
271.320401
 21
675.116215
  0
LINE
  5
678
100
AcDbEntity
  8
M0
 62
   114
100
AcDbLine
 10
281.520397
 20
675.116215
 11
282.020397
 21
675.116215
  0
ARC
  5
679
100
AcDbEntity
  8
M0
 62
   114
100
AcDbCircle
 10
248.020397
 20
687.116215
 40
2.0
100
AcDbArc
 50
179.999563
 51
270.0
  0
LINE
  5
67A
100
AcDbEntity
  8
M0
 62
   114
100
AcDbLine
 10
257.820401
 20
688.616215
 11
269.820401
 21
688.616215
  0
LINE
  5
67B
100
AcDbEntity
  8
M0
 62
   114
100
AcDbLine
 10
269.820401
 20
688.616215
 11
269.820401
 21
685.616215
  0
LINE
  5
67C
100
AcDbEntity
  8
M0
 62
   114
100
AcDbLine
 10
257.820401
 20
688.616215
 11
257.820401
 21
685.616215
  0
LINE
  5
67D
100
AcDbEntity
  8
M0
 62
   114
100
AcDbLine
 10
287.520397
 20
685.6162
 11
287.520397
 21
688.616215
  0
LINE
  5
67E
100
AcDbEntity
  8
M0
 62
   114
100
AcDbLine
 10
287.520397
 20
688.616215
 11
299.520397
 21
688.616184
  0
ARC
  5
67F
100
AcDbEntity
  8
M0
 62
   114
100
AcDbCircle
 10
287.020397
 20
684.116215
 40
1.0
100
AcDbArc
 50
90.0
 51
179.999126
  0
ARC
  5
680
100
AcDbEntity
  8
M0
 62
   114
100
AcDbCircle
 10
287.020397
 20
685.616215
 40
0.5
100
AcDbArc
 50
270.0
 51
360.0
  0
LINE
  5
681
100
AcDbEntity
  8
M0
 62
   114
100
AcDbLine
 10
315.220394
 20
672.6162
 11
313.020397
 21
672.616215
  0
LINE
  5
682
100
AcDbEntity
  8
M0
 62
   114
100
AcDbLine
 10
341.020397
 20
774.116017
 11
341.020397
 21
687.116184
  0
LINE
  5
683
100
AcDbEntity
  8
M0
 62
   114
100
AcDbLine
 10
306.020397
 20
673.1162
 11
306.020397
 21
674.616184
  0
LINE
  5
684
100
AcDbEntity
  8
M0
 62
   114
100
AcDbLine
 10
309.520397
 20
673.116215
 11
309.520397
 21
674.6162
  0
LINE
  5
685
100
AcDbEntity
  8
M0
 62
   114
100
AcDbLine
 10
312.520397
 20
673.1162
 11
312.520397
 21
674.616184
  0
LINE
  5
686
100
AcDbEntity
  8
M0
 62
   114
100
AcDbLine
 10
315.720394
 20
673.1162
 11
315.720394
 21
684.116184
  0
LINE
  5
687
100
AcDbEntity
  8
M0
 62
   114
100
AcDbLine
 10
339.020397
 20
685.1162
 11
316.720394
 21
685.1162
  0
LINE
  5
688
100
AcDbEntity
  8
M0
 62
   114
100
AcDbLine
 10
301.020397
 20
684.116215
 11
301.020397
 21
679.116215
  0
ARC
  5
689
100
AcDbEntity
  8
M0
 62
   114
100
AcDbCircle
 10
305.020397
 20
679.116215
 40
3.999996
100
AcDbArc
 50
179.999781
 51
270.0
  0
LINE
  5
68A
100
AcDbEntity
  8
M0
 62
   114
100
AcDbLine
 10
313.020397
 20
672.616215
 11
306.520397
 21
672.616215
  0
ARC
  5
68B
100
AcDbEntity
  8
M0
 62
   114
100
AcDbCircle
 10
315.220394
 20
673.1162
 40
0.5
100
AcDbArc
 50
-90.001749
 51
0.0
  0
ARC
  5
68C
100
AcDbEntity
  8
M0
 62
   114
100
AcDbCircle
 10
313.020397
 20
673.116215
 40
0.5
100
AcDbArc
 50
179.998251
 51
269.998251
  0
ARC
  5
68D
100
AcDbEntity
  8
M0
 62
   114
100
AcDbCircle
 10
309.020397
 20
673.116215
 40
0.5
100
AcDbArc
 50
-90.0
 51
0.0
  0
ARC
  5
68E
100
AcDbEntity
  8
M0
 62
   114
100
AcDbCircle
 10
306.520397
 20
673.116215
 40
0.5
100
AcDbArc
 50
179.998251
 51
270.0
  0
ARC
  5
68F
100
AcDbEntity
  8
M0
 62
   114
100
AcDbCircle
 10
316.720394
 20
684.1162
 40
1.0
100
AcDbArc
 50
90.0
 51
179.999126
  0
LINE
  5
690
100
AcDbEntity
  8
M0
 62
   114
100
AcDbLine
 10
316.020321
 20
675.116215
 11
315.720394
 21
675.1162
  0
LINE
  5
691
100
AcDbEntity
  8
M0
 62
   114
100
AcDbLine
 10
305.520397
 20
675.116215
 11
305.020397
 21
675.116215
  0
ARC
  5
692
100
AcDbEntity
  8
M0
 62
   114
100
AcDbCircle
 10
339.020397
 20
687.116184
 40
2.0
100
AcDbArc
 50
-90.000437
 51
0.0
  0
LINE
  5
693
100
AcDbEntity
  8
M0
 62
   114
100
AcDbLine
 10
329.220394
 20
688.616184
 11
317.220394
 21
688.616184
  0
LINE
  5
694
100
AcDbEntity
  8
M0
 62
   114
100
AcDbLine
 10
317.220394
 20
688.616184
 11
317.220394
 21
685.616184
  0
LINE
  5
695
100
AcDbEntity
  8
M0
 62
   114
100
AcDbLine
 10
329.220394
 20
688.616184
 11
329.220394
 21
685.616184
  0
LINE
  5
696
100
AcDbEntity
  8
M0
 62
   114
100
AcDbLine
 10
299.520397
 20
685.6162
 11
299.520397
 21
688.616184
  0
ARC
  5
697
100
AcDbEntity
  8
M0
 62
   114
100
AcDbCircle
 10
300.020397
 20
684.116215
 40
1.0
100
AcDbArc
 50
0.0
 51
90.0
  0
ARC
  5
698
100
AcDbEntity
  8
M0
 62
   114
100
AcDbCircle
 10
300.020397
 20
685.616215
 40
0.5
100
AcDbArc
 50
179.998251
 51
270.0
  0
LINE
  5
699
100
AcDbEntity
  8
M0
 62
   114
100
AcDbLine
 10
271.820401
 20
788.616017
 11
278.020397
 21
788.616017
  0
LINE
  5
69A
100
AcDbEntity
  8
M0
 62
   114
100
AcDbLine
 10
281.020397
 20
788.116017
 11
281.020397
 21
786.116017
  0
LINE
  5
69B
100
AcDbEntity
  8
M0
 62
   114
100
AcDbLine
 10
277.520397
 20
788.116017
 11
277.520397
 21
786.116017
  0
LINE
  5
69C
100
AcDbEntity
  8
M0
 62
   114
100
AcDbLine
 10
274.520397
 20
788.116017
 11
274.520397
 21
786.116017
  0
LINE
  5
69D
100
AcDbEntity
  8
M0
 62
   114
100
AcDbLine
 10
271.320401
 20
788.116017
 11
271.320401
 21
777.116017
  0
LINE
  5
69E
100
AcDbEntity
  8
M0
 62
   114
100
AcDbLine
 10
248.020397
 20
776.116017
 11
270.320401
 21
776.116017
  0
LINE
  5
69F
100
AcDbEntity
  8
M0
 62
   114
100
AcDbLine
 10
286.020397
 20
777.116017
 11
286.020397
 21
782.116017
  0
LINE
  5
6A0
100
AcDbEntity
  8
M0
 62
   114
100
AcDbLine
 10
287.020397
 20
776.116017
 11
300.020397
 21
776.116017
  0
ARC
  5
6A1
100
AcDbEntity
  8
M0
 62
   114
100
AcDbCircle
 10
282.020397
 20
782.116017
 40
3.999996
100
AcDbArc
 50
0.0
 51
90.0
  0
LINE
  5
6A2
100
AcDbEntity
  8
M0
 62
   114
100
AcDbLine
 10
278.020397
 20
788.616017
 11
280.520397
 21
788.616017
  0
ARC
  5
6A3
100
AcDbEntity
  8
M0
 62
   114
100
AcDbCircle
 10
271.820401
 20
788.116017
 40
0.5
100
AcDbArc
 50
89.998251
 51
180.0
  0
ARC
  5
6A4
100
AcDbEntity
  8
M0
 62
   114
100
AcDbCircle
 10
274.020397
 20
788.116017
 40
0.5
100
AcDbArc
 50
0.0
 51
89.998251
  0
ARC
  5
6A5
100
AcDbEntity
  8
M0
 62
   114
100
AcDbCircle
 10
278.020397
 20
788.116017
 40
0.5
100
AcDbArc
 50
90.0
 51
180.0
  0
ARC
  5
6A6
100
AcDbEntity
  8
M0
 62
   114
100
AcDbCircle
 10
280.520397
 20
788.116017
 40
0.5
100
AcDbArc
 50
0.0
 51
90.0
  0
ARC
  5
6A7
100
AcDbEntity
  8
M0
 62
   114
100
AcDbCircle
 10
270.320401
 20
777.116017
 40
1.0
100
AcDbArc
 50
-90.0
 51
0.0
  0
LINE
  5
6A8
100
AcDbEntity
  8
M0
 62
   114
100
AcDbLine
 10
271.020336
 20
786.116017
 11
271.320401
 21
786.116017
  0
LINE
  5
6A9
100
AcDbEntity
  8
M0
 62
   114
100
AcDbLine
 10
281.020397
 20
786.116017
 11
282.020397
 21
786.116017
  0
ARC
  5
6AA
100
AcDbEntity
  8
M0
 62
   114
100
AcDbCircle
 10
248.020397
 20
774.116017
 40
2.0
100
AcDbArc
 50
89.999563
 51
180.0
  0
LINE
  5
6AB
100
AcDbEntity
  8
M0
 62
   114
100
AcDbLine
 10
257.820401
 20
772.616017
 11
269.820401
 21
772.616017
  0
LINE
  5
6AC
100
AcDbEntity
  8
M0
 62
   114
100
AcDbLine
 10
269.820401
 20
772.616017
 11
269.820401
 21
776.116017
  0
LINE
  5
6AD
100
AcDbEntity
  8
M0
 62
   114
100
AcDbLine
 10
257.820401
 20
772.616017
 11
257.820401
 21
776.116017
  0
LINE
  5
6AE
100
AcDbEntity
  8
M0
 62
   114
100
AcDbLine
 10
287.520397
 20
775.616017
 11
287.520397
 21
772.616017
  0
LINE
  5
6AF
100
AcDbEntity
  8
M0
 62
   114
100
AcDbLine
 10
287.520397
 20
772.616017
 11
299.520397
 21
772.616017
  0
ARC
  5
6B0
100
AcDbEntity
  8
M0
 62
   114
100
AcDbCircle
 10
287.020397
 20
777.116017
 40
1.0
100
AcDbArc
 50
180.0
 51
270.0
  0
ARC
  5
6B1
100
AcDbEntity
  8
M0
 62
   114
100
AcDbCircle
 10
287.020397
 20
775.616017
 40
0.5
100
AcDbArc
 50
0.0
 51
90.0
  0
LINE
  5
6B2
100
AcDbEntity
  8
M0
 62
   114
100
AcDbLine
 10
315.220394
 20
788.616017
 11
309.020397
 21
788.616017
  0
LINE
  5
6B3
100
AcDbEntity
  8
M0
 62
   114
100
AcDbLine
 10
306.020397
 20
788.116017
 11
306.020397
 21
786.116017
  0
LINE
  5
6B4
100
AcDbEntity
  8
M0
 62
   114
100
AcDbLine
 10
309.520397
 20
788.116017
 11
309.520397
 21
786.116017
  0
LINE
  5
6B5
100
AcDbEntity
  8
M0
 62
   114
100
AcDbLine
 10
312.520397
 20
788.116017
 11
312.520397
 21
786.116017
  0
LINE
  5
6B6
100
AcDbEntity
  8
M0
 62
   114
100
AcDbLine
 10
315.720394
 20
788.116017
 11
315.720394
 21
777.116017
  0
LINE
  5
6B7
100
AcDbEntity
  8
M0
 62
   114
100
AcDbLine
 10
339.020397
 20
776.116017
 11
316.720394
 21
776.116017
  0
LINE
  5
6B8
100
AcDbEntity
  8
M0
 62
   114
100
AcDbLine
 10
301.020397
 20
777.116017
 11
301.020397
 21
782.116017
  0
ARC
  5
6B9
100
AcDbEntity
  8
M0
 62
   114
100
AcDbCircle
 10
305.020397
 20
782.116017
 40
3.999996
100
AcDbArc
 50
90.0
 51
180.0
  0
LINE
  5
6BA
100
AcDbEntity
  8
M0
 62
   114
100
AcDbLine
 10
309.020397
 20
788.616017
 11
306.520397
 21
788.616017
  0
ARC
  5
6BB
100
AcDbEntity
  8
M0
 62
   114
100
AcDbCircle
 10
315.220394
 20
788.116017
 40
0.5
100
AcDbArc
 50
0.0
 51
90.0
  0
ARC
  5
6BC
100
AcDbEntity
  8
M0
 62
   114
100
AcDbCircle
 10
313.020397
 20
788.116017
 40
0.5
100
AcDbArc
 50
90.0
 51
180.0
  0
ARC
  5
6BD
100
AcDbEntity
  8
M0
 62
   114
100
AcDbCircle
 10
309.020397
 20
788.116017
 40
0.5
100
AcDbArc
 50
0.0
 51
90.0
  0
ARC
  5
6BE
100
AcDbEntity
  8
M0
 62
   114
100
AcDbCircle
 10
306.520397
 20
788.116017
 40
0.5
100
AcDbArc
 50
90.0
 51
180.0
  0
ARC
  5
6BF
100
AcDbEntity
  8
M0
 62
   114
100
AcDbCircle
 10
316.720394
 20
777.116017
 40
1.0
100
AcDbArc
 50
180.0
 51
269.999126
  0
LINE
  5
6C0
100
AcDbEntity
  8
M0
 62
   114
100
AcDbLine
 10
316.020336
 20
786.116017
 11
315.720394
 21
786.116017
  0
LINE
  5
6C1
100
AcDbEntity
  8
M0
 62
   114
100
AcDbLine
 10
306.020397
 20
786.116017
 11
305.020397
 21
786.116017
  0
ARC
  5
6C2
100
AcDbEntity
  8
M0
 62
   114
100
AcDbCircle
 10
339.020397
 20
774.116017
 40
2.0
100
AcDbArc
 50
0.0
 51
90.0
  0
LINE
  5
6C3
100
AcDbEntity
  8
M0
 62
   114
100
AcDbLine
 10
329.220394
 20
772.616017
 11
317.220394
 21
772.616017
  0
LINE
  5
6C4
100
AcDbEntity
  8
M0
 62
   114
100
AcDbLine
 10
317.220394
 20
772.616017
 11
317.220394
 21
776.116017
  0
LINE
  5
6C5
100
AcDbEntity
  8
M0
 62
   114
100
AcDbLine
 10
329.220394
 20
772.616017
 11
329.220394
 21
776.116017
  0
LINE
  5
6C6
100
AcDbEntity
  8
M0
 62
   114
100
AcDbLine
 10
299.520397
 20
775.616017
 11
299.520397
 21
772.616017
  0
ARC
  5
6C7
100
AcDbEntity
  8
M0
 62
   114
100
AcDbCircle
 10
300.020397
 20
777.116017
 40
1.0
100
AcDbArc
 50
270.0
 51
360.0
  0
ARC
  5
6C8
100
AcDbEntity
  8
M0
 62
   114
100
AcDbCircle
 10
300.020397
 20
775.616017
 40
0.5
100
AcDbArc
 50
90.0
 51
180.0
  0
CIRCLE
  5
6C9
100
AcDbEntity
  8
M0
 62
   114
100
AcDbCircle
 10
278.67033
 20
779.616017
 40
4.499997
  0
CIRCLE
  5
6CA
100
AcDbEntity
  8
M0
 62
   114
100
AcDbCircle
 10
308.370327
 20
681.616169
 40
4.499997
  0
CIRCLE
  5
6CB
100
AcDbEntity
  8
M0
 62
   114
100
AcDbCircle
 10
251.020336
 20
692.366169
 40
1.859998
  0
CIRCLE
  5
6CC
100
AcDbEntity
  8
M0
 62
   114
100
AcDbCircle
 10
251.020336
 20
768.866017
 40
1.859998
  0
CIRCLE
  5
6CD
100
AcDbEntity
  8
M0
 62
   114
100
AcDbCircle
 10
336.020336
 20
768.866017
 40
1.859998
  0
CIRCLE
  5
6CE
100
AcDbEntity
  8
M0
 62
   114
100
AcDbCircle
 10
336.020336
 20
692.366169
 40
1.859998
  0
CIRCLE
  5
6CF
100
AcDbEntity
  8
M0
 62
   114
100
AcDbCircle
 10
251.020336
 20
768.866017
 40
1.359998
  0
CIRCLE
  5
6D0
100
AcDbEntity
  8
M0
 62
   114
100
AcDbCircle
 10
251.020336
 20
692.366169
 40
1.359998
  0
CIRCLE
  5
6D1
100
AcDbEntity
  8
M0
 62
   114
100
AcDbCircle
 10
336.020336
 20
692.366169
 40
1.359998
  0
CIRCLE
  5
6D2
100
AcDbEntity
  8
M0
 62
   114
100
AcDbCircle
 10
336.020336
 20
768.866017
 40
1.359998
  0
LINE
  5
6D3
100
AcDbEntity
  8
M0
  6
DASHDOT
 62
   114
100
AcDbLine
 10
216.63496
 20
730.616154
 11
370.233303
 21
730.616154
  0
ARC
  5
6D4
100
AcDbEntity
  8
M0
 62
   114
100
AcDbCircle
 10
257.320401
 20
685.616215
 40
0.5
100
AcDbArc
 50
270.0
 51
360.0
  0
ARC
  5
6D5
100
AcDbEntity
  8
M0
 62
   114
100
AcDbCircle
 10
270.320401
 20
685.616215
 40
0.5
100
AcDbArc
 50
179.998251
 51
270.0
  0
ARC
  5
6D6
100
AcDbEntity
  8
M0
 62
   114
100
AcDbCircle
 10
329.720394
 20
685.616184
 40
0.5
100
AcDbArc
 50
179.998251
 51
269.998251
  0
ARC
  5
6D7
100
AcDbEntity
  8
M0
 62
   114
100
AcDbCircle
 10
316.720394
 20
685.616184
 40
0.5
100
AcDbArc
 50
269.998251
 51
360.0
  0
ARC
  5
6D8
100
AcDbEntity
  8
M0
 62
   114
100
AcDbCircle
 10
312.020397
 20
674.6162
 40
0.5
100
AcDbArc
 50
0.0
 51
90.0
  0
ARC
  5
6D9
100
AcDbEntity
  8
M0
 62
   114
100
AcDbCircle
 10
310.020397
 20
674.6162
 40
0.5
100
AcDbArc
 50
90.0
 51
179.998251
  0
ARC
  5
6DA
100
AcDbEntity
  8
M0
 62
   114
100
AcDbCircle
 10
277.020397
 20
674.616215
 40
0.5
100
AcDbArc
 50
0.0
 51
89.998251
  0
ARC
  5
6DB
100
AcDbEntity
  8
M0
 62
   114
100
AcDbCircle
 10
275.020397
 20
674.616215
 40
0.5
100
AcDbArc
 50
89.998251
 51
179.998251
  0
ARC
  5
6DC
100
AcDbEntity
  8
M0
 62
   114
100
AcDbCircle
 10
281.520397
 20
674.616215
 40
0.5
100
AcDbArc
 50
90.0
 51
179.998251
  0
ARC
  5
6DD
100
AcDbEntity
  8
M0
 62
   114
100
AcDbCircle
 10
305.520397
 20
674.6162
 40
0.5
100
AcDbArc
 50
0.0
 51
90.0
  0
LINE
  5
6DE
100
AcDbEntity
  8
M0
 62
   114
100
AcDbLine
 10
272.020336
 20
667.116215
 11
279.020321
 21
667.116215
  0
LINE
  5
6DF
100
AcDbEntity
  8
M0
 62
   114
100
AcDbLine
 10
312.520336
 20
670.116215
 11
312.520336
 21
667.116215
  0
LINE
  5
6E0
100
AcDbEntity
  8
M0
 62
   114
100
AcDbLine
 10
310.520336
 20
670.116215
 11
310.520336
 21
667.116215
  0
LINE
  5
6E1
100
AcDbEntity
  8
M0
 62
   114
100
AcDbLine
 10
276.520336
 20
670.116215
 11
276.520336
 21
667.116215
  0
LINE
  5
6E2
100
AcDbEntity
  8
M0
 62
   114
100
AcDbLine
 10
274.520336
 20
670.116215
 11
274.520336
 21
667.116215
  0
LINE
  5
6E3
100
AcDbEntity
  8
M0
 62
   114
100
AcDbLine
 10
278.020336
 20
672.616215
 11
278.020336
 21
670.116215
  0
LINE
  5
6E4
100
AcDbEntity
  8
M0
 62
   114
100
AcDbLine
 10
273.020336
 20
672.616215
 11
273.020336
 21
670.116215
  0
LINE
  5
6E5
100
AcDbEntity
  8
M0
 62
   114
100
AcDbLine
 10
314.020336
 20
672.6162
 11
314.020336
 21
670.116215
  0
LINE
  5
6E6
100
AcDbEntity
  8
M0
 62
   114
100
AcDbLine
 10
309.020336
 20
672.616215
 11
309.020336
 21
670.116215
  0
LINE
  5
6E7
100
AcDbEntity
  8
M0
 62
   114
100
AcDbLine
 10
281.020336
 20
673.108402
 11
281.020336
 21
670.116215
  0
LINE
  5
6E8
100
AcDbEntity
  8
M0
 62
   114
100
AcDbLine
 10
270.020336
 20
674.116215
 11
270.020336
 21
669.116215
  0
LINE
  5
6E9
100
AcDbEntity
  8
M0
 62
   114
100
AcDbLine
 10
317.020336
 20
674.1162
 11
317.020336
 21
669.116215
  0
LINE
  5
6EA
100
AcDbEntity
  8
M0
 62
   114
100
AcDbLine
 10
306.020336
 20
673.1162
 11
306.020336
 21
670.1162
  0
LINE
  5
6EB
100
AcDbEntity
  8
M0
 62
   114
100
AcDbLine
 10
273.020336
 20
670.116215
 11
274.520336
 21
670.116215
  0
LINE
  5
6EC
100
AcDbEntity
  8
M0
 62
   114
100
AcDbLine
 10
306.020336
 20
670.116215
 11
308.020336
 21
667.116215
  0
LINE
  5
6ED
100
AcDbEntity
  8
M0
 62
   114
100
AcDbLine
 10
281.020336
 20
670.116215
 11
279.020336
 21
667.116215
  0
LINE
  5
6EE
100
AcDbEntity
  8
M0
 62
   114
100
AcDbLine
 10
308.020321
 20
667.116215
 11
315.020336
 21
667.116215
  0
LINE
  5
6EF
100
AcDbEntity
  8
M0
 62
   114
100
AcDbLine
 10
309.020336
 20
670.116215
 11
310.520336
 21
670.116215
  0
LINE
  5
6F0
100
AcDbEntity
  8
M0
 62
   114
100
AcDbLine
 10
276.520336
 20
670.116215
 11
278.020336
 21
670.116215
  0
LINE
  5
6F1
100
AcDbEntity
  8
M0
 62
   114
100
AcDbLine
 10
312.520336
 20
670.116215
 11
314.020336
 21
670.116215
  0
ARC
  5
6F2
100
AcDbEntity
  8
M0
 62
   114
100
AcDbCircle
 10
316.020336
 20
674.1162
 40
1.0
100
AcDbArc
 50
0.0
 51
90.0
  0
ARC
  5
6F3
100
AcDbEntity
  8
M0
 62
   114
100
AcDbCircle
 10
271.020336
 20
674.116215
 40
1.0
100
AcDbArc
 50
89.999126
 51
179.999126
  0
LINE
  5
6F4
100
AcDbEntity
  8
M0
 62
   114
100
AcDbLine
 10
275.020397
 20
675.116215
 11
277.020397
 21
675.116215
  0
LINE
  5
6F5
100
AcDbEntity
  8
M0
 62
   114
100
AcDbLine
 10
312.020397
 20
675.1162
 11
310.020397
 21
675.116215
  0
ARC
  5
6F6
100
AcDbEntity
  8
M0
 62
   114
100
AcDbCircle
 10
272.020336
 20
669.116215
 40
2.0
100
AcDbArc
 50
179.999563
 51
270.0
  0
ARC
  5
6F7
100
AcDbEntity
  8
M0
 62
   114
100
AcDbCircle
 10
315.020336
 20
669.116215
 40
2.0
100
AcDbArc
 50
269.999563
 51
360.0
  0
LINE
  5
6F8
100
AcDbEntity
  8
M0
 62
   114
100
AcDbLine
 10
272.020336
 20
794.116017
 11
279.020321
 21
794.116017
  0
LINE
  5
6F9
100
AcDbEntity
  8
M0
 62
   114
100
AcDbLine
 10
273.020336
 20
791.116017
 11
274.520336
 21
791.116017
  0
LINE
  5
6FA
100
AcDbEntity
  8
M0
 62
   114
100
AcDbLine
 10
276.520336
 20
794.116017
 11
276.520336
 21
791.116017
  0
LINE
  5
6FB
100
AcDbEntity
  8
M0
 62
   114
100
AcDbLine
 10
310.520336
 20
794.116017
 11
310.520336
 21
791.116017
  0
LINE
  5
6FC
100
AcDbEntity
  8
M0
 62
   114
100
AcDbLine
 10
274.520336
 20
794.116017
 11
274.520336
 21
791.116017
  0
LINE
  5
6FD
100
AcDbEntity
  8
M0
 62
   114
100
AcDbLine
 10
312.520336
 20
794.116017
 11
312.520336
 21
791.116017
  0
LINE
  5
6FE
100
AcDbEntity
  8
M0
 62
   114
100
AcDbLine
 10
278.020336
 20
791.116017
 11
278.020336
 21
788.616017
  0
LINE
  5
6FF
100
AcDbEntity
  8
M0
 62
   114
100
AcDbLine
 10
273.020336
 20
791.116017
 11
273.020336
 21
788.616017
  0
LINE
  5
700
100
AcDbEntity
  8
M0
 62
   114
100
AcDbLine
 10
314.020336
 20
791.116017
 11
314.020336
 21
788.616017
  0
LINE
  5
701
100
AcDbEntity
  8
M0
 62
   114
100
AcDbLine
 10
309.020336
 20
791.116017
 11
309.020336
 21
788.616017
  0
LINE
  5
702
100
AcDbEntity
  8
M0
 62
   114
100
AcDbLine
 10
281.020336
 20
788.123829
 11
281.020336
 21
791.116017
  0
LINE
  5
703
100
AcDbEntity
  8
M0
 62
   114
100
AcDbLine
 10
270.020336
 20
787.116017
 11
270.020336
 21
792.116017
  0
LINE
  5
704
100
AcDbEntity
  8
M0
 62
   114
100
AcDbLine
 10
306.020336
 20
788.116017
 11
306.020336
 21
791.116017
  0
LINE
  5
705
100
AcDbEntity
  8
M0
 62
   114
100
AcDbLine
 10
317.020336
 20
787.116017
 11
317.020336
 21
792.116017
  0
ARC
  5
706
100
AcDbEntity
  8
M0
 62
   114
100
AcDbCircle
 10
315.020336
 20
792.116017
 40
2.0
100
AcDbArc
 50
0.0
 51
90.0
  0
ARC
  5
707
100
AcDbEntity
  8
M0
 62
   114
100
AcDbCircle
 10
272.020336
 20
792.116017
 40
2.0
100
AcDbArc
 50
89.999563
 51
180.0
  0
LINE
  5
708
100
AcDbEntity
  8
M0
 62
   114
100
AcDbLine
 10
279.020336
 20
794.116017
 11
281.020336
 21
791.116017
  0
LINE
  5
709
100
AcDbEntity
  8
M0
 62
   114
100
AcDbLine
 10
308.020336
 20
794.116017
 11
306.020336
 21
791.116017
  0
LINE
  5
70A
100
AcDbEntity
  8
M0
 62
   114
100
AcDbLine
 10
309.020336
 20
791.116017
 11
310.520336
 21
791.116017
  0
LINE
  5
70B
100
AcDbEntity
  8
M0
 62
   114
100
AcDbLine
 10
276.520336
 20
791.116017
 11
278.020336
 21
791.116017
  0
LINE
  5
70C
100
AcDbEntity
  8
M0
 62
   114
100
AcDbLine
 10
312.520336
 20
791.116017
 11
314.020336
 21
791.116017
  0
ARC
  5
70D
100
AcDbEntity
  8
M0
 62
   114
100
AcDbCircle
 10
271.020336
 20
787.116017
 40
1.0
100
AcDbArc
 50
180.0
 51
270.0
  0
ARC
  5
70E
100
AcDbEntity
  8
M0
 62
   114
100
AcDbCircle
 10
316.020336
 20
787.116017
 40
1.0
100
AcDbArc
 50
269.999126
 51
360.0
  0
LINE
  5
70F
100
AcDbEntity
  8
M0
 62
   114
100
AcDbLine
 10
274.520397
 20
786.116017
 11
277.520397
 21
786.116017
  0
LINE
  5
710
100
AcDbEntity
  8
M0
 62
   114
100
AcDbLine
 10
312.520397
 20
786.116017
 11
309.520397
 21
786.116017
  0
LINE
  5
711
100
AcDbEntity
  8
M0
 62
   114
100
AcDbLine
 10
308.020321
 20
794.116017
 11
315.020336
 21
794.116017
  0
LINE
  5
712
100
AcDbEntity
  8
M0
  6
DIVIDE
 62
   114
100
AcDbLine
 10
365.520581
 20
695.616108
 11
365.520581
 21
765.616108
  0
LINE
  5
713
100
AcDbEntity
  8
M0
  6
DIVIDE
 62
   114
100
AcDbLine
 10
353.520581
 20
765.616108
 11
365.520581
 21
765.616108
  0
LINE
  5
714
100
AcDbEntity
  8
M0
  6
DIVIDE
 62
   114
100
AcDbLine
 10
353.520581
 20
695.616108
 11
365.520581
 21
695.616108
  0
LINE
  5
715
100
AcDbEntity
  8
M0
 62
   114
100
AcDbLine
 10
265.820294
 20
673.117481
 11
265.820294
 21
654.117237
  0
LINE
  5
716
100
AcDbEntity
  8
M0
 62
   114
100
AcDbLine
 10
265.820294
 20
654.117237
 11
245.820294
 21
654.117237
  0
LINE
  5
717
100
AcDbEntity
  8
M0
 62
   114
100
AcDbLine
 10
303.520352
 20
654.117726
 11
283.520413
 21
654.117481
  0
LINE
  5
718
100
AcDbEntity
  8
M0
 62
   114
100
AcDbLine
 10
321.220242
 20
654.116993
 11
341.220242
 21
654.117237
  0
LINE
  5
719
100
AcDbEntity
  8
M0
 62
   114
100
AcDbLine
 10
331.220471
 20
670.620701
 11
337.72192
 21
666.868107
  0
LINE
  5
71A
100
AcDbEntity
  8
M0
 62
   114
100
AcDbLine
 10
337.72192
 20
666.868107
 11
337.72192
 21
659.362461
  0
LINE
  5
71B
100
AcDbEntity
  8
M0
 62
   114
100
AcDbLine
 10
337.72192
 20
659.362461
 11
331.220471
 21
655.609715
  0
LINE
  5
71C
100
AcDbEntity
  8
M0
 62
   114
100
AcDbLine
 10
331.220471
 20
655.609715
 11
324.721447
 21
659.362461
  0
LINE
  5
71D
100
AcDbEntity
  8
M0
 62
   114
100
AcDbLine
 10
324.721447
 20
659.362461
 11
324.721447
 21
666.868107
  0
LINE
  5
71E
100
AcDbEntity
  8
M0
 62
   114
100
AcDbLine
 10
324.721447
 20
666.868107
 11
331.220471
 21
670.620701
  0
CIRCLE
  5
71F
100
AcDbEntity
  8
M0
 62
   114
100
AcDbCircle
 10
331.220471
 20
663.11536
 40
4.0
  0
LINE
  5
720
100
AcDbEntity
  8
M0
  6
DASHDOT
 62
   114
100
AcDbLine
 10
341.372799
 20
663.11536
 11
321.068142
 21
663.11536
  0
LINE
  5
721
100
AcDbEntity
  8
M0
  6
DASHDOT
 62
   114
100
AcDbLine
 10
331.220455
 20
673.267689
 11
331.220471
 21
651.963032
  0
LINE
  5
722
100
AcDbEntity
  8
M0
 62
   114
100
AcDbLine
 10
255.820294
 20
670.620701
 11
249.318844
 21
666.868107
  0
LINE
  5
723
100
AcDbEntity
  8
M0
 62
   114
100
AcDbLine
 10
249.318844
 20
666.868107
 11
249.318844
 21
659.362461
  0
LINE
  5
724
100
AcDbEntity
  8
M0
 62
   114
100
AcDbLine
 10
249.318844
 20
659.362461
 11
255.820294
 21
655.609715
  0
LINE
  5
725
100
AcDbEntity
  8
M0
 62
   114
100
AcDbLine
 10
255.820294
 20
655.609715
 11
262.319317
 21
659.362461
  0
LINE
  5
726
100
AcDbEntity
  8
M0
 62
   114
100
AcDbLine
 10
262.319317
 20
659.362461
 11
262.319317
 21
666.868107
  0
LINE
  5
727
100
AcDbEntity
  8
M0
 62
   114
100
AcDbLine
 10
262.319317
 20
666.868107
 11
255.820294
 21
670.620701
  0
CIRCLE
  5
728
100
AcDbEntity
  8
M0
 62
   114
100
AcDbCircle
 10
255.820294
 20
663.11536
 40
4.0
  0
LINE
  5
729
100
AcDbEntity
  8
M0
  6
DASHDOT
 62
   114
100
AcDbLine
 10
245.667965
 20
663.11536
 11
265.972622
 21
663.11536
  0
LINE
  5
72A
100
AcDbEntity
  8
M0
  6
DASHDOT
 62
   114
100
AcDbLine
 10
255.820309
 20
673.267689
 11
255.820294
 21
651.963032
  0
LINE
  5
72B
100
AcDbEntity
  8
M0
 62
   114
100
AcDbLine
 10
255.820294
 20
790.611607
 11
249.318844
 21
794.364201
  0
LINE
  5
72C
100
AcDbEntity
  8
M0
 62
   114
100
AcDbLine
 10
249.318844
 20
794.364201
 11
249.318844
 21
801.869847
  0
LINE
  5
72D
100
AcDbEntity
  8
M0
 62
   114
100
AcDbLine
 10
249.318844
 20
801.869847
 11
255.820294
 21
805.622593
  0
LINE
  5
72E
100
AcDbEntity
  8
M0
 62
   114
100
AcDbLine
 10
255.820294
 20
805.622593
 11
262.319317
 21
801.869847
  0
LINE
  5
72F
100
AcDbEntity
  8
M0
 62
   114
100
AcDbLine
 10
262.319317
 20
801.869847
 11
262.319317
 21
794.364201
  0
LINE
  5
730
100
AcDbEntity
  8
M0
 62
   114
100
AcDbLine
 10
262.319317
 20
794.364201
 11
255.820294
 21
790.611607
  0
CIRCLE
  5
731
100
AcDbEntity
  8
M0
 62
   114
100
AcDbCircle
 10
255.820294
 20
798.116947
 40
4.0
  0
LINE
  5
732
100
AcDbEntity
  8
M0
 62
   114
100
AcDbLine
 10
331.220471
 20
790.611607
 11
337.72192
 21
794.364201
  0
LINE
  5
733
100
AcDbEntity
  8
M0
 62
   114
100
AcDbLine
 10
337.72192
 20
794.364201
 11
337.72192
 21
801.869847
  0
LINE
  5
734
100
AcDbEntity
  8
M0
 62
   114
100
AcDbLine
 10
337.72192
 20
801.869847
 11
331.220471
 21
805.622593
  0
LINE
  5
735
100
AcDbEntity
  8
M0
 62
   114
100
AcDbLine
 10
331.220471
 20
805.622593
 11
324.721447
 21
801.869847
  0
LINE
  5
736
100
AcDbEntity
  8
M0
 62
   114
100
AcDbLine
 10
324.721447
 20
801.869847
 11
324.721447
 21
794.364201
  0
LINE
  5
737
100
AcDbEntity
  8
M0
 62
   114
100
AcDbLine
 10
324.721447
 20
794.364201
 11
331.220471
 21
790.611607
  0
CIRCLE
  5
738
100
AcDbEntity
  8
M0
 62
   114
100
AcDbCircle
 10
331.220471
 20
798.116947
 40
4.0
  0
LINE
  5
739
100
AcDbEntity
  8
M0
 62
   114
100
AcDbLine
 10
293.520652
 20
670.620411
 11
287.019203
 21
666.867817
  0
LINE
  5
73A
100
AcDbEntity
  8
M0
 62
   114
100
AcDbLine
 10
287.019203
 20
666.867817
 11
287.019203
 21
659.362171
  0
LINE
  5
73B
100
AcDbEntity
  8
M0
 62
   114
100
AcDbLine
 10
287.019203
 20
659.362171
 11
293.520652
 21
655.609425
  0
LINE
  5
73C
100
AcDbEntity
  8
M0
 62
   114
100
AcDbLine
 10
293.520652
 20
655.609425
 11
300.019675
 21
659.362171
  0
LINE
  5
73D
100
AcDbEntity
  8
M0
 62
   114
100
AcDbLine
 10
300.019675
 20
659.362171
 11
300.019675
 21
666.867817
  0
LINE
  5
73E
100
AcDbEntity
  8
M0
 62
   114
100
AcDbLine
 10
300.019675
 20
666.867817
 11
293.520652
 21
670.620411
  0
CIRCLE
  5
73F
100
AcDbEntity
  8
M0
 62
   114
100
AcDbCircle
 10
293.520652
 20
663.115071
 40
4.0
  0
LINE
  5
740
100
AcDbEntity
  8
M0
  6
DASHDOT
 62
   114
100
AcDbLine
 10
283.368324
 20
663.115071
 11
303.67298
 21
663.115071
  0
LINE
  5
741
100
AcDbEntity
  8
M0
 62
   114
100
AcDbLine
 10
293.520652
 20
790.611897
 11
287.019203
 21
794.364491
  0
LINE
  5
742
100
AcDbEntity
  8
M0
 62
   114
100
AcDbLine
 10
287.019203
 20
794.364491
 11
287.019203
 21
801.870136
  0
LINE
  5
743
100
AcDbEntity
  8
M0
 62
   114
100
AcDbLine
 10
287.019203
 20
801.870136
 11
293.520652
 21
805.622883
  0
LINE
  5
744
100
AcDbEntity
  8
M0
 62
   114
100
AcDbLine
 10
293.520652
 20
805.622883
 11
300.019675
 21
801.870136
  0
LINE
  5
745
100
AcDbEntity
  8
M0
 62
   114
100
AcDbLine
 10
300.019675
 20
801.870136
 11
300.019675
 21
794.364491
  0
LINE
  5
746
100
AcDbEntity
  8
M0
 62
   114
100
AcDbLine
 10
300.019675
 20
794.364491
 11
293.520652
 21
790.611897
  0
CIRCLE
  5
747
100
AcDbEntity
  8
M0
 62
   114
100
AcDbCircle
 10
293.520652
 20
798.117237
 40
4.0
  0
LINE
  5
748
100
AcDbEntity
  8
M0
  6
DASHDOT
 62
   114
100
AcDbLine
 10
283.368324
 20
798.117237
 11
303.67298
 21
798.117237
  0
LINE
  5
749
100
AcDbEntity
  8
M0
  6
DASHED
 62
   114
100
AcDbLine
 10
276.520336
 20
672.616215
 11
275.020336
 21
672.616215
  0
LINE
  5
74A
100
AcDbEntity
  8
M0
  6
DASHED
 62
   114
100
AcDbLine
 10
310.520428
 20
672.616215
 11
312.020428
 21
672.616215
  0
LINE
  5
74B
100
AcDbEntity
  8
M0
  6
DASHED
 62
   114
100
AcDbLine
 10
310.520428
 20
788.616093
 11
312.020428
 21
788.616093
  0
LINE
  5
74C
100
AcDbEntity
  8
M0
  6
DASHED
 62
   114
100
AcDbLine
 10
276.520352
 20
788.616093
 11
275.020352
 21
788.616093
  0
LINE
  5
74D
100
AcDbEntity
  8
M0
 62
   114
100
AcDbLine
 10
533.042111
 20
787.615376
 11
545.042355
 21
787.615376
  0
LINE
  5
74E
100
AcDbEntity
  8
M0
 62
   114
100
AcDbLine
 10
505.042111
 20
786.115376
 11
511.84216
 21
786.115376
  0
LINE
  5
74F
100
AcDbEntity
  8
M0
 62
   114
100
AcDbLine
 10
512.942013
 20
776.115376
 11
515.042111
 21
776.115376
  0
LINE
  5
750
100
AcDbEntity
  8
M0
 62
   114
100
AcDbLine
 10
505.042111
 20
772.115376
 11
511.942013
 21
772.115376
  0
LINE
  5
751
100
AcDbEntity
  8
M0
 62
   114
100
AcDbLine
 10
519.042111
 20
760.615376
 11
529.042111
 21
760.615376
  0
LINE
  5
752
100
AcDbEntity
  8
M0
 62
   114
100
AcDbLine
 10
498.042111
 20
758.115376
 11
508.542111
 21
758.115376
  0
LINE
  5
753
100
AcDbEntity
  8
M0
 62
   114
100
AcDbLine
 10
470.042111
 20
748.115574
 11
488.042111
 21
748.115574
  0
LINE
  5
754
100
AcDbEntity
  8
M0
 62
   114
100
AcDbLine
 10
468.042111
 20
734.36562
 11
474.542111
 21
734.36562
  0
LINE
  5
755
100
AcDbEntity
  8
M0
 62
   114
100
AcDbLine
 10
473.042111
 20
733.36562
 11
474.542111
 21
733.36562
  0
LINE
  5
756
100
AcDbEntity
  8
M0
 62
   114
100
AcDbLine
 10
545.042111
 20
805.615376
 11
545.042111
 21
750.515476
  0
LINE
  5
757
100
AcDbEntity
  8
M0
 62
   114
100
AcDbLine
 10
532.042111
 20
795.750141
 11
532.042111
 21
763.615376
  0
ARC
  5
758
100
AcDbEntity
  8
M0
 62
   114
100
AcDbCircle
 10
533.042111
 20
786.615376
 40
1.0
100
AcDbArc
 50
89.999126
 51
180.0
  0
ARC
  5
759
100
AcDbEntity
  8
M0
 62
   114
100
AcDbCircle
 10
531.042111
 20
787.115376
 40
1.0
100
AcDbArc
 50
270.0
 51
360.0
  0
LINE
  5
75A
100
AcDbEntity
  8
M0
 62
   114
100
AcDbLine
 10
515.042111
 20
785.115376
 11
515.042111
 21
776.115376
  0
LINE
  5
75B
100
AcDbEntity
  8
M0
 62
   114
100
AcDbLine
 10
504.042111
 20
785.115376
 11
504.042111
 21
758.115376
  0
ARC
  5
75C
100
AcDbEntity
  8
M0
 62
   114
100
AcDbCircle
 10
505.042111
 20
785.115376
 40
1.0
100
AcDbArc
 50
89.999126
 51
180.0
  0
ARC
  5
75D
100
AcDbEntity
  8
M0
 62
   114
100
AcDbCircle
 10
516.042111
 20
785.115376
 40
1.0
100
AcDbArc
 50
89.999126
 51
180.0
  0
LINE
  5
75E
100
AcDbEntity
  8
M0
 62
   114
100
AcDbLine
 10
511.942013
 20
775.115376
 11
511.942013
 21
757.115376
  0
ARC
  5
75F
100
AcDbEntity
  8
M0
 62
   114
100
AcDbCircle
 10
512.942013
 20
775.115376
 40
1.0
100
AcDbArc
 50
89.999126
 51
180.0
  0
ARC
  5
760
100
AcDbEntity
  8
M0
 62
   114
100
AcDbCircle
 10
505.042111
 20
771.115376
 40
1.0
100
AcDbArc
 50
89.999126
 51
180.0
  0
ARC
  5
761
100
AcDbEntity
  8
M0
 62
   114
100
AcDbCircle
 10
529.042111
 20
763.615376
 40
3.0
100
AcDbArc
 50
270.0
 51
360.0
  0
LINE
  5
762
100
AcDbEntity
  8
M0
 62
   114
100
AcDbLine
 10
518.042111
 20
759.615376
 11
518.042111
 21
757.115376
  0
ARC
  5
763
100
AcDbEntity
  8
M0
 62
   114
100
AcDbCircle
 10
519.042111
 20
759.615376
 40
1.0
100
AcDbArc
 50
89.999126
 51
180.0
  0
LINE
  5
764
100
AcDbEntity
  8
M0
 62
   114
100
AcDbLine
 10
509.042111
 20
757.115376
 11
518.042111
 21
757.115376
  0
LINE
  5
765
100
AcDbEntity
  8
M0
 62
   114
100
AcDbLine
 10
509.042111
 20
757.615376
 11
509.042111
 21
757.115376
  0
ARC
  5
766
100
AcDbEntity
  8
M0
 62
   114
100
AcDbCircle
 10
508.542111
 20
757.615376
 40
0.5
100
AcDbArc
 50
0.0
 51
89.998251
  0
LINE
  5
767
100
AcDbEntity
  8
M0
 62
   114
100
AcDbLine
 10
468.042111
 20
746.11562
 11
468.042111
 21
730.61562
  0
LINE
  5
768
100
AcDbEntity
  8
M0
 62
   114
100
AcDbLine
 10
474.542111
 20
734.36562
 11
474.542111
 21
730.61562
  0
LINE
  5
769
100
AcDbEntity
  8
M0
 62
   114
100
AcDbLine
 10
492.042111
 20
748.115574
 11
492.042111
 21
745.61562
  0
LINE
  5
76A
100
AcDbEntity
  8
M0
 62
   114
100
AcDbLine
 10
496.042111
 20
756.115574
 11
496.042111
 21
752.115574
  0
ARC
  5
76B
100
AcDbEntity
  8
M0
 62
   114
100
AcDbCircle
 10
498.042111
 20
756.115574
 40
2.0
100
AcDbArc
 50
89.999563
 51
180.0
  0
LINE
  5
76C
100
AcDbEntity
  8
M0
 62
   114
100
AcDbLine
 10
488.042111
 20
748.115574
 11
488.042111
 21
745.61562
  0
LINE
  5
76D
100
AcDbEntity
  8
M0
 62
   114
100
AcDbLine
 10
470.042111
 20
748.115574
 11
488.042111
 21
748.115574
  0
ARC
  5
76E
100
AcDbEntity
  8
M0
 62
   114
100
AcDbCircle
 10
492.042111
 20
752.115574
 40
4.0
100
AcDbArc
 50
270.0
 51
360.0
  0
LINE
  5
76F
100
AcDbEntity
  8
M0
 62
   114
100
AcDbLine
 10
488.042111
 20
745.61562
 11
492.042111
 21
745.61562
  0
ARC
  5
770
100
AcDbEntity
  8
M0
 62
   114
100
AcDbCircle
 10
470.042111
 20
746.11562
 40
2.0
100
AcDbArc
 50
89.999563
 51
179.999973
  0
LINE
  5
771
100
AcDbEntity
  8
M0
 62
   114
100
AcDbLine
 10
473.042111
 20
734.36562
 11
473.042111
 21
733.36562
  0
LINE
  5
772
100
AcDbEntity
  8
M0
 62
   114
100
AcDbLine
 10
488.042111
 20
747.11562
 11
492.042111
 21
747.11562
  0
LINE
  5
773
100
AcDbEntity
  8
M0
 62
   114
100
AcDbLine
 10
522.041867
 20
737.61562
 11
534.041867
 21
737.61562
  0
LINE
  5
774
100
AcDbEntity
  8
M0
 62
   114
100
AcDbLine
 10
534.042111
 20
752.365574
 11
534.042111
 21
737.61562
  0
LINE
  5
775
100
AcDbEntity
  8
M0
 62
   114
100
AcDbLine
 10
520.041867
 20
735.61562
 11
520.041867
 21
732.61562
  0
LINE
  5
776
100
AcDbEntity
  8
M0
 62
   114
100
AcDbLine
 10
521.042111
 20
731.61562
 11
521.042111
 21
730.61562
  0
LINE
  5
777
100
AcDbEntity
  8
M0
 62
   114
100
AcDbLine
 10
521.042111
 20
731.61562
 11
520.042111
 21
732.61562
  0
LINE
  5
778
100
AcDbEntity
  8
M0
 62
   114
100
AcDbLine
 10
531.542111
 20
753.365574
 11
545.042111
 21
753.365574
  0
ARC
  5
779
100
AcDbEntity
  8
M0
 62
   114
100
AcDbCircle
 10
531.542111
 20
750.865574
 40
2.5
100
AcDbArc
 50
89.99965
 51
180.0
  0
LINE
  5
77A
100
AcDbEntity
  8
M0
 62
   114
100
AcDbLine
 10
531.541867
 20
748.365574
 11
534.042111
 21
748.365574
  0
ARC
  5
77B
100
AcDbEntity
  8
M0
 62
   114
100
AcDbCircle
 10
531.542111
 20
750.865574
 40
2.5
100
AcDbArc
 50
180.0
 51
270.0
  0
LINE
  5
77C
100
AcDbEntity
  8
M0
 62
   114
100
AcDbLine
 10
535.042111
 20
708.11562
 11
545.042355
 21
708.11562
  0
LINE
  5
77D
100
AcDbEntity
  8
M0
 62
   114
100
AcDbLine
 10
535.042111
 20
753.11533
 11
545.042355
 21
753.11533
  0
LINE
  5
77E
100
AcDbEntity
  8
M0
 62
   114
100
AcDbLine
 10
533.042111
 20
682.61562
 11
545.042111
 21
682.61562
  0
LINE
  5
77F
100
AcDbEntity
  8
M0
 62
   114
100
AcDbLine
 10
545.042111
 20
711.415714
 11
545.042111
 21
675.11562
  0
ARC
  5
780
100
AcDbEntity
  8
M0
 62
   114
100
AcDbCircle
 10
522.041867
 20
735.61562
 40
2.0
100
AcDbArc
 50
89.999563
 51
179.999973
  0
LINE
  5
781
100
AcDbEntity
  8
M0
 62
   114
100
AcDbLine
 10
522.042111
 20
723.61562
 11
534.042111
 21
723.61562
  0
LINE
  5
782
100
AcDbEntity
  8
M0
 62
   114
100
AcDbLine
 10
534.042355
 20
709.11562
 11
534.042355
 21
723.61562
  0
LINE
  5
783
100
AcDbEntity
  8
M0
 62
   114
100
AcDbLine
 10
520.042111
 20
725.61562
 11
520.042111
 21
728.61562
  0
LINE
  5
784
100
AcDbEntity
  8
M0
 62
   114
100
AcDbLine
 10
521.042355
 20
729.61562
 11
521.042355
 21
730.61562
  0
LINE
  5
785
100
AcDbEntity
  8
M0
 62
   114
100
AcDbLine
 10
521.042355
 20
729.61562
 11
520.042355
 21
728.61562
  0
LINE
  5
786
100
AcDbEntity
  8
M0
 62
   114
100
AcDbLine
 10
531.542355
 20
707.86562
 11
545.042355
 21
707.86562
  0
ARC
  5
787
100
AcDbEntity
  8
M0
 62
   114
100
AcDbCircle
 10
531.542355
 20
710.36562
 40
2.5
100
AcDbArc
 50
179.99965
 51
270.0
  0
LINE
  5
788
100
AcDbEntity
  8
M0
 62
   114
100
AcDbLine
 10
531.542111
 20
712.86562
 11
534.042355
 21
712.86562
  0
ARC
  5
789
100
AcDbEntity
  8
M0
 62
   114
100
AcDbCircle
 10
531.542355
 20
710.36562
 40
2.5
100
AcDbArc
 50
89.99965
 51
179.99965
  0
ARC
  5
78A
100
AcDbEntity
  8
M0
 62
   114
100
AcDbCircle
 10
535.042355
 20
709.11562
 40
1.0
100
AcDbArc
 50
179.999126
 51
270.0
  0
ARC
  5
78B
100
AcDbEntity
  8
M0
 62
   114
100
AcDbCircle
 10
535.042355
 20
752.11533
 40
1.0
100
AcDbArc
 50
89.999126
 51
180.0
  0
ARC
  5
78C
100
AcDbEntity
  8
M0
 62
   114
100
AcDbCircle
 10
522.042111
 20
725.61562
 40
2.0
100
AcDbArc
 50
179.999945
 51
270.0
  0
LINE
  5
78D
100
AcDbEntity
  8
M0
 62
   114
100
AcDbLine
 10
505.042355
 20
675.11562
 11
511.841671
 21
675.11562
  0
LINE
  5
78E
100
AcDbEntity
  8
M0
 62
   114
100
AcDbLine
 10
512.942257
 20
685.11562
 11
515.042355
 21
685.11562
  0
LINE
  5
78F
100
AcDbEntity
  8
M0
 62
   114
100
AcDbLine
 10
505.042355
 20
689.11562
 11
511.942257
 21
689.11562
  0
LINE
  5
790
100
AcDbEntity
  8
M0
 62
   114
100
AcDbLine
 10
519.042355
 20
700.61562
 11
529.042355
 21
700.61562
  0
LINE
  5
791
100
AcDbEntity
  8
M0
 62
   114
100
AcDbLine
 10
498.042355
 20
703.11562
 11
508.542355
 21
703.11562
  0
LINE
  5
792
100
AcDbEntity
  8
M0
 62
   114
100
AcDbLine
 10
470.042355
 20
713.11562
 11
488.042355
 21
713.11562
  0
LINE
  5
793
100
AcDbEntity
  8
M0
 62
   114
100
AcDbLine
 10
468.042355
 20
726.86562
 11
474.542355
 21
726.86562
  0
LINE
  5
794
100
AcDbEntity
  8
M0
 62
   114
100
AcDbLine
 10
473.042355
 20
727.86562
 11
474.542355
 21
727.86562
  0
LINE
  5
795
100
AcDbEntity
  8
M0
 62
   114
100
AcDbLine
 10
532.042355
 20
683.61562
 11
532.042355
 21
697.61562
  0
LINE
  5
796
100
AcDbEntity
  8
M0
 62
   114
100
AcDbLine
 10
515.042355
 20
676.11562
 11
515.042355
 21
685.11562
  0
LINE
  5
797
100
AcDbEntity
  8
M0
 62
   114
100
AcDbLine
 10
504.042355
 20
676.11562
 11
504.042355
 21
703.11562
  0
ARC
  5
798
100
AcDbEntity
  8
M0
 62
   114
100
AcDbCircle
 10
505.042355
 20
676.11562
 40
1.0
100
AcDbArc
 50
179.999126
 51
270.0
  0
ARC
  5
799
100
AcDbEntity
  8
M0
 62
   114
100
AcDbCircle
 10
516.042355
 20
676.11562
 40
1.0
100
AcDbArc
 50
179.999126
 51
270.0
  0
LINE
  5
79A
100
AcDbEntity
  8
M0
 62
   114
100
AcDbLine
 10
511.942257
 20
686.11562
 11
511.942257
 21
704.11562
  0
ARC
  5
79B
100
AcDbEntity
  8
M0
 62
   114
100
AcDbCircle
 10
512.942257
 20
686.11562
 40
1.0
100
AcDbArc
 50
179.999126
 51
270.0
  0
ARC
  5
79C
100
AcDbEntity
  8
M0
 62
   114
100
AcDbCircle
 10
505.042355
 20
690.11562
 40
1.0
100
AcDbArc
 50
179.999126
 51
270.0
  0
ARC
  5
79D
100
AcDbEntity
  8
M0
 62
   114
100
AcDbCircle
 10
529.042355
 20
697.61562
 40
3.0
100
AcDbArc
 50
0.0
 51
89.999709
  0
LINE
  5
79E
100
AcDbEntity
  8
M0
 62
   114
100
AcDbLine
 10
518.042355
 20
701.61562
 11
518.042355
 21
704.11562
  0
ARC
  5
79F
100
AcDbEntity
  8
M0
 62
   114
100
AcDbCircle
 10
519.042355
 20
701.61562
 40
1.0
100
AcDbArc
 50
179.999126
 51
270.0
  0
LINE
  5
7A0
100
AcDbEntity
  8
M0
 62
   114
100
AcDbLine
 10
510.042111
 20
704.11562
 11
518.042111
 21
704.11562
  0
LINE
  5
7A1
100
AcDbEntity
  8
M0
 62
   114
100
AcDbLine
 10
509.042111
 20
703.61562
 11
509.042111
 21
703.11562
  0
ARC
  5
7A2
100
AcDbEntity
  8
M0
 62
   114
100
AcDbCircle
 10
508.542355
 20
703.61562
 40
0.5
100
AcDbArc
 50
-90.0
 51
0.0
  0
LINE
  5
7A3
100
AcDbEntity
  8
M0
 62
   114
100
AcDbLine
 10
468.042355
 20
715.11562
 11
468.042355
 21
730.61562
  0
LINE
  5
7A4
100
AcDbEntity
  8
M0
 62
   114
100
AcDbLine
 10
474.542355
 20
726.86562
 11
474.542355
 21
730.61562
  0
LINE
  5
7A5
100
AcDbEntity
  8
M0
 62
   114
100
AcDbLine
 10
492.042355
 20
713.11562
 11
492.042355
 21
715.61562
  0
LINE
  5
7A6
100
AcDbEntity
  8
M0
 62
   114
100
AcDbLine
 10
496.042355
 20
705.11562
 11
496.042355
 21
709.11562
  0
ARC
  5
7A7
100
AcDbEntity
  8
M0
 62
   114
100
AcDbCircle
 10
498.042355
 20
705.11562
 40
2.0
100
AcDbArc
 50
179.999563
 51
270.0
  0
LINE
  5
7A8
100
AcDbEntity
  8
M0
 62
   114
100
AcDbLine
 10
488.042355
 20
713.11562
 11
488.042355
 21
715.61562
  0
LINE
  5
7A9
100
AcDbEntity
  8
M0
 62
   114
100
AcDbLine
 10
470.042355
 20
713.11562
 11
488.042355
 21
713.11562
  0
ARC
  5
7AA
100
AcDbEntity
  8
M0
 62
   114
100
AcDbCircle
 10
492.042355
 20
709.11562
 40
4.0
100
AcDbArc
 50
0.0
 51
89.999781
  0
LINE
  5
7AB
100
AcDbEntity
  8
M0
 62
   114
100
AcDbLine
 10
488.042355
 20
715.61562
 11
492.042355
 21
715.61562
  0
ARC
  5
7AC
100
AcDbEntity
  8
M0
 62
   114
100
AcDbCircle
 10
470.042355
 20
715.11562
 40
2.0
100
AcDbArc
 50
180.006776
 51
270.0
  0
LINE
  5
7AD
100
AcDbEntity
  8
M0
 62
   114
100
AcDbLine
 10
473.042355
 20
726.86562
 11
473.042355
 21
727.86562
  0
LINE
  5
7AE
100
AcDbEntity
  8
M0
 62
   114
100
AcDbLine
 10
488.042355
 20
714.11562
 11
492.042355
 21
714.11562
  0
ARC
  5
7AF
100
AcDbEntity
  8
M0
 62
   114
100
AcDbCircle
 10
533.042355
 20
683.61562
 40
1.0
100
AcDbArc
 50
179.999126
 51
270.0
  0
ARC
  5
7B0
100
AcDbEntity
  8
M0
 62
   114
100
AcDbCircle
 10
510.042111
 20
703.11562
 40
1.0
100
AcDbArc
 50
89.999126
 51
179.999126
  0
LINE
  5
7B1
100
AcDbEntity
  8
M0
 62
   114
100
AcDbLine
 10
533.042111
 20
794.115376
 11
545.042111
 21
794.115376
  0
LINE
  5
7B2
100
AcDbEntity
  8
M0
 62
   114
100
AcDbLine
 10
540.507443
 20
805.615376
 11
545.042111
 21
805.615376
  0
LINE
  5
7B3
100
AcDbEntity
  8
M0
 62
   114
100
AcDbLine
 10
532.276974
 20
796.394184
 11
539.742306
 21
805.259419
  0
ARC
  5
7B4
100
AcDbEntity
  8
M0
 62
   114
100
AcDbCircle
 10
533.042111
 20
793.115376
 40
1.0
100
AcDbArc
 50
89.999126
 51
180.0
  0
ARC
  5
7B5
100
AcDbEntity
  8
M0
 62
   114
100
AcDbCircle
 10
540.507443
 20
804.615376
 40
1.0
100
AcDbArc
 50
89.999126
 51
139.919507
  0
ARC
  5
7B6
100
AcDbEntity
  8
M0
 62
   114
100
AcDbCircle
 10
533.042111
 20
795.750141
 40
1.0
100
AcDbArc
 50
139.919507
 51
180.0
  0
LINE
  5
7B7
100
AcDbEntity
  8
M0
 62
   114
100
AcDbLine
 10
515.041867
 20
786.115376
 11
531.042111
 21
786.115376
  0
LINE
  5
7B8
100
AcDbEntity
  8
M0
 62
   114
100
AcDbLine
 10
515.042111
 20
675.11562
 11
545.042355
 21
675.11562
  0
LINE
  5
7B9
100
AcDbEntity
  8
M0
 62
   114
100
AcDbLine
 10
445.14208
 20
788.616154
 11
483.04208
 21
788.616154
  0
LINE
  5
7BA
100
AcDbEntity
  8
M0
 62
   114
100
AcDbLine
 10
445.14208
 20
776.116154
 11
511.841885
 21
776.116154
  0
LINE
  5
7BB
100
AcDbEntity
  8
M0
 62
   114
100
AcDbLine
 10
445.14208
 20
685.116154
 11
511.841885
 21
685.116154
  0
LINE
  5
7BC
100
AcDbEntity
  8
M0
 62
   114
100
AcDbLine
 10
445.14208
 20
672.616154
 11
483.04208
 21
672.616154
  0
LINE
  5
7BD
100
AcDbEntity
  8
M0
 62
   114
100
AcDbLine
 10
443.14208
 20
786.616154
 11
443.14208
 21
674.616154
  0
LINE
  5
7BE
100
AcDbEntity
  8
M0
 62
   114
100
AcDbLine
 10
504.04208
 20
790.616642
 11
504.04208
 21
776.116154
  0
LINE
  5
7BF
100
AcDbEntity
  8
M0
 62
   114
100
AcDbLine
 10
511.841885
 20
776.116154
 11
511.841641
 21
775.115422
  0
ARC
  5
7C0
100
AcDbEntity
  8
M0
 62
   114
100
AcDbCircle
 10
445.14208
 20
786.616154
 40
2.0
100
AcDbArc
 50
89.999563
 51
180.0
  0
ARC
  5
7C1
100
AcDbEntity
  8
M0
 62
   114
100
AcDbCircle
 10
445.14208
 20
674.616154
 40
2.0
100
AcDbArc
 50
179.999563
 51
270.0
  0
ARC
  5
7C2
100
AcDbEntity
  8
M0
 62
   114
100
AcDbCircle
 10
445.14208
 20
774.116154
 40
2.0
100
AcDbArc
 50
89.999563
 51
180.0
  0
ARC
  5
7C3
100
AcDbEntity
  8
M0
 62
   114
100
AcDbCircle
 10
445.14208
 20
687.116154
 40
2.0
100
AcDbArc
 50
179.999563
 51
270.0
  0
LINE
  5
7C4
100
AcDbEntity
  8
M0
 62
   114
100
AcDbLine
 10
504.04208
 20
685.116154
 11
504.04208
 21
670.61562
  0
LINE
  5
7C5
100
AcDbEntity
  8
M0
  6
DASHDOT
 62
   114
100
AcDbLine
 10
432.670919
 20
730.616154
 11
623.023556
 21
730.616154
  0
LINE
  5
7C6
100
AcDbEntity
  8
M0
 62
   114
100
AcDbLine
 10
495.54208
 20
756.616154
 11
496.105313
 21
756.616154
  0
LINE
  5
7C7
100
AcDbEntity
  8
M0
 62
   114
100
AcDbLine
 10
495.54208
 20
704.616154
 11
496.105313
 21
704.616154
  0
LINE
  5
7C8
100
AcDbEntity
  8
M0
 62
   114
100
AcDbLine
 10
494.54208
 20
755.616154
 11
494.54208
 21
752.216007
  0
LINE
  5
7C9
100
AcDbEntity
  8
M0
 62
   114
100
AcDbLine
 10
467.54208
 20
747.216007
 11
468.37167
 21
747.216007
  0
LINE
  5
7CA
100
AcDbEntity
  8
M0
 62
   114
100
AcDbLine
 10
467.54208
 20
714.016056
 11
468.371426
 21
714.016056
  0
LINE
  5
7CB
100
AcDbEntity
  8
M0
 62
   114
100
AcDbLine
 10
465.54208
 20
745.216007
 11
465.54208
 21
716.016056
  0
ARC
  5
7CC
100
AcDbEntity
  8
M0
 62
   114
100
AcDbCircle
 10
467.54208
 20
745.216007
 40
2.0
100
AcDbArc
 50
89.999563
 51
179.999973
  0
ARC
  5
7CD
100
AcDbEntity
  8
M0
 62
   114
100
AcDbCircle
 10
467.54208
 20
716.016056
 40
2.0
100
AcDbArc
 50
179.999945
 51
270.0
  0
LINE
  5
7CE
100
AcDbEntity
  8
M0
 62
   114
100
AcDbLine
 10
494.54208
 20
709.016056
 11
494.54208
 21
705.616154
  0
ARC
  5
7CF
100
AcDbEntity
  8
M0
 62
   114
100
AcDbCircle
 10
489.54208
 20
709.016056
 40
5.0
100
AcDbArc
 50
0.0
 51
89.999825
  0
ARC
  5
7D0
100
AcDbEntity
  8
M0
 62
   114
100
AcDbCircle
 10
489.54208
 20
752.216007
 40
5.0
100
AcDbArc
 50
270.0
 51
360.0
  0
ARC
  5
7D1
100
AcDbEntity
  8
M0
 62
   114
100
AcDbCircle
 10
495.54208
 20
755.616154
 40
1.0
100
AcDbArc
 50
89.999126
 51
180.0
  0
ARC
  5
7D2
100
AcDbEntity
  8
M0
 62
   114
100
AcDbCircle
 10
495.54208
 20
705.616154
 40
1.0
100
AcDbArc
 50
179.999126
 51
270.0
  0
LINE
  5
7D3
100
AcDbEntity
  8
M0
 62
   114
100
AcDbLine
 10
511.841641
 20
686.115696
 11
511.841885
 21
685.116154
  0
LINE
  5
7D4
100
AcDbEntity
  8
M0
 62
   114
100
AcDbLine
 10
483.04208
 20
667.116154
 11
494.04086
 21
667.116154
  0
LINE
  5
7D5
100
AcDbEntity
  8
M0
 62
   114
100
AcDbLine
 10
483.04208
 20
794.116154
 11
504.04208
 21
794.116154
  0
LINE
  5
7D6
100
AcDbEntity
  8
M0
 62
   114
100
AcDbLine
 10
483.04208
 20
786.116154
 11
504.04208
 21
786.116154
  0
LINE
  5
7D7
100
AcDbEntity
  8
M0
 62
   114
100
AcDbLine
 10
483.04208
 20
675.116154
 11
504.04208
 21
675.116154
  0
LINE
  5
7D8
100
AcDbEntity
  8
M0
 62
   114
100
AcDbLine
 10
483.04208
 20
794.116154
 11
483.04208
 21
786.116154
  0
LINE
  5
7D9
100
AcDbEntity
  8
M0
 62
   114
100
AcDbLine
 10
483.04208
 20
675.116154
 11
483.04208
 21
667.116154
  0
LINE
  5
7DA
100
AcDbEntity
  8
M0
 62
   114
100
AcDbLine
 10
608.042355
 20
690.615666
 11
608.042355
 21
680.615666
  0
LINE
  5
7DB
100
AcDbEntity
  8
M0
 62
   114
100
AcDbLine
 10
607.542355
 20
680.615666
 11
608.042355
 21
680.615666
  0
LINE
  5
7DC
100
AcDbEntity
  8
M0
 62
   114
100
AcDbLine
 10
607.542355
 20
690.615666
 11
608.042355
 21
690.615666
  0
LINE
  5
7DD
100
AcDbEntity
  8
M0
 62
   114
100
AcDbLine
 10
593.042355
 20
655.615666
 11
607.541134
 21
655.615666
  0
LINE
  5
7DE
100
AcDbEntity
  8
M0
 62
   114
100
AcDbLine
 10
545.042355
 20
675.115666
 11
590.042355
 21
675.115666
  0
LINE
  5
7DF
100
AcDbEntity
  8
M0
 62
   114
100
AcDbLine
 10
545.042355
 20
682.615666
 11
589.042355
 21
682.615666
  0
LINE
  5
7E0
100
AcDbEntity
  8
M0
 62
   114
100
AcDbLine
 10
535.042355
 20
708.365666
 11
545.042355
 21
708.365666
  0
LINE
  5
7E1
100
AcDbEntity
  8
M0
 62
   114
100
AcDbLine
 10
534.042355
 20
723.615666
 11
548.042355
 21
723.615666
  0
LINE
  5
7E2
100
AcDbEntity
  8
M0
 62
   114
100
AcDbLine
 10
607.542355
 20
655.615666
 11
607.542355
 21
805.615422
  0
LINE
  5
7E3
100
AcDbEntity
  8
M0
 62
   114
100
AcDbLine
 10
545.042355
 20
675.115666
 11
545.042355
 21
723.615666
  0
LINE
  5
7E4
100
AcDbEntity
  8
M0
 62
   114
100
AcDbLine
 10
534.042355
 20
709.365666
 11
534.042355
 21
723.615666
  0
ARC
  5
7E5
100
AcDbEntity
  8
M0
 62
   114
100
AcDbCircle
 10
535.042355
 20
709.365666
 40
1.0
100
AcDbArc
 50
179.999126
 51
270.0
  0
LINE
  5
7E6
100
AcDbEntity
  8
M0
 62
   114
100
AcDbLine
 10
550.042355
 20
728.615666
 11
550.042355
 21
725.615666
  0
LINE
  5
7E7
100
AcDbEntity
  8
M0
 62
   114
100
AcDbLine
 10
549.042355
 20
731.615666
 11
549.042355
 21
729.615666
  0
LINE
  5
7E8
100
AcDbEntity
  8
M0
 62
   114
100
AcDbLine
 10
549.042355
 20
729.615666
 11
550.042355
 21
728.615666
  0
LINE
  5
7E9
100
AcDbEntity
  8
M0
 62
   114
100
AcDbLine
 10
545.041867
 20
805.615177
 11
607.541134
 21
805.615177
  0
LINE
  5
7EA
100
AcDbEntity
  8
M0
 62
   114
100
AcDbLine
 10
545.042355
 20
794.115177
 11
584.92297
 21
794.115177
  0
LINE
  5
7EB
100
AcDbEntity
  8
M0
 62
   114
100
AcDbLine
 10
545.042355
 20
787.615177
 11
589.042355
 21
787.615177
  0
LINE
  5
7EC
100
AcDbEntity
  8
M0
 62
   114
100
AcDbLine
 10
535.042355
 20
752.865467
 11
545.042355
 21
752.865467
  0
LINE
  5
7ED
100
AcDbEntity
  8
M0
 62
   114
100
AcDbLine
 10
534.042355
 20
737.615467
 11
548.042355
 21
737.615467
  0
LINE
  5
7EE
100
AcDbEntity
  8
M0
 62
   114
100
AcDbLine
 10
545.042355
 20
794.115422
 11
545.042355
 21
737.615467
  0
LINE
  5
7EF
100
AcDbEntity
  8
M0
 62
   114
100
AcDbLine
 10
534.042355
 20
751.865467
 11
534.042355
 21
737.615467
  0
ARC
  5
7F0
100
AcDbEntity
  8
M0
 62
   114
100
AcDbCircle
 10
535.042355
 20
751.865467
 40
1.0
100
AcDbArc
 50
89.999126
 51
180.0
  0
LINE
  5
7F1
100
AcDbEntity
  8
M0
 62
   114
100
AcDbLine
 10
550.042355
 20
732.615666
 11
550.042355
 21
735.615452
  0
LINE
  5
7F2
100
AcDbEntity
  8
M0
 62
   114
100
AcDbLine
 10
549.042355
 20
731.615666
 11
550.042355
 21
732.615666
  0
LINE
  5
7F3
100
AcDbEntity
  8
M0
 62
   114
100
AcDbLine
 10
549.042355
 20
794.115422
 11
549.042355
 21
800.115177
  0
LINE
  5
7F4
100
AcDbEntity
  8
M0
 62
   114
100
AcDbLine
 10
560.042355
 20
803.615177
 11
560.042355
 21
805.615422
  0
LINE
  5
7F5
100
AcDbEntity
  8
M0
 62
   114
100
AcDbLine
 10
551.542355
 20
803.615177
 11
560.042355
 21
803.615177
  0
LINE
  5
7F6
100
AcDbEntity
  8
M0
 62
   114
100
AcDbLine
 10
548.042355
 20
804.115177
 11
560.042355
 21
804.115177
  0
LINE
  5
7F7
100
AcDbEntity
  8
M0
 62
   114
100
AcDbLine
 10
549.542355
 20
794.115422
 11
549.542355
 21
801.615177
  0
ARC
  5
7F8
100
AcDbEntity
  8
M0
 62
   114
100
AcDbCircle
 10
551.542355
 20
801.615177
 40
2.0
100
AcDbArc
 50
89.999563
 51
180.0
  0
LINE
  5
7F9
100
AcDbEntity
  8
M0
 62
   114
100
AcDbLine
 10
548.042355
 20
800.115177
 11
549.042355
 21
800.115177
  0
LINE
  5
7FA
100
AcDbEntity
  8
M0
 62
   114
100
AcDbLine
 10
547.042355
 20
803.115177
 11
547.042355
 21
801.115177
  0
ARC
  5
7FB
100
AcDbEntity
  8
M0
 62
   114
100
AcDbCircle
 10
548.042355
 20
803.115177
 40
1.0
100
AcDbArc
 50
89.999126
 51
180.0
  0
ARC
  5
7FC
100
AcDbEntity
  8
M0
 62
   114
100
AcDbCircle
 10
548.042355
 20
801.115177
 40
1.0
100
AcDbArc
 50
180.0
 51
270.0
  0
LINE
  5
7FD
100
AcDbEntity
  8
M0
 62
   114
100
AcDbLine
 10
607.542355
 20
802.615177
 11
608.042355
 21
802.615177
  0
LINE
  5
7FE
100
AcDbEntity
  8
M0
 62
   114
100
AcDbLine
 10
607.542355
 20
788.615177
 11
608.042355
 21
788.615177
  0
LINE
  5
7FF
100
AcDbEntity
  8
M0
 62
   114
100
AcDbLine
 10
608.042111
 20
672.615971
 11
608.042111
 21
658.616017
  0
LINE
  5
800
100
AcDbEntity
  8
M0
 62
   114
100
AcDbLine
 10
607.542111
 20
658.616017
 11
608.042111
 21
658.616017
  0
LINE
  5
801
100
AcDbEntity
  8
M0
 62
   114
100
AcDbLine
 10
607.542111
 20
672.615971
 11
608.042111
 21
672.615971
  0
ARC
  5
802
100
AcDbEntity
  8
M0
 62
   114
100
AcDbCircle
 10
548.042355
 20
735.615467
 40
2.0
100
AcDbArc
 50
0.0
 51
89.999563
  0
ARC
  5
803
100
AcDbEntity
  8
M0
 62
   114
100
AcDbCircle
 10
548.042355
 20
725.615666
 40
2.0
100
AcDbArc
 50
270.0
 51
360.0
  0
LINE
  5
804
100
AcDbEntity
  8
M0
 62
   114
100
AcDbLine
 10
591.042355
 20
657.615666
 11
591.042355
 21
680.615666
  0
ARC
  5
805
100
AcDbEntity
  8
M0
 62
   114
100
AcDbCircle
 10
589.042355
 20
680.615666
 40
2.0
100
AcDbArc
 50
0.0
 51
89.999563
  0
ARC
  5
806
100
AcDbEntity
  8
M0
 62
   114
100
AcDbCircle
 10
593.042355
 20
657.615666
 40
2.0
100
AcDbArc
 50
179.999563
 51
270.0
  0
ARC
  5
807
100
AcDbEntity
  8
M0
 62
   114
100
AcDbCircle
 10
590.042355
 20
674.115666
 40
1.0
100
AcDbArc
 50
0.0
 51
89.999126
  0
LINE
  5
808
100
AcDbEntity
  8
M0
 62
   114
100
AcDbLine
 10
591.042355
 20
803.614933
 11
591.042355
 21
789.615177
  0
ARC
  5
809
100
AcDbEntity
  8
M0
 62
   114
100
AcDbCircle
 10
593.042355
 20
803.614933
 40
2.0
100
AcDbArc
 50
90.0
 51
180.0
  0
ARC
  5
80A
100
AcDbEntity
  8
M0
 62
   114
100
AcDbCircle
 10
589.042355
 20
789.615177
 40
2.0
100
AcDbArc
 50
270.0
 51
360.0
  0
LINE
  5
80B
100
AcDbEntity
  8
M0
 62
   114
100
AcDbLine
 10
515.041867
 20
790.614643
 11
515.041867
 21
805.614643
  0
LINE
  5
80C
100
AcDbEntity
  8
M0
 62
   114
100
AcDbLine
 10
494.041867
 20
794.114643
 11
511.84216
 21
794.114643
  0
LINE
  5
80D
100
AcDbEntity
  8
M0
  6
DASHDOT
 62
   114
100
AcDbLine
 10
525.041867
 20
798.114643
 11
485.041867
 21
798.114643
  0
LINE
  5
80E
100
AcDbEntity
  8
M0
 62
   114
100
AcDbLine
 10
494.041867
 20
794.614643
 11
511.84216
 21
794.614643
  0
LINE
  5
80F
100
AcDbEntity
  8
M0
 62
   114
100
AcDbLine
 10
511.84216
 20
801.614155
 11
494.041867
 21
801.613911
  0
LINE
  5
810
100
AcDbEntity
  8
M0
 62
   114
100
AcDbLine
 10
511.84216
 20
802.114155
 11
494.041867
 21
802.113911
  0
LINE
  5
811
100
AcDbEntity
  8
M0
 62
   114
100
AcDbLine
 10
515.042111
 20
785.114628
 11
515.042111
 21
806.114643
  0
LINE
  5
812
100
AcDbEntity
  8
M0
 62
   114
100
AcDbLine
 10
515.042111
 20
788.114643
 11
511.84216
 21
788.114643
  0
LINE
  5
813
100
AcDbEntity
  8
M0
 62
   114
100
AcDbLine
 10
515.042111
 20
776.114643
 11
511.84216
 21
776.114643
  0
LINE
  5
814
100
AcDbEntity
  8
M0
 62
   114
100
AcDbLine
 10
515.042111
 20
806.114643
 11
511.84216
 21
806.114643
  0
LINE
  5
815
100
AcDbEntity
  8
M0
 62
   114
100
AcDbLine
 10
511.84216
 20
806.114643
 11
511.84216
 21
776.114628
  0
LINE
  5
816
100
AcDbEntity
  8
M0
 62
   114
100
AcDbLine
 10
518.849484
 20
805.614155
 11
515.041867
 21
805.613911
  0
LINE
  5
817
100
AcDbEntity
  8
M0
 62
   114
100
AcDbLine
 10
515.041867
 20
790.614414
 11
518.848996
 21
790.614399
  0
LINE
  5
818
100
AcDbEntity
  8
M0
 62
   114
100
AcDbLine
 10
519.541867
 20
791.814411
 11
519.541867
 21
804.414204
  0
LINE
  5
819
100
AcDbEntity
  8
M0
 62
   114
100
AcDbLine
 10
518.84924
 20
794.354389
 11
515.041867
 21
794.354374
  0
LINE
  5
81A
100
AcDbEntity
  8
M0
 62
   114
100
AcDbLine
 10
518.849484
 20
801.874165
 11
515.041867
 21
801.873921
  0
LINE
  5
81B
100
AcDbEntity
  8
M0
 62
   114
100
AcDbLine
 10
519.542111
 20
791.814411
 11
518.84924
 21
790.614414
  0
LINE
  5
81C
100
AcDbEntity
  8
M0
 62
   114
100
AcDbLine
 10
519.542111
 20
804.414204
 11
518.84924
 21
805.614399
  0
ARC
  5
81D
100
AcDbEntity
  8
M0
 62
   114
100
AcDbCircle
 10
508.986447
 20
798.114399
 40
10.555579
100
AcDbArc
 50
339.132255
 51
380.867299
  0
ARC
  5
81E
100
AcDbEntity
  8
M0
 62
   114
100
AcDbCircle
 10
514.53674
 20
804.414204
 40
5.005172
100
AcDbArc
 50
329.507187
 51
360.0
  0
ARC
  5
81F
100
AcDbEntity
  8
M0
 62
   114
100
AcDbCircle
 10
514.53674
 20
791.814411
 40
5.005145
100
AcDbArc
 50
0.0
 51
30.494098
  0
LINE
  5
820
100
AcDbEntity
  8
M0
 62
   114
100
AcDbLine
 10
494.041867
 20
802.114643
 11
494.041867
 21
794.114643
  0
LINE
  5
821
100
AcDbEntity
  8
M0
 62
   114
100
AcDbLine
 10
515.041622
 20
670.61562
 11
515.041592
 21
655.61562
  0
LINE
  5
822
100
AcDbEntity
  8
M0
 62
   114
100
AcDbLine
 10
494.041378
 20
667.11565
 11
501.742031
 21
667.11565
  0
LINE
  5
823
100
AcDbEntity
  8
M0
  6
DASHDOT
 62
   114
100
AcDbLine
 10
525.041592
 20
663.115605
 11
485.041622
 21
663.115666
  0
LINE
  5
824
100
AcDbEntity
  8
M0
 62
   114
100
AcDbLine
 10
494.041378
 20
666.61565
 11
501.742031
 21
666.61565
  0
LINE
  5
825
100
AcDbEntity
  8
M0
 62
   114
100
AcDbLine
 10
501.742031
 20
659.616093
 11
494.041378
 21
659.616093
  0
LINE
  5
826
100
AcDbEntity
  8
M0
 62
   114
100
AcDbLine
 10
501.742031
 20
659.116093
 11
494.041378
 21
659.116093
  0
LINE
  5
827
100
AcDbEntity
  8
M0
 62
   114
100
AcDbLine
 10
515.041867
 20
676.115635
 11
515.041836
 21
655.11562
  0
LINE
  5
828
100
AcDbEntity
  8
M0
 62
   114
100
AcDbLine
 10
515.041867
 20
673.11562
 11
511.841915
 21
673.11562
  0
LINE
  5
829
100
AcDbEntity
  8
M0
 62
   114
100
AcDbLine
 10
515.041867
 20
685.115605
 11
511.841915
 21
685.115605
  0
LINE
  5
82A
100
AcDbEntity
  8
M0
 62
   114
100
AcDbLine
 10
515.041836
 20
655.11562
 11
511.841885
 21
655.11562
  0
LINE
  5
82B
100
AcDbEntity
  8
M0
 62
   114
100
AcDbLine
 10
511.841885
 20
655.11562
 11
511.841915
 21
685.11562
  0
LINE
  5
82C
100
AcDbEntity
  8
M0
 62
   114
100
AcDbLine
 10
518.849209
 20
655.616108
 11
515.041592
 21
655.616352
  0
LINE
  5
82D
100
AcDbEntity
  8
M0
 62
   114
100
AcDbLine
 10
515.041622
 20
670.615849
 11
518.848751
 21
670.615864
  0
LINE
  5
82E
100
AcDbEntity
  8
M0
 62
   114
100
AcDbLine
 10
519.541622
 20
669.415852
 11
519.541592
 21
656.816059
  0
LINE
  5
82F
100
AcDbEntity
  8
M0
 62
   114
100
AcDbLine
 10
518.848996
 20
666.875874
 11
515.041622
 21
666.875889
  0
LINE
  5
830
100
AcDbEntity
  8
M0
 62
   114
100
AcDbLine
 10
518.849209
 20
659.356098
 11
515.041592
 21
659.356343
  0
LINE
  5
831
100
AcDbEntity
  8
M0
 62
   114
100
AcDbLine
 10
519.541867
 20
669.415852
 11
518.848996
 21
670.615849
  0
LINE
  5
832
100
AcDbEntity
  8
M0
 62
   114
100
AcDbLine
 10
519.541836
 20
656.816059
 11
518.848965
 21
655.615864
  0
ARC
  5
833
100
AcDbEntity
  8
M0
 62
   114
100
AcDbCircle
 10
508.986203
 20
663.115879
 40
10.555579
100
AcDbArc
 50
-20.867745
 51
20.867376
  0
ARC
  5
834
100
AcDbEntity
  8
M0
 62
   114
100
AcDbCircle
 10
514.536465
 20
656.816059
 40
5.005172
100
AcDbArc
 50
0.0
 51
30.492574
  0
ARC
  5
835
100
AcDbEntity
  8
M0
 62
   114
100
AcDbCircle
 10
514.536496
 20
669.415852
 40
5.005145
100
AcDbArc
 50
-30.494638
 51
0.0
  0
LINE
  5
836
100
AcDbEntity
  8
M0
 62
   114
100
AcDbLine
 10
494.041378
 20
659.11565
 11
494.041378
 21
667.11565
  0
LINE
  5
837
100
AcDbEntity
  8
M0
 62
   114
100
AcDbLine
 10
508.242062
 20
655.415638
 11
510.242062
 21
655.415638
  0
LINE
  5
838
100
AcDbEntity
  8
M0
 62
   114
100
AcDbLine
 10
510.242062
 20
655.415638
 11
510.242062
 21
670.815647
  0
LINE
  5
839
100
AcDbEntity
  8
M0
 62
   114
100
AcDbLine
 10
510.242062
 20
670.815647
 11
508.242062
 21
670.815647
  0
LINE
  5
83A
100
AcDbEntity
  8
M0
 62
   114
100
AcDbLine
 10
508.242062
 20
670.815647
 11
508.242062
 21
655.415638
  0
LINE
  5
83B
100
AcDbEntity
  8
M0
 62
   114
100
AcDbLine
 10
510.242062
 20
663.61565
 11
508.242062
 21
664.151539
  0
LINE
  5
83C
100
AcDbEntity
  8
M0
 62
   114
100
AcDbLine
 10
508.242062
 20
662.61565
 11
510.242062
 21
662.079746
  0
LINE
  5
83D
100
AcDbEntity
  8
M0
 62
   114
100
AcDbLine
 10
510.241818
 20
654.115635
 11
511.841671
 21
654.115635
  0
LINE
  5
83E
100
AcDbEntity
  8
M0
 62
   114
100
AcDbLine
 10
511.841671
 20
654.115635
 11
511.841671
 21
672.115635
  0
LINE
  5
83F
100
AcDbEntity
  8
M0
 62
   114
100
AcDbLine
 10
511.841671
 20
672.115635
 11
510.241818
 21
672.115635
  0
LINE
  5
840
100
AcDbEntity
  8
M0
 62
   114
100
AcDbLine
 10
510.241818
 20
672.115635
 11
510.241818
 21
654.115635
  0
LINE
  5
841
100
AcDbEntity
  8
M0
 62
   114
100
AcDbLine
 10
502.463009
 20
655.61565
 11
508.241818
 21
655.61565
  0
LINE
  5
842
100
AcDbEntity
  8
M0
 62
   114
100
AcDbLine
 10
508.241818
 20
655.61565
 11
508.241818
 21
670.61565
  0
LINE
  5
843
100
AcDbEntity
  8
M0
 62
   114
100
AcDbLine
 10
508.241818
 20
670.61565
 11
502.463497
 21
670.615635
  0
LINE
  5
844
100
AcDbEntity
  8
M0
 62
   114
100
AcDbLine
 10
501.741818
 20
669.36565
 11
501.741818
 21
656.86565
  0
LINE
  5
845
100
AcDbEntity
  8
M0
 62
   114
100
AcDbLine
 10
502.461788
 20
666.875645
 11
508.241818
 21
666.875645
  0
LINE
  5
846
100
AcDbEntity
  8
M0
 62
   114
100
AcDbLine
 10
502.461788
 20
659.355641
 11
508.241818
 21
659.355641
  0
LINE
  5
847
100
AcDbEntity
  8
M0
 62
   114
100
AcDbLine
 10
501.741574
 20
669.36565
 11
502.463497
 21
670.615635
  0
LINE
  5
848
100
AcDbEntity
  8
M0
 62
   114
100
AcDbLine
 10
502.463253
 20
655.61565
 11
501.741574
 21
656.86565
  0
ARC
  5
849
100
AcDbEntity
  8
M0
 62
   114
100
AcDbCircle
 10
511.919796
 20
663.115635
 40
10.178164
100
AcDbArc
 50
158.320006
 51
201.679532
  0
ARC
  5
84A
100
AcDbEntity
  8
M0
 62
   114
100
AcDbCircle
 10
506.407589
 20
669.365635
 40
4.665769
100
AcDbArc
 50
179.999813
 51
212.25223
  0
ARC
  5
84B
100
AcDbEntity
  8
M0
 62
   114
100
AcDbCircle
 10
506.407589
 20
656.865635
 40
4.665769
100
AcDbArc
 50
147.745426
 51
179.999813
  0
LINE
  5
84C
100
AcDbEntity
  8
M0
 62
   114
100
AcDbLine
 10
508.242718
 20
805.816838
 11
510.242718
 21
805.816838
  0
LINE
  5
84D
100
AcDbEntity
  8
M0
 62
   114
100
AcDbLine
 10
510.242718
 20
805.816838
 11
510.242733
 21
790.416691
  0
LINE
  5
84E
100
AcDbEntity
  8
M0
 62
   114
100
AcDbLine
 10
510.242733
 20
790.416691
 11
508.242733
 21
790.416691
  0
LINE
  5
84F
100
AcDbEntity
  8
M0
 62
   114
100
AcDbLine
 10
508.242733
 20
790.416691
 11
508.242718
 21
805.816838
  0
LINE
  5
850
100
AcDbEntity
  8
M0
 62
   114
100
AcDbLine
 10
510.242733
 20
797.616642
 11
508.242733
 21
797.080754
  0
LINE
  5
851
100
AcDbEntity
  8
M0
 62
   114
100
AcDbLine
 10
508.242733
 20
798.616642
 11
510.242733
 21
799.152775
  0
LINE
  5
852
100
AcDbEntity
  8
M0
 62
   114
100
AcDbLine
 10
510.242474
 20
807.116886
 11
511.842327
 21
807.116902
  0
LINE
  5
853
100
AcDbEntity
  8
M0
 62
   114
100
AcDbLine
 10
511.842327
 20
807.116902
 11
511.842343
 21
789.116902
  0
LINE
  5
854
100
AcDbEntity
  8
M0
 62
   114
100
AcDbLine
 10
511.842343
 20
789.116902
 11
510.242489
 21
789.116886
  0
LINE
  5
855
100
AcDbEntity
  8
M0
 62
   114
100
AcDbLine
 10
510.242489
 20
789.116886
 11
510.242474
 21
807.116886
  0
LINE
  5
856
100
AcDbEntity
  8
M0
 62
   114
100
AcDbLine
 10
502.463665
 20
805.616642
 11
508.242474
 21
805.616642
  0
LINE
  5
857
100
AcDbEntity
  8
M0
 62
   114
100
AcDbLine
 10
508.242474
 20
805.616642
 11
508.242489
 21
790.616642
  0
LINE
  5
858
100
AcDbEntity
  8
M0
 62
   114
100
AcDbLine
 10
508.242489
 20
790.616642
 11
502.464169
 21
790.616886
  0
LINE
  5
859
100
AcDbEntity
  8
M0
 62
   114
100
AcDbLine
 10
501.742489
 20
791.866642
 11
501.742474
 21
804.366642
  0
LINE
  5
85A
100
AcDbEntity
  8
M0
 62
   114
100
AcDbLine
 10
502.46246
 20
794.356877
 11
508.242489
 21
794.356877
  0
LINE
  5
85B
100
AcDbEntity
  8
M0
 62
   114
100
AcDbLine
 10
502.462445
 20
801.876652
 11
508.242474
 21
801.876652
  0
LINE
  5
85C
100
AcDbEntity
  8
M0
 62
   114
100
AcDbLine
 10
501.742245
 20
791.866642
 11
502.464169
 21
790.616886
  0
LINE
  5
85D
100
AcDbEntity
  8
M0
 62
   114
100
AcDbLine
 10
502.463909
 20
805.616642
 11
501.74223
 21
804.366642
  0
ARC
  5
85E
100
AcDbEntity
  8
M0
 62
   114
100
AcDbCircle
 10
511.920468
 20
798.116902
 40
10.178164
100
AcDbArc
 50
158.320468
 51
201.678606
  0
ARC
  5
85F
100
AcDbEntity
  8
M0
 62
   114
100
AcDbCircle
 10
506.408261
 20
791.866886
 40
4.665769
100
AcDbArc
 50
147.746677
 51
180.0
  0
ARC
  5
860
100
AcDbEntity
  8
M0
 62
   114
100
AcDbCircle
 10
506.408245
 20
804.366886
 40
4.665769
100
AcDbArc
 50
180.0
 51
212.255091
  0
CIRCLE
  5
861
100
AcDbEntity
  8
M0
 62
     4
100
AcDbCircle
 10
94.020382
 20
507.925206
 40
6.0
  0
CIRCLE
  5
862
100
AcDbEntity
  8
M0
 62
     4
100
AcDbCircle
 10
354.020382
 20
507.925206
 40
6.0
  0
CIRCLE
  5
863
100
AcDbEntity
  8
M0
 62
     4
100
AcDbCircle
 10
224.020382
 20
327.92545
 40
6.0
  0
LINE
  5
864
100
AcDbEntity
  8
M0
  6
DIVIDE
 62
     4
100
AcDbLine
 10
84.020382
 20
317.92545
 11
364.020382
 21
317.92545
  0
LINE
  5
865
100
AcDbEntity
  8
M0
  6
DIVIDE
 62
     4
100
AcDbLine
 10
364.020382
 20
317.92545
 11
364.020382
 21
517.92545
  0
LINE
  5
866
100
AcDbEntity
  8
M0
  6
DIVIDE
 62
     4
100
AcDbLine
 10
364.020382
 20
517.92545
 11
84.020382
 21
517.92545
  0
LINE
  5
867
100
AcDbEntity
  8
M0
  6
DIVIDE
 62
     4
100
AcDbLine
 10
84.020382
 20
517.92545
 11
84.020382
 21
317.92545
  0
LINE
  5
868
100
AcDbEntity
  8
M0
  6
DASHDOT
 62
     4
100
AcDbLine
 10
224.020382
 20
295.703038
 11
224.020382
 21
540.147618
  0
CIRCLE
  5
869
100
AcDbEntity
  8
M0
 62
     4
100
AcDbCircle
 10
94.020382
 20
507.925206
 40
3.0
  0
LINE
  5
86A
100
AcDbEntity
  8
M0
  6
DASHDOT
 62
     4
100
AcDbLine
 10
68.798153
 20
507.925206
 11
119.242611
 21
507.925206
  0
LINE
  5
86B
100
AcDbEntity
  8
M0
  6
DASHDOT
 62
     4
100
AcDbLine
 10
94.020382
 20
482.702794
 11
94.020382
 21
533.147374
  0
CIRCLE
  5
86C
100
AcDbEntity
  8
M0
 62
     4
100
AcDbCircle
 10
354.020382
 20
507.925206
 40
3.0
  0
LINE
  5
86D
100
AcDbEntity
  8
M0
  6
DASHDOT
 62
     4
100
AcDbLine
 10
328.79797
 20
507.925206
 11
379.24255
 21
507.925206
  0
LINE
  5
86E
100
AcDbEntity
  8
M0
  6
DASHDOT
 62
     4
100
AcDbLine
 10
354.020382
 20
482.702794
 11
354.020382
 21
533.147374
  0
CIRCLE
  5
86F
100
AcDbEntity
  8
M0
 62
     4
100
AcDbCircle
 10
224.020382
 20
327.92545
 40
3.0
  0
LINE
  5
870
100
AcDbEntity
  8
M0
  6
DASHDOT
 62
     4
100
AcDbLine
 10
198.79797
 20
327.92545
 11
249.24255
 21
327.92545
  0
LINE
  5
871
100
AcDbEntity
  8
M1
 62
     2
100
AcDbLine
 10
33.333332
 20
33.333332
 11
33.333332
 21
949.999962
  0
LINE
  5
872
100
AcDbEntity
  8
M1
 62
     2
100
AcDbLine
 10
33.333332
 20
949.999962
 11
666.66664
 21
949.999962
  0
LINE
  5
873
100
AcDbEntity
  8
M1
 62
     2
100
AcDbLine
 10
666.66664
 20
949.999962
 11
666.66664
 21
33.333332
  0
LINE
  5
874
100
AcDbEntity
  8
M1
 62
     2
100
AcDbLine
 10
666.66664
 20
33.333332
 11
33.333332
 21
33.333332
  0
LINE
  5
875
100
AcDbEntity
  8
M1
 62
     2
100
AcDbLine
 10
666.66664
 20
66.666664
 11
333.33332
 21
66.666664
  0
LINE
  5
876
100
AcDbEntity
  8
M1
 62
     2
100
AcDbLine
 10
666.66664
 20
99.999996
 11
333.33332
 21
99.999996
  0
LINE
  5
877
100
AcDbEntity
  8
M1
 62
     2
100
AcDbLine
 10
666.66664
 20
133.333328
 11
333.33332
 21
133.333328
  0
LINE
  5
878
100
AcDbEntity
  8
M1
 62
     2
100
AcDbLine
 10
333.33332
 20
33.333332
 11
333.33332
 21
133.333328
  0
TEXT
  5
879
100
AcDbEntity
  8
M1
 62
     2
100
AcDbText
 10
341.666653
 20
41.666665
 40
16.666666
  1
適　用；
 41
1.0
  7
STANDARD
100
AcDbText
  0
TEXT
  5
87A
100
AcDbEntity
  8
M1
 62
     2
100
AcDbText
 10
341.666653
 20
108.333329
 40
16.666666
  1
登録名：
 41
1.0
  7
STANDARD
100
AcDbText
  0
TEXT
  5
87B
100
AcDbEntity
  8
M1
 62
     2
100
AcDbText
 10
421.66665
 20
108.333329
 40
16.666666
  1
ＤＭＨ１５０ＣＲＲ００
 41
0.5
  7
STANDARD
100
AcDbText
  0
TEXT
  5
87C
100
AcDbEntity
  8
M1
 62
     2
100
AcDbText
 10
341.666653
 20
74.999997
 40
16.666666
  1
形　式；
 41
1.0
  7
STANDARD
100
AcDbText
  0
TEXT
  5
87D
100
AcDbEntity
  8
M1
 62
     2
100
AcDbText
 10
421.66665
 20
74.999997
 40
16.666666
  1
Ｈ１５０Ｃ－Ｒ，Ｈ１５０Ｃ－ＲＧ
 41
0.5
  7
STANDARD
100
AcDbText
  0
LINE
  5
87E
100
AcDbEntity
  8
DN0
100
AcDbLine
 10
201.128598
 20
246.849167
 11
261.995265
 21
246.849167
  0
TEXT
  5
87F
100
AcDbEntity
  8
DN0
100
AcDbText
 10
202.811931
 20
248.349167
 40
14.999999
  1
せん孔図
 41
0.833333
  7
STANDARD
100
AcDbText
  0
ENDSEC
  0
SECTION
  2
OBJECTS
  0
DICTIONARY
  5
C
100
AcDbDictionary
  3
ACAD_GROUP
350
D
  3
ACAD_MLINESTYLE
350
E
  0
DICTIONARY
  5
D
102
{ACAD_REACTORS
330
C
102
}
100
AcDbDictionary
  0
DICTIONARY
  5
E
102
{ACAD_REACTORS
330
C
102
}
100
AcDbDictionary
  3
STANDARD
350
13
  0
MLINESTYLE
  5
13
102
{ACAD_REACTORS
330
E
102
}
100
AcDbMlineStyle
  2
STANDARD
 70
     0
  3

 62
     0
 51
90.0
 52
90.0
 71
     2
 49
0.5
 62
   256
  6
BYLAYER
 49
-0.5
 62
   256
  6
BYLAYER
  0
ENDSEC
  0
EOF
