  0
SECTION
  2
HEADER
  9
$ACADVER
  1
AC1014
  9
$INSBASE
 10
0.000000
 20
0.000000
 30
0.0
  9
$VIEWCTR
 10
7.531722
 20
4.5
  9
$VIEWSIZE
 40
9.0
  9
$SNAPMODE
 70
     0
  9
$SNAPUNIT
 10
1.0
 20
1.0
  9
$SNAPBASE
 10
0.0
 20
0.0
  9
$SNAPANG
 50
0.0
  9
$SNAPSTYLE
 70
     0
  9
$SNAPISOPAIR
 70
     0
  9
$GRIDMODE
 70
     0
  9
$GRIDUNIT
 10
0.0
 20
0.0
  9
$ORTHOMODE
 70
     0
  9
$REGENMODE
 70
     1
  9
$FILLMODE
 70
     1
  9
$QTEXTMODE
 70
     0
  9
$DRAGMODE
 70
     2
  9
$LTSCALE
  40
     1.000000
  9
$OSMODE
 70
     0
  9
$ATTMODE
 70
     1
  9
$TEXTSIZE
 40
0.2
  9
$TRACEWID
 40
0.05
  9
$TEXTSTYLE
  7
STANDARD
  9
$CELTYPE
  6
BYLAYER
  9
$CECOLOR
 62
   256
  9
$DIMSCALE
 40
1.0
  9
$DIMASZ
 40
0.18
  9
$DIMEXO
 40
0.0625
  9
$DIMDLI
 40
0.38
  9
$DIMRND
 40
0.0
  9
$DIMDLE
 40
0.0
  9
$DIMEXE
 40
0.18
  9
$DIMTP
 40
0.0
  9
$DIMTM
 40
0.0
  9
$DIMTXT
 40
0.18
  9
$DIMCEN
 40
0.09
  9
$DIMTSZ
 40
0.0
  9
$DIMTOL
 70
     0
  9
$DIMLIM
 70
     0
  9
$DIMTIH
 70
     1
  9
$DIMTOH
 70
     1
  9
$DIMSE1
 70
     0
  9
$DIMSE2
 70
     0
  9
$DIMTAD
 70
     0
  9
$DIMZIN
 70
     0
  9
$DIMBLK
  1

  9
$LUNITS
 70
     2
  9
$LUPREC
 70
     4
  9
$AXISMODE
 70
     0
  9
$AXISUNIT
 10
0.0
 20
0.0
  9
$SKETCHINC
 40
0.1
  9
$FILLETRAD
 40
0.0
  9
$AUNITS
 70
     0
  9
$AUPREC
 70
     0
  9
$MENU
  1
ACAD
  9
$ELEVATION
 40
0.0
  9
$THICKNESS
 40
0.0
  9
$VIEWDIR
 10
0.0
 20
0.0
 30
1.0
  9
$LIMCHECK
 70
     0
  9
$BLIPMODE
 70
     1
  9
$CHAMFERA
 40
0.0
  9
$CHAMFERB
 40
0.0
  9
$FASTZOOM
 70
     1
  9
$SKPOLY
 70
     0
  9
$TDCREATE
 40
0000000.0000000000
  9
$TDUPDATE
 40
0000000.0000000000
  9
$TDINDWG
 40
0.0000000000
  9
$TDUSRTIMER
 40
0.0000000000
  9
$USRTIMER
 70
     1
  9
$ANGBASE
 50
0.0
  9
$ANGDIR
 70
     0
  9
$PDMODE
 70
     0
  9
$PDSIZE
 40
0.0
  9
$PLINEWID
 40
0.0
  9
$COORDS
 70
     0
  9
$USERI1
 70
     0
  9
$USERI2
 70
     0
  9
$USERI3
 70
     0
  9
$USERI4
 70
     0
  9
$USERI5
 70
     0
  9
$USERR1
 40
0.0
  9
$USERR2
 40
0.0
  9
$USERR3
 40
0.0
  9
$USERR4
 40
0.0
  9
$USERR5
 40
0.0
  9
$CLAYER
  8
M0
  9
$EXTMIN
 10
28.571429
 20
28.571429
  9
$EXTMAX
 10
571.428581
 20
814.285728
  9
$LIMMIN
 10
0.0
 20
0.0
  9
$LIMMAX
 10
210.0
 20
297.0
  9
$HANDSEED
  5
39A
  0
ENDSEC
  0
SECTION
  2
CLASSES
  0
ENDSEC
  0
SECTION
  2
TABLES
  0
TABLE
  2
VPORT
  5
8
100
AcDbSymbolTable
 70
     2
  0
VPORT
  5
14
100
AcDbSymbolTableRecord
100
AcDbViewportTableRecord
  2
*ACTIVE
 70
     0
 10
0.0
 20
0.0
 11
1.0
 21
1.0
 12
484.0
 22
297.0
 13
0.0
 23
0.0
 14
1.0
 24
1.0
 15
0.0
 25
0.0
 16
0.0
 26
0.0
 36
1.0
 17
0.0
 27
0.0
 37
0.0
 40
594.0
 41
2.0
 42
50.0
 43
0.0
 44
0.0
 50
0.0
 51
0.0
 71
     0
 72
   100
 73
     1
 74
     1
 75
     0
 76
     0
 77
     0
 78
     0
  0
ENDTAB
  0
TABLE
  2
LTYPE
  5
5
100
AcDbSymbolTable
 70
     5
  0
LTYPE
  5
15
100
AcDbSymbolTableRecord
100
AcDbLinetypeTableRecord
  2
BYBLOCK
 70
     0
  3

 72
    65
 73
     0
 40
0.0
  0
LTYPE
  5
16
100
AcDbSymbolTableRecord
100
AcDbLinetypeTableRecord
  2
BYLAYER
 70
     0
  3

 72
    65
 73
     0
 40
0.0
  0
LTYPE
  5
17
100
AcDbSymbolTableRecord
100
AcDbLinetypeTableRecord
  2
CONTINUOUS
 70
    64
  3
Solid line
 72
    65
 73
     0
 40
0.0
  0
LTYPE
  5
18
100
AcDbSymbolTableRecord
100
AcDbLinetypeTableRecord
  2
DASHED
 70
    64
  3
__ __ __ __ __ __ __ __ __ __ __ __ __ __ __ __
 72
    65
 73
     2
 40
0.75
 49
0.5
 74
     0
 49
-0.25
 74
     0
  0
LTYPE
  5
19
100
AcDbSymbolTableRecord
100
AcDbLinetypeTableRecord
  2
DASHDOT
 70
    64
  3
__ . __ . __ . __ . __ . __ . __ . __ . __ . __
 72
    65
 73
     4
 40
1.0
 49
0.5
 74
     0
 49
-0.25
 74
     0
 49
0.0
 74
     0
 49
-0.25
 74
     0
  0
LTYPE
  5
1A
100
AcDbSymbolTableRecord
100
AcDbLinetypeTableRecord
  2
DIVIDE
 70
    64
  3
____ . . ____ . . ____ . . ____ . . ____ . . __
 72
    65
 73
     6
 40
1.25
 49
0.5
 74
     0
 49
-0.25
 74
     0
 49
0.0
 74
     0
 49
-0.25
 74
     0
 49
0.0
 74
     0
 49
-0.25
 74
     0
  0
LTYPE
  5
1B
100
AcDbSymbolTableRecord
100
AcDbLinetypeTableRecord
  2
DOT
 70
    64
  3
. . . . . . . . . . . . . . . . . . . . . . . .
 72
    65
 73
     2
 40
0.25
 49
0.0
 74
     0
 49
-0.25
 74
     0
  0
ENDTAB
  0
TABLE
  2
LAYER
  5
2
100
AcDbSymbolTable
 70
   102
  0
LAYER
  5
F
100
AcDbSymbolTableRecord
100
AcDbLayerTableRecord
  2
0
 70
     0
 62
     7
  6
CONTINUOUS
  0
LAYER
  5
1C
100
AcDbSymbolTableRecord
100
AcDbLayerTableRecord
  2
DEFPOINTS
 70
     0
 62
     7
  6
CONTINUOUS
  0
LAYER
  5
1D
100
AcDbSymbolTableRecord
100
AcDbLayerTableRecord
  2
M0
 70
     0
 62
     3
  6
CONTINUOUS
  0
LAYER
  5
1E
100
AcDbSymbolTableRecord
100
AcDbLayerTableRecord
  2
M1
 70
     0
 62
     3
  6
CONTINUOUS
  0
LAYER
  5
1F
100
AcDbSymbolTableRecord
100
AcDbLayerTableRecord
  2
DD0
 70
     0
 62
     4
  6
CONTINUOUS
  0
LAYER
  5
20
100
AcDbSymbolTableRecord
100
AcDbLayerTableRecord
  2
DN0
 70
     0
 62
     2
  6
CONTINUOUS
  0
ENDTAB
  0
TABLE
  2
STYLE
  5
3
100
AcDbSymbolTable
 70
     2
  0
STYLE
  5
10
100
AcDbSymbolTableRecord
100
AcDbTextStyleTableRecord
  2
STANDARD
 70
     0
 40
0.0
 41
1.0
 50
0.0
 71
     0
 42
0.2
  3
txt
  4
BIGFONT
  0
ENDTAB
  0
TABLE
  2
VIEW
  5
6
100
AcDbSymbolTable
 70
     0
  0
ENDTAB
  0
TABLE
  2
UCS
  5
7
100
AcDbSymbolTable
 70
     0
  0
ENDTAB
  0
TABLE
  2
APPID
  5
9
100
AcDbSymbolTable
 70
     1
  0
APPID
  5
11
100
AcDbSymbolTableRecord
100
AcDbRegAppTableRecord
  2
ACAD
 70
     0
  0
ENDTAB
  0
TABLE
  2
DIMSTYLE
  5
A
100
AcDbSymbolTable
 70
     2
  0
DIMSTYLE
105
27
100
AcDbSymbolTableRecord
100
AcDbDimStyleTableRecord
  2
STANDARD
 70
     0
  3

  4

  5

  6
_OPEN
  7
_OPEN
 40
1.0
 41
8.571429
 42
1.0
 43
8.0
 44
1.0
 45
0.0
 46
0.0
 47
0.0
 48
0.0
140
9.0
141
0.09
142
0.0
143
0.03937
144
1.0
145
0.0
146
1.0
147
0.6
 71
     0
 72
     0
 73
     1
 74
     1
 75
     0
 76
     0
 77
     3
 78
     8
170
     0
171
     2
172
     0
173
     1
174
     0
175
     0
176
     0
177
     0
178
     0
270
     2
271
     2
272
     4
273
     2
274
     2
340
10
275
     0
280
     0
281
     0
282
     0
283
     1
284
     0
285
     0
286
     0
287
     3
288
     0
  0
DIMSTYLE
105
28
100
AcDbSymbolTableRecord
100
AcDbDimStyleTableRecord
  2
LEADSTYL
 70
     0
  3

  4

  5

  6
_OPEN
  7
_OPEN
 40
1.0
 41
8.571429
 42
0.0625
 43
0.38
 44
0.18
 45
0.0
 46
0.0
 47
0.0
 48
0.0
140
9.0
141
0.09
142
0.0
143
25.4
144
1.0
145
0.0
146
1.0
147
0.6
 71
     0
 72
     0
 73
     1
 74
     1
 75
     0
 76
     0
 77
     0
 78
     0
170
     0
171
     2
172
     0
173
     1
174
     0
175
     0
176
     0
177
     0
178
     0
270
     2
271
     4
272
     4
273
     2
274
     2
340
10
275
     0
280
     0
281
     0
282
     0
283
     1
284
     0
285
     0
286
     0
287
     3
288
     0
  0
ENDTAB
  0
TABLE
  2
BLOCK_RECORD
  5
1
100
AcDbSymbolTable
 70
    17
  0
BLOCK_RECORD
  5
21
100
AcDbSymbolTableRecord
100
AcDbBlockTableRecord
  2
*MODEL_SPACE
  0
BLOCK_RECORD
  5
24
100
AcDbSymbolTableRecord
100
AcDbBlockTableRecord
  2
*PAPER_SPACE
  0
BLOCK_RECORD
  5
29
100
AcDbSymbolTableRecord
100
AcDbBlockTableRecord
  2
_NONE
  0
BLOCK_RECORD
  5
2D
100
AcDbSymbolTableRecord
100
AcDbBlockTableRecord
  2
_OPEN
  0
BLOCK_RECORD
  5
33
100
AcDbSymbolTableRecord
100
AcDbBlockTableRecord
  2
_CLOSED
  0
BLOCK_RECORD
  5
3A
100
AcDbSymbolTableRecord
100
AcDbBlockTableRecord
  2
_ORIGIN
  0
BLOCK_RECORD
  5
3F
100
AcDbSymbolTableRecord
100
AcDbBlockTableRecord
  2
_DOT
  0
BLOCK_RECORD
  5
47
100
AcDbSymbolTableRecord
100
AcDbBlockTableRecord
  2
_OBLIQUE
  0
BLOCK_RECORD
  5
4B
100
AcDbSymbolTableRecord
100
AcDbBlockTableRecord
  2
DIMS0
  0
BLOCK_RECORD
  5
57
100
AcDbSymbolTableRecord
100
AcDbBlockTableRecord
  2
DIMS1
  0
BLOCK_RECORD
  5
63
100
AcDbSymbolTableRecord
100
AcDbBlockTableRecord
  2
DIMS2
  0
BLOCK_RECORD
  5
6F
100
AcDbSymbolTableRecord
100
AcDbBlockTableRecord
  2
DIMS3
  0
BLOCK_RECORD
  5
7B
100
AcDbSymbolTableRecord
100
AcDbBlockTableRecord
  2
DIMS4
  0
BLOCK_RECORD
  5
87
100
AcDbSymbolTableRecord
100
AcDbBlockTableRecord
  2
DIMS5
  0
BLOCK_RECORD
  5
90
100
AcDbSymbolTableRecord
100
AcDbBlockTableRecord
  2
DIMS6
  0
BLOCK_RECORD
  5
9C
100
AcDbSymbolTableRecord
100
AcDbBlockTableRecord
  2
DIMS7
  0
BLOCK_RECORD
  5
A8
100
AcDbSymbolTableRecord
100
AcDbBlockTableRecord
  2
DIMS8
  0
BLOCK_RECORD
  5
B4
100
AcDbSymbolTableRecord
100
AcDbBlockTableRecord
  2
DIMS9
  0
BLOCK_RECORD
  5
BD
100
AcDbSymbolTableRecord
100
AcDbBlockTableRecord
  2
DIMS10
  0
ENDTAB
  0
ENDSEC
  0
SECTION
  2
BLOCKS
  0
BLOCK
  5
22
100
AcDbEntity
  8
0
100
AcDbBlockBegin
  2
*MODEL_SPACE
 70
     0
 10
0.0
 20
0.0
 30
0.0
  3
*MODEL_SPACE
  1

  0
ENDBLK
  5
23
100
AcDbEntity
  8
0
100
AcDbBlockEnd
  0
BLOCK
  5
25
100
AcDbEntity
 67
     1
  8
0
100
AcDbBlockBegin
  2
*PAPER_SPACE
 70
     0
 10
0.0
 20
0.0
 30
0.0
  3
*PAPER_SPACE
  1

  0
ENDBLK
  5
26
100
AcDbEntity
 67
     1
  8
0
100
AcDbBlockEnd
  0
BLOCK
  5
2A
100
AcDbEntity
  8
0
100
AcDbBlockBegin
  2
_NONE
 70
     0
 10
0.0
 20
0.0
  0
CIRCLE
  5
2B
100
AcDbEntity
  8
0
 62
     0
100
AcDbCircle
 10
0.0
 20
0.0
 40
0.25
  0
ENDBLK
  5
2C
100
AcDbEntity
  8
0
100
AcDbBlockEnd
  0
BLOCK
  5
2E
100
AcDbEntity
  8
0
100
AcDbBlockBegin
  2
_OPEN
 70
     0
 10
0.0
 20
0.0
  0
LINE
  5
2F
100
AcDbEntity
  8
0
 62
     0
100
AcDbLine
 10
-0.965926
 20
0.258819
 11
0.0
 21
0.0
  0
LINE
  5
30
100
AcDbEntity
  8
0
 62
     0
100
AcDbLine
 10
0.0
 20
0.0
 11
-0.965926
 21
-0.258819
  0
LINE
  5
31
100
AcDbEntity
  8
0
 62
     0
100
AcDbLine
 10
0.0
 20
0.0
 11
-1.0
 21
0.0
  0
ENDBLK
  5
32
100
AcDbEntity
  8
0
100
AcDbBlockEnd
  0
BLOCK
  5
34
100
AcDbEntity
  8
0
100
AcDbBlockBegin
  2
_CLOSED
 70
     0
 10
0.0
 20
0.0
  0
LINE
  5
35
100
AcDbEntity
  8
0
 62
     0
100
AcDbLine
 10
-0.965926
 20
0.258819
 11
0.0
 21
0.0
  0
LINE
  5
36
100
AcDbEntity
  8
0
 62
     0
100
AcDbLine
 10
0.0
 20
0.0
 11
-0.965926
 21
-0.258819
  0
LINE
  5
37
100
AcDbEntity
  8
0
 62
     0
100
AcDbLine
 10
-0.965926
 20
0.258819
 11
-0.965926
 21
-0.258819
  0
LINE
  5
38
100
AcDbEntity
  8
0
 62
     0
100
AcDbLine
 10
0.0
 20
0.0
 11
-1.0
 21
0.0
  0
ENDBLK
  5
39
100
AcDbEntity
  8
0
100
AcDbBlockEnd
  0
BLOCK
  5
3B
100
AcDbEntity
  8
0
100
AcDbBlockBegin
  2
_ORIGIN
 70
     0
 10
0.0
 20
0.0
  0
CIRCLE
  5
3C
100
AcDbEntity
  8
0
 62
     0
100
AcDbCircle
 10
0.0
 20
0.0
 40
0.5
  0
LINE
  5
3D
100
AcDbEntity
  8
0
 62
     0
100
AcDbLine
 10
0.0
 20
0.0
 11
-1.0
 21
0.0
  0
ENDBLK
  5
3E
100
AcDbEntity
  8
0
100
AcDbBlockEnd
  0
BLOCK
  5
40
100
AcDbEntity
  8
0
100
AcDbBlockBegin
  2
_DOT
 70
     0
 10
0.0
 20
0.0
  0
POLYLINE
  5
41
100
AcDbEntity
  8
0
 62
     0
100
AcDb2dPolyline
 66
     1
 70
     1
 40
0.5
 41
0.5
  0
VERTEX
  5
42
100
AcDbEntity
  8
0
 62
     0
100
AcDbVertex
100
AcDb2dVertex
 10
-0.25
 20
0.0
 42
1.0
  0
VERTEX
  5
43
100
AcDbEntity
  8
0
 62
     0
100
AcDbVertex
100
AcDb2dVertex
 10
0.25
 20
0.0
 42
1.0
  0
SEQEND
  5
44
100
AcDbEntity
  8
0
 62
     0
  0
LINE
  5
45
100
AcDbEntity
  8
0
 62
     0
100
AcDbLine
 10
-0.5
 20
0.0
 11
-1.0
 21
0.0
  0
ENDBLK
  5
46
100
AcDbEntity
  8
0
100
AcDbBlockEnd
  0
BLOCK
  5
48
100
AcDbEntity
  8
0
100
AcDbBlockBegin
  2
_OBLIQUE
 70
     0
 10
0.0
 20
0.0
  0
LINE
  5
49
100
AcDbEntity
  8
0
 62
     0
100
AcDbLine
 10
-0.353553
 20
-0.353553
 11
0.353553
 21
0.353553
  0
ENDBLK
  5
4A
100
AcDbEntity
  8
0
100
AcDbBlockEnd
  0
BLOCK
  5
4C
100
AcDbEntity
  8
DD0
100
AcDbBlockBegin
  2
DIMS0
 70
     0
 10
0.0
 20
0.0
  0
LINE
  5
4D
100
AcDbEntity
  8
DD0
100
AcDbLine
 10
250.423021
 20
706.674599
 11
250.423021
 21
755.139522
  0
LINE
  5
4E
100
AcDbEntity
  8
DD0
100
AcDbLine
 10
112.423032
 20
706.674599
 11
112.423032
 21
755.139522
  0
LINE
  5
4F
100
AcDbEntity
  8
DD0
100
AcDbLine
 10
242.143657
 20
750.06393
 11
250.423021
 21
752.282379
  0
LINE
  5
50
100
AcDbEntity
  8
DD0
100
AcDbLine
 10
250.423021
 20
752.282379
 11
242.143657
 21
754.500828
  0
LINE
  5
51
100
AcDbEntity
  8
DD0
100
AcDbLine
 10
120.702397
 20
754.500828
 11
112.423032
 21
752.282379
  0
LINE
  5
52
100
AcDbEntity
  8
DD0
100
AcDbLine
 10
112.423032
 20
752.282379
 11
120.702397
 21
750.06393
  0
LINE
  5
53
100
AcDbEntity
  8
DD0
100
AcDbLine
 10
250.423021
 20
752.282379
 11
112.423032
 21
752.282379
  0
TEXT
  5
54
100
AcDbEntity
  8
DD0
100
AcDbText
 10
168.658738
 20
753.996682
 40
9.0
  1
１３８
 41
0.833333
  7
STANDARD
100
AcDbText
  0
ENDBLK
  5
55
100
AcDbEntity
  8
DD0
100
AcDbBlockEnd
  0
BLOCK
  5
58
100
AcDbEntity
  8
DD0
100
AcDbBlockBegin
  2
DIMS1
 70
     0
 10
0.0
 20
0.0
  0
LINE
  5
59
100
AcDbEntity
  8
DD0
100
AcDbLine
 10
248.280164
 20
478.817452
 11
295.100975
 21
478.817452
  0
LINE
  5
5A
100
AcDbEntity
  8
DD0
100
AcDbLine
 10
248.280164
 20
708.817456
 11
295.100975
 21
708.817456
  0
LINE
  5
5B
100
AcDbEntity
  8
DD0
100
AcDbLine
 10
290.025383
 20
487.096816
 11
292.243832
 21
478.817452
  0
LINE
  5
5C
100
AcDbEntity
  8
DD0
100
AcDbLine
 10
292.243832
 20
478.817452
 11
294.462281
 21
487.096816
  0
LINE
  5
5D
100
AcDbEntity
  8
DD0
100
AcDbLine
 10
294.462281
 20
700.538092
 11
292.243832
 21
708.817456
  0
LINE
  5
5E
100
AcDbEntity
  8
DD0
100
AcDbLine
 10
292.243832
 20
708.817456
 11
290.025383
 21
700.538092
  0
LINE
  5
5F
100
AcDbEntity
  8
DD0
100
AcDbLine
 10
292.243832
 20
478.817452
 11
292.243832
 21
708.817456
  0
TEXT
  5
60
100
AcDbEntity
  8
DD0
100
AcDbText
 10
290.52955
 20
581.053154
 40
9.0
  1
２３０
 50
90.000003
 41
0.833333
  7
STANDARD
100
AcDbText
  0
ENDBLK
  5
61
100
AcDbEntity
  8
DD0
100
AcDbBlockEnd
  0
BLOCK
  5
64
100
AcDbEntity
  8
DD0
100
AcDbBlockBegin
  2
DIMS2
 70
     0
 10
0.0
 20
0.0
  0
LINE
  5
65
100
AcDbEntity
  8
DD0
100
AcDbLine
 10
206.280172
 20
445.817356
 11
295.100975
 21
445.817356
  0
LINE
  5
66
100
AcDbEntity
  8
DD0
100
AcDbLine
 10
248.280164
 20
478.817452
 11
295.100975
 21
478.817452
  0
LINE
  5
67
100
AcDbEntity
  8
DD0
100
AcDbLine
 10
290.025383
 20
454.09672
 11
292.243832
 21
445.817356
  0
LINE
  5
68
100
AcDbEntity
  8
DD0
100
AcDbLine
 10
292.243832
 20
445.817356
 11
294.462281
 21
454.09672
  0
LINE
  5
69
100
AcDbEntity
  8
DD0
100
AcDbLine
 10
294.462281
 20
470.538088
 11
292.243832
 21
478.817452
  0
LINE
  5
6A
100
AcDbEntity
  8
DD0
100
AcDbLine
 10
292.243832
 20
478.817452
 11
290.025383
 21
470.538088
  0
LINE
  5
6B
100
AcDbEntity
  8
DD0
100
AcDbLine
 10
292.243832
 20
445.817356
 11
292.243832
 21
478.817452
  0
TEXT
  5
6C
100
AcDbEntity
  8
DD0
100
AcDbText
 10
290.52955
 20
454.053161
 40
9.0
  1
３３
 50
90.000003
 41
0.833333
  7
STANDARD
100
AcDbText
  0
ENDBLK
  5
6D
100
AcDbEntity
  8
DD0
100
AcDbBlockEnd
  0
BLOCK
  5
70
100
AcDbEntity
  8
DD0
100
AcDbBlockBegin
  2
DIMS3
 70
     0
 10
0.0
 20
0.0
  0
LINE
  5
71
100
AcDbEntity
  8
DD0
100
AcDbLine
 10
521.265965
 20
711.674599
 11
521.265965
 21
755.139522
  0
LINE
  5
72
100
AcDbEntity
  8
DD0
100
AcDbLine
 10
523.565944
 20
711.674599
 11
523.565944
 21
755.139522
  0
LINE
  5
73
100
AcDbEntity
  8
DD0
100
AcDbLine
 10
512.986601
 20
750.06393
 11
521.265965
 21
752.282379
  0
LINE
  5
74
100
AcDbEntity
  8
DD0
100
AcDbLine
 10
521.265965
 20
752.282379
 11
512.986601
 21
754.500828
  0
LINE
  5
75
100
AcDbEntity
  8
DD0
100
AcDbLine
 10
531.845309
 20
754.500828
 11
523.565944
 21
752.282379
  0
LINE
  5
76
100
AcDbEntity
  8
DD0
100
AcDbLine
 10
523.565944
 20
752.282379
 11
531.845309
 21
750.06393
  0
LINE
  5
77
100
AcDbEntity
  8
DD0
100
AcDbLine
 10
511.837394
 20
752.282379
 11
562.851662
 21
752.282379
  0
TEXT
  5
78
100
AcDbEntity
  8
DD0
100
AcDbText
 10
533.730242
 20
753.996682
 40
9.0
  1
２．３
 41
0.833333
  7
STANDARD
100
AcDbText
  0
ENDBLK
  5
79
100
AcDbEntity
  8
DD0
100
AcDbBlockEnd
  0
BLOCK
  5
7C
100
AcDbEntity
  8
DD0
100
AcDbBlockBegin
  2
DIMS4
 70
     0
 10
0.0
 20
0.0
  0
LINE
  5
7D
100
AcDbEntity
  8
DD0
100
AcDbLine
 10
524.065953
 20
711.674599
 11
524.065953
 21
777.097617
  0
LINE
  5
7E
100
AcDbEntity
  8
DD0
100
AcDbLine
 10
333.66593
 20
669.674563
 11
333.66593
 21
777.097617
  0
LINE
  5
7F
100
AcDbEntity
  8
DD0
100
AcDbLine
 10
515.786589
 20
772.022025
 11
524.065953
 21
774.240474
  0
LINE
  5
80
100
AcDbEntity
  8
DD0
100
AcDbLine
 10
524.065953
 20
774.240474
 11
515.786589
 21
776.458923
  0
LINE
  5
81
100
AcDbEntity
  8
DD0
100
AcDbLine
 10
341.945294
 20
776.458923
 11
333.66593
 21
774.240474
  0
LINE
  5
82
100
AcDbEntity
  8
DD0
100
AcDbLine
 10
333.66593
 20
774.240474
 11
341.945294
 21
772.022025
  0
LINE
  5
83
100
AcDbEntity
  8
DD0
100
AcDbLine
 10
524.065953
 20
774.240474
 11
333.66593
 21
774.240474
  0
TEXT
  5
84
100
AcDbEntity
  8
DD0
100
AcDbText
 10
416.101631
 20
775.954777
 40
9.0
  1
１９１
 41
0.833333
  7
STANDARD
100
AcDbText
  0
ENDBLK
  5
85
100
AcDbEntity
  8
DD0
100
AcDbBlockEnd
  0
BLOCK
  5
88
100
AcDbEntity
  8
DD0
100
AcDbBlockBegin
  2
DIMS5
 70
     0
 10
0.0
 20
0.0
  0
TEXT
  5
89
100
AcDbEntity
  8
DD0
100
AcDbText
 10
83.974708
 20
441.68824
 40
9.0
  1
相間バリア
 41
0.833333
  7
STANDARD
100
AcDbText
  0
LINE
  5
8A
100
AcDbEntity
  8
DD0
100
AcDbLine
 10
154.576982
 20
457.158723
 11
159.423035
 21
464.228742
  0
LINE
  5
8B
100
AcDbEntity
  8
DD0
100
AcDbLine
 10
159.423035
 20
464.228742
 11
151.691221
 21
460.528953
  0
LINE
  5
8C
100
AcDbEntity
  8
DD0
100
AcDbLine
 10
159.423035
 20
464.228742
 11
131.096226
 21
439.973893
  0
LINE
  5
8D
100
AcDbEntity
  8
DD0
100
AcDbLine
 10
131.096215
 20
439.97385
 11
80.381983
 21
439.973937
  0
ENDBLK
  5
8E
100
AcDbEntity
  8
DD0
100
AcDbBlockEnd
  0
BLOCK
  5
91
100
AcDbEntity
  8
DD0
100
AcDbBlockBegin
  2
DIMS6
 70
     0
 10
0.0
 20
0.0
  0
LINE
  5
92
100
AcDbEntity
  8
DD0
100
AcDbLine
 10
253.280143
 20
386.53661
 11
295.100975
 21
386.53661
  0
LINE
  5
93
100
AcDbEntity
  8
DD0
100
AcDbLine
 10
228.295161
 20
376.53661
 11
295.100975
 21
376.53661
  0
LINE
  5
94
100
AcDbEntity
  8
DD0
100
AcDbLine
 10
290.025383
 20
394.815975
 11
292.243832
 21
386.53661
  0
LINE
  5
95
100
AcDbEntity
  8
DD0
100
AcDbLine
 10
292.243832
 20
386.53661
 11
294.462281
 21
394.815975
  0
LINE
  5
96
100
AcDbEntity
  8
DD0
100
AcDbLine
 10
294.462281
 20
368.257246
 11
292.243832
 21
376.53661
  0
LINE
  5
97
100
AcDbEntity
  8
DD0
100
AcDbLine
 10
292.243832
 20
376.53661
 11
290.025383
 21
368.257246
  0
LINE
  5
98
100
AcDbEntity
  8
DD0
100
AcDbLine
 10
292.243832
 20
416.822326
 11
292.243832
 21
367.108039
  0
TEXT
  5
99
100
AcDbEntity
  8
DD0
100
AcDbText
 10
290.52955
 20
396.700908
 40
9.0
  1
１０
 50
90.000003
 41
0.833333
  7
STANDARD
100
AcDbText
  0
ENDBLK
  5
9A
100
AcDbEntity
  8
DD0
100
AcDbBlockEnd
  0
BLOCK
  5
9D
100
AcDbEntity
  8
DD0
100
AcDbBlockBegin
  2
DIMS7
 70
     0
 10
0.0
 20
0.0
  0
LINE
  5
9E
100
AcDbEntity
  8
DD0
 60
     1
100
AcDbLine
 10
228.295161
 20
376.53661
 11
295.100975
 21
376.53661
  0
LINE
  5
9F
100
AcDbEntity
  8
DD0
100
AcDbLine
 10
228.295161
 20
166.536606
 11
295.100975
 21
166.536606
  0
LINE
  5
A0
100
AcDbEntity
  8
DD0
100
AcDbLine
 10
294.462281
 20
368.257246
 11
292.243832
 21
376.53661
  0
LINE
  5
A1
100
AcDbEntity
  8
DD0
100
AcDbLine
 10
292.243832
 20
376.53661
 11
290.025383
 21
368.257246
  0
LINE
  5
A2
100
AcDbEntity
  8
DD0
100
AcDbLine
 10
290.025383
 20
174.815971
 11
292.243832
 21
166.536606
  0
LINE
  5
A3
100
AcDbEntity
  8
DD0
100
AcDbLine
 10
292.243832
 20
166.536606
 11
294.462281
 21
174.815971
  0
LINE
  5
A4
100
AcDbEntity
  8
DD0
100
AcDbLine
 10
292.243832
 20
376.53661
 11
292.243832
 21
166.536606
  0
TEXT
  5
A5
100
AcDbEntity
  8
DD0
100
AcDbText
 10
290.52955
 20
258.77233
 40
9.0
  1
２１０
 50
90.000003
 41
0.833333
  7
STANDARD
100
AcDbText
  0
ENDBLK
  5
A6
100
AcDbEntity
  8
DD0
100
AcDbBlockEnd
  0
BLOCK
  5
A9
100
AcDbEntity
  8
DD0
100
AcDbBlockBegin
  2
DIMS8
 70
     0
 10
0.0
 20
0.0
  0
LINE
  5
AA
100
AcDbEntity
  8
DD0
100
AcDbLine
 10
156.423005
 20
398.408777
 11
156.423005
 21
417.053535
  0
LINE
  5
AB
100
AcDbEntity
  8
DD0
100
AcDbLine
 10
206.422995
 20
398.408777
 11
206.422995
 21
417.053535
  0
LINE
  5
AC
100
AcDbEntity
  8
DD0
100
AcDbLine
 10
164.702369
 20
416.414841
 11
156.423005
 21
414.196392
  0
LINE
  5
AD
100
AcDbEntity
  8
DD0
100
AcDbLine
 10
156.423005
 20
414.196392
 11
164.702369
 21
411.977943
  0
LINE
  5
AE
100
AcDbEntity
  8
DD0
100
AcDbLine
 10
198.14363
 20
411.977943
 11
206.422995
 21
414.196392
  0
LINE
  5
AF
100
AcDbEntity
  8
DD0
100
AcDbLine
 10
206.422995
 20
414.196392
 11
198.14363
 21
416.414841
  0
LINE
  5
B0
100
AcDbEntity
  8
DD0
100
AcDbLine
 10
156.423005
 20
414.196392
 11
206.422995
 21
414.196392
  0
TEXT
  5
B1
100
AcDbEntity
  8
DD0
100
AcDbText
 10
173.158707
 20
415.910695
 40
9.0
  1
５０
 41
0.833333
  7
STANDARD
100
AcDbText
  0
ENDBLK
  5
B2
100
AcDbEntity
  8
DD0
100
AcDbBlockEnd
  0
BLOCK
  5
B5
100
AcDbEntity
  8
DD0
100
AcDbBlockBegin
  2
DIMS9
 70
     0
 10
0.0
 20
0.0
  0
TEXT
  5
B6
100
AcDbEntity
  8
DD0
100
AcDbText
 10
59.016446
 20
132.006707
 40
9.0
  1
４－Ｍ８ねじ穴
 41
0.833333
  7
STANDARD
100
AcDbText
  0
LINE
  5
B7
100
AcDbEntity
  8
DD0
100
AcDbLine
 10
150.29064
 20
155.576856
 11
154.244594
 21
163.181831
  0
LINE
  5
B8
100
AcDbEntity
  8
DD0
100
AcDbLine
 10
154.244594
 20
163.181831
 11
147.017882
 21
158.572707
  0
LINE
  5
B9
100
AcDbEntity
  8
DD0
100
AcDbLine
 10
154.244594
 20
163.181831
 11
124.137924
 21
130.292393
  0
LINE
  5
BA
100
AcDbEntity
  8
DD0
100
AcDbLine
 10
124.137935
 20
130.292382
 11
55.423678
 21
130.292404
  0
ENDBLK
  5
BB
100
AcDbEntity
  8
DD0
100
AcDbBlockEnd
  0
BLOCK
  5
BE
100
AcDbEntity
  8
DD0
100
AcDbBlockBegin
  2
DIMS10
 70
     0
 10
0.0
 20
0.0
  0
LINE
  5
BF
100
AcDbEntity
  8
DD0
100
AcDbLine
 10
100.42303
 20
624.174641
 11
100.42303
 21
777.097617
  0
LINE
  5
C0
100
AcDbEntity
  8
DD0
100
AcDbLine
 10
262.423013
 20
624.174641
 11
262.423013
 21
777.097617
  0
LINE
  5
C1
100
AcDbEntity
  8
DD0
100
AcDbLine
 10
108.702394
 20
776.458923
 11
100.42303
 21
774.240474
  0
LINE
  5
C2
100
AcDbEntity
  8
DD0
100
AcDbLine
 10
100.42303
 20
774.240474
 11
108.702394
 21
772.022025
  0
LINE
  5
C3
100
AcDbEntity
  8
DD0
100
AcDbLine
 10
254.143649
 20
772.022025
 11
262.423013
 21
774.240474
  0
LINE
  5
C4
100
AcDbEntity
  8
DD0
100
AcDbLine
 10
262.423013
 20
774.240474
 11
254.143649
 21
776.458923
  0
LINE
  5
C5
100
AcDbEntity
  8
DD0
100
AcDbLine
 10
100.42303
 20
774.240474
 11
262.423013
 21
774.240474
  0
TEXT
  5
C6
100
AcDbEntity
  8
DD0
100
AcDbText
 10
114.658733
 20
775.954777
 40
9.0
  1
補助接点４ａ４ｂ付の場合１６２
 41
0.833333
  7
STANDARD
100
AcDbText
  0
ENDBLK
  5
C7
100
AcDbEntity
  8
DD0
100
AcDbBlockEnd
  0
ENDSEC
  0
SECTION
  2
ENTITIES
  0
INSERT
  5
56
100
AcDbEntity
  8
DD0
100
AcDbBlockReference
  2
DIMS0
 10
0.0
 20
0.0
  0
INSERT
  5
62
100
AcDbEntity
  8
DD0
100
AcDbBlockReference
  2
DIMS1
 10
0.0
 20
0.0
  0
INSERT
  5
6E
100
AcDbEntity
  8
DD0
100
AcDbBlockReference
  2
DIMS2
 10
0.0
 20
0.0
  0
INSERT
  5
7A
100
AcDbEntity
  8
DD0
100
AcDbBlockReference
  2
DIMS3
 10
0.0
 20
0.0
  0
INSERT
  5
86
100
AcDbEntity
  8
DD0
100
AcDbBlockReference
  2
DIMS4
 10
0.0
 20
0.0
  0
INSERT
  5
8F
100
AcDbEntity
  8
DD0
100
AcDbBlockReference
  2
DIMS5
 10
0.0
 20
0.0
  0
INSERT
  5
9B
100
AcDbEntity
  8
DD0
100
AcDbBlockReference
  2
DIMS6
 10
0.0
 20
0.0
  0
INSERT
  5
A7
100
AcDbEntity
  8
DD0
100
AcDbBlockReference
  2
DIMS7
 10
0.0
 20
0.0
  0
INSERT
  5
B3
100
AcDbEntity
  8
DD0
100
AcDbBlockReference
  2
DIMS8
 10
0.0
 20
0.0
  0
INSERT
  5
BC
100
AcDbEntity
  8
DD0
100
AcDbBlockReference
  2
DIMS9
 10
0.0
 20
0.0
  0
INSERT
  5
C8
100
AcDbEntity
  8
DD0
100
AcDbBlockReference
  2
DIMS10
 10
0.0
 20
0.0
  0
LINE
  5
C9
100
AcDbEntity
  8
M0
 62
     7
100
AcDbLine
 10
250.423019
 20
483.817457
 11
250.423019
 21
703.817441
  0
LINE
  5
CA
100
AcDbEntity
  8
M0
 62
     7
100
AcDbLine
 10
245.423019
 20
708.817441
 11
117.423035
 21
708.817441
  0
LINE
  5
CB
100
AcDbEntity
  8
M0
 62
     7
100
AcDbLine
 10
112.423035
 20
703.817441
 11
112.423035
 21
483.817457
  0
LINE
  5
CC
100
AcDbEntity
  8
M0
 62
     7
100
AcDbLine
 10
117.423035
 20
478.817457
 11
245.423019
 21
478.817457
  0
ARC
  5
CD
100
AcDbEntity
  8
M0
 62
     7
100
AcDbCircle
 10
245.423019
 20
703.817441
 40
5.0
100
AcDbArc
 50
0.0
 51
90.0
  0
ARC
  5
CE
100
AcDbEntity
  8
M0
 62
     7
100
AcDbCircle
 10
117.423035
 20
703.817441
 40
5.0
100
AcDbArc
 50
89.999825
 51
180.0
  0
ARC
  5
CF
100
AcDbEntity
  8
M0
 62
     7
100
AcDbCircle
 10
117.423035
 20
483.817457
 40
5.0
100
AcDbArc
 50
179.999825
 51
270.0
  0
ARC
  5
D0
100
AcDbEntity
  8
M0
 62
     7
100
AcDbCircle
 10
245.423019
 20
483.817457
 40
5.0
100
AcDbArc
 50
269.999825
 51
360.0
  0
LINE
  5
D1
100
AcDbEntity
  8
M0
 62
     7
100
AcDbLine
 10
196.423028
 20
708.817441
 11
196.423028
 21
698.817441
  0
LINE
  5
D2
100
AcDbEntity
  8
M0
 62
     7
100
AcDbLine
 10
216.423027
 20
708.817441
 11
216.423027
 21
698.817441
  0
ARC
  5
D3
100
AcDbEntity
  8
M0
 62
     7
100
AcDbCircle
 10
206.423027
 20
698.817441
 40
10.0
100
AcDbArc
 50
180.0
 51
270.0
  0
ARC
  5
D4
100
AcDbEntity
  8
M0
 62
     7
100
AcDbCircle
 10
206.423027
 20
698.817441
 40
10.0
100
AcDbArc
 50
270.0
 51
360.0
  0
CIRCLE
  5
D5
100
AcDbEntity
  8
M0
 62
     7
100
AcDbCircle
 10
206.423027
 20
698.817441
 40
4.5
  0
ARC
  5
D6
100
AcDbEntity
  8
M0
 62
     7
100
AcDbCircle
 10
156.423035
 20
698.817441
 40
10.0
100
AcDbArc
 50
-90.0
 51
0.0
  0
ARC
  5
D7
100
AcDbEntity
  8
M0
 62
     7
100
AcDbCircle
 10
156.423035
 20
698.817441
 40
10.0
100
AcDbArc
 50
180.0
 51
270.0
  0
LINE
  5
D8
100
AcDbEntity
  8
M0
 62
     7
100
AcDbLine
 10
166.423035
 20
708.817441
 11
166.423035
 21
698.817441
  0
LINE
  5
D9
100
AcDbEntity
  8
M0
 62
     7
100
AcDbLine
 10
146.423035
 20
708.817441
 11
146.423035
 21
698.817441
  0
CIRCLE
  5
DA
100
AcDbEntity
  8
M0
 62
     7
100
AcDbCircle
 10
156.423035
 20
698.817441
 40
4.5
  0
ARC
  5
DB
100
AcDbEntity
  8
M0
 62
     7
100
AcDbCircle
 10
156.423035
 20
488.817457
 40
10.0
100
AcDbArc
 50
0.0
 51
89.999913
  0
ARC
  5
DC
100
AcDbEntity
  8
M0
 62
     7
100
AcDbCircle
 10
156.423035
 20
488.817457
 40
10.0
100
AcDbArc
 50
89.999913
 51
179.999913
  0
LINE
  5
DD
100
AcDbEntity
  8
M0
 62
     7
100
AcDbLine
 10
166.423035
 20
478.817457
 11
166.423035
 21
488.817457
  0
LINE
  5
DE
100
AcDbEntity
  8
M0
 62
     7
100
AcDbLine
 10
146.423035
 20
478.817457
 11
146.423035
 21
488.817457
  0
CIRCLE
  5
DF
100
AcDbEntity
  8
M0
 62
     7
100
AcDbCircle
 10
156.423035
 20
488.817457
 40
4.5
  0
ARC
  5
E0
100
AcDbEntity
  8
M0
 62
     7
100
AcDbCircle
 10
206.423027
 20
488.817457
 40
10.0
100
AcDbArc
 50
90.0
 51
179.999913
  0
ARC
  5
E1
100
AcDbEntity
  8
M0
 62
     7
100
AcDbCircle
 10
206.423027
 20
488.817457
 40
10.0
100
AcDbArc
 50
0.0
 51
90.0
  0
LINE
  5
E2
100
AcDbEntity
  8
M0
 62
     7
100
AcDbLine
 10
196.423028
 20
478.817457
 11
196.423028
 21
488.817457
  0
LINE
  5
E3
100
AcDbEntity
  8
M0
 62
     7
100
AcDbLine
 10
216.423027
 20
478.817457
 11
216.423027
 21
488.817457
  0
CIRCLE
  5
E4
100
AcDbEntity
  8
M0
 62
     7
100
AcDbCircle
 10
206.423027
 20
488.817457
 40
4.5
  0
CIRCLE
  5
E5
100
AcDbEntity
  8
M0
 62
     7
100
AcDbCircle
 10
206.423027
 20
508.817455
 40
3.0
  0
LINE
  5
E6
100
AcDbEntity
  8
M0
  6
DASHDOT
 62
     7
100
AcDbLine
 10
198.423028
 20
508.817455
 11
214.423027
 21
508.817455
  0
LINE
  5
E7
100
AcDbEntity
  8
M0
  6
DASHDOT
 62
     7
100
AcDbLine
 10
206.423027
 20
500.817455
 11
206.423027
 21
516.817454
  0
CIRCLE
  5
E8
100
AcDbEntity
  8
M0
 62
     7
100
AcDbCircle
 10
156.423035
 20
508.817455
 40
3.0
  0
LINE
  5
E9
100
AcDbEntity
  8
M0
  6
DASHDOT
 62
     7
100
AcDbLine
 10
164.423035
 20
508.817455
 11
148.423035
 21
508.817455
  0
LINE
  5
EA
100
AcDbEntity
  8
M0
  6
DASHDOT
 62
     7
100
AcDbLine
 10
156.423035
 20
500.817455
 11
156.423035
 21
516.817454
  0
LINE
  5
EB
100
AcDbEntity
  8
M0
 62
     7
100
AcDbLine
 10
523.565964
 20
478.817457
 11
523.565964
 21
708.817441
  0
LINE
  5
EC
100
AcDbEntity
  8
M0
 62
     7
100
AcDbLine
 10
521.265961
 20
708.817441
 11
521.265961
 21
478.817457
  0
LINE
  5
ED
100
AcDbEntity
  8
M0
  6
DASHDOT
 62
     7
100
AcDbLine
 10
516.265961
 20
593.817441
 11
528.565964
 21
593.817441
  0
LINE
  5
EE
100
AcDbEntity
  8
M0
 62
     7
100
AcDbLine
 10
521.265961
 20
478.817457
 11
524.065964
 21
478.817457
  0
LINE
  5
EF
100
AcDbEntity
  8
M0
 62
     7
100
AcDbLine
 10
524.065964
 20
478.817457
 11
524.065964
 21
498.817457
  0
LINE
  5
F0
100
AcDbEntity
  8
M0
 62
     7
100
AcDbLine
 10
523.565964
 20
498.817457
 11
524.065964
 21
498.817457
  0
LINE
  5
F1
100
AcDbEntity
  8
M0
 62
     7
100
AcDbLine
 10
524.065964
 20
708.817441
 11
524.065964
 21
688.817441
  0
LINE
  5
F2
100
AcDbEntity
  8
M0
 62
     7
100
AcDbLine
 10
523.565964
 20
688.817441
 11
524.065964
 21
688.817441
  0
LINE
  5
F3
100
AcDbEntity
  8
M0
 62
     7
100
AcDbLine
 10
524.065964
 20
708.817441
 11
521.265961
 21
708.817441
  0
ARC
  5
F4
100
AcDbEntity
  8
M0
 62
     7
100
AcDbCircle
 10
234.423019
 20
656.817441
 40
2.0
100
AcDbArc
 50
0.0
 51
90.0
  0
ARC
  5
F5
100
AcDbEntity
  8
M0
 62
     7
100
AcDbCircle
 10
226.423019
 20
656.817441
 40
2.0
100
AcDbArc
 50
90.0
 51
180.0
  0
LINE
  5
F6
100
AcDbEntity
  8
M0
 62
     7
100
AcDbLine
 10
224.423019
 20
656.817441
 11
224.423019
 21
654.817441
  0
ARC
  5
F7
100
AcDbEntity
  8
M0
 62
     7
100
AcDbCircle
 10
209.423027
 20
659.817441
 40
1.0
100
AcDbArc
 50
180.0
 51
270.0
  0
LINE
  5
F8
100
AcDbEntity
  8
M0
 62
     7
100
AcDbLine
 10
224.423019
 20
654.817441
 11
208.423027
 21
654.817441
  0
LINE
  5
F9
100
AcDbEntity
  8
M0
 62
     7
100
AcDbLine
 10
208.423027
 20
654.817441
 11
208.423027
 21
666.817441
  0
ARC
  5
FA
100
AcDbEntity
  8
M0
 62
     7
100
AcDbCircle
 10
206.423027
 20
666.817441
 40
2.0
100
AcDbArc
 50
0.0
 51
90.0
  0
ARC
  5
FB
100
AcDbEntity
  8
M0
 62
     7
100
AcDbCircle
 10
196.423028
 20
666.817441
 40
2.0
100
AcDbArc
 50
90.0
 51
180.0
  0
ARC
  5
FC
100
AcDbEntity
  8
M0
 62
     7
100
AcDbCircle
 10
193.423028
 20
659.817441
 40
1.0
100
AcDbArc
 50
270.0
 51
360.0
  0
LINE
  5
FD
100
AcDbEntity
  8
M0
 62
     7
100
AcDbLine
 10
189.423028
 20
657.817441
 11
189.423028
 21
654.817441
  0
ARC
  5
FE
100
AcDbEntity
  8
M0
 62
     7
100
AcDbCircle
 10
190.423028
 20
657.817441
 40
1.0
100
AcDbArc
 50
90.0
 51
180.0
  0
LINE
  5
FF
100
AcDbEntity
  8
M0
 62
     7
100
AcDbLine
 10
194.423028
 20
659.817441
 11
194.423028
 21
666.817441
  0
LINE
  5
100
100
AcDbEntity
  8
M0
 62
     7
100
AcDbLine
 10
234.423019
 20
658.817441
 11
209.423027
 21
658.817441
  0
LINE
  5
101
100
AcDbEntity
  8
M0
 62
     7
100
AcDbLine
 10
224.423019
 20
530.817454
 11
224.423019
 21
532.817441
  0
ARC
  5
102
100
AcDbEntity
  8
M0
 62
     7
100
AcDbCircle
 10
226.423019
 20
530.817454
 40
2.0
100
AcDbArc
 50
179.999973
 51
269.999563
  0
ARC
  5
103
100
AcDbEntity
  8
M0
 62
     7
100
AcDbCircle
 10
234.423019
 20
530.817454
 40
2.0
100
AcDbArc
 50
-90.000437
 51
0.0
  0
ARC
  5
104
100
AcDbEntity
  8
M0
 62
     7
100
AcDbCircle
 10
206.423027
 20
520.817454
 40
2.0
100
AcDbArc
 50
270.0
 51
360.0
  0
LINE
  5
105
100
AcDbEntity
  8
M0
 62
     7
100
AcDbLine
 10
196.423028
 20
518.817454
 11
206.423027
 21
518.817454
  0
LINE
  5
106
100
AcDbEntity
  8
M0
 62
     7
100
AcDbLine
 10
224.423019
 20
532.817441
 11
208.423027
 21
532.817441
  0
LINE
  5
107
100
AcDbEntity
  8
M0
 62
     7
100
AcDbLine
 10
236.423019
 20
530.817454
 11
236.423019
 21
656.817441
  0
LINE
  5
108
100
AcDbEntity
  8
M0
 62
     7
100
AcDbLine
 10
189.423028
 20
654.817441
 11
181.423035
 21
654.817441
  0
LINE
  5
109
100
AcDbEntity
  8
M0
 62
     7
100
AcDbLine
 10
189.423028
 20
532.817441
 11
181.423035
 21
532.817441
  0
LINE
  5
10A
100
AcDbEntity
  8
M0
 62
     7
100
AcDbLine
 10
189.423028
 20
529.817454
 11
189.423028
 21
532.817441
  0
ARC
  5
10B
100
AcDbEntity
  8
M0
 62
     7
100
AcDbCircle
 10
190.423028
 20
529.817454
 40
1.0
100
AcDbArc
 50
180.0
 51
270.0
  0
LINE
  5
10C
100
AcDbEntity
  8
M0
 62
     7
100
AcDbLine
 10
234.423019
 20
528.817454
 11
208.423027
 21
528.817454
  0
LINE
  5
10D
100
AcDbEntity
  8
M0
 62
     7
100
AcDbLine
 10
206.423027
 20
668.817441
 11
196.423028
 21
668.817441
  0
LINE
  5
10E
100
AcDbEntity
  8
M0
 62
     7
100
AcDbLine
 10
194.423028
 20
528.817454
 11
181.423035
 21
528.817454
  0
LINE
  5
10F
100
AcDbEntity
  8
M0
 62
     7
100
AcDbLine
 10
193.423028
 20
658.817441
 11
181.423035
 21
658.817441
  0
LINE
  5
110
100
AcDbEntity
  8
M0
  6
DASHDOT
 62
     7
100
AcDbLine
 10
194.173028
 20
660.817441
 11
208.673027
 21
660.817441
  0
LINE
  5
111
100
AcDbEntity
  8
M0
  6
DASHDOT
 62
     7
100
AcDbLine
 10
201.423027
 20
653.567441
 11
201.423027
 21
668.067441
  0
CIRCLE
  5
112
100
AcDbEntity
  8
M0
 62
     7
100
AcDbCircle
 10
201.423027
 20
660.817441
 40
1.86
  0
CIRCLE
  5
113
100
AcDbEntity
  8
M0
 62
     7
100
AcDbCircle
 10
201.423027
 20
526.817454
 40
4.5
  0
CIRCLE
  5
114
100
AcDbEntity
  8
M0
 62
     7
100
AcDbCircle
 10
201.423027
 20
660.817441
 40
1.36
  0
CIRCLE
  5
115
100
AcDbEntity
  8
M0
 62
     7
100
AcDbCircle
 10
201.423027
 20
526.817454
 40
2.25
  0
LINE
  5
116
100
AcDbEntity
  8
M0
  6
DASHDOT
 62
     7
100
AcDbLine
 10
194.173028
 20
526.817454
 11
208.673027
 21
526.817454
  0
LINE
  5
117
100
AcDbEntity
  8
M0
  6
DASHDOT
 62
     7
100
AcDbLine
 10
201.423027
 20
519.567454
 11
201.423027
 21
534.067441
  0
LINE
  5
118
100
AcDbEntity
  8
M0
 62
     7
100
AcDbLine
 10
194.423028
 20
528.817454
 11
194.423028
 21
520.817454
  0
ARC
  5
119
100
AcDbEntity
  8
M0
 62
     7
100
AcDbCircle
 10
196.423028
 20
520.817454
 40
2.0
100
AcDbArc
 50
179.999973
 51
270.0
  0
LINE
  5
11A
100
AcDbEntity
  8
M0
 62
     7
100
AcDbLine
 10
208.423027
 20
532.817441
 11
208.423027
 21
520.817454
  0
ARC
  5
11B
100
AcDbEntity
  8
M0
 62
     7
100
AcDbCircle
 10
128.423035
 20
530.817454
 40
2.0
100
AcDbArc
 50
179.999973
 51
270.0
  0
ARC
  5
11C
100
AcDbEntity
  8
M0
 62
     7
100
AcDbCircle
 10
136.423035
 20
530.817454
 40
2.0
100
AcDbArc
 50
270.0
 51
360.0
  0
LINE
  5
11D
100
AcDbEntity
  8
M0
 62
     7
100
AcDbLine
 10
138.423035
 20
530.817454
 11
138.423035
 21
532.817441
  0
ARC
  5
11E
100
AcDbEntity
  8
M0
 62
     7
100
AcDbCircle
 10
153.423035
 20
527.817454
 40
1.0
100
AcDbArc
 50
0.0
 51
89.999126
  0
LINE
  5
11F
100
AcDbEntity
  8
M0
 62
     7
100
AcDbLine
 10
138.423035
 20
532.817441
 11
154.423035
 21
532.817441
  0
LINE
  5
120
100
AcDbEntity
  8
M0
 62
     7
100
AcDbLine
 10
154.423035
 20
532.817441
 11
154.423035
 21
520.817454
  0
ARC
  5
121
100
AcDbEntity
  8
M0
 62
     7
100
AcDbCircle
 10
156.423035
 20
520.817454
 40
2.0
100
AcDbArc
 50
179.999973
 51
270.0
  0
ARC
  5
122
100
AcDbEntity
  8
M0
 62
     7
100
AcDbCircle
 10
166.423035
 20
520.817454
 40
2.0
100
AcDbArc
 50
270.0
 51
360.0
  0
ARC
  5
123
100
AcDbEntity
  8
M0
 62
     7
100
AcDbCircle
 10
169.423035
 20
527.817454
 40
1.0
100
AcDbArc
 50
89.999126
 51
180.0
  0
LINE
  5
124
100
AcDbEntity
  8
M0
 62
     7
100
AcDbLine
 10
173.423035
 20
529.817454
 11
173.423035
 21
532.817441
  0
ARC
  5
125
100
AcDbEntity
  8
M0
 62
     7
100
AcDbCircle
 10
172.423035
 20
529.817454
 40
1.0
100
AcDbArc
 50
270.0
 51
360.0
  0
LINE
  5
126
100
AcDbEntity
  8
M0
 62
     7
100
AcDbLine
 10
168.423035
 20
527.817454
 11
168.423035
 21
520.817454
  0
LINE
  5
127
100
AcDbEntity
  8
M0
 62
     7
100
AcDbLine
 10
128.423035
 20
528.817454
 11
153.423035
 21
528.817454
  0
LINE
  5
128
100
AcDbEntity
  8
M0
 62
     7
100
AcDbLine
 10
138.423035
 20
656.817441
 11
138.423035
 21
654.817441
  0
ARC
  5
129
100
AcDbEntity
  8
M0
 62
     7
100
AcDbCircle
 10
136.423035
 20
656.817441
 40
2.0
100
AcDbArc
 50
0.0
 51
89.999563
  0
ARC
  5
12A
100
AcDbEntity
  8
M0
 62
     7
100
AcDbCircle
 10
128.423035
 20
656.817441
 40
2.0
100
AcDbArc
 50
89.999563
 51
180.0
  0
ARC
  5
12B
100
AcDbEntity
  8
M0
 62
     7
100
AcDbCircle
 10
156.423035
 20
666.817441
 40
2.0
100
AcDbArc
 50
89.999563
 51
180.0
  0
LINE
  5
12C
100
AcDbEntity
  8
M0
 62
     7
100
AcDbLine
 10
166.423035
 20
668.817441
 11
156.423035
 21
668.817441
  0
LINE
  5
12D
100
AcDbEntity
  8
M0
 62
     7
100
AcDbLine
 10
138.423035
 20
654.817441
 11
154.423035
 21
654.817441
  0
LINE
  5
12E
100
AcDbEntity
  8
M0
 62
     7
100
AcDbLine
 10
126.423035
 20
656.817441
 11
126.423035
 21
530.817454
  0
LINE
  5
12F
100
AcDbEntity
  8
M0
 62
     7
100
AcDbLine
 10
173.423035
 20
532.817441
 11
181.423035
 21
532.817441
  0
LINE
  5
130
100
AcDbEntity
  8
M0
 62
     7
100
AcDbLine
 10
173.423035
 20
654.817441
 11
181.423035
 21
654.817441
  0
LINE
  5
131
100
AcDbEntity
  8
M0
 62
     7
100
AcDbLine
 10
173.423035
 20
657.817441
 11
173.423035
 21
654.817441
  0
ARC
  5
132
100
AcDbEntity
  8
M0
 62
     7
100
AcDbCircle
 10
172.423035
 20
657.817441
 40
1.0
100
AcDbArc
 50
0.0
 51
89.999126
  0
LINE
  5
133
100
AcDbEntity
  8
M0
 62
     7
100
AcDbLine
 10
128.423035
 20
658.817441
 11
154.423035
 21
658.817441
  0
LINE
  5
134
100
AcDbEntity
  8
M0
 62
     7
100
AcDbLine
 10
156.423035
 20
518.817454
 11
166.423035
 21
518.817454
  0
LINE
  5
135
100
AcDbEntity
  8
M0
 62
     7
100
AcDbLine
 10
168.423035
 20
658.817441
 11
181.423035
 21
658.817441
  0
LINE
  5
136
100
AcDbEntity
  8
M0
 62
     7
100
AcDbLine
 10
169.423035
 20
528.817454
 11
181.423035
 21
528.817454
  0
LINE
  5
137
100
AcDbEntity
  8
M0
  6
DASHDOT
 62
     7
100
AcDbLine
 10
168.673035
 20
526.817454
 11
154.173035
 21
526.817454
  0
LINE
  5
138
100
AcDbEntity
  8
M0
  6
DASHDOT
 62
     7
100
AcDbLine
 10
161.423035
 20
534.067441
 11
161.423035
 21
519.567454
  0
CIRCLE
  5
139
100
AcDbEntity
  8
M0
 62
     7
100
AcDbCircle
 10
161.423035
 20
526.817454
 40
1.86
  0
CIRCLE
  5
13A
100
AcDbEntity
  8
M0
 62
     7
100
AcDbCircle
 10
161.423035
 20
660.817441
 40
4.5
  0
CIRCLE
  5
13B
100
AcDbEntity
  8
M0
 62
     7
100
AcDbCircle
 10
161.423035
 20
526.817454
 40
1.36
  0
CIRCLE
  5
13C
100
AcDbEntity
  8
M0
 62
     7
100
AcDbCircle
 10
161.423035
 20
660.817441
 40
2.25
  0
LINE
  5
13D
100
AcDbEntity
  8
M0
  6
DASHDOT
 62
     7
100
AcDbLine
 10
168.673035
 20
660.817441
 11
154.173035
 21
660.817441
  0
LINE
  5
13E
100
AcDbEntity
  8
M0
  6
DASHDOT
 62
     7
100
AcDbLine
 10
161.423035
 20
668.067441
 11
161.423035
 21
653.567441
  0
LINE
  5
13F
100
AcDbEntity
  8
M0
 62
     7
100
AcDbLine
 10
168.423035
 20
658.817441
 11
168.423035
 21
666.817441
  0
ARC
  5
140
100
AcDbEntity
  8
M0
 62
     7
100
AcDbCircle
 10
166.423035
 20
666.817441
 40
2.0
100
AcDbArc
 50
0.0
 51
89.999563
  0
LINE
  5
141
100
AcDbEntity
  8
M0
 62
     7
100
AcDbLine
 10
154.423035
 20
654.817441
 11
154.423035
 21
666.817441
  0
ARC
  5
142
100
AcDbEntity
  8
M0
 62
     7
100
AcDbCircle
 10
335.665924
 20
666.817441
 40
2.0
100
AcDbArc
 50
89.999563
 51
180.0
  0
LINE
  5
143
100
AcDbEntity
  8
M0
 62
     7
100
AcDbLine
 10
333.665924
 20
666.817441
 11
333.665924
 21
520.817454
  0
ARC
  5
144
100
AcDbEntity
  8
M0
 62
     7
100
AcDbCircle
 10
335.665924
 20
520.817454
 40
2.0
100
AcDbArc
 50
179.999973
 51
270.0
  0
ARC
  5
145
100
AcDbEntity
  8
M0
 62
     7
100
AcDbCircle
 10
335.665924
 20
656.817441
 40
2.0
100
AcDbArc
 50
89.999563
 51
180.0
  0
ARC
  5
146
100
AcDbEntity
  8
M0
 62
     7
100
AcDbCircle
 10
335.665924
 20
530.817454
 40
2.0
100
AcDbArc
 50
179.999973
 51
270.0
  0
LINE
  5
147
100
AcDbEntity
  8
M0
 62
     7
100
AcDbLine
 10
335.665924
 20
668.817441
 11
415.265915
 21
668.817441
  0
LINE
  5
148
100
AcDbEntity
  8
M0
 62
     7
100
AcDbLine
 10
335.665924
 20
658.817441
 11
415.265915
 21
658.817441
  0
LINE
  5
149
100
AcDbEntity
  8
M0
 62
     7
100
AcDbLine
 10
335.665924
 20
518.817454
 11
415.265915
 21
518.817454
  0
LINE
  5
14A
100
AcDbEntity
  8
M0
 62
     7
100
AcDbLine
 10
335.665924
 20
528.817454
 11
415.265915
 21
528.817454
  0
LINE
  5
14B
100
AcDbEntity
  8
M0
 62
     7
100
AcDbLine
 10
415.265915
 20
518.817454
 11
415.265915
 21
528.817454
  0
LINE
  5
14C
100
AcDbEntity
  8
M0
 62
     7
100
AcDbLine
 10
415.265915
 20
658.817441
 11
415.265915
 21
668.817441
  0
ARC
  5
14D
100
AcDbEntity
  8
M0
100
AcDbCircle
 10
248.423019
 20
678.317441
 40
2.0
100
AcDbArc
 50
0.0
 51
90.0
  0
LINE
  5
14E
100
AcDbEntity
  8
M0
100
AcDbLine
 10
248.423019
 20
680.317441
 11
243.923019
 21
680.317441
  0
LINE
  5
14F
100
AcDbEntity
  8
M0
100
AcDbLine
 10
167.423035
 20
680.317441
 11
168.923035
 21
680.317441
  0
ARC
  5
150
100
AcDbEntity
  8
M0
100
AcDbCircle
 10
195.423028
 20
679.317441
 40
1.0
100
AcDbArc
 50
0.0
 51
90.0
  0
LINE
  5
151
100
AcDbEntity
  8
M0
100
AcDbLine
 10
196.423028
 20
679.317441
 11
196.423028
 21
669.817441
  0
ARC
  5
152
100
AcDbEntity
  8
M0
100
AcDbCircle
 10
197.423028
 20
669.817441
 40
1.0
100
AcDbArc
 50
180.0
 51
270.0
  0
ARC
  5
153
100
AcDbEntity
  8
M0
100
AcDbCircle
 10
206.423027
 20
666.817441
 40
2.0
100
AcDbArc
 50
0.0
 51
90.0
  0
LINE
  5
154
100
AcDbEntity
  8
M0
100
AcDbLine
 10
208.423027
 20
666.817441
 11
208.423027
 21
661.317441
  0
ARC
  5
155
100
AcDbEntity
  8
M0
100
AcDbCircle
 10
196.423028
 20
666.817441
 40
2.0
100
AcDbArc
 50
90.0
 51
180.0
  0
LINE
  5
156
100
AcDbEntity
  8
M0
100
AcDbLine
 10
217.713349
 20
668.817441
 11
193.923028
 21
668.817441
  0
LINE
  5
157
100
AcDbEntity
  8
M0
100
AcDbLine
 10
114.423035
 20
518.817454
 11
124.173035
 21
518.817454
  0
LINE
  5
158
100
AcDbEntity
  8
M0
100
AcDbLine
 10
250.423019
 20
520.817454
 11
250.423019
 21
678.317441
  0
ARC
  5
159
100
AcDbEntity
  8
M0
100
AcDbCircle
 10
248.423019
 20
520.817454
 40
2.0
100
AcDbArc
 50
269.999563
 51
360.0
  0
ARC
  5
15A
100
AcDbEntity
  8
M0
100
AcDbCircle
 10
196.423028
 20
520.817454
 40
2.0
100
AcDbArc
 50
179.999973
 51
270.0
  0
ARC
  5
15B
100
AcDbEntity
  8
M0
100
AcDbCircle
 10
206.423027
 20
520.817454
 40
2.0
100
AcDbArc
 50
-90.0
 51
0.0
  0
LINE
  5
15C
100
AcDbEntity
  8
M0
100
AcDbLine
 10
208.423027
 20
520.817454
 11
208.423027
 21
526.317454
  0
CIRCLE
  5
15D
100
AcDbEntity
  8
M0
100
AcDbCircle
 10
242.423019
 20
664.317441
 40
2.75
  0
LINE
  5
15E
100
AcDbEntity
  8
M0
  6
DASHDOT
100
AcDbLine
 10
234.673019
 20
664.317441
 11
250.173019
 21
664.317441
  0
ARC
  5
15F
100
AcDbEntity
  8
M0
100
AcDbCircle
 10
114.423035
 20
678.317441
 40
2.0
100
AcDbArc
 50
89.999563
 51
180.0
  0
ARC
  5
160
100
AcDbEntity
  8
M0
100
AcDbCircle
 10
167.423035
 20
679.317441
 40
1.0
100
AcDbArc
 50
89.999126
 51
180.0
  0
LINE
  5
161
100
AcDbEntity
  8
M0
100
AcDbLine
 10
166.423035
 20
679.317441
 11
166.423035
 21
669.817441
  0
ARC
  5
162
100
AcDbEntity
  8
M0
100
AcDbCircle
 10
165.423035
 20
669.817441
 40
1.0
100
AcDbArc
 50
-90.0
 51
0.0
  0
ARC
  5
163
100
AcDbEntity
  8
M0
100
AcDbCircle
 10
156.423035
 20
666.817441
 40
2.0
100
AcDbArc
 50
89.999563
 51
180.0
  0
LINE
  5
164
100
AcDbEntity
  8
M0
100
AcDbLine
 10
154.423035
 20
666.817441
 11
154.423035
 21
661.317441
  0
ARC
  5
165
100
AcDbEntity
  8
M0
100
AcDbCircle
 10
166.423035
 20
666.817441
 40
2.0
100
AcDbArc
 50
0.0
 51
89.999563
  0
LINE
  5
166
100
AcDbEntity
  8
M0
100
AcDbLine
 10
112.423035
 20
520.817454
 11
112.423035
 21
678.317441
  0
ARC
  5
167
100
AcDbEntity
  8
M0
100
AcDbCircle
 10
114.423035
 20
520.817454
 40
2.0
100
AcDbArc
 50
179.999973
 51
270.0
  0
ARC
  5
168
100
AcDbEntity
  8
M0
100
AcDbCircle
 10
166.423035
 20
520.817454
 40
2.0
100
AcDbArc
 50
270.0
 51
360.0
  0
LINE
  5
169
100
AcDbEntity
  8
M0
  6
DASHDOT
100
AcDbLine
 10
242.423019
 20
500.851575
 11
242.423019
 21
672.067441
  0
LINE
  5
16A
100
AcDbEntity
  8
M0
100
AcDbLine
 10
236.423019
 20
666.817441
 11
236.423019
 21
619.317441
  0
LINE
  5
16B
100
AcDbEntity
  8
M0
100
AcDbLine
 10
126.423035
 20
666.817441
 11
126.423035
 21
619.317441
  0
ARC
  5
16C
100
AcDbEntity
  8
M0
100
AcDbCircle
 10
156.423035
 20
520.817454
 40
2.0
100
AcDbArc
 50
179.999973
 51
270.0
  0
LINE
  5
16D
100
AcDbEntity
  8
M0
100
AcDbLine
 10
154.423035
 20
520.817454
 11
154.423035
 21
526.317454
  0
LINE
  5
16E
100
AcDbEntity
  8
M0
  6
DASHDOT
100
AcDbLine
 10
161.423035
 20
531.317454
 11
161.423035
 21
516.317454
  0
CIRCLE
  5
16F
100
AcDbEntity
  8
M0
100
AcDbCircle
 10
120.423035
 20
664.317441
 40
2.75
  0
LINE
  5
170
100
AcDbEntity
  8
M0
  6
DASHDOT
100
AcDbLine
 10
128.173035
 20
664.317441
 11
112.673035
 21
664.317441
  0
LINE
  5
171
100
AcDbEntity
  8
M0
  6
DASHDOT
100
AcDbLine
 10
120.423035
 20
656.567441
 11
120.423035
 21
672.067441
  0
LINE
  5
172
100
AcDbEntity
  8
M0
100
AcDbLine
 10
236.423019
 20
521.388882
 11
236.423019
 21
568.317441
  0
LINE
  5
173
100
AcDbEntity
  8
M0
100
AcDbLine
 10
236.423019
 20
568.317441
 11
236.423019
 21
520.817454
  0
LINE
  5
174
100
AcDbEntity
  8
M0
  6
DASHDOT
100
AcDbLine
 10
120.423035
 20
500.851575
 11
120.423035
 21
672.067441
  0
LINE
  5
175
100
AcDbEntity
  8
M0
100
AcDbLine
 10
126.423035
 20
568.317441
 11
126.423035
 21
520.817454
  0
CIRCLE
  5
176
100
AcDbEntity
  8
M0
100
AcDbCircle
 10
120.423035
 20
523.317454
 40
2.75
  0
LINE
  5
177
100
AcDbEntity
  8
M0
  6
DASHDOT
100
AcDbLine
 10
128.173035
 20
523.317454
 11
112.673035
 21
523.317454
  0
CIRCLE
  5
178
100
AcDbEntity
  8
M0
100
AcDbCircle
 10
242.423019
 20
523.317454
 40
2.75
  0
LINE
  5
179
100
AcDbEntity
  8
M0
  6
DASHDOT
100
AcDbLine
 10
234.673019
 20
523.317454
 11
250.173019
 21
523.317454
  0
LINE
  5
17A
100
AcDbEntity
  8
M0
100
AcDbLine
 10
247.923019
 20
628.817441
 11
247.923019
 21
621.317441
  0
LINE
  5
17B
100
AcDbEntity
  8
M0
100
AcDbLine
 10
247.923019
 20
628.817441
 11
250.423019
 21
628.817441
  0
LINE
  5
17C
100
AcDbEntity
  8
M0
100
AcDbLine
 10
243.423019
 20
597.567441
 11
250.423019
 21
597.567441
  0
ARC
  5
17D
100
AcDbEntity
  8
M0
100
AcDbCircle
 10
243.423019
 20
596.567441
 40
1.0
100
AcDbArc
 50
90.0
 51
180.0
  0
LINE
  5
17E
100
AcDbEntity
  8
M0
100
AcDbLine
 10
242.423019
 20
596.567441
 11
242.423019
 21
591.067441
  0
LINE
  5
17F
100
AcDbEntity
  8
M0
100
AcDbLine
 10
243.423019
 20
590.067441
 11
250.423019
 21
590.067441
  0
ARC
  5
180
100
AcDbEntity
  8
M0
100
AcDbCircle
 10
243.423019
 20
591.067441
 40
1.0
100
AcDbArc
 50
180.0
 51
269.999126
  0
LINE
  5
181
100
AcDbEntity
  8
M0
100
AcDbLine
 10
250.423019
 20
596.567441
 11
246.423019
 21
596.567441
  0
LINE
  5
182
100
AcDbEntity
  8
M0
100
AcDbLine
 10
250.423019
 20
591.067441
 11
246.423019
 21
591.067441
  0
LINE
  5
183
100
AcDbEntity
  8
M0
100
AcDbLine
 10
246.923019
 20
621.317441
 11
250.423019
 21
621.317441
  0
ARC
  5
184
100
AcDbEntity
  8
M0
100
AcDbCircle
 10
246.923019
 20
620.817441
 40
0.5
100
AcDbArc
 50
90.0
 51
180.0
  0
LINE
  5
185
100
AcDbEntity
  8
M0
100
AcDbLine
 10
238.423019
 20
617.817441
 11
246.423019
 21
617.817441
  0
LINE
  5
186
100
AcDbEntity
  8
M0
100
AcDbLine
 10
246.423019
 20
597.567441
 11
246.423019
 21
596.567441
  0
LINE
  5
187
100
AcDbEntity
  8
M0
100
AcDbLine
 10
246.423019
 20
620.817441
 11
246.423019
 21
600.317441
  0
LINE
  5
188
100
AcDbEntity
  8
M0
100
AcDbLine
 10
246.923019
 20
611.317441
 11
250.423019
 21
611.317441
  0
ARC
  5
189
100
AcDbEntity
  8
M0
100
AcDbCircle
 10
246.923019
 20
610.817441
 40
0.5
100
AcDbArc
 50
90.0
 51
180.0
  0
LINE
  5
18A
100
AcDbEntity
  8
M0
100
AcDbLine
 10
238.423019
 20
569.817441
 11
246.423019
 21
569.817441
  0
LINE
  5
18B
100
AcDbEntity
  8
M0
100
AcDbLine
 10
246.423019
 20
566.817441
 11
246.423019
 21
587.317441
  0
LINE
  5
18C
100
AcDbEntity
  8
M0
100
AcDbLine
 10
246.923019
 20
576.317441
 11
250.423019
 21
576.317441
  0
ARC
  5
18D
100
AcDbEntity
  8
M0
100
AcDbCircle
 10
246.923019
 20
576.817441
 40
0.5
100
AcDbArc
 50
180.0
 51
269.998251
  0
LINE
  5
18E
100
AcDbEntity
  8
M0
100
AcDbLine
 10
246.423019
 20
566.817441
 11
246.423019
 21
587.317441
  0
LINE
  5
18F
100
AcDbEntity
  8
M0
100
AcDbLine
 10
247.923019
 20
558.817441
 11
247.923019
 21
566.317441
  0
LINE
  5
190
100
AcDbEntity
  8
M0
100
AcDbLine
 10
247.923019
 20
558.817441
 11
250.423019
 21
558.817441
  0
ARC
  5
191
100
AcDbEntity
  8
M0
100
AcDbCircle
 10
246.923019
 20
566.817441
 40
0.5
100
AcDbArc
 50
180.0
 51
269.998251
  0
LINE
  5
192
100
AcDbEntity
  8
M0
100
AcDbLine
 10
246.923019
 20
566.317441
 11
250.423019
 21
566.317441
  0
LINE
  5
193
100
AcDbEntity
  8
M0
100
AcDbLine
 10
246.423019
 20
590.067441
 11
246.423019
 21
591.067441
  0
LINE
  5
194
100
AcDbEntity
  8
M0
100
AcDbLine
 10
114.923035
 20
628.817441
 11
114.923035
 21
621.317441
  0
LINE
  5
195
100
AcDbEntity
  8
M0
100
AcDbLine
 10
114.923035
 20
628.817441
 11
112.423035
 21
628.817441
  0
LINE
  5
196
100
AcDbEntity
  8
M0
100
AcDbLine
 10
119.423035
 20
597.567441
 11
112.423035
 21
597.567441
  0
ARC
  5
197
100
AcDbEntity
  8
M0
100
AcDbCircle
 10
119.423035
 20
596.567441
 40
1.0
100
AcDbArc
 50
0.0
 51
89.999126
  0
LINE
  5
198
100
AcDbEntity
  8
M0
100
AcDbLine
 10
120.423035
 20
596.567441
 11
120.423035
 21
591.067441
  0
LINE
  5
199
100
AcDbEntity
  8
M0
100
AcDbLine
 10
119.423035
 20
590.067441
 11
112.423035
 21
590.067441
  0
ARC
  5
19A
100
AcDbEntity
  8
M0
100
AcDbCircle
 10
119.423035
 20
591.067441
 40
1.0
100
AcDbArc
 50
-90.0
 51
0.0
  0
LINE
  5
19B
100
AcDbEntity
  8
M0
100
AcDbLine
 10
112.423035
 20
596.567441
 11
116.423035
 21
596.567441
  0
LINE
  5
19C
100
AcDbEntity
  8
M0
100
AcDbLine
 10
112.423035
 20
591.067441
 11
116.423035
 21
591.067441
  0
LINE
  5
19D
100
AcDbEntity
  8
M0
100
AcDbLine
 10
115.923035
 20
621.317441
 11
112.423035
 21
621.317441
  0
ARC
  5
19E
100
AcDbEntity
  8
M0
100
AcDbCircle
 10
115.923035
 20
620.817441
 40
0.5
100
AcDbArc
 50
0.0
 51
89.998251
  0
LINE
  5
19F
100
AcDbEntity
  8
M0
100
AcDbLine
 10
124.423035
 20
617.817441
 11
116.423035
 21
617.817441
  0
LINE
  5
1A0
100
AcDbEntity
  8
M0
100
AcDbLine
 10
116.423035
 20
597.567441
 11
116.423035
 21
596.567441
  0
LINE
  5
1A1
100
AcDbEntity
  8
M0
100
AcDbLine
 10
116.423035
 20
620.817441
 11
116.423035
 21
600.317441
  0
LINE
  5
1A2
100
AcDbEntity
  8
M0
100
AcDbLine
 10
115.923035
 20
611.317441
 11
112.423035
 21
611.317441
  0
ARC
  5
1A3
100
AcDbEntity
  8
M0
100
AcDbCircle
 10
115.923035
 20
610.817441
 40
0.5
100
AcDbArc
 50
0.0
 51
89.998251
  0
LINE
  5
1A4
100
AcDbEntity
  8
M0
100
AcDbLine
 10
124.423035
 20
569.817441
 11
116.423035
 21
569.817441
  0
LINE
  5
1A5
100
AcDbEntity
  8
M0
100
AcDbLine
 10
116.423035
 20
566.817441
 11
116.423035
 21
587.317441
  0
LINE
  5
1A6
100
AcDbEntity
  8
M0
100
AcDbLine
 10
115.923035
 20
576.317441
 11
112.423035
 21
576.317441
  0
ARC
  5
1A7
100
AcDbEntity
  8
M0
100
AcDbCircle
 10
115.923035
 20
576.817441
 40
0.5
100
AcDbArc
 50
270.0
 51
360.0
  0
LINE
  5
1A8
100
AcDbEntity
  8
M0
100
AcDbLine
 10
116.423035
 20
566.817441
 11
116.423035
 21
587.317441
  0
LINE
  5
1A9
100
AcDbEntity
  8
M0
100
AcDbLine
 10
114.923035
 20
558.817441
 11
114.923035
 21
566.317441
  0
LINE
  5
1AA
100
AcDbEntity
  8
M0
100
AcDbLine
 10
114.923035
 20
558.817441
 11
112.423035
 21
558.817441
  0
ARC
  5
1AB
100
AcDbEntity
  8
M0
100
AcDbCircle
 10
115.923035
 20
566.817441
 40
0.5
100
AcDbArc
 50
270.0
 51
360.0
  0
LINE
  5
1AC
100
AcDbEntity
  8
M0
100
AcDbLine
 10
115.923035
 20
566.317441
 11
112.423035
 21
566.317441
  0
LINE
  5
1AD
100
AcDbEntity
  8
M0
100
AcDbLine
 10
116.423035
 20
590.067441
 11
116.423035
 21
591.067441
  0
CIRCLE
  5
1AE
100
AcDbEntity
  8
M0
100
AcDbCircle
 10
242.423019
 20
604.317441
 40
2.0
  0
LINE
  5
1AF
100
AcDbEntity
  8
M0
  6
DASHDOT
100
AcDbLine
 10
235.423019
 20
604.317441
 11
249.423019
 21
604.317441
  0
LINE
  5
1B0
100
AcDbEntity
  8
M0
  6
DASHDOT
100
AcDbLine
 10
242.423019
 20
597.317441
 11
242.423019
 21
611.317441
  0
CIRCLE
  5
1B1
100
AcDbEntity
  8
M0
100
AcDbCircle
 10
242.423019
 20
583.317441
 40
2.0
  0
LINE
  5
1B2
100
AcDbEntity
  8
M0
  6
DASHDOT
100
AcDbLine
 10
235.423019
 20
583.317441
 11
249.423019
 21
583.317441
  0
CIRCLE
  5
1B3
100
AcDbEntity
  8
M0
100
AcDbCircle
 10
120.423035
 20
604.317441
 40
2.0
  0
LINE
  5
1B4
100
AcDbEntity
  8
M0
  6
DASHDOT
100
AcDbLine
 10
127.423035
 20
604.317441
 11
113.423035
 21
604.317441
  0
LINE
  5
1B5
100
AcDbEntity
  8
M0
  6
DASHDOT
100
AcDbLine
 10
120.423035
 20
597.317441
 11
120.423035
 21
611.317441
  0
CIRCLE
  5
1B6
100
AcDbEntity
  8
M0
100
AcDbCircle
 10
120.423035
 20
583.317441
 40
2.0
  0
LINE
  5
1B7
100
AcDbEntity
  8
M0
  6
DASHDOT
100
AcDbLine
 10
127.423035
 20
583.317441
 11
113.423035
 21
583.317441
  0
CIRCLE
  5
1B8
100
AcDbEntity
  8
M0
100
AcDbCircle
 10
242.423019
 20
613.817441
 40
2.0
  0
LINE
  5
1B9
100
AcDbEntity
  8
M0
  6
DASHDOT
100
AcDbLine
 10
235.423019
 20
613.817441
 11
249.423019
 21
613.817441
  0
LINE
  5
1BA
100
AcDbEntity
  8
M0
  6
DASHDOT
100
AcDbLine
 10
242.423019
 20
606.817441
 11
242.423019
 21
620.817441
  0
LINE
  5
1BB
100
AcDbEntity
  8
M0
100
AcDbLine
 10
236.423019
 20
619.317441
 11
246.423019
 21
619.317441
  0
LINE
  5
1BC
100
AcDbEntity
  8
M0
100
AcDbLine
 10
238.423019
 20
608.317441
 11
246.423019
 21
608.317441
  0
LINE
  5
1BD
100
AcDbEntity
  8
M0
100
AcDbLine
 10
239.673019
 20
604.317441
 11
239.673019
 21
608.317441
  0
LINE
  5
1BE
100
AcDbEntity
  8
M0
100
AcDbLine
 10
245.173019
 20
604.317441
 11
245.173019
 21
608.317441
  0
ARC
  5
1BF
100
AcDbEntity
  8
M0
100
AcDbCircle
 10
242.423019
 20
604.317441
 40
2.75
100
AcDbArc
 50
180.0
 51
360.0
  0
LINE
  5
1C0
100
AcDbEntity
  8
M0
100
AcDbLine
 10
239.673019
 20
613.817441
 11
239.673019
 21
617.817441
  0
LINE
  5
1C1
100
AcDbEntity
  8
M0
100
AcDbLine
 10
245.173019
 20
613.817441
 11
245.173019
 21
617.817441
  0
ARC
  5
1C2
100
AcDbEntity
  8
M0
100
AcDbCircle
 10
242.423019
 20
613.817441
 40
2.75
100
AcDbArc
 50
180.0
 51
360.0
  0
ARC
  5
1C3
100
AcDbEntity
  8
M0
100
AcDbCircle
 10
239.423019
 20
600.317441
 40
1.0
100
AcDbArc
 50
180.0
 51
269.999126
  0
LINE
  5
1C4
100
AcDbEntity
  8
M0
100
AcDbLine
 10
239.423019
 20
599.317441
 11
245.423019
 21
599.317441
  0
ARC
  5
1C5
100
AcDbEntity
  8
M0
100
AcDbCircle
 10
245.423019
 20
600.317441
 40
1.0
100
AcDbArc
 50
269.999126
 51
360.0
  0
LINE
  5
1C6
100
AcDbEntity
  8
M0
100
AcDbLine
 10
236.423019
 20
610.317441
 11
237.923019
 21
610.317441
  0
ARC
  5
1C7
100
AcDbEntity
  8
M0
100
AcDbCircle
 10
237.923019
 20
609.817441
 40
0.5
100
AcDbArc
 50
0.0
 51
90.0
  0
LINE
  5
1C8
100
AcDbEntity
  8
M0
100
AcDbLine
 10
238.423019
 20
618.817441
 11
238.423019
 21
600.317441
  0
ARC
  5
1C9
100
AcDbEntity
  8
M0
100
AcDbCircle
 10
237.923019
 20
618.817441
 40
0.5
100
AcDbArc
 50
0.0
 51
90.0
  0
CIRCLE
  5
1CA
100
AcDbEntity
  8
M0
100
AcDbCircle
 10
242.423019
 20
573.817441
 40
2.0
  0
LINE
  5
1CB
100
AcDbEntity
  8
M0
  6
DASHDOT
100
AcDbLine
 10
235.423019
 20
573.817441
 11
249.423019
 21
573.817441
  0
LINE
  5
1CC
100
AcDbEntity
  8
M0
100
AcDbLine
 10
236.423019
 20
568.317441
 11
246.423019
 21
568.317441
  0
LINE
  5
1CD
100
AcDbEntity
  8
M0
100
AcDbLine
 10
238.423019
 20
579.317441
 11
246.423019
 21
579.317441
  0
LINE
  5
1CE
100
AcDbEntity
  8
M0
100
AcDbLine
 10
239.673019
 20
583.317441
 11
239.673019
 21
579.317441
  0
ARC
  5
1CF
100
AcDbEntity
  8
M0
100
AcDbCircle
 10
242.423019
 20
583.317441
 40
2.75
100
AcDbArc
 50
0.0
 51
180.0
  0
LINE
  5
1D0
100
AcDbEntity
  8
M0
100
AcDbLine
 10
239.673019
 20
573.817441
 11
239.673019
 21
569.817441
  0
ARC
  5
1D1
100
AcDbEntity
  8
M0
100
AcDbCircle
 10
242.423019
 20
573.817441
 40
2.75
100
AcDbArc
 50
0.0
 51
180.0
  0
ARC
  5
1D2
100
AcDbEntity
  8
M0
100
AcDbCircle
 10
239.423019
 20
587.317441
 40
1.0
100
AcDbArc
 50
90.0
 51
180.0
  0
LINE
  5
1D3
100
AcDbEntity
  8
M0
100
AcDbLine
 10
239.423019
 20
588.317441
 11
245.423019
 21
588.317441
  0
LINE
  5
1D4
100
AcDbEntity
  8
M0
100
AcDbLine
 10
236.423019
 20
577.317441
 11
237.923019
 21
577.317441
  0
ARC
  5
1D5
100
AcDbEntity
  8
M0
100
AcDbCircle
 10
237.923019
 20
577.817441
 40
0.5
100
AcDbArc
 50
-90.001749
 51
0.0
  0
LINE
  5
1D6
100
AcDbEntity
  8
M0
100
AcDbLine
 10
238.423019
 20
568.817441
 11
238.423019
 21
587.317441
  0
ARC
  5
1D7
100
AcDbEntity
  8
M0
100
AcDbCircle
 10
237.923019
 20
568.817441
 40
0.5
100
AcDbArc
 50
-90.001749
 51
0.0
  0
ARC
  5
1D8
100
AcDbEntity
  8
M0
100
AcDbCircle
 10
245.423019
 20
587.317441
 40
1.0
100
AcDbArc
 50
0.0
 51
90.0
  0
LINE
  5
1D9
100
AcDbEntity
  8
M0
100
AcDbLine
 10
245.173019
 20
583.317441
 11
245.173019
 21
579.317441
  0
LINE
  5
1DA
100
AcDbEntity
  8
M0
100
AcDbLine
 10
245.173019
 20
573.817441
 11
245.173019
 21
569.817441
  0
CIRCLE
  5
1DB
100
AcDbEntity
  8
M0
100
AcDbCircle
 10
120.423035
 20
613.817441
 40
2.0
  0
LINE
  5
1DC
100
AcDbEntity
  8
M0
  6
DASHDOT
100
AcDbLine
 10
127.423035
 20
613.817441
 11
113.423035
 21
613.817441
  0
LINE
  5
1DD
100
AcDbEntity
  8
M0
  6
DASHDOT
100
AcDbLine
 10
120.423035
 20
606.817441
 11
120.423035
 21
620.817441
  0
LINE
  5
1DE
100
AcDbEntity
  8
M0
100
AcDbLine
 10
126.423035
 20
619.317441
 11
116.423035
 21
619.317441
  0
LINE
  5
1DF
100
AcDbEntity
  8
M0
100
AcDbLine
 10
124.423035
 20
608.317441
 11
116.423035
 21
608.317441
  0
LINE
  5
1E0
100
AcDbEntity
  8
M0
100
AcDbLine
 10
123.173035
 20
604.317441
 11
123.173035
 21
608.317441
  0
LINE
  5
1E1
100
AcDbEntity
  8
M0
100
AcDbLine
 10
117.673035
 20
604.317441
 11
117.673035
 21
608.317441
  0
ARC
  5
1E2
100
AcDbEntity
  8
M0
100
AcDbCircle
 10
120.423035
 20
604.317441
 40
2.75
100
AcDbArc
 50
-180.0
 51
0.0
  0
LINE
  5
1E3
100
AcDbEntity
  8
M0
100
AcDbLine
 10
123.173035
 20
613.817441
 11
123.173035
 21
617.817441
  0
LINE
  5
1E4
100
AcDbEntity
  8
M0
100
AcDbLine
 10
117.673035
 20
613.817441
 11
117.673035
 21
617.817441
  0
ARC
  5
1E5
100
AcDbEntity
  8
M0
100
AcDbCircle
 10
120.423035
 20
613.817441
 40
2.75
100
AcDbArc
 50
-180.0
 51
0.0
  0
ARC
  5
1E6
100
AcDbEntity
  8
M0
100
AcDbCircle
 10
123.423035
 20
600.317441
 40
1.0
100
AcDbArc
 50
-90.0
 51
0.0
  0
LINE
  5
1E7
100
AcDbEntity
  8
M0
100
AcDbLine
 10
123.423035
 20
599.317441
 11
117.423035
 21
599.317441
  0
ARC
  5
1E8
100
AcDbEntity
  8
M0
100
AcDbCircle
 10
117.423035
 20
600.317441
 40
1.0
100
AcDbArc
 50
180.0
 51
270.0
  0
LINE
  5
1E9
100
AcDbEntity
  8
M0
100
AcDbLine
 10
126.423035
 20
610.317441
 11
124.923035
 21
610.317441
  0
ARC
  5
1EA
100
AcDbEntity
  8
M0
100
AcDbCircle
 10
124.923035
 20
609.817441
 40
0.5
100
AcDbArc
 50
89.998251
 51
180.0
  0
LINE
  5
1EB
100
AcDbEntity
  8
M0
100
AcDbLine
 10
124.423035
 20
618.817441
 11
124.423035
 21
600.317441
  0
ARC
  5
1EC
100
AcDbEntity
  8
M0
100
AcDbCircle
 10
124.923035
 20
618.817441
 40
0.5
100
AcDbArc
 50
89.998251
 51
180.0
  0
CIRCLE
  5
1ED
100
AcDbEntity
  8
M0
100
AcDbCircle
 10
120.423035
 20
573.817441
 40
2.0
  0
LINE
  5
1EE
100
AcDbEntity
  8
M0
  6
DASHDOT
100
AcDbLine
 10
127.423035
 20
573.817441
 11
113.423035
 21
573.817441
  0
LINE
  5
1EF
100
AcDbEntity
  8
M0
100
AcDbLine
 10
126.423035
 20
568.317441
 11
116.423035
 21
568.317441
  0
LINE
  5
1F0
100
AcDbEntity
  8
M0
100
AcDbLine
 10
124.423035
 20
579.317441
 11
116.423035
 21
579.317441
  0
LINE
  5
1F1
100
AcDbEntity
  8
M0
100
AcDbLine
 10
123.173035
 20
583.317441
 11
123.173035
 21
579.317441
  0
ARC
  5
1F2
100
AcDbEntity
  8
M0
100
AcDbCircle
 10
120.423035
 20
583.317441
 40
2.75
100
AcDbArc
 50
0.0
 51
180.0
  0
LINE
  5
1F3
100
AcDbEntity
  8
M0
100
AcDbLine
 10
123.173035
 20
573.817441
 11
123.173035
 21
569.817441
  0
ARC
  5
1F4
100
AcDbEntity
  8
M0
100
AcDbCircle
 10
120.423035
 20
573.817441
 40
2.75
100
AcDbArc
 50
0.0
 51
180.0
  0
ARC
  5
1F5
100
AcDbEntity
  8
M0
100
AcDbCircle
 10
123.423035
 20
587.317441
 40
1.0
100
AcDbArc
 50
0.0
 51
89.999126
  0
LINE
  5
1F6
100
AcDbEntity
  8
M0
100
AcDbLine
 10
123.423035
 20
588.317441
 11
117.423035
 21
588.317441
  0
LINE
  5
1F7
100
AcDbEntity
  8
M0
100
AcDbLine
 10
126.423035
 20
577.317441
 11
124.923035
 21
577.317441
  0
ARC
  5
1F8
100
AcDbEntity
  8
M0
100
AcDbCircle
 10
124.923035
 20
577.817441
 40
0.5
100
AcDbArc
 50
180.0
 51
270.0
  0
LINE
  5
1F9
100
AcDbEntity
  8
M0
100
AcDbLine
 10
124.423035
 20
568.817441
 11
124.423035
 21
587.317441
  0
ARC
  5
1FA
100
AcDbEntity
  8
M0
100
AcDbCircle
 10
124.923035
 20
568.817441
 40
0.5
100
AcDbArc
 50
180.0
 51
270.0
  0
ARC
  5
1FB
100
AcDbEntity
  8
M0
100
AcDbCircle
 10
117.423035
 20
587.317441
 40
1.0
100
AcDbArc
 50
89.999126
 51
180.0
  0
LINE
  5
1FC
100
AcDbEntity
  8
M0
100
AcDbLine
 10
117.673035
 20
583.317441
 11
117.673035
 21
579.317441
  0
LINE
  5
1FD
100
AcDbEntity
  8
M0
100
AcDbLine
 10
117.673035
 20
573.817441
 11
117.673035
 21
569.817441
  0
LINE
  5
1FE
100
AcDbEntity
  8
M0
100
AcDbLine
 10
193.923028
 20
518.817454
 11
217.713349
 21
518.817454
  0
LINE
  5
1FF
100
AcDbEntity
  8
M0
100
AcDbLine
 10
238.673019
 20
518.817454
 11
248.423019
 21
518.817454
  0
LINE
  5
200
100
AcDbEntity
  8
M0
100
AcDbLine
 10
145.132706
 20
518.817454
 11
168.923035
 21
518.817454
  0
LINE
  5
201
100
AcDbEntity
  8
M0
100
AcDbLine
 10
193.923028
 20
680.317441
 11
195.423028
 21
680.317441
  0
LINE
  5
202
100
AcDbEntity
  8
M0
100
AcDbLine
 10
168.923035
 20
668.817441
 11
145.132706
 21
668.817441
  0
LINE
  5
203
100
AcDbEntity
  8
M0
  6
DASHDOT
100
AcDbLine
 10
368.777084
 20
593.817441
 11
471.664215
 21
593.817441
  0
LINE
  5
204
100
AcDbEntity
  8
M0
100
AcDbLine
 10
387.265922
 20
597.567441
 11
387.265922
 21
590.067441
  0
ARC
  5
205
100
AcDbEntity
  8
M0
100
AcDbCircle
 10
381.765923
 20
589.067441
 40
1.0
100
AcDbArc
 50
90.0
 51
180.0
  0
LINE
  5
206
100
AcDbEntity
  8
M0
100
AcDbLine
 10
381.765923
 20
590.067441
 11
387.265922
 21
590.067441
  0
LINE
  5
207
100
AcDbEntity
  8
M0
100
AcDbLine
 10
381.765923
 20
597.567441
 11
387.265922
 21
597.567441
  0
LINE
  5
208
100
AcDbEntity
  8
M0
100
AcDbLine
 10
455.265915
 20
680.317441
 11
442.765915
 21
680.317441
  0
ARC
  5
209
100
AcDbEntity
  8
M0
100
AcDbCircle
 10
442.765915
 20
679.317441
 40
1.0
100
AcDbArc
 50
90.0
 51
180.0
  0
LINE
  5
20A
100
AcDbEntity
  8
M0
100
AcDbLine
 10
441.765915
 20
679.317441
 11
441.765915
 21
630.817441
  0
ARC
  5
20B
100
AcDbEntity
  8
M0
100
AcDbCircle
 10
439.765915
 20
630.817441
 40
2.0
100
AcDbArc
 50
269.999563
 51
360.0
  0
LINE
  5
20C
100
AcDbEntity
  8
M0
100
AcDbLine
 10
431.765915
 20
628.817441
 11
439.765915
 21
628.817441
  0
ARC
  5
20D
100
AcDbEntity
  8
M0
100
AcDbCircle
 10
431.765915
 20
627.817441
 40
1.0
100
AcDbArc
 50
90.0
 51
180.0
  0
ARC
  5
20E
100
AcDbEntity
  8
M0
100
AcDbCircle
 10
382.765923
 20
609.317441
 40
2.0
100
AcDbArc
 50
90.0
 51
180.0
  0
LINE
  5
20F
100
AcDbEntity
  8
M0
100
AcDbLine
 10
400.765922
 20
608.817441
 11
404.765915
 21
608.817441
  0
LINE
  5
210
100
AcDbEntity
  8
M0
100
AcDbLine
 10
382.765923
 20
611.317441
 11
400.765922
 21
611.317441
  0
LINE
  5
211
100
AcDbEntity
  8
M0
100
AcDbLine
 10
400.765922
 20
611.317441
 11
400.765922
 21
608.817441
  0
LINE
  5
212
100
AcDbEntity
  8
M0
100
AcDbLine
 10
404.765915
 20
611.41847
 11
404.765915
 21
608.817441
  0
ARC
  5
213
100
AcDbEntity
  8
M0
100
AcDbCircle
 10
403.765915
 20
616.317441
 40
5.0
100
AcDbArc
 50
281.536771
 51
360.0
  0
LINE
  5
214
100
AcDbEntity
  8
M0
100
AcDbLine
 10
408.765915
 20
619.317441
 11
408.765915
 21
616.317441
  0
ARC
  5
215
100
AcDbEntity
  8
M0
100
AcDbCircle
 10
410.765915
 20
619.317441
 40
2.0
100
AcDbArc
 50
90.0
 51
180.0
  0
LINE
  5
216
100
AcDbEntity
  8
M0
100
AcDbLine
 10
423.765915
 20
620.317441
 11
430.765915
 21
620.317441
  0
LINE
  5
217
100
AcDbEntity
  8
M0
100
AcDbLine
 10
422.765915
 20
621.317441
 11
423.765915
 21
620.317441
  0
LINE
  5
218
100
AcDbEntity
  8
M0
100
AcDbLine
 10
430.765915
 20
627.817441
 11
430.765915
 21
620.317441
  0
LINE
  5
219
100
AcDbEntity
  8
M0
100
AcDbLine
 10
410.765915
 20
621.317441
 11
422.765915
 21
621.317441
  0
LINE
  5
21A
100
AcDbEntity
  8
M0
100
AcDbLine
 10
455.265915
 20
518.817454
 11
416.265915
 21
518.817454
  0
ARC
  5
21B
100
AcDbEntity
  8
M0
100
AcDbCircle
 10
442.765915
 20
519.817454
 40
1.0
100
AcDbArc
 50
180.0
 51
269.999126
  0
LINE
  5
21C
100
AcDbEntity
  8
M0
100
AcDbLine
 10
441.765915
 20
519.817454
 11
441.765915
 21
556.817441
  0
ARC
  5
21D
100
AcDbEntity
  8
M0
100
AcDbCircle
 10
439.765915
 20
556.817441
 40
2.0
100
AcDbArc
 50
0.0
 51
90.0
  0
LINE
  5
21E
100
AcDbEntity
  8
M0
100
AcDbLine
 10
431.765915
 20
558.817441
 11
439.765915
 21
558.817441
  0
ARC
  5
21F
100
AcDbEntity
  8
M0
100
AcDbCircle
 10
431.765915
 20
559.817441
 40
1.0
100
AcDbArc
 50
180.0
 51
269.999126
  0
ARC
  5
220
100
AcDbEntity
  8
M0
100
AcDbCircle
 10
382.765923
 20
578.317441
 40
2.0
100
AcDbArc
 50
180.0
 51
270.0
  0
LINE
  5
221
100
AcDbEntity
  8
M0
100
AcDbLine
 10
400.765922
 20
578.817441
 11
404.765915
 21
578.817441
  0
LINE
  5
222
100
AcDbEntity
  8
M0
100
AcDbLine
 10
382.765923
 20
576.317441
 11
400.765922
 21
576.317441
  0
LINE
  5
223
100
AcDbEntity
  8
M0
100
AcDbLine
 10
400.765922
 20
576.317441
 11
400.765922
 21
578.817441
  0
LINE
  5
224
100
AcDbEntity
  8
M0
100
AcDbLine
 10
404.765915
 20
576.216428
 11
404.765915
 21
578.817441
  0
ARC
  5
225
100
AcDbEntity
  8
M0
100
AcDbCircle
 10
403.765915
 20
571.317441
 40
5.0
100
AcDbArc
 50
0.0
 51
78.463023
  0
LINE
  5
226
100
AcDbEntity
  8
M0
100
AcDbLine
 10
408.765915
 20
568.317441
 11
408.765915
 21
571.317441
  0
ARC
  5
227
100
AcDbEntity
  8
M0
100
AcDbCircle
 10
410.765915
 20
568.317441
 40
2.0
100
AcDbArc
 50
180.0
 51
269.999563
  0
LINE
  5
228
100
AcDbEntity
  8
M0
100
AcDbLine
 10
423.765915
 20
567.317441
 11
430.765915
 21
567.317441
  0
LINE
  5
229
100
AcDbEntity
  8
M0
100
AcDbLine
 10
422.765915
 20
566.317441
 11
423.765915
 21
567.317441
  0
LINE
  5
22A
100
AcDbEntity
  8
M0
100
AcDbLine
 10
430.765915
 20
559.817441
 11
430.765915
 21
567.317441
  0
LINE
  5
22B
100
AcDbEntity
  8
M0
100
AcDbLine
 10
410.765915
 20
566.317441
 11
422.765915
 21
566.317441
  0
LINE
  5
22C
100
AcDbEntity
  8
M0
100
AcDbLine
 10
380.765923
 20
609.317441
 11
380.765923
 21
578.317441
  0
LINE
  5
22D
100
AcDbEntity
  8
M0
100
AcDbLine
 10
455.265915
 20
518.817454
 11
455.265915
 21
571.317441
  0
ARC
  5
22E
100
AcDbEntity
  8
M0
100
AcDbCircle
 10
381.765923
 20
598.567441
 40
1.0
100
AcDbArc
 50
180.0
 51
270.0
  0
LINE
  5
22F
100
AcDbEntity
  8
M0
100
AcDbLine
 10
455.265915
 20
616.317441
 11
455.265915
 21
680.317441
  0
LINE
  5
230
100
AcDbEntity
  8
M0
 62
     4
100
AcDbLine
 10
114.423035
 20
518.817545
 11
124.173035
 21
518.817545
  0
LINE
  5
231
100
AcDbEntity
  8
M0
 62
     4
100
AcDbLine
 10
169.423035
 20
668.816938
 11
166.923035
 21
668.816938
  0
LINE
  5
232
100
AcDbEntity
  8
M0
  6
DASHDOT
 62
     4
100
AcDbLine
 10
181.423035
 20
511.31747
 11
181.423035
 21
684.493635
  0
ARC
  5
233
100
AcDbEntity
  8
M0
 62
     4
100
AcDbCircle
 10
114.423035
 20
520.817545
 40
2.0
100
AcDbArc
 50
179.999973
 51
270.0
  0
LINE
  5
234
100
AcDbEntity
  8
M0
 62
     4
100
AcDbLine
 10
168.923035
 20
680.317136
 11
143.923035
 21
680.317045
  0
ARC
  5
235
100
AcDbEntity
  8
M0
 62
     4
100
AcDbCircle
 10
114.423035
 20
678.316938
 40
2.0
100
AcDbArc
 50
89.999563
 51
180.0
  0
LINE
  5
236
100
AcDbEntity
  8
M0
  6
DASHDOT
 62
     4
100
AcDbLine
 10
162.423035
 20
678.456586
 11
162.423035
 21
668.816938
  0
LINE
  5
237
100
AcDbEntity
  8
M0
 62
     4
100
AcDbLine
 10
166.423035
 20
678.317426
 11
166.423035
 21
669.316694
  0
LINE
  5
238
100
AcDbEntity
  8
M0
 62
     4
100
AcDbLine
 10
158.423035
 20
679.816938
 11
158.423035
 21
669.316694
  0
LINE
  5
239
100
AcDbEntity
  8
M0
 62
     4
100
AcDbLine
 10
165.173035
 20
673.317426
 11
165.173035
 21
669.317426
  0
LINE
  5
23A
100
AcDbEntity
  8
M0
 62
     4
100
AcDbLine
 10
159.673035
 20
673.317426
 11
159.673035
 21
669.317426
  0
LINE
  5
23B
100
AcDbEntity
  8
M0
  6
DASHDOT
 62
     4
100
AcDbLine
 10
144.423035
 20
673.317426
 11
152.423035
 21
673.317426
  0
ARC
  5
23C
100
AcDbEntity
  8
M0
 62
     4
100
AcDbCircle
 10
162.423035
 20
673.317426
 40
2.75
100
AcDbArc
 50
0.0
 51
180.0
  0
CIRCLE
  5
23D
100
AcDbEntity
  8
M0
 62
     4
100
AcDbCircle
 10
162.423035
 20
673.317426
 40
2.0
  0
LINE
  5
23E
100
AcDbEntity
  8
M0
 62
     4
100
AcDbLine
 10
144.423035
 20
669.317426
 11
152.423035
 21
669.317426
  0
LINE
  5
23F
100
AcDbEntity
  8
M0
 62
     4
100
AcDbLine
 10
157.923035
 20
668.816938
 11
152.923035
 21
668.816938
  0
LINE
  5
240
100
AcDbEntity
  8
M0
 62
     4
100
AcDbLine
 10
144.423035
 20
677.817426
 11
152.423035
 21
677.817426
  0
ARC
  5
241
100
AcDbEntity
  8
M0
 62
     4
100
AcDbCircle
 10
166.923035
 20
669.316694
 40
0.5
100
AcDbArc
 50
180.0
 51
270.0
  0
ARC
  5
242
100
AcDbEntity
  8
M0
 62
     4
100
AcDbCircle
 10
157.923035
 20
669.316694
 40
0.5
100
AcDbArc
 50
270.0
 51
360.0
  0
LINE
  5
243
100
AcDbEntity
  8
M0
  6
DASHDOT
 62
     4
100
AcDbLine
 10
148.423035
 20
678.547163
 11
148.423035
 21
668.816938
  0
LINE
  5
244
100
AcDbEntity
  8
M0
 62
     4
100
AcDbLine
 10
152.423035
 20
679.816938
 11
152.423035
 21
669.316694
  0
LINE
  5
245
100
AcDbEntity
  8
M0
 62
     4
100
AcDbLine
 10
144.423035
 20
677.817426
 11
144.423035
 21
668.817533
  0
LINE
  5
246
100
AcDbEntity
  8
M0
 62
     4
100
AcDbLine
 10
158.423035
 20
669.317426
 11
166.423035
 21
669.317426
  0
LINE
  5
247
100
AcDbEntity
  8
M0
  6
DASHDOT
 62
     4
100
AcDbLine
 10
158.423035
 20
673.317426
 11
166.423035
 21
673.317426
  0
LINE
  5
248
100
AcDbEntity
  8
M0
 62
     4
100
AcDbLine
 10
158.423035
 20
677.817426
 11
166.423035
 21
677.817426
  0
LINE
  5
249
100
AcDbEntity
  8
M0
 62
     4
100
AcDbLine
 10
154.423035
 20
679.816938
 11
154.423035
 21
678.817426
  0
LINE
  5
24A
100
AcDbEntity
  8
M0
 62
     4
100
AcDbLine
 10
156.423035
 20
679.816938
 11
156.423035
 21
678.817426
  0
ARC
  5
24B
100
AcDbEntity
  8
M0
 62
     4
100
AcDbCircle
 10
152.923035
 20
669.316694
 40
0.5
100
AcDbArc
 50
180.0
 51
270.0
  0
ARC
  5
24C
100
AcDbEntity
  8
M0
 62
     4
100
AcDbCircle
 10
156.923035
 20
679.816938
 40
0.5
100
AcDbArc
 50
89.998251
 51
180.0
  0
ARC
  5
24D
100
AcDbEntity
  8
M0
 62
     4
100
AcDbCircle
 10
152.923035
 20
679.816938
 40
0.5
100
AcDbArc
 50
89.998251
 51
180.0
  0
ARC
  5
24E
100
AcDbEntity
  8
M0
 62
     4
100
AcDbCircle
 10
157.923035
 20
679.816938
 40
0.5
100
AcDbArc
 50
0.0
 51
89.998251
  0
ARC
  5
24F
100
AcDbEntity
  8
M0
 62
     4
100
AcDbCircle
 10
153.923035
 20
679.816938
 40
0.5
100
AcDbArc
 50
0.0
 51
89.998251
  0
LINE
  5
250
100
AcDbEntity
  8
M0
 62
     4
100
AcDbLine
 10
151.173035
 20
673.317426
 11
151.173035
 21
669.317426
  0
LINE
  5
251
100
AcDbEntity
  8
M0
 62
     4
100
AcDbLine
 10
145.673035
 20
673.317426
 11
145.673035
 21
669.317426
  0
ARC
  5
252
100
AcDbEntity
  8
M0
 62
     4
100
AcDbCircle
 10
143.923035
 20
677.817426
 40
0.5
100
AcDbArc
 50
0.0
 51
89.998251
  0
LINE
  5
253
100
AcDbEntity
  8
M0
 62
     4
100
AcDbLine
 10
154.423035
 20
678.817426
 11
156.423035
 21
678.817426
  0
LINE
  5
254
100
AcDbEntity
  8
M0
  6
DIVIDE
 62
     4
100
AcDbLine
 10
152.923035
 20
676.817426
 11
152.923035
 21
673.317426
  0
LINE
  5
255
100
AcDbEntity
  8
M0
  6
DIVIDE
 62
     4
100
AcDbLine
 10
157.923035
 20
676.817426
 11
157.923035
 21
673.317426
  0
LINE
  5
256
100
AcDbEntity
  8
M0
  6
DIVIDE
 62
     4
100
AcDbLine
 10
152.923035
 20
676.817426
 11
157.923035
 21
676.817426
  0
LINE
  5
257
100
AcDbEntity
  8
M0
  6
DIVIDE
 62
     4
100
AcDbLine
 10
152.923035
 20
673.317426
 11
157.923035
 21
673.317426
  0
LINE
  5
258
100
AcDbEntity
  8
M0
 62
     4
100
AcDbLine
 10
248.422989
 20
518.817484
 11
238.673065
 21
518.817493
  0
LINE
  5
259
100
AcDbEntity
  8
M0
 62
     4
100
AcDbLine
 10
250.42308
 20
678.316694
 11
250.422989
 21
520.817484
  0
ARC
  5
25A
100
AcDbEntity
  8
M0
 62
     4
100
AcDbCircle
 10
248.422989
 20
520.817484
 40
2.0
100
AcDbArc
 50
-90.000437
 51
0.0
  0
LINE
  5
25B
100
AcDbEntity
  8
M0
 62
     4
100
AcDbLine
 10
193.923028
 20
680.316892
 11
218.923019
 21
680.316801
  0
ARC
  5
25C
100
AcDbEntity
  8
M0
 62
     4
100
AcDbCircle
 10
248.42308
 20
678.316694
 40
2.0
100
AcDbArc
 50
0.0
 51
90.0
  0
LINE
  5
25D
100
AcDbEntity
  8
M0
 62
     4
100
AcDbLine
 10
196.423104
 20
678.317182
 11
196.423104
 21
669.317182
  0
LINE
  5
25E
100
AcDbEntity
  8
M0
 62
     4
100
AcDbLine
 10
204.423088
 20
677.816694
 11
204.423088
 21
668.817533
  0
LINE
  5
25F
100
AcDbEntity
  8
M0
 62
     4
100
AcDbLine
 10
197.673089
 20
673.317182
 11
197.673089
 21
669.317182
  0
LINE
  5
260
100
AcDbEntity
  8
M0
 62
     4
100
AcDbLine
 10
203.173088
 20
673.317182
 11
203.173088
 21
669.317182
  0
LINE
  5
261
100
AcDbEntity
  8
M0
  6
DASHDOT
 62
     4
100
AcDbLine
 10
204.423088
 20
673.317182
 11
196.423104
 21
673.317182
  0
ARC
  5
262
100
AcDbEntity
  8
M0
 62
     4
100
AcDbCircle
 10
200.423089
 20
673.317182
 40
2.75
100
AcDbArc
 50
0.0
 51
180.0
  0
CIRCLE
  5
263
100
AcDbEntity
  8
M0
 62
     4
100
AcDbCircle
 10
200.423089
 20
673.317182
 40
2.0
  0
LINE
  5
264
100
AcDbEntity
  8
M0
 62
     4
100
AcDbLine
 10
204.423088
 20
669.317182
 11
196.423104
 21
669.317182
  0
LINE
  5
265
100
AcDbEntity
  8
M0
 62
     4
100
AcDbLine
 10
204.423088
 20
677.817182
 11
196.423104
 21
677.817182
  0
LINE
  5
266
100
AcDbEntity
  8
M0
 62
     4
100
AcDbLine
 10
208.423088
 20
679.316938
 11
208.423088
 21
670.816938
  0
LINE
  5
267
100
AcDbEntity
  8
M0
 62
     4
100
AcDbLine
 10
207.923027
 20
668.816938
 11
217.71287
 21
668.816938
  0
ARC
  5
268
100
AcDbEntity
  8
M0
 62
     4
100
AcDbCircle
 10
210.423088
 20
670.816938
 40
2.0
100
AcDbArc
 50
180.0
 51
270.0
  0
ARC
  5
269
100
AcDbEntity
  8
M0
 62
     4
100
AcDbCircle
 10
207.923027
 20
668.316938
 40
0.5
100
AcDbArc
 50
90.0
 51
180.0
  0
LINE
  5
26A
100
AcDbEntity
  8
M0
 62
     4
100
AcDbLine
 10
204.923088
 20
678.316694
 11
207.923088
 21
678.316694
  0
ARC
  5
26B
100
AcDbEntity
  8
M0
 62
     4
100
AcDbCircle
 10
204.923088
 20
677.816694
 40
0.5
100
AcDbArc
 50
90.0
 51
180.0
  0
ARC
  5
26C
100
AcDbEntity
  8
M0
 62
     4
100
AcDbCircle
 10
207.923088
 20
677.816694
 40
0.5
100
AcDbArc
 50
0.0
 51
90.0
  0
CIRCLE
  5
26D
100
AcDbEntity
  8
M0
 62
     4
100
AcDbCircle
 10
148.423035
 20
673.317426
 40
2.0
  0
ARC
  5
26E
100
AcDbEntity
  8
M0
 62
     4
100
AcDbCircle
 10
148.423035
 20
673.317426
 40
2.75
100
AcDbArc
 50
0.0
 51
180.0
  0
LINE
  5
26F
100
AcDbEntity
  8
M0
 62
     4
100
AcDbLine
 10
112.423035
 20
678.316938
 11
112.423035
 21
520.817545
  0
LINE
  5
270
100
AcDbEntity
  8
M0
  6
DASHDOT
 62
     4
100
AcDbLine
 10
107.423035
 20
593.817533
 11
257.92308
 21
593.817533
  0
ARC
  5
271
100
AcDbEntity
  8
M0
 62
     4
100
AcDbCircle
 10
207.423088
 20
679.316938
 40
1.0
100
AcDbArc
 50
0.0
 51
90.0
  0
LINE
  5
272
100
AcDbEntity
  8
M0
 62
     4
100
AcDbLine
 10
217.713376
 20
518.817512
 11
193.923028
 21
518.817534
  0
LINE
  5
273
100
AcDbEntity
  8
M0
 62
     4
100
AcDbLine
 10
145.132706
 20
518.817545
 11
168.923035
 21
518.817545
  0
LINE
  5
274
100
AcDbEntity
  8
M0
 62
     4
100
AcDbLine
 10
118.923035
 20
680.316953
 11
114.423035
 21
680.316938
  0
LINE
  5
275
100
AcDbEntity
  8
M0
 62
     4
100
AcDbLine
 10
243.923019
 20
680.316709
 11
248.42308
 21
680.316694
  0
LINE
  5
276
100
AcDbEntity
  8
M0
  6
DASHDOT
 62
     4
100
AcDbLine
 10
200.423028
 20
678.456586
 11
200.423028
 21
668.816938
  0
TEXT
  5
277
100
AcDbEntity
  8
M0
 62
     4
100
AcDbText
 10
153.098063
 20
673.367246
 40
3.5
  1
Ａ２
 41
0.64286
  7
STANDARD
100
AcDbText
  0
LINE
  5
278
100
AcDbEntity
  8
M0
 62
     4
100
AcDbLine
 10
455.265915
 20
518.817441
 11
521.265915
 21
518.817441
  0
LINE
  5
279
100
AcDbEntity
  8
M0
  6
DASHDOT
 62
     4
100
AcDbLine
 10
450.265915
 20
593.817441
 11
526.265915
 21
593.817441
  0
LINE
  5
27A
100
AcDbEntity
  8
M0
 62
     4
100
AcDbLine
 10
445.765915
 20
615.317441
 11
445.765915
 21
601.817441
  0
LINE
  5
27B
100
AcDbEntity
  8
M0
 62
     4
100
AcDbLine
 10
446.765915
 20
616.317441
 11
455.265915
 21
616.317441
  0
LINE
  5
27C
100
AcDbEntity
  8
M0
 62
     4
100
AcDbLine
 10
446.765915
 20
571.317441
 11
455.265915
 21
571.317441
  0
LINE
  5
27D
100
AcDbEntity
  8
M0
 62
     4
100
AcDbLine
 10
448.765915
 20
599.817441
 11
465.06572
 21
599.817441
  0
LINE
  5
27E
100
AcDbEntity
  8
M0
 62
     4
100
AcDbLine
 10
448.765915
 20
587.817441
 11
465.06572
 21
587.817441
  0
LINE
  5
27F
100
AcDbEntity
  8
M0
 62
     4
100
AcDbLine
 10
465.06572
 20
599.817441
 11
465.06572
 21
595.817441
  0
LINE
  5
280
100
AcDbEntity
  8
M0
 62
     4
100
AcDbLine
 10
464.06572
 20
594.817441
 11
464.06572
 21
592.817441
  0
LINE
  5
281
100
AcDbEntity
  8
M0
 62
     4
100
AcDbLine
 10
464.06572
 20
592.817441
 11
465.06572
 21
591.817441
  0
LINE
  5
282
100
AcDbEntity
  8
M0
 62
     4
100
AcDbLine
 10
464.06572
 20
594.817441
 11
465.06572
 21
595.817441
  0
LINE
  5
283
100
AcDbEntity
  8
M0
 62
     4
100
AcDbLine
 10
465.06572
 20
591.817441
 11
465.06572
 21
587.817441
  0
LINE
  5
284
100
AcDbEntity
  8
M0
 62
     4
100
AcDbLine
 10
446.765915
 20
600.817441
 11
447.765915
 21
600.817441
  0
LINE
  5
285
100
AcDbEntity
  8
M0
 62
     4
100
AcDbLine
 10
446.765915
 20
586.817441
 11
447.765915
 21
586.817441
  0
LINE
  5
286
100
AcDbEntity
  8
M0
 62
     4
100
AcDbLine
 10
445.765915
 20
585.817441
 11
445.765915
 21
572.317441
  0
LINE
  5
287
100
AcDbEntity
  8
M0
 62
     4
100
AcDbLine
 10
455.265915
 20
571.317441
 11
455.265915
 21
518.817441
  0
ARC
  5
288
100
AcDbEntity
  8
M0
 62
     4
100
AcDbCircle
 10
446.765915
 20
615.317441
 40
1.0
100
AcDbArc
 50
90.0
 51
180.0
  0
ARC
  5
289
100
AcDbEntity
  8
M0
 62
     4
100
AcDbCircle
 10
446.765915
 20
572.317441
 40
1.0
100
AcDbArc
 50
180.0
 51
269.999126
  0
ARC
  5
28A
100
AcDbEntity
  8
M0
 62
     4
100
AcDbCircle
 10
446.765915
 20
601.817441
 40
1.0
100
AcDbArc
 50
180.0
 51
269.999126
  0
ARC
  5
28B
100
AcDbEntity
  8
M0
 62
     4
100
AcDbCircle
 10
448.765915
 20
600.817441
 40
1.0
100
AcDbArc
 50
180.0
 51
269.999126
  0
ARC
  5
28C
100
AcDbEntity
  8
M0
 62
     4
100
AcDbCircle
 10
446.765915
 20
585.817441
 40
1.0
100
AcDbArc
 50
90.0
 51
180.0
  0
ARC
  5
28D
100
AcDbEntity
  8
M0
 62
     4
100
AcDbCircle
 10
448.765915
 20
586.817441
 40
1.0
100
AcDbArc
 50
90.0
 51
180.0
  0
ARC
  5
28E
100
AcDbEntity
  8
M0
 62
     4
100
AcDbCircle
 10
463.06572
 20
598.817441
 40
2.0
100
AcDbArc
 50
0.0
 51
30.001722
  0
ARC
  5
28F
100
AcDbEntity
  8
M0
 62
     4
100
AcDbCircle
 10
463.06572
 20
588.817441
 40
2.0
100
AcDbArc
 50
329.9979
 51
360.0
  0
ARC
  5
290
100
AcDbEntity
  8
M0
 62
     4
100
AcDbCircle
 10
463.06572
 20
588.817441
 40
2.0
100
AcDbArc
 50
269.999563
 51
329.9979
  0
LINE
  5
291
100
AcDbEntity
  8
M0
 62
     4
100
AcDbLine
 10
447.765915
 20
586.817441
 11
463.06572
 21
586.817441
  0
LINE
  5
292
100
AcDbEntity
  8
M0
 62
     4
100
AcDbLine
 10
447.765915
 20
600.817441
 11
463.06572
 21
600.817441
  0
ARC
  5
293
100
AcDbEntity
  8
M0
 62
     4
100
AcDbCircle
 10
463.06572
 20
598.817441
 40
2.0
100
AcDbArc
 50
30.001722
 51
90.0
  0
LINE
  5
294
100
AcDbEntity
  8
M0
 62
     4
100
AcDbLine
 10
521.265915
 20
518.817441
 11
521.265915
 21
680.317045
  0
LINE
  5
295
100
AcDbEntity
  8
M0
 62
     4
100
AcDbLine
 10
455.265915
 20
680.317045
 11
455.265915
 21
616.317441
  0
LINE
  5
296
100
AcDbEntity
  8
M0
 62
     4
100
AcDbLine
 10
521.265915
 20
680.317289
 11
455.265915
 21
680.317289
  0
LINE
  5
297
100
AcDbEntity
  8
M0
100
AcDbLine
 10
415.265869
 20
667.817609
 11
415.265869
 21
621.317609
  0
LINE
  5
298
100
AcDbEntity
  8
M0
100
AcDbLine
 10
416.265869
 20
668.817609
 11
441.765869
 21
668.817609
  0
ARC
  5
299
100
AcDbEntity
  8
M0
100
AcDbCircle
 10
416.265869
 20
667.817609
 40
1.0
100
AcDbArc
 50
90.0
 51
180.0
  0
ARC
  5
29A
100
AcDbEntity
  8
M0
100
AcDbCircle
 10
416.265869
 20
519.817609
 40
1.0
100
AcDbArc
 50
180.0
 51
269.986012
  0
LINE
  5
29B
100
AcDbEntity
  8
M0
100
AcDbLine
 10
415.265869
 20
566.317609
 11
415.265869
 21
519.817609
  0
LINE
  5
29C
100
AcDbEntity
  8
M0
100
AcDbLine
 10
435.265869
 20
598.817609
 11
435.265869
 21
588.817609
  0
LINE
  5
29D
100
AcDbEntity
  8
M0
100
AcDbLine
 10
445.765869
 20
611.797834
 11
445.765869
 21
584.134992
  0
LINE
  5
29E
100
AcDbEntity
  8
M0
100
AcDbLine
 10
437.265869
 20
586.817609
 11
445.765869
 21
586.817609
  0
LINE
  5
29F
100
AcDbEntity
  8
M0
100
AcDbLine
 10
437.265869
 20
600.817609
 11
445.765869
 21
600.817609
  0
ARC
  5
2A0
100
AcDbEntity
  8
M0
100
AcDbCircle
 10
437.265869
 20
598.817609
 40
2.0
100
AcDbArc
 50
90.0
 51
180.0
  0
ARC
  5
2A1
100
AcDbEntity
  8
M0
100
AcDbCircle
 10
437.265869
 20
588.817609
 40
2.0
100
AcDbArc
 50
180.0
 51
269.993006
  0
LINE
  5
2A2
100
AcDbEntity
  8
M0
100
AcDbLine
 10
168.922999
 20
492.31745
 11
193.922999
 21
492.317458
  0
LINE
  5
2A3
100
AcDbEntity
  8
M0
100
AcDbLine
 10
193.922999
 20
492.317458
 11
193.92299
 21
518.817458
  0
LINE
  5
2A4
100
AcDbEntity
  8
M0
100
AcDbLine
 10
191.422989
 20
523.317457
 11
193.92299
 21
518.817458
  0
LINE
  5
2A5
100
AcDbEntity
  8
M0
100
AcDbLine
 10
171.422989
 20
523.317451
 11
168.92299
 21
518.81745
  0
LINE
  5
2A6
100
AcDbEntity
  8
M0
100
AcDbLine
 10
168.92299
 20
518.81745
 11
168.922999
 21
492.31745
  0
LINE
  5
2A7
100
AcDbEntity
  8
M0
100
AcDbLine
 10
171.422987
 20
528.817451
 11
171.422989
 21
523.317451
  0
LINE
  5
2A8
100
AcDbEntity
  8
M0
100
AcDbLine
 10
191.422987
 20
528.817457
 11
191.422989
 21
523.317457
  0
CIRCLE
  5
2A9
100
AcDbEntity
  8
M0
100
AcDbCircle
 10
181.422994
 20
505.817439
 40
5.0
  0
LINE
  5
2AA
100
AcDbEntity
  8
M0
  6
DASHDOT
100
AcDbLine
 10
181.422988
 20
525.832453
 11
181.423001
 21
485.802424
  0
LINE
  5
2AB
100
AcDbEntity
  8
M0
  6
DASHDOT
100
AcDbLine
 10
161.40798
 20
505.817432
 11
201.438009
 21
505.817445
  0
LINE
  5
2AC
100
AcDbEntity
  8
M0
100
AcDbLine
 10
189.42302
 20
583.817487
 11
173.423035
 21
583.817487
  0
LINE
  5
2AD
100
AcDbEntity
  8
M0
100
AcDbLine
 10
189.42302
 20
587.817487
 11
189.42302
 21
583.817487
  0
LINE
  5
2AE
100
AcDbEntity
  8
M0
100
AcDbLine
 10
173.423035
 20
587.817487
 11
173.423035
 21
583.817487
  0
LINE
  5
2AF
100
AcDbEntity
  8
M0
100
AcDbLine
 10
173.123032
 20
587.817487
 11
173.423035
 21
587.817487
  0
LINE
  5
2B0
100
AcDbEntity
  8
M0
100
AcDbLine
 10
189.72302
 20
604.117536
 11
185.423035
 21
604.117536
  0
LINE
  5
2B1
100
AcDbEntity
  8
M0
100
AcDbLine
 10
192.72302
 20
601.117536
 11
192.72302
 21
590.817487
  0
LINE
  5
2B2
100
AcDbEntity
  8
M0
100
AcDbLine
 10
170.123032
 20
601.117536
 11
170.123032
 21
590.817487
  0
ARC
  5
2B3
100
AcDbEntity
  8
M0
100
AcDbCircle
 10
189.72302
 20
601.117536
 40
3.0
100
AcDbArc
 50
0.0
 51
90.0
  0
ARC
  5
2B4
100
AcDbEntity
  8
M0
100
AcDbCircle
 10
173.123032
 20
601.117536
 40
3.0
100
AcDbArc
 50
89.999709
 51
180.0
  0
ARC
  5
2B5
100
AcDbEntity
  8
M0
100
AcDbCircle
 10
173.123032
 20
590.817487
 40
3.0
100
AcDbArc
 50
180.0
 51
270.0
  0
ARC
  5
2B6
100
AcDbEntity
  8
M0
100
AcDbCircle
 10
189.72302
 20
590.817487
 40
3.0
100
AcDbArc
 50
270.0
 51
360.0
  0
LINE
  5
2B7
100
AcDbEntity
  8
M0
100
AcDbLine
 10
185.423035
 20
606.817487
 11
184.173035
 21
606.817487
  0
LINE
  5
2B8
100
AcDbEntity
  8
M0
100
AcDbLine
 10
183.173035
 20
609.817487
 11
179.673035
 21
609.817487
  0
LINE
  5
2B9
100
AcDbEntity
  8
M0
100
AcDbLine
 10
184.173035
 20
608.817487
 11
184.173035
 21
606.817487
  0
LINE
  5
2BA
100
AcDbEntity
  8
M0
100
AcDbLine
 10
178.673035
 20
608.817487
 11
178.673035
 21
606.817487
  0
LINE
  5
2BB
100
AcDbEntity
  8
M0
100
AcDbLine
 10
185.423035
 20
606.817487
 11
185.423035
 21
604.117536
  0
LINE
  5
2BC
100
AcDbEntity
  8
M0
100
AcDbLine
 10
177.423035
 20
606.817487
 11
177.423035
 21
604.117536
  0
ARC
  5
2BD
100
AcDbEntity
  8
M0
100
AcDbCircle
 10
183.173035
 20
608.817487
 40
1.0
100
AcDbArc
 50
0.0
 51
89.999126
  0
ARC
  5
2BE
100
AcDbEntity
  8
M0
100
AcDbCircle
 10
179.673035
 20
608.817487
 40
1.0
100
AcDbArc
 50
89.999126
 51
180.0
  0
LINE
  5
2BF
100
AcDbEntity
  8
M0
100
AcDbLine
 10
189.42302
 20
587.817487
 11
189.72302
 21
587.817487
  0
LINE
  5
2C0
100
AcDbEntity
  8
M0
100
AcDbLine
 10
177.423035
 20
604.117536
 11
173.123032
 21
604.117536
  0
LINE
  5
2C1
100
AcDbEntity
  8
M0
100
AcDbLine
 10
178.673035
 20
606.817487
 11
177.423035
 21
606.817487
  0
LINE
  5
2C2
100
AcDbEntity
  8
M0
100
AcDbLine
 10
421.065964
 20
695.317487
 11
421.065964
 21
668.817487
  0
LINE
  5
2C3
100
AcDbEntity
  8
M0
100
AcDbLine
 10
425.865967
 20
695.317487
 11
425.865967
 21
668.817487
  0
LINE
  5
2C4
100
AcDbEntity
  8
M0
100
AcDbLine
 10
421.065964
 20
695.317487
 11
425.865967
 21
695.317487
  0
LINE
  5
2C5
100
AcDbEntity
  8
M0
100
AcDbLine
 10
421.065964
 20
695.317487
 11
425.865967
 21
695.317487
  0
LINE
  5
2C6
100
AcDbEntity
  8
M0
100
AcDbLine
 10
421.065964
 20
492.317594
 11
425.865967
 21
492.317594
  0
LINE
  5
2C7
100
AcDbEntity
  8
M0
100
AcDbLine
 10
421.065964
 20
492.317594
 11
425.865967
 21
492.317594
  0
LINE
  5
2C8
100
AcDbEntity
  8
M0
100
AcDbLine
 10
421.065964
 20
492.317594
 11
421.065964
 21
518.817487
  0
LINE
  5
2C9
100
AcDbEntity
  8
M0
100
AcDbLine
 10
425.865967
 20
492.317594
 11
425.865967
 21
518.817487
  0
LINE
  5
2CA
100
AcDbEntity
  8
M0
100
AcDbLine
 10
178.423035
 20
591.567243
 11
184.423035
 21
591.567243
  0
LINE
  5
2CB
100
AcDbEntity
  8
M0
100
AcDbLine
 10
184.423035
 20
591.567243
 11
184.423035
 21
596.067243
  0
LINE
  5
2CC
100
AcDbEntity
  8
M0
100
AcDbLine
 10
184.423035
 20
596.067243
 11
178.423035
 21
596.067243
  0
LINE
  5
2CD
100
AcDbEntity
  8
M0
100
AcDbLine
 10
178.423035
 20
596.067243
 11
178.423035
 21
591.567243
  0
CIRCLE
  5
2CE
100
AcDbEntity
  8
M0
100
AcDbCircle
 10
231.423019
 20
505.817426
 40
5.0
  0
LINE
  5
2CF
100
AcDbEntity
  8
M0
  6
DASHDOT
100
AcDbLine
 10
211.408005
 20
505.817426
 11
251.438034
 21
505.817426
  0
LINE
  5
2D0
100
AcDbEntity
  8
M0
  6
DASHDOT
100
AcDbLine
 10
231.423019
 20
485.802412
 11
231.423019
 21
525.832441
  0
LINE
  5
2D1
100
AcDbEntity
  8
M0
100
AcDbLine
 10
218.923019
 20
492.317441
 11
243.923019
 21
492.317441
  0
LINE
  5
2D2
100
AcDbEntity
  8
M0
100
AcDbLine
 10
218.923019
 20
492.317441
 11
218.923019
 21
517.317441
  0
LINE
  5
2D3
100
AcDbEntity
  8
M0
100
AcDbLine
 10
209.648819
 20
528.817441
 11
218.923019
 21
517.317441
  0
LINE
  5
2D4
100
AcDbEntity
  8
M0
100
AcDbLine
 10
243.923019
 20
492.317441
 11
243.923019
 21
512.817441
  0
LINE
  5
2D5
100
AcDbEntity
  8
M0
100
AcDbLine
 10
229.923019
 20
528.817441
 11
243.923019
 21
512.817441
  0
LINE
  5
2D6
100
AcDbEntity
  8
M0
100
AcDbLine
 10
153.197235
 20
528.817441
 11
143.923035
 21
517.317441
  0
LINE
  5
2D7
100
AcDbEntity
  8
M0
100
AcDbLine
 10
143.923035
 20
492.317441
 11
143.923035
 21
517.317441
  0
LINE
  5
2D8
100
AcDbEntity
  8
M0
100
AcDbLine
 10
143.923035
 20
492.317441
 11
118.923035
 21
492.317441
  0
CIRCLE
  5
2D9
100
AcDbEntity
  8
M0
100
AcDbCircle
 10
131.42305
 20
505.817426
 40
5.0
  0
LINE
  5
2DA
100
AcDbEntity
  8
M0
  6
DASHDOT
100
AcDbLine
 10
131.42305
 20
485.802412
 11
131.42305
 21
525.832441
  0
LINE
  5
2DB
100
AcDbEntity
  8
M0
  6
DASHDOT
100
AcDbLine
 10
151.438064
 20
505.817426
 11
111.408035
 21
505.817426
  0
LINE
  5
2DC
100
AcDbEntity
  8
M0
100
AcDbLine
 10
118.923035
 20
492.317441
 11
118.923035
 21
512.817441
  0
LINE
  5
2DD
100
AcDbEntity
  8
M0
100
AcDbLine
 10
132.923035
 20
528.817441
 11
118.923035
 21
512.817441
  0
CIRCLE
  5
2DE
100
AcDbEntity
  8
M0
100
AcDbCircle
 10
231.422956
 20
681.817466
 40
5.0
  0
LINE
  5
2DF
100
AcDbEntity
  8
M0
  6
DASHDOT
100
AcDbLine
 10
211.407941
 20
681.817454
 11
251.43797
 21
681.817479
  0
LINE
  5
2E0
100
AcDbEntity
  8
M0
  6
DASHDOT
100
AcDbLine
 10
231.422958
 20
702.832481
 11
231.422983
 21
662.802451
  0
LINE
  5
2E1
100
AcDbEntity
  8
M0
100
AcDbLine
 10
218.922962
 20
695.317458
 11
243.922962
 21
695.317474
  0
LINE
  5
2E2
100
AcDbEntity
  8
M0
100
AcDbLine
 10
218.922962
 20
695.317458
 11
218.922978
 21
670.317458
  0
LINE
  5
2E3
100
AcDbEntity
  8
M0
100
AcDbLine
 10
209.648785
 20
658.817452
 11
218.922978
 21
670.317458
  0
LINE
  5
2E4
100
AcDbEntity
  8
M0
100
AcDbLine
 10
243.922962
 20
695.317474
 11
243.922975
 21
674.817474
  0
LINE
  5
2E5
100
AcDbEntity
  8
M0
100
AcDbLine
 10
229.922985
 20
658.817465
 11
243.922975
 21
674.817474
  0
LINE
  5
2E6
100
AcDbEntity
  8
M0
100
AcDbLine
 10
153.197201
 20
658.817417
 11
143.922993
 21
670.317411
  0
LINE
  5
2E7
100
AcDbEntity
  8
M0
100
AcDbLine
 10
143.922978
 20
695.317411
 11
143.922993
 21
670.317411
  0
LINE
  5
2E8
100
AcDbEntity
  8
M0
100
AcDbLine
 10
143.922978
 20
695.317411
 11
118.922978
 21
695.317395
  0
CIRCLE
  5
2E9
100
AcDbEntity
  8
M0
100
AcDbCircle
 10
131.422986
 20
681.817403
 40
5.0
  0
LINE
  5
2EA
100
AcDbEntity
  8
M0
  6
DASHDOT
100
AcDbLine
 10
131.422973
 20
702.832418
 11
131.422998
 21
662.802389
  0
LINE
  5
2EB
100
AcDbEntity
  8
M0
  6
DASHDOT
100
AcDbLine
 10
151.438001
 20
681.817416
 11
111.407972
 21
681.817391
  0
LINE
  5
2EC
100
AcDbEntity
  8
M0
100
AcDbLine
 10
118.922978
 20
695.317395
 11
118.922991
 21
674.817395
  0
LINE
  5
2ED
100
AcDbEntity
  8
M0
100
AcDbLine
 10
132.923001
 20
658.817404
 11
118.922991
 21
674.817395
  0
LINE
  5
2EE
100
AcDbEntity
  8
M0
100
AcDbLine
 10
168.922991
 20
695.31745
 11
193.922991
 21
695.317458
  0
LINE
  5
2EF
100
AcDbEntity
  8
M0
100
AcDbLine
 10
193.922991
 20
695.317458
 11
193.922999
 21
668.817458
  0
LINE
  5
2F0
100
AcDbEntity
  8
M0
100
AcDbLine
 10
191.423001
 20
664.317457
 11
193.922999
 21
668.817458
  0
LINE
  5
2F1
100
AcDbEntity
  8
M0
100
AcDbLine
 10
171.423001
 20
664.317451
 11
168.922999
 21
668.81745
  0
LINE
  5
2F2
100
AcDbEntity
  8
M0
100
AcDbLine
 10
168.922999
 20
668.81745
 11
168.922991
 21
695.31745
  0
LINE
  5
2F3
100
AcDbEntity
  8
M0
100
AcDbLine
 10
171.423002
 20
658.817451
 11
171.423001
 21
664.317451
  0
LINE
  5
2F4
100
AcDbEntity
  8
M0
100
AcDbLine
 10
191.423002
 20
658.817457
 11
191.423001
 21
664.317457
  0
CIRCLE
  5
2F5
100
AcDbEntity
  8
M0
100
AcDbCircle
 10
181.422995
 20
681.817454
 40
5.0
  0
LINE
  5
2F6
100
AcDbEntity
  8
M0
  6
DASHDOT
100
AcDbLine
 10
181.423001
 20
662.802439
 11
181.422989
 21
702.832468
  0
LINE
  5
2F7
100
AcDbEntity
  8
M0
  6
DASHDOT
100
AcDbLine
 10
161.40798
 20
681.817447
 11
201.43801
 21
681.81746
  0
LINE
  5
2F8
100
AcDbEntity
  8
M0
 62
     6
100
AcDbLine
 10
395.865776
 20
676.817441
 11
395.865776
 21
686.817213
  0
LINE
  5
2F9
100
AcDbEntity
  8
M0
 62
     6
100
AcDbLine
 10
395.865776
 20
686.817213
 11
408.965774
 21
686.817213
  0
LINE
  5
2FA
100
AcDbEntity
  8
M0
 62
     6
100
AcDbLine
 10
432.865768
 20
676.817441
 11
425.865768
 21
676.817441
  0
LINE
  5
2FB
100
AcDbEntity
  8
M0
  6
DASHDOT
 62
     6
100
AcDbLine
 10
435.864303
 20
681.817441
 11
392.9253
 21
681.817441
  0
LINE
  5
2FC
100
AcDbEntity
  8
M0
 62
     6
100
AcDbLine
 10
425.865768
 20
672.008436
 11
425.865768
 21
691.626295
  0
LINE
  5
2FD
100
AcDbEntity
  8
M0
 62
     6
100
AcDbLine
 10
425.865768
 20
691.626295
 11
432.865768
 21
691.626295
  0
LINE
  5
2FE
100
AcDbEntity
  8
M0
 62
     6
100
AcDbLine
 10
432.865768
 20
691.626295
 11
432.865768
 21
672.008436
  0
LINE
  5
2FF
100
AcDbEntity
  8
M0
 62
     6
100
AcDbLine
 10
432.865768
 20
672.008436
 11
425.865768
 21
672.008436
  0
LINE
  5
300
100
AcDbEntity
  8
M0
 62
     6
100
AcDbLine
 10
425.865768
 20
686.817213
 11
432.865768
 21
686.817213
  0
LINE
  5
301
100
AcDbEntity
  8
M0
 62
     6
100
AcDbLine
 10
408.965774
 20
676.817441
 11
395.865776
 21
676.817441
  0
LINE
  5
302
100
AcDbEntity
  8
M0
 62
     6
100
AcDbLine
 10
425.865768
 20
515.626462
 11
425.865768
 21
496.008604
  0
LINE
  5
303
100
AcDbEntity
  8
M0
 62
     6
100
AcDbLine
 10
425.865768
 20
496.008604
 11
432.865768
 21
496.008604
  0
LINE
  5
304
100
AcDbEntity
  8
M0
 62
     6
100
AcDbLine
 10
432.865768
 20
496.008604
 11
432.865768
 21
515.626462
  0
LINE
  5
305
100
AcDbEntity
  8
M0
 62
     6
100
AcDbLine
 10
432.865768
 20
515.626462
 11
425.865768
 21
515.626462
  0
LINE
  5
306
100
AcDbEntity
  8
M0
 62
     6
100
AcDbLine
 10
395.865776
 20
510.817457
 11
395.865776
 21
500.817686
  0
LINE
  5
307
100
AcDbEntity
  8
M0
  6
DASHDOT
 62
     6
100
AcDbLine
 10
435.864303
 20
505.817457
 11
392.9253
 21
505.817457
  0
LINE
  5
308
100
AcDbEntity
  8
M0
 62
     6
100
AcDbLine
 10
395.865776
 20
500.817686
 11
408.965774
 21
500.817686
  0
LINE
  5
309
100
AcDbEntity
  8
M0
 62
     6
100
AcDbLine
 10
425.865768
 20
500.817686
 11
432.865768
 21
500.817686
  0
LINE
  5
30A
100
AcDbEntity
  8
M0
 62
     6
100
AcDbLine
 10
432.865768
 20
510.817457
 11
425.865768
 21
510.817457
  0
LINE
  5
30B
100
AcDbEntity
  8
M0
 62
     6
100
AcDbLine
 10
408.965774
 20
510.817457
 11
395.865776
 21
510.817457
  0
LINE
  5
30C
100
AcDbEntity
  8
M0
 62
     4
100
AcDbLine
 10
416.965851
 20
691.617506
 11
408.965835
 21
691.617506
  0
LINE
  5
30D
100
AcDbEntity
  8
M0
 62
     4
100
AcDbLine
 10
408.965866
 20
691.61746
 11
408.965866
 21
672.017484
  0
LINE
  5
30E
100
AcDbEntity
  8
M0
 62
     4
100
AcDbLine
 10
408.965851
 20
672.017499
 11
416.965851
 21
672.017499
  0
LINE
  5
30F
100
AcDbEntity
  8
M0
 62
     4
100
AcDbLine
 10
416.965866
 20
672.017515
 11
416.965866
 21
691.617521
  0
LINE
  5
310
100
AcDbEntity
  8
M0
 62
     4
100
AcDbLine
 10
416.965851
 20
676.917493
 11
408.965851
 21
676.917493
  0
LINE
  5
311
100
AcDbEntity
  8
M0
 62
     4
100
AcDbLine
 10
416.965851
 20
686.717481
 11
408.965835
 21
686.717481
  0
LINE
  5
312
100
AcDbEntity
  8
M0
 62
     4
100
AcDbLine
 10
416.965851
 20
496.017423
 11
408.965835
 21
496.017423
  0
LINE
  5
313
100
AcDbEntity
  8
M0
 62
     4
100
AcDbLine
 10
408.965866
 20
496.017469
 11
408.965866
 21
515.617445
  0
LINE
  5
314
100
AcDbEntity
  8
M0
 62
     4
100
AcDbLine
 10
408.965851
 20
515.617429
 11
416.965851
 21
515.617429
  0
LINE
  5
315
100
AcDbEntity
  8
M0
 62
     4
100
AcDbLine
 10
416.965866
 20
515.617414
 11
416.965866
 21
496.017408
  0
LINE
  5
316
100
AcDbEntity
  8
M0
 62
     4
100
AcDbLine
 10
416.965851
 20
510.717435
 11
408.965851
 21
510.717435
  0
LINE
  5
317
100
AcDbEntity
  8
M0
 62
     4
100
AcDbLine
 10
416.965851
 20
500.917448
 11
408.965835
 21
500.917448
  0
LINE
  5
318
100
AcDbEntity
  8
M0
 62
     4
100
AcDbLine
 10
181.423019
 20
672.017454
 11
172.936203
 21
676.917448
  0
LINE
  5
319
100
AcDbEntity
  8
M0
 62
     4
100
AcDbLine
 10
172.936203
 20
676.917448
 11
172.936203
 21
686.717466
  0
LINE
  5
31A
100
AcDbEntity
  8
M0
 62
     4
100
AcDbLine
 10
172.936203
 20
686.717466
 11
181.423019
 21
691.61746
  0
LINE
  5
31B
100
AcDbEntity
  8
M0
 62
     4
100
AcDbLine
 10
181.423019
 20
691.61746
 11
189.910324
 21
686.717435
  0
LINE
  5
31C
100
AcDbEntity
  8
M0
 62
     4
100
AcDbLine
 10
189.910324
 20
686.717435
 11
189.910324
 21
676.917448
  0
LINE
  5
31D
100
AcDbEntity
  8
M0
 62
     4
100
AcDbLine
 10
189.910324
 20
676.917448
 11
181.423019
 21
672.017454
  0
CIRCLE
  5
31E
100
AcDbEntity
  8
M0
 62
     4
100
AcDbCircle
 10
181.423019
 20
681.817441
 40
5.0
  0
LINE
  5
31F
100
AcDbEntity
  8
M0
  6
DASHDOT
 62
     4
100
AcDbLine
 10
191.910202
 20
681.81735
 11
170.935791
 21
681.81735
  0
LINE
  5
320
100
AcDbEntity
  8
M0
  6
DASHDOT
 62
     4
100
AcDbLine
 10
181.422989
 20
693.304548
 11
181.423004
 21
672.330137
  0
LINE
  5
321
100
AcDbEntity
  8
M0
 62
     4
100
AcDbLine
 10
131.423019
 20
672.017454
 11
122.936203
 21
676.917448
  0
LINE
  5
322
100
AcDbEntity
  8
M0
 62
     4
100
AcDbLine
 10
122.936203
 20
676.917448
 11
122.936203
 21
686.717466
  0
LINE
  5
323
100
AcDbEntity
  8
M0
 62
     4
100
AcDbLine
 10
122.936203
 20
686.717466
 11
131.423019
 21
691.61746
  0
LINE
  5
324
100
AcDbEntity
  8
M0
 62
     4
100
AcDbLine
 10
131.423019
 20
691.61746
 11
139.910324
 21
686.717435
  0
LINE
  5
325
100
AcDbEntity
  8
M0
 62
     4
100
AcDbLine
 10
139.910324
 20
686.717435
 11
139.910324
 21
676.917448
  0
LINE
  5
326
100
AcDbEntity
  8
M0
 62
     4
100
AcDbLine
 10
139.910324
 20
676.917448
 11
131.423019
 21
672.017454
  0
CIRCLE
  5
327
100
AcDbEntity
  8
M0
 62
     4
100
AcDbCircle
 10
131.423019
 20
681.817441
 40
5.0
  0
LINE
  5
328
100
AcDbEntity
  8
M0
  6
DASHDOT
 62
     4
100
AcDbLine
 10
141.910202
 20
681.81735
 11
120.935791
 21
681.81735
  0
LINE
  5
329
100
AcDbEntity
  8
M0
  6
DASHDOT
 62
     4
100
AcDbLine
 10
131.422989
 20
693.304548
 11
131.423004
 21
672.330137
  0
LINE
  5
32A
100
AcDbEntity
  8
M0
 62
     4
100
AcDbLine
 10
231.423019
 20
672.017454
 11
222.936203
 21
676.917448
  0
LINE
  5
32B
100
AcDbEntity
  8
M0
 62
     4
100
AcDbLine
 10
222.936203
 20
676.917448
 11
222.936203
 21
686.717466
  0
LINE
  5
32C
100
AcDbEntity
  8
M0
 62
     4
100
AcDbLine
 10
222.936203
 20
686.717466
 11
231.423019
 21
691.61746
  0
LINE
  5
32D
100
AcDbEntity
  8
M0
 62
     4
100
AcDbLine
 10
231.423019
 20
691.61746
 11
239.910324
 21
686.717435
  0
LINE
  5
32E
100
AcDbEntity
  8
M0
 62
     4
100
AcDbLine
 10
239.910324
 20
686.717435
 11
239.910324
 21
676.917448
  0
LINE
  5
32F
100
AcDbEntity
  8
M0
 62
     4
100
AcDbLine
 10
239.910324
 20
676.917448
 11
231.423019
 21
672.017454
  0
CIRCLE
  5
330
100
AcDbEntity
  8
M0
 62
     4
100
AcDbCircle
 10
231.423019
 20
681.817441
 40
5.0
  0
LINE
  5
331
100
AcDbEntity
  8
M0
  6
DASHDOT
 62
     4
100
AcDbLine
 10
241.910202
 20
681.81735
 11
220.935791
 21
681.81735
  0
LINE
  5
332
100
AcDbEntity
  8
M0
  6
DASHDOT
 62
     4
100
AcDbLine
 10
231.422989
 20
693.304548
 11
231.423004
 21
672.330137
  0
LINE
  5
333
100
AcDbEntity
  8
M0
 62
     4
100
AcDbLine
 10
131.423019
 20
496.017438
 11
122.936203
 21
500.917432
  0
LINE
  5
334
100
AcDbEntity
  8
M0
 62
     4
100
AcDbLine
 10
122.936203
 20
500.917432
 11
122.936203
 21
510.717451
  0
LINE
  5
335
100
AcDbEntity
  8
M0
 62
     4
100
AcDbLine
 10
122.936203
 20
510.717451
 11
131.423019
 21
515.617445
  0
LINE
  5
336
100
AcDbEntity
  8
M0
 62
     4
100
AcDbLine
 10
131.423019
 20
515.617445
 11
139.910324
 21
510.71742
  0
LINE
  5
337
100
AcDbEntity
  8
M0
 62
     4
100
AcDbLine
 10
139.910324
 20
510.71742
 11
139.910324
 21
500.917432
  0
LINE
  5
338
100
AcDbEntity
  8
M0
 62
     4
100
AcDbLine
 10
139.910324
 20
500.917432
 11
131.423019
 21
496.017438
  0
CIRCLE
  5
339
100
AcDbEntity
  8
M0
 62
     4
100
AcDbCircle
 10
131.423019
 20
505.817426
 40
5.0
  0
LINE
  5
33A
100
AcDbEntity
  8
M0
  6
DASHDOT
 62
     4
100
AcDbLine
 10
141.910202
 20
505.817335
 11
120.935791
 21
505.817335
  0
LINE
  5
33B
100
AcDbEntity
  8
M0
  6
DASHDOT
 62
     4
100
AcDbLine
 10
131.422989
 20
515.304548
 11
131.423004
 21
494.330137
  0
LINE
  5
33C
100
AcDbEntity
  8
M0
 62
     4
100
AcDbLine
 10
181.423019
 20
496.017438
 11
172.936203
 21
500.917432
  0
LINE
  5
33D
100
AcDbEntity
  8
M0
 62
     4
100
AcDbLine
 10
172.936203
 20
500.917432
 11
172.936203
 21
510.717451
  0
LINE
  5
33E
100
AcDbEntity
  8
M0
 62
     4
100
AcDbLine
 10
172.936203
 20
510.717451
 11
181.423019
 21
515.617445
  0
LINE
  5
33F
100
AcDbEntity
  8
M0
 62
     4
100
AcDbLine
 10
181.423019
 20
515.617445
 11
189.910324
 21
510.71742
  0
LINE
  5
340
100
AcDbEntity
  8
M0
 62
     4
100
AcDbLine
 10
189.910324
 20
510.71742
 11
189.910324
 21
500.917432
  0
LINE
  5
341
100
AcDbEntity
  8
M0
 62
     4
100
AcDbLine
 10
189.910324
 20
500.917432
 11
181.423019
 21
496.017438
  0
CIRCLE
  5
342
100
AcDbEntity
  8
M0
 62
     4
100
AcDbCircle
 10
181.423019
 20
505.817426
 40
5.0
  0
LINE
  5
343
100
AcDbEntity
  8
M0
  6
DASHDOT
 62
     4
100
AcDbLine
 10
191.910202
 20
505.817335
 11
170.935791
 21
505.817335
  0
LINE
  5
344
100
AcDbEntity
  8
M0
  6
DASHDOT
 62
     4
100
AcDbLine
 10
181.422989
 20
515.304548
 11
181.423004
 21
494.330137
  0
LINE
  5
345
100
AcDbEntity
  8
M0
 62
     4
100
AcDbLine
 10
231.423019
 20
496.017438
 11
222.936203
 21
500.917432
  0
LINE
  5
346
100
AcDbEntity
  8
M0
 62
     4
100
AcDbLine
 10
222.936203
 20
500.917432
 11
222.936203
 21
510.717451
  0
LINE
  5
347
100
AcDbEntity
  8
M0
 62
     4
100
AcDbLine
 10
222.936203
 20
510.717451
 11
231.423019
 21
515.617445
  0
LINE
  5
348
100
AcDbEntity
  8
M0
 62
     4
100
AcDbLine
 10
231.423019
 20
515.617445
 11
239.910324
 21
510.71742
  0
LINE
  5
349
100
AcDbEntity
  8
M0
 62
     4
100
AcDbLine
 10
239.910324
 20
510.71742
 11
239.910324
 21
500.917432
  0
LINE
  5
34A
100
AcDbEntity
  8
M0
 62
     4
100
AcDbLine
 10
239.910324
 20
500.917432
 11
231.423019
 21
496.017438
  0
CIRCLE
  5
34B
100
AcDbEntity
  8
M0
 62
     4
100
AcDbCircle
 10
231.423019
 20
505.817426
 40
5.0
  0
LINE
  5
34C
100
AcDbEntity
  8
M0
  6
DASHDOT
 62
     4
100
AcDbLine
 10
241.910202
 20
505.817335
 11
220.935791
 21
505.817335
  0
LINE
  5
34D
100
AcDbEntity
  8
M0
  6
DASHDOT
 62
     4
100
AcDbLine
 10
231.422989
 20
515.304548
 11
231.423004
 21
494.330137
  0
LINE
  5
34E
100
AcDbEntity
  8
M0
 62
     7
100
AcDbLine
 10
419.465973
 20
670.817441
 11
421.065964
 21
670.817441
  0
LINE
  5
34F
100
AcDbEntity
  8
M0
 62
     7
100
AcDbLine
 10
421.065964
 20
670.817441
 11
421.065964
 21
692.817441
  0
LINE
  5
350
100
AcDbEntity
  8
M0
 62
     7
100
AcDbLine
 10
421.065964
 20
692.817441
 11
419.465973
 21
692.817441
  0
LINE
  5
351
100
AcDbEntity
  8
M0
 62
     7
100
AcDbLine
 10
419.465973
 20
692.817441
 11
419.465973
 21
670.817441
  0
LINE
  5
352
100
AcDbEntity
  8
M0
 62
     7
100
AcDbLine
 10
421.065964
 20
516.817426
 11
421.065964
 21
494.817426
  0
LINE
  5
353
100
AcDbEntity
  8
M0
 62
     7
100
AcDbLine
 10
421.065964
 20
494.817426
 11
419.465973
 21
494.817426
  0
LINE
  5
354
100
AcDbEntity
  8
M0
 62
     7
100
AcDbLine
 10
419.465973
 20
494.817426
 11
419.465973
 21
516.817426
  0
LINE
  5
355
100
AcDbEntity
  8
M0
 62
     7
100
AcDbLine
 10
421.065964
 20
516.817487
 11
419.465973
 21
516.817487
  0
LINE
  5
356
100
AcDbEntity
  8
M0
 62
     4
100
AcDbLine
 10
416.965866
 20
672.617445
 11
419.465866
 21
672.617445
  0
LINE
  5
357
100
AcDbEntity
  8
M0
 62
     4
100
AcDbLine
 10
419.465866
 20
672.617445
 11
419.465866
 21
691.017438
  0
LINE
  5
358
100
AcDbEntity
  8
M0
 62
     4
100
AcDbLine
 10
419.465866
 20
691.017438
 11
416.965866
 21
691.017438
  0
LINE
  5
359
100
AcDbEntity
  8
M0
 62
     4
100
AcDbLine
 10
416.965866
 20
691.017438
 11
416.965866
 21
672.617445
  0
LINE
  5
35A
100
AcDbEntity
  8
M0
 62
     4
100
AcDbLine
 10
416.965866
 20
681.817457
 11
419.465866
 21
680.374082
  0
LINE
  5
35B
100
AcDbEntity
  8
M0
 62
     4
100
AcDbLine
 10
416.965866
 20
683.260816
 11
419.465866
 21
681.817441
  0
LINE
  5
35C
100
AcDbEntity
  8
M0
 62
     4
100
AcDbLine
 10
416.965866
 20
515.017454
 11
419.465866
 21
515.017454
  0
LINE
  5
35D
100
AcDbEntity
  8
M0
 62
     4
100
AcDbLine
 10
419.465866
 20
515.017454
 11
419.465866
 21
496.61746
  0
LINE
  5
35E
100
AcDbEntity
  8
M0
 62
     4
100
AcDbLine
 10
419.465866
 20
496.61746
 11
416.965866
 21
496.61746
  0
LINE
  5
35F
100
AcDbEntity
  8
M0
 62
     4
100
AcDbLine
 10
416.965866
 20
496.61746
 11
416.965866
 21
515.017454
  0
LINE
  5
360
100
AcDbEntity
  8
M0
 62
     4
100
AcDbLine
 10
416.965866
 20
505.817441
 11
419.465866
 21
507.260816
  0
LINE
  5
361
100
AcDbEntity
  8
M0
 62
     4
100
AcDbLine
 10
416.965866
 20
504.374082
 11
419.465866
 21
505.817457
  0
LINE
  5
362
100
AcDbEntity
  8
M0
  6
DASHED
 62
     2
100
AcDbLine
 10
159.423035
 20
445.817365
 11
159.423035
 21
518.817365
  0
LINE
  5
363
100
AcDbEntity
  8
M0
  6
DASHED
 62
     2
100
AcDbLine
 10
160.923035
 20
445.817365
 11
159.423035
 21
445.817365
  0
LINE
  5
364
100
AcDbEntity
  8
M0
  6
DASHED
 62
     2
100
AcDbLine
 10
160.923035
 20
445.817365
 11
160.923035
 21
518.817365
  0
LINE
  5
365
100
AcDbEntity
  8
M0
  6
DASHED
 62
     2
100
AcDbLine
 10
201.923019
 20
445.817365
 11
201.923019
 21
518.817365
  0
LINE
  5
366
100
AcDbEntity
  8
M0
  6
DASHED
 62
     2
100
AcDbLine
 10
201.923019
 20
445.817365
 11
203.423019
 21
445.817365
  0
LINE
  5
367
100
AcDbEntity
  8
M0
  6
DASHED
 62
     2
100
AcDbLine
 10
203.423019
 20
445.817365
 11
203.423019
 21
518.817365
  0
LINE
  5
368
100
AcDbEntity
  8
M0
  6
DASHED
 62
     2
100
AcDbLine
 10
159.423035
 20
741.817365
 11
159.423035
 21
668.817365
  0
LINE
  5
369
100
AcDbEntity
  8
M0
  6
DASHED
 62
     2
100
AcDbLine
 10
160.923035
 20
741.817365
 11
160.923035
 21
668.817365
  0
LINE
  5
36A
100
AcDbEntity
  8
M0
  6
DASHED
 62
     2
100
AcDbLine
 10
201.923019
 20
741.817365
 11
201.923019
 21
668.817365
  0
LINE
  5
36B
100
AcDbEntity
  8
M0
  6
DASHED
 62
     2
100
AcDbLine
 10
203.423019
 20
741.817365
 11
203.423019
 21
668.817365
  0
LINE
  5
36C
100
AcDbEntity
  8
M0
  6
DASHED
 62
     2
100
AcDbLine
 10
160.923035
 20
741.817365
 11
159.423035
 21
741.817365
  0
LINE
  5
36D
100
AcDbEntity
  8
M0
  6
DASHED
 62
     2
100
AcDbLine
 10
201.923019
 20
741.817365
 11
203.423019
 21
741.817365
  0
LINE
  5
36E
100
AcDbEntity
  8
M0
  6
DIVIDE
100
AcDbLine
 10
250.423001
 20
386.536595
 11
250.423001
 21
156.53661
  0
LINE
  5
36F
100
AcDbEntity
  8
M0
  6
DIVIDE
100
AcDbLine
 10
250.423001
 20
156.53661
 11
112.423001
 21
156.53661
  0
LINE
  5
370
100
AcDbEntity
  8
M0
  6
DIVIDE
100
AcDbLine
 10
112.423001
 20
386.536595
 11
250.423001
 21
386.536595
  0
LINE
  5
371
100
AcDbEntity
  8
M0
  6
DIVIDE
100
AcDbLine
 10
112.423001
 20
156.53661
 11
112.423001
 21
386.536595
  0
LINE
  5
372
100
AcDbEntity
  8
M0
  6
DASHDOT
100
AcDbLine
 10
181.423001
 20
414.1964
 11
181.423001
 21
122.38068
  0
LINE
  5
373
100
AcDbEntity
  8
M0
  6
DASHDOT
100
AcDbLine
 10
81.460354
 20
271.53661
 11
269.133648
 21
271.53661
  0
CIRCLE
  5
374
100
AcDbEntity
  8
M0
100
AcDbCircle
 10
156.423001
 20
376.536595
 40
4.0
  0
LINE
  5
375
100
AcDbEntity
  8
M0
  6
DASHDOT
100
AcDbLine
 10
137.407986
 20
376.536595
 11
175.438016
 21
376.536595
  0
LINE
  5
376
100
AcDbEntity
  8
M0
  6
DASHDOT
100
AcDbLine
 10
156.423001
 20
357.52158
 11
156.423001
 21
395.551625
  0
CIRCLE
  5
377
100
AcDbEntity
  8
M0
100
AcDbCircle
 10
206.423001
 20
376.536595
 40
4.0
  0
LINE
  5
378
100
AcDbEntity
  8
M0
  6
DASHDOT
100
AcDbLine
 10
187.407985
 20
376.536595
 11
225.438015
 21
376.536595
  0
LINE
  5
379
100
AcDbEntity
  8
M0
  6
DASHDOT
100
AcDbLine
 10
206.423001
 20
357.52158
 11
206.423001
 21
395.551625
  0
CIRCLE
  5
37A
100
AcDbEntity
  8
M0
100
AcDbCircle
 10
156.423001
 20
166.53661
 40
4.0
  0
LINE
  5
37B
100
AcDbEntity
  8
M0
  6
DASHDOT
100
AcDbLine
 10
137.407986
 20
166.53661
 11
175.438016
 21
166.53661
  0
LINE
  5
37C
100
AcDbEntity
  8
M0
  6
DASHDOT
100
AcDbLine
 10
156.423001
 20
147.521595
 11
156.423001
 21
185.55164
  0
CIRCLE
  5
37D
100
AcDbEntity
  8
M0
100
AcDbCircle
 10
206.423001
 20
376.536595
 40
3.0
  0
CIRCLE
  5
37E
100
AcDbEntity
  8
M0
100
AcDbCircle
 10
156.423001
 20
376.536595
 40
3.0
  0
CIRCLE
  5
37F
100
AcDbEntity
  8
M0
100
AcDbCircle
 10
206.423001
 20
166.53661
 40
3.0
  0
CIRCLE
  5
380
100
AcDbEntity
  8
M0
100
AcDbCircle
 10
156.423001
 20
166.53661
 40
3.0
  0
CIRCLE
  5
381
100
AcDbEntity
  8
M0
100
AcDbCircle
 10
206.423001
 20
166.53661
 40
4.0
  0
LINE
  5
382
100
AcDbEntity
  8
M0
  6
DASHDOT
100
AcDbLine
 10
225.438015
 20
166.53661
 11
187.407985
 21
166.53661
  0
LINE
  5
383
100
AcDbEntity
  8
M0
  6
DASHDOT
100
AcDbLine
 10
206.423001
 20
147.521595
 11
206.423001
 21
185.55164
  0
LINE
  5
384
100
AcDbEntity
  8
M0
  6
DIVIDE
100
AcDbLine
 10
250.423019
 20
566.317487
 11
262.423019
 21
566.317487
  0
LINE
  5
385
100
AcDbEntity
  8
M0
  6
DIVIDE
100
AcDbLine
 10
262.423019
 20
621.317487
 11
262.423019
 21
566.317487
  0
LINE
  5
386
100
AcDbEntity
  8
M0
  6
DIVIDE
100
AcDbLine
 10
250.423019
 20
621.317487
 11
262.423019
 21
621.317487
  0
LINE
  5
387
100
AcDbEntity
  8
M0
  6
DIVIDE
100
AcDbLine
 10
112.423035
 20
566.317487
 11
100.423035
 21
566.317487
  0
LINE
  5
388
100
AcDbEntity
  8
M0
  6
DIVIDE
100
AcDbLine
 10
100.423035
 20
621.317487
 11
100.423035
 21
566.317487
  0
LINE
  5
389
100
AcDbEntity
  8
M0
  6
DIVIDE
100
AcDbLine
 10
112.423035
 20
621.317487
 11
100.423035
 21
621.317487
  0
LINE
  5
38A
100
AcDbEntity
  8
M1
 62
     2
100
AcDbLine
 10
28.571429
 20
28.571429
 11
28.571429
 21
814.285728
  0
LINE
  5
38B
100
AcDbEntity
  8
M1
 62
     2
100
AcDbLine
 10
28.571429
 20
814.285728
 11
571.428581
 21
814.285728
  0
LINE
  5
38C
100
AcDbEntity
  8
M1
 62
     2
100
AcDbLine
 10
571.428581
 20
814.285728
 11
571.428581
 21
28.571429
  0
LINE
  5
38D
100
AcDbEntity
  8
M1
 62
     2
100
AcDbLine
 10
571.428581
 20
28.571429
 11
28.571429
 21
28.571429
  0
LINE
  5
38E
100
AcDbEntity
  8
M1
 62
     2
100
AcDbLine
 10
571.428581
 20
57.142858
 11
285.714291
 21
57.142858
  0
LINE
  5
38F
100
AcDbEntity
  8
M1
 62
     2
100
AcDbLine
 10
571.428581
 20
85.714287
 11
285.714291
 21
85.714287
  0
LINE
  5
390
100
AcDbEntity
  8
M1
 62
     2
100
AcDbLine
 10
571.428581
 20
114.285716
 11
285.714291
 21
114.285716
  0
LINE
  5
391
100
AcDbEntity
  8
M1
 62
     2
100
AcDbLine
 10
285.714291
 20
28.571429
 11
285.714291
 21
114.285716
  0
TEXT
  5
392
100
AcDbEntity
  8
M1
 62
     2
100
AcDbText
 10
292.857148
 20
35.714286
 40
14.285714
  1
適　用；
 41
1.0
  7
STANDARD
100
AcDbText
  0
TEXT
  5
393
100
AcDbEntity
  8
M1
 62
     2
100
AcDbText
 10
292.857148
 20
92.857144
 40
14.285714
  1
登録名：
 41
1.0
  7
STANDARD
100
AcDbText
  0
TEXT
  5
394
100
AcDbEntity
  8
M1
 62
     2
100
AcDbText
 10
361.428578
 20
92.857144
 40
14.285714
  1
ＤＭＨ２００ＣＲ００
 41
0.5
  7
STANDARD
100
AcDbText
  0
TEXT
  5
395
100
AcDbEntity
  8
M1
 62
     2
100
AcDbText
 10
292.857148
 20
64.285715
 40
14.285714
  1
形　式；
 41
1.0
  7
STANDARD
100
AcDbText
  0
TEXT
  5
396
100
AcDbEntity
  8
M1
 62
     2
100
AcDbText
 10
361.428578
 20
64.285715
 40
14.285714
  1
Ｈ２００Ｃ，Ｈ２００Ｃ－Ｇ，Ｈ２５０Ｃ，Ｈ２５０Ｃ－Ｇ
 41
0.25
  7
STANDARD
100
AcDbText
  0
LINE
  5
397
100
AcDbEntity
  8
DN0
100
AcDbLine
 10
151.283116
 20
85.492824
 11
203.454558
 21
85.492824
  0
TEXT
  5
398
100
AcDbEntity
  8
DN0
100
AcDbText
 10
152.725973
 20
86.778539
 40
12.857143
  1
せん孔図
 41
0.833333
  7
STANDARD
100
AcDbText
  0
ENDSEC
  0
SECTION
  2
OBJECTS
  0
DICTIONARY
  5
C
100
AcDbDictionary
  3
ACAD_GROUP
350
D
  3
ACAD_MLINESTYLE
350
E
  0
DICTIONARY
  5
D
102
{ACAD_REACTORS
330
C
102
}
100
AcDbDictionary
  0
DICTIONARY
  5
E
102
{ACAD_REACTORS
330
C
102
}
100
AcDbDictionary
  3
STANDARD
350
13
  0
MLINESTYLE
  5
13
102
{ACAD_REACTORS
330
E
102
}
100
AcDbMlineStyle
  2
STANDARD
 70
     0
  3

 62
     0
 51
90.0
 52
90.0
 71
     2
 49
0.5
 62
   256
  6
BYLAYER
 49
-0.5
 62
   256
  6
BYLAYER
  0
ENDSEC
  0
EOF
