  0
SECTION
  2
HEADER
  9
$ACADVER
  1
AC1014
  9
$INSBASE
 10
0.000000
 20
0.000000
 30
0.0
  9
$VIEWCTR
 10
7.531722
 20
4.5
  9
$VIEWSIZE
 40
9.0
  9
$SNAPMODE
 70
     0
  9
$SNAPUNIT
 10
1.0
 20
1.0
  9
$SNAPBASE
 10
0.0
 20
0.0
  9
$SNAPANG
 50
0.0
  9
$SNAPSTYLE
 70
     0
  9
$SNAPISOPAIR
 70
     0
  9
$GRIDMODE
 70
     0
  9
$GRIDUNIT
 10
0.0
 20
0.0
  9
$ORTHOMODE
 70
     0
  9
$REGENMODE
 70
     1
  9
$FILLMODE
 70
     1
  9
$QTEXTMODE
 70
     0
  9
$DRAGMODE
 70
     2
  9
$LTSCALE
  40
     1.000000
  9
$OSMODE
 70
     0
  9
$ATTMODE
 70
     1
  9
$TEXTSIZE
 40
0.2
  9
$TRACEWID
 40
0.05
  9
$TEXTSTYLE
  7
STANDARD
  9
$CELTYPE
  6
BYLAYER
  9
$CECOLOR
 62
   256
  9
$DIMSCALE
 40
1.0
  9
$DIMASZ
 40
0.18
  9
$DIMEXO
 40
0.0625
  9
$DIMDLI
 40
0.38
  9
$DIMRND
 40
0.0
  9
$DIMDLE
 40
0.0
  9
$DIMEXE
 40
0.18
  9
$DIMTP
 40
0.0
  9
$DIMTM
 40
0.0
  9
$DIMTXT
 40
0.18
  9
$DIMCEN
 40
0.09
  9
$DIMTSZ
 40
0.0
  9
$DIMTOL
 70
     0
  9
$DIMLIM
 70
     0
  9
$DIMTIH
 70
     1
  9
$DIMTOH
 70
     1
  9
$DIMSE1
 70
     0
  9
$DIMSE2
 70
     0
  9
$DIMTAD
 70
     0
  9
$DIMZIN
 70
     0
  9
$DIMBLK
  1

  9
$LUNITS
 70
     2
  9
$LUPREC
 70
     4
  9
$AXISMODE
 70
     0
  9
$AXISUNIT
 10
0.0
 20
0.0
  9
$SKETCHINC
 40
0.1
  9
$FILLETRAD
 40
0.0
  9
$AUNITS
 70
     0
  9
$AUPREC
 70
     0
  9
$MENU
  1
ACAD
  9
$ELEVATION
 40
0.0
  9
$THICKNESS
 40
0.0
  9
$VIEWDIR
 10
0.0
 20
0.0
 30
1.0
  9
$LIMCHECK
 70
     0
  9
$BLIPMODE
 70
     1
  9
$CHAMFERA
 40
0.0
  9
$CHAMFERB
 40
0.0
  9
$FASTZOOM
 70
     1
  9
$SKPOLY
 70
     0
  9
$TDCREATE
 40
0000000.0000000000
  9
$TDUPDATE
 40
0000000.0000000000
  9
$TDINDWG
 40
0.0000000000
  9
$TDUSRTIMER
 40
0.0000000000
  9
$USRTIMER
 70
     1
  9
$ANGBASE
 50
0.0
  9
$ANGDIR
 70
     0
  9
$PDMODE
 70
     0
  9
$PDSIZE
 40
0.0
  9
$PLINEWID
 40
0.0
  9
$COORDS
 70
     0
  9
$USERI1
 70
     0
  9
$USERI2
 70
     0
  9
$USERI3
 70
     0
  9
$USERI4
 70
     0
  9
$USERI5
 70
     0
  9
$USERR1
 40
0.0
  9
$USERR2
 40
0.0
  9
$USERR3
 40
0.0
  9
$USERR4
 40
0.0
  9
$USERR5
 40
0.0
  9
$CLAYER
  8
M0
  9
$EXTMIN
 10
28.571429
 20
28.571429
  9
$EXTMAX
 10
571.428581
 20
814.285728
  9
$LIMMIN
 10
0.0
 20
0.0
  9
$LIMMAX
 10
210.0
 20
297.0
  9
$HANDSEED
  5
69C
  0
ENDSEC
  0
SECTION
  2
CLASSES
  0
ENDSEC
  0
SECTION
  2
TABLES
  0
TABLE
  2
VPORT
  5
8
100
AcDbSymbolTable
 70
     2
  0
VPORT
  5
14
100
AcDbSymbolTableRecord
100
AcDbViewportTableRecord
  2
*ACTIVE
 70
     0
 10
0.0
 20
0.0
 11
1.0
 21
1.0
 12
484.0
 22
297.0
 13
0.0
 23
0.0
 14
1.0
 24
1.0
 15
0.0
 25
0.0
 16
0.0
 26
0.0
 36
1.0
 17
0.0
 27
0.0
 37
0.0
 40
594.0
 41
2.0
 42
50.0
 43
0.0
 44
0.0
 50
0.0
 51
0.0
 71
     0
 72
   100
 73
     1
 74
     1
 75
     0
 76
     0
 77
     0
 78
     0
  0
ENDTAB
  0
TABLE
  2
LTYPE
  5
5
100
AcDbSymbolTable
 70
     5
  0
LTYPE
  5
15
100
AcDbSymbolTableRecord
100
AcDbLinetypeTableRecord
  2
BYBLOCK
 70
     0
  3

 72
    65
 73
     0
 40
0.0
  0
LTYPE
  5
16
100
AcDbSymbolTableRecord
100
AcDbLinetypeTableRecord
  2
BYLAYER
 70
     0
  3

 72
    65
 73
     0
 40
0.0
  0
LTYPE
  5
17
100
AcDbSymbolTableRecord
100
AcDbLinetypeTableRecord
  2
CONTINUOUS
 70
    64
  3
Solid line
 72
    65
 73
     0
 40
0.0
  0
LTYPE
  5
18
100
AcDbSymbolTableRecord
100
AcDbLinetypeTableRecord
  2
DASHED
 70
    64
  3
__ __ __ __ __ __ __ __ __ __ __ __ __ __ __ __
 72
    65
 73
     2
 40
0.75
 49
0.5
 74
     0
 49
-0.25
 74
     0
  0
LTYPE
  5
19
100
AcDbSymbolTableRecord
100
AcDbLinetypeTableRecord
  2
DASHDOT
 70
    64
  3
__ . __ . __ . __ . __ . __ . __ . __ . __ . __
 72
    65
 73
     4
 40
1.0
 49
0.5
 74
     0
 49
-0.25
 74
     0
 49
0.0
 74
     0
 49
-0.25
 74
     0
  0
LTYPE
  5
1A
100
AcDbSymbolTableRecord
100
AcDbLinetypeTableRecord
  2
DIVIDE
 70
    64
  3
____ . . ____ . . ____ . . ____ . . ____ . . __
 72
    65
 73
     6
 40
1.25
 49
0.5
 74
     0
 49
-0.25
 74
     0
 49
0.0
 74
     0
 49
-0.25
 74
     0
 49
0.0
 74
     0
 49
-0.25
 74
     0
  0
LTYPE
  5
1B
100
AcDbSymbolTableRecord
100
AcDbLinetypeTableRecord
  2
DOT
 70
    64
  3
. . . . . . . . . . . . . . . . . . . . . . . .
 72
    65
 73
     2
 40
0.25
 49
0.0
 74
     0
 49
-0.25
 74
     0
  0
ENDTAB
  0
TABLE
  2
LAYER
  5
2
100
AcDbSymbolTable
 70
   102
  0
LAYER
  5
F
100
AcDbSymbolTableRecord
100
AcDbLayerTableRecord
  2
0
 70
     0
 62
     7
  6
CONTINUOUS
  0
LAYER
  5
1C
100
AcDbSymbolTableRecord
100
AcDbLayerTableRecord
  2
DEFPOINTS
 70
     0
 62
     7
  6
CONTINUOUS
  0
LAYER
  5
1D
100
AcDbSymbolTableRecord
100
AcDbLayerTableRecord
  2
M0
 70
     0
 62
     3
  6
CONTINUOUS
  0
LAYER
  5
1E
100
AcDbSymbolTableRecord
100
AcDbLayerTableRecord
  2
M1
 70
     0
 62
     3
  6
CONTINUOUS
  0
LAYER
  5
1F
100
AcDbSymbolTableRecord
100
AcDbLayerTableRecord
  2
DD0
 70
     0
 62
     4
  6
CONTINUOUS
  0
LAYER
  5
20
100
AcDbSymbolTableRecord
100
AcDbLayerTableRecord
  2
DN0
 70
     0
 62
     2
  6
CONTINUOUS
  0
ENDTAB
  0
TABLE
  2
STYLE
  5
3
100
AcDbSymbolTable
 70
     2
  0
STYLE
  5
10
100
AcDbSymbolTableRecord
100
AcDbTextStyleTableRecord
  2
STANDARD
 70
     0
 40
0.0
 41
1.0
 50
0.0
 71
     0
 42
0.2
  3
txt
  4
BIGFONT
  0
ENDTAB
  0
TABLE
  2
VIEW
  5
6
100
AcDbSymbolTable
 70
     0
  0
ENDTAB
  0
TABLE
  2
UCS
  5
7
100
AcDbSymbolTable
 70
     0
  0
ENDTAB
  0
TABLE
  2
APPID
  5
9
100
AcDbSymbolTable
 70
     1
  0
APPID
  5
11
100
AcDbSymbolTableRecord
100
AcDbRegAppTableRecord
  2
ACAD
 70
     0
  0
ENDTAB
  0
TABLE
  2
DIMSTYLE
  5
A
100
AcDbSymbolTable
 70
     2
  0
DIMSTYLE
105
27
100
AcDbSymbolTableRecord
100
AcDbDimStyleTableRecord
  2
STANDARD
 70
     0
  3

  4

  5

  6
_OPEN
  7
_OPEN
 40
1.0
 41
8.571429
 42
1.0
 43
8.0
 44
1.0
 45
0.0
 46
0.0
 47
0.0
 48
0.0
140
9.0
141
0.09
142
0.0
143
0.03937
144
1.0
145
0.0
146
1.0
147
0.6
 71
     0
 72
     0
 73
     1
 74
     1
 75
     0
 76
     0
 77
     3
 78
     8
170
     0
171
     2
172
     0
173
     1
174
     0
175
     0
176
     0
177
     0
178
     0
270
     2
271
     2
272
     4
273
     2
274
     2
340
10
275
     0
280
     0
281
     0
282
     0
283
     1
284
     0
285
     0
286
     0
287
     3
288
     0
  0
DIMSTYLE
105
28
100
AcDbSymbolTableRecord
100
AcDbDimStyleTableRecord
  2
LEADSTYL
 70
     0
  3

  4

  5

  6
_OPEN
  7
_OPEN
 40
1.0
 41
8.571429
 42
0.0625
 43
0.38
 44
0.18
 45
0.0
 46
0.0
 47
0.0
 48
0.0
140
9.0
141
0.09
142
0.0
143
25.4
144
1.0
145
0.0
146
1.0
147
0.6
 71
     0
 72
     0
 73
     1
 74
     1
 75
     0
 76
     0
 77
     0
 78
     0
170
     0
171
     2
172
     0
173
     1
174
     0
175
     0
176
     0
177
     0
178
     0
270
     2
271
     4
272
     4
273
     2
274
     2
340
10
275
     0
280
     0
281
     0
282
     0
283
     1
284
     0
285
     0
286
     0
287
     3
288
     0
  0
ENDTAB
  0
TABLE
  2
BLOCK_RECORD
  5
1
100
AcDbSymbolTable
 70
    16
  0
BLOCK_RECORD
  5
21
100
AcDbSymbolTableRecord
100
AcDbBlockTableRecord
  2
*MODEL_SPACE
  0
BLOCK_RECORD
  5
24
100
AcDbSymbolTableRecord
100
AcDbBlockTableRecord
  2
*PAPER_SPACE
  0
BLOCK_RECORD
  5
29
100
AcDbSymbolTableRecord
100
AcDbBlockTableRecord
  2
_NONE
  0
BLOCK_RECORD
  5
2D
100
AcDbSymbolTableRecord
100
AcDbBlockTableRecord
  2
_OPEN
  0
BLOCK_RECORD
  5
33
100
AcDbSymbolTableRecord
100
AcDbBlockTableRecord
  2
_CLOSED
  0
BLOCK_RECORD
  5
3A
100
AcDbSymbolTableRecord
100
AcDbBlockTableRecord
  2
_ORIGIN
  0
BLOCK_RECORD
  5
3F
100
AcDbSymbolTableRecord
100
AcDbBlockTableRecord
  2
_DOT
  0
BLOCK_RECORD
  5
47
100
AcDbSymbolTableRecord
100
AcDbBlockTableRecord
  2
_OBLIQUE
  0
BLOCK_RECORD
  5
4B
100
AcDbSymbolTableRecord
100
AcDbBlockTableRecord
  2
DIMS0
  0
BLOCK_RECORD
  5
57
100
AcDbSymbolTableRecord
100
AcDbBlockTableRecord
  2
DIMS1
  0
BLOCK_RECORD
  5
63
100
AcDbSymbolTableRecord
100
AcDbBlockTableRecord
  2
DIMS2
  0
BLOCK_RECORD
  5
6F
100
AcDbSymbolTableRecord
100
AcDbBlockTableRecord
  2
DIMS3
  0
BLOCK_RECORD
  5
7B
100
AcDbSymbolTableRecord
100
AcDbBlockTableRecord
  2
DIMS4
  0
BLOCK_RECORD
  5
84
100
AcDbSymbolTableRecord
100
AcDbBlockTableRecord
  2
DIMS5
  0
BLOCK_RECORD
  5
90
100
AcDbSymbolTableRecord
100
AcDbBlockTableRecord
  2
DIMS6
  0
BLOCK_RECORD
  5
9C
100
AcDbSymbolTableRecord
100
AcDbBlockTableRecord
  2
DIMS7
  0
BLOCK_RECORD
  5
A8
100
AcDbSymbolTableRecord
100
AcDbBlockTableRecord
  2
DIMS8
  0
BLOCK_RECORD
  5
B5
100
AcDbSymbolTableRecord
100
AcDbBlockTableRecord
  2
DIMS9
  0
ENDTAB
  0
ENDSEC
  0
SECTION
  2
BLOCKS
  0
BLOCK
  5
22
100
AcDbEntity
  8
0
100
AcDbBlockBegin
  2
*MODEL_SPACE
 70
     0
 10
0.0
 20
0.0
 30
0.0
  3
*MODEL_SPACE
  1

  0
ENDBLK
  5
23
100
AcDbEntity
  8
0
100
AcDbBlockEnd
  0
BLOCK
  5
25
100
AcDbEntity
 67
     1
  8
0
100
AcDbBlockBegin
  2
*PAPER_SPACE
 70
     0
 10
0.0
 20
0.0
 30
0.0
  3
*PAPER_SPACE
  1

  0
ENDBLK
  5
26
100
AcDbEntity
 67
     1
  8
0
100
AcDbBlockEnd
  0
BLOCK
  5
2A
100
AcDbEntity
  8
0
100
AcDbBlockBegin
  2
_NONE
 70
     0
 10
0.0
 20
0.0
  0
CIRCLE
  5
2B
100
AcDbEntity
  8
0
 62
     0
100
AcDbCircle
 10
0.0
 20
0.0
 40
0.25
  0
ENDBLK
  5
2C
100
AcDbEntity
  8
0
100
AcDbBlockEnd
  0
BLOCK
  5
2E
100
AcDbEntity
  8
0
100
AcDbBlockBegin
  2
_OPEN
 70
     0
 10
0.0
 20
0.0
  0
LINE
  5
2F
100
AcDbEntity
  8
0
 62
     0
100
AcDbLine
 10
-0.965926
 20
0.258819
 11
0.0
 21
0.0
  0
LINE
  5
30
100
AcDbEntity
  8
0
 62
     0
100
AcDbLine
 10
0.0
 20
0.0
 11
-0.965926
 21
-0.258819
  0
LINE
  5
31
100
AcDbEntity
  8
0
 62
     0
100
AcDbLine
 10
0.0
 20
0.0
 11
-1.0
 21
0.0
  0
ENDBLK
  5
32
100
AcDbEntity
  8
0
100
AcDbBlockEnd
  0
BLOCK
  5
34
100
AcDbEntity
  8
0
100
AcDbBlockBegin
  2
_CLOSED
 70
     0
 10
0.0
 20
0.0
  0
LINE
  5
35
100
AcDbEntity
  8
0
 62
     0
100
AcDbLine
 10
-0.965926
 20
0.258819
 11
0.0
 21
0.0
  0
LINE
  5
36
100
AcDbEntity
  8
0
 62
     0
100
AcDbLine
 10
0.0
 20
0.0
 11
-0.965926
 21
-0.258819
  0
LINE
  5
37
100
AcDbEntity
  8
0
 62
     0
100
AcDbLine
 10
-0.965926
 20
0.258819
 11
-0.965926
 21
-0.258819
  0
LINE
  5
38
100
AcDbEntity
  8
0
 62
     0
100
AcDbLine
 10
0.0
 20
0.0
 11
-1.0
 21
0.0
  0
ENDBLK
  5
39
100
AcDbEntity
  8
0
100
AcDbBlockEnd
  0
BLOCK
  5
3B
100
AcDbEntity
  8
0
100
AcDbBlockBegin
  2
_ORIGIN
 70
     0
 10
0.0
 20
0.0
  0
CIRCLE
  5
3C
100
AcDbEntity
  8
0
 62
     0
100
AcDbCircle
 10
0.0
 20
0.0
 40
0.5
  0
LINE
  5
3D
100
AcDbEntity
  8
0
 62
     0
100
AcDbLine
 10
0.0
 20
0.0
 11
-1.0
 21
0.0
  0
ENDBLK
  5
3E
100
AcDbEntity
  8
0
100
AcDbBlockEnd
  0
BLOCK
  5
40
100
AcDbEntity
  8
0
100
AcDbBlockBegin
  2
_DOT
 70
     0
 10
0.0
 20
0.0
  0
POLYLINE
  5
41
100
AcDbEntity
  8
0
 62
     0
100
AcDb2dPolyline
 66
     1
 70
     1
 40
0.5
 41
0.5
  0
VERTEX
  5
42
100
AcDbEntity
  8
0
 62
     0
100
AcDbVertex
100
AcDb2dVertex
 10
-0.25
 20
0.0
 42
1.0
  0
VERTEX
  5
43
100
AcDbEntity
  8
0
 62
     0
100
AcDbVertex
100
AcDb2dVertex
 10
0.25
 20
0.0
 42
1.0
  0
SEQEND
  5
44
100
AcDbEntity
  8
0
 62
     0
  0
LINE
  5
45
100
AcDbEntity
  8
0
 62
     0
100
AcDbLine
 10
-0.5
 20
0.0
 11
-1.0
 21
0.0
  0
ENDBLK
  5
46
100
AcDbEntity
  8
0
100
AcDbBlockEnd
  0
BLOCK
  5
48
100
AcDbEntity
  8
0
100
AcDbBlockBegin
  2
_OBLIQUE
 70
     0
 10
0.0
 20
0.0
  0
LINE
  5
49
100
AcDbEntity
  8
0
 62
     0
100
AcDbLine
 10
-0.353553
 20
-0.353553
 11
0.353553
 21
0.353553
  0
ENDBLK
  5
4A
100
AcDbEntity
  8
0
100
AcDbBlockEnd
  0
BLOCK
  5
4C
100
AcDbEntity
  8
DD0
100
AcDbBlockBegin
  2
DIMS0
 70
     0
 10
0.0
 20
0.0
  0
LINE
  5
4D
100
AcDbEntity
  8
DD0
100
AcDbLine
 10
221.645206
 20
689.741397
 11
269.58466
 21
689.741397
  0
LINE
  5
4E
100
AcDbEntity
  8
DD0
100
AcDbLine
 10
238.64498
 20
462.541468
 11
269.58466
 21
462.541468
  0
LINE
  5
4F
100
AcDbEntity
  8
DD0
100
AcDbLine
 10
268.945967
 20
681.462033
 11
266.727517
 21
689.741397
  0
LINE
  5
50
100
AcDbEntity
  8
DD0
100
AcDbLine
 10
266.727517
 20
689.741397
 11
264.509068
 21
681.462033
  0
LINE
  5
51
100
AcDbEntity
  8
DD0
100
AcDbLine
 10
264.509068
 20
470.820833
 11
266.727517
 21
462.541468
  0
LINE
  5
52
100
AcDbEntity
  8
DD0
100
AcDbLine
 10
266.727517
 20
462.541468
 11
268.945967
 21
470.820833
  0
LINE
  5
53
100
AcDbEntity
  8
DD0
100
AcDbLine
 10
266.727517
 20
689.741397
 11
266.727517
 21
462.541468
  0
TEXT
  5
54
100
AcDbEntity
  8
DD0
100
AcDbText
 10
264.727526
 20
565.941437
 40
9.0
  1
２２７
 50
90.000003
 41
0.666667
  7
STANDARD
100
AcDbText
  0
ENDBLK
  5
55
100
AcDbEntity
  8
DD0
100
AcDbBlockEnd
  0
BLOCK
  5
58
100
AcDbEntity
  8
DD0
100
AcDbBlockBegin
  2
DIMS1
 70
     0
 10
0.0
 20
0.0
  0
LINE
  5
59
100
AcDbEntity
  8
DD0
 60
     1
100
AcDbLine
 10
238.64498
 20
462.541468
 11
269.58466
 21
462.541468
  0
LINE
  5
5A
100
AcDbEntity
  8
DD0
100
AcDbLine
 10
144.495732
 20
454.177908
 11
269.58466
 21
454.177908
  0
LINE
  5
5B
100
AcDbEntity
  8
DD0
100
AcDbLine
 10
264.509068
 20
470.820833
 11
266.727517
 21
462.541468
  0
LINE
  5
5C
100
AcDbEntity
  8
DD0
100
AcDbLine
 10
266.727517
 20
462.541468
 11
268.945967
 21
470.820833
  0
LINE
  5
5D
100
AcDbEntity
  8
DD0
100
AcDbLine
 10
268.945967
 20
445.898543
 11
266.727517
 21
454.177908
  0
LINE
  5
5E
100
AcDbEntity
  8
DD0
100
AcDbLine
 10
266.727517
 20
454.177908
 11
264.509068
 21
445.898543
  0
LINE
  5
5F
100
AcDbEntity
  8
DD0
100
AcDbLine
 10
266.727517
 20
471.97004
 11
266.727517
 21
434.692194
  0
TEXT
  5
60
100
AcDbEntity
  8
DD0
100
AcDbText
 10
264.727526
 20
437.120765
 40
9.0
  1
８
 50
90.000003
 41
0.666667
  7
STANDARD
100
AcDbText
  0
ENDBLK
  5
61
100
AcDbEntity
  8
DD0
100
AcDbBlockEnd
  0
BLOCK
  5
64
100
AcDbEntity
  8
DD0
100
AcDbBlockBegin
  2
DIMS2
 70
     0
 10
0.0
 20
0.0
  0
LINE
  5
65
100
AcDbEntity
  8
DD0
100
AcDbLine
 10
235.788033
 20
675.598548
 11
235.788033
 21
715.821894
  0
LINE
  5
66
100
AcDbEntity
  8
DD0
100
AcDbLine
 10
81.788043
 20
675.598548
 11
81.788043
 21
715.821894
  0
LINE
  5
67
100
AcDbEntity
  8
DD0
100
AcDbLine
 10
227.508669
 20
710.746302
 11
235.788033
 21
712.964751
  0
LINE
  5
68
100
AcDbEntity
  8
DD0
100
AcDbLine
 10
235.788033
 20
712.964751
 11
227.508669
 21
715.1832
  0
LINE
  5
69
100
AcDbEntity
  8
DD0
100
AcDbLine
 10
90.067407
 20
715.1832
 11
81.788043
 21
712.964751
  0
LINE
  5
6A
100
AcDbEntity
  8
DD0
100
AcDbLine
 10
81.788043
 20
712.964751
 11
90.067407
 21
710.746302
  0
LINE
  5
6B
100
AcDbEntity
  8
DD0
100
AcDbLine
 10
235.788033
 20
712.964751
 11
81.788043
 21
712.964751
  0
TEXT
  5
6C
100
AcDbEntity
  8
DD0
100
AcDbText
 10
148.588045
 20
714.964743
 40
9.0
  1
１５４
 41
0.666667
  7
STANDARD
100
AcDbText
  0
ENDBLK
  5
6D
100
AcDbEntity
  8
DD0
100
AcDbBlockEnd
  0
BLOCK
  5
70
100
AcDbEntity
  8
DD0
100
AcDbBlockBegin
  2
DIMS3
 70
     0
 10
0.0
 20
0.0
  0
LINE
  5
71
100
AcDbEntity
  8
DD0
 60
     1
100
AcDbLine
 10
208.288033
 20
366.840085
 11
208.288033
 21
413.11947
  0
LINE
  5
72
100
AcDbEntity
  8
DD0
100
AcDbLine
 10
93.288042
 20
363.285747
 11
93.288042
 21
413.11947
  0
LINE
  5
73
100
AcDbEntity
  8
DD0
100
AcDbLine
 10
200.008668
 20
408.043878
 11
208.288033
 21
410.262327
  0
LINE
  5
74
100
AcDbEntity
  8
DD0
100
AcDbLine
 10
208.288033
 20
410.262327
 11
200.008668
 21
412.480776
  0
LINE
  5
75
100
AcDbEntity
  8
DD0
100
AcDbLine
 10
101.567406
 20
412.480776
 11
93.288042
 21
410.262327
  0
LINE
  5
76
100
AcDbEntity
  8
DD0
100
AcDbLine
 10
93.288042
 20
410.262327
 11
101.567406
 21
408.043878
  0
LINE
  5
77
100
AcDbEntity
  8
DD0
100
AcDbLine
 10
208.288033
 20
410.262327
 11
93.288042
 21
410.262327
  0
TEXT
  5
78
100
AcDbEntity
  8
DD0
100
AcDbText
 10
140.588036
 20
412.262319
 40
9.0
  1
１１５
 41
0.666667
  7
STANDARD
100
AcDbText
  0
ENDBLK
  5
79
100
AcDbEntity
  8
DD0
100
AcDbBlockEnd
  0
BLOCK
  5
7C
100
AcDbEntity
  8
DD0
100
AcDbBlockBegin
  2
DIMS4
 70
     0
 10
0.0
 20
0.0
  0
TEXT
  5
7D
100
AcDbEntity
  8
DD0
100
AcDbText
 10
83.394928
 20
118.385611
 40
9.0
  1
４－Ｍ８ねじ穴
 41
0.666667
  7
STANDARD
100
AcDbText
  0
LINE
  5
7E
100
AcDbEntity
  8
DD0
100
AcDbLine
 10
88.337082
 20
150.001667
 11
89.165962
 21
158.532925
  0
LINE
  5
7F
100
AcDbEntity
  8
DD0
100
AcDbLine
 10
89.165962
 20
158.532925
 11
84.182502
 21
151.559079
  0
LINE
  5
80
100
AcDbEntity
  8
DD0
100
AcDbLine
 10
89.165962
 20
158.532925
 11
73.366357
 21
116.385609
  0
LINE
  5
81
100
AcDbEntity
  8
DD0
100
AcDbLine
 10
73.366357
 20
116.385609
 11
142.623511
 21
116.385609
  0
ENDBLK
  5
82
100
AcDbEntity
  8
DD0
100
AcDbBlockEnd
  0
BLOCK
  5
85
100
AcDbEntity
  8
DD0
100
AcDbBlockBegin
  2
DIMS5
 70
     0
 10
0.0
 20
0.0
  0
LINE
  5
86
100
AcDbEntity
  8
DD0
100
AcDbLine
 10
221.645206
 20
378.428569
 11
269.58466
 21
378.428569
  0
LINE
  5
87
100
AcDbEntity
  8
DD0
100
AcDbLine
 10
223.145167
 20
348.428612
 11
269.58466
 21
348.428612
  0
LINE
  5
88
100
AcDbEntity
  8
DD0
100
AcDbLine
 10
264.509068
 20
386.707934
 11
266.727517
 21
378.428569
  0
LINE
  5
89
100
AcDbEntity
  8
DD0
100
AcDbLine
 10
266.727517
 20
378.428569
 11
268.945967
 21
386.707934
  0
LINE
  5
8A
100
AcDbEntity
  8
DD0
100
AcDbLine
 10
268.945967
 20
340.149248
 11
266.727517
 21
348.428612
  0
LINE
  5
8B
100
AcDbEntity
  8
DD0
100
AcDbLine
 10
266.727517
 20
348.428612
 11
264.509068
 21
340.149248
  0
LINE
  5
8C
100
AcDbEntity
  8
DD0
100
AcDbLine
 10
266.727517
 20
387.857141
 11
266.727517
 21
339.000041
  0
TEXT
  5
8D
100
AcDbEntity
  8
DD0
100
AcDbText
 10
264.727526
 20
356.828601
 40
9.0
  1
３０
 50
90.000003
 41
0.666667
  7
STANDARD
100
AcDbText
  0
ENDBLK
  5
8E
100
AcDbEntity
  8
DD0
100
AcDbBlockEnd
  0
BLOCK
  5
91
100
AcDbEntity
  8
DD0
100
AcDbBlockBegin
  2
DIMS6
 70
     0
 10
0.0
 20
0.0
  0
LINE
  5
92
100
AcDbEntity
  8
DD0
 60
     1
100
AcDbLine
 10
223.145167
 20
348.428612
 11
269.58466
 21
348.428612
  0
LINE
  5
93
100
AcDbEntity
  8
DD0
100
AcDbLine
 10
223.145167
 20
163.428685
 11
269.58466
 21
163.428685
  0
LINE
  5
94
100
AcDbEntity
  8
DD0
100
AcDbLine
 10
268.945967
 20
340.149248
 11
266.727517
 21
348.428612
  0
LINE
  5
95
100
AcDbEntity
  8
DD0
100
AcDbLine
 10
266.727517
 20
348.428612
 11
264.509068
 21
340.149248
  0
LINE
  5
96
100
AcDbEntity
  8
DD0
100
AcDbLine
 10
264.509068
 20
171.70805
 11
266.727517
 21
163.428685
  0
LINE
  5
97
100
AcDbEntity
  8
DD0
100
AcDbLine
 10
266.727517
 20
163.428685
 11
268.945967
 21
171.70805
  0
LINE
  5
98
100
AcDbEntity
  8
DD0
100
AcDbLine
 10
266.727517
 20
348.428612
 11
266.727517
 21
163.428685
  0
TEXT
  5
99
100
AcDbEntity
  8
DD0
100
AcDbText
 10
264.727526
 20
245.728659
 40
9.0
  1
１８５
 50
90.000003
 41
0.666667
  7
STANDARD
100
AcDbText
  0
ENDBLK
  5
9A
100
AcDbEntity
  8
DD0
100
AcDbBlockEnd
  0
BLOCK
  5
9D
100
AcDbEntity
  8
DD0
100
AcDbBlockBegin
  2
DIMS7
 70
     0
 10
0.0
 20
0.0
  0
LINE
  5
9E
100
AcDbEntity
  8
DD0
100
AcDbLine
 10
235.788033
 20
364.285699
 11
235.788033
 21
413.11947
  0
LINE
  5
9F
100
AcDbEntity
  8
DD0
100
AcDbLine
 10
208.288033
 20
366.840085
 11
208.288033
 21
413.11947
  0
LINE
  5
A0
100
AcDbEntity
  8
DD0
100
AcDbLine
 10
244.067398
 20
412.480776
 11
235.788033
 21
410.262327
  0
LINE
  5
A1
100
AcDbEntity
  8
DD0
100
AcDbLine
 10
235.788033
 20
410.262327
 11
244.067398
 21
408.043878
  0
LINE
  5
A2
100
AcDbEntity
  8
DD0
100
AcDbLine
 10
200.008668
 20
408.043878
 11
208.288033
 21
410.262327
  0
LINE
  5
A3
100
AcDbEntity
  8
DD0
100
AcDbLine
 10
208.288033
 20
410.262327
 11
200.008668
 21
412.480776
  0
LINE
  5
A4
100
AcDbEntity
  8
DD0
100
AcDbLine
 10
276.873749
 20
410.262327
 11
198.859461
 21
410.262327
  0
TEXT
  5
A5
100
AcDbEntity
  8
DD0
100
AcDbText
 10
245.816615
 20
412.262319
 40
9.0
  1
２７．５
 41
0.666667
  7
STANDARD
100
AcDbText
  0
ENDBLK
  5
A6
100
AcDbEntity
  8
DD0
100
AcDbBlockEnd
  0
BLOCK
  5
A9
100
AcDbEntity
  8
DD0
100
AcDbBlockBegin
  2
DIMS8
 70
     0
 10
0.0
 20
0.0
  0
LINE
  5
AA
100
AcDbEntity
  8
DD0
100
AcDbLine
 10
507.936933
 20
461.784327
 11
507.936933
 21
430.713552
  0
LINE
  5
AB
100
AcDbEntity
  8
DD0
100
AcDbLine
 10
544.136885
 20
466.284318
 11
544.136885
 21
430.713552
  0
LINE
  5
AC
100
AcDbEntity
  8
DD0
100
AcDbLine
 10
516.216298
 20
435.789144
 11
507.936933
 21
433.570695
  0
LINE
  5
AD
100
AcDbEntity
  8
DD0
100
AcDbLine
 10
507.936933
 20
433.570695
 11
516.216298
 21
431.352246
  0
LINE
  5
AE
100
AcDbEntity
  8
DD0
100
AcDbLine
 10
535.857521
 20
431.352246
 11
544.136885
 21
433.570695
  0
LINE
  5
AF
100
AcDbEntity
  8
DD0
100
AcDbLine
 10
544.136885
 20
433.570695
 11
535.857521
 21
435.789144
  0
LINE
  5
B0
100
AcDbEntity
  8
DD0
100
AcDbLine
 10
507.936933
 20
433.570695
 11
544.136885
 21
433.570695
  0
TEXT
  5
B1
100
AcDbEntity
  8
DD0
100
AcDbText
 10
517.772644
 20
435.284998
 40
9.0
  1
３６
 41
0.833333
  7
STANDARD
100
AcDbText
  0
TEXT
  5
B2
100
AcDbEntity
  8
DD0
100
AcDbText
 10
508.772618
 20
422.284989
 40
9.0
  1
（取付）
 41
0.833333
  7
STANDARD
100
AcDbText
  0
ENDBLK
  5
B3
100
AcDbEntity
  8
DD0
100
AcDbBlockEnd
  0
BLOCK
  5
B6
100
AcDbEntity
  8
DD0
100
AcDbBlockBegin
  2
DIMS9
 70
     0
 10
0.0
 20
0.0
  0
LINE
  5
B7
100
AcDbEntity
  8
DD0
100
AcDbLine
 10
544.136929
 20
667.998625
 11
544.136929
 21
715.821894
  0
LINE
  5
B8
100
AcDbEntity
  8
DD0
100
AcDbLine
 10
320.337029
 20
637.998537
 11
320.337029
 21
715.821894
  0
LINE
  5
B9
100
AcDbEntity
  8
DD0
100
AcDbLine
 10
535.857564
 20
710.746302
 11
544.136929
 21
712.964751
  0
LINE
  5
BA
100
AcDbEntity
  8
DD0
100
AcDbLine
 10
544.136929
 20
712.964751
 11
535.857564
 21
715.1832
  0
LINE
  5
BB
100
AcDbEntity
  8
DD0
100
AcDbLine
 10
328.616393
 20
715.1832
 11
320.337029
 21
712.964751
  0
LINE
  5
BC
100
AcDbEntity
  8
DD0
100
AcDbLine
 10
320.337029
 20
712.964751
 11
328.616393
 21
710.746302
  0
LINE
  5
BD
100
AcDbEntity
  8
DD0
100
AcDbLine
 10
544.136929
 20
712.964751
 11
320.337029
 21
712.964751
  0
TEXT
  5
BE
100
AcDbEntity
  8
DD0
100
AcDbText
 10
419.47269
 20
714.679054
 40
9.0
  1
２２５
 41
0.833333
  7
STANDARD
100
AcDbText
  0
ENDBLK
  5
BF
100
AcDbEntity
  8
DD0
100
AcDbBlockEnd
  0
ENDSEC
  0
SECTION
  2
ENTITIES
  0
INSERT
  5
56
100
AcDbEntity
  8
DD0
100
AcDbBlockReference
  2
DIMS0
 10
0.0
 20
0.0
  0
INSERT
  5
62
100
AcDbEntity
  8
DD0
100
AcDbBlockReference
  2
DIMS1
 10
0.0
 20
0.0
  0
INSERT
  5
6E
100
AcDbEntity
  8
DD0
100
AcDbBlockReference
  2
DIMS2
 10
0.0
 20
0.0
  0
INSERT
  5
7A
100
AcDbEntity
  8
DD0
100
AcDbBlockReference
  2
DIMS3
 10
0.0
 20
0.0
  0
INSERT
  5
83
100
AcDbEntity
  8
DD0
100
AcDbBlockReference
  2
DIMS4
 10
0.0
 20
0.0
  0
INSERT
  5
8F
100
AcDbEntity
  8
DD0
100
AcDbBlockReference
  2
DIMS5
 10
0.0
 20
0.0
  0
INSERT
  5
9B
100
AcDbEntity
  8
DD0
100
AcDbBlockReference
  2
DIMS6
 10
0.0
 20
0.0
  0
INSERT
  5
A7
100
AcDbEntity
  8
DD0
100
AcDbBlockReference
  2
DIMS7
 10
0.0
 20
0.0
  0
INSERT
  5
B4
100
AcDbEntity
  8
DD0
100
AcDbBlockReference
  2
DIMS8
 10
0.0
 20
0.0
  0
INSERT
  5
C0
100
AcDbEntity
  8
DD0
100
AcDbBlockReference
  2
DIMS9
 10
0.0
 20
0.0
  0
LINE
  5
C1
100
AcDbEntity
  8
M0
 62
   234
100
AcDbLine
 10
539.536809
 20
671.741461
 11
539.536809
 21
688.741461
  0
LINE
  5
C2
100
AcDbEntity
  8
M0
 62
   234
100
AcDbLine
 10
539.536809
 20
688.741461
 11
495.536809
 21
688.741461
  0
LINE
  5
C3
100
AcDbEntity
  8
M0
 62
   234
100
AcDbLine
 10
495.536809
 20
688.741461
 11
495.536809
 21
671.741461
  0
LINE
  5
C4
100
AcDbEntity
  8
M0
 62
   234
100
AcDbLine
 10
495.536809
 20
671.741461
 11
539.536809
 21
671.741461
  0
LINE
  5
C5
100
AcDbEntity
  8
M0
 62
   234
100
AcDbLine
 10
533.879955
 20
671.741461
 11
539.536809
 21
677.398315
  0
LINE
  5
C6
100
AcDbEntity
  8
M0
 62
   234
100
AcDbLine
 10
528.2231
 20
671.741461
 11
539.536809
 21
683.055169
  0
LINE
  5
C7
100
AcDbEntity
  8
M0
 62
   234
100
AcDbLine
 10
522.566246
 20
671.741461
 11
539.536809
 21
688.712023
  0
LINE
  5
C8
100
AcDbEntity
  8
M0
 62
   234
100
AcDbLine
 10
516.909392
 20
671.741461
 11
533.909392
 21
688.741461
  0
LINE
  5
C9
100
AcDbEntity
  8
M0
 62
   234
100
AcDbLine
 10
511.252538
 20
671.741461
 11
528.252538
 21
688.741461
  0
LINE
  5
CA
100
AcDbEntity
  8
M0
 62
   234
100
AcDbLine
 10
505.595683
 20
671.741461
 11
522.595683
 21
688.741461
  0
LINE
  5
CB
100
AcDbEntity
  8
M0
 62
   234
100
AcDbLine
 10
499.938829
 20
671.741461
 11
516.938829
 21
688.741461
  0
LINE
  5
CC
100
AcDbEntity
  8
M0
 62
   234
100
AcDbLine
 10
495.536809
 20
672.996295
 11
511.281975
 21
688.741461
  0
LINE
  5
CD
100
AcDbEntity
  8
M0
 62
   234
100
AcDbLine
 10
495.536809
 20
678.653149
 11
505.625121
 21
688.741461
  0
LINE
  5
CE
100
AcDbEntity
  8
M0
 62
   234
100
AcDbLine
 10
495.536809
 20
684.310003
 11
499.968266
 21
688.741461
  0
LINE
  5
CF
100
AcDbEntity
  8
M0
 62
   234
100
AcDbLine
 10
218.78806
 20
672.741384
 11
218.78806
 21
689.741384
  0
LINE
  5
D0
100
AcDbEntity
  8
M0
 62
   234
100
AcDbLine
 10
218.78806
 20
689.741384
 11
172.78806
 21
689.741384
  0
LINE
  5
D1
100
AcDbEntity
  8
M0
 62
   234
100
AcDbLine
 10
172.78806
 20
689.741384
 11
172.78806
 21
689.041108
  0
LINE
  5
D2
100
AcDbEntity
  8
M0
 62
   234
100
AcDbLine
 10
189.787862
 20
672.741384
 11
218.78806
 21
672.741384
  0
LINE
  5
D3
100
AcDbEntity
  8
M0
 62
   234
100
AcDbLine
 10
213.131206
 20
672.741384
 11
218.78806
 21
678.398238
  0
LINE
  5
D4
100
AcDbEntity
  8
M0
 62
   234
100
AcDbLine
 10
207.474351
 20
672.741384
 11
218.78806
 21
684.055093
  0
LINE
  5
D5
100
AcDbEntity
  8
M0
 62
   234
100
AcDbLine
 10
201.817497
 20
672.741384
 11
218.78806
 21
689.711947
  0
LINE
  5
D6
100
AcDbEntity
  8
M0
 62
   234
100
AcDbLine
 10
196.160643
 20
672.741384
 11
213.160643
 21
689.741384
  0
LINE
  5
D7
100
AcDbEntity
  8
M0
 62
   234
100
AcDbLine
 10
190.503789
 20
672.741384
 11
207.503789
 21
689.741384
  0
LINE
  5
D8
100
AcDbEntity
  8
M0
 62
   234
100
AcDbLine
 10
184.846934
 20
672.741384
 11
201.846934
 21
689.741384
  0
LINE
  5
D9
100
AcDbEntity
  8
M0
 62
   234
100
AcDbLine
 10
180.787862
 20
674.339166
 11
196.19008
 21
689.741384
  0
LINE
  5
DA
100
AcDbEntity
  8
M0
 62
   234
100
AcDbLine
 10
180.787862
 20
679.99602
 11
190.533226
 21
689.741384
  0
LINE
  5
DB
100
AcDbEntity
  8
M0
 62
   234
100
AcDbLine
 10
180.787862
 20
685.652874
 11
184.876372
 21
689.741384
  0
LINE
  5
DC
100
AcDbEntity
  8
M0
 62
   234
100
AcDbLine
 10
178.519147
 20
689.041014
 11
179.219517
 21
689.741384
  0
LINE
  5
DD
100
AcDbEntity
  8
M0
 62
   234
100
AcDbLine
 10
172.862388
 20
689.041109
 11
173.562663
 21
689.741384
  0
LINE
  5
DE
100
AcDbEntity
  8
M0
 62
   234
100
AcDbLine
 10
82.78809
 20
672.741384
 11
82.78809
 21
689.741384
  0
LINE
  5
DF
100
AcDbEntity
  8
M0
 62
   234
100
AcDbLine
 10
82.78809
 20
689.741384
 11
128.78809
 21
689.741384
  0
LINE
  5
E0
100
AcDbEntity
  8
M0
 62
   234
100
AcDbLine
 10
128.78809
 20
689.741384
 11
128.78809
 21
689.040567
  0
LINE
  5
E1
100
AcDbEntity
  8
M0
 62
   234
100
AcDbLine
 10
104.78806
 20
672.741384
 11
82.78809
 21
672.741384
  0
LINE
  5
E2
100
AcDbEntity
  8
M0
 62
   234
100
AcDbLine
 10
101.174821
 20
672.741384
 11
118.174821
 21
689.741384
  0
LINE
  5
E3
100
AcDbEntity
  8
M0
 62
   234
100
AcDbLine
 10
95.517967
 20
672.741384
 11
111.788029
 21
689.011446
  0
LINE
  5
E4
100
AcDbEntity
  8
M0
 62
   234
100
AcDbLine
 10
111.817573
 20
689.040991
 11
112.517967
 21
689.741384
  0
LINE
  5
E5
100
AcDbEntity
  8
M0
 62
   234
100
AcDbLine
 10
89.861113
 20
672.741384
 11
106.861113
 21
689.741384
  0
LINE
  5
E6
100
AcDbEntity
  8
M0
 62
   234
100
AcDbLine
 10
106.160851
 20
689.041122
 11
106.861113
 21
689.741384
  0
LINE
  5
E7
100
AcDbEntity
  8
M0
 62
   234
100
AcDbLine
 10
84.204259
 20
672.741384
 11
101.204259
 21
689.741384
  0
LINE
  5
E8
100
AcDbEntity
  8
M0
 62
   234
100
AcDbLine
 10
82.78809
 20
676.98207
 11
95.547404
 21
689.741384
  0
LINE
  5
E9
100
AcDbEntity
  8
M0
 62
   234
100
AcDbLine
 10
82.78809
 20
682.638925
 11
89.89055
 21
689.741384
  0
LINE
  5
EA
100
AcDbEntity
  8
M0
 62
   234
100
AcDbLine
 10
82.78809
 20
688.295779
 11
84.233696
 21
689.741384
  0
LINE
  5
EB
100
AcDbEntity
  8
M0
 62
   234
100
AcDbLine
 10
112.48853
 20
672.741384
 11
120.78806
 21
681.040914
  0
LINE
  5
EC
100
AcDbEntity
  8
M0
 62
   234
100
AcDbLine
 10
106.831676
 20
672.741384
 11
120.78806
 21
686.697768
  0
LINE
  5
ED
100
AcDbEntity
  8
M0
 62
   234
100
AcDbLine
 10
118.145384
 20
672.741384
 11
120.78806
 21
675.38406
  0
LINE
  5
EE
100
AcDbEntity
  8
M0
100
AcDbLine
 10
481.136907
 20
688.441461
 11
459.136907
 21
688.441461
  0
LINE
  5
EF
100
AcDbEntity
  8
M0
100
AcDbLine
 10
455.136907
 20
671.741461
 11
485.136907
 21
671.741461
  0
LINE
  5
F0
100
AcDbEntity
  8
M0
100
AcDbLine
 10
485.136907
 20
671.741461
 11
485.136907
 21
684.441461
  0
LINE
  5
F1
100
AcDbEntity
  8
M0
100
AcDbLine
 10
455.136907
 20
684.441461
 11
455.136907
 21
671.741461
  0
ARC
  5
F2
100
AcDbEntity
  8
M0
100
AcDbCircle
 10
459.136907
 20
684.441461
 40
4.0
100
AcDbArc
 50
90.0
 51
180.0
  0
ARC
  5
F3
100
AcDbEntity
  8
M0
100
AcDbCircle
 10
481.136907
 20
684.441461
 40
4.0
100
AcDbArc
 50
0.0
 51
90.0
  0
LINE
  5
F4
100
AcDbEntity
  8
M0
100
AcDbLine
 10
81.78806
 20
487.141561
 11
90.66306
 21
487.141561
  0
LINE
  5
F5
100
AcDbEntity
  8
M0
100
AcDbLine
 10
219.78806
 20
465.141561
 11
219.78806
 21
670.64121
  0
LINE
  5
F6
100
AcDbEntity
  8
M0
100
AcDbLine
 10
189.884724
 20
637.141287
 11
177.78806
 21
637.141164
  0
LINE
  5
F7
100
AcDbEntity
  8
M0
  6
DASHDOT
100
AcDbLine
 10
76.78806
 20
562.141409
 11
224.78806
 21
562.141409
  0
LINE
  5
F8
100
AcDbEntity
  8
M0
  6
DASHDOT
100
AcDbLine
 10
150.78806
 20
450.589949
 11
150.78806
 21
701.182644
  0
LINE
  5
F9
100
AcDbEntity
  8
M0
100
AcDbLine
 10
136.803685
 20
487.141561
 11
138.28806
 21
487.141561
  0
LINE
  5
FA
100
AcDbEntity
  8
M0
100
AcDbLine
 10
177.78806
 20
487.141561
 11
189.884831
 21
487.141561
  0
LINE
  5
FB
100
AcDbEntity
  8
M0
100
AcDbLine
 10
164.772191
 20
637.141164
 11
163.28806
 21
637.141149
  0
LINE
  5
FC
100
AcDbEntity
  8
M0
100
AcDbLine
 10
123.78806
 20
637.14092
 11
111.691685
 21
637.14092
  0
LINE
  5
FD
100
AcDbEntity
  8
M0
100
AcDbLine
 10
93.78806
 20
537.59136
 11
93.78806
 21
555.641409
  0
LINE
  5
FE
100
AcDbEntity
  8
M0
100
AcDbLine
 10
85.78806
 20
535.141164
 11
85.78806
 21
555.641409
  0
LINE
  5
FF
100
AcDbEntity
  8
M0
100
AcDbLine
 10
215.78806
 20
535.141409
 11
215.78806
 21
555.64092
  0
LINE
  5
100
100
AcDbEntity
  8
M0
100
AcDbLine
 10
207.78806
 20
537.591116
 11
207.78806
 21
555.64092
  0
LINE
  5
101
100
AcDbEntity
  8
M0
100
AcDbLine
 10
82.28806
 20
589.641409
 11
85.28806
 21
589.641409
  0
LINE
  5
102
100
AcDbEntity
  8
M0
100
AcDbLine
 10
82.28806
 20
534.641409
 11
85.28806
 21
534.641409
  0
LINE
  5
103
100
AcDbEntity
  8
M0
100
AcDbLine
 10
216.28806
 20
589.641409
 11
219.28806
 21
589.641409
  0
LINE
  5
104
100
AcDbEntity
  8
M0
100
AcDbLine
 10
216.28806
 20
534.641409
 11
219.28806
 21
534.641409
  0
LINE
  5
105
100
AcDbEntity
  8
M0
100
AcDbLine
 10
85.78806
 20
587.191213
 11
95.78806
 21
587.191213
  0
LINE
  5
106
100
AcDbEntity
  8
M0
100
AcDbLine
 10
85.78806
 20
537.09136
 11
95.78806
 21
537.09136
  0
LINE
  5
107
100
AcDbEntity
  8
M0
100
AcDbLine
 10
205.78806
 20
587.191213
 11
215.78806
 21
587.191213
  0
LINE
  5
108
100
AcDbEntity
  8
M0
100
AcDbLine
 10
205.78806
 20
537.09136
 11
215.78806
 21
537.09136
  0
LINE
  5
109
100
AcDbEntity
  8
M0
100
AcDbLine
 10
82.28806
 20
579.641409
 11
85.28806
 21
579.641409
  0
LINE
  5
10A
100
AcDbEntity
  8
M0
100
AcDbLine
 10
82.28806
 20
544.641409
 11
85.28806
 21
544.641409
  0
LINE
  5
10B
100
AcDbEntity
  8
M0
100
AcDbLine
 10
216.28806
 20
579.641409
 11
219.28806
 21
579.641409
  0
LINE
  5
10C
100
AcDbEntity
  8
M0
100
AcDbLine
 10
216.28806
 20
544.641409
 11
219.28806
 21
544.641409
  0
LINE
  5
10D
100
AcDbEntity
  8
M0
100
AcDbLine
 10
82.28806
 20
565.891409
 11
88.78806
 21
565.891409
  0
LINE
  5
10E
100
AcDbEntity
  8
M0
100
AcDbLine
 10
82.28806
 20
558.391409
 11
88.78806
 21
558.391409
  0
LINE
  5
10F
100
AcDbEntity
  8
M0
100
AcDbLine
 10
219.28806
 20
565.891409
 11
212.78806
 21
565.891409
  0
LINE
  5
110
100
AcDbEntity
  8
M0
100
AcDbLine
 10
219.28806
 20
558.391409
 11
212.78806
 21
558.391409
  0
LINE
  5
111
100
AcDbEntity
  8
M0
100
AcDbLine
 10
85.78806
 20
568.641409
 11
85.78806
 21
589.141409
  0
LINE
  5
112
100
AcDbEntity
  8
M0
100
AcDbLine
 10
215.78806
 20
568.640676
 11
215.78806
 21
589.141409
  0
LINE
  5
113
100
AcDbEntity
  8
M0
100
AcDbLine
 10
89.78806
 20
564.891409
 11
89.78806
 21
559.391409
  0
LINE
  5
114
100
AcDbEntity
  8
M0
100
AcDbLine
 10
211.78806
 20
564.891164
 11
211.78806
 21
559.391164
  0
LINE
  5
115
100
AcDbEntity
  8
M0
100
AcDbLine
 10
94.28806
 20
578.641409
 11
95.78806
 21
578.641409
  0
LINE
  5
116
100
AcDbEntity
  8
M0
100
AcDbLine
 10
94.28806
 20
545.641409
 11
95.78806
 21
545.641409
  0
LINE
  5
117
100
AcDbEntity
  8
M0
100
AcDbLine
 10
207.28806
 20
578.641409
 11
205.78806
 21
578.641409
  0
LINE
  5
118
100
AcDbEntity
  8
M0
100
AcDbLine
 10
207.28806
 20
545.641409
 11
205.78806
 21
545.641409
  0
LINE
  5
119
100
AcDbEntity
  8
M0
100
AcDbLine
 10
81.78806
 20
597.141409
 11
84.28806
 21
597.141409
  0
LINE
  5
11A
100
AcDbEntity
  8
M0
100
AcDbLine
 10
81.78806
 20
527.141409
 11
84.28806
 21
527.141409
  0
LINE
  5
11B
100
AcDbEntity
  8
M0
100
AcDbLine
 10
84.28806
 20
534.641409
 11
84.28806
 21
527.141409
  0
LINE
  5
11C
100
AcDbEntity
  8
M0
100
AcDbLine
 10
84.28806
 20
597.141409
 11
84.28806
 21
589.641409
  0
LINE
  5
11D
100
AcDbEntity
  8
M0
100
AcDbLine
 10
217.28806
 20
597.141409
 11
217.28806
 21
589.641409
  0
LINE
  5
11E
100
AcDbEntity
  8
M0
100
AcDbLine
 10
217.28806
 20
527.141409
 11
217.28806
 21
534.641409
  0
LINE
  5
11F
100
AcDbEntity
  8
M0
100
AcDbLine
 10
217.28806
 20
527.141409
 11
219.78806
 21
527.141409
  0
LINE
  5
120
100
AcDbEntity
  8
M0
100
AcDbLine
 10
217.28806
 20
597.141409
 11
219.78806
 21
597.141409
  0
LINE
  5
121
100
AcDbEntity
  8
M0
100
AcDbLine
 10
85.78806
 20
538.141409
 11
86.638051
 21
538.141409
  0
LINE
  5
122
100
AcDbEntity
  8
M0
100
AcDbLine
 10
85.78806
 20
586.141409
 11
86.638051
 21
586.141409
  0
LINE
  5
123
100
AcDbEntity
  8
M0
100
AcDbLine
 10
207.78806
 20
586.141409
 11
208.638051
 21
586.141409
  0
LINE
  5
124
100
AcDbEntity
  8
M0
100
AcDbLine
 10
207.78806
 20
538.141409
 11
215.78806
 21
538.141409
  0
LINE
  5
125
100
AcDbEntity
  8
M0
100
AcDbLine
 10
85.78806
 20
576.641409
 11
86.638051
 21
576.641409
  0
LINE
  5
126
100
AcDbEntity
  8
M0
100
AcDbLine
 10
85.78806
 20
547.641409
 11
86.638051
 21
547.641409
  0
LINE
  5
127
100
AcDbEntity
  8
M0
100
AcDbLine
 10
207.78806
 20
576.641409
 11
208.638051
 21
576.641409
  0
LINE
  5
128
100
AcDbEntity
  8
M0
100
AcDbLine
 10
207.78806
 20
547.641409
 11
215.78806
 21
547.641409
  0
LINE
  5
129
100
AcDbEntity
  8
M0
100
AcDbLine
 10
214.53806
 20
551.641409
 11
214.53806
 21
547.641409
  0
LINE
  5
12A
100
AcDbEntity
  8
M0
100
AcDbLine
 10
209.03806
 20
551.641409
 11
209.03806
 21
547.641409
  0
LINE
  5
12B
100
AcDbEntity
  8
M0
100
AcDbLine
 10
214.53806
 20
542.141409
 11
214.53806
 21
538.141409
  0
LINE
  5
12C
100
AcDbEntity
  8
M0
100
AcDbLine
 10
209.03806
 20
542.141409
 11
209.03806
 21
538.141409
  0
LINE
  5
12D
100
AcDbEntity
  8
M0
100
AcDbLine
 10
208.587865
 20
577.141409
 11
208.638051
 21
577.141409
  0
LINE
  5
12E
100
AcDbEntity
  8
M0
100
AcDbLine
 10
208.587865
 20
547.141409
 11
214.988011
 21
547.141409
  0
LINE
  5
12F
100
AcDbEntity
  8
M0
100
AcDbLine
 10
86.587865
 20
577.141409
 11
86.638051
 21
577.141409
  0
LINE
  5
130
100
AcDbEntity
  8
M0
100
AcDbLine
 10
86.587865
 20
547.141409
 11
86.638051
 21
547.141409
  0
LINE
  5
131
100
AcDbEntity
  8
M0
100
AcDbLine
 10
210.188206
 20
547.141164
 11
210.188206
 21
544.377737
  0
LINE
  5
132
100
AcDbEntity
  8
M0
100
AcDbLine
 10
213.388158
 20
547.141164
 11
213.388158
 21
544.377493
  0
LINE
  5
133
100
AcDbEntity
  8
M0
100
AcDbLine
 10
92.988011
 20
546.641409
 11
92.988011
 21
547.641409
  0
LINE
  5
134
100
AcDbEntity
  8
M0
100
AcDbLine
 10
86.587865
 20
546.641164
 11
86.587865
 21
547.641409
  0
LINE
  5
135
100
AcDbEntity
  8
M0
100
AcDbLine
 10
93.603947
 20
546.141409
 11
93.78806
 21
546.141409
  0
LINE
  5
136
100
AcDbEntity
  8
M0
100
AcDbLine
 10
85.78806
 20
546.141409
 11
85.972172
 21
546.141409
  0
LINE
  5
137
100
AcDbEntity
  8
M0
100
AcDbLine
 10
93.603947
 20
578.141409
 11
93.78806
 21
578.141409
  0
LINE
  5
138
100
AcDbEntity
  8
M0
100
AcDbLine
 10
85.78806
 20
578.141409
 11
85.972172
 21
578.141409
  0
LINE
  5
139
100
AcDbEntity
  8
M0
100
AcDbLine
 10
86.587865
 20
576.641409
 11
86.587865
 21
577.641164
  0
LINE
  5
13A
100
AcDbEntity
  8
M0
100
AcDbLine
 10
92.988011
 20
576.641409
 11
92.988011
 21
577.641409
  0
LINE
  5
13B
100
AcDbEntity
  8
M0
100
AcDbLine
 10
208.088109
 20
546.141164
 11
207.78806
 21
546.141164
  0
LINE
  5
13C
100
AcDbEntity
  8
M0
100
AcDbLine
 10
208.588109
 20
546.640676
 11
208.588109
 21
547.641164
  0
LINE
  5
13D
100
AcDbEntity
  8
M0
100
AcDbLine
 10
215.78806
 20
546.141164
 11
215.488255
 21
546.141164
  0
LINE
  5
13E
100
AcDbEntity
  8
M0
100
AcDbLine
 10
214.988255
 20
546.64092
 11
214.988255
 21
547.641164
  0
LINE
  5
13F
100
AcDbEntity
  8
M0
100
AcDbLine
 10
215.78806
 20
578.141164
 11
215.603795
 21
578.141164
  0
LINE
  5
140
100
AcDbEntity
  8
M0
100
AcDbLine
 10
207.97231
 20
578.141164
 11
207.78806
 21
578.141164
  0
LINE
  5
141
100
AcDbEntity
  8
M0
100
AcDbLine
 10
208.588109
 20
576.641164
 11
208.588109
 21
577.640676
  0
LINE
  5
142
100
AcDbEntity
  8
M0
100
AcDbLine
 10
85.78806
 20
570.141409
 11
85.838048
 21
570.141409
  0
LINE
  5
143
100
AcDbEntity
  8
M0
100
AcDbLine
 10
93.738057
 20
570.141409
 11
93.78806
 21
570.141409
  0
LINE
  5
144
100
AcDbEntity
  8
M0
100
AcDbLine
 10
93.738057
 20
554.141409
 11
93.78806
 21
554.141409
  0
LINE
  5
145
100
AcDbEntity
  8
M0
100
AcDbLine
 10
85.78806
 20
554.141409
 11
85.838048
 21
554.141409
  0
LINE
  5
146
100
AcDbEntity
  8
M0
100
AcDbLine
 10
86.78806
 20
567.641409
 11
92.78806
 21
567.641409
  0
LINE
  5
147
100
AcDbEntity
  8
M0
100
AcDbLine
 10
86.78806
 20
556.641409
 11
92.78806
 21
556.641409
  0
LINE
  5
148
100
AcDbEntity
  8
M0
100
AcDbLine
 10
93.78806
 20
568.641164
 11
93.78806
 21
586.691213
  0
LINE
  5
149
100
AcDbEntity
  8
M0
100
AcDbLine
 10
85.78806
 20
579.641409
 11
85.838048
 21
579.641409
  0
LINE
  5
14A
100
AcDbEntity
  8
M0
100
AcDbLine
 10
85.838048
 20
544.641409
 11
85.78806
 21
544.641409
  0
LINE
  5
14B
100
AcDbEntity
  8
M0
100
AcDbLine
 10
93.738057
 20
544.641409
 11
93.78806
 21
544.641409
  0
LINE
  5
14C
100
AcDbEntity
  8
M0
100
AcDbLine
 10
85.838048
 20
543.291128
 11
85.78806
 21
543.141164
  0
LINE
  5
14D
100
AcDbEntity
  8
M0
100
AcDbLine
 10
93.738057
 20
543.291418
 11
93.78806
 21
543.141409
  0
LINE
  5
14E
100
AcDbEntity
  8
M0
100
AcDbLine
 10
93.738057
 20
552.791418
 11
93.78806
 21
552.641409
  0
LINE
  5
14F
100
AcDbEntity
  8
M0
100
AcDbLine
 10
85.838048
 20
552.791372
 11
85.78806
 21
552.641409
  0
LINE
  5
150
100
AcDbEntity
  8
M0
100
AcDbLine
 10
85.838048
 20
571.491445
 11
85.78806
 21
571.641409
  0
LINE
  5
151
100
AcDbEntity
  8
M0
100
AcDbLine
 10
93.738057
 20
571.491399
 11
93.78806
 21
571.641409
  0
LINE
  5
152
100
AcDbEntity
  8
M0
100
AcDbLine
 10
85.838048
 20
580.991445
 11
85.78806
 21
581.141409
  0
LINE
  5
153
100
AcDbEntity
  8
M0
100
AcDbLine
 10
215.28806
 20
554.141164
 11
215.78806
 21
552.641164
  0
LINE
  5
154
100
AcDbEntity
  8
M0
100
AcDbLine
 10
215.78806
 20
554.141164
 11
215.28806
 21
554.141164
  0
LINE
  5
155
100
AcDbEntity
  8
M0
100
AcDbLine
 10
215.28806
 20
554.141164
 11
215.28806
 21
555.640676
  0
LINE
  5
156
100
AcDbEntity
  8
M0
100
AcDbLine
 10
208.28806
 20
554.141164
 11
208.28806
 21
555.64092
  0
LINE
  5
157
100
AcDbEntity
  8
M0
100
AcDbLine
 10
208.28806
 20
554.141164
 11
207.78806
 21
554.141164
  0
LINE
  5
158
100
AcDbEntity
  8
M0
100
AcDbLine
 10
208.28806
 20
554.141164
 11
207.78806
 21
552.641164
  0
LINE
  5
159
100
AcDbEntity
  8
M0
100
AcDbLine
 10
208.28806
 20
544.641164
 11
208.28806
 21
546.182424
  0
LINE
  5
15A
100
AcDbEntity
  8
M0
100
AcDbLine
 10
208.28806
 20
544.641164
 11
207.78806
 21
544.641164
  0
LINE
  5
15B
100
AcDbEntity
  8
M0
100
AcDbLine
 10
208.28806
 20
544.641164
 11
207.78806
 21
543.141164
  0
LINE
  5
15C
100
AcDbEntity
  8
M0
100
AcDbLine
 10
215.28806
 20
544.64092
 11
215.78806
 21
543.14092
  0
LINE
  5
15D
100
AcDbEntity
  8
M0
100
AcDbLine
 10
215.28806
 20
544.641164
 11
215.78806
 21
544.641164
  0
LINE
  5
15E
100
AcDbEntity
  8
M0
100
AcDbLine
 10
215.28806
 20
544.64092
 11
215.28806
 21
546.182668
  0
LINE
  5
15F
100
AcDbEntity
  8
M0
100
AcDbLine
 10
215.738057
 20
571.491155
 11
215.78806
 21
571.641164
  0
LINE
  5
160
100
AcDbEntity
  8
M0
100
AcDbLine
 10
215.78806
 20
570.141164
 11
215.738057
 21
570.141164
  0
LINE
  5
161
100
AcDbEntity
  8
M0
100
AcDbLine
 10
207.838048
 20
571.491201
 11
207.78806
 21
571.641164
  0
LINE
  5
162
100
AcDbEntity
  8
M0
100
AcDbLine
 10
207.838048
 20
570.141164
 11
207.78806
 21
570.141164
  0
LINE
  5
163
100
AcDbEntity
  8
M0
100
AcDbLine
 10
207.838048
 20
580.991201
 11
207.78806
 21
581.141164
  0
LINE
  5
164
100
AcDbEntity
  8
M0
100
AcDbLine
 10
207.838048
 20
579.641164
 11
207.78806
 21
579.641164
  0
LINE
  5
165
100
AcDbEntity
  8
M0
100
AcDbLine
 10
215.78806
 20
579.641164
 11
215.738057
 21
579.641164
  0
LINE
  5
166
100
AcDbEntity
  8
M0
100
AcDbLine
 10
215.738057
 20
580.991155
 11
215.78806
 21
581.141164
  0
LINE
  5
167
100
AcDbEntity
  8
M0
100
AcDbLine
 10
214.78806
 20
556.641164
 11
208.78806
 21
556.641164
  0
LINE
  5
168
100
AcDbEntity
  8
M0
100
AcDbLine
 10
214.78806
 20
567.641164
 11
208.78806
 21
567.641164
  0
LINE
  5
169
100
AcDbEntity
  8
M0
100
AcDbLine
 10
207.78806
 20
568.64092
 11
207.78806
 21
586.691213
  0
ARC
  5
16A
100
AcDbEntity
  8
M0
100
AcDbCircle
 10
216.28806
 20
589.141409
 40
0.5
100
AcDbArc
 50
89.998251
 51
179.998251
  0
ARC
  5
16B
100
AcDbEntity
  8
M0
100
AcDbCircle
 10
216.28806
 20
535.141409
 40
0.5
100
AcDbArc
 50
179.998251
 51
270.0
  0
ARC
  5
16C
100
AcDbEntity
  8
M0
100
AcDbCircle
 10
219.28806
 20
589.141409
 40
0.5
100
AcDbArc
 50
0.0
 51
89.998251
  0
ARC
  5
16D
100
AcDbEntity
  8
M0
100
AcDbCircle
 10
219.28806
 20
579.141409
 40
0.5
100
AcDbArc
 50
0.0
 51
89.998251
  0
ARC
  5
16E
100
AcDbEntity
  8
M0
100
AcDbCircle
 10
207.28806
 20
578.141164
 40
0.5
100
AcDbArc
 50
359.972024
 51
449.998251
  0
ARC
  5
16F
100
AcDbEntity
  8
M0
100
AcDbCircle
 10
216.28806
 20
545.141409
 40
0.5
100
AcDbArc
 50
179.998251
 51
270.0
  0
ARC
  5
170
100
AcDbEntity
  8
M0
100
AcDbCircle
 10
219.28806
 20
535.141409
 40
0.5
100
AcDbArc
 50
270.0
 51
360.0
  0
ARC
  5
171
100
AcDbEntity
  8
M0
100
AcDbCircle
 10
219.28806
 20
545.141409
 40
0.5
100
AcDbArc
 50
270.0
 51
360.0
  0
ARC
  5
172
100
AcDbEntity
  8
M0
100
AcDbCircle
 10
216.28806
 20
579.141409
 40
0.5
100
AcDbArc
 50
89.998251
 51
179.998251
  0
ARC
  5
173
100
AcDbEntity
  8
M0
100
AcDbCircle
 10
207.28806
 20
586.691213
 40
0.5
100
AcDbArc
 50
0.0
 51
89.998251
  0
ARC
  5
174
100
AcDbEntity
  8
M0
100
AcDbCircle
 10
207.28806
 20
546.141164
 40
0.5
100
AcDbArc
 50
270.0
 51
359.972024
  0
ARC
  5
175
100
AcDbEntity
  8
M0
100
AcDbCircle
 10
207.28806
 20
537.59136
 40
0.5
100
AcDbArc
 50
270.0
 51
359.972024
  0
ARC
  5
176
100
AcDbEntity
  8
M0
100
AcDbCircle
 10
216.28806
 20
545.141409
 40
0.5
100
AcDbArc
 50
179.998251
 51
270.0
  0
ARC
  5
177
100
AcDbEntity
  8
M0
100
AcDbCircle
 10
208.088109
 20
546.64092
 40
0.5
100
AcDbArc
 50
270.0
 51
359.972024
  0
ARC
  5
178
100
AcDbEntity
  8
M0
100
AcDbCircle
 10
215.488255
 20
546.64092
 40
0.5
100
AcDbArc
 50
179.998251
 51
270.0
  0
ARC
  5
179
100
AcDbEntity
  8
M0
100
AcDbCircle
 10
214.78806
 20
555.64092
 40
1.0
100
AcDbArc
 50
0.0
 51
89.999126
  0
ARC
  5
17A
100
AcDbEntity
  8
M0
100
AcDbCircle
 10
208.78806
 20
555.64092
 40
1.0
100
AcDbArc
 50
89.999126
 51
179.999126
  0
ARC
  5
17B
100
AcDbEntity
  8
M0
100
AcDbCircle
 10
209.28806
 20
555.64092
 40
1.0
100
AcDbArc
 50
89.999126
 51
179.999126
  0
ARC
  5
17C
100
AcDbEntity
  8
M0
100
AcDbCircle
 10
214.28806
 20
555.64092
 40
1.0
100
AcDbArc
 50
359.986012
 51
449.999126
  0
LINE
  5
17D
100
AcDbEntity
  8
M0
100
AcDbLine
 10
214.03806
 20
547.641409
 11
214.03806
 21
547.141409
  0
LINE
  5
17E
100
AcDbEntity
  8
M0
100
AcDbLine
 10
209.53806
 20
547.641409
 11
209.53806
 21
547.141409
  0
ARC
  5
17F
100
AcDbEntity
  8
M0
100
AcDbCircle
 10
212.78806
 20
564.891164
 40
1.0
100
AcDbArc
 50
89.999126
 51
179.999126
  0
ARC
  5
180
100
AcDbEntity
  8
M0
100
AcDbCircle
 10
212.78806
 20
559.391164
 40
1.0
100
AcDbArc
 50
179.999126
 51
270.0
  0
ARC
  5
181
100
AcDbEntity
  8
M0
100
AcDbCircle
 10
208.78806
 20
568.64092
 40
1.0
100
AcDbArc
 50
179.999126
 51
270.0
  0
ARC
  5
182
100
AcDbEntity
  8
M0
100
AcDbCircle
 10
214.78806
 20
568.64092
 40
1.0
100
AcDbArc
 50
270.0
 51
359.986012
  0
ARC
  5
183
100
AcDbEntity
  8
M0
100
AcDbCircle
 10
214.28806
 20
568.64092
 40
1.0
100
AcDbArc
 50
270.0
 51
337.727621
  0
ARC
  5
184
100
AcDbEntity
  8
M0
100
AcDbCircle
 10
209.28806
 20
568.64092
 40
1.0
100
AcDbArc
 50
202.275469
 51
270.0
  0
ARC
  5
185
100
AcDbEntity
  8
M0
100
AcDbCircle
 10
219.28806
 20
557.891164
 40
0.5
100
AcDbArc
 50
0.0
 51
89.998251
  0
ARC
  5
186
100
AcDbEntity
  8
M0
100
AcDbCircle
 10
219.28806
 20
566.391164
 40
0.5
100
AcDbArc
 50
270.0
 51
360.0
  0
LINE
  5
187
100
AcDbEntity
  8
M0
100
AcDbLine
 10
215.78806
 20
564.891409
 11
219.78806
 21
564.891409
  0
LINE
  5
188
100
AcDbEntity
  8
M0
100
AcDbLine
 10
215.78806
 20
559.391409
 11
219.78806
 21
559.391409
  0
LINE
  5
189
100
AcDbEntity
  8
M0
100
AcDbLine
 10
215.78806
 20
559.391409
 11
215.78806
 21
558.391409
  0
LINE
  5
18A
100
AcDbEntity
  8
M0
100
AcDbLine
 10
215.78806
 20
564.891409
 11
215.78806
 21
565.891409
  0
LINE
  5
18B
100
AcDbEntity
  8
M0
100
AcDbLine
 10
85.78806
 20
559.391409
 11
85.78806
 21
558.391409
  0
LINE
  5
18C
100
AcDbEntity
  8
M0
100
AcDbLine
 10
85.78806
 20
559.391409
 11
81.78806
 21
559.391409
  0
LINE
  5
18D
100
AcDbEntity
  8
M0
100
AcDbLine
 10
85.78806
 20
564.891409
 11
85.78806
 21
565.891409
  0
LINE
  5
18E
100
AcDbEntity
  8
M0
100
AcDbLine
 10
85.78806
 20
564.891409
 11
81.78806
 21
564.891409
  0
ARC
  5
18F
100
AcDbEntity
  8
M0
100
AcDbCircle
 10
88.78806
 20
559.391409
 40
1.0
100
AcDbArc
 50
270.0
 51
360.0
  0
ARC
  5
190
100
AcDbEntity
  8
M0
100
AcDbCircle
 10
88.78806
 20
564.891409
 40
1.0
100
AcDbArc
 50
0.0
 51
89.999126
  0
ARC
  5
191
100
AcDbEntity
  8
M0
100
AcDbCircle
 10
92.78806
 20
555.641409
 40
1.0
100
AcDbArc
 50
0.0
 51
89.999126
  0
ARC
  5
192
100
AcDbEntity
  8
M0
100
AcDbCircle
 10
86.78806
 20
555.641409
 40
1.0
100
AcDbArc
 50
89.999126
 51
179.999126
  0
ARC
  5
193
100
AcDbEntity
  8
M0
100
AcDbCircle
 10
86.78806
 20
568.641409
 40
1.0
100
AcDbArc
 50
179.999126
 51
270.0
  0
ARC
  5
194
100
AcDbEntity
  8
M0
100
AcDbCircle
 10
92.78806
 20
568.641409
 40
1.0
100
AcDbArc
 50
270.0
 51
359.986012
  0
ARC
  5
195
100
AcDbEntity
  8
M0
100
AcDbCircle
 10
92.28806
 20
568.641409
 40
1.0
100
AcDbArc
 50
270.0
 51
337.688817
  0
ARC
  5
196
100
AcDbEntity
  8
M0
100
AcDbCircle
 10
87.28806
 20
555.641409
 40
1.0
100
AcDbArc
 50
89.999126
 51
157.682969
  0
ARC
  5
197
100
AcDbEntity
  8
M0
100
AcDbCircle
 10
92.28806
 20
555.641409
 40
1.0
100
AcDbArc
 50
22.313941
 51
89.999126
  0
ARC
  5
198
100
AcDbEntity
  8
M0
100
AcDbCircle
 10
87.28806
 20
568.641409
 40
1.0
100
AcDbArc
 50
202.314273
 51
270.0
  0
ARC
  5
199
100
AcDbEntity
  8
M0
100
AcDbCircle
 10
85.28806
 20
579.141409
 40
0.5
100
AcDbArc
 50
359.972024
 51
449.998251
  0
ARC
  5
19A
100
AcDbEntity
  8
M0
100
AcDbCircle
 10
94.28806
 20
586.691213
 40
0.5
100
AcDbArc
 50
89.998251
 51
179.998251
  0
ARC
  5
19B
100
AcDbEntity
  8
M0
100
AcDbCircle
 10
94.28806
 20
546.141409
 40
0.5
100
AcDbArc
 50
179.998251
 51
270.0
  0
ARC
  5
19C
100
AcDbEntity
  8
M0
100
AcDbCircle
 10
82.28806
 20
545.141409
 40
0.5
100
AcDbArc
 50
179.998251
 51
270.0
  0
ARC
  5
19D
100
AcDbEntity
  8
M0
100
AcDbCircle
 10
82.28806
 20
535.141409
 40
0.5
100
AcDbArc
 50
179.998251
 51
270.0
  0
ARC
  5
19E
100
AcDbEntity
  8
M0
100
AcDbCircle
 10
85.28806
 20
545.141409
 40
0.5
100
AcDbArc
 50
270.0
 51
359.972024
  0
ARC
  5
19F
100
AcDbEntity
  8
M0
100
AcDbCircle
 10
94.28806
 20
537.59136
 40
0.5
100
AcDbArc
 50
179.998251
 51
270.0
  0
ARC
  5
1A0
100
AcDbEntity
  8
M0
100
AcDbCircle
 10
82.28806
 20
557.891409
 40
0.5
100
AcDbArc
 50
89.998251
 51
179.998251
  0
ARC
  5
1A1
100
AcDbEntity
  8
M0
100
AcDbCircle
 10
94.28806
 20
578.141409
 40
0.5
100
AcDbArc
 50
89.998251
 51
179.998251
  0
ARC
  5
1A2
100
AcDbEntity
  8
M0
100
AcDbCircle
 10
82.28806
 20
579.141409
 40
0.5
100
AcDbArc
 50
89.998251
 51
179.998251
  0
ARC
  5
1A3
100
AcDbEntity
  8
M0
100
AcDbCircle
 10
82.28806
 20
589.141409
 40
0.5
100
AcDbArc
 50
89.998251
 51
179.998251
  0
ARC
  5
1A4
100
AcDbEntity
  8
M0
100
AcDbCircle
 10
85.28806
 20
535.141409
 40
0.5
100
AcDbArc
 50
270.0
 51
359.972024
  0
ARC
  5
1A5
100
AcDbEntity
  8
M0
100
AcDbCircle
 10
85.28806
 20
589.141409
 40
0.5
100
AcDbArc
 50
0.0
 51
89.998251
  0
ARC
  5
1A6
100
AcDbEntity
  8
M0
100
AcDbCircle
 10
82.28806
 20
566.391409
 40
0.5
100
AcDbArc
 50
179.998251
 51
270.0
  0
LINE
  5
1A7
100
AcDbEntity
  8
M0
100
AcDbLine
 10
95.78806
 20
631.284277
 11
95.78806
 21
625.141409
  0
LINE
  5
1A8
100
AcDbEntity
  8
M0
100
AcDbLine
 10
205.78806
 20
631.284277
 11
205.78806
 21
625.141409
  0
LINE
  5
1A9
100
AcDbEntity
  8
M0
100
AcDbLine
 10
95.78806
 20
499.141409
 11
95.78806
 21
492.998739
  0
LINE
  5
1AA
100
AcDbEntity
  8
M0
100
AcDbLine
 10
205.78806
 20
499.141409
 11
205.78806
 21
492.998739
  0
LINE
  5
1AB
100
AcDbEntity
  8
M0
100
AcDbLine
 10
217.787816
 20
648.641409
 11
215.28806
 21
648.641409
  0
ARC
  5
1AC
100
AcDbEntity
  8
M0
100
AcDbCircle
 10
217.78806
 20
646.641164
 40
2.0
100
AcDbArc
 50
0.0
 51
90.005683
  0
ARC
  5
1AD
100
AcDbEntity
  8
M0
100
AcDbCircle
 10
83.78806
 20
646.641164
 40
2.0
100
AcDbArc
 50
89.999563
 51
180.005683
  0
ARC
  5
1AE
100
AcDbEntity
  8
M0
100
AcDbCircle
 10
211.78806
 20
551.641409
 40
2.75
100
AcDbArc
 50
0.0
 51
179.999682
  0
CIRCLE
  5
1AF
100
AcDbEntity
  8
M0
100
AcDbCircle
 10
211.78806
 20
551.641409
 40
2.0
  0
CIRCLE
  5
1B0
100
AcDbEntity
  8
M0
100
AcDbCircle
 10
211.78806
 20
542.141409
 40
2.0
  0
ARC
  5
1B1
100
AcDbEntity
  8
M0
100
AcDbCircle
 10
211.78806
 20
542.141409
 40
2.75
100
AcDbArc
 50
0.0
 51
179.999682
  0
LINE
  5
1B2
100
AcDbEntity
  8
M0
100
AcDbLine
 10
86.28806
 20
648.64118
 11
83.78806
 21
648.641164
  0
LINE
  5
1B3
100
AcDbEntity
  8
M0
100
AcDbLine
 10
190.28806
 20
648.641363
 11
163.28806
 21
648.641317
  0
LINE
  5
1B4
100
AcDbEntity
  8
M0
100
AcDbLine
 10
210.91306
 20
487.141561
 11
219.78806
 21
487.141561
  0
LINE
  5
1B5
100
AcDbEntity
  8
M0
100
AcDbLine
 10
111.691289
 20
487.141561
 11
123.78806
 21
487.141561
  0
LINE
  5
1B6
100
AcDbEntity
  8
M0
100
AcDbLine
 10
93.188039
 20
586.141409
 11
93.78806
 21
586.141409
  0
LINE
  5
1B7
100
AcDbEntity
  8
M0
100
AcDbLine
 10
92.938054
 20
576.641409
 11
93.78806
 21
576.641409
  0
LINE
  5
1B8
100
AcDbEntity
  8
M0
100
AcDbLine
 10
92.938054
 20
577.141409
 11
92.988011
 21
577.141409
  0
LINE
  5
1B9
100
AcDbEntity
  8
M0
100
AcDbLine
 10
92.938054
 20
547.641409
 11
93.78806
 21
547.641409
  0
LINE
  5
1BA
100
AcDbEntity
  8
M0
100
AcDbLine
 10
92.938054
 20
547.141409
 11
92.988011
 21
547.141409
  0
LINE
  5
1BB
100
AcDbEntity
  8
M0
100
AcDbLine
 10
93.188039
 20
538.141409
 11
93.78806
 21
538.141409
  0
LINE
  5
1BC
100
AcDbEntity
  8
M0
100
AcDbLine
 10
215.188039
 20
586.141409
 11
215.78806
 21
586.141409
  0
LINE
  5
1BD
100
AcDbEntity
  8
M0
100
AcDbLine
 10
215.188039
 20
576.641409
 11
215.78806
 21
576.641409
  0
LINE
  5
1BE
100
AcDbEntity
  8
M0
100
AcDbLine
 10
138.28806
 20
648.641271
 11
111.28806
 21
648.641226
  0
LINE
  5
1BF
100
AcDbEntity
  8
M0
100
AcDbLine
 10
138.28806
 20
637.140936
 11
136.803685
 21
637.14092
  0
LINE
  5
1C0
100
AcDbEntity
  8
M0
100
AcDbLine
 10
163.28806
 20
487.141561
 11
164.771947
 21
487.141561
  0
LINE
  5
1C1
100
AcDbEntity
  8
M0
 62
     7
100
AcDbLine
 10
125.78806
 20
487.141561
 11
135.78806
 21
487.141561
  0
LINE
  5
1C2
100
AcDbEntity
  8
M0
 62
     7
100
AcDbLine
 10
205.78806
 20
499.141393
 11
205.78806
 21
625.141409
  0
LINE
  5
1C3
100
AcDbEntity
  8
M0
 62
     7
100
AcDbLine
 10
175.78806
 20
637.141409
 11
165.78806
 21
637.141409
  0
LINE
  5
1C4
100
AcDbEntity
  8
M0
 62
     7
100
AcDbLine
 10
95.78806
 20
625.141409
 11
95.78806
 21
499.141409
  0
LINE
  5
1C5
100
AcDbEntity
  8
M0
 62
     7
100
AcDbLine
 10
97.78806
 20
627.141409
 11
122.78806
 21
627.141409
  0
LINE
  5
1C6
100
AcDbEntity
  8
M0
 62
     7
100
AcDbLine
 10
97.78806
 20
497.141409
 11
122.78806
 21
497.141409
  0
ARC
  5
1C7
100
AcDbEntity
  8
M0
 62
     7
100
AcDbCircle
 10
203.78806
 20
625.141409
 40
2.0
100
AcDbArc
 50
0.0
 51
89.999563
  0
ARC
  5
1C8
100
AcDbEntity
  8
M0
 62
     7
100
AcDbCircle
 10
97.78806
 20
625.141409
 40
2.0
100
AcDbArc
 50
89.999563
 51
179.999563
  0
ARC
  5
1C9
100
AcDbEntity
  8
M0
 62
     7
100
AcDbCircle
 10
97.78806
 20
499.141409
 40
2.0
100
AcDbArc
 50
179.999563
 51
270.0
  0
ARC
  5
1CA
100
AcDbEntity
  8
M0
 62
     7
100
AcDbCircle
 10
203.78806
 20
499.141409
 40
2.0
100
AcDbArc
 50
270.0
 51
360.0
  0
LINE
  5
1CB
100
AcDbEntity
  8
M0
 62
     7
100
AcDbLine
 10
107.78806
 20
501.141409
 11
123.78806
 21
501.141409
  0
LINE
  5
1CC
100
AcDbEntity
  8
M0
 62
     7
100
AcDbLine
 10
107.78806
 20
623.141409
 11
123.78806
 21
623.141409
  0
LINE
  5
1CD
100
AcDbEntity
  8
M0
 62
     7
100
AcDbLine
 10
193.78806
 20
501.141409
 11
193.78806
 21
498.141409
  0
LINE
  5
1CE
100
AcDbEntity
  8
M0
 62
     7
100
AcDbLine
 10
177.78806
 20
501.141409
 11
177.78806
 21
483.641561
  0
LINE
  5
1CF
100
AcDbEntity
  8
M0
 62
     7
100
AcDbLine
 10
158.78806
 20
501.141409
 11
158.78806
 21
498.141409
  0
LINE
  5
1D0
100
AcDbEntity
  8
M0
 62
     7
100
AcDbLine
 10
142.78806
 20
501.141409
 11
142.78806
 21
498.141409
  0
LINE
  5
1D1
100
AcDbEntity
  8
M0
 62
     7
100
AcDbLine
 10
107.78806
 20
501.141409
 11
107.78806
 21
498.141409
  0
LINE
  5
1D2
100
AcDbEntity
  8
M0
 62
     7
100
AcDbLine
 10
123.78806
 20
501.141409
 11
123.78806
 21
483.641561
  0
LINE
  5
1D3
100
AcDbEntity
  8
M0
 62
     7
100
AcDbLine
 10
193.78806
 20
626.141409
 11
193.78806
 21
623.141409
  0
LINE
  5
1D4
100
AcDbEntity
  8
M0
 62
     7
100
AcDbLine
 10
177.78806
 20
627.141409
 11
177.78806
 21
623.141409
  0
LINE
  5
1D5
100
AcDbEntity
  8
M0
 62
     7
100
AcDbLine
 10
158.78806
 20
626.141409
 11
158.78806
 21
623.141409
  0
LINE
  5
1D6
100
AcDbEntity
  8
M0
 62
     7
100
AcDbLine
 10
142.78806
 20
626.141409
 11
142.78806
 21
623.141409
  0
LINE
  5
1D7
100
AcDbEntity
  8
M0
 62
     7
100
AcDbLine
 10
123.78806
 20
627.141409
 11
123.78806
 21
623.141409
  0
LINE
  5
1D8
100
AcDbEntity
  8
M0
 62
     7
100
AcDbLine
 10
107.78806
 20
626.141409
 11
107.78806
 21
623.141409
  0
LINE
  5
1D9
100
AcDbEntity
  8
M0
 62
     7
100
AcDbLine
 10
142.78806
 20
501.141409
 11
158.78806
 21
501.141409
  0
LINE
  5
1DA
100
AcDbEntity
  8
M0
 62
     7
100
AcDbLine
 10
177.78806
 20
501.141409
 11
193.78806
 21
501.141409
  0
LINE
  5
1DB
100
AcDbEntity
  8
M0
 62
     7
100
AcDbLine
 10
177.78806
 20
623.141409
 11
193.78806
 21
623.141409
  0
LINE
  5
1DC
100
AcDbEntity
  8
M0
 62
     7
100
AcDbLine
 10
142.78806
 20
623.141409
 11
158.78806
 21
623.141409
  0
ARC
  5
1DD
100
AcDbEntity
  8
M0
 62
     7
100
AcDbCircle
 10
125.78806
 20
489.141561
 40
2.0
100
AcDbArc
 50
179.979017
 51
270.0
  0
ARC
  5
1DE
100
AcDbEntity
  8
M0
 62
     7
100
AcDbCircle
 10
175.78806
 20
489.141561
 40
2.0
100
AcDbArc
 50
270.0
 51
360.0
  0
LINE
  5
1DF
100
AcDbEntity
  8
M0
 62
     7
100
AcDbLine
 10
137.78806
 20
496.141409
 11
137.78806
 21
489.141561
  0
LINE
  5
1E0
100
AcDbEntity
  8
M0
 62
     7
100
AcDbLine
 10
163.78806
 20
496.141409
 11
163.78806
 21
489.141561
  0
LINE
  5
1E1
100
AcDbEntity
  8
M0
 62
     7
100
AcDbLine
 10
165.78806
 20
487.141561
 11
175.78806
 21
487.141561
  0
LINE
  5
1E2
100
AcDbEntity
  8
M0
 62
     7
100
AcDbLine
 10
138.78806
 20
497.141409
 11
162.78806
 21
497.141409
  0
LINE
  5
1E3
100
AcDbEntity
  8
M0
 62
     7
100
AcDbLine
 10
178.78806
 20
497.141409
 11
203.78806
 21
497.141409
  0
ARC
  5
1E4
100
AcDbEntity
  8
M0
 62
     7
100
AcDbCircle
 10
135.78806
 20
489.141561
 40
2.0
100
AcDbArc
 50
270.0
 51
360.0
  0
ARC
  5
1E5
100
AcDbEntity
  8
M0
 62
     7
100
AcDbCircle
 10
165.78806
 20
489.141561
 40
2.0
100
AcDbArc
 50
179.979017
 51
270.0
  0
ARC
  5
1E6
100
AcDbEntity
  8
M0
 62
     7
100
AcDbCircle
 10
138.78806
 20
496.141409
 40
1.0
100
AcDbArc
 50
89.999126
 51
179.999126
  0
ARC
  5
1E7
100
AcDbEntity
  8
M0
 62
     7
100
AcDbCircle
 10
162.78806
 20
496.141409
 40
1.0
100
AcDbArc
 50
0.0
 51
89.999126
  0
ARC
  5
1E8
100
AcDbEntity
  8
M0
 62
     7
100
AcDbCircle
 10
194.78806
 20
498.141409
 40
1.0
100
AcDbArc
 50
179.999126
 51
270.0
  0
ARC
  5
1E9
100
AcDbEntity
  8
M0
 62
     7
100
AcDbCircle
 10
178.78806
 20
496.141409
 40
1.0
100
AcDbArc
 50
89.999126
 51
179.999126
  0
ARC
  5
1EA
100
AcDbEntity
  8
M0
 62
     7
100
AcDbCircle
 10
159.78806
 20
498.141409
 40
1.0
100
AcDbArc
 50
179.999126
 51
270.0
  0
ARC
  5
1EB
100
AcDbEntity
  8
M0
 62
     7
100
AcDbCircle
 10
141.78806
 20
498.141409
 40
1.0
100
AcDbArc
 50
270.0
 51
360.0
  0
ARC
  5
1EC
100
AcDbEntity
  8
M0
 62
     7
100
AcDbCircle
 10
122.78806
 20
496.141409
 40
1.0
100
AcDbArc
 50
0.0
 51
89.999126
  0
ARC
  5
1ED
100
AcDbEntity
  8
M0
 62
     7
100
AcDbCircle
 10
106.78806
 20
498.141409
 40
1.0
100
AcDbArc
 50
270.0
 51
360.0
  0
LINE
  5
1EE
100
AcDbEntity
  8
M0
 62
     7
100
AcDbLine
 10
177.78806
 20
640.641164
 11
177.78806
 21
627.141409
  0
LINE
  5
1EF
100
AcDbEntity
  8
M0
 62
     7
100
AcDbLine
 10
163.78806
 20
635.141164
 11
163.78806
 21
628.141409
  0
LINE
  5
1F0
100
AcDbEntity
  8
M0
 62
     7
100
AcDbLine
 10
137.78806
 20
635.14092
 11
137.78806
 21
628.141409
  0
LINE
  5
1F1
100
AcDbEntity
  8
M0
 62
     7
100
AcDbLine
 10
123.78806
 20
640.640676
 11
123.78806
 21
627.141409
  0
LINE
  5
1F2
100
AcDbEntity
  8
M0
 62
     7
100
AcDbLine
 10
135.78806
 20
637.141164
 11
125.78806
 21
637.141164
  0
ARC
  5
1F3
100
AcDbEntity
  8
M0
 62
     7
100
AcDbCircle
 10
175.78806
 20
635.141164
 40
2.0
100
AcDbArc
 50
0.0
 51
89.999563
  0
ARC
  5
1F4
100
AcDbEntity
  8
M0
 62
     7
100
AcDbCircle
 10
165.78806
 20
635.141164
 40
2.0
100
AcDbArc
 50
89.999563
 51
179.999563
  0
ARC
  5
1F5
100
AcDbEntity
  8
M0
 62
     7
100
AcDbCircle
 10
135.78806
 20
635.14092
 40
2.0
100
AcDbArc
 50
0.0
 51
89.999563
  0
ARC
  5
1F6
100
AcDbEntity
  8
M0
 62
     7
100
AcDbCircle
 10
125.78806
 20
635.14092
 40
2.0
100
AcDbArc
 50
89.999563
 51
179.999563
  0
LINE
  5
1F7
100
AcDbEntity
  8
M0
 62
     7
100
AcDbLine
 10
138.78806
 20
627.141409
 11
162.78806
 21
627.141409
  0
LINE
  5
1F8
100
AcDbEntity
  8
M0
 62
     7
100
AcDbLine
 10
178.78806
 20
627.141409
 11
203.78806
 21
627.141409
  0
ARC
  5
1F9
100
AcDbEntity
  8
M0
 62
     7
100
AcDbCircle
 10
138.78806
 20
628.141409
 40
1.0
100
AcDbArc
 50
179.999126
 51
270.0
  0
ARC
  5
1FA
100
AcDbEntity
  8
M0
 62
     7
100
AcDbCircle
 10
162.78806
 20
628.141409
 40
1.0
100
AcDbArc
 50
270.0
 51
360.0
  0
ARC
  5
1FB
100
AcDbEntity
  8
M0
 62
     7
100
AcDbCircle
 10
194.78806
 20
626.141409
 40
1.0
100
AcDbArc
 50
89.999126
 51
179.999126
  0
ARC
  5
1FC
100
AcDbEntity
  8
M0
 62
     7
100
AcDbCircle
 10
178.78806
 20
628.141409
 40
1.0
100
AcDbArc
 50
179.999126
 51
270.0
  0
ARC
  5
1FD
100
AcDbEntity
  8
M0
 62
     7
100
AcDbCircle
 10
159.78806
 20
626.141409
 40
1.0
100
AcDbArc
 50
89.999126
 51
179.999126
  0
ARC
  5
1FE
100
AcDbEntity
  8
M0
 62
     7
100
AcDbCircle
 10
106.78806
 20
626.141409
 40
1.0
100
AcDbArc
 50
0.0
 51
89.999126
  0
ARC
  5
1FF
100
AcDbEntity
  8
M0
 62
     7
100
AcDbCircle
 10
122.78806
 20
628.141409
 40
1.0
100
AcDbArc
 50
270.0
 51
360.0
  0
ARC
  5
200
100
AcDbEntity
  8
M0
 62
     7
100
AcDbCircle
 10
141.78806
 20
626.141409
 40
1.0
100
AcDbArc
 50
0.0
 51
89.999126
  0
LINE
  5
201
100
AcDbEntity
  8
M0
 62
     7
100
AcDbLine
 10
125.78806
 20
481.641561
 11
132.788045
 21
481.641561
  0
LINE
  5
202
100
AcDbEntity
  8
M0
 62
     7
100
AcDbLine
 10
168.788045
 20
481.641561
 11
175.78806
 21
481.641561
  0
LINE
  5
203
100
AcDbEntity
  8
M0
 62
     7
100
AcDbLine
 10
175.78806
 20
642.641409
 11
168.788228
 21
642.641164
  0
LINE
  5
204
100
AcDbEntity
  8
M0
 62
     7
100
AcDbLine
 10
132.787877
 20
642.640676
 11
125.78806
 21
642.641164
  0
ARC
  5
205
100
AcDbEntity
  8
M0
 62
     7
100
AcDbCircle
 10
125.78806
 20
640.64092
 40
2.0
100
AcDbArc
 50
89.999563
 51
180.005683
  0
ARC
  5
206
100
AcDbEntity
  8
M0
 62
     7
100
AcDbCircle
 10
175.78806
 20
640.641164
 40
2.0
100
AcDbArc
 50
0.0
 51
89.999563
  0
ARC
  5
207
100
AcDbEntity
  8
M0
 62
     7
100
AcDbCircle
 10
175.78806
 20
483.641561
 40
2.0
100
AcDbArc
 50
270.0
 51
360.0
  0
ARC
  5
208
100
AcDbEntity
  8
M0
 62
     7
100
AcDbCircle
 10
125.78806
 20
483.641561
 40
2.0
100
AcDbArc
 50
179.979017
 51
270.0
  0
LINE
  5
209
100
AcDbEntity
  8
M0
 62
     7
100
AcDbLine
 10
127.28806
 20
484.641561
 11
128.28806
 21
484.641561
  0
LINE
  5
20A
100
AcDbEntity
  8
M0
 62
     7
100
AcDbLine
 10
170.28806
 20
484.641561
 11
171.28806
 21
484.641561
  0
LINE
  5
20B
100
AcDbEntity
  8
M0
 62
     7
100
AcDbLine
 10
173.28806
 20
484.641561
 11
173.28806
 21
481.641561
  0
LINE
  5
20C
100
AcDbEntity
  8
M0
 62
     7
100
AcDbLine
 10
171.28806
 20
484.641561
 11
171.28806
 21
481.641561
  0
LINE
  5
20D
100
AcDbEntity
  8
M0
 62
     7
100
AcDbLine
 10
130.28806
 20
484.641561
 11
130.28806
 21
481.641561
  0
LINE
  5
20E
100
AcDbEntity
  8
M0
 62
     7
100
AcDbLine
 10
128.28806
 20
484.641561
 11
128.28806
 21
481.641561
  0
LINE
  5
20F
100
AcDbEntity
  8
M0
 62
     7
100
AcDbLine
 10
174.78806
 20
486.641561
 11
174.78806
 21
485.141561
  0
LINE
  5
210
100
AcDbEntity
  8
M0
 62
     7
100
AcDbLine
 10
169.78806
 20
486.641561
 11
169.78806
 21
485.141561
  0
LINE
  5
211
100
AcDbEntity
  8
M0
 62
     7
100
AcDbLine
 10
131.78806
 20
486.641561
 11
131.78806
 21
485.141561
  0
LINE
  5
212
100
AcDbEntity
  8
M0
 62
     7
100
AcDbLine
 10
126.78806
 20
486.641561
 11
126.78806
 21
485.141561
  0
LINE
  5
213
100
AcDbEntity
  8
M0
 62
     7
100
AcDbLine
 10
130.28806
 20
484.641561
 11
131.28806
 21
484.641561
  0
LINE
  5
214
100
AcDbEntity
  8
M0
 62
     7
100
AcDbLine
 10
173.28806
 20
484.641561
 11
174.28806
 21
484.641561
  0
ARC
  5
215
100
AcDbEntity
  8
M0
 62
     7
100
AcDbCircle
 10
170.28806
 20
485.141561
 40
0.5
100
AcDbArc
 50
179.916068
 51
270.0
  0
ARC
  5
216
100
AcDbEntity
  8
M0
 62
     7
100
AcDbCircle
 10
127.28806
 20
485.141561
 40
0.5
100
AcDbArc
 50
179.916068
 51
270.0
  0
ARC
  5
217
100
AcDbEntity
  8
M0
 62
     7
100
AcDbCircle
 10
131.28806
 20
485.141561
 40
0.5
100
AcDbArc
 50
270.0
 51
360.0
  0
ARC
  5
218
100
AcDbEntity
  8
M0
 62
     7
100
AcDbCircle
 10
174.28806
 20
485.141561
 40
0.5
100
AcDbArc
 50
270.0
 51
360.0
  0
ARC
  5
219
100
AcDbEntity
  8
M0
 62
     7
100
AcDbCircle
 10
170.28806
 20
486.641561
 40
0.5
100
AcDbArc
 50
89.998251
 51
179.916068
  0
ARC
  5
21A
100
AcDbEntity
  8
M0
 62
     7
100
AcDbCircle
 10
127.28806
 20
486.641561
 40
0.5
100
AcDbArc
 50
89.998251
 51
179.916068
  0
ARC
  5
21B
100
AcDbEntity
  8
M0
 62
     7
100
AcDbCircle
 10
174.28806
 20
486.641561
 40
0.5
100
AcDbArc
 50
0.0
 51
89.998251
  0
ARC
  5
21C
100
AcDbEntity
  8
M0
 62
     7
100
AcDbCircle
 10
131.28806
 20
486.641561
 40
0.5
100
AcDbArc
 50
0.0
 51
89.998251
  0
LINE
  5
21D
100
AcDbEntity
  8
M0
 62
     7
100
AcDbLine
 10
132.78806
 20
481.641561
 11
137.403279
 21
487.962118
  0
LINE
  5
21E
100
AcDbEntity
  8
M0
 62
     7
100
AcDbLine
 10
168.78806
 20
481.641561
 11
164.172826
 21
487.962118
  0
LINE
  5
21F
100
AcDbEntity
  8
M0
 62
     7
100
AcDbLine
 10
132.78806
 20
642.640676
 11
137.403264
 21
636.320364
  0
LINE
  5
220
100
AcDbEntity
  8
M0
 62
     7
100
AcDbLine
 10
168.78806
 20
642.641164
 11
164.172826
 21
636.320364
  0
LINE
  5
221
100
AcDbEntity
  8
M0
 62
     7
100
AcDbLine
 10
174.287968
 20
639.64092
 11
173.28806
 21
639.64092
  0
LINE
  5
222
100
AcDbEntity
  8
M0
 62
     7
100
AcDbLine
 10
131.287968
 20
639.640188
 11
130.28806
 21
639.640188
  0
LINE
  5
223
100
AcDbEntity
  8
M0
 62
     7
100
AcDbLine
 10
173.28806
 20
642.641164
 11
173.28806
 21
639.641409
  0
LINE
  5
224
100
AcDbEntity
  8
M0
 62
     7
100
AcDbLine
 10
171.28806
 20
642.641164
 11
171.28806
 21
639.641409
  0
LINE
  5
225
100
AcDbEntity
  8
M0
 62
     7
100
AcDbLine
 10
130.28806
 20
642.640676
 11
130.28806
 21
639.640676
  0
LINE
  5
226
100
AcDbEntity
  8
M0
 62
     7
100
AcDbLine
 10
128.28806
 20
642.64092
 11
128.28806
 21
639.640676
  0
LINE
  5
227
100
AcDbEntity
  8
M0
 62
     7
100
AcDbLine
 10
174.78806
 20
639.14092
 11
174.78806
 21
637.641164
  0
LINE
  5
228
100
AcDbEntity
  8
M0
 62
     7
100
AcDbLine
 10
169.78806
 20
639.14092
 11
169.78806
 21
637.641164
  0
LINE
  5
229
100
AcDbEntity
  8
M0
 62
     7
100
AcDbLine
 10
131.78806
 20
639.140188
 11
131.78806
 21
637.64092
  0
LINE
  5
22A
100
AcDbEntity
  8
M0
 62
     7
100
AcDbLine
 10
126.78806
 20
639.140188
 11
126.78806
 21
637.64092
  0
LINE
  5
22B
100
AcDbEntity
  8
M0
 62
     7
100
AcDbLine
 10
128.28806
 20
639.640188
 11
127.288136
 21
639.640188
  0
LINE
  5
22C
100
AcDbEntity
  8
M0
 62
     7
100
AcDbLine
 10
171.28806
 20
639.64092
 11
170.288136
 21
639.64092
  0
ARC
  5
22D
100
AcDbEntity
  8
M0
 62
     7
100
AcDbCircle
 10
174.28806
 20
639.14092
 40
0.5
100
AcDbArc
 50
0.0
 51
90.005246
  0
ARC
  5
22E
100
AcDbEntity
  8
M0
 62
     7
100
AcDbCircle
 10
170.28806
 20
639.14092
 40
0.5
100
AcDbArc
 50
89.986012
 51
179.998251
  0
ARC
  5
22F
100
AcDbEntity
  8
M0
 62
     7
100
AcDbCircle
 10
131.28806
 20
639.140188
 40
0.5
100
AcDbArc
 50
0.0
 51
90.005246
  0
ARC
  5
230
100
AcDbEntity
  8
M0
 62
     7
100
AcDbCircle
 10
127.28806
 20
639.140188
 40
0.5
100
AcDbArc
 50
89.986012
 51
179.998251
  0
ARC
  5
231
100
AcDbEntity
  8
M0
 62
     7
100
AcDbCircle
 10
131.28806
 20
637.64092
 40
0.5
100
AcDbArc
 50
270.0
 51
360.0
  0
ARC
  5
232
100
AcDbEntity
  8
M0
 62
     7
100
AcDbCircle
 10
174.28806
 20
637.641164
 40
0.5
100
AcDbArc
 50
270.0
 51
360.0
  0
ARC
  5
233
100
AcDbEntity
  8
M0
 62
     7
100
AcDbCircle
 10
127.28806
 20
637.64092
 40
0.5
100
AcDbArc
 50
179.998251
 51
270.0
  0
ARC
  5
234
100
AcDbEntity
  8
M0
 62
     7
100
AcDbCircle
 10
170.28806
 20
637.641164
 40
0.5
100
AcDbArc
 50
179.998251
 51
270.0
  0
LINE
  5
235
100
AcDbEntity
  8
M0
 62
     7
100
AcDbLine
 10
97.78806
 20
583.641409
 11
97.78806
 21
580.641409
  0
LINE
  5
236
100
AcDbEntity
  8
M0
 62
     7
100
AcDbLine
 10
203.78806
 20
540.641409
 11
203.78806
 21
543.641409
  0
LINE
  5
237
100
AcDbEntity
  8
M0
 62
     7
100
AcDbLine
 10
101.78806
 20
583.641409
 11
101.78806
 21
580.641409
  0
LINE
  5
238
100
AcDbEntity
  8
M0
 62
     7
100
AcDbLine
 10
199.78806
 20
540.641409
 11
199.78806
 21
543.641409
  0
LINE
  5
239
100
AcDbEntity
  8
M0
 62
     7
100
AcDbLine
 10
197.78806
 20
540.641409
 11
197.78806
 21
543.641409
  0
LINE
  5
23A
100
AcDbEntity
  8
M0
 62
     7
100
AcDbLine
 10
103.78806
 20
583.641409
 11
103.78806
 21
580.641409
  0
LINE
  5
23B
100
AcDbEntity
  8
M0
 62
     7
100
AcDbLine
 10
107.78806
 20
583.641409
 11
107.78806
 21
580.641409
  0
LINE
  5
23C
100
AcDbEntity
  8
M0
 62
     7
100
AcDbLine
 10
193.78806
 20
540.641409
 11
193.78806
 21
543.641409
  0
LINE
  5
23D
100
AcDbEntity
  8
M0
 62
     7
100
AcDbLine
 10
97.78806
 20
570.641409
 11
101.78806
 21
570.641409
  0
LINE
  5
23E
100
AcDbEntity
  8
M0
 62
     7
100
AcDbLine
 10
97.78806
 20
553.641409
 11
101.78806
 21
553.641409
  0
LINE
  5
23F
100
AcDbEntity
  8
M0
 62
     7
100
AcDbLine
 10
193.78806
 20
570.641409
 11
197.78806
 21
570.641409
  0
LINE
  5
240
100
AcDbEntity
  8
M0
 62
     7
100
AcDbLine
 10
193.78806
 20
553.641409
 11
197.78806
 21
553.641409
  0
LINE
  5
241
100
AcDbEntity
  8
M0
 62
     7
100
AcDbLine
 10
97.78806
 20
573.641409
 11
101.78806
 21
573.641409
  0
LINE
  5
242
100
AcDbEntity
  8
M0
 62
     7
100
AcDbLine
 10
97.78806
 20
550.641409
 11
101.78806
 21
550.641409
  0
LINE
  5
243
100
AcDbEntity
  8
M0
 62
     7
100
AcDbLine
 10
193.78806
 20
573.641409
 11
197.78806
 21
573.641409
  0
LINE
  5
244
100
AcDbEntity
  8
M0
 62
     7
100
AcDbLine
 10
193.78806
 20
550.641409
 11
197.78806
 21
550.641409
  0
LINE
  5
245
100
AcDbEntity
  8
M0
 62
     7
100
AcDbLine
 10
97.78806
 20
580.641409
 11
101.78806
 21
580.641409
  0
LINE
  5
246
100
AcDbEntity
  8
M0
 62
     7
100
AcDbLine
 10
97.78806
 20
543.641409
 11
101.78806
 21
543.641409
  0
LINE
  5
247
100
AcDbEntity
  8
M0
 62
     7
100
AcDbLine
 10
193.78806
 20
580.641409
 11
197.78806
 21
580.641409
  0
LINE
  5
248
100
AcDbEntity
  8
M0
 62
     7
100
AcDbLine
 10
193.78806
 20
543.641409
 11
197.78806
 21
543.641409
  0
LINE
  5
249
100
AcDbEntity
  8
M0
 62
     7
100
AcDbLine
 10
97.78806
 20
540.641409
 11
101.78806
 21
540.641409
  0
LINE
  5
24A
100
AcDbEntity
  8
M0
 62
     7
100
AcDbLine
 10
97.78806
 20
583.641409
 11
101.78806
 21
583.641409
  0
LINE
  5
24B
100
AcDbEntity
  8
M0
 62
     7
100
AcDbLine
 10
193.78806
 20
583.641409
 11
197.78806
 21
583.641409
  0
LINE
  5
24C
100
AcDbEntity
  8
M0
 62
     7
100
AcDbLine
 10
193.78806
 20
540.641409
 11
197.78806
 21
540.641409
  0
LINE
  5
24D
100
AcDbEntity
  8
M0
 62
     7
100
AcDbLine
 10
107.78806
 20
543.641409
 11
107.78806
 21
540.641409
  0
LINE
  5
24E
100
AcDbEntity
  8
M0
 62
     7
100
AcDbLine
 10
103.78806
 20
543.641409
 11
103.78806
 21
540.641409
  0
LINE
  5
24F
100
AcDbEntity
  8
M0
 62
     7
100
AcDbLine
 10
101.78806
 20
543.641409
 11
101.78806
 21
540.641409
  0
LINE
  5
250
100
AcDbEntity
  8
M0
 62
     7
100
AcDbLine
 10
97.78806
 20
543.641409
 11
97.78806
 21
540.641409
  0
LINE
  5
251
100
AcDbEntity
  8
M0
 62
     7
100
AcDbLine
 10
107.78806
 20
553.641409
 11
107.78806
 21
550.641409
  0
LINE
  5
252
100
AcDbEntity
  8
M0
 62
     7
100
AcDbLine
 10
103.78806
 20
553.641409
 11
103.78806
 21
550.641409
  0
LINE
  5
253
100
AcDbEntity
  8
M0
 62
     7
100
AcDbLine
 10
101.78806
 20
553.641409
 11
101.78806
 21
550.641409
  0
LINE
  5
254
100
AcDbEntity
  8
M0
 62
     7
100
AcDbLine
 10
97.78806
 20
553.641409
 11
97.78806
 21
550.641409
  0
LINE
  5
255
100
AcDbEntity
  8
M0
 62
     7
100
AcDbLine
 10
97.78806
 20
573.641409
 11
97.78806
 21
570.641409
  0
LINE
  5
256
100
AcDbEntity
  8
M0
 62
     7
100
AcDbLine
 10
101.78806
 20
573.641409
 11
101.78806
 21
570.641409
  0
LINE
  5
257
100
AcDbEntity
  8
M0
 62
     7
100
AcDbLine
 10
103.78806
 20
573.641409
 11
103.78806
 21
570.641409
  0
LINE
  5
258
100
AcDbEntity
  8
M0
 62
     7
100
AcDbLine
 10
107.78806
 20
573.641409
 11
107.78806
 21
570.641409
  0
LINE
  5
259
100
AcDbEntity
  8
M0
 62
     7
100
AcDbLine
 10
103.78806
 20
540.641409
 11
107.78806
 21
540.641409
  0
LINE
  5
25A
100
AcDbEntity
  8
M0
 62
     7
100
AcDbLine
 10
103.78806
 20
543.641409
 11
107.78806
 21
543.641409
  0
LINE
  5
25B
100
AcDbEntity
  8
M0
 62
     7
100
AcDbLine
 10
103.78806
 20
550.641409
 11
107.78806
 21
550.641409
  0
LINE
  5
25C
100
AcDbEntity
  8
M0
 62
     7
100
AcDbLine
 10
103.78806
 20
553.641409
 11
107.78806
 21
553.641409
  0
LINE
  5
25D
100
AcDbEntity
  8
M0
 62
     7
100
AcDbLine
 10
103.78806
 20
570.641409
 11
107.78806
 21
570.641409
  0
LINE
  5
25E
100
AcDbEntity
  8
M0
 62
     7
100
AcDbLine
 10
103.78806
 20
573.641409
 11
107.78806
 21
573.641409
  0
LINE
  5
25F
100
AcDbEntity
  8
M0
 62
     7
100
AcDbLine
 10
103.78806
 20
583.641409
 11
107.78806
 21
583.641409
  0
LINE
  5
260
100
AcDbEntity
  8
M0
 62
     7
100
AcDbLine
 10
103.78806
 20
580.641409
 11
107.78806
 21
580.641409
  0
LINE
  5
261
100
AcDbEntity
  8
M0
 62
     7
100
AcDbLine
 10
199.78806
 20
583.641409
 11
203.78806
 21
583.641409
  0
LINE
  5
262
100
AcDbEntity
  8
M0
 62
     7
100
AcDbLine
 10
199.78806
 20
580.641409
 11
203.78806
 21
580.641409
  0
LINE
  5
263
100
AcDbEntity
  8
M0
 62
     7
100
AcDbLine
 10
199.78806
 20
573.641409
 11
203.78806
 21
573.641409
  0
LINE
  5
264
100
AcDbEntity
  8
M0
 62
     7
100
AcDbLine
 10
199.78806
 20
570.641409
 11
203.78806
 21
570.641409
  0
LINE
  5
265
100
AcDbEntity
  8
M0
 62
     7
100
AcDbLine
 10
199.78806
 20
553.641409
 11
203.78806
 21
553.641409
  0
LINE
  5
266
100
AcDbEntity
  8
M0
 62
     7
100
AcDbLine
 10
199.78806
 20
550.641409
 11
203.78806
 21
550.641409
  0
LINE
  5
267
100
AcDbEntity
  8
M0
 62
     7
100
AcDbLine
 10
199.78806
 20
543.641409
 11
203.78806
 21
543.641409
  0
LINE
  5
268
100
AcDbEntity
  8
M0
 62
     7
100
AcDbLine
 10
199.78806
 20
540.641409
 11
203.78806
 21
540.641409
  0
LINE
  5
269
100
AcDbEntity
  8
M0
 62
     7
100
AcDbLine
 10
193.78806
 20
550.641409
 11
193.78806
 21
553.641409
  0
LINE
  5
26A
100
AcDbEntity
  8
M0
 62
     7
100
AcDbLine
 10
197.78806
 20
550.641409
 11
197.78806
 21
553.641409
  0
LINE
  5
26B
100
AcDbEntity
  8
M0
 62
     7
100
AcDbLine
 10
199.78806
 20
550.641409
 11
199.78806
 21
553.641409
  0
LINE
  5
26C
100
AcDbEntity
  8
M0
 62
     7
100
AcDbLine
 10
203.78806
 20
550.641409
 11
203.78806
 21
553.641409
  0
LINE
  5
26D
100
AcDbEntity
  8
M0
 62
     7
100
AcDbLine
 10
193.78806
 20
580.641409
 11
193.78806
 21
583.641409
  0
LINE
  5
26E
100
AcDbEntity
  8
M0
 62
     7
100
AcDbLine
 10
197.78806
 20
580.641409
 11
197.78806
 21
583.641409
  0
LINE
  5
26F
100
AcDbEntity
  8
M0
 62
     7
100
AcDbLine
 10
199.78806
 20
580.641409
 11
199.78806
 21
583.641409
  0
LINE
  5
270
100
AcDbEntity
  8
M0
 62
     7
100
AcDbLine
 10
203.78806
 20
580.641409
 11
203.78806
 21
583.641409
  0
LINE
  5
271
100
AcDbEntity
  8
M0
 62
     7
100
AcDbLine
 10
193.78806
 20
570.641409
 11
193.78806
 21
573.641409
  0
LINE
  5
272
100
AcDbEntity
  8
M0
 62
     7
100
AcDbLine
 10
197.78806
 20
570.641409
 11
197.78806
 21
573.641409
  0
LINE
  5
273
100
AcDbEntity
  8
M0
 62
     7
100
AcDbLine
 10
199.78806
 20
570.641409
 11
199.78806
 21
573.641409
  0
LINE
  5
274
100
AcDbEntity
  8
M0
 62
     7
100
AcDbLine
 10
203.78806
 20
570.641409
 11
203.78806
 21
573.641409
  0
TEXT
  5
275
100
AcDbEntity
  8
M0
 62
     7
100
AcDbText
 10
194.41306
 20
581.141409
 40
2.0
  1
１３
 41
0.625
  7
STANDARD
100
AcDbText
  0
TEXT
  5
276
100
AcDbEntity
  8
M0
 62
     7
100
AcDbText
 10
200.41306
 20
581.141409
 40
2.0
  1
５３
 41
0.625
  7
STANDARD
100
AcDbText
  0
TEXT
  5
277
100
AcDbEntity
  8
M0
 62
     7
100
AcDbText
 10
194.41306
 20
571.141409
 40
2.0
  1
２１
 41
0.625
  7
STANDARD
100
AcDbText
  0
TEXT
  5
278
100
AcDbEntity
  8
M0
 62
     7
100
AcDbText
 10
200.41306
 20
571.141409
 40
2.0
  1
６１
 41
0.625
  7
STANDARD
100
AcDbText
  0
TEXT
  5
279
100
AcDbEntity
  8
M0
 62
     7
100
AcDbText
 10
194.41306
 20
551.141409
 40
2.0
  1
２２
 41
0.625
  7
STANDARD
100
AcDbText
  0
TEXT
  5
27A
100
AcDbEntity
  8
M0
 62
     7
100
AcDbText
 10
194.41306
 20
541.141409
 40
2.0
  1
１４
 41
0.625
  7
STANDARD
100
AcDbText
  0
TEXT
  5
27B
100
AcDbEntity
  8
M0
 62
     7
100
AcDbText
 10
200.41306
 20
551.141409
 40
2.0
  1
６２
 41
0.625
  7
STANDARD
100
AcDbText
  0
TEXT
  5
27C
100
AcDbEntity
  8
M0
 62
     7
100
AcDbText
 10
200.41306
 20
541.141409
 40
2.0
  1
５４
 41
0.625
  7
STANDARD
100
AcDbText
  0
TEXT
  5
27D
100
AcDbEntity
  8
M0
 62
     7
100
AcDbText
 10
98.413045
 20
581.141409
 40
2.0
  1
７３
 41
0.625
  7
STANDARD
100
AcDbText
  0
TEXT
  5
27E
100
AcDbEntity
  8
M0
 62
     7
100
AcDbText
 10
98.413045
 20
571.141409
 40
2.0
  1
８１
 41
0.625
  7
STANDARD
100
AcDbText
  0
TEXT
  5
27F
100
AcDbEntity
  8
M0
 62
     7
100
AcDbText
 10
98.413045
 20
551.141409
 40
2.0
  1
８２
 41
0.625
  7
STANDARD
100
AcDbText
  0
TEXT
  5
280
100
AcDbEntity
  8
M0
 62
     7
100
AcDbText
 10
98.413045
 20
541.141409
 40
2.0
  1
７４
 41
0.625
  7
STANDARD
100
AcDbText
  0
TEXT
  5
281
100
AcDbEntity
  8
M0
 62
     7
100
AcDbText
 10
104.413045
 20
551.141409
 40
2.0
  1
４２
 41
0.625
  7
STANDARD
100
AcDbText
  0
TEXT
  5
282
100
AcDbEntity
  8
M0
 62
     7
100
AcDbText
 10
104.413045
 20
571.141409
 40
2.0
  1
４１
 41
0.625
  7
STANDARD
100
AcDbText
  0
LINE
  5
283
100
AcDbEntity
  8
M0
 62
     7
100
AcDbLine
 10
162.088048
 20
546.141409
 11
162.088048
 21
549.141164
  0
LINE
  5
284
100
AcDbEntity
  8
M0
 62
     7
100
AcDbLine
 10
139.488057
 20
546.141409
 11
139.488057
 21
549.141409
  0
LINE
  5
285
100
AcDbEntity
  8
M0
 62
     7
100
AcDbLine
 10
142.488057
 20
552.141409
 11
159.088048
 21
552.141409
  0
LINE
  5
286
100
AcDbEntity
  8
M0
 62
     7
100
AcDbLine
 10
140.251988
 20
551.141409
 11
161.324101
 21
551.141409
  0
LINE
  5
287
100
AcDbEntity
  8
M0
 62
     7
100
AcDbLine
 10
139.488057
 20
546.141409
 11
162.088048
 21
546.141409
  0
LINE
  5
288
100
AcDbEntity
  8
M0
 62
     7
100
AcDbLine
 10
142.488057
 20
556.141409
 11
142.78806
 21
556.141409
  0
LINE
  5
289
100
AcDbEntity
  8
M0
 62
     7
100
AcDbLine
 10
139.488057
 20
559.141409
 11
139.488057
 21
569.441213
  0
LINE
  5
28A
100
AcDbEntity
  8
M0
 62
     7
100
AcDbLine
 10
162.088048
 20
559.141164
 11
162.088048
 21
569.440969
  0
LINE
  5
28B
100
AcDbEntity
  8
M0
 62
     7
100
AcDbLine
 10
142.488057
 20
572.441213
 11
146.78806
 21
572.441213
  0
ARC
  5
28C
100
AcDbEntity
  8
M0
 62
     7
100
AcDbCircle
 10
142.488057
 20
549.141409
 40
3.0
100
AcDbArc
 50
89.999709
 51
179.999709
  0
ARC
  5
28D
100
AcDbEntity
  8
M0
 62
     7
100
AcDbCircle
 10
159.088048
 20
549.141409
 40
3.0
100
AcDbArc
 50
0.0
 51
89.999709
  0
ARC
  5
28E
100
AcDbEntity
  8
M0
 62
     7
100
AcDbCircle
 10
159.088048
 20
569.441213
 40
3.0
100
AcDbArc
 50
0.0
 51
89.999709
  0
ARC
  5
28F
100
AcDbEntity
  8
M0
 62
     7
100
AcDbCircle
 10
142.488057
 20
569.441213
 40
3.0
100
AcDbArc
 50
89.999709
 51
179.999709
  0
ARC
  5
290
100
AcDbEntity
  8
M0
 62
     7
100
AcDbCircle
 10
142.488057
 20
559.141409
 40
3.0
100
AcDbArc
 50
179.999709
 51
270.0
  0
ARC
  5
291
100
AcDbEntity
  8
M0
 62
     7
100
AcDbCircle
 10
159.088048
 20
559.141409
 40
3.0
100
AcDbArc
 50
270.0
 51
360.0
  0
LINE
  5
292
100
AcDbEntity
  8
M0
 62
     7
100
AcDbLine
 10
158.78806
 20
556.141409
 11
158.78806
 21
552.141409
  0
LINE
  5
293
100
AcDbEntity
  8
M0
 62
     7
100
AcDbLine
 10
142.78806
 20
556.141409
 11
142.78806
 21
552.141409
  0
LINE
  5
294
100
AcDbEntity
  8
M0
 62
     7
100
AcDbLine
 10
158.78806
 20
556.141409
 11
159.088048
 21
556.141409
  0
LINE
  5
295
100
AcDbEntity
  8
M0
 62
     7
100
AcDbLine
 10
143.78806
 20
555.141409
 11
143.78806
 21
553.141409
  0
LINE
  5
296
100
AcDbEntity
  8
M0
 62
     7
100
AcDbLine
 10
157.78806
 20
555.141409
 11
157.78806
 21
553.141409
  0
LINE
  5
297
100
AcDbEntity
  8
M0
 62
     7
100
AcDbLine
 10
142.78806
 20
553.141409
 11
143.78806
 21
553.141409
  0
LINE
  5
298
100
AcDbEntity
  8
M0
 62
     7
100
AcDbLine
 10
157.78806
 20
553.141409
 11
158.78806
 21
553.141409
  0
LINE
  5
299
100
AcDbEntity
  8
M0
 62
     7
100
AcDbLine
 10
142.78806
 20
555.141409
 11
143.78806
 21
555.141409
  0
LINE
  5
29A
100
AcDbEntity
  8
M0
 62
     7
100
AcDbLine
 10
157.78806
 20
555.141409
 11
158.78806
 21
555.141409
  0
LINE
  5
29B
100
AcDbEntity
  8
M0
 62
     7
100
AcDbLine
 10
159.588048
 20
556.183157
 11
159.588048
 21
559.141409
  0
LINE
  5
29C
100
AcDbEntity
  8
M0
 62
     7
100
AcDbLine
 10
141.988057
 20
556.183157
 11
141.988057
 21
559.141164
  0
LINE
  5
29D
100
AcDbEntity
  8
M0
 62
     7
100
AcDbLine
 10
139.488057
 20
559.641409
 11
141.488057
 21
559.641409
  0
LINE
  5
29E
100
AcDbEntity
  8
M0
 62
     7
100
AcDbLine
 10
160.088048
 20
559.641409
 11
162.088048
 21
559.641409
  0
ARC
  5
29F
100
AcDbEntity
  8
M0
 62
     7
100
AcDbCircle
 10
160.088048
 20
559.141409
 40
0.5
100
AcDbArc
 50
89.998251
 51
179.998251
  0
ARC
  5
2A0
100
AcDbEntity
  8
M0
 62
     7
100
AcDbCircle
 10
141.488057
 20
559.141409
 40
0.5
100
AcDbArc
 50
359.972024
 51
449.998251
  0
LINE
  5
2A1
100
AcDbEntity
  8
M0
 62
     7
100
AcDbLine
 10
158.78806
 20
570.641409
 11
158.78806
 21
572.441213
  0
LINE
  5
2A2
100
AcDbEntity
  8
M0
 62
     7
100
AcDbLine
 10
142.78806
 20
570.641164
 11
142.78806
 21
572.441213
  0
LINE
  5
2A3
100
AcDbEntity
  8
M0
 62
     7
100
AcDbLine
 10
159.28806
 20
570.141409
 11
162.005177
 21
570.141409
  0
LINE
  5
2A4
100
AcDbEntity
  8
M0
 62
     7
100
AcDbLine
 10
139.570912
 20
570.141409
 11
142.28806
 21
570.141409
  0
ARC
  5
2A5
100
AcDbEntity
  8
M0
 62
     7
100
AcDbCircle
 10
142.28806
 20
570.641409
 40
0.5
100
AcDbArc
 50
270.0
 51
359.972024
  0
ARC
  5
2A6
100
AcDbEntity
  8
M0
 62
     7
100
AcDbCircle
 10
159.28806
 20
570.641409
 40
0.5
100
AcDbArc
 50
179.998251
 51
270.0
  0
LINE
  5
2A7
100
AcDbEntity
  8
M0
 62
     7
100
AcDbLine
 10
148.03806
 20
575.141409
 11
153.53806
 21
575.141409
  0
LINE
  5
2A8
100
AcDbEntity
  8
M0
 62
     7
100
AcDbLine
 10
149.03806
 20
578.141409
 11
152.53806
 21
578.141409
  0
LINE
  5
2A9
100
AcDbEntity
  8
M0
 62
     7
100
AcDbLine
 10
146.78806
 20
574.141409
 11
148.03806
 21
574.141409
  0
LINE
  5
2AA
100
AcDbEntity
  8
M0
 62
     7
100
AcDbLine
 10
146.78806
 20
574.84136
 11
148.03806
 21
574.84136
  0
LINE
  5
2AB
100
AcDbEntity
  8
M0
 62
     7
100
AcDbLine
 10
154.78806
 20
574.84136
 11
154.78806
 21
572.441213
  0
LINE
  5
2AC
100
AcDbEntity
  8
M0
 62
     7
100
AcDbLine
 10
146.78806
 20
574.84136
 11
146.78806
 21
572.441213
  0
LINE
  5
2AD
100
AcDbEntity
  8
M0
 62
     7
100
AcDbLine
 10
153.53806
 20
574.141409
 11
153.53806
 21
577.141164
  0
LINE
  5
2AE
100
AcDbEntity
  8
M0
 62
     7
100
AcDbLine
 10
148.03806
 20
574.141409
 11
148.03806
 21
577.141409
  0
LINE
  5
2AF
100
AcDbEntity
  8
M0
 62
     7
100
AcDbLine
 10
154.78806
 20
572.441213
 11
159.088048
 21
572.441213
  0
LINE
  5
2B0
100
AcDbEntity
  8
M0
 62
     7
100
AcDbLine
 10
153.53806
 20
574.141409
 11
154.78806
 21
574.141409
  0
LINE
  5
2B1
100
AcDbEntity
  8
M0
 62
     7
100
AcDbLine
 10
153.53806
 20
574.84136
 11
154.78806
 21
574.84136
  0
ARC
  5
2B2
100
AcDbEntity
  8
M0
 62
     7
100
AcDbCircle
 10
152.53806
 20
577.141409
 40
1.0
100
AcDbArc
 50
359.986012
 51
449.999126
  0
ARC
  5
2B3
100
AcDbEntity
  8
M0
 62
     7
100
AcDbCircle
 10
149.03806
 20
577.141409
 40
1.0
100
AcDbArc
 50
89.999126
 51
179.999126
  0
CIRCLE
  5
2B4
100
AcDbEntity
  8
M0
 62
     7
100
AcDbCircle
 10
170.78806
 20
495.141409
 40
4.5
  0
CIRCLE
  5
2B5
100
AcDbEntity
  8
M0
 62
     7
100
AcDbCircle
 10
130.78806
 20
629.141409
 40
4.5
  0
CIRCLE
  5
2B6
100
AcDbEntity
  8
M0
 62
     7
100
AcDbCircle
 10
130.78806
 20
495.141409
 40
1.86
  0
CIRCLE
  5
2B7
100
AcDbEntity
  8
M0
 62
     7
100
AcDbCircle
 10
170.78806
 20
629.141409
 40
1.86
  0
CIRCLE
  5
2B8
100
AcDbEntity
  8
M0
 62
     7
100
AcDbCircle
 10
130.78806
 20
495.141409
 40
1.36
  0
CIRCLE
  5
2B9
100
AcDbEntity
  8
M0
 62
     7
100
AcDbCircle
 10
170.78806
 20
629.141409
 40
1.36
  0
CIRCLE
  5
2BA
100
AcDbEntity
  8
M0
100
AcDbCircle
 10
130.78806
 20
629.141409
 40
2.25
  0
CIRCLE
  5
2BB
100
AcDbEntity
  8
M0
100
AcDbCircle
 10
170.78806
 20
495.141409
 40
2.25
  0
TEXT
  5
2BC
100
AcDbEntity
  8
M0
 62
     7
100
AcDbText
 10
110.56306
 20
613.141409
 40
6.0
  1
１
 41
0.458333
  7
STANDARD
100
AcDbText
  0
LINE
  5
2BD
100
AcDbEntity
  8
M0
 62
     7
100
AcDbLine
 10
112.988063
 20
612.541409
 11
112.988065
 21
619.741409
  0
LINE
  5
2BE
100
AcDbEntity
  8
M0
 62
     7
100
AcDbLine
 10
112.988065
 20
619.741409
 11
120.788071
 21
619.741409
  0
LINE
  5
2BF
100
AcDbEntity
  8
M0
 62
     7
100
AcDbLine
 10
120.788071
 20
619.741409
 11
120.788069
 21
612.541409
  0
LINE
  5
2C0
100
AcDbEntity
  8
M0
 62
     7
100
AcDbLine
 10
120.788069
 20
612.541409
 11
112.988063
 21
612.541409
  0
TEXT
  5
2C1
100
AcDbEntity
  8
M0
 62
     7
100
AcDbText
 10
113.863063
 20
613.141409
 40
6.0
  1
Ｌ１
 41
0.458333
  7
STANDARD
100
AcDbText
  0
TEXT
  5
2C2
100
AcDbEntity
  8
M0
 62
     7
100
AcDbText
 10
145.56306
 20
613.141409
 40
6.0
  1
３
 41
0.458333
  7
STANDARD
100
AcDbText
  0
LINE
  5
2C3
100
AcDbEntity
  8
M0
 62
     7
100
AcDbLine
 10
147.988063
 20
612.541409
 11
147.988065
 21
619.741409
  0
LINE
  5
2C4
100
AcDbEntity
  8
M0
 62
     7
100
AcDbLine
 10
147.988065
 20
619.741409
 11
155.788071
 21
619.741409
  0
LINE
  5
2C5
100
AcDbEntity
  8
M0
 62
     7
100
AcDbLine
 10
155.788071
 20
619.741409
 11
155.788069
 21
612.541409
  0
LINE
  5
2C6
100
AcDbEntity
  8
M0
 62
     7
100
AcDbLine
 10
155.788069
 20
612.541409
 11
147.988063
 21
612.541409
  0
TEXT
  5
2C7
100
AcDbEntity
  8
M0
 62
     7
100
AcDbText
 10
148.863063
 20
613.141409
 40
6.0
  1
Ｌ２
 41
0.458333
  7
STANDARD
100
AcDbText
  0
TEXT
  5
2C8
100
AcDbEntity
  8
M0
 62
     7
100
AcDbText
 10
180.56306
 20
613.141409
 40
6.0
  1
５
 41
0.458333
  7
STANDARD
100
AcDbText
  0
LINE
  5
2C9
100
AcDbEntity
  8
M0
 62
     7
100
AcDbLine
 10
182.988063
 20
612.541409
 11
182.988065
 21
619.741409
  0
LINE
  5
2CA
100
AcDbEntity
  8
M0
 62
     7
100
AcDbLine
 10
182.988065
 20
619.741409
 11
190.788063
 21
619.741409
  0
LINE
  5
2CB
100
AcDbEntity
  8
M0
 62
     7
100
AcDbLine
 10
190.788063
 20
619.741409
 11
190.788061
 21
612.541409
  0
LINE
  5
2CC
100
AcDbEntity
  8
M0
 62
     7
100
AcDbLine
 10
190.788061
 20
612.541409
 11
182.988063
 21
612.541409
  0
TEXT
  5
2CD
100
AcDbEntity
  8
M0
 62
     7
100
AcDbText
 10
183.863063
 20
613.141409
 40
6.0
  1
Ｌ３
 41
0.458333
  7
STANDARD
100
AcDbText
  0
TEXT
  5
2CE
100
AcDbEntity
  8
M0
 62
     7
100
AcDbText
 10
180.56306
 20
505.141409
 40
6.0
  1
６
 41
0.458333
  7
STANDARD
100
AcDbText
  0
LINE
  5
2CF
100
AcDbEntity
  8
M0
 62
     7
100
AcDbLine
 10
182.988063
 20
504.541409
 11
182.988065
 21
511.741409
  0
LINE
  5
2D0
100
AcDbEntity
  8
M0
 62
     7
100
AcDbLine
 10
182.988065
 20
511.741409
 11
190.788063
 21
511.741409
  0
LINE
  5
2D1
100
AcDbEntity
  8
M0
 62
     7
100
AcDbLine
 10
190.788063
 20
511.741409
 11
190.788061
 21
504.541409
  0
LINE
  5
2D2
100
AcDbEntity
  8
M0
 62
     7
100
AcDbLine
 10
190.788061
 20
504.541409
 11
182.988063
 21
504.541409
  0
TEXT
  5
2D3
100
AcDbEntity
  8
M0
 62
     7
100
AcDbText
 10
183.863063
 20
505.141409
 40
6.0
  1
Ｔ３
 41
0.458333
  7
STANDARD
100
AcDbText
  0
TEXT
  5
2D4
100
AcDbEntity
  8
M0
 62
     7
100
AcDbText
 10
145.56306
 20
505.141409
 40
6.0
  1
４
 41
0.458333
  7
STANDARD
100
AcDbText
  0
LINE
  5
2D5
100
AcDbEntity
  8
M0
 62
     7
100
AcDbLine
 10
147.988063
 20
504.541409
 11
147.988065
 21
511.741409
  0
LINE
  5
2D6
100
AcDbEntity
  8
M0
 62
     7
100
AcDbLine
 10
147.988065
 20
511.741409
 11
155.788071
 21
511.741409
  0
LINE
  5
2D7
100
AcDbEntity
  8
M0
 62
     7
100
AcDbLine
 10
155.788071
 20
511.741409
 11
155.788069
 21
504.541409
  0
LINE
  5
2D8
100
AcDbEntity
  8
M0
 62
     7
100
AcDbLine
 10
155.788069
 20
504.541409
 11
147.988063
 21
504.541409
  0
TEXT
  5
2D9
100
AcDbEntity
  8
M0
 62
     7
100
AcDbText
 10
148.863063
 20
505.141409
 40
6.0
  1
Ｔ２
 41
0.458333
  7
STANDARD
100
AcDbText
  0
TEXT
  5
2DA
100
AcDbEntity
  8
M0
 62
     7
100
AcDbText
 10
110.56306
 20
505.141409
 40
6.0
  1
２
 41
0.458333
  7
STANDARD
100
AcDbText
  0
LINE
  5
2DB
100
AcDbEntity
  8
M0
 62
     7
100
AcDbLine
 10
112.988063
 20
504.541409
 11
112.988065
 21
511.741409
  0
LINE
  5
2DC
100
AcDbEntity
  8
M0
 62
     7
100
AcDbLine
 10
112.988065
 20
511.741409
 11
120.788071
 21
511.741409
  0
LINE
  5
2DD
100
AcDbEntity
  8
M0
 62
     7
100
AcDbLine
 10
120.788071
 20
511.741409
 11
120.788069
 21
504.541409
  0
LINE
  5
2DE
100
AcDbEntity
  8
M0
 62
     7
100
AcDbLine
 10
120.788069
 20
504.541409
 11
112.988063
 21
504.541409
  0
TEXT
  5
2DF
100
AcDbEntity
  8
M0
 62
     7
100
AcDbText
 10
113.863063
 20
505.141409
 40
6.0
  1
Ｔ１
 41
0.458333
  7
STANDARD
100
AcDbText
  0
TEXT
  5
2E0
100
AcDbEntity
  8
M0
 62
     7
100
AcDbText
 10
104.413045
 20
581.141409
 40
2.0
  1
３３
 41
0.625
  7
STANDARD
100
AcDbText
  0
TEXT
  5
2E1
100
AcDbEntity
  8
M0
 62
     7
100
AcDbText
 10
104.413045
 20
541.141409
 40
2.0
  1
３４
 41
0.625
  7
STANDARD
100
AcDbText
  0
LINE
  5
2E2
100
AcDbEntity
  8
M0
 62
     6
100
AcDbLine
 10
190.28806
 20
461.641409
 11
215.28806
 21
461.641409
  0
LINE
  5
2E3
100
AcDbEntity
  8
M0
 62
     6
100
AcDbLine
 10
181.820317
 20
497.141409
 11
190.28806
 21
486.641409
  0
LINE
  5
2E4
100
AcDbEntity
  8
M0
 62
     6
100
AcDbLine
 10
202.16306
 20
497.141409
 11
215.28806
 21
482.141409
  0
LINE
  5
2E5
100
AcDbEntity
  8
M0
 62
     6
100
AcDbLine
 10
215.28806
 20
461.641409
 11
215.28806
 21
482.141409
  0
LINE
  5
2E6
100
AcDbEntity
  8
M0
 62
     6
100
AcDbLine
 10
190.28806
 20
486.641409
 11
190.28806
 21
461.641409
  0
LINE
  5
2E7
100
AcDbEntity
  8
M0
 62
     6
100
AcDbLine
 10
111.28806
 20
461.641409
 11
86.28806
 21
461.641409
  0
LINE
  5
2E8
100
AcDbEntity
  8
M0
 62
     6
100
AcDbLine
 10
119.755803
 20
497.141409
 11
111.28806
 21
486.641409
  0
LINE
  5
2E9
100
AcDbEntity
  8
M0
 62
     6
100
AcDbLine
 10
99.41306
 20
497.141409
 11
86.28806
 21
482.141409
  0
LINE
  5
2EA
100
AcDbEntity
  8
M0
 62
     6
100
AcDbLine
 10
86.28806
 20
461.641409
 11
86.28806
 21
482.141409
  0
LINE
  5
2EB
100
AcDbEntity
  8
M0
 62
     6
100
AcDbLine
 10
111.28806
 20
486.641409
 11
111.28806
 21
461.641409
  0
LINE
  5
2EC
100
AcDbEntity
  8
M0
  6
DASHDOT
 62
     6
100
AcDbLine
 10
107.78806
 20
474.141409
 11
89.78806
 21
474.141409
  0
LINE
  5
2ED
100
AcDbEntity
  8
M0
  6
DASHDOT
 62
     6
100
AcDbLine
 10
98.78806
 20
465.141409
 11
98.78806
 21
483.141409
  0
LINE
  5
2EE
100
AcDbEntity
  8
M0
 62
     6
100
AcDbLine
 10
190.288178
 20
662.641324
 11
215.288178
 21
662.64134
  0
LINE
  5
2EF
100
AcDbEntity
  8
M0
 62
     6
100
AcDbLine
 10
181.820457
 20
627.141319
 11
190.288194
 21
637.641324
  0
LINE
  5
2F0
100
AcDbEntity
  8
M0
 62
     6
100
AcDbLine
 10
202.1632
 20
627.141331
 11
215.288191
 21
642.14134
  0
LINE
  5
2F1
100
AcDbEntity
  8
M0
 62
     6
100
AcDbLine
 10
215.288178
 20
662.64134
 11
215.288191
 21
642.14134
  0
LINE
  5
2F2
100
AcDbEntity
  8
M0
 62
     6
100
AcDbLine
 10
190.288194
 20
637.641324
 11
190.288178
 21
662.641324
  0
LINE
  5
2F3
100
AcDbEntity
  8
M0
  6
DASHDOT
 62
     6
100
AcDbLine
 10
202.78818
 20
659.141332
 11
202.788192
 21
641.141332
  0
LINE
  5
2F4
100
AcDbEntity
  8
M0
 62
     6
100
AcDbLine
 10
111.288178
 20
662.641324
 11
86.288178
 21
662.641308
  0
LINE
  5
2F5
100
AcDbEntity
  8
M0
 62
     6
100
AcDbLine
 10
119.755943
 20
627.141329
 11
111.288194
 21
637.641324
  0
LINE
  5
2F6
100
AcDbEntity
  8
M0
 62
     6
100
AcDbLine
 10
99.4132
 20
627.141317
 11
86.288191
 21
642.141308
  0
LINE
  5
2F7
100
AcDbEntity
  8
M0
 62
     6
100
AcDbLine
 10
86.288178
 20
662.641308
 11
86.288191
 21
642.141308
  0
LINE
  5
2F8
100
AcDbEntity
  8
M0
 62
     6
100
AcDbLine
 10
111.288194
 20
637.641324
 11
111.288178
 21
662.641324
  0
LINE
  5
2F9
100
AcDbEntity
  8
M0
  6
DASHDOT
 62
     6
100
AcDbLine
 10
98.78818
 20
659.141316
 11
98.788192
 21
641.141316
  0
LINE
  5
2FA
100
AcDbEntity
  8
M0
 62
     7
100
AcDbLine
 10
143.438054
 20
551.84136
 11
158.138051
 21
551.84136
  0
LINE
  5
2FB
100
AcDbEntity
  8
M0
 62
     7
100
AcDbLine
 10
161.78806
 20
559.440969
 11
161.78806
 21
569.14092
  0
LINE
  5
2FC
100
AcDbEntity
  8
M0
 62
     7
100
AcDbLine
 10
139.78806
 20
569.141164
 11
139.78806
 21
559.441213
  0
LINE
  5
2FD
100
AcDbEntity
  8
M0
 62
     7
100
AcDbLine
 10
158.788045
 20
572.141409
 11
154.53806
 21
572.141164
  0
LINE
  5
2FE
100
AcDbEntity
  8
M0
 62
     7
100
AcDbLine
 10
142.78806
 20
556.441213
 11
142.938054
 21
556.441213
  0
ARC
  5
2FF
100
AcDbEntity
  8
M0
 62
     7
100
AcDbCircle
 10
158.78806
 20
559.441213
 40
3.0
100
AcDbArc
 50
270.0
 51
360.0
  0
ARC
  5
300
100
AcDbEntity
  8
M0
 62
     7
100
AcDbCircle
 10
158.78806
 20
569.141164
 40
3.0
100
AcDbArc
 50
0.0
 51
89.999709
  0
ARC
  5
301
100
AcDbEntity
  8
M0
 62
     7
100
AcDbCircle
 10
142.78806
 20
569.141164
 40
3.0
100
AcDbArc
 50
89.999709
 51
179.999709
  0
ARC
  5
302
100
AcDbEntity
  8
M0
 62
     7
100
AcDbCircle
 10
142.78806
 20
559.441213
 40
3.0
100
AcDbArc
 50
179.999709
 51
270.0
  0
LINE
  5
303
100
AcDbEntity
  8
M0
 62
     7
100
AcDbLine
 10
158.638051
 20
556.441213
 11
158.638051
 21
552.34136
  0
LINE
  5
304
100
AcDbEntity
  8
M0
 62
     7
100
AcDbLine
 10
142.938054
 20
556.441213
 11
142.938054
 21
552.34136
  0
LINE
  5
305
100
AcDbEntity
  8
M0
 62
     7
100
AcDbLine
 10
158.638051
 20
556.441213
 11
158.78806
 21
556.441213
  0
ARC
  5
306
100
AcDbEntity
  8
M0
 62
     7
100
AcDbCircle
 10
143.438054
 20
552.34136
 40
0.5
100
AcDbArc
 50
179.998251
 51
270.0
  0
ARC
  5
307
100
AcDbEntity
  8
M0
 62
     7
100
AcDbCircle
 10
158.138051
 20
552.34136
 40
0.5
100
AcDbArc
 50
270.0
 51
360.0
  0
LINE
  5
308
100
AcDbEntity
  8
M0
 62
     7
100
AcDbLine
 10
154.53806
 20
574.84136
 11
154.53806
 21
572.141409
  0
LINE
  5
309
100
AcDbEntity
  8
M0
 62
     7
100
AcDbLine
 10
147.03806
 20
574.84136
 11
147.03806
 21
572.141409
  0
LINE
  5
30A
100
AcDbEntity
  8
M0
 62
     7
100
AcDbLine
 10
147.03806
 20
572.141164
 11
142.788045
 21
572.141409
  0
LINE
  5
30B
100
AcDbEntity
  8
M0
 62
     7
100
AcDbLine
 10
147.78806
 20
562.141409
 11
153.78806
 21
562.141409
  0
LINE
  5
30C
100
AcDbEntity
  8
M0
 62
     7
100
AcDbLine
 10
147.78806
 20
566.641409
 11
153.78806
 21
566.641409
  0
LINE
  5
30D
100
AcDbEntity
  8
M0
 62
     7
100
AcDbLine
 10
153.78806
 20
566.641409
 11
153.78806
 21
562.141409
  0
LINE
  5
30E
100
AcDbEntity
  8
M0
 62
     7
100
AcDbLine
 10
147.78806
 20
566.641409
 11
147.78806
 21
562.141409
  0
LINE
  5
30F
100
AcDbEntity
  8
M0
 62
     7
100
AcDbLine
 10
147.03806
 20
574.841406
 11
148.53806
 21
574.841406
  0
LINE
  5
310
100
AcDbEntity
  8
M0
 62
     7
100
AcDbLine
 10
148.53806
 20
575.341406
 11
153.03806
 21
575.341406
  0
LINE
  5
311
100
AcDbEntity
  8
M0
 62
     7
100
AcDbLine
 10
147.03806
 20
573.841406
 11
154.53806
 21
573.841406
  0
LINE
  5
312
100
AcDbEntity
  8
M0
 62
     7
100
AcDbLine
 10
153.03806
 20
575.341406
 11
153.03806
 21
573.841406
  0
LINE
  5
313
100
AcDbEntity
  8
M0
 62
     7
100
AcDbLine
 10
148.53806
 20
575.341406
 11
148.53806
 21
573.841406
  0
LINE
  5
314
100
AcDbEntity
  8
M0
 62
     7
100
AcDbLine
 10
153.03806
 20
574.841406
 11
154.53806
 21
574.841406
  0
LINE
  5
315
100
AcDbEntity
  8
M0
100
AcDbLine
 10
120.78806
 20
673.041067
 11
180.787862
 21
673.041067
  0
LINE
  5
316
100
AcDbEntity
  8
M0
100
AcDbLine
 10
180.787862
 20
673.041067
 11
180.787862
 21
689.041067
  0
LINE
  5
317
100
AcDbEntity
  8
M0
100
AcDbLine
 10
180.787862
 20
689.041067
 11
170.287862
 21
689.040823
  0
LINE
  5
318
100
AcDbEntity
  8
M0
100
AcDbLine
 10
120.78806
 20
689.041067
 11
120.78806
 21
673.041067
  0
LINE
  5
319
100
AcDbEntity
  8
M0
100
AcDbLine
 10
126.78806
 20
674.041067
 11
129.78806
 21
674.041067
  0
LINE
  5
31A
100
AcDbEntity
  8
M0
100
AcDbLine
 10
156.78806
 20
689.041067
 11
156.78806
 21
674.041067
  0
LINE
  5
31B
100
AcDbEntity
  8
M0
100
AcDbLine
 10
144.78806
 20
689.041067
 11
144.78806
 21
674.041067
  0
LINE
  5
31C
100
AcDbEntity
  8
M0
100
AcDbLine
 10
141.78806
 20
689.041067
 11
141.78806
 21
674.041067
  0
LINE
  5
31D
100
AcDbEntity
  8
M0
100
AcDbLine
 10
129.78806
 20
689.041067
 11
129.78806
 21
674.041067
  0
LINE
  5
31E
100
AcDbEntity
  8
M0
100
AcDbLine
 10
159.787862
 20
689.041067
 11
159.787862
 21
674.041067
  0
LINE
  5
31F
100
AcDbEntity
  8
M0
100
AcDbLine
 10
171.787862
 20
689.041067
 11
171.787862
 21
674.041067
  0
LINE
  5
320
100
AcDbEntity
  8
M0
100
AcDbLine
 10
174.787862
 20
689.041067
 11
174.787862
 21
674.041067
  0
LINE
  5
321
100
AcDbEntity
  8
M0
100
AcDbLine
 10
126.78806
 20
689.041067
 11
126.78806
 21
674.041067
  0
LINE
  5
322
100
AcDbEntity
  8
M0
100
AcDbLine
 10
141.78806
 20
674.041067
 11
144.78806
 21
674.041067
  0
LINE
  5
323
100
AcDbEntity
  8
M0
100
AcDbLine
 10
156.78806
 20
674.041067
 11
159.787862
 21
674.041067
  0
LINE
  5
324
100
AcDbEntity
  8
M0
100
AcDbLine
 10
171.787862
 20
674.041067
 11
174.787862
 21
674.041067
  0
LINE
  5
325
100
AcDbEntity
  8
M0
100
AcDbLine
 10
170.287862
 20
687.040823
 11
170.037862
 21
687.040579
  0
LINE
  5
326
100
AcDbEntity
  8
M0
100
AcDbLine
 10
140.28806
 20
689.041067
 11
140.28806
 21
687.041067
  0
LINE
  5
327
100
AcDbEntity
  8
M0
100
AcDbLine
 10
131.28806
 20
689.041067
 11
131.28806
 21
687.041067
  0
LINE
  5
328
100
AcDbEntity
  8
M0
100
AcDbLine
 10
155.28806
 20
689.041067
 11
155.28806
 21
687.041067
  0
LINE
  5
329
100
AcDbEntity
  8
M0
100
AcDbLine
 10
146.28806
 20
689.041067
 11
146.28806
 21
687.041067
  0
LINE
  5
32A
100
AcDbEntity
  8
M0
100
AcDbLine
 10
170.287862
 20
689.041067
 11
170.287862
 21
687.041067
  0
LINE
  5
32B
100
AcDbEntity
  8
M0
100
AcDbLine
 10
161.287862
 20
689.041067
 11
161.287862
 21
687.041067
  0
LINE
  5
32C
100
AcDbEntity
  8
M0
100
AcDbLine
 10
140.28806
 20
687.040579
 11
140.038258
 21
687.040334
  0
LINE
  5
32D
100
AcDbEntity
  8
M0
100
AcDbLine
 10
155.28806
 20
687.040579
 11
155.03806
 21
687.040334
  0
LINE
  5
32E
100
AcDbEntity
  8
M0
100
AcDbLine
 10
131.28806
 20
689.040823
 11
120.78806
 21
689.041067
  0
LINE
  5
32F
100
AcDbEntity
  8
M0
100
AcDbLine
 10
146.28806
 20
689.040823
 11
140.28806
 21
689.040823
  0
LINE
  5
330
100
AcDbEntity
  8
M0
100
AcDbLine
 10
161.287862
 20
689.040823
 11
155.28806
 21
689.040823
  0
LINE
  5
331
100
AcDbEntity
  8
M0
100
AcDbLine
 10
129.78806
 20
677.041067
 11
131.538243
 21
677.041067
  0
LINE
  5
332
100
AcDbEntity
  8
M0
100
AcDbLine
 10
140.038258
 20
677.041067
 11
141.78806
 21
677.041067
  0
LINE
  5
333
100
AcDbEntity
  8
M0
100
AcDbLine
 10
144.78806
 20
677.041067
 11
146.538045
 21
677.041067
  0
LINE
  5
334
100
AcDbEntity
  8
M0
100
AcDbLine
 10
155.03806
 20
677.041067
 11
156.78806
 21
677.041067
  0
LINE
  5
335
100
AcDbEntity
  8
M0
100
AcDbLine
 10
159.787862
 20
677.041067
 11
161.537862
 21
677.041067
  0
LINE
  5
336
100
AcDbEntity
  8
M0
100
AcDbLine
 10
170.037862
 20
677.041067
 11
171.787862
 21
677.041067
  0
LINE
  5
337
100
AcDbEntity
  8
M0
100
AcDbLine
 10
131.538243
 20
687.040334
 11
131.28806
 21
687.040823
  0
LINE
  5
338
100
AcDbEntity
  8
M0
100
AcDbLine
 10
146.538045
 20
687.040334
 11
146.28806
 21
687.040579
  0
LINE
  5
339
100
AcDbEntity
  8
M0
100
AcDbLine
 10
161.537862
 20
687.040579
 11
161.287862
 21
687.040579
  0
LINE
  5
33A
100
AcDbEntity
  8
M0
 62
     7
100
AcDbLine
 10
161.537862
 20
674.040823
 11
170.037862
 21
674.040823
  0
LINE
  5
33B
100
AcDbEntity
  8
M0
 62
     7
100
AcDbLine
 10
170.037862
 20
674.040823
 11
170.037862
 21
679.50884
  0
LINE
  5
33C
100
AcDbEntity
  8
M0
 62
     7
100
AcDbLine
 10
170.037862
 20
688.040823
 11
161.537862
 21
688.040823
  0
LINE
  5
33D
100
AcDbEntity
  8
M0
 62
     7
100
AcDbLine
 10
161.537862
 20
688.040823
 11
161.537862
 21
684.540579
  0
LINE
  5
33E
100
AcDbEntity
  8
M0
 62
     7
100
AcDbLine
 10
161.537862
 20
675.040823
 11
170.037862
 21
675.040823
  0
LINE
  5
33F
100
AcDbEntity
  8
M0
 62
     7
100
AcDbLine
 10
168.287862
 20
675.040823
 11
168.287862
 21
674.040823
  0
LINE
  5
340
100
AcDbEntity
  8
M0
 62
     7
100
AcDbLine
 10
163.287862
 20
675.040823
 11
163.287862
 21
674.040823
  0
LINE
  5
341
100
AcDbEntity
  8
M0
 62
     7
100
AcDbLine
 10
161.537862
 20
679.50884
 11
161.537862
 21
674.040823
  0
LINE
  5
342
100
AcDbEntity
  8
M0
 62
     7
100
AcDbLine
 10
170.037862
 20
684.540334
 11
170.037862
 21
688.040823
  0
LINE
  5
343
100
AcDbEntity
  8
M0
 62
     7
100
AcDbLine
 10
140.038243
 20
674.040823
 11
131.538243
 21
674.040823
  0
LINE
  5
344
100
AcDbEntity
  8
M0
 62
     7
100
AcDbLine
 10
131.538243
 20
674.040823
 11
131.538243
 21
679.508596
  0
LINE
  5
345
100
AcDbEntity
  8
M0
 62
     7
100
AcDbLine
 10
131.538258
 20
688.040823
 11
140.038258
 21
688.040579
  0
LINE
  5
346
100
AcDbEntity
  8
M0
 62
     7
100
AcDbLine
 10
140.038258
 20
688.040579
 11
140.038258
 21
684.54009
  0
LINE
  5
347
100
AcDbEntity
  8
M0
 62
     7
100
AcDbLine
 10
140.038243
 20
675.040823
 11
131.538243
 21
675.040823
  0
LINE
  5
348
100
AcDbEntity
  8
M0
 62
     7
100
AcDbLine
 10
133.288243
 20
675.040823
 11
133.288243
 21
674.040823
  0
LINE
  5
349
100
AcDbEntity
  8
M0
 62
     7
100
AcDbLine
 10
138.288243
 20
675.040823
 11
138.288243
 21
674.040823
  0
LINE
  5
34A
100
AcDbEntity
  8
M0
 62
     7
100
AcDbLine
 10
131.538243
 20
684.540334
 11
131.538258
 21
688.040823
  0
LINE
  5
34B
100
AcDbEntity
  8
M0
 62
     7
100
AcDbLine
 10
140.038258
 20
679.508596
 11
140.038243
 21
674.040579
  0
LINE
  5
34C
100
AcDbEntity
  8
M0
 62
     7
100
AcDbLine
 10
155.038045
 20
674.040823
 11
146.538045
 21
674.040823
  0
LINE
  5
34D
100
AcDbEntity
  8
M0
 62
     7
100
AcDbLine
 10
146.538045
 20
674.040823
 11
146.538045
 21
679.508596
  0
LINE
  5
34E
100
AcDbEntity
  8
M0
 62
     7
100
AcDbLine
 10
146.53806
 20
688.040823
 11
155.03806
 21
688.040579
  0
LINE
  5
34F
100
AcDbEntity
  8
M0
 62
     7
100
AcDbLine
 10
155.03806
 20
688.040579
 11
155.03806
 21
684.54009
  0
LINE
  5
350
100
AcDbEntity
  8
M0
 62
     7
100
AcDbLine
 10
155.038045
 20
675.040823
 11
146.538045
 21
675.040823
  0
LINE
  5
351
100
AcDbEntity
  8
M0
 62
     7
100
AcDbLine
 10
148.288045
 20
675.040823
 11
148.288045
 21
674.040823
  0
LINE
  5
352
100
AcDbEntity
  8
M0
 62
     7
100
AcDbLine
 10
153.288045
 20
675.040823
 11
153.288045
 21
674.040823
  0
LINE
  5
353
100
AcDbEntity
  8
M0
 62
     7
100
AcDbLine
 10
146.538045
 20
684.540334
 11
146.53806
 21
688.040823
  0
LINE
  5
354
100
AcDbEntity
  8
M0
 62
     7
100
AcDbLine
 10
155.03806
 20
679.508352
 11
155.038045
 21
674.040579
  0
LINE
  5
355
100
AcDbEntity
  8
M0
100
AcDbLine
 10
132.28806
 20
677.541067
 11
139.28806
 21
677.541067
  0
LINE
  5
356
100
AcDbEntity
  8
M0
100
AcDbLine
 10
141.53806
 20
679.541067
 11
141.53806
 21
684.540823
  0
LINE
  5
357
100
AcDbEntity
  8
M0
100
AcDbLine
 10
137.28806
 20
686.540823
 11
134.28806
 21
686.540823
  0
LINE
  5
358
100
AcDbEntity
  8
M0
100
AcDbLine
 10
130.03806
 20
684.540579
 11
130.03806
 21
679.541067
  0
LINE
  5
359
100
AcDbEntity
  8
M0
100
AcDbLine
 10
141.53806
 20
684.541067
 11
138.78806
 21
684.541067
  0
LINE
  5
35A
100
AcDbEntity
  8
M0
100
AcDbLine
 10
137.28806
 20
686.541067
 11
137.28806
 21
686.040823
  0
LINE
  5
35B
100
AcDbEntity
  8
M0
100
AcDbLine
 10
134.28806
 20
686.541067
 11
134.28806
 21
686.040579
  0
LINE
  5
35C
100
AcDbEntity
  8
M0
100
AcDbLine
 10
132.78806
 20
684.540823
 11
130.03806
 21
684.541067
  0
LINE
  5
35D
100
AcDbEntity
  8
M0
100
AcDbLine
 10
137.28806
 20
684.540823
 11
134.28806
 21
684.540823
  0
LINE
  5
35E
100
AcDbEntity
  8
M0
100
AcDbLine
 10
130.03806
 20
679.541067
 11
131.28806
 21
679.541067
  0
LINE
  5
35F
100
AcDbEntity
  8
M0
100
AcDbLine
 10
139.28806
 20
678.541067
 11
139.28806
 21
677.541067
  0
LINE
  5
360
100
AcDbEntity
  8
M0
100
AcDbLine
 10
132.28806
 20
678.541067
 11
132.28806
 21
677.541067
  0
LINE
  5
361
100
AcDbEntity
  8
M0
100
AcDbLine
 10
140.28806
 20
679.541067
 11
141.53806
 21
679.541067
  0
ARC
  5
362
100
AcDbEntity
  8
M0
100
AcDbCircle
 10
138.78806
 20
686.040823
 40
1.5
100
AcDbArc
 50
179.999417
 51
270.0
  0
ARC
  5
363
100
AcDbEntity
  8
M0
100
AcDbCircle
 10
132.78806
 20
686.040579
 40
1.5
100
AcDbArc
 50
270.0
 51
360.0
  0
ARC
  5
364
100
AcDbEntity
  8
M0
100
AcDbCircle
 10
140.28806
 20
678.541067
 40
1.0
100
AcDbArc
 50
89.999126
 51
179.999126
  0
ARC
  5
365
100
AcDbEntity
  8
M0
100
AcDbCircle
 10
131.28806
 20
678.541067
 40
1.0
100
AcDbArc
 50
0.0
 51
89.999126
  0
LINE
  5
366
100
AcDbEntity
  8
M0
100
AcDbLine
 10
169.287617
 20
677.540579
 11
162.287862
 21
677.540579
  0
LINE
  5
367
100
AcDbEntity
  8
M0
100
AcDbLine
 10
160.037862
 20
679.540579
 11
160.037862
 21
684.540334
  0
LINE
  5
368
100
AcDbEntity
  8
M0
100
AcDbLine
 10
164.287862
 20
686.540334
 11
167.287862
 21
686.54009
  0
LINE
  5
369
100
AcDbEntity
  8
M0
100
AcDbLine
 10
171.537862
 20
684.539846
 11
171.537617
 21
679.540579
  0
LINE
  5
36A
100
AcDbEntity
  8
M0
100
AcDbLine
 10
160.037862
 20
684.540579
 11
162.787862
 21
684.540579
  0
LINE
  5
36B
100
AcDbEntity
  8
M0
100
AcDbLine
 10
164.287862
 20
686.540579
 11
164.287862
 21
686.040334
  0
LINE
  5
36C
100
AcDbEntity
  8
M0
100
AcDbLine
 10
167.287862
 20
686.540334
 11
167.287862
 21
686.039846
  0
LINE
  5
36D
100
AcDbEntity
  8
M0
100
AcDbLine
 10
168.787862
 20
684.54009
 11
171.537862
 21
684.540334
  0
LINE
  5
36E
100
AcDbEntity
  8
M0
100
AcDbLine
 10
164.287862
 20
684.540334
 11
167.287862
 21
684.54009
  0
LINE
  5
36F
100
AcDbEntity
  8
M0
100
AcDbLine
 10
171.537617
 20
679.540579
 11
170.287617
 21
679.540579
  0
LINE
  5
370
100
AcDbEntity
  8
M0
100
AcDbLine
 10
162.287862
 20
678.540579
 11
162.287862
 21
677.540579
  0
LINE
  5
371
100
AcDbEntity
  8
M0
100
AcDbLine
 10
169.287617
 20
678.540579
 11
169.287617
 21
677.540579
  0
LINE
  5
372
100
AcDbEntity
  8
M0
100
AcDbLine
 10
161.287862
 20
679.540579
 11
160.037862
 21
679.540579
  0
ARC
  5
373
100
AcDbEntity
  8
M0
100
AcDbCircle
 10
162.787862
 20
686.040334
 40
1.5
100
AcDbArc
 50
-90.0
 51
0.0
  0
ARC
  5
374
100
AcDbEntity
  8
M0
100
AcDbCircle
 10
168.787862
 20
686.039846
 40
1.5
100
AcDbArc
 50
179.999417
 51
270.0
  0
ARC
  5
375
100
AcDbEntity
  8
M0
100
AcDbCircle
 10
161.287862
 20
678.540579
 40
1.0
100
AcDbArc
 50
0.0
 51
89.999126
  0
ARC
  5
376
100
AcDbEntity
  8
M0
100
AcDbCircle
 10
170.287617
 20
678.540579
 40
1.0
100
AcDbArc
 50
89.999126
 51
179.999126
  0
LINE
  5
377
100
AcDbEntity
  8
M0
100
AcDbLine
 10
147.28806
 20
677.541067
 11
154.28806
 21
677.541067
  0
LINE
  5
378
100
AcDbEntity
  8
M0
100
AcDbLine
 10
156.53806
 20
679.541067
 11
156.53806
 21
684.540823
  0
LINE
  5
379
100
AcDbEntity
  8
M0
100
AcDbLine
 10
152.28806
 20
686.540823
 11
149.28806
 21
686.540823
  0
LINE
  5
37A
100
AcDbEntity
  8
M0
100
AcDbLine
 10
145.03806
 20
684.540579
 11
145.03806
 21
679.541067
  0
LINE
  5
37B
100
AcDbEntity
  8
M0
100
AcDbLine
 10
156.53806
 20
684.541067
 11
153.78806
 21
684.541067
  0
LINE
  5
37C
100
AcDbEntity
  8
M0
100
AcDbLine
 10
152.28806
 20
686.541067
 11
152.28806
 21
686.040823
  0
LINE
  5
37D
100
AcDbEntity
  8
M0
100
AcDbLine
 10
149.28806
 20
686.541067
 11
149.28806
 21
686.040579
  0
LINE
  5
37E
100
AcDbEntity
  8
M0
100
AcDbLine
 10
147.78806
 20
684.540823
 11
145.03806
 21
684.541067
  0
LINE
  5
37F
100
AcDbEntity
  8
M0
100
AcDbLine
 10
152.28806
 20
684.540823
 11
149.28806
 21
684.540823
  0
LINE
  5
380
100
AcDbEntity
  8
M0
100
AcDbLine
 10
145.03806
 20
679.541067
 11
146.28806
 21
679.541067
  0
LINE
  5
381
100
AcDbEntity
  8
M0
100
AcDbLine
 10
154.28806
 20
678.541067
 11
154.28806
 21
677.541067
  0
LINE
  5
382
100
AcDbEntity
  8
M0
100
AcDbLine
 10
147.28806
 20
678.541067
 11
147.28806
 21
677.541067
  0
LINE
  5
383
100
AcDbEntity
  8
M0
100
AcDbLine
 10
155.28806
 20
679.541067
 11
156.53806
 21
679.541067
  0
ARC
  5
384
100
AcDbEntity
  8
M0
100
AcDbCircle
 10
153.78806
 20
686.040823
 40
1.5
100
AcDbArc
 50
179.999417
 51
270.0
  0
ARC
  5
385
100
AcDbEntity
  8
M0
100
AcDbCircle
 10
147.78806
 20
686.040579
 40
1.5
100
AcDbArc
 50
270.0
 51
360.0
  0
ARC
  5
386
100
AcDbEntity
  8
M0
100
AcDbCircle
 10
155.28806
 20
678.541067
 40
1.0
100
AcDbArc
 50
89.999126
 51
179.999126
  0
ARC
  5
387
100
AcDbEntity
  8
M0
100
AcDbCircle
 10
146.28806
 20
678.541067
 40
1.0
100
AcDbArc
 50
0.0
 51
89.999126
  0
CIRCLE
  5
388
100
AcDbEntity
  8
M0
 62
     5
100
AcDbCircle
 10
135.78806
 20
681.040579
 40
3.299995
  0
CIRCLE
  5
389
100
AcDbEntity
  8
M0
 62
     5
100
AcDbCircle
 10
150.78806
 20
681.040579
 40
3.299995
  0
CIRCLE
  5
38A
100
AcDbEntity
  8
M0
 62
     5
100
AcDbCircle
 10
165.787862
 20
681.039846
 40
3.299995
  0
CIRCLE
  5
38B
100
AcDbEntity
  8
M0
100
AcDbCircle
 10
135.788075
 20
681.040579
 40
3.0
  0
LINE
  5
38C
100
AcDbEntity
  8
M0
100
AcDbLine
 10
136.77802
 20
679.343313
 11
137.485127
 21
680.050588
  0
LINE
  5
38D
100
AcDbEntity
  8
M0
100
AcDbLine
 10
137.485127
 20
680.050588
 11
136.495167
 21
681.040334
  0
LINE
  5
38E
100
AcDbEntity
  8
M0
100
AcDbLine
 10
134.798115
 20
682.7376
 11
134.091023
 21
682.030325
  0
LINE
  5
38F
100
AcDbEntity
  8
M0
100
AcDbLine
 10
134.091023
 20
682.030325
 11
135.080968
 21
681.040579
  0
LINE
  5
390
100
AcDbEntity
  8
M0
100
AcDbLine
 10
133.342854
 20
679.302297
 11
135.080968
 21
681.040579
  0
LINE
  5
391
100
AcDbEntity
  8
M0
100
AcDbLine
 10
134.049962
 20
678.595266
 11
135.78806
 21
680.333303
  0
LINE
  5
392
100
AcDbEntity
  8
M0
100
AcDbLine
 10
138.233266
 20
682.778616
 11
136.495167
 21
681.040334
  0
LINE
  5
393
100
AcDbEntity
  8
M0
100
AcDbLine
 10
137.526158
 20
683.485647
 11
135.788075
 21
681.74761
  0
LINE
  5
394
100
AcDbEntity
  8
M0
100
AcDbLine
 10
136.77802
 20
679.343313
 11
135.78806
 21
680.333303
  0
LINE
  5
395
100
AcDbEntity
  8
M0
100
AcDbLine
 10
134.798115
 20
682.7376
 11
135.788075
 21
681.74761
  0
LINE
  5
396
100
AcDbEntity
  8
M0
  6
DASHDOT
100
AcDbLine
 10
130.587926
 20
681.040579
 11
140.988209
 21
681.040334
  0
LINE
  5
397
100
AcDbEntity
  8
M0
  6
DASHDOT
100
AcDbLine
 10
135.78806
 20
675.840383
 11
135.788075
 21
686.24053
  0
CIRCLE
  5
398
100
AcDbEntity
  8
M0
100
AcDbCircle
 10
150.788075
 20
681.040579
 40
3.0
  0
LINE
  5
399
100
AcDbEntity
  8
M0
100
AcDbLine
 10
151.77802
 20
679.343313
 11
152.485127
 21
680.050588
  0
LINE
  5
39A
100
AcDbEntity
  8
M0
100
AcDbLine
 10
152.485127
 20
680.050588
 11
151.495167
 21
681.040334
  0
LINE
  5
39B
100
AcDbEntity
  8
M0
100
AcDbLine
 10
149.798115
 20
682.7376
 11
149.091023
 21
682.030325
  0
LINE
  5
39C
100
AcDbEntity
  8
M0
100
AcDbLine
 10
149.091023
 20
682.030325
 11
150.080968
 21
681.040579
  0
LINE
  5
39D
100
AcDbEntity
  8
M0
100
AcDbLine
 10
148.342854
 20
679.302297
 11
150.080968
 21
681.040579
  0
LINE
  5
39E
100
AcDbEntity
  8
M0
100
AcDbLine
 10
149.049962
 20
678.595266
 11
150.78806
 21
680.333303
  0
LINE
  5
39F
100
AcDbEntity
  8
M0
100
AcDbLine
 10
153.233266
 20
682.778616
 11
151.495167
 21
681.040334
  0
LINE
  5
3A0
100
AcDbEntity
  8
M0
100
AcDbLine
 10
152.526158
 20
683.485647
 11
150.788075
 21
681.74761
  0
LINE
  5
3A1
100
AcDbEntity
  8
M0
100
AcDbLine
 10
151.77802
 20
679.343313
 11
150.78806
 21
680.333303
  0
LINE
  5
3A2
100
AcDbEntity
  8
M0
100
AcDbLine
 10
149.798115
 20
682.7376
 11
150.788075
 21
681.74761
  0
LINE
  5
3A3
100
AcDbEntity
  8
M0
  6
DASHDOT
100
AcDbLine
 10
145.587926
 20
681.040579
 11
155.988209
 21
681.040334
  0
CIRCLE
  5
3A4
100
AcDbEntity
  8
M0
100
AcDbCircle
 10
165.787862
 20
681.039846
 40
3.0
  0
LINE
  5
3A5
100
AcDbEntity
  8
M0
100
AcDbLine
 10
166.777608
 20
679.342581
 11
167.484883
 21
680.049856
  0
LINE
  5
3A6
100
AcDbEntity
  8
M0
100
AcDbLine
 10
167.484883
 20
680.049856
 11
166.494893
 21
681.039602
  0
LINE
  5
3A7
100
AcDbEntity
  8
M0
100
AcDbLine
 10
164.797871
 20
682.736868
 11
164.090596
 21
682.029592
  0
LINE
  5
3A8
100
AcDbEntity
  8
M0
100
AcDbLine
 10
164.090596
 20
682.029592
 11
165.080586
 21
681.039846
  0
LINE
  5
3A9
100
AcDbEntity
  8
M0
100
AcDbLine
 10
163.342549
 20
679.301565
 11
165.080586
 21
681.039846
  0
LINE
  5
3AA
100
AcDbEntity
  8
M0
100
AcDbLine
 10
164.04958
 20
678.594534
 11
165.787862
 21
680.332571
  0
LINE
  5
3AB
100
AcDbEntity
  8
M0
100
AcDbLine
 10
168.23293
 20
682.777883
 11
166.494893
 21
681.039602
  0
LINE
  5
3AC
100
AcDbEntity
  8
M0
100
AcDbLine
 10
167.525899
 20
683.484914
 11
165.787862
 21
681.746877
  0
LINE
  5
3AD
100
AcDbEntity
  8
M0
100
AcDbLine
 10
166.777608
 20
679.342581
 11
165.787862
 21
680.332571
  0
LINE
  5
3AE
100
AcDbEntity
  8
M0
100
AcDbLine
 10
164.797871
 20
682.736868
 11
165.787862
 21
681.746877
  0
LINE
  5
3AF
100
AcDbEntity
  8
M0
  6
DASHDOT
100
AcDbLine
 10
160.587666
 20
681.039846
 11
170.987813
 21
681.039602
  0
LINE
  5
3B0
100
AcDbEntity
  8
M0
  6
DASHDOT
100
AcDbLine
 10
165.787862
 20
675.839651
 11
165.787862
 21
686.239797
  0
LINE
  5
3B1
100
AcDbEntity
  8
M0
100
AcDbLine
 10
119.28806
 20
530.141409
 11
182.28806
 21
530.141409
  0
LINE
  5
3B2
100
AcDbEntity
  8
M0
100
AcDbLine
 10
182.28806
 20
530.141409
 11
182.28806
 21
594.141409
  0
LINE
  5
3B3
100
AcDbEntity
  8
M0
100
AcDbLine
 10
182.28806
 20
594.141409
 11
119.28806
 21
594.141409
  0
LINE
  5
3B4
100
AcDbEntity
  8
M0
100
AcDbLine
 10
119.28806
 20
594.141409
 11
119.28806
 21
530.141409
  0
LINE
  5
3B5
100
AcDbEntity
  8
M0
100
AcDbLine
 10
139.03806
 20
579.141409
 11
162.53806
 21
579.141409
  0
LINE
  5
3B6
100
AcDbEntity
  8
M0
100
AcDbLine
 10
139.03806
 20
545.141409
 11
162.53806
 21
545.141409
  0
LINE
  5
3B7
100
AcDbEntity
  8
M0
100
AcDbLine
 10
162.53806
 20
579.141409
 11
162.53806
 21
545.141409
  0
LINE
  5
3B8
100
AcDbEntity
  8
M0
100
AcDbLine
 10
139.03806
 20
579.141409
 11
139.03806
 21
545.141409
  0
LINE
  5
3B9
100
AcDbEntity
  8
M0
 62
     5
100
AcDbLine
 10
209.307057
 20
577.84136
 11
214.269078
 21
577.84136
  0
LINE
  5
3BA
100
AcDbEntity
  8
M0
 62
     5
100
AcDbLine
 10
215.563039
 20
580.840872
 11
215.563039
 21
583.440969
  0
LINE
  5
3BB
100
AcDbEntity
  8
M0
 62
     5
100
AcDbLine
 10
214.268925
 20
586.440969
 11
209.307057
 21
586.440969
  0
LINE
  5
3BC
100
AcDbEntity
  8
M0
 62
     5
100
AcDbLine
 10
208.013035
 20
583.441213
 11
208.013035
 21
580.84136
  0
LINE
  5
3BD
100
AcDbEntity
  8
M0
 62
     5
100
AcDbLine
 10
208.013035
 20
580.84136
 11
208.829289
 21
578.193899
  0
LINE
  5
3BE
100
AcDbEntity
  8
M0
 62
     5
100
AcDbLine
 10
208.013035
 20
583.441213
 11
208.829152
 21
586.087942
  0
LINE
  5
3BF
100
AcDbEntity
  8
M0
 62
     5
100
AcDbLine
 10
215.563054
 20
580.841116
 11
214.746861
 21
578.193899
  0
LINE
  5
3C0
100
AcDbEntity
  8
M0
 62
     5
100
AcDbLine
 10
215.563054
 20
583.440969
 11
214.746846
 21
586.087942
  0
ARC
  5
3C1
100
AcDbEntity
  8
M0
 62
     5
100
AcDbCircle
 10
209.307057
 20
578.34136
 40
0.5
100
AcDbArc
 50
197.151452
 51
270.0
  0
ARC
  5
3C2
100
AcDbEntity
  8
M0
 62
     5
100
AcDbCircle
 10
214.269078
 20
578.34136
 40
0.5
100
AcDbArc
 50
270.0
 51
342.85125
  0
ARC
  5
3C3
100
AcDbEntity
  8
M0
 62
     5
100
AcDbCircle
 10
214.268925
 20
585.940725
 40
0.5
100
AcDbArc
 50
17.121626
 51
89.998251
  0
ARC
  5
3C4
100
AcDbEntity
  8
M0
 62
     5
100
AcDbCircle
 10
209.307057
 20
585.940725
 40
0.5
100
AcDbArc
 50
89.998251
 51
162.874517
  0
LINE
  5
3C5
100
AcDbEntity
  8
M0
 62
     5
100
AcDbLine
 10
208.568074
 20
585.241262
 11
210.388035
 21
585.241262
  0
LINE
  5
3C6
100
AcDbEntity
  8
M0
 62
     5
100
AcDbLine
 10
208.568013
 20
579.041311
 11
210.388035
 21
579.041311
  0
LINE
  5
3C7
100
AcDbEntity
  8
M0
 62
     5
100
AcDbLine
 10
208.198048
 20
580.241262
 11
209.466542
 21
580.241262
  0
LINE
  5
3C8
100
AcDbEntity
  8
M0
 62
     5
100
AcDbLine
 10
208.197987
 20
584.041067
 11
209.46613
 21
584.041067
  0
LINE
  5
3C9
100
AcDbEntity
  8
M0
 62
     5
100
AcDbLine
 10
214.109563
 20
580.241262
 11
215.378102
 21
580.241262
  0
LINE
  5
3CA
100
AcDbEntity
  8
M0
 62
     5
100
AcDbLine
 10
214.109975
 20
584.041067
 11
215.37801
 21
584.041067
  0
LINE
  5
3CB
100
AcDbEntity
  8
M0
 62
     5
100
AcDbLine
 10
213.188039
 20
579.041311
 11
213.188039
 21
579.488088
  0
LINE
  5
3CC
100
AcDbEntity
  8
M0
 62
     5
100
AcDbLine
 10
210.388035
 20
579.041311
 11
210.388035
 21
579.488088
  0
LINE
  5
3CD
100
AcDbEntity
  8
M0
 62
     5
100
AcDbLine
 10
210.388035
 20
585.241262
 11
210.388035
 21
584.794485
  0
LINE
  5
3CE
100
AcDbEntity
  8
M0
 62
     5
100
AcDbLine
 10
213.188039
 20
585.241262
 11
213.188039
 21
584.794485
  0
LINE
  5
3CF
100
AcDbEntity
  8
M0
 62
     5
100
AcDbLine
 10
213.188039
 20
579.041311
 11
215.008122
 21
579.041311
  0
LINE
  5
3D0
100
AcDbEntity
  8
M0
 62
     5
100
AcDbLine
 10
213.188039
 20
585.241262
 11
215.007924
 21
585.241262
  0
CIRCLE
  5
3D1
100
AcDbEntity
  8
M0
 62
     5
100
AcDbCircle
 10
211.78806
 20
582.141409
 40
3.0
  0
LINE
  5
3D2
100
AcDbEntity
  8
M0
 62
     5
100
AcDbLine
 10
212.778004
 20
580.444143
 11
213.485112
 21
581.151418
  0
LINE
  5
3D3
100
AcDbEntity
  8
M0
 62
     5
100
AcDbLine
 10
213.485112
 20
581.151418
 11
212.495152
 21
582.141164
  0
LINE
  5
3D4
100
AcDbEntity
  8
M0
 62
     5
100
AcDbLine
 10
210.7981
 20
583.83843
 11
210.091008
 21
583.131155
  0
LINE
  5
3D5
100
AcDbEntity
  8
M0
 62
     5
100
AcDbLine
 10
210.091008
 20
583.131155
 11
211.080952
 21
582.141409
  0
LINE
  5
3D6
100
AcDbEntity
  8
M0
 62
     5
100
AcDbLine
 10
209.342839
 20
580.403127
 11
211.080952
 21
582.141409
  0
LINE
  5
3D7
100
AcDbEntity
  8
M0
 62
     5
100
AcDbLine
 10
210.049946
 20
579.696096
 11
211.788045
 21
581.434133
  0
LINE
  5
3D8
100
AcDbEntity
  8
M0
 62
     5
100
AcDbLine
 10
214.23325
 20
583.879446
 11
212.495152
 21
582.141164
  0
LINE
  5
3D9
100
AcDbEntity
  8
M0
 62
     5
100
AcDbLine
 10
213.526143
 20
584.586477
 11
211.78806
 21
582.84844
  0
LINE
  5
3DA
100
AcDbEntity
  8
M0
 62
     5
100
AcDbLine
 10
212.778004
 20
580.444143
 11
211.788045
 21
581.434133
  0
LINE
  5
3DB
100
AcDbEntity
  8
M0
 62
     5
100
AcDbLine
 10
210.7981
 20
583.83843
 11
211.78806
 21
582.84844
  0
LINE
  5
3DC
100
AcDbEntity
  8
M0
 62
     5
100
AcDbLine
 10
209.307057
 20
547.34136
 11
214.269078
 21
547.34136
  0
LINE
  5
3DD
100
AcDbEntity
  8
M0
 62
     5
100
AcDbLine
 10
215.563039
 20
550.340872
 11
215.563039
 21
552.940969
  0
LINE
  5
3DE
100
AcDbEntity
  8
M0
 62
     5
100
AcDbLine
 10
214.268925
 20
555.940969
 11
209.307057
 21
555.940969
  0
LINE
  5
3DF
100
AcDbEntity
  8
M0
 62
     5
100
AcDbLine
 10
208.013035
 20
552.941213
 11
208.013035
 21
550.34136
  0
LINE
  5
3E0
100
AcDbEntity
  8
M0
 62
     5
100
AcDbLine
 10
208.013035
 20
550.34136
 11
208.829289
 21
547.693899
  0
LINE
  5
3E1
100
AcDbEntity
  8
M0
 62
     5
100
AcDbLine
 10
208.013035
 20
552.941213
 11
208.829152
 21
555.587942
  0
LINE
  5
3E2
100
AcDbEntity
  8
M0
 62
     5
100
AcDbLine
 10
215.563054
 20
550.341116
 11
214.746861
 21
547.693899
  0
LINE
  5
3E3
100
AcDbEntity
  8
M0
 62
     5
100
AcDbLine
 10
215.563054
 20
552.940969
 11
214.746846
 21
555.587942
  0
ARC
  5
3E4
100
AcDbEntity
  8
M0
 62
     5
100
AcDbCircle
 10
209.307057
 20
547.84136
 40
0.5
100
AcDbArc
 50
197.151452
 51
270.0
  0
ARC
  5
3E5
100
AcDbEntity
  8
M0
 62
     5
100
AcDbCircle
 10
214.269078
 20
547.84136
 40
0.5
100
AcDbArc
 50
270.0
 51
342.85125
  0
ARC
  5
3E6
100
AcDbEntity
  8
M0
 62
     5
100
AcDbCircle
 10
214.268925
 20
555.440725
 40
0.5
100
AcDbArc
 50
17.121626
 51
89.998251
  0
ARC
  5
3E7
100
AcDbEntity
  8
M0
 62
     5
100
AcDbCircle
 10
209.307057
 20
555.440725
 40
0.5
100
AcDbArc
 50
89.998251
 51
162.874517
  0
LINE
  5
3E8
100
AcDbEntity
  8
M0
 62
     5
100
AcDbLine
 10
208.568074
 20
554.741262
 11
210.388035
 21
554.741262
  0
LINE
  5
3E9
100
AcDbEntity
  8
M0
 62
     5
100
AcDbLine
 10
208.568013
 20
548.541311
 11
210.388035
 21
548.541311
  0
LINE
  5
3EA
100
AcDbEntity
  8
M0
 62
     5
100
AcDbLine
 10
208.198048
 20
549.741262
 11
209.466542
 21
549.741262
  0
LINE
  5
3EB
100
AcDbEntity
  8
M0
 62
     5
100
AcDbLine
 10
208.197987
 20
553.541067
 11
209.46613
 21
553.541067
  0
LINE
  5
3EC
100
AcDbEntity
  8
M0
 62
     5
100
AcDbLine
 10
214.109563
 20
549.741262
 11
215.378102
 21
549.741262
  0
LINE
  5
3ED
100
AcDbEntity
  8
M0
 62
     5
100
AcDbLine
 10
214.109975
 20
553.541067
 11
215.37801
 21
553.541067
  0
LINE
  5
3EE
100
AcDbEntity
  8
M0
 62
     5
100
AcDbLine
 10
213.188039
 20
548.541311
 11
213.188039
 21
548.988088
  0
LINE
  5
3EF
100
AcDbEntity
  8
M0
 62
     5
100
AcDbLine
 10
210.388035
 20
548.541311
 11
210.388035
 21
548.988088
  0
LINE
  5
3F0
100
AcDbEntity
  8
M0
 62
     5
100
AcDbLine
 10
210.388035
 20
554.741262
 11
210.388035
 21
554.294485
  0
LINE
  5
3F1
100
AcDbEntity
  8
M0
 62
     5
100
AcDbLine
 10
213.188039
 20
554.741262
 11
213.188039
 21
554.294485
  0
LINE
  5
3F2
100
AcDbEntity
  8
M0
 62
     5
100
AcDbLine
 10
213.188039
 20
548.541311
 11
215.008122
 21
548.541311
  0
LINE
  5
3F3
100
AcDbEntity
  8
M0
 62
     5
100
AcDbLine
 10
213.188039
 20
554.741262
 11
215.007924
 21
554.741262
  0
CIRCLE
  5
3F4
100
AcDbEntity
  8
M0
 62
     5
100
AcDbCircle
 10
211.78806
 20
551.641409
 40
3.0
  0
LINE
  5
3F5
100
AcDbEntity
  8
M0
 62
     5
100
AcDbLine
 10
212.778004
 20
549.944143
 11
213.485112
 21
550.651418
  0
LINE
  5
3F6
100
AcDbEntity
  8
M0
 62
     5
100
AcDbLine
 10
213.485112
 20
550.651418
 11
212.495152
 21
551.641164
  0
LINE
  5
3F7
100
AcDbEntity
  8
M0
 62
     5
100
AcDbLine
 10
210.7981
 20
553.33843
 11
210.091008
 21
552.631155
  0
LINE
  5
3F8
100
AcDbEntity
  8
M0
 62
     5
100
AcDbLine
 10
210.091008
 20
552.631155
 11
211.080952
 21
551.641409
  0
LINE
  5
3F9
100
AcDbEntity
  8
M0
 62
     5
100
AcDbLine
 10
209.342839
 20
549.903127
 11
211.080952
 21
551.641409
  0
LINE
  5
3FA
100
AcDbEntity
  8
M0
 62
     5
100
AcDbLine
 10
210.049946
 20
549.196096
 11
211.788045
 21
550.934133
  0
LINE
  5
3FB
100
AcDbEntity
  8
M0
 62
     5
100
AcDbLine
 10
214.23325
 20
553.379446
 11
212.495152
 21
551.641164
  0
LINE
  5
3FC
100
AcDbEntity
  8
M0
 62
     5
100
AcDbLine
 10
213.526143
 20
554.086477
 11
211.78806
 21
552.34844
  0
LINE
  5
3FD
100
AcDbEntity
  8
M0
 62
     5
100
AcDbLine
 10
212.778004
 20
549.944143
 11
211.788045
 21
550.934133
  0
LINE
  5
3FE
100
AcDbEntity
  8
M0
 62
     5
100
AcDbLine
 10
210.7981
 20
553.33843
 11
211.78806
 21
552.34844
  0
LINE
  5
3FF
100
AcDbEntity
  8
M0
 62
     5
100
AcDbLine
 10
209.307057
 20
537.84136
 11
214.269078
 21
537.84136
  0
LINE
  5
400
100
AcDbEntity
  8
M0
 62
     5
100
AcDbLine
 10
215.563039
 20
540.840872
 11
215.563039
 21
543.440969
  0
LINE
  5
401
100
AcDbEntity
  8
M0
 62
     5
100
AcDbLine
 10
214.268925
 20
546.440969
 11
209.307057
 21
546.440969
  0
LINE
  5
402
100
AcDbEntity
  8
M0
 62
     5
100
AcDbLine
 10
208.013035
 20
543.441213
 11
208.013035
 21
540.84136
  0
LINE
  5
403
100
AcDbEntity
  8
M0
 62
     5
100
AcDbLine
 10
208.013035
 20
540.84136
 11
208.829289
 21
538.193899
  0
LINE
  5
404
100
AcDbEntity
  8
M0
 62
     5
100
AcDbLine
 10
208.013035
 20
543.441213
 11
208.829152
 21
546.087942
  0
LINE
  5
405
100
AcDbEntity
  8
M0
 62
     5
100
AcDbLine
 10
215.563054
 20
540.841116
 11
214.746861
 21
538.193899
  0
LINE
  5
406
100
AcDbEntity
  8
M0
 62
     5
100
AcDbLine
 10
215.563054
 20
543.440969
 11
214.746846
 21
546.087942
  0
ARC
  5
407
100
AcDbEntity
  8
M0
 62
     5
100
AcDbCircle
 10
209.307057
 20
538.34136
 40
0.5
100
AcDbArc
 50
197.151452
 51
270.0
  0
ARC
  5
408
100
AcDbEntity
  8
M0
 62
     5
100
AcDbCircle
 10
214.269078
 20
538.34136
 40
0.5
100
AcDbArc
 50
270.0
 51
342.85125
  0
ARC
  5
409
100
AcDbEntity
  8
M0
 62
     5
100
AcDbCircle
 10
214.268925
 20
545.940725
 40
0.5
100
AcDbArc
 50
17.121626
 51
89.998251
  0
ARC
  5
40A
100
AcDbEntity
  8
M0
 62
     5
100
AcDbCircle
 10
209.307057
 20
545.940725
 40
0.5
100
AcDbArc
 50
89.998251
 51
162.874517
  0
LINE
  5
40B
100
AcDbEntity
  8
M0
 62
     5
100
AcDbLine
 10
208.568074
 20
545.241262
 11
210.388035
 21
545.241262
  0
LINE
  5
40C
100
AcDbEntity
  8
M0
 62
     5
100
AcDbLine
 10
208.568013
 20
539.041311
 11
210.388035
 21
539.041311
  0
LINE
  5
40D
100
AcDbEntity
  8
M0
 62
     5
100
AcDbLine
 10
208.198048
 20
540.241262
 11
209.466542
 21
540.241262
  0
LINE
  5
40E
100
AcDbEntity
  8
M0
 62
     5
100
AcDbLine
 10
208.197987
 20
544.041067
 11
209.46613
 21
544.041067
  0
LINE
  5
40F
100
AcDbEntity
  8
M0
 62
     5
100
AcDbLine
 10
214.109563
 20
540.241262
 11
215.378102
 21
540.241262
  0
LINE
  5
410
100
AcDbEntity
  8
M0
 62
     5
100
AcDbLine
 10
214.109975
 20
544.041067
 11
215.37801
 21
544.041067
  0
LINE
  5
411
100
AcDbEntity
  8
M0
 62
     5
100
AcDbLine
 10
213.188039
 20
539.041311
 11
213.188039
 21
539.488088
  0
LINE
  5
412
100
AcDbEntity
  8
M0
 62
     5
100
AcDbLine
 10
210.388035
 20
539.041311
 11
210.388035
 21
539.488088
  0
LINE
  5
413
100
AcDbEntity
  8
M0
 62
     5
100
AcDbLine
 10
210.388035
 20
545.241262
 11
210.388035
 21
544.794485
  0
LINE
  5
414
100
AcDbEntity
  8
M0
 62
     5
100
AcDbLine
 10
213.188039
 20
545.241262
 11
213.188039
 21
544.794485
  0
LINE
  5
415
100
AcDbEntity
  8
M0
 62
     5
100
AcDbLine
 10
213.188039
 20
539.041311
 11
215.008122
 21
539.041311
  0
LINE
  5
416
100
AcDbEntity
  8
M0
 62
     5
100
AcDbLine
 10
213.188039
 20
545.241262
 11
215.007924
 21
545.241262
  0
CIRCLE
  5
417
100
AcDbEntity
  8
M0
 62
     5
100
AcDbCircle
 10
211.78806
 20
542.141409
 40
3.0
  0
LINE
  5
418
100
AcDbEntity
  8
M0
 62
     5
100
AcDbLine
 10
212.778004
 20
540.444143
 11
213.485112
 21
541.151418
  0
LINE
  5
419
100
AcDbEntity
  8
M0
 62
     5
100
AcDbLine
 10
213.485112
 20
541.151418
 11
212.495152
 21
542.141164
  0
LINE
  5
41A
100
AcDbEntity
  8
M0
 62
     5
100
AcDbLine
 10
210.7981
 20
543.83843
 11
210.091008
 21
543.131155
  0
LINE
  5
41B
100
AcDbEntity
  8
M0
 62
     5
100
AcDbLine
 10
210.091008
 20
543.131155
 11
211.080952
 21
542.141409
  0
LINE
  5
41C
100
AcDbEntity
  8
M0
 62
     5
100
AcDbLine
 10
209.342839
 20
540.403127
 11
211.080952
 21
542.141409
  0
LINE
  5
41D
100
AcDbEntity
  8
M0
 62
     5
100
AcDbLine
 10
210.049946
 20
539.696096
 11
211.788045
 21
541.434133
  0
LINE
  5
41E
100
AcDbEntity
  8
M0
 62
     5
100
AcDbLine
 10
214.23325
 20
543.879446
 11
212.495152
 21
542.141164
  0
LINE
  5
41F
100
AcDbEntity
  8
M0
 62
     5
100
AcDbLine
 10
213.526143
 20
544.586477
 11
211.78806
 21
542.84844
  0
LINE
  5
420
100
AcDbEntity
  8
M0
 62
     5
100
AcDbLine
 10
212.778004
 20
540.444143
 11
211.788045
 21
541.434133
  0
LINE
  5
421
100
AcDbEntity
  8
M0
 62
     5
100
AcDbLine
 10
210.7981
 20
543.83843
 11
211.78806
 21
542.84844
  0
LINE
  5
422
100
AcDbEntity
  8
M0
 62
     5
100
AcDbLine
 10
87.307057
 20
537.84136
 11
92.269078
 21
537.84136
  0
LINE
  5
423
100
AcDbEntity
  8
M0
 62
     5
100
AcDbLine
 10
93.563039
 20
540.840872
 11
93.563039
 21
543.440969
  0
LINE
  5
424
100
AcDbEntity
  8
M0
 62
     5
100
AcDbLine
 10
92.268925
 20
546.440969
 11
87.307057
 21
546.440969
  0
LINE
  5
425
100
AcDbEntity
  8
M0
 62
     5
100
AcDbLine
 10
86.013035
 20
543.441213
 11
86.013035
 21
540.84136
  0
LINE
  5
426
100
AcDbEntity
  8
M0
 62
     5
100
AcDbLine
 10
86.013035
 20
540.84136
 11
86.829289
 21
538.193899
  0
LINE
  5
427
100
AcDbEntity
  8
M0
 62
     5
100
AcDbLine
 10
86.013035
 20
543.441213
 11
86.829152
 21
546.087942
  0
LINE
  5
428
100
AcDbEntity
  8
M0
 62
     5
100
AcDbLine
 10
93.563054
 20
540.841116
 11
92.746861
 21
538.193899
  0
LINE
  5
429
100
AcDbEntity
  8
M0
 62
     5
100
AcDbLine
 10
93.563054
 20
543.440969
 11
92.746846
 21
546.087942
  0
ARC
  5
42A
100
AcDbEntity
  8
M0
 62
     5
100
AcDbCircle
 10
87.307057
 20
538.34136
 40
0.5
100
AcDbArc
 50
197.151452
 51
270.0
  0
ARC
  5
42B
100
AcDbEntity
  8
M0
 62
     5
100
AcDbCircle
 10
92.269078
 20
538.34136
 40
0.5
100
AcDbArc
 50
270.0
 51
342.85125
  0
ARC
  5
42C
100
AcDbEntity
  8
M0
 62
     5
100
AcDbCircle
 10
92.268925
 20
545.940725
 40
0.5
100
AcDbArc
 50
17.121626
 51
89.998251
  0
ARC
  5
42D
100
AcDbEntity
  8
M0
 62
     5
100
AcDbCircle
 10
87.307057
 20
545.940725
 40
0.5
100
AcDbArc
 50
89.998251
 51
162.874517
  0
LINE
  5
42E
100
AcDbEntity
  8
M0
 62
     5
100
AcDbLine
 10
86.568074
 20
545.241262
 11
88.388035
 21
545.241262
  0
LINE
  5
42F
100
AcDbEntity
  8
M0
 62
     5
100
AcDbLine
 10
86.568013
 20
539.041311
 11
88.388035
 21
539.041311
  0
LINE
  5
430
100
AcDbEntity
  8
M0
 62
     5
100
AcDbLine
 10
86.198048
 20
540.241262
 11
87.466542
 21
540.241262
  0
LINE
  5
431
100
AcDbEntity
  8
M0
 62
     5
100
AcDbLine
 10
86.197987
 20
544.041067
 11
87.46613
 21
544.041067
  0
LINE
  5
432
100
AcDbEntity
  8
M0
 62
     5
100
AcDbLine
 10
92.109563
 20
540.241262
 11
93.378102
 21
540.241262
  0
LINE
  5
433
100
AcDbEntity
  8
M0
 62
     5
100
AcDbLine
 10
92.109975
 20
544.041067
 11
93.37801
 21
544.041067
  0
LINE
  5
434
100
AcDbEntity
  8
M0
 62
     5
100
AcDbLine
 10
91.188039
 20
539.041311
 11
91.188039
 21
539.488088
  0
LINE
  5
435
100
AcDbEntity
  8
M0
 62
     5
100
AcDbLine
 10
88.388035
 20
539.041311
 11
88.388035
 21
539.488088
  0
LINE
  5
436
100
AcDbEntity
  8
M0
 62
     5
100
AcDbLine
 10
88.388035
 20
545.241262
 11
88.388035
 21
544.794485
  0
LINE
  5
437
100
AcDbEntity
  8
M0
 62
     5
100
AcDbLine
 10
91.188039
 20
545.241262
 11
91.188039
 21
544.794485
  0
LINE
  5
438
100
AcDbEntity
  8
M0
 62
     5
100
AcDbLine
 10
91.188039
 20
539.041311
 11
93.008122
 21
539.041311
  0
LINE
  5
439
100
AcDbEntity
  8
M0
 62
     5
100
AcDbLine
 10
91.188039
 20
545.241262
 11
93.007924
 21
545.241262
  0
CIRCLE
  5
43A
100
AcDbEntity
  8
M0
 62
     5
100
AcDbCircle
 10
89.78806
 20
542.141409
 40
3.0
  0
LINE
  5
43B
100
AcDbEntity
  8
M0
 62
     5
100
AcDbLine
 10
90.778004
 20
540.444143
 11
91.485112
 21
541.151418
  0
LINE
  5
43C
100
AcDbEntity
  8
M0
 62
     5
100
AcDbLine
 10
91.485112
 20
541.151418
 11
90.495152
 21
542.141164
  0
LINE
  5
43D
100
AcDbEntity
  8
M0
 62
     5
100
AcDbLine
 10
88.7981
 20
543.83843
 11
88.091008
 21
543.131155
  0
LINE
  5
43E
100
AcDbEntity
  8
M0
 62
     5
100
AcDbLine
 10
88.091008
 20
543.131155
 11
89.080952
 21
542.141409
  0
LINE
  5
43F
100
AcDbEntity
  8
M0
 62
     5
100
AcDbLine
 10
87.342839
 20
540.403127
 11
89.080952
 21
542.141409
  0
LINE
  5
440
100
AcDbEntity
  8
M0
 62
     5
100
AcDbLine
 10
88.049946
 20
539.696096
 11
89.788045
 21
541.434133
  0
LINE
  5
441
100
AcDbEntity
  8
M0
 62
     5
100
AcDbLine
 10
92.23325
 20
543.879446
 11
90.495152
 21
542.141164
  0
LINE
  5
442
100
AcDbEntity
  8
M0
 62
     5
100
AcDbLine
 10
91.526143
 20
544.586477
 11
89.78806
 21
542.84844
  0
LINE
  5
443
100
AcDbEntity
  8
M0
 62
     5
100
AcDbLine
 10
90.778004
 20
540.444143
 11
89.788045
 21
541.434133
  0
LINE
  5
444
100
AcDbEntity
  8
M0
 62
     5
100
AcDbLine
 10
88.7981
 20
543.83843
 11
89.78806
 21
542.84844
  0
LINE
  5
445
100
AcDbEntity
  8
M0
 62
     5
100
AcDbLine
 10
87.307057
 20
547.34136
 11
92.269078
 21
547.34136
  0
LINE
  5
446
100
AcDbEntity
  8
M0
 62
     5
100
AcDbLine
 10
93.563039
 20
550.340872
 11
93.563039
 21
552.940969
  0
LINE
  5
447
100
AcDbEntity
  8
M0
 62
     5
100
AcDbLine
 10
92.268925
 20
555.940969
 11
87.307057
 21
555.940969
  0
LINE
  5
448
100
AcDbEntity
  8
M0
 62
     5
100
AcDbLine
 10
86.013035
 20
552.941213
 11
86.013035
 21
550.34136
  0
LINE
  5
449
100
AcDbEntity
  8
M0
 62
     5
100
AcDbLine
 10
86.013035
 20
550.34136
 11
86.829289
 21
547.693899
  0
LINE
  5
44A
100
AcDbEntity
  8
M0
 62
     5
100
AcDbLine
 10
86.013035
 20
552.941213
 11
86.829152
 21
555.587942
  0
LINE
  5
44B
100
AcDbEntity
  8
M0
 62
     5
100
AcDbLine
 10
93.563054
 20
550.341116
 11
92.746861
 21
547.693899
  0
LINE
  5
44C
100
AcDbEntity
  8
M0
 62
     5
100
AcDbLine
 10
93.563054
 20
552.940969
 11
92.746846
 21
555.587942
  0
ARC
  5
44D
100
AcDbEntity
  8
M0
 62
     5
100
AcDbCircle
 10
87.307057
 20
547.84136
 40
0.5
100
AcDbArc
 50
197.151452
 51
270.0
  0
ARC
  5
44E
100
AcDbEntity
  8
M0
 62
     5
100
AcDbCircle
 10
92.269078
 20
547.84136
 40
0.5
100
AcDbArc
 50
270.0
 51
342.85125
  0
ARC
  5
44F
100
AcDbEntity
  8
M0
 62
     5
100
AcDbCircle
 10
92.268925
 20
555.440725
 40
0.5
100
AcDbArc
 50
17.121626
 51
89.998251
  0
ARC
  5
450
100
AcDbEntity
  8
M0
 62
     5
100
AcDbCircle
 10
87.307057
 20
555.440725
 40
0.5
100
AcDbArc
 50
89.998251
 51
162.874517
  0
LINE
  5
451
100
AcDbEntity
  8
M0
 62
     5
100
AcDbLine
 10
86.568074
 20
554.741262
 11
88.388035
 21
554.741262
  0
LINE
  5
452
100
AcDbEntity
  8
M0
 62
     5
100
AcDbLine
 10
86.568013
 20
548.541311
 11
88.388035
 21
548.541311
  0
LINE
  5
453
100
AcDbEntity
  8
M0
 62
     5
100
AcDbLine
 10
86.198048
 20
549.741262
 11
87.466542
 21
549.741262
  0
LINE
  5
454
100
AcDbEntity
  8
M0
 62
     5
100
AcDbLine
 10
86.197987
 20
553.541067
 11
87.46613
 21
553.541067
  0
LINE
  5
455
100
AcDbEntity
  8
M0
 62
     5
100
AcDbLine
 10
92.109563
 20
549.741262
 11
93.378102
 21
549.741262
  0
LINE
  5
456
100
AcDbEntity
  8
M0
 62
     5
100
AcDbLine
 10
92.109975
 20
553.541067
 11
93.37801
 21
553.541067
  0
LINE
  5
457
100
AcDbEntity
  8
M0
 62
     5
100
AcDbLine
 10
91.188039
 20
548.541311
 11
91.188039
 21
548.988088
  0
LINE
  5
458
100
AcDbEntity
  8
M0
 62
     5
100
AcDbLine
 10
88.388035
 20
548.541311
 11
88.388035
 21
548.988088
  0
LINE
  5
459
100
AcDbEntity
  8
M0
 62
     5
100
AcDbLine
 10
88.388035
 20
554.741262
 11
88.388035
 21
554.294485
  0
LINE
  5
45A
100
AcDbEntity
  8
M0
 62
     5
100
AcDbLine
 10
91.188039
 20
554.741262
 11
91.188039
 21
554.294485
  0
LINE
  5
45B
100
AcDbEntity
  8
M0
 62
     5
100
AcDbLine
 10
91.188039
 20
548.541311
 11
93.008122
 21
548.541311
  0
LINE
  5
45C
100
AcDbEntity
  8
M0
 62
     5
100
AcDbLine
 10
91.188039
 20
554.741262
 11
93.007924
 21
554.741262
  0
CIRCLE
  5
45D
100
AcDbEntity
  8
M0
 62
     5
100
AcDbCircle
 10
89.78806
 20
551.641409
 40
3.0
  0
LINE
  5
45E
100
AcDbEntity
  8
M0
 62
     5
100
AcDbLine
 10
90.778004
 20
549.944143
 11
91.485112
 21
550.651418
  0
LINE
  5
45F
100
AcDbEntity
  8
M0
 62
     5
100
AcDbLine
 10
91.485112
 20
550.651418
 11
90.495152
 21
551.641164
  0
LINE
  5
460
100
AcDbEntity
  8
M0
 62
     5
100
AcDbLine
 10
88.7981
 20
553.33843
 11
88.091008
 21
552.631155
  0
LINE
  5
461
100
AcDbEntity
  8
M0
 62
     5
100
AcDbLine
 10
88.091008
 20
552.631155
 11
89.080952
 21
551.641409
  0
LINE
  5
462
100
AcDbEntity
  8
M0
 62
     5
100
AcDbLine
 10
87.342839
 20
549.903127
 11
89.080952
 21
551.641409
  0
LINE
  5
463
100
AcDbEntity
  8
M0
 62
     5
100
AcDbLine
 10
88.049946
 20
549.196096
 11
89.788045
 21
550.934133
  0
LINE
  5
464
100
AcDbEntity
  8
M0
 62
     5
100
AcDbLine
 10
92.23325
 20
553.379446
 11
90.495152
 21
551.641164
  0
LINE
  5
465
100
AcDbEntity
  8
M0
 62
     5
100
AcDbLine
 10
91.526143
 20
554.086477
 11
89.78806
 21
552.34844
  0
LINE
  5
466
100
AcDbEntity
  8
M0
 62
     5
100
AcDbLine
 10
90.778004
 20
549.944143
 11
89.788045
 21
550.934133
  0
LINE
  5
467
100
AcDbEntity
  8
M0
 62
     5
100
AcDbLine
 10
88.7981
 20
553.33843
 11
89.78806
 21
552.34844
  0
LINE
  5
468
100
AcDbEntity
  8
M0
 62
     5
100
AcDbLine
 10
87.307057
 20
568.34136
 11
92.269078
 21
568.34136
  0
LINE
  5
469
100
AcDbEntity
  8
M0
 62
     5
100
AcDbLine
 10
93.563039
 20
571.340872
 11
93.563039
 21
573.940969
  0
LINE
  5
46A
100
AcDbEntity
  8
M0
 62
     5
100
AcDbLine
 10
92.268925
 20
576.940969
 11
87.307057
 21
576.940969
  0
LINE
  5
46B
100
AcDbEntity
  8
M0
 62
     5
100
AcDbLine
 10
86.013035
 20
573.941213
 11
86.013035
 21
571.34136
  0
LINE
  5
46C
100
AcDbEntity
  8
M0
 62
     5
100
AcDbLine
 10
86.013035
 20
571.34136
 11
86.829289
 21
568.693899
  0
LINE
  5
46D
100
AcDbEntity
  8
M0
 62
     5
100
AcDbLine
 10
86.013035
 20
573.941213
 11
86.829152
 21
576.587942
  0
LINE
  5
46E
100
AcDbEntity
  8
M0
 62
     5
100
AcDbLine
 10
93.563054
 20
571.341116
 11
92.746861
 21
568.693899
  0
LINE
  5
46F
100
AcDbEntity
  8
M0
 62
     5
100
AcDbLine
 10
93.563054
 20
573.940969
 11
92.746846
 21
576.587942
  0
ARC
  5
470
100
AcDbEntity
  8
M0
 62
     5
100
AcDbCircle
 10
87.307057
 20
568.84136
 40
0.5
100
AcDbArc
 50
197.151452
 51
270.0
  0
ARC
  5
471
100
AcDbEntity
  8
M0
 62
     5
100
AcDbCircle
 10
92.269078
 20
568.84136
 40
0.5
100
AcDbArc
 50
270.0
 51
342.85125
  0
ARC
  5
472
100
AcDbEntity
  8
M0
 62
     5
100
AcDbCircle
 10
92.268925
 20
576.440725
 40
0.5
100
AcDbArc
 50
17.121626
 51
89.998251
  0
ARC
  5
473
100
AcDbEntity
  8
M0
 62
     5
100
AcDbCircle
 10
87.307057
 20
576.440725
 40
0.5
100
AcDbArc
 50
89.998251
 51
162.874517
  0
LINE
  5
474
100
AcDbEntity
  8
M0
 62
     5
100
AcDbLine
 10
86.568074
 20
575.741262
 11
88.388035
 21
575.741262
  0
LINE
  5
475
100
AcDbEntity
  8
M0
 62
     5
100
AcDbLine
 10
86.568013
 20
569.541311
 11
88.388035
 21
569.541311
  0
LINE
  5
476
100
AcDbEntity
  8
M0
 62
     5
100
AcDbLine
 10
86.198048
 20
570.741262
 11
87.466542
 21
570.741262
  0
LINE
  5
477
100
AcDbEntity
  8
M0
 62
     5
100
AcDbLine
 10
86.197987
 20
574.541067
 11
87.46613
 21
574.541067
  0
LINE
  5
478
100
AcDbEntity
  8
M0
 62
     5
100
AcDbLine
 10
92.109563
 20
570.741262
 11
93.378102
 21
570.741262
  0
LINE
  5
479
100
AcDbEntity
  8
M0
 62
     5
100
AcDbLine
 10
92.109975
 20
574.541067
 11
93.37801
 21
574.541067
  0
LINE
  5
47A
100
AcDbEntity
  8
M0
 62
     5
100
AcDbLine
 10
91.188039
 20
569.541311
 11
91.188039
 21
569.988088
  0
LINE
  5
47B
100
AcDbEntity
  8
M0
 62
     5
100
AcDbLine
 10
88.388035
 20
569.541311
 11
88.388035
 21
569.988088
  0
LINE
  5
47C
100
AcDbEntity
  8
M0
 62
     5
100
AcDbLine
 10
88.388035
 20
575.741262
 11
88.388035
 21
575.294485
  0
LINE
  5
47D
100
AcDbEntity
  8
M0
 62
     5
100
AcDbLine
 10
91.188039
 20
575.741262
 11
91.188039
 21
575.294485
  0
LINE
  5
47E
100
AcDbEntity
  8
M0
 62
     5
100
AcDbLine
 10
91.188039
 20
569.541311
 11
93.008122
 21
569.541311
  0
LINE
  5
47F
100
AcDbEntity
  8
M0
 62
     5
100
AcDbLine
 10
91.188039
 20
575.741262
 11
93.007924
 21
575.741262
  0
CIRCLE
  5
480
100
AcDbEntity
  8
M0
 62
     5
100
AcDbCircle
 10
89.78806
 20
572.641409
 40
3.0
  0
LINE
  5
481
100
AcDbEntity
  8
M0
 62
     5
100
AcDbLine
 10
90.778004
 20
570.944143
 11
91.485112
 21
571.651418
  0
LINE
  5
482
100
AcDbEntity
  8
M0
 62
     5
100
AcDbLine
 10
91.485112
 20
571.651418
 11
90.495152
 21
572.641164
  0
LINE
  5
483
100
AcDbEntity
  8
M0
 62
     5
100
AcDbLine
 10
88.7981
 20
574.33843
 11
88.091008
 21
573.631155
  0
LINE
  5
484
100
AcDbEntity
  8
M0
 62
     5
100
AcDbLine
 10
88.091008
 20
573.631155
 11
89.080952
 21
572.641409
  0
LINE
  5
485
100
AcDbEntity
  8
M0
 62
     5
100
AcDbLine
 10
87.342839
 20
570.903127
 11
89.080952
 21
572.641409
  0
LINE
  5
486
100
AcDbEntity
  8
M0
 62
     5
100
AcDbLine
 10
88.049946
 20
570.196096
 11
89.788045
 21
571.934133
  0
LINE
  5
487
100
AcDbEntity
  8
M0
 62
     5
100
AcDbLine
 10
92.23325
 20
574.379446
 11
90.495152
 21
572.641164
  0
LINE
  5
488
100
AcDbEntity
  8
M0
 62
     5
100
AcDbLine
 10
91.526143
 20
575.086477
 11
89.78806
 21
573.34844
  0
LINE
  5
489
100
AcDbEntity
  8
M0
 62
     5
100
AcDbLine
 10
90.778004
 20
570.944143
 11
89.788045
 21
571.934133
  0
LINE
  5
48A
100
AcDbEntity
  8
M0
 62
     5
100
AcDbLine
 10
88.7981
 20
574.33843
 11
89.78806
 21
573.34844
  0
LINE
  5
48B
100
AcDbEntity
  8
M0
 62
     5
100
AcDbLine
 10
87.307057
 20
577.84136
 11
92.269078
 21
577.84136
  0
LINE
  5
48C
100
AcDbEntity
  8
M0
 62
     5
100
AcDbLine
 10
93.563039
 20
580.840872
 11
93.563039
 21
583.440969
  0
LINE
  5
48D
100
AcDbEntity
  8
M0
 62
     5
100
AcDbLine
 10
92.268925
 20
586.440969
 11
87.307057
 21
586.440969
  0
LINE
  5
48E
100
AcDbEntity
  8
M0
 62
     5
100
AcDbLine
 10
86.013035
 20
583.441213
 11
86.013035
 21
580.84136
  0
LINE
  5
48F
100
AcDbEntity
  8
M0
 62
     5
100
AcDbLine
 10
86.013035
 20
580.84136
 11
86.829289
 21
578.193899
  0
LINE
  5
490
100
AcDbEntity
  8
M0
 62
     5
100
AcDbLine
 10
86.013035
 20
583.441213
 11
86.829152
 21
586.087942
  0
LINE
  5
491
100
AcDbEntity
  8
M0
 62
     5
100
AcDbLine
 10
93.563054
 20
580.841116
 11
92.746861
 21
578.193899
  0
LINE
  5
492
100
AcDbEntity
  8
M0
 62
     5
100
AcDbLine
 10
93.563054
 20
583.440969
 11
92.746846
 21
586.087942
  0
ARC
  5
493
100
AcDbEntity
  8
M0
 62
     5
100
AcDbCircle
 10
87.307057
 20
578.34136
 40
0.5
100
AcDbArc
 50
197.151452
 51
270.0
  0
ARC
  5
494
100
AcDbEntity
  8
M0
 62
     5
100
AcDbCircle
 10
92.269078
 20
578.34136
 40
0.5
100
AcDbArc
 50
270.0
 51
342.85125
  0
ARC
  5
495
100
AcDbEntity
  8
M0
 62
     5
100
AcDbCircle
 10
92.268925
 20
585.940725
 40
0.5
100
AcDbArc
 50
17.121626
 51
89.998251
  0
ARC
  5
496
100
AcDbEntity
  8
M0
 62
     5
100
AcDbCircle
 10
87.307057
 20
585.940725
 40
0.5
100
AcDbArc
 50
89.998251
 51
162.874517
  0
LINE
  5
497
100
AcDbEntity
  8
M0
 62
     5
100
AcDbLine
 10
86.568074
 20
585.241262
 11
88.388035
 21
585.241262
  0
LINE
  5
498
100
AcDbEntity
  8
M0
 62
     5
100
AcDbLine
 10
86.568013
 20
579.041311
 11
88.388035
 21
579.041311
  0
LINE
  5
499
100
AcDbEntity
  8
M0
 62
     5
100
AcDbLine
 10
86.198048
 20
580.241262
 11
87.466542
 21
580.241262
  0
LINE
  5
49A
100
AcDbEntity
  8
M0
 62
     5
100
AcDbLine
 10
86.197987
 20
584.041067
 11
87.46613
 21
584.041067
  0
LINE
  5
49B
100
AcDbEntity
  8
M0
 62
     5
100
AcDbLine
 10
92.109563
 20
580.241262
 11
93.378102
 21
580.241262
  0
LINE
  5
49C
100
AcDbEntity
  8
M0
 62
     5
100
AcDbLine
 10
92.109975
 20
584.041067
 11
93.37801
 21
584.041067
  0
LINE
  5
49D
100
AcDbEntity
  8
M0
 62
     5
100
AcDbLine
 10
91.188039
 20
579.041311
 11
91.188039
 21
579.488088
  0
LINE
  5
49E
100
AcDbEntity
  8
M0
 62
     5
100
AcDbLine
 10
88.388035
 20
579.041311
 11
88.388035
 21
579.488088
  0
LINE
  5
49F
100
AcDbEntity
  8
M0
 62
     5
100
AcDbLine
 10
88.388035
 20
585.241262
 11
88.388035
 21
584.794485
  0
LINE
  5
4A0
100
AcDbEntity
  8
M0
 62
     5
100
AcDbLine
 10
91.188039
 20
585.241262
 11
91.188039
 21
584.794485
  0
LINE
  5
4A1
100
AcDbEntity
  8
M0
 62
     5
100
AcDbLine
 10
91.188039
 20
579.041311
 11
93.008122
 21
579.041311
  0
LINE
  5
4A2
100
AcDbEntity
  8
M0
 62
     5
100
AcDbLine
 10
91.188039
 20
585.241262
 11
93.007924
 21
585.241262
  0
CIRCLE
  5
4A3
100
AcDbEntity
  8
M0
 62
     5
100
AcDbCircle
 10
89.78806
 20
582.141409
 40
3.0
  0
LINE
  5
4A4
100
AcDbEntity
  8
M0
 62
     5
100
AcDbLine
 10
90.778004
 20
580.444143
 11
91.485112
 21
581.151418
  0
LINE
  5
4A5
100
AcDbEntity
  8
M0
 62
     5
100
AcDbLine
 10
91.485112
 20
581.151418
 11
90.495152
 21
582.141164
  0
LINE
  5
4A6
100
AcDbEntity
  8
M0
 62
     5
100
AcDbLine
 10
88.7981
 20
583.83843
 11
88.091008
 21
583.131155
  0
LINE
  5
4A7
100
AcDbEntity
  8
M0
 62
     5
100
AcDbLine
 10
88.091008
 20
583.131155
 11
89.080952
 21
582.141409
  0
LINE
  5
4A8
100
AcDbEntity
  8
M0
 62
     5
100
AcDbLine
 10
87.342839
 20
580.403127
 11
89.080952
 21
582.141409
  0
LINE
  5
4A9
100
AcDbEntity
  8
M0
 62
     5
100
AcDbLine
 10
88.049946
 20
579.696096
 11
89.788045
 21
581.434133
  0
LINE
  5
4AA
100
AcDbEntity
  8
M0
 62
     5
100
AcDbLine
 10
92.23325
 20
583.879446
 11
90.495152
 21
582.141164
  0
LINE
  5
4AB
100
AcDbEntity
  8
M0
 62
     5
100
AcDbLine
 10
91.526143
 20
584.586477
 11
89.78806
 21
582.84844
  0
LINE
  5
4AC
100
AcDbEntity
  8
M0
 62
     5
100
AcDbLine
 10
90.778004
 20
580.444143
 11
89.788045
 21
581.434133
  0
LINE
  5
4AD
100
AcDbEntity
  8
M0
 62
     5
100
AcDbLine
 10
88.7981
 20
583.83843
 11
89.78806
 21
582.84844
  0
LINE
  5
4AE
100
AcDbEntity
  8
M0
 62
     2
100
AcDbLine
 10
208.638051
 20
587.141409
 11
215.188039
 21
587.141409
  0
LINE
  5
4AF
100
AcDbEntity
  8
M0
 62
     2
100
AcDbLine
 10
215.738057
 20
585.241506
 11
215.738057
 21
578.641897
  0
LINE
  5
4B0
100
AcDbEntity
  8
M0
 62
     2
100
AcDbLine
 10
214.738057
 20
577.641409
 11
208.838048
 21
577.641409
  0
LINE
  5
4B1
100
AcDbEntity
  8
M0
 62
     2
100
AcDbLine
 10
207.838048
 20
578.641653
 11
207.838048
 21
585.241506
  0
ARC
  5
4B2
100
AcDbEntity
  8
M0
 62
     2
100
AcDbCircle
 10
214.738057
 20
578.641653
 40
1.0
100
AcDbArc
 50
-90.0
 51
0.013988
  0
ARC
  5
4B3
100
AcDbEntity
  8
M0
 62
     2
100
AcDbCircle
 10
208.838048
 20
578.641653
 40
1.0
100
AcDbArc
 50
179.999126
 51
270.0
  0
LINE
  5
4B4
100
AcDbEntity
  8
M0
 62
     2
100
AcDbLine
 10
214.938054
 20
586.141409
 11
215.188039
 21
586.141409
  0
LINE
  5
4B5
100
AcDbEntity
  8
M0
 62
     2
100
AcDbLine
 10
208.038045
 20
585.441457
 11
208.138051
 21
585.441457
  0
LINE
  5
4B6
100
AcDbEntity
  8
M0
 62
     2
100
AcDbLine
 10
214.938054
 20
585.941457
 11
214.938054
 21
587.141409
  0
LINE
  5
4B7
100
AcDbEntity
  8
M0
 62
     2
100
AcDbLine
 10
208.638051
 20
585.941457
 11
208.638051
 21
587.141409
  0
LINE
  5
4B8
100
AcDbEntity
  8
M0
 62
     2
100
AcDbLine
 10
215.438054
 20
585.441457
 11
215.538045
 21
585.441457
  0
ARC
  5
4B9
100
AcDbEntity
  8
M0
 62
     2
100
AcDbCircle
 10
208.038045
 20
585.241506
 40
0.2
100
AcDbArc
 50
89.995629
 51
179.995629
  0
ARC
  5
4BA
100
AcDbEntity
  8
M0
 62
     2
100
AcDbCircle
 10
215.538045
 20
585.241506
 40
0.2
100
AcDbArc
 50
0.0
 51
89.995629
  0
ARC
  5
4BB
100
AcDbEntity
  8
M0
 62
     2
100
AcDbCircle
 10
215.438054
 20
585.941457
 40
0.5
100
AcDbArc
 50
179.998251
 51
270.0
  0
ARC
  5
4BC
100
AcDbEntity
  8
M0
 62
     2
100
AcDbCircle
 10
208.138051
 20
585.941457
 40
0.5
100
AcDbArc
 50
-90.0
 51
0.0
  0
LINE
  5
4BD
100
AcDbEntity
  8
M0
 62
     2
100
AcDbLine
 10
215.188039
 20
586.141409
 11
215.188039
 21
587.141409
  0
LINE
  5
4BE
100
AcDbEntity
  8
M0
 62
     2
100
AcDbLine
 10
208.638051
 20
577.641409
 11
215.188039
 21
577.641409
  0
LINE
  5
4BF
100
AcDbEntity
  8
M0
 62
     2
100
AcDbLine
 10
215.738057
 20
575.741506
 11
215.738057
 21
569.141897
  0
LINE
  5
4C0
100
AcDbEntity
  8
M0
 62
     2
100
AcDbLine
 10
214.738057
 20
568.141409
 11
208.838048
 21
568.141409
  0
LINE
  5
4C1
100
AcDbEntity
  8
M0
 62
     2
100
AcDbLine
 10
207.838048
 20
569.141653
 11
207.838048
 21
575.741506
  0
ARC
  5
4C2
100
AcDbEntity
  8
M0
 62
     2
100
AcDbCircle
 10
214.738057
 20
569.141653
 40
1.0
100
AcDbArc
 50
-90.0
 51
0.013988
  0
ARC
  5
4C3
100
AcDbEntity
  8
M0
 62
     2
100
AcDbCircle
 10
208.838048
 20
569.141653
 40
1.0
100
AcDbArc
 50
179.999126
 51
270.0
  0
LINE
  5
4C4
100
AcDbEntity
  8
M0
 62
     2
100
AcDbLine
 10
214.938054
 20
576.641409
 11
215.188039
 21
576.641409
  0
LINE
  5
4C5
100
AcDbEntity
  8
M0
 62
     2
100
AcDbLine
 10
208.038045
 20
575.941457
 11
208.138051
 21
575.941457
  0
LINE
  5
4C6
100
AcDbEntity
  8
M0
 62
     2
100
AcDbLine
 10
214.938054
 20
576.441457
 11
214.938054
 21
577.641409
  0
LINE
  5
4C7
100
AcDbEntity
  8
M0
 62
     2
100
AcDbLine
 10
208.638051
 20
576.441457
 11
208.638051
 21
577.641409
  0
LINE
  5
4C8
100
AcDbEntity
  8
M0
 62
     2
100
AcDbLine
 10
215.438054
 20
575.941457
 11
215.538045
 21
575.941457
  0
ARC
  5
4C9
100
AcDbEntity
  8
M0
 62
     2
100
AcDbCircle
 10
208.038045
 20
575.741506
 40
0.2
100
AcDbArc
 50
89.995629
 51
179.995629
  0
ARC
  5
4CA
100
AcDbEntity
  8
M0
 62
     2
100
AcDbCircle
 10
215.538045
 20
575.741506
 40
0.2
100
AcDbArc
 50
0.0
 51
89.995629
  0
ARC
  5
4CB
100
AcDbEntity
  8
M0
 62
     2
100
AcDbCircle
 10
215.438054
 20
576.441457
 40
0.5
100
AcDbArc
 50
179.998251
 51
270.0
  0
ARC
  5
4CC
100
AcDbEntity
  8
M0
 62
     2
100
AcDbCircle
 10
208.138051
 20
576.441457
 40
0.5
100
AcDbArc
 50
-90.0
 51
0.0
  0
LINE
  5
4CD
100
AcDbEntity
  8
M0
 62
     2
100
AcDbLine
 10
215.188039
 20
576.641409
 11
215.188039
 21
577.641409
  0
LINE
  5
4CE
100
AcDbEntity
  8
M0
 62
     2
100
AcDbLine
 10
86.638051
 20
577.641409
 11
93.188039
 21
577.641409
  0
LINE
  5
4CF
100
AcDbEntity
  8
M0
 62
     2
100
AcDbLine
 10
93.738057
 20
575.741506
 11
93.738057
 21
569.141897
  0
LINE
  5
4D0
100
AcDbEntity
  8
M0
 62
     2
100
AcDbLine
 10
92.738057
 20
568.141409
 11
86.838048
 21
568.141409
  0
LINE
  5
4D1
100
AcDbEntity
  8
M0
 62
     2
100
AcDbLine
 10
85.838048
 20
569.141653
 11
85.838048
 21
575.741506
  0
ARC
  5
4D2
100
AcDbEntity
  8
M0
 62
     2
100
AcDbCircle
 10
92.738057
 20
569.141653
 40
1.0
100
AcDbArc
 50
-90.0
 51
0.013988
  0
ARC
  5
4D3
100
AcDbEntity
  8
M0
 62
     2
100
AcDbCircle
 10
86.838048
 20
569.141653
 40
1.0
100
AcDbArc
 50
179.999126
 51
270.0
  0
LINE
  5
4D4
100
AcDbEntity
  8
M0
 62
     2
100
AcDbLine
 10
92.938054
 20
576.641409
 11
93.188039
 21
576.641409
  0
LINE
  5
4D5
100
AcDbEntity
  8
M0
 62
     2
100
AcDbLine
 10
86.038045
 20
575.941457
 11
86.138051
 21
575.941457
  0
LINE
  5
4D6
100
AcDbEntity
  8
M0
 62
     2
100
AcDbLine
 10
92.938054
 20
576.441457
 11
92.938054
 21
577.641409
  0
LINE
  5
4D7
100
AcDbEntity
  8
M0
 62
     2
100
AcDbLine
 10
86.638051
 20
576.441457
 11
86.638051
 21
577.641409
  0
LINE
  5
4D8
100
AcDbEntity
  8
M0
 62
     2
100
AcDbLine
 10
93.438054
 20
575.941457
 11
93.538045
 21
575.941457
  0
ARC
  5
4D9
100
AcDbEntity
  8
M0
 62
     2
100
AcDbCircle
 10
86.038045
 20
575.741506
 40
0.2
100
AcDbArc
 50
89.995629
 51
179.995629
  0
ARC
  5
4DA
100
AcDbEntity
  8
M0
 62
     2
100
AcDbCircle
 10
93.538045
 20
575.741506
 40
0.2
100
AcDbArc
 50
0.0
 51
89.995629
  0
ARC
  5
4DB
100
AcDbEntity
  8
M0
 62
     2
100
AcDbCircle
 10
93.438054
 20
576.441457
 40
0.5
100
AcDbArc
 50
179.998251
 51
270.0
  0
ARC
  5
4DC
100
AcDbEntity
  8
M0
 62
     2
100
AcDbCircle
 10
86.138051
 20
576.441457
 40
0.5
100
AcDbArc
 50
-90.0
 51
0.0
  0
LINE
  5
4DD
100
AcDbEntity
  8
M0
 62
     2
100
AcDbLine
 10
93.188039
 20
576.641409
 11
93.188039
 21
577.641409
  0
LINE
  5
4DE
100
AcDbEntity
  8
M0
 62
     2
100
AcDbLine
 10
86.638051
 20
587.141409
 11
93.188039
 21
587.141409
  0
LINE
  5
4DF
100
AcDbEntity
  8
M0
 62
     2
100
AcDbLine
 10
93.738057
 20
585.241506
 11
93.738057
 21
578.641897
  0
LINE
  5
4E0
100
AcDbEntity
  8
M0
 62
     2
100
AcDbLine
 10
92.738057
 20
577.641409
 11
86.838048
 21
577.641409
  0
LINE
  5
4E1
100
AcDbEntity
  8
M0
 62
     2
100
AcDbLine
 10
85.838048
 20
578.641653
 11
85.838048
 21
585.241506
  0
ARC
  5
4E2
100
AcDbEntity
  8
M0
 62
     2
100
AcDbCircle
 10
92.738057
 20
578.641653
 40
1.0
100
AcDbArc
 50
-90.0
 51
0.013988
  0
ARC
  5
4E3
100
AcDbEntity
  8
M0
 62
     2
100
AcDbCircle
 10
86.838048
 20
578.641653
 40
1.0
100
AcDbArc
 50
179.999126
 51
270.0
  0
LINE
  5
4E4
100
AcDbEntity
  8
M0
 62
     2
100
AcDbLine
 10
92.938054
 20
586.141409
 11
93.188039
 21
586.141409
  0
LINE
  5
4E5
100
AcDbEntity
  8
M0
 62
     2
100
AcDbLine
 10
86.038045
 20
585.441457
 11
86.138051
 21
585.441457
  0
LINE
  5
4E6
100
AcDbEntity
  8
M0
 62
     2
100
AcDbLine
 10
92.938054
 20
585.941457
 11
92.938054
 21
587.141409
  0
LINE
  5
4E7
100
AcDbEntity
  8
M0
 62
     2
100
AcDbLine
 10
86.638051
 20
585.941457
 11
86.638051
 21
587.141409
  0
LINE
  5
4E8
100
AcDbEntity
  8
M0
 62
     2
100
AcDbLine
 10
93.438054
 20
585.441457
 11
93.538045
 21
585.441457
  0
ARC
  5
4E9
100
AcDbEntity
  8
M0
 62
     2
100
AcDbCircle
 10
86.038045
 20
585.241506
 40
0.2
100
AcDbArc
 50
89.995629
 51
179.995629
  0
ARC
  5
4EA
100
AcDbEntity
  8
M0
 62
     2
100
AcDbCircle
 10
93.538045
 20
585.241506
 40
0.2
100
AcDbArc
 50
0.0
 51
89.995629
  0
ARC
  5
4EB
100
AcDbEntity
  8
M0
 62
     2
100
AcDbCircle
 10
93.438054
 20
585.941457
 40
0.5
100
AcDbArc
 50
179.998251
 51
270.0
  0
ARC
  5
4EC
100
AcDbEntity
  8
M0
 62
     2
100
AcDbCircle
 10
86.138051
 20
585.941457
 40
0.5
100
AcDbArc
 50
-90.0
 51
0.0
  0
LINE
  5
4ED
100
AcDbEntity
  8
M0
 62
     2
100
AcDbLine
 10
93.188039
 20
586.141409
 11
93.188039
 21
587.141409
  0
LINE
  5
4EE
100
AcDbEntity
  8
M0
 62
     2
100
AcDbLine
 10
208.638051
 20
546.641409
 11
215.188039
 21
546.641409
  0
LINE
  5
4EF
100
AcDbEntity
  8
M0
 62
     2
100
AcDbLine
 10
215.738057
 20
548.541311
 11
215.738057
 21
555.14092
  0
LINE
  5
4F0
100
AcDbEntity
  8
M0
 62
     2
100
AcDbLine
 10
214.738057
 20
556.141409
 11
208.838048
 21
556.141409
  0
LINE
  5
4F1
100
AcDbEntity
  8
M0
 62
     2
100
AcDbLine
 10
207.838048
 20
555.141164
 11
207.838048
 21
548.541311
  0
ARC
  5
4F2
100
AcDbEntity
  8
M0
 62
     2
100
AcDbCircle
 10
214.738057
 20
555.141164
 40
1.0
100
AcDbArc
 50
359.986012
 51
449.999126
  0
ARC
  5
4F3
100
AcDbEntity
  8
M0
 62
     2
100
AcDbCircle
 10
208.838048
 20
555.141164
 40
1.0
100
AcDbArc
 50
89.999126
 51
179.999126
  0
LINE
  5
4F4
100
AcDbEntity
  8
M0
 62
     2
100
AcDbLine
 10
214.938054
 20
547.641409
 11
215.188039
 21
547.641409
  0
LINE
  5
4F5
100
AcDbEntity
  8
M0
 62
     2
100
AcDbLine
 10
208.038045
 20
548.34136
 11
208.138051
 21
548.34136
  0
LINE
  5
4F6
100
AcDbEntity
  8
M0
 62
     2
100
AcDbLine
 10
214.938054
 20
547.84136
 11
214.938054
 21
546.641409
  0
LINE
  5
4F7
100
AcDbEntity
  8
M0
 62
     2
100
AcDbLine
 10
208.638051
 20
547.84136
 11
208.638051
 21
546.641409
  0
LINE
  5
4F8
100
AcDbEntity
  8
M0
 62
     2
100
AcDbLine
 10
215.438054
 20
548.34136
 11
215.538045
 21
548.34136
  0
ARC
  5
4F9
100
AcDbEntity
  8
M0
 62
     2
100
AcDbCircle
 10
208.038045
 20
548.541311
 40
0.2
100
AcDbArc
 50
179.995629
 51
270.0
  0
ARC
  5
4FA
100
AcDbEntity
  8
M0
 62
     2
100
AcDbCircle
 10
215.538045
 20
548.541311
 40
0.2
100
AcDbArc
 50
270.0
 51
360.0
  0
ARC
  5
4FB
100
AcDbEntity
  8
M0
 62
     2
100
AcDbCircle
 10
215.438054
 20
547.84136
 40
0.5
100
AcDbArc
 50
89.998251
 51
179.998251
  0
ARC
  5
4FC
100
AcDbEntity
  8
M0
 62
     2
100
AcDbCircle
 10
208.138051
 20
547.84136
 40
0.5
100
AcDbArc
 50
0.0
 51
89.998251
  0
LINE
  5
4FD
100
AcDbEntity
  8
M0
 62
     2
100
AcDbLine
 10
215.188039
 20
547.641409
 11
215.188039
 21
546.641409
  0
LINE
  5
4FE
100
AcDbEntity
  8
M0
 62
     2
100
AcDbLine
 10
208.638051
 20
537.141409
 11
215.188039
 21
537.141409
  0
LINE
  5
4FF
100
AcDbEntity
  8
M0
 62
     2
100
AcDbLine
 10
215.738057
 20
539.041311
 11
215.738057
 21
545.64092
  0
LINE
  5
500
100
AcDbEntity
  8
M0
 62
     2
100
AcDbLine
 10
214.738057
 20
546.641409
 11
208.838048
 21
546.641409
  0
LINE
  5
501
100
AcDbEntity
  8
M0
 62
     2
100
AcDbLine
 10
207.838048
 20
545.641164
 11
207.838048
 21
539.041311
  0
ARC
  5
502
100
AcDbEntity
  8
M0
 62
     2
100
AcDbCircle
 10
214.738057
 20
545.641164
 40
1.0
100
AcDbArc
 50
359.986012
 51
449.999126
  0
ARC
  5
503
100
AcDbEntity
  8
M0
 62
     2
100
AcDbCircle
 10
208.838048
 20
545.641164
 40
1.0
100
AcDbArc
 50
89.999126
 51
179.999126
  0
LINE
  5
504
100
AcDbEntity
  8
M0
 62
     2
100
AcDbLine
 10
214.938054
 20
538.141409
 11
215.188039
 21
538.141409
  0
LINE
  5
505
100
AcDbEntity
  8
M0
 62
     2
100
AcDbLine
 10
208.038045
 20
538.84136
 11
208.138051
 21
538.84136
  0
LINE
  5
506
100
AcDbEntity
  8
M0
 62
     2
100
AcDbLine
 10
214.938054
 20
538.34136
 11
214.938054
 21
537.141409
  0
LINE
  5
507
100
AcDbEntity
  8
M0
 62
     2
100
AcDbLine
 10
208.638051
 20
538.34136
 11
208.638051
 21
537.141409
  0
LINE
  5
508
100
AcDbEntity
  8
M0
 62
     2
100
AcDbLine
 10
215.438054
 20
538.84136
 11
215.538045
 21
538.84136
  0
ARC
  5
509
100
AcDbEntity
  8
M0
 62
     2
100
AcDbCircle
 10
208.038045
 20
539.041311
 40
0.2
100
AcDbArc
 50
179.995629
 51
270.0
  0
ARC
  5
50A
100
AcDbEntity
  8
M0
 62
     2
100
AcDbCircle
 10
215.538045
 20
539.041311
 40
0.2
100
AcDbArc
 50
270.0
 51
360.0
  0
ARC
  5
50B
100
AcDbEntity
  8
M0
 62
     2
100
AcDbCircle
 10
215.438054
 20
538.34136
 40
0.5
100
AcDbArc
 50
89.998251
 51
179.998251
  0
ARC
  5
50C
100
AcDbEntity
  8
M0
 62
     2
100
AcDbCircle
 10
208.138051
 20
538.34136
 40
0.5
100
AcDbArc
 50
0.0
 51
89.998251
  0
LINE
  5
50D
100
AcDbEntity
  8
M0
 62
     2
100
AcDbLine
 10
215.188039
 20
538.141409
 11
215.188039
 21
537.141409
  0
LINE
  5
50E
100
AcDbEntity
  8
M0
 62
     2
100
AcDbLine
 10
86.638051
 20
537.141409
 11
93.188039
 21
537.141409
  0
LINE
  5
50F
100
AcDbEntity
  8
M0
 62
     2
100
AcDbLine
 10
93.738057
 20
539.041311
 11
93.738057
 21
545.64092
  0
LINE
  5
510
100
AcDbEntity
  8
M0
 62
     2
100
AcDbLine
 10
92.738057
 20
546.641409
 11
86.838048
 21
546.641409
  0
LINE
  5
511
100
AcDbEntity
  8
M0
 62
     2
100
AcDbLine
 10
85.838048
 20
545.641164
 11
85.838048
 21
539.041311
  0
ARC
  5
512
100
AcDbEntity
  8
M0
 62
     2
100
AcDbCircle
 10
92.738057
 20
545.641164
 40
1.0
100
AcDbArc
 50
359.986012
 51
449.999126
  0
ARC
  5
513
100
AcDbEntity
  8
M0
 62
     2
100
AcDbCircle
 10
86.838048
 20
545.641164
 40
1.0
100
AcDbArc
 50
89.999126
 51
179.999126
  0
LINE
  5
514
100
AcDbEntity
  8
M0
 62
     2
100
AcDbLine
 10
92.938054
 20
538.141409
 11
93.188039
 21
538.141409
  0
LINE
  5
515
100
AcDbEntity
  8
M0
 62
     2
100
AcDbLine
 10
86.038045
 20
538.84136
 11
86.138051
 21
538.84136
  0
LINE
  5
516
100
AcDbEntity
  8
M0
 62
     2
100
AcDbLine
 10
92.938054
 20
538.34136
 11
92.938054
 21
537.141409
  0
LINE
  5
517
100
AcDbEntity
  8
M0
 62
     2
100
AcDbLine
 10
86.638051
 20
538.34136
 11
86.638051
 21
537.141409
  0
LINE
  5
518
100
AcDbEntity
  8
M0
 62
     2
100
AcDbLine
 10
93.438054
 20
538.84136
 11
93.538045
 21
538.84136
  0
ARC
  5
519
100
AcDbEntity
  8
M0
 62
     2
100
AcDbCircle
 10
86.038045
 20
539.041311
 40
0.2
100
AcDbArc
 50
179.995629
 51
270.0
  0
ARC
  5
51A
100
AcDbEntity
  8
M0
 62
     2
100
AcDbCircle
 10
93.538045
 20
539.041311
 40
0.2
100
AcDbArc
 50
270.0
 51
360.0
  0
ARC
  5
51B
100
AcDbEntity
  8
M0
 62
     2
100
AcDbCircle
 10
93.438054
 20
538.34136
 40
0.5
100
AcDbArc
 50
89.998251
 51
179.998251
  0
ARC
  5
51C
100
AcDbEntity
  8
M0
 62
     2
100
AcDbCircle
 10
86.138051
 20
538.34136
 40
0.5
100
AcDbArc
 50
0.0
 51
89.998251
  0
LINE
  5
51D
100
AcDbEntity
  8
M0
 62
     2
100
AcDbLine
 10
93.188039
 20
538.141409
 11
93.188039
 21
537.141409
  0
LINE
  5
51E
100
AcDbEntity
  8
M0
 62
     2
100
AcDbLine
 10
86.638051
 20
546.641409
 11
93.188039
 21
546.641409
  0
LINE
  5
51F
100
AcDbEntity
  8
M0
 62
     2
100
AcDbLine
 10
93.738057
 20
548.541311
 11
93.738057
 21
555.14092
  0
LINE
  5
520
100
AcDbEntity
  8
M0
 62
     2
100
AcDbLine
 10
92.738057
 20
556.141409
 11
86.838048
 21
556.141409
  0
LINE
  5
521
100
AcDbEntity
  8
M0
 62
     2
100
AcDbLine
 10
85.838048
 20
555.141164
 11
85.838048
 21
548.541311
  0
ARC
  5
522
100
AcDbEntity
  8
M0
 62
     2
100
AcDbCircle
 10
92.738057
 20
555.141164
 40
1.0
100
AcDbArc
 50
359.986012
 51
449.999126
  0
ARC
  5
523
100
AcDbEntity
  8
M0
 62
     2
100
AcDbCircle
 10
86.838048
 20
555.141164
 40
1.0
100
AcDbArc
 50
89.999126
 51
179.999126
  0
LINE
  5
524
100
AcDbEntity
  8
M0
 62
     2
100
AcDbLine
 10
92.938054
 20
547.641409
 11
93.188039
 21
547.641409
  0
LINE
  5
525
100
AcDbEntity
  8
M0
 62
     2
100
AcDbLine
 10
86.038045
 20
548.34136
 11
86.138051
 21
548.34136
  0
LINE
  5
526
100
AcDbEntity
  8
M0
 62
     2
100
AcDbLine
 10
92.938054
 20
547.84136
 11
92.938054
 21
546.641409
  0
LINE
  5
527
100
AcDbEntity
  8
M0
 62
     2
100
AcDbLine
 10
86.638051
 20
547.84136
 11
86.638051
 21
546.641409
  0
LINE
  5
528
100
AcDbEntity
  8
M0
 62
     2
100
AcDbLine
 10
93.438054
 20
548.34136
 11
93.538045
 21
548.34136
  0
ARC
  5
529
100
AcDbEntity
  8
M0
 62
     2
100
AcDbCircle
 10
86.038045
 20
548.541311
 40
0.2
100
AcDbArc
 50
179.995629
 51
270.0
  0
ARC
  5
52A
100
AcDbEntity
  8
M0
 62
     2
100
AcDbCircle
 10
93.538045
 20
548.541311
 40
0.2
100
AcDbArc
 50
270.0
 51
360.0
  0
ARC
  5
52B
100
AcDbEntity
  8
M0
 62
     2
100
AcDbCircle
 10
93.438054
 20
547.84136
 40
0.5
100
AcDbArc
 50
89.998251
 51
179.998251
  0
ARC
  5
52C
100
AcDbEntity
  8
M0
 62
     2
100
AcDbCircle
 10
86.138051
 20
547.84136
 40
0.5
100
AcDbArc
 50
0.0
 51
89.998251
  0
LINE
  5
52D
100
AcDbEntity
  8
M0
 62
     2
100
AcDbLine
 10
93.188039
 20
547.641409
 11
93.188039
 21
546.641409
  0
LINE
  5
52E
100
AcDbEntity
  8
M0
 62
     5
100
AcDbLine
 10
209.307057
 20
568.34136
 11
214.269078
 21
568.34136
  0
LINE
  5
52F
100
AcDbEntity
  8
M0
 62
     5
100
AcDbLine
 10
215.563039
 20
571.340872
 11
215.563039
 21
573.940969
  0
LINE
  5
530
100
AcDbEntity
  8
M0
 62
     5
100
AcDbLine
 10
214.268925
 20
576.940969
 11
209.307057
 21
576.940969
  0
LINE
  5
531
100
AcDbEntity
  8
M0
 62
     5
100
AcDbLine
 10
208.013035
 20
573.941213
 11
208.013035
 21
571.34136
  0
LINE
  5
532
100
AcDbEntity
  8
M0
 62
     5
100
AcDbLine
 10
208.013035
 20
571.34136
 11
208.829289
 21
568.693899
  0
LINE
  5
533
100
AcDbEntity
  8
M0
 62
     5
100
AcDbLine
 10
208.013035
 20
573.941213
 11
208.829152
 21
576.587942
  0
LINE
  5
534
100
AcDbEntity
  8
M0
 62
     5
100
AcDbLine
 10
215.563054
 20
571.341116
 11
214.746861
 21
568.693899
  0
LINE
  5
535
100
AcDbEntity
  8
M0
 62
     5
100
AcDbLine
 10
215.563054
 20
573.940969
 11
214.746846
 21
576.587942
  0
ARC
  5
536
100
AcDbEntity
  8
M0
 62
     5
100
AcDbCircle
 10
209.307057
 20
568.84136
 40
0.5
100
AcDbArc
 50
197.151452
 51
270.0
  0
ARC
  5
537
100
AcDbEntity
  8
M0
 62
     5
100
AcDbCircle
 10
214.269078
 20
568.84136
 40
0.5
100
AcDbArc
 50
270.0
 51
342.85125
  0
ARC
  5
538
100
AcDbEntity
  8
M0
 62
     5
100
AcDbCircle
 10
214.268925
 20
576.440725
 40
0.5
100
AcDbArc
 50
17.121626
 51
89.998251
  0
ARC
  5
539
100
AcDbEntity
  8
M0
 62
     5
100
AcDbCircle
 10
209.307057
 20
576.440725
 40
0.5
100
AcDbArc
 50
89.998251
 51
162.874517
  0
LINE
  5
53A
100
AcDbEntity
  8
M0
 62
     5
100
AcDbLine
 10
208.568074
 20
575.741262
 11
210.388035
 21
575.741262
  0
LINE
  5
53B
100
AcDbEntity
  8
M0
 62
     5
100
AcDbLine
 10
208.568013
 20
569.541311
 11
210.388035
 21
569.541311
  0
LINE
  5
53C
100
AcDbEntity
  8
M0
 62
     5
100
AcDbLine
 10
208.198048
 20
570.741262
 11
209.466542
 21
570.741262
  0
LINE
  5
53D
100
AcDbEntity
  8
M0
 62
     5
100
AcDbLine
 10
208.197987
 20
574.541067
 11
209.46613
 21
574.541067
  0
LINE
  5
53E
100
AcDbEntity
  8
M0
 62
     5
100
AcDbLine
 10
214.109563
 20
570.741262
 11
215.378102
 21
570.741262
  0
LINE
  5
53F
100
AcDbEntity
  8
M0
 62
     5
100
AcDbLine
 10
214.109975
 20
574.541067
 11
215.37801
 21
574.541067
  0
LINE
  5
540
100
AcDbEntity
  8
M0
 62
     5
100
AcDbLine
 10
213.188039
 20
569.541311
 11
213.188039
 21
569.988088
  0
LINE
  5
541
100
AcDbEntity
  8
M0
 62
     5
100
AcDbLine
 10
210.388035
 20
569.541311
 11
210.388035
 21
569.988088
  0
LINE
  5
542
100
AcDbEntity
  8
M0
 62
     5
100
AcDbLine
 10
210.388035
 20
575.741262
 11
210.388035
 21
575.294485
  0
LINE
  5
543
100
AcDbEntity
  8
M0
 62
     5
100
AcDbLine
 10
213.188039
 20
575.741262
 11
213.188039
 21
575.294485
  0
LINE
  5
544
100
AcDbEntity
  8
M0
 62
     5
100
AcDbLine
 10
213.188039
 20
569.541311
 11
215.008122
 21
569.541311
  0
LINE
  5
545
100
AcDbEntity
  8
M0
 62
     5
100
AcDbLine
 10
213.188039
 20
575.741262
 11
215.007924
 21
575.741262
  0
CIRCLE
  5
546
100
AcDbEntity
  8
M0
 62
     5
100
AcDbCircle
 10
211.78806
 20
572.641409
 40
3.0
  0
LINE
  5
547
100
AcDbEntity
  8
M0
 62
     5
100
AcDbLine
 10
212.778004
 20
570.944143
 11
213.485112
 21
571.651418
  0
LINE
  5
548
100
AcDbEntity
  8
M0
 62
     5
100
AcDbLine
 10
213.485112
 20
571.651418
 11
212.495152
 21
572.641164
  0
LINE
  5
549
100
AcDbEntity
  8
M0
 62
     5
100
AcDbLine
 10
210.7981
 20
574.33843
 11
210.091008
 21
573.631155
  0
LINE
  5
54A
100
AcDbEntity
  8
M0
 62
     5
100
AcDbLine
 10
210.091008
 20
573.631155
 11
211.080952
 21
572.641409
  0
LINE
  5
54B
100
AcDbEntity
  8
M0
 62
     5
100
AcDbLine
 10
209.342839
 20
570.903127
 11
211.080952
 21
572.641409
  0
LINE
  5
54C
100
AcDbEntity
  8
M0
 62
     5
100
AcDbLine
 10
210.049946
 20
570.196096
 11
211.788045
 21
571.934133
  0
LINE
  5
54D
100
AcDbEntity
  8
M0
 62
     5
100
AcDbLine
 10
214.23325
 20
574.379446
 11
212.495152
 21
572.641164
  0
LINE
  5
54E
100
AcDbEntity
  8
M0
 62
     5
100
AcDbLine
 10
213.526143
 20
575.086477
 11
211.78806
 21
573.34844
  0
LINE
  5
54F
100
AcDbEntity
  8
M0
 62
     5
100
AcDbLine
 10
212.778004
 20
570.944143
 11
211.788045
 21
571.934133
  0
LINE
  5
550
100
AcDbEntity
  8
M0
 62
     5
100
AcDbLine
 10
210.7981
 20
574.33843
 11
211.78806
 21
573.34844
  0
LINE
  5
551
100
AcDbEntity
  8
M0
 62
     6
100
AcDbLine
 10
138.28806
 20
461.641409
 11
163.28806
 21
461.641409
  0
LINE
  5
552
100
AcDbEntity
  8
M0
 62
     6
100
AcDbLine
 10
140.78806
 20
492.641409
 11
138.28806
 21
488.141409
  0
LINE
  5
553
100
AcDbEntity
  8
M0
 62
     6
100
AcDbLine
 10
160.78806
 20
492.641409
 11
163.28806
 21
488.141409
  0
LINE
  5
554
100
AcDbEntity
  8
M0
 62
     6
100
AcDbLine
 10
140.78806
 20
497.141409
 11
140.78806
 21
492.641409
  0
LINE
  5
555
100
AcDbEntity
  8
M0
 62
     6
100
AcDbLine
 10
160.78806
 20
497.141409
 11
160.78806
 21
492.641409
  0
LINE
  5
556
100
AcDbEntity
  8
M0
 62
     6
100
AcDbLine
 10
163.28806
 20
461.641409
 11
163.28806
 21
488.141409
  0
LINE
  5
557
100
AcDbEntity
  8
M0
 62
     6
100
AcDbLine
 10
138.28806
 20
488.141409
 11
138.28806
 21
461.641409
  0
LINE
  5
558
100
AcDbEntity
  8
M0
 62
     6
100
AcDbLine
 10
138.288178
 20
662.641324
 11
163.288178
 21
662.64134
  0
LINE
  5
559
100
AcDbEntity
  8
M0
 62
     6
100
AcDbLine
 10
140.788198
 20
631.641326
 11
138.288195
 21
636.141324
  0
LINE
  5
55A
100
AcDbEntity
  8
M0
 62
     6
100
AcDbLine
 10
160.788198
 20
631.641338
 11
163.288195
 21
636.14134
  0
LINE
  5
55B
100
AcDbEntity
  8
M0
 62
     6
100
AcDbLine
 10
140.7882
 20
627.141326
 11
140.788198
 21
631.641326
  0
LINE
  5
55C
100
AcDbEntity
  8
M0
 62
     6
100
AcDbLine
 10
160.7882
 20
627.141338
 11
160.788198
 21
631.641338
  0
LINE
  5
55D
100
AcDbEntity
  8
M0
 62
     6
100
AcDbLine
 10
163.288178
 20
662.64134
 11
163.288195
 21
636.14134
  0
LINE
  5
55E
100
AcDbEntity
  8
M0
 62
     6
100
AcDbLine
 10
138.288195
 20
636.141324
 11
138.288178
 21
662.641324
  0
LINE
  5
55F
100
AcDbEntity
  8
M0
 62
     5
100
AcDbLine
 10
98.78806
 20
481.646764
 11
105.289525
 21
477.89417
  0
LINE
  5
560
100
AcDbEntity
  8
M0
 62
     5
100
AcDbLine
 10
105.289525
 20
477.89417
 11
105.289525
 21
470.388525
  0
LINE
  5
561
100
AcDbEntity
  8
M0
 62
     5
100
AcDbLine
 10
105.289525
 20
470.388525
 11
98.78806
 21
466.635778
  0
LINE
  5
562
100
AcDbEntity
  8
M0
 62
     5
100
AcDbLine
 10
98.78806
 20
466.635778
 11
92.289036
 21
470.388525
  0
LINE
  5
563
100
AcDbEntity
  8
M0
 62
     5
100
AcDbLine
 10
92.289036
 20
470.388525
 11
92.289036
 21
477.89417
  0
LINE
  5
564
100
AcDbEntity
  8
M0
 62
     5
100
AcDbLine
 10
92.289036
 20
477.89417
 11
98.78806
 21
481.646764
  0
CIRCLE
  5
565
100
AcDbEntity
  8
M0
 62
     5
100
AcDbCircle
 10
98.78806
 20
474.141424
 40
4.0
  0
LINE
  5
566
100
AcDbEntity
  8
M0
 62
     5
100
AcDbLine
 10
150.78806
 20
481.646764
 11
157.289525
 21
477.89417
  0
LINE
  5
567
100
AcDbEntity
  8
M0
 62
     5
100
AcDbLine
 10
157.289525
 20
477.89417
 11
157.289525
 21
470.388525
  0
LINE
  5
568
100
AcDbEntity
  8
M0
 62
     5
100
AcDbLine
 10
157.289525
 20
470.388525
 11
150.78806
 21
466.635778
  0
LINE
  5
569
100
AcDbEntity
  8
M0
 62
     5
100
AcDbLine
 10
150.78806
 20
466.635778
 11
144.289036
 21
470.388525
  0
LINE
  5
56A
100
AcDbEntity
  8
M0
 62
     5
100
AcDbLine
 10
144.289036
 20
470.388525
 11
144.289036
 21
477.89417
  0
LINE
  5
56B
100
AcDbEntity
  8
M0
 62
     5
100
AcDbLine
 10
144.289036
 20
477.89417
 11
150.78806
 21
481.646764
  0
CIRCLE
  5
56C
100
AcDbEntity
  8
M0
 62
     5
100
AcDbCircle
 10
150.78806
 20
474.141424
 40
4.0
  0
LINE
  5
56D
100
AcDbEntity
  8
M0
  6
DASHDOT
 62
     5
100
AcDbLine
 10
160.940404
 20
474.141424
 11
140.635716
 21
474.141424
  0
LINE
  5
56E
100
AcDbEntity
  8
M0
  6
DASHDOT
 62
     5
100
AcDbLine
 10
150.78806
 20
484.293752
 11
150.78806
 21
463.989095
  0
LINE
  5
56F
100
AcDbEntity
  8
M0
100
AcDbLine
 10
132.673863
 20
456.284734
 11
132.782674
 21
462.541433
  0
ARC
  5
570
100
AcDbEntity
  8
M0
100
AcDbCircle
 10
134.674412
 20
456.299307
 40
2.0
100
AcDbArc
 50
179.002413
 51
269.003724
  0
LINE
  5
571
100
AcDbEntity
  8
M0
100
AcDbLine
 10
141.638585
 20
454.177892
 11
134.639638
 21
454.299612
  0
ARC
  5
572
100
AcDbEntity
  8
M0
100
AcDbCircle
 10
141.67336
 20
456.177587
 40
2.0
100
AcDbArc
 50
269.003724
 51
359.003732
  0
LINE
  5
573
100
AcDbEntity
  8
M0
100
AcDbLine
 10
143.768696
 20
461.642553
 11
143.6722
 21
456.093466
  0
LINE
  5
574
100
AcDbEntity
  8
M0
 62
     5
100
AcDbLine
 10
202.78806
 20
481.646764
 11
209.289525
 21
477.89417
  0
LINE
  5
575
100
AcDbEntity
  8
M0
 62
     5
100
AcDbLine
 10
209.289525
 20
477.89417
 11
209.289525
 21
470.388525
  0
LINE
  5
576
100
AcDbEntity
  8
M0
 62
     5
100
AcDbLine
 10
209.289525
 20
470.388525
 11
202.78806
 21
466.635778
  0
LINE
  5
577
100
AcDbEntity
  8
M0
 62
     5
100
AcDbLine
 10
202.78806
 20
466.635778
 11
196.289036
 21
470.388525
  0
LINE
  5
578
100
AcDbEntity
  8
M0
 62
     5
100
AcDbLine
 10
196.289036
 20
470.388525
 11
196.289036
 21
477.89417
  0
LINE
  5
579
100
AcDbEntity
  8
M0
 62
     5
100
AcDbLine
 10
196.289036
 20
477.89417
 11
202.78806
 21
481.646764
  0
CIRCLE
  5
57A
100
AcDbEntity
  8
M0
 62
     5
100
AcDbCircle
 10
202.78806
 20
474.141424
 40
4.0
  0
LINE
  5
57B
100
AcDbEntity
  8
M0
  6
DASHDOT
 62
     5
100
AcDbLine
 10
212.940404
 20
474.141424
 11
192.635716
 21
474.141424
  0
LINE
  5
57C
100
AcDbEntity
  8
M0
  6
DASHDOT
 62
     5
100
AcDbLine
 10
202.78806
 20
484.293752
 11
202.78806
 21
463.989095
  0
LINE
  5
57D
100
AcDbEntity
  8
M0
 62
     5
100
AcDbLine
 10
202.78806
 20
657.646764
 11
209.289525
 21
653.89417
  0
LINE
  5
57E
100
AcDbEntity
  8
M0
 62
     5
100
AcDbLine
 10
209.289525
 20
653.89417
 11
209.289525
 21
646.388525
  0
LINE
  5
57F
100
AcDbEntity
  8
M0
 62
     5
100
AcDbLine
 10
209.289525
 20
646.388525
 11
202.78806
 21
642.635778
  0
LINE
  5
580
100
AcDbEntity
  8
M0
 62
     5
100
AcDbLine
 10
202.78806
 20
642.635778
 11
196.289036
 21
646.388525
  0
LINE
  5
581
100
AcDbEntity
  8
M0
 62
     5
100
AcDbLine
 10
196.289036
 20
646.388525
 11
196.289036
 21
653.89417
  0
LINE
  5
582
100
AcDbEntity
  8
M0
 62
     5
100
AcDbLine
 10
196.289036
 20
653.89417
 11
202.78806
 21
657.646764
  0
CIRCLE
  5
583
100
AcDbEntity
  8
M0
 62
     5
100
AcDbCircle
 10
202.78806
 20
650.141424
 40
4.0
  0
LINE
  5
584
100
AcDbEntity
  8
M0
  6
DASHDOT
 62
     5
100
AcDbLine
 10
212.940404
 20
650.141424
 11
192.635716
 21
650.141424
  0
LINE
  5
585
100
AcDbEntity
  8
M0
 62
     5
100
AcDbLine
 10
150.78806
 20
657.646764
 11
157.289525
 21
653.89417
  0
LINE
  5
586
100
AcDbEntity
  8
M0
 62
     5
100
AcDbLine
 10
157.289525
 20
653.89417
 11
157.289525
 21
646.388525
  0
LINE
  5
587
100
AcDbEntity
  8
M0
 62
     5
100
AcDbLine
 10
157.289525
 20
646.388525
 11
150.78806
 21
642.635778
  0
LINE
  5
588
100
AcDbEntity
  8
M0
 62
     5
100
AcDbLine
 10
150.78806
 20
642.635778
 11
144.289036
 21
646.388525
  0
LINE
  5
589
100
AcDbEntity
  8
M0
 62
     5
100
AcDbLine
 10
144.289036
 20
646.388525
 11
144.289036
 21
653.89417
  0
LINE
  5
58A
100
AcDbEntity
  8
M0
 62
     5
100
AcDbLine
 10
144.289036
 20
653.89417
 11
150.78806
 21
657.646764
  0
CIRCLE
  5
58B
100
AcDbEntity
  8
M0
 62
     5
100
AcDbCircle
 10
150.78806
 20
650.141424
 40
4.0
  0
LINE
  5
58C
100
AcDbEntity
  8
M0
  6
DASHDOT
 62
     5
100
AcDbLine
 10
160.940404
 20
650.141424
 11
140.635716
 21
650.141424
  0
LINE
  5
58D
100
AcDbEntity
  8
M0
  6
DASHDOT
 62
     5
100
AcDbLine
 10
150.78806
 20
660.293752
 11
150.78806
 21
639.989095
  0
LINE
  5
58E
100
AcDbEntity
  8
M0
 62
     5
100
AcDbLine
 10
98.78806
 20
657.646764
 11
105.289525
 21
653.89417
  0
LINE
  5
58F
100
AcDbEntity
  8
M0
 62
     5
100
AcDbLine
 10
105.289525
 20
653.89417
 11
105.289525
 21
646.388525
  0
LINE
  5
590
100
AcDbEntity
  8
M0
 62
     5
100
AcDbLine
 10
105.289525
 20
646.388525
 11
98.78806
 21
642.635778
  0
LINE
  5
591
100
AcDbEntity
  8
M0
 62
     5
100
AcDbLine
 10
98.78806
 20
642.635778
 11
92.289036
 21
646.388525
  0
LINE
  5
592
100
AcDbEntity
  8
M0
 62
     5
100
AcDbLine
 10
92.289036
 20
646.388525
 11
92.289036
 21
653.89417
  0
LINE
  5
593
100
AcDbEntity
  8
M0
 62
     5
100
AcDbLine
 10
92.289036
 20
653.89417
 11
98.78806
 21
657.646764
  0
CIRCLE
  5
594
100
AcDbEntity
  8
M0
 62
     5
100
AcDbCircle
 10
98.78806
 20
650.141424
 40
4.0
  0
LINE
  5
595
100
AcDbEntity
  8
M0
  6
DASHDOT
 62
     5
100
AcDbLine
 10
108.940404
 20
650.141424
 11
88.635716
 21
650.141424
  0
CIRCLE
  5
596
100
AcDbEntity
  8
M0
  6
DASHED
100
AcDbCircle
 10
93.288045
 20
475.1415
 40
4.5
  0
CIRCLE
  5
597
100
AcDbEntity
  8
M0
  6
DASHED
100
AcDbCircle
 10
208.288029
 20
475.1415
 40
4.5
  0
LINE
  5
598
100
AcDbEntity
  8
M0
  6
DASHDOT
100
AcDbLine
 10
201.121373
 20
660.141424
 11
215.454701
 21
660.141424
  0
LINE
  5
599
100
AcDbEntity
  8
M0
  6
DASHDOT
100
AcDbLine
 10
208.288029
 20
652.974676
 11
208.288029
 21
667.308172
  0
LINE
  5
59A
100
AcDbEntity
  8
M0
  6
DASHDOT
100
AcDbLine
 10
86.121388
 20
660.141424
 11
100.454716
 21
660.141424
  0
LINE
  5
59B
100
AcDbEntity
  8
M0
  6
DASHDOT
100
AcDbLine
 10
93.288045
 20
652.974676
 11
93.288045
 21
667.308172
  0
LINE
  5
59C
100
AcDbEntity
  8
M0
  6
DASHDOT
100
AcDbLine
 10
86.121388
 20
475.1415
 11
100.454716
 21
475.1415
  0
LINE
  5
59D
100
AcDbEntity
  8
M0
  6
DASHDOT
100
AcDbLine
 10
93.288045
 20
467.974828
 11
93.288045
 21
482.308172
  0
LINE
  5
59E
100
AcDbEntity
  8
M0
  6
DASHDOT
100
AcDbLine
 10
201.121373
 20
475.1415
 11
215.454701
 21
475.1415
  0
LINE
  5
59F
100
AcDbEntity
  8
M0
  6
DASHDOT
100
AcDbLine
 10
208.288029
 20
467.974828
 11
208.288029
 21
482.308172
  0
ARC
  5
5A0
100
AcDbEntity
  8
M0
  6
DASHED
100
AcDbCircle
 10
93.288045
 20
660.141424
 40
4.5
100
AcDbArc
 50
146.250984
 51
393.745245
  0
ARC
  5
5A1
100
AcDbEntity
  8
M0
100
AcDbCircle
 10
93.288045
 20
660.141424
 40
4.5
100
AcDbArc
 50
33.745245
 51
146.250984
  0
ARC
  5
5A2
100
AcDbEntity
  8
M0
  6
DASHED
100
AcDbCircle
 10
208.288029
 20
660.141424
 40
4.5
100
AcDbArc
 50
146.254432
 51
393.74546
  0
ARC
  5
5A3
100
AcDbEntity
  8
M0
100
AcDbCircle
 10
208.288029
 20
660.141424
 40
4.5
100
AcDbArc
 50
33.74546
 51
146.254432
  0
LINE
  5
5A4
100
AcDbEntity
  8
M0
100
AcDbLine
 10
81.788045
 20
465.141317
 11
86.288045
 21
465.141317
  0
LINE
  5
5A5
100
AcDbEntity
  8
M0
100
AcDbLine
 10
111.288045
 20
465.141317
 11
138.288045
 21
465.141317
  0
LINE
  5
5A6
100
AcDbEntity
  8
M0
100
AcDbLine
 10
163.288045
 20
465.141317
 11
190.288045
 21
465.141317
  0
LINE
  5
5A7
100
AcDbEntity
  8
M0
100
AcDbLine
 10
215.288045
 20
465.141317
 11
219.788045
 21
465.141317
  0
LINE
  5
5A8
100
AcDbEntity
  8
M0
100
AcDbLine
 10
81.788029
 20
670.141317
 11
219.788045
 21
670.141317
  0
LINE
  5
5A9
100
AcDbEntity
  8
M0
100
AcDbLine
 10
81.787846
 20
462.541464
 11
86.287846
 21
462.541464
  0
LINE
  5
5AA
100
AcDbEntity
  8
M0
100
AcDbLine
 10
81.787846
 20
464.641561
 11
86.287846
 21
464.641561
  0
LINE
  5
5AB
100
AcDbEntity
  8
M0
100
AcDbLine
 10
81.788045
 20
672.741384
 11
81.78806
 21
462.541464
  0
LINE
  5
5AC
100
AcDbEntity
  8
M0
100
AcDbLine
 10
111.287846
 20
462.541464
 11
138.287846
 21
462.541464
  0
LINE
  5
5AD
100
AcDbEntity
  8
M0
100
AcDbLine
 10
111.287846
 20
464.641561
 11
138.287846
 21
464.641561
  0
LINE
  5
5AE
100
AcDbEntity
  8
M0
100
AcDbLine
 10
163.287846
 20
462.541464
 11
190.287846
 21
462.541464
  0
LINE
  5
5AF
100
AcDbEntity
  8
M0
100
AcDbLine
 10
163.287846
 20
464.641561
 11
190.287846
 21
464.641561
  0
LINE
  5
5B0
100
AcDbEntity
  8
M0
100
AcDbLine
 10
215.287846
 20
462.541464
 11
235.787846
 21
462.541464
  0
LINE
  5
5B1
100
AcDbEntity
  8
M0
100
AcDbLine
 10
215.287846
 20
464.641561
 11
235.787846
 21
464.641561
  0
LINE
  5
5B2
100
AcDbEntity
  8
M0
100
AcDbLine
 10
235.788029
 20
672.741415
 11
235.788045
 21
462.541464
  0
LINE
  5
5B3
100
AcDbEntity
  8
M0
100
AcDbLine
 10
235.787846
 20
670.64121
 11
81.787846
 21
670.64121
  0
LINE
  5
5B4
100
AcDbEntity
  8
M0
100
AcDbLine
 10
235.787846
 20
672.741384
 11
81.787846
 21
672.741384
  0
LINE
  5
5B5
100
AcDbEntity
  8
M0
  6
DASHDOT
100
AcDbLine
 10
558.033574
 20
561.64147
 11
527.421529
 21
561.64147
  0
LINE
  5
5B6
100
AcDbEntity
  8
M0
100
AcDbLine
 10
460.536922
 20
671.741461
 11
460.536922
 21
670.141454
  0
ARC
  5
5B7
100
AcDbEntity
  8
M0
100
AcDbCircle
 10
541.036916
 20
669.641454
 40
0.5
100
AcDbArc
 50
0.0
 51
90.0
  0
ARC
  5
5B8
100
AcDbEntity
  8
M0
100
AcDbCircle
 10
542.136922
 20
670.741461
 40
1.0
100
AcDbArc
 50
0.0
 51
90.0
  0
LINE
  5
5B9
100
AcDbEntity
  8
M0
100
AcDbLine
 10
542.136922
 20
671.741461
 11
460.536922
 21
671.741461
  0
LINE
  5
5BA
100
AcDbEntity
  8
M0
100
AcDbLine
 10
508.036922
 20
462.541464
 11
542.136922
 21
462.541464
  0
LINE
  5
5BB
100
AcDbEntity
  8
M0
100
AcDbLine
 10
541.036916
 20
464.14147
 11
508.036922
 21
464.14147
  0
LINE
  5
5BC
100
AcDbEntity
  8
M0
100
AcDbLine
 10
508.036922
 20
464.14147
 11
508.036922
 21
462.541464
  0
ARC
  5
5BD
100
AcDbEntity
  8
M0
100
AcDbCircle
 10
541.036916
 20
464.64147
 40
0.5
100
AcDbArc
 50
270.0
 51
360.0
  0
ARC
  5
5BE
100
AcDbEntity
  8
M0
100
AcDbCircle
 10
542.136922
 20
463.541464
 40
1.0
100
AcDbArc
 50
270.0
 51
360.0
  0
LINE
  5
5BF
100
AcDbEntity
  8
M0
100
AcDbLine
 10
541.536916
 20
669.641454
 11
541.536916
 21
464.64147
  0
ARC
  5
5C0
100
AcDbEntity
  8
M0
100
AcDbCircle
 10
543.636907
 20
469.14147
 40
0.5
100
AcDbArc
 50
-90.0
 51
0.0
  0
LINE
  5
5C1
100
AcDbEntity
  8
M0
100
AcDbLine
 10
543.636907
 20
468.64147
 11
543.136922
 21
468.64147
  0
LINE
  5
5C2
100
AcDbEntity
  8
M0
100
AcDbLine
 10
544.136907
 20
469.14147
 11
544.136907
 21
480.14147
  0
ARC
  5
5C3
100
AcDbEntity
  8
M0
100
AcDbCircle
 10
543.636907
 20
480.14147
 40
0.5
100
AcDbArc
 50
0.0
 51
90.0
  0
LINE
  5
5C4
100
AcDbEntity
  8
M0
100
AcDbLine
 10
543.636907
 20
480.64147
 11
543.136922
 21
480.64147
  0
ARC
  5
5C5
100
AcDbEntity
  8
M0
100
AcDbCircle
 10
543.636937
 20
652.991476
 40
0.5
100
AcDbArc
 50
-90.0
 51
0.0
  0
LINE
  5
5C6
100
AcDbEntity
  8
M0
100
AcDbLine
 10
543.636937
 20
652.491476
 11
543.136937
 21
652.491476
  0
ARC
  5
5C7
100
AcDbEntity
  8
M0
100
AcDbCircle
 10
543.636937
 20
666.29147
 40
0.5
100
AcDbArc
 50
0.0
 51
90.0
  0
LINE
  5
5C8
100
AcDbEntity
  8
M0
100
AcDbLine
 10
543.636937
 20
666.79147
 11
543.136937
 21
666.79147
  0
LINE
  5
5C9
100
AcDbEntity
  8
M0
100
AcDbLine
 10
544.136937
 20
652.991476
 11
544.136937
 21
665.14147
  0
LINE
  5
5CA
100
AcDbEntity
  8
M0
100
AcDbLine
 10
544.136907
 20
666.287556
 11
544.136907
 21
654.14147
  0
LINE
  5
5CB
100
AcDbEntity
  8
M0
100
AcDbLine
 10
543.136922
 20
463.541464
 11
543.136922
 21
670.741461
  0
LINE
  5
5CC
100
AcDbEntity
  8
M0
100
AcDbLine
 10
460.536922
 20
670.141456
 11
541.036916
 21
670.141454
  0
LINE
  5
5CD
100
AcDbEntity
  8
M0
100
AcDbLine
 10
541.536916
 20
464.64147
 11
541.536916
 21
669.64147
  0
LINE
  5
5CE
100
AcDbEntity
  8
M0
100
AcDbLine
 10
541.536916
 20
669.64147
 11
507.93694
 21
669.64147
  0
LINE
  5
5CF
100
AcDbEntity
  8
M0
100
AcDbLine
 10
507.93694
 20
669.64147
 11
507.93694
 21
464.64147
  0
LINE
  5
5D0
100
AcDbEntity
  8
M0
100
AcDbLine
 10
507.93694
 20
464.64147
 11
541.536916
 21
464.64147
  0
LINE
  5
5D1
100
AcDbEntity
  8
M0
  6
DASHDOT
100
AcDbLine
 10
502.93694
 20
561.64147
 11
546.536916
 21
561.64147
  0
ARC
  5
5D2
100
AcDbEntity
  8
M0
 62
     7
100
AcDbCircle
 10
322.337038
 20
635.141409
 40
2.0
100
AcDbArc
 50
89.999563
 51
180.0
  0
LINE
  5
5D3
100
AcDbEntity
  8
M0
 62
     7
100
AcDbLine
 10
320.337038
 20
635.141409
 11
320.337038
 21
489.141421
  0
ARC
  5
5D4
100
AcDbEntity
  8
M0
 62
     7
100
AcDbCircle
 10
322.337038
 20
489.141421
 40
2.0
100
AcDbArc
 50
179.999973
 51
270.0
  0
ARC
  5
5D5
100
AcDbEntity
  8
M0
 62
     7
100
AcDbCircle
 10
322.337038
 20
625.141409
 40
2.0
100
AcDbArc
 50
89.999563
 51
180.0
  0
ARC
  5
5D6
100
AcDbEntity
  8
M0
 62
     7
100
AcDbCircle
 10
322.337038
 20
499.141421
 40
2.0
100
AcDbArc
 50
179.999973
 51
270.0
  0
LINE
  5
5D7
100
AcDbEntity
  8
M0
 62
     7
100
AcDbLine
 10
322.337038
 20
637.141409
 11
401.937029
 21
637.141409
  0
LINE
  5
5D8
100
AcDbEntity
  8
M0
 62
     7
100
AcDbLine
 10
322.337038
 20
627.141409
 11
401.937029
 21
627.141409
  0
LINE
  5
5D9
100
AcDbEntity
  8
M0
 62
     7
100
AcDbLine
 10
322.337038
 20
487.141421
 11
401.937029
 21
487.141421
  0
LINE
  5
5DA
100
AcDbEntity
  8
M0
 62
     7
100
AcDbLine
 10
322.337038
 20
497.141421
 11
401.937029
 21
497.141421
  0
LINE
  5
5DB
100
AcDbEntity
  8
M0
 62
     7
100
AcDbLine
 10
401.937029
 20
487.141421
 11
401.937029
 21
497.141421
  0
LINE
  5
5DC
100
AcDbEntity
  8
M0
 62
     7
100
AcDbLine
 10
401.937029
 20
627.141409
 11
401.937029
 21
637.141409
  0
LINE
  5
5DD
100
AcDbEntity
  8
M0
  6
DASHDOT
100
AcDbLine
 10
355.448198
 20
562.141409
 11
458.335329
 21
562.141409
  0
LINE
  5
5DE
100
AcDbEntity
  8
M0
100
AcDbLine
 10
373.937036
 20
565.891409
 11
373.937036
 21
558.391409
  0
ARC
  5
5DF
100
AcDbEntity
  8
M0
100
AcDbCircle
 10
368.437037
 20
557.391409
 40
1.0
100
AcDbArc
 50
90.0
 51
180.0
  0
LINE
  5
5E0
100
AcDbEntity
  8
M0
100
AcDbLine
 10
368.437037
 20
558.391409
 11
373.937036
 21
558.391409
  0
LINE
  5
5E1
100
AcDbEntity
  8
M0
100
AcDbLine
 10
368.437037
 20
565.891409
 11
373.937036
 21
565.891409
  0
LINE
  5
5E2
100
AcDbEntity
  8
M0
100
AcDbLine
 10
441.937029
 20
648.641409
 11
429.437029
 21
648.641409
  0
ARC
  5
5E3
100
AcDbEntity
  8
M0
100
AcDbCircle
 10
429.437029
 20
647.641409
 40
1.0
100
AcDbArc
 50
90.0
 51
180.0
  0
LINE
  5
5E4
100
AcDbEntity
  8
M0
100
AcDbLine
 10
428.437029
 20
647.641409
 11
428.437029
 21
599.141409
  0
ARC
  5
5E5
100
AcDbEntity
  8
M0
100
AcDbCircle
 10
426.437029
 20
599.141409
 40
2.0
100
AcDbArc
 50
269.999563
 51
360.0
  0
LINE
  5
5E6
100
AcDbEntity
  8
M0
100
AcDbLine
 10
418.437029
 20
597.141409
 11
426.437029
 21
597.141409
  0
ARC
  5
5E7
100
AcDbEntity
  8
M0
100
AcDbCircle
 10
418.437029
 20
596.141409
 40
1.0
100
AcDbArc
 50
90.0
 51
180.0
  0
ARC
  5
5E8
100
AcDbEntity
  8
M0
100
AcDbCircle
 10
369.437037
 20
577.641409
 40
2.0
100
AcDbArc
 50
90.0
 51
180.0
  0
LINE
  5
5E9
100
AcDbEntity
  8
M0
100
AcDbLine
 10
387.437036
 20
577.141409
 11
391.437029
 21
577.141409
  0
LINE
  5
5EA
100
AcDbEntity
  8
M0
100
AcDbLine
 10
369.437037
 20
579.641409
 11
387.437036
 21
579.641409
  0
LINE
  5
5EB
100
AcDbEntity
  8
M0
100
AcDbLine
 10
387.437036
 20
579.641409
 11
387.437036
 21
577.141409
  0
LINE
  5
5EC
100
AcDbEntity
  8
M0
100
AcDbLine
 10
391.437029
 20
579.742437
 11
391.437029
 21
577.141409
  0
ARC
  5
5ED
100
AcDbEntity
  8
M0
100
AcDbCircle
 10
390.437029
 20
584.641409
 40
5.0
100
AcDbArc
 50
281.536771
 51
360.0
  0
LINE
  5
5EE
100
AcDbEntity
  8
M0
100
AcDbLine
 10
395.437029
 20
587.641409
 11
395.437029
 21
584.641409
  0
ARC
  5
5EF
100
AcDbEntity
  8
M0
100
AcDbCircle
 10
397.437029
 20
587.641409
 40
2.0
100
AcDbArc
 50
90.0
 51
180.0
  0
LINE
  5
5F0
100
AcDbEntity
  8
M0
100
AcDbLine
 10
410.437029
 20
588.641409
 11
417.437029
 21
588.641409
  0
LINE
  5
5F1
100
AcDbEntity
  8
M0
100
AcDbLine
 10
409.437029
 20
589.641409
 11
410.437029
 21
588.641409
  0
LINE
  5
5F2
100
AcDbEntity
  8
M0
100
AcDbLine
 10
417.437029
 20
596.141409
 11
417.437029
 21
588.641409
  0
LINE
  5
5F3
100
AcDbEntity
  8
M0
100
AcDbLine
 10
397.437029
 20
589.641409
 11
409.437029
 21
589.641409
  0
LINE
  5
5F4
100
AcDbEntity
  8
M0
100
AcDbLine
 10
441.937029
 20
487.141421
 11
402.937029
 21
487.141421
  0
ARC
  5
5F5
100
AcDbEntity
  8
M0
100
AcDbCircle
 10
429.437029
 20
488.141421
 40
1.0
100
AcDbArc
 50
180.0
 51
269.999126
  0
LINE
  5
5F6
100
AcDbEntity
  8
M0
100
AcDbLine
 10
428.437029
 20
488.141421
 11
428.437029
 21
525.141409
  0
ARC
  5
5F7
100
AcDbEntity
  8
M0
100
AcDbCircle
 10
426.437029
 20
525.141409
 40
2.0
100
AcDbArc
 50
0.0
 51
90.0
  0
LINE
  5
5F8
100
AcDbEntity
  8
M0
100
AcDbLine
 10
418.437029
 20
527.141409
 11
426.437029
 21
527.141409
  0
ARC
  5
5F9
100
AcDbEntity
  8
M0
100
AcDbCircle
 10
418.437029
 20
528.141409
 40
1.0
100
AcDbArc
 50
180.0
 51
269.999126
  0
ARC
  5
5FA
100
AcDbEntity
  8
M0
100
AcDbCircle
 10
369.437037
 20
546.641409
 40
2.0
100
AcDbArc
 50
180.0
 51
270.0
  0
LINE
  5
5FB
100
AcDbEntity
  8
M0
100
AcDbLine
 10
387.437036
 20
547.141409
 11
391.437029
 21
547.141409
  0
LINE
  5
5FC
100
AcDbEntity
  8
M0
100
AcDbLine
 10
369.437037
 20
544.641409
 11
387.437036
 21
544.641409
  0
LINE
  5
5FD
100
AcDbEntity
  8
M0
100
AcDbLine
 10
387.437036
 20
544.641409
 11
387.437036
 21
547.141409
  0
LINE
  5
5FE
100
AcDbEntity
  8
M0
100
AcDbLine
 10
391.437029
 20
544.540395
 11
391.437029
 21
547.141409
  0
ARC
  5
5FF
100
AcDbEntity
  8
M0
100
AcDbCircle
 10
390.437029
 20
539.641409
 40
5.0
100
AcDbArc
 50
0.0
 51
78.463023
  0
LINE
  5
600
100
AcDbEntity
  8
M0
100
AcDbLine
 10
395.437029
 20
536.641409
 11
395.437029
 21
539.641409
  0
ARC
  5
601
100
AcDbEntity
  8
M0
100
AcDbCircle
 10
397.437029
 20
536.641409
 40
2.0
100
AcDbArc
 50
180.0
 51
269.999563
  0
LINE
  5
602
100
AcDbEntity
  8
M0
100
AcDbLine
 10
410.437029
 20
535.641409
 11
417.437029
 21
535.641409
  0
LINE
  5
603
100
AcDbEntity
  8
M0
100
AcDbLine
 10
409.437029
 20
534.641409
 11
410.437029
 21
535.641409
  0
LINE
  5
604
100
AcDbEntity
  8
M0
100
AcDbLine
 10
417.437029
 20
528.141409
 11
417.437029
 21
535.641409
  0
LINE
  5
605
100
AcDbEntity
  8
M0
100
AcDbLine
 10
397.437029
 20
534.641409
 11
409.437029
 21
534.641409
  0
LINE
  5
606
100
AcDbEntity
  8
M0
100
AcDbLine
 10
367.437037
 20
577.641409
 11
367.437037
 21
546.641409
  0
LINE
  5
607
100
AcDbEntity
  8
M0
100
AcDbLine
 10
441.937029
 20
487.141421
 11
441.937029
 21
539.641409
  0
ARC
  5
608
100
AcDbEntity
  8
M0
100
AcDbCircle
 10
368.437037
 20
566.891409
 40
1.0
100
AcDbArc
 50
180.0
 51
270.0
  0
LINE
  5
609
100
AcDbEntity
  8
M0
100
AcDbLine
 10
441.937029
 20
584.641409
 11
441.937029
 21
648.641409
  0
LINE
  5
60A
100
AcDbEntity
  8
M0
 62
     4
100
AcDbLine
 10
441.937029
 20
487.141409
 11
507.937029
 21
487.141409
  0
LINE
  5
60B
100
AcDbEntity
  8
M0
  6
DASHDOT
 62
     4
100
AcDbLine
 10
436.937029
 20
562.141409
 11
512.937029
 21
562.141409
  0
LINE
  5
60C
100
AcDbEntity
  8
M0
 62
     4
100
AcDbLine
 10
432.437029
 20
583.641409
 11
432.437029
 21
570.141409
  0
LINE
  5
60D
100
AcDbEntity
  8
M0
 62
     4
100
AcDbLine
 10
433.437029
 20
584.641409
 11
441.937029
 21
584.641409
  0
LINE
  5
60E
100
AcDbEntity
  8
M0
 62
     4
100
AcDbLine
 10
433.437029
 20
539.641409
 11
441.937029
 21
539.641409
  0
LINE
  5
60F
100
AcDbEntity
  8
M0
 62
     4
100
AcDbLine
 10
435.437029
 20
568.141409
 11
451.736833
 21
568.141409
  0
LINE
  5
610
100
AcDbEntity
  8
M0
 62
     4
100
AcDbLine
 10
435.437029
 20
556.141409
 11
451.736833
 21
556.141409
  0
LINE
  5
611
100
AcDbEntity
  8
M0
 62
     4
100
AcDbLine
 10
451.736833
 20
568.141409
 11
451.736833
 21
564.141409
  0
LINE
  5
612
100
AcDbEntity
  8
M0
 62
     4
100
AcDbLine
 10
450.736833
 20
563.141409
 11
450.736833
 21
561.141409
  0
LINE
  5
613
100
AcDbEntity
  8
M0
 62
     4
100
AcDbLine
 10
450.736833
 20
561.141409
 11
451.736833
 21
560.141409
  0
LINE
  5
614
100
AcDbEntity
  8
M0
 62
     4
100
AcDbLine
 10
450.736833
 20
563.141409
 11
451.736833
 21
564.141409
  0
LINE
  5
615
100
AcDbEntity
  8
M0
 62
     4
100
AcDbLine
 10
451.736833
 20
560.141409
 11
451.736833
 21
556.141409
  0
LINE
  5
616
100
AcDbEntity
  8
M0
 62
     4
100
AcDbLine
 10
433.437029
 20
569.141409
 11
434.437029
 21
569.141409
  0
LINE
  5
617
100
AcDbEntity
  8
M0
 62
     4
100
AcDbLine
 10
433.437029
 20
555.141409
 11
434.437029
 21
555.141409
  0
LINE
  5
618
100
AcDbEntity
  8
M0
 62
     4
100
AcDbLine
 10
432.437029
 20
554.141409
 11
432.437029
 21
540.641409
  0
LINE
  5
619
100
AcDbEntity
  8
M0
 62
     4
100
AcDbLine
 10
441.937029
 20
539.641409
 11
441.937029
 21
487.141409
  0
ARC
  5
61A
100
AcDbEntity
  8
M0
 62
     4
100
AcDbCircle
 10
433.437029
 20
583.641409
 40
1.0
100
AcDbArc
 50
90.0
 51
180.0
  0
ARC
  5
61B
100
AcDbEntity
  8
M0
 62
     4
100
AcDbCircle
 10
433.437029
 20
540.641409
 40
1.0
100
AcDbArc
 50
180.0
 51
269.999126
  0
ARC
  5
61C
100
AcDbEntity
  8
M0
 62
     4
100
AcDbCircle
 10
433.437029
 20
570.141409
 40
1.0
100
AcDbArc
 50
180.0
 51
269.999126
  0
ARC
  5
61D
100
AcDbEntity
  8
M0
 62
     4
100
AcDbCircle
 10
435.437029
 20
569.141409
 40
1.0
100
AcDbArc
 50
180.0
 51
269.999126
  0
ARC
  5
61E
100
AcDbEntity
  8
M0
 62
     4
100
AcDbCircle
 10
433.437029
 20
554.141409
 40
1.0
100
AcDbArc
 50
90.0
 51
180.0
  0
ARC
  5
61F
100
AcDbEntity
  8
M0
 62
     4
100
AcDbCircle
 10
435.437029
 20
555.141409
 40
1.0
100
AcDbArc
 50
90.0
 51
180.0
  0
ARC
  5
620
100
AcDbEntity
  8
M0
 62
     4
100
AcDbCircle
 10
449.736833
 20
567.141409
 40
2.0
100
AcDbArc
 50
0.0
 51
30.001722
  0
ARC
  5
621
100
AcDbEntity
  8
M0
 62
     4
100
AcDbCircle
 10
449.736833
 20
557.141409
 40
2.0
100
AcDbArc
 50
329.9979
 51
360.0
  0
ARC
  5
622
100
AcDbEntity
  8
M0
 62
     4
100
AcDbCircle
 10
449.736833
 20
557.141409
 40
2.0
100
AcDbArc
 50
269.999563
 51
329.9979
  0
LINE
  5
623
100
AcDbEntity
  8
M0
 62
     4
100
AcDbLine
 10
434.437029
 20
555.141409
 11
449.736833
 21
555.141409
  0
LINE
  5
624
100
AcDbEntity
  8
M0
 62
     4
100
AcDbLine
 10
434.437029
 20
569.141409
 11
449.736833
 21
569.141409
  0
ARC
  5
625
100
AcDbEntity
  8
M0
 62
     4
100
AcDbCircle
 10
449.736833
 20
567.141409
 40
2.0
100
AcDbArc
 50
30.001722
 51
90.0
  0
LINE
  5
626
100
AcDbEntity
  8
M0
 62
     4
100
AcDbLine
 10
507.937029
 20
487.141409
 11
507.937029
 21
648.641012
  0
LINE
  5
627
100
AcDbEntity
  8
M0
 62
     4
100
AcDbLine
 10
441.937029
 20
648.641012
 11
441.937029
 21
584.641409
  0
LINE
  5
628
100
AcDbEntity
  8
M0
 62
     4
100
AcDbLine
 10
507.937029
 20
648.641256
 11
441.937029
 21
648.641256
  0
LINE
  5
629
100
AcDbEntity
  8
M0
100
AcDbLine
 10
401.936983
 20
636.141576
 11
401.936983
 21
589.641576
  0
LINE
  5
62A
100
AcDbEntity
  8
M0
100
AcDbLine
 10
402.936983
 20
637.141576
 11
428.436983
 21
637.141576
  0
ARC
  5
62B
100
AcDbEntity
  8
M0
100
AcDbCircle
 10
402.936983
 20
636.141576
 40
1.0
100
AcDbArc
 50
90.0
 51
180.0
  0
ARC
  5
62C
100
AcDbEntity
  8
M0
100
AcDbCircle
 10
402.936983
 20
488.141576
 40
1.0
100
AcDbArc
 50
180.0
 51
269.986012
  0
LINE
  5
62D
100
AcDbEntity
  8
M0
100
AcDbLine
 10
401.936983
 20
534.641576
 11
401.936983
 21
488.141576
  0
LINE
  5
62E
100
AcDbEntity
  8
M0
100
AcDbLine
 10
421.936983
 20
567.141576
 11
421.936983
 21
557.141576
  0
LINE
  5
62F
100
AcDbEntity
  8
M0
100
AcDbLine
 10
432.436983
 20
580.121801
 11
432.436983
 21
552.458959
  0
LINE
  5
630
100
AcDbEntity
  8
M0
100
AcDbLine
 10
423.936983
 20
555.141576
 11
432.436983
 21
555.141576
  0
LINE
  5
631
100
AcDbEntity
  8
M0
100
AcDbLine
 10
423.936983
 20
569.141576
 11
432.436983
 21
569.141576
  0
ARC
  5
632
100
AcDbEntity
  8
M0
100
AcDbCircle
 10
423.936983
 20
567.141576
 40
2.0
100
AcDbArc
 50
90.0
 51
180.0
  0
ARC
  5
633
100
AcDbEntity
  8
M0
100
AcDbCircle
 10
423.936983
 20
557.141576
 40
2.0
100
AcDbArc
 50
180.0
 51
269.993006
  0
LINE
  5
634
100
AcDbEntity
  8
M0
100
AcDbLine
 10
407.737077
 20
663.641454
 11
407.737077
 21
637.141454
  0
LINE
  5
635
100
AcDbEntity
  8
M0
100
AcDbLine
 10
412.537081
 20
663.641454
 11
412.537081
 21
637.141454
  0
LINE
  5
636
100
AcDbEntity
  8
M0
100
AcDbLine
 10
407.737077
 20
663.641454
 11
412.537081
 21
663.641454
  0
LINE
  5
637
100
AcDbEntity
  8
M0
100
AcDbLine
 10
407.737077
 20
663.641454
 11
412.537081
 21
663.641454
  0
LINE
  5
638
100
AcDbEntity
  8
M0
100
AcDbLine
 10
407.737077
 20
460.641561
 11
412.537081
 21
460.641561
  0
LINE
  5
639
100
AcDbEntity
  8
M0
100
AcDbLine
 10
407.737077
 20
460.641561
 11
412.537081
 21
460.641561
  0
LINE
  5
63A
100
AcDbEntity
  8
M0
100
AcDbLine
 10
407.737077
 20
460.641561
 11
407.737077
 21
487.141454
  0
LINE
  5
63B
100
AcDbEntity
  8
M0
100
AcDbLine
 10
412.537081
 20
460.641561
 11
412.537081
 21
487.141454
  0
LINE
  5
63C
100
AcDbEntity
  8
M0
 62
     6
100
AcDbLine
 10
382.53689
 20
645.141409
 11
382.53689
 21
655.14118
  0
LINE
  5
63D
100
AcDbEntity
  8
M0
 62
     6
100
AcDbLine
 10
382.53689
 20
655.14118
 11
395.636888
 21
655.14118
  0
LINE
  5
63E
100
AcDbEntity
  8
M0
 62
     6
100
AcDbLine
 10
419.536882
 20
645.141409
 11
412.536882
 21
645.141409
  0
LINE
  5
63F
100
AcDbEntity
  8
M0
  6
DASHDOT
 62
     6
100
AcDbLine
 10
422.535417
 20
650.141409
 11
379.596414
 21
650.141409
  0
LINE
  5
640
100
AcDbEntity
  8
M0
 62
     6
100
AcDbLine
 10
412.536882
 20
640.332403
 11
412.536882
 21
659.950262
  0
LINE
  5
641
100
AcDbEntity
  8
M0
 62
     6
100
AcDbLine
 10
412.536882
 20
659.950262
 11
419.536882
 21
659.950262
  0
LINE
  5
642
100
AcDbEntity
  8
M0
 62
     6
100
AcDbLine
 10
419.536882
 20
659.950262
 11
419.536882
 21
640.332403
  0
LINE
  5
643
100
AcDbEntity
  8
M0
 62
     6
100
AcDbLine
 10
419.536882
 20
640.332403
 11
412.536882
 21
640.332403
  0
LINE
  5
644
100
AcDbEntity
  8
M0
 62
     6
100
AcDbLine
 10
412.536882
 20
655.14118
 11
419.536882
 21
655.14118
  0
LINE
  5
645
100
AcDbEntity
  8
M0
 62
     6
100
AcDbLine
 10
395.636888
 20
645.141409
 11
382.53689
 21
645.141409
  0
LINE
  5
646
100
AcDbEntity
  8
M0
 62
     6
100
AcDbLine
 10
412.536882
 20
483.95043
 11
412.536882
 21
464.332571
  0
LINE
  5
647
100
AcDbEntity
  8
M0
 62
     6
100
AcDbLine
 10
412.536882
 20
464.332571
 11
419.536882
 21
464.332571
  0
LINE
  5
648
100
AcDbEntity
  8
M0
 62
     6
100
AcDbLine
 10
419.536882
 20
464.332571
 11
419.536882
 21
483.95043
  0
LINE
  5
649
100
AcDbEntity
  8
M0
 62
     6
100
AcDbLine
 10
419.536882
 20
483.95043
 11
412.536882
 21
483.95043
  0
LINE
  5
64A
100
AcDbEntity
  8
M0
 62
     6
100
AcDbLine
 10
382.53689
 20
479.141424
 11
382.53689
 21
469.141653
  0
LINE
  5
64B
100
AcDbEntity
  8
M0
  6
DASHDOT
 62
     6
100
AcDbLine
 10
422.535417
 20
474.141424
 11
379.596414
 21
474.141424
  0
LINE
  5
64C
100
AcDbEntity
  8
M0
 62
     6
100
AcDbLine
 10
382.53689
 20
469.141653
 11
395.636888
 21
469.141653
  0
LINE
  5
64D
100
AcDbEntity
  8
M0
 62
     6
100
AcDbLine
 10
412.536882
 20
469.141653
 11
419.536882
 21
469.141653
  0
LINE
  5
64E
100
AcDbEntity
  8
M0
 62
     6
100
AcDbLine
 10
419.536882
 20
479.141424
 11
412.536882
 21
479.141424
  0
LINE
  5
64F
100
AcDbEntity
  8
M0
 62
     6
100
AcDbLine
 10
395.636888
 20
479.141424
 11
382.53689
 21
479.141424
  0
LINE
  5
650
100
AcDbEntity
  8
M0
 62
     4
100
AcDbLine
 10
403.636965
 20
659.941473
 11
395.636949
 21
659.941473
  0
LINE
  5
651
100
AcDbEntity
  8
M0
 62
     4
100
AcDbLine
 10
395.63698
 20
659.941427
 11
395.63698
 21
640.341451
  0
LINE
  5
652
100
AcDbEntity
  8
M0
 62
     4
100
AcDbLine
 10
395.636965
 20
640.341467
 11
403.636965
 21
640.341467
  0
LINE
  5
653
100
AcDbEntity
  8
M0
 62
     4
100
AcDbLine
 10
403.63698
 20
640.341482
 11
403.63698
 21
659.941488
  0
LINE
  5
654
100
AcDbEntity
  8
M0
 62
     4
100
AcDbLine
 10
403.636965
 20
645.241461
 11
395.636965
 21
645.241461
  0
LINE
  5
655
100
AcDbEntity
  8
M0
 62
     4
100
AcDbLine
 10
403.636965
 20
655.041448
 11
395.636949
 21
655.041448
  0
LINE
  5
656
100
AcDbEntity
  8
M0
 62
     4
100
AcDbLine
 10
403.636965
 20
464.34139
 11
395.636949
 21
464.34139
  0
LINE
  5
657
100
AcDbEntity
  8
M0
 62
     4
100
AcDbLine
 10
395.63698
 20
464.341436
 11
395.63698
 21
483.941412
  0
LINE
  5
658
100
AcDbEntity
  8
M0
 62
     4
100
AcDbLine
 10
395.636965
 20
483.941396
 11
403.636965
 21
483.941396
  0
LINE
  5
659
100
AcDbEntity
  8
M0
 62
     4
100
AcDbLine
 10
403.63698
 20
483.941381
 11
403.63698
 21
464.341375
  0
LINE
  5
65A
100
AcDbEntity
  8
M0
 62
     4
100
AcDbLine
 10
403.636965
 20
479.041403
 11
395.636965
 21
479.041403
  0
LINE
  5
65B
100
AcDbEntity
  8
M0
 62
     4
100
AcDbLine
 10
403.636965
 20
469.241415
 11
395.636949
 21
469.241415
  0
LINE
  5
65C
100
AcDbEntity
  8
M0
 62
     7
100
AcDbLine
 10
406.137087
 20
639.141409
 11
407.737077
 21
639.141409
  0
LINE
  5
65D
100
AcDbEntity
  8
M0
 62
     7
100
AcDbLine
 10
407.737077
 20
639.141409
 11
407.737077
 21
661.141409
  0
LINE
  5
65E
100
AcDbEntity
  8
M0
 62
     7
100
AcDbLine
 10
407.737077
 20
661.141409
 11
406.137087
 21
661.141409
  0
LINE
  5
65F
100
AcDbEntity
  8
M0
 62
     7
100
AcDbLine
 10
406.137087
 20
661.141409
 11
406.137087
 21
639.141409
  0
LINE
  5
660
100
AcDbEntity
  8
M0
 62
     7
100
AcDbLine
 10
407.737077
 20
485.141393
 11
407.737077
 21
463.141393
  0
LINE
  5
661
100
AcDbEntity
  8
M0
 62
     7
100
AcDbLine
 10
407.737077
 20
463.141393
 11
406.137087
 21
463.141393
  0
LINE
  5
662
100
AcDbEntity
  8
M0
 62
     7
100
AcDbLine
 10
406.137087
 20
463.141393
 11
406.137087
 21
485.141393
  0
LINE
  5
663
100
AcDbEntity
  8
M0
 62
     7
100
AcDbLine
 10
407.737077
 20
485.141393
 11
406.137087
 21
485.141393
  0
LINE
  5
664
100
AcDbEntity
  8
M0
 62
     4
100
AcDbLine
 10
403.63698
 20
640.941412
 11
406.13698
 21
640.941412
  0
LINE
  5
665
100
AcDbEntity
  8
M0
 62
     4
100
AcDbLine
 10
406.13698
 20
640.941412
 11
406.13698
 21
659.341406
  0
LINE
  5
666
100
AcDbEntity
  8
M0
 62
     4
100
AcDbLine
 10
406.13698
 20
659.341406
 11
403.63698
 21
659.341406
  0
LINE
  5
667
100
AcDbEntity
  8
M0
 62
     4
100
AcDbLine
 10
403.63698
 20
659.341406
 11
403.63698
 21
640.941412
  0
LINE
  5
668
100
AcDbEntity
  8
M0
 62
     4
100
AcDbLine
 10
403.63698
 20
650.141424
 11
406.13698
 21
648.698049
  0
LINE
  5
669
100
AcDbEntity
  8
M0
 62
     4
100
AcDbLine
 10
403.63698
 20
651.584783
 11
406.13698
 21
650.141409
  0
LINE
  5
66A
100
AcDbEntity
  8
M0
 62
     4
100
AcDbLine
 10
403.63698
 20
483.341421
 11
406.13698
 21
483.341421
  0
LINE
  5
66B
100
AcDbEntity
  8
M0
 62
     4
100
AcDbLine
 10
406.13698
 20
483.341421
 11
406.13698
 21
464.941427
  0
LINE
  5
66C
100
AcDbEntity
  8
M0
 62
     4
100
AcDbLine
 10
406.13698
 20
464.941427
 11
403.63698
 21
464.941427
  0
LINE
  5
66D
100
AcDbEntity
  8
M0
 62
     4
100
AcDbLine
 10
403.63698
 20
464.941427
 11
403.63698
 21
483.341421
  0
LINE
  5
66E
100
AcDbEntity
  8
M0
 62
     4
100
AcDbLine
 10
403.63698
 20
474.141409
 11
406.13698
 21
475.584783
  0
LINE
  5
66F
100
AcDbEntity
  8
M0
 62
     4
100
AcDbLine
 10
403.63698
 20
472.698049
 11
406.13698
 21
474.141424
  0
LINE
  5
670
100
AcDbEntity
  8
M0
  6
DASHDOT
 62
     5
100
AcDbLine
 10
81.288045
 20
348.428604
 11
105.288045
 21
348.428604
  0
LINE
  5
671
100
AcDbEntity
  8
M0
  6
DASHDOT
 62
     5
100
AcDbLine
 10
93.288045
 20
336.428604
 11
93.288045
 21
360.428604
  0
CIRCLE
  5
672
100
AcDbEntity
  8
M0
 62
     5
100
AcDbCircle
 10
93.288045
 20
348.428604
 40
6.4
  0
CIRCLE
  5
673
100
AcDbEntity
  8
M0
 62
     5
100
AcDbCircle
 10
93.288045
 20
348.428604
 40
4.479999
  0
LINE
  5
674
100
AcDbEntity
  8
M0
  6
DASHDOT
 62
     5
100
AcDbLine
 10
81.288045
 20
163.42868
 11
105.288045
 21
163.42868
  0
LINE
  5
675
100
AcDbEntity
  8
M0
  6
DASHDOT
 62
     5
100
AcDbLine
 10
93.288045
 20
151.42868
 11
93.288045
 21
175.42868
  0
CIRCLE
  5
676
100
AcDbEntity
  8
M0
 62
     5
100
AcDbCircle
 10
93.288045
 20
163.42868
 40
6.4
  0
CIRCLE
  5
677
100
AcDbEntity
  8
M0
 62
     5
100
AcDbCircle
 10
93.288045
 20
163.42868
 40
4.479999
  0
LINE
  5
678
100
AcDbEntity
  8
M0
  6
DASHDOT
 62
     5
100
AcDbLine
 10
196.28803
 20
348.428604
 11
220.28803
 21
348.428604
  0
LINE
  5
679
100
AcDbEntity
  8
M0
  6
DASHDOT
 62
     5
100
AcDbLine
 10
208.28803
 20
336.428604
 11
208.28803
 21
363.982927
  0
CIRCLE
  5
67A
100
AcDbEntity
  8
M0
 62
     5
100
AcDbCircle
 10
208.28803
 20
348.428604
 40
6.4
  0
CIRCLE
  5
67B
100
AcDbEntity
  8
M0
 62
     5
100
AcDbCircle
 10
208.28803
 20
348.428604
 40
4.479999
  0
LINE
  5
67C
100
AcDbEntity
  8
M0
  6
DASHDOT
 62
     5
100
AcDbLine
 10
196.28803
 20
163.42868
 11
220.28803
 21
163.42868
  0
LINE
  5
67D
100
AcDbEntity
  8
M0
  6
DASHDOT
 62
     5
100
AcDbLine
 10
208.28803
 20
151.42868
 11
208.28803
 21
175.42868
  0
CIRCLE
  5
67E
100
AcDbEntity
  8
M0
 62
     5
100
AcDbCircle
 10
208.28803
 20
163.42868
 40
6.4
  0
CIRCLE
  5
67F
100
AcDbEntity
  8
M0
 62
     5
100
AcDbCircle
 10
208.28803
 20
163.42868
 40
4.479999
  0
LINE
  5
680
100
AcDbEntity
  8
M0
  6
DIVIDE
 62
     5
100
AcDbLine
 10
218.788062
 20
378.428564
 11
82.78809
 21
378.428564
  0
LINE
  5
681
100
AcDbEntity
  8
M0
  6
DIVIDE
 62
     5
100
AcDbLine
 10
82.78809
 20
378.428564
 11
82.788091
 21
361.428564
  0
LINE
  5
682
100
AcDbEntity
  8
M0
  6
DIVIDE
 62
     5
100
AcDbLine
 10
218.78806
 20
378.428564
 11
218.788062
 21
361.428564
  0
LINE
  5
683
100
AcDbEntity
  8
M0
  6
DIVIDE
 62
     5
100
AcDbLine
 10
143.768697
 20
142.986792
 11
143.768696
 21
150.328589
  0
LINE
  5
684
100
AcDbEntity
  8
M0
  6
DIVIDE
 62
     5
100
AcDbLine
 10
132.674718
 20
142.986792
 11
132.674717
 21
150.328589
  0
LINE
  5
685
100
AcDbEntity
  8
M0
  6
DIVIDE
 62
     5
100
AcDbLine
 10
132.674717
 20
150.328589
 11
81.78806
 21
150.328589
  0
LINE
  5
686
100
AcDbEntity
  8
M0
  6
DIVIDE
 62
     5
100
AcDbLine
 10
81.78806
 20
150.328589
 11
81.788045
 21
361.428564
  0
LINE
  5
687
100
AcDbEntity
  8
M0
  6
DIVIDE
 62
     5
100
AcDbLine
 10
82.788091
 20
361.428564
 11
81.788045
 21
361.428564
  0
LINE
  5
688
100
AcDbEntity
  8
M0
  6
DIVIDE
 62
     5
100
AcDbLine
 10
235.788029
 20
361.428564
 11
218.788062
 21
361.428564
  0
LINE
  5
689
100
AcDbEntity
  8
M0
  6
DIVIDE
 62
     5
100
AcDbLine
 10
235.788045
 20
150.328589
 11
143.768696
 21
150.328589
  0
LINE
  5
68A
100
AcDbEntity
  8
M0
  6
DIVIDE
 62
     5
100
AcDbLine
 10
235.788029
 20
361.428564
 11
235.788045
 21
150.328589
  0
LINE
  5
68B
100
AcDbEntity
  8
M0
  6
DIVIDE
 62
     5
100
AcDbLine
 10
143.768697
 20
142.986792
 11
132.674718
 21
142.986792
  0
LINE
  5
68C
100
AcDbEntity
  8
M1
 62
     2
100
AcDbLine
 10
28.571429
 20
28.571429
 11
28.571429
 21
814.285728
  0
LINE
  5
68D
100
AcDbEntity
  8
M1
 62
     2
100
AcDbLine
 10
28.571429
 20
814.285728
 11
571.428581
 21
814.285728
  0
LINE
  5
68E
100
AcDbEntity
  8
M1
 62
     2
100
AcDbLine
 10
571.428581
 20
814.285728
 11
571.428581
 21
28.571429
  0
LINE
  5
68F
100
AcDbEntity
  8
M1
 62
     2
100
AcDbLine
 10
571.428581
 20
28.571429
 11
28.571429
 21
28.571429
  0
LINE
  5
690
100
AcDbEntity
  8
M1
 62
     2
100
AcDbLine
 10
571.428581
 20
57.142858
 11
285.714291
 21
57.142858
  0
LINE
  5
691
100
AcDbEntity
  8
M1
 62
     2
100
AcDbLine
 10
571.428581
 20
85.714287
 11
285.714291
 21
85.714287
  0
LINE
  5
692
100
AcDbEntity
  8
M1
 62
     2
100
AcDbLine
 10
571.428581
 20
114.285716
 11
285.714291
 21
114.285716
  0
LINE
  5
693
100
AcDbEntity
  8
M1
 62
     2
100
AcDbLine
 10
285.714291
 20
28.571429
 11
285.714291
 21
114.285716
  0
TEXT
  5
694
100
AcDbEntity
  8
M1
 62
     2
100
AcDbText
 10
292.857148
 20
35.714286
 40
14.285714
  1
適　用；
 41
1.0
  7
STANDARD
100
AcDbText
  0
TEXT
  5
695
100
AcDbEntity
  8
M1
 62
     2
100
AcDbText
 10
292.857148
 20
92.857144
 40
14.285714
  1
登録名：
 41
1.0
  7
STANDARD
100
AcDbText
  0
TEXT
  5
696
100
AcDbEntity
  8
M1
 62
     2
100
AcDbText
 10
361.428578
 20
92.857144
 40
14.285714
  1
ＤＭＨ２００ＣＬＲ００
 41
0.5
  7
STANDARD
100
AcDbText
  0
TEXT
  5
697
100
AcDbEntity
  8
M1
 62
     2
100
AcDbText
 10
292.857148
 20
64.285715
 40
14.285714
  1
形　式；
 41
1.0
  7
STANDARD
100
AcDbText
  0
TEXT
  5
698
100
AcDbEntity
  8
M1
 62
     2
100
AcDbText
 10
361.428578
 20
64.285715
 40
14.285714
  1
Ｈ２００Ｃ－Ｌ，Ｈ２５０Ｃ－Ｌ，Ｈ２００Ｃ－ＬＧ，Ｈ２５０Ｃ－ＬＧ
 41
0.25
  7
STANDARD
100
AcDbText
  0
LINE
  5
699
100
AcDbEntity
  8
DN0
100
AcDbLine
 10
138.66425
 20
86.243535
 11
190.835671
 21
86.243535
  0
TEXT
  5
69A
100
AcDbEntity
  8
DN0
100
AcDbText
 10
140.107107
 20
87.529249
 40
12.857143
  1
せん孔図
 41
0.833333
  7
STANDARD
100
AcDbText
  0
ENDSEC
  0
SECTION
  2
OBJECTS
  0
DICTIONARY
  5
C
100
AcDbDictionary
  3
ACAD_GROUP
350
D
  3
ACAD_MLINESTYLE
350
E
  0
DICTIONARY
  5
D
102
{ACAD_REACTORS
330
C
102
}
100
AcDbDictionary
  0
DICTIONARY
  5
E
102
{ACAD_REACTORS
330
C
102
}
100
AcDbDictionary
  3
STANDARD
350
13
  0
MLINESTYLE
  5
13
102
{ACAD_REACTORS
330
E
102
}
100
AcDbMlineStyle
  2
STANDARD
 70
     0
  3

 62
     0
 51
90.0
 52
90.0
 71
     2
 49
0.5
 62
   256
  6
BYLAYER
 49
-0.5
 62
   256
  6
BYLAYER
  0
ENDSEC
  0
EOF
