  0
SECTION
  2
HEADER
  9
$ACADVER
  1
AC1014
  9
$INSBASE
 10
0.000000
 20
0.000000
 30
0.0
  9
$VIEWCTR
 10
7.531722
 20
4.5
  9
$VIEWSIZE
 40
9.0
  9
$SNAPMODE
 70
     0
  9
$SNAPUNIT
 10
1.0
 20
1.0
  9
$SNAPBASE
 10
0.0
 20
0.0
  9
$SNAPANG
 50
0.0
  9
$SNAPSTYLE
 70
     0
  9
$SNAPISOPAIR
 70
     0
  9
$GRIDMODE
 70
     0
  9
$GRIDUNIT
 10
0.0
 20
0.0
  9
$ORTHOMODE
 70
     0
  9
$REGENMODE
 70
     1
  9
$FILLMODE
 70
     1
  9
$QTEXTMODE
 70
     0
  9
$DRAGMODE
 70
     2
  9
$LTSCALE
  40
     1.000000
  9
$OSMODE
 70
     0
  9
$ATTMODE
 70
     1
  9
$TEXTSIZE
 40
0.2
  9
$TRACEWID
 40
0.05
  9
$TEXTSTYLE
  7
STANDARD
  9
$CELTYPE
  6
BYLAYER
  9
$CECOLOR
 62
   256
  9
$DIMSCALE
 40
1.0
  9
$DIMASZ
 40
0.18
  9
$DIMEXO
 40
0.0625
  9
$DIMDLI
 40
0.38
  9
$DIMRND
 40
0.0
  9
$DIMDLE
 40
0.0
  9
$DIMEXE
 40
0.18
  9
$DIMTP
 40
0.0
  9
$DIMTM
 40
0.0
  9
$DIMTXT
 40
0.18
  9
$DIMCEN
 40
0.09
  9
$DIMTSZ
 40
0.0
  9
$DIMTOL
 70
     0
  9
$DIMLIM
 70
     0
  9
$DIMTIH
 70
     1
  9
$DIMTOH
 70
     1
  9
$DIMSE1
 70
     0
  9
$DIMSE2
 70
     0
  9
$DIMTAD
 70
     0
  9
$DIMZIN
 70
     0
  9
$DIMBLK
  1

  9
$LUNITS
 70
     2
  9
$LUPREC
 70
     4
  9
$AXISMODE
 70
     0
  9
$AXISUNIT
 10
0.0
 20
0.0
  9
$SKETCHINC
 40
0.1
  9
$FILLETRAD
 40
0.0
  9
$AUNITS
 70
     0
  9
$AUPREC
 70
     0
  9
$MENU
  1
ACAD
  9
$ELEVATION
 40
0.0
  9
$THICKNESS
 40
0.0
  9
$VIEWDIR
 10
0.0
 20
0.0
 30
1.0
  9
$LIMCHECK
 70
     0
  9
$BLIPMODE
 70
     1
  9
$CHAMFERA
 40
0.0
  9
$CHAMFERB
 40
0.0
  9
$FASTZOOM
 70
     1
  9
$SKPOLY
 70
     0
  9
$TDCREATE
 40
0000000.0000000000
  9
$TDUPDATE
 40
0000000.0000000000
  9
$TDINDWG
 40
0.0000000000
  9
$TDUSRTIMER
 40
0.0000000000
  9
$USRTIMER
 70
     1
  9
$ANGBASE
 50
0.0
  9
$ANGDIR
 70
     0
  9
$PDMODE
 70
     0
  9
$PDSIZE
 40
0.0
  9
$PLINEWID
 40
0.0
  9
$COORDS
 70
     0
  9
$USERI1
 70
     0
  9
$USERI2
 70
     0
  9
$USERI3
 70
     0
  9
$USERI4
 70
     0
  9
$USERI5
 70
     0
  9
$USERR1
 40
0.0
  9
$USERR2
 40
0.0
  9
$USERR3
 40
0.0
  9
$USERR4
 40
0.0
  9
$USERR5
 40
0.0
  9
$CLAYER
  8
M0
  9
$EXTMIN
 10
40.0
 20
40.0
  9
$EXTMAX
 10
800.0
 20
1140.0
  9
$LIMMIN
 10
0.0
 20
0.0
  9
$LIMMAX
 10
210.0
 20
297.0
  9
$HANDSEED
  5
539
  0
ENDSEC
  0
SECTION
  2
CLASSES
  0
ENDSEC
  0
SECTION
  2
TABLES
  0
TABLE
  2
VPORT
  5
8
100
AcDbSymbolTable
 70
     2
  0
VPORT
  5
14
100
AcDbSymbolTableRecord
100
AcDbViewportTableRecord
  2
*ACTIVE
 70
     0
 10
0.0
 20
0.0
 11
1.0
 21
1.0
 12
484.0
 22
297.0
 13
0.0
 23
0.0
 14
1.0
 24
1.0
 15
0.0
 25
0.0
 16
0.0
 26
0.0
 36
1.0
 17
0.0
 27
0.0
 37
0.0
 40
594.0
 41
2.0
 42
50.0
 43
0.0
 44
0.0
 50
0.0
 51
0.0
 71
     0
 72
   100
 73
     1
 74
     1
 75
     0
 76
     0
 77
     0
 78
     0
  0
ENDTAB
  0
TABLE
  2
LTYPE
  5
5
100
AcDbSymbolTable
 70
     5
  0
LTYPE
  5
15
100
AcDbSymbolTableRecord
100
AcDbLinetypeTableRecord
  2
BYBLOCK
 70
     0
  3

 72
    65
 73
     0
 40
0.0
  0
LTYPE
  5
16
100
AcDbSymbolTableRecord
100
AcDbLinetypeTableRecord
  2
BYLAYER
 70
     0
  3

 72
    65
 73
     0
 40
0.0
  0
LTYPE
  5
17
100
AcDbSymbolTableRecord
100
AcDbLinetypeTableRecord
  2
CONTINUOUS
 70
    64
  3
Solid line
 72
    65
 73
     0
 40
0.0
  0
LTYPE
  5
18
100
AcDbSymbolTableRecord
100
AcDbLinetypeTableRecord
  2
DASHED
 70
    64
  3
__ __ __ __ __ __ __ __ __ __ __ __ __ __ __ __
 72
    65
 73
     2
 40
0.75
 49
0.5
 74
     0
 49
-0.25
 74
     0
  0
LTYPE
  5
19
100
AcDbSymbolTableRecord
100
AcDbLinetypeTableRecord
  2
DASHDOT
 70
    64
  3
__ . __ . __ . __ . __ . __ . __ . __ . __ . __
 72
    65
 73
     4
 40
1.0
 49
0.5
 74
     0
 49
-0.25
 74
     0
 49
0.0
 74
     0
 49
-0.25
 74
     0
  0
LTYPE
  5
1A
100
AcDbSymbolTableRecord
100
AcDbLinetypeTableRecord
  2
DIVIDE
 70
    64
  3
____ . . ____ . . ____ . . ____ . . ____ . . __
 72
    65
 73
     6
 40
1.25
 49
0.5
 74
     0
 49
-0.25
 74
     0
 49
0.0
 74
     0
 49
-0.25
 74
     0
 49
0.0
 74
     0
 49
-0.25
 74
     0
  0
LTYPE
  5
1B
100
AcDbSymbolTableRecord
100
AcDbLinetypeTableRecord
  2
DOT
 70
    64
  3
. . . . . . . . . . . . . . . . . . . . . . . .
 72
    65
 73
     2
 40
0.25
 49
0.0
 74
     0
 49
-0.25
 74
     0
  0
ENDTAB
  0
TABLE
  2
LAYER
  5
2
100
AcDbSymbolTable
 70
   102
  0
LAYER
  5
F
100
AcDbSymbolTableRecord
100
AcDbLayerTableRecord
  2
0
 70
     0
 62
     7
  6
CONTINUOUS
  0
LAYER
  5
1C
100
AcDbSymbolTableRecord
100
AcDbLayerTableRecord
  2
DEFPOINTS
 70
     0
 62
     7
  6
CONTINUOUS
  0
LAYER
  5
1D
100
AcDbSymbolTableRecord
100
AcDbLayerTableRecord
  2
M0
 70
     0
 62
     3
  6
CONTINUOUS
  0
LAYER
  5
1E
100
AcDbSymbolTableRecord
100
AcDbLayerTableRecord
  2
M1
 70
     0
 62
     3
  6
CONTINUOUS
  0
LAYER
  5
1F
100
AcDbSymbolTableRecord
100
AcDbLayerTableRecord
  2
DD0
 70
     0
 62
     4
  6
CONTINUOUS
  0
LAYER
  5
20
100
AcDbSymbolTableRecord
100
AcDbLayerTableRecord
  2
DN0
 70
     0
 62
     2
  6
CONTINUOUS
  0
ENDTAB
  0
TABLE
  2
STYLE
  5
3
100
AcDbSymbolTable
 70
     2
  0
STYLE
  5
10
100
AcDbSymbolTableRecord
100
AcDbTextStyleTableRecord
  2
STANDARD
 70
     0
 40
0.0
 41
1.0
 50
0.0
 71
     0
 42
0.2
  3
txt
  4
BIGFONT
  0
ENDTAB
  0
TABLE
  2
VIEW
  5
6
100
AcDbSymbolTable
 70
     0
  0
ENDTAB
  0
TABLE
  2
UCS
  5
7
100
AcDbSymbolTable
 70
     0
  0
ENDTAB
  0
TABLE
  2
APPID
  5
9
100
AcDbSymbolTable
 70
     1
  0
APPID
  5
11
100
AcDbSymbolTableRecord
100
AcDbRegAppTableRecord
  2
ACAD
 70
     0
  0
ENDTAB
  0
TABLE
  2
DIMSTYLE
  5
A
100
AcDbSymbolTable
 70
     2
  0
DIMSTYLE
105
27
100
AcDbSymbolTableRecord
100
AcDbDimStyleTableRecord
  2
STANDARD
 70
     0
  3

  4

  5

  6
_OPEN
  7
_OPEN
 40
1.0
 41
12.0
 42
1.0
 43
8.0
 44
1.0
 45
0.0
 46
0.0
 47
0.0
 48
0.0
140
12.6
141
0.09
142
0.0
143
0.03937
144
1.0
145
0.0
146
1.0
147
0.6
 71
     0
 72
     0
 73
     1
 74
     1
 75
     0
 76
     0
 77
     3
 78
     8
170
     0
171
     2
172
     0
173
     1
174
     0
175
     0
176
     0
177
     0
178
     0
270
     2
271
     2
272
     4
273
     2
274
     2
340
10
275
     0
280
     0
281
     0
282
     0
283
     1
284
     0
285
     0
286
     0
287
     3
288
     0
  0
DIMSTYLE
105
28
100
AcDbSymbolTableRecord
100
AcDbDimStyleTableRecord
  2
LEADSTYL
 70
     0
  3

  4

  5

  6
_OPEN
  7
_OPEN
 40
1.0
 41
12.0
 42
0.0625
 43
0.38
 44
0.18
 45
0.0
 46
0.0
 47
0.0
 48
0.0
140
12.6
141
0.09
142
0.0
143
25.4
144
1.0
145
0.0
146
1.0
147
0.6
 71
     0
 72
     0
 73
     1
 74
     1
 75
     0
 76
     0
 77
     0
 78
     0
170
     0
171
     2
172
     0
173
     1
174
     0
175
     0
176
     0
177
     0
178
     0
270
     2
271
     4
272
     4
273
     2
274
     2
340
10
275
     0
280
     0
281
     0
282
     0
283
     1
284
     0
285
     0
286
     0
287
     3
288
     0
  0
ENDTAB
  0
TABLE
  2
BLOCK_RECORD
  5
1
100
AcDbSymbolTable
 70
    15
  0
BLOCK_RECORD
  5
21
100
AcDbSymbolTableRecord
100
AcDbBlockTableRecord
  2
*MODEL_SPACE
  0
BLOCK_RECORD
  5
24
100
AcDbSymbolTableRecord
100
AcDbBlockTableRecord
  2
*PAPER_SPACE
  0
BLOCK_RECORD
  5
29
100
AcDbSymbolTableRecord
100
AcDbBlockTableRecord
  2
_NONE
  0
BLOCK_RECORD
  5
2D
100
AcDbSymbolTableRecord
100
AcDbBlockTableRecord
  2
_OPEN
  0
BLOCK_RECORD
  5
33
100
AcDbSymbolTableRecord
100
AcDbBlockTableRecord
  2
_CLOSED
  0
BLOCK_RECORD
  5
3A
100
AcDbSymbolTableRecord
100
AcDbBlockTableRecord
  2
_ORIGIN
  0
BLOCK_RECORD
  5
3F
100
AcDbSymbolTableRecord
100
AcDbBlockTableRecord
  2
_DOT
  0
BLOCK_RECORD
  5
47
100
AcDbSymbolTableRecord
100
AcDbBlockTableRecord
  2
_OBLIQUE
  0
BLOCK_RECORD
  5
4B
100
AcDbSymbolTableRecord
100
AcDbBlockTableRecord
  2
DIMS0
  0
BLOCK_RECORD
  5
57
100
AcDbSymbolTableRecord
100
AcDbBlockTableRecord
  2
DIMS1
  0
BLOCK_RECORD
  5
63
100
AcDbSymbolTableRecord
100
AcDbBlockTableRecord
  2
DIMS2
  0
BLOCK_RECORD
  5
6F
100
AcDbSymbolTableRecord
100
AcDbBlockTableRecord
  2
DIMS3
  0
BLOCK_RECORD
  5
78
100
AcDbSymbolTableRecord
100
AcDbBlockTableRecord
  2
DIMS4
  0
BLOCK_RECORD
  5
84
100
AcDbSymbolTableRecord
100
AcDbBlockTableRecord
  2
DIMS5
  0
BLOCK_RECORD
  5
8E
100
AcDbSymbolTableRecord
100
AcDbBlockTableRecord
  2
DIMS6
  0
BLOCK_RECORD
  5
9A
100
AcDbSymbolTableRecord
100
AcDbBlockTableRecord
  2
DIMS7
  0
BLOCK_RECORD
  5
A6
100
AcDbSymbolTableRecord
100
AcDbBlockTableRecord
  2
DIMS8
  0
ENDTAB
  0
ENDSEC
  0
SECTION
  2
BLOCKS
  0
BLOCK
  5
22
100
AcDbEntity
  8
0
100
AcDbBlockBegin
  2
*MODEL_SPACE
 70
     0
 10
0.0
 20
0.0
 30
0.0
  3
*MODEL_SPACE
  1

  0
ENDBLK
  5
23
100
AcDbEntity
  8
0
100
AcDbBlockEnd
  0
BLOCK
  5
25
100
AcDbEntity
 67
     1
  8
0
100
AcDbBlockBegin
  2
*PAPER_SPACE
 70
     0
 10
0.0
 20
0.0
 30
0.0
  3
*PAPER_SPACE
  1

  0
ENDBLK
  5
26
100
AcDbEntity
 67
     1
  8
0
100
AcDbBlockEnd
  0
BLOCK
  5
2A
100
AcDbEntity
  8
0
100
AcDbBlockBegin
  2
_NONE
 70
     0
 10
0.0
 20
0.0
  0
CIRCLE
  5
2B
100
AcDbEntity
  8
0
 62
     0
100
AcDbCircle
 10
0.0
 20
0.0
 40
0.25
  0
ENDBLK
  5
2C
100
AcDbEntity
  8
0
100
AcDbBlockEnd
  0
BLOCK
  5
2E
100
AcDbEntity
  8
0
100
AcDbBlockBegin
  2
_OPEN
 70
     0
 10
0.0
 20
0.0
  0
LINE
  5
2F
100
AcDbEntity
  8
0
 62
     0
100
AcDbLine
 10
-0.965926
 20
0.258819
 11
0.0
 21
0.0
  0
LINE
  5
30
100
AcDbEntity
  8
0
 62
     0
100
AcDbLine
 10
0.0
 20
0.0
 11
-0.965926
 21
-0.258819
  0
LINE
  5
31
100
AcDbEntity
  8
0
 62
     0
100
AcDbLine
 10
0.0
 20
0.0
 11
-1.0
 21
0.0
  0
ENDBLK
  5
32
100
AcDbEntity
  8
0
100
AcDbBlockEnd
  0
BLOCK
  5
34
100
AcDbEntity
  8
0
100
AcDbBlockBegin
  2
_CLOSED
 70
     0
 10
0.0
 20
0.0
  0
LINE
  5
35
100
AcDbEntity
  8
0
 62
     0
100
AcDbLine
 10
-0.965926
 20
0.258819
 11
0.0
 21
0.0
  0
LINE
  5
36
100
AcDbEntity
  8
0
 62
     0
100
AcDbLine
 10
0.0
 20
0.0
 11
-0.965926
 21
-0.258819
  0
LINE
  5
37
100
AcDbEntity
  8
0
 62
     0
100
AcDbLine
 10
-0.965926
 20
0.258819
 11
-0.965926
 21
-0.258819
  0
LINE
  5
38
100
AcDbEntity
  8
0
 62
     0
100
AcDbLine
 10
0.0
 20
0.0
 11
-1.0
 21
0.0
  0
ENDBLK
  5
39
100
AcDbEntity
  8
0
100
AcDbBlockEnd
  0
BLOCK
  5
3B
100
AcDbEntity
  8
0
100
AcDbBlockBegin
  2
_ORIGIN
 70
     0
 10
0.0
 20
0.0
  0
CIRCLE
  5
3C
100
AcDbEntity
  8
0
 62
     0
100
AcDbCircle
 10
0.0
 20
0.0
 40
0.5
  0
LINE
  5
3D
100
AcDbEntity
  8
0
 62
     0
100
AcDbLine
 10
0.0
 20
0.0
 11
-1.0
 21
0.0
  0
ENDBLK
  5
3E
100
AcDbEntity
  8
0
100
AcDbBlockEnd
  0
BLOCK
  5
40
100
AcDbEntity
  8
0
100
AcDbBlockBegin
  2
_DOT
 70
     0
 10
0.0
 20
0.0
  0
POLYLINE
  5
41
100
AcDbEntity
  8
0
 62
     0
100
AcDb2dPolyline
 66
     1
 70
     1
 40
0.5
 41
0.5
  0
VERTEX
  5
42
100
AcDbEntity
  8
0
 62
     0
100
AcDbVertex
100
AcDb2dVertex
 10
-0.25
 20
0.0
 42
1.0
  0
VERTEX
  5
43
100
AcDbEntity
  8
0
 62
     0
100
AcDbVertex
100
AcDb2dVertex
 10
0.25
 20
0.0
 42
1.0
  0
SEQEND
  5
44
100
AcDbEntity
  8
0
 62
     0
  0
LINE
  5
45
100
AcDbEntity
  8
0
 62
     0
100
AcDbLine
 10
-0.5
 20
0.0
 11
-1.0
 21
0.0
  0
ENDBLK
  5
46
100
AcDbEntity
  8
0
100
AcDbBlockEnd
  0
BLOCK
  5
48
100
AcDbEntity
  8
0
100
AcDbBlockBegin
  2
_OBLIQUE
 70
     0
 10
0.0
 20
0.0
  0
LINE
  5
49
100
AcDbEntity
  8
0
 62
     0
100
AcDbLine
 10
-0.353553
 20
-0.353553
 11
0.353553
 21
0.353553
  0
ENDBLK
  5
4A
100
AcDbEntity
  8
0
100
AcDbBlockEnd
  0
BLOCK
  5
4C
100
AcDbEntity
  8
DD0
100
AcDbBlockBegin
  2
DIMS0
 70
     0
 10
0.0
 20
0.0
  0
LINE
  5
4D
100
AcDbEntity
  8
DD0
100
AcDbLine
 10
84.953972
 20
965.345581
 11
84.953972
 21
1005.345215
  0
LINE
  5
4E
100
AcDbEntity
  8
DD0
100
AcDbLine
 10
414.953949
 20
965.345581
 11
414.953949
 21
1005.345215
  0
LINE
  5
4F
100
AcDbEntity
  8
DD0
100
AcDbLine
 10
96.545082
 20
1004.451043
 11
84.953972
 21
1001.345215
  0
LINE
  5
50
100
AcDbEntity
  8
DD0
100
AcDbLine
 10
84.953972
 20
1001.345215
 11
96.545082
 21
998.239386
  0
LINE
  5
51
100
AcDbEntity
  8
DD0
100
AcDbLine
 10
403.362839
 20
998.239386
 11
414.953949
 21
1001.345215
  0
LINE
  5
52
100
AcDbEntity
  8
DD0
100
AcDbLine
 10
414.953949
 20
1001.345215
 11
403.362839
 21
1004.451043
  0
LINE
  5
53
100
AcDbEntity
  8
DD0
100
AcDbLine
 10
84.953972
 20
1001.345215
 11
414.953949
 21
1001.345215
  0
TEXT
  5
54
100
AcDbEntity
  8
DD0
100
AcDbText
 10
235.673971
 20
1004.145203
 40
12.6
  1
３３０
 41
0.666667
  7
STANDARD
100
AcDbText
  0
ENDBLK
  5
55
100
AcDbEntity
  8
DD0
100
AcDbBlockEnd
  0
BLOCK
  5
58
100
AcDbEntity
  8
DD0
100
AcDbBlockBegin
  2
DIMS1
 70
     0
 10
0.0
 20
0.0
  0
LINE
  5
59
100
AcDbEntity
  8
DD0
100
AcDbLine
 10
414.953949
 20
965.345581
 11
414.953949
 21
1053.345337
  0
LINE
  5
5A
100
AcDbEntity
  8
DD0
100
AcDbLine
 10
79.954048
 20
852.84552
 11
79.954048
 21
1053.345337
  0
LINE
  5
5B
100
AcDbEntity
  8
DD0
100
AcDbLine
 10
403.362839
 20
1046.239508
 11
414.953949
 21
1049.345337
  0
LINE
  5
5C
100
AcDbEntity
  8
DD0
100
AcDbLine
 10
414.953949
 20
1049.345337
 11
403.362839
 21
1052.451166
  0
LINE
  5
5D
100
AcDbEntity
  8
DD0
100
AcDbLine
 10
91.545158
 20
1052.451166
 11
79.954048
 21
1049.345337
  0
LINE
  5
5E
100
AcDbEntity
  8
DD0
100
AcDbLine
 10
79.954048
 20
1049.345337
 11
91.545158
 21
1046.239508
  0
LINE
  5
5F
100
AcDbEntity
  8
DD0
100
AcDbLine
 10
414.953949
 20
1049.345337
 11
79.954048
 21
1049.345337
  0
TEXT
  5
60
100
AcDbEntity
  8
DD0
100
AcDbText
 10
152.533986
 20
1052.145386
 40
12.6
  1
３３５（追加補助接点ユニット付の場合）
 41
0.666667
  7
STANDARD
100
AcDbText
  0
ENDBLK
  5
61
100
AcDbEntity
  8
DD0
100
AcDbBlockEnd
  0
BLOCK
  5
64
100
AcDbEntity
  8
DD0
100
AcDbBlockBegin
  2
DIMS2
 70
     0
 10
0.0
 20
0.0
  0
LINE
  5
65
100
AcDbEntity
  8
DD0
100
AcDbLine
 10
413.953949
 20
966.345581
 11
458.953705
 21
966.345581
  0
LINE
  5
66
100
AcDbEntity
  8
DD0
100
AcDbLine
 10
413.953949
 20
676.345581
 11
458.953705
 21
676.345581
  0
LINE
  5
67
100
AcDbEntity
  8
DD0
100
AcDbLine
 10
458.059533
 20
954.754471
 11
454.953705
 21
966.345581
  0
LINE
  5
68
100
AcDbEntity
  8
DD0
100
AcDbLine
 10
454.953705
 20
966.345581
 11
451.847876
 21
954.754471
  0
LINE
  5
69
100
AcDbEntity
  8
DD0
100
AcDbLine
 10
451.847876
 20
687.936691
 11
454.953705
 21
676.345581
  0
LINE
  5
6A
100
AcDbEntity
  8
DD0
100
AcDbLine
 10
454.953705
 20
676.345581
 11
458.059533
 21
687.936691
  0
LINE
  5
6B
100
AcDbEntity
  8
DD0
100
AcDbLine
 10
454.953705
 20
966.345581
 11
454.953705
 21
676.345581
  0
TEXT
  5
6C
100
AcDbEntity
  8
DD0
100
AcDbText
 10
452.153717
 20
807.065557
 40
12.6
  1
２９０
 50
90.000003
 41
0.666667
  7
STANDARD
100
AcDbText
  0
ENDBLK
  5
6D
100
AcDbEntity
  8
DD0
100
AcDbBlockEnd
  0
BLOCK
  5
70
100
AcDbEntity
  8
DD0
100
AcDbBlockBegin
  2
DIMS3
 70
     0
 10
0.0
 20
0.0
  0
TEXT
  5
71
100
AcDbEntity
  8
DD0
100
AcDbText
 10
280.71314
 20
237.595169
 40
12.6
  1
３－Ｍ８ねじ穴
 41
0.666667
  7
STANDARD
100
AcDbText
  0
LINE
  5
72
100
AcDbEntity
  8
DD0
100
AcDbLine
 10
262.138197
 20
268.066808
 11
254.049423
 21
276.930878
  0
LINE
  5
73
100
AcDbEntity
  8
DD0
100
AcDbLine
 10
254.049423
 20
276.930878
 11
256.622472
 21
265.209981
  0
LINE
  5
74
100
AcDbEntity
  8
DD0
100
AcDbLine
 10
254.049423
 20
276.930878
 11
275.873199
 21
234.795334
  0
LINE
  5
75
100
AcDbEntity
  8
DD0
100
AcDbLine
 10
275.873322
 20
234.795349
 11
354.433228
 21
234.795349
  0
ENDBLK
  5
76
100
AcDbEntity
  8
DD0
100
AcDbBlockEnd
  0
BLOCK
  5
79
100
AcDbEntity
  8
DD0
100
AcDbBlockBegin
  2
DIMS4
 70
     0
 10
0.0
 20
0.0
  0
LINE
  5
7A
100
AcDbEntity
  8
DD0
100
AcDbLine
 10
413.953979
 20
556.315796
 11
458.953705
 21
556.315796
  0
LINE
  5
7B
100
AcDbEntity
  8
DD0
100
AcDbLine
 10
429.176147
 20
541.315552
 11
458.953705
 21
541.315552
  0
LINE
  5
7C
100
AcDbEntity
  8
DD0
100
AcDbLine
 10
451.847876
 20
567.906906
 11
454.953705
 21
556.315796
  0
LINE
  5
7D
100
AcDbEntity
  8
DD0
100
AcDbLine
 10
454.953705
 20
556.315796
 11
458.059533
 21
567.906906
  0
LINE
  5
7E
100
AcDbEntity
  8
DD0
100
AcDbLine
 10
458.059533
 20
529.724442
 11
454.953705
 21
541.315552
  0
LINE
  5
7F
100
AcDbEntity
  8
DD0
100
AcDbLine
 10
454.953705
 20
541.315552
 11
451.847876
 21
529.724442
  0
LINE
  5
80
100
AcDbEntity
  8
DD0
100
AcDbLine
 10
454.953705
 20
593.675797
 11
454.953705
 21
528.115552
  0
TEXT
  5
81
100
AcDbEntity
  8
DD0
100
AcDbText
 10
452.153717
 20
570.355779
 40
12.6
  1
１５
 50
90.000003
 41
0.666667
  7
STANDARD
100
AcDbText
  0
ENDBLK
  5
82
100
AcDbEntity
  8
DD0
100
AcDbBlockEnd
  0
BLOCK
  5
85
100
AcDbEntity
  8
DD0
100
AcDbBlockBegin
  2
DIMS5
 70
     0
 10
0.0
 20
0.0
  0
LINE
  5
86
100
AcDbEntity
  8
DD0
 60
     1
100
AcDbLine
 10
429.176147
 20
541.315552
 11
458.953705
 21
541.315552
  0
LINE
  5
87
100
AcDbEntity
  8
DD0
100
AcDbLine
 10
279.176147
 20
281.315765
 11
458.953705
 21
281.315765
  0
LINE
  5
88
100
AcDbEntity
  8
DD0
100
AcDbLine
 10
451.847876
 20
292.906875
 11
454.953705
 21
281.315765
  0
LINE
  5
89
100
AcDbEntity
  8
DD0
100
AcDbLine
 10
454.953705
 20
281.315765
 11
458.059533
 21
292.906875
  0
LINE
  5
8A
100
AcDbEntity
  8
DD0
100
AcDbLine
 10
454.953705
 20
541.315552
 11
454.953705
 21
281.315765
  0
TEXT
  5
8B
100
AcDbEntity
  8
DD0
100
AcDbText
 10
452.153717
 20
397.03568
 40
12.6
  1
２６０
 50
90.000003
 41
0.666667
  7
STANDARD
100
AcDbText
  0
ENDBLK
  5
8C
100
AcDbEntity
  8
DD0
100
AcDbBlockEnd
  0
BLOCK
  5
8F
100
AcDbEntity
  8
DD0
100
AcDbBlockBegin
  2
DIMS6
 70
     0
 10
0.0
 20
0.0
  0
LINE
  5
90
100
AcDbEntity
  8
DD0
100
AcDbLine
 10
99.953972
 20
570.53772
 11
99.953972
 21
594.760315
  0
LINE
  5
91
100
AcDbEntity
  8
DD0
100
AcDbLine
 10
399.953979
 20
570.53772
 11
399.953979
 21
594.760315
  0
LINE
  5
92
100
AcDbEntity
  8
DD0
100
AcDbLine
 10
111.545082
 20
593.866144
 11
99.953972
 21
590.760315
  0
LINE
  5
93
100
AcDbEntity
  8
DD0
100
AcDbLine
 10
99.953972
 20
590.760315
 11
111.545082
 21
587.654486
  0
LINE
  5
94
100
AcDbEntity
  8
DD0
100
AcDbLine
 10
388.36287
 20
587.654486
 11
399.953979
 21
590.760315
  0
LINE
  5
95
100
AcDbEntity
  8
DD0
100
AcDbLine
 10
399.953979
 20
590.760315
 11
388.36287
 21
593.866144
  0
LINE
  5
96
100
AcDbEntity
  8
DD0
100
AcDbLine
 10
99.953972
 20
590.760315
 11
399.953979
 21
590.760315
  0
TEXT
  5
97
100
AcDbEntity
  8
DD0
100
AcDbText
 10
235.673986
 20
593.560303
 40
12.6
  1
３００
 41
0.666667
  7
STANDARD
100
AcDbText
  0
ENDBLK
  5
98
100
AcDbEntity
  8
DD0
100
AcDbBlockEnd
  0
BLOCK
  5
9B
100
AcDbEntity
  8
DD0
100
AcDbBlockBegin
  2
DIMS7
 70
     0
 10
0.0
 20
0.0
  0
LINE
  5
9C
100
AcDbEntity
  8
DD0
100
AcDbLine
 10
700.075562
 20
970.345581
 11
700.075562
 21
1005.345215
  0
LINE
  5
9D
100
AcDbEntity
  8
DD0
100
AcDbLine
 10
696.875549
 20
970.345581
 11
696.875549
 21
1005.345215
  0
LINE
  5
9E
100
AcDbEntity
  8
DD0
100
AcDbLine
 10
711.666671
 20
1004.451043
 11
700.075562
 21
1001.345215
  0
LINE
  5
9F
100
AcDbEntity
  8
DD0
100
AcDbLine
 10
700.075562
 20
1001.345215
 11
711.666671
 21
998.239386
  0
LINE
  5
A0
100
AcDbEntity
  8
DD0
100
AcDbLine
 10
685.284439
 20
998.239386
 11
696.875549
 21
1001.345215
  0
LINE
  5
A1
100
AcDbEntity
  8
DD0
100
AcDbLine
 10
696.875549
 20
1001.345215
 11
685.284439
 21
1004.451043
  0
LINE
  5
A2
100
AcDbEntity
  8
DD0
100
AcDbLine
 10
755.075565
 20
1001.345215
 11
683.67555
 21
1001.345215
  0
TEXT
  5
A3
100
AcDbEntity
  8
DD0
100
AcDbText
 10
714.305579
 20
1003.745239
 40
12.6
  1
３．２
 41
0.833333
  7
STANDARD
100
AcDbText
  0
ENDBLK
  5
A4
100
AcDbEntity
  8
DD0
100
AcDbBlockEnd
  0
BLOCK
  5
A7
100
AcDbEntity
  8
DD0
100
AcDbBlockBegin
  2
DIMS8
 70
     0
 10
0.0
 20
0.0
  0
LINE
  5
A8
100
AcDbEntity
  8
DD0
100
AcDbLine
 10
700.075562
 20
970.345581
 11
700.075562
 21
1053.345337
  0
LINE
  5
A9
100
AcDbEntity
  8
DD0
100
AcDbLine
 10
505.475769
 20
898.345581
 11
505.475769
 21
1053.345337
  0
LINE
  5
AA
100
AcDbEntity
  8
DD0
100
AcDbLine
 10
688.484452
 20
1046.239508
 11
700.075562
 21
1049.345337
  0
LINE
  5
AB
100
AcDbEntity
  8
DD0
100
AcDbLine
 10
700.075562
 20
1049.345337
 11
688.484452
 21
1052.451166
  0
LINE
  5
AC
100
AcDbEntity
  8
DD0
100
AcDbLine
 10
517.066879
 20
1052.451166
 11
505.475769
 21
1049.345337
  0
LINE
  5
AD
100
AcDbEntity
  8
DD0
100
AcDbLine
 10
505.475769
 20
1049.345337
 11
517.066879
 21
1046.239508
  0
LINE
  5
AE
100
AcDbEntity
  8
DD0
100
AcDbLine
 10
700.075562
 20
1049.345337
 11
505.475769
 21
1049.345337
  0
TEXT
  5
AF
100
AcDbEntity
  8
DD0
100
AcDbText
 10
584.905615
 20
1051.745361
 40
12.6
  1
１９８
 41
0.833333
  7
STANDARD
100
AcDbText
  0
ENDBLK
  5
B0
100
AcDbEntity
  8
DD0
100
AcDbBlockEnd
  0
ENDSEC
  0
SECTION
  2
ENTITIES
  0
INSERT
  5
56
100
AcDbEntity
  8
DD0
100
AcDbBlockReference
  2
DIMS0
 10
0.0
 20
0.0
  0
INSERT
  5
62
100
AcDbEntity
  8
DD0
100
AcDbBlockReference
  2
DIMS1
 10
0.0
 20
0.0
  0
INSERT
  5
6E
100
AcDbEntity
  8
DD0
100
AcDbBlockReference
  2
DIMS2
 10
0.0
 20
0.0
  0
INSERT
  5
77
100
AcDbEntity
  8
DD0
100
AcDbBlockReference
  2
DIMS3
 10
0.0
 20
0.0
  0
INSERT
  5
83
100
AcDbEntity
  8
DD0
100
AcDbBlockReference
  2
DIMS4
 10
0.0
 20
0.0
  0
INSERT
  5
8D
100
AcDbEntity
  8
DD0
100
AcDbBlockReference
  2
DIMS5
 10
0.0
 20
0.0
  0
INSERT
  5
99
100
AcDbEntity
  8
DD0
100
AcDbBlockReference
  2
DIMS6
 10
0.0
 20
0.0
  0
INSERT
  5
A5
100
AcDbEntity
  8
DD0
100
AcDbBlockReference
  2
DIMS7
 10
0.0
 20
0.0
  0
INSERT
  5
B1
100
AcDbEntity
  8
DD0
100
AcDbBlockReference
  2
DIMS8
 10
0.0
 20
0.0
  0
LINE
  5
B2
100
AcDbEntity
  8
M0
 62
     5
100
AcDbLine
 10
230.203968
 20
794.095557
 11
230.203968
 21
808.095557
  0
LINE
  5
B3
100
AcDbEntity
  8
M0
 62
     5
100
AcDbLine
 10
248.703922
 20
794.095557
 11
248.703922
 21
831.095557
  0
LINE
  5
B4
100
AcDbEntity
  8
M0
 62
     5
100
AcDbLine
 10
230.203968
 20
841.595801
 11
230.203968
 21
848.595557
  0
LINE
  5
B5
100
AcDbEntity
  8
M0
 62
     5
100
AcDbLine
 10
230.204243
 20
848.595557
 11
248.703922
 21
848.595557
  0
LINE
  5
B6
100
AcDbEntity
  8
M0
 62
     5
100
AcDbLine
 10
230.203724
 20
794.095557
 11
248.703922
 21
794.095557
  0
LINE
  5
B7
100
AcDbEntity
  8
M0
 62
     5
100
AcDbLine
 10
241.203968
 20
834.595557
 11
248.703922
 21
834.595557
  0
LINE
  5
B8
100
AcDbEntity
  8
M0
 62
     5
100
AcDbLine
 10
230.203724
 20
808.095557
 11
237.703922
 21
808.095557
  0
LINE
  5
B9
100
AcDbEntity
  8
M0
 62
     5
100
AcDbLine
 10
230.204243
 20
822.595557
 11
241.203968
 21
822.595557
  0
LINE
  5
BA
100
AcDbEntity
  8
M0
 62
     5
100
AcDbLine
 10
237.703922
 20
820.095557
 11
248.703922
 21
820.095557
  0
LINE
  5
BB
100
AcDbEntity
  8
M0
 62
     5
100
AcDbLine
 10
241.203968
 20
822.595557
 11
241.203968
 21
841.595557
  0
LINE
  5
BC
100
AcDbEntity
  8
M0
 62
     5
100
AcDbLine
 10
237.703922
 20
801.095557
 11
237.703922
 21
820.095557
  0
LINE
  5
BD
100
AcDbEntity
  8
M0
 62
     5
100
AcDbLine
 10
235.203968
 20
811.595557
 11
235.203968
 21
822.595557
  0
LINE
  5
BE
100
AcDbEntity
  8
M0
 62
     5
100
AcDbLine
 10
243.703922
 20
820.095557
 11
243.703922
 21
831.095557
  0
LINE
  5
BF
100
AcDbEntity
  8
M0
 62
     5
100
AcDbLine
 10
230.204243
 20
811.595557
 11
235.203968
 21
811.595557
  0
LINE
  5
C0
100
AcDbEntity
  8
M0
 62
     5
100
AcDbLine
 10
243.703922
 20
831.095557
 11
248.703922
 21
831.095557
  0
LINE
  5
C1
100
AcDbEntity
  8
M0
 62
     5
100
AcDbLine
 10
230.203968
 20
811.595557
 11
230.203968
 21
848.595557
  0
LINE
  5
C2
100
AcDbEntity
  8
M0
 62
     5
100
AcDbLine
 10
248.703922
 20
834.595557
 11
248.703922
 21
848.595557
  0
LINE
  5
C3
100
AcDbEntity
  8
M0
 62
     4
100
AcDbLine
 10
89.953968
 20
966.345557
 11
84.953968
 21
961.345557
  0
LINE
  5
C4
100
AcDbEntity
  8
M0
 62
     4
100
AcDbLine
 10
84.953968
 20
961.345557
 11
84.953968
 21
681.345557
  0
LINE
  5
C5
100
AcDbEntity
  8
M0
 62
     4
100
AcDbLine
 10
84.953968
 20
681.345557
 11
89.953968
 21
676.345557
  0
LINE
  5
C6
100
AcDbEntity
  8
M0
 62
     4
100
AcDbLine
 10
104.953968
 20
696.345557
 11
104.953968
 21
676.345557
  0
LINE
  5
C7
100
AcDbEntity
  8
M0
 62
     4
100
AcDbLine
 10
84.953968
 20
706.345557
 11
94.953968
 21
706.345557
  0
ARC
  5
C8
100
AcDbEntity
  8
M0
 62
     4
100
AcDbCircle
 10
94.953968
 20
696.345557
 40
10.0
100
AcDbArc
 50
0.0
 51
89.999913
  0
CIRCLE
  5
C9
100
AcDbEntity
  8
M0
 62
     4
100
AcDbCircle
 10
99.953968
 20
951.345557
 40
4.5
  0
LINE
  5
CA
100
AcDbEntity
  8
M0
  6
DASHDOT
 62
     4
100
AcDbLine
 10
91.453968
 20
951.345557
 11
108.453968
 21
951.345557
  0
LINE
  5
CB
100
AcDbEntity
  8
M0
  6
DASHDOT
 62
     4
100
AcDbLine
 10
99.953968
 20
942.845557
 11
99.953968
 21
959.845557
  0
LINE
  5
CC
100
AcDbEntity
  8
M0
 62
     4
100
AcDbLine
 10
409.953953
 20
966.345557
 11
89.953968
 21
966.345557
  0
LINE
  5
CD
100
AcDbEntity
  8
M0
 62
     4
100
AcDbLine
 10
409.953953
 20
966.345557
 11
414.953953
 21
961.345557
  0
LINE
  5
CE
100
AcDbEntity
  8
M0
 62
     4
100
AcDbLine
 10
414.953953
 20
961.345557
 11
414.953953
 21
681.345557
  0
LINE
  5
CF
100
AcDbEntity
  8
M0
 62
     4
100
AcDbLine
 10
89.953968
 20
676.345557
 11
409.953953
 21
676.345557
  0
LINE
  5
D0
100
AcDbEntity
  8
M0
 62
     4
100
AcDbLine
 10
414.953953
 20
681.345557
 11
409.953953
 21
676.345557
  0
LINE
  5
D1
100
AcDbEntity
  8
M0
 62
     4
100
AcDbLine
 10
414.953953
 20
938.345557
 11
84.953968
 21
938.345557
  0
LINE
  5
D2
100
AcDbEntity
  8
M0
 62
     4
100
AcDbLine
 10
394.953953
 20
696.345557
 11
394.953953
 21
676.345557
  0
LINE
  5
D3
100
AcDbEntity
  8
M0
 62
     4
100
AcDbLine
 10
414.953953
 20
706.345557
 11
404.953953
 21
706.345557
  0
ARC
  5
D4
100
AcDbEntity
  8
M0
 62
     4
100
AcDbCircle
 10
404.953953
 20
696.345557
 40
10.0
100
AcDbArc
 50
90.0
 51
179.998601
  0
CIRCLE
  5
D5
100
AcDbEntity
  8
M0
 62
     4
100
AcDbCircle
 10
399.953953
 20
951.345557
 40
4.5
  0
LINE
  5
D6
100
AcDbEntity
  8
M0
  6
DASHDOT
 62
     4
100
AcDbLine
 10
408.453953
 20
951.345557
 11
391.453953
 21
951.345557
  0
LINE
  5
D7
100
AcDbEntity
  8
M0
  6
DASHDOT
 62
     4
100
AcDbLine
 10
399.953953
 20
942.845557
 11
399.953953
 21
959.845557
  0
CIRCLE
  5
D8
100
AcDbEntity
  8
M0
 62
     4
100
AcDbCircle
 10
249.953968
 20
691.345557
 40
4.5
  0
LINE
  5
D9
100
AcDbEntity
  8
M0
  6
DASHDOT
 62
     4
100
AcDbLine
 10
241.453968
 20
691.345557
 11
258.453968
 21
691.345557
  0
LINE
  5
DA
100
AcDbEntity
  8
M0
  6
DASHDOT
 62
     4
100
AcDbLine
 10
249.953968
 20
661.315771
 11
249.953968
 21
976.060562
  0
LINE
  5
DB
100
AcDbEntity
  8
M0
 62
     4
100
AcDbLine
 10
234.953968
 20
676.345557
 11
234.953968
 21
691.345557
  0
LINE
  5
DC
100
AcDbEntity
  8
M0
 62
     4
100
AcDbLine
 10
264.953968
 20
676.345557
 11
264.953968
 21
691.345557
  0
ARC
  5
DD
100
AcDbEntity
  8
M0
 62
     4
100
AcDbCircle
 10
249.953968
 20
691.345557
 40
15.0
100
AcDbArc
 50
0.0
 51
179.999067
  0
CIRCLE
  5
DE
100
AcDbEntity
  8
M0
 62
     4
100
AcDbCircle
 10
185.953968
 20
926.345557
 40
4.0
  0
LINE
  5
DF
100
AcDbEntity
  8
M0
  6
DASHDOT
 62
     4
100
AcDbLine
 10
177.953968
 20
926.345557
 11
193.953968
 21
926.345557
  0
LINE
  5
E0
100
AcDbEntity
  8
M0
  6
DASHDOT
 62
     4
100
AcDbLine
 10
185.953968
 20
918.345557
 11
185.953968
 21
934.345557
  0
CIRCLE
  5
E1
100
AcDbEntity
  8
M0
 62
     4
100
AcDbCircle
 10
135.953968
 20
926.345557
 40
4.0
  0
LINE
  5
E2
100
AcDbEntity
  8
M0
  6
DASHDOT
 62
     4
100
AcDbLine
 10
127.953968
 20
926.345557
 11
143.953968
 21
926.345557
  0
LINE
  5
E3
100
AcDbEntity
  8
M0
  6
DASHDOT
 62
     4
100
AcDbLine
 10
135.953968
 20
918.345557
 11
135.953968
 21
934.345557
  0
CIRCLE
  5
E4
100
AcDbEntity
  8
M0
 62
     4
100
AcDbCircle
 10
292.953968
 20
926.345557
 40
4.0
  0
LINE
  5
E5
100
AcDbEntity
  8
M0
  6
DASHDOT
 62
     4
100
AcDbLine
 10
284.953968
 20
926.345557
 11
300.953968
 21
926.345557
  0
LINE
  5
E6
100
AcDbEntity
  8
M0
  6
DASHDOT
 62
     4
100
AcDbLine
 10
292.953968
 20
918.345557
 11
292.953968
 21
934.345557
  0
CIRCLE
  5
E7
100
AcDbEntity
  8
M0
 62
     4
100
AcDbCircle
 10
342.953968
 20
926.345557
 40
4.0
  0
LINE
  5
E8
100
AcDbEntity
  8
M0
  6
DASHDOT
 62
     4
100
AcDbLine
 10
334.953968
 20
926.345557
 11
350.953968
 21
926.345557
  0
LINE
  5
E9
100
AcDbEntity
  8
M0
  6
DASHDOT
 62
     4
100
AcDbLine
 10
342.953968
 20
918.345557
 11
342.953968
 21
934.345557
  0
CIRCLE
  5
EA
100
AcDbEntity
  8
M0
 62
     4
100
AcDbCircle
 10
135.953968
 20
716.345557
 40
4.0
  0
LINE
  5
EB
100
AcDbEntity
  8
M0
  6
DASHDOT
 62
     4
100
AcDbLine
 10
127.953968
 20
716.345557
 11
143.953968
 21
716.345557
  0
LINE
  5
EC
100
AcDbEntity
  8
M0
  6
DASHDOT
 62
     4
100
AcDbLine
 10
135.953968
 20
708.345557
 11
135.953968
 21
724.345557
  0
CIRCLE
  5
ED
100
AcDbEntity
  8
M0
 62
     4
100
AcDbCircle
 10
185.953968
 20
716.345557
 40
4.0
  0
LINE
  5
EE
100
AcDbEntity
  8
M0
  6
DASHDOT
 62
     4
100
AcDbLine
 10
177.953968
 20
716.345557
 11
193.953968
 21
716.345557
  0
LINE
  5
EF
100
AcDbEntity
  8
M0
  6
DASHDOT
 62
     4
100
AcDbLine
 10
185.953968
 20
708.345557
 11
185.953968
 21
724.345557
  0
CIRCLE
  5
F0
100
AcDbEntity
  8
M0
 62
     4
100
AcDbCircle
 10
292.953968
 20
716.345557
 40
4.0
  0
LINE
  5
F1
100
AcDbEntity
  8
M0
  6
DASHDOT
 62
     4
100
AcDbLine
 10
284.953968
 20
716.345557
 11
300.953968
 21
716.345557
  0
LINE
  5
F2
100
AcDbEntity
  8
M0
  6
DASHDOT
 62
     4
100
AcDbLine
 10
292.953968
 20
708.345557
 11
292.953968
 21
724.345557
  0
CIRCLE
  5
F3
100
AcDbEntity
  8
M0
 62
     4
100
AcDbCircle
 10
342.953968
 20
716.345557
 40
4.0
  0
LINE
  5
F4
100
AcDbEntity
  8
M0
  6
DASHDOT
 62
     4
100
AcDbLine
 10
334.953968
 20
716.345557
 11
350.953968
 21
716.345557
  0
LINE
  5
F5
100
AcDbEntity
  8
M0
  6
DASHDOT
 62
     4
100
AcDbLine
 10
342.953968
 20
708.345557
 11
342.953968
 21
724.345557
  0
LINE
  5
F6
100
AcDbEntity
  8
M0
 62
     4
100
AcDbLine
 10
700.07555
 20
966.345557
 11
696.87555
 21
966.345557
  0
ARC
  5
F7
100
AcDbEntity
  8
M0
 62
     4
100
AcDbCircle
 10
697.275551
 20
934.145361
 40
1.0
100
AcDbArc
 50
90.0
 51
180.0
  0
LINE
  5
F8
100
AcDbEntity
  8
M0
 62
     4
100
AcDbLine
 10
696.87555
 20
966.345557
 11
696.87555
 21
939.345557
  0
LINE
  5
F9
100
AcDbEntity
  8
M0
 62
     4
100
AcDbLine
 10
697.275551
 20
935.145361
 11
697.57555
 21
935.145361
  0
LINE
  5
FA
100
AcDbEntity
  8
M0
 62
     4
100
AcDbLine
 10
700.07555
 20
937.645361
 11
700.07555
 21
966.345557
  0
ARC
  5
FB
100
AcDbEntity
  8
M0
 62
     4
100
AcDbCircle
 10
697.57555
 20
937.645361
 40
2.5
100
AcDbArc
 50
270.0
 51
360.0
  0
ARC
  5
FC
100
AcDbEntity
  8
M0
 62
     4
100
AcDbCircle
 10
695.87555
 20
939.345557
 40
1.0
100
AcDbArc
 50
270.0
 51
360.0
  0
LINE
  5
FD
100
AcDbEntity
  8
M0
 62
     4
100
AcDbLine
 10
695.87555
 20
938.345557
 11
695.575551
 21
938.345557
  0
ARC
  5
FE
100
AcDbEntity
  8
M0
 62
     4
100
AcDbCircle
 10
695.575551
 20
935.845557
 40
2.5
100
AcDbArc
 50
90.0
 51
180.0
  0
LINE
  5
FF
100
AcDbEntity
  8
M0
 62
     4
100
AcDbLine
 10
693.075551
 20
935.845557
 11
693.075551
 21
708.845557
  0
ARC
  5
100
100
AcDbEntity
  8
M0
 62
     4
100
AcDbCircle
 10
695.575551
 20
708.845557
 40
2.5
100
AcDbArc
 50
180.0
 51
270.0
  0
LINE
  5
101
100
AcDbEntity
  8
M0
 62
     4
100
AcDbLine
 10
696.275551
 20
710.545553
 11
696.275551
 21
934.145361
  0
ARC
  5
102
100
AcDbEntity
  8
M0
 62
     4
100
AcDbCircle
 10
697.275551
 20
710.545553
 40
1.0
100
AcDbArc
 50
180.0
 51
270.0
  0
LINE
  5
103
100
AcDbEntity
  8
M0
 62
     4
100
AcDbLine
 10
695.575551
 20
706.345557
 11
695.87555
 21
706.345557
  0
LINE
  5
104
100
AcDbEntity
  8
M0
 62
     4
100
AcDbLine
 10
696.87555
 20
676.345557
 11
700.07555
 21
676.345557
  0
LINE
  5
105
100
AcDbEntity
  8
M0
 62
     4
100
AcDbLine
 10
700.07555
 20
676.345557
 11
700.07555
 21
707.045553
  0
ARC
  5
106
100
AcDbEntity
  8
M0
 62
     4
100
AcDbCircle
 10
697.57555
 20
707.045553
 40
2.5
100
AcDbArc
 50
0.0
 51
90.0
  0
LINE
  5
107
100
AcDbEntity
  8
M0
 62
     4
100
AcDbLine
 10
697.57555
 20
709.545553
 11
697.275551
 21
709.545553
  0
LINE
  5
108
100
AcDbEntity
  8
M0
 62
     4
100
AcDbLine
 10
696.87555
 20
705.345557
 11
696.87555
 21
676.345557
  0
ARC
  5
109
100
AcDbEntity
  8
M0
 62
     4
100
AcDbCircle
 10
695.87555
 20
705.345557
 40
1.0
100
AcDbArc
 50
0.0
 51
90.0
  0
LINE
  5
10A
100
AcDbEntity
  8
M0
 62
     7
100
AcDbLine
 10
229.954029
 20
711.34548
 11
229.954029
 21
931.345465
  0
LINE
  5
10B
100
AcDbEntity
  8
M0
 62
     7
100
AcDbLine
 10
224.954029
 20
936.345465
 11
96.954044
 21
936.345465
  0
LINE
  5
10C
100
AcDbEntity
  8
M0
 62
     7
100
AcDbLine
 10
91.954044
 20
931.345465
 11
91.954044
 21
711.34548
  0
LINE
  5
10D
100
AcDbEntity
  8
M0
 62
     7
100
AcDbLine
 10
96.954044
 20
706.34548
 11
224.954029
 21
706.34548
  0
ARC
  5
10E
100
AcDbEntity
  8
M0
 62
     7
100
AcDbCircle
 10
224.954029
 20
931.345465
 40
5.0
100
AcDbArc
 50
0.0
 51
90.0
  0
ARC
  5
10F
100
AcDbEntity
  8
M0
 62
     7
100
AcDbCircle
 10
96.954044
 20
931.345465
 40
5.0
100
AcDbArc
 50
89.999825
 51
180.0
  0
ARC
  5
110
100
AcDbEntity
  8
M0
 62
     7
100
AcDbCircle
 10
96.954044
 20
711.34548
 40
5.0
100
AcDbArc
 50
179.999825
 51
270.0
  0
ARC
  5
111
100
AcDbEntity
  8
M0
 62
     7
100
AcDbCircle
 10
224.954029
 20
711.34548
 40
5.0
100
AcDbArc
 50
269.999825
 51
360.0
  0
LINE
  5
112
100
AcDbEntity
  8
M0
 62
     7
100
AcDbLine
 10
175.954038
 20
936.345465
 11
175.954038
 21
926.345465
  0
LINE
  5
113
100
AcDbEntity
  8
M0
 62
     7
100
AcDbLine
 10
195.954029
 20
936.345465
 11
195.954029
 21
926.345465
  0
ARC
  5
114
100
AcDbEntity
  8
M0
 62
     7
100
AcDbCircle
 10
185.954029
 20
926.345465
 40
10.0
100
AcDbArc
 50
180.0
 51
269.999913
  0
ARC
  5
115
100
AcDbEntity
  8
M0
 62
     7
100
AcDbCircle
 10
185.954029
 20
926.345465
 40
10.0
100
AcDbArc
 50
269.999913
 51
360.0
  0
CIRCLE
  5
116
100
AcDbEntity
  8
M0
 62
     7
100
AcDbCircle
 10
185.954029
 20
926.345465
 40
4.5
  0
ARC
  5
117
100
AcDbEntity
  8
M0
 62
     7
100
AcDbCircle
 10
135.954044
 20
926.345465
 40
10.0
100
AcDbArc
 50
-90.0
 51
0.0
  0
ARC
  5
118
100
AcDbEntity
  8
M0
 62
     7
100
AcDbCircle
 10
135.954044
 20
926.345465
 40
10.0
100
AcDbArc
 50
180.0
 51
270.0
  0
LINE
  5
119
100
AcDbEntity
  8
M0
 62
     7
100
AcDbLine
 10
145.954044
 20
936.345465
 11
145.954044
 21
926.345465
  0
LINE
  5
11A
100
AcDbEntity
  8
M0
 62
     7
100
AcDbLine
 10
125.954044
 20
936.345465
 11
125.954044
 21
926.345465
  0
CIRCLE
  5
11B
100
AcDbEntity
  8
M0
 62
     7
100
AcDbCircle
 10
135.954044
 20
926.345465
 40
4.5
  0
ARC
  5
11C
100
AcDbEntity
  8
M0
 62
     7
100
AcDbCircle
 10
135.954044
 20
716.34548
 40
10.0
100
AcDbArc
 50
0.0
 51
89.999913
  0
ARC
  5
11D
100
AcDbEntity
  8
M0
 62
     7
100
AcDbCircle
 10
135.954044
 20
716.34548
 40
10.0
100
AcDbArc
 50
89.999913
 51
179.999913
  0
LINE
  5
11E
100
AcDbEntity
  8
M0
 62
     7
100
AcDbLine
 10
145.954044
 20
706.34548
 11
145.954044
 21
716.34548
  0
LINE
  5
11F
100
AcDbEntity
  8
M0
 62
     7
100
AcDbLine
 10
125.954044
 20
706.34548
 11
125.954044
 21
716.34548
  0
CIRCLE
  5
120
100
AcDbEntity
  8
M0
 62
     7
100
AcDbCircle
 10
135.954044
 20
716.34548
 40
4.5
  0
ARC
  5
121
100
AcDbEntity
  8
M0
 62
     7
100
AcDbCircle
 10
185.954029
 20
716.34548
 40
10.0
100
AcDbArc
 50
90.0
 51
179.999913
  0
ARC
  5
122
100
AcDbEntity
  8
M0
 62
     7
100
AcDbCircle
 10
185.954029
 20
716.34548
 40
10.0
100
AcDbArc
 50
0.0
 51
90.0
  0
LINE
  5
123
100
AcDbEntity
  8
M0
 62
     7
100
AcDbLine
 10
175.954038
 20
706.34548
 11
175.954038
 21
716.34548
  0
LINE
  5
124
100
AcDbEntity
  8
M0
 62
     7
100
AcDbLine
 10
195.954029
 20
706.34548
 11
195.954029
 21
716.34548
  0
CIRCLE
  5
125
100
AcDbEntity
  8
M0
 62
     7
100
AcDbCircle
 10
185.954029
 20
716.34548
 40
4.5
  0
CIRCLE
  5
126
100
AcDbEntity
  8
M0
 62
     7
100
AcDbCircle
 10
185.954029
 20
736.34548
 40
3.0
  0
CIRCLE
  5
127
100
AcDbEntity
  8
M0
 62
     7
100
AcDbCircle
 10
135.954044
 20
736.34548
 40
3.0
  0
ARC
  5
128
100
AcDbEntity
  8
M0
 62
     7
100
AcDbCircle
 10
213.954029
 20
884.345465
 40
2.0
100
AcDbArc
 50
0.0
 51
90.0
  0
ARC
  5
129
100
AcDbEntity
  8
M0
 62
     7
100
AcDbCircle
 10
205.954029
 20
884.345465
 40
2.0
100
AcDbArc
 50
90.0
 51
180.0
  0
LINE
  5
12A
100
AcDbEntity
  8
M0
 62
     7
100
AcDbLine
 10
203.954029
 20
884.345465
 11
203.954029
 21
882.345465
  0
ARC
  5
12B
100
AcDbEntity
  8
M0
 62
     7
100
AcDbCircle
 10
188.954029
 20
887.345465
 40
1.0
100
AcDbArc
 50
180.0
 51
269.999126
  0
LINE
  5
12C
100
AcDbEntity
  8
M0
 62
     7
100
AcDbLine
 10
203.954029
 20
882.345465
 11
187.954029
 21
882.345465
  0
LINE
  5
12D
100
AcDbEntity
  8
M0
 62
     7
100
AcDbLine
 10
187.954029
 20
882.345465
 11
187.954029
 21
894.345465
  0
ARC
  5
12E
100
AcDbEntity
  8
M0
 62
     7
100
AcDbCircle
 10
185.954029
 20
894.345465
 40
2.0
100
AcDbArc
 50
0.0
 51
90.0
  0
ARC
  5
12F
100
AcDbEntity
  8
M0
 62
     7
100
AcDbCircle
 10
175.954038
 20
894.345465
 40
2.0
100
AcDbArc
 50
90.0
 51
180.0
  0
ARC
  5
130
100
AcDbEntity
  8
M0
 62
     7
100
AcDbCircle
 10
172.954038
 20
887.345465
 40
1.0
100
AcDbArc
 50
270.0
 51
360.0
  0
LINE
  5
131
100
AcDbEntity
  8
M0
 62
     7
100
AcDbLine
 10
168.954038
 20
885.345465
 11
168.954038
 21
882.345465
  0
ARC
  5
132
100
AcDbEntity
  8
M0
 62
     7
100
AcDbCircle
 10
169.954038
 20
885.345465
 40
1.0
100
AcDbArc
 50
90.0
 51
180.0
  0
LINE
  5
133
100
AcDbEntity
  8
M0
 62
     7
100
AcDbLine
 10
173.954038
 20
887.345465
 11
173.954038
 21
894.345465
  0
LINE
  5
134
100
AcDbEntity
  8
M0
 62
     7
100
AcDbLine
 10
213.954029
 20
886.345465
 11
188.954029
 21
886.345465
  0
LINE
  5
135
100
AcDbEntity
  8
M0
 62
     7
100
AcDbLine
 10
203.954029
 20
758.34548
 11
203.954029
 21
760.345465
  0
ARC
  5
136
100
AcDbEntity
  8
M0
 62
     7
100
AcDbCircle
 10
205.954029
 20
758.34548
 40
2.0
100
AcDbArc
 50
179.999563
 51
269.999563
  0
ARC
  5
137
100
AcDbEntity
  8
M0
 62
     7
100
AcDbCircle
 10
213.954029
 20
758.34548
 40
2.0
100
AcDbArc
 50
-90.000437
 51
0.0
  0
ARC
  5
138
100
AcDbEntity
  8
M0
 62
     7
100
AcDbCircle
 10
185.954029
 20
748.34548
 40
2.0
100
AcDbArc
 50
269.999563
 51
360.0
  0
LINE
  5
139
100
AcDbEntity
  8
M0
 62
     7
100
AcDbLine
 10
175.954038
 20
746.34548
 11
185.954029
 21
746.34548
  0
LINE
  5
13A
100
AcDbEntity
  8
M0
 62
     7
100
AcDbLine
 10
203.954029
 20
760.345465
 11
187.954029
 21
760.345465
  0
LINE
  5
13B
100
AcDbEntity
  8
M0
 62
     7
100
AcDbLine
 10
215.954029
 20
758.34548
 11
215.954029
 21
884.345465
  0
LINE
  5
13C
100
AcDbEntity
  8
M0
 62
     7
100
AcDbLine
 10
168.954038
 20
882.345465
 11
160.954044
 21
882.345465
  0
LINE
  5
13D
100
AcDbEntity
  8
M0
 62
     7
100
AcDbLine
 10
168.954038
 20
760.345465
 11
160.954044
 21
760.345465
  0
LINE
  5
13E
100
AcDbEntity
  8
M0
 62
     7
100
AcDbLine
 10
168.954038
 20
757.34548
 11
168.954038
 21
760.345465
  0
ARC
  5
13F
100
AcDbEntity
  8
M0
 62
     7
100
AcDbCircle
 10
169.954038
 20
757.34548
 40
1.0
100
AcDbArc
 50
179.999126
 51
270.0
  0
LINE
  5
140
100
AcDbEntity
  8
M0
 62
     7
100
AcDbLine
 10
213.954029
 20
756.34548
 11
187.954029
 21
756.34548
  0
LINE
  5
141
100
AcDbEntity
  8
M0
 62
     7
100
AcDbLine
 10
185.954029
 20
896.345465
 11
175.954038
 21
896.345465
  0
LINE
  5
142
100
AcDbEntity
  8
M0
 62
     7
100
AcDbLine
 10
173.954038
 20
756.34548
 11
160.954044
 21
756.34548
  0
LINE
  5
143
100
AcDbEntity
  8
M0
 62
     7
100
AcDbLine
 10
172.954038
 20
886.345465
 11
160.954044
 21
886.345465
  0
CIRCLE
  5
144
100
AcDbEntity
  8
M0
 62
     7
100
AcDbCircle
 10
180.954029
 20
888.345465
 40
1.86
  0
CIRCLE
  5
145
100
AcDbEntity
  8
M0
 62
     7
100
AcDbCircle
 10
180.954029
 20
754.34548
 40
4.5
  0
CIRCLE
  5
146
100
AcDbEntity
  8
M0
 62
     7
100
AcDbCircle
 10
180.954029
 20
888.345465
 40
1.36
  0
CIRCLE
  5
147
100
AcDbEntity
  8
M0
 62
     7
100
AcDbCircle
 10
180.954029
 20
754.34548
 40
2.25
  0
LINE
  5
148
100
AcDbEntity
  8
M0
 62
     7
100
AcDbLine
 10
173.954038
 20
756.34548
 11
173.954038
 21
748.34548
  0
ARC
  5
149
100
AcDbEntity
  8
M0
 62
     7
100
AcDbCircle
 10
175.954038
 20
748.34548
 40
2.0
100
AcDbArc
 50
179.999563
 51
270.0
  0
LINE
  5
14A
100
AcDbEntity
  8
M0
 62
     7
100
AcDbLine
 10
187.954029
 20
760.345465
 11
187.954029
 21
748.34548
  0
ARC
  5
14B
100
AcDbEntity
  8
M0
 62
     7
100
AcDbCircle
 10
107.954044
 20
758.34548
 40
2.0
100
AcDbArc
 50
179.999563
 51
270.0
  0
ARC
  5
14C
100
AcDbEntity
  8
M0
 62
     7
100
AcDbCircle
 10
115.954044
 20
758.34548
 40
2.0
100
AcDbArc
 50
270.0
 51
360.0
  0
LINE
  5
14D
100
AcDbEntity
  8
M0
 62
     7
100
AcDbLine
 10
117.954044
 20
758.34548
 11
117.954044
 21
760.345465
  0
ARC
  5
14E
100
AcDbEntity
  8
M0
 62
     7
100
AcDbCircle
 10
132.954044
 20
755.34548
 40
1.0
100
AcDbArc
 50
0.0
 51
89.999126
  0
LINE
  5
14F
100
AcDbEntity
  8
M0
 62
     7
100
AcDbLine
 10
117.954044
 20
760.345465
 11
133.954044
 21
760.345465
  0
LINE
  5
150
100
AcDbEntity
  8
M0
 62
     7
100
AcDbLine
 10
133.954044
 20
760.345465
 11
133.954044
 21
748.34548
  0
ARC
  5
151
100
AcDbEntity
  8
M0
 62
     7
100
AcDbCircle
 10
135.954044
 20
748.34548
 40
2.0
100
AcDbArc
 50
179.999563
 51
270.0
  0
ARC
  5
152
100
AcDbEntity
  8
M0
 62
     7
100
AcDbCircle
 10
145.954044
 20
748.34548
 40
2.0
100
AcDbArc
 50
270.0
 51
360.0
  0
ARC
  5
153
100
AcDbEntity
  8
M0
 62
     7
100
AcDbCircle
 10
148.954044
 20
755.34548
 40
1.0
100
AcDbArc
 50
90.0
 51
179.999126
  0
LINE
  5
154
100
AcDbEntity
  8
M0
 62
     7
100
AcDbLine
 10
152.954044
 20
757.34548
 11
152.954044
 21
760.345465
  0
ARC
  5
155
100
AcDbEntity
  8
M0
 62
     7
100
AcDbCircle
 10
151.954044
 20
757.34548
 40
1.0
100
AcDbArc
 50
270.0
 51
360.0
  0
LINE
  5
156
100
AcDbEntity
  8
M0
 62
     7
100
AcDbLine
 10
147.954044
 20
755.34548
 11
147.954044
 21
748.34548
  0
LINE
  5
157
100
AcDbEntity
  8
M0
 62
     7
100
AcDbLine
 10
107.954044
 20
756.34548
 11
132.954044
 21
756.34548
  0
LINE
  5
158
100
AcDbEntity
  8
M0
 62
     7
100
AcDbLine
 10
117.954044
 20
884.345465
 11
117.954044
 21
882.345465
  0
ARC
  5
159
100
AcDbEntity
  8
M0
 62
     7
100
AcDbCircle
 10
115.954044
 20
884.345465
 40
2.0
100
AcDbArc
 50
0.0
 51
89.999563
  0
ARC
  5
15A
100
AcDbEntity
  8
M0
 62
     7
100
AcDbCircle
 10
107.954044
 20
884.345465
 40
2.0
100
AcDbArc
 50
89.999563
 51
180.0
  0
ARC
  5
15B
100
AcDbEntity
  8
M0
 62
     7
100
AcDbCircle
 10
135.954044
 20
894.345465
 40
2.0
100
AcDbArc
 50
89.999563
 51
180.0
  0
LINE
  5
15C
100
AcDbEntity
  8
M0
 62
     7
100
AcDbLine
 10
145.954044
 20
896.345465
 11
135.954044
 21
896.345465
  0
LINE
  5
15D
100
AcDbEntity
  8
M0
 62
     7
100
AcDbLine
 10
117.954044
 20
882.345465
 11
133.954044
 21
882.345465
  0
LINE
  5
15E
100
AcDbEntity
  8
M0
 62
     7
100
AcDbLine
 10
105.954044
 20
884.345465
 11
105.954044
 21
758.34548
  0
LINE
  5
15F
100
AcDbEntity
  8
M0
 62
     7
100
AcDbLine
 10
152.954044
 20
760.345465
 11
160.954044
 21
760.345465
  0
LINE
  5
160
100
AcDbEntity
  8
M0
 62
     7
100
AcDbLine
 10
152.954044
 20
882.345465
 11
160.954044
 21
882.345465
  0
LINE
  5
161
100
AcDbEntity
  8
M0
 62
     7
100
AcDbLine
 10
152.954044
 20
885.345465
 11
152.954044
 21
882.345465
  0
ARC
  5
162
100
AcDbEntity
  8
M0
 62
     7
100
AcDbCircle
 10
151.954044
 20
885.345465
 40
1.0
100
AcDbArc
 50
0.0
 51
90.0
  0
LINE
  5
163
100
AcDbEntity
  8
M0
 62
     7
100
AcDbLine
 10
107.954044
 20
886.345465
 11
133.954044
 21
886.345465
  0
LINE
  5
164
100
AcDbEntity
  8
M0
 62
     7
100
AcDbLine
 10
135.954044
 20
746.34548
 11
145.954044
 21
746.34548
  0
LINE
  5
165
100
AcDbEntity
  8
M0
 62
     7
100
AcDbLine
 10
147.954044
 20
886.345465
 11
160.954044
 21
886.345465
  0
LINE
  5
166
100
AcDbEntity
  8
M0
 62
     7
100
AcDbLine
 10
148.954044
 20
756.34548
 11
160.954044
 21
756.34548
  0
CIRCLE
  5
167
100
AcDbEntity
  8
M0
 62
     7
100
AcDbCircle
 10
140.954044
 20
754.34548
 40
1.86
  0
CIRCLE
  5
168
100
AcDbEntity
  8
M0
 62
     7
100
AcDbCircle
 10
140.954044
 20
888.345465
 40
4.5
  0
CIRCLE
  5
169
100
AcDbEntity
  8
M0
 62
     7
100
AcDbCircle
 10
140.954044
 20
754.34548
 40
1.36
  0
CIRCLE
  5
16A
100
AcDbEntity
  8
M0
 62
     7
100
AcDbCircle
 10
140.954044
 20
888.345465
 40
2.25
  0
LINE
  5
16B
100
AcDbEntity
  8
M0
 62
     7
100
AcDbLine
 10
147.954044
 20
886.345465
 11
147.954044
 21
894.345465
  0
ARC
  5
16C
100
AcDbEntity
  8
M0
 62
     7
100
AcDbCircle
 10
145.954044
 20
894.345465
 40
2.0
100
AcDbArc
 50
0.0
 51
90.0
  0
LINE
  5
16D
100
AcDbEntity
  8
M0
 62
     7
100
AcDbLine
 10
133.954044
 20
882.345465
 11
133.954044
 21
894.345465
  0
ARC
  5
16E
100
AcDbEntity
  8
M0
 62
     7
100
AcDbCircle
 10
227.954029
 20
905.845465
 40
2.0
100
AcDbArc
 50
0.0
 51
90.0
  0
LINE
  5
16F
100
AcDbEntity
  8
M0
 62
     7
100
AcDbLine
 10
227.954029
 20
907.845465
 11
223.454029
 21
907.845465
  0
LINE
  5
170
100
AcDbEntity
  8
M0
 62
     7
100
AcDbLine
 10
146.954044
 20
907.845465
 11
148.454044
 21
907.845465
  0
ARC
  5
171
100
AcDbEntity
  8
M0
 62
     7
100
AcDbCircle
 10
174.954038
 20
906.845465
 40
1.0
100
AcDbArc
 50
0.0
 51
90.0
  0
LINE
  5
172
100
AcDbEntity
  8
M0
 62
     7
100
AcDbLine
 10
175.954038
 20
906.845465
 11
175.954038
 21
897.345465
  0
ARC
  5
173
100
AcDbEntity
  8
M0
 62
     7
100
AcDbCircle
 10
176.954038
 20
897.345465
 40
1.0
100
AcDbArc
 50
180.0
 51
270.0
  0
ARC
  5
174
100
AcDbEntity
  8
M0
 62
     7
100
AcDbCircle
 10
185.954029
 20
894.345465
 40
2.0
100
AcDbArc
 50
0.0
 51
90.0
  0
LINE
  5
175
100
AcDbEntity
  8
M0
 62
     7
100
AcDbLine
 10
187.954029
 20
894.345465
 11
187.954029
 21
888.845465
  0
ARC
  5
176
100
AcDbEntity
  8
M0
 62
     7
100
AcDbCircle
 10
175.954038
 20
894.345465
 40
2.0
100
AcDbArc
 50
90.0
 51
180.0
  0
LINE
  5
177
100
AcDbEntity
  8
M0
 62
     7
100
AcDbLine
 10
197.244358
 20
896.345465
 11
173.454038
 21
896.345465
  0
LINE
  5
178
100
AcDbEntity
  8
M0
 62
     7
100
AcDbLine
 10
93.954044
 20
746.34548
 11
103.704044
 21
746.34548
  0
LINE
  5
179
100
AcDbEntity
  8
M0
 62
     7
100
AcDbLine
 10
229.954029
 20
748.34548
 11
229.954029
 21
905.845465
  0
ARC
  5
17A
100
AcDbEntity
  8
M0
 62
     7
100
AcDbCircle
 10
227.954029
 20
748.34548
 40
2.0
100
AcDbArc
 50
269.999563
 51
360.0
  0
ARC
  5
17B
100
AcDbEntity
  8
M0
 62
     7
100
AcDbCircle
 10
175.954038
 20
748.34548
 40
2.0
100
AcDbArc
 50
179.999563
 51
270.0
  0
ARC
  5
17C
100
AcDbEntity
  8
M0
 62
     7
100
AcDbCircle
 10
185.954029
 20
748.34548
 40
2.0
100
AcDbArc
 50
-90.000437
 51
0.0
  0
LINE
  5
17D
100
AcDbEntity
  8
M0
 62
     7
100
AcDbLine
 10
187.954029
 20
748.34548
 11
187.954029
 21
753.84548
  0
CIRCLE
  5
17E
100
AcDbEntity
  8
M0
 62
     7
100
AcDbCircle
 10
221.954029
 20
891.845465
 40
2.75
  0
ARC
  5
17F
100
AcDbEntity
  8
M0
 62
     7
100
AcDbCircle
 10
93.954044
 20
905.845465
 40
2.0
100
AcDbArc
 50
89.999563
 51
180.0
  0
ARC
  5
180
100
AcDbEntity
  8
M0
 62
     7
100
AcDbCircle
 10
146.954044
 20
906.845465
 40
1.0
100
AcDbArc
 50
90.0
 51
180.0
  0
LINE
  5
181
100
AcDbEntity
  8
M0
 62
     7
100
AcDbLine
 10
145.954044
 20
906.845465
 11
145.954044
 21
897.345465
  0
ARC
  5
182
100
AcDbEntity
  8
M0
 62
     7
100
AcDbCircle
 10
144.954044
 20
897.345465
 40
1.0
100
AcDbArc
 50
-90.0
 51
0.0
  0
ARC
  5
183
100
AcDbEntity
  8
M0
 62
     7
100
AcDbCircle
 10
135.954044
 20
894.345465
 40
2.0
100
AcDbArc
 50
89.999563
 51
180.0
  0
LINE
  5
184
100
AcDbEntity
  8
M0
 62
     7
100
AcDbLine
 10
133.954044
 20
894.345465
 11
133.954044
 21
888.845465
  0
ARC
  5
185
100
AcDbEntity
  8
M0
 62
     7
100
AcDbCircle
 10
145.954044
 20
894.345465
 40
2.0
100
AcDbArc
 50
0.0
 51
90.0
  0
LINE
  5
186
100
AcDbEntity
  8
M0
 62
     7
100
AcDbLine
 10
91.954044
 20
748.34548
 11
91.954044
 21
905.845465
  0
ARC
  5
187
100
AcDbEntity
  8
M0
 62
     7
100
AcDbCircle
 10
93.954044
 20
748.34548
 40
2.0
100
AcDbArc
 50
179.999563
 51
270.0
  0
ARC
  5
188
100
AcDbEntity
  8
M0
 62
     7
100
AcDbCircle
 10
145.954044
 20
748.34548
 40
2.0
100
AcDbArc
 50
270.0
 51
360.0
  0
ARC
  5
189
100
AcDbEntity
  8
M0
 62
     7
100
AcDbCircle
 10
135.954044
 20
748.34548
 40
2.0
100
AcDbArc
 50
179.999563
 51
270.0
  0
LINE
  5
18A
100
AcDbEntity
  8
M0
 62
     7
100
AcDbLine
 10
133.954044
 20
748.34548
 11
133.954044
 21
753.84548
  0
CIRCLE
  5
18B
100
AcDbEntity
  8
M0
 62
     7
100
AcDbCircle
 10
99.954044
 20
891.845465
 40
2.75
  0
LINE
  5
18C
100
AcDbEntity
  8
M0
 62
     7
100
AcDbLine
 10
215.954029
 20
748.916907
 11
215.954029
 21
795.845465
  0
CIRCLE
  5
18D
100
AcDbEntity
  8
M0
 62
     7
100
AcDbCircle
 10
99.954044
 20
750.84548
 40
2.75
  0
CIRCLE
  5
18E
100
AcDbEntity
  8
M0
 62
     7
100
AcDbCircle
 10
221.954029
 20
750.84548
 40
2.75
  0
LINE
  5
18F
100
AcDbEntity
  8
M0
 62
     7
100
AcDbLine
 10
227.454029
 20
856.345465
 11
227.454029
 21
848.845465
  0
LINE
  5
190
100
AcDbEntity
  8
M0
 62
     7
100
AcDbLine
 10
227.454029
 20
856.345465
 11
229.954029
 21
856.345465
  0
LINE
  5
191
100
AcDbEntity
  8
M0
 62
     7
100
AcDbLine
 10
222.954029
 20
825.095465
 11
229.954029
 21
825.095465
  0
ARC
  5
192
100
AcDbEntity
  8
M0
 62
     7
100
AcDbCircle
 10
222.954029
 20
824.095465
 40
1.0
100
AcDbArc
 50
90.0
 51
180.0
  0
LINE
  5
193
100
AcDbEntity
  8
M0
 62
     7
100
AcDbLine
 10
221.954029
 20
824.095465
 11
221.954029
 21
818.595465
  0
LINE
  5
194
100
AcDbEntity
  8
M0
 62
     7
100
AcDbLine
 10
222.954029
 20
817.595465
 11
229.954029
 21
817.595465
  0
ARC
  5
195
100
AcDbEntity
  8
M0
 62
     7
100
AcDbCircle
 10
222.954029
 20
818.595465
 40
1.0
100
AcDbArc
 50
179.999945
 51
269.999126
  0
LINE
  5
196
100
AcDbEntity
  8
M0
 62
     7
100
AcDbLine
 10
229.954029
 20
824.095465
 11
225.954029
 21
824.095465
  0
LINE
  5
197
100
AcDbEntity
  8
M0
 62
     7
100
AcDbLine
 10
229.954029
 20
818.595465
 11
225.954029
 21
818.595465
  0
LINE
  5
198
100
AcDbEntity
  8
M0
 62
     7
100
AcDbLine
 10
226.454029
 20
848.845465
 11
229.954029
 21
848.845465
  0
ARC
  5
199
100
AcDbEntity
  8
M0
 62
     7
100
AcDbCircle
 10
226.454029
 20
848.345465
 40
0.5
100
AcDbArc
 50
90.0
 51
180.0
  0
LINE
  5
19A
100
AcDbEntity
  8
M0
 62
     7
100
AcDbLine
 10
217.954029
 20
845.345465
 11
225.954029
 21
845.345465
  0
LINE
  5
19B
100
AcDbEntity
  8
M0
 62
     7
100
AcDbLine
 10
225.954029
 20
825.095465
 11
225.954029
 21
824.095465
  0
LINE
  5
19C
100
AcDbEntity
  8
M0
 62
     7
100
AcDbLine
 10
225.954029
 20
848.345465
 11
225.954029
 21
827.845465
  0
LINE
  5
19D
100
AcDbEntity
  8
M0
 62
     7
100
AcDbLine
 10
226.454029
 20
838.845465
 11
229.954029
 21
838.845465
  0
ARC
  5
19E
100
AcDbEntity
  8
M0
 62
     7
100
AcDbCircle
 10
226.454029
 20
838.345465
 40
0.5
100
AcDbArc
 50
90.0
 51
180.0
  0
LINE
  5
19F
100
AcDbEntity
  8
M0
 62
     7
100
AcDbLine
 10
217.954029
 20
797.345465
 11
225.954029
 21
797.345465
  0
LINE
  5
1A0
100
AcDbEntity
  8
M0
 62
     7
100
AcDbLine
 10
225.954029
 20
794.345465
 11
225.954029
 21
814.845465
  0
LINE
  5
1A1
100
AcDbEntity
  8
M0
 62
     7
100
AcDbLine
 10
226.454029
 20
803.845465
 11
229.954029
 21
803.845465
  0
LINE
  5
1A2
100
AcDbEntity
  8
M0
 62
     7
100
AcDbLine
 10
105.954044
 20
893.773947
 11
105.954044
 21
846.845465
  0
LINE
  5
1A3
100
AcDbEntity
  8
M0
 62
     7
100
AcDbLine
 10
215.954029
 20
893.7741
 11
215.954029
 21
846.845465
  0
LINE
  5
1A4
100
AcDbEntity
  8
M0
 62
     7
100
AcDbLine
 10
215.954029
 20
795.845465
 11
215.954029
 21
748.916907
  0
LINE
  5
1A5
100
AcDbEntity
  8
M0
 62
     7
100
AcDbLine
 10
105.954044
 20
795.845465
 11
105.954044
 21
748.916907
  0
ARC
  5
1A6
100
AcDbEntity
  8
M0
 62
     7
100
AcDbCircle
 10
226.454029
 20
804.345465
 40
0.5
100
AcDbArc
 50
179.998251
 51
269.998251
  0
LINE
  5
1A7
100
AcDbEntity
  8
M0
 62
     7
100
AcDbLine
 10
225.954029
 20
794.345465
 11
225.954029
 21
814.845465
  0
LINE
  5
1A8
100
AcDbEntity
  8
M0
 62
     7
100
AcDbLine
 10
227.454029
 20
786.345465
 11
227.454029
 21
793.845465
  0
LINE
  5
1A9
100
AcDbEntity
  8
M0
 62
     7
100
AcDbLine
 10
227.454029
 20
786.345465
 11
229.954029
 21
786.345465
  0
ARC
  5
1AA
100
AcDbEntity
  8
M0
 62
     7
100
AcDbCircle
 10
226.454029
 20
794.345465
 40
0.5
100
AcDbArc
 50
179.998251
 51
269.998251
  0
LINE
  5
1AB
100
AcDbEntity
  8
M0
 62
     7
100
AcDbLine
 10
226.454029
 20
793.845465
 11
229.954029
 21
793.845465
  0
LINE
  5
1AC
100
AcDbEntity
  8
M0
 62
     7
100
AcDbLine
 10
225.954029
 20
817.595465
 11
225.954029
 21
818.595465
  0
LINE
  5
1AD
100
AcDbEntity
  8
M0
 62
     7
100
AcDbLine
 10
94.454044
 20
856.345465
 11
94.454044
 21
848.845465
  0
LINE
  5
1AE
100
AcDbEntity
  8
M0
 62
     7
100
AcDbLine
 10
94.454044
 20
856.345465
 11
91.954044
 21
856.345465
  0
LINE
  5
1AF
100
AcDbEntity
  8
M0
 62
     7
100
AcDbLine
 10
98.954044
 20
825.095465
 11
91.954044
 21
825.095465
  0
ARC
  5
1B0
100
AcDbEntity
  8
M0
 62
     7
100
AcDbCircle
 10
98.954044
 20
824.095465
 40
1.0
100
AcDbArc
 50
0.0
 51
89.999126
  0
LINE
  5
1B1
100
AcDbEntity
  8
M0
 62
     7
100
AcDbLine
 10
99.954044
 20
824.095465
 11
99.954044
 21
818.595465
  0
LINE
  5
1B2
100
AcDbEntity
  8
M0
 62
     7
100
AcDbLine
 10
98.954044
 20
817.595465
 11
91.954044
 21
817.595465
  0
ARC
  5
1B3
100
AcDbEntity
  8
M0
 62
     7
100
AcDbCircle
 10
98.954044
 20
818.595465
 40
1.0
100
AcDbArc
 50
-90.0
 51
0.0
  0
LINE
  5
1B4
100
AcDbEntity
  8
M0
 62
     7
100
AcDbLine
 10
91.954044
 20
824.095465
 11
95.954044
 21
824.095465
  0
LINE
  5
1B5
100
AcDbEntity
  8
M0
 62
     7
100
AcDbLine
 10
91.954044
 20
818.595465
 11
95.954044
 21
818.595465
  0
LINE
  5
1B6
100
AcDbEntity
  8
M0
 62
     7
100
AcDbLine
 10
95.454044
 20
848.845465
 11
91.954044
 21
848.845465
  0
ARC
  5
1B7
100
AcDbEntity
  8
M0
 62
     7
100
AcDbCircle
 10
95.454044
 20
848.345465
 40
0.5
100
AcDbArc
 50
0.0
 51
89.998251
  0
LINE
  5
1B8
100
AcDbEntity
  8
M0
 62
     7
100
AcDbLine
 10
103.954044
 20
845.345465
 11
95.954044
 21
845.345465
  0
LINE
  5
1B9
100
AcDbEntity
  8
M0
 62
     7
100
AcDbLine
 10
95.954044
 20
825.095465
 11
95.954044
 21
824.095465
  0
LINE
  5
1BA
100
AcDbEntity
  8
M0
 62
     7
100
AcDbLine
 10
95.954044
 20
848.345465
 11
95.954044
 21
827.845465
  0
LINE
  5
1BB
100
AcDbEntity
  8
M0
 62
     7
100
AcDbLine
 10
95.454044
 20
838.845465
 11
91.954044
 21
838.845465
  0
ARC
  5
1BC
100
AcDbEntity
  8
M0
 62
     7
100
AcDbCircle
 10
95.454044
 20
838.345465
 40
0.5
100
AcDbArc
 50
0.0
 51
89.998251
  0
LINE
  5
1BD
100
AcDbEntity
  8
M0
 62
     7
100
AcDbLine
 10
103.954044
 20
797.345465
 11
95.954044
 21
797.345465
  0
LINE
  5
1BE
100
AcDbEntity
  8
M0
 62
     7
100
AcDbLine
 10
95.954044
 20
794.345465
 11
95.954044
 21
814.845465
  0
LINE
  5
1BF
100
AcDbEntity
  8
M0
 62
     7
100
AcDbLine
 10
95.454044
 20
803.845465
 11
91.954044
 21
803.845465
  0
ARC
  5
1C0
100
AcDbEntity
  8
M0
 62
     7
100
AcDbCircle
 10
95.454044
 20
804.345465
 40
0.5
100
AcDbArc
 50
270.0
 51
360.0
  0
LINE
  5
1C1
100
AcDbEntity
  8
M0
 62
     7
100
AcDbLine
 10
95.954044
 20
794.345465
 11
95.954044
 21
814.845465
  0
LINE
  5
1C2
100
AcDbEntity
  8
M0
 62
     7
100
AcDbLine
 10
94.454044
 20
786.345465
 11
94.454044
 21
793.845465
  0
LINE
  5
1C3
100
AcDbEntity
  8
M0
 62
     7
100
AcDbLine
 10
94.454044
 20
786.345465
 11
91.954044
 21
786.345465
  0
ARC
  5
1C4
100
AcDbEntity
  8
M0
 62
     7
100
AcDbCircle
 10
95.454044
 20
794.345465
 40
0.5
100
AcDbArc
 50
270.0
 51
360.0
  0
LINE
  5
1C5
100
AcDbEntity
  8
M0
 62
     7
100
AcDbLine
 10
95.454044
 20
793.845465
 11
91.954044
 21
793.845465
  0
LINE
  5
1C6
100
AcDbEntity
  8
M0
 62
     7
100
AcDbLine
 10
95.954044
 20
817.595465
 11
95.954044
 21
818.595465
  0
CIRCLE
  5
1C7
100
AcDbEntity
  8
M0
 62
     7
100
AcDbCircle
 10
221.954029
 20
831.845465
 40
2.0
  0
CIRCLE
  5
1C8
100
AcDbEntity
  8
M0
 62
     7
100
AcDbCircle
 10
221.954029
 20
810.845465
 40
2.0
  0
CIRCLE
  5
1C9
100
AcDbEntity
  8
M0
 62
     7
100
AcDbCircle
 10
99.954044
 20
831.845465
 40
2.0
  0
CIRCLE
  5
1CA
100
AcDbEntity
  8
M0
 62
     7
100
AcDbCircle
 10
99.954044
 20
810.845465
 40
2.0
  0
CIRCLE
  5
1CB
100
AcDbEntity
  8
M0
 62
     7
100
AcDbCircle
 10
221.954029
 20
841.345465
 40
2.0
  0
LINE
  5
1CC
100
AcDbEntity
  8
M0
 62
     7
100
AcDbLine
 10
215.954029
 20
846.845465
 11
225.954029
 21
846.845465
  0
LINE
  5
1CD
100
AcDbEntity
  8
M0
 62
     7
100
AcDbLine
 10
217.954029
 20
835.845465
 11
225.954029
 21
835.845465
  0
LINE
  5
1CE
100
AcDbEntity
  8
M0
 62
     7
100
AcDbLine
 10
219.204029
 20
831.845465
 11
219.204029
 21
835.845465
  0
LINE
  5
1CF
100
AcDbEntity
  8
M0
 62
     7
100
AcDbLine
 10
224.704029
 20
831.845465
 11
224.704029
 21
835.845465
  0
ARC
  5
1D0
100
AcDbEntity
  8
M0
 62
     7
100
AcDbCircle
 10
221.954029
 20
831.845465
 40
2.75
100
AcDbArc
 50
179.99998
 51
360.0
  0
LINE
  5
1D1
100
AcDbEntity
  8
M0
 62
     7
100
AcDbLine
 10
219.204029
 20
841.345465
 11
219.204029
 21
845.345465
  0
LINE
  5
1D2
100
AcDbEntity
  8
M0
 62
     7
100
AcDbLine
 10
224.704029
 20
841.345465
 11
224.704029
 21
845.345465
  0
ARC
  5
1D3
100
AcDbEntity
  8
M0
 62
     7
100
AcDbCircle
 10
221.954029
 20
841.345465
 40
2.75
100
AcDbArc
 50
180.0
 51
360.0
  0
ARC
  5
1D4
100
AcDbEntity
  8
M0
 62
     7
100
AcDbCircle
 10
218.954029
 20
827.845465
 40
1.0
100
AcDbArc
 50
180.0
 51
269.999126
  0
LINE
  5
1D5
100
AcDbEntity
  8
M0
 62
     7
100
AcDbLine
 10
218.954029
 20
826.845465
 11
224.954029
 21
826.845465
  0
ARC
  5
1D6
100
AcDbEntity
  8
M0
 62
     7
100
AcDbCircle
 10
224.954029
 20
827.845465
 40
1.0
100
AcDbArc
 50
269.999126
 51
360.0
  0
LINE
  5
1D7
100
AcDbEntity
  8
M0
 62
     7
100
AcDbLine
 10
215.954029
 20
837.845465
 11
217.454029
 21
837.845465
  0
ARC
  5
1D8
100
AcDbEntity
  8
M0
 62
     7
100
AcDbCircle
 10
217.454029
 20
837.345465
 40
0.5
100
AcDbArc
 50
0.0
 51
90.0
  0
LINE
  5
1D9
100
AcDbEntity
  8
M0
 62
     7
100
AcDbLine
 10
217.954029
 20
846.345465
 11
217.954029
 21
827.845465
  0
ARC
  5
1DA
100
AcDbEntity
  8
M0
 62
     7
100
AcDbCircle
 10
217.454029
 20
846.345465
 40
0.5
100
AcDbArc
 50
0.0
 51
90.0
  0
CIRCLE
  5
1DB
100
AcDbEntity
  8
M0
 62
     7
100
AcDbCircle
 10
221.954029
 20
801.345465
 40
2.0
  0
LINE
  5
1DC
100
AcDbEntity
  8
M0
 62
     7
100
AcDbLine
 10
215.954029
 20
795.845465
 11
225.954029
 21
795.845465
  0
LINE
  5
1DD
100
AcDbEntity
  8
M0
 62
     7
100
AcDbLine
 10
217.954029
 20
806.845465
 11
225.954029
 21
806.845465
  0
LINE
  5
1DE
100
AcDbEntity
  8
M0
 62
     7
100
AcDbLine
 10
219.204029
 20
810.845465
 11
219.204029
 21
806.845465
  0
ARC
  5
1DF
100
AcDbEntity
  8
M0
 62
     7
100
AcDbCircle
 10
221.954029
 20
810.845465
 40
2.75
100
AcDbArc
 50
0.0
 51
179.99996
  0
LINE
  5
1E0
100
AcDbEntity
  8
M0
 62
     7
100
AcDbLine
 10
219.204029
 20
801.345465
 11
219.204029
 21
797.345465
  0
ARC
  5
1E1
100
AcDbEntity
  8
M0
 62
     7
100
AcDbCircle
 10
221.954029
 20
801.345465
 40
2.75
100
AcDbArc
 50
0.0
 51
179.999682
  0
ARC
  5
1E2
100
AcDbEntity
  8
M0
 62
     7
100
AcDbCircle
 10
218.954029
 20
814.845465
 40
1.0
100
AcDbArc
 50
90.0
 51
179.999945
  0
LINE
  5
1E3
100
AcDbEntity
  8
M0
 62
     7
100
AcDbLine
 10
218.954029
 20
815.845465
 11
224.954029
 21
815.845465
  0
LINE
  5
1E4
100
AcDbEntity
  8
M0
 62
     7
100
AcDbLine
 10
215.954029
 20
804.845465
 11
217.454029
 21
804.845465
  0
ARC
  5
1E5
100
AcDbEntity
  8
M0
 62
     7
100
AcDbCircle
 10
217.454029
 20
805.345465
 40
0.5
100
AcDbArc
 50
-90.001749
 51
0.0
  0
LINE
  5
1E6
100
AcDbEntity
  8
M0
 62
     7
100
AcDbLine
 10
217.954029
 20
796.345465
 11
217.954029
 21
814.845465
  0
ARC
  5
1E7
100
AcDbEntity
  8
M0
 62
     7
100
AcDbCircle
 10
217.454029
 20
796.345465
 40
0.5
100
AcDbArc
 50
-90.001749
 51
0.0
  0
ARC
  5
1E8
100
AcDbEntity
  8
M0
 62
     7
100
AcDbCircle
 10
224.954029
 20
814.845465
 40
1.0
100
AcDbArc
 50
0.0
 51
90.0
  0
LINE
  5
1E9
100
AcDbEntity
  8
M0
 62
     7
100
AcDbLine
 10
224.704029
 20
810.845465
 11
224.704029
 21
806.845465
  0
LINE
  5
1EA
100
AcDbEntity
  8
M0
 62
     7
100
AcDbLine
 10
224.704029
 20
801.345465
 11
224.704029
 21
797.345465
  0
CIRCLE
  5
1EB
100
AcDbEntity
  8
M0
 62
     7
100
AcDbCircle
 10
99.954044
 20
841.345465
 40
2.0
  0
LINE
  5
1EC
100
AcDbEntity
  8
M0
 62
     7
100
AcDbLine
 10
105.954044
 20
846.845465
 11
95.954044
 21
846.845465
  0
LINE
  5
1ED
100
AcDbEntity
  8
M0
 62
     7
100
AcDbLine
 10
103.954044
 20
835.845465
 11
95.954044
 21
835.845465
  0
LINE
  5
1EE
100
AcDbEntity
  8
M0
 62
     7
100
AcDbLine
 10
102.704044
 20
831.845465
 11
102.704044
 21
835.845465
  0
LINE
  5
1EF
100
AcDbEntity
  8
M0
 62
     7
100
AcDbLine
 10
97.204044
 20
831.845465
 11
97.204044
 21
835.845465
  0
ARC
  5
1F0
100
AcDbEntity
  8
M0
 62
     7
100
AcDbCircle
 10
99.954044
 20
831.845465
 40
2.75
100
AcDbArc
 50
-180.00002
 51
0.0
  0
LINE
  5
1F1
100
AcDbEntity
  8
M0
 62
     7
100
AcDbLine
 10
102.704044
 20
841.345465
 11
102.704044
 21
845.345465
  0
LINE
  5
1F2
100
AcDbEntity
  8
M0
 62
     7
100
AcDbLine
 10
97.204044
 20
841.345465
 11
97.204044
 21
845.345465
  0
ARC
  5
1F3
100
AcDbEntity
  8
M0
 62
     7
100
AcDbCircle
 10
99.954044
 20
841.345465
 40
2.75
100
AcDbArc
 50
-180.0
 51
0.0
  0
ARC
  5
1F4
100
AcDbEntity
  8
M0
 62
     7
100
AcDbCircle
 10
102.954044
 20
827.845465
 40
1.0
100
AcDbArc
 50
-90.0
 51
0.0
  0
LINE
  5
1F5
100
AcDbEntity
  8
M0
 62
     7
100
AcDbLine
 10
102.954044
 20
826.845465
 11
96.954044
 21
826.845465
  0
ARC
  5
1F6
100
AcDbEntity
  8
M0
 62
     7
100
AcDbCircle
 10
96.954044
 20
827.845465
 40
1.0
100
AcDbArc
 50
180.0
 51
270.0
  0
LINE
  5
1F7
100
AcDbEntity
  8
M0
 62
     7
100
AcDbLine
 10
105.954044
 20
837.845465
 11
104.454044
 21
837.845465
  0
ARC
  5
1F8
100
AcDbEntity
  8
M0
 62
     7
100
AcDbCircle
 10
104.454044
 20
837.345465
 40
0.5
100
AcDbArc
 50
89.998251
 51
180.0
  0
LINE
  5
1F9
100
AcDbEntity
  8
M0
 62
     7
100
AcDbLine
 10
103.954044
 20
846.345465
 11
103.954044
 21
827.845465
  0
ARC
  5
1FA
100
AcDbEntity
  8
M0
 62
     7
100
AcDbCircle
 10
104.454044
 20
846.345465
 40
0.5
100
AcDbArc
 50
89.998251
 51
180.0
  0
CIRCLE
  5
1FB
100
AcDbEntity
  8
M0
 62
     7
100
AcDbCircle
 10
99.954044
 20
801.345465
 40
2.0
  0
LINE
  5
1FC
100
AcDbEntity
  8
M0
 62
     7
100
AcDbLine
 10
105.954044
 20
795.845465
 11
95.954044
 21
795.845465
  0
LINE
  5
1FD
100
AcDbEntity
  8
M0
 62
     7
100
AcDbLine
 10
103.954044
 20
806.845465
 11
95.954044
 21
806.845465
  0
LINE
  5
1FE
100
AcDbEntity
  8
M0
 62
     7
100
AcDbLine
 10
102.704044
 20
810.845465
 11
102.704044
 21
806.845465
  0
ARC
  5
1FF
100
AcDbEntity
  8
M0
 62
     7
100
AcDbCircle
 10
99.954044
 20
810.845465
 40
2.75
100
AcDbArc
 50
0.0
 51
179.99996
  0
LINE
  5
200
100
AcDbEntity
  8
M0
 62
     7
100
AcDbLine
 10
102.704044
 20
801.345465
 11
102.704044
 21
797.345465
  0
ARC
  5
201
100
AcDbEntity
  8
M0
 62
     7
100
AcDbCircle
 10
99.954044
 20
801.345465
 40
2.75
100
AcDbArc
 50
0.0
 51
179.999682
  0
ARC
  5
202
100
AcDbEntity
  8
M0
 62
     7
100
AcDbCircle
 10
102.954044
 20
814.845465
 40
1.0
100
AcDbArc
 50
0.0
 51
89.999126
  0
LINE
  5
203
100
AcDbEntity
  8
M0
 62
     7
100
AcDbLine
 10
102.954044
 20
815.845465
 11
96.954044
 21
815.845465
  0
LINE
  5
204
100
AcDbEntity
  8
M0
 62
     7
100
AcDbLine
 10
105.954044
 20
804.845465
 11
104.454044
 21
804.845465
  0
ARC
  5
205
100
AcDbEntity
  8
M0
 62
     7
100
AcDbCircle
 10
104.454044
 20
805.345465
 40
0.5
100
AcDbArc
 50
179.998251
 51
270.0
  0
LINE
  5
206
100
AcDbEntity
  8
M0
 62
     7
100
AcDbLine
 10
103.954044
 20
796.345465
 11
103.954044
 21
814.845465
  0
ARC
  5
207
100
AcDbEntity
  8
M0
 62
     7
100
AcDbCircle
 10
104.454044
 20
796.345465
 40
0.5
100
AcDbArc
 50
179.998251
 51
270.0
  0
ARC
  5
208
100
AcDbEntity
  8
M0
 62
     7
100
AcDbCircle
 10
96.954044
 20
814.845465
 40
1.0
100
AcDbArc
 50
89.999126
 51
179.999945
  0
LINE
  5
209
100
AcDbEntity
  8
M0
 62
     7
100
AcDbLine
 10
97.204044
 20
810.845465
 11
97.204044
 21
806.845465
  0
LINE
  5
20A
100
AcDbEntity
  8
M0
 62
     7
100
AcDbLine
 10
97.204044
 20
801.345465
 11
97.204044
 21
797.345465
  0
LINE
  5
20B
100
AcDbEntity
  8
M0
 62
     7
100
AcDbLine
 10
173.454038
 20
746.34548
 11
197.244358
 21
746.34548
  0
LINE
  5
20C
100
AcDbEntity
  8
M0
 62
     7
100
AcDbLine
 10
218.204029
 20
746.34548
 11
227.954029
 21
746.34548
  0
LINE
  5
20D
100
AcDbEntity
  8
M0
 62
     7
100
AcDbLine
 10
124.663715
 20
746.34548
 11
148.454044
 21
746.34548
  0
LINE
  5
20E
100
AcDbEntity
  8
M0
 62
     7
100
AcDbLine
 10
173.454038
 20
907.845465
 11
174.954038
 21
907.845465
  0
LINE
  5
20F
100
AcDbEntity
  8
M0
 62
     7
100
AcDbLine
 10
148.454044
 20
896.345465
 11
124.663715
 21
896.345465
  0
LINE
  5
210
100
AcDbEntity
  8
M0
 62
     7
100
AcDbLine
 10
93.954044
 20
746.345572
 11
103.704044
 21
746.345572
  0
LINE
  5
211
100
AcDbEntity
  8
M0
 62
     7
100
AcDbLine
 10
148.954044
 20
896.344961
 11
146.454044
 21
896.344961
  0
ARC
  5
212
100
AcDbEntity
  8
M0
 62
     7
100
AcDbCircle
 10
93.954044
 20
748.345572
 40
2.0
100
AcDbArc
 50
179.999563
 51
270.0
  0
LINE
  5
213
100
AcDbEntity
  8
M0
 62
     7
100
AcDbLine
 10
148.454044
 20
907.84516
 11
123.454044
 21
907.845068
  0
ARC
  5
214
100
AcDbEntity
  8
M0
 62
     7
100
AcDbCircle
 10
93.954044
 20
905.844961
 40
2.0
100
AcDbArc
 50
89.999563
 51
180.0
  0
LINE
  5
215
100
AcDbEntity
  8
M0
 62
     7
100
AcDbLine
 10
145.954044
 20
905.84545
 11
145.954044
 21
896.844717
  0
LINE
  5
216
100
AcDbEntity
  8
M0
 62
     7
100
AcDbLine
 10
137.954044
 20
907.344961
 11
137.954044
 21
896.844717
  0
LINE
  5
217
100
AcDbEntity
  8
M0
 62
     7
100
AcDbLine
 10
123.954044
 20
896.84545
 11
131.954044
 21
896.84545
  0
LINE
  5
218
100
AcDbEntity
  8
M0
 62
     7
100
AcDbLine
 10
137.454044
 20
896.344961
 11
132.454044
 21
896.344961
  0
LINE
  5
219
100
AcDbEntity
  8
M0
 62
     7
100
AcDbLine
 10
123.954044
 20
905.34545
 11
131.954044
 21
905.34545
  0
ARC
  5
21A
100
AcDbEntity
  8
M0
 62
     7
100
AcDbCircle
 10
146.454044
 20
896.844717
 40
0.5
100
AcDbArc
 50
180.0
 51
270.0
  0
ARC
  5
21B
100
AcDbEntity
  8
M0
 62
     7
100
AcDbCircle
 10
137.454044
 20
896.844717
 40
0.5
100
AcDbArc
 50
270.0
 51
360.0
  0
LINE
  5
21C
100
AcDbEntity
  8
M0
 62
     7
100
AcDbLine
 10
131.954044
 20
907.344961
 11
131.954044
 21
896.844717
  0
LINE
  5
21D
100
AcDbEntity
  8
M0
 62
     7
100
AcDbLine
 10
123.954044
 20
905.34545
 11
123.954044
 21
896.345557
  0
LINE
  5
21E
100
AcDbEntity
  8
M0
 62
     7
100
AcDbLine
 10
137.954044
 20
896.84545
 11
145.954044
 21
896.84545
  0
LINE
  5
21F
100
AcDbEntity
  8
M0
 62
     7
100
AcDbLine
 10
137.954044
 20
905.34545
 11
145.954044
 21
905.34545
  0
LINE
  5
220
100
AcDbEntity
  8
M0
 62
     7
100
AcDbLine
 10
133.954044
 20
907.344961
 11
133.954044
 21
906.34545
  0
LINE
  5
221
100
AcDbEntity
  8
M0
 62
     7
100
AcDbLine
 10
135.954044
 20
907.344961
 11
135.954044
 21
906.34545
  0
ARC
  5
222
100
AcDbEntity
  8
M0
 62
     7
100
AcDbCircle
 10
132.454044
 20
896.844717
 40
0.5
100
AcDbArc
 50
180.0
 51
270.0
  0
ARC
  5
223
100
AcDbEntity
  8
M0
 62
     7
100
AcDbCircle
 10
136.454044
 20
907.344961
 40
0.5
100
AcDbArc
 50
89.998251
 51
180.0
  0
ARC
  5
224
100
AcDbEntity
  8
M0
 62
     7
100
AcDbCircle
 10
132.454044
 20
907.344961
 40
0.5
100
AcDbArc
 50
89.998251
 51
180.0
  0
ARC
  5
225
100
AcDbEntity
  8
M0
 62
     7
100
AcDbCircle
 10
137.454044
 20
907.344961
 40
0.5
100
AcDbArc
 50
0.0
 51
89.998251
  0
ARC
  5
226
100
AcDbEntity
  8
M0
 62
     7
100
AcDbCircle
 10
133.454044
 20
907.344961
 40
0.5
100
AcDbArc
 50
0.0
 51
89.998251
  0
LINE
  5
227
100
AcDbEntity
  8
M0
 62
     7
100
AcDbLine
 10
130.704044
 20
900.84545
 11
130.704044
 21
896.84545
  0
LINE
  5
228
100
AcDbEntity
  8
M0
 62
     7
100
AcDbLine
 10
125.204044
 20
900.84545
 11
125.204044
 21
896.84545
  0
ARC
  5
229
100
AcDbEntity
  8
M0
 62
     7
100
AcDbCircle
 10
123.454044
 20
905.34545
 40
0.5
100
AcDbArc
 50
0.0
 51
89.998251
  0
LINE
  5
22A
100
AcDbEntity
  8
M0
 62
     7
100
AcDbLine
 10
133.954044
 20
906.34545
 11
135.954044
 21
906.34545
  0
LINE
  5
22B
100
AcDbEntity
  8
M0
 62
     7
100
AcDbLine
 10
227.953999
 20
746.345511
 11
218.204075
 21
746.345526
  0
LINE
  5
22C
100
AcDbEntity
  8
M0
 62
     7
100
AcDbLine
 10
229.95409
 20
905.844717
 11
229.953999
 21
748.345511
  0
ARC
  5
22D
100
AcDbEntity
  8
M0
 62
     7
100
AcDbCircle
 10
227.953999
 20
748.345511
 40
2.0
100
AcDbArc
 50
-90.000437
 51
0.0
  0
LINE
  5
22E
100
AcDbEntity
  8
M0
 62
     7
100
AcDbLine
 10
173.454038
 20
907.844916
 11
198.454029
 21
907.844824
  0
ARC
  5
22F
100
AcDbEntity
  8
M0
 62
     7
100
AcDbCircle
 10
227.95409
 20
905.844717
 40
2.0
100
AcDbArc
 50
0.0
 51
90.0
  0
LINE
  5
230
100
AcDbEntity
  8
M0
 62
     7
100
AcDbLine
 10
175.954114
 20
905.845206
 11
175.954114
 21
896.845206
  0
LINE
  5
231
100
AcDbEntity
  8
M0
 62
     7
100
AcDbLine
 10
183.95409
 20
905.344717
 11
183.95409
 21
896.345557
  0
LINE
  5
232
100
AcDbEntity
  8
M0
 62
     7
100
AcDbLine
 10
177.20409
 20
900.845206
 11
177.20409
 21
896.845206
  0
LINE
  5
233
100
AcDbEntity
  8
M0
 62
     7
100
AcDbLine
 10
182.70409
 20
900.845206
 11
182.70409
 21
896.845206
  0
ARC
  5
234
100
AcDbEntity
  8
M0
 62
     7
100
AcDbCircle
 10
179.95409
 20
900.845206
 40
2.75
100
AcDbArc
 50
0.0
 51
180.0
  0
CIRCLE
  5
235
100
AcDbEntity
  8
M0
 62
     7
100
AcDbCircle
 10
179.95409
 20
900.845206
 40
2.0
  0
LINE
  5
236
100
AcDbEntity
  8
M0
 62
     7
100
AcDbLine
 10
183.95409
 20
896.845206
 11
175.954114
 21
896.845206
  0
LINE
  5
237
100
AcDbEntity
  8
M0
 62
     7
100
AcDbLine
 10
183.95409
 20
905.345206
 11
175.954114
 21
905.345206
  0
LINE
  5
238
100
AcDbEntity
  8
M0
 62
     7
100
AcDbLine
 10
187.95409
 20
906.844961
 11
187.95409
 21
898.344961
  0
LINE
  5
239
100
AcDbEntity
  8
M0
 62
     7
100
AcDbLine
 10
187.454029
 20
896.344961
 11
197.24387
 21
896.344961
  0
ARC
  5
23A
100
AcDbEntity
  8
M0
 62
     7
100
AcDbCircle
 10
189.95409
 20
898.344961
 40
2.0
100
AcDbArc
 50
180.0
 51
269.999563
  0
ARC
  5
23B
100
AcDbEntity
  8
M0
 62
     7
100
AcDbCircle
 10
187.454029
 20
895.844961
 40
0.5
100
AcDbArc
 50
90.0
 51
180.0
  0
LINE
  5
23C
100
AcDbEntity
  8
M0
 62
     7
100
AcDbLine
 10
184.45409
 20
905.844717
 11
187.45409
 21
905.844717
  0
ARC
  5
23D
100
AcDbEntity
  8
M0
 62
     7
100
AcDbCircle
 10
184.45409
 20
905.344717
 40
0.5
100
AcDbArc
 50
90.0
 51
180.0
  0
ARC
  5
23E
100
AcDbEntity
  8
M0
 62
     7
100
AcDbCircle
 10
187.45409
 20
905.344717
 40
0.5
100
AcDbArc
 50
0.0
 51
90.0
  0
CIRCLE
  5
23F
100
AcDbEntity
  8
M0
 62
     7
100
AcDbCircle
 10
127.954044
 20
900.84545
 40
2.0
  0
ARC
  5
240
100
AcDbEntity
  8
M0
 62
     7
100
AcDbCircle
 10
127.954044
 20
900.84545
 40
2.75
100
AcDbArc
 50
0.0
 51
180.0
  0
LINE
  5
241
100
AcDbEntity
  8
M0
  6
DASHDOT
 62
     7
100
AcDbLine
 10
160.954044
 20
691.186331
 11
160.954044
 21
944.482718
  0
LINE
  5
242
100
AcDbEntity
  8
M0
 62
     7
100
AcDbLine
 10
91.954044
 20
905.844961
 11
91.954044
 21
748.345572
  0
LINE
  5
243
100
AcDbEntity
  8
M0
  6
DASHDOT
 62
     7
100
AcDbLine
 10
86.954044
 20
821.345557
 11
249.953999
 21
821.345557
  0
ARC
  5
244
100
AcDbEntity
  8
M0
 62
     7
100
AcDbCircle
 10
186.95409
 20
906.844961
 40
1.0
100
AcDbArc
 50
0.0
 51
90.0
  0
LINE
  5
245
100
AcDbEntity
  8
M0
 62
     7
100
AcDbLine
 10
197.244373
 20
746.345541
 11
173.454038
 21
746.345572
  0
LINE
  5
246
100
AcDbEntity
  8
M0
 62
     7
100
AcDbLine
 10
124.663715
 20
746.345572
 11
148.454044
 21
746.345572
  0
LINE
  5
247
100
AcDbEntity
  8
M0
 62
     7
100
AcDbLine
 10
98.454044
 20
907.844977
 11
93.954044
 21
907.844961
  0
LINE
  5
248
100
AcDbEntity
  8
M0
 62
     7
100
AcDbLine
 10
223.454029
 20
907.844733
 11
227.95409
 21
907.844717
  0
LINE
  5
249
100
AcDbEntity
  8
M0
 62
     7
100
AcDbLine
 10
148.454009
 20
719.84548
 11
173.454008
 21
719.845495
  0
LINE
  5
24A
100
AcDbEntity
  8
M0
 62
     7
100
AcDbLine
 10
173.454008
 20
719.845495
 11
173.454
 21
746.345495
  0
LINE
  5
24B
100
AcDbEntity
  8
M0
 62
     7
100
AcDbLine
 10
170.953999
 20
750.845495
 11
173.454
 21
746.345495
  0
LINE
  5
24C
100
AcDbEntity
  8
M0
 62
     7
100
AcDbLine
 10
150.954
 20
750.84548
 11
148.454001
 21
746.34548
  0
LINE
  5
24D
100
AcDbEntity
  8
M0
 62
     7
100
AcDbLine
 10
148.454001
 20
746.34548
 11
148.454009
 21
719.84548
  0
LINE
  5
24E
100
AcDbEntity
  8
M0
 62
     7
100
AcDbLine
 10
150.953998
 20
756.34548
 11
150.954
 21
750.84548
  0
LINE
  5
24F
100
AcDbEntity
  8
M0
 62
     7
100
AcDbLine
 10
170.953997
 20
756.345495
 11
170.953999
 21
750.845495
  0
CIRCLE
  5
250
100
AcDbEntity
  8
M0
 62
     7
100
AcDbCircle
 10
160.954004
 20
733.345465
 40
5.0
  0
LINE
  5
251
100
AcDbEntity
  8
M0
 62
     7
100
AcDbLine
 10
168.95403
 20
811.345511
 11
152.954044
 21
811.345511
  0
LINE
  5
252
100
AcDbEntity
  8
M0
 62
     7
100
AcDbLine
 10
168.95403
 20
815.345511
 11
168.95403
 21
811.345511
  0
LINE
  5
253
100
AcDbEntity
  8
M0
 62
     7
100
AcDbLine
 10
152.954044
 20
815.345511
 11
152.954044
 21
811.345511
  0
LINE
  5
254
100
AcDbEntity
  8
M0
 62
     7
100
AcDbLine
 10
152.654041
 20
815.345511
 11
152.954044
 21
815.345511
  0
LINE
  5
255
100
AcDbEntity
  8
M0
 62
     7
100
AcDbLine
 10
169.25403
 20
831.64556
 11
164.954044
 21
831.64556
  0
LINE
  5
256
100
AcDbEntity
  8
M0
 62
     7
100
AcDbLine
 10
172.25403
 20
828.64556
 11
172.25403
 21
818.345511
  0
LINE
  5
257
100
AcDbEntity
  8
M0
 62
     7
100
AcDbLine
 10
149.654041
 20
828.64556
 11
149.654041
 21
818.345511
  0
ARC
  5
258
100
AcDbEntity
  8
M0
 62
     7
100
AcDbCircle
 10
169.25403
 20
828.64556
 40
3.0
100
AcDbArc
 50
0.0
 51
90.0
  0
ARC
  5
259
100
AcDbEntity
  8
M0
 62
     7
100
AcDbCircle
 10
152.654041
 20
828.64556
 40
3.0
100
AcDbArc
 50
90.0
 51
179.999982
  0
ARC
  5
25A
100
AcDbEntity
  8
M0
 62
     7
100
AcDbCircle
 10
152.654041
 20
818.345511
 40
3.0
100
AcDbArc
 50
179.999964
 51
270.0
  0
ARC
  5
25B
100
AcDbEntity
  8
M0
 62
     7
100
AcDbCircle
 10
169.25403
 20
818.345511
 40
3.0
100
AcDbArc
 50
270.0
 51
360.0
  0
LINE
  5
25C
100
AcDbEntity
  8
M0
 62
     7
100
AcDbLine
 10
164.954044
 20
834.345511
 11
163.704044
 21
834.345511
  0
LINE
  5
25D
100
AcDbEntity
  8
M0
 62
     7
100
AcDbLine
 10
162.704044
 20
837.345511
 11
159.204044
 21
837.345511
  0
LINE
  5
25E
100
AcDbEntity
  8
M0
 62
     7
100
AcDbLine
 10
163.704044
 20
836.345511
 11
163.704044
 21
834.345511
  0
LINE
  5
25F
100
AcDbEntity
  8
M0
 62
     7
100
AcDbLine
 10
158.204044
 20
836.345511
 11
158.204044
 21
834.345511
  0
LINE
  5
260
100
AcDbEntity
  8
M0
 62
     7
100
AcDbLine
 10
164.954044
 20
834.345511
 11
164.954044
 21
831.64556
  0
LINE
  5
261
100
AcDbEntity
  8
M0
 62
     7
100
AcDbLine
 10
156.954044
 20
834.345511
 11
156.954044
 21
831.64556
  0
ARC
  5
262
100
AcDbEntity
  8
M0
 62
     7
100
AcDbCircle
 10
162.704044
 20
836.345511
 40
1.0
100
AcDbArc
 50
0.0
 51
90.0
  0
ARC
  5
263
100
AcDbEntity
  8
M0
 62
     7
100
AcDbCircle
 10
159.204044
 20
836.345511
 40
1.0
100
AcDbArc
 50
90.0
 51
180.0
  0
LINE
  5
264
100
AcDbEntity
  8
M0
 62
     7
100
AcDbLine
 10
168.95403
 20
815.345511
 11
169.25403
 21
815.345511
  0
LINE
  5
265
100
AcDbEntity
  8
M0
 62
     7
100
AcDbLine
 10
156.954044
 20
831.64556
 11
152.654041
 21
831.64556
  0
LINE
  5
266
100
AcDbEntity
  8
M0
 62
     7
100
AcDbLine
 10
158.204044
 20
834.345511
 11
156.954044
 21
834.345511
  0
LINE
  5
267
100
AcDbEntity
  8
M0
  6
DIVIDE
 62
     7
100
AcDbLine
 10
79.954044
 20
848.845511
 11
79.954044
 21
793.845511
  0
LINE
  5
268
100
AcDbEntity
  8
M0
  6
DIVIDE
 62
     7
100
AcDbLine
 10
91.954044
 20
848.845511
 11
79.954044
 21
848.845511
  0
LINE
  5
269
100
AcDbEntity
  8
M0
  6
DIVIDE
 62
     7
100
AcDbLine
 10
91.954044
 20
793.845511
 11
79.954044
 21
793.845511
  0
LINE
  5
26A
100
AcDbEntity
  8
M0
 62
     7
100
AcDbLine
 10
157.954044
 20
819.095267
 11
163.954044
 21
819.095267
  0
LINE
  5
26B
100
AcDbEntity
  8
M0
 62
     7
100
AcDbLine
 10
163.954044
 20
819.095267
 11
163.954044
 21
823.595267
  0
LINE
  5
26C
100
AcDbEntity
  8
M0
 62
     7
100
AcDbLine
 10
163.954044
 20
823.595267
 11
157.954044
 21
823.595267
  0
LINE
  5
26D
100
AcDbEntity
  8
M0
 62
     7
100
AcDbLine
 10
157.954044
 20
823.595267
 11
157.954044
 21
819.095267
  0
CIRCLE
  5
26E
100
AcDbEntity
  8
M0
 62
     7
100
AcDbCircle
 10
210.954029
 20
733.34545
 40
5.0
  0
LINE
  5
26F
100
AcDbEntity
  8
M0
 62
     7
100
AcDbLine
 10
198.454029
 20
719.845465
 11
223.454029
 21
719.845465
  0
LINE
  5
270
100
AcDbEntity
  8
M0
 62
     7
100
AcDbLine
 10
198.454029
 20
719.845465
 11
198.454029
 21
744.845465
  0
LINE
  5
271
100
AcDbEntity
  8
M0
 62
     7
100
AcDbLine
 10
189.179829
 20
756.345465
 11
198.454029
 21
744.845465
  0
LINE
  5
272
100
AcDbEntity
  8
M0
 62
     7
100
AcDbLine
 10
223.454029
 20
719.845465
 11
223.454029
 21
740.345465
  0
LINE
  5
273
100
AcDbEntity
  8
M0
 62
     7
100
AcDbLine
 10
209.454029
 20
756.345465
 11
223.454029
 21
740.345465
  0
LINE
  5
274
100
AcDbEntity
  8
M0
 62
     7
100
AcDbLine
 10
132.728245
 20
756.345465
 11
123.454044
 21
744.845465
  0
LINE
  5
275
100
AcDbEntity
  8
M0
 62
     7
100
AcDbLine
 10
123.454044
 20
719.845465
 11
123.454044
 21
744.845465
  0
LINE
  5
276
100
AcDbEntity
  8
M0
 62
     7
100
AcDbLine
 10
123.454044
 20
719.845465
 11
98.454044
 21
719.845465
  0
CIRCLE
  5
277
100
AcDbEntity
  8
M0
 62
     7
100
AcDbCircle
 10
110.95406
 20
733.34545
 40
5.0
  0
LINE
  5
278
100
AcDbEntity
  8
M0
 62
     7
100
AcDbLine
 10
98.454044
 20
719.845465
 11
98.454044
 21
740.345465
  0
LINE
  5
279
100
AcDbEntity
  8
M0
 62
     7
100
AcDbLine
 10
112.454044
 20
756.345465
 11
98.454044
 21
740.345465
  0
CIRCLE
  5
27A
100
AcDbEntity
  8
M0
 62
     7
100
AcDbCircle
 10
210.953953
 20
909.34548
 40
5.0
  0
LINE
  5
27B
100
AcDbEntity
  8
M0
 62
     7
100
AcDbLine
 10
198.453968
 20
922.84548
 11
223.453968
 21
922.845495
  0
LINE
  5
27C
100
AcDbEntity
  8
M0
 62
     7
100
AcDbLine
 10
198.453968
 20
922.84548
 11
198.453983
 21
897.84548
  0
LINE
  5
27D
100
AcDbEntity
  8
M0
 62
     7
100
AcDbLine
 10
189.179783
 20
886.345465
 11
198.453983
 21
897.84548
  0
LINE
  5
27E
100
AcDbEntity
  8
M0
 62
     7
100
AcDbLine
 10
223.453968
 20
922.845495
 11
223.453983
 21
902.345495
  0
LINE
  5
27F
100
AcDbEntity
  8
M0
 62
     7
100
AcDbLine
 10
209.453983
 20
886.34548
 11
223.453983
 21
902.345495
  0
LINE
  5
280
100
AcDbEntity
  8
M0
 62
     7
100
AcDbLine
 10
132.728214
 20
886.345434
 11
123.454014
 21
897.845434
  0
LINE
  5
281
100
AcDbEntity
  8
M0
 62
     7
100
AcDbLine
 10
123.453999
 20
922.845434
 11
123.454014
 21
897.845434
  0
LINE
  5
282
100
AcDbEntity
  8
M0
 62
     7
100
AcDbLine
 10
123.453999
 20
922.845434
 11
98.453999
 21
922.845404
  0
CIRCLE
  5
283
100
AcDbEntity
  8
M0
 62
     7
100
AcDbCircle
 10
110.953999
 20
909.345419
 40
5.0
  0
LINE
  5
284
100
AcDbEntity
  8
M0
 62
     7
100
AcDbLine
 10
98.453999
 20
922.845404
 11
98.454014
 21
902.345404
  0
LINE
  5
285
100
AcDbEntity
  8
M0
 62
     7
100
AcDbLine
 10
112.454014
 20
886.345419
 11
98.454014
 21
902.345404
  0
LINE
  5
286
100
AcDbEntity
  8
M0
 62
     7
100
AcDbLine
 10
148.454002
 20
922.845465
 11
173.454001
 21
922.84548
  0
LINE
  5
287
100
AcDbEntity
  8
M0
 62
     7
100
AcDbLine
 10
173.454001
 20
922.84548
 11
173.454008
 21
896.34548
  0
LINE
  5
288
100
AcDbEntity
  8
M0
 62
     7
100
AcDbLine
 10
170.95401
 20
891.84548
 11
173.454008
 21
896.34548
  0
LINE
  5
289
100
AcDbEntity
  8
M0
 62
     7
100
AcDbLine
 10
150.954011
 20
891.845465
 11
148.454009
 21
896.345465
  0
LINE
  5
28A
100
AcDbEntity
  8
M0
 62
     7
100
AcDbLine
 10
148.454009
 20
896.345465
 11
148.454002
 21
922.845465
  0
LINE
  5
28B
100
AcDbEntity
  8
M0
 62
     7
100
AcDbLine
 10
150.954013
 20
886.345465
 11
150.954011
 21
891.845465
  0
LINE
  5
28C
100
AcDbEntity
  8
M0
 62
     7
100
AcDbLine
 10
170.954012
 20
886.34548
 11
170.95401
 21
891.84548
  0
CIRCLE
  5
28D
100
AcDbEntity
  8
M0
 62
     7
100
AcDbCircle
 10
160.954005
 20
909.345465
 40
5.0
  0
LINE
  5
28E
100
AcDbEntity
  8
M0
 62
     7
100
AcDbLine
 10
160.954029
 20
899.545477
 11
152.467213
 21
904.445471
  0
LINE
  5
28F
100
AcDbEntity
  8
M0
 62
     7
100
AcDbLine
 10
152.467213
 20
904.445471
 11
152.467213
 21
914.245489
  0
LINE
  5
290
100
AcDbEntity
  8
M0
 62
     7
100
AcDbLine
 10
152.467213
 20
914.245489
 11
160.954029
 21
919.145483
  0
LINE
  5
291
100
AcDbEntity
  8
M0
 62
     7
100
AcDbLine
 10
160.954029
 20
919.145483
 11
169.441334
 21
914.245459
  0
LINE
  5
292
100
AcDbEntity
  8
M0
 62
     7
100
AcDbLine
 10
169.441334
 20
914.245459
 11
169.441334
 21
904.445471
  0
LINE
  5
293
100
AcDbEntity
  8
M0
 62
     7
100
AcDbLine
 10
169.441334
 20
904.445471
 11
160.954029
 21
899.545477
  0
CIRCLE
  5
294
100
AcDbEntity
  8
M0
 62
     7
100
AcDbCircle
 10
160.954029
 20
909.345465
 40
5.0
  0
LINE
  5
295
100
AcDbEntity
  8
M0
  6
DASHDOT
 62
     7
100
AcDbLine
 10
171.441212
 20
909.345373
 11
150.466801
 21
909.345373
  0
LINE
  5
296
100
AcDbEntity
  8
M0
 62
     7
100
AcDbLine
 10
110.954029
 20
899.545477
 11
102.467213
 21
904.445471
  0
LINE
  5
297
100
AcDbEntity
  8
M0
 62
     7
100
AcDbLine
 10
102.467213
 20
904.445471
 11
102.467213
 21
914.245489
  0
LINE
  5
298
100
AcDbEntity
  8
M0
 62
     7
100
AcDbLine
 10
102.467213
 20
914.245489
 11
110.954029
 21
919.145483
  0
LINE
  5
299
100
AcDbEntity
  8
M0
 62
     7
100
AcDbLine
 10
110.954029
 20
919.145483
 11
119.441334
 21
914.245459
  0
LINE
  5
29A
100
AcDbEntity
  8
M0
 62
     7
100
AcDbLine
 10
119.441334
 20
914.245459
 11
119.441334
 21
904.445471
  0
LINE
  5
29B
100
AcDbEntity
  8
M0
 62
     7
100
AcDbLine
 10
119.441334
 20
904.445471
 11
110.954029
 21
899.545477
  0
CIRCLE
  5
29C
100
AcDbEntity
  8
M0
 62
     7
100
AcDbCircle
 10
110.954029
 20
909.345465
 40
5.0
  0
LINE
  5
29D
100
AcDbEntity
  8
M0
  6
DASHDOT
 62
     7
100
AcDbLine
 10
121.441212
 20
909.345373
 11
100.466801
 21
909.345373
  0
LINE
  5
29E
100
AcDbEntity
  8
M0
  6
DASHDOT
 62
     7
100
AcDbLine
 10
110.953999
 20
920.832571
 11
110.954014
 21
899.85816
  0
LINE
  5
29F
100
AcDbEntity
  8
M0
 62
     7
100
AcDbLine
 10
210.954029
 20
899.545477
 11
202.467213
 21
904.445471
  0
LINE
  5
2A0
100
AcDbEntity
  8
M0
 62
     7
100
AcDbLine
 10
202.467213
 20
904.445471
 11
202.467213
 21
914.245489
  0
LINE
  5
2A1
100
AcDbEntity
  8
M0
 62
     7
100
AcDbLine
 10
202.467213
 20
914.245489
 11
210.954029
 21
919.145483
  0
LINE
  5
2A2
100
AcDbEntity
  8
M0
 62
     7
100
AcDbLine
 10
210.954029
 20
919.145483
 11
219.441334
 21
914.245459
  0
LINE
  5
2A3
100
AcDbEntity
  8
M0
 62
     7
100
AcDbLine
 10
219.441334
 20
914.245459
 11
219.441334
 21
904.445471
  0
LINE
  5
2A4
100
AcDbEntity
  8
M0
 62
     7
100
AcDbLine
 10
219.441334
 20
904.445471
 11
210.954029
 21
899.545477
  0
CIRCLE
  5
2A5
100
AcDbEntity
  8
M0
 62
     7
100
AcDbCircle
 10
210.954029
 20
909.345465
 40
5.0
  0
LINE
  5
2A6
100
AcDbEntity
  8
M0
  6
DASHDOT
 62
     7
100
AcDbLine
 10
221.441212
 20
909.345373
 11
200.466801
 21
909.345373
  0
LINE
  5
2A7
100
AcDbEntity
  8
M0
  6
DASHDOT
 62
     7
100
AcDbLine
 10
210.953999
 20
920.832571
 11
210.954014
 21
899.85816
  0
LINE
  5
2A8
100
AcDbEntity
  8
M0
 62
     7
100
AcDbLine
 10
110.954029
 20
723.545462
 11
102.467213
 21
728.445456
  0
LINE
  5
2A9
100
AcDbEntity
  8
M0
 62
     7
100
AcDbLine
 10
102.467213
 20
728.445456
 11
102.467213
 21
738.245474
  0
LINE
  5
2AA
100
AcDbEntity
  8
M0
 62
     7
100
AcDbLine
 10
102.467213
 20
738.245474
 11
110.954029
 21
743.145468
  0
LINE
  5
2AB
100
AcDbEntity
  8
M0
 62
     7
100
AcDbLine
 10
110.954029
 20
743.145468
 11
119.441334
 21
738.245444
  0
LINE
  5
2AC
100
AcDbEntity
  8
M0
 62
     7
100
AcDbLine
 10
119.441334
 20
738.245444
 11
119.441334
 21
728.445456
  0
LINE
  5
2AD
100
AcDbEntity
  8
M0
 62
     7
100
AcDbLine
 10
119.441334
 20
728.445456
 11
110.954029
 21
723.545462
  0
CIRCLE
  5
2AE
100
AcDbEntity
  8
M0
 62
     7
100
AcDbCircle
 10
110.954029
 20
733.34545
 40
5.0
  0
LINE
  5
2AF
100
AcDbEntity
  8
M0
  6
DASHDOT
 62
     7
100
AcDbLine
 10
121.441212
 20
733.345358
 11
100.466801
 21
733.345358
  0
LINE
  5
2B0
100
AcDbEntity
  8
M0
  6
DASHDOT
 62
     7
100
AcDbLine
 10
110.953999
 20
742.832571
 11
110.954014
 21
721.85816
  0
LINE
  5
2B1
100
AcDbEntity
  8
M0
 62
     7
100
AcDbLine
 10
160.954029
 20
723.545462
 11
152.467213
 21
728.445456
  0
LINE
  5
2B2
100
AcDbEntity
  8
M0
 62
     7
100
AcDbLine
 10
152.467213
 20
728.445456
 11
152.467213
 21
738.245474
  0
LINE
  5
2B3
100
AcDbEntity
  8
M0
 62
     7
100
AcDbLine
 10
152.467213
 20
738.245474
 11
160.954029
 21
743.145468
  0
LINE
  5
2B4
100
AcDbEntity
  8
M0
 62
     7
100
AcDbLine
 10
160.954029
 20
743.145468
 11
169.441334
 21
738.245444
  0
LINE
  5
2B5
100
AcDbEntity
  8
M0
 62
     7
100
AcDbLine
 10
169.441334
 20
738.245444
 11
169.441334
 21
728.445456
  0
LINE
  5
2B6
100
AcDbEntity
  8
M0
 62
     7
100
AcDbLine
 10
169.441334
 20
728.445456
 11
160.954029
 21
723.545462
  0
CIRCLE
  5
2B7
100
AcDbEntity
  8
M0
 62
     7
100
AcDbCircle
 10
160.954029
 20
733.34545
 40
5.0
  0
LINE
  5
2B8
100
AcDbEntity
  8
M0
  6
DASHDOT
 62
     7
100
AcDbLine
 10
171.441212
 20
733.345358
 11
150.466801
 21
733.345358
  0
LINE
  5
2B9
100
AcDbEntity
  8
M0
 62
     7
100
AcDbLine
 10
210.954029
 20
723.545462
 11
202.467213
 21
728.445456
  0
LINE
  5
2BA
100
AcDbEntity
  8
M0
 62
     7
100
AcDbLine
 10
202.467213
 20
728.445456
 11
202.467213
 21
738.245474
  0
LINE
  5
2BB
100
AcDbEntity
  8
M0
 62
     7
100
AcDbLine
 10
202.467213
 20
738.245474
 11
210.954029
 21
743.145468
  0
LINE
  5
2BC
100
AcDbEntity
  8
M0
 62
     7
100
AcDbLine
 10
210.954029
 20
743.145468
 11
219.441334
 21
738.245444
  0
LINE
  5
2BD
100
AcDbEntity
  8
M0
 62
     7
100
AcDbLine
 10
219.441334
 20
738.245444
 11
219.441334
 21
728.445456
  0
LINE
  5
2BE
100
AcDbEntity
  8
M0
 62
     7
100
AcDbLine
 10
219.441334
 20
728.445456
 11
210.954029
 21
723.545462
  0
CIRCLE
  5
2BF
100
AcDbEntity
  8
M0
 62
     7
100
AcDbCircle
 10
210.954029
 20
733.34545
 40
5.0
  0
LINE
  5
2C0
100
AcDbEntity
  8
M0
  6
DASHDOT
 62
     7
100
AcDbLine
 10
221.441212
 20
733.345358
 11
200.466801
 21
733.345358
  0
LINE
  5
2C1
100
AcDbEntity
  8
M0
  6
DASHDOT
 62
     7
100
AcDbLine
 10
210.953999
 20
742.832571
 11
210.954014
 21
721.85816
  0
TEXT
  5
2C2
100
AcDbEntity
  8
M0
 62
     7
100
AcDbText
 10
132.629073
 20
900.89527
 40
3.5
  1
Ａ２
 41
0.64286
  7
STANDARD
100
AcDbText
  0
LINE
  5
2C3
100
AcDbEntity
  8
M0
 62
     7
100
AcDbLine
 10
386.953953
 20
711.34548
 11
386.953953
 21
931.345465
  0
LINE
  5
2C4
100
AcDbEntity
  8
M0
 62
     7
100
AcDbLine
 10
381.953953
 20
936.345465
 11
253.953968
 21
936.345465
  0
LINE
  5
2C5
100
AcDbEntity
  8
M0
 62
     7
100
AcDbLine
 10
248.953968
 20
931.345465
 11
248.953968
 21
711.34548
  0
LINE
  5
2C6
100
AcDbEntity
  8
M0
 62
     7
100
AcDbLine
 10
253.953968
 20
706.34548
 11
381.953953
 21
706.34548
  0
ARC
  5
2C7
100
AcDbEntity
  8
M0
 62
     7
100
AcDbCircle
 10
381.953953
 20
931.345465
 40
5.0
100
AcDbArc
 50
0.0
 51
90.0
  0
ARC
  5
2C8
100
AcDbEntity
  8
M0
 62
     7
100
AcDbCircle
 10
253.953968
 20
931.345465
 40
5.0
100
AcDbArc
 50
89.999825
 51
180.0
  0
ARC
  5
2C9
100
AcDbEntity
  8
M0
 62
     7
100
AcDbCircle
 10
253.953968
 20
711.34548
 40
5.0
100
AcDbArc
 50
179.999825
 51
270.0
  0
ARC
  5
2CA
100
AcDbEntity
  8
M0
 62
     7
100
AcDbCircle
 10
381.953953
 20
711.34548
 40
5.0
100
AcDbArc
 50
269.999825
 51
360.0
  0
LINE
  5
2CB
100
AcDbEntity
  8
M0
 62
     7
100
AcDbLine
 10
332.953961
 20
936.345465
 11
332.953961
 21
926.345465
  0
LINE
  5
2CC
100
AcDbEntity
  8
M0
 62
     7
100
AcDbLine
 10
352.953953
 20
936.345465
 11
352.953953
 21
926.345465
  0
ARC
  5
2CD
100
AcDbEntity
  8
M0
 62
     7
100
AcDbCircle
 10
342.953953
 20
926.345465
 40
10.0
100
AcDbArc
 50
180.0
 51
269.999913
  0
ARC
  5
2CE
100
AcDbEntity
  8
M0
 62
     7
100
AcDbCircle
 10
342.953953
 20
926.345465
 40
10.0
100
AcDbArc
 50
269.999913
 51
360.0
  0
CIRCLE
  5
2CF
100
AcDbEntity
  8
M0
 62
     7
100
AcDbCircle
 10
342.953953
 20
926.345465
 40
4.5
  0
ARC
  5
2D0
100
AcDbEntity
  8
M0
 62
     7
100
AcDbCircle
 10
292.953968
 20
926.345465
 40
10.0
100
AcDbArc
 50
-90.0
 51
0.0
  0
ARC
  5
2D1
100
AcDbEntity
  8
M0
 62
     7
100
AcDbCircle
 10
292.953968
 20
926.345465
 40
10.0
100
AcDbArc
 50
180.0
 51
270.0
  0
LINE
  5
2D2
100
AcDbEntity
  8
M0
 62
     7
100
AcDbLine
 10
302.953968
 20
936.345465
 11
302.953968
 21
926.345465
  0
LINE
  5
2D3
100
AcDbEntity
  8
M0
 62
     7
100
AcDbLine
 10
282.953968
 20
936.345465
 11
282.953968
 21
926.345465
  0
CIRCLE
  5
2D4
100
AcDbEntity
  8
M0
 62
     7
100
AcDbCircle
 10
292.953968
 20
926.345465
 40
4.5
  0
ARC
  5
2D5
100
AcDbEntity
  8
M0
 62
     7
100
AcDbCircle
 10
292.953968
 20
716.34548
 40
10.0
100
AcDbArc
 50
0.0
 51
89.999913
  0
ARC
  5
2D6
100
AcDbEntity
  8
M0
 62
     7
100
AcDbCircle
 10
292.953968
 20
716.34548
 40
10.0
100
AcDbArc
 50
89.999913
 51
179.999913
  0
LINE
  5
2D7
100
AcDbEntity
  8
M0
 62
     7
100
AcDbLine
 10
302.953968
 20
706.34548
 11
302.953968
 21
716.34548
  0
LINE
  5
2D8
100
AcDbEntity
  8
M0
 62
     7
100
AcDbLine
 10
282.953968
 20
706.34548
 11
282.953968
 21
716.34548
  0
CIRCLE
  5
2D9
100
AcDbEntity
  8
M0
 62
     7
100
AcDbCircle
 10
292.953968
 20
716.34548
 40
4.5
  0
ARC
  5
2DA
100
AcDbEntity
  8
M0
 62
     7
100
AcDbCircle
 10
342.953953
 20
716.34548
 40
10.0
100
AcDbArc
 50
90.0
 51
179.999913
  0
ARC
  5
2DB
100
AcDbEntity
  8
M0
 62
     7
100
AcDbCircle
 10
342.953953
 20
716.34548
 40
10.0
100
AcDbArc
 50
0.0
 51
90.0
  0
LINE
  5
2DC
100
AcDbEntity
  8
M0
 62
     7
100
AcDbLine
 10
332.953961
 20
706.34548
 11
332.953961
 21
716.34548
  0
LINE
  5
2DD
100
AcDbEntity
  8
M0
 62
     7
100
AcDbLine
 10
352.953953
 20
706.34548
 11
352.953953
 21
716.34548
  0
CIRCLE
  5
2DE
100
AcDbEntity
  8
M0
 62
     7
100
AcDbCircle
 10
342.953953
 20
716.34548
 40
4.5
  0
CIRCLE
  5
2DF
100
AcDbEntity
  8
M0
 62
     7
100
AcDbCircle
 10
342.953953
 20
736.34548
 40
3.0
  0
CIRCLE
  5
2E0
100
AcDbEntity
  8
M0
 62
     7
100
AcDbCircle
 10
292.953968
 20
736.34548
 40
3.0
  0
ARC
  5
2E1
100
AcDbEntity
  8
M0
 62
     7
100
AcDbCircle
 10
370.953953
 20
884.345465
 40
2.0
100
AcDbArc
 50
0.0
 51
90.0
  0
ARC
  5
2E2
100
AcDbEntity
  8
M0
 62
     7
100
AcDbCircle
 10
362.953953
 20
884.345465
 40
2.0
100
AcDbArc
 50
90.0
 51
180.0
  0
LINE
  5
2E3
100
AcDbEntity
  8
M0
 62
     7
100
AcDbLine
 10
360.953953
 20
884.345465
 11
360.953953
 21
882.345465
  0
ARC
  5
2E4
100
AcDbEntity
  8
M0
 62
     7
100
AcDbCircle
 10
345.953953
 20
887.345465
 40
1.0
100
AcDbArc
 50
180.0
 51
269.999126
  0
LINE
  5
2E5
100
AcDbEntity
  8
M0
 62
     7
100
AcDbLine
 10
360.953953
 20
882.345465
 11
344.953953
 21
882.345465
  0
LINE
  5
2E6
100
AcDbEntity
  8
M0
 62
     7
100
AcDbLine
 10
344.953953
 20
882.345465
 11
344.953953
 21
894.345465
  0
ARC
  5
2E7
100
AcDbEntity
  8
M0
 62
     7
100
AcDbCircle
 10
342.953953
 20
894.345465
 40
2.0
100
AcDbArc
 50
0.0
 51
90.0
  0
ARC
  5
2E8
100
AcDbEntity
  8
M0
 62
     7
100
AcDbCircle
 10
332.953961
 20
894.345465
 40
2.0
100
AcDbArc
 50
90.0
 51
180.0
  0
ARC
  5
2E9
100
AcDbEntity
  8
M0
 62
     7
100
AcDbCircle
 10
329.953961
 20
887.345465
 40
1.0
100
AcDbArc
 50
270.0
 51
360.0
  0
LINE
  5
2EA
100
AcDbEntity
  8
M0
 62
     7
100
AcDbLine
 10
325.953961
 20
885.345465
 11
325.953961
 21
882.345465
  0
ARC
  5
2EB
100
AcDbEntity
  8
M0
 62
     7
100
AcDbCircle
 10
326.953961
 20
885.345465
 40
1.0
100
AcDbArc
 50
90.0
 51
180.0
  0
LINE
  5
2EC
100
AcDbEntity
  8
M0
 62
     7
100
AcDbLine
 10
330.953961
 20
887.345465
 11
330.953961
 21
894.345465
  0
LINE
  5
2ED
100
AcDbEntity
  8
M0
 62
     7
100
AcDbLine
 10
370.953953
 20
886.345465
 11
345.953953
 21
886.345465
  0
LINE
  5
2EE
100
AcDbEntity
  8
M0
 62
     7
100
AcDbLine
 10
360.953953
 20
758.34548
 11
360.953953
 21
760.345465
  0
ARC
  5
2EF
100
AcDbEntity
  8
M0
 62
     7
100
AcDbCircle
 10
362.953953
 20
758.34548
 40
2.0
100
AcDbArc
 50
179.999563
 51
269.999563
  0
ARC
  5
2F0
100
AcDbEntity
  8
M0
 62
     7
100
AcDbCircle
 10
370.953953
 20
758.34548
 40
2.0
100
AcDbArc
 50
-90.000437
 51
0.0
  0
ARC
  5
2F1
100
AcDbEntity
  8
M0
 62
     7
100
AcDbCircle
 10
342.953953
 20
748.34548
 40
2.0
100
AcDbArc
 50
269.999563
 51
360.0
  0
LINE
  5
2F2
100
AcDbEntity
  8
M0
 62
     7
100
AcDbLine
 10
332.953961
 20
746.34548
 11
342.953953
 21
746.34548
  0
LINE
  5
2F3
100
AcDbEntity
  8
M0
 62
     7
100
AcDbLine
 10
360.953953
 20
760.345465
 11
344.953953
 21
760.345465
  0
LINE
  5
2F4
100
AcDbEntity
  8
M0
 62
     7
100
AcDbLine
 10
372.953953
 20
758.34548
 11
372.953953
 21
884.345465
  0
LINE
  5
2F5
100
AcDbEntity
  8
M0
 62
     7
100
AcDbLine
 10
325.953961
 20
882.345465
 11
317.953968
 21
882.345465
  0
LINE
  5
2F6
100
AcDbEntity
  8
M0
 62
     7
100
AcDbLine
 10
325.953961
 20
760.345465
 11
317.953968
 21
760.345465
  0
LINE
  5
2F7
100
AcDbEntity
  8
M0
 62
     7
100
AcDbLine
 10
325.953961
 20
757.34548
 11
325.953961
 21
760.345465
  0
ARC
  5
2F8
100
AcDbEntity
  8
M0
 62
     7
100
AcDbCircle
 10
326.953961
 20
757.34548
 40
1.0
100
AcDbArc
 50
179.999126
 51
270.0
  0
LINE
  5
2F9
100
AcDbEntity
  8
M0
 62
     7
100
AcDbLine
 10
370.953953
 20
756.34548
 11
344.953953
 21
756.34548
  0
LINE
  5
2FA
100
AcDbEntity
  8
M0
 62
     7
100
AcDbLine
 10
342.953953
 20
896.345465
 11
332.953961
 21
896.345465
  0
LINE
  5
2FB
100
AcDbEntity
  8
M0
 62
     7
100
AcDbLine
 10
330.953961
 20
756.34548
 11
317.953968
 21
756.34548
  0
LINE
  5
2FC
100
AcDbEntity
  8
M0
 62
     7
100
AcDbLine
 10
329.953961
 20
886.345465
 11
317.953968
 21
886.345465
  0
CIRCLE
  5
2FD
100
AcDbEntity
  8
M0
 62
     7
100
AcDbCircle
 10
337.953953
 20
888.345465
 40
1.86
  0
CIRCLE
  5
2FE
100
AcDbEntity
  8
M0
 62
     7
100
AcDbCircle
 10
337.953953
 20
754.34548
 40
4.5
  0
CIRCLE
  5
2FF
100
AcDbEntity
  8
M0
 62
     7
100
AcDbCircle
 10
337.953953
 20
888.345465
 40
1.36
  0
CIRCLE
  5
300
100
AcDbEntity
  8
M0
 62
     7
100
AcDbCircle
 10
337.953953
 20
754.34548
 40
2.25
  0
LINE
  5
301
100
AcDbEntity
  8
M0
 62
     7
100
AcDbLine
 10
330.953961
 20
756.34548
 11
330.953961
 21
748.34548
  0
ARC
  5
302
100
AcDbEntity
  8
M0
 62
     7
100
AcDbCircle
 10
332.953961
 20
748.34548
 40
2.0
100
AcDbArc
 50
179.999563
 51
270.0
  0
LINE
  5
303
100
AcDbEntity
  8
M0
 62
     7
100
AcDbLine
 10
344.953953
 20
760.345465
 11
344.953953
 21
748.34548
  0
ARC
  5
304
100
AcDbEntity
  8
M0
 62
     7
100
AcDbCircle
 10
264.953968
 20
758.34548
 40
2.0
100
AcDbArc
 50
179.999563
 51
270.0
  0
ARC
  5
305
100
AcDbEntity
  8
M0
 62
     7
100
AcDbCircle
 10
272.953968
 20
758.34548
 40
2.0
100
AcDbArc
 50
270.0
 51
360.0
  0
LINE
  5
306
100
AcDbEntity
  8
M0
 62
     7
100
AcDbLine
 10
274.953968
 20
758.34548
 11
274.953968
 21
760.345465
  0
ARC
  5
307
100
AcDbEntity
  8
M0
 62
     7
100
AcDbCircle
 10
289.953968
 20
755.34548
 40
1.0
100
AcDbArc
 50
0.0
 51
89.999126
  0
LINE
  5
308
100
AcDbEntity
  8
M0
 62
     7
100
AcDbLine
 10
274.953968
 20
760.345465
 11
290.953968
 21
760.345465
  0
LINE
  5
309
100
AcDbEntity
  8
M0
 62
     7
100
AcDbLine
 10
290.953968
 20
760.345465
 11
290.953968
 21
748.34548
  0
ARC
  5
30A
100
AcDbEntity
  8
M0
 62
     7
100
AcDbCircle
 10
292.953968
 20
748.34548
 40
2.0
100
AcDbArc
 50
179.999563
 51
270.0
  0
ARC
  5
30B
100
AcDbEntity
  8
M0
 62
     7
100
AcDbCircle
 10
302.953968
 20
748.34548
 40
2.0
100
AcDbArc
 50
270.0
 51
360.0
  0
ARC
  5
30C
100
AcDbEntity
  8
M0
 62
     7
100
AcDbCircle
 10
305.953968
 20
755.34548
 40
1.0
100
AcDbArc
 50
90.0
 51
179.999126
  0
LINE
  5
30D
100
AcDbEntity
  8
M0
 62
     7
100
AcDbLine
 10
309.953968
 20
757.34548
 11
309.953968
 21
760.345465
  0
ARC
  5
30E
100
AcDbEntity
  8
M0
 62
     7
100
AcDbCircle
 10
308.953968
 20
757.34548
 40
1.0
100
AcDbArc
 50
270.0
 51
360.0
  0
LINE
  5
30F
100
AcDbEntity
  8
M0
 62
     7
100
AcDbLine
 10
304.953968
 20
755.34548
 11
304.953968
 21
748.34548
  0
LINE
  5
310
100
AcDbEntity
  8
M0
 62
     7
100
AcDbLine
 10
264.953968
 20
756.34548
 11
289.953968
 21
756.34548
  0
LINE
  5
311
100
AcDbEntity
  8
M0
 62
     7
100
AcDbLine
 10
274.953968
 20
884.345465
 11
274.953968
 21
882.345465
  0
ARC
  5
312
100
AcDbEntity
  8
M0
 62
     7
100
AcDbCircle
 10
272.953968
 20
884.345465
 40
2.0
100
AcDbArc
 50
0.0
 51
89.999563
  0
ARC
  5
313
100
AcDbEntity
  8
M0
 62
     7
100
AcDbCircle
 10
264.953968
 20
884.345465
 40
2.0
100
AcDbArc
 50
89.999563
 51
180.0
  0
ARC
  5
314
100
AcDbEntity
  8
M0
 62
     7
100
AcDbCircle
 10
292.953968
 20
894.345465
 40
2.0
100
AcDbArc
 50
89.999563
 51
180.0
  0
LINE
  5
315
100
AcDbEntity
  8
M0
 62
     7
100
AcDbLine
 10
302.953968
 20
896.345465
 11
292.953968
 21
896.345465
  0
LINE
  5
316
100
AcDbEntity
  8
M0
 62
     7
100
AcDbLine
 10
274.953968
 20
882.345465
 11
290.953968
 21
882.345465
  0
LINE
  5
317
100
AcDbEntity
  8
M0
 62
     7
100
AcDbLine
 10
262.953968
 20
884.345465
 11
262.953968
 21
758.34548
  0
LINE
  5
318
100
AcDbEntity
  8
M0
 62
     7
100
AcDbLine
 10
309.953968
 20
760.345465
 11
317.953968
 21
760.345465
  0
LINE
  5
319
100
AcDbEntity
  8
M0
 62
     7
100
AcDbLine
 10
309.953968
 20
882.345465
 11
317.953968
 21
882.345465
  0
LINE
  5
31A
100
AcDbEntity
  8
M0
 62
     7
100
AcDbLine
 10
309.953968
 20
885.345465
 11
309.953968
 21
882.345465
  0
ARC
  5
31B
100
AcDbEntity
  8
M0
 62
     7
100
AcDbCircle
 10
308.953968
 20
885.345465
 40
1.0
100
AcDbArc
 50
0.0
 51
90.0
  0
LINE
  5
31C
100
AcDbEntity
  8
M0
 62
     7
100
AcDbLine
 10
264.953968
 20
886.345465
 11
290.953968
 21
886.345465
  0
LINE
  5
31D
100
AcDbEntity
  8
M0
 62
     7
100
AcDbLine
 10
292.953968
 20
746.34548
 11
302.953968
 21
746.34548
  0
LINE
  5
31E
100
AcDbEntity
  8
M0
 62
     7
100
AcDbLine
 10
304.953968
 20
886.345465
 11
317.953968
 21
886.345465
  0
LINE
  5
31F
100
AcDbEntity
  8
M0
 62
     7
100
AcDbLine
 10
305.953968
 20
756.34548
 11
317.953968
 21
756.34548
  0
CIRCLE
  5
320
100
AcDbEntity
  8
M0
 62
     7
100
AcDbCircle
 10
297.953968
 20
754.34548
 40
1.86
  0
CIRCLE
  5
321
100
AcDbEntity
  8
M0
 62
     7
100
AcDbCircle
 10
297.953968
 20
888.345465
 40
4.5
  0
CIRCLE
  5
322
100
AcDbEntity
  8
M0
 62
     7
100
AcDbCircle
 10
297.953968
 20
754.34548
 40
1.36
  0
CIRCLE
  5
323
100
AcDbEntity
  8
M0
 62
     7
100
AcDbCircle
 10
297.953968
 20
888.345465
 40
2.25
  0
LINE
  5
324
100
AcDbEntity
  8
M0
 62
     7
100
AcDbLine
 10
304.953968
 20
886.345465
 11
304.953968
 21
894.345465
  0
ARC
  5
325
100
AcDbEntity
  8
M0
 62
     7
100
AcDbCircle
 10
302.953968
 20
894.345465
 40
2.0
100
AcDbArc
 50
0.0
 51
90.0
  0
LINE
  5
326
100
AcDbEntity
  8
M0
 62
     7
100
AcDbLine
 10
290.953968
 20
882.345465
 11
290.953968
 21
894.345465
  0
ARC
  5
327
100
AcDbEntity
  8
M0
 62
     7
100
AcDbCircle
 10
384.953953
 20
905.845465
 40
2.0
100
AcDbArc
 50
0.0
 51
90.0
  0
LINE
  5
328
100
AcDbEntity
  8
M0
 62
     7
100
AcDbLine
 10
384.953953
 20
907.845465
 11
380.453953
 21
907.845465
  0
LINE
  5
329
100
AcDbEntity
  8
M0
 62
     7
100
AcDbLine
 10
303.953968
 20
907.845465
 11
305.453968
 21
907.845465
  0
ARC
  5
32A
100
AcDbEntity
  8
M0
 62
     7
100
AcDbCircle
 10
331.953961
 20
906.845465
 40
1.0
100
AcDbArc
 50
0.0
 51
90.0
  0
LINE
  5
32B
100
AcDbEntity
  8
M0
 62
     7
100
AcDbLine
 10
332.953961
 20
906.845465
 11
332.953961
 21
897.345465
  0
ARC
  5
32C
100
AcDbEntity
  8
M0
 62
     7
100
AcDbCircle
 10
333.953961
 20
897.345465
 40
1.0
100
AcDbArc
 50
180.0
 51
270.0
  0
ARC
  5
32D
100
AcDbEntity
  8
M0
 62
     7
100
AcDbCircle
 10
342.953953
 20
894.345465
 40
2.0
100
AcDbArc
 50
0.0
 51
90.0
  0
LINE
  5
32E
100
AcDbEntity
  8
M0
 62
     7
100
AcDbLine
 10
344.953953
 20
894.345465
 11
344.953953
 21
888.845465
  0
ARC
  5
32F
100
AcDbEntity
  8
M0
 62
     7
100
AcDbCircle
 10
332.953961
 20
894.345465
 40
2.0
100
AcDbArc
 50
90.0
 51
180.0
  0
LINE
  5
330
100
AcDbEntity
  8
M0
 62
     7
100
AcDbLine
 10
354.244282
 20
896.345465
 11
330.453961
 21
896.345465
  0
LINE
  5
331
100
AcDbEntity
  8
M0
 62
     7
100
AcDbLine
 10
250.953968
 20
746.34548
 11
260.703968
 21
746.34548
  0
LINE
  5
332
100
AcDbEntity
  8
M0
 62
     7
100
AcDbLine
 10
386.953953
 20
748.34548
 11
386.953953
 21
905.845465
  0
ARC
  5
333
100
AcDbEntity
  8
M0
 62
     7
100
AcDbCircle
 10
384.953953
 20
748.34548
 40
2.0
100
AcDbArc
 50
269.999563
 51
360.0
  0
ARC
  5
334
100
AcDbEntity
  8
M0
 62
     7
100
AcDbCircle
 10
332.953961
 20
748.34548
 40
2.0
100
AcDbArc
 50
179.999563
 51
270.0
  0
ARC
  5
335
100
AcDbEntity
  8
M0
 62
     7
100
AcDbCircle
 10
342.953953
 20
748.34548
 40
2.0
100
AcDbArc
 50
-90.000437
 51
0.0
  0
LINE
  5
336
100
AcDbEntity
  8
M0
 62
     7
100
AcDbLine
 10
344.953953
 20
748.34548
 11
344.953953
 21
753.84548
  0
CIRCLE
  5
337
100
AcDbEntity
  8
M0
 62
     7
100
AcDbCircle
 10
378.953953
 20
891.845465
 40
2.75
  0
ARC
  5
338
100
AcDbEntity
  8
M0
 62
     7
100
AcDbCircle
 10
250.953968
 20
905.845465
 40
2.0
100
AcDbArc
 50
89.999563
 51
180.0
  0
ARC
  5
339
100
AcDbEntity
  8
M0
 62
     7
100
AcDbCircle
 10
303.953968
 20
906.845465
 40
1.0
100
AcDbArc
 50
90.0
 51
180.0
  0
LINE
  5
33A
100
AcDbEntity
  8
M0
 62
     7
100
AcDbLine
 10
302.953968
 20
906.845465
 11
302.953968
 21
897.345465
  0
ARC
  5
33B
100
AcDbEntity
  8
M0
 62
     7
100
AcDbCircle
 10
301.953968
 20
897.345465
 40
1.0
100
AcDbArc
 50
-90.0
 51
0.0
  0
ARC
  5
33C
100
AcDbEntity
  8
M0
 62
     7
100
AcDbCircle
 10
292.953968
 20
894.345465
 40
2.0
100
AcDbArc
 50
89.999563
 51
180.0
  0
LINE
  5
33D
100
AcDbEntity
  8
M0
 62
     7
100
AcDbLine
 10
290.953968
 20
894.345465
 11
290.953968
 21
888.845465
  0
ARC
  5
33E
100
AcDbEntity
  8
M0
 62
     7
100
AcDbCircle
 10
302.953968
 20
894.345465
 40
2.0
100
AcDbArc
 50
0.0
 51
90.0
  0
LINE
  5
33F
100
AcDbEntity
  8
M0
 62
     7
100
AcDbLine
 10
248.953968
 20
748.34548
 11
248.953968
 21
905.845465
  0
ARC
  5
340
100
AcDbEntity
  8
M0
 62
     7
100
AcDbCircle
 10
250.953968
 20
748.34548
 40
2.0
100
AcDbArc
 50
179.999563
 51
270.0
  0
ARC
  5
341
100
AcDbEntity
  8
M0
 62
     7
100
AcDbCircle
 10
302.953968
 20
748.34548
 40
2.0
100
AcDbArc
 50
270.0
 51
360.0
  0
ARC
  5
342
100
AcDbEntity
  8
M0
 62
     7
100
AcDbCircle
 10
292.953968
 20
748.34548
 40
2.0
100
AcDbArc
 50
179.999563
 51
270.0
  0
LINE
  5
343
100
AcDbEntity
  8
M0
 62
     7
100
AcDbLine
 10
290.953968
 20
748.34548
 11
290.953968
 21
753.84548
  0
CIRCLE
  5
344
100
AcDbEntity
  8
M0
 62
     7
100
AcDbCircle
 10
256.953968
 20
891.845465
 40
2.75
  0
LINE
  5
345
100
AcDbEntity
  8
M0
 62
     7
100
AcDbLine
 10
372.953953
 20
748.916907
 11
372.953953
 21
795.845465
  0
CIRCLE
  5
346
100
AcDbEntity
  8
M0
 62
     7
100
AcDbCircle
 10
256.953968
 20
750.84548
 40
2.75
  0
CIRCLE
  5
347
100
AcDbEntity
  8
M0
 62
     7
100
AcDbCircle
 10
378.953953
 20
750.84548
 40
2.75
  0
LINE
  5
348
100
AcDbEntity
  8
M0
 62
     7
100
AcDbLine
 10
384.453953
 20
856.345465
 11
384.453953
 21
848.845465
  0
LINE
  5
349
100
AcDbEntity
  8
M0
 62
     7
100
AcDbLine
 10
384.453953
 20
856.345465
 11
386.953953
 21
856.345465
  0
LINE
  5
34A
100
AcDbEntity
  8
M0
 62
     7
100
AcDbLine
 10
379.953953
 20
825.095465
 11
386.953953
 21
825.095465
  0
ARC
  5
34B
100
AcDbEntity
  8
M0
 62
     7
100
AcDbCircle
 10
379.953953
 20
824.095465
 40
1.0
100
AcDbArc
 50
90.0
 51
180.0
  0
LINE
  5
34C
100
AcDbEntity
  8
M0
 62
     7
100
AcDbLine
 10
378.953953
 20
824.095465
 11
378.953953
 21
818.595465
  0
LINE
  5
34D
100
AcDbEntity
  8
M0
 62
     7
100
AcDbLine
 10
379.953953
 20
817.595465
 11
386.953953
 21
817.595465
  0
ARC
  5
34E
100
AcDbEntity
  8
M0
 62
     7
100
AcDbCircle
 10
379.953953
 20
818.595465
 40
1.0
100
AcDbArc
 50
179.999945
 51
269.999126
  0
LINE
  5
34F
100
AcDbEntity
  8
M0
 62
     7
100
AcDbLine
 10
386.953953
 20
824.095465
 11
382.953953
 21
824.095465
  0
LINE
  5
350
100
AcDbEntity
  8
M0
 62
     7
100
AcDbLine
 10
386.953953
 20
818.595465
 11
382.953953
 21
818.595465
  0
LINE
  5
351
100
AcDbEntity
  8
M0
 62
     7
100
AcDbLine
 10
383.453953
 20
848.845465
 11
386.953953
 21
848.845465
  0
ARC
  5
352
100
AcDbEntity
  8
M0
 62
     7
100
AcDbCircle
 10
383.453953
 20
848.345465
 40
0.5
100
AcDbArc
 50
90.0
 51
180.0
  0
LINE
  5
353
100
AcDbEntity
  8
M0
 62
     7
100
AcDbLine
 10
374.953953
 20
845.345465
 11
382.953953
 21
845.345465
  0
LINE
  5
354
100
AcDbEntity
  8
M0
 62
     7
100
AcDbLine
 10
382.953953
 20
825.095465
 11
382.953953
 21
824.095465
  0
LINE
  5
355
100
AcDbEntity
  8
M0
 62
     7
100
AcDbLine
 10
382.953953
 20
848.345465
 11
382.953953
 21
827.845465
  0
LINE
  5
356
100
AcDbEntity
  8
M0
 62
     7
100
AcDbLine
 10
383.453953
 20
838.845465
 11
386.953953
 21
838.845465
  0
ARC
  5
357
100
AcDbEntity
  8
M0
 62
     7
100
AcDbCircle
 10
383.453953
 20
838.345465
 40
0.5
100
AcDbArc
 50
90.0
 51
180.0
  0
LINE
  5
358
100
AcDbEntity
  8
M0
 62
     7
100
AcDbLine
 10
374.953953
 20
797.345465
 11
382.953953
 21
797.345465
  0
LINE
  5
359
100
AcDbEntity
  8
M0
 62
     7
100
AcDbLine
 10
382.953953
 20
794.345465
 11
382.953953
 21
814.845465
  0
LINE
  5
35A
100
AcDbEntity
  8
M0
 62
     7
100
AcDbLine
 10
383.453953
 20
803.845465
 11
386.953953
 21
803.845465
  0
LINE
  5
35B
100
AcDbEntity
  8
M0
 62
     7
100
AcDbLine
 10
262.953968
 20
893.773947
 11
262.953968
 21
846.845465
  0
LINE
  5
35C
100
AcDbEntity
  8
M0
 62
     7
100
AcDbLine
 10
372.953953
 20
893.7741
 11
372.953953
 21
846.845465
  0
LINE
  5
35D
100
AcDbEntity
  8
M0
 62
     7
100
AcDbLine
 10
372.953953
 20
795.845465
 11
372.953953
 21
748.916907
  0
LINE
  5
35E
100
AcDbEntity
  8
M0
 62
     7
100
AcDbLine
 10
262.953968
 20
795.845465
 11
262.953968
 21
748.916907
  0
ARC
  5
35F
100
AcDbEntity
  8
M0
 62
     7
100
AcDbCircle
 10
383.453953
 20
804.345465
 40
0.5
100
AcDbArc
 50
179.998251
 51
269.998251
  0
LINE
  5
360
100
AcDbEntity
  8
M0
 62
     7
100
AcDbLine
 10
382.953953
 20
794.345465
 11
382.953953
 21
814.845465
  0
LINE
  5
361
100
AcDbEntity
  8
M0
 62
     7
100
AcDbLine
 10
384.453953
 20
786.345465
 11
384.453953
 21
793.845465
  0
LINE
  5
362
100
AcDbEntity
  8
M0
 62
     7
100
AcDbLine
 10
384.453953
 20
786.345465
 11
386.953953
 21
786.345465
  0
ARC
  5
363
100
AcDbEntity
  8
M0
 62
     7
100
AcDbCircle
 10
383.453953
 20
794.345465
 40
0.5
100
AcDbArc
 50
179.998251
 51
269.998251
  0
LINE
  5
364
100
AcDbEntity
  8
M0
 62
     7
100
AcDbLine
 10
383.453953
 20
793.845465
 11
386.953953
 21
793.845465
  0
LINE
  5
365
100
AcDbEntity
  8
M0
 62
     7
100
AcDbLine
 10
382.953953
 20
817.595465
 11
382.953953
 21
818.595465
  0
LINE
  5
366
100
AcDbEntity
  8
M0
 62
     7
100
AcDbLine
 10
251.453968
 20
856.345465
 11
251.453968
 21
848.845465
  0
LINE
  5
367
100
AcDbEntity
  8
M0
 62
     7
100
AcDbLine
 10
251.453968
 20
856.345465
 11
248.953968
 21
856.345465
  0
LINE
  5
368
100
AcDbEntity
  8
M0
 62
     7
100
AcDbLine
 10
255.953968
 20
825.095465
 11
248.953968
 21
825.095465
  0
ARC
  5
369
100
AcDbEntity
  8
M0
 62
     7
100
AcDbCircle
 10
255.953968
 20
824.095465
 40
1.0
100
AcDbArc
 50
0.0
 51
89.999126
  0
LINE
  5
36A
100
AcDbEntity
  8
M0
 62
     7
100
AcDbLine
 10
256.953968
 20
824.095465
 11
256.953968
 21
818.595465
  0
LINE
  5
36B
100
AcDbEntity
  8
M0
 62
     7
100
AcDbLine
 10
255.953968
 20
817.595465
 11
248.953968
 21
817.595465
  0
ARC
  5
36C
100
AcDbEntity
  8
M0
 62
     7
100
AcDbCircle
 10
255.953968
 20
818.595465
 40
1.0
100
AcDbArc
 50
-90.0
 51
0.0
  0
LINE
  5
36D
100
AcDbEntity
  8
M0
 62
     7
100
AcDbLine
 10
248.953968
 20
824.095465
 11
252.953968
 21
824.095465
  0
LINE
  5
36E
100
AcDbEntity
  8
M0
 62
     7
100
AcDbLine
 10
248.953968
 20
818.595465
 11
252.953968
 21
818.595465
  0
LINE
  5
36F
100
AcDbEntity
  8
M0
 62
     7
100
AcDbLine
 10
252.453968
 20
848.845465
 11
248.953968
 21
848.845465
  0
ARC
  5
370
100
AcDbEntity
  8
M0
 62
     7
100
AcDbCircle
 10
252.453968
 20
848.345465
 40
0.5
100
AcDbArc
 50
0.0
 51
89.998251
  0
LINE
  5
371
100
AcDbEntity
  8
M0
 62
     7
100
AcDbLine
 10
260.953968
 20
845.345465
 11
252.953968
 21
845.345465
  0
LINE
  5
372
100
AcDbEntity
  8
M0
 62
     7
100
AcDbLine
 10
252.953968
 20
825.095465
 11
252.953968
 21
824.095465
  0
LINE
  5
373
100
AcDbEntity
  8
M0
 62
     7
100
AcDbLine
 10
252.953968
 20
848.345465
 11
252.953968
 21
827.845465
  0
LINE
  5
374
100
AcDbEntity
  8
M0
 62
     7
100
AcDbLine
 10
252.453968
 20
838.845465
 11
248.953968
 21
838.845465
  0
ARC
  5
375
100
AcDbEntity
  8
M0
 62
     7
100
AcDbCircle
 10
252.453968
 20
838.345465
 40
0.5
100
AcDbArc
 50
0.0
 51
89.998251
  0
LINE
  5
376
100
AcDbEntity
  8
M0
 62
     7
100
AcDbLine
 10
260.953968
 20
797.345465
 11
252.953968
 21
797.345465
  0
LINE
  5
377
100
AcDbEntity
  8
M0
 62
     7
100
AcDbLine
 10
252.953968
 20
794.345465
 11
252.953968
 21
814.845465
  0
LINE
  5
378
100
AcDbEntity
  8
M0
 62
     7
100
AcDbLine
 10
252.453968
 20
803.845465
 11
248.953968
 21
803.845465
  0
ARC
  5
379
100
AcDbEntity
  8
M0
 62
     7
100
AcDbCircle
 10
252.453968
 20
804.345465
 40
0.5
100
AcDbArc
 50
270.0
 51
360.0
  0
LINE
  5
37A
100
AcDbEntity
  8
M0
 62
     7
100
AcDbLine
 10
252.953968
 20
794.345465
 11
252.953968
 21
814.845465
  0
LINE
  5
37B
100
AcDbEntity
  8
M0
 62
     7
100
AcDbLine
 10
251.453968
 20
786.345465
 11
251.453968
 21
793.845465
  0
LINE
  5
37C
100
AcDbEntity
  8
M0
 62
     7
100
AcDbLine
 10
251.453968
 20
786.345465
 11
248.953968
 21
786.345465
  0
ARC
  5
37D
100
AcDbEntity
  8
M0
 62
     7
100
AcDbCircle
 10
252.453968
 20
794.345465
 40
0.5
100
AcDbArc
 50
270.0
 51
360.0
  0
LINE
  5
37E
100
AcDbEntity
  8
M0
 62
     7
100
AcDbLine
 10
252.453968
 20
793.845465
 11
248.953968
 21
793.845465
  0
LINE
  5
37F
100
AcDbEntity
  8
M0
 62
     7
100
AcDbLine
 10
252.953968
 20
817.595465
 11
252.953968
 21
818.595465
  0
CIRCLE
  5
380
100
AcDbEntity
  8
M0
 62
     7
100
AcDbCircle
 10
378.953953
 20
831.845465
 40
2.0
  0
CIRCLE
  5
381
100
AcDbEntity
  8
M0
 62
     7
100
AcDbCircle
 10
378.953953
 20
810.845465
 40
2.0
  0
CIRCLE
  5
382
100
AcDbEntity
  8
M0
 62
     7
100
AcDbCircle
 10
256.953968
 20
831.845465
 40
2.0
  0
CIRCLE
  5
383
100
AcDbEntity
  8
M0
 62
     7
100
AcDbCircle
 10
256.953968
 20
810.845465
 40
2.0
  0
CIRCLE
  5
384
100
AcDbEntity
  8
M0
 62
     7
100
AcDbCircle
 10
378.953953
 20
841.345465
 40
2.0
  0
LINE
  5
385
100
AcDbEntity
  8
M0
 62
     7
100
AcDbLine
 10
372.953953
 20
846.845465
 11
382.953953
 21
846.845465
  0
LINE
  5
386
100
AcDbEntity
  8
M0
 62
     7
100
AcDbLine
 10
374.953953
 20
835.845465
 11
382.953953
 21
835.845465
  0
LINE
  5
387
100
AcDbEntity
  8
M0
 62
     7
100
AcDbLine
 10
376.203953
 20
831.845465
 11
376.203953
 21
835.845465
  0
LINE
  5
388
100
AcDbEntity
  8
M0
 62
     7
100
AcDbLine
 10
381.703953
 20
831.845465
 11
381.703953
 21
835.845465
  0
ARC
  5
389
100
AcDbEntity
  8
M0
 62
     7
100
AcDbCircle
 10
378.953953
 20
831.845465
 40
2.75
100
AcDbArc
 50
179.99998
 51
360.0
  0
LINE
  5
38A
100
AcDbEntity
  8
M0
 62
     7
100
AcDbLine
 10
376.203953
 20
841.345465
 11
376.203953
 21
845.345465
  0
LINE
  5
38B
100
AcDbEntity
  8
M0
 62
     7
100
AcDbLine
 10
381.703953
 20
841.345465
 11
381.703953
 21
845.345465
  0
ARC
  5
38C
100
AcDbEntity
  8
M0
 62
     7
100
AcDbCircle
 10
378.953953
 20
841.345465
 40
2.75
100
AcDbArc
 50
180.0
 51
360.0
  0
ARC
  5
38D
100
AcDbEntity
  8
M0
 62
     7
100
AcDbCircle
 10
375.953953
 20
827.845465
 40
1.0
100
AcDbArc
 50
180.0
 51
269.999126
  0
LINE
  5
38E
100
AcDbEntity
  8
M0
 62
     7
100
AcDbLine
 10
375.953953
 20
826.845465
 11
381.953953
 21
826.845465
  0
ARC
  5
38F
100
AcDbEntity
  8
M0
 62
     7
100
AcDbCircle
 10
381.953953
 20
827.845465
 40
1.0
100
AcDbArc
 50
269.999126
 51
360.0
  0
LINE
  5
390
100
AcDbEntity
  8
M0
 62
     7
100
AcDbLine
 10
372.953953
 20
837.845465
 11
374.453953
 21
837.845465
  0
ARC
  5
391
100
AcDbEntity
  8
M0
 62
     7
100
AcDbCircle
 10
374.453953
 20
837.345465
 40
0.5
100
AcDbArc
 50
0.0
 51
90.0
  0
LINE
  5
392
100
AcDbEntity
  8
M0
 62
     7
100
AcDbLine
 10
374.953953
 20
846.345465
 11
374.953953
 21
827.845465
  0
ARC
  5
393
100
AcDbEntity
  8
M0
 62
     7
100
AcDbCircle
 10
374.453953
 20
846.345465
 40
0.5
100
AcDbArc
 50
0.0
 51
90.0
  0
CIRCLE
  5
394
100
AcDbEntity
  8
M0
 62
     7
100
AcDbCircle
 10
378.953953
 20
801.345465
 40
2.0
  0
LINE
  5
395
100
AcDbEntity
  8
M0
 62
     7
100
AcDbLine
 10
372.953953
 20
795.845465
 11
382.953953
 21
795.845465
  0
LINE
  5
396
100
AcDbEntity
  8
M0
 62
     7
100
AcDbLine
 10
374.953953
 20
806.845465
 11
382.953953
 21
806.845465
  0
LINE
  5
397
100
AcDbEntity
  8
M0
 62
     7
100
AcDbLine
 10
376.203953
 20
810.845465
 11
376.203953
 21
806.845465
  0
ARC
  5
398
100
AcDbEntity
  8
M0
 62
     7
100
AcDbCircle
 10
378.953953
 20
810.845465
 40
2.75
100
AcDbArc
 50
0.0
 51
179.99996
  0
LINE
  5
399
100
AcDbEntity
  8
M0
 62
     7
100
AcDbLine
 10
376.203953
 20
801.345465
 11
376.203953
 21
797.345465
  0
ARC
  5
39A
100
AcDbEntity
  8
M0
 62
     7
100
AcDbCircle
 10
378.953953
 20
801.345465
 40
2.75
100
AcDbArc
 50
0.0
 51
179.999682
  0
ARC
  5
39B
100
AcDbEntity
  8
M0
 62
     7
100
AcDbCircle
 10
375.953953
 20
814.845465
 40
1.0
100
AcDbArc
 50
90.0
 51
179.999945
  0
LINE
  5
39C
100
AcDbEntity
  8
M0
 62
     7
100
AcDbLine
 10
375.953953
 20
815.845465
 11
381.953953
 21
815.845465
  0
LINE
  5
39D
100
AcDbEntity
  8
M0
 62
     7
100
AcDbLine
 10
372.953953
 20
804.845465
 11
374.453953
 21
804.845465
  0
ARC
  5
39E
100
AcDbEntity
  8
M0
 62
     7
100
AcDbCircle
 10
374.453953
 20
805.345465
 40
0.5
100
AcDbArc
 50
-90.001749
 51
0.0
  0
LINE
  5
39F
100
AcDbEntity
  8
M0
 62
     7
100
AcDbLine
 10
374.953953
 20
796.345465
 11
374.953953
 21
814.845465
  0
ARC
  5
3A0
100
AcDbEntity
  8
M0
 62
     7
100
AcDbCircle
 10
374.453953
 20
796.345465
 40
0.5
100
AcDbArc
 50
-90.001749
 51
0.0
  0
ARC
  5
3A1
100
AcDbEntity
  8
M0
 62
     7
100
AcDbCircle
 10
381.953953
 20
814.845465
 40
1.0
100
AcDbArc
 50
0.0
 51
90.0
  0
LINE
  5
3A2
100
AcDbEntity
  8
M0
 62
     7
100
AcDbLine
 10
381.703953
 20
810.845465
 11
381.703953
 21
806.845465
  0
LINE
  5
3A3
100
AcDbEntity
  8
M0
 62
     7
100
AcDbLine
 10
381.703953
 20
801.345465
 11
381.703953
 21
797.345465
  0
CIRCLE
  5
3A4
100
AcDbEntity
  8
M0
 62
     7
100
AcDbCircle
 10
256.953968
 20
841.345465
 40
2.0
  0
LINE
  5
3A5
100
AcDbEntity
  8
M0
 62
     7
100
AcDbLine
 10
262.953968
 20
846.845465
 11
252.953968
 21
846.845465
  0
LINE
  5
3A6
100
AcDbEntity
  8
M0
 62
     7
100
AcDbLine
 10
260.953968
 20
835.845465
 11
252.953968
 21
835.845465
  0
LINE
  5
3A7
100
AcDbEntity
  8
M0
 62
     7
100
AcDbLine
 10
259.703968
 20
831.845465
 11
259.703968
 21
835.845465
  0
LINE
  5
3A8
100
AcDbEntity
  8
M0
 62
     7
100
AcDbLine
 10
254.203968
 20
831.845465
 11
254.203968
 21
835.845465
  0
ARC
  5
3A9
100
AcDbEntity
  8
M0
 62
     7
100
AcDbCircle
 10
256.953968
 20
831.845465
 40
2.75
100
AcDbArc
 50
-180.00002
 51
0.0
  0
LINE
  5
3AA
100
AcDbEntity
  8
M0
 62
     7
100
AcDbLine
 10
259.703968
 20
841.345465
 11
259.703968
 21
845.345465
  0
LINE
  5
3AB
100
AcDbEntity
  8
M0
 62
     7
100
AcDbLine
 10
254.203968
 20
841.345465
 11
254.203968
 21
845.345465
  0
ARC
  5
3AC
100
AcDbEntity
  8
M0
 62
     7
100
AcDbCircle
 10
256.953968
 20
841.345465
 40
2.75
100
AcDbArc
 50
-180.0
 51
0.0
  0
ARC
  5
3AD
100
AcDbEntity
  8
M0
 62
     7
100
AcDbCircle
 10
259.953968
 20
827.845465
 40
1.0
100
AcDbArc
 50
-90.0
 51
0.0
  0
LINE
  5
3AE
100
AcDbEntity
  8
M0
 62
     7
100
AcDbLine
 10
259.953968
 20
826.845465
 11
253.953968
 21
826.845465
  0
ARC
  5
3AF
100
AcDbEntity
  8
M0
 62
     7
100
AcDbCircle
 10
253.953968
 20
827.845465
 40
1.0
100
AcDbArc
 50
180.0
 51
270.0
  0
LINE
  5
3B0
100
AcDbEntity
  8
M0
 62
     7
100
AcDbLine
 10
262.953968
 20
837.845465
 11
261.453968
 21
837.845465
  0
ARC
  5
3B1
100
AcDbEntity
  8
M0
 62
     7
100
AcDbCircle
 10
261.453968
 20
837.345465
 40
0.5
100
AcDbArc
 50
89.998251
 51
180.0
  0
LINE
  5
3B2
100
AcDbEntity
  8
M0
 62
     7
100
AcDbLine
 10
260.953968
 20
846.345465
 11
260.953968
 21
827.845465
  0
ARC
  5
3B3
100
AcDbEntity
  8
M0
 62
     7
100
AcDbCircle
 10
261.453968
 20
846.345465
 40
0.5
100
AcDbArc
 50
89.998251
 51
180.0
  0
CIRCLE
  5
3B4
100
AcDbEntity
  8
M0
 62
     7
100
AcDbCircle
 10
256.953968
 20
801.345465
 40
2.0
  0
LINE
  5
3B5
100
AcDbEntity
  8
M0
 62
     7
100
AcDbLine
 10
262.953968
 20
795.845465
 11
252.953968
 21
795.845465
  0
LINE
  5
3B6
100
AcDbEntity
  8
M0
 62
     7
100
AcDbLine
 10
260.953968
 20
806.845465
 11
252.953968
 21
806.845465
  0
LINE
  5
3B7
100
AcDbEntity
  8
M0
 62
     7
100
AcDbLine
 10
259.703968
 20
810.845465
 11
259.703968
 21
806.845465
  0
ARC
  5
3B8
100
AcDbEntity
  8
M0
 62
     7
100
AcDbCircle
 10
256.953968
 20
810.845465
 40
2.75
100
AcDbArc
 50
0.0
 51
179.99996
  0
LINE
  5
3B9
100
AcDbEntity
  8
M0
 62
     7
100
AcDbLine
 10
259.703968
 20
801.345465
 11
259.703968
 21
797.345465
  0
ARC
  5
3BA
100
AcDbEntity
  8
M0
 62
     7
100
AcDbCircle
 10
256.953968
 20
801.345465
 40
2.75
100
AcDbArc
 50
0.0
 51
179.999682
  0
ARC
  5
3BB
100
AcDbEntity
  8
M0
 62
     7
100
AcDbCircle
 10
259.953968
 20
814.845465
 40
1.0
100
AcDbArc
 50
0.0
 51
89.999126
  0
LINE
  5
3BC
100
AcDbEntity
  8
M0
 62
     7
100
AcDbLine
 10
259.953968
 20
815.845465
 11
253.953968
 21
815.845465
  0
LINE
  5
3BD
100
AcDbEntity
  8
M0
 62
     7
100
AcDbLine
 10
262.953968
 20
804.845465
 11
261.453968
 21
804.845465
  0
ARC
  5
3BE
100
AcDbEntity
  8
M0
 62
     7
100
AcDbCircle
 10
261.453968
 20
805.345465
 40
0.5
100
AcDbArc
 50
179.998251
 51
270.0
  0
LINE
  5
3BF
100
AcDbEntity
  8
M0
 62
     7
100
AcDbLine
 10
260.953968
 20
796.345465
 11
260.953968
 21
814.845465
  0
ARC
  5
3C0
100
AcDbEntity
  8
M0
 62
     7
100
AcDbCircle
 10
261.453968
 20
796.345465
 40
0.5
100
AcDbArc
 50
179.998251
 51
270.0
  0
ARC
  5
3C1
100
AcDbEntity
  8
M0
 62
     7
100
AcDbCircle
 10
253.953968
 20
814.845465
 40
1.0
100
AcDbArc
 50
89.999126
 51
179.999945
  0
LINE
  5
3C2
100
AcDbEntity
  8
M0
 62
     7
100
AcDbLine
 10
254.203968
 20
810.845465
 11
254.203968
 21
806.845465
  0
LINE
  5
3C3
100
AcDbEntity
  8
M0
 62
     7
100
AcDbLine
 10
254.203968
 20
801.345465
 11
254.203968
 21
797.345465
  0
LINE
  5
3C4
100
AcDbEntity
  8
M0
 62
     7
100
AcDbLine
 10
330.453961
 20
746.34548
 11
354.244282
 21
746.34548
  0
LINE
  5
3C5
100
AcDbEntity
  8
M0
 62
     7
100
AcDbLine
 10
375.203953
 20
746.34548
 11
384.953953
 21
746.34548
  0
LINE
  5
3C6
100
AcDbEntity
  8
M0
 62
     7
100
AcDbLine
 10
281.663639
 20
746.34548
 11
305.453968
 21
746.34548
  0
LINE
  5
3C7
100
AcDbEntity
  8
M0
 62
     7
100
AcDbLine
 10
330.453961
 20
907.845465
 11
331.953961
 21
907.845465
  0
LINE
  5
3C8
100
AcDbEntity
  8
M0
 62
     7
100
AcDbLine
 10
305.453968
 20
896.345465
 11
281.663639
 21
896.345465
  0
LINE
  5
3C9
100
AcDbEntity
  8
M0
 62
     7
100
AcDbLine
 10
250.953968
 20
746.345572
 11
260.703968
 21
746.345572
  0
LINE
  5
3CA
100
AcDbEntity
  8
M0
 62
     7
100
AcDbLine
 10
305.953968
 20
896.344961
 11
303.453968
 21
896.344961
  0
ARC
  5
3CB
100
AcDbEntity
  8
M0
 62
     7
100
AcDbCircle
 10
250.953968
 20
748.345572
 40
2.0
100
AcDbArc
 50
179.999563
 51
270.0
  0
LINE
  5
3CC
100
AcDbEntity
  8
M0
 62
     7
100
AcDbLine
 10
305.453968
 20
907.84516
 11
280.453968
 21
907.845068
  0
ARC
  5
3CD
100
AcDbEntity
  8
M0
 62
     7
100
AcDbCircle
 10
250.953968
 20
905.844961
 40
2.0
100
AcDbArc
 50
89.999563
 51
180.0
  0
LINE
  5
3CE
100
AcDbEntity
  8
M0
 62
     7
100
AcDbLine
 10
302.953968
 20
905.84545
 11
302.953968
 21
896.844717
  0
LINE
  5
3CF
100
AcDbEntity
  8
M0
 62
     7
100
AcDbLine
 10
294.953968
 20
907.344961
 11
294.953968
 21
896.844717
  0
LINE
  5
3D0
100
AcDbEntity
  8
M0
 62
     7
100
AcDbLine
 10
280.953968
 20
896.84545
 11
288.953968
 21
896.84545
  0
LINE
  5
3D1
100
AcDbEntity
  8
M0
 62
     7
100
AcDbLine
 10
294.453968
 20
896.344961
 11
289.453968
 21
896.344961
  0
LINE
  5
3D2
100
AcDbEntity
  8
M0
 62
     7
100
AcDbLine
 10
280.953968
 20
905.34545
 11
288.953968
 21
905.34545
  0
ARC
  5
3D3
100
AcDbEntity
  8
M0
 62
     7
100
AcDbCircle
 10
303.453968
 20
896.844717
 40
0.5
100
AcDbArc
 50
180.0
 51
270.0
  0
ARC
  5
3D4
100
AcDbEntity
  8
M0
 62
     7
100
AcDbCircle
 10
294.453968
 20
896.844717
 40
0.5
100
AcDbArc
 50
270.0
 51
360.0
  0
LINE
  5
3D5
100
AcDbEntity
  8
M0
 62
     7
100
AcDbLine
 10
288.953968
 20
907.344961
 11
288.953968
 21
896.844717
  0
LINE
  5
3D6
100
AcDbEntity
  8
M0
 62
     7
100
AcDbLine
 10
280.953968
 20
905.34545
 11
280.953968
 21
896.345557
  0
LINE
  5
3D7
100
AcDbEntity
  8
M0
 62
     7
100
AcDbLine
 10
294.953968
 20
896.84545
 11
302.953968
 21
896.84545
  0
LINE
  5
3D8
100
AcDbEntity
  8
M0
 62
     7
100
AcDbLine
 10
294.953968
 20
905.34545
 11
302.953968
 21
905.34545
  0
LINE
  5
3D9
100
AcDbEntity
  8
M0
 62
     7
100
AcDbLine
 10
290.953968
 20
907.344961
 11
290.953968
 21
906.34545
  0
LINE
  5
3DA
100
AcDbEntity
  8
M0
 62
     7
100
AcDbLine
 10
292.953968
 20
907.344961
 11
292.953968
 21
906.34545
  0
ARC
  5
3DB
100
AcDbEntity
  8
M0
 62
     7
100
AcDbCircle
 10
289.453968
 20
896.844717
 40
0.5
100
AcDbArc
 50
180.0
 51
270.0
  0
ARC
  5
3DC
100
AcDbEntity
  8
M0
 62
     7
100
AcDbCircle
 10
293.453968
 20
907.344961
 40
0.5
100
AcDbArc
 50
89.998251
 51
180.0
  0
ARC
  5
3DD
100
AcDbEntity
  8
M0
 62
     7
100
AcDbCircle
 10
289.453968
 20
907.344961
 40
0.5
100
AcDbArc
 50
89.998251
 51
180.0
  0
ARC
  5
3DE
100
AcDbEntity
  8
M0
 62
     7
100
AcDbCircle
 10
294.453968
 20
907.344961
 40
0.5
100
AcDbArc
 50
0.0
 51
89.998251
  0
ARC
  5
3DF
100
AcDbEntity
  8
M0
 62
     7
100
AcDbCircle
 10
290.453968
 20
907.344961
 40
0.5
100
AcDbArc
 50
0.0
 51
89.998251
  0
LINE
  5
3E0
100
AcDbEntity
  8
M0
 62
     7
100
AcDbLine
 10
287.703968
 20
900.84545
 11
287.703968
 21
896.84545
  0
LINE
  5
3E1
100
AcDbEntity
  8
M0
 62
     7
100
AcDbLine
 10
282.203968
 20
900.84545
 11
282.203968
 21
896.84545
  0
ARC
  5
3E2
100
AcDbEntity
  8
M0
 62
     7
100
AcDbCircle
 10
280.453968
 20
905.34545
 40
0.5
100
AcDbArc
 50
0.0
 51
89.998251
  0
LINE
  5
3E3
100
AcDbEntity
  8
M0
 62
     7
100
AcDbLine
 10
290.953968
 20
906.34545
 11
292.953968
 21
906.34545
  0
LINE
  5
3E4
100
AcDbEntity
  8
M0
 62
     7
100
AcDbLine
 10
384.953922
 20
746.345511
 11
375.203999
 21
746.345526
  0
LINE
  5
3E5
100
AcDbEntity
  8
M0
 62
     7
100
AcDbLine
 10
386.954014
 20
905.844717
 11
386.953922
 21
748.345511
  0
ARC
  5
3E6
100
AcDbEntity
  8
M0
 62
     7
100
AcDbCircle
 10
384.953922
 20
748.345511
 40
2.0
100
AcDbArc
 50
-90.000437
 51
0.0
  0
LINE
  5
3E7
100
AcDbEntity
  8
M0
 62
     7
100
AcDbLine
 10
330.453961
 20
907.844916
 11
355.453953
 21
907.844824
  0
ARC
  5
3E8
100
AcDbEntity
  8
M0
 62
     7
100
AcDbCircle
 10
384.954014
 20
905.844717
 40
2.0
100
AcDbArc
 50
0.0
 51
90.0
  0
LINE
  5
3E9
100
AcDbEntity
  8
M0
 62
     7
100
AcDbLine
 10
332.954038
 20
905.845206
 11
332.954038
 21
896.845206
  0
LINE
  5
3EA
100
AcDbEntity
  8
M0
 62
     7
100
AcDbLine
 10
340.954014
 20
905.344717
 11
340.954014
 21
896.345557
  0
LINE
  5
3EB
100
AcDbEntity
  8
M0
 62
     7
100
AcDbLine
 10
334.204014
 20
900.845206
 11
334.204014
 21
896.845206
  0
LINE
  5
3EC
100
AcDbEntity
  8
M0
 62
     7
100
AcDbLine
 10
339.704014
 20
900.845206
 11
339.704014
 21
896.845206
  0
ARC
  5
3ED
100
AcDbEntity
  8
M0
 62
     7
100
AcDbCircle
 10
336.954014
 20
900.845206
 40
2.75
100
AcDbArc
 50
0.0
 51
180.0
  0
CIRCLE
  5
3EE
100
AcDbEntity
  8
M0
 62
     7
100
AcDbCircle
 10
336.954014
 20
900.845206
 40
2.0
  0
LINE
  5
3EF
100
AcDbEntity
  8
M0
 62
     7
100
AcDbLine
 10
340.954014
 20
896.845206
 11
332.954038
 21
896.845206
  0
LINE
  5
3F0
100
AcDbEntity
  8
M0
 62
     7
100
AcDbLine
 10
340.954014
 20
905.345206
 11
332.954038
 21
905.345206
  0
LINE
  5
3F1
100
AcDbEntity
  8
M0
 62
     7
100
AcDbLine
 10
344.954014
 20
906.844961
 11
344.954014
 21
898.344961
  0
LINE
  5
3F2
100
AcDbEntity
  8
M0
 62
     7
100
AcDbLine
 10
344.453953
 20
896.344961
 11
354.243794
 21
896.344961
  0
ARC
  5
3F3
100
AcDbEntity
  8
M0
 62
     7
100
AcDbCircle
 10
346.954014
 20
898.344961
 40
2.0
100
AcDbArc
 50
180.0
 51
269.999563
  0
ARC
  5
3F4
100
AcDbEntity
  8
M0
 62
     7
100
AcDbCircle
 10
344.453953
 20
895.844961
 40
0.5
100
AcDbArc
 50
90.0
 51
180.0
  0
LINE
  5
3F5
100
AcDbEntity
  8
M0
 62
     7
100
AcDbLine
 10
341.454014
 20
905.844717
 11
344.454014
 21
905.844717
  0
ARC
  5
3F6
100
AcDbEntity
  8
M0
 62
     7
100
AcDbCircle
 10
341.454014
 20
905.344717
 40
0.5
100
AcDbArc
 50
90.0
 51
180.0
  0
ARC
  5
3F7
100
AcDbEntity
  8
M0
 62
     7
100
AcDbCircle
 10
344.454014
 20
905.344717
 40
0.5
100
AcDbArc
 50
0.0
 51
90.0
  0
CIRCLE
  5
3F8
100
AcDbEntity
  8
M0
 62
     7
100
AcDbCircle
 10
284.953968
 20
900.84545
 40
2.0
  0
ARC
  5
3F9
100
AcDbEntity
  8
M0
 62
     7
100
AcDbCircle
 10
284.953968
 20
900.84545
 40
2.75
100
AcDbArc
 50
0.0
 51
180.0
  0
LINE
  5
3FA
100
AcDbEntity
  8
M0
  6
DASHDOT
 62
     7
100
AcDbLine
 10
317.953968
 20
691.186331
 11
317.953968
 21
944.482718
  0
LINE
  5
3FB
100
AcDbEntity
  8
M0
 62
     7
100
AcDbLine
 10
248.953968
 20
905.844961
 11
248.953968
 21
748.345572
  0
LINE
  5
3FC
100
AcDbEntity
  8
M0
  6
DASHDOT
 62
     7
100
AcDbLine
 10
249.953938
 20
821.345557
 11
394.454014
 21
821.345557
  0
ARC
  5
3FD
100
AcDbEntity
  8
M0
 62
     7
100
AcDbCircle
 10
343.954014
 20
906.844961
 40
1.0
100
AcDbArc
 50
0.0
 51
90.0
  0
LINE
  5
3FE
100
AcDbEntity
  8
M0
 62
     7
100
AcDbLine
 10
354.244297
 20
746.345541
 11
330.453961
 21
746.345572
  0
LINE
  5
3FF
100
AcDbEntity
  8
M0
 62
     7
100
AcDbLine
 10
281.663639
 20
746.345572
 11
305.453968
 21
746.345572
  0
LINE
  5
400
100
AcDbEntity
  8
M0
 62
     7
100
AcDbLine
 10
255.453968
 20
907.844977
 11
250.953968
 21
907.844961
  0
LINE
  5
401
100
AcDbEntity
  8
M0
 62
     7
100
AcDbLine
 10
380.453953
 20
907.844733
 11
384.954014
 21
907.844717
  0
LINE
  5
402
100
AcDbEntity
  8
M0
 62
     7
100
AcDbLine
 10
305.453933
 20
719.84548
 11
330.453932
 21
719.845495
  0
LINE
  5
403
100
AcDbEntity
  8
M0
 62
     7
100
AcDbLine
 10
330.453932
 20
719.845495
 11
330.453923
 21
746.345495
  0
LINE
  5
404
100
AcDbEntity
  8
M0
 62
     7
100
AcDbLine
 10
327.953922
 20
750.845495
 11
330.453923
 21
746.345495
  0
LINE
  5
405
100
AcDbEntity
  8
M0
 62
     7
100
AcDbLine
 10
307.953923
 20
750.84548
 11
305.453924
 21
746.34548
  0
LINE
  5
406
100
AcDbEntity
  8
M0
 62
     7
100
AcDbLine
 10
305.453924
 20
746.34548
 11
305.453933
 21
719.84548
  0
LINE
  5
407
100
AcDbEntity
  8
M0
 62
     7
100
AcDbLine
 10
307.953921
 20
756.34548
 11
307.953923
 21
750.84548
  0
LINE
  5
408
100
AcDbEntity
  8
M0
 62
     7
100
AcDbLine
 10
327.95392
 20
756.345495
 11
327.953922
 21
750.845495
  0
CIRCLE
  5
409
100
AcDbEntity
  8
M0
 62
     7
100
AcDbCircle
 10
317.953928
 20
733.345465
 40
5.0
  0
LINE
  5
40A
100
AcDbEntity
  8
M0
 62
     7
100
AcDbLine
 10
325.953954
 20
811.345511
 11
309.953968
 21
811.345511
  0
LINE
  5
40B
100
AcDbEntity
  8
M0
 62
     7
100
AcDbLine
 10
325.953954
 20
815.345511
 11
325.953954
 21
811.345511
  0
LINE
  5
40C
100
AcDbEntity
  8
M0
 62
     7
100
AcDbLine
 10
309.953968
 20
815.345511
 11
309.953968
 21
811.345511
  0
LINE
  5
40D
100
AcDbEntity
  8
M0
 62
     7
100
AcDbLine
 10
309.653965
 20
815.345511
 11
309.953968
 21
815.345511
  0
LINE
  5
40E
100
AcDbEntity
  8
M0
 62
     7
100
AcDbLine
 10
326.253954
 20
831.64556
 11
321.953968
 21
831.64556
  0
LINE
  5
40F
100
AcDbEntity
  8
M0
 62
     7
100
AcDbLine
 10
329.253954
 20
828.64556
 11
329.253954
 21
818.345511
  0
LINE
  5
410
100
AcDbEntity
  8
M0
 62
     7
100
AcDbLine
 10
306.653965
 20
828.64556
 11
306.653965
 21
818.345511
  0
ARC
  5
411
100
AcDbEntity
  8
M0
 62
     7
100
AcDbCircle
 10
326.253954
 20
828.64556
 40
3.0
100
AcDbArc
 50
0.0
 51
90.0
  0
ARC
  5
412
100
AcDbEntity
  8
M0
 62
     7
100
AcDbCircle
 10
309.653965
 20
828.64556
 40
3.0
100
AcDbArc
 50
90.0
 51
179.999982
  0
ARC
  5
413
100
AcDbEntity
  8
M0
 62
     7
100
AcDbCircle
 10
309.653965
 20
818.345511
 40
3.0
100
AcDbArc
 50
179.999964
 51
270.0
  0
ARC
  5
414
100
AcDbEntity
  8
M0
 62
     7
100
AcDbCircle
 10
326.253954
 20
818.345511
 40
3.0
100
AcDbArc
 50
270.0
 51
360.0
  0
LINE
  5
415
100
AcDbEntity
  8
M0
 62
     7
100
AcDbLine
 10
321.953968
 20
834.345511
 11
320.703968
 21
834.345511
  0
LINE
  5
416
100
AcDbEntity
  8
M0
 62
     7
100
AcDbLine
 10
319.703968
 20
837.345511
 11
316.203968
 21
837.345511
  0
LINE
  5
417
100
AcDbEntity
  8
M0
 62
     7
100
AcDbLine
 10
320.703968
 20
836.345511
 11
320.703968
 21
834.345511
  0
LINE
  5
418
100
AcDbEntity
  8
M0
 62
     7
100
AcDbLine
 10
315.203968
 20
836.345511
 11
315.203968
 21
834.345511
  0
LINE
  5
419
100
AcDbEntity
  8
M0
 62
     7
100
AcDbLine
 10
321.953968
 20
834.345511
 11
321.953968
 21
831.64556
  0
LINE
  5
41A
100
AcDbEntity
  8
M0
 62
     7
100
AcDbLine
 10
313.953968
 20
834.345511
 11
313.953968
 21
831.64556
  0
ARC
  5
41B
100
AcDbEntity
  8
M0
 62
     7
100
AcDbCircle
 10
319.703968
 20
836.345511
 40
1.0
100
AcDbArc
 50
0.0
 51
90.0
  0
ARC
  5
41C
100
AcDbEntity
  8
M0
 62
     7
100
AcDbCircle
 10
316.203968
 20
836.345511
 40
1.0
100
AcDbArc
 50
90.0
 51
180.0
  0
LINE
  5
41D
100
AcDbEntity
  8
M0
 62
     7
100
AcDbLine
 10
325.953954
 20
815.345511
 11
326.253954
 21
815.345511
  0
LINE
  5
41E
100
AcDbEntity
  8
M0
 62
     7
100
AcDbLine
 10
313.953968
 20
831.64556
 11
309.653965
 21
831.64556
  0
LINE
  5
41F
100
AcDbEntity
  8
M0
 62
     7
100
AcDbLine
 10
315.203968
 20
834.345511
 11
313.953968
 21
834.345511
  0
LINE
  5
420
100
AcDbEntity
  8
M0
  6
DIVIDE
 62
     7
100
AcDbLine
 10
386.953953
 20
848.845511
 11
398.953953
 21
848.845511
  0
LINE
  5
421
100
AcDbEntity
  8
M0
  6
DIVIDE
 62
     7
100
AcDbLine
 10
398.953953
 20
848.845511
 11
398.953953
 21
793.845511
  0
LINE
  5
422
100
AcDbEntity
  8
M0
  6
DIVIDE
 62
     7
100
AcDbLine
 10
386.953953
 20
793.845511
 11
398.953953
 21
793.845511
  0
LINE
  5
423
100
AcDbEntity
  8
M0
 62
     7
100
AcDbLine
 10
314.953968
 20
819.095267
 11
320.953968
 21
819.095267
  0
LINE
  5
424
100
AcDbEntity
  8
M0
 62
     7
100
AcDbLine
 10
320.953968
 20
819.095267
 11
320.953968
 21
823.595267
  0
LINE
  5
425
100
AcDbEntity
  8
M0
 62
     7
100
AcDbLine
 10
320.953968
 20
823.595267
 11
314.953968
 21
823.595267
  0
LINE
  5
426
100
AcDbEntity
  8
M0
 62
     7
100
AcDbLine
 10
314.953968
 20
823.595267
 11
314.953968
 21
819.095267
  0
CIRCLE
  5
427
100
AcDbEntity
  8
M0
 62
     7
100
AcDbCircle
 10
367.953953
 20
733.34545
 40
5.0
  0
LINE
  5
428
100
AcDbEntity
  8
M0
 62
     7
100
AcDbLine
 10
355.453953
 20
719.845465
 11
380.453953
 21
719.845465
  0
LINE
  5
429
100
AcDbEntity
  8
M0
 62
     7
100
AcDbLine
 10
355.453953
 20
719.845465
 11
355.453953
 21
744.845465
  0
LINE
  5
42A
100
AcDbEntity
  8
M0
 62
     7
100
AcDbLine
 10
346.179752
 20
756.345465
 11
355.453953
 21
744.845465
  0
LINE
  5
42B
100
AcDbEntity
  8
M0
 62
     7
100
AcDbLine
 10
380.453953
 20
719.845465
 11
380.453953
 21
740.345465
  0
LINE
  5
42C
100
AcDbEntity
  8
M0
 62
     7
100
AcDbLine
 10
366.453953
 20
756.345465
 11
380.453953
 21
740.345465
  0
LINE
  5
42D
100
AcDbEntity
  8
M0
 62
     7
100
AcDbLine
 10
289.728169
 20
756.345465
 11
280.453968
 21
744.845465
  0
LINE
  5
42E
100
AcDbEntity
  8
M0
 62
     7
100
AcDbLine
 10
280.453968
 20
719.845465
 11
280.453968
 21
744.845465
  0
LINE
  5
42F
100
AcDbEntity
  8
M0
 62
     7
100
AcDbLine
 10
280.453968
 20
719.845465
 11
255.453968
 21
719.845465
  0
CIRCLE
  5
430
100
AcDbEntity
  8
M0
 62
     7
100
AcDbCircle
 10
267.953983
 20
733.34545
 40
5.0
  0
LINE
  5
431
100
AcDbEntity
  8
M0
 62
     7
100
AcDbLine
 10
255.453968
 20
719.845465
 11
255.453968
 21
740.345465
  0
LINE
  5
432
100
AcDbEntity
  8
M0
 62
     7
100
AcDbLine
 10
269.453968
 20
756.345465
 11
255.453968
 21
740.345465
  0
CIRCLE
  5
433
100
AcDbEntity
  8
M0
 62
     7
100
AcDbCircle
 10
367.953877
 20
909.34548
 40
5.0
  0
LINE
  5
434
100
AcDbEntity
  8
M0
 62
     7
100
AcDbLine
 10
355.453892
 20
922.84548
 11
380.453892
 21
922.845495
  0
LINE
  5
435
100
AcDbEntity
  8
M0
 62
     7
100
AcDbLine
 10
355.453892
 20
922.84548
 11
355.453907
 21
897.84548
  0
LINE
  5
436
100
AcDbEntity
  8
M0
 62
     7
100
AcDbLine
 10
346.179707
 20
886.345465
 11
355.453907
 21
897.84548
  0
LINE
  5
437
100
AcDbEntity
  8
M0
 62
     7
100
AcDbLine
 10
380.453892
 20
922.845495
 11
380.453907
 21
902.345495
  0
LINE
  5
438
100
AcDbEntity
  8
M0
 62
     7
100
AcDbLine
 10
366.453907
 20
886.34548
 11
380.453907
 21
902.345495
  0
LINE
  5
439
100
AcDbEntity
  8
M0
 62
     7
100
AcDbLine
 10
289.728138
 20
886.345434
 11
280.453938
 21
897.845434
  0
LINE
  5
43A
100
AcDbEntity
  8
M0
 62
     7
100
AcDbLine
 10
280.453922
 20
922.845434
 11
280.453938
 21
897.845434
  0
LINE
  5
43B
100
AcDbEntity
  8
M0
 62
     7
100
AcDbLine
 10
280.453922
 20
922.845434
 11
255.453922
 21
922.845404
  0
CIRCLE
  5
43C
100
AcDbEntity
  8
M0
 62
     7
100
AcDbCircle
 10
267.953922
 20
909.345419
 40
5.0
  0
LINE
  5
43D
100
AcDbEntity
  8
M0
 62
     7
100
AcDbLine
 10
255.453922
 20
922.845404
 11
255.453938
 21
902.345404
  0
LINE
  5
43E
100
AcDbEntity
  8
M0
 62
     7
100
AcDbLine
 10
269.453938
 20
886.345419
 11
255.453938
 21
902.345404
  0
LINE
  5
43F
100
AcDbEntity
  8
M0
 62
     7
100
AcDbLine
 10
305.453925
 20
922.845465
 11
330.453924
 21
922.84548
  0
LINE
  5
440
100
AcDbEntity
  8
M0
 62
     7
100
AcDbLine
 10
330.453924
 20
922.84548
 11
330.453932
 21
896.34548
  0
LINE
  5
441
100
AcDbEntity
  8
M0
 62
     7
100
AcDbLine
 10
327.953934
 20
891.84548
 11
330.453932
 21
896.34548
  0
LINE
  5
442
100
AcDbEntity
  8
M0
 62
     7
100
AcDbLine
 10
307.953935
 20
891.845465
 11
305.453933
 21
896.345465
  0
LINE
  5
443
100
AcDbEntity
  8
M0
 62
     7
100
AcDbLine
 10
305.453933
 20
896.345465
 11
305.453925
 21
922.845465
  0
LINE
  5
444
100
AcDbEntity
  8
M0
 62
     7
100
AcDbLine
 10
307.953937
 20
886.345465
 11
307.953935
 21
891.845465
  0
LINE
  5
445
100
AcDbEntity
  8
M0
 62
     7
100
AcDbLine
 10
327.953936
 20
886.34548
 11
327.953934
 21
891.84548
  0
CIRCLE
  5
446
100
AcDbEntity
  8
M0
 62
     7
100
AcDbCircle
 10
317.953929
 20
909.345465
 40
5.0
  0
LINE
  5
447
100
AcDbEntity
  8
M0
 62
     7
100
AcDbLine
 10
317.953953
 20
899.545477
 11
309.467136
 21
904.445471
  0
LINE
  5
448
100
AcDbEntity
  8
M0
 62
     7
100
AcDbLine
 10
309.467136
 20
904.445471
 11
309.467136
 21
914.245489
  0
LINE
  5
449
100
AcDbEntity
  8
M0
 62
     7
100
AcDbLine
 10
309.467136
 20
914.245489
 11
317.953953
 21
919.145483
  0
LINE
  5
44A
100
AcDbEntity
  8
M0
 62
     7
100
AcDbLine
 10
317.953953
 20
919.145483
 11
326.441258
 21
914.245459
  0
LINE
  5
44B
100
AcDbEntity
  8
M0
 62
     7
100
AcDbLine
 10
326.441258
 20
914.245459
 11
326.441258
 21
904.445471
  0
LINE
  5
44C
100
AcDbEntity
  8
M0
 62
     7
100
AcDbLine
 10
326.441258
 20
904.445471
 11
317.953953
 21
899.545477
  0
CIRCLE
  5
44D
100
AcDbEntity
  8
M0
 62
     7
100
AcDbCircle
 10
317.953953
 20
909.345465
 40
5.0
  0
LINE
  5
44E
100
AcDbEntity
  8
M0
  6
DASHDOT
 62
     7
100
AcDbLine
 10
328.441136
 20
909.345373
 11
307.466725
 21
909.345373
  0
LINE
  5
44F
100
AcDbEntity
  8
M0
 62
     7
100
AcDbLine
 10
267.953953
 20
899.545477
 11
259.467136
 21
904.445471
  0
LINE
  5
450
100
AcDbEntity
  8
M0
 62
     7
100
AcDbLine
 10
259.467136
 20
904.445471
 11
259.467136
 21
914.245489
  0
LINE
  5
451
100
AcDbEntity
  8
M0
 62
     7
100
AcDbLine
 10
259.467136
 20
914.245489
 11
267.953953
 21
919.145483
  0
LINE
  5
452
100
AcDbEntity
  8
M0
 62
     7
100
AcDbLine
 10
267.953953
 20
919.145483
 11
276.441258
 21
914.245459
  0
LINE
  5
453
100
AcDbEntity
  8
M0
 62
     7
100
AcDbLine
 10
276.441258
 20
914.245459
 11
276.441258
 21
904.445471
  0
LINE
  5
454
100
AcDbEntity
  8
M0
 62
     7
100
AcDbLine
 10
276.441258
 20
904.445471
 11
267.953953
 21
899.545477
  0
CIRCLE
  5
455
100
AcDbEntity
  8
M0
 62
     7
100
AcDbCircle
 10
267.953953
 20
909.345465
 40
5.0
  0
LINE
  5
456
100
AcDbEntity
  8
M0
  6
DASHDOT
 62
     7
100
AcDbLine
 10
278.441136
 20
909.345373
 11
257.466725
 21
909.345373
  0
LINE
  5
457
100
AcDbEntity
  8
M0
  6
DASHDOT
 62
     7
100
AcDbLine
 10
267.953922
 20
920.832571
 11
267.953938
 21
899.85816
  0
LINE
  5
458
100
AcDbEntity
  8
M0
 62
     7
100
AcDbLine
 10
367.953953
 20
899.545477
 11
359.467136
 21
904.445471
  0
LINE
  5
459
100
AcDbEntity
  8
M0
 62
     7
100
AcDbLine
 10
359.467136
 20
904.445471
 11
359.467136
 21
914.245489
  0
LINE
  5
45A
100
AcDbEntity
  8
M0
 62
     7
100
AcDbLine
 10
359.467136
 20
914.245489
 11
367.953953
 21
919.145483
  0
LINE
  5
45B
100
AcDbEntity
  8
M0
 62
     7
100
AcDbLine
 10
367.953953
 20
919.145483
 11
376.441258
 21
914.245459
  0
LINE
  5
45C
100
AcDbEntity
  8
M0
 62
     7
100
AcDbLine
 10
376.441258
 20
914.245459
 11
376.441258
 21
904.445471
  0
LINE
  5
45D
100
AcDbEntity
  8
M0
 62
     7
100
AcDbLine
 10
376.441258
 20
904.445471
 11
367.953953
 21
899.545477
  0
CIRCLE
  5
45E
100
AcDbEntity
  8
M0
 62
     7
100
AcDbCircle
 10
367.953953
 20
909.345465
 40
5.0
  0
LINE
  5
45F
100
AcDbEntity
  8
M0
  6
DASHDOT
 62
     7
100
AcDbLine
 10
378.441136
 20
909.345373
 11
357.466725
 21
909.345373
  0
LINE
  5
460
100
AcDbEntity
  8
M0
  6
DASHDOT
 62
     7
100
AcDbLine
 10
367.953922
 20
920.832571
 11
367.953938
 21
899.85816
  0
LINE
  5
461
100
AcDbEntity
  8
M0
 62
     7
100
AcDbLine
 10
267.953953
 20
723.545462
 11
259.467136
 21
728.445456
  0
LINE
  5
462
100
AcDbEntity
  8
M0
 62
     7
100
AcDbLine
 10
259.467136
 20
728.445456
 11
259.467136
 21
738.245474
  0
LINE
  5
463
100
AcDbEntity
  8
M0
 62
     7
100
AcDbLine
 10
259.467136
 20
738.245474
 11
267.953953
 21
743.145468
  0
LINE
  5
464
100
AcDbEntity
  8
M0
 62
     7
100
AcDbLine
 10
267.953953
 20
743.145468
 11
276.441258
 21
738.245444
  0
LINE
  5
465
100
AcDbEntity
  8
M0
 62
     7
100
AcDbLine
 10
276.441258
 20
738.245444
 11
276.441258
 21
728.445456
  0
LINE
  5
466
100
AcDbEntity
  8
M0
 62
     7
100
AcDbLine
 10
276.441258
 20
728.445456
 11
267.953953
 21
723.545462
  0
CIRCLE
  5
467
100
AcDbEntity
  8
M0
 62
     7
100
AcDbCircle
 10
267.953953
 20
733.34545
 40
5.0
  0
LINE
  5
468
100
AcDbEntity
  8
M0
  6
DASHDOT
 62
     7
100
AcDbLine
 10
278.441136
 20
733.345358
 11
257.466725
 21
733.345358
  0
LINE
  5
469
100
AcDbEntity
  8
M0
  6
DASHDOT
 62
     7
100
AcDbLine
 10
267.953922
 20
742.832571
 11
267.953938
 21
721.85816
  0
LINE
  5
46A
100
AcDbEntity
  8
M0
 62
     7
100
AcDbLine
 10
317.953953
 20
723.545462
 11
309.467136
 21
728.445456
  0
LINE
  5
46B
100
AcDbEntity
  8
M0
 62
     7
100
AcDbLine
 10
309.467136
 20
728.445456
 11
309.467136
 21
738.245474
  0
LINE
  5
46C
100
AcDbEntity
  8
M0
 62
     7
100
AcDbLine
 10
309.467136
 20
738.245474
 11
317.953953
 21
743.145468
  0
LINE
  5
46D
100
AcDbEntity
  8
M0
 62
     7
100
AcDbLine
 10
317.953953
 20
743.145468
 11
326.441258
 21
738.245444
  0
LINE
  5
46E
100
AcDbEntity
  8
M0
 62
     7
100
AcDbLine
 10
326.441258
 20
738.245444
 11
326.441258
 21
728.445456
  0
LINE
  5
46F
100
AcDbEntity
  8
M0
 62
     7
100
AcDbLine
 10
326.441258
 20
728.445456
 11
317.953953
 21
723.545462
  0
CIRCLE
  5
470
100
AcDbEntity
  8
M0
 62
     7
100
AcDbCircle
 10
317.953953
 20
733.34545
 40
5.0
  0
LINE
  5
471
100
AcDbEntity
  8
M0
  6
DASHDOT
 62
     7
100
AcDbLine
 10
328.441136
 20
733.345358
 11
307.466725
 21
733.345358
  0
LINE
  5
472
100
AcDbEntity
  8
M0
 62
     7
100
AcDbLine
 10
367.953953
 20
723.545462
 11
359.467136
 21
728.445456
  0
LINE
  5
473
100
AcDbEntity
  8
M0
 62
     7
100
AcDbLine
 10
359.467136
 20
728.445456
 11
359.467136
 21
738.245474
  0
LINE
  5
474
100
AcDbEntity
  8
M0
 62
     7
100
AcDbLine
 10
359.467136
 20
738.245474
 11
367.953953
 21
743.145468
  0
LINE
  5
475
100
AcDbEntity
  8
M0
 62
     7
100
AcDbLine
 10
367.953953
 20
743.145468
 11
376.441258
 21
738.245444
  0
LINE
  5
476
100
AcDbEntity
  8
M0
 62
     7
100
AcDbLine
 10
376.441258
 20
738.245444
 11
376.441258
 21
728.445456
  0
LINE
  5
477
100
AcDbEntity
  8
M0
 62
     7
100
AcDbLine
 10
376.441258
 20
728.445456
 11
367.953953
 21
723.545462
  0
CIRCLE
  5
478
100
AcDbEntity
  8
M0
 62
     7
100
AcDbCircle
 10
367.953953
 20
733.34545
 40
5.0
  0
LINE
  5
479
100
AcDbEntity
  8
M0
  6
DASHDOT
 62
     7
100
AcDbLine
 10
378.441136
 20
733.345358
 11
357.466725
 21
733.345358
  0
LINE
  5
47A
100
AcDbEntity
  8
M0
  6
DASHDOT
 62
     7
100
AcDbLine
 10
367.953922
 20
742.832571
 11
367.953938
 21
721.85816
  0
TEXT
  5
47B
100
AcDbEntity
  8
M0
 62
     7
100
AcDbText
 10
289.628997
 20
900.89527
 40
3.5
  1
Ａ２
 41
0.64286
  7
STANDARD
100
AcDbText
  0
ARC
  5
47C
100
AcDbEntity
  8
M0
 62
     7
100
AcDbCircle
 10
507.475758
 20
894.345557
 40
2.0
100
AcDbArc
 50
89.999563
 51
180.0
  0
LINE
  5
47D
100
AcDbEntity
  8
M0
 62
     7
100
AcDbLine
 10
505.475758
 20
894.345557
 11
505.475758
 21
748.345572
  0
ARC
  5
47E
100
AcDbEntity
  8
M0
 62
     7
100
AcDbCircle
 10
507.475758
 20
748.345572
 40
2.0
100
AcDbArc
 50
179.999563
 51
270.0
  0
ARC
  5
47F
100
AcDbEntity
  8
M0
 62
     7
100
AcDbCircle
 10
507.475758
 20
884.345557
 40
2.0
100
AcDbArc
 50
89.999563
 51
180.0
  0
ARC
  5
480
100
AcDbEntity
  8
M0
 62
     7
100
AcDbCircle
 10
507.475758
 20
758.345572
 40
2.0
100
AcDbArc
 50
179.999563
 51
270.0
  0
LINE
  5
481
100
AcDbEntity
  8
M0
 62
     7
100
AcDbLine
 10
507.475758
 20
896.345557
 11
587.075749
 21
896.345557
  0
LINE
  5
482
100
AcDbEntity
  8
M0
 62
     7
100
AcDbLine
 10
507.475758
 20
886.345557
 11
587.075749
 21
886.345557
  0
LINE
  5
483
100
AcDbEntity
  8
M0
 62
     7
100
AcDbLine
 10
507.475758
 20
746.345572
 11
587.075749
 21
746.345572
  0
LINE
  5
484
100
AcDbEntity
  8
M0
 62
     7
100
AcDbLine
 10
507.475758
 20
756.345572
 11
587.075749
 21
756.345572
  0
LINE
  5
485
100
AcDbEntity
  8
M0
 62
     7
100
AcDbLine
 10
587.075749
 20
746.345572
 11
587.075749
 21
756.345572
  0
LINE
  5
486
100
AcDbEntity
  8
M0
 62
     7
100
AcDbLine
 10
587.075749
 20
886.345557
 11
587.075749
 21
896.345557
  0
LINE
  5
487
100
AcDbEntity
  8
M0
 62
     7
100
AcDbLine
 10
559.075764
 20
825.095557
 11
559.075764
 21
817.595557
  0
ARC
  5
488
100
AcDbEntity
  8
M0
 62
     7
100
AcDbCircle
 10
553.575764
 20
816.595557
 40
1.0
100
AcDbArc
 50
89.999126
 51
179.999945
  0
LINE
  5
489
100
AcDbEntity
  8
M0
 62
     7
100
AcDbLine
 10
553.575764
 20
817.595557
 11
559.075764
 21
817.595557
  0
LINE
  5
48A
100
AcDbEntity
  8
M0
 62
     7
100
AcDbLine
 10
553.575764
 20
825.095557
 11
559.075764
 21
825.095557
  0
LINE
  5
48B
100
AcDbEntity
  8
M0
 62
     7
100
AcDbLine
 10
627.075749
 20
907.845557
 11
614.575749
 21
907.845557
  0
ARC
  5
48C
100
AcDbEntity
  8
M0
 62
     7
100
AcDbCircle
 10
614.575749
 20
906.845557
 40
1.0
100
AcDbArc
 50
89.999126
 51
180.0
  0
LINE
  5
48D
100
AcDbEntity
  8
M0
 62
     7
100
AcDbLine
 10
613.575749
 20
906.845557
 11
613.575749
 21
858.345557
  0
ARC
  5
48E
100
AcDbEntity
  8
M0
 62
     7
100
AcDbCircle
 10
611.575749
 20
858.345557
 40
2.0
100
AcDbArc
 50
270.0
 51
360.0
  0
LINE
  5
48F
100
AcDbEntity
  8
M0
 62
     7
100
AcDbLine
 10
603.575749
 20
856.345557
 11
611.575749
 21
856.345557
  0
ARC
  5
490
100
AcDbEntity
  8
M0
 62
     7
100
AcDbCircle
 10
603.575749
 20
855.345557
 40
1.0
100
AcDbArc
 50
89.999126
 51
180.0
  0
ARC
  5
491
100
AcDbEntity
  8
M0
 62
     7
100
AcDbCircle
 10
554.575764
 20
836.845557
 40
2.0
100
AcDbArc
 50
89.999563
 51
179.999973
  0
LINE
  5
492
100
AcDbEntity
  8
M0
 62
     7
100
AcDbLine
 10
572.575764
 20
836.345557
 11
576.575749
 21
836.345557
  0
LINE
  5
493
100
AcDbEntity
  8
M0
 62
     7
100
AcDbLine
 10
554.575764
 20
838.845557
 11
572.575764
 21
838.845557
  0
LINE
  5
494
100
AcDbEntity
  8
M0
 62
     7
100
AcDbLine
 10
572.575764
 20
838.845557
 11
572.575764
 21
836.345557
  0
LINE
  5
495
100
AcDbEntity
  8
M0
 62
     7
100
AcDbLine
 10
576.575749
 20
838.946585
 11
576.575749
 21
836.345557
  0
ARC
  5
496
100
AcDbEntity
  8
M0
 62
     7
100
AcDbCircle
 10
575.575749
 20
843.845557
 40
5.0
100
AcDbArc
 50
281.536771
 51
360.0
  0
LINE
  5
497
100
AcDbEntity
  8
M0
 62
     7
100
AcDbLine
 10
580.575749
 20
846.845557
 11
580.575749
 21
843.845557
  0
ARC
  5
498
100
AcDbEntity
  8
M0
 62
     7
100
AcDbCircle
 10
582.575749
 20
846.845557
 40
2.0
100
AcDbArc
 50
89.999563
 51
180.0
  0
LINE
  5
499
100
AcDbEntity
  8
M0
 62
     7
100
AcDbLine
 10
595.575749
 20
847.845557
 11
602.575749
 21
847.845557
  0
LINE
  5
49A
100
AcDbEntity
  8
M0
 62
     7
100
AcDbLine
 10
594.575749
 20
848.845557
 11
595.575749
 21
847.845557
  0
LINE
  5
49B
100
AcDbEntity
  8
M0
 62
     7
100
AcDbLine
 10
602.575749
 20
855.345557
 11
602.575749
 21
847.845557
  0
LINE
  5
49C
100
AcDbEntity
  8
M0
 62
     7
100
AcDbLine
 10
582.575749
 20
848.845557
 11
594.575749
 21
848.845557
  0
LINE
  5
49D
100
AcDbEntity
  8
M0
 62
     7
100
AcDbLine
 10
627.075749
 20
746.345572
 11
588.075749
 21
746.345572
  0
ARC
  5
49E
100
AcDbEntity
  8
M0
 62
     7
100
AcDbCircle
 10
614.575749
 20
747.345572
 40
1.0
100
AcDbArc
 50
179.999126
 51
270.0
  0
LINE
  5
49F
100
AcDbEntity
  8
M0
 62
     7
100
AcDbLine
 10
613.575749
 20
747.345572
 11
613.575749
 21
784.345557
  0
ARC
  5
4A0
100
AcDbEntity
  8
M0
 62
     7
100
AcDbCircle
 10
611.575749
 20
784.345557
 40
2.0
100
AcDbArc
 50
0.0
 51
89.999563
  0
LINE
  5
4A1
100
AcDbEntity
  8
M0
 62
     7
100
AcDbLine
 10
603.575749
 20
786.345557
 11
611.575749
 21
786.345557
  0
ARC
  5
4A2
100
AcDbEntity
  8
M0
 62
     7
100
AcDbCircle
 10
603.575749
 20
787.345557
 40
1.0
100
AcDbArc
 50
179.999126
 51
270.0
  0
ARC
  5
4A3
100
AcDbEntity
  8
M0
 62
     7
100
AcDbCircle
 10
554.575764
 20
805.845557
 40
2.0
100
AcDbArc
 50
179.999945
 51
270.0
  0
LINE
  5
4A4
100
AcDbEntity
  8
M0
 62
     7
100
AcDbLine
 10
572.575764
 20
806.345557
 11
576.575749
 21
806.345557
  0
LINE
  5
4A5
100
AcDbEntity
  8
M0
 62
     7
100
AcDbLine
 10
554.575764
 20
803.845557
 11
572.575764
 21
803.845557
  0
LINE
  5
4A6
100
AcDbEntity
  8
M0
 62
     7
100
AcDbLine
 10
572.575764
 20
803.845557
 11
572.575764
 21
806.345557
  0
LINE
  5
4A7
100
AcDbEntity
  8
M0
 62
     7
100
AcDbLine
 10
576.575749
 20
803.744543
 11
576.575749
 21
806.345557
  0
ARC
  5
4A8
100
AcDbEntity
  8
M0
 62
     7
100
AcDbCircle
 10
575.575749
 20
798.845557
 40
5.0
100
AcDbArc
 50
0.0
 51
78.462886
  0
LINE
  5
4A9
100
AcDbEntity
  8
M0
 62
     7
100
AcDbLine
 10
580.575749
 20
795.845557
 11
580.575749
 21
798.845557
  0
ARC
  5
4AA
100
AcDbEntity
  8
M0
 62
     7
100
AcDbCircle
 10
582.575749
 20
795.845557
 40
2.0
100
AcDbArc
 50
179.999563
 51
270.0
  0
LINE
  5
4AB
100
AcDbEntity
  8
M0
 62
     7
100
AcDbLine
 10
595.575749
 20
794.845557
 11
602.575749
 21
794.845557
  0
LINE
  5
4AC
100
AcDbEntity
  8
M0
 62
     7
100
AcDbLine
 10
594.575749
 20
793.845557
 11
595.575749
 21
794.845557
  0
LINE
  5
4AD
100
AcDbEntity
  8
M0
 62
     7
100
AcDbLine
 10
602.575749
 20
787.345557
 11
602.575749
 21
794.845557
  0
LINE
  5
4AE
100
AcDbEntity
  8
M0
 62
     7
100
AcDbLine
 10
582.575749
 20
793.845557
 11
594.575749
 21
793.845557
  0
LINE
  5
4AF
100
AcDbEntity
  8
M0
 62
     7
100
AcDbLine
 10
552.575764
 20
836.845557
 11
552.575764
 21
805.845557
  0
LINE
  5
4B0
100
AcDbEntity
  8
M0
 62
     7
100
AcDbLine
 10
627.075749
 20
746.345572
 11
627.075749
 21
798.845557
  0
ARC
  5
4B1
100
AcDbEntity
  8
M0
 62
     7
100
AcDbCircle
 10
553.575764
 20
826.095557
 40
1.0
100
AcDbArc
 50
180.0
 51
270.0
  0
LINE
  5
4B2
100
AcDbEntity
  8
M0
 62
     7
100
AcDbLine
 10
627.075749
 20
843.845557
 11
627.075749
 21
907.845557
  0
LINE
  5
4B3
100
AcDbEntity
  8
M0
  6
DASHDOT
 62
     7
100
AcDbLine
 10
486.026201
 20
821.345557
 11
713.449782
 21
821.345557
  0
LINE
  5
4B4
100
AcDbEntity
  8
M0
 62
     7
100
AcDbLine
 10
627.075749
 20
746.345557
 11
693.075749
 21
746.345557
  0
LINE
  5
4B5
100
AcDbEntity
  8
M0
 62
     7
100
AcDbLine
 10
617.575749
 20
842.845557
 11
617.575749
 21
829.345557
  0
LINE
  5
4B6
100
AcDbEntity
  8
M0
 62
     7
100
AcDbLine
 10
618.575749
 20
843.845557
 11
627.075749
 21
843.845557
  0
LINE
  5
4B7
100
AcDbEntity
  8
M0
 62
     7
100
AcDbLine
 10
618.575749
 20
798.845557
 11
627.075749
 21
798.845557
  0
LINE
  5
4B8
100
AcDbEntity
  8
M0
 62
     7
100
AcDbLine
 10
620.575749
 20
827.345557
 11
636.875553
 21
827.345557
  0
LINE
  5
4B9
100
AcDbEntity
  8
M0
 62
     7
100
AcDbLine
 10
620.575749
 20
815.345557
 11
636.875553
 21
815.345557
  0
LINE
  5
4BA
100
AcDbEntity
  8
M0
 62
     7
100
AcDbLine
 10
636.875553
 20
827.345557
 11
636.875553
 21
823.345557
  0
LINE
  5
4BB
100
AcDbEntity
  8
M0
 62
     7
100
AcDbLine
 10
635.875553
 20
822.345557
 11
635.875553
 21
820.345557
  0
LINE
  5
4BC
100
AcDbEntity
  8
M0
 62
     7
100
AcDbLine
 10
635.875553
 20
820.345557
 11
636.875553
 21
819.345557
  0
LINE
  5
4BD
100
AcDbEntity
  8
M0
 62
     7
100
AcDbLine
 10
635.875553
 20
822.345557
 11
636.875553
 21
823.345557
  0
LINE
  5
4BE
100
AcDbEntity
  8
M0
 62
     7
100
AcDbLine
 10
636.875553
 20
819.345557
 11
636.875553
 21
815.345557
  0
LINE
  5
4BF
100
AcDbEntity
  8
M0
 62
     7
100
AcDbLine
 10
618.575749
 20
828.345557
 11
619.575749
 21
828.345557
  0
LINE
  5
4C0
100
AcDbEntity
  8
M0
 62
     7
100
AcDbLine
 10
618.575749
 20
814.345557
 11
619.575749
 21
814.345557
  0
LINE
  5
4C1
100
AcDbEntity
  8
M0
 62
     7
100
AcDbLine
 10
617.575749
 20
813.345557
 11
617.575749
 21
799.845557
  0
LINE
  5
4C2
100
AcDbEntity
  8
M0
 62
     7
100
AcDbLine
 10
627.075749
 20
798.845557
 11
627.075749
 21
746.345557
  0
ARC
  5
4C3
100
AcDbEntity
  8
M0
 62
     7
100
AcDbCircle
 10
618.575749
 20
842.845557
 40
1.0
100
AcDbArc
 50
89.999126
 51
180.0
  0
ARC
  5
4C4
100
AcDbEntity
  8
M0
 62
     7
100
AcDbCircle
 10
618.575749
 20
799.845557
 40
1.0
100
AcDbArc
 50
179.999126
 51
270.0
  0
ARC
  5
4C5
100
AcDbEntity
  8
M0
 62
     7
100
AcDbCircle
 10
618.575749
 20
829.345557
 40
1.0
100
AcDbArc
 50
180.0
 51
270.0
  0
ARC
  5
4C6
100
AcDbEntity
  8
M0
 62
     7
100
AcDbCircle
 10
620.575749
 20
828.345557
 40
1.0
100
AcDbArc
 50
180.0
 51
270.0
  0
ARC
  5
4C7
100
AcDbEntity
  8
M0
 62
     7
100
AcDbCircle
 10
618.575749
 20
813.345557
 40
1.0
100
AcDbArc
 50
89.999126
 51
179.999945
  0
ARC
  5
4C8
100
AcDbEntity
  8
M0
 62
     7
100
AcDbCircle
 10
620.575749
 20
814.345557
 40
1.0
100
AcDbArc
 50
89.999126
 51
179.999945
  0
ARC
  5
4C9
100
AcDbEntity
  8
M0
 62
     7
100
AcDbCircle
 10
634.875553
 20
826.345557
 40
2.0
100
AcDbArc
 50
0.0
 51
30.001598
  0
ARC
  5
4CA
100
AcDbEntity
  8
M0
 62
     7
100
AcDbCircle
 10
634.875553
 20
816.345557
 40
2.0
100
AcDbArc
 50
329.998165
 51
360.0
  0
ARC
  5
4CB
100
AcDbEntity
  8
M0
 62
     7
100
AcDbCircle
 10
634.875553
 20
816.345557
 40
2.0
100
AcDbArc
 50
270.0
 51
329.998165
  0
LINE
  5
4CC
100
AcDbEntity
  8
M0
 62
     7
100
AcDbLine
 10
619.575749
 20
814.345557
 11
634.875553
 21
814.345557
  0
LINE
  5
4CD
100
AcDbEntity
  8
M0
 62
     7
100
AcDbLine
 10
619.575749
 20
828.345557
 11
634.875553
 21
828.345557
  0
ARC
  5
4CE
100
AcDbEntity
  8
M0
 62
     7
100
AcDbCircle
 10
634.875553
 20
826.345557
 40
2.0
100
AcDbArc
 50
30.001598
 51
89.999563
  0
LINE
  5
4CF
100
AcDbEntity
  8
M0
 62
     7
100
AcDbLine
 10
693.075749
 20
746.345557
 11
693.075749
 21
907.84516
  0
LINE
  5
4D0
100
AcDbEntity
  8
M0
 62
     7
100
AcDbLine
 10
627.075749
 20
907.84516
 11
627.075749
 21
843.845557
  0
LINE
  5
4D1
100
AcDbEntity
  8
M0
 62
     7
100
AcDbLine
 10
693.075749
 20
907.845404
 11
627.075749
 21
907.845404
  0
LINE
  5
4D2
100
AcDbEntity
  8
M0
 62
     7
100
AcDbLine
 10
587.075703
 20
895.345724
 11
587.075703
 21
848.845724
  0
LINE
  5
4D3
100
AcDbEntity
  8
M0
 62
     7
100
AcDbLine
 10
588.075703
 20
896.345724
 11
613.575703
 21
896.345724
  0
ARC
  5
4D4
100
AcDbEntity
  8
M0
 62
     7
100
AcDbCircle
 10
588.075703
 20
895.345724
 40
1.0
100
AcDbArc
 50
89.999126
 51
180.0
  0
ARC
  5
4D5
100
AcDbEntity
  8
M0
 62
     7
100
AcDbCircle
 10
588.075703
 20
747.345724
 40
1.0
100
AcDbArc
 50
179.999126
 51
269.986012
  0
LINE
  5
4D6
100
AcDbEntity
  8
M0
 62
     7
100
AcDbLine
 10
587.075703
 20
793.845724
 11
587.075703
 21
747.345724
  0
LINE
  5
4D7
100
AcDbEntity
  8
M0
 62
     7
100
AcDbLine
 10
607.075703
 20
826.345724
 11
607.075703
 21
816.345724
  0
LINE
  5
4D8
100
AcDbEntity
  8
M0
 62
     7
100
AcDbLine
 10
617.575703
 20
839.325949
 11
617.575703
 21
811.663107
  0
LINE
  5
4D9
100
AcDbEntity
  8
M0
 62
     7
100
AcDbLine
 10
609.075703
 20
814.345724
 11
617.575703
 21
814.345724
  0
LINE
  5
4DA
100
AcDbEntity
  8
M0
 62
     7
100
AcDbLine
 10
609.075703
 20
828.345724
 11
617.575703
 21
828.345724
  0
ARC
  5
4DB
100
AcDbEntity
  8
M0
 62
     7
100
AcDbCircle
 10
609.075703
 20
826.345724
 40
2.0
100
AcDbArc
 50
89.999563
 51
179.999973
  0
ARC
  5
4DC
100
AcDbEntity
  8
M0
 62
     7
100
AcDbCircle
 10
609.075703
 20
816.345724
 40
2.0
100
AcDbArc
 50
179.999945
 51
269.993006
  0
LINE
  5
4DD
100
AcDbEntity
  8
M0
 62
     7
100
AcDbLine
 10
592.875797
 20
922.845602
 11
592.875797
 21
896.345602
  0
LINE
  5
4DE
100
AcDbEntity
  8
M0
 62
     7
100
AcDbLine
 10
597.6758
 20
922.845602
 11
597.6758
 21
896.345602
  0
LINE
  5
4DF
100
AcDbEntity
  8
M0
 62
     7
100
AcDbLine
 10
592.875797
 20
922.845602
 11
597.6758
 21
922.845602
  0
LINE
  5
4E0
100
AcDbEntity
  8
M0
 62
     7
100
AcDbLine
 10
592.875797
 20
922.845602
 11
597.6758
 21
922.845602
  0
LINE
  5
4E1
100
AcDbEntity
  8
M0
 62
     7
100
AcDbLine
 10
592.875797
 20
719.845709
 11
597.6758
 21
719.845709
  0
LINE
  5
4E2
100
AcDbEntity
  8
M0
 62
     7
100
AcDbLine
 10
592.875797
 20
719.845709
 11
597.6758
 21
719.845709
  0
LINE
  5
4E3
100
AcDbEntity
  8
M0
 62
     7
100
AcDbLine
 10
592.875797
 20
719.845709
 11
592.875797
 21
746.345602
  0
LINE
  5
4E4
100
AcDbEntity
  8
M0
 62
     7
100
AcDbLine
 10
597.6758
 20
719.845709
 11
597.6758
 21
746.345602
  0
LINE
  5
4E5
100
AcDbEntity
  8
M0
 62
     7
100
AcDbLine
 10
567.675617
 20
904.345557
 11
567.675617
 21
914.345328
  0
LINE
  5
4E6
100
AcDbEntity
  8
M0
 62
     7
100
AcDbLine
 10
567.675617
 20
914.345328
 11
580.775608
 21
914.345328
  0
LINE
  5
4E7
100
AcDbEntity
  8
M0
 62
     7
100
AcDbLine
 10
604.675602
 20
904.345557
 11
597.675602
 21
904.345557
  0
LINE
  5
4E8
100
AcDbEntity
  8
M0
 62
     7
100
AcDbLine
 10
597.675602
 20
899.536551
 11
597.675602
 21
919.15441
  0
LINE
  5
4E9
100
AcDbEntity
  8
M0
 62
     7
100
AcDbLine
 10
597.675602
 20
919.15441
 11
604.675602
 21
919.15441
  0
LINE
  5
4EA
100
AcDbEntity
  8
M0
 62
     7
100
AcDbLine
 10
604.675602
 20
919.15441
 11
604.675602
 21
899.536551
  0
LINE
  5
4EB
100
AcDbEntity
  8
M0
 62
     7
100
AcDbLine
 10
604.675602
 20
899.536551
 11
597.675602
 21
899.536551
  0
LINE
  5
4EC
100
AcDbEntity
  8
M0
 62
     7
100
AcDbLine
 10
597.675602
 20
914.345328
 11
604.675602
 21
914.345328
  0
LINE
  5
4ED
100
AcDbEntity
  8
M0
 62
     7
100
AcDbLine
 10
580.775608
 20
904.345557
 11
567.675617
 21
904.345557
  0
LINE
  5
4EE
100
AcDbEntity
  8
M0
 62
     7
100
AcDbLine
 10
597.675602
 20
743.154577
 11
597.675602
 21
723.536719
  0
LINE
  5
4EF
100
AcDbEntity
  8
M0
 62
     7
100
AcDbLine
 10
597.675602
 20
723.536719
 11
604.675602
 21
723.536719
  0
LINE
  5
4F0
100
AcDbEntity
  8
M0
 62
     7
100
AcDbLine
 10
604.675602
 20
723.536719
 11
604.675602
 21
743.154577
  0
LINE
  5
4F1
100
AcDbEntity
  8
M0
 62
     7
100
AcDbLine
 10
604.675602
 20
743.154577
 11
597.675602
 21
743.154577
  0
LINE
  5
4F2
100
AcDbEntity
  8
M0
 62
     7
100
AcDbLine
 10
567.675617
 20
738.345572
 11
567.675617
 21
728.345801
  0
LINE
  5
4F3
100
AcDbEntity
  8
M0
  6
DASHDOT
 62
     7
100
AcDbLine
 10
607.674137
 20
733.345572
 11
564.735142
 21
733.345572
  0
LINE
  5
4F4
100
AcDbEntity
  8
M0
 62
     7
100
AcDbLine
 10
567.675617
 20
728.345801
 11
580.775608
 21
728.345801
  0
LINE
  5
4F5
100
AcDbEntity
  8
M0
 62
     7
100
AcDbLine
 10
597.675602
 20
728.345801
 11
604.675602
 21
728.345801
  0
LINE
  5
4F6
100
AcDbEntity
  8
M0
 62
     7
100
AcDbLine
 10
604.675602
 20
738.345572
 11
597.675602
 21
738.345572
  0
LINE
  5
4F7
100
AcDbEntity
  8
M0
 62
     7
100
AcDbLine
 10
580.775608
 20
738.345572
 11
567.675617
 21
738.345572
  0
LINE
  5
4F8
100
AcDbEntity
  8
M0
  6
DASHDOT
 62
     7
100
AcDbLine
 10
607.674137
 20
909.345557
 11
564.735142
 21
909.345557
  0
LINE
  5
4F9
100
AcDbEntity
  8
M0
 62
     7
100
AcDbLine
 10
588.775684
 20
919.145621
 11
580.775669
 21
919.145621
  0
LINE
  5
4FA
100
AcDbEntity
  8
M0
 62
     7
100
AcDbLine
 10
580.7757
 20
919.145575
 11
580.7757
 21
899.545599
  0
LINE
  5
4FB
100
AcDbEntity
  8
M0
 62
     7
100
AcDbLine
 10
580.775684
 20
899.545614
 11
588.775684
 21
899.545614
  0
LINE
  5
4FC
100
AcDbEntity
  8
M0
 62
     7
100
AcDbLine
 10
588.7757
 20
899.54563
 11
588.7757
 21
919.145636
  0
LINE
  5
4FD
100
AcDbEntity
  8
M0
 62
     7
100
AcDbLine
 10
588.775684
 20
904.445608
 11
580.775684
 21
904.445608
  0
LINE
  5
4FE
100
AcDbEntity
  8
M0
 62
     7
100
AcDbLine
 10
588.775684
 20
914.245596
 11
580.775669
 21
914.245596
  0
LINE
  5
4FF
100
AcDbEntity
  8
M0
 62
     7
100
AcDbLine
 10
588.775684
 20
723.545538
 11
580.775669
 21
723.545538
  0
LINE
  5
500
100
AcDbEntity
  8
M0
 62
     7
100
AcDbLine
 10
580.7757
 20
723.545584
 11
580.7757
 21
743.14556
  0
LINE
  5
501
100
AcDbEntity
  8
M0
 62
     7
100
AcDbLine
 10
580.775684
 20
743.145544
 11
588.775684
 21
743.145544
  0
LINE
  5
502
100
AcDbEntity
  8
M0
 62
     7
100
AcDbLine
 10
588.7757
 20
743.145529
 11
588.7757
 21
723.545523
  0
LINE
  5
503
100
AcDbEntity
  8
M0
 62
     7
100
AcDbLine
 10
588.775684
 20
738.24555
 11
580.775684
 21
738.24555
  0
LINE
  5
504
100
AcDbEntity
  8
M0
 62
     7
100
AcDbLine
 10
588.775684
 20
728.445563
 11
580.775669
 21
728.445563
  0
LINE
  5
505
100
AcDbEntity
  8
M0
 62
     7
100
AcDbLine
 10
591.275807
 20
898.345557
 11
592.875797
 21
898.345557
  0
LINE
  5
506
100
AcDbEntity
  8
M0
 62
     7
100
AcDbLine
 10
592.875797
 20
898.345557
 11
592.875797
 21
920.345557
  0
LINE
  5
507
100
AcDbEntity
  8
M0
 62
     7
100
AcDbLine
 10
592.875797
 20
920.345557
 11
591.275807
 21
920.345557
  0
LINE
  5
508
100
AcDbEntity
  8
M0
 62
     7
100
AcDbLine
 10
591.275807
 20
920.345557
 11
591.275807
 21
898.345557
  0
LINE
  5
509
100
AcDbEntity
  8
M0
 62
     7
100
AcDbLine
 10
592.875797
 20
744.345541
 11
592.875797
 21
722.345541
  0
LINE
  5
50A
100
AcDbEntity
  8
M0
 62
     7
100
AcDbLine
 10
592.875797
 20
722.345541
 11
591.275807
 21
722.345541
  0
LINE
  5
50B
100
AcDbEntity
  8
M0
 62
     7
100
AcDbLine
 10
591.275807
 20
722.345541
 11
591.275807
 21
744.345541
  0
LINE
  5
50C
100
AcDbEntity
  8
M0
 62
     7
100
AcDbLine
 10
592.875797
 20
744.345602
 11
591.275807
 21
744.345602
  0
LINE
  5
50D
100
AcDbEntity
  8
M0
 62
     7
100
AcDbLine
 10
588.7757
 20
900.14556
 11
591.2757
 21
900.14556
  0
LINE
  5
50E
100
AcDbEntity
  8
M0
 62
     7
100
AcDbLine
 10
591.2757
 20
900.14556
 11
591.2757
 21
918.545553
  0
LINE
  5
50F
100
AcDbEntity
  8
M0
 62
     7
100
AcDbLine
 10
591.2757
 20
918.545553
 11
588.7757
 21
918.545553
  0
LINE
  5
510
100
AcDbEntity
  8
M0
 62
     7
100
AcDbLine
 10
588.7757
 20
918.545553
 11
588.7757
 21
900.14556
  0
LINE
  5
511
100
AcDbEntity
  8
M0
 62
     7
100
AcDbLine
 10
588.7757
 20
909.345572
 11
591.2757
 21
907.902197
  0
LINE
  5
512
100
AcDbEntity
  8
M0
 62
     7
100
AcDbLine
 10
588.7757
 20
910.788931
 11
591.2757
 21
909.345557
  0
LINE
  5
513
100
AcDbEntity
  8
M0
 62
     7
100
AcDbLine
 10
588.7757
 20
742.545569
 11
591.2757
 21
742.545569
  0
LINE
  5
514
100
AcDbEntity
  8
M0
 62
     7
100
AcDbLine
 10
591.2757
 20
742.545569
 11
591.2757
 21
724.145575
  0
LINE
  5
515
100
AcDbEntity
  8
M0
 62
     7
100
AcDbLine
 10
591.2757
 20
724.145575
 11
588.7757
 21
724.145575
  0
LINE
  5
516
100
AcDbEntity
  8
M0
 62
     7
100
AcDbLine
 10
588.7757
 20
724.145575
 11
588.7757
 21
742.545569
  0
LINE
  5
517
100
AcDbEntity
  8
M0
 62
     7
100
AcDbLine
 10
588.7757
 20
733.345557
 11
591.2757
 21
734.788931
  0
LINE
  5
518
100
AcDbEntity
  8
M0
 62
     7
100
AcDbLine
 10
588.7757
 20
731.902197
 11
591.2757
 21
733.345572
  0
CIRCLE
  5
519
100
AcDbEntity
  8
M0
 62
     4
100
AcDbCircle
 10
99.953968
 20
541.315527
 40
6.0
  0
CIRCLE
  5
51A
100
AcDbEntity
  8
M0
 62
     4
100
AcDbCircle
 10
399.953968
 20
541.315527
 40
6.0
  0
CIRCLE
  5
51B
100
AcDbEntity
  8
M0
 62
     4
100
AcDbCircle
 10
249.953968
 20
281.315771
 40
6.0
  0
LINE
  5
51C
100
AcDbEntity
  8
M0
  6
DIVIDE
 62
     4
100
AcDbLine
 10
89.953968
 20
266.315771
 11
409.953968
 21
266.315771
  0
LINE
  5
51D
100
AcDbEntity
  8
M0
  6
DIVIDE
 62
     4
100
AcDbLine
 10
409.953968
 20
266.315771
 11
409.953968
 21
556.315771
  0
LINE
  5
51E
100
AcDbEntity
  8
M0
  6
DIVIDE
 62
     4
100
AcDbLine
 10
409.953968
 20
556.315771
 11
89.953968
 21
556.315771
  0
LINE
  5
51F
100
AcDbEntity
  8
M0
  6
DIVIDE
 62
     4
100
AcDbLine
 10
89.953968
 20
556.315771
 11
89.953968
 21
266.315771
  0
LINE
  5
520
100
AcDbEntity
  8
M0
  6
DASHDOT
 62
     4
100
AcDbLine
 10
249.953968
 20
249.093359
 11
249.953968
 21
573.537939
  0
CIRCLE
  5
521
100
AcDbEntity
  8
M0
 62
     4
100
AcDbCircle
 10
99.953968
 20
541.315527
 40
3.0
  0
LINE
  5
522
100
AcDbEntity
  8
M0
  6
DASHDOT
 62
     4
100
AcDbLine
 10
74.731739
 20
541.315527
 11
125.176197
 21
541.315527
  0
LINE
  5
523
100
AcDbEntity
  8
M0
  6
DASHDOT
 62
     4
100
AcDbLine
 10
99.953968
 20
516.093115
 11
99.953968
 21
566.537695
  0
CIRCLE
  5
524
100
AcDbEntity
  8
M0
 62
     4
100
AcDbCircle
 10
399.953968
 20
541.315527
 40
3.0
  0
LINE
  5
525
100
AcDbEntity
  8
M0
  6
DASHDOT
 62
     4
100
AcDbLine
 10
374.731556
 20
541.315527
 11
425.176136
 21
541.315527
  0
LINE
  5
526
100
AcDbEntity
  8
M0
  6
DASHDOT
 62
     4
100
AcDbLine
 10
399.953968
 20
516.093115
 11
399.953968
 21
566.537695
  0
CIRCLE
  5
527
100
AcDbEntity
  8
M0
 62
     4
100
AcDbCircle
 10
249.953968
 20
281.315771
 40
3.0
  0
LINE
  5
528
100
AcDbEntity
  8
M0
  6
DASHDOT
 62
     4
100
AcDbLine
 10
224.731556
 20
281.315771
 11
275.176136
 21
281.315771
  0
LINE
  5
529
100
AcDbEntity
  8
M1
 62
     2
100
AcDbLine
 10
40.0
 20
40.0
 11
40.0
 21
1140.0
  0
LINE
  5
52A
100
AcDbEntity
  8
M1
 62
     2
100
AcDbLine
 10
40.0
 20
1140.0
 11
800.0
 21
1140.0
  0
LINE
  5
52B
100
AcDbEntity
  8
M1
 62
     2
100
AcDbLine
 10
800.0
 20
1140.0
 11
800.0
 21
40.0
  0
LINE
  5
52C
100
AcDbEntity
  8
M1
 62
     2
100
AcDbLine
 10
800.0
 20
40.0
 11
40.0
 21
40.0
  0
LINE
  5
52D
100
AcDbEntity
  8
M1
 62
     2
100
AcDbLine
 10
800.0
 20
80.0
 11
400.0
 21
80.0
  0
LINE
  5
52E
100
AcDbEntity
  8
M1
 62
     2
100
AcDbLine
 10
800.0
 20
120.0
 11
400.0
 21
120.0
  0
LINE
  5
52F
100
AcDbEntity
  8
M1
 62
     2
100
AcDbLine
 10
800.0
 20
160.0
 11
400.0
 21
160.0
  0
LINE
  5
530
100
AcDbEntity
  8
M1
 62
     2
100
AcDbLine
 10
400.0
 20
40.0
 11
400.0
 21
160.0
  0
TEXT
  5
531
100
AcDbEntity
  8
M1
 62
     2
100
AcDbText
 10
410.0
 20
50.0
 40
20.0
  1
適　用；
  7
STANDARD
100
AcDbText
  0
TEXT
  5
532
100
AcDbEntity
  8
M1
 62
     2
100
AcDbText
 10
410.0
 20
130.0
 40
20.0
  1
登録名：
  7
STANDARD
100
AcDbText
  0
TEXT
  5
533
100
AcDbEntity
  8
M1
 62
     2
100
AcDbText
 10
506.0
 20
130.0
 40
20.0
  1
ＤＭＨ２００ＣＲＲ００
 41
0.5
  7
STANDARD
100
AcDbText
  0
TEXT
  5
534
100
AcDbEntity
  8
M1
 62
     2
100
AcDbText
 10
410.0
 20
90.0
 40
20.0
  1
形　式；
  7
STANDARD
100
AcDbText
  0
TEXT
  5
535
100
AcDbEntity
  8
M1
 62
     2
100
AcDbText
 10
506.0
 20
90.0
 40
20.0
  1
Ｈ２００Ｃ－Ｒ，Ｈ２００Ｃ－ＲＧ，Ｈ２５０Ｃ－Ｒ，Ｈ２５０Ｃ－ＲＧ
 41
0.25
  7
STANDARD
100
AcDbText
  0
LINE
  5
536
100
AcDbEntity
  8
DN0
100
AcDbLine
 10
215.855029
 20
191.720126
 11
288.895032
 21
191.720126
  0
TEXT
  5
537
100
AcDbEntity
  8
DN0
100
AcDbText
 10
217.875029
 20
193.520126
 40
18.0
  1
せん孔図
 41
0.833333
  7
STANDARD
100
AcDbText
  0
ENDSEC
  0
SECTION
  2
OBJECTS
  0
DICTIONARY
  5
C
100
AcDbDictionary
  3
ACAD_GROUP
350
D
  3
ACAD_MLINESTYLE
350
E
  0
DICTIONARY
  5
D
102
{ACAD_REACTORS
330
C
102
}
100
AcDbDictionary
  0
DICTIONARY
  5
E
102
{ACAD_REACTORS
330
C
102
}
100
AcDbDictionary
  3
STANDARD
350
13
  0
MLINESTYLE
  5
13
102
{ACAD_REACTORS
330
E
102
}
100
AcDbMlineStyle
  2
STANDARD
 70
     0
  3

 62
     0
 51
90.0
 52
90.0
 71
     2
 49
0.5
 62
   256
  6
BYLAYER
 49
-0.5
 62
   256
  6
BYLAYER
  0
ENDSEC
  0
EOF
