  0
SECTION
  2
HEADER
  9
$ACADVER
  1
AC1014
  9
$INSBASE
 10
0.000000
 20
0.000000
 30
0.0
  9
$VIEWCTR
 10
7.531722
 20
4.5
  9
$VIEWSIZE
 40
9.0
  9
$SNAPMODE
 70
     0
  9
$SNAPUNIT
 10
1.0
 20
1.0
  9
$SNAPBASE
 10
0.0
 20
0.0
  9
$SNAPANG
 50
0.0
  9
$SNAPSTYLE
 70
     0
  9
$SNAPISOPAIR
 70
     0
  9
$GRIDMODE
 70
     0
  9
$GRIDUNIT
 10
0.0
 20
0.0
  9
$ORTHOMODE
 70
     0
  9
$REGENMODE
 70
     1
  9
$FILLMODE
 70
     1
  9
$QTEXTMODE
 70
     0
  9
$DRAGMODE
 70
     2
  9
$LTSCALE
  40
     1.000000
  9
$OSMODE
 70
     0
  9
$ATTMODE
 70
     1
  9
$TEXTSIZE
 40
0.2
  9
$TRACEWID
 40
0.05
  9
$TEXTSTYLE
  7
STANDARD
  9
$CELTYPE
  6
BYLAYER
  9
$CECOLOR
 62
   256
  9
$DIMSCALE
 40
1.0
  9
$DIMASZ
 40
0.18
  9
$DIMEXO
 40
0.0625
  9
$DIMDLI
 40
0.38
  9
$DIMRND
 40
0.0
  9
$DIMDLE
 40
0.0
  9
$DIMEXE
 40
0.18
  9
$DIMTP
 40
0.0
  9
$DIMTM
 40
0.0
  9
$DIMTXT
 40
0.18
  9
$DIMCEN
 40
0.09
  9
$DIMTSZ
 40
0.0
  9
$DIMTOL
 70
     0
  9
$DIMLIM
 70
     0
  9
$DIMTIH
 70
     1
  9
$DIMTOH
 70
     1
  9
$DIMSE1
 70
     0
  9
$DIMSE2
 70
     0
  9
$DIMTAD
 70
     0
  9
$DIMZIN
 70
     0
  9
$DIMBLK
  1

  9
$LUNITS
 70
     2
  9
$LUPREC
 70
     4
  9
$AXISMODE
 70
     0
  9
$AXISUNIT
 10
0.0
 20
0.0
  9
$SKETCHINC
 40
0.1
  9
$FILLETRAD
 40
0.0
  9
$AUNITS
 70
     0
  9
$AUPREC
 70
     0
  9
$MENU
  1
ACAD
  9
$ELEVATION
 40
0.0
  9
$THICKNESS
 40
0.0
  9
$VIEWDIR
 10
0.0
 20
0.0
 30
1.0
  9
$LIMCHECK
 70
     0
  9
$BLIPMODE
 70
     1
  9
$CHAMFERA
 40
0.0
  9
$CHAMFERB
 40
0.0
  9
$FASTZOOM
 70
     1
  9
$SKPOLY
 70
     0
  9
$TDCREATE
 40
0000000.0000000000
  9
$TDUPDATE
 40
0000000.0000000000
  9
$TDINDWG
 40
0.0000000000
  9
$TDUSRTIMER
 40
0.0000000000
  9
$USRTIMER
 70
     1
  9
$ANGBASE
 50
0.0
  9
$ANGDIR
 70
     0
  9
$PDMODE
 70
     0
  9
$PDSIZE
 40
0.0
  9
$PLINEWID
 40
0.0
  9
$COORDS
 70
     0
  9
$USERI1
 70
     0
  9
$USERI2
 70
     0
  9
$USERI3
 70
     0
  9
$USERI4
 70
     0
  9
$USERI5
 70
     0
  9
$USERR1
 40
0.0
  9
$USERR2
 40
0.0
  9
$USERR3
 40
0.0
  9
$USERR4
 40
0.0
  9
$USERR5
 40
0.0
  9
$CLAYER
  8
M0
  9
$EXTMIN
 10
40.0
 20
40.0
  9
$EXTMAX
 10
800.0
 20
1140.0
  9
$LIMMIN
 10
0.0
 20
0.0
  9
$LIMMAX
 10
210.0
 20
297.0
  9
$HANDSEED
  5
933
  0
ENDSEC
  0
SECTION
  2
CLASSES
  0
ENDSEC
  0
SECTION
  2
TABLES
  0
TABLE
  2
VPORT
  5
8
100
AcDbSymbolTable
 70
     2
  0
VPORT
  5
14
100
AcDbSymbolTableRecord
100
AcDbViewportTableRecord
  2
*ACTIVE
 70
     0
 10
0.0
 20
0.0
 11
1.0
 21
1.0
 12
484.0
 22
297.0
 13
0.0
 23
0.0
 14
1.0
 24
1.0
 15
0.0
 25
0.0
 16
0.0
 26
0.0
 36
1.0
 17
0.0
 27
0.0
 37
0.0
 40
594.0
 41
2.0
 42
50.0
 43
0.0
 44
0.0
 50
0.0
 51
0.0
 71
     0
 72
   100
 73
     1
 74
     1
 75
     0
 76
     0
 77
     0
 78
     0
  0
ENDTAB
  0
TABLE
  2
LTYPE
  5
5
100
AcDbSymbolTable
 70
     5
  0
LTYPE
  5
15
100
AcDbSymbolTableRecord
100
AcDbLinetypeTableRecord
  2
BYBLOCK
 70
     0
  3

 72
    65
 73
     0
 40
0.0
  0
LTYPE
  5
16
100
AcDbSymbolTableRecord
100
AcDbLinetypeTableRecord
  2
BYLAYER
 70
     0
  3

 72
    65
 73
     0
 40
0.0
  0
LTYPE
  5
17
100
AcDbSymbolTableRecord
100
AcDbLinetypeTableRecord
  2
CONTINUOUS
 70
    64
  3
Solid line
 72
    65
 73
     0
 40
0.0
  0
LTYPE
  5
18
100
AcDbSymbolTableRecord
100
AcDbLinetypeTableRecord
  2
DASHED
 70
    64
  3
__ __ __ __ __ __ __ __ __ __ __ __ __ __ __ __
 72
    65
 73
     2
 40
0.75
 49
0.5
 74
     0
 49
-0.25
 74
     0
  0
LTYPE
  5
19
100
AcDbSymbolTableRecord
100
AcDbLinetypeTableRecord
  2
DASHDOT
 70
    64
  3
__ . __ . __ . __ . __ . __ . __ . __ . __ . __
 72
    65
 73
     4
 40
1.0
 49
0.5
 74
     0
 49
-0.25
 74
     0
 49
0.0
 74
     0
 49
-0.25
 74
     0
  0
LTYPE
  5
1A
100
AcDbSymbolTableRecord
100
AcDbLinetypeTableRecord
  2
DIVIDE
 70
    64
  3
____ . . ____ . . ____ . . ____ . . ____ . . __
 72
    65
 73
     6
 40
1.25
 49
0.5
 74
     0
 49
-0.25
 74
     0
 49
0.0
 74
     0
 49
-0.25
 74
     0
 49
0.0
 74
     0
 49
-0.25
 74
     0
  0
LTYPE
  5
1B
100
AcDbSymbolTableRecord
100
AcDbLinetypeTableRecord
  2
DOT
 70
    64
  3
. . . . . . . . . . . . . . . . . . . . . . . .
 72
    65
 73
     2
 40
0.25
 49
0.0
 74
     0
 49
-0.25
 74
     0
  0
ENDTAB
  0
TABLE
  2
LAYER
  5
2
100
AcDbSymbolTable
 70
   102
  0
LAYER
  5
F
100
AcDbSymbolTableRecord
100
AcDbLayerTableRecord
  2
0
 70
     0
 62
     7
  6
CONTINUOUS
  0
LAYER
  5
1C
100
AcDbSymbolTableRecord
100
AcDbLayerTableRecord
  2
DEFPOINTS
 70
     0
 62
     7
  6
CONTINUOUS
  0
LAYER
  5
1D
100
AcDbSymbolTableRecord
100
AcDbLayerTableRecord
  2
M0
 70
     0
 62
     3
  6
CONTINUOUS
  0
LAYER
  5
1E
100
AcDbSymbolTableRecord
100
AcDbLayerTableRecord
  2
M1
 70
     0
 62
     3
  6
CONTINUOUS
  0
LAYER
  5
1F
100
AcDbSymbolTableRecord
100
AcDbLayerTableRecord
  2
DD0
 70
     0
 62
     4
  6
CONTINUOUS
  0
LAYER
  5
20
100
AcDbSymbolTableRecord
100
AcDbLayerTableRecord
  2
DN0
 70
     0
 62
     2
  6
CONTINUOUS
  0
ENDTAB
  0
TABLE
  2
STYLE
  5
3
100
AcDbSymbolTable
 70
     2
  0
STYLE
  5
10
100
AcDbSymbolTableRecord
100
AcDbTextStyleTableRecord
  2
STANDARD
 70
     0
 40
0.0
 41
1.0
 50
0.0
 71
     0
 42
0.2
  3
txt
  4
BIGFONT
  0
ENDTAB
  0
TABLE
  2
VIEW
  5
6
100
AcDbSymbolTable
 70
     0
  0
ENDTAB
  0
TABLE
  2
UCS
  5
7
100
AcDbSymbolTable
 70
     0
  0
ENDTAB
  0
TABLE
  2
APPID
  5
9
100
AcDbSymbolTable
 70
     1
  0
APPID
  5
11
100
AcDbSymbolTableRecord
100
AcDbRegAppTableRecord
  2
ACAD
 70
     0
  0
ENDTAB
  0
TABLE
  2
DIMSTYLE
  5
A
100
AcDbSymbolTable
 70
     2
  0
DIMSTYLE
105
27
100
AcDbSymbolTableRecord
100
AcDbDimStyleTableRecord
  2
STANDARD
 70
     0
  3

  4

  5

  6
_OPEN
  7
_OPEN
 40
1.0
 41
12.0
 42
1.0
 43
8.0
 44
1.0
 45
0.0
 46
0.0
 47
0.0
 48
0.0
140
12.6
141
0.09
142
0.0
143
0.03937
144
1.0
145
0.0
146
1.0
147
0.6
 71
     0
 72
     0
 73
     1
 74
     1
 75
     0
 76
     0
 77
     3
 78
     8
170
     0
171
     2
172
     0
173
     1
174
     0
175
     0
176
     0
177
     0
178
     0
270
     2
271
     2
272
     4
273
     2
274
     2
340
10
275
     0
280
     0
281
     0
282
     0
283
     1
284
     0
285
     0
286
     0
287
     3
288
     0
  0
DIMSTYLE
105
28
100
AcDbSymbolTableRecord
100
AcDbDimStyleTableRecord
  2
LEADSTYL
 70
     0
  3

  4

  5

  6
_OPEN
  7
_OPEN
 40
1.0
 41
12.0
 42
0.0625
 43
0.38
 44
0.18
 45
0.0
 46
0.0
 47
0.0
 48
0.0
140
12.6
141
0.09
142
0.0
143
25.4
144
1.0
145
0.0
146
1.0
147
0.6
 71
     0
 72
     0
 73
     1
 74
     1
 75
     0
 76
     0
 77
     0
 78
     0
170
     0
171
     2
172
     0
173
     1
174
     0
175
     0
176
     0
177
     0
178
     0
270
     2
271
     4
272
     4
273
     2
274
     2
340
10
275
     0
280
     0
281
     0
282
     0
283
     1
284
     0
285
     0
286
     0
287
     3
288
     0
  0
ENDTAB
  0
TABLE
  2
BLOCK_RECORD
  5
1
100
AcDbSymbolTable
 70
    14
  0
BLOCK_RECORD
  5
21
100
AcDbSymbolTableRecord
100
AcDbBlockTableRecord
  2
*MODEL_SPACE
  0
BLOCK_RECORD
  5
24
100
AcDbSymbolTableRecord
100
AcDbBlockTableRecord
  2
*PAPER_SPACE
  0
BLOCK_RECORD
  5
29
100
AcDbSymbolTableRecord
100
AcDbBlockTableRecord
  2
_NONE
  0
BLOCK_RECORD
  5
2D
100
AcDbSymbolTableRecord
100
AcDbBlockTableRecord
  2
_OPEN
  0
BLOCK_RECORD
  5
33
100
AcDbSymbolTableRecord
100
AcDbBlockTableRecord
  2
_CLOSED
  0
BLOCK_RECORD
  5
3A
100
AcDbSymbolTableRecord
100
AcDbBlockTableRecord
  2
_ORIGIN
  0
BLOCK_RECORD
  5
3F
100
AcDbSymbolTableRecord
100
AcDbBlockTableRecord
  2
_DOT
  0
BLOCK_RECORD
  5
47
100
AcDbSymbolTableRecord
100
AcDbBlockTableRecord
  2
_OBLIQUE
  0
BLOCK_RECORD
  5
4B
100
AcDbSymbolTableRecord
100
AcDbBlockTableRecord
  2
DIMS0
  0
BLOCK_RECORD
  5
57
100
AcDbSymbolTableRecord
100
AcDbBlockTableRecord
  2
DIMS1
  0
BLOCK_RECORD
  5
63
100
AcDbSymbolTableRecord
100
AcDbBlockTableRecord
  2
DIMS2
  0
BLOCK_RECORD
  5
6F
100
AcDbSymbolTableRecord
100
AcDbBlockTableRecord
  2
DIMS3
  0
BLOCK_RECORD
  5
7B
100
AcDbSymbolTableRecord
100
AcDbBlockTableRecord
  2
DIMS4
  0
BLOCK_RECORD
  5
87
100
AcDbSymbolTableRecord
100
AcDbBlockTableRecord
  2
DIMS5
  0
BLOCK_RECORD
  5
93
100
AcDbSymbolTableRecord
100
AcDbBlockTableRecord
  2
DIMS6
  0
BLOCK_RECORD
  5
9F
100
AcDbSymbolTableRecord
100
AcDbBlockTableRecord
  2
DIMS7
  0
ENDTAB
  0
ENDSEC
  0
SECTION
  2
BLOCKS
  0
BLOCK
  5
22
100
AcDbEntity
  8
0
100
AcDbBlockBegin
  2
*MODEL_SPACE
 70
     0
 10
0.0
 20
0.0
 30
0.0
  3
*MODEL_SPACE
  1

  0
ENDBLK
  5
23
100
AcDbEntity
  8
0
100
AcDbBlockEnd
  0
BLOCK
  5
25
100
AcDbEntity
 67
     1
  8
0
100
AcDbBlockBegin
  2
*PAPER_SPACE
 70
     0
 10
0.0
 20
0.0
 30
0.0
  3
*PAPER_SPACE
  1

  0
ENDBLK
  5
26
100
AcDbEntity
 67
     1
  8
0
100
AcDbBlockEnd
  0
BLOCK
  5
2A
100
AcDbEntity
  8
0
100
AcDbBlockBegin
  2
_NONE
 70
     0
 10
0.0
 20
0.0
  0
CIRCLE
  5
2B
100
AcDbEntity
  8
0
 62
     0
100
AcDbCircle
 10
0.0
 20
0.0
 40
0.25
  0
ENDBLK
  5
2C
100
AcDbEntity
  8
0
100
AcDbBlockEnd
  0
BLOCK
  5
2E
100
AcDbEntity
  8
0
100
AcDbBlockBegin
  2
_OPEN
 70
     0
 10
0.0
 20
0.0
  0
LINE
  5
2F
100
AcDbEntity
  8
0
 62
     0
100
AcDbLine
 10
-0.965926
 20
0.258819
 11
0.0
 21
0.0
  0
LINE
  5
30
100
AcDbEntity
  8
0
 62
     0
100
AcDbLine
 10
0.0
 20
0.0
 11
-0.965926
 21
-0.258819
  0
LINE
  5
31
100
AcDbEntity
  8
0
 62
     0
100
AcDbLine
 10
0.0
 20
0.0
 11
-1.0
 21
0.0
  0
ENDBLK
  5
32
100
AcDbEntity
  8
0
100
AcDbBlockEnd
  0
BLOCK
  5
34
100
AcDbEntity
  8
0
100
AcDbBlockBegin
  2
_CLOSED
 70
     0
 10
0.0
 20
0.0
  0
LINE
  5
35
100
AcDbEntity
  8
0
 62
     0
100
AcDbLine
 10
-0.965926
 20
0.258819
 11
0.0
 21
0.0
  0
LINE
  5
36
100
AcDbEntity
  8
0
 62
     0
100
AcDbLine
 10
0.0
 20
0.0
 11
-0.965926
 21
-0.258819
  0
LINE
  5
37
100
AcDbEntity
  8
0
 62
     0
100
AcDbLine
 10
-0.965926
 20
0.258819
 11
-0.965926
 21
-0.258819
  0
LINE
  5
38
100
AcDbEntity
  8
0
 62
     0
100
AcDbLine
 10
0.0
 20
0.0
 11
-1.0
 21
0.0
  0
ENDBLK
  5
39
100
AcDbEntity
  8
0
100
AcDbBlockEnd
  0
BLOCK
  5
3B
100
AcDbEntity
  8
0
100
AcDbBlockBegin
  2
_ORIGIN
 70
     0
 10
0.0
 20
0.0
  0
CIRCLE
  5
3C
100
AcDbEntity
  8
0
 62
     0
100
AcDbCircle
 10
0.0
 20
0.0
 40
0.5
  0
LINE
  5
3D
100
AcDbEntity
  8
0
 62
     0
100
AcDbLine
 10
0.0
 20
0.0
 11
-1.0
 21
0.0
  0
ENDBLK
  5
3E
100
AcDbEntity
  8
0
100
AcDbBlockEnd
  0
BLOCK
  5
40
100
AcDbEntity
  8
0
100
AcDbBlockBegin
  2
_DOT
 70
     0
 10
0.0
 20
0.0
  0
POLYLINE
  5
41
100
AcDbEntity
  8
0
 62
     0
100
AcDb2dPolyline
 66
     1
 70
     1
 40
0.5
 41
0.5
  0
VERTEX
  5
42
100
AcDbEntity
  8
0
 62
     0
100
AcDbVertex
100
AcDb2dVertex
 10
-0.25
 20
0.0
 42
1.0
  0
VERTEX
  5
43
100
AcDbEntity
  8
0
 62
     0
100
AcDbVertex
100
AcDb2dVertex
 10
0.25
 20
0.0
 42
1.0
  0
SEQEND
  5
44
100
AcDbEntity
  8
0
 62
     0
  0
LINE
  5
45
100
AcDbEntity
  8
0
 62
     0
100
AcDbLine
 10
-0.5
 20
0.0
 11
-1.0
 21
0.0
  0
ENDBLK
  5
46
100
AcDbEntity
  8
0
100
AcDbBlockEnd
  0
BLOCK
  5
48
100
AcDbEntity
  8
0
100
AcDbBlockBegin
  2
_OBLIQUE
 70
     0
 10
0.0
 20
0.0
  0
LINE
  5
49
100
AcDbEntity
  8
0
 62
     0
100
AcDbLine
 10
-0.353553
 20
-0.353553
 11
0.353553
 21
0.353553
  0
ENDBLK
  5
4A
100
AcDbEntity
  8
0
100
AcDbBlockEnd
  0
BLOCK
  5
4C
100
AcDbEntity
  8
DD0
100
AcDbBlockBegin
  2
DIMS0
 70
     0
 10
0.0
 20
0.0
  0
LINE
  5
4D
100
AcDbEntity
  8
DD0
100
AcDbLine
 10
132.378769
 20
902.646912
 11
89.780685
 21
902.646912
  0
LINE
  5
4E
100
AcDbEntity
  8
DD0
100
AcDbLine
 10
132.378769
 20
612.646912
 11
89.780685
 21
612.646912
  0
LINE
  5
4F
100
AcDbEntity
  8
DD0
100
AcDbLine
 10
96.886514
 20
891.055802
 11
93.780685
 21
902.646912
  0
LINE
  5
50
100
AcDbEntity
  8
DD0
100
AcDbLine
 10
93.780685
 20
902.646912
 11
90.674857
 21
891.055802
  0
LINE
  5
51
100
AcDbEntity
  8
DD0
100
AcDbLine
 10
90.674857
 20
624.238022
 11
93.780685
 21
612.646912
  0
LINE
  5
52
100
AcDbEntity
  8
DD0
100
AcDbLine
 10
93.780685
 20
612.646912
 11
96.886514
 21
624.238022
  0
LINE
  5
53
100
AcDbEntity
  8
DD0
100
AcDbLine
 10
93.780685
 20
902.646912
 11
93.780685
 21
612.646912
  0
TEXT
  5
54
100
AcDbEntity
  8
DD0
100
AcDbText
 10
91.380684
 20
739.776892
 40
12.6
  1
２９０
 50
90.000003
 41
0.833333
  7
STANDARD
100
AcDbText
  0
ENDBLK
  5
55
100
AcDbEntity
  8
DD0
100
AcDbBlockEnd
  0
BLOCK
  5
58
100
AcDbEntity
  8
DD0
100
AcDbBlockBegin
  2
DIMS1
 70
     0
 10
0.0
 20
0.0
  0
LINE
  5
59
100
AcDbEntity
  8
DD0
100
AcDbLine
 10
131.378769
 20
901.646912
 11
131.378769
 21
941.841492
  0
LINE
  5
5A
100
AcDbEntity
  8
DD0
100
AcDbLine
 10
461.378754
 20
901.646912
 11
461.378754
 21
941.841492
  0
LINE
  5
5B
100
AcDbEntity
  8
DD0
100
AcDbLine
 10
142.969879
 20
940.94732
 11
131.378769
 21
937.841492
  0
LINE
  5
5C
100
AcDbEntity
  8
DD0
100
AcDbLine
 10
131.378769
 20
937.841492
 11
142.969879
 21
934.735663
  0
LINE
  5
5D
100
AcDbEntity
  8
DD0
100
AcDbLine
 10
449.787644
 20
934.735663
 11
461.378754
 21
937.841492
  0
LINE
  5
5E
100
AcDbEntity
  8
DD0
100
AcDbLine
 10
461.378754
 20
937.841492
 11
449.787644
 21
940.94732
  0
LINE
  5
5F
100
AcDbEntity
  8
DD0
100
AcDbLine
 10
131.378769
 20
937.841492
 11
461.378754
 21
937.841492
  0
TEXT
  5
60
100
AcDbEntity
  8
DD0
100
AcDbText
 10
278.508765
 20
940.241516
 40
12.6
  1
３３０
 41
0.833333
  7
STANDARD
100
AcDbText
  0
ENDBLK
  5
61
100
AcDbEntity
  8
DD0
100
AcDbBlockEnd
  0
BLOCK
  5
64
100
AcDbEntity
  8
DD0
100
AcDbBlockBegin
  2
DIMS2
 70
     0
 10
0.0
 20
0.0
  0
LINE
  5
65
100
AcDbEntity
  8
DD0
100
AcDbLine
 10
741.069092
 20
608.646912
 11
741.069092
 21
597.13031
  0
LINE
  5
66
100
AcDbEntity
  8
DD0
100
AcDbLine
 10
744.269104
 20
608.646912
 11
744.269104
 21
597.13031
  0
LINE
  5
67
100
AcDbEntity
  8
DD0
100
AcDbLine
 10
729.477982
 20
598.024481
 11
741.069092
 21
601.13031
  0
LINE
  5
68
100
AcDbEntity
  8
DD0
100
AcDbLine
 10
741.069092
 20
601.13031
 11
729.477982
 21
604.236139
  0
LINE
  5
69
100
AcDbEntity
  8
DD0
100
AcDbLine
 10
755.860214
 20
604.236139
 11
744.269104
 21
601.13031
  0
LINE
  5
6A
100
AcDbEntity
  8
DD0
100
AcDbLine
 10
744.269104
 20
601.13031
 11
755.860214
 21
598.024481
  0
LINE
  5
6B
100
AcDbEntity
  8
DD0
100
AcDbLine
 10
693.629093
 20
601.13031
 11
757.469104
 21
601.13031
  0
TEXT
  5
6C
100
AcDbEntity
  8
DD0
100
AcDbText
 10
697.029119
 20
603.930298
 40
12.6
  1
３．２
 41
0.666667
  7
STANDARD
100
AcDbText
  0
ENDBLK
  5
6D
100
AcDbEntity
  8
DD0
100
AcDbBlockEnd
  0
BLOCK
  5
70
100
AcDbEntity
  8
DD0
100
AcDbBlockBegin
  2
DIMS3
 70
     0
 10
0.0
 20
0.0
  0
LINE
  5
71
100
AcDbEntity
  8
DD0
100
AcDbLine
 10
465.378754
 20
519.127197
 11
502.02002
 21
519.127197
  0
LINE
  5
72
100
AcDbEntity
  8
DD0
100
AcDbLine
 10
467.378754
 20
504.127197
 11
502.02002
 21
504.127197
  0
LINE
  5
73
100
AcDbEntity
  8
DD0
100
AcDbLine
 10
494.914191
 20
530.718307
 11
498.02002
 21
519.127197
  0
LINE
  5
74
100
AcDbEntity
  8
DD0
100
AcDbLine
 10
498.02002
 20
519.127197
 11
501.125848
 21
530.718307
  0
LINE
  5
75
100
AcDbEntity
  8
DD0
100
AcDbLine
 10
501.125848
 20
492.536087
 11
498.02002
 21
504.127197
  0
LINE
  5
76
100
AcDbEntity
  8
DD0
100
AcDbLine
 10
498.02002
 20
504.127197
 11
494.914191
 21
492.536087
  0
LINE
  5
77
100
AcDbEntity
  8
DD0
100
AcDbLine
 10
498.02002
 20
556.487198
 11
498.02002
 21
490.927197
  0
TEXT
  5
78
100
AcDbEntity
  8
DD0
100
AcDbText
 10
495.220032
 20
533.16718
 40
12.6
  1
１５
 50
90.000003
 41
0.666667
  7
STANDARD
100
AcDbText
  0
ENDBLK
  5
79
100
AcDbEntity
  8
DD0
100
AcDbBlockEnd
  0
BLOCK
  5
7C
100
AcDbEntity
  8
DD0
100
AcDbBlockBegin
  2
DIMS4
 70
     0
 10
0.0
 20
0.0
  0
LINE
  5
7D
100
AcDbEntity
  8
DD0
 60
     1
100
AcDbLine
 10
467.378754
 20
504.127197
 11
502.02002
 21
504.127197
  0
LINE
  5
7E
100
AcDbEntity
  8
DD0
100
AcDbLine
 10
312.378754
 20
244.127182
 11
502.02002
 21
244.127182
  0
LINE
  5
7F
100
AcDbEntity
  8
DD0
100
AcDbLine
 10
501.125848
 20
492.536087
 11
498.02002
 21
504.127197
  0
LINE
  5
80
100
AcDbEntity
  8
DD0
100
AcDbLine
 10
498.02002
 20
504.127197
 11
494.914191
 21
492.536087
  0
LINE
  5
81
100
AcDbEntity
  8
DD0
100
AcDbLine
 10
494.914191
 20
255.718292
 11
498.02002
 21
244.127182
  0
LINE
  5
82
100
AcDbEntity
  8
DD0
100
AcDbLine
 10
498.02002
 20
244.127182
 11
501.125848
 21
255.718292
  0
LINE
  5
83
100
AcDbEntity
  8
DD0
100
AcDbLine
 10
498.02002
 20
504.127197
 11
498.02002
 21
244.127182
  0
TEXT
  5
84
100
AcDbEntity
  8
DD0
100
AcDbText
 10
495.220032
 20
359.847204
 40
12.6
  1
２６０
 50
90.000003
 41
0.666667
  7
STANDARD
100
AcDbText
  0
ENDBLK
  5
85
100
AcDbEntity
  8
DD0
100
AcDbBlockEnd
  0
BLOCK
  5
88
100
AcDbEntity
  8
DD0
100
AcDbBlockBegin
  2
DIMS5
 70
     0
 10
0.0
 20
0.0
  0
LINE
  5
89
100
AcDbEntity
  8
DD0
100
AcDbLine
 10
146.378769
 20
525.127197
 11
146.378769
 21
555.127197
  0
LINE
  5
8A
100
AcDbEntity
  8
DD0
100
AcDbLine
 10
446.378754
 20
525.127197
 11
446.378754
 21
555.127197
  0
LINE
  5
8B
100
AcDbEntity
  8
DD0
100
AcDbLine
 10
157.969879
 20
554.233026
 11
146.378769
 21
551.127197
  0
LINE
  5
8C
100
AcDbEntity
  8
DD0
100
AcDbLine
 10
146.378769
 20
551.127197
 11
157.969879
 21
548.021369
  0
LINE
  5
8D
100
AcDbEntity
  8
DD0
100
AcDbLine
 10
434.787644
 20
548.021369
 11
446.378754
 21
551.127197
  0
LINE
  5
8E
100
AcDbEntity
  8
DD0
100
AcDbLine
 10
446.378754
 20
551.127197
 11
434.787644
 21
554.233026
  0
LINE
  5
8F
100
AcDbEntity
  8
DD0
100
AcDbLine
 10
146.378769
 20
551.127197
 11
446.378754
 21
551.127197
  0
TEXT
  5
90
100
AcDbEntity
  8
DD0
100
AcDbText
 10
282.09876
 20
553.927185
 40
12.6
  1
３００
 41
0.666667
  7
STANDARD
100
AcDbText
  0
ENDBLK
  5
91
100
AcDbEntity
  8
DD0
100
AcDbBlockEnd
  0
BLOCK
  5
94
100
AcDbEntity
  8
DD0
100
AcDbBlockBegin
  2
DIMS6
 70
     0
 10
0.0
 20
0.0
  0
LINE
  5
95
100
AcDbEntity
  8
DD0
100
AcDbLine
 10
744.269104
 20
906.646912
 11
744.269104
 21
940.841492
  0
LINE
  5
96
100
AcDbEntity
  8
DD0
100
AcDbLine
 10
512.269226
 20
823.647705
 11
512.269226
 21
940.841492
  0
LINE
  5
97
100
AcDbEntity
  8
DD0
100
AcDbLine
 10
732.677994
 20
933.735663
 11
744.269104
 21
936.841492
  0
LINE
  5
98
100
AcDbEntity
  8
DD0
100
AcDbLine
 10
744.269104
 20
936.841492
 11
732.677994
 21
939.94732
  0
LINE
  5
99
100
AcDbEntity
  8
DD0
100
AcDbLine
 10
523.860336
 20
939.94732
 11
512.269226
 21
936.841492
  0
LINE
  5
9A
100
AcDbEntity
  8
DD0
100
AcDbLine
 10
512.269226
 20
936.841492
 11
523.860336
 21
933.735663
  0
LINE
  5
9B
100
AcDbEntity
  8
DD0
100
AcDbLine
 10
744.269104
 20
936.841492
 11
512.269226
 21
936.841492
  0
TEXT
  5
9C
100
AcDbEntity
  8
DD0
100
AcDbText
 10
610.399145
 20
939.241516
 40
12.6
  1
２３２
 41
0.833333
  7
STANDARD
100
AcDbText
  0
ENDBLK
  5
9D
100
AcDbEntity
  8
DD0
100
AcDbBlockEnd
  0
BLOCK
  5
A0
100
AcDbEntity
  8
DD0
100
AcDbBlockBegin
  2
DIMS7
 70
     0
 10
0.0
 20
0.0
  0
TEXT
  5
A1
100
AcDbEntity
  8
DD0
100
AcDbText
 10
341.260077
 20
197.890533
 40
12.6
  1
３－Ｍ８ねじ穴
 41
0.833333
  7
STANDARD
100
AcDbText
  0
LINE
  5
A2
100
AcDbEntity
  8
DD0
100
AcDbLine
 10
307.056479
 20
232.472563
 11
298.193512
 21
240.562546
  0
LINE
  5
A3
100
AcDbEntity
  8
DD0
100
AcDbLine
 10
298.193512
 20
240.562546
 11
301.824075
 21
229.124932
  0
LINE
  5
A4
100
AcDbEntity
  8
DD0
100
AcDbLine
 10
298.193512
 20
240.562546
 11
327.03006
 21
195.49054
  0
LINE
  5
A5
100
AcDbEntity
  8
DD0
100
AcDbLine
 10
327.03006
 20
195.49054
 11
441.630066
 21
195.49054
  0
ENDBLK
  5
A6
100
AcDbEntity
  8
DD0
100
AcDbBlockEnd
  0
ENDSEC
  0
SECTION
  2
ENTITIES
  0
INSERT
  5
56
100
AcDbEntity
  8
DD0
100
AcDbBlockReference
  2
DIMS0
 10
0.0
 20
0.0
  0
INSERT
  5
62
100
AcDbEntity
  8
DD0
100
AcDbBlockReference
  2
DIMS1
 10
0.0
 20
0.0
  0
INSERT
  5
6E
100
AcDbEntity
  8
DD0
100
AcDbBlockReference
  2
DIMS2
 10
0.0
 20
0.0
  0
INSERT
  5
7A
100
AcDbEntity
  8
DD0
100
AcDbBlockReference
  2
DIMS3
 10
0.0
 20
0.0
  0
INSERT
  5
86
100
AcDbEntity
  8
DD0
100
AcDbBlockReference
  2
DIMS4
 10
0.0
 20
0.0
  0
INSERT
  5
92
100
AcDbEntity
  8
DD0
100
AcDbBlockReference
  2
DIMS5
 10
0.0
 20
0.0
  0
INSERT
  5
9E
100
AcDbEntity
  8
DD0
100
AcDbBlockReference
  2
DIMS6
 10
0.0
 20
0.0
  0
INSERT
  5
A7
100
AcDbEntity
  8
DD0
100
AcDbBlockReference
  2
DIMS7
 10
0.0
 20
0.0
  0
LINE
  5
A8
100
AcDbEntity
  8
M0
100
AcDbLine
 10
674.269083
 20
873.447748
 11
652.269083
 21
873.447748
  0
LINE
  5
A9
100
AcDbEntity
  8
M0
100
AcDbLine
 10
648.269083
 20
856.747748
 11
678.269083
 21
856.747748
  0
LINE
  5
AA
100
AcDbEntity
  8
M0
100
AcDbLine
 10
678.269083
 20
856.747748
 11
678.269083
 21
869.447748
  0
LINE
  5
AB
100
AcDbEntity
  8
M0
100
AcDbLine
 10
648.269083
 20
869.447748
 11
648.269083
 21
856.747748
  0
ARC
  5
AC
100
AcDbEntity
  8
M0
100
AcDbCircle
 10
652.269083
 20
869.447748
 40
4.0
100
AcDbArc
 50
90.0
 51
180.0
  0
ARC
  5
AD
100
AcDbEntity
  8
M0
100
AcDbCircle
 10
674.269083
 20
869.447748
 40
4.0
100
AcDbArc
 50
0.0
 51
90.0
  0
LINE
  5
AE
100
AcDbEntity
  8
M0
100
AcDbLine
 10
653.669098
 20
856.747748
 11
653.669098
 21
855.147741
  0
ARC
  5
AF
100
AcDbEntity
  8
M0
100
AcDbCircle
 10
734.169092
 20
854.647741
 40
0.5
100
AcDbArc
 50
0.0
 51
90.0
  0
ARC
  5
B0
100
AcDbEntity
  8
M0
100
AcDbCircle
 10
735.269098
 20
855.747748
 40
1.0
100
AcDbArc
 50
0.0
 51
90.0
  0
LINE
  5
B1
100
AcDbEntity
  8
M0
100
AcDbLine
 10
735.269098
 20
856.747748
 11
653.669098
 21
856.747748
  0
LINE
  5
B2
100
AcDbEntity
  8
M0
100
AcDbLine
 10
701.169099
 20
647.547751
 11
735.269098
 21
647.547751
  0
LINE
  5
B3
100
AcDbEntity
  8
M0
100
AcDbLine
 10
734.169092
 20
649.147757
 11
701.169099
 21
649.147757
  0
LINE
  5
B4
100
AcDbEntity
  8
M0
100
AcDbLine
 10
701.169099
 20
649.147757
 11
701.169099
 21
647.547751
  0
ARC
  5
B5
100
AcDbEntity
  8
M0
100
AcDbCircle
 10
734.169092
 20
649.647757
 40
0.5
100
AcDbArc
 50
270.0
 51
360.0
  0
ARC
  5
B6
100
AcDbEntity
  8
M0
100
AcDbCircle
 10
735.269098
 20
648.547751
 40
1.0
100
AcDbArc
 50
270.0
 51
360.0
  0
LINE
  5
B7
100
AcDbEntity
  8
M0
100
AcDbLine
 10
734.669092
 20
854.647741
 11
734.669092
 21
649.647757
  0
ARC
  5
B8
100
AcDbEntity
  8
M0
100
AcDbCircle
 10
736.769083
 20
654.147757
 40
0.5
100
AcDbArc
 50
-90.0
 51
0.0
  0
LINE
  5
B9
100
AcDbEntity
  8
M0
100
AcDbLine
 10
736.769083
 20
653.647757
 11
736.269098
 21
653.647757
  0
LINE
  5
BA
100
AcDbEntity
  8
M0
100
AcDbLine
 10
737.269083
 20
654.147757
 11
737.269083
 21
665.147757
  0
ARC
  5
BB
100
AcDbEntity
  8
M0
100
AcDbCircle
 10
736.769083
 20
665.147757
 40
0.5
100
AcDbArc
 50
0.0
 51
90.0
  0
LINE
  5
BC
100
AcDbEntity
  8
M0
100
AcDbLine
 10
736.769083
 20
665.647757
 11
736.269098
 21
665.647757
  0
ARC
  5
BD
100
AcDbEntity
  8
M0
100
AcDbCircle
 10
736.769113
 20
837.997763
 40
0.5
100
AcDbArc
 50
-90.0
 51
0.0
  0
LINE
  5
BE
100
AcDbEntity
  8
M0
100
AcDbLine
 10
736.769113
 20
837.497763
 11
736.269113
 21
837.497763
  0
ARC
  5
BF
100
AcDbEntity
  8
M0
100
AcDbCircle
 10
736.769113
 20
851.297757
 40
0.5
100
AcDbArc
 50
0.0
 51
90.0
  0
LINE
  5
C0
100
AcDbEntity
  8
M0
100
AcDbLine
 10
736.769113
 20
851.797757
 11
736.269113
 21
851.797757
  0
LINE
  5
C1
100
AcDbEntity
  8
M0
100
AcDbLine
 10
737.269113
 20
837.997763
 11
737.269113
 21
850.147757
  0
LINE
  5
C2
100
AcDbEntity
  8
M0
100
AcDbLine
 10
737.269083
 20
851.293843
 11
737.269083
 21
839.147757
  0
LINE
  5
C3
100
AcDbEntity
  8
M0
100
AcDbLine
 10
736.269098
 20
648.547751
 11
736.269098
 21
855.747748
  0
LINE
  5
C4
100
AcDbEntity
  8
M0
100
AcDbLine
 10
653.669098
 20
855.147743
 11
734.169092
 21
855.147741
  0
LINE
  5
C5
100
AcDbEntity
  8
M0
100
AcDbLine
 10
734.669092
 20
649.647757
 11
734.669092
 21
854.647757
  0
LINE
  5
C6
100
AcDbEntity
  8
M0
100
AcDbLine
 10
734.669092
 20
854.647757
 11
701.069116
 21
854.647757
  0
LINE
  5
C7
100
AcDbEntity
  8
M0
100
AcDbLine
 10
701.069116
 20
854.647757
 11
701.069116
 21
649.647757
  0
LINE
  5
C8
100
AcDbEntity
  8
M0
100
AcDbLine
 10
701.069116
 20
649.647757
 11
734.669092
 21
649.647757
  0
ARC
  5
C9
100
AcDbEntity
  8
M0
 62
     7
100
AcDbCircle
 10
514.269214
 20
819.647696
 40
2.0
100
AcDbArc
 50
89.999563
 51
180.0
  0
LINE
  5
CA
100
AcDbEntity
  8
M0
 62
     7
100
AcDbLine
 10
512.269214
 20
819.647696
 11
512.269214
 21
673.647708
  0
ARC
  5
CB
100
AcDbEntity
  8
M0
 62
     7
100
AcDbCircle
 10
514.269214
 20
673.647708
 40
2.0
100
AcDbArc
 50
179.999973
 51
270.0
  0
ARC
  5
CC
100
AcDbEntity
  8
M0
 62
     7
100
AcDbCircle
 10
514.269214
 20
809.647696
 40
2.0
100
AcDbArc
 50
89.999563
 51
180.0
  0
ARC
  5
CD
100
AcDbEntity
  8
M0
 62
     7
100
AcDbCircle
 10
514.269214
 20
683.647708
 40
2.0
100
AcDbArc
 50
179.999973
 51
270.0
  0
LINE
  5
CE
100
AcDbEntity
  8
M0
 62
     7
100
AcDbLine
 10
514.269214
 20
821.647696
 11
595.469205
 21
821.647696
  0
LINE
  5
CF
100
AcDbEntity
  8
M0
 62
     7
100
AcDbLine
 10
514.269214
 20
811.647696
 11
595.469205
 21
811.647696
  0
LINE
  5
D0
100
AcDbEntity
  8
M0
 62
     7
100
AcDbLine
 10
514.269214
 20
671.647708
 11
595.469205
 21
671.647708
  0
LINE
  5
D1
100
AcDbEntity
  8
M0
 62
     7
100
AcDbLine
 10
514.269214
 20
681.647708
 11
595.469205
 21
681.647708
  0
LINE
  5
D2
100
AcDbEntity
  8
M0
 62
     7
100
AcDbLine
 10
595.469205
 20
671.647708
 11
595.469205
 21
681.647708
  0
LINE
  5
D3
100
AcDbEntity
  8
M0
 62
     7
100
AcDbLine
 10
595.469205
 20
811.647696
 11
595.469205
 21
821.647696
  0
LINE
  5
D4
100
AcDbEntity
  8
M0
  6
DASHDOT
100
AcDbLine
 10
548.980374
 20
746.647696
 11
651.467505
 21
746.647696
  0
LINE
  5
D5
100
AcDbEntity
  8
M0
100
AcDbLine
 10
567.469213
 20
750.397696
 11
567.469213
 21
742.897696
  0
ARC
  5
D6
100
AcDbEntity
  8
M0
100
AcDbCircle
 10
561.969214
 20
741.897696
 40
1.0
100
AcDbArc
 50
90.0
 51
180.0
  0
LINE
  5
D7
100
AcDbEntity
  8
M0
100
AcDbLine
 10
561.969214
 20
742.897696
 11
567.469213
 21
742.897696
  0
LINE
  5
D8
100
AcDbEntity
  8
M0
100
AcDbLine
 10
561.969214
 20
750.397696
 11
567.469213
 21
750.397696
  0
LINE
  5
D9
100
AcDbEntity
  8
M0
100
AcDbLine
 10
635.469205
 20
833.147696
 11
622.969205
 21
833.147696
  0
ARC
  5
DA
100
AcDbEntity
  8
M0
100
AcDbCircle
 10
622.969205
 20
832.147696
 40
1.0
100
AcDbArc
 50
90.0
 51
180.0
  0
LINE
  5
DB
100
AcDbEntity
  8
M0
100
AcDbLine
 10
621.969205
 20
832.147696
 11
621.969205
 21
783.647696
  0
ARC
  5
DC
100
AcDbEntity
  8
M0
100
AcDbCircle
 10
619.969205
 20
783.647696
 40
2.0
100
AcDbArc
 50
269.999563
 51
360.0
  0
LINE
  5
DD
100
AcDbEntity
  8
M0
100
AcDbLine
 10
611.969205
 20
781.647696
 11
619.969205
 21
781.647696
  0
ARC
  5
DE
100
AcDbEntity
  8
M0
100
AcDbCircle
 10
611.969205
 20
780.647696
 40
1.0
100
AcDbArc
 50
90.0
 51
180.0
  0
ARC
  5
DF
100
AcDbEntity
  8
M0
100
AcDbCircle
 10
562.969214
 20
762.147696
 40
2.0
100
AcDbArc
 50
90.0
 51
180.0
  0
LINE
  5
E0
100
AcDbEntity
  8
M0
100
AcDbLine
 10
580.969213
 20
761.647696
 11
584.969205
 21
761.647696
  0
LINE
  5
E1
100
AcDbEntity
  8
M0
100
AcDbLine
 10
562.969214
 20
764.147696
 11
580.969213
 21
764.147696
  0
LINE
  5
E2
100
AcDbEntity
  8
M0
100
AcDbLine
 10
580.969213
 20
764.147696
 11
580.969213
 21
761.647696
  0
LINE
  5
E3
100
AcDbEntity
  8
M0
100
AcDbLine
 10
584.969205
 20
764.248724
 11
584.969205
 21
761.647696
  0
ARC
  5
E4
100
AcDbEntity
  8
M0
100
AcDbCircle
 10
583.969205
 20
769.147696
 40
5.0
100
AcDbArc
 50
281.536771
 51
360.0
  0
LINE
  5
E5
100
AcDbEntity
  8
M0
100
AcDbLine
 10
588.969205
 20
772.147696
 11
588.969205
 21
769.147696
  0
ARC
  5
E6
100
AcDbEntity
  8
M0
100
AcDbCircle
 10
590.969205
 20
772.147696
 40
2.0
100
AcDbArc
 50
90.0
 51
180.0
  0
LINE
  5
E7
100
AcDbEntity
  8
M0
100
AcDbLine
 10
603.969205
 20
773.147696
 11
610.969205
 21
773.147696
  0
LINE
  5
E8
100
AcDbEntity
  8
M0
100
AcDbLine
 10
602.969205
 20
774.147696
 11
603.969205
 21
773.147696
  0
LINE
  5
E9
100
AcDbEntity
  8
M0
100
AcDbLine
 10
610.969205
 20
780.647696
 11
610.969205
 21
773.147696
  0
LINE
  5
EA
100
AcDbEntity
  8
M0
100
AcDbLine
 10
590.969205
 20
774.147696
 11
602.969205
 21
774.147696
  0
LINE
  5
EB
100
AcDbEntity
  8
M0
100
AcDbLine
 10
635.469205
 20
671.647708
 11
596.469205
 21
671.647708
  0
ARC
  5
EC
100
AcDbEntity
  8
M0
100
AcDbCircle
 10
622.969205
 20
672.647708
 40
1.0
100
AcDbArc
 50
180.0
 51
269.999126
  0
LINE
  5
ED
100
AcDbEntity
  8
M0
100
AcDbLine
 10
621.969205
 20
672.647708
 11
621.969205
 21
709.647696
  0
ARC
  5
EE
100
AcDbEntity
  8
M0
100
AcDbCircle
 10
619.969205
 20
709.647696
 40
2.0
100
AcDbArc
 50
0.0
 51
90.0
  0
LINE
  5
EF
100
AcDbEntity
  8
M0
100
AcDbLine
 10
611.969205
 20
711.647696
 11
619.969205
 21
711.647696
  0
ARC
  5
F0
100
AcDbEntity
  8
M0
100
AcDbCircle
 10
611.969205
 20
712.647696
 40
1.0
100
AcDbArc
 50
180.0
 51
269.999126
  0
ARC
  5
F1
100
AcDbEntity
  8
M0
100
AcDbCircle
 10
562.969214
 20
731.147696
 40
2.0
100
AcDbArc
 50
180.0
 51
270.0
  0
LINE
  5
F2
100
AcDbEntity
  8
M0
100
AcDbLine
 10
580.969213
 20
731.647696
 11
584.969205
 21
731.647696
  0
LINE
  5
F3
100
AcDbEntity
  8
M0
100
AcDbLine
 10
562.969214
 20
729.147696
 11
580.969213
 21
729.147696
  0
LINE
  5
F4
100
AcDbEntity
  8
M0
100
AcDbLine
 10
580.969213
 20
729.147696
 11
580.969213
 21
731.647696
  0
LINE
  5
F5
100
AcDbEntity
  8
M0
100
AcDbLine
 10
584.969205
 20
729.046682
 11
584.969205
 21
731.647696
  0
ARC
  5
F6
100
AcDbEntity
  8
M0
100
AcDbCircle
 10
583.969205
 20
724.147696
 40
5.0
100
AcDbArc
 50
0.0
 51
78.463023
  0
LINE
  5
F7
100
AcDbEntity
  8
M0
100
AcDbLine
 10
588.969205
 20
721.147696
 11
588.969205
 21
724.147696
  0
ARC
  5
F8
100
AcDbEntity
  8
M0
100
AcDbCircle
 10
590.969205
 20
721.147696
 40
2.0
100
AcDbArc
 50
180.0
 51
269.999563
  0
LINE
  5
F9
100
AcDbEntity
  8
M0
100
AcDbLine
 10
603.969205
 20
720.147696
 11
610.969205
 21
720.147696
  0
LINE
  5
FA
100
AcDbEntity
  8
M0
100
AcDbLine
 10
602.969205
 20
719.147696
 11
603.969205
 21
720.147696
  0
LINE
  5
FB
100
AcDbEntity
  8
M0
100
AcDbLine
 10
610.969205
 20
712.647696
 11
610.969205
 21
720.147696
  0
LINE
  5
FC
100
AcDbEntity
  8
M0
100
AcDbLine
 10
590.969205
 20
719.147696
 11
602.969205
 21
719.147696
  0
LINE
  5
FD
100
AcDbEntity
  8
M0
100
AcDbLine
 10
560.969214
 20
762.147696
 11
560.969214
 21
731.147696
  0
LINE
  5
FE
100
AcDbEntity
  8
M0
100
AcDbLine
 10
635.469205
 20
671.647708
 11
635.469205
 21
724.147696
  0
ARC
  5
FF
100
AcDbEntity
  8
M0
100
AcDbCircle
 10
561.969214
 20
751.397696
 40
1.0
100
AcDbArc
 50
180.0
 51
270.0
  0
LINE
  5
100
100
AcDbEntity
  8
M0
100
AcDbLine
 10
635.469205
 20
769.147696
 11
635.469205
 21
833.147696
  0
LINE
  5
101
100
AcDbEntity
  8
M0
 62
     4
100
AcDbLine
 10
635.469205
 20
671.647696
 11
701.069205
 21
671.647696
  0
LINE
  5
102
100
AcDbEntity
  8
M0
  6
DASHDOT
 62
     4
100
AcDbLine
 10
629.469205
 20
746.647696
 11
743.132352
 21
746.647696
  0
LINE
  5
103
100
AcDbEntity
  8
M0
 62
     4
100
AcDbLine
 10
625.969205
 20
768.147696
 11
625.969205
 21
754.647696
  0
LINE
  5
104
100
AcDbEntity
  8
M0
 62
     4
100
AcDbLine
 10
626.969205
 20
769.147696
 11
635.469205
 21
769.147696
  0
LINE
  5
105
100
AcDbEntity
  8
M0
 62
     4
100
AcDbLine
 10
626.969205
 20
724.147696
 11
635.469205
 21
724.147696
  0
LINE
  5
106
100
AcDbEntity
  8
M0
 62
     4
100
AcDbLine
 10
628.969205
 20
752.647696
 11
644.86901
 21
752.647696
  0
LINE
  5
107
100
AcDbEntity
  8
M0
 62
     4
100
AcDbLine
 10
628.969205
 20
740.647696
 11
644.86901
 21
740.647696
  0
LINE
  5
108
100
AcDbEntity
  8
M0
 62
     4
100
AcDbLine
 10
644.86901
 20
752.647696
 11
644.86901
 21
748.647696
  0
LINE
  5
109
100
AcDbEntity
  8
M0
 62
     4
100
AcDbLine
 10
643.86901
 20
747.647696
 11
643.86901
 21
745.647696
  0
LINE
  5
10A
100
AcDbEntity
  8
M0
 62
     4
100
AcDbLine
 10
643.86901
 20
745.647696
 11
644.86901
 21
744.647696
  0
LINE
  5
10B
100
AcDbEntity
  8
M0
 62
     4
100
AcDbLine
 10
643.86901
 20
747.647696
 11
644.86901
 21
748.647696
  0
LINE
  5
10C
100
AcDbEntity
  8
M0
 62
     4
100
AcDbLine
 10
644.86901
 20
744.647696
 11
644.86901
 21
740.647696
  0
LINE
  5
10D
100
AcDbEntity
  8
M0
 62
     4
100
AcDbLine
 10
626.969205
 20
753.647696
 11
627.969205
 21
753.647696
  0
LINE
  5
10E
100
AcDbEntity
  8
M0
 62
     4
100
AcDbLine
 10
626.969205
 20
739.647696
 11
627.969205
 21
739.647696
  0
LINE
  5
10F
100
AcDbEntity
  8
M0
 62
     4
100
AcDbLine
 10
625.969205
 20
738.647696
 11
625.969205
 21
725.147696
  0
LINE
  5
110
100
AcDbEntity
  8
M0
 62
     4
100
AcDbLine
 10
635.469205
 20
724.147696
 11
635.469205
 21
671.647696
  0
ARC
  5
111
100
AcDbEntity
  8
M0
 62
     4
100
AcDbCircle
 10
626.969205
 20
768.147696
 40
1.0
100
AcDbArc
 50
90.0
 51
180.0
  0
ARC
  5
112
100
AcDbEntity
  8
M0
 62
     4
100
AcDbCircle
 10
626.969205
 20
725.147696
 40
1.0
100
AcDbArc
 50
180.0
 51
269.999126
  0
ARC
  5
113
100
AcDbEntity
  8
M0
 62
     4
100
AcDbCircle
 10
626.969205
 20
754.647696
 40
1.0
100
AcDbArc
 50
180.0
 51
269.999126
  0
ARC
  5
114
100
AcDbEntity
  8
M0
 62
     4
100
AcDbCircle
 10
628.969205
 20
753.647696
 40
1.0
100
AcDbArc
 50
180.0
 51
269.999126
  0
ARC
  5
115
100
AcDbEntity
  8
M0
 62
     4
100
AcDbCircle
 10
626.969205
 20
738.647696
 40
1.0
100
AcDbArc
 50
90.0
 51
180.0
  0
ARC
  5
116
100
AcDbEntity
  8
M0
 62
     4
100
AcDbCircle
 10
628.969205
 20
739.647696
 40
1.0
100
AcDbArc
 50
90.0
 51
180.0
  0
ARC
  5
117
100
AcDbEntity
  8
M0
 62
     4
100
AcDbCircle
 10
642.86901
 20
751.647696
 40
2.0
100
AcDbArc
 50
0.0
 51
30.001722
  0
ARC
  5
118
100
AcDbEntity
  8
M0
 62
     4
100
AcDbCircle
 10
642.86901
 20
741.647696
 40
2.0
100
AcDbArc
 50
329.9979
 51
360.0
  0
ARC
  5
119
100
AcDbEntity
  8
M0
 62
     4
100
AcDbCircle
 10
642.86901
 20
741.647696
 40
2.0
100
AcDbArc
 50
269.999563
 51
329.9979
  0
LINE
  5
11A
100
AcDbEntity
  8
M0
 62
     4
100
AcDbLine
 10
627.969205
 20
739.647696
 11
642.86901
 21
739.647696
  0
LINE
  5
11B
100
AcDbEntity
  8
M0
 62
     4
100
AcDbLine
 10
627.969205
 20
753.647696
 11
642.86901
 21
753.647696
  0
ARC
  5
11C
100
AcDbEntity
  8
M0
 62
     4
100
AcDbCircle
 10
642.86901
 20
751.647696
 40
2.0
100
AcDbArc
 50
30.001722
 51
90.0
  0
LINE
  5
11D
100
AcDbEntity
  8
M0
 62
     4
100
AcDbLine
 10
701.069205
 20
671.647696
 11
701.069205
 21
833.147299
  0
LINE
  5
11E
100
AcDbEntity
  8
M0
 62
     4
100
AcDbLine
 10
635.469205
 20
833.147299
 11
635.469205
 21
769.147696
  0
LINE
  5
11F
100
AcDbEntity
  8
M0
 62
     4
100
AcDbLine
 10
701.069205
 20
833.147543
 11
635.469205
 21
833.147543
  0
LINE
  5
120
100
AcDbEntity
  8
M0
100
AcDbLine
 10
595.469159
 20
820.647863
 11
595.469159
 21
774.147863
  0
LINE
  5
121
100
AcDbEntity
  8
M0
100
AcDbLine
 10
596.469159
 20
821.647863
 11
621.969159
 21
821.647863
  0
ARC
  5
122
100
AcDbEntity
  8
M0
100
AcDbCircle
 10
596.469159
 20
820.647863
 40
1.0
100
AcDbArc
 50
90.0
 51
180.0
  0
ARC
  5
123
100
AcDbEntity
  8
M0
100
AcDbCircle
 10
596.469159
 20
672.647863
 40
1.0
100
AcDbArc
 50
180.0
 51
269.986012
  0
LINE
  5
124
100
AcDbEntity
  8
M0
100
AcDbLine
 10
595.469159
 20
719.147863
 11
595.469159
 21
672.647863
  0
LINE
  5
125
100
AcDbEntity
  8
M0
100
AcDbLine
 10
615.469159
 20
751.647863
 11
615.469159
 21
741.647863
  0
LINE
  5
126
100
AcDbEntity
  8
M0
100
AcDbLine
 10
625.969159
 20
764.628088
 11
625.969159
 21
736.965246
  0
LINE
  5
127
100
AcDbEntity
  8
M0
100
AcDbLine
 10
617.469159
 20
739.647863
 11
625.969159
 21
739.647863
  0
LINE
  5
128
100
AcDbEntity
  8
M0
100
AcDbLine
 10
617.469159
 20
753.647863
 11
625.969159
 21
753.647863
  0
ARC
  5
129
100
AcDbEntity
  8
M0
100
AcDbCircle
 10
617.469159
 20
751.647863
 40
2.0
100
AcDbArc
 50
90.0
 51
180.0
  0
ARC
  5
12A
100
AcDbEntity
  8
M0
100
AcDbCircle
 10
617.469159
 20
741.647863
 40
2.0
100
AcDbArc
 50
180.0
 51
269.993006
  0
LINE
  5
12B
100
AcDbEntity
  8
M0
100
AcDbLine
 10
601.269254
 20
848.147741
 11
601.269254
 21
821.647741
  0
LINE
  5
12C
100
AcDbEntity
  8
M0
100
AcDbLine
 10
606.069257
 20
848.147741
 11
606.069257
 21
821.647741
  0
LINE
  5
12D
100
AcDbEntity
  8
M0
100
AcDbLine
 10
601.269254
 20
848.147741
 11
606.069257
 21
848.147741
  0
LINE
  5
12E
100
AcDbEntity
  8
M0
100
AcDbLine
 10
601.269254
 20
848.147741
 11
606.069257
 21
848.147741
  0
LINE
  5
12F
100
AcDbEntity
  8
M0
100
AcDbLine
 10
601.269254
 20
645.147848
 11
606.069257
 21
645.147848
  0
LINE
  5
130
100
AcDbEntity
  8
M0
100
AcDbLine
 10
601.269254
 20
645.147848
 11
606.069257
 21
645.147848
  0
LINE
  5
131
100
AcDbEntity
  8
M0
100
AcDbLine
 10
601.269254
 20
645.147848
 11
601.269254
 21
671.647741
  0
LINE
  5
132
100
AcDbEntity
  8
M0
100
AcDbLine
 10
606.069257
 20
645.147848
 11
606.069257
 21
671.647741
  0
LINE
  5
133
100
AcDbEntity
  8
M0
 62
     6
100
AcDbLine
 10
576.069066
 20
829.647696
 11
576.069066
 21
839.647467
  0
LINE
  5
134
100
AcDbEntity
  8
M0
 62
     6
100
AcDbLine
 10
576.069066
 20
839.647467
 11
589.169065
 21
839.647467
  0
LINE
  5
135
100
AcDbEntity
  8
M0
 62
     6
100
AcDbLine
 10
613.069059
 20
829.647696
 11
606.069059
 21
829.647696
  0
LINE
  5
136
100
AcDbEntity
  8
M0
  6
DASHDOT
 62
     6
100
AcDbLine
 10
616.067594
 20
834.647696
 11
573.128591
 21
834.647696
  0
LINE
  5
137
100
AcDbEntity
  8
M0
 62
     6
100
AcDbLine
 10
606.069059
 20
824.83869
 11
606.069059
 21
844.456549
  0
LINE
  5
138
100
AcDbEntity
  8
M0
 62
     6
100
AcDbLine
 10
606.069059
 20
844.456549
 11
613.069059
 21
844.456549
  0
LINE
  5
139
100
AcDbEntity
  8
M0
 62
     6
100
AcDbLine
 10
613.069059
 20
844.456549
 11
613.069059
 21
824.83869
  0
LINE
  5
13A
100
AcDbEntity
  8
M0
 62
     6
100
AcDbLine
 10
613.069059
 20
824.83869
 11
606.069059
 21
824.83869
  0
LINE
  5
13B
100
AcDbEntity
  8
M0
 62
     6
100
AcDbLine
 10
606.069059
 20
839.647467
 11
613.069059
 21
839.647467
  0
LINE
  5
13C
100
AcDbEntity
  8
M0
 62
     6
100
AcDbLine
 10
589.169065
 20
829.647696
 11
576.069066
 21
829.647696
  0
LINE
  5
13D
100
AcDbEntity
  8
M0
 62
     6
100
AcDbLine
 10
606.069059
 20
668.456717
 11
606.069059
 21
648.838858
  0
LINE
  5
13E
100
AcDbEntity
  8
M0
 62
     6
100
AcDbLine
 10
606.069059
 20
648.838858
 11
613.069059
 21
648.838858
  0
LINE
  5
13F
100
AcDbEntity
  8
M0
 62
     6
100
AcDbLine
 10
613.069059
 20
648.838858
 11
613.069059
 21
668.456717
  0
LINE
  5
140
100
AcDbEntity
  8
M0
 62
     6
100
AcDbLine
 10
613.069059
 20
668.456717
 11
606.069059
 21
668.456717
  0
LINE
  5
141
100
AcDbEntity
  8
M0
 62
     6
100
AcDbLine
 10
576.069066
 20
663.647711
 11
576.069066
 21
653.64794
  0
LINE
  5
142
100
AcDbEntity
  8
M0
  6
DASHDOT
 62
     6
100
AcDbLine
 10
616.067594
 20
658.647711
 11
573.128591
 21
658.647711
  0
LINE
  5
143
100
AcDbEntity
  8
M0
 62
     6
100
AcDbLine
 10
576.069066
 20
653.64794
 11
589.169065
 21
653.64794
  0
LINE
  5
144
100
AcDbEntity
  8
M0
 62
     6
100
AcDbLine
 10
606.069059
 20
653.64794
 11
613.069059
 21
653.64794
  0
LINE
  5
145
100
AcDbEntity
  8
M0
 62
     6
100
AcDbLine
 10
613.069059
 20
663.647711
 11
606.069059
 21
663.647711
  0
LINE
  5
146
100
AcDbEntity
  8
M0
 62
     6
100
AcDbLine
 10
589.169065
 20
663.647711
 11
576.069066
 21
663.647711
  0
LINE
  5
147
100
AcDbEntity
  8
M0
 62
     4
100
AcDbLine
 10
597.169141
 20
844.44776
 11
589.169126
 21
844.44776
  0
LINE
  5
148
100
AcDbEntity
  8
M0
 62
     4
100
AcDbLine
 10
589.169156
 20
844.447714
 11
589.169156
 21
824.847738
  0
LINE
  5
149
100
AcDbEntity
  8
M0
 62
     4
100
AcDbLine
 10
589.169141
 20
824.847754
 11
597.169141
 21
824.847754
  0
LINE
  5
14A
100
AcDbEntity
  8
M0
 62
     4
100
AcDbLine
 10
597.169156
 20
824.847769
 11
597.169156
 21
844.447775
  0
LINE
  5
14B
100
AcDbEntity
  8
M0
  6
DASHDOT
 62
     4
100
AcDbLine
 10
604.169141
 20
834.647711
 11
582.169126
 21
834.647711
  0
LINE
  5
14C
100
AcDbEntity
  8
M0
 62
     4
100
AcDbLine
 10
597.169141
 20
829.747748
 11
589.169141
 21
829.747748
  0
LINE
  5
14D
100
AcDbEntity
  8
M0
 62
     4
100
AcDbLine
 10
597.169141
 20
839.547735
 11
589.169126
 21
839.547735
  0
LINE
  5
14E
100
AcDbEntity
  8
M0
 62
     4
100
AcDbLine
 10
597.169141
 20
648.847677
 11
589.169126
 21
648.847677
  0
LINE
  5
14F
100
AcDbEntity
  8
M0
 62
     4
100
AcDbLine
 10
589.169156
 20
648.847723
 11
589.169156
 21
668.447699
  0
LINE
  5
150
100
AcDbEntity
  8
M0
 62
     4
100
AcDbLine
 10
589.169141
 20
668.447683
 11
597.169141
 21
668.447683
  0
LINE
  5
151
100
AcDbEntity
  8
M0
 62
     4
100
AcDbLine
 10
597.169156
 20
668.447668
 11
597.169156
 21
648.847662
  0
LINE
  5
152
100
AcDbEntity
  8
M0
  6
DASHDOT
 62
     4
100
AcDbLine
 10
604.169141
 20
658.647726
 11
582.169126
 21
658.647726
  0
LINE
  5
153
100
AcDbEntity
  8
M0
 62
     4
100
AcDbLine
 10
597.169141
 20
663.54769
 11
589.169141
 21
663.54769
  0
LINE
  5
154
100
AcDbEntity
  8
M0
 62
     4
100
AcDbLine
 10
597.169141
 20
653.747702
 11
589.169126
 21
653.747702
  0
LINE
  5
155
100
AcDbEntity
  8
M0
 62
     7
100
AcDbLine
 10
599.669263
 20
823.647696
 11
601.269254
 21
823.647696
  0
LINE
  5
156
100
AcDbEntity
  8
M0
 62
     7
100
AcDbLine
 10
601.269254
 20
823.647696
 11
601.269254
 21
845.647696
  0
LINE
  5
157
100
AcDbEntity
  8
M0
 62
     7
100
AcDbLine
 10
601.269254
 20
845.647696
 11
599.669263
 21
845.647696
  0
LINE
  5
158
100
AcDbEntity
  8
M0
 62
     7
100
AcDbLine
 10
599.669263
 20
845.647696
 11
599.669263
 21
823.647696
  0
LINE
  5
159
100
AcDbEntity
  8
M0
  6
DASHDOT
 62
     7
100
AcDbLine
 10
596.669248
 20
834.64768
 11
604.269254
 21
834.647696
  0
LINE
  5
15A
100
AcDbEntity
  8
M0
 62
     7
100
AcDbLine
 10
601.269254
 20
669.64768
 11
601.269254
 21
647.64768
  0
LINE
  5
15B
100
AcDbEntity
  8
M0
 62
     7
100
AcDbLine
 10
601.269254
 20
647.64768
 11
599.669263
 21
647.64768
  0
LINE
  5
15C
100
AcDbEntity
  8
M0
 62
     7
100
AcDbLine
 10
599.669263
 20
647.64768
 11
599.669263
 21
669.64768
  0
LINE
  5
15D
100
AcDbEntity
  8
M0
  6
DASHDOT
 62
     7
100
AcDbLine
 10
596.669248
 20
658.647696
 11
604.269254
 21
658.64768
  0
LINE
  5
15E
100
AcDbEntity
  8
M0
 62
     4
100
AcDbLine
 10
597.169156
 20
825.447699
 11
599.669156
 21
825.447699
  0
LINE
  5
15F
100
AcDbEntity
  8
M0
 62
     4
100
AcDbLine
 10
599.669156
 20
825.447699
 11
599.669156
 21
843.847693
  0
LINE
  5
160
100
AcDbEntity
  8
M0
 62
     4
100
AcDbLine
 10
599.669156
 20
843.847693
 11
597.169156
 21
843.847693
  0
LINE
  5
161
100
AcDbEntity
  8
M0
 62
     4
100
AcDbLine
 10
597.169156
 20
843.847693
 11
597.169156
 21
825.447699
  0
LINE
  5
162
100
AcDbEntity
  8
M0
  6
DASHDOT
 62
     4
100
AcDbLine
 10
578.169156
 20
834.647696
 11
604.669156
 21
834.647696
  0
LINE
  5
163
100
AcDbEntity
  8
M0
 62
     4
100
AcDbLine
 10
597.169156
 20
834.647711
 11
599.669156
 21
833.204336
  0
LINE
  5
164
100
AcDbEntity
  8
M0
 62
     4
100
AcDbLine
 10
597.169156
 20
836.09107
 11
599.669156
 21
834.647696
  0
LINE
  5
165
100
AcDbEntity
  8
M0
 62
     4
100
AcDbLine
 10
597.169156
 20
667.847708
 11
599.669156
 21
667.847708
  0
LINE
  5
166
100
AcDbEntity
  8
M0
 62
     4
100
AcDbLine
 10
599.669156
 20
667.847708
 11
599.669156
 21
649.447714
  0
LINE
  5
167
100
AcDbEntity
  8
M0
 62
     4
100
AcDbLine
 10
599.669156
 20
649.447714
 11
597.169156
 21
649.447714
  0
LINE
  5
168
100
AcDbEntity
  8
M0
 62
     4
100
AcDbLine
 10
597.169156
 20
649.447714
 11
597.169156
 21
667.847708
  0
LINE
  5
169
100
AcDbEntity
  8
M0
 62
     4
100
AcDbLine
 10
597.169156
 20
658.647696
 11
599.669156
 21
660.09107
  0
LINE
  5
16A
100
AcDbEntity
  8
M0
 62
     4
100
AcDbLine
 10
597.169156
 20
657.204336
 11
599.669156
 21
658.647711
  0
LINE
  5
16B
100
AcDbEntity
  8
M0
  6
DASHDOT
 62
     4
100
AcDbLine
 10
578.169156
 20
658.647711
 11
604.669156
 21
658.647711
  0
LINE
  5
16C
100
AcDbEntity
  8
M0
  6
DASHDOT
 62
     2
100
AcDbLine
 10
296.378763
 20
597.646881
 11
296.378763
 21
917.646883
  0
LINE
  5
16D
100
AcDbEntity
  8
M0
 62
     2
100
AcDbLine
 10
461.378763
 20
897.646882
 11
456.378763
 21
902.646882
  0
LINE
  5
16E
100
AcDbEntity
  8
M0
 62
     2
100
AcDbLine
 10
456.378763
 20
902.646882
 11
136.378763
 21
902.646882
  0
LINE
  5
16F
100
AcDbEntity
  8
M0
 62
     2
100
AcDbLine
 10
136.378763
 20
902.646882
 11
131.378763
 21
897.646882
  0
LINE
  5
170
100
AcDbEntity
  8
M0
 62
     2
100
AcDbLine
 10
131.378763
 20
897.646882
 11
131.378763
 21
617.646882
  0
LINE
  5
171
100
AcDbEntity
  8
M0
 62
     2
100
AcDbLine
 10
131.378763
 20
617.646882
 11
136.378763
 21
612.646882
  0
LINE
  5
172
100
AcDbEntity
  8
M0
 62
     2
100
AcDbLine
 10
136.378763
 20
612.646882
 11
456.378763
 21
612.646882
  0
LINE
  5
173
100
AcDbEntity
  8
M0
 62
     2
100
AcDbLine
 10
461.378763
 20
617.646882
 11
461.378763
 21
897.646882
  0
LINE
  5
174
100
AcDbEntity
  8
M0
 62
     2
100
AcDbLine
 10
456.378763
 20
612.646882
 11
461.378763
 21
617.646882
  0
CIRCLE
  5
175
100
AcDbEntity
  8
M0
 62
     2
100
AcDbCircle
 10
146.378763
 20
887.646882
 40
4.5
  0
LINE
  5
176
100
AcDbEntity
  8
M0
  6
DASHDOT
 62
     2
100
AcDbLine
 10
135.878762
 20
887.646882
 11
156.878763
 21
887.646882
  0
LINE
  5
177
100
AcDbEntity
  8
M0
  6
DASHDOT
 62
     2
100
AcDbLine
 10
146.378763
 20
877.146882
 11
146.378763
 21
898.146883
  0
CIRCLE
  5
178
100
AcDbEntity
  8
M0
 62
     2
100
AcDbCircle
 10
446.378763
 20
887.646882
 40
4.5
  0
LINE
  5
179
100
AcDbEntity
  8
M0
  6
DASHDOT
 62
     2
100
AcDbLine
 10
456.878763
 20
887.646882
 11
435.878762
 21
887.646882
  0
LINE
  5
17A
100
AcDbEntity
  8
M0
  6
DASHDOT
 62
     2
100
AcDbLine
 10
446.378763
 20
877.146882
 11
446.378763
 21
898.146883
  0
CIRCLE
  5
17B
100
AcDbEntity
  8
M0
 62
     2
100
AcDbCircle
 10
296.378763
 20
627.646882
 40
4.5
  0
LINE
  5
17C
100
AcDbEntity
  8
M0
  6
DASHDOT
 62
     2
100
AcDbLine
 10
285.878762
 20
627.646882
 11
306.878763
 21
627.646882
  0
LINE
  5
17D
100
AcDbEntity
  8
M0
 62
     2
100
AcDbLine
 10
311.378763
 20
612.646882
 11
311.378763
 21
627.646882
  0
LINE
  5
17E
100
AcDbEntity
  8
M0
 62
     2
100
AcDbLine
 10
281.378763
 20
612.646882
 11
281.378763
 21
627.646882
  0
ARC
  5
17F
100
AcDbEntity
  8
M0
 62
     2
100
AcDbCircle
 10
296.378763
 20
627.646882
 40
15.0
100
AcDbArc
 50
0.0
 51
180.0
  0
LINE
  5
180
100
AcDbEntity
  8
M0
 62
     2
100
AcDbLine
 10
461.378763
 20
642.646882
 11
451.378763
 21
642.646882
  0
LINE
  5
181
100
AcDbEntity
  8
M0
 62
     2
100
AcDbLine
 10
441.378763
 20
612.646882
 11
441.378763
 21
632.646882
  0
ARC
  5
182
100
AcDbEntity
  8
M0
 62
     2
100
AcDbCircle
 10
451.378763
 20
632.646882
 40
10.0
100
AcDbArc
 50
90.0
 51
180.0
  0
LINE
  5
183
100
AcDbEntity
  8
M0
 62
     2
100
AcDbLine
 10
131.378763
 20
642.646882
 11
141.378763
 21
642.646882
  0
ARC
  5
184
100
AcDbEntity
  8
M0
 62
     2
100
AcDbCircle
 10
141.378763
 20
632.646882
 40
10.0
100
AcDbArc
 50
0.0
 51
90.0
  0
LINE
  5
185
100
AcDbEntity
  8
M0
 62
     2
100
AcDbLine
 10
151.378763
 20
612.646882
 11
151.378763
 21
632.646882
  0
LINE
  5
186
100
AcDbEntity
  8
M0
 62
     2
100
AcDbLine
 10
461.378763
 20
874.646882
 11
131.378763
 21
874.646882
  0
LINE
  5
187
100
AcDbEntity
  8
M0
100
AcDbLine
 10
148.878793
 20
671.64702
 11
157.753793
 21
671.64702
  0
LINE
  5
188
100
AcDbEntity
  8
M0
100
AcDbLine
 10
286.878793
 20
649.64702
 11
286.878793
 21
855.146669
  0
LINE
  5
189
100
AcDbEntity
  8
M0
100
AcDbLine
 10
256.975458
 20
821.646745
 11
244.878793
 21
821.646623
  0
LINE
  5
18A
100
AcDbEntity
  8
M0
  6
DASHDOT
100
AcDbLine
 10
143.878793
 20
746.646867
 11
291.878793
 21
746.646867
  0
LINE
  5
18B
100
AcDbEntity
  8
M0
  6
DASHDOT
100
AcDbLine
 10
217.878793
 20
635.095407
 11
217.878793
 21
885.688102
  0
LINE
  5
18C
100
AcDbEntity
  8
M0
100
AcDbLine
 10
203.894418
 20
671.64702
 11
205.378793
 21
671.64702
  0
LINE
  5
18D
100
AcDbEntity
  8
M0
100
AcDbLine
 10
244.878793
 20
671.64702
 11
256.975565
 21
671.64702
  0
LINE
  5
18E
100
AcDbEntity
  8
M0
100
AcDbLine
 10
231.862924
 20
821.646623
 11
230.378793
 21
821.646608
  0
LINE
  5
18F
100
AcDbEntity
  8
M0
100
AcDbLine
 10
190.878793
 20
821.646379
 11
178.782419
 21
821.646379
  0
LINE
  5
190
100
AcDbEntity
  8
M0
100
AcDbLine
 10
160.878793
 20
722.096818
 11
160.878793
 21
740.146867
  0
LINE
  5
191
100
AcDbEntity
  8
M0
100
AcDbLine
 10
152.878793
 20
719.646623
 11
152.878793
 21
740.146867
  0
LINE
  5
192
100
AcDbEntity
  8
M0
100
AcDbLine
 10
282.878793
 20
719.646867
 11
282.878793
 21
740.146379
  0
LINE
  5
193
100
AcDbEntity
  8
M0
100
AcDbLine
 10
274.878793
 20
722.096574
 11
274.878793
 21
740.146379
  0
LINE
  5
194
100
AcDbEntity
  8
M0
100
AcDbLine
 10
149.378793
 20
774.146867
 11
152.378793
 21
774.146867
  0
LINE
  5
195
100
AcDbEntity
  8
M0
100
AcDbLine
 10
149.378793
 20
719.146867
 11
152.378793
 21
719.146867
  0
LINE
  5
196
100
AcDbEntity
  8
M0
100
AcDbLine
 10
283.378793
 20
774.146867
 11
286.378793
 21
774.146867
  0
LINE
  5
197
100
AcDbEntity
  8
M0
100
AcDbLine
 10
283.378793
 20
719.146867
 11
286.378793
 21
719.146867
  0
LINE
  5
198
100
AcDbEntity
  8
M0
100
AcDbLine
 10
152.878793
 20
771.696672
 11
162.878793
 21
771.696672
  0
LINE
  5
199
100
AcDbEntity
  8
M0
100
AcDbLine
 10
152.878793
 20
721.596818
 11
162.878793
 21
721.596818
  0
LINE
  5
19A
100
AcDbEntity
  8
M0
100
AcDbLine
 10
272.878793
 20
771.696672
 11
282.878793
 21
771.696672
  0
LINE
  5
19B
100
AcDbEntity
  8
M0
100
AcDbLine
 10
272.878793
 20
721.596818
 11
282.878793
 21
721.596818
  0
LINE
  5
19C
100
AcDbEntity
  8
M0
100
AcDbLine
 10
149.378793
 20
764.146867
 11
152.378793
 21
764.146867
  0
LINE
  5
19D
100
AcDbEntity
  8
M0
100
AcDbLine
 10
149.378793
 20
729.146867
 11
152.378793
 21
729.146867
  0
LINE
  5
19E
100
AcDbEntity
  8
M0
100
AcDbLine
 10
283.378793
 20
764.146867
 11
286.378793
 21
764.146867
  0
LINE
  5
19F
100
AcDbEntity
  8
M0
100
AcDbLine
 10
283.378793
 20
729.146867
 11
286.378793
 21
729.146867
  0
LINE
  5
1A0
100
AcDbEntity
  8
M0
100
AcDbLine
 10
149.378793
 20
750.396867
 11
155.878793
 21
750.396867
  0
LINE
  5
1A1
100
AcDbEntity
  8
M0
100
AcDbLine
 10
149.378793
 20
742.896867
 11
155.878793
 21
742.896867
  0
LINE
  5
1A2
100
AcDbEntity
  8
M0
100
AcDbLine
 10
286.378793
 20
750.396867
 11
279.878793
 21
750.396867
  0
LINE
  5
1A3
100
AcDbEntity
  8
M0
100
AcDbLine
 10
286.378793
 20
742.896867
 11
279.878793
 21
742.896867
  0
LINE
  5
1A4
100
AcDbEntity
  8
M0
100
AcDbLine
 10
152.878793
 20
753.146867
 11
152.878793
 21
773.646867
  0
LINE
  5
1A5
100
AcDbEntity
  8
M0
100
AcDbLine
 10
282.878793
 20
753.146135
 11
282.878793
 21
773.646867
  0
LINE
  5
1A6
100
AcDbEntity
  8
M0
100
AcDbLine
 10
156.878793
 20
749.396867
 11
156.878793
 21
743.896867
  0
LINE
  5
1A7
100
AcDbEntity
  8
M0
100
AcDbLine
 10
278.878793
 20
749.396623
 11
278.878793
 21
743.896623
  0
LINE
  5
1A8
100
AcDbEntity
  8
M0
100
AcDbLine
 10
161.378793
 20
763.146867
 11
162.878793
 21
763.146867
  0
LINE
  5
1A9
100
AcDbEntity
  8
M0
100
AcDbLine
 10
161.378793
 20
730.146867
 11
162.878793
 21
730.146867
  0
LINE
  5
1AA
100
AcDbEntity
  8
M0
100
AcDbLine
 10
274.378793
 20
763.146867
 11
272.878793
 21
763.146867
  0
LINE
  5
1AB
100
AcDbEntity
  8
M0
100
AcDbLine
 10
274.378793
 20
730.146867
 11
272.878793
 21
730.146867
  0
LINE
  5
1AC
100
AcDbEntity
  8
M0
100
AcDbLine
 10
148.878793
 20
781.646867
 11
151.378793
 21
781.646867
  0
LINE
  5
1AD
100
AcDbEntity
  8
M0
100
AcDbLine
 10
148.878793
 20
711.646867
 11
151.378793
 21
711.646867
  0
LINE
  5
1AE
100
AcDbEntity
  8
M0
100
AcDbLine
 10
151.378793
 20
719.146867
 11
151.378793
 21
711.646867
  0
LINE
  5
1AF
100
AcDbEntity
  8
M0
100
AcDbLine
 10
151.378793
 20
781.646867
 11
151.378793
 21
774.146867
  0
LINE
  5
1B0
100
AcDbEntity
  8
M0
100
AcDbLine
 10
284.378793
 20
781.646867
 11
284.378793
 21
774.146867
  0
LINE
  5
1B1
100
AcDbEntity
  8
M0
100
AcDbLine
 10
284.378793
 20
711.646867
 11
284.378793
 21
719.146867
  0
LINE
  5
1B2
100
AcDbEntity
  8
M0
100
AcDbLine
 10
284.378793
 20
711.646867
 11
286.878793
 21
711.646867
  0
LINE
  5
1B3
100
AcDbEntity
  8
M0
100
AcDbLine
 10
284.378793
 20
781.646867
 11
286.878793
 21
781.646867
  0
LINE
  5
1B4
100
AcDbEntity
  8
M0
100
AcDbLine
 10
152.878793
 20
722.646867
 11
153.728784
 21
722.646867
  0
LINE
  5
1B5
100
AcDbEntity
  8
M0
100
AcDbLine
 10
152.878793
 20
770.646867
 11
153.728784
 21
770.646867
  0
LINE
  5
1B6
100
AcDbEntity
  8
M0
100
AcDbLine
 10
274.878793
 20
770.646867
 11
275.728784
 21
770.646867
  0
LINE
  5
1B7
100
AcDbEntity
  8
M0
100
AcDbLine
 10
274.878793
 20
722.646867
 11
282.878793
 21
722.646867
  0
LINE
  5
1B8
100
AcDbEntity
  8
M0
100
AcDbLine
 10
152.878793
 20
761.146867
 11
153.728784
 21
761.146867
  0
LINE
  5
1B9
100
AcDbEntity
  8
M0
100
AcDbLine
 10
152.878793
 20
732.146867
 11
153.728784
 21
732.146867
  0
LINE
  5
1BA
100
AcDbEntity
  8
M0
100
AcDbLine
 10
274.878793
 20
761.146867
 11
275.728784
 21
761.146867
  0
LINE
  5
1BB
100
AcDbEntity
  8
M0
100
AcDbLine
 10
274.878793
 20
732.146867
 11
282.878793
 21
732.146867
  0
LINE
  5
1BC
100
AcDbEntity
  8
M0
100
AcDbLine
 10
275.678598
 20
761.646867
 11
275.728784
 21
761.646867
  0
LINE
  5
1BD
100
AcDbEntity
  8
M0
100
AcDbLine
 10
275.678598
 20
731.646867
 11
282.078744
 21
731.646867
  0
LINE
  5
1BE
100
AcDbEntity
  8
M0
100
AcDbLine
 10
153.678598
 20
761.646867
 11
153.728784
 21
761.646867
  0
LINE
  5
1BF
100
AcDbEntity
  8
M0
100
AcDbLine
 10
153.678598
 20
731.646867
 11
153.728784
 21
731.646867
  0
LINE
  5
1C0
100
AcDbEntity
  8
M0
100
AcDbLine
 10
160.078744
 20
731.146867
 11
160.078744
 21
732.146867
  0
LINE
  5
1C1
100
AcDbEntity
  8
M0
100
AcDbLine
 10
153.678598
 20
731.146623
 11
153.678598
 21
732.146867
  0
LINE
  5
1C2
100
AcDbEntity
  8
M0
100
AcDbLine
 10
160.694681
 20
730.646867
 11
160.878793
 21
730.646867
  0
LINE
  5
1C3
100
AcDbEntity
  8
M0
100
AcDbLine
 10
152.878793
 20
730.646867
 11
153.062906
 21
730.646867
  0
LINE
  5
1C4
100
AcDbEntity
  8
M0
100
AcDbLine
 10
160.694681
 20
762.646867
 11
160.878793
 21
762.646867
  0
LINE
  5
1C5
100
AcDbEntity
  8
M0
100
AcDbLine
 10
152.878793
 20
762.646867
 11
153.062906
 21
762.646867
  0
LINE
  5
1C6
100
AcDbEntity
  8
M0
100
AcDbLine
 10
153.678598
 20
761.146867
 11
153.678598
 21
762.146623
  0
LINE
  5
1C7
100
AcDbEntity
  8
M0
100
AcDbLine
 10
160.078744
 20
761.146867
 11
160.078744
 21
762.146867
  0
LINE
  5
1C8
100
AcDbEntity
  8
M0
100
AcDbLine
 10
275.178842
 20
730.646623
 11
274.878793
 21
730.646623
  0
LINE
  5
1C9
100
AcDbEntity
  8
M0
100
AcDbLine
 10
275.678842
 20
731.146135
 11
275.678842
 21
732.146623
  0
LINE
  5
1CA
100
AcDbEntity
  8
M0
100
AcDbLine
 10
282.878793
 20
730.646623
 11
282.578989
 21
730.646623
  0
LINE
  5
1CB
100
AcDbEntity
  8
M0
100
AcDbLine
 10
282.078989
 20
731.146379
 11
282.078989
 21
732.146623
  0
LINE
  5
1CC
100
AcDbEntity
  8
M0
100
AcDbLine
 10
282.878793
 20
762.646623
 11
282.694528
 21
762.646623
  0
LINE
  5
1CD
100
AcDbEntity
  8
M0
100
AcDbLine
 10
275.063043
 20
762.646623
 11
274.878793
 21
762.646623
  0
LINE
  5
1CE
100
AcDbEntity
  8
M0
100
AcDbLine
 10
275.678842
 20
761.146623
 11
275.678842
 21
762.146135
  0
LINE
  5
1CF
100
AcDbEntity
  8
M0
100
AcDbLine
 10
152.878793
 20
754.646867
 11
152.928781
 21
754.646867
  0
LINE
  5
1D0
100
AcDbEntity
  8
M0
100
AcDbLine
 10
160.82879
 20
754.646867
 11
160.878793
 21
754.646867
  0
LINE
  5
1D1
100
AcDbEntity
  8
M0
100
AcDbLine
 10
160.82879
 20
738.646867
 11
160.878793
 21
738.646867
  0
LINE
  5
1D2
100
AcDbEntity
  8
M0
100
AcDbLine
 10
152.878793
 20
738.646867
 11
152.928781
 21
738.646867
  0
LINE
  5
1D3
100
AcDbEntity
  8
M0
100
AcDbLine
 10
153.878793
 20
752.146867
 11
159.878793
 21
752.146867
  0
LINE
  5
1D4
100
AcDbEntity
  8
M0
100
AcDbLine
 10
153.878793
 20
741.146867
 11
159.878793
 21
741.146867
  0
LINE
  5
1D5
100
AcDbEntity
  8
M0
100
AcDbLine
 10
160.878793
 20
753.146623
 11
160.878793
 21
771.196672
  0
LINE
  5
1D6
100
AcDbEntity
  8
M0
100
AcDbLine
 10
152.878793
 20
764.146867
 11
152.928781
 21
764.146867
  0
LINE
  5
1D7
100
AcDbEntity
  8
M0
100
AcDbLine
 10
152.928781
 20
729.146867
 11
152.878793
 21
729.146867
  0
LINE
  5
1D8
100
AcDbEntity
  8
M0
100
AcDbLine
 10
160.82879
 20
729.146867
 11
160.878793
 21
729.146867
  0
LINE
  5
1D9
100
AcDbEntity
  8
M0
100
AcDbLine
 10
152.928781
 20
727.796586
 11
152.878793
 21
727.646623
  0
LINE
  5
1DA
100
AcDbEntity
  8
M0
100
AcDbLine
 10
160.82879
 20
727.796876
 11
160.878793
 21
727.646867
  0
LINE
  5
1DB
100
AcDbEntity
  8
M0
100
AcDbLine
 10
160.82879
 20
737.296876
 11
160.878793
 21
737.146867
  0
LINE
  5
1DC
100
AcDbEntity
  8
M0
100
AcDbLine
 10
152.928781
 20
737.296831
 11
152.878793
 21
737.146867
  0
LINE
  5
1DD
100
AcDbEntity
  8
M0
100
AcDbLine
 10
152.928781
 20
755.996904
 11
152.878793
 21
756.146867
  0
LINE
  5
1DE
100
AcDbEntity
  8
M0
100
AcDbLine
 10
160.82879
 20
755.996858
 11
160.878793
 21
756.146867
  0
LINE
  5
1DF
100
AcDbEntity
  8
M0
100
AcDbLine
 10
152.928781
 20
765.496904
 11
152.878793
 21
765.646867
  0
LINE
  5
1E0
100
AcDbEntity
  8
M0
100
AcDbLine
 10
282.378793
 20
738.646623
 11
282.878793
 21
737.146623
  0
LINE
  5
1E1
100
AcDbEntity
  8
M0
100
AcDbLine
 10
282.878793
 20
738.646623
 11
282.378793
 21
738.646623
  0
LINE
  5
1E2
100
AcDbEntity
  8
M0
100
AcDbLine
 10
282.378793
 20
738.646623
 11
282.378793
 21
740.146135
  0
LINE
  5
1E3
100
AcDbEntity
  8
M0
100
AcDbLine
 10
275.378793
 20
738.646623
 11
275.378793
 21
740.146379
  0
LINE
  5
1E4
100
AcDbEntity
  8
M0
100
AcDbLine
 10
275.378793
 20
738.646623
 11
274.878793
 21
738.646623
  0
LINE
  5
1E5
100
AcDbEntity
  8
M0
100
AcDbLine
 10
275.378793
 20
738.646623
 11
274.878793
 21
737.146623
  0
LINE
  5
1E6
100
AcDbEntity
  8
M0
100
AcDbLine
 10
275.378793
 20
729.146623
 11
275.378793
 21
730.687883
  0
LINE
  5
1E7
100
AcDbEntity
  8
M0
100
AcDbLine
 10
275.378793
 20
729.146623
 11
274.878793
 21
729.146623
  0
LINE
  5
1E8
100
AcDbEntity
  8
M0
100
AcDbLine
 10
275.378793
 20
729.146623
 11
274.878793
 21
727.646623
  0
LINE
  5
1E9
100
AcDbEntity
  8
M0
100
AcDbLine
 10
282.378793
 20
729.146379
 11
282.878793
 21
727.646379
  0
LINE
  5
1EA
100
AcDbEntity
  8
M0
100
AcDbLine
 10
282.378793
 20
729.146623
 11
282.878793
 21
729.146623
  0
LINE
  5
1EB
100
AcDbEntity
  8
M0
100
AcDbLine
 10
282.378793
 20
729.146379
 11
282.378793
 21
730.688127
  0
LINE
  5
1EC
100
AcDbEntity
  8
M0
100
AcDbLine
 10
282.82879
 20
755.996614
 11
282.878793
 21
756.146623
  0
LINE
  5
1ED
100
AcDbEntity
  8
M0
100
AcDbLine
 10
282.878793
 20
754.646623
 11
282.82879
 21
754.646623
  0
LINE
  5
1EE
100
AcDbEntity
  8
M0
100
AcDbLine
 10
274.928781
 20
755.99666
 11
274.878793
 21
756.146623
  0
LINE
  5
1EF
100
AcDbEntity
  8
M0
100
AcDbLine
 10
274.928781
 20
754.646623
 11
274.878793
 21
754.646623
  0
LINE
  5
1F0
100
AcDbEntity
  8
M0
100
AcDbLine
 10
274.928781
 20
765.49666
 11
274.878793
 21
765.646623
  0
LINE
  5
1F1
100
AcDbEntity
  8
M0
100
AcDbLine
 10
274.928781
 20
764.146623
 11
274.878793
 21
764.146623
  0
LINE
  5
1F2
100
AcDbEntity
  8
M0
100
AcDbLine
 10
282.878793
 20
764.146623
 11
282.82879
 21
764.146623
  0
LINE
  5
1F3
100
AcDbEntity
  8
M0
100
AcDbLine
 10
282.82879
 20
765.496614
 11
282.878793
 21
765.646623
  0
LINE
  5
1F4
100
AcDbEntity
  8
M0
100
AcDbLine
 10
281.878793
 20
741.146623
 11
275.878793
 21
741.146623
  0
LINE
  5
1F5
100
AcDbEntity
  8
M0
100
AcDbLine
 10
281.878793
 20
752.146623
 11
275.878793
 21
752.146623
  0
LINE
  5
1F6
100
AcDbEntity
  8
M0
100
AcDbLine
 10
274.878793
 20
753.146379
 11
274.878793
 21
771.196672
  0
ARC
  5
1F7
100
AcDbEntity
  8
M0
100
AcDbCircle
 10
283.378793
 20
773.646867
 40
0.5
100
AcDbArc
 50
89.998251
 51
179.998251
  0
ARC
  5
1F8
100
AcDbEntity
  8
M0
100
AcDbCircle
 10
283.378793
 20
719.646867
 40
0.5
100
AcDbArc
 50
179.998251
 51
270.0
  0
ARC
  5
1F9
100
AcDbEntity
  8
M0
100
AcDbCircle
 10
286.378793
 20
773.646867
 40
0.5
100
AcDbArc
 50
0.0
 51
89.998251
  0
ARC
  5
1FA
100
AcDbEntity
  8
M0
100
AcDbCircle
 10
286.378793
 20
763.646867
 40
0.5
100
AcDbArc
 50
0.0
 51
89.998251
  0
ARC
  5
1FB
100
AcDbEntity
  8
M0
100
AcDbCircle
 10
274.378793
 20
762.646623
 40
0.5
100
AcDbArc
 50
359.972024
 51
449.998251
  0
ARC
  5
1FC
100
AcDbEntity
  8
M0
100
AcDbCircle
 10
283.378793
 20
729.646867
 40
0.5
100
AcDbArc
 50
179.998251
 51
270.0
  0
ARC
  5
1FD
100
AcDbEntity
  8
M0
100
AcDbCircle
 10
286.378793
 20
719.646867
 40
0.5
100
AcDbArc
 50
270.0
 51
360.0
  0
ARC
  5
1FE
100
AcDbEntity
  8
M0
100
AcDbCircle
 10
286.378793
 20
729.646867
 40
0.5
100
AcDbArc
 50
270.0
 51
360.0
  0
ARC
  5
1FF
100
AcDbEntity
  8
M0
100
AcDbCircle
 10
283.378793
 20
763.646867
 40
0.5
100
AcDbArc
 50
89.998251
 51
179.998251
  0
ARC
  5
200
100
AcDbEntity
  8
M0
100
AcDbCircle
 10
274.378793
 20
771.196672
 40
0.5
100
AcDbArc
 50
0.0
 51
89.998251
  0
ARC
  5
201
100
AcDbEntity
  8
M0
100
AcDbCircle
 10
274.378793
 20
730.646623
 40
0.5
100
AcDbArc
 50
270.0
 51
359.972024
  0
ARC
  5
202
100
AcDbEntity
  8
M0
100
AcDbCircle
 10
274.378793
 20
722.096818
 40
0.5
100
AcDbArc
 50
270.0
 51
359.972024
  0
ARC
  5
203
100
AcDbEntity
  8
M0
100
AcDbCircle
 10
283.378793
 20
729.646867
 40
0.5
100
AcDbArc
 50
179.998251
 51
270.0
  0
ARC
  5
204
100
AcDbEntity
  8
M0
100
AcDbCircle
 10
275.178842
 20
731.146379
 40
0.5
100
AcDbArc
 50
270.0
 51
359.972024
  0
ARC
  5
205
100
AcDbEntity
  8
M0
100
AcDbCircle
 10
282.578989
 20
731.146379
 40
0.5
100
AcDbArc
 50
179.998251
 51
270.0
  0
ARC
  5
206
100
AcDbEntity
  8
M0
100
AcDbCircle
 10
281.878793
 20
740.146379
 40
1.0
100
AcDbArc
 50
0.0
 51
89.999126
  0
ARC
  5
207
100
AcDbEntity
  8
M0
100
AcDbCircle
 10
275.878793
 20
740.146379
 40
1.0
100
AcDbArc
 50
89.999126
 51
179.999126
  0
ARC
  5
208
100
AcDbEntity
  8
M0
100
AcDbCircle
 10
276.378793
 20
740.146379
 40
1.0
100
AcDbArc
 50
89.999126
 51
179.999126
  0
ARC
  5
209
100
AcDbEntity
  8
M0
100
AcDbCircle
 10
281.378793
 20
740.146379
 40
1.0
100
AcDbArc
 50
359.986012
 51
449.999126
  0
LINE
  5
20A
100
AcDbEntity
  8
M0
100
AcDbLine
 10
281.128793
 20
732.146867
 11
281.128793
 21
731.646867
  0
LINE
  5
20B
100
AcDbEntity
  8
M0
100
AcDbLine
 10
276.628793
 20
732.146867
 11
276.628793
 21
731.646867
  0
ARC
  5
20C
100
AcDbEntity
  8
M0
100
AcDbCircle
 10
279.878793
 20
749.396623
 40
1.0
100
AcDbArc
 50
89.999126
 51
179.999126
  0
ARC
  5
20D
100
AcDbEntity
  8
M0
100
AcDbCircle
 10
279.878793
 20
743.896623
 40
1.0
100
AcDbArc
 50
179.999126
 51
270.0
  0
ARC
  5
20E
100
AcDbEntity
  8
M0
100
AcDbCircle
 10
275.878793
 20
753.146379
 40
1.0
100
AcDbArc
 50
179.999126
 51
270.0
  0
ARC
  5
20F
100
AcDbEntity
  8
M0
100
AcDbCircle
 10
281.878793
 20
753.146379
 40
1.0
100
AcDbArc
 50
270.0
 51
359.986012
  0
ARC
  5
210
100
AcDbEntity
  8
M0
100
AcDbCircle
 10
281.378793
 20
753.146379
 40
1.0
100
AcDbArc
 50
270.0
 51
337.727621
  0
ARC
  5
211
100
AcDbEntity
  8
M0
100
AcDbCircle
 10
276.378793
 20
753.146379
 40
1.0
100
AcDbArc
 50
202.275469
 51
270.0
  0
ARC
  5
212
100
AcDbEntity
  8
M0
100
AcDbCircle
 10
286.378793
 20
742.396623
 40
0.5
100
AcDbArc
 50
0.0
 51
89.998251
  0
ARC
  5
213
100
AcDbEntity
  8
M0
100
AcDbCircle
 10
286.378793
 20
750.896623
 40
0.5
100
AcDbArc
 50
270.0
 51
360.0
  0
LINE
  5
214
100
AcDbEntity
  8
M0
100
AcDbLine
 10
282.878793
 20
749.396867
 11
286.878793
 21
749.396867
  0
LINE
  5
215
100
AcDbEntity
  8
M0
100
AcDbLine
 10
282.878793
 20
743.896867
 11
286.878793
 21
743.896867
  0
LINE
  5
216
100
AcDbEntity
  8
M0
100
AcDbLine
 10
282.878793
 20
743.896867
 11
282.878793
 21
742.896867
  0
LINE
  5
217
100
AcDbEntity
  8
M0
100
AcDbLine
 10
282.878793
 20
749.396867
 11
282.878793
 21
750.396867
  0
LINE
  5
218
100
AcDbEntity
  8
M0
100
AcDbLine
 10
152.878793
 20
743.896867
 11
152.878793
 21
742.896867
  0
LINE
  5
219
100
AcDbEntity
  8
M0
100
AcDbLine
 10
152.878793
 20
743.896867
 11
148.878793
 21
743.896867
  0
LINE
  5
21A
100
AcDbEntity
  8
M0
100
AcDbLine
 10
152.878793
 20
749.396867
 11
152.878793
 21
750.396867
  0
LINE
  5
21B
100
AcDbEntity
  8
M0
100
AcDbLine
 10
152.878793
 20
749.396867
 11
148.878793
 21
749.396867
  0
ARC
  5
21C
100
AcDbEntity
  8
M0
100
AcDbCircle
 10
155.878793
 20
743.896867
 40
1.0
100
AcDbArc
 50
270.0
 51
360.0
  0
ARC
  5
21D
100
AcDbEntity
  8
M0
100
AcDbCircle
 10
155.878793
 20
749.396867
 40
1.0
100
AcDbArc
 50
0.0
 51
89.999126
  0
ARC
  5
21E
100
AcDbEntity
  8
M0
100
AcDbCircle
 10
159.878793
 20
740.146867
 40
1.0
100
AcDbArc
 50
0.0
 51
89.999126
  0
ARC
  5
21F
100
AcDbEntity
  8
M0
100
AcDbCircle
 10
153.878793
 20
740.146867
 40
1.0
100
AcDbArc
 50
89.999126
 51
179.999126
  0
ARC
  5
220
100
AcDbEntity
  8
M0
100
AcDbCircle
 10
153.878793
 20
753.146867
 40
1.0
100
AcDbArc
 50
179.999126
 51
270.0
  0
ARC
  5
221
100
AcDbEntity
  8
M0
100
AcDbCircle
 10
159.878793
 20
753.146867
 40
1.0
100
AcDbArc
 50
270.0
 51
359.986012
  0
ARC
  5
222
100
AcDbEntity
  8
M0
100
AcDbCircle
 10
159.378793
 20
753.146867
 40
1.0
100
AcDbArc
 50
270.0
 51
337.688817
  0
ARC
  5
223
100
AcDbEntity
  8
M0
100
AcDbCircle
 10
154.378793
 20
740.146867
 40
1.0
100
AcDbArc
 50
89.999126
 51
157.682969
  0
ARC
  5
224
100
AcDbEntity
  8
M0
100
AcDbCircle
 10
159.378793
 20
740.146867
 40
1.0
100
AcDbArc
 50
22.313941
 51
89.999126
  0
ARC
  5
225
100
AcDbEntity
  8
M0
100
AcDbCircle
 10
154.378793
 20
753.146867
 40
1.0
100
AcDbArc
 50
202.314273
 51
270.0
  0
ARC
  5
226
100
AcDbEntity
  8
M0
100
AcDbCircle
 10
152.378793
 20
763.646867
 40
0.5
100
AcDbArc
 50
359.972024
 51
449.998251
  0
ARC
  5
227
100
AcDbEntity
  8
M0
100
AcDbCircle
 10
161.378793
 20
771.196672
 40
0.5
100
AcDbArc
 50
89.998251
 51
179.998251
  0
ARC
  5
228
100
AcDbEntity
  8
M0
100
AcDbCircle
 10
161.378793
 20
730.646867
 40
0.5
100
AcDbArc
 50
179.998251
 51
270.0
  0
ARC
  5
229
100
AcDbEntity
  8
M0
100
AcDbCircle
 10
149.378793
 20
729.646867
 40
0.5
100
AcDbArc
 50
179.998251
 51
270.0
  0
ARC
  5
22A
100
AcDbEntity
  8
M0
100
AcDbCircle
 10
149.378793
 20
719.646867
 40
0.5
100
AcDbArc
 50
179.998251
 51
270.0
  0
ARC
  5
22B
100
AcDbEntity
  8
M0
100
AcDbCircle
 10
152.378793
 20
729.646867
 40
0.5
100
AcDbArc
 50
270.0
 51
359.972024
  0
ARC
  5
22C
100
AcDbEntity
  8
M0
100
AcDbCircle
 10
161.378793
 20
722.096818
 40
0.5
100
AcDbArc
 50
179.998251
 51
270.0
  0
ARC
  5
22D
100
AcDbEntity
  8
M0
100
AcDbCircle
 10
149.378793
 20
742.396867
 40
0.5
100
AcDbArc
 50
89.998251
 51
179.998251
  0
ARC
  5
22E
100
AcDbEntity
  8
M0
100
AcDbCircle
 10
161.378793
 20
762.646867
 40
0.5
100
AcDbArc
 50
89.998251
 51
179.998251
  0
ARC
  5
22F
100
AcDbEntity
  8
M0
100
AcDbCircle
 10
149.378793
 20
763.646867
 40
0.5
100
AcDbArc
 50
89.998251
 51
179.998251
  0
ARC
  5
230
100
AcDbEntity
  8
M0
100
AcDbCircle
 10
149.378793
 20
773.646867
 40
0.5
100
AcDbArc
 50
89.998251
 51
179.998251
  0
ARC
  5
231
100
AcDbEntity
  8
M0
100
AcDbCircle
 10
152.378793
 20
719.646867
 40
0.5
100
AcDbArc
 50
270.0
 51
359.972024
  0
ARC
  5
232
100
AcDbEntity
  8
M0
100
AcDbCircle
 10
152.378793
 20
773.646867
 40
0.5
100
AcDbArc
 50
0.0
 51
89.998251
  0
ARC
  5
233
100
AcDbEntity
  8
M0
100
AcDbCircle
 10
149.378793
 20
750.896867
 40
0.5
100
AcDbArc
 50
179.998251
 51
270.0
  0
LINE
  5
234
100
AcDbEntity
  8
M0
100
AcDbLine
 10
162.878793
 20
815.789735
 11
162.878793
 21
809.646867
  0
LINE
  5
235
100
AcDbEntity
  8
M0
100
AcDbLine
 10
272.878793
 20
815.789735
 11
272.878793
 21
809.646867
  0
LINE
  5
236
100
AcDbEntity
  8
M0
100
AcDbLine
 10
162.878793
 20
683.646867
 11
162.878793
 21
677.504197
  0
LINE
  5
237
100
AcDbEntity
  8
M0
100
AcDbLine
 10
272.878793
 20
683.646867
 11
272.878793
 21
677.504197
  0
LINE
  5
238
100
AcDbEntity
  8
M0
100
AcDbLine
 10
284.878549
 20
833.146867
 11
282.378793
 21
833.146867
  0
ARC
  5
239
100
AcDbEntity
  8
M0
100
AcDbCircle
 10
284.878793
 20
831.146623
 40
2.0
100
AcDbArc
 50
0.0
 51
90.005683
  0
ARC
  5
23A
100
AcDbEntity
  8
M0
100
AcDbCircle
 10
150.878793
 20
831.146623
 40
2.0
100
AcDbArc
 50
89.999563
 51
180.005683
  0
LINE
  5
23B
100
AcDbEntity
  8
M0
100
AcDbLine
 10
153.378793
 20
833.146638
 11
150.878793
 21
833.146623
  0
LINE
  5
23C
100
AcDbEntity
  8
M0
100
AcDbLine
 10
257.378793
 20
833.146821
 11
230.378793
 21
833.146776
  0
LINE
  5
23D
100
AcDbEntity
  8
M0
100
AcDbLine
 10
278.003793
 20
671.64702
 11
286.878793
 21
671.64702
  0
LINE
  5
23E
100
AcDbEntity
  8
M0
100
AcDbLine
 10
178.782022
 20
671.64702
 11
190.878793
 21
671.64702
  0
LINE
  5
23F
100
AcDbEntity
  8
M0
100
AcDbLine
 10
160.278772
 20
770.646867
 11
160.878793
 21
770.646867
  0
LINE
  5
240
100
AcDbEntity
  8
M0
100
AcDbLine
 10
160.028787
 20
761.146867
 11
160.878793
 21
761.146867
  0
LINE
  5
241
100
AcDbEntity
  8
M0
100
AcDbLine
 10
160.028787
 20
761.646867
 11
160.078744
 21
761.646867
  0
LINE
  5
242
100
AcDbEntity
  8
M0
100
AcDbLine
 10
160.028787
 20
732.146867
 11
160.878793
 21
732.146867
  0
LINE
  5
243
100
AcDbEntity
  8
M0
100
AcDbLine
 10
160.028787
 20
731.646867
 11
160.078744
 21
731.646867
  0
LINE
  5
244
100
AcDbEntity
  8
M0
100
AcDbLine
 10
160.278772
 20
722.646867
 11
160.878793
 21
722.646867
  0
LINE
  5
245
100
AcDbEntity
  8
M0
100
AcDbLine
 10
282.278772
 20
770.646867
 11
282.878793
 21
770.646867
  0
LINE
  5
246
100
AcDbEntity
  8
M0
100
AcDbLine
 10
282.278772
 20
761.146867
 11
282.878793
 21
761.146867
  0
LINE
  5
247
100
AcDbEntity
  8
M0
100
AcDbLine
 10
205.378793
 20
833.14673
 11
178.378793
 21
833.146684
  0
LINE
  5
248
100
AcDbEntity
  8
M0
100
AcDbLine
 10
205.378793
 20
821.646394
 11
203.894418
 21
821.646379
  0
LINE
  5
249
100
AcDbEntity
  8
M0
100
AcDbLine
 10
230.378793
 20
671.64702
 11
231.86268
 21
671.64702
  0
LINE
  5
24A
100
AcDbEntity
  8
M0
 62
     7
100
AcDbLine
 10
192.878793
 20
671.64702
 11
202.878793
 21
671.64702
  0
LINE
  5
24B
100
AcDbEntity
  8
M0
 62
     7
100
AcDbLine
 10
272.878793
 20
683.646852
 11
272.878793
 21
809.646867
  0
LINE
  5
24C
100
AcDbEntity
  8
M0
 62
     7
100
AcDbLine
 10
242.878793
 20
821.646867
 11
232.878793
 21
821.646867
  0
LINE
  5
24D
100
AcDbEntity
  8
M0
 62
     7
100
AcDbLine
 10
162.878793
 20
809.646867
 11
162.878793
 21
683.646867
  0
LINE
  5
24E
100
AcDbEntity
  8
M0
 62
     7
100
AcDbLine
 10
164.878793
 20
811.646867
 11
189.878793
 21
811.646867
  0
LINE
  5
24F
100
AcDbEntity
  8
M0
 62
     7
100
AcDbLine
 10
164.878793
 20
681.646867
 11
189.878793
 21
681.646867
  0
ARC
  5
250
100
AcDbEntity
  8
M0
 62
     7
100
AcDbCircle
 10
270.878793
 20
809.646867
 40
2.0
100
AcDbArc
 50
0.0
 51
89.999563
  0
ARC
  5
251
100
AcDbEntity
  8
M0
 62
     7
100
AcDbCircle
 10
164.878793
 20
809.646867
 40
2.0
100
AcDbArc
 50
89.999563
 51
179.999563
  0
ARC
  5
252
100
AcDbEntity
  8
M0
 62
     7
100
AcDbCircle
 10
164.878793
 20
683.646867
 40
2.0
100
AcDbArc
 50
179.999563
 51
270.0
  0
ARC
  5
253
100
AcDbEntity
  8
M0
 62
     7
100
AcDbCircle
 10
270.878793
 20
683.646867
 40
2.0
100
AcDbArc
 50
270.0
 51
360.0
  0
LINE
  5
254
100
AcDbEntity
  8
M0
 62
     7
100
AcDbLine
 10
174.878793
 20
685.646867
 11
190.878793
 21
685.646867
  0
LINE
  5
255
100
AcDbEntity
  8
M0
 62
     7
100
AcDbLine
 10
174.878793
 20
807.646867
 11
190.878793
 21
807.646867
  0
LINE
  5
256
100
AcDbEntity
  8
M0
 62
     7
100
AcDbLine
 10
260.878793
 20
685.646867
 11
260.878793
 21
682.646867
  0
LINE
  5
257
100
AcDbEntity
  8
M0
 62
     7
100
AcDbLine
 10
244.878793
 20
685.646867
 11
244.878793
 21
668.14702
  0
LINE
  5
258
100
AcDbEntity
  8
M0
 62
     7
100
AcDbLine
 10
225.878793
 20
685.646867
 11
225.878793
 21
682.646867
  0
LINE
  5
259
100
AcDbEntity
  8
M0
 62
     7
100
AcDbLine
 10
209.878793
 20
685.646867
 11
209.878793
 21
682.646867
  0
LINE
  5
25A
100
AcDbEntity
  8
M0
 62
     7
100
AcDbLine
 10
174.878793
 20
685.646867
 11
174.878793
 21
682.646867
  0
LINE
  5
25B
100
AcDbEntity
  8
M0
 62
     7
100
AcDbLine
 10
190.878793
 20
685.646867
 11
190.878793
 21
668.14702
  0
LINE
  5
25C
100
AcDbEntity
  8
M0
 62
     7
100
AcDbLine
 10
260.878793
 20
810.646867
 11
260.878793
 21
807.646867
  0
LINE
  5
25D
100
AcDbEntity
  8
M0
 62
     7
100
AcDbLine
 10
244.878793
 20
811.646867
 11
244.878793
 21
807.646867
  0
LINE
  5
25E
100
AcDbEntity
  8
M0
 62
     7
100
AcDbLine
 10
225.878793
 20
810.646867
 11
225.878793
 21
807.646867
  0
LINE
  5
25F
100
AcDbEntity
  8
M0
 62
     7
100
AcDbLine
 10
209.878793
 20
810.646867
 11
209.878793
 21
807.646867
  0
LINE
  5
260
100
AcDbEntity
  8
M0
 62
     7
100
AcDbLine
 10
190.878793
 20
811.646867
 11
190.878793
 21
807.646867
  0
LINE
  5
261
100
AcDbEntity
  8
M0
 62
     7
100
AcDbLine
 10
174.878793
 20
810.646867
 11
174.878793
 21
807.646867
  0
LINE
  5
262
100
AcDbEntity
  8
M0
 62
     7
100
AcDbLine
 10
209.878793
 20
685.646867
 11
225.878793
 21
685.646867
  0
LINE
  5
263
100
AcDbEntity
  8
M0
 62
     7
100
AcDbLine
 10
244.878793
 20
685.646867
 11
260.878793
 21
685.646867
  0
LINE
  5
264
100
AcDbEntity
  8
M0
 62
     7
100
AcDbLine
 10
244.878793
 20
807.646867
 11
260.878793
 21
807.646867
  0
LINE
  5
265
100
AcDbEntity
  8
M0
 62
     7
100
AcDbLine
 10
209.878793
 20
807.646867
 11
225.878793
 21
807.646867
  0
ARC
  5
266
100
AcDbEntity
  8
M0
 62
     7
100
AcDbCircle
 10
192.878793
 20
673.64702
 40
2.0
100
AcDbArc
 50
179.979017
 51
270.0
  0
ARC
  5
267
100
AcDbEntity
  8
M0
 62
     7
100
AcDbCircle
 10
242.878793
 20
673.64702
 40
2.0
100
AcDbArc
 50
270.0
 51
360.0
  0
LINE
  5
268
100
AcDbEntity
  8
M0
 62
     7
100
AcDbLine
 10
204.878793
 20
680.646867
 11
204.878793
 21
673.64702
  0
LINE
  5
269
100
AcDbEntity
  8
M0
 62
     7
100
AcDbLine
 10
230.878793
 20
680.646867
 11
230.878793
 21
673.64702
  0
LINE
  5
26A
100
AcDbEntity
  8
M0
 62
     7
100
AcDbLine
 10
232.878793
 20
671.64702
 11
242.878793
 21
671.64702
  0
LINE
  5
26B
100
AcDbEntity
  8
M0
 62
     7
100
AcDbLine
 10
205.878793
 20
681.646867
 11
229.878793
 21
681.646867
  0
LINE
  5
26C
100
AcDbEntity
  8
M0
 62
     7
100
AcDbLine
 10
245.878793
 20
681.646867
 11
270.878793
 21
681.646867
  0
ARC
  5
26D
100
AcDbEntity
  8
M0
 62
     7
100
AcDbCircle
 10
202.878793
 20
673.64702
 40
2.0
100
AcDbArc
 50
270.0
 51
360.0
  0
ARC
  5
26E
100
AcDbEntity
  8
M0
 62
     7
100
AcDbCircle
 10
232.878793
 20
673.64702
 40
2.0
100
AcDbArc
 50
179.979017
 51
270.0
  0
ARC
  5
26F
100
AcDbEntity
  8
M0
 62
     7
100
AcDbCircle
 10
205.878793
 20
680.646867
 40
1.0
100
AcDbArc
 50
89.999126
 51
179.999126
  0
ARC
  5
270
100
AcDbEntity
  8
M0
 62
     7
100
AcDbCircle
 10
229.878793
 20
680.646867
 40
1.0
100
AcDbArc
 50
0.0
 51
89.999126
  0
ARC
  5
271
100
AcDbEntity
  8
M0
 62
     7
100
AcDbCircle
 10
261.878793
 20
682.646867
 40
1.0
100
AcDbArc
 50
179.999126
 51
270.0
  0
ARC
  5
272
100
AcDbEntity
  8
M0
 62
     7
100
AcDbCircle
 10
245.878793
 20
680.646867
 40
1.0
100
AcDbArc
 50
89.999126
 51
179.999126
  0
ARC
  5
273
100
AcDbEntity
  8
M0
 62
     7
100
AcDbCircle
 10
226.878793
 20
682.646867
 40
1.0
100
AcDbArc
 50
179.999126
 51
270.0
  0
ARC
  5
274
100
AcDbEntity
  8
M0
 62
     7
100
AcDbCircle
 10
208.878793
 20
682.646867
 40
1.0
100
AcDbArc
 50
270.0
 51
360.0
  0
ARC
  5
275
100
AcDbEntity
  8
M0
 62
     7
100
AcDbCircle
 10
189.878793
 20
680.646867
 40
1.0
100
AcDbArc
 50
0.0
 51
89.999126
  0
ARC
  5
276
100
AcDbEntity
  8
M0
 62
     7
100
AcDbCircle
 10
173.878793
 20
682.646867
 40
1.0
100
AcDbArc
 50
270.0
 51
360.0
  0
LINE
  5
277
100
AcDbEntity
  8
M0
 62
     7
100
AcDbLine
 10
244.878793
 20
825.146623
 11
244.878793
 21
811.646867
  0
LINE
  5
278
100
AcDbEntity
  8
M0
 62
     7
100
AcDbLine
 10
230.878793
 20
819.646623
 11
230.878793
 21
812.646867
  0
LINE
  5
279
100
AcDbEntity
  8
M0
 62
     7
100
AcDbLine
 10
204.878793
 20
819.646379
 11
204.878793
 21
812.646867
  0
LINE
  5
27A
100
AcDbEntity
  8
M0
 62
     7
100
AcDbLine
 10
190.878793
 20
825.146135
 11
190.878793
 21
811.646867
  0
LINE
  5
27B
100
AcDbEntity
  8
M0
 62
     7
100
AcDbLine
 10
202.878793
 20
821.646623
 11
192.878793
 21
821.646623
  0
ARC
  5
27C
100
AcDbEntity
  8
M0
 62
     7
100
AcDbCircle
 10
242.878793
 20
819.646623
 40
2.0
100
AcDbArc
 50
0.0
 51
89.999563
  0
ARC
  5
27D
100
AcDbEntity
  8
M0
 62
     7
100
AcDbCircle
 10
232.878793
 20
819.646623
 40
2.0
100
AcDbArc
 50
89.999563
 51
179.999563
  0
ARC
  5
27E
100
AcDbEntity
  8
M0
 62
     7
100
AcDbCircle
 10
202.878793
 20
819.646379
 40
2.0
100
AcDbArc
 50
0.0
 51
89.999563
  0
ARC
  5
27F
100
AcDbEntity
  8
M0
 62
     7
100
AcDbCircle
 10
192.878793
 20
819.646379
 40
2.0
100
AcDbArc
 50
89.999563
 51
179.999563
  0
LINE
  5
280
100
AcDbEntity
  8
M0
 62
     7
100
AcDbLine
 10
205.878793
 20
811.646867
 11
229.878793
 21
811.646867
  0
LINE
  5
281
100
AcDbEntity
  8
M0
 62
     7
100
AcDbLine
 10
245.878793
 20
811.646867
 11
270.878793
 21
811.646867
  0
ARC
  5
282
100
AcDbEntity
  8
M0
 62
     7
100
AcDbCircle
 10
205.878793
 20
812.646867
 40
1.0
100
AcDbArc
 50
179.999126
 51
270.0
  0
ARC
  5
283
100
AcDbEntity
  8
M0
 62
     7
100
AcDbCircle
 10
229.878793
 20
812.646867
 40
1.0
100
AcDbArc
 50
270.0
 51
360.0
  0
ARC
  5
284
100
AcDbEntity
  8
M0
 62
     7
100
AcDbCircle
 10
261.878793
 20
810.646867
 40
1.0
100
AcDbArc
 50
89.999126
 51
179.999126
  0
ARC
  5
285
100
AcDbEntity
  8
M0
 62
     7
100
AcDbCircle
 10
245.878793
 20
812.646867
 40
1.0
100
AcDbArc
 50
179.999126
 51
270.0
  0
ARC
  5
286
100
AcDbEntity
  8
M0
 62
     7
100
AcDbCircle
 10
226.878793
 20
810.646867
 40
1.0
100
AcDbArc
 50
89.999126
 51
179.999126
  0
ARC
  5
287
100
AcDbEntity
  8
M0
 62
     7
100
AcDbCircle
 10
173.878793
 20
810.646867
 40
1.0
100
AcDbArc
 50
0.0
 51
89.999126
  0
ARC
  5
288
100
AcDbEntity
  8
M0
 62
     7
100
AcDbCircle
 10
189.878793
 20
812.646867
 40
1.0
100
AcDbArc
 50
270.0
 51
360.0
  0
ARC
  5
289
100
AcDbEntity
  8
M0
 62
     7
100
AcDbCircle
 10
208.878793
 20
810.646867
 40
1.0
100
AcDbArc
 50
0.0
 51
89.999126
  0
LINE
  5
28A
100
AcDbEntity
  8
M0
 62
     7
100
AcDbLine
 10
192.878793
 20
666.14702
 11
199.878778
 21
666.14702
  0
LINE
  5
28B
100
AcDbEntity
  8
M0
 62
     7
100
AcDbLine
 10
235.878778
 20
666.14702
 11
242.878793
 21
666.14702
  0
LINE
  5
28C
100
AcDbEntity
  8
M0
 62
     7
100
AcDbLine
 10
242.878793
 20
827.146867
 11
235.878961
 21
827.146623
  0
LINE
  5
28D
100
AcDbEntity
  8
M0
 62
     7
100
AcDbLine
 10
199.87861
 20
827.146135
 11
192.878793
 21
827.146623
  0
ARC
  5
28E
100
AcDbEntity
  8
M0
 62
     7
100
AcDbCircle
 10
192.878793
 20
825.146379
 40
2.0
100
AcDbArc
 50
89.999563
 51
180.005683
  0
ARC
  5
28F
100
AcDbEntity
  8
M0
 62
     7
100
AcDbCircle
 10
242.878793
 20
825.146623
 40
2.0
100
AcDbArc
 50
0.0
 51
89.999563
  0
ARC
  5
290
100
AcDbEntity
  8
M0
 62
     7
100
AcDbCircle
 10
242.878793
 20
668.14702
 40
2.0
100
AcDbArc
 50
270.0
 51
360.0
  0
ARC
  5
291
100
AcDbEntity
  8
M0
 62
     7
100
AcDbCircle
 10
192.878793
 20
668.14702
 40
2.0
100
AcDbArc
 50
179.979017
 51
270.0
  0
LINE
  5
292
100
AcDbEntity
  8
M0
 62
     7
100
AcDbLine
 10
194.378793
 20
669.14702
 11
195.378793
 21
669.14702
  0
LINE
  5
293
100
AcDbEntity
  8
M0
 62
     7
100
AcDbLine
 10
237.378793
 20
669.14702
 11
238.378793
 21
669.14702
  0
LINE
  5
294
100
AcDbEntity
  8
M0
 62
     7
100
AcDbLine
 10
240.378793
 20
669.14702
 11
240.378793
 21
666.14702
  0
LINE
  5
295
100
AcDbEntity
  8
M0
 62
     7
100
AcDbLine
 10
238.378793
 20
669.14702
 11
238.378793
 21
666.14702
  0
LINE
  5
296
100
AcDbEntity
  8
M0
 62
     7
100
AcDbLine
 10
197.378793
 20
669.14702
 11
197.378793
 21
666.14702
  0
LINE
  5
297
100
AcDbEntity
  8
M0
 62
     7
100
AcDbLine
 10
195.378793
 20
669.14702
 11
195.378793
 21
666.14702
  0
LINE
  5
298
100
AcDbEntity
  8
M0
 62
     7
100
AcDbLine
 10
241.878793
 20
671.14702
 11
241.878793
 21
669.64702
  0
LINE
  5
299
100
AcDbEntity
  8
M0
 62
     7
100
AcDbLine
 10
236.878793
 20
671.14702
 11
236.878793
 21
669.64702
  0
LINE
  5
29A
100
AcDbEntity
  8
M0
 62
     7
100
AcDbLine
 10
198.878793
 20
671.14702
 11
198.878793
 21
669.64702
  0
LINE
  5
29B
100
AcDbEntity
  8
M0
 62
     7
100
AcDbLine
 10
193.878793
 20
671.14702
 11
193.878793
 21
669.64702
  0
LINE
  5
29C
100
AcDbEntity
  8
M0
 62
     7
100
AcDbLine
 10
197.378793
 20
669.14702
 11
198.378793
 21
669.14702
  0
LINE
  5
29D
100
AcDbEntity
  8
M0
 62
     7
100
AcDbLine
 10
240.378793
 20
669.14702
 11
241.378793
 21
669.14702
  0
ARC
  5
29E
100
AcDbEntity
  8
M0
 62
     7
100
AcDbCircle
 10
237.378793
 20
669.64702
 40
0.5
100
AcDbArc
 50
179.916068
 51
270.0
  0
ARC
  5
29F
100
AcDbEntity
  8
M0
 62
     7
100
AcDbCircle
 10
194.378793
 20
669.64702
 40
0.5
100
AcDbArc
 50
179.916068
 51
270.0
  0
ARC
  5
2A0
100
AcDbEntity
  8
M0
 62
     7
100
AcDbCircle
 10
198.378793
 20
669.64702
 40
0.5
100
AcDbArc
 50
270.0
 51
360.0
  0
ARC
  5
2A1
100
AcDbEntity
  8
M0
 62
     7
100
AcDbCircle
 10
241.378793
 20
669.64702
 40
0.5
100
AcDbArc
 50
270.0
 51
360.0
  0
ARC
  5
2A2
100
AcDbEntity
  8
M0
 62
     7
100
AcDbCircle
 10
237.378793
 20
671.14702
 40
0.5
100
AcDbArc
 50
89.998251
 51
179.916068
  0
ARC
  5
2A3
100
AcDbEntity
  8
M0
 62
     7
100
AcDbCircle
 10
194.378793
 20
671.14702
 40
0.5
100
AcDbArc
 50
89.998251
 51
179.916068
  0
ARC
  5
2A4
100
AcDbEntity
  8
M0
 62
     7
100
AcDbCircle
 10
241.378793
 20
671.14702
 40
0.5
100
AcDbArc
 50
0.0
 51
89.998251
  0
ARC
  5
2A5
100
AcDbEntity
  8
M0
 62
     7
100
AcDbCircle
 10
198.378793
 20
671.14702
 40
0.5
100
AcDbArc
 50
0.0
 51
89.998251
  0
LINE
  5
2A6
100
AcDbEntity
  8
M0
 62
     7
100
AcDbLine
 10
199.878793
 20
666.14702
 11
204.494012
 21
672.467576
  0
LINE
  5
2A7
100
AcDbEntity
  8
M0
 62
     7
100
AcDbLine
 10
235.878793
 20
666.14702
 11
231.263559
 21
672.467576
  0
LINE
  5
2A8
100
AcDbEntity
  8
M0
 62
     7
100
AcDbLine
 10
199.878793
 20
827.146135
 11
204.493997
 21
820.825822
  0
LINE
  5
2A9
100
AcDbEntity
  8
M0
 62
     7
100
AcDbLine
 10
235.878793
 20
827.146623
 11
231.263559
 21
820.825822
  0
LINE
  5
2AA
100
AcDbEntity
  8
M0
 62
     7
100
AcDbLine
 10
241.378702
 20
824.146379
 11
240.378793
 21
824.146379
  0
LINE
  5
2AB
100
AcDbEntity
  8
M0
 62
     7
100
AcDbLine
 10
198.378702
 20
824.145646
 11
197.378793
 21
824.145646
  0
LINE
  5
2AC
100
AcDbEntity
  8
M0
 62
     7
100
AcDbLine
 10
240.378793
 20
827.146623
 11
240.378793
 21
824.146867
  0
LINE
  5
2AD
100
AcDbEntity
  8
M0
 62
     7
100
AcDbLine
 10
238.378793
 20
827.146623
 11
238.378793
 21
824.146867
  0
LINE
  5
2AE
100
AcDbEntity
  8
M0
 62
     7
100
AcDbLine
 10
197.378793
 20
827.146135
 11
197.378793
 21
824.146135
  0
LINE
  5
2AF
100
AcDbEntity
  8
M0
 62
     7
100
AcDbLine
 10
195.378793
 20
827.146379
 11
195.378793
 21
824.146135
  0
LINE
  5
2B0
100
AcDbEntity
  8
M0
 62
     7
100
AcDbLine
 10
241.878793
 20
823.646379
 11
241.878793
 21
822.146623
  0
LINE
  5
2B1
100
AcDbEntity
  8
M0
 62
     7
100
AcDbLine
 10
236.878793
 20
823.646379
 11
236.878793
 21
822.146623
  0
LINE
  5
2B2
100
AcDbEntity
  8
M0
 62
     7
100
AcDbLine
 10
198.878793
 20
823.645646
 11
198.878793
 21
822.146379
  0
LINE
  5
2B3
100
AcDbEntity
  8
M0
 62
     7
100
AcDbLine
 10
193.878793
 20
823.645646
 11
193.878793
 21
822.146379
  0
LINE
  5
2B4
100
AcDbEntity
  8
M0
 62
     7
100
AcDbLine
 10
195.378793
 20
824.145646
 11
194.37887
 21
824.145646
  0
LINE
  5
2B5
100
AcDbEntity
  8
M0
 62
     7
100
AcDbLine
 10
238.378793
 20
824.146379
 11
237.37887
 21
824.146379
  0
ARC
  5
2B6
100
AcDbEntity
  8
M0
 62
     7
100
AcDbCircle
 10
241.378793
 20
823.646379
 40
0.5
100
AcDbArc
 50
0.0
 51
90.005246
  0
ARC
  5
2B7
100
AcDbEntity
  8
M0
 62
     7
100
AcDbCircle
 10
237.378793
 20
823.646379
 40
0.5
100
AcDbArc
 50
89.986012
 51
179.998251
  0
ARC
  5
2B8
100
AcDbEntity
  8
M0
 62
     7
100
AcDbCircle
 10
198.378793
 20
823.645646
 40
0.5
100
AcDbArc
 50
0.0
 51
90.005246
  0
ARC
  5
2B9
100
AcDbEntity
  8
M0
 62
     7
100
AcDbCircle
 10
194.378793
 20
823.645646
 40
0.5
100
AcDbArc
 50
89.986012
 51
179.998251
  0
ARC
  5
2BA
100
AcDbEntity
  8
M0
 62
     7
100
AcDbCircle
 10
198.378793
 20
822.146379
 40
0.5
100
AcDbArc
 50
270.0
 51
360.0
  0
ARC
  5
2BB
100
AcDbEntity
  8
M0
 62
     7
100
AcDbCircle
 10
241.378793
 20
822.146623
 40
0.5
100
AcDbArc
 50
270.0
 51
360.0
  0
ARC
  5
2BC
100
AcDbEntity
  8
M0
 62
     7
100
AcDbCircle
 10
194.378793
 20
822.146379
 40
0.5
100
AcDbArc
 50
179.998251
 51
270.0
  0
ARC
  5
2BD
100
AcDbEntity
  8
M0
 62
     7
100
AcDbCircle
 10
237.378793
 20
822.146623
 40
0.5
100
AcDbArc
 50
179.998251
 51
270.0
  0
LINE
  5
2BE
100
AcDbEntity
  8
M0
 62
     7
100
AcDbLine
 10
229.178781
 20
730.646867
 11
229.178781
 21
733.646623
  0
LINE
  5
2BF
100
AcDbEntity
  8
M0
 62
     7
100
AcDbLine
 10
206.57879
 20
730.646867
 11
206.57879
 21
733.646867
  0
LINE
  5
2C0
100
AcDbEntity
  8
M0
 62
     7
100
AcDbLine
 10
209.57879
 20
736.646867
 11
226.178781
 21
736.646867
  0
LINE
  5
2C1
100
AcDbEntity
  8
M0
 62
     7
100
AcDbLine
 10
207.342722
 20
735.646867
 11
228.414835
 21
735.646867
  0
LINE
  5
2C2
100
AcDbEntity
  8
M0
 62
     7
100
AcDbLine
 10
206.57879
 20
730.646867
 11
229.178781
 21
730.646867
  0
LINE
  5
2C3
100
AcDbEntity
  8
M0
 62
     7
100
AcDbLine
 10
209.57879
 20
740.646867
 11
209.878793
 21
740.646867
  0
LINE
  5
2C4
100
AcDbEntity
  8
M0
 62
     7
100
AcDbLine
 10
206.57879
 20
743.646867
 11
206.57879
 21
753.946672
  0
LINE
  5
2C5
100
AcDbEntity
  8
M0
 62
     7
100
AcDbLine
 10
229.178781
 20
743.646623
 11
229.178781
 21
753.946428
  0
LINE
  5
2C6
100
AcDbEntity
  8
M0
 62
     7
100
AcDbLine
 10
209.57879
 20
756.946672
 11
213.878793
 21
756.946672
  0
ARC
  5
2C7
100
AcDbEntity
  8
M0
 62
     7
100
AcDbCircle
 10
209.57879
 20
733.646867
 40
3.0
100
AcDbArc
 50
89.999709
 51
179.999709
  0
ARC
  5
2C8
100
AcDbEntity
  8
M0
 62
     7
100
AcDbCircle
 10
226.178781
 20
733.646867
 40
3.0
100
AcDbArc
 50
0.0
 51
89.999709
  0
ARC
  5
2C9
100
AcDbEntity
  8
M0
 62
     7
100
AcDbCircle
 10
226.178781
 20
753.946672
 40
3.0
100
AcDbArc
 50
0.0
 51
89.999709
  0
ARC
  5
2CA
100
AcDbEntity
  8
M0
 62
     7
100
AcDbCircle
 10
209.57879
 20
753.946672
 40
3.0
100
AcDbArc
 50
89.999709
 51
179.999709
  0
ARC
  5
2CB
100
AcDbEntity
  8
M0
 62
     7
100
AcDbCircle
 10
209.57879
 20
743.646867
 40
3.0
100
AcDbArc
 50
179.999709
 51
270.0
  0
ARC
  5
2CC
100
AcDbEntity
  8
M0
 62
     7
100
AcDbCircle
 10
226.178781
 20
743.646867
 40
3.0
100
AcDbArc
 50
270.0
 51
360.0
  0
LINE
  5
2CD
100
AcDbEntity
  8
M0
 62
     7
100
AcDbLine
 10
225.878793
 20
740.646867
 11
225.878793
 21
736.646867
  0
LINE
  5
2CE
100
AcDbEntity
  8
M0
 62
     7
100
AcDbLine
 10
209.878793
 20
740.646867
 11
209.878793
 21
736.646867
  0
LINE
  5
2CF
100
AcDbEntity
  8
M0
 62
     7
100
AcDbLine
 10
225.878793
 20
740.646867
 11
226.178781
 21
740.646867
  0
LINE
  5
2D0
100
AcDbEntity
  8
M0
 62
     7
100
AcDbLine
 10
210.878793
 20
739.646867
 11
210.878793
 21
737.646867
  0
LINE
  5
2D1
100
AcDbEntity
  8
M0
 62
     7
100
AcDbLine
 10
224.878793
 20
739.646867
 11
224.878793
 21
737.646867
  0
LINE
  5
2D2
100
AcDbEntity
  8
M0
 62
     7
100
AcDbLine
 10
209.878793
 20
737.646867
 11
210.878793
 21
737.646867
  0
LINE
  5
2D3
100
AcDbEntity
  8
M0
 62
     7
100
AcDbLine
 10
224.878793
 20
737.646867
 11
225.878793
 21
737.646867
  0
LINE
  5
2D4
100
AcDbEntity
  8
M0
 62
     7
100
AcDbLine
 10
209.878793
 20
739.646867
 11
210.878793
 21
739.646867
  0
LINE
  5
2D5
100
AcDbEntity
  8
M0
 62
     7
100
AcDbLine
 10
224.878793
 20
739.646867
 11
225.878793
 21
739.646867
  0
LINE
  5
2D6
100
AcDbEntity
  8
M0
 62
     7
100
AcDbLine
 10
226.678781
 20
740.688615
 11
226.678781
 21
743.646867
  0
LINE
  5
2D7
100
AcDbEntity
  8
M0
 62
     7
100
AcDbLine
 10
209.07879
 20
740.688615
 11
209.07879
 21
743.646623
  0
LINE
  5
2D8
100
AcDbEntity
  8
M0
 62
     7
100
AcDbLine
 10
206.57879
 20
744.146867
 11
208.57879
 21
744.146867
  0
LINE
  5
2D9
100
AcDbEntity
  8
M0
 62
     7
100
AcDbLine
 10
227.178781
 20
744.146867
 11
229.178781
 21
744.146867
  0
ARC
  5
2DA
100
AcDbEntity
  8
M0
 62
     7
100
AcDbCircle
 10
227.178781
 20
743.646867
 40
0.5
100
AcDbArc
 50
89.998251
 51
179.998251
  0
ARC
  5
2DB
100
AcDbEntity
  8
M0
 62
     7
100
AcDbCircle
 10
208.57879
 20
743.646867
 40
0.5
100
AcDbArc
 50
359.972024
 51
449.998251
  0
LINE
  5
2DC
100
AcDbEntity
  8
M0
 62
     7
100
AcDbLine
 10
225.878793
 20
755.146867
 11
225.878793
 21
756.946672
  0
LINE
  5
2DD
100
AcDbEntity
  8
M0
 62
     7
100
AcDbLine
 10
209.878793
 20
755.146623
 11
209.878793
 21
756.946672
  0
LINE
  5
2DE
100
AcDbEntity
  8
M0
 62
     7
100
AcDbLine
 10
226.378793
 20
754.646867
 11
229.095911
 21
754.646867
  0
LINE
  5
2DF
100
AcDbEntity
  8
M0
 62
     7
100
AcDbLine
 10
206.661645
 20
754.646867
 11
209.378793
 21
754.646867
  0
ARC
  5
2E0
100
AcDbEntity
  8
M0
 62
     7
100
AcDbCircle
 10
209.378793
 20
755.146867
 40
0.5
100
AcDbArc
 50
270.0
 51
359.972024
  0
ARC
  5
2E1
100
AcDbEntity
  8
M0
 62
     7
100
AcDbCircle
 10
226.378793
 20
755.146867
 40
0.5
100
AcDbArc
 50
179.998251
 51
270.0
  0
LINE
  5
2E2
100
AcDbEntity
  8
M0
 62
     7
100
AcDbLine
 10
215.128793
 20
759.646867
 11
220.628793
 21
759.646867
  0
LINE
  5
2E3
100
AcDbEntity
  8
M0
 62
     7
100
AcDbLine
 10
216.128793
 20
762.646867
 11
219.628793
 21
762.646867
  0
LINE
  5
2E4
100
AcDbEntity
  8
M0
 62
     7
100
AcDbLine
 10
213.878793
 20
758.646867
 11
215.128793
 21
758.646867
  0
LINE
  5
2E5
100
AcDbEntity
  8
M0
 62
     7
100
AcDbLine
 10
213.878793
 20
759.346818
 11
215.128793
 21
759.346818
  0
LINE
  5
2E6
100
AcDbEntity
  8
M0
 62
     7
100
AcDbLine
 10
221.878793
 20
759.346818
 11
221.878793
 21
756.946672
  0
LINE
  5
2E7
100
AcDbEntity
  8
M0
 62
     7
100
AcDbLine
 10
213.878793
 20
759.346818
 11
213.878793
 21
756.946672
  0
LINE
  5
2E8
100
AcDbEntity
  8
M0
 62
     7
100
AcDbLine
 10
220.628793
 20
758.646867
 11
220.628793
 21
761.646623
  0
LINE
  5
2E9
100
AcDbEntity
  8
M0
 62
     7
100
AcDbLine
 10
215.128793
 20
758.646867
 11
215.128793
 21
761.646867
  0
LINE
  5
2EA
100
AcDbEntity
  8
M0
 62
     7
100
AcDbLine
 10
221.878793
 20
756.946672
 11
226.178781
 21
756.946672
  0
LINE
  5
2EB
100
AcDbEntity
  8
M0
 62
     7
100
AcDbLine
 10
220.628793
 20
758.646867
 11
221.878793
 21
758.646867
  0
LINE
  5
2EC
100
AcDbEntity
  8
M0
 62
     7
100
AcDbLine
 10
220.628793
 20
759.346818
 11
221.878793
 21
759.346818
  0
ARC
  5
2ED
100
AcDbEntity
  8
M0
 62
     7
100
AcDbCircle
 10
219.628793
 20
761.646867
 40
1.0
100
AcDbArc
 50
359.986012
 51
449.999126
  0
ARC
  5
2EE
100
AcDbEntity
  8
M0
 62
     7
100
AcDbCircle
 10
216.128793
 20
761.646867
 40
1.0
100
AcDbArc
 50
89.999126
 51
179.999126
  0
CIRCLE
  5
2EF
100
AcDbEntity
  8
M0
 62
     7
100
AcDbCircle
 10
237.878793
 20
679.646867
 40
4.5
  0
CIRCLE
  5
2F0
100
AcDbEntity
  8
M0
 62
     7
100
AcDbCircle
 10
197.878793
 20
813.646867
 40
4.5
  0
CIRCLE
  5
2F1
100
AcDbEntity
  8
M0
 62
     7
100
AcDbCircle
 10
197.878793
 20
679.646867
 40
1.86
  0
CIRCLE
  5
2F2
100
AcDbEntity
  8
M0
 62
     7
100
AcDbCircle
 10
237.878793
 20
813.646867
 40
1.86
  0
CIRCLE
  5
2F3
100
AcDbEntity
  8
M0
 62
     7
100
AcDbCircle
 10
197.878793
 20
679.646867
 40
1.36
  0
CIRCLE
  5
2F4
100
AcDbEntity
  8
M0
 62
     7
100
AcDbCircle
 10
237.878793
 20
813.646867
 40
1.36
  0
CIRCLE
  5
2F5
100
AcDbEntity
  8
M0
100
AcDbCircle
 10
197.878793
 20
813.646867
 40
2.25
  0
CIRCLE
  5
2F6
100
AcDbEntity
  8
M0
100
AcDbCircle
 10
237.878793
 20
679.646867
 40
2.25
  0
LINE
  5
2F7
100
AcDbEntity
  8
M0
 62
     6
100
AcDbLine
 10
257.378793
 20
646.146867
 11
282.378793
 21
646.146867
  0
LINE
  5
2F8
100
AcDbEntity
  8
M0
 62
     6
100
AcDbLine
 10
248.91105
 20
681.646867
 11
257.378793
 21
671.146867
  0
LINE
  5
2F9
100
AcDbEntity
  8
M0
 62
     6
100
AcDbLine
 10
269.253793
 20
681.646867
 11
282.378793
 21
666.646867
  0
LINE
  5
2FA
100
AcDbEntity
  8
M0
 62
     6
100
AcDbLine
 10
282.378793
 20
646.146867
 11
282.378793
 21
666.646867
  0
LINE
  5
2FB
100
AcDbEntity
  8
M0
 62
     6
100
AcDbLine
 10
257.378793
 20
671.146867
 11
257.378793
 21
646.146867
  0
LINE
  5
2FC
100
AcDbEntity
  8
M0
 62
     6
100
AcDbLine
 10
178.378793
 20
646.146867
 11
153.378793
 21
646.146867
  0
LINE
  5
2FD
100
AcDbEntity
  8
M0
 62
     6
100
AcDbLine
 10
186.846536
 20
681.646867
 11
178.378793
 21
671.146867
  0
LINE
  5
2FE
100
AcDbEntity
  8
M0
 62
     6
100
AcDbLine
 10
166.503793
 20
681.646867
 11
153.378793
 21
666.646867
  0
LINE
  5
2FF
100
AcDbEntity
  8
M0
 62
     6
100
AcDbLine
 10
153.378793
 20
646.146867
 11
153.378793
 21
666.646867
  0
LINE
  5
300
100
AcDbEntity
  8
M0
 62
     6
100
AcDbLine
 10
178.378793
 20
671.146867
 11
178.378793
 21
646.146867
  0
LINE
  5
301
100
AcDbEntity
  8
M0
  6
DASHDOT
 62
     6
100
AcDbLine
 10
174.878793
 20
658.646867
 11
156.878793
 21
658.646867
  0
LINE
  5
302
100
AcDbEntity
  8
M0
  6
DASHDOT
 62
     6
100
AcDbLine
 10
165.878793
 20
649.646867
 11
165.878793
 21
667.646867
  0
LINE
  5
303
100
AcDbEntity
  8
M0
 62
     6
100
AcDbLine
 10
257.378912
 20
847.146782
 11
282.378912
 21
847.146798
  0
LINE
  5
304
100
AcDbEntity
  8
M0
 62
     6
100
AcDbLine
 10
248.911191
 20
811.646777
 11
257.378927
 21
822.146782
  0
LINE
  5
305
100
AcDbEntity
  8
M0
 62
     6
100
AcDbLine
 10
269.253934
 20
811.64679
 11
282.378924
 21
826.646798
  0
LINE
  5
306
100
AcDbEntity
  8
M0
 62
     6
100
AcDbLine
 10
282.378912
 20
847.146798
 11
282.378924
 21
826.646798
  0
LINE
  5
307
100
AcDbEntity
  8
M0
 62
     6
100
AcDbLine
 10
257.378927
 20
822.146782
 11
257.378912
 21
847.146782
  0
LINE
  5
308
100
AcDbEntity
  8
M0
  6
DASHDOT
 62
     6
100
AcDbLine
 10
269.878914
 20
843.64679
 11
269.878925
 21
825.64679
  0
LINE
  5
309
100
AcDbEntity
  8
M0
 62
     6
100
AcDbLine
 10
178.378912
 20
847.146782
 11
153.378912
 21
847.146767
  0
LINE
  5
30A
100
AcDbEntity
  8
M0
 62
     6
100
AcDbLine
 10
186.846677
 20
811.646788
 11
178.378927
 21
822.146782
  0
LINE
  5
30B
100
AcDbEntity
  8
M0
 62
     6
100
AcDbLine
 10
166.503934
 20
811.646775
 11
153.378924
 21
826.646767
  0
LINE
  5
30C
100
AcDbEntity
  8
M0
 62
     6
100
AcDbLine
 10
153.378912
 20
847.146767
 11
153.378924
 21
826.646767
  0
LINE
  5
30D
100
AcDbEntity
  8
M0
 62
     6
100
AcDbLine
 10
178.378927
 20
822.146782
 11
178.378912
 21
847.146782
  0
LINE
  5
30E
100
AcDbEntity
  8
M0
  6
DASHDOT
 62
     6
100
AcDbLine
 10
165.878914
 20
843.646775
 11
165.878925
 21
825.646775
  0
LINE
  5
30F
100
AcDbEntity
  8
M0
 62
     7
100
AcDbLine
 10
210.528787
 20
736.346818
 11
225.228784
 21
736.346818
  0
LINE
  5
310
100
AcDbEntity
  8
M0
 62
     7
100
AcDbLine
 10
228.878793
 20
743.946428
 11
228.878793
 21
753.646379
  0
LINE
  5
311
100
AcDbEntity
  8
M0
 62
     7
100
AcDbLine
 10
206.878793
 20
753.646623
 11
206.878793
 21
743.946672
  0
LINE
  5
312
100
AcDbEntity
  8
M0
 62
     7
100
AcDbLine
 10
225.878778
 20
756.646867
 11
221.628793
 21
756.646623
  0
LINE
  5
313
100
AcDbEntity
  8
M0
 62
     7
100
AcDbLine
 10
209.878793
 20
740.946672
 11
210.028787
 21
740.946672
  0
ARC
  5
314
100
AcDbEntity
  8
M0
 62
     7
100
AcDbCircle
 10
225.878793
 20
743.946672
 40
3.0
100
AcDbArc
 50
270.0
 51
360.0
  0
ARC
  5
315
100
AcDbEntity
  8
M0
 62
     7
100
AcDbCircle
 10
225.878793
 20
753.646623
 40
3.0
100
AcDbArc
 50
0.0
 51
89.999709
  0
ARC
  5
316
100
AcDbEntity
  8
M0
 62
     7
100
AcDbCircle
 10
209.878793
 20
753.646623
 40
3.0
100
AcDbArc
 50
89.999709
 51
179.999709
  0
ARC
  5
317
100
AcDbEntity
  8
M0
 62
     7
100
AcDbCircle
 10
209.878793
 20
743.946672
 40
3.0
100
AcDbArc
 50
179.999709
 51
270.0
  0
LINE
  5
318
100
AcDbEntity
  8
M0
 62
     7
100
AcDbLine
 10
225.728784
 20
740.946672
 11
225.728784
 21
736.846818
  0
LINE
  5
319
100
AcDbEntity
  8
M0
 62
     7
100
AcDbLine
 10
210.028787
 20
740.946672
 11
210.028787
 21
736.846818
  0
LINE
  5
31A
100
AcDbEntity
  8
M0
 62
     7
100
AcDbLine
 10
225.728784
 20
740.946672
 11
225.878793
 21
740.946672
  0
ARC
  5
31B
100
AcDbEntity
  8
M0
 62
     7
100
AcDbCircle
 10
210.528787
 20
736.846818
 40
0.5
100
AcDbArc
 50
179.998251
 51
270.0
  0
ARC
  5
31C
100
AcDbEntity
  8
M0
 62
     7
100
AcDbCircle
 10
225.228784
 20
736.846818
 40
0.5
100
AcDbArc
 50
270.0
 51
360.0
  0
LINE
  5
31D
100
AcDbEntity
  8
M0
 62
     7
100
AcDbLine
 10
221.628793
 20
759.346818
 11
221.628793
 21
756.646867
  0
LINE
  5
31E
100
AcDbEntity
  8
M0
 62
     7
100
AcDbLine
 10
214.128793
 20
759.346818
 11
214.128793
 21
756.646867
  0
LINE
  5
31F
100
AcDbEntity
  8
M0
 62
     7
100
AcDbLine
 10
214.128793
 20
756.646623
 11
209.878778
 21
756.646867
  0
LINE
  5
320
100
AcDbEntity
  8
M0
 62
     7
100
AcDbLine
 10
214.878793
 20
746.646867
 11
220.878793
 21
746.646867
  0
LINE
  5
321
100
AcDbEntity
  8
M0
 62
     7
100
AcDbLine
 10
214.878793
 20
751.146867
 11
220.878793
 21
751.146867
  0
LINE
  5
322
100
AcDbEntity
  8
M0
 62
     7
100
AcDbLine
 10
220.878793
 20
751.146867
 11
220.878793
 21
746.646867
  0
LINE
  5
323
100
AcDbEntity
  8
M0
 62
     7
100
AcDbLine
 10
214.878793
 20
751.146867
 11
214.878793
 21
746.646867
  0
LINE
  5
324
100
AcDbEntity
  8
M0
 62
     7
100
AcDbLine
 10
214.128793
 20
759.346864
 11
215.628793
 21
759.346864
  0
LINE
  5
325
100
AcDbEntity
  8
M0
 62
     7
100
AcDbLine
 10
215.628793
 20
759.846864
 11
220.128793
 21
759.846864
  0
LINE
  5
326
100
AcDbEntity
  8
M0
 62
     7
100
AcDbLine
 10
214.128793
 20
758.346864
 11
221.628793
 21
758.346864
  0
LINE
  5
327
100
AcDbEntity
  8
M0
 62
     7
100
AcDbLine
 10
220.128793
 20
759.846864
 11
220.128793
 21
758.346864
  0
LINE
  5
328
100
AcDbEntity
  8
M0
 62
     7
100
AcDbLine
 10
215.628793
 20
759.846864
 11
215.628793
 21
758.346864
  0
LINE
  5
329
100
AcDbEntity
  8
M0
 62
     7
100
AcDbLine
 10
220.128793
 20
759.346864
 11
221.628793
 21
759.346864
  0
LINE
  5
32A
100
AcDbEntity
  8
M0
100
AcDbLine
 10
187.878793
 20
857.546525
 11
247.878595
 21
857.546525
  0
LINE
  5
32B
100
AcDbEntity
  8
M0
100
AcDbLine
 10
247.878595
 20
857.546525
 11
247.878595
 21
873.546525
  0
LINE
  5
32C
100
AcDbEntity
  8
M0
100
AcDbLine
 10
247.878595
 20
873.546525
 11
237.378595
 21
873.546281
  0
LINE
  5
32D
100
AcDbEntity
  8
M0
100
AcDbLine
 10
187.878793
 20
873.546525
 11
187.878793
 21
857.546525
  0
LINE
  5
32E
100
AcDbEntity
  8
M0
100
AcDbLine
 10
193.878793
 20
858.546525
 11
196.878793
 21
858.546525
  0
LINE
  5
32F
100
AcDbEntity
  8
M0
100
AcDbLine
 10
223.878793
 20
873.546525
 11
223.878793
 21
858.546525
  0
LINE
  5
330
100
AcDbEntity
  8
M0
100
AcDbLine
 10
211.878793
 20
873.546525
 11
211.878793
 21
858.546525
  0
LINE
  5
331
100
AcDbEntity
  8
M0
100
AcDbLine
 10
208.878793
 20
873.546525
 11
208.878793
 21
858.546525
  0
LINE
  5
332
100
AcDbEntity
  8
M0
100
AcDbLine
 10
196.878793
 20
873.546525
 11
196.878793
 21
858.546525
  0
LINE
  5
333
100
AcDbEntity
  8
M0
100
AcDbLine
 10
226.878595
 20
873.546525
 11
226.878595
 21
858.546525
  0
LINE
  5
334
100
AcDbEntity
  8
M0
100
AcDbLine
 10
238.878595
 20
873.546525
 11
238.878595
 21
858.546525
  0
LINE
  5
335
100
AcDbEntity
  8
M0
100
AcDbLine
 10
241.878595
 20
873.546525
 11
241.878595
 21
858.546525
  0
LINE
  5
336
100
AcDbEntity
  8
M0
100
AcDbLine
 10
193.878793
 20
873.546525
 11
193.878793
 21
858.546525
  0
LINE
  5
337
100
AcDbEntity
  8
M0
100
AcDbLine
 10
208.878793
 20
858.546525
 11
211.878793
 21
858.546525
  0
LINE
  5
338
100
AcDbEntity
  8
M0
100
AcDbLine
 10
223.878793
 20
858.546525
 11
226.878595
 21
858.546525
  0
LINE
  5
339
100
AcDbEntity
  8
M0
100
AcDbLine
 10
238.878595
 20
858.546525
 11
241.878595
 21
858.546525
  0
LINE
  5
33A
100
AcDbEntity
  8
M0
100
AcDbLine
 10
237.378595
 20
871.546281
 11
237.128595
 21
871.546037
  0
LINE
  5
33B
100
AcDbEntity
  8
M0
100
AcDbLine
 10
207.378793
 20
873.546525
 11
207.378793
 21
871.546525
  0
LINE
  5
33C
100
AcDbEntity
  8
M0
100
AcDbLine
 10
198.378793
 20
873.546525
 11
198.378793
 21
871.546525
  0
LINE
  5
33D
100
AcDbEntity
  8
M0
100
AcDbLine
 10
222.378793
 20
873.546525
 11
222.378793
 21
871.546525
  0
LINE
  5
33E
100
AcDbEntity
  8
M0
100
AcDbLine
 10
213.378793
 20
873.546525
 11
213.378793
 21
871.546525
  0
LINE
  5
33F
100
AcDbEntity
  8
M0
100
AcDbLine
 10
237.378595
 20
873.546525
 11
237.378595
 21
871.546525
  0
LINE
  5
340
100
AcDbEntity
  8
M0
100
AcDbLine
 10
228.378595
 20
873.546525
 11
228.378595
 21
871.546525
  0
LINE
  5
341
100
AcDbEntity
  8
M0
100
AcDbLine
 10
207.378793
 20
871.546037
 11
207.128992
 21
871.545793
  0
LINE
  5
342
100
AcDbEntity
  8
M0
100
AcDbLine
 10
222.378793
 20
871.546037
 11
222.128793
 21
871.545793
  0
LINE
  5
343
100
AcDbEntity
  8
M0
100
AcDbLine
 10
198.378793
 20
873.546281
 11
187.878793
 21
873.546525
  0
LINE
  5
344
100
AcDbEntity
  8
M0
100
AcDbLine
 10
213.378793
 20
873.546281
 11
207.378793
 21
873.546281
  0
LINE
  5
345
100
AcDbEntity
  8
M0
100
AcDbLine
 10
228.378595
 20
873.546281
 11
222.378793
 21
873.546281
  0
LINE
  5
346
100
AcDbEntity
  8
M0
100
AcDbLine
 10
196.878793
 20
861.546525
 11
198.628976
 21
861.546525
  0
LINE
  5
347
100
AcDbEntity
  8
M0
100
AcDbLine
 10
207.128992
 20
861.546525
 11
208.878793
 21
861.546525
  0
LINE
  5
348
100
AcDbEntity
  8
M0
100
AcDbLine
 10
211.878793
 20
861.546525
 11
213.628778
 21
861.546525
  0
LINE
  5
349
100
AcDbEntity
  8
M0
100
AcDbLine
 10
222.128793
 20
861.546525
 11
223.878793
 21
861.546525
  0
LINE
  5
34A
100
AcDbEntity
  8
M0
100
AcDbLine
 10
226.878595
 20
861.546525
 11
228.628595
 21
861.546525
  0
LINE
  5
34B
100
AcDbEntity
  8
M0
100
AcDbLine
 10
237.128595
 20
861.546525
 11
238.878595
 21
861.546525
  0
LINE
  5
34C
100
AcDbEntity
  8
M0
100
AcDbLine
 10
198.628976
 20
871.545793
 11
198.378793
 21
871.546281
  0
LINE
  5
34D
100
AcDbEntity
  8
M0
100
AcDbLine
 10
213.628778
 20
871.545793
 11
213.378793
 21
871.546037
  0
LINE
  5
34E
100
AcDbEntity
  8
M0
100
AcDbLine
 10
228.628595
 20
871.546037
 11
228.378595
 21
871.546037
  0
LINE
  5
34F
100
AcDbEntity
  8
M0
 62
     7
100
AcDbLine
 10
228.628595
 20
858.546281
 11
237.128595
 21
858.546281
  0
LINE
  5
350
100
AcDbEntity
  8
M0
 62
     7
100
AcDbLine
 10
237.128595
 20
858.546281
 11
237.128595
 21
864.014299
  0
LINE
  5
351
100
AcDbEntity
  8
M0
 62
     7
100
AcDbLine
 10
237.128595
 20
872.546281
 11
228.628595
 21
872.546281
  0
LINE
  5
352
100
AcDbEntity
  8
M0
 62
     7
100
AcDbLine
 10
228.628595
 20
872.546281
 11
228.628595
 21
869.046037
  0
LINE
  5
353
100
AcDbEntity
  8
M0
 62
     7
100
AcDbLine
 10
228.628595
 20
859.546281
 11
237.128595
 21
859.546281
  0
LINE
  5
354
100
AcDbEntity
  8
M0
 62
     7
100
AcDbLine
 10
235.378595
 20
859.546281
 11
235.378595
 21
858.546281
  0
LINE
  5
355
100
AcDbEntity
  8
M0
 62
     7
100
AcDbLine
 10
230.378595
 20
859.546281
 11
230.378595
 21
858.546281
  0
LINE
  5
356
100
AcDbEntity
  8
M0
 62
     7
100
AcDbLine
 10
228.628595
 20
864.014299
 11
228.628595
 21
858.546281
  0
LINE
  5
357
100
AcDbEntity
  8
M0
 62
     7
100
AcDbLine
 10
237.128595
 20
869.045793
 11
237.128595
 21
872.546281
  0
LINE
  5
358
100
AcDbEntity
  8
M0
 62
     7
100
AcDbLine
 10
207.128976
 20
858.546281
 11
198.628976
 21
858.546281
  0
LINE
  5
359
100
AcDbEntity
  8
M0
 62
     7
100
AcDbLine
 10
198.628976
 20
858.546281
 11
198.628976
 21
864.014055
  0
LINE
  5
35A
100
AcDbEntity
  8
M0
 62
     7
100
AcDbLine
 10
198.628992
 20
872.546281
 11
207.128992
 21
872.546037
  0
LINE
  5
35B
100
AcDbEntity
  8
M0
 62
     7
100
AcDbLine
 10
207.128992
 20
872.546037
 11
207.128992
 21
869.045549
  0
LINE
  5
35C
100
AcDbEntity
  8
M0
 62
     7
100
AcDbLine
 10
207.128976
 20
859.546281
 11
198.628976
 21
859.546281
  0
LINE
  5
35D
100
AcDbEntity
  8
M0
 62
     7
100
AcDbLine
 10
200.378976
 20
859.546281
 11
200.378976
 21
858.546281
  0
LINE
  5
35E
100
AcDbEntity
  8
M0
 62
     7
100
AcDbLine
 10
205.378976
 20
859.546281
 11
205.378976
 21
858.546281
  0
LINE
  5
35F
100
AcDbEntity
  8
M0
 62
     7
100
AcDbLine
 10
198.628976
 20
869.045793
 11
198.628992
 21
872.546281
  0
LINE
  5
360
100
AcDbEntity
  8
M0
 62
     7
100
AcDbLine
 10
207.128992
 20
864.014055
 11
207.128976
 21
858.546037
  0
LINE
  5
361
100
AcDbEntity
  8
M0
 62
     7
100
AcDbLine
 10
222.128778
 20
858.546281
 11
213.628778
 21
858.546281
  0
LINE
  5
362
100
AcDbEntity
  8
M0
 62
     7
100
AcDbLine
 10
213.628778
 20
858.546281
 11
213.628778
 21
864.014055
  0
LINE
  5
363
100
AcDbEntity
  8
M0
 62
     7
100
AcDbLine
 10
213.628793
 20
872.546281
 11
222.128793
 21
872.546037
  0
LINE
  5
364
100
AcDbEntity
  8
M0
 62
     7
100
AcDbLine
 10
222.128793
 20
872.546037
 11
222.128793
 21
869.045549
  0
LINE
  5
365
100
AcDbEntity
  8
M0
 62
     7
100
AcDbLine
 10
222.128778
 20
859.546281
 11
213.628778
 21
859.546281
  0
LINE
  5
366
100
AcDbEntity
  8
M0
 62
     7
100
AcDbLine
 10
215.378778
 20
859.546281
 11
215.378778
 21
858.546281
  0
LINE
  5
367
100
AcDbEntity
  8
M0
 62
     7
100
AcDbLine
 10
220.378778
 20
859.546281
 11
220.378778
 21
858.546281
  0
LINE
  5
368
100
AcDbEntity
  8
M0
 62
     7
100
AcDbLine
 10
213.628778
 20
869.045793
 11
213.628793
 21
872.546281
  0
LINE
  5
369
100
AcDbEntity
  8
M0
 62
     7
100
AcDbLine
 10
222.128793
 20
864.01381
 11
222.128778
 21
858.546037
  0
LINE
  5
36A
100
AcDbEntity
  8
M0
100
AcDbLine
 10
199.378793
 20
862.046525
 11
206.378793
 21
862.046525
  0
LINE
  5
36B
100
AcDbEntity
  8
M0
100
AcDbLine
 10
208.628793
 20
864.046525
 11
208.628793
 21
869.046281
  0
LINE
  5
36C
100
AcDbEntity
  8
M0
100
AcDbLine
 10
204.378793
 20
871.046281
 11
201.378793
 21
871.046281
  0
LINE
  5
36D
100
AcDbEntity
  8
M0
100
AcDbLine
 10
197.128793
 20
869.046037
 11
197.128793
 21
864.046525
  0
LINE
  5
36E
100
AcDbEntity
  8
M0
100
AcDbLine
 10
208.628793
 20
869.046525
 11
205.878793
 21
869.046525
  0
LINE
  5
36F
100
AcDbEntity
  8
M0
100
AcDbLine
 10
204.378793
 20
871.046525
 11
204.378793
 21
870.546281
  0
LINE
  5
370
100
AcDbEntity
  8
M0
100
AcDbLine
 10
201.378793
 20
871.046525
 11
201.378793
 21
870.546037
  0
LINE
  5
371
100
AcDbEntity
  8
M0
100
AcDbLine
 10
199.878793
 20
869.046281
 11
197.128793
 21
869.046525
  0
LINE
  5
372
100
AcDbEntity
  8
M0
100
AcDbLine
 10
204.378793
 20
869.046281
 11
201.378793
 21
869.046281
  0
LINE
  5
373
100
AcDbEntity
  8
M0
100
AcDbLine
 10
197.128793
 20
864.046525
 11
198.378793
 21
864.046525
  0
LINE
  5
374
100
AcDbEntity
  8
M0
100
AcDbLine
 10
206.378793
 20
863.046525
 11
206.378793
 21
862.046525
  0
LINE
  5
375
100
AcDbEntity
  8
M0
100
AcDbLine
 10
199.378793
 20
863.046525
 11
199.378793
 21
862.046525
  0
LINE
  5
376
100
AcDbEntity
  8
M0
100
AcDbLine
 10
207.378793
 20
864.046525
 11
208.628793
 21
864.046525
  0
ARC
  5
377
100
AcDbEntity
  8
M0
100
AcDbCircle
 10
205.878793
 20
870.546281
 40
1.5
100
AcDbArc
 50
179.999417
 51
270.0
  0
ARC
  5
378
100
AcDbEntity
  8
M0
100
AcDbCircle
 10
199.878793
 20
870.546037
 40
1.5
100
AcDbArc
 50
270.0
 51
360.0
  0
ARC
  5
379
100
AcDbEntity
  8
M0
100
AcDbCircle
 10
207.378793
 20
863.046525
 40
1.0
100
AcDbArc
 50
89.999126
 51
179.999126
  0
ARC
  5
37A
100
AcDbEntity
  8
M0
100
AcDbCircle
 10
198.378793
 20
863.046525
 40
1.0
100
AcDbArc
 50
0.0
 51
89.999126
  0
LINE
  5
37B
100
AcDbEntity
  8
M0
100
AcDbLine
 10
236.378351
 20
862.046037
 11
229.378595
 21
862.046037
  0
LINE
  5
37C
100
AcDbEntity
  8
M0
100
AcDbLine
 10
227.128595
 20
864.046037
 11
227.128595
 21
869.045793
  0
LINE
  5
37D
100
AcDbEntity
  8
M0
100
AcDbLine
 10
231.378595
 20
871.045793
 11
234.378595
 21
871.045549
  0
LINE
  5
37E
100
AcDbEntity
  8
M0
100
AcDbLine
 10
238.628595
 20
869.045305
 11
238.628351
 21
864.046037
  0
LINE
  5
37F
100
AcDbEntity
  8
M0
100
AcDbLine
 10
227.128595
 20
869.046037
 11
229.878595
 21
869.046037
  0
LINE
  5
380
100
AcDbEntity
  8
M0
100
AcDbLine
 10
231.378595
 20
871.046037
 11
231.378595
 21
870.545793
  0
LINE
  5
381
100
AcDbEntity
  8
M0
100
AcDbLine
 10
234.378595
 20
871.045793
 11
234.378595
 21
870.545305
  0
LINE
  5
382
100
AcDbEntity
  8
M0
100
AcDbLine
 10
235.878595
 20
869.045549
 11
238.628595
 21
869.045793
  0
LINE
  5
383
100
AcDbEntity
  8
M0
100
AcDbLine
 10
231.378595
 20
869.045793
 11
234.378595
 21
869.045549
  0
LINE
  5
384
100
AcDbEntity
  8
M0
100
AcDbLine
 10
238.628351
 20
864.046037
 11
237.378351
 21
864.046037
  0
LINE
  5
385
100
AcDbEntity
  8
M0
100
AcDbLine
 10
229.378595
 20
863.046037
 11
229.378595
 21
862.046037
  0
LINE
  5
386
100
AcDbEntity
  8
M0
100
AcDbLine
 10
236.378351
 20
863.046037
 11
236.378351
 21
862.046037
  0
LINE
  5
387
100
AcDbEntity
  8
M0
100
AcDbLine
 10
228.378595
 20
864.046037
 11
227.128595
 21
864.046037
  0
ARC
  5
388
100
AcDbEntity
  8
M0
100
AcDbCircle
 10
229.878595
 20
870.545793
 40
1.5
100
AcDbArc
 50
-90.0
 51
0.0
  0
ARC
  5
389
100
AcDbEntity
  8
M0
100
AcDbCircle
 10
235.878595
 20
870.545305
 40
1.5
100
AcDbArc
 50
179.999417
 51
270.0
  0
ARC
  5
38A
100
AcDbEntity
  8
M0
100
AcDbCircle
 10
228.378595
 20
863.046037
 40
1.0
100
AcDbArc
 50
0.0
 51
89.999126
  0
ARC
  5
38B
100
AcDbEntity
  8
M0
100
AcDbCircle
 10
237.378351
 20
863.046037
 40
1.0
100
AcDbArc
 50
89.999126
 51
179.999126
  0
LINE
  5
38C
100
AcDbEntity
  8
M0
100
AcDbLine
 10
214.378793
 20
862.046525
 11
221.378793
 21
862.046525
  0
LINE
  5
38D
100
AcDbEntity
  8
M0
100
AcDbLine
 10
223.628793
 20
864.046525
 11
223.628793
 21
869.046281
  0
LINE
  5
38E
100
AcDbEntity
  8
M0
100
AcDbLine
 10
219.378793
 20
871.046281
 11
216.378793
 21
871.046281
  0
LINE
  5
38F
100
AcDbEntity
  8
M0
100
AcDbLine
 10
212.128793
 20
869.046037
 11
212.128793
 21
864.046525
  0
LINE
  5
390
100
AcDbEntity
  8
M0
100
AcDbLine
 10
223.628793
 20
869.046525
 11
220.878793
 21
869.046525
  0
LINE
  5
391
100
AcDbEntity
  8
M0
100
AcDbLine
 10
219.378793
 20
871.046525
 11
219.378793
 21
870.546281
  0
LINE
  5
392
100
AcDbEntity
  8
M0
100
AcDbLine
 10
216.378793
 20
871.046525
 11
216.378793
 21
870.546037
  0
LINE
  5
393
100
AcDbEntity
  8
M0
100
AcDbLine
 10
214.878793
 20
869.046281
 11
212.128793
 21
869.046525
  0
LINE
  5
394
100
AcDbEntity
  8
M0
100
AcDbLine
 10
219.378793
 20
869.046281
 11
216.378793
 21
869.046281
  0
LINE
  5
395
100
AcDbEntity
  8
M0
100
AcDbLine
 10
212.128793
 20
864.046525
 11
213.378793
 21
864.046525
  0
LINE
  5
396
100
AcDbEntity
  8
M0
100
AcDbLine
 10
221.378793
 20
863.046525
 11
221.378793
 21
862.046525
  0
LINE
  5
397
100
AcDbEntity
  8
M0
100
AcDbLine
 10
214.378793
 20
863.046525
 11
214.378793
 21
862.046525
  0
LINE
  5
398
100
AcDbEntity
  8
M0
100
AcDbLine
 10
222.378793
 20
864.046525
 11
223.628793
 21
864.046525
  0
ARC
  5
399
100
AcDbEntity
  8
M0
100
AcDbCircle
 10
220.878793
 20
870.546281
 40
1.5
100
AcDbArc
 50
179.999417
 51
270.0
  0
ARC
  5
39A
100
AcDbEntity
  8
M0
100
AcDbCircle
 10
214.878793
 20
870.546037
 40
1.5
100
AcDbArc
 50
270.0
 51
360.0
  0
ARC
  5
39B
100
AcDbEntity
  8
M0
100
AcDbCircle
 10
222.378793
 20
863.046525
 40
1.0
100
AcDbArc
 50
89.999126
 51
179.999126
  0
ARC
  5
39C
100
AcDbEntity
  8
M0
100
AcDbCircle
 10
213.378793
 20
863.046525
 40
1.0
100
AcDbArc
 50
0.0
 51
89.999126
  0
CIRCLE
  5
39D
100
AcDbEntity
  8
M0
 62
     5
100
AcDbCircle
 10
202.878793
 20
865.546037
 40
3.299995
  0
CIRCLE
  5
39E
100
AcDbEntity
  8
M0
 62
     5
100
AcDbCircle
 10
217.878793
 20
865.546037
 40
3.299995
  0
CIRCLE
  5
39F
100
AcDbEntity
  8
M0
 62
     5
100
AcDbCircle
 10
232.878595
 20
865.545305
 40
3.299995
  0
CIRCLE
  5
3A0
100
AcDbEntity
  8
M0
100
AcDbCircle
 10
202.878809
 20
865.546037
 40
3.0
  0
LINE
  5
3A1
100
AcDbEntity
  8
M0
100
AcDbLine
 10
203.868753
 20
863.848771
 11
204.575861
 21
864.556047
  0
LINE
  5
3A2
100
AcDbEntity
  8
M0
100
AcDbLine
 10
204.575861
 20
864.556047
 11
203.585901
 21
865.545793
  0
LINE
  5
3A3
100
AcDbEntity
  8
M0
100
AcDbLine
 10
201.888849
 20
867.243059
 11
201.181757
 21
866.535783
  0
LINE
  5
3A4
100
AcDbEntity
  8
M0
100
AcDbLine
 10
201.181757
 20
866.535783
 11
202.171701
 21
865.546037
  0
LINE
  5
3A5
100
AcDbEntity
  8
M0
100
AcDbLine
 10
200.433588
 20
863.807756
 11
202.171701
 21
865.546037
  0
LINE
  5
3A6
100
AcDbEntity
  8
M0
100
AcDbLine
 10
201.140695
 20
863.100725
 11
202.878793
 21
864.838762
  0
LINE
  5
3A7
100
AcDbEntity
  8
M0
100
AcDbLine
 10
205.323999
 20
867.284074
 11
203.585901
 21
865.545793
  0
LINE
  5
3A8
100
AcDbEntity
  8
M0
100
AcDbLine
 10
204.616891
 20
867.991105
 11
202.878809
 21
866.253068
  0
LINE
  5
3A9
100
AcDbEntity
  8
M0
100
AcDbLine
 10
203.868753
 20
863.848771
 11
202.878793
 21
864.838762
  0
LINE
  5
3AA
100
AcDbEntity
  8
M0
100
AcDbLine
 10
201.888849
 20
867.243059
 11
202.878809
 21
866.253068
  0
LINE
  5
3AB
100
AcDbEntity
  8
M0
100
AcDbLine
 10
197.678659
 20
865.546037
 11
208.078943
 21
865.545793
  0
LINE
  5
3AC
100
AcDbEntity
  8
M0
100
AcDbLine
 10
202.878793
 20
860.345842
 11
202.878809
 21
870.745988
  0
CIRCLE
  5
3AD
100
AcDbEntity
  8
M0
100
AcDbCircle
 10
217.878809
 20
865.546037
 40
3.0
  0
LINE
  5
3AE
100
AcDbEntity
  8
M0
100
AcDbLine
 10
218.868753
 20
863.848771
 11
219.575861
 21
864.556047
  0
LINE
  5
3AF
100
AcDbEntity
  8
M0
100
AcDbLine
 10
219.575861
 20
864.556047
 11
218.585901
 21
865.545793
  0
LINE
  5
3B0
100
AcDbEntity
  8
M0
100
AcDbLine
 10
216.888849
 20
867.243059
 11
216.181757
 21
866.535783
  0
LINE
  5
3B1
100
AcDbEntity
  8
M0
100
AcDbLine
 10
216.181757
 20
866.535783
 11
217.171701
 21
865.546037
  0
LINE
  5
3B2
100
AcDbEntity
  8
M0
100
AcDbLine
 10
215.433588
 20
863.807756
 11
217.171701
 21
865.546037
  0
LINE
  5
3B3
100
AcDbEntity
  8
M0
100
AcDbLine
 10
216.140695
 20
863.100725
 11
217.878793
 21
864.838762
  0
LINE
  5
3B4
100
AcDbEntity
  8
M0
100
AcDbLine
 10
220.323999
 20
867.284074
 11
218.585901
 21
865.545793
  0
LINE
  5
3B5
100
AcDbEntity
  8
M0
100
AcDbLine
 10
219.616891
 20
867.991105
 11
217.878809
 21
866.253068
  0
LINE
  5
3B6
100
AcDbEntity
  8
M0
100
AcDbLine
 10
218.868753
 20
863.848771
 11
217.878793
 21
864.838762
  0
LINE
  5
3B7
100
AcDbEntity
  8
M0
100
AcDbLine
 10
216.888849
 20
867.243059
 11
217.878809
 21
866.253068
  0
LINE
  5
3B8
100
AcDbEntity
  8
M0
100
AcDbLine
 10
212.678659
 20
865.546037
 11
223.078943
 21
865.545793
  0
CIRCLE
  5
3B9
100
AcDbEntity
  8
M0
100
AcDbCircle
 10
232.878595
 20
865.545305
 40
3.0
  0
LINE
  5
3BA
100
AcDbEntity
  8
M0
100
AcDbLine
 10
233.868341
 20
863.848039
 11
234.575616
 21
864.555314
  0
LINE
  5
3BB
100
AcDbEntity
  8
M0
100
AcDbLine
 10
234.575616
 20
864.555314
 11
233.585626
 21
865.54506
  0
LINE
  5
3BC
100
AcDbEntity
  8
M0
100
AcDbLine
 10
231.888605
 20
867.242326
 11
231.181329
 21
866.535051
  0
LINE
  5
3BD
100
AcDbEntity
  8
M0
100
AcDbLine
 10
231.181329
 20
866.535051
 11
232.17132
 21
865.545305
  0
LINE
  5
3BE
100
AcDbEntity
  8
M0
100
AcDbLine
 10
230.433282
 20
863.807023
 11
232.17132
 21
865.545305
  0
LINE
  5
3BF
100
AcDbEntity
  8
M0
100
AcDbLine
 10
231.140314
 20
863.099992
 11
232.878595
 21
864.838029
  0
LINE
  5
3C0
100
AcDbEntity
  8
M0
100
AcDbLine
 10
235.323663
 20
867.283342
 11
233.585626
 21
865.54506
  0
LINE
  5
3C1
100
AcDbEntity
  8
M0
100
AcDbLine
 10
234.616632
 20
867.990373
 11
232.878595
 21
866.252336
  0
LINE
  5
3C2
100
AcDbEntity
  8
M0
100
AcDbLine
 10
233.868341
 20
863.848039
 11
232.878595
 21
864.838029
  0
LINE
  5
3C3
100
AcDbEntity
  8
M0
100
AcDbLine
 10
231.888605
 20
867.242326
 11
232.878595
 21
866.252336
  0
LINE
  5
3C4
100
AcDbEntity
  8
M0
100
AcDbLine
 10
227.6784
 20
865.545305
 11
238.078546
 21
865.54506
  0
LINE
  5
3C5
100
AcDbEntity
  8
M0
100
AcDbLine
 10
232.878595
 20
860.345109
 11
232.878595
 21
870.745256
  0
LINE
  5
3C6
100
AcDbEntity
  8
M0
 62
     2
100
AcDbLine
 10
275.728784
 20
771.646867
 11
282.278772
 21
771.646867
  0
LINE
  5
3C7
100
AcDbEntity
  8
M0
 62
     2
100
AcDbLine
 10
282.82879
 20
769.746965
 11
282.82879
 21
763.147355
  0
LINE
  5
3C8
100
AcDbEntity
  8
M0
 62
     2
100
AcDbLine
 10
281.82879
 20
762.146867
 11
275.928781
 21
762.146867
  0
LINE
  5
3C9
100
AcDbEntity
  8
M0
 62
     2
100
AcDbLine
 10
274.928781
 20
763.147111
 11
274.928781
 21
769.746965
  0
ARC
  5
3CA
100
AcDbEntity
  8
M0
 62
     2
100
AcDbCircle
 10
281.82879
 20
763.147111
 40
1.0
100
AcDbArc
 50
-90.0
 51
0.013988
  0
ARC
  5
3CB
100
AcDbEntity
  8
M0
 62
     2
100
AcDbCircle
 10
275.928781
 20
763.147111
 40
1.0
100
AcDbArc
 50
179.999126
 51
270.0
  0
LINE
  5
3CC
100
AcDbEntity
  8
M0
 62
     2
100
AcDbLine
 10
282.028787
 20
770.646867
 11
282.278772
 21
770.646867
  0
LINE
  5
3CD
100
AcDbEntity
  8
M0
 62
     2
100
AcDbLine
 10
275.128778
 20
769.946916
 11
275.228784
 21
769.946916
  0
LINE
  5
3CE
100
AcDbEntity
  8
M0
 62
     2
100
AcDbLine
 10
282.028787
 20
770.446916
 11
282.028787
 21
771.646867
  0
LINE
  5
3CF
100
AcDbEntity
  8
M0
 62
     2
100
AcDbLine
 10
275.728784
 20
770.446916
 11
275.728784
 21
771.646867
  0
LINE
  5
3D0
100
AcDbEntity
  8
M0
 62
     2
100
AcDbLine
 10
282.528787
 20
769.946916
 11
282.628778
 21
769.946916
  0
ARC
  5
3D1
100
AcDbEntity
  8
M0
 62
     2
100
AcDbCircle
 10
275.128778
 20
769.746965
 40
0.2
100
AcDbArc
 50
89.995629
 51
179.995629
  0
ARC
  5
3D2
100
AcDbEntity
  8
M0
 62
     2
100
AcDbCircle
 10
282.628778
 20
769.746965
 40
0.2
100
AcDbArc
 50
0.0
 51
89.995629
  0
ARC
  5
3D3
100
AcDbEntity
  8
M0
 62
     2
100
AcDbCircle
 10
282.528787
 20
770.446916
 40
0.5
100
AcDbArc
 50
179.998251
 51
270.0
  0
ARC
  5
3D4
100
AcDbEntity
  8
M0
 62
     2
100
AcDbCircle
 10
275.228784
 20
770.446916
 40
0.5
100
AcDbArc
 50
-90.0
 51
0.0
  0
LINE
  5
3D5
100
AcDbEntity
  8
M0
 62
     2
100
AcDbLine
 10
282.278772
 20
770.646867
 11
282.278772
 21
771.646867
  0
LINE
  5
3D6
100
AcDbEntity
  8
M0
 62
     2
100
AcDbLine
 10
275.728784
 20
762.146867
 11
282.278772
 21
762.146867
  0
LINE
  5
3D7
100
AcDbEntity
  8
M0
 62
     2
100
AcDbLine
 10
282.82879
 20
760.246965
 11
282.82879
 21
753.647355
  0
LINE
  5
3D8
100
AcDbEntity
  8
M0
 62
     2
100
AcDbLine
 10
281.82879
 20
752.646867
 11
275.928781
 21
752.646867
  0
LINE
  5
3D9
100
AcDbEntity
  8
M0
 62
     2
100
AcDbLine
 10
274.928781
 20
753.647111
 11
274.928781
 21
760.246965
  0
ARC
  5
3DA
100
AcDbEntity
  8
M0
 62
     2
100
AcDbCircle
 10
281.82879
 20
753.647111
 40
1.0
100
AcDbArc
 50
-90.0
 51
0.013988
  0
ARC
  5
3DB
100
AcDbEntity
  8
M0
 62
     2
100
AcDbCircle
 10
275.928781
 20
753.647111
 40
1.0
100
AcDbArc
 50
179.999126
 51
270.0
  0
LINE
  5
3DC
100
AcDbEntity
  8
M0
 62
     2
100
AcDbLine
 10
282.028787
 20
761.146867
 11
282.278772
 21
761.146867
  0
LINE
  5
3DD
100
AcDbEntity
  8
M0
 62
     2
100
AcDbLine
 10
275.128778
 20
760.446916
 11
275.228784
 21
760.446916
  0
LINE
  5
3DE
100
AcDbEntity
  8
M0
 62
     2
100
AcDbLine
 10
282.028787
 20
760.946916
 11
282.028787
 21
762.146867
  0
LINE
  5
3DF
100
AcDbEntity
  8
M0
 62
     2
100
AcDbLine
 10
275.728784
 20
760.946916
 11
275.728784
 21
762.146867
  0
LINE
  5
3E0
100
AcDbEntity
  8
M0
 62
     2
100
AcDbLine
 10
282.528787
 20
760.446916
 11
282.628778
 21
760.446916
  0
ARC
  5
3E1
100
AcDbEntity
  8
M0
 62
     2
100
AcDbCircle
 10
275.128778
 20
760.246965
 40
0.2
100
AcDbArc
 50
89.995629
 51
179.995629
  0
ARC
  5
3E2
100
AcDbEntity
  8
M0
 62
     2
100
AcDbCircle
 10
282.628778
 20
760.246965
 40
0.2
100
AcDbArc
 50
0.0
 51
89.995629
  0
ARC
  5
3E3
100
AcDbEntity
  8
M0
 62
     2
100
AcDbCircle
 10
282.528787
 20
760.946916
 40
0.5
100
AcDbArc
 50
179.998251
 51
270.0
  0
ARC
  5
3E4
100
AcDbEntity
  8
M0
 62
     2
100
AcDbCircle
 10
275.228784
 20
760.946916
 40
0.5
100
AcDbArc
 50
-90.0
 51
0.0
  0
LINE
  5
3E5
100
AcDbEntity
  8
M0
 62
     2
100
AcDbLine
 10
282.278772
 20
761.146867
 11
282.278772
 21
762.146867
  0
LINE
  5
3E6
100
AcDbEntity
  8
M0
 62
     2
100
AcDbLine
 10
153.728784
 20
762.146867
 11
160.278772
 21
762.146867
  0
LINE
  5
3E7
100
AcDbEntity
  8
M0
 62
     2
100
AcDbLine
 10
160.82879
 20
760.246965
 11
160.82879
 21
753.647355
  0
LINE
  5
3E8
100
AcDbEntity
  8
M0
 62
     2
100
AcDbLine
 10
159.82879
 20
752.646867
 11
153.928781
 21
752.646867
  0
LINE
  5
3E9
100
AcDbEntity
  8
M0
 62
     2
100
AcDbLine
 10
152.928781
 20
753.647111
 11
152.928781
 21
760.246965
  0
ARC
  5
3EA
100
AcDbEntity
  8
M0
 62
     2
100
AcDbCircle
 10
159.82879
 20
753.647111
 40
1.0
100
AcDbArc
 50
-90.0
 51
0.013988
  0
ARC
  5
3EB
100
AcDbEntity
  8
M0
 62
     2
100
AcDbCircle
 10
153.928781
 20
753.647111
 40
1.0
100
AcDbArc
 50
179.999126
 51
270.0
  0
LINE
  5
3EC
100
AcDbEntity
  8
M0
 62
     2
100
AcDbLine
 10
160.028787
 20
761.146867
 11
160.278772
 21
761.146867
  0
LINE
  5
3ED
100
AcDbEntity
  8
M0
 62
     2
100
AcDbLine
 10
153.128778
 20
760.446916
 11
153.228784
 21
760.446916
  0
LINE
  5
3EE
100
AcDbEntity
  8
M0
 62
     2
100
AcDbLine
 10
160.028787
 20
760.946916
 11
160.028787
 21
762.146867
  0
LINE
  5
3EF
100
AcDbEntity
  8
M0
 62
     2
100
AcDbLine
 10
153.728784
 20
760.946916
 11
153.728784
 21
762.146867
  0
LINE
  5
3F0
100
AcDbEntity
  8
M0
 62
     2
100
AcDbLine
 10
160.528787
 20
760.446916
 11
160.628778
 21
760.446916
  0
ARC
  5
3F1
100
AcDbEntity
  8
M0
 62
     2
100
AcDbCircle
 10
153.128778
 20
760.246965
 40
0.2
100
AcDbArc
 50
89.995629
 51
179.995629
  0
ARC
  5
3F2
100
AcDbEntity
  8
M0
 62
     2
100
AcDbCircle
 10
160.628778
 20
760.246965
 40
0.2
100
AcDbArc
 50
0.0
 51
89.995629
  0
ARC
  5
3F3
100
AcDbEntity
  8
M0
 62
     2
100
AcDbCircle
 10
160.528787
 20
760.946916
 40
0.5
100
AcDbArc
 50
179.998251
 51
270.0
  0
ARC
  5
3F4
100
AcDbEntity
  8
M0
 62
     2
100
AcDbCircle
 10
153.228784
 20
760.946916
 40
0.5
100
AcDbArc
 50
-90.0
 51
0.0
  0
LINE
  5
3F5
100
AcDbEntity
  8
M0
 62
     2
100
AcDbLine
 10
160.278772
 20
761.146867
 11
160.278772
 21
762.146867
  0
LINE
  5
3F6
100
AcDbEntity
  8
M0
 62
     2
100
AcDbLine
 10
153.728784
 20
771.646867
 11
160.278772
 21
771.646867
  0
LINE
  5
3F7
100
AcDbEntity
  8
M0
 62
     2
100
AcDbLine
 10
160.82879
 20
769.746965
 11
160.82879
 21
763.147355
  0
LINE
  5
3F8
100
AcDbEntity
  8
M0
 62
     2
100
AcDbLine
 10
159.82879
 20
762.146867
 11
153.928781
 21
762.146867
  0
LINE
  5
3F9
100
AcDbEntity
  8
M0
 62
     2
100
AcDbLine
 10
152.928781
 20
763.147111
 11
152.928781
 21
769.746965
  0
ARC
  5
3FA
100
AcDbEntity
  8
M0
 62
     2
100
AcDbCircle
 10
159.82879
 20
763.147111
 40
1.0
100
AcDbArc
 50
-90.0
 51
0.013988
  0
ARC
  5
3FB
100
AcDbEntity
  8
M0
 62
     2
100
AcDbCircle
 10
153.928781
 20
763.147111
 40
1.0
100
AcDbArc
 50
179.999126
 51
270.0
  0
LINE
  5
3FC
100
AcDbEntity
  8
M0
 62
     2
100
AcDbLine
 10
160.028787
 20
770.646867
 11
160.278772
 21
770.646867
  0
LINE
  5
3FD
100
AcDbEntity
  8
M0
 62
     2
100
AcDbLine
 10
153.128778
 20
769.946916
 11
153.228784
 21
769.946916
  0
LINE
  5
3FE
100
AcDbEntity
  8
M0
 62
     2
100
AcDbLine
 10
160.028787
 20
770.446916
 11
160.028787
 21
771.646867
  0
LINE
  5
3FF
100
AcDbEntity
  8
M0
 62
     2
100
AcDbLine
 10
153.728784
 20
770.446916
 11
153.728784
 21
771.646867
  0
LINE
  5
400
100
AcDbEntity
  8
M0
 62
     2
100
AcDbLine
 10
160.528787
 20
769.946916
 11
160.628778
 21
769.946916
  0
ARC
  5
401
100
AcDbEntity
  8
M0
 62
     2
100
AcDbCircle
 10
153.128778
 20
769.746965
 40
0.2
100
AcDbArc
 50
89.995629
 51
179.995629
  0
ARC
  5
402
100
AcDbEntity
  8
M0
 62
     2
100
AcDbCircle
 10
160.628778
 20
769.746965
 40
0.2
100
AcDbArc
 50
0.0
 51
89.995629
  0
ARC
  5
403
100
AcDbEntity
  8
M0
 62
     2
100
AcDbCircle
 10
160.528787
 20
770.446916
 40
0.5
100
AcDbArc
 50
179.998251
 51
270.0
  0
ARC
  5
404
100
AcDbEntity
  8
M0
 62
     2
100
AcDbCircle
 10
153.228784
 20
770.446916
 40
0.5
100
AcDbArc
 50
-90.0
 51
0.0
  0
LINE
  5
405
100
AcDbEntity
  8
M0
 62
     2
100
AcDbLine
 10
160.278772
 20
770.646867
 11
160.278772
 21
771.646867
  0
LINE
  5
406
100
AcDbEntity
  8
M0
 62
     2
100
AcDbLine
 10
275.728784
 20
731.146867
 11
282.278772
 21
731.146867
  0
LINE
  5
407
100
AcDbEntity
  8
M0
 62
     2
100
AcDbLine
 10
282.82879
 20
733.046769
 11
282.82879
 21
739.646379
  0
LINE
  5
408
100
AcDbEntity
  8
M0
 62
     2
100
AcDbLine
 10
281.82879
 20
740.646867
 11
275.928781
 21
740.646867
  0
LINE
  5
409
100
AcDbEntity
  8
M0
 62
     2
100
AcDbLine
 10
274.928781
 20
739.646623
 11
274.928781
 21
733.046769
  0
ARC
  5
40A
100
AcDbEntity
  8
M0
 62
     2
100
AcDbCircle
 10
281.82879
 20
739.646623
 40
1.0
100
AcDbArc
 50
359.986012
 51
449.999126
  0
ARC
  5
40B
100
AcDbEntity
  8
M0
 62
     2
100
AcDbCircle
 10
275.928781
 20
739.646623
 40
1.0
100
AcDbArc
 50
89.999126
 51
179.999126
  0
LINE
  5
40C
100
AcDbEntity
  8
M0
 62
     2
100
AcDbLine
 10
282.028787
 20
732.146867
 11
282.278772
 21
732.146867
  0
LINE
  5
40D
100
AcDbEntity
  8
M0
 62
     2
100
AcDbLine
 10
275.128778
 20
732.846818
 11
275.228784
 21
732.846818
  0
LINE
  5
40E
100
AcDbEntity
  8
M0
 62
     2
100
AcDbLine
 10
282.028787
 20
732.346818
 11
282.028787
 21
731.146867
  0
LINE
  5
40F
100
AcDbEntity
  8
M0
 62
     2
100
AcDbLine
 10
275.728784
 20
732.346818
 11
275.728784
 21
731.146867
  0
LINE
  5
410
100
AcDbEntity
  8
M0
 62
     2
100
AcDbLine
 10
282.528787
 20
732.846818
 11
282.628778
 21
732.846818
  0
ARC
  5
411
100
AcDbEntity
  8
M0
 62
     2
100
AcDbCircle
 10
275.128778
 20
733.046769
 40
0.2
100
AcDbArc
 50
179.995629
 51
270.0
  0
ARC
  5
412
100
AcDbEntity
  8
M0
 62
     2
100
AcDbCircle
 10
282.628778
 20
733.046769
 40
0.2
100
AcDbArc
 50
270.0
 51
360.0
  0
ARC
  5
413
100
AcDbEntity
  8
M0
 62
     2
100
AcDbCircle
 10
282.528787
 20
732.346818
 40
0.5
100
AcDbArc
 50
89.998251
 51
179.998251
  0
ARC
  5
414
100
AcDbEntity
  8
M0
 62
     2
100
AcDbCircle
 10
275.228784
 20
732.346818
 40
0.5
100
AcDbArc
 50
0.0
 51
89.998251
  0
LINE
  5
415
100
AcDbEntity
  8
M0
 62
     2
100
AcDbLine
 10
282.278772
 20
732.146867
 11
282.278772
 21
731.146867
  0
LINE
  5
416
100
AcDbEntity
  8
M0
 62
     2
100
AcDbLine
 10
275.728784
 20
721.646867
 11
282.278772
 21
721.646867
  0
LINE
  5
417
100
AcDbEntity
  8
M0
 62
     2
100
AcDbLine
 10
282.82879
 20
723.546769
 11
282.82879
 21
730.146379
  0
LINE
  5
418
100
AcDbEntity
  8
M0
 62
     2
100
AcDbLine
 10
281.82879
 20
731.146867
 11
275.928781
 21
731.146867
  0
LINE
  5
419
100
AcDbEntity
  8
M0
 62
     2
100
AcDbLine
 10
274.928781
 20
730.146623
 11
274.928781
 21
723.546769
  0
ARC
  5
41A
100
AcDbEntity
  8
M0
 62
     2
100
AcDbCircle
 10
281.82879
 20
730.146623
 40
1.0
100
AcDbArc
 50
359.986012
 51
449.999126
  0
ARC
  5
41B
100
AcDbEntity
  8
M0
 62
     2
100
AcDbCircle
 10
275.928781
 20
730.146623
 40
1.0
100
AcDbArc
 50
89.999126
 51
179.999126
  0
LINE
  5
41C
100
AcDbEntity
  8
M0
 62
     2
100
AcDbLine
 10
282.028787
 20
722.646867
 11
282.278772
 21
722.646867
  0
LINE
  5
41D
100
AcDbEntity
  8
M0
 62
     2
100
AcDbLine
 10
275.128778
 20
723.346818
 11
275.228784
 21
723.346818
  0
LINE
  5
41E
100
AcDbEntity
  8
M0
 62
     2
100
AcDbLine
 10
282.028787
 20
722.846818
 11
282.028787
 21
721.646867
  0
LINE
  5
41F
100
AcDbEntity
  8
M0
 62
     2
100
AcDbLine
 10
275.728784
 20
722.846818
 11
275.728784
 21
721.646867
  0
LINE
  5
420
100
AcDbEntity
  8
M0
 62
     2
100
AcDbLine
 10
282.528787
 20
723.346818
 11
282.628778
 21
723.346818
  0
ARC
  5
421
100
AcDbEntity
  8
M0
 62
     2
100
AcDbCircle
 10
275.128778
 20
723.546769
 40
0.2
100
AcDbArc
 50
179.995629
 51
270.0
  0
ARC
  5
422
100
AcDbEntity
  8
M0
 62
     2
100
AcDbCircle
 10
282.628778
 20
723.546769
 40
0.2
100
AcDbArc
 50
270.0
 51
360.0
  0
ARC
  5
423
100
AcDbEntity
  8
M0
 62
     2
100
AcDbCircle
 10
282.528787
 20
722.846818
 40
0.5
100
AcDbArc
 50
89.998251
 51
179.998251
  0
ARC
  5
424
100
AcDbEntity
  8
M0
 62
     2
100
AcDbCircle
 10
275.228784
 20
722.846818
 40
0.5
100
AcDbArc
 50
0.0
 51
89.998251
  0
LINE
  5
425
100
AcDbEntity
  8
M0
 62
     2
100
AcDbLine
 10
282.278772
 20
722.646867
 11
282.278772
 21
721.646867
  0
LINE
  5
426
100
AcDbEntity
  8
M0
 62
     2
100
AcDbLine
 10
153.728784
 20
721.646867
 11
160.278772
 21
721.646867
  0
LINE
  5
427
100
AcDbEntity
  8
M0
 62
     2
100
AcDbLine
 10
160.82879
 20
723.546769
 11
160.82879
 21
730.146379
  0
LINE
  5
428
100
AcDbEntity
  8
M0
 62
     2
100
AcDbLine
 10
159.82879
 20
731.146867
 11
153.928781
 21
731.146867
  0
LINE
  5
429
100
AcDbEntity
  8
M0
 62
     2
100
AcDbLine
 10
152.928781
 20
730.146623
 11
152.928781
 21
723.546769
  0
ARC
  5
42A
100
AcDbEntity
  8
M0
 62
     2
100
AcDbCircle
 10
159.82879
 20
730.146623
 40
1.0
100
AcDbArc
 50
359.986012
 51
449.999126
  0
ARC
  5
42B
100
AcDbEntity
  8
M0
 62
     2
100
AcDbCircle
 10
153.928781
 20
730.146623
 40
1.0
100
AcDbArc
 50
89.999126
 51
179.999126
  0
LINE
  5
42C
100
AcDbEntity
  8
M0
 62
     2
100
AcDbLine
 10
160.028787
 20
722.646867
 11
160.278772
 21
722.646867
  0
LINE
  5
42D
100
AcDbEntity
  8
M0
 62
     2
100
AcDbLine
 10
153.128778
 20
723.346818
 11
153.228784
 21
723.346818
  0
LINE
  5
42E
100
AcDbEntity
  8
M0
 62
     2
100
AcDbLine
 10
160.028787
 20
722.846818
 11
160.028787
 21
721.646867
  0
LINE
  5
42F
100
AcDbEntity
  8
M0
 62
     2
100
AcDbLine
 10
153.728784
 20
722.846818
 11
153.728784
 21
721.646867
  0
LINE
  5
430
100
AcDbEntity
  8
M0
 62
     2
100
AcDbLine
 10
160.528787
 20
723.346818
 11
160.628778
 21
723.346818
  0
ARC
  5
431
100
AcDbEntity
  8
M0
 62
     2
100
AcDbCircle
 10
153.128778
 20
723.546769
 40
0.2
100
AcDbArc
 50
179.995629
 51
270.0
  0
ARC
  5
432
100
AcDbEntity
  8
M0
 62
     2
100
AcDbCircle
 10
160.628778
 20
723.546769
 40
0.2
100
AcDbArc
 50
270.0
 51
360.0
  0
ARC
  5
433
100
AcDbEntity
  8
M0
 62
     2
100
AcDbCircle
 10
160.528787
 20
722.846818
 40
0.5
100
AcDbArc
 50
89.998251
 51
179.998251
  0
ARC
  5
434
100
AcDbEntity
  8
M0
 62
     2
100
AcDbCircle
 10
153.228784
 20
722.846818
 40
0.5
100
AcDbArc
 50
0.0
 51
89.998251
  0
LINE
  5
435
100
AcDbEntity
  8
M0
 62
     2
100
AcDbLine
 10
160.278772
 20
722.646867
 11
160.278772
 21
721.646867
  0
LINE
  5
436
100
AcDbEntity
  8
M0
 62
     2
100
AcDbLine
 10
153.728784
 20
731.146867
 11
160.278772
 21
731.146867
  0
LINE
  5
437
100
AcDbEntity
  8
M0
 62
     2
100
AcDbLine
 10
160.82879
 20
733.046769
 11
160.82879
 21
739.646379
  0
LINE
  5
438
100
AcDbEntity
  8
M0
 62
     2
100
AcDbLine
 10
159.82879
 20
740.646867
 11
153.928781
 21
740.646867
  0
LINE
  5
439
100
AcDbEntity
  8
M0
 62
     2
100
AcDbLine
 10
152.928781
 20
739.646623
 11
152.928781
 21
733.046769
  0
ARC
  5
43A
100
AcDbEntity
  8
M0
 62
     2
100
AcDbCircle
 10
159.82879
 20
739.646623
 40
1.0
100
AcDbArc
 50
359.986012
 51
449.999126
  0
ARC
  5
43B
100
AcDbEntity
  8
M0
 62
     2
100
AcDbCircle
 10
153.928781
 20
739.646623
 40
1.0
100
AcDbArc
 50
89.999126
 51
179.999126
  0
LINE
  5
43C
100
AcDbEntity
  8
M0
 62
     2
100
AcDbLine
 10
160.028787
 20
732.146867
 11
160.278772
 21
732.146867
  0
LINE
  5
43D
100
AcDbEntity
  8
M0
 62
     2
100
AcDbLine
 10
153.128778
 20
732.846818
 11
153.228784
 21
732.846818
  0
LINE
  5
43E
100
AcDbEntity
  8
M0
 62
     2
100
AcDbLine
 10
160.028787
 20
732.346818
 11
160.028787
 21
731.146867
  0
LINE
  5
43F
100
AcDbEntity
  8
M0
 62
     2
100
AcDbLine
 10
153.728784
 20
732.346818
 11
153.728784
 21
731.146867
  0
LINE
  5
440
100
AcDbEntity
  8
M0
 62
     2
100
AcDbLine
 10
160.528787
 20
732.846818
 11
160.628778
 21
732.846818
  0
ARC
  5
441
100
AcDbEntity
  8
M0
 62
     2
100
AcDbCircle
 10
153.128778
 20
733.046769
 40
0.2
100
AcDbArc
 50
179.995629
 51
270.0
  0
ARC
  5
442
100
AcDbEntity
  8
M0
 62
     2
100
AcDbCircle
 10
160.628778
 20
733.046769
 40
0.2
100
AcDbArc
 50
270.0
 51
360.0
  0
ARC
  5
443
100
AcDbEntity
  8
M0
 62
     2
100
AcDbCircle
 10
160.528787
 20
732.346818
 40
0.5
100
AcDbArc
 50
89.998251
 51
179.998251
  0
ARC
  5
444
100
AcDbEntity
  8
M0
 62
     2
100
AcDbCircle
 10
153.228784
 20
732.346818
 40
0.5
100
AcDbArc
 50
0.0
 51
89.998251
  0
LINE
  5
445
100
AcDbEntity
  8
M0
 62
     2
100
AcDbLine
 10
160.278772
 20
732.146867
 11
160.278772
 21
731.146867
  0
LINE
  5
446
100
AcDbEntity
  8
M0
 62
     6
100
AcDbLine
 10
205.378793
 20
646.146867
 11
230.378793
 21
646.146867
  0
LINE
  5
447
100
AcDbEntity
  8
M0
 62
     6
100
AcDbLine
 10
207.878793
 20
677.146867
 11
205.378793
 21
672.646867
  0
LINE
  5
448
100
AcDbEntity
  8
M0
 62
     6
100
AcDbLine
 10
227.878793
 20
677.146867
 11
230.378793
 21
672.646867
  0
LINE
  5
449
100
AcDbEntity
  8
M0
 62
     6
100
AcDbLine
 10
207.878793
 20
681.646867
 11
207.878793
 21
677.146867
  0
LINE
  5
44A
100
AcDbEntity
  8
M0
 62
     6
100
AcDbLine
 10
227.878793
 20
681.646867
 11
227.878793
 21
677.146867
  0
LINE
  5
44B
100
AcDbEntity
  8
M0
 62
     6
100
AcDbLine
 10
230.378793
 20
646.146867
 11
230.378793
 21
672.646867
  0
LINE
  5
44C
100
AcDbEntity
  8
M0
 62
     6
100
AcDbLine
 10
205.378793
 20
672.646867
 11
205.378793
 21
646.146867
  0
LINE
  5
44D
100
AcDbEntity
  8
M0
 62
     6
100
AcDbLine
 10
205.378912
 20
847.146782
 11
230.378912
 21
847.146798
  0
LINE
  5
44E
100
AcDbEntity
  8
M0
 62
     6
100
AcDbLine
 10
207.878931
 20
816.146784
 11
205.378928
 21
820.646782
  0
LINE
  5
44F
100
AcDbEntity
  8
M0
 62
     6
100
AcDbLine
 10
227.878931
 20
816.146797
 11
230.378928
 21
820.646798
  0
LINE
  5
450
100
AcDbEntity
  8
M0
 62
     6
100
AcDbLine
 10
207.878934
 20
811.646784
 11
207.878931
 21
816.146784
  0
LINE
  5
451
100
AcDbEntity
  8
M0
 62
     6
100
AcDbLine
 10
227.878934
 20
811.646797
 11
227.878931
 21
816.146797
  0
LINE
  5
452
100
AcDbEntity
  8
M0
 62
     6
100
AcDbLine
 10
230.378912
 20
847.146798
 11
230.378928
 21
820.646798
  0
LINE
  5
453
100
AcDbEntity
  8
M0
 62
     6
100
AcDbLine
 10
205.378928
 20
820.646782
 11
205.378912
 21
847.146782
  0
LINE
  5
454
100
AcDbEntity
  8
M0
 62
     5
100
AcDbLine
 10
165.878793
 20
666.152223
 11
172.380258
 21
662.399629
  0
LINE
  5
455
100
AcDbEntity
  8
M0
 62
     5
100
AcDbLine
 10
172.380258
 20
662.399629
 11
172.380258
 21
654.893983
  0
LINE
  5
456
100
AcDbEntity
  8
M0
 62
     5
100
AcDbLine
 10
172.380258
 20
654.893983
 11
165.878793
 21
651.141237
  0
LINE
  5
457
100
AcDbEntity
  8
M0
 62
     5
100
AcDbLine
 10
165.878793
 20
651.141237
 11
159.37977
 21
654.893983
  0
LINE
  5
458
100
AcDbEntity
  8
M0
 62
     5
100
AcDbLine
 10
159.37977
 20
654.893983
 11
159.37977
 21
662.399629
  0
LINE
  5
459
100
AcDbEntity
  8
M0
 62
     5
100
AcDbLine
 10
159.37977
 20
662.399629
 11
165.878793
 21
666.152223
  0
CIRCLE
  5
45A
100
AcDbEntity
  8
M0
 62
     5
100
AcDbCircle
 10
165.878793
 20
658.646882
 40
4.0
  0
LINE
  5
45B
100
AcDbEntity
  8
M0
 62
     5
100
AcDbLine
 10
217.878793
 20
666.152223
 11
224.380258
 21
662.399629
  0
LINE
  5
45C
100
AcDbEntity
  8
M0
 62
     5
100
AcDbLine
 10
224.380258
 20
662.399629
 11
224.380258
 21
654.893983
  0
LINE
  5
45D
100
AcDbEntity
  8
M0
 62
     5
100
AcDbLine
 10
224.380258
 20
654.893983
 11
217.878793
 21
651.141237
  0
LINE
  5
45E
100
AcDbEntity
  8
M0
 62
     5
100
AcDbLine
 10
217.878793
 20
651.141237
 11
211.37977
 21
654.893983
  0
LINE
  5
45F
100
AcDbEntity
  8
M0
 62
     5
100
AcDbLine
 10
211.37977
 20
654.893983
 11
211.37977
 21
662.399629
  0
LINE
  5
460
100
AcDbEntity
  8
M0
 62
     5
100
AcDbLine
 10
211.37977
 20
662.399629
 11
217.878793
 21
666.152223
  0
CIRCLE
  5
461
100
AcDbEntity
  8
M0
 62
     5
100
AcDbCircle
 10
217.878793
 20
658.646882
 40
4.0
  0
LINE
  5
462
100
AcDbEntity
  8
M0
  6
DASHDOT
 62
     5
100
AcDbLine
 10
228.031137
 20
658.646882
 11
207.72645
 21
658.646882
  0
LINE
  5
463
100
AcDbEntity
  8
M0
  6
DASHDOT
 62
     5
100
AcDbLine
 10
217.878793
 20
668.799211
 11
217.878793
 21
648.494554
  0
LINE
  5
464
100
AcDbEntity
  8
M0
100
AcDbLine
 10
199.764597
 20
640.790193
 11
199.873407
 21
647.046892
  0
ARC
  5
465
100
AcDbEntity
  8
M0
100
AcDbCircle
 10
201.765146
 20
640.804765
 40
2.0
100
AcDbArc
 50
179.002413
 51
269.003724
  0
LINE
  5
466
100
AcDbEntity
  8
M0
100
AcDbLine
 10
208.729318
 20
638.683351
 11
201.730371
 21
638.80507
  0
ARC
  5
467
100
AcDbEntity
  8
M0
100
AcDbCircle
 10
208.764093
 20
640.683046
 40
2.0
100
AcDbArc
 50
269.003724
 51
359.003732
  0
LINE
  5
468
100
AcDbEntity
  8
M0
100
AcDbLine
 10
210.85943
 20
646.148012
 11
210.762933
 21
640.598924
  0
LINE
  5
469
100
AcDbEntity
  8
M0
 62
     5
100
AcDbLine
 10
269.878793
 20
666.152223
 11
276.380258
 21
662.399629
  0
LINE
  5
46A
100
AcDbEntity
  8
M0
 62
     5
100
AcDbLine
 10
276.380258
 20
662.399629
 11
276.380258
 21
654.893983
  0
LINE
  5
46B
100
AcDbEntity
  8
M0
 62
     5
100
AcDbLine
 10
276.380258
 20
654.893983
 11
269.878793
 21
651.141237
  0
LINE
  5
46C
100
AcDbEntity
  8
M0
 62
     5
100
AcDbLine
 10
269.878793
 20
651.141237
 11
263.37977
 21
654.893983
  0
LINE
  5
46D
100
AcDbEntity
  8
M0
 62
     5
100
AcDbLine
 10
263.37977
 20
654.893983
 11
263.37977
 21
662.399629
  0
LINE
  5
46E
100
AcDbEntity
  8
M0
 62
     5
100
AcDbLine
 10
263.37977
 20
662.399629
 11
269.878793
 21
666.152223
  0
CIRCLE
  5
46F
100
AcDbEntity
  8
M0
 62
     5
100
AcDbCircle
 10
269.878793
 20
658.646882
 40
4.0
  0
LINE
  5
470
100
AcDbEntity
  8
M0
  6
DASHDOT
 62
     5
100
AcDbLine
 10
280.031137
 20
658.646882
 11
259.72645
 21
658.646882
  0
LINE
  5
471
100
AcDbEntity
  8
M0
  6
DASHDOT
 62
     5
100
AcDbLine
 10
269.878793
 20
668.799211
 11
269.878793
 21
648.494554
  0
LINE
  5
472
100
AcDbEntity
  8
M0
 62
     5
100
AcDbLine
 10
269.878793
 20
842.152223
 11
276.380258
 21
838.399629
  0
LINE
  5
473
100
AcDbEntity
  8
M0
 62
     5
100
AcDbLine
 10
276.380258
 20
838.399629
 11
276.380258
 21
830.893983
  0
LINE
  5
474
100
AcDbEntity
  8
M0
 62
     5
100
AcDbLine
 10
276.380258
 20
830.893983
 11
269.878793
 21
827.141237
  0
LINE
  5
475
100
AcDbEntity
  8
M0
 62
     5
100
AcDbLine
 10
269.878793
 20
827.141237
 11
263.37977
 21
830.893983
  0
LINE
  5
476
100
AcDbEntity
  8
M0
 62
     5
100
AcDbLine
 10
263.37977
 20
830.893983
 11
263.37977
 21
838.399629
  0
LINE
  5
477
100
AcDbEntity
  8
M0
 62
     5
100
AcDbLine
 10
263.37977
 20
838.399629
 11
269.878793
 21
842.152223
  0
CIRCLE
  5
478
100
AcDbEntity
  8
M0
 62
     5
100
AcDbCircle
 10
269.878793
 20
834.646882
 40
4.0
  0
LINE
  5
479
100
AcDbEntity
  8
M0
  6
DASHDOT
 62
     5
100
AcDbLine
 10
280.031137
 20
834.646882
 11
259.72645
 21
834.646882
  0
LINE
  5
47A
100
AcDbEntity
  8
M0
 62
     5
100
AcDbLine
 10
217.878793
 20
842.152223
 11
224.380258
 21
838.399629
  0
LINE
  5
47B
100
AcDbEntity
  8
M0
 62
     5
100
AcDbLine
 10
224.380258
 20
838.399629
 11
224.380258
 21
830.893983
  0
LINE
  5
47C
100
AcDbEntity
  8
M0
 62
     5
100
AcDbLine
 10
224.380258
 20
830.893983
 11
217.878793
 21
827.141237
  0
LINE
  5
47D
100
AcDbEntity
  8
M0
 62
     5
100
AcDbLine
 10
217.878793
 20
827.141237
 11
211.37977
 21
830.893983
  0
LINE
  5
47E
100
AcDbEntity
  8
M0
 62
     5
100
AcDbLine
 10
211.37977
 20
830.893983
 11
211.37977
 21
838.399629
  0
LINE
  5
47F
100
AcDbEntity
  8
M0
 62
     5
100
AcDbLine
 10
211.37977
 20
838.399629
 11
217.878793
 21
842.152223
  0
CIRCLE
  5
480
100
AcDbEntity
  8
M0
 62
     5
100
AcDbCircle
 10
217.878793
 20
834.646882
 40
4.0
  0
LINE
  5
481
100
AcDbEntity
  8
M0
  6
DASHDOT
 62
     5
100
AcDbLine
 10
228.031137
 20
834.646882
 11
207.72645
 21
834.646882
  0
LINE
  5
482
100
AcDbEntity
  8
M0
  6
DASHDOT
 62
     5
100
AcDbLine
 10
217.878793
 20
844.799211
 11
217.878793
 21
824.494554
  0
LINE
  5
483
100
AcDbEntity
  8
M0
 62
     5
100
AcDbLine
 10
165.878793
 20
842.152223
 11
172.380258
 21
838.399629
  0
LINE
  5
484
100
AcDbEntity
  8
M0
 62
     5
100
AcDbLine
 10
172.380258
 20
838.399629
 11
172.380258
 21
830.893983
  0
LINE
  5
485
100
AcDbEntity
  8
M0
 62
     5
100
AcDbLine
 10
172.380258
 20
830.893983
 11
165.878793
 21
827.141237
  0
LINE
  5
486
100
AcDbEntity
  8
M0
 62
     5
100
AcDbLine
 10
165.878793
 20
827.141237
 11
159.37977
 21
830.893983
  0
LINE
  5
487
100
AcDbEntity
  8
M0
 62
     5
100
AcDbLine
 10
159.37977
 20
830.893983
 11
159.37977
 21
838.399629
  0
LINE
  5
488
100
AcDbEntity
  8
M0
 62
     5
100
AcDbLine
 10
159.37977
 20
838.399629
 11
165.878793
 21
842.152223
  0
CIRCLE
  5
489
100
AcDbEntity
  8
M0
 62
     5
100
AcDbCircle
 10
165.878793
 20
834.646882
 40
4.0
  0
LINE
  5
48A
100
AcDbEntity
  8
M0
  6
DASHDOT
 62
     5
100
AcDbLine
 10
176.031137
 20
834.646882
 11
155.72645
 21
834.646882
  0
CIRCLE
  5
48B
100
AcDbEntity
  8
M0
  6
DASHED
100
AcDbCircle
 10
160.378778
 20
659.646959
 40
4.5
  0
CIRCLE
  5
48C
100
AcDbEntity
  8
M0
  6
DASHED
100
AcDbCircle
 10
275.378763
 20
659.646959
 40
4.5
  0
LINE
  5
48D
100
AcDbEntity
  8
M0
  6
DASHDOT
100
AcDbLine
 10
268.212106
 20
844.646882
 11
282.545435
 21
844.646882
  0
LINE
  5
48E
100
AcDbEntity
  8
M0
  6
DASHDOT
100
AcDbLine
 10
275.378763
 20
837.480134
 11
275.378763
 21
851.81363
  0
LINE
  5
48F
100
AcDbEntity
  8
M0
  6
DASHDOT
100
AcDbLine
 10
153.212122
 20
844.646882
 11
167.54545
 21
844.646882
  0
LINE
  5
490
100
AcDbEntity
  8
M0
  6
DASHDOT
100
AcDbLine
 10
160.378778
 20
837.480134
 11
160.378778
 21
851.81363
  0
LINE
  5
491
100
AcDbEntity
  8
M0
  6
DASHDOT
100
AcDbLine
 10
153.212122
 20
659.646959
 11
167.54545
 21
659.646959
  0
LINE
  5
492
100
AcDbEntity
  8
M0
  6
DASHDOT
100
AcDbLine
 10
160.378778
 20
652.480287
 11
160.378778
 21
666.81363
  0
LINE
  5
493
100
AcDbEntity
  8
M0
  6
DASHDOT
100
AcDbLine
 10
268.212106
 20
659.646959
 11
282.545435
 21
659.646959
  0
LINE
  5
494
100
AcDbEntity
  8
M0
  6
DASHDOT
100
AcDbLine
 10
275.378763
 20
652.480287
 11
275.378763
 21
666.81363
  0
ARC
  5
495
100
AcDbEntity
  8
M0
  6
DASHED
100
AcDbCircle
 10
160.378778
 20
844.646882
 40
4.5
100
AcDbArc
 50
146.250984
 51
393.745245
  0
ARC
  5
496
100
AcDbEntity
  8
M0
100
AcDbCircle
 10
160.378778
 20
844.646882
 40
4.5
100
AcDbArc
 50
33.745245
 51
146.250984
  0
ARC
  5
497
100
AcDbEntity
  8
M0
  6
DASHED
100
AcDbCircle
 10
275.378763
 20
844.646882
 40
4.5
100
AcDbArc
 50
146.254432
 51
393.74546
  0
ARC
  5
498
100
AcDbEntity
  8
M0
100
AcDbCircle
 10
275.378763
 20
844.646882
 40
4.5
100
AcDbArc
 50
33.74546
 51
146.254432
  0
LINE
  5
499
100
AcDbEntity
  8
M0
100
AcDbLine
 10
148.878778
 20
649.646776
 11
153.378778
 21
649.646776
  0
LINE
  5
49A
100
AcDbEntity
  8
M0
100
AcDbLine
 10
178.378778
 20
649.646776
 11
205.378778
 21
649.646776
  0
LINE
  5
49B
100
AcDbEntity
  8
M0
100
AcDbLine
 10
230.378778
 20
649.646776
 11
257.378778
 21
649.646776
  0
LINE
  5
49C
100
AcDbEntity
  8
M0
100
AcDbLine
 10
282.378778
 20
649.646776
 11
286.878778
 21
649.646776
  0
LINE
  5
49D
100
AcDbEntity
  8
M0
100
AcDbLine
 10
148.878763
 20
854.646776
 11
286.878778
 21
854.646776
  0
LINE
  5
49E
100
AcDbEntity
  8
M0
100
AcDbLine
 10
148.87858
 20
647.046922
 11
153.37858
 21
647.046922
  0
LINE
  5
49F
100
AcDbEntity
  8
M0
100
AcDbLine
 10
148.87858
 20
649.14702
 11
153.37858
 21
649.14702
  0
LINE
  5
4A0
100
AcDbEntity
  8
M0
100
AcDbLine
 10
148.878778
 20
857.246843
 11
148.878793
 21
647.046922
  0
LINE
  5
4A1
100
AcDbEntity
  8
M0
100
AcDbLine
 10
178.37858
 20
647.046922
 11
205.37858
 21
647.046922
  0
LINE
  5
4A2
100
AcDbEntity
  8
M0
100
AcDbLine
 10
178.37858
 20
649.14702
 11
205.37858
 21
649.14702
  0
LINE
  5
4A3
100
AcDbEntity
  8
M0
100
AcDbLine
 10
230.37858
 20
647.046922
 11
257.37858
 21
647.046922
  0
LINE
  5
4A4
100
AcDbEntity
  8
M0
100
AcDbLine
 10
230.37858
 20
649.14702
 11
257.37858
 21
649.14702
  0
LINE
  5
4A5
100
AcDbEntity
  8
M0
100
AcDbLine
 10
282.37858
 20
647.046922
 11
302.87858
 21
647.046922
  0
LINE
  5
4A6
100
AcDbEntity
  8
M0
100
AcDbLine
 10
282.37858
 20
649.14702
 11
302.87858
 21
649.14702
  0
LINE
  5
4A7
100
AcDbEntity
  8
M0
100
AcDbLine
 10
302.878763
 20
857.246873
 11
302.878769
 21
773.896867
  0
LINE
  5
4A8
100
AcDbEntity
  8
M0
100
AcDbLine
 10
302.87858
 20
855.146669
 11
148.87858
 21
855.146669
  0
LINE
  5
4A9
100
AcDbEntity
  8
M0
100
AcDbLine
 10
302.87858
 20
857.246843
 11
148.87858
 21
857.246843
  0
LINE
  5
4AA
100
AcDbEntity
  8
M0
100
AcDbLine
 10
302.878773
 20
719.396867
 11
302.878778
 21
647.046922
  0
LINE
  5
4AB
100
AcDbEntity
  8
M0
100
AcDbLine
 10
305.878778
 20
671.64702
 11
314.753778
 21
671.64702
  0
LINE
  5
4AC
100
AcDbEntity
  8
M0
100
AcDbLine
 10
443.878778
 20
649.64702
 11
443.878778
 21
855.146669
  0
LINE
  5
4AD
100
AcDbEntity
  8
M0
100
AcDbLine
 10
413.975442
 20
821.646745
 11
401.878778
 21
821.646623
  0
LINE
  5
4AE
100
AcDbEntity
  8
M0
  6
DASHDOT
100
AcDbLine
 10
300.878778
 20
746.646867
 11
448.878778
 21
746.646867
  0
LINE
  5
4AF
100
AcDbEntity
  8
M0
  6
DASHDOT
100
AcDbLine
 10
374.878778
 20
635.095407
 11
374.878778
 21
885.688102
  0
LINE
  5
4B0
100
AcDbEntity
  8
M0
100
AcDbLine
 10
360.894403
 20
671.64702
 11
362.378778
 21
671.64702
  0
LINE
  5
4B1
100
AcDbEntity
  8
M0
100
AcDbLine
 10
401.878778
 20
671.64702
 11
413.975549
 21
671.64702
  0
LINE
  5
4B2
100
AcDbEntity
  8
M0
100
AcDbLine
 10
388.862909
 20
821.646623
 11
387.378778
 21
821.646608
  0
LINE
  5
4B3
100
AcDbEntity
  8
M0
100
AcDbLine
 10
347.878778
 20
821.646379
 11
335.782404
 21
821.646379
  0
LINE
  5
4B4
100
AcDbEntity
  8
M0
100
AcDbLine
 10
317.878778
 20
722.096818
 11
317.878778
 21
740.146867
  0
LINE
  5
4B5
100
AcDbEntity
  8
M0
100
AcDbLine
 10
309.878778
 20
719.646623
 11
309.878778
 21
740.146867
  0
LINE
  5
4B6
100
AcDbEntity
  8
M0
100
AcDbLine
 10
439.878778
 20
719.646867
 11
439.878778
 21
740.146379
  0
LINE
  5
4B7
100
AcDbEntity
  8
M0
100
AcDbLine
 10
431.878778
 20
722.096574
 11
431.878778
 21
740.146379
  0
LINE
  5
4B8
100
AcDbEntity
  8
M0
100
AcDbLine
 10
306.378778
 20
774.146867
 11
309.378778
 21
774.146867
  0
LINE
  5
4B9
100
AcDbEntity
  8
M0
100
AcDbLine
 10
306.378778
 20
719.146867
 11
309.378778
 21
719.146867
  0
LINE
  5
4BA
100
AcDbEntity
  8
M0
100
AcDbLine
 10
440.378778
 20
774.146867
 11
443.378778
 21
774.146867
  0
LINE
  5
4BB
100
AcDbEntity
  8
M0
100
AcDbLine
 10
440.378778
 20
719.146867
 11
443.378778
 21
719.146867
  0
LINE
  5
4BC
100
AcDbEntity
  8
M0
100
AcDbLine
 10
309.878778
 20
771.696672
 11
319.878778
 21
771.696672
  0
LINE
  5
4BD
100
AcDbEntity
  8
M0
100
AcDbLine
 10
309.878778
 20
721.596818
 11
319.878778
 21
721.596818
  0
LINE
  5
4BE
100
AcDbEntity
  8
M0
100
AcDbLine
 10
429.878778
 20
771.696672
 11
439.878778
 21
771.696672
  0
LINE
  5
4BF
100
AcDbEntity
  8
M0
100
AcDbLine
 10
429.878778
 20
721.596818
 11
439.878778
 21
721.596818
  0
LINE
  5
4C0
100
AcDbEntity
  8
M0
100
AcDbLine
 10
306.378778
 20
764.146867
 11
309.378778
 21
764.146867
  0
LINE
  5
4C1
100
AcDbEntity
  8
M0
100
AcDbLine
 10
306.378778
 20
729.146867
 11
309.378778
 21
729.146867
  0
LINE
  5
4C2
100
AcDbEntity
  8
M0
100
AcDbLine
 10
440.378778
 20
764.146867
 11
443.378778
 21
764.146867
  0
LINE
  5
4C3
100
AcDbEntity
  8
M0
100
AcDbLine
 10
440.378778
 20
729.146867
 11
443.378778
 21
729.146867
  0
LINE
  5
4C4
100
AcDbEntity
  8
M0
100
AcDbLine
 10
306.378778
 20
750.396867
 11
312.878778
 21
750.396867
  0
LINE
  5
4C5
100
AcDbEntity
  8
M0
100
AcDbLine
 10
306.378778
 20
742.896867
 11
312.878778
 21
742.896867
  0
LINE
  5
4C6
100
AcDbEntity
  8
M0
100
AcDbLine
 10
443.378778
 20
750.396867
 11
436.878778
 21
750.396867
  0
LINE
  5
4C7
100
AcDbEntity
  8
M0
100
AcDbLine
 10
443.378778
 20
742.896867
 11
436.878778
 21
742.896867
  0
LINE
  5
4C8
100
AcDbEntity
  8
M0
100
AcDbLine
 10
309.878778
 20
753.146867
 11
309.878778
 21
773.646867
  0
LINE
  5
4C9
100
AcDbEntity
  8
M0
100
AcDbLine
 10
439.878778
 20
753.146135
 11
439.878778
 21
773.646867
  0
LINE
  5
4CA
100
AcDbEntity
  8
M0
100
AcDbLine
 10
313.878778
 20
749.396867
 11
313.878778
 21
743.896867
  0
LINE
  5
4CB
100
AcDbEntity
  8
M0
100
AcDbLine
 10
435.878778
 20
749.396623
 11
435.878778
 21
743.896623
  0
LINE
  5
4CC
100
AcDbEntity
  8
M0
100
AcDbLine
 10
318.378778
 20
763.146867
 11
319.878778
 21
763.146867
  0
LINE
  5
4CD
100
AcDbEntity
  8
M0
100
AcDbLine
 10
318.378778
 20
730.146867
 11
319.878778
 21
730.146867
  0
LINE
  5
4CE
100
AcDbEntity
  8
M0
100
AcDbLine
 10
431.378778
 20
763.146867
 11
429.878778
 21
763.146867
  0
LINE
  5
4CF
100
AcDbEntity
  8
M0
100
AcDbLine
 10
431.378778
 20
730.146867
 11
429.878778
 21
730.146867
  0
LINE
  5
4D0
100
AcDbEntity
  8
M0
100
AcDbLine
 10
305.878778
 20
781.646867
 11
308.378778
 21
781.646867
  0
LINE
  5
4D1
100
AcDbEntity
  8
M0
100
AcDbLine
 10
305.878778
 20
711.646867
 11
308.378778
 21
711.646867
  0
LINE
  5
4D2
100
AcDbEntity
  8
M0
100
AcDbLine
 10
308.378778
 20
719.146867
 11
308.378778
 21
711.646867
  0
LINE
  5
4D3
100
AcDbEntity
  8
M0
100
AcDbLine
 10
308.378778
 20
781.646867
 11
308.378778
 21
774.146867
  0
LINE
  5
4D4
100
AcDbEntity
  8
M0
100
AcDbLine
 10
441.378778
 20
781.646867
 11
441.378778
 21
774.146867
  0
LINE
  5
4D5
100
AcDbEntity
  8
M0
100
AcDbLine
 10
441.378778
 20
711.646867
 11
441.378778
 21
719.146867
  0
LINE
  5
4D6
100
AcDbEntity
  8
M0
100
AcDbLine
 10
441.378778
 20
711.646867
 11
443.878778
 21
711.646867
  0
LINE
  5
4D7
100
AcDbEntity
  8
M0
100
AcDbLine
 10
441.378778
 20
781.646867
 11
443.878778
 21
781.646867
  0
LINE
  5
4D8
100
AcDbEntity
  8
M0
100
AcDbLine
 10
309.878778
 20
722.646867
 11
310.728769
 21
722.646867
  0
LINE
  5
4D9
100
AcDbEntity
  8
M0
100
AcDbLine
 10
309.878778
 20
770.646867
 11
310.728769
 21
770.646867
  0
LINE
  5
4DA
100
AcDbEntity
  8
M0
100
AcDbLine
 10
431.878778
 20
770.646867
 11
432.728769
 21
770.646867
  0
LINE
  5
4DB
100
AcDbEntity
  8
M0
100
AcDbLine
 10
431.878778
 20
722.646867
 11
439.878778
 21
722.646867
  0
LINE
  5
4DC
100
AcDbEntity
  8
M0
100
AcDbLine
 10
309.878778
 20
761.146867
 11
310.728769
 21
761.146867
  0
LINE
  5
4DD
100
AcDbEntity
  8
M0
100
AcDbLine
 10
309.878778
 20
732.146867
 11
310.728769
 21
732.146867
  0
LINE
  5
4DE
100
AcDbEntity
  8
M0
100
AcDbLine
 10
431.878778
 20
761.146867
 11
432.728769
 21
761.146867
  0
LINE
  5
4DF
100
AcDbEntity
  8
M0
100
AcDbLine
 10
431.878778
 20
732.146867
 11
439.878778
 21
732.146867
  0
LINE
  5
4E0
100
AcDbEntity
  8
M0
100
AcDbLine
 10
432.678583
 20
761.646867
 11
432.728769
 21
761.646867
  0
LINE
  5
4E1
100
AcDbEntity
  8
M0
100
AcDbLine
 10
432.678583
 20
731.646867
 11
439.078729
 21
731.646867
  0
LINE
  5
4E2
100
AcDbEntity
  8
M0
100
AcDbLine
 10
310.678583
 20
761.646867
 11
310.728769
 21
761.646867
  0
LINE
  5
4E3
100
AcDbEntity
  8
M0
100
AcDbLine
 10
310.678583
 20
731.646867
 11
310.728769
 21
731.646867
  0
LINE
  5
4E4
100
AcDbEntity
  8
M0
100
AcDbLine
 10
317.078729
 20
731.146867
 11
317.078729
 21
732.146867
  0
LINE
  5
4E5
100
AcDbEntity
  8
M0
100
AcDbLine
 10
310.678583
 20
731.146623
 11
310.678583
 21
732.146867
  0
LINE
  5
4E6
100
AcDbEntity
  8
M0
100
AcDbLine
 10
317.694666
 20
730.646867
 11
317.878778
 21
730.646867
  0
LINE
  5
4E7
100
AcDbEntity
  8
M0
100
AcDbLine
 10
309.878778
 20
730.646867
 11
310.062891
 21
730.646867
  0
LINE
  5
4E8
100
AcDbEntity
  8
M0
100
AcDbLine
 10
317.694666
 20
762.646867
 11
317.878778
 21
762.646867
  0
LINE
  5
4E9
100
AcDbEntity
  8
M0
100
AcDbLine
 10
309.878778
 20
762.646867
 11
310.062891
 21
762.646867
  0
LINE
  5
4EA
100
AcDbEntity
  8
M0
100
AcDbLine
 10
310.678583
 20
761.146867
 11
310.678583
 21
762.146623
  0
LINE
  5
4EB
100
AcDbEntity
  8
M0
100
AcDbLine
 10
317.078729
 20
761.146867
 11
317.078729
 21
762.146867
  0
LINE
  5
4EC
100
AcDbEntity
  8
M0
100
AcDbLine
 10
432.178827
 20
730.646623
 11
431.878778
 21
730.646623
  0
LINE
  5
4ED
100
AcDbEntity
  8
M0
100
AcDbLine
 10
432.678827
 20
731.146135
 11
432.678827
 21
732.146623
  0
LINE
  5
4EE
100
AcDbEntity
  8
M0
100
AcDbLine
 10
439.878778
 20
730.646623
 11
439.578973
 21
730.646623
  0
LINE
  5
4EF
100
AcDbEntity
  8
M0
100
AcDbLine
 10
439.078973
 20
731.146379
 11
439.078973
 21
732.146623
  0
LINE
  5
4F0
100
AcDbEntity
  8
M0
100
AcDbLine
 10
439.878778
 20
762.646623
 11
439.694513
 21
762.646623
  0
LINE
  5
4F1
100
AcDbEntity
  8
M0
100
AcDbLine
 10
432.063028
 20
762.646623
 11
431.878778
 21
762.646623
  0
LINE
  5
4F2
100
AcDbEntity
  8
M0
100
AcDbLine
 10
432.678827
 20
761.146623
 11
432.678827
 21
762.146135
  0
LINE
  5
4F3
100
AcDbEntity
  8
M0
100
AcDbLine
 10
309.878778
 20
754.646867
 11
309.928766
 21
754.646867
  0
LINE
  5
4F4
100
AcDbEntity
  8
M0
100
AcDbLine
 10
317.828775
 20
754.646867
 11
317.878778
 21
754.646867
  0
LINE
  5
4F5
100
AcDbEntity
  8
M0
100
AcDbLine
 10
317.828775
 20
738.646867
 11
317.878778
 21
738.646867
  0
LINE
  5
4F6
100
AcDbEntity
  8
M0
100
AcDbLine
 10
309.878778
 20
738.646867
 11
309.928766
 21
738.646867
  0
LINE
  5
4F7
100
AcDbEntity
  8
M0
100
AcDbLine
 10
310.878778
 20
752.146867
 11
316.878778
 21
752.146867
  0
LINE
  5
4F8
100
AcDbEntity
  8
M0
100
AcDbLine
 10
310.878778
 20
741.146867
 11
316.878778
 21
741.146867
  0
LINE
  5
4F9
100
AcDbEntity
  8
M0
100
AcDbLine
 10
317.878778
 20
753.146623
 11
317.878778
 21
771.196672
  0
LINE
  5
4FA
100
AcDbEntity
  8
M0
100
AcDbLine
 10
309.878778
 20
764.146867
 11
309.928766
 21
764.146867
  0
LINE
  5
4FB
100
AcDbEntity
  8
M0
100
AcDbLine
 10
309.928766
 20
729.146867
 11
309.878778
 21
729.146867
  0
LINE
  5
4FC
100
AcDbEntity
  8
M0
100
AcDbLine
 10
317.828775
 20
729.146867
 11
317.878778
 21
729.146867
  0
LINE
  5
4FD
100
AcDbEntity
  8
M0
100
AcDbLine
 10
309.928766
 20
727.796586
 11
309.878778
 21
727.646623
  0
LINE
  5
4FE
100
AcDbEntity
  8
M0
100
AcDbLine
 10
317.828775
 20
727.796876
 11
317.878778
 21
727.646867
  0
LINE
  5
4FF
100
AcDbEntity
  8
M0
100
AcDbLine
 10
317.828775
 20
737.296876
 11
317.878778
 21
737.146867
  0
LINE
  5
500
100
AcDbEntity
  8
M0
100
AcDbLine
 10
309.928766
 20
737.296831
 11
309.878778
 21
737.146867
  0
LINE
  5
501
100
AcDbEntity
  8
M0
100
AcDbLine
 10
309.928766
 20
755.996904
 11
309.878778
 21
756.146867
  0
LINE
  5
502
100
AcDbEntity
  8
M0
100
AcDbLine
 10
317.828775
 20
755.996858
 11
317.878778
 21
756.146867
  0
LINE
  5
503
100
AcDbEntity
  8
M0
100
AcDbLine
 10
309.928766
 20
765.496904
 11
309.878778
 21
765.646867
  0
LINE
  5
504
100
AcDbEntity
  8
M0
100
AcDbLine
 10
439.378778
 20
738.646623
 11
439.878778
 21
737.146623
  0
LINE
  5
505
100
AcDbEntity
  8
M0
100
AcDbLine
 10
439.878778
 20
738.646623
 11
439.378778
 21
738.646623
  0
LINE
  5
506
100
AcDbEntity
  8
M0
100
AcDbLine
 10
439.378778
 20
738.646623
 11
439.378778
 21
740.146135
  0
LINE
  5
507
100
AcDbEntity
  8
M0
100
AcDbLine
 10
432.378778
 20
738.646623
 11
432.378778
 21
740.146379
  0
LINE
  5
508
100
AcDbEntity
  8
M0
100
AcDbLine
 10
432.378778
 20
738.646623
 11
431.878778
 21
738.646623
  0
LINE
  5
509
100
AcDbEntity
  8
M0
100
AcDbLine
 10
432.378778
 20
738.646623
 11
431.878778
 21
737.146623
  0
LINE
  5
50A
100
AcDbEntity
  8
M0
100
AcDbLine
 10
432.378778
 20
729.146623
 11
432.378778
 21
730.687883
  0
LINE
  5
50B
100
AcDbEntity
  8
M0
100
AcDbLine
 10
432.378778
 20
729.146623
 11
431.878778
 21
729.146623
  0
LINE
  5
50C
100
AcDbEntity
  8
M0
100
AcDbLine
 10
432.378778
 20
729.146623
 11
431.878778
 21
727.646623
  0
LINE
  5
50D
100
AcDbEntity
  8
M0
100
AcDbLine
 10
439.378778
 20
729.146379
 11
439.878778
 21
727.646379
  0
LINE
  5
50E
100
AcDbEntity
  8
M0
100
AcDbLine
 10
439.378778
 20
729.146623
 11
439.878778
 21
729.146623
  0
LINE
  5
50F
100
AcDbEntity
  8
M0
100
AcDbLine
 10
439.378778
 20
729.146379
 11
439.378778
 21
730.688127
  0
LINE
  5
510
100
AcDbEntity
  8
M0
100
AcDbLine
 10
439.828775
 20
755.996614
 11
439.878778
 21
756.146623
  0
LINE
  5
511
100
AcDbEntity
  8
M0
100
AcDbLine
 10
439.878778
 20
754.646623
 11
439.828775
 21
754.646623
  0
LINE
  5
512
100
AcDbEntity
  8
M0
100
AcDbLine
 10
431.928766
 20
755.99666
 11
431.878778
 21
756.146623
  0
LINE
  5
513
100
AcDbEntity
  8
M0
100
AcDbLine
 10
431.928766
 20
754.646623
 11
431.878778
 21
754.646623
  0
LINE
  5
514
100
AcDbEntity
  8
M0
100
AcDbLine
 10
431.928766
 20
765.49666
 11
431.878778
 21
765.646623
  0
LINE
  5
515
100
AcDbEntity
  8
M0
100
AcDbLine
 10
431.928766
 20
764.146623
 11
431.878778
 21
764.146623
  0
LINE
  5
516
100
AcDbEntity
  8
M0
100
AcDbLine
 10
439.878778
 20
764.146623
 11
439.828775
 21
764.146623
  0
LINE
  5
517
100
AcDbEntity
  8
M0
100
AcDbLine
 10
439.828775
 20
765.496614
 11
439.878778
 21
765.646623
  0
LINE
  5
518
100
AcDbEntity
  8
M0
100
AcDbLine
 10
438.878778
 20
741.146623
 11
432.878778
 21
741.146623
  0
LINE
  5
519
100
AcDbEntity
  8
M0
100
AcDbLine
 10
438.878778
 20
752.146623
 11
432.878778
 21
752.146623
  0
LINE
  5
51A
100
AcDbEntity
  8
M0
100
AcDbLine
 10
431.878778
 20
753.146379
 11
431.878778
 21
771.196672
  0
ARC
  5
51B
100
AcDbEntity
  8
M0
100
AcDbCircle
 10
440.378778
 20
773.646867
 40
0.5
100
AcDbArc
 50
89.998251
 51
179.998251
  0
ARC
  5
51C
100
AcDbEntity
  8
M0
100
AcDbCircle
 10
440.378778
 20
719.646867
 40
0.5
100
AcDbArc
 50
179.998251
 51
270.0
  0
ARC
  5
51D
100
AcDbEntity
  8
M0
100
AcDbCircle
 10
443.378778
 20
773.646867
 40
0.5
100
AcDbArc
 50
0.0
 51
89.998251
  0
ARC
  5
51E
100
AcDbEntity
  8
M0
100
AcDbCircle
 10
443.378778
 20
763.646867
 40
0.5
100
AcDbArc
 50
0.0
 51
89.998251
  0
ARC
  5
51F
100
AcDbEntity
  8
M0
100
AcDbCircle
 10
431.378778
 20
762.646623
 40
0.5
100
AcDbArc
 50
359.972024
 51
449.998251
  0
ARC
  5
520
100
AcDbEntity
  8
M0
100
AcDbCircle
 10
440.378778
 20
729.646867
 40
0.5
100
AcDbArc
 50
179.998251
 51
270.0
  0
ARC
  5
521
100
AcDbEntity
  8
M0
100
AcDbCircle
 10
443.378778
 20
719.646867
 40
0.5
100
AcDbArc
 50
270.0
 51
360.0
  0
ARC
  5
522
100
AcDbEntity
  8
M0
100
AcDbCircle
 10
443.378778
 20
729.646867
 40
0.5
100
AcDbArc
 50
270.0
 51
360.0
  0
ARC
  5
523
100
AcDbEntity
  8
M0
100
AcDbCircle
 10
440.378778
 20
763.646867
 40
0.5
100
AcDbArc
 50
89.998251
 51
179.998251
  0
ARC
  5
524
100
AcDbEntity
  8
M0
100
AcDbCircle
 10
431.378778
 20
771.196672
 40
0.5
100
AcDbArc
 50
0.0
 51
89.998251
  0
ARC
  5
525
100
AcDbEntity
  8
M0
100
AcDbCircle
 10
431.378778
 20
730.646623
 40
0.5
100
AcDbArc
 50
270.0
 51
359.972024
  0
ARC
  5
526
100
AcDbEntity
  8
M0
100
AcDbCircle
 10
431.378778
 20
722.096818
 40
0.5
100
AcDbArc
 50
270.0
 51
359.972024
  0
ARC
  5
527
100
AcDbEntity
  8
M0
100
AcDbCircle
 10
440.378778
 20
729.646867
 40
0.5
100
AcDbArc
 50
179.998251
 51
270.0
  0
ARC
  5
528
100
AcDbEntity
  8
M0
100
AcDbCircle
 10
432.178827
 20
731.146379
 40
0.5
100
AcDbArc
 50
270.0
 51
359.972024
  0
ARC
  5
529
100
AcDbEntity
  8
M0
100
AcDbCircle
 10
439.578973
 20
731.146379
 40
0.5
100
AcDbArc
 50
179.998251
 51
270.0
  0
ARC
  5
52A
100
AcDbEntity
  8
M0
100
AcDbCircle
 10
438.878778
 20
740.146379
 40
1.0
100
AcDbArc
 50
0.0
 51
89.999126
  0
ARC
  5
52B
100
AcDbEntity
  8
M0
100
AcDbCircle
 10
432.878778
 20
740.146379
 40
1.0
100
AcDbArc
 50
89.999126
 51
179.999126
  0
ARC
  5
52C
100
AcDbEntity
  8
M0
100
AcDbCircle
 10
433.378778
 20
740.146379
 40
1.0
100
AcDbArc
 50
89.999126
 51
179.999126
  0
ARC
  5
52D
100
AcDbEntity
  8
M0
100
AcDbCircle
 10
438.378778
 20
740.146379
 40
1.0
100
AcDbArc
 50
359.986012
 51
449.999126
  0
LINE
  5
52E
100
AcDbEntity
  8
M0
100
AcDbLine
 10
438.128778
 20
732.146867
 11
438.128778
 21
731.646867
  0
LINE
  5
52F
100
AcDbEntity
  8
M0
100
AcDbLine
 10
433.628778
 20
732.146867
 11
433.628778
 21
731.646867
  0
ARC
  5
530
100
AcDbEntity
  8
M0
100
AcDbCircle
 10
436.878778
 20
749.396623
 40
1.0
100
AcDbArc
 50
89.999126
 51
179.999126
  0
ARC
  5
531
100
AcDbEntity
  8
M0
100
AcDbCircle
 10
436.878778
 20
743.896623
 40
1.0
100
AcDbArc
 50
179.999126
 51
270.0
  0
ARC
  5
532
100
AcDbEntity
  8
M0
100
AcDbCircle
 10
432.878778
 20
753.146379
 40
1.0
100
AcDbArc
 50
179.999126
 51
270.0
  0
ARC
  5
533
100
AcDbEntity
  8
M0
100
AcDbCircle
 10
438.878778
 20
753.146379
 40
1.0
100
AcDbArc
 50
270.0
 51
359.986012
  0
ARC
  5
534
100
AcDbEntity
  8
M0
100
AcDbCircle
 10
438.378778
 20
753.146379
 40
1.0
100
AcDbArc
 50
270.0
 51
337.727621
  0
ARC
  5
535
100
AcDbEntity
  8
M0
100
AcDbCircle
 10
433.378778
 20
753.146379
 40
1.0
100
AcDbArc
 50
202.275469
 51
270.0
  0
ARC
  5
536
100
AcDbEntity
  8
M0
100
AcDbCircle
 10
443.378778
 20
742.396623
 40
0.5
100
AcDbArc
 50
0.0
 51
89.998251
  0
ARC
  5
537
100
AcDbEntity
  8
M0
100
AcDbCircle
 10
443.378778
 20
750.896623
 40
0.5
100
AcDbArc
 50
270.0
 51
360.0
  0
LINE
  5
538
100
AcDbEntity
  8
M0
100
AcDbLine
 10
439.878778
 20
749.396867
 11
443.878778
 21
749.396867
  0
LINE
  5
539
100
AcDbEntity
  8
M0
100
AcDbLine
 10
439.878778
 20
743.896867
 11
443.878778
 21
743.896867
  0
LINE
  5
53A
100
AcDbEntity
  8
M0
100
AcDbLine
 10
439.878778
 20
743.896867
 11
439.878778
 21
742.896867
  0
LINE
  5
53B
100
AcDbEntity
  8
M0
100
AcDbLine
 10
439.878778
 20
749.396867
 11
439.878778
 21
750.396867
  0
LINE
  5
53C
100
AcDbEntity
  8
M0
100
AcDbLine
 10
309.878778
 20
743.896867
 11
309.878778
 21
742.896867
  0
LINE
  5
53D
100
AcDbEntity
  8
M0
100
AcDbLine
 10
309.878778
 20
743.896867
 11
305.878778
 21
743.896867
  0
LINE
  5
53E
100
AcDbEntity
  8
M0
100
AcDbLine
 10
309.878778
 20
749.396867
 11
309.878778
 21
750.396867
  0
LINE
  5
53F
100
AcDbEntity
  8
M0
100
AcDbLine
 10
309.878778
 20
749.396867
 11
305.878778
 21
749.396867
  0
ARC
  5
540
100
AcDbEntity
  8
M0
100
AcDbCircle
 10
312.878778
 20
743.896867
 40
1.0
100
AcDbArc
 50
270.0
 51
360.0
  0
ARC
  5
541
100
AcDbEntity
  8
M0
100
AcDbCircle
 10
312.878778
 20
749.396867
 40
1.0
100
AcDbArc
 50
0.0
 51
89.999126
  0
ARC
  5
542
100
AcDbEntity
  8
M0
100
AcDbCircle
 10
316.878778
 20
740.146867
 40
1.0
100
AcDbArc
 50
0.0
 51
89.999126
  0
ARC
  5
543
100
AcDbEntity
  8
M0
100
AcDbCircle
 10
310.878778
 20
740.146867
 40
1.0
100
AcDbArc
 50
89.999126
 51
179.999126
  0
ARC
  5
544
100
AcDbEntity
  8
M0
100
AcDbCircle
 10
310.878778
 20
753.146867
 40
1.0
100
AcDbArc
 50
179.999126
 51
270.0
  0
ARC
  5
545
100
AcDbEntity
  8
M0
100
AcDbCircle
 10
316.878778
 20
753.146867
 40
1.0
100
AcDbArc
 50
270.0
 51
359.986012
  0
ARC
  5
546
100
AcDbEntity
  8
M0
100
AcDbCircle
 10
316.378778
 20
753.146867
 40
1.0
100
AcDbArc
 50
270.0
 51
337.688817
  0
ARC
  5
547
100
AcDbEntity
  8
M0
100
AcDbCircle
 10
311.378778
 20
740.146867
 40
1.0
100
AcDbArc
 50
89.999126
 51
157.682969
  0
ARC
  5
548
100
AcDbEntity
  8
M0
100
AcDbCircle
 10
316.378778
 20
740.146867
 40
1.0
100
AcDbArc
 50
22.313941
 51
89.999126
  0
ARC
  5
549
100
AcDbEntity
  8
M0
100
AcDbCircle
 10
311.378778
 20
753.146867
 40
1.0
100
AcDbArc
 50
202.314273
 51
270.0
  0
ARC
  5
54A
100
AcDbEntity
  8
M0
100
AcDbCircle
 10
309.378778
 20
763.646867
 40
0.5
100
AcDbArc
 50
359.972024
 51
449.998251
  0
ARC
  5
54B
100
AcDbEntity
  8
M0
100
AcDbCircle
 10
318.378778
 20
771.196672
 40
0.5
100
AcDbArc
 50
89.998251
 51
179.998251
  0
ARC
  5
54C
100
AcDbEntity
  8
M0
100
AcDbCircle
 10
318.378778
 20
730.646867
 40
0.5
100
AcDbArc
 50
179.998251
 51
270.0
  0
ARC
  5
54D
100
AcDbEntity
  8
M0
100
AcDbCircle
 10
306.378778
 20
729.646867
 40
0.5
100
AcDbArc
 50
179.998251
 51
270.0
  0
ARC
  5
54E
100
AcDbEntity
  8
M0
100
AcDbCircle
 10
306.378778
 20
719.646867
 40
0.5
100
AcDbArc
 50
179.998251
 51
270.0
  0
ARC
  5
54F
100
AcDbEntity
  8
M0
100
AcDbCircle
 10
309.378778
 20
729.646867
 40
0.5
100
AcDbArc
 50
270.0
 51
359.972024
  0
ARC
  5
550
100
AcDbEntity
  8
M0
100
AcDbCircle
 10
318.378778
 20
722.096818
 40
0.5
100
AcDbArc
 50
179.998251
 51
270.0
  0
ARC
  5
551
100
AcDbEntity
  8
M0
100
AcDbCircle
 10
306.378778
 20
742.396867
 40
0.5
100
AcDbArc
 50
89.998251
 51
179.998251
  0
ARC
  5
552
100
AcDbEntity
  8
M0
100
AcDbCircle
 10
318.378778
 20
762.646867
 40
0.5
100
AcDbArc
 50
89.998251
 51
179.998251
  0
ARC
  5
553
100
AcDbEntity
  8
M0
100
AcDbCircle
 10
306.378778
 20
763.646867
 40
0.5
100
AcDbArc
 50
89.998251
 51
179.998251
  0
ARC
  5
554
100
AcDbEntity
  8
M0
100
AcDbCircle
 10
306.378778
 20
773.646867
 40
0.5
100
AcDbArc
 50
89.998251
 51
179.998251
  0
ARC
  5
555
100
AcDbEntity
  8
M0
100
AcDbCircle
 10
309.378778
 20
719.646867
 40
0.5
100
AcDbArc
 50
270.0
 51
359.972024
  0
ARC
  5
556
100
AcDbEntity
  8
M0
100
AcDbCircle
 10
309.378778
 20
773.646867
 40
0.5
100
AcDbArc
 50
0.0
 51
89.998251
  0
ARC
  5
557
100
AcDbEntity
  8
M0
100
AcDbCircle
 10
306.378778
 20
750.896867
 40
0.5
100
AcDbArc
 50
179.998251
 51
270.0
  0
LINE
  5
558
100
AcDbEntity
  8
M0
100
AcDbLine
 10
319.878778
 20
815.789735
 11
319.878778
 21
809.646867
  0
LINE
  5
559
100
AcDbEntity
  8
M0
100
AcDbLine
 10
429.878778
 20
815.789735
 11
429.878778
 21
809.646867
  0
LINE
  5
55A
100
AcDbEntity
  8
M0
100
AcDbLine
 10
319.878778
 20
683.646867
 11
319.878778
 21
677.504197
  0
LINE
  5
55B
100
AcDbEntity
  8
M0
100
AcDbLine
 10
429.878778
 20
683.646867
 11
429.878778
 21
677.504197
  0
LINE
  5
55C
100
AcDbEntity
  8
M0
100
AcDbLine
 10
441.878534
 20
833.146867
 11
439.378778
 21
833.146867
  0
ARC
  5
55D
100
AcDbEntity
  8
M0
100
AcDbCircle
 10
441.878778
 20
831.146623
 40
2.0
100
AcDbArc
 50
0.0
 51
90.005683
  0
ARC
  5
55E
100
AcDbEntity
  8
M0
100
AcDbCircle
 10
307.878778
 20
831.146623
 40
2.0
100
AcDbArc
 50
89.999563
 51
180.005683
  0
LINE
  5
55F
100
AcDbEntity
  8
M0
100
AcDbLine
 10
310.378778
 20
833.146638
 11
307.878778
 21
833.146623
  0
LINE
  5
560
100
AcDbEntity
  8
M0
100
AcDbLine
 10
414.378778
 20
833.146821
 11
387.378778
 21
833.146776
  0
LINE
  5
561
100
AcDbEntity
  8
M0
100
AcDbLine
 10
435.003778
 20
671.64702
 11
443.878778
 21
671.64702
  0
LINE
  5
562
100
AcDbEntity
  8
M0
100
AcDbLine
 10
335.782007
 20
671.64702
 11
347.878778
 21
671.64702
  0
LINE
  5
563
100
AcDbEntity
  8
M0
100
AcDbLine
 10
317.278757
 20
770.646867
 11
317.878778
 21
770.646867
  0
LINE
  5
564
100
AcDbEntity
  8
M0
100
AcDbLine
 10
317.028772
 20
761.146867
 11
317.878778
 21
761.146867
  0
LINE
  5
565
100
AcDbEntity
  8
M0
100
AcDbLine
 10
317.028772
 20
761.646867
 11
317.078729
 21
761.646867
  0
LINE
  5
566
100
AcDbEntity
  8
M0
100
AcDbLine
 10
317.028772
 20
732.146867
 11
317.878778
 21
732.146867
  0
LINE
  5
567
100
AcDbEntity
  8
M0
100
AcDbLine
 10
317.028772
 20
731.646867
 11
317.078729
 21
731.646867
  0
LINE
  5
568
100
AcDbEntity
  8
M0
100
AcDbLine
 10
317.278757
 20
722.646867
 11
317.878778
 21
722.646867
  0
LINE
  5
569
100
AcDbEntity
  8
M0
100
AcDbLine
 10
439.278757
 20
770.646867
 11
439.878778
 21
770.646867
  0
LINE
  5
56A
100
AcDbEntity
  8
M0
100
AcDbLine
 10
439.278757
 20
761.146867
 11
439.878778
 21
761.146867
  0
LINE
  5
56B
100
AcDbEntity
  8
M0
100
AcDbLine
 10
362.378778
 20
833.14673
 11
335.378778
 21
833.146684
  0
LINE
  5
56C
100
AcDbEntity
  8
M0
100
AcDbLine
 10
362.378778
 20
821.646394
 11
360.894403
 21
821.646379
  0
LINE
  5
56D
100
AcDbEntity
  8
M0
100
AcDbLine
 10
387.378778
 20
671.64702
 11
388.862665
 21
671.64702
  0
LINE
  5
56E
100
AcDbEntity
  8
M0
 62
     7
100
AcDbLine
 10
349.878778
 20
671.64702
 11
359.878778
 21
671.64702
  0
LINE
  5
56F
100
AcDbEntity
  8
M0
 62
     7
100
AcDbLine
 10
429.878778
 20
683.646852
 11
429.878778
 21
809.646867
  0
LINE
  5
570
100
AcDbEntity
  8
M0
 62
     7
100
AcDbLine
 10
399.878778
 20
821.646867
 11
389.878778
 21
821.646867
  0
LINE
  5
571
100
AcDbEntity
  8
M0
 62
     7
100
AcDbLine
 10
319.878778
 20
809.646867
 11
319.878778
 21
683.646867
  0
LINE
  5
572
100
AcDbEntity
  8
M0
 62
     7
100
AcDbLine
 10
321.878778
 20
811.646867
 11
346.878778
 21
811.646867
  0
LINE
  5
573
100
AcDbEntity
  8
M0
 62
     7
100
AcDbLine
 10
321.878778
 20
681.646867
 11
346.878778
 21
681.646867
  0
ARC
  5
574
100
AcDbEntity
  8
M0
 62
     7
100
AcDbCircle
 10
427.878778
 20
809.646867
 40
2.0
100
AcDbArc
 50
0.0
 51
89.999563
  0
ARC
  5
575
100
AcDbEntity
  8
M0
 62
     7
100
AcDbCircle
 10
321.878778
 20
809.646867
 40
2.0
100
AcDbArc
 50
89.999563
 51
179.999563
  0
ARC
  5
576
100
AcDbEntity
  8
M0
 62
     7
100
AcDbCircle
 10
321.878778
 20
683.646867
 40
2.0
100
AcDbArc
 50
179.999563
 51
270.0
  0
ARC
  5
577
100
AcDbEntity
  8
M0
 62
     7
100
AcDbCircle
 10
427.878778
 20
683.646867
 40
2.0
100
AcDbArc
 50
270.0
 51
360.0
  0
LINE
  5
578
100
AcDbEntity
  8
M0
 62
     7
100
AcDbLine
 10
331.878778
 20
685.646867
 11
347.878778
 21
685.646867
  0
LINE
  5
579
100
AcDbEntity
  8
M0
 62
     7
100
AcDbLine
 10
331.878778
 20
807.646867
 11
347.878778
 21
807.646867
  0
LINE
  5
57A
100
AcDbEntity
  8
M0
 62
     7
100
AcDbLine
 10
417.878778
 20
685.646867
 11
417.878778
 21
682.646867
  0
LINE
  5
57B
100
AcDbEntity
  8
M0
 62
     7
100
AcDbLine
 10
401.878778
 20
685.646867
 11
401.878778
 21
668.14702
  0
LINE
  5
57C
100
AcDbEntity
  8
M0
 62
     7
100
AcDbLine
 10
382.878778
 20
685.646867
 11
382.878778
 21
682.646867
  0
LINE
  5
57D
100
AcDbEntity
  8
M0
 62
     7
100
AcDbLine
 10
366.878778
 20
685.646867
 11
366.878778
 21
682.646867
  0
LINE
  5
57E
100
AcDbEntity
  8
M0
 62
     7
100
AcDbLine
 10
331.878778
 20
685.646867
 11
331.878778
 21
682.646867
  0
LINE
  5
57F
100
AcDbEntity
  8
M0
 62
     7
100
AcDbLine
 10
347.878778
 20
685.646867
 11
347.878778
 21
668.14702
  0
LINE
  5
580
100
AcDbEntity
  8
M0
 62
     7
100
AcDbLine
 10
417.878778
 20
810.646867
 11
417.878778
 21
807.646867
  0
LINE
  5
581
100
AcDbEntity
  8
M0
 62
     7
100
AcDbLine
 10
401.878778
 20
811.646867
 11
401.878778
 21
807.646867
  0
LINE
  5
582
100
AcDbEntity
  8
M0
 62
     7
100
AcDbLine
 10
382.878778
 20
810.646867
 11
382.878778
 21
807.646867
  0
LINE
  5
583
100
AcDbEntity
  8
M0
 62
     7
100
AcDbLine
 10
366.878778
 20
810.646867
 11
366.878778
 21
807.646867
  0
LINE
  5
584
100
AcDbEntity
  8
M0
 62
     7
100
AcDbLine
 10
347.878778
 20
811.646867
 11
347.878778
 21
807.646867
  0
LINE
  5
585
100
AcDbEntity
  8
M0
 62
     7
100
AcDbLine
 10
331.878778
 20
810.646867
 11
331.878778
 21
807.646867
  0
LINE
  5
586
100
AcDbEntity
  8
M0
 62
     7
100
AcDbLine
 10
366.878778
 20
685.646867
 11
382.878778
 21
685.646867
  0
LINE
  5
587
100
AcDbEntity
  8
M0
 62
     7
100
AcDbLine
 10
401.878778
 20
685.646867
 11
417.878778
 21
685.646867
  0
LINE
  5
588
100
AcDbEntity
  8
M0
 62
     7
100
AcDbLine
 10
401.878778
 20
807.646867
 11
417.878778
 21
807.646867
  0
LINE
  5
589
100
AcDbEntity
  8
M0
 62
     7
100
AcDbLine
 10
366.878778
 20
807.646867
 11
382.878778
 21
807.646867
  0
ARC
  5
58A
100
AcDbEntity
  8
M0
 62
     7
100
AcDbCircle
 10
349.878778
 20
673.64702
 40
2.0
100
AcDbArc
 50
179.979017
 51
270.0
  0
ARC
  5
58B
100
AcDbEntity
  8
M0
 62
     7
100
AcDbCircle
 10
399.878778
 20
673.64702
 40
2.0
100
AcDbArc
 50
270.0
 51
360.0
  0
LINE
  5
58C
100
AcDbEntity
  8
M0
 62
     7
100
AcDbLine
 10
361.878778
 20
680.646867
 11
361.878778
 21
673.64702
  0
LINE
  5
58D
100
AcDbEntity
  8
M0
 62
     7
100
AcDbLine
 10
387.878778
 20
680.646867
 11
387.878778
 21
673.64702
  0
LINE
  5
58E
100
AcDbEntity
  8
M0
 62
     7
100
AcDbLine
 10
389.878778
 20
671.64702
 11
399.878778
 21
671.64702
  0
LINE
  5
58F
100
AcDbEntity
  8
M0
 62
     7
100
AcDbLine
 10
362.878778
 20
681.646867
 11
386.878778
 21
681.646867
  0
LINE
  5
590
100
AcDbEntity
  8
M0
 62
     7
100
AcDbLine
 10
402.878778
 20
681.646867
 11
427.878778
 21
681.646867
  0
ARC
  5
591
100
AcDbEntity
  8
M0
 62
     7
100
AcDbCircle
 10
359.878778
 20
673.64702
 40
2.0
100
AcDbArc
 50
270.0
 51
360.0
  0
ARC
  5
592
100
AcDbEntity
  8
M0
 62
     7
100
AcDbCircle
 10
389.878778
 20
673.64702
 40
2.0
100
AcDbArc
 50
179.979017
 51
270.0
  0
ARC
  5
593
100
AcDbEntity
  8
M0
 62
     7
100
AcDbCircle
 10
362.878778
 20
680.646867
 40
1.0
100
AcDbArc
 50
89.999126
 51
179.999126
  0
ARC
  5
594
100
AcDbEntity
  8
M0
 62
     7
100
AcDbCircle
 10
386.878778
 20
680.646867
 40
1.0
100
AcDbArc
 50
0.0
 51
89.999126
  0
ARC
  5
595
100
AcDbEntity
  8
M0
 62
     7
100
AcDbCircle
 10
418.878778
 20
682.646867
 40
1.0
100
AcDbArc
 50
179.999126
 51
270.0
  0
ARC
  5
596
100
AcDbEntity
  8
M0
 62
     7
100
AcDbCircle
 10
402.878778
 20
680.646867
 40
1.0
100
AcDbArc
 50
89.999126
 51
179.999126
  0
ARC
  5
597
100
AcDbEntity
  8
M0
 62
     7
100
AcDbCircle
 10
383.878778
 20
682.646867
 40
1.0
100
AcDbArc
 50
179.999126
 51
270.0
  0
ARC
  5
598
100
AcDbEntity
  8
M0
 62
     7
100
AcDbCircle
 10
365.878778
 20
682.646867
 40
1.0
100
AcDbArc
 50
270.0
 51
360.0
  0
ARC
  5
599
100
AcDbEntity
  8
M0
 62
     7
100
AcDbCircle
 10
346.878778
 20
680.646867
 40
1.0
100
AcDbArc
 50
0.0
 51
89.999126
  0
ARC
  5
59A
100
AcDbEntity
  8
M0
 62
     7
100
AcDbCircle
 10
330.878778
 20
682.646867
 40
1.0
100
AcDbArc
 50
270.0
 51
360.0
  0
LINE
  5
59B
100
AcDbEntity
  8
M0
 62
     7
100
AcDbLine
 10
401.878778
 20
825.146623
 11
401.878778
 21
811.646867
  0
LINE
  5
59C
100
AcDbEntity
  8
M0
 62
     7
100
AcDbLine
 10
387.878778
 20
819.646623
 11
387.878778
 21
812.646867
  0
LINE
  5
59D
100
AcDbEntity
  8
M0
 62
     7
100
AcDbLine
 10
361.878778
 20
819.646379
 11
361.878778
 21
812.646867
  0
LINE
  5
59E
100
AcDbEntity
  8
M0
 62
     7
100
AcDbLine
 10
347.878778
 20
825.146135
 11
347.878778
 21
811.646867
  0
LINE
  5
59F
100
AcDbEntity
  8
M0
 62
     7
100
AcDbLine
 10
359.878778
 20
821.646623
 11
349.878778
 21
821.646623
  0
ARC
  5
5A0
100
AcDbEntity
  8
M0
 62
     7
100
AcDbCircle
 10
399.878778
 20
819.646623
 40
2.0
100
AcDbArc
 50
0.0
 51
89.999563
  0
ARC
  5
5A1
100
AcDbEntity
  8
M0
 62
     7
100
AcDbCircle
 10
389.878778
 20
819.646623
 40
2.0
100
AcDbArc
 50
89.999563
 51
179.999563
  0
ARC
  5
5A2
100
AcDbEntity
  8
M0
 62
     7
100
AcDbCircle
 10
359.878778
 20
819.646379
 40
2.0
100
AcDbArc
 50
0.0
 51
89.999563
  0
ARC
  5
5A3
100
AcDbEntity
  8
M0
 62
     7
100
AcDbCircle
 10
349.878778
 20
819.646379
 40
2.0
100
AcDbArc
 50
89.999563
 51
179.999563
  0
LINE
  5
5A4
100
AcDbEntity
  8
M0
 62
     7
100
AcDbLine
 10
362.878778
 20
811.646867
 11
386.878778
 21
811.646867
  0
LINE
  5
5A5
100
AcDbEntity
  8
M0
 62
     7
100
AcDbLine
 10
402.878778
 20
811.646867
 11
427.878778
 21
811.646867
  0
ARC
  5
5A6
100
AcDbEntity
  8
M0
 62
     7
100
AcDbCircle
 10
362.878778
 20
812.646867
 40
1.0
100
AcDbArc
 50
179.999126
 51
270.0
  0
ARC
  5
5A7
100
AcDbEntity
  8
M0
 62
     7
100
AcDbCircle
 10
386.878778
 20
812.646867
 40
1.0
100
AcDbArc
 50
270.0
 51
360.0
  0
ARC
  5
5A8
100
AcDbEntity
  8
M0
 62
     7
100
AcDbCircle
 10
418.878778
 20
810.646867
 40
1.0
100
AcDbArc
 50
89.999126
 51
179.999126
  0
ARC
  5
5A9
100
AcDbEntity
  8
M0
 62
     7
100
AcDbCircle
 10
402.878778
 20
812.646867
 40
1.0
100
AcDbArc
 50
179.999126
 51
270.0
  0
ARC
  5
5AA
100
AcDbEntity
  8
M0
 62
     7
100
AcDbCircle
 10
383.878778
 20
810.646867
 40
1.0
100
AcDbArc
 50
89.999126
 51
179.999126
  0
ARC
  5
5AB
100
AcDbEntity
  8
M0
 62
     7
100
AcDbCircle
 10
330.878778
 20
810.646867
 40
1.0
100
AcDbArc
 50
0.0
 51
89.999126
  0
ARC
  5
5AC
100
AcDbEntity
  8
M0
 62
     7
100
AcDbCircle
 10
346.878778
 20
812.646867
 40
1.0
100
AcDbArc
 50
270.0
 51
360.0
  0
ARC
  5
5AD
100
AcDbEntity
  8
M0
 62
     7
100
AcDbCircle
 10
365.878778
 20
810.646867
 40
1.0
100
AcDbArc
 50
0.0
 51
89.999126
  0
LINE
  5
5AE
100
AcDbEntity
  8
M0
 62
     7
100
AcDbLine
 10
349.878778
 20
666.14702
 11
356.878763
 21
666.14702
  0
LINE
  5
5AF
100
AcDbEntity
  8
M0
 62
     7
100
AcDbLine
 10
392.878763
 20
666.14702
 11
399.878778
 21
666.14702
  0
LINE
  5
5B0
100
AcDbEntity
  8
M0
 62
     7
100
AcDbLine
 10
399.878778
 20
827.146867
 11
392.878946
 21
827.146623
  0
LINE
  5
5B1
100
AcDbEntity
  8
M0
 62
     7
100
AcDbLine
 10
356.878595
 20
827.146135
 11
349.878778
 21
827.146623
  0
ARC
  5
5B2
100
AcDbEntity
  8
M0
 62
     7
100
AcDbCircle
 10
349.878778
 20
825.146379
 40
2.0
100
AcDbArc
 50
89.999563
 51
180.005683
  0
ARC
  5
5B3
100
AcDbEntity
  8
M0
 62
     7
100
AcDbCircle
 10
399.878778
 20
825.146623
 40
2.0
100
AcDbArc
 50
0.0
 51
89.999563
  0
ARC
  5
5B4
100
AcDbEntity
  8
M0
 62
     7
100
AcDbCircle
 10
399.878778
 20
668.14702
 40
2.0
100
AcDbArc
 50
270.0
 51
360.0
  0
ARC
  5
5B5
100
AcDbEntity
  8
M0
 62
     7
100
AcDbCircle
 10
349.878778
 20
668.14702
 40
2.0
100
AcDbArc
 50
179.979017
 51
270.0
  0
LINE
  5
5B6
100
AcDbEntity
  8
M0
 62
     7
100
AcDbLine
 10
351.378778
 20
669.14702
 11
352.378778
 21
669.14702
  0
LINE
  5
5B7
100
AcDbEntity
  8
M0
 62
     7
100
AcDbLine
 10
394.378778
 20
669.14702
 11
395.378778
 21
669.14702
  0
LINE
  5
5B8
100
AcDbEntity
  8
M0
 62
     7
100
AcDbLine
 10
397.378778
 20
669.14702
 11
397.378778
 21
666.14702
  0
LINE
  5
5B9
100
AcDbEntity
  8
M0
 62
     7
100
AcDbLine
 10
395.378778
 20
669.14702
 11
395.378778
 21
666.14702
  0
LINE
  5
5BA
100
AcDbEntity
  8
M0
 62
     7
100
AcDbLine
 10
354.378778
 20
669.14702
 11
354.378778
 21
666.14702
  0
LINE
  5
5BB
100
AcDbEntity
  8
M0
 62
     7
100
AcDbLine
 10
352.378778
 20
669.14702
 11
352.378778
 21
666.14702
  0
LINE
  5
5BC
100
AcDbEntity
  8
M0
 62
     7
100
AcDbLine
 10
398.878778
 20
671.14702
 11
398.878778
 21
669.64702
  0
LINE
  5
5BD
100
AcDbEntity
  8
M0
 62
     7
100
AcDbLine
 10
393.878778
 20
671.14702
 11
393.878778
 21
669.64702
  0
LINE
  5
5BE
100
AcDbEntity
  8
M0
 62
     7
100
AcDbLine
 10
355.878778
 20
671.14702
 11
355.878778
 21
669.64702
  0
LINE
  5
5BF
100
AcDbEntity
  8
M0
 62
     7
100
AcDbLine
 10
350.878778
 20
671.14702
 11
350.878778
 21
669.64702
  0
LINE
  5
5C0
100
AcDbEntity
  8
M0
 62
     7
100
AcDbLine
 10
354.378778
 20
669.14702
 11
355.378778
 21
669.14702
  0
LINE
  5
5C1
100
AcDbEntity
  8
M0
 62
     7
100
AcDbLine
 10
397.378778
 20
669.14702
 11
398.378778
 21
669.14702
  0
ARC
  5
5C2
100
AcDbEntity
  8
M0
 62
     7
100
AcDbCircle
 10
394.378778
 20
669.64702
 40
0.5
100
AcDbArc
 50
179.916068
 51
270.0
  0
ARC
  5
5C3
100
AcDbEntity
  8
M0
 62
     7
100
AcDbCircle
 10
351.378778
 20
669.64702
 40
0.5
100
AcDbArc
 50
179.916068
 51
270.0
  0
ARC
  5
5C4
100
AcDbEntity
  8
M0
 62
     7
100
AcDbCircle
 10
355.378778
 20
669.64702
 40
0.5
100
AcDbArc
 50
270.0
 51
360.0
  0
ARC
  5
5C5
100
AcDbEntity
  8
M0
 62
     7
100
AcDbCircle
 10
398.378778
 20
669.64702
 40
0.5
100
AcDbArc
 50
270.0
 51
360.0
  0
ARC
  5
5C6
100
AcDbEntity
  8
M0
 62
     7
100
AcDbCircle
 10
394.378778
 20
671.14702
 40
0.5
100
AcDbArc
 50
89.998251
 51
179.916068
  0
ARC
  5
5C7
100
AcDbEntity
  8
M0
 62
     7
100
AcDbCircle
 10
351.378778
 20
671.14702
 40
0.5
100
AcDbArc
 50
89.998251
 51
179.916068
  0
ARC
  5
5C8
100
AcDbEntity
  8
M0
 62
     7
100
AcDbCircle
 10
398.378778
 20
671.14702
 40
0.5
100
AcDbArc
 50
0.0
 51
89.998251
  0
ARC
  5
5C9
100
AcDbEntity
  8
M0
 62
     7
100
AcDbCircle
 10
355.378778
 20
671.14702
 40
0.5
100
AcDbArc
 50
0.0
 51
89.998251
  0
LINE
  5
5CA
100
AcDbEntity
  8
M0
 62
     7
100
AcDbLine
 10
356.878778
 20
666.14702
 11
361.493997
 21
672.467576
  0
LINE
  5
5CB
100
AcDbEntity
  8
M0
 62
     7
100
AcDbLine
 10
392.878778
 20
666.14702
 11
388.263544
 21
672.467576
  0
LINE
  5
5CC
100
AcDbEntity
  8
M0
 62
     7
100
AcDbLine
 10
356.878778
 20
827.146135
 11
361.493982
 21
820.825822
  0
LINE
  5
5CD
100
AcDbEntity
  8
M0
 62
     7
100
AcDbLine
 10
392.878778
 20
827.146623
 11
388.263544
 21
820.825822
  0
LINE
  5
5CE
100
AcDbEntity
  8
M0
 62
     7
100
AcDbLine
 10
398.378687
 20
824.146379
 11
397.378778
 21
824.146379
  0
LINE
  5
5CF
100
AcDbEntity
  8
M0
 62
     7
100
AcDbLine
 10
355.378687
 20
824.145646
 11
354.378778
 21
824.145646
  0
LINE
  5
5D0
100
AcDbEntity
  8
M0
 62
     7
100
AcDbLine
 10
397.378778
 20
827.146623
 11
397.378778
 21
824.146867
  0
LINE
  5
5D1
100
AcDbEntity
  8
M0
 62
     7
100
AcDbLine
 10
395.378778
 20
827.146623
 11
395.378778
 21
824.146867
  0
LINE
  5
5D2
100
AcDbEntity
  8
M0
 62
     7
100
AcDbLine
 10
354.378778
 20
827.146135
 11
354.378778
 21
824.146135
  0
LINE
  5
5D3
100
AcDbEntity
  8
M0
 62
     7
100
AcDbLine
 10
352.378778
 20
827.146379
 11
352.378778
 21
824.146135
  0
LINE
  5
5D4
100
AcDbEntity
  8
M0
 62
     7
100
AcDbLine
 10
398.878778
 20
823.646379
 11
398.878778
 21
822.146623
  0
LINE
  5
5D5
100
AcDbEntity
  8
M0
 62
     7
100
AcDbLine
 10
393.878778
 20
823.646379
 11
393.878778
 21
822.146623
  0
LINE
  5
5D6
100
AcDbEntity
  8
M0
 62
     7
100
AcDbLine
 10
355.878778
 20
823.645646
 11
355.878778
 21
822.146379
  0
LINE
  5
5D7
100
AcDbEntity
  8
M0
 62
     7
100
AcDbLine
 10
350.878778
 20
823.645646
 11
350.878778
 21
822.146379
  0
LINE
  5
5D8
100
AcDbEntity
  8
M0
 62
     7
100
AcDbLine
 10
352.378778
 20
824.145646
 11
351.378854
 21
824.145646
  0
LINE
  5
5D9
100
AcDbEntity
  8
M0
 62
     7
100
AcDbLine
 10
395.378778
 20
824.146379
 11
394.378854
 21
824.146379
  0
ARC
  5
5DA
100
AcDbEntity
  8
M0
 62
     7
100
AcDbCircle
 10
398.378778
 20
823.646379
 40
0.5
100
AcDbArc
 50
0.0
 51
90.005246
  0
ARC
  5
5DB
100
AcDbEntity
  8
M0
 62
     7
100
AcDbCircle
 10
394.378778
 20
823.646379
 40
0.5
100
AcDbArc
 50
89.986012
 51
179.998251
  0
ARC
  5
5DC
100
AcDbEntity
  8
M0
 62
     7
100
AcDbCircle
 10
355.378778
 20
823.645646
 40
0.5
100
AcDbArc
 50
0.0
 51
90.005246
  0
ARC
  5
5DD
100
AcDbEntity
  8
M0
 62
     7
100
AcDbCircle
 10
351.378778
 20
823.645646
 40
0.5
100
AcDbArc
 50
89.986012
 51
179.998251
  0
ARC
  5
5DE
100
AcDbEntity
  8
M0
 62
     7
100
AcDbCircle
 10
355.378778
 20
822.146379
 40
0.5
100
AcDbArc
 50
270.0
 51
360.0
  0
ARC
  5
5DF
100
AcDbEntity
  8
M0
 62
     7
100
AcDbCircle
 10
398.378778
 20
822.146623
 40
0.5
100
AcDbArc
 50
270.0
 51
360.0
  0
ARC
  5
5E0
100
AcDbEntity
  8
M0
 62
     7
100
AcDbCircle
 10
351.378778
 20
822.146379
 40
0.5
100
AcDbArc
 50
179.998251
 51
270.0
  0
ARC
  5
5E1
100
AcDbEntity
  8
M0
 62
     7
100
AcDbCircle
 10
394.378778
 20
822.146623
 40
0.5
100
AcDbArc
 50
179.998251
 51
270.0
  0
LINE
  5
5E2
100
AcDbEntity
  8
M0
 62
     7
100
AcDbLine
 10
386.178766
 20
730.646867
 11
386.178766
 21
733.646623
  0
LINE
  5
5E3
100
AcDbEntity
  8
M0
 62
     7
100
AcDbLine
 10
363.578775
 20
730.646867
 11
363.578775
 21
733.646867
  0
LINE
  5
5E4
100
AcDbEntity
  8
M0
 62
     7
100
AcDbLine
 10
366.578775
 20
736.646867
 11
383.178766
 21
736.646867
  0
LINE
  5
5E5
100
AcDbEntity
  8
M0
 62
     7
100
AcDbLine
 10
364.342706
 20
735.646867
 11
385.414819
 21
735.646867
  0
LINE
  5
5E6
100
AcDbEntity
  8
M0
 62
     7
100
AcDbLine
 10
363.578775
 20
730.646867
 11
386.178766
 21
730.646867
  0
LINE
  5
5E7
100
AcDbEntity
  8
M0
 62
     7
100
AcDbLine
 10
366.578775
 20
740.646867
 11
366.878778
 21
740.646867
  0
LINE
  5
5E8
100
AcDbEntity
  8
M0
 62
     7
100
AcDbLine
 10
363.578775
 20
743.646867
 11
363.578775
 21
753.946672
  0
LINE
  5
5E9
100
AcDbEntity
  8
M0
 62
     7
100
AcDbLine
 10
386.178766
 20
743.646623
 11
386.178766
 21
753.946428
  0
LINE
  5
5EA
100
AcDbEntity
  8
M0
 62
     7
100
AcDbLine
 10
366.578775
 20
756.946672
 11
370.878778
 21
756.946672
  0
ARC
  5
5EB
100
AcDbEntity
  8
M0
 62
     7
100
AcDbCircle
 10
366.578775
 20
733.646867
 40
3.0
100
AcDbArc
 50
89.999709
 51
179.999709
  0
ARC
  5
5EC
100
AcDbEntity
  8
M0
 62
     7
100
AcDbCircle
 10
383.178766
 20
733.646867
 40
3.0
100
AcDbArc
 50
0.0
 51
89.999709
  0
ARC
  5
5ED
100
AcDbEntity
  8
M0
 62
     7
100
AcDbCircle
 10
383.178766
 20
753.946672
 40
3.0
100
AcDbArc
 50
0.0
 51
89.999709
  0
ARC
  5
5EE
100
AcDbEntity
  8
M0
 62
     7
100
AcDbCircle
 10
366.578775
 20
753.946672
 40
3.0
100
AcDbArc
 50
89.999709
 51
179.999709
  0
ARC
  5
5EF
100
AcDbEntity
  8
M0
 62
     7
100
AcDbCircle
 10
366.578775
 20
743.646867
 40
3.0
100
AcDbArc
 50
179.999709
 51
270.0
  0
ARC
  5
5F0
100
AcDbEntity
  8
M0
 62
     7
100
AcDbCircle
 10
383.178766
 20
743.646867
 40
3.0
100
AcDbArc
 50
270.0
 51
360.0
  0
LINE
  5
5F1
100
AcDbEntity
  8
M0
 62
     7
100
AcDbLine
 10
382.878778
 20
740.646867
 11
382.878778
 21
736.646867
  0
LINE
  5
5F2
100
AcDbEntity
  8
M0
 62
     7
100
AcDbLine
 10
366.878778
 20
740.646867
 11
366.878778
 21
736.646867
  0
LINE
  5
5F3
100
AcDbEntity
  8
M0
 62
     7
100
AcDbLine
 10
382.878778
 20
740.646867
 11
383.178766
 21
740.646867
  0
LINE
  5
5F4
100
AcDbEntity
  8
M0
 62
     7
100
AcDbLine
 10
367.878778
 20
739.646867
 11
367.878778
 21
737.646867
  0
LINE
  5
5F5
100
AcDbEntity
  8
M0
 62
     7
100
AcDbLine
 10
381.878778
 20
739.646867
 11
381.878778
 21
737.646867
  0
LINE
  5
5F6
100
AcDbEntity
  8
M0
 62
     7
100
AcDbLine
 10
366.878778
 20
737.646867
 11
367.878778
 21
737.646867
  0
LINE
  5
5F7
100
AcDbEntity
  8
M0
 62
     7
100
AcDbLine
 10
381.878778
 20
737.646867
 11
382.878778
 21
737.646867
  0
LINE
  5
5F8
100
AcDbEntity
  8
M0
 62
     7
100
AcDbLine
 10
366.878778
 20
739.646867
 11
367.878778
 21
739.646867
  0
LINE
  5
5F9
100
AcDbEntity
  8
M0
 62
     7
100
AcDbLine
 10
381.878778
 20
739.646867
 11
382.878778
 21
739.646867
  0
LINE
  5
5FA
100
AcDbEntity
  8
M0
 62
     7
100
AcDbLine
 10
383.678766
 20
740.688615
 11
383.678766
 21
743.646867
  0
LINE
  5
5FB
100
AcDbEntity
  8
M0
 62
     7
100
AcDbLine
 10
366.078775
 20
740.688615
 11
366.078775
 21
743.646623
  0
LINE
  5
5FC
100
AcDbEntity
  8
M0
 62
     7
100
AcDbLine
 10
363.578775
 20
744.146867
 11
365.578775
 21
744.146867
  0
LINE
  5
5FD
100
AcDbEntity
  8
M0
 62
     7
100
AcDbLine
 10
384.178766
 20
744.146867
 11
386.178766
 21
744.146867
  0
ARC
  5
5FE
100
AcDbEntity
  8
M0
 62
     7
100
AcDbCircle
 10
384.178766
 20
743.646867
 40
0.5
100
AcDbArc
 50
89.998251
 51
179.998251
  0
ARC
  5
5FF
100
AcDbEntity
  8
M0
 62
     7
100
AcDbCircle
 10
365.578775
 20
743.646867
 40
0.5
100
AcDbArc
 50
359.972024
 51
449.998251
  0
LINE
  5
600
100
AcDbEntity
  8
M0
 62
     7
100
AcDbLine
 10
382.878778
 20
755.146867
 11
382.878778
 21
756.946672
  0
LINE
  5
601
100
AcDbEntity
  8
M0
 62
     7
100
AcDbLine
 10
366.878778
 20
755.146623
 11
366.878778
 21
756.946672
  0
LINE
  5
602
100
AcDbEntity
  8
M0
 62
     7
100
AcDbLine
 10
383.378778
 20
754.646867
 11
386.095895
 21
754.646867
  0
LINE
  5
603
100
AcDbEntity
  8
M0
 62
     7
100
AcDbLine
 10
363.66163
 20
754.646867
 11
366.378778
 21
754.646867
  0
ARC
  5
604
100
AcDbEntity
  8
M0
 62
     7
100
AcDbCircle
 10
366.378778
 20
755.146867
 40
0.5
100
AcDbArc
 50
270.0
 51
359.972024
  0
ARC
  5
605
100
AcDbEntity
  8
M0
 62
     7
100
AcDbCircle
 10
383.378778
 20
755.146867
 40
0.5
100
AcDbArc
 50
179.998251
 51
270.0
  0
LINE
  5
606
100
AcDbEntity
  8
M0
 62
     7
100
AcDbLine
 10
372.128778
 20
759.646867
 11
377.628778
 21
759.646867
  0
LINE
  5
607
100
AcDbEntity
  8
M0
 62
     7
100
AcDbLine
 10
373.128778
 20
762.646867
 11
376.628778
 21
762.646867
  0
LINE
  5
608
100
AcDbEntity
  8
M0
 62
     7
100
AcDbLine
 10
370.878778
 20
758.646867
 11
372.128778
 21
758.646867
  0
LINE
  5
609
100
AcDbEntity
  8
M0
 62
     7
100
AcDbLine
 10
370.878778
 20
759.346818
 11
372.128778
 21
759.346818
  0
LINE
  5
60A
100
AcDbEntity
  8
M0
 62
     7
100
AcDbLine
 10
378.878778
 20
759.346818
 11
378.878778
 21
756.946672
  0
LINE
  5
60B
100
AcDbEntity
  8
M0
 62
     7
100
AcDbLine
 10
370.878778
 20
759.346818
 11
370.878778
 21
756.946672
  0
LINE
  5
60C
100
AcDbEntity
  8
M0
 62
     7
100
AcDbLine
 10
377.628778
 20
758.646867
 11
377.628778
 21
761.646623
  0
LINE
  5
60D
100
AcDbEntity
  8
M0
 62
     7
100
AcDbLine
 10
372.128778
 20
758.646867
 11
372.128778
 21
761.646867
  0
LINE
  5
60E
100
AcDbEntity
  8
M0
 62
     7
100
AcDbLine
 10
378.878778
 20
756.946672
 11
383.178766
 21
756.946672
  0
LINE
  5
60F
100
AcDbEntity
  8
M0
 62
     7
100
AcDbLine
 10
377.628778
 20
758.646867
 11
378.878778
 21
758.646867
  0
LINE
  5
610
100
AcDbEntity
  8
M0
 62
     7
100
AcDbLine
 10
377.628778
 20
759.346818
 11
378.878778
 21
759.346818
  0
ARC
  5
611
100
AcDbEntity
  8
M0
 62
     7
100
AcDbCircle
 10
376.628778
 20
761.646867
 40
1.0
100
AcDbArc
 50
359.986012
 51
449.999126
  0
ARC
  5
612
100
AcDbEntity
  8
M0
 62
     7
100
AcDbCircle
 10
373.128778
 20
761.646867
 40
1.0
100
AcDbArc
 50
89.999126
 51
179.999126
  0
CIRCLE
  5
613
100
AcDbEntity
  8
M0
 62
     7
100
AcDbCircle
 10
394.878778
 20
679.646867
 40
4.5
  0
CIRCLE
  5
614
100
AcDbEntity
  8
M0
 62
     7
100
AcDbCircle
 10
354.878778
 20
813.646867
 40
4.5
  0
CIRCLE
  5
615
100
AcDbEntity
  8
M0
 62
     7
100
AcDbCircle
 10
354.878778
 20
679.646867
 40
1.86
  0
CIRCLE
  5
616
100
AcDbEntity
  8
M0
 62
     7
100
AcDbCircle
 10
394.878778
 20
813.646867
 40
1.86
  0
CIRCLE
  5
617
100
AcDbEntity
  8
M0
 62
     7
100
AcDbCircle
 10
354.878778
 20
679.646867
 40
1.36
  0
CIRCLE
  5
618
100
AcDbEntity
  8
M0
 62
     7
100
AcDbCircle
 10
394.878778
 20
813.646867
 40
1.36
  0
CIRCLE
  5
619
100
AcDbEntity
  8
M0
100
AcDbCircle
 10
354.878778
 20
813.646867
 40
2.25
  0
CIRCLE
  5
61A
100
AcDbEntity
  8
M0
100
AcDbCircle
 10
394.878778
 20
679.646867
 40
2.25
  0
LINE
  5
61B
100
AcDbEntity
  8
M0
 62
     6
100
AcDbLine
 10
414.378778
 20
646.146867
 11
439.378778
 21
646.146867
  0
LINE
  5
61C
100
AcDbEntity
  8
M0
 62
     6
100
AcDbLine
 10
405.911035
 20
681.646867
 11
414.378778
 21
671.146867
  0
LINE
  5
61D
100
AcDbEntity
  8
M0
 62
     6
100
AcDbLine
 10
426.253778
 20
681.646867
 11
439.378778
 21
666.646867
  0
LINE
  5
61E
100
AcDbEntity
  8
M0
 62
     6
100
AcDbLine
 10
439.378778
 20
646.146867
 11
439.378778
 21
666.646867
  0
LINE
  5
61F
100
AcDbEntity
  8
M0
 62
     6
100
AcDbLine
 10
414.378778
 20
671.146867
 11
414.378778
 21
646.146867
  0
LINE
  5
620
100
AcDbEntity
  8
M0
 62
     6
100
AcDbLine
 10
335.378778
 20
646.146867
 11
310.378778
 21
646.146867
  0
LINE
  5
621
100
AcDbEntity
  8
M0
 62
     6
100
AcDbLine
 10
343.846521
 20
681.646867
 11
335.378778
 21
671.146867
  0
LINE
  5
622
100
AcDbEntity
  8
M0
 62
     6
100
AcDbLine
 10
323.503778
 20
681.646867
 11
310.378778
 21
666.646867
  0
LINE
  5
623
100
AcDbEntity
  8
M0
 62
     6
100
AcDbLine
 10
310.378778
 20
646.146867
 11
310.378778
 21
666.646867
  0
LINE
  5
624
100
AcDbEntity
  8
M0
 62
     6
100
AcDbLine
 10
335.378778
 20
671.146867
 11
335.378778
 21
646.146867
  0
LINE
  5
625
100
AcDbEntity
  8
M0
  6
DASHDOT
 62
     6
100
AcDbLine
 10
331.878778
 20
658.646867
 11
313.878778
 21
658.646867
  0
LINE
  5
626
100
AcDbEntity
  8
M0
  6
DASHDOT
 62
     6
100
AcDbLine
 10
322.878778
 20
649.646867
 11
322.878778
 21
667.646867
  0
LINE
  5
627
100
AcDbEntity
  8
M0
 62
     6
100
AcDbLine
 10
414.378896
 20
847.146782
 11
439.378896
 21
847.146798
  0
LINE
  5
628
100
AcDbEntity
  8
M0
 62
     6
100
AcDbLine
 10
405.911176
 20
811.646777
 11
414.378912
 21
822.146782
  0
LINE
  5
629
100
AcDbEntity
  8
M0
 62
     6
100
AcDbLine
 10
426.253919
 20
811.64679
 11
439.378909
 21
826.646798
  0
LINE
  5
62A
100
AcDbEntity
  8
M0
 62
     6
100
AcDbLine
 10
439.378896
 20
847.146798
 11
439.378909
 21
826.646798
  0
LINE
  5
62B
100
AcDbEntity
  8
M0
 62
     6
100
AcDbLine
 10
414.378912
 20
822.146782
 11
414.378896
 21
847.146782
  0
LINE
  5
62C
100
AcDbEntity
  8
M0
  6
DASHDOT
 62
     6
100
AcDbLine
 10
426.878898
 20
843.64679
 11
426.87891
 21
825.64679
  0
LINE
  5
62D
100
AcDbEntity
  8
M0
 62
     6
100
AcDbLine
 10
335.378896
 20
847.146782
 11
310.378896
 21
847.146767
  0
LINE
  5
62E
100
AcDbEntity
  8
M0
 62
     6
100
AcDbLine
 10
343.846661
 20
811.646788
 11
335.378912
 21
822.146782
  0
LINE
  5
62F
100
AcDbEntity
  8
M0
 62
     6
100
AcDbLine
 10
323.503919
 20
811.646775
 11
310.378909
 21
826.646767
  0
LINE
  5
630
100
AcDbEntity
  8
M0
 62
     6
100
AcDbLine
 10
310.378896
 20
847.146767
 11
310.378909
 21
826.646767
  0
LINE
  5
631
100
AcDbEntity
  8
M0
 62
     6
100
AcDbLine
 10
335.378912
 20
822.146782
 11
335.378896
 21
847.146782
  0
LINE
  5
632
100
AcDbEntity
  8
M0
  6
DASHDOT
 62
     6
100
AcDbLine
 10
322.878898
 20
843.646775
 11
322.87891
 21
825.646775
  0
LINE
  5
633
100
AcDbEntity
  8
M0
 62
     7
100
AcDbLine
 10
367.528772
 20
736.346818
 11
382.228769
 21
736.346818
  0
LINE
  5
634
100
AcDbEntity
  8
M0
 62
     7
100
AcDbLine
 10
385.878778
 20
743.946428
 11
385.878778
 21
753.646379
  0
LINE
  5
635
100
AcDbEntity
  8
M0
 62
     7
100
AcDbLine
 10
363.878778
 20
753.646623
 11
363.878778
 21
743.946672
  0
LINE
  5
636
100
AcDbEntity
  8
M0
 62
     7
100
AcDbLine
 10
382.878763
 20
756.646867
 11
378.628778
 21
756.646623
  0
LINE
  5
637
100
AcDbEntity
  8
M0
 62
     7
100
AcDbLine
 10
366.878778
 20
740.946672
 11
367.028772
 21
740.946672
  0
ARC
  5
638
100
AcDbEntity
  8
M0
 62
     7
100
AcDbCircle
 10
382.878778
 20
743.946672
 40
3.0
100
AcDbArc
 50
270.0
 51
360.0
  0
ARC
  5
639
100
AcDbEntity
  8
M0
 62
     7
100
AcDbCircle
 10
382.878778
 20
753.646623
 40
3.0
100
AcDbArc
 50
0.0
 51
89.999709
  0
ARC
  5
63A
100
AcDbEntity
  8
M0
 62
     7
100
AcDbCircle
 10
366.878778
 20
753.646623
 40
3.0
100
AcDbArc
 50
89.999709
 51
179.999709
  0
ARC
  5
63B
100
AcDbEntity
  8
M0
 62
     7
100
AcDbCircle
 10
366.878778
 20
743.946672
 40
3.0
100
AcDbArc
 50
179.999709
 51
270.0
  0
LINE
  5
63C
100
AcDbEntity
  8
M0
 62
     7
100
AcDbLine
 10
382.728769
 20
740.946672
 11
382.728769
 21
736.846818
  0
LINE
  5
63D
100
AcDbEntity
  8
M0
 62
     7
100
AcDbLine
 10
367.028772
 20
740.946672
 11
367.028772
 21
736.846818
  0
LINE
  5
63E
100
AcDbEntity
  8
M0
 62
     7
100
AcDbLine
 10
382.728769
 20
740.946672
 11
382.878778
 21
740.946672
  0
ARC
  5
63F
100
AcDbEntity
  8
M0
 62
     7
100
AcDbCircle
 10
367.528772
 20
736.846818
 40
0.5
100
AcDbArc
 50
179.998251
 51
270.0
  0
ARC
  5
640
100
AcDbEntity
  8
M0
 62
     7
100
AcDbCircle
 10
382.228769
 20
736.846818
 40
0.5
100
AcDbArc
 50
270.0
 51
360.0
  0
LINE
  5
641
100
AcDbEntity
  8
M0
 62
     7
100
AcDbLine
 10
378.628778
 20
759.346818
 11
378.628778
 21
756.646867
  0
LINE
  5
642
100
AcDbEntity
  8
M0
 62
     7
100
AcDbLine
 10
371.128778
 20
759.346818
 11
371.128778
 21
756.646867
  0
LINE
  5
643
100
AcDbEntity
  8
M0
 62
     7
100
AcDbLine
 10
371.128778
 20
756.646623
 11
366.878763
 21
756.646867
  0
LINE
  5
644
100
AcDbEntity
  8
M0
 62
     7
100
AcDbLine
 10
371.878778
 20
746.646867
 11
377.878778
 21
746.646867
  0
LINE
  5
645
100
AcDbEntity
  8
M0
 62
     7
100
AcDbLine
 10
371.878778
 20
751.146867
 11
377.878778
 21
751.146867
  0
LINE
  5
646
100
AcDbEntity
  8
M0
 62
     7
100
AcDbLine
 10
377.878778
 20
751.146867
 11
377.878778
 21
746.646867
  0
LINE
  5
647
100
AcDbEntity
  8
M0
 62
     7
100
AcDbLine
 10
371.878778
 20
751.146867
 11
371.878778
 21
746.646867
  0
LINE
  5
648
100
AcDbEntity
  8
M0
 62
     7
100
AcDbLine
 10
371.128778
 20
759.346864
 11
372.628778
 21
759.346864
  0
LINE
  5
649
100
AcDbEntity
  8
M0
 62
     7
100
AcDbLine
 10
372.628778
 20
759.846864
 11
377.128778
 21
759.846864
  0
LINE
  5
64A
100
AcDbEntity
  8
M0
 62
     7
100
AcDbLine
 10
371.128778
 20
758.346864
 11
378.628778
 21
758.346864
  0
LINE
  5
64B
100
AcDbEntity
  8
M0
 62
     7
100
AcDbLine
 10
377.128778
 20
759.846864
 11
377.128778
 21
758.346864
  0
LINE
  5
64C
100
AcDbEntity
  8
M0
 62
     7
100
AcDbLine
 10
372.628778
 20
759.846864
 11
372.628778
 21
758.346864
  0
LINE
  5
64D
100
AcDbEntity
  8
M0
 62
     7
100
AcDbLine
 10
377.128778
 20
759.346864
 11
378.628778
 21
759.346864
  0
LINE
  5
64E
100
AcDbEntity
  8
M0
100
AcDbLine
 10
344.878778
 20
857.546525
 11
404.87858
 21
857.546525
  0
LINE
  5
64F
100
AcDbEntity
  8
M0
100
AcDbLine
 10
404.87858
 20
857.546525
 11
404.87858
 21
873.546525
  0
LINE
  5
650
100
AcDbEntity
  8
M0
100
AcDbLine
 10
404.87858
 20
873.546525
 11
394.37858
 21
873.546281
  0
LINE
  5
651
100
AcDbEntity
  8
M0
100
AcDbLine
 10
344.878778
 20
873.546525
 11
344.878778
 21
857.546525
  0
LINE
  5
652
100
AcDbEntity
  8
M0
100
AcDbLine
 10
350.878778
 20
858.546525
 11
353.878778
 21
858.546525
  0
LINE
  5
653
100
AcDbEntity
  8
M0
100
AcDbLine
 10
380.878778
 20
873.546525
 11
380.878778
 21
858.546525
  0
LINE
  5
654
100
AcDbEntity
  8
M0
100
AcDbLine
 10
368.878778
 20
873.546525
 11
368.878778
 21
858.546525
  0
LINE
  5
655
100
AcDbEntity
  8
M0
100
AcDbLine
 10
365.878778
 20
873.546525
 11
365.878778
 21
858.546525
  0
LINE
  5
656
100
AcDbEntity
  8
M0
100
AcDbLine
 10
353.878778
 20
873.546525
 11
353.878778
 21
858.546525
  0
LINE
  5
657
100
AcDbEntity
  8
M0
100
AcDbLine
 10
383.87858
 20
873.546525
 11
383.87858
 21
858.546525
  0
LINE
  5
658
100
AcDbEntity
  8
M0
100
AcDbLine
 10
395.87858
 20
873.546525
 11
395.87858
 21
858.546525
  0
LINE
  5
659
100
AcDbEntity
  8
M0
100
AcDbLine
 10
398.87858
 20
873.546525
 11
398.87858
 21
858.546525
  0
LINE
  5
65A
100
AcDbEntity
  8
M0
100
AcDbLine
 10
350.878778
 20
873.546525
 11
350.878778
 21
858.546525
  0
LINE
  5
65B
100
AcDbEntity
  8
M0
100
AcDbLine
 10
365.878778
 20
858.546525
 11
368.878778
 21
858.546525
  0
LINE
  5
65C
100
AcDbEntity
  8
M0
100
AcDbLine
 10
380.878778
 20
858.546525
 11
383.87858
 21
858.546525
  0
LINE
  5
65D
100
AcDbEntity
  8
M0
100
AcDbLine
 10
395.87858
 20
858.546525
 11
398.87858
 21
858.546525
  0
LINE
  5
65E
100
AcDbEntity
  8
M0
100
AcDbLine
 10
394.37858
 20
871.546281
 11
394.12858
 21
871.546037
  0
LINE
  5
65F
100
AcDbEntity
  8
M0
100
AcDbLine
 10
364.378778
 20
873.546525
 11
364.378778
 21
871.546525
  0
LINE
  5
660
100
AcDbEntity
  8
M0
100
AcDbLine
 10
355.378778
 20
873.546525
 11
355.378778
 21
871.546525
  0
LINE
  5
661
100
AcDbEntity
  8
M0
100
AcDbLine
 10
379.378778
 20
873.546525
 11
379.378778
 21
871.546525
  0
LINE
  5
662
100
AcDbEntity
  8
M0
100
AcDbLine
 10
370.378778
 20
873.546525
 11
370.378778
 21
871.546525
  0
LINE
  5
663
100
AcDbEntity
  8
M0
100
AcDbLine
 10
394.37858
 20
873.546525
 11
394.37858
 21
871.546525
  0
LINE
  5
664
100
AcDbEntity
  8
M0
100
AcDbLine
 10
385.37858
 20
873.546525
 11
385.37858
 21
871.546525
  0
LINE
  5
665
100
AcDbEntity
  8
M0
100
AcDbLine
 10
364.378778
 20
871.546037
 11
364.128976
 21
871.545793
  0
LINE
  5
666
100
AcDbEntity
  8
M0
100
AcDbLine
 10
379.378778
 20
871.546037
 11
379.128778
 21
871.545793
  0
LINE
  5
667
100
AcDbEntity
  8
M0
100
AcDbLine
 10
355.378778
 20
873.546281
 11
344.878778
 21
873.546525
  0
LINE
  5
668
100
AcDbEntity
  8
M0
100
AcDbLine
 10
370.378778
 20
873.546281
 11
364.378778
 21
873.546281
  0
LINE
  5
669
100
AcDbEntity
  8
M0
100
AcDbLine
 10
385.37858
 20
873.546281
 11
379.378778
 21
873.546281
  0
LINE
  5
66A
100
AcDbEntity
  8
M0
100
AcDbLine
 10
353.878778
 20
861.546525
 11
355.628961
 21
861.546525
  0
LINE
  5
66B
100
AcDbEntity
  8
M0
100
AcDbLine
 10
364.128976
 20
861.546525
 11
365.878778
 21
861.546525
  0
LINE
  5
66C
100
AcDbEntity
  8
M0
100
AcDbLine
 10
368.878778
 20
861.546525
 11
370.628763
 21
861.546525
  0
LINE
  5
66D
100
AcDbEntity
  8
M0
100
AcDbLine
 10
379.128778
 20
861.546525
 11
380.878778
 21
861.546525
  0
LINE
  5
66E
100
AcDbEntity
  8
M0
100
AcDbLine
 10
383.87858
 20
861.546525
 11
385.62858
 21
861.546525
  0
LINE
  5
66F
100
AcDbEntity
  8
M0
100
AcDbLine
 10
394.12858
 20
861.546525
 11
395.87858
 21
861.546525
  0
LINE
  5
670
100
AcDbEntity
  8
M0
100
AcDbLine
 10
355.628961
 20
871.545793
 11
355.378778
 21
871.546281
  0
LINE
  5
671
100
AcDbEntity
  8
M0
100
AcDbLine
 10
370.628763
 20
871.545793
 11
370.378778
 21
871.546037
  0
LINE
  5
672
100
AcDbEntity
  8
M0
100
AcDbLine
 10
385.62858
 20
871.546037
 11
385.37858
 21
871.546037
  0
LINE
  5
673
100
AcDbEntity
  8
M0
 62
     7
100
AcDbLine
 10
385.62858
 20
858.546281
 11
394.12858
 21
858.546281
  0
LINE
  5
674
100
AcDbEntity
  8
M0
 62
     7
100
AcDbLine
 10
394.12858
 20
858.546281
 11
394.12858
 21
864.014299
  0
LINE
  5
675
100
AcDbEntity
  8
M0
 62
     7
100
AcDbLine
 10
394.12858
 20
872.546281
 11
385.62858
 21
872.546281
  0
LINE
  5
676
100
AcDbEntity
  8
M0
 62
     7
100
AcDbLine
 10
385.62858
 20
872.546281
 11
385.62858
 21
869.046037
  0
LINE
  5
677
100
AcDbEntity
  8
M0
 62
     7
100
AcDbLine
 10
385.62858
 20
859.546281
 11
394.12858
 21
859.546281
  0
LINE
  5
678
100
AcDbEntity
  8
M0
 62
     7
100
AcDbLine
 10
392.37858
 20
859.546281
 11
392.37858
 21
858.546281
  0
LINE
  5
679
100
AcDbEntity
  8
M0
 62
     7
100
AcDbLine
 10
387.37858
 20
859.546281
 11
387.37858
 21
858.546281
  0
LINE
  5
67A
100
AcDbEntity
  8
M0
 62
     7
100
AcDbLine
 10
385.62858
 20
864.014299
 11
385.62858
 21
858.546281
  0
LINE
  5
67B
100
AcDbEntity
  8
M0
 62
     7
100
AcDbLine
 10
394.12858
 20
869.045793
 11
394.12858
 21
872.546281
  0
LINE
  5
67C
100
AcDbEntity
  8
M0
 62
     7
100
AcDbLine
 10
364.128961
 20
858.546281
 11
355.628961
 21
858.546281
  0
LINE
  5
67D
100
AcDbEntity
  8
M0
 62
     7
100
AcDbLine
 10
355.628961
 20
858.546281
 11
355.628961
 21
864.014055
  0
LINE
  5
67E
100
AcDbEntity
  8
M0
 62
     7
100
AcDbLine
 10
355.628976
 20
872.546281
 11
364.128976
 21
872.546037
  0
LINE
  5
67F
100
AcDbEntity
  8
M0
 62
     7
100
AcDbLine
 10
364.128976
 20
872.546037
 11
364.128976
 21
869.045549
  0
LINE
  5
680
100
AcDbEntity
  8
M0
 62
     7
100
AcDbLine
 10
364.128961
 20
859.546281
 11
355.628961
 21
859.546281
  0
LINE
  5
681
100
AcDbEntity
  8
M0
 62
     7
100
AcDbLine
 10
357.378961
 20
859.546281
 11
357.378961
 21
858.546281
  0
LINE
  5
682
100
AcDbEntity
  8
M0
 62
     7
100
AcDbLine
 10
362.378961
 20
859.546281
 11
362.378961
 21
858.546281
  0
LINE
  5
683
100
AcDbEntity
  8
M0
 62
     7
100
AcDbLine
 10
355.628961
 20
869.045793
 11
355.628976
 21
872.546281
  0
LINE
  5
684
100
AcDbEntity
  8
M0
 62
     7
100
AcDbLine
 10
364.128976
 20
864.014055
 11
364.128961
 21
858.546037
  0
LINE
  5
685
100
AcDbEntity
  8
M0
 62
     7
100
AcDbLine
 10
379.128763
 20
858.546281
 11
370.628763
 21
858.546281
  0
LINE
  5
686
100
AcDbEntity
  8
M0
 62
     7
100
AcDbLine
 10
370.628763
 20
858.546281
 11
370.628763
 21
864.014055
  0
LINE
  5
687
100
AcDbEntity
  8
M0
 62
     7
100
AcDbLine
 10
370.628778
 20
872.546281
 11
379.128778
 21
872.546037
  0
LINE
  5
688
100
AcDbEntity
  8
M0
 62
     7
100
AcDbLine
 10
379.128778
 20
872.546037
 11
379.128778
 21
869.045549
  0
LINE
  5
689
100
AcDbEntity
  8
M0
 62
     7
100
AcDbLine
 10
379.128763
 20
859.546281
 11
370.628763
 21
859.546281
  0
LINE
  5
68A
100
AcDbEntity
  8
M0
 62
     7
100
AcDbLine
 10
372.378763
 20
859.546281
 11
372.378763
 21
858.546281
  0
LINE
  5
68B
100
AcDbEntity
  8
M0
 62
     7
100
AcDbLine
 10
377.378763
 20
859.546281
 11
377.378763
 21
858.546281
  0
LINE
  5
68C
100
AcDbEntity
  8
M0
 62
     7
100
AcDbLine
 10
370.628763
 20
869.045793
 11
370.628778
 21
872.546281
  0
LINE
  5
68D
100
AcDbEntity
  8
M0
 62
     7
100
AcDbLine
 10
379.128778
 20
864.01381
 11
379.128763
 21
858.546037
  0
LINE
  5
68E
100
AcDbEntity
  8
M0
100
AcDbLine
 10
356.378778
 20
862.046525
 11
363.378778
 21
862.046525
  0
LINE
  5
68F
100
AcDbEntity
  8
M0
100
AcDbLine
 10
365.628778
 20
864.046525
 11
365.628778
 21
869.046281
  0
LINE
  5
690
100
AcDbEntity
  8
M0
100
AcDbLine
 10
361.378778
 20
871.046281
 11
358.378778
 21
871.046281
  0
LINE
  5
691
100
AcDbEntity
  8
M0
100
AcDbLine
 10
354.128778
 20
869.046037
 11
354.128778
 21
864.046525
  0
LINE
  5
692
100
AcDbEntity
  8
M0
100
AcDbLine
 10
365.628778
 20
869.046525
 11
362.878778
 21
869.046525
  0
LINE
  5
693
100
AcDbEntity
  8
M0
100
AcDbLine
 10
361.378778
 20
871.046525
 11
361.378778
 21
870.546281
  0
LINE
  5
694
100
AcDbEntity
  8
M0
100
AcDbLine
 10
358.378778
 20
871.046525
 11
358.378778
 21
870.546037
  0
LINE
  5
695
100
AcDbEntity
  8
M0
100
AcDbLine
 10
356.878778
 20
869.046281
 11
354.128778
 21
869.046525
  0
LINE
  5
696
100
AcDbEntity
  8
M0
100
AcDbLine
 10
361.378778
 20
869.046281
 11
358.378778
 21
869.046281
  0
LINE
  5
697
100
AcDbEntity
  8
M0
100
AcDbLine
 10
354.128778
 20
864.046525
 11
355.378778
 21
864.046525
  0
LINE
  5
698
100
AcDbEntity
  8
M0
100
AcDbLine
 10
363.378778
 20
863.046525
 11
363.378778
 21
862.046525
  0
LINE
  5
699
100
AcDbEntity
  8
M0
100
AcDbLine
 10
356.378778
 20
863.046525
 11
356.378778
 21
862.046525
  0
LINE
  5
69A
100
AcDbEntity
  8
M0
100
AcDbLine
 10
364.378778
 20
864.046525
 11
365.628778
 21
864.046525
  0
ARC
  5
69B
100
AcDbEntity
  8
M0
100
AcDbCircle
 10
362.878778
 20
870.546281
 40
1.5
100
AcDbArc
 50
179.999417
 51
270.0
  0
ARC
  5
69C
100
AcDbEntity
  8
M0
100
AcDbCircle
 10
356.878778
 20
870.546037
 40
1.5
100
AcDbArc
 50
270.0
 51
360.0
  0
ARC
  5
69D
100
AcDbEntity
  8
M0
100
AcDbCircle
 10
364.378778
 20
863.046525
 40
1.0
100
AcDbArc
 50
89.999126
 51
179.999126
  0
ARC
  5
69E
100
AcDbEntity
  8
M0
100
AcDbCircle
 10
355.378778
 20
863.046525
 40
1.0
100
AcDbArc
 50
0.0
 51
89.999126
  0
LINE
  5
69F
100
AcDbEntity
  8
M0
100
AcDbLine
 10
393.378336
 20
862.046037
 11
386.37858
 21
862.046037
  0
LINE
  5
6A0
100
AcDbEntity
  8
M0
100
AcDbLine
 10
384.12858
 20
864.046037
 11
384.12858
 21
869.045793
  0
LINE
  5
6A1
100
AcDbEntity
  8
M0
100
AcDbLine
 10
388.37858
 20
871.045793
 11
391.37858
 21
871.045549
  0
LINE
  5
6A2
100
AcDbEntity
  8
M0
100
AcDbLine
 10
395.62858
 20
869.045305
 11
395.628336
 21
864.046037
  0
LINE
  5
6A3
100
AcDbEntity
  8
M0
100
AcDbLine
 10
384.12858
 20
869.046037
 11
386.87858
 21
869.046037
  0
LINE
  5
6A4
100
AcDbEntity
  8
M0
100
AcDbLine
 10
388.37858
 20
871.046037
 11
388.37858
 21
870.545793
  0
LINE
  5
6A5
100
AcDbEntity
  8
M0
100
AcDbLine
 10
391.37858
 20
871.045793
 11
391.37858
 21
870.545305
  0
LINE
  5
6A6
100
AcDbEntity
  8
M0
100
AcDbLine
 10
392.87858
 20
869.045549
 11
395.62858
 21
869.045793
  0
LINE
  5
6A7
100
AcDbEntity
  8
M0
100
AcDbLine
 10
388.37858
 20
869.045793
 11
391.37858
 21
869.045549
  0
LINE
  5
6A8
100
AcDbEntity
  8
M0
100
AcDbLine
 10
395.628336
 20
864.046037
 11
394.378336
 21
864.046037
  0
LINE
  5
6A9
100
AcDbEntity
  8
M0
100
AcDbLine
 10
386.37858
 20
863.046037
 11
386.37858
 21
862.046037
  0
LINE
  5
6AA
100
AcDbEntity
  8
M0
100
AcDbLine
 10
393.378336
 20
863.046037
 11
393.378336
 21
862.046037
  0
LINE
  5
6AB
100
AcDbEntity
  8
M0
100
AcDbLine
 10
385.37858
 20
864.046037
 11
384.12858
 21
864.046037
  0
ARC
  5
6AC
100
AcDbEntity
  8
M0
100
AcDbCircle
 10
386.87858
 20
870.545793
 40
1.5
100
AcDbArc
 50
-90.0
 51
0.0
  0
ARC
  5
6AD
100
AcDbEntity
  8
M0
100
AcDbCircle
 10
392.87858
 20
870.545305
 40
1.5
100
AcDbArc
 50
179.999417
 51
270.0
  0
ARC
  5
6AE
100
AcDbEntity
  8
M0
100
AcDbCircle
 10
385.37858
 20
863.046037
 40
1.0
100
AcDbArc
 50
0.0
 51
89.999126
  0
ARC
  5
6AF
100
AcDbEntity
  8
M0
100
AcDbCircle
 10
394.378336
 20
863.046037
 40
1.0
100
AcDbArc
 50
89.999126
 51
179.999126
  0
LINE
  5
6B0
100
AcDbEntity
  8
M0
100
AcDbLine
 10
371.378778
 20
862.046525
 11
378.378778
 21
862.046525
  0
LINE
  5
6B1
100
AcDbEntity
  8
M0
100
AcDbLine
 10
380.628778
 20
864.046525
 11
380.628778
 21
869.046281
  0
LINE
  5
6B2
100
AcDbEntity
  8
M0
100
AcDbLine
 10
376.378778
 20
871.046281
 11
373.378778
 21
871.046281
  0
LINE
  5
6B3
100
AcDbEntity
  8
M0
100
AcDbLine
 10
369.128778
 20
869.046037
 11
369.128778
 21
864.046525
  0
LINE
  5
6B4
100
AcDbEntity
  8
M0
100
AcDbLine
 10
380.628778
 20
869.046525
 11
377.878778
 21
869.046525
  0
LINE
  5
6B5
100
AcDbEntity
  8
M0
100
AcDbLine
 10
376.378778
 20
871.046525
 11
376.378778
 21
870.546281
  0
LINE
  5
6B6
100
AcDbEntity
  8
M0
100
AcDbLine
 10
373.378778
 20
871.046525
 11
373.378778
 21
870.546037
  0
LINE
  5
6B7
100
AcDbEntity
  8
M0
100
AcDbLine
 10
371.878778
 20
869.046281
 11
369.128778
 21
869.046525
  0
LINE
  5
6B8
100
AcDbEntity
  8
M0
100
AcDbLine
 10
376.378778
 20
869.046281
 11
373.378778
 21
869.046281
  0
LINE
  5
6B9
100
AcDbEntity
  8
M0
100
AcDbLine
 10
369.128778
 20
864.046525
 11
370.378778
 21
864.046525
  0
LINE
  5
6BA
100
AcDbEntity
  8
M0
100
AcDbLine
 10
378.378778
 20
863.046525
 11
378.378778
 21
862.046525
  0
LINE
  5
6BB
100
AcDbEntity
  8
M0
100
AcDbLine
 10
371.378778
 20
863.046525
 11
371.378778
 21
862.046525
  0
LINE
  5
6BC
100
AcDbEntity
  8
M0
100
AcDbLine
 10
379.378778
 20
864.046525
 11
380.628778
 21
864.046525
  0
ARC
  5
6BD
100
AcDbEntity
  8
M0
100
AcDbCircle
 10
377.878778
 20
870.546281
 40
1.5
100
AcDbArc
 50
179.999417
 51
270.0
  0
ARC
  5
6BE
100
AcDbEntity
  8
M0
100
AcDbCircle
 10
371.878778
 20
870.546037
 40
1.5
100
AcDbArc
 50
270.0
 51
360.0
  0
ARC
  5
6BF
100
AcDbEntity
  8
M0
100
AcDbCircle
 10
379.378778
 20
863.046525
 40
1.0
100
AcDbArc
 50
89.999126
 51
179.999126
  0
ARC
  5
6C0
100
AcDbEntity
  8
M0
100
AcDbCircle
 10
370.378778
 20
863.046525
 40
1.0
100
AcDbArc
 50
0.0
 51
89.999126
  0
CIRCLE
  5
6C1
100
AcDbEntity
  8
M0
 62
     5
100
AcDbCircle
 10
359.878778
 20
865.546037
 40
3.299995
  0
CIRCLE
  5
6C2
100
AcDbEntity
  8
M0
 62
     5
100
AcDbCircle
 10
374.878778
 20
865.546037
 40
3.299995
  0
CIRCLE
  5
6C3
100
AcDbEntity
  8
M0
 62
     5
100
AcDbCircle
 10
389.87858
 20
865.545305
 40
3.299995
  0
CIRCLE
  5
6C4
100
AcDbEntity
  8
M0
100
AcDbCircle
 10
359.878793
 20
865.546037
 40
3.0
  0
LINE
  5
6C5
100
AcDbEntity
  8
M0
100
AcDbLine
 10
360.868738
 20
863.848771
 11
361.575845
 21
864.556047
  0
LINE
  5
6C6
100
AcDbEntity
  8
M0
100
AcDbLine
 10
361.575845
 20
864.556047
 11
360.585886
 21
865.545793
  0
LINE
  5
6C7
100
AcDbEntity
  8
M0
100
AcDbLine
 10
358.888834
 20
867.243059
 11
358.181741
 21
866.535783
  0
LINE
  5
6C8
100
AcDbEntity
  8
M0
100
AcDbLine
 10
358.181741
 20
866.535783
 11
359.171686
 21
865.546037
  0
LINE
  5
6C9
100
AcDbEntity
  8
M0
100
AcDbLine
 10
357.433572
 20
863.807756
 11
359.171686
 21
865.546037
  0
LINE
  5
6CA
100
AcDbEntity
  8
M0
100
AcDbLine
 10
358.14068
 20
863.100725
 11
359.878778
 21
864.838762
  0
LINE
  5
6CB
100
AcDbEntity
  8
M0
100
AcDbLine
 10
362.323984
 20
867.284074
 11
360.585886
 21
865.545793
  0
LINE
  5
6CC
100
AcDbEntity
  8
M0
100
AcDbLine
 10
361.616876
 20
867.991105
 11
359.878793
 21
866.253068
  0
LINE
  5
6CD
100
AcDbEntity
  8
M0
100
AcDbLine
 10
360.868738
 20
863.848771
 11
359.878778
 21
864.838762
  0
LINE
  5
6CE
100
AcDbEntity
  8
M0
100
AcDbLine
 10
358.888834
 20
867.243059
 11
359.878793
 21
866.253068
  0
LINE
  5
6CF
100
AcDbEntity
  8
M0
100
AcDbLine
 10
354.678644
 20
865.546037
 11
365.078928
 21
865.545793
  0
LINE
  5
6D0
100
AcDbEntity
  8
M0
100
AcDbLine
 10
359.878778
 20
860.345842
 11
359.878793
 21
870.745988
  0
CIRCLE
  5
6D1
100
AcDbEntity
  8
M0
100
AcDbCircle
 10
374.878793
 20
865.546037
 40
3.0
  0
LINE
  5
6D2
100
AcDbEntity
  8
M0
100
AcDbLine
 10
375.868738
 20
863.848771
 11
376.575845
 21
864.556047
  0
LINE
  5
6D3
100
AcDbEntity
  8
M0
100
AcDbLine
 10
376.575845
 20
864.556047
 11
375.585886
 21
865.545793
  0
LINE
  5
6D4
100
AcDbEntity
  8
M0
100
AcDbLine
 10
373.888834
 20
867.243059
 11
373.181741
 21
866.535783
  0
LINE
  5
6D5
100
AcDbEntity
  8
M0
100
AcDbLine
 10
373.181741
 20
866.535783
 11
374.171686
 21
865.546037
  0
LINE
  5
6D6
100
AcDbEntity
  8
M0
100
AcDbLine
 10
372.433572
 20
863.807756
 11
374.171686
 21
865.546037
  0
LINE
  5
6D7
100
AcDbEntity
  8
M0
100
AcDbLine
 10
373.14068
 20
863.100725
 11
374.878778
 21
864.838762
  0
LINE
  5
6D8
100
AcDbEntity
  8
M0
100
AcDbLine
 10
377.323984
 20
867.284074
 11
375.585886
 21
865.545793
  0
LINE
  5
6D9
100
AcDbEntity
  8
M0
100
AcDbLine
 10
376.616876
 20
867.991105
 11
374.878793
 21
866.253068
  0
LINE
  5
6DA
100
AcDbEntity
  8
M0
100
AcDbLine
 10
375.868738
 20
863.848771
 11
374.878778
 21
864.838762
  0
LINE
  5
6DB
100
AcDbEntity
  8
M0
100
AcDbLine
 10
373.888834
 20
867.243059
 11
374.878793
 21
866.253068
  0
LINE
  5
6DC
100
AcDbEntity
  8
M0
100
AcDbLine
 10
369.678644
 20
865.546037
 11
380.078928
 21
865.545793
  0
CIRCLE
  5
6DD
100
AcDbEntity
  8
M0
100
AcDbCircle
 10
389.87858
 20
865.545305
 40
3.0
  0
LINE
  5
6DE
100
AcDbEntity
  8
M0
100
AcDbLine
 10
390.868326
 20
863.848039
 11
391.575601
 21
864.555314
  0
LINE
  5
6DF
100
AcDbEntity
  8
M0
100
AcDbLine
 10
391.575601
 20
864.555314
 11
390.585611
 21
865.54506
  0
LINE
  5
6E0
100
AcDbEntity
  8
M0
100
AcDbLine
 10
388.888589
 20
867.242326
 11
388.181314
 21
866.535051
  0
LINE
  5
6E1
100
AcDbEntity
  8
M0
100
AcDbLine
 10
388.181314
 20
866.535051
 11
389.171304
 21
865.545305
  0
LINE
  5
6E2
100
AcDbEntity
  8
M0
100
AcDbLine
 10
387.433267
 20
863.807023
 11
389.171304
 21
865.545305
  0
LINE
  5
6E3
100
AcDbEntity
  8
M0
100
AcDbLine
 10
388.140298
 20
863.099992
 11
389.87858
 21
864.838029
  0
LINE
  5
6E4
100
AcDbEntity
  8
M0
100
AcDbLine
 10
392.323648
 20
867.283342
 11
390.585611
 21
865.54506
  0
LINE
  5
6E5
100
AcDbEntity
  8
M0
100
AcDbLine
 10
391.616617
 20
867.990373
 11
389.87858
 21
866.252336
  0
LINE
  5
6E6
100
AcDbEntity
  8
M0
100
AcDbLine
 10
390.868326
 20
863.848039
 11
389.87858
 21
864.838029
  0
LINE
  5
6E7
100
AcDbEntity
  8
M0
100
AcDbLine
 10
388.888589
 20
867.242326
 11
389.87858
 21
866.252336
  0
LINE
  5
6E8
100
AcDbEntity
  8
M0
100
AcDbLine
 10
384.678384
 20
865.545305
 11
395.078531
 21
865.54506
  0
LINE
  5
6E9
100
AcDbEntity
  8
M0
100
AcDbLine
 10
389.87858
 20
860.345109
 11
389.87858
 21
870.745256
  0
LINE
  5
6EA
100
AcDbEntity
  8
M0
 62
     2
100
AcDbLine
 10
432.728769
 20
771.646867
 11
439.278757
 21
771.646867
  0
LINE
  5
6EB
100
AcDbEntity
  8
M0
 62
     2
100
AcDbLine
 10
439.828775
 20
769.746965
 11
439.828775
 21
763.147355
  0
LINE
  5
6EC
100
AcDbEntity
  8
M0
 62
     2
100
AcDbLine
 10
438.828775
 20
762.146867
 11
432.928766
 21
762.146867
  0
LINE
  5
6ED
100
AcDbEntity
  8
M0
 62
     2
100
AcDbLine
 10
431.928766
 20
763.147111
 11
431.928766
 21
769.746965
  0
ARC
  5
6EE
100
AcDbEntity
  8
M0
 62
     2
100
AcDbCircle
 10
438.828775
 20
763.147111
 40
1.0
100
AcDbArc
 50
-90.0
 51
0.013988
  0
ARC
  5
6EF
100
AcDbEntity
  8
M0
 62
     2
100
AcDbCircle
 10
432.928766
 20
763.147111
 40
1.0
100
AcDbArc
 50
179.999126
 51
270.0
  0
LINE
  5
6F0
100
AcDbEntity
  8
M0
 62
     2
100
AcDbLine
 10
439.028772
 20
770.646867
 11
439.278757
 21
770.646867
  0
LINE
  5
6F1
100
AcDbEntity
  8
M0
 62
     2
100
AcDbLine
 10
432.128763
 20
769.946916
 11
432.228769
 21
769.946916
  0
LINE
  5
6F2
100
AcDbEntity
  8
M0
 62
     2
100
AcDbLine
 10
439.028772
 20
770.446916
 11
439.028772
 21
771.646867
  0
LINE
  5
6F3
100
AcDbEntity
  8
M0
 62
     2
100
AcDbLine
 10
432.728769
 20
770.446916
 11
432.728769
 21
771.646867
  0
LINE
  5
6F4
100
AcDbEntity
  8
M0
 62
     2
100
AcDbLine
 10
439.528772
 20
769.946916
 11
439.628763
 21
769.946916
  0
ARC
  5
6F5
100
AcDbEntity
  8
M0
 62
     2
100
AcDbCircle
 10
432.128763
 20
769.746965
 40
0.2
100
AcDbArc
 50
89.995629
 51
179.995629
  0
ARC
  5
6F6
100
AcDbEntity
  8
M0
 62
     2
100
AcDbCircle
 10
439.628763
 20
769.746965
 40
0.2
100
AcDbArc
 50
0.0
 51
89.995629
  0
ARC
  5
6F7
100
AcDbEntity
  8
M0
 62
     2
100
AcDbCircle
 10
439.528772
 20
770.446916
 40
0.5
100
AcDbArc
 50
179.998251
 51
270.0
  0
ARC
  5
6F8
100
AcDbEntity
  8
M0
 62
     2
100
AcDbCircle
 10
432.228769
 20
770.446916
 40
0.5
100
AcDbArc
 50
-90.0
 51
0.0
  0
LINE
  5
6F9
100
AcDbEntity
  8
M0
 62
     2
100
AcDbLine
 10
439.278757
 20
770.646867
 11
439.278757
 21
771.646867
  0
LINE
  5
6FA
100
AcDbEntity
  8
M0
 62
     2
100
AcDbLine
 10
432.728769
 20
762.146867
 11
439.278757
 21
762.146867
  0
LINE
  5
6FB
100
AcDbEntity
  8
M0
 62
     2
100
AcDbLine
 10
439.828775
 20
760.246965
 11
439.828775
 21
753.647355
  0
LINE
  5
6FC
100
AcDbEntity
  8
M0
 62
     2
100
AcDbLine
 10
438.828775
 20
752.646867
 11
432.928766
 21
752.646867
  0
LINE
  5
6FD
100
AcDbEntity
  8
M0
 62
     2
100
AcDbLine
 10
431.928766
 20
753.647111
 11
431.928766
 21
760.246965
  0
ARC
  5
6FE
100
AcDbEntity
  8
M0
 62
     2
100
AcDbCircle
 10
438.828775
 20
753.647111
 40
1.0
100
AcDbArc
 50
-90.0
 51
0.013988
  0
ARC
  5
6FF
100
AcDbEntity
  8
M0
 62
     2
100
AcDbCircle
 10
432.928766
 20
753.647111
 40
1.0
100
AcDbArc
 50
179.999126
 51
270.0
  0
LINE
  5
700
100
AcDbEntity
  8
M0
 62
     2
100
AcDbLine
 10
439.028772
 20
761.146867
 11
439.278757
 21
761.146867
  0
LINE
  5
701
100
AcDbEntity
  8
M0
 62
     2
100
AcDbLine
 10
432.128763
 20
760.446916
 11
432.228769
 21
760.446916
  0
LINE
  5
702
100
AcDbEntity
  8
M0
 62
     2
100
AcDbLine
 10
439.028772
 20
760.946916
 11
439.028772
 21
762.146867
  0
LINE
  5
703
100
AcDbEntity
  8
M0
 62
     2
100
AcDbLine
 10
432.728769
 20
760.946916
 11
432.728769
 21
762.146867
  0
LINE
  5
704
100
AcDbEntity
  8
M0
 62
     2
100
AcDbLine
 10
439.528772
 20
760.446916
 11
439.628763
 21
760.446916
  0
ARC
  5
705
100
AcDbEntity
  8
M0
 62
     2
100
AcDbCircle
 10
432.128763
 20
760.246965
 40
0.2
100
AcDbArc
 50
89.995629
 51
179.995629
  0
ARC
  5
706
100
AcDbEntity
  8
M0
 62
     2
100
AcDbCircle
 10
439.628763
 20
760.246965
 40
0.2
100
AcDbArc
 50
0.0
 51
89.995629
  0
ARC
  5
707
100
AcDbEntity
  8
M0
 62
     2
100
AcDbCircle
 10
439.528772
 20
760.946916
 40
0.5
100
AcDbArc
 50
179.998251
 51
270.0
  0
ARC
  5
708
100
AcDbEntity
  8
M0
 62
     2
100
AcDbCircle
 10
432.228769
 20
760.946916
 40
0.5
100
AcDbArc
 50
-90.0
 51
0.0
  0
LINE
  5
709
100
AcDbEntity
  8
M0
 62
     2
100
AcDbLine
 10
439.278757
 20
761.146867
 11
439.278757
 21
762.146867
  0
LINE
  5
70A
100
AcDbEntity
  8
M0
 62
     2
100
AcDbLine
 10
310.728769
 20
762.146867
 11
317.278757
 21
762.146867
  0
LINE
  5
70B
100
AcDbEntity
  8
M0
 62
     2
100
AcDbLine
 10
317.828775
 20
760.246965
 11
317.828775
 21
753.647355
  0
LINE
  5
70C
100
AcDbEntity
  8
M0
 62
     2
100
AcDbLine
 10
316.828775
 20
752.646867
 11
310.928766
 21
752.646867
  0
LINE
  5
70D
100
AcDbEntity
  8
M0
 62
     2
100
AcDbLine
 10
309.928766
 20
753.647111
 11
309.928766
 21
760.246965
  0
ARC
  5
70E
100
AcDbEntity
  8
M0
 62
     2
100
AcDbCircle
 10
316.828775
 20
753.647111
 40
1.0
100
AcDbArc
 50
-90.0
 51
0.013988
  0
ARC
  5
70F
100
AcDbEntity
  8
M0
 62
     2
100
AcDbCircle
 10
310.928766
 20
753.647111
 40
1.0
100
AcDbArc
 50
179.999126
 51
270.0
  0
LINE
  5
710
100
AcDbEntity
  8
M0
 62
     2
100
AcDbLine
 10
317.028772
 20
761.146867
 11
317.278757
 21
761.146867
  0
LINE
  5
711
100
AcDbEntity
  8
M0
 62
     2
100
AcDbLine
 10
310.128763
 20
760.446916
 11
310.228769
 21
760.446916
  0
LINE
  5
712
100
AcDbEntity
  8
M0
 62
     2
100
AcDbLine
 10
317.028772
 20
760.946916
 11
317.028772
 21
762.146867
  0
LINE
  5
713
100
AcDbEntity
  8
M0
 62
     2
100
AcDbLine
 10
310.728769
 20
760.946916
 11
310.728769
 21
762.146867
  0
LINE
  5
714
100
AcDbEntity
  8
M0
 62
     2
100
AcDbLine
 10
317.528772
 20
760.446916
 11
317.628763
 21
760.446916
  0
ARC
  5
715
100
AcDbEntity
  8
M0
 62
     2
100
AcDbCircle
 10
310.128763
 20
760.246965
 40
0.2
100
AcDbArc
 50
89.995629
 51
179.995629
  0
ARC
  5
716
100
AcDbEntity
  8
M0
 62
     2
100
AcDbCircle
 10
317.628763
 20
760.246965
 40
0.2
100
AcDbArc
 50
0.0
 51
89.995629
  0
ARC
  5
717
100
AcDbEntity
  8
M0
 62
     2
100
AcDbCircle
 10
317.528772
 20
760.946916
 40
0.5
100
AcDbArc
 50
179.998251
 51
270.0
  0
ARC
  5
718
100
AcDbEntity
  8
M0
 62
     2
100
AcDbCircle
 10
310.228769
 20
760.946916
 40
0.5
100
AcDbArc
 50
-90.0
 51
0.0
  0
LINE
  5
719
100
AcDbEntity
  8
M0
 62
     2
100
AcDbLine
 10
317.278757
 20
761.146867
 11
317.278757
 21
762.146867
  0
LINE
  5
71A
100
AcDbEntity
  8
M0
 62
     2
100
AcDbLine
 10
310.728769
 20
771.646867
 11
317.278757
 21
771.646867
  0
LINE
  5
71B
100
AcDbEntity
  8
M0
 62
     2
100
AcDbLine
 10
317.828775
 20
769.746965
 11
317.828775
 21
763.147355
  0
LINE
  5
71C
100
AcDbEntity
  8
M0
 62
     2
100
AcDbLine
 10
316.828775
 20
762.146867
 11
310.928766
 21
762.146867
  0
LINE
  5
71D
100
AcDbEntity
  8
M0
 62
     2
100
AcDbLine
 10
309.928766
 20
763.147111
 11
309.928766
 21
769.746965
  0
ARC
  5
71E
100
AcDbEntity
  8
M0
 62
     2
100
AcDbCircle
 10
316.828775
 20
763.147111
 40
1.0
100
AcDbArc
 50
-90.0
 51
0.013988
  0
ARC
  5
71F
100
AcDbEntity
  8
M0
 62
     2
100
AcDbCircle
 10
310.928766
 20
763.147111
 40
1.0
100
AcDbArc
 50
179.999126
 51
270.0
  0
LINE
  5
720
100
AcDbEntity
  8
M0
 62
     2
100
AcDbLine
 10
317.028772
 20
770.646867
 11
317.278757
 21
770.646867
  0
LINE
  5
721
100
AcDbEntity
  8
M0
 62
     2
100
AcDbLine
 10
310.128763
 20
769.946916
 11
310.228769
 21
769.946916
  0
LINE
  5
722
100
AcDbEntity
  8
M0
 62
     2
100
AcDbLine
 10
317.028772
 20
770.446916
 11
317.028772
 21
771.646867
  0
LINE
  5
723
100
AcDbEntity
  8
M0
 62
     2
100
AcDbLine
 10
310.728769
 20
770.446916
 11
310.728769
 21
771.646867
  0
LINE
  5
724
100
AcDbEntity
  8
M0
 62
     2
100
AcDbLine
 10
317.528772
 20
769.946916
 11
317.628763
 21
769.946916
  0
ARC
  5
725
100
AcDbEntity
  8
M0
 62
     2
100
AcDbCircle
 10
310.128763
 20
769.746965
 40
0.2
100
AcDbArc
 50
89.995629
 51
179.995629
  0
ARC
  5
726
100
AcDbEntity
  8
M0
 62
     2
100
AcDbCircle
 10
317.628763
 20
769.746965
 40
0.2
100
AcDbArc
 50
0.0
 51
89.995629
  0
ARC
  5
727
100
AcDbEntity
  8
M0
 62
     2
100
AcDbCircle
 10
317.528772
 20
770.446916
 40
0.5
100
AcDbArc
 50
179.998251
 51
270.0
  0
ARC
  5
728
100
AcDbEntity
  8
M0
 62
     2
100
AcDbCircle
 10
310.228769
 20
770.446916
 40
0.5
100
AcDbArc
 50
-90.0
 51
0.0
  0
LINE
  5
729
100
AcDbEntity
  8
M0
 62
     2
100
AcDbLine
 10
317.278757
 20
770.646867
 11
317.278757
 21
771.646867
  0
LINE
  5
72A
100
AcDbEntity
  8
M0
 62
     2
100
AcDbLine
 10
432.728769
 20
731.146867
 11
439.278757
 21
731.146867
  0
LINE
  5
72B
100
AcDbEntity
  8
M0
 62
     2
100
AcDbLine
 10
439.828775
 20
733.046769
 11
439.828775
 21
739.646379
  0
LINE
  5
72C
100
AcDbEntity
  8
M0
 62
     2
100
AcDbLine
 10
438.828775
 20
740.646867
 11
432.928766
 21
740.646867
  0
LINE
  5
72D
100
AcDbEntity
  8
M0
 62
     2
100
AcDbLine
 10
431.928766
 20
739.646623
 11
431.928766
 21
733.046769
  0
ARC
  5
72E
100
AcDbEntity
  8
M0
 62
     2
100
AcDbCircle
 10
438.828775
 20
739.646623
 40
1.0
100
AcDbArc
 50
359.986012
 51
449.999126
  0
ARC
  5
72F
100
AcDbEntity
  8
M0
 62
     2
100
AcDbCircle
 10
432.928766
 20
739.646623
 40
1.0
100
AcDbArc
 50
89.999126
 51
179.999126
  0
LINE
  5
730
100
AcDbEntity
  8
M0
 62
     2
100
AcDbLine
 10
439.028772
 20
732.146867
 11
439.278757
 21
732.146867
  0
LINE
  5
731
100
AcDbEntity
  8
M0
 62
     2
100
AcDbLine
 10
432.128763
 20
732.846818
 11
432.228769
 21
732.846818
  0
LINE
  5
732
100
AcDbEntity
  8
M0
 62
     2
100
AcDbLine
 10
439.028772
 20
732.346818
 11
439.028772
 21
731.146867
  0
LINE
  5
733
100
AcDbEntity
  8
M0
 62
     2
100
AcDbLine
 10
432.728769
 20
732.346818
 11
432.728769
 21
731.146867
  0
LINE
  5
734
100
AcDbEntity
  8
M0
 62
     2
100
AcDbLine
 10
439.528772
 20
732.846818
 11
439.628763
 21
732.846818
  0
ARC
  5
735
100
AcDbEntity
  8
M0
 62
     2
100
AcDbCircle
 10
432.128763
 20
733.046769
 40
0.2
100
AcDbArc
 50
179.995629
 51
270.0
  0
ARC
  5
736
100
AcDbEntity
  8
M0
 62
     2
100
AcDbCircle
 10
439.628763
 20
733.046769
 40
0.2
100
AcDbArc
 50
270.0
 51
360.0
  0
ARC
  5
737
100
AcDbEntity
  8
M0
 62
     2
100
AcDbCircle
 10
439.528772
 20
732.346818
 40
0.5
100
AcDbArc
 50
89.998251
 51
179.998251
  0
ARC
  5
738
100
AcDbEntity
  8
M0
 62
     2
100
AcDbCircle
 10
432.228769
 20
732.346818
 40
0.5
100
AcDbArc
 50
0.0
 51
89.998251
  0
LINE
  5
739
100
AcDbEntity
  8
M0
 62
     2
100
AcDbLine
 10
439.278757
 20
732.146867
 11
439.278757
 21
731.146867
  0
LINE
  5
73A
100
AcDbEntity
  8
M0
 62
     2
100
AcDbLine
 10
432.728769
 20
721.646867
 11
439.278757
 21
721.646867
  0
LINE
  5
73B
100
AcDbEntity
  8
M0
 62
     2
100
AcDbLine
 10
439.828775
 20
723.546769
 11
439.828775
 21
730.146379
  0
LINE
  5
73C
100
AcDbEntity
  8
M0
 62
     2
100
AcDbLine
 10
438.828775
 20
731.146867
 11
432.928766
 21
731.146867
  0
LINE
  5
73D
100
AcDbEntity
  8
M0
 62
     2
100
AcDbLine
 10
431.928766
 20
730.146623
 11
431.928766
 21
723.546769
  0
ARC
  5
73E
100
AcDbEntity
  8
M0
 62
     2
100
AcDbCircle
 10
438.828775
 20
730.146623
 40
1.0
100
AcDbArc
 50
359.986012
 51
449.999126
  0
ARC
  5
73F
100
AcDbEntity
  8
M0
 62
     2
100
AcDbCircle
 10
432.928766
 20
730.146623
 40
1.0
100
AcDbArc
 50
89.999126
 51
179.999126
  0
LINE
  5
740
100
AcDbEntity
  8
M0
 62
     2
100
AcDbLine
 10
439.028772
 20
722.646867
 11
439.278757
 21
722.646867
  0
LINE
  5
741
100
AcDbEntity
  8
M0
 62
     2
100
AcDbLine
 10
432.128763
 20
723.346818
 11
432.228769
 21
723.346818
  0
LINE
  5
742
100
AcDbEntity
  8
M0
 62
     2
100
AcDbLine
 10
439.028772
 20
722.846818
 11
439.028772
 21
721.646867
  0
LINE
  5
743
100
AcDbEntity
  8
M0
 62
     2
100
AcDbLine
 10
432.728769
 20
722.846818
 11
432.728769
 21
721.646867
  0
LINE
  5
744
100
AcDbEntity
  8
M0
 62
     2
100
AcDbLine
 10
439.528772
 20
723.346818
 11
439.628763
 21
723.346818
  0
ARC
  5
745
100
AcDbEntity
  8
M0
 62
     2
100
AcDbCircle
 10
432.128763
 20
723.546769
 40
0.2
100
AcDbArc
 50
179.995629
 51
270.0
  0
ARC
  5
746
100
AcDbEntity
  8
M0
 62
     2
100
AcDbCircle
 10
439.628763
 20
723.546769
 40
0.2
100
AcDbArc
 50
270.0
 51
360.0
  0
ARC
  5
747
100
AcDbEntity
  8
M0
 62
     2
100
AcDbCircle
 10
439.528772
 20
722.846818
 40
0.5
100
AcDbArc
 50
89.998251
 51
179.998251
  0
ARC
  5
748
100
AcDbEntity
  8
M0
 62
     2
100
AcDbCircle
 10
432.228769
 20
722.846818
 40
0.5
100
AcDbArc
 50
0.0
 51
89.998251
  0
LINE
  5
749
100
AcDbEntity
  8
M0
 62
     2
100
AcDbLine
 10
439.278757
 20
722.646867
 11
439.278757
 21
721.646867
  0
LINE
  5
74A
100
AcDbEntity
  8
M0
 62
     2
100
AcDbLine
 10
310.728769
 20
721.646867
 11
317.278757
 21
721.646867
  0
LINE
  5
74B
100
AcDbEntity
  8
M0
 62
     2
100
AcDbLine
 10
317.828775
 20
723.546769
 11
317.828775
 21
730.146379
  0
LINE
  5
74C
100
AcDbEntity
  8
M0
 62
     2
100
AcDbLine
 10
316.828775
 20
731.146867
 11
310.928766
 21
731.146867
  0
LINE
  5
74D
100
AcDbEntity
  8
M0
 62
     2
100
AcDbLine
 10
309.928766
 20
730.146623
 11
309.928766
 21
723.546769
  0
ARC
  5
74E
100
AcDbEntity
  8
M0
 62
     2
100
AcDbCircle
 10
316.828775
 20
730.146623
 40
1.0
100
AcDbArc
 50
359.986012
 51
449.999126
  0
ARC
  5
74F
100
AcDbEntity
  8
M0
 62
     2
100
AcDbCircle
 10
310.928766
 20
730.146623
 40
1.0
100
AcDbArc
 50
89.999126
 51
179.999126
  0
LINE
  5
750
100
AcDbEntity
  8
M0
 62
     2
100
AcDbLine
 10
317.028772
 20
722.646867
 11
317.278757
 21
722.646867
  0
LINE
  5
751
100
AcDbEntity
  8
M0
 62
     2
100
AcDbLine
 10
310.128763
 20
723.346818
 11
310.228769
 21
723.346818
  0
LINE
  5
752
100
AcDbEntity
  8
M0
 62
     2
100
AcDbLine
 10
317.028772
 20
722.846818
 11
317.028772
 21
721.646867
  0
LINE
  5
753
100
AcDbEntity
  8
M0
 62
     2
100
AcDbLine
 10
310.728769
 20
722.846818
 11
310.728769
 21
721.646867
  0
LINE
  5
754
100
AcDbEntity
  8
M0
 62
     2
100
AcDbLine
 10
317.528772
 20
723.346818
 11
317.628763
 21
723.346818
  0
ARC
  5
755
100
AcDbEntity
  8
M0
 62
     2
100
AcDbCircle
 10
310.128763
 20
723.546769
 40
0.2
100
AcDbArc
 50
179.995629
 51
270.0
  0
ARC
  5
756
100
AcDbEntity
  8
M0
 62
     2
100
AcDbCircle
 10
317.628763
 20
723.546769
 40
0.2
100
AcDbArc
 50
270.0
 51
360.0
  0
ARC
  5
757
100
AcDbEntity
  8
M0
 62
     2
100
AcDbCircle
 10
317.528772
 20
722.846818
 40
0.5
100
AcDbArc
 50
89.998251
 51
179.998251
  0
ARC
  5
758
100
AcDbEntity
  8
M0
 62
     2
100
AcDbCircle
 10
310.228769
 20
722.846818
 40
0.5
100
AcDbArc
 50
0.0
 51
89.998251
  0
LINE
  5
759
100
AcDbEntity
  8
M0
 62
     2
100
AcDbLine
 10
317.278757
 20
722.646867
 11
317.278757
 21
721.646867
  0
LINE
  5
75A
100
AcDbEntity
  8
M0
 62
     2
100
AcDbLine
 10
310.728769
 20
731.146867
 11
317.278757
 21
731.146867
  0
LINE
  5
75B
100
AcDbEntity
  8
M0
 62
     2
100
AcDbLine
 10
317.828775
 20
733.046769
 11
317.828775
 21
739.646379
  0
LINE
  5
75C
100
AcDbEntity
  8
M0
 62
     2
100
AcDbLine
 10
316.828775
 20
740.646867
 11
310.928766
 21
740.646867
  0
LINE
  5
75D
100
AcDbEntity
  8
M0
 62
     2
100
AcDbLine
 10
309.928766
 20
739.646623
 11
309.928766
 21
733.046769
  0
ARC
  5
75E
100
AcDbEntity
  8
M0
 62
     2
100
AcDbCircle
 10
316.828775
 20
739.646623
 40
1.0
100
AcDbArc
 50
359.986012
 51
449.999126
  0
ARC
  5
75F
100
AcDbEntity
  8
M0
 62
     2
100
AcDbCircle
 10
310.928766
 20
739.646623
 40
1.0
100
AcDbArc
 50
89.999126
 51
179.999126
  0
LINE
  5
760
100
AcDbEntity
  8
M0
 62
     2
100
AcDbLine
 10
317.028772
 20
732.146867
 11
317.278757
 21
732.146867
  0
LINE
  5
761
100
AcDbEntity
  8
M0
 62
     2
100
AcDbLine
 10
310.128763
 20
732.846818
 11
310.228769
 21
732.846818
  0
LINE
  5
762
100
AcDbEntity
  8
M0
 62
     2
100
AcDbLine
 10
317.028772
 20
732.346818
 11
317.028772
 21
731.146867
  0
LINE
  5
763
100
AcDbEntity
  8
M0
 62
     2
100
AcDbLine
 10
310.728769
 20
732.346818
 11
310.728769
 21
731.146867
  0
LINE
  5
764
100
AcDbEntity
  8
M0
 62
     2
100
AcDbLine
 10
317.528772
 20
732.846818
 11
317.628763
 21
732.846818
  0
ARC
  5
765
100
AcDbEntity
  8
M0
 62
     2
100
AcDbCircle
 10
310.128763
 20
733.046769
 40
0.2
100
AcDbArc
 50
179.995629
 51
270.0
  0
ARC
  5
766
100
AcDbEntity
  8
M0
 62
     2
100
AcDbCircle
 10
317.628763
 20
733.046769
 40
0.2
100
AcDbArc
 50
270.0
 51
360.0
  0
ARC
  5
767
100
AcDbEntity
  8
M0
 62
     2
100
AcDbCircle
 10
317.528772
 20
732.346818
 40
0.5
100
AcDbArc
 50
89.998251
 51
179.998251
  0
ARC
  5
768
100
AcDbEntity
  8
M0
 62
     2
100
AcDbCircle
 10
310.228769
 20
732.346818
 40
0.5
100
AcDbArc
 50
0.0
 51
89.998251
  0
LINE
  5
769
100
AcDbEntity
  8
M0
 62
     2
100
AcDbLine
 10
317.278757
 20
732.146867
 11
317.278757
 21
731.146867
  0
LINE
  5
76A
100
AcDbEntity
  8
M0
 62
     6
100
AcDbLine
 10
362.378778
 20
646.146867
 11
387.378778
 21
646.146867
  0
LINE
  5
76B
100
AcDbEntity
  8
M0
 62
     6
100
AcDbLine
 10
364.878778
 20
677.146867
 11
362.378778
 21
672.646867
  0
LINE
  5
76C
100
AcDbEntity
  8
M0
 62
     6
100
AcDbLine
 10
384.878778
 20
677.146867
 11
387.378778
 21
672.646867
  0
LINE
  5
76D
100
AcDbEntity
  8
M0
 62
     6
100
AcDbLine
 10
364.878778
 20
681.646867
 11
364.878778
 21
677.146867
  0
LINE
  5
76E
100
AcDbEntity
  8
M0
 62
     6
100
AcDbLine
 10
384.878778
 20
681.646867
 11
384.878778
 21
677.146867
  0
LINE
  5
76F
100
AcDbEntity
  8
M0
 62
     6
100
AcDbLine
 10
387.378778
 20
646.146867
 11
387.378778
 21
672.646867
  0
LINE
  5
770
100
AcDbEntity
  8
M0
 62
     6
100
AcDbLine
 10
362.378778
 20
672.646867
 11
362.378778
 21
646.146867
  0
LINE
  5
771
100
AcDbEntity
  8
M0
 62
     6
100
AcDbLine
 10
362.378896
 20
847.146782
 11
387.378896
 21
847.146798
  0
LINE
  5
772
100
AcDbEntity
  8
M0
 62
     6
100
AcDbLine
 10
364.878916
 20
816.146784
 11
362.378913
 21
820.646782
  0
LINE
  5
773
100
AcDbEntity
  8
M0
 62
     6
100
AcDbLine
 10
384.878916
 20
816.146797
 11
387.378913
 21
820.646798
  0
LINE
  5
774
100
AcDbEntity
  8
M0
 62
     6
100
AcDbLine
 10
364.878919
 20
811.646784
 11
364.878916
 21
816.146784
  0
LINE
  5
775
100
AcDbEntity
  8
M0
 62
     6
100
AcDbLine
 10
384.878919
 20
811.646797
 11
384.878916
 21
816.146797
  0
LINE
  5
776
100
AcDbEntity
  8
M0
 62
     6
100
AcDbLine
 10
387.378896
 20
847.146798
 11
387.378913
 21
820.646798
  0
LINE
  5
777
100
AcDbEntity
  8
M0
 62
     6
100
AcDbLine
 10
362.378913
 20
820.646782
 11
362.378896
 21
847.146782
  0
LINE
  5
778
100
AcDbEntity
  8
M0
 62
     5
100
AcDbLine
 10
322.878778
 20
666.152223
 11
329.380243
 21
662.399629
  0
LINE
  5
779
100
AcDbEntity
  8
M0
 62
     5
100
AcDbLine
 10
329.380243
 20
662.399629
 11
329.380243
 21
654.893983
  0
LINE
  5
77A
100
AcDbEntity
  8
M0
 62
     5
100
AcDbLine
 10
329.380243
 20
654.893983
 11
322.878778
 21
651.141237
  0
LINE
  5
77B
100
AcDbEntity
  8
M0
 62
     5
100
AcDbLine
 10
322.878778
 20
651.141237
 11
316.379755
 21
654.893983
  0
LINE
  5
77C
100
AcDbEntity
  8
M0
 62
     5
100
AcDbLine
 10
316.379755
 20
654.893983
 11
316.379755
 21
662.399629
  0
LINE
  5
77D
100
AcDbEntity
  8
M0
 62
     5
100
AcDbLine
 10
316.379755
 20
662.399629
 11
322.878778
 21
666.152223
  0
CIRCLE
  5
77E
100
AcDbEntity
  8
M0
 62
     5
100
AcDbCircle
 10
322.878778
 20
658.646882
 40
4.0
  0
LINE
  5
77F
100
AcDbEntity
  8
M0
 62
     5
100
AcDbLine
 10
374.878778
 20
666.152223
 11
381.380243
 21
662.399629
  0
LINE
  5
780
100
AcDbEntity
  8
M0
 62
     5
100
AcDbLine
 10
381.380243
 20
662.399629
 11
381.380243
 21
654.893983
  0
LINE
  5
781
100
AcDbEntity
  8
M0
 62
     5
100
AcDbLine
 10
381.380243
 20
654.893983
 11
374.878778
 21
651.141237
  0
LINE
  5
782
100
AcDbEntity
  8
M0
 62
     5
100
AcDbLine
 10
374.878778
 20
651.141237
 11
368.379755
 21
654.893983
  0
LINE
  5
783
100
AcDbEntity
  8
M0
 62
     5
100
AcDbLine
 10
368.379755
 20
654.893983
 11
368.379755
 21
662.399629
  0
LINE
  5
784
100
AcDbEntity
  8
M0
 62
     5
100
AcDbLine
 10
368.379755
 20
662.399629
 11
374.878778
 21
666.152223
  0
CIRCLE
  5
785
100
AcDbEntity
  8
M0
 62
     5
100
AcDbCircle
 10
374.878778
 20
658.646882
 40
4.0
  0
LINE
  5
786
100
AcDbEntity
  8
M0
  6
DASHDOT
 62
     5
100
AcDbLine
 10
385.031122
 20
658.646882
 11
364.726434
 21
658.646882
  0
LINE
  5
787
100
AcDbEntity
  8
M0
  6
DASHDOT
 62
     5
100
AcDbLine
 10
374.878778
 20
668.799211
 11
374.878778
 21
648.494554
  0
LINE
  5
788
100
AcDbEntity
  8
M0
100
AcDbLine
 10
356.764581
 20
640.790193
 11
356.873392
 21
647.046892
  0
ARC
  5
789
100
AcDbEntity
  8
M0
100
AcDbCircle
 10
358.765131
 20
640.804765
 40
2.0
100
AcDbArc
 50
179.002413
 51
269.003724
  0
LINE
  5
78A
100
AcDbEntity
  8
M0
100
AcDbLine
 10
365.729303
 20
638.683351
 11
358.730356
 21
638.80507
  0
ARC
  5
78B
100
AcDbEntity
  8
M0
100
AcDbCircle
 10
365.764078
 20
640.683046
 40
2.0
100
AcDbArc
 50
269.003724
 51
359.003732
  0
LINE
  5
78C
100
AcDbEntity
  8
M0
100
AcDbLine
 10
367.859415
 20
646.148012
 11
367.762918
 21
640.598924
  0
LINE
  5
78D
100
AcDbEntity
  8
M0
 62
     5
100
AcDbLine
 10
426.878778
 20
666.152223
 11
433.380243
 21
662.399629
  0
LINE
  5
78E
100
AcDbEntity
  8
M0
 62
     5
100
AcDbLine
 10
433.380243
 20
662.399629
 11
433.380243
 21
654.893983
  0
LINE
  5
78F
100
AcDbEntity
  8
M0
 62
     5
100
AcDbLine
 10
433.380243
 20
654.893983
 11
426.878778
 21
651.141237
  0
LINE
  5
790
100
AcDbEntity
  8
M0
 62
     5
100
AcDbLine
 10
426.878778
 20
651.141237
 11
420.379755
 21
654.893983
  0
LINE
  5
791
100
AcDbEntity
  8
M0
 62
     5
100
AcDbLine
 10
420.379755
 20
654.893983
 11
420.379755
 21
662.399629
  0
LINE
  5
792
100
AcDbEntity
  8
M0
 62
     5
100
AcDbLine
 10
420.379755
 20
662.399629
 11
426.878778
 21
666.152223
  0
CIRCLE
  5
793
100
AcDbEntity
  8
M0
 62
     5
100
AcDbCircle
 10
426.878778
 20
658.646882
 40
4.0
  0
LINE
  5
794
100
AcDbEntity
  8
M0
  6
DASHDOT
 62
     5
100
AcDbLine
 10
437.031122
 20
658.646882
 11
416.726434
 21
658.646882
  0
LINE
  5
795
100
AcDbEntity
  8
M0
  6
DASHDOT
 62
     5
100
AcDbLine
 10
426.878778
 20
668.799211
 11
426.878778
 21
648.494554
  0
LINE
  5
796
100
AcDbEntity
  8
M0
 62
     5
100
AcDbLine
 10
426.878778
 20
842.152223
 11
433.380243
 21
838.399629
  0
LINE
  5
797
100
AcDbEntity
  8
M0
 62
     5
100
AcDbLine
 10
433.380243
 20
838.399629
 11
433.380243
 21
830.893983
  0
LINE
  5
798
100
AcDbEntity
  8
M0
 62
     5
100
AcDbLine
 10
433.380243
 20
830.893983
 11
426.878778
 21
827.141237
  0
LINE
  5
799
100
AcDbEntity
  8
M0
 62
     5
100
AcDbLine
 10
426.878778
 20
827.141237
 11
420.379755
 21
830.893983
  0
LINE
  5
79A
100
AcDbEntity
  8
M0
 62
     5
100
AcDbLine
 10
420.379755
 20
830.893983
 11
420.379755
 21
838.399629
  0
LINE
  5
79B
100
AcDbEntity
  8
M0
 62
     5
100
AcDbLine
 10
420.379755
 20
838.399629
 11
426.878778
 21
842.152223
  0
CIRCLE
  5
79C
100
AcDbEntity
  8
M0
 62
     5
100
AcDbCircle
 10
426.878778
 20
834.646882
 40
4.0
  0
LINE
  5
79D
100
AcDbEntity
  8
M0
  6
DASHDOT
 62
     5
100
AcDbLine
 10
437.031122
 20
834.646882
 11
416.726434
 21
834.646882
  0
LINE
  5
79E
100
AcDbEntity
  8
M0
 62
     5
100
AcDbLine
 10
374.878778
 20
842.152223
 11
381.380243
 21
838.399629
  0
LINE
  5
79F
100
AcDbEntity
  8
M0
 62
     5
100
AcDbLine
 10
381.380243
 20
838.399629
 11
381.380243
 21
830.893983
  0
LINE
  5
7A0
100
AcDbEntity
  8
M0
 62
     5
100
AcDbLine
 10
381.380243
 20
830.893983
 11
374.878778
 21
827.141237
  0
LINE
  5
7A1
100
AcDbEntity
  8
M0
 62
     5
100
AcDbLine
 10
374.878778
 20
827.141237
 11
368.379755
 21
830.893983
  0
LINE
  5
7A2
100
AcDbEntity
  8
M0
 62
     5
100
AcDbLine
 10
368.379755
 20
830.893983
 11
368.379755
 21
838.399629
  0
LINE
  5
7A3
100
AcDbEntity
  8
M0
 62
     5
100
AcDbLine
 10
368.379755
 20
838.399629
 11
374.878778
 21
842.152223
  0
CIRCLE
  5
7A4
100
AcDbEntity
  8
M0
 62
     5
100
AcDbCircle
 10
374.878778
 20
834.646882
 40
4.0
  0
LINE
  5
7A5
100
AcDbEntity
  8
M0
  6
DASHDOT
 62
     5
100
AcDbLine
 10
385.031122
 20
834.646882
 11
364.726434
 21
834.646882
  0
LINE
  5
7A6
100
AcDbEntity
  8
M0
  6
DASHDOT
 62
     5
100
AcDbLine
 10
374.878778
 20
844.799211
 11
374.878778
 21
824.494554
  0
LINE
  5
7A7
100
AcDbEntity
  8
M0
 62
     5
100
AcDbLine
 10
322.878778
 20
842.152223
 11
329.380243
 21
838.399629
  0
LINE
  5
7A8
100
AcDbEntity
  8
M0
 62
     5
100
AcDbLine
 10
329.380243
 20
838.399629
 11
329.380243
 21
830.893983
  0
LINE
  5
7A9
100
AcDbEntity
  8
M0
 62
     5
100
AcDbLine
 10
329.380243
 20
830.893983
 11
322.878778
 21
827.141237
  0
LINE
  5
7AA
100
AcDbEntity
  8
M0
 62
     5
100
AcDbLine
 10
322.878778
 20
827.141237
 11
316.379755
 21
830.893983
  0
LINE
  5
7AB
100
AcDbEntity
  8
M0
 62
     5
100
AcDbLine
 10
316.379755
 20
830.893983
 11
316.379755
 21
838.399629
  0
LINE
  5
7AC
100
AcDbEntity
  8
M0
 62
     5
100
AcDbLine
 10
316.379755
 20
838.399629
 11
322.878778
 21
842.152223
  0
CIRCLE
  5
7AD
100
AcDbEntity
  8
M0
 62
     5
100
AcDbCircle
 10
322.878778
 20
834.646882
 40
4.0
  0
LINE
  5
7AE
100
AcDbEntity
  8
M0
  6
DASHDOT
 62
     5
100
AcDbLine
 10
333.031122
 20
834.646882
 11
312.726434
 21
834.646882
  0
CIRCLE
  5
7AF
100
AcDbEntity
  8
M0
  6
DASHED
100
AcDbCircle
 10
317.378763
 20
659.646959
 40
4.5
  0
CIRCLE
  5
7B0
100
AcDbEntity
  8
M0
  6
DASHED
100
AcDbCircle
 10
432.378748
 20
659.646959
 40
4.5
  0
LINE
  5
7B1
100
AcDbEntity
  8
M0
  6
DASHDOT
100
AcDbLine
 10
425.212091
 20
844.646882
 11
439.545419
 21
844.646882
  0
LINE
  5
7B2
100
AcDbEntity
  8
M0
  6
DASHDOT
100
AcDbLine
 10
432.378748
 20
837.480134
 11
432.378748
 21
851.81363
  0
LINE
  5
7B3
100
AcDbEntity
  8
M0
  6
DASHDOT
100
AcDbLine
 10
310.212106
 20
844.646882
 11
324.545435
 21
844.646882
  0
LINE
  5
7B4
100
AcDbEntity
  8
M0
  6
DASHDOT
100
AcDbLine
 10
317.378763
 20
837.480134
 11
317.378763
 21
851.81363
  0
LINE
  5
7B5
100
AcDbEntity
  8
M0
  6
DASHDOT
100
AcDbLine
 10
310.212106
 20
659.646959
 11
324.545435
 21
659.646959
  0
LINE
  5
7B6
100
AcDbEntity
  8
M0
  6
DASHDOT
100
AcDbLine
 10
317.378763
 20
652.480287
 11
317.378763
 21
666.81363
  0
LINE
  5
7B7
100
AcDbEntity
  8
M0
  6
DASHDOT
100
AcDbLine
 10
425.212091
 20
659.646959
 11
439.545419
 21
659.646959
  0
LINE
  5
7B8
100
AcDbEntity
  8
M0
  6
DASHDOT
100
AcDbLine
 10
432.378748
 20
652.480287
 11
432.378748
 21
666.81363
  0
ARC
  5
7B9
100
AcDbEntity
  8
M0
  6
DASHED
100
AcDbCircle
 10
317.378763
 20
844.646882
 40
4.5
100
AcDbArc
 50
146.250984
 51
393.745245
  0
ARC
  5
7BA
100
AcDbEntity
  8
M0
100
AcDbCircle
 10
317.378763
 20
844.646882
 40
4.5
100
AcDbArc
 50
33.745245
 51
146.250984
  0
ARC
  5
7BB
100
AcDbEntity
  8
M0
  6
DASHED
100
AcDbCircle
 10
432.378748
 20
844.646882
 40
4.5
100
AcDbArc
 50
146.254432
 51
393.74546
  0
ARC
  5
7BC
100
AcDbEntity
  8
M0
100
AcDbCircle
 10
432.378748
 20
844.646882
 40
4.5
100
AcDbArc
 50
33.74546
 51
146.254432
  0
LINE
  5
7BD
100
AcDbEntity
  8
M0
100
AcDbLine
 10
305.878763
 20
649.646776
 11
310.378763
 21
649.646776
  0
LINE
  5
7BE
100
AcDbEntity
  8
M0
100
AcDbLine
 10
335.378763
 20
649.646776
 11
362.378763
 21
649.646776
  0
LINE
  5
7BF
100
AcDbEntity
  8
M0
100
AcDbLine
 10
387.378763
 20
649.646776
 11
414.378763
 21
649.646776
  0
LINE
  5
7C0
100
AcDbEntity
  8
M0
100
AcDbLine
 10
439.378763
 20
649.646776
 11
443.878763
 21
649.646776
  0
LINE
  5
7C1
100
AcDbEntity
  8
M0
100
AcDbLine
 10
305.878748
 20
854.646776
 11
443.878763
 21
854.646776
  0
LINE
  5
7C2
100
AcDbEntity
  8
M0
100
AcDbLine
 10
305.878564
 20
647.046922
 11
310.378564
 21
647.046922
  0
LINE
  5
7C3
100
AcDbEntity
  8
M0
100
AcDbLine
 10
305.878564
 20
649.14702
 11
310.378564
 21
649.14702
  0
LINE
  5
7C4
100
AcDbEntity
  8
M0
100
AcDbLine
 10
305.878763
 20
857.246843
 11
305.878778
 21
647.046922
  0
LINE
  5
7C5
100
AcDbEntity
  8
M0
100
AcDbLine
 10
335.378564
 20
647.046922
 11
362.378564
 21
647.046922
  0
LINE
  5
7C6
100
AcDbEntity
  8
M0
100
AcDbLine
 10
335.378564
 20
649.14702
 11
362.378564
 21
649.14702
  0
LINE
  5
7C7
100
AcDbEntity
  8
M0
100
AcDbLine
 10
387.378564
 20
647.046922
 11
414.378564
 21
647.046922
  0
LINE
  5
7C8
100
AcDbEntity
  8
M0
100
AcDbLine
 10
387.378564
 20
649.14702
 11
414.378564
 21
649.14702
  0
LINE
  5
7C9
100
AcDbEntity
  8
M0
100
AcDbLine
 10
439.378564
 20
647.046922
 11
459.878564
 21
647.046922
  0
LINE
  5
7CA
100
AcDbEntity
  8
M0
100
AcDbLine
 10
439.378564
 20
649.14702
 11
459.878564
 21
649.14702
  0
LINE
  5
7CB
100
AcDbEntity
  8
M0
100
AcDbLine
 10
459.878748
 20
857.246873
 11
459.878763
 21
647.046922
  0
LINE
  5
7CC
100
AcDbEntity
  8
M0
100
AcDbLine
 10
459.878564
 20
855.146669
 11
305.878564
 21
855.146669
  0
LINE
  5
7CD
100
AcDbEntity
  8
M0
100
AcDbLine
 10
459.878564
 20
857.246843
 11
305.878564
 21
857.246843
  0
LINE
  5
7CE
100
AcDbEntity
  8
M0
 62
     2
100
AcDbLine
 10
744.269098
 20
902.646882
 11
741.069098
 21
902.646882
  0
ARC
  5
7CF
100
AcDbEntity
  8
M0
 62
     2
100
AcDbCircle
 10
740.469098
 20
871.446882
 40
3.2
100
AcDbArc
 50
90.0
 51
180.0
  0
LINE
  5
7D0
100
AcDbEntity
  8
M0
 62
     2
100
AcDbLine
 10
744.269098
 20
874.646882
 11
744.269098
 21
902.646882
  0
ARC
  5
7D1
100
AcDbEntity
  8
M0
 62
     2
100
AcDbCircle
 10
741.069098
 20
874.646882
 40
3.2
100
AcDbArc
 50
270.0
 51
360.0
  0
LINE
  5
7D2
100
AcDbEntity
  8
M0
 62
     2
100
AcDbLine
 10
741.069098
 20
871.446882
 11
740.469098
 21
871.446882
  0
LINE
  5
7D3
100
AcDbEntity
  8
M0
 62
     2
100
AcDbLine
 10
741.069098
 20
874.646882
 11
740.469098
 21
874.646882
  0
LINE
  5
7D4
100
AcDbEntity
  8
M0
 62
     2
100
AcDbLine
 10
741.069098
 20
902.646882
 11
741.069098
 21
874.646882
  0
LINE
  5
7D5
100
AcDbEntity
  8
M0
 62
     2
100
AcDbLine
 10
737.269098
 20
871.446882
 11
737.269098
 21
757.646882
  0
LINE
  5
7D6
100
AcDbEntity
  8
M0
 62
     2
100
AcDbLine
 10
740.469098
 20
871.446882
 11
740.469098
 21
757.646882
  0
ARC
  5
7D7
100
AcDbEntity
  8
M0
 62
     2
100
AcDbCircle
 10
740.469098
 20
643.846882
 40
3.2
100
AcDbArc
 50
180.0
 51
270.0
  0
LINE
  5
7D8
100
AcDbEntity
  8
M0
 62
     2
100
AcDbLine
 10
744.269098
 20
640.646882
 11
744.269098
 21
612.646882
  0
ARC
  5
7D9
100
AcDbEntity
  8
M0
 62
     2
100
AcDbCircle
 10
741.069098
 20
640.646882
 40
3.2
100
AcDbArc
 50
0.0
 51
90.0
  0
LINE
  5
7DA
100
AcDbEntity
  8
M0
 62
     2
100
AcDbLine
 10
741.069098
 20
643.846882
 11
740.469098
 21
643.846882
  0
LINE
  5
7DB
100
AcDbEntity
  8
M0
 62
     2
100
AcDbLine
 10
741.069098
 20
640.646882
 11
740.469098
 21
640.646882
  0
LINE
  5
7DC
100
AcDbEntity
  8
M0
 62
     2
100
AcDbLine
 10
741.069098
 20
612.646882
 11
741.069098
 21
640.646882
  0
LINE
  5
7DD
100
AcDbEntity
  8
M0
 62
     2
100
AcDbLine
 10
740.469098
 20
643.846882
 11
740.469098
 21
757.646882
  0
LINE
  5
7DE
100
AcDbEntity
  8
M0
 62
     2
100
AcDbLine
 10
737.269098
 20
612.646882
 11
737.269098
 21
757.646882
  0
LINE
  5
7DF
100
AcDbEntity
  8
M0
 62
     2
100
AcDbLine
 10
744.269098
 20
612.646882
 11
737.269098
 21
612.646882
  0
LINE
  5
7E0
100
AcDbEntity
  8
M0
100
AcDbLine
 10
718.868871
 20
647.547857
 11
718.868871
 21
638.683351
  0
LINE
  5
7E1
100
AcDbEntity
  8
M0
100
AcDbLine
 10
716.568872
 20
647.547857
 11
716.568872
 21
638.683351
  0
LINE
  5
7E2
100
AcDbEntity
  8
M0
100
AcDbLine
 10
716.568872
 20
638.683351
 11
718.868871
 21
638.683351
  0
LINE
  5
7E3
100
AcDbEntity
  8
M0
100
AcDbLine
 10
442.878778
 20
857.246843
 11
442.878778
 21
874.246843
  0
LINE
  5
7E4
100
AcDbEntity
  8
M0
100
AcDbLine
 10
437.221924
 20
857.246843
 11
442.878778
 21
862.903697
  0
LINE
  5
7E5
100
AcDbEntity
  8
M0
100
AcDbLine
 10
431.56507
 20
857.246843
 11
442.878778
 21
868.560551
  0
LINE
  5
7E6
100
AcDbEntity
  8
M0
100
AcDbLine
 10
425.908215
 20
857.246843
 11
442.878778
 21
874.217405
  0
LINE
  5
7E7
100
AcDbEntity
  8
M0
100
AcDbLine
 10
420.251361
 20
857.246843
 11
437.251361
 21
874.246843
  0
LINE
  5
7E8
100
AcDbEntity
  8
M0
100
AcDbLine
 10
414.594507
 20
857.246843
 11
431.594507
 21
874.246843
  0
LINE
  5
7E9
100
AcDbEntity
  8
M0
100
AcDbLine
 10
408.937653
 20
857.246843
 11
425.937653
 21
874.246843
  0
LINE
  5
7EA
100
AcDbEntity
  8
M0
100
AcDbLine
 10
404.87858
 20
858.844624
 11
420.280798
 21
874.246843
  0
LINE
  5
7EB
100
AcDbEntity
  8
M0
100
AcDbLine
 10
404.87858
 20
864.501478
 11
414.623944
 21
874.246843
  0
LINE
  5
7EC
100
AcDbEntity
  8
M0
100
AcDbLine
 10
404.87858
 20
870.158333
 11
408.96709
 21
874.246843
  0
LINE
  5
7ED
100
AcDbEntity
  8
M0
100
AcDbLine
 10
442.878778
 20
874.246843
 11
396.878778
 21
874.246843
  0
LINE
  5
7EE
100
AcDbEntity
  8
M0
100
AcDbLine
 10
402.609865
 20
873.546473
 11
403.310236
 21
874.246843
  0
LINE
  5
7EF
100
AcDbEntity
  8
M0
100
AcDbLine
 10
396.953106
 20
873.546568
 11
397.653381
 21
874.246843
  0
LINE
  5
7F0
100
AcDbEntity
  8
M0
100
AcDbLine
 10
396.878778
 20
874.246843
 11
396.878778
 21
873.546566
  0
LINE
  5
7F1
100
AcDbEntity
  8
M0
100
AcDbLine
 10
732.668985
 20
856.747748
 11
732.668985
 21
873.747748
  0
LINE
  5
7F2
100
AcDbEntity
  8
M0
100
AcDbLine
 10
732.668985
 20
873.747748
 11
688.668985
 21
873.747748
  0
LINE
  5
7F3
100
AcDbEntity
  8
M0
100
AcDbLine
 10
688.668985
 20
873.747748
 11
688.668985
 21
856.747748
  0
LINE
  5
7F4
100
AcDbEntity
  8
M0
100
AcDbLine
 10
727.012131
 20
856.747748
 11
732.668985
 21
862.404602
  0
LINE
  5
7F5
100
AcDbEntity
  8
M0
100
AcDbLine
 10
721.355277
 20
856.747748
 11
732.668985
 21
868.061456
  0
LINE
  5
7F6
100
AcDbEntity
  8
M0
100
AcDbLine
 10
715.698423
 20
856.747748
 11
732.668985
 21
873.71831
  0
LINE
  5
7F7
100
AcDbEntity
  8
M0
100
AcDbLine
 10
710.041568
 20
856.747748
 11
727.041568
 21
873.747748
  0
LINE
  5
7F8
100
AcDbEntity
  8
M0
100
AcDbLine
 10
704.384714
 20
856.747748
 11
721.384714
 21
873.747748
  0
LINE
  5
7F9
100
AcDbEntity
  8
M0
100
AcDbLine
 10
698.72786
 20
856.747748
 11
715.72786
 21
873.747748
  0
LINE
  5
7FA
100
AcDbEntity
  8
M0
100
AcDbLine
 10
693.071006
 20
856.747748
 11
710.071006
 21
873.747748
  0
LINE
  5
7FB
100
AcDbEntity
  8
M0
100
AcDbLine
 10
688.668985
 20
858.002581
 11
704.414151
 21
873.747748
  0
LINE
  5
7FC
100
AcDbEntity
  8
M0
100
AcDbLine
 10
688.668985
 20
863.659436
 11
698.757297
 21
873.747748
  0
LINE
  5
7FD
100
AcDbEntity
  8
M0
100
AcDbLine
 10
688.668985
 20
869.31629
 11
693.100443
 21
873.747748
  0
LINE
  5
7FE
100
AcDbEntity
  8
M0
  6
DIVIDE
100
AcDbLine
 10
136.878784
 20
781.646867
 11
136.878789
 21
711.646867
  0
LINE
  5
7FF
100
AcDbEntity
  8
M0
  6
DIVIDE
100
AcDbLine
 10
455.878778
 20
781.646867
 11
455.878778
 21
711.646867
  0
LINE
  5
800
100
AcDbEntity
  8
M0
  6
DIVIDE
100
AcDbLine
 10
136.878784
 20
781.646867
 11
148.878784
 21
781.646867
  0
LINE
  5
801
100
AcDbEntity
  8
M0
  6
DIVIDE
100
AcDbLine
 10
136.878789
 20
711.646867
 11
148.878789
 21
711.646867
  0
LINE
  5
802
100
AcDbEntity
  8
M0
  6
DIVIDE
100
AcDbLine
 10
443.878778
 20
711.646867
 11
455.878778
 21
711.646867
  0
LINE
  5
803
100
AcDbEntity
  8
M0
  6
DIVIDE
100
AcDbLine
 10
443.878778
 20
781.646867
 11
455.878778
 21
781.646867
  0
LINE
  5
804
100
AcDbEntity
  8
M0
 62
     6
100
AcDbLine
 10
438.359644
 20
770.946428
 11
433.397775
 21
770.946428
  0
CIRCLE
  5
805
100
AcDbEntity
  8
M0
 62
     6
100
AcDbCircle
 10
435.878778
 20
766.646867
 40
3.0
  0
LINE
  5
806
100
AcDbEntity
  8
M0
 62
     6
100
AcDbLine
 10
434.464565
 20
765.232654
 11
437.292992
 21
768.061081
  0
ARC
  5
807
100
AcDbEntity
  8
M0
 62
     6
100
AcDbCircle
 10
433.397775
 20
770.446184
 40
0.5
100
AcDbArc
 50
89.998251
 51
162.874517
  0
LINE
  5
808
100
AcDbEntity
  8
M0
 62
     6
100
AcDbLine
 10
432.103754
 20
767.946672
 11
432.91987
 21
770.5934
  0
ARC
  5
809
100
AcDbEntity
  8
M0
 62
     6
100
AcDbCircle
 10
438.359644
 20
770.446184
 40
0.5
100
AcDbArc
 50
17.121626
 51
89.998251
  0
LINE
  5
80A
100
AcDbEntity
  8
M0
 62
     6
100
AcDbLine
 10
439.653772
 20
767.946428
 11
438.837564
 21
770.5934
  0
LINE
  5
80B
100
AcDbEntity
  8
M0
 62
     6
100
AcDbLine
 10
439.653757
 20
765.34633
 11
439.653757
 21
767.946428
  0
LINE
  5
80C
100
AcDbEntity
  8
M0
 62
     6
100
AcDbLine
 10
439.653772
 20
765.346574
 11
438.837579
 21
762.699357
  0
LINE
  5
80D
100
AcDbEntity
  8
M0
 62
     6
100
AcDbLine
 10
432.103754
 20
767.946672
 11
432.103754
 21
765.346818
  0
LINE
  5
80E
100
AcDbEntity
  8
M0
 62
     6
100
AcDbLine
 10
432.103754
 20
765.346818
 11
432.920007
 21
762.699357
  0
LINE
  5
80F
100
AcDbEntity
  8
M0
 62
     6
100
AcDbLine
 10
433.397775
 20
762.346818
 11
438.359796
 21
762.346818
  0
ARC
  5
810
100
AcDbEntity
  8
M0
 62
     6
100
AcDbCircle
 10
433.397775
 20
762.846818
 40
0.5
100
AcDbArc
 50
197.151452
 51
270.0
  0
ARC
  5
811
100
AcDbEntity
  8
M0
 62
     6
100
AcDbCircle
 10
438.359796
 20
762.846818
 40
0.5
100
AcDbArc
 50
270.0
 51
342.85125
  0
LINE
  5
812
100
AcDbEntity
  8
M0
 62
     6
100
AcDbLine
 10
437.292992
 20
765.232654
 11
434.464565
 21
768.061081
  0
LINE
  5
813
100
AcDbEntity
  8
M0
 62
     6
100
AcDbLine
 10
438.359644
 20
761.446428
 11
433.397775
 21
761.446428
  0
CIRCLE
  5
814
100
AcDbEntity
  8
M0
 62
     6
100
AcDbCircle
 10
435.878778
 20
757.146867
 40
3.0
  0
LINE
  5
815
100
AcDbEntity
  8
M0
 62
     6
100
AcDbLine
 10
434.464565
 20
755.732654
 11
437.292992
 21
758.561081
  0
ARC
  5
816
100
AcDbEntity
  8
M0
 62
     6
100
AcDbCircle
 10
433.397775
 20
760.946184
 40
0.5
100
AcDbArc
 50
89.998251
 51
162.874517
  0
LINE
  5
817
100
AcDbEntity
  8
M0
 62
     6
100
AcDbLine
 10
432.103754
 20
758.446672
 11
432.91987
 21
761.0934
  0
ARC
  5
818
100
AcDbEntity
  8
M0
 62
     6
100
AcDbCircle
 10
438.359644
 20
760.946184
 40
0.5
100
AcDbArc
 50
17.121626
 51
89.998251
  0
LINE
  5
819
100
AcDbEntity
  8
M0
 62
     6
100
AcDbLine
 10
439.653772
 20
758.446428
 11
438.837564
 21
761.0934
  0
LINE
  5
81A
100
AcDbEntity
  8
M0
 62
     6
100
AcDbLine
 10
439.653757
 20
755.84633
 11
439.653757
 21
758.446428
  0
LINE
  5
81B
100
AcDbEntity
  8
M0
 62
     6
100
AcDbLine
 10
439.653772
 20
755.846574
 11
438.837579
 21
753.199357
  0
LINE
  5
81C
100
AcDbEntity
  8
M0
 62
     6
100
AcDbLine
 10
432.103754
 20
758.446672
 11
432.103754
 21
755.846818
  0
LINE
  5
81D
100
AcDbEntity
  8
M0
 62
     6
100
AcDbLine
 10
432.103754
 20
755.846818
 11
432.920007
 21
753.199357
  0
LINE
  5
81E
100
AcDbEntity
  8
M0
 62
     6
100
AcDbLine
 10
433.397775
 20
752.846818
 11
438.359796
 21
752.846818
  0
ARC
  5
81F
100
AcDbEntity
  8
M0
 62
     6
100
AcDbCircle
 10
433.397775
 20
753.346818
 40
0.5
100
AcDbArc
 50
197.151452
 51
270.0
  0
ARC
  5
820
100
AcDbEntity
  8
M0
 62
     6
100
AcDbCircle
 10
438.359796
 20
753.346818
 40
0.5
100
AcDbArc
 50
270.0
 51
342.85125
  0
LINE
  5
821
100
AcDbEntity
  8
M0
 62
     6
100
AcDbLine
 10
437.292992
 20
755.732654
 11
434.464565
 21
758.561081
  0
LINE
  5
822
100
AcDbEntity
  8
M0
 62
     6
100
AcDbLine
 10
438.359644
 20
740.446428
 11
433.397775
 21
740.446428
  0
CIRCLE
  5
823
100
AcDbEntity
  8
M0
 62
     6
100
AcDbCircle
 10
435.878778
 20
736.146867
 40
3.0
  0
LINE
  5
824
100
AcDbEntity
  8
M0
 62
     6
100
AcDbLine
 10
434.464565
 20
734.732654
 11
437.292992
 21
737.561081
  0
ARC
  5
825
100
AcDbEntity
  8
M0
 62
     6
100
AcDbCircle
 10
433.397775
 20
739.946184
 40
0.5
100
AcDbArc
 50
89.998251
 51
162.874517
  0
LINE
  5
826
100
AcDbEntity
  8
M0
 62
     6
100
AcDbLine
 10
432.103754
 20
737.446672
 11
432.91987
 21
740.0934
  0
ARC
  5
827
100
AcDbEntity
  8
M0
 62
     6
100
AcDbCircle
 10
438.359644
 20
739.946184
 40
0.5
100
AcDbArc
 50
17.121626
 51
89.998251
  0
LINE
  5
828
100
AcDbEntity
  8
M0
 62
     6
100
AcDbLine
 10
439.653772
 20
737.446428
 11
438.837564
 21
740.0934
  0
LINE
  5
829
100
AcDbEntity
  8
M0
 62
     6
100
AcDbLine
 10
439.653757
 20
734.84633
 11
439.653757
 21
737.446428
  0
LINE
  5
82A
100
AcDbEntity
  8
M0
 62
     6
100
AcDbLine
 10
439.653772
 20
734.846574
 11
438.837579
 21
732.199357
  0
LINE
  5
82B
100
AcDbEntity
  8
M0
 62
     6
100
AcDbLine
 10
432.103754
 20
737.446672
 11
432.103754
 21
734.846818
  0
LINE
  5
82C
100
AcDbEntity
  8
M0
 62
     6
100
AcDbLine
 10
432.103754
 20
734.846818
 11
432.920007
 21
732.199357
  0
LINE
  5
82D
100
AcDbEntity
  8
M0
 62
     6
100
AcDbLine
 10
433.397775
 20
731.846818
 11
438.359796
 21
731.846818
  0
ARC
  5
82E
100
AcDbEntity
  8
M0
 62
     6
100
AcDbCircle
 10
433.397775
 20
732.346818
 40
0.5
100
AcDbArc
 50
197.151452
 51
270.0
  0
ARC
  5
82F
100
AcDbEntity
  8
M0
 62
     6
100
AcDbCircle
 10
438.359796
 20
732.346818
 40
0.5
100
AcDbArc
 50
270.0
 51
342.85125
  0
LINE
  5
830
100
AcDbEntity
  8
M0
 62
     6
100
AcDbLine
 10
437.292992
 20
734.732654
 11
434.464565
 21
737.561081
  0
LINE
  5
831
100
AcDbEntity
  8
M0
 62
     6
100
AcDbLine
 10
438.359644
 20
730.946428
 11
433.397775
 21
730.946428
  0
CIRCLE
  5
832
100
AcDbEntity
  8
M0
 62
     6
100
AcDbCircle
 10
435.878778
 20
726.646867
 40
3.0
  0
LINE
  5
833
100
AcDbEntity
  8
M0
 62
     6
100
AcDbLine
 10
434.464565
 20
725.232654
 11
437.292992
 21
728.061081
  0
ARC
  5
834
100
AcDbEntity
  8
M0
 62
     6
100
AcDbCircle
 10
433.397775
 20
730.446184
 40
0.5
100
AcDbArc
 50
89.998251
 51
162.874517
  0
LINE
  5
835
100
AcDbEntity
  8
M0
 62
     6
100
AcDbLine
 10
432.103754
 20
727.946672
 11
432.91987
 21
730.5934
  0
ARC
  5
836
100
AcDbEntity
  8
M0
 62
     6
100
AcDbCircle
 10
438.359644
 20
730.446184
 40
0.5
100
AcDbArc
 50
17.121626
 51
89.998251
  0
LINE
  5
837
100
AcDbEntity
  8
M0
 62
     6
100
AcDbLine
 10
439.653772
 20
727.946428
 11
438.837564
 21
730.5934
  0
LINE
  5
838
100
AcDbEntity
  8
M0
 62
     6
100
AcDbLine
 10
439.653757
 20
725.34633
 11
439.653757
 21
727.946428
  0
LINE
  5
839
100
AcDbEntity
  8
M0
 62
     6
100
AcDbLine
 10
439.653772
 20
725.346574
 11
438.837579
 21
722.699357
  0
LINE
  5
83A
100
AcDbEntity
  8
M0
 62
     6
100
AcDbLine
 10
432.103754
 20
727.946672
 11
432.103754
 21
725.346818
  0
LINE
  5
83B
100
AcDbEntity
  8
M0
 62
     6
100
AcDbLine
 10
432.103754
 20
725.346818
 11
432.920007
 21
722.699357
  0
LINE
  5
83C
100
AcDbEntity
  8
M0
 62
     6
100
AcDbLine
 10
433.397775
 20
722.346818
 11
438.359796
 21
722.346818
  0
ARC
  5
83D
100
AcDbEntity
  8
M0
 62
     6
100
AcDbCircle
 10
433.397775
 20
722.846818
 40
0.5
100
AcDbArc
 50
197.151452
 51
270.0
  0
ARC
  5
83E
100
AcDbEntity
  8
M0
 62
     6
100
AcDbCircle
 10
438.359796
 20
722.846818
 40
0.5
100
AcDbArc
 50
270.0
 51
342.85125
  0
LINE
  5
83F
100
AcDbEntity
  8
M0
 62
     6
100
AcDbLine
 10
437.292992
 20
725.232654
 11
434.464565
 21
728.061081
  0
LINE
  5
840
100
AcDbEntity
  8
M0
 62
     6
100
AcDbLine
 10
316.359644
 20
770.946428
 11
311.397775
 21
770.946428
  0
CIRCLE
  5
841
100
AcDbEntity
  8
M0
 62
     6
100
AcDbCircle
 10
313.878778
 20
766.646867
 40
3.0
  0
LINE
  5
842
100
AcDbEntity
  8
M0
 62
     6
100
AcDbLine
 10
312.464565
 20
765.232654
 11
315.292992
 21
768.061081
  0
ARC
  5
843
100
AcDbEntity
  8
M0
 62
     6
100
AcDbCircle
 10
311.397775
 20
770.446184
 40
0.5
100
AcDbArc
 50
89.998251
 51
162.874517
  0
LINE
  5
844
100
AcDbEntity
  8
M0
 62
     6
100
AcDbLine
 10
310.103754
 20
767.946672
 11
310.91987
 21
770.5934
  0
ARC
  5
845
100
AcDbEntity
  8
M0
 62
     6
100
AcDbCircle
 10
316.359644
 20
770.446184
 40
0.5
100
AcDbArc
 50
17.121626
 51
89.998251
  0
LINE
  5
846
100
AcDbEntity
  8
M0
 62
     6
100
AcDbLine
 10
317.653772
 20
767.946428
 11
316.837564
 21
770.5934
  0
LINE
  5
847
100
AcDbEntity
  8
M0
 62
     6
100
AcDbLine
 10
317.653757
 20
765.34633
 11
317.653757
 21
767.946428
  0
LINE
  5
848
100
AcDbEntity
  8
M0
 62
     6
100
AcDbLine
 10
317.653772
 20
765.346574
 11
316.837579
 21
762.699357
  0
LINE
  5
849
100
AcDbEntity
  8
M0
 62
     6
100
AcDbLine
 10
310.103754
 20
767.946672
 11
310.103754
 21
765.346818
  0
LINE
  5
84A
100
AcDbEntity
  8
M0
 62
     6
100
AcDbLine
 10
310.103754
 20
765.346818
 11
310.920007
 21
762.699357
  0
LINE
  5
84B
100
AcDbEntity
  8
M0
 62
     6
100
AcDbLine
 10
311.397775
 20
762.346818
 11
316.359796
 21
762.346818
  0
ARC
  5
84C
100
AcDbEntity
  8
M0
 62
     6
100
AcDbCircle
 10
311.397775
 20
762.846818
 40
0.5
100
AcDbArc
 50
197.151452
 51
270.0
  0
ARC
  5
84D
100
AcDbEntity
  8
M0
 62
     6
100
AcDbCircle
 10
316.359796
 20
762.846818
 40
0.5
100
AcDbArc
 50
270.0
 51
342.85125
  0
LINE
  5
84E
100
AcDbEntity
  8
M0
 62
     6
100
AcDbLine
 10
315.292992
 20
765.232654
 11
312.464565
 21
768.061081
  0
LINE
  5
84F
100
AcDbEntity
  8
M0
 62
     6
100
AcDbLine
 10
316.359644
 20
761.446428
 11
311.397775
 21
761.446428
  0
CIRCLE
  5
850
100
AcDbEntity
  8
M0
 62
     6
100
AcDbCircle
 10
313.878778
 20
757.146867
 40
3.0
  0
LINE
  5
851
100
AcDbEntity
  8
M0
 62
     6
100
AcDbLine
 10
312.464565
 20
755.732654
 11
315.292992
 21
758.561081
  0
ARC
  5
852
100
AcDbEntity
  8
M0
 62
     6
100
AcDbCircle
 10
311.397775
 20
760.946184
 40
0.5
100
AcDbArc
 50
89.998251
 51
162.874517
  0
LINE
  5
853
100
AcDbEntity
  8
M0
 62
     6
100
AcDbLine
 10
310.103754
 20
758.446672
 11
310.91987
 21
761.0934
  0
ARC
  5
854
100
AcDbEntity
  8
M0
 62
     6
100
AcDbCircle
 10
316.359644
 20
760.946184
 40
0.5
100
AcDbArc
 50
17.121626
 51
89.998251
  0
LINE
  5
855
100
AcDbEntity
  8
M0
 62
     6
100
AcDbLine
 10
317.653772
 20
758.446428
 11
316.837564
 21
761.0934
  0
LINE
  5
856
100
AcDbEntity
  8
M0
 62
     6
100
AcDbLine
 10
317.653757
 20
755.84633
 11
317.653757
 21
758.446428
  0
LINE
  5
857
100
AcDbEntity
  8
M0
 62
     6
100
AcDbLine
 10
317.653772
 20
755.846574
 11
316.837579
 21
753.199357
  0
LINE
  5
858
100
AcDbEntity
  8
M0
 62
     6
100
AcDbLine
 10
310.103754
 20
758.446672
 11
310.103754
 21
755.846818
  0
LINE
  5
859
100
AcDbEntity
  8
M0
 62
     6
100
AcDbLine
 10
310.103754
 20
755.846818
 11
310.920007
 21
753.199357
  0
LINE
  5
85A
100
AcDbEntity
  8
M0
 62
     6
100
AcDbLine
 10
311.397775
 20
752.846818
 11
316.359796
 21
752.846818
  0
ARC
  5
85B
100
AcDbEntity
  8
M0
 62
     6
100
AcDbCircle
 10
311.397775
 20
753.346818
 40
0.5
100
AcDbArc
 50
197.151452
 51
270.0
  0
ARC
  5
85C
100
AcDbEntity
  8
M0
 62
     6
100
AcDbCircle
 10
316.359796
 20
753.346818
 40
0.5
100
AcDbArc
 50
270.0
 51
342.85125
  0
LINE
  5
85D
100
AcDbEntity
  8
M0
 62
     6
100
AcDbLine
 10
315.292992
 20
755.732654
 11
312.464565
 21
758.561081
  0
LINE
  5
85E
100
AcDbEntity
  8
M0
 62
     6
100
AcDbLine
 10
316.359644
 20
740.446428
 11
311.397775
 21
740.446428
  0
CIRCLE
  5
85F
100
AcDbEntity
  8
M0
 62
     6
100
AcDbCircle
 10
313.878778
 20
736.146867
 40
3.0
  0
LINE
  5
860
100
AcDbEntity
  8
M0
 62
     6
100
AcDbLine
 10
312.464565
 20
734.732654
 11
315.292992
 21
737.561081
  0
ARC
  5
861
100
AcDbEntity
  8
M0
 62
     6
100
AcDbCircle
 10
311.397775
 20
739.946184
 40
0.5
100
AcDbArc
 50
89.998251
 51
162.874517
  0
LINE
  5
862
100
AcDbEntity
  8
M0
 62
     6
100
AcDbLine
 10
310.103754
 20
737.446672
 11
310.91987
 21
740.0934
  0
ARC
  5
863
100
AcDbEntity
  8
M0
 62
     6
100
AcDbCircle
 10
316.359644
 20
739.946184
 40
0.5
100
AcDbArc
 50
17.121626
 51
89.998251
  0
LINE
  5
864
100
AcDbEntity
  8
M0
 62
     6
100
AcDbLine
 10
317.653772
 20
737.446428
 11
316.837564
 21
740.0934
  0
LINE
  5
865
100
AcDbEntity
  8
M0
 62
     6
100
AcDbLine
 10
317.653757
 20
734.84633
 11
317.653757
 21
737.446428
  0
LINE
  5
866
100
AcDbEntity
  8
M0
 62
     6
100
AcDbLine
 10
317.653772
 20
734.846574
 11
316.837579
 21
732.199357
  0
LINE
  5
867
100
AcDbEntity
  8
M0
 62
     6
100
AcDbLine
 10
310.103754
 20
737.446672
 11
310.103754
 21
734.846818
  0
LINE
  5
868
100
AcDbEntity
  8
M0
 62
     6
100
AcDbLine
 10
310.103754
 20
734.846818
 11
310.920007
 21
732.199357
  0
LINE
  5
869
100
AcDbEntity
  8
M0
 62
     6
100
AcDbLine
 10
311.397775
 20
731.846818
 11
316.359796
 21
731.846818
  0
ARC
  5
86A
100
AcDbEntity
  8
M0
 62
     6
100
AcDbCircle
 10
311.397775
 20
732.346818
 40
0.5
100
AcDbArc
 50
197.151452
 51
270.0
  0
ARC
  5
86B
100
AcDbEntity
  8
M0
 62
     6
100
AcDbCircle
 10
316.359796
 20
732.346818
 40
0.5
100
AcDbArc
 50
270.0
 51
342.85125
  0
LINE
  5
86C
100
AcDbEntity
  8
M0
 62
     6
100
AcDbLine
 10
315.292992
 20
734.732654
 11
312.464565
 21
737.561081
  0
LINE
  5
86D
100
AcDbEntity
  8
M0
 62
     6
100
AcDbLine
 10
316.359644
 20
730.946428
 11
311.397775
 21
730.946428
  0
CIRCLE
  5
86E
100
AcDbEntity
  8
M0
 62
     6
100
AcDbCircle
 10
313.878778
 20
726.646867
 40
3.0
  0
LINE
  5
86F
100
AcDbEntity
  8
M0
 62
     6
100
AcDbLine
 10
312.464565
 20
725.232654
 11
315.292992
 21
728.061081
  0
ARC
  5
870
100
AcDbEntity
  8
M0
 62
     6
100
AcDbCircle
 10
311.397775
 20
730.446184
 40
0.5
100
AcDbArc
 50
89.998251
 51
162.874517
  0
LINE
  5
871
100
AcDbEntity
  8
M0
 62
     6
100
AcDbLine
 10
310.103754
 20
727.946672
 11
310.91987
 21
730.5934
  0
ARC
  5
872
100
AcDbEntity
  8
M0
 62
     6
100
AcDbCircle
 10
316.359644
 20
730.446184
 40
0.5
100
AcDbArc
 50
17.121626
 51
89.998251
  0
LINE
  5
873
100
AcDbEntity
  8
M0
 62
     6
100
AcDbLine
 10
317.653772
 20
727.946428
 11
316.837564
 21
730.5934
  0
LINE
  5
874
100
AcDbEntity
  8
M0
 62
     6
100
AcDbLine
 10
317.653757
 20
725.34633
 11
317.653757
 21
727.946428
  0
LINE
  5
875
100
AcDbEntity
  8
M0
 62
     6
100
AcDbLine
 10
317.653772
 20
725.346574
 11
316.837579
 21
722.699357
  0
LINE
  5
876
100
AcDbEntity
  8
M0
 62
     6
100
AcDbLine
 10
310.103754
 20
727.946672
 11
310.103754
 21
725.346818
  0
LINE
  5
877
100
AcDbEntity
  8
M0
 62
     6
100
AcDbLine
 10
310.103754
 20
725.346818
 11
310.920007
 21
722.699357
  0
LINE
  5
878
100
AcDbEntity
  8
M0
 62
     6
100
AcDbLine
 10
311.397775
 20
722.346818
 11
316.359796
 21
722.346818
  0
ARC
  5
879
100
AcDbEntity
  8
M0
 62
     6
100
AcDbCircle
 10
311.397775
 20
722.846818
 40
0.5
100
AcDbArc
 50
197.151452
 51
270.0
  0
ARC
  5
87A
100
AcDbEntity
  8
M0
 62
     6
100
AcDbCircle
 10
316.359796
 20
722.846818
 40
0.5
100
AcDbArc
 50
270.0
 51
342.85125
  0
LINE
  5
87B
100
AcDbEntity
  8
M0
 62
     6
100
AcDbLine
 10
315.292992
 20
725.232654
 11
312.464565
 21
728.061081
  0
LINE
  5
87C
100
AcDbEntity
  8
M0
 62
     6
100
AcDbLine
 10
281.359659
 20
770.946428
 11
276.397791
 21
770.946428
  0
CIRCLE
  5
87D
100
AcDbEntity
  8
M0
 62
     6
100
AcDbCircle
 10
278.878793
 20
766.646867
 40
3.0
  0
LINE
  5
87E
100
AcDbEntity
  8
M0
 62
     6
100
AcDbLine
 10
277.46458
 20
765.232654
 11
280.293007
 21
768.061081
  0
ARC
  5
87F
100
AcDbEntity
  8
M0
 62
     6
100
AcDbCircle
 10
276.397791
 20
770.446184
 40
0.5
100
AcDbArc
 50
89.998251
 51
162.874517
  0
LINE
  5
880
100
AcDbEntity
  8
M0
 62
     6
100
AcDbLine
 10
275.103769
 20
767.946672
 11
275.919885
 21
770.5934
  0
ARC
  5
881
100
AcDbEntity
  8
M0
 62
     6
100
AcDbCircle
 10
281.359659
 20
770.446184
 40
0.5
100
AcDbArc
 50
17.121626
 51
89.998251
  0
LINE
  5
882
100
AcDbEntity
  8
M0
 62
     6
100
AcDbLine
 10
282.653787
 20
767.946428
 11
281.837579
 21
770.5934
  0
LINE
  5
883
100
AcDbEntity
  8
M0
 62
     6
100
AcDbLine
 10
282.653772
 20
765.34633
 11
282.653772
 21
767.946428
  0
LINE
  5
884
100
AcDbEntity
  8
M0
 62
     6
100
AcDbLine
 10
282.653787
 20
765.346574
 11
281.837595
 21
762.699357
  0
LINE
  5
885
100
AcDbEntity
  8
M0
 62
     6
100
AcDbLine
 10
275.103769
 20
767.946672
 11
275.103769
 21
765.346818
  0
LINE
  5
886
100
AcDbEntity
  8
M0
 62
     6
100
AcDbLine
 10
275.103769
 20
765.346818
 11
275.920023
 21
762.699357
  0
LINE
  5
887
100
AcDbEntity
  8
M0
 62
     6
100
AcDbLine
 10
276.397791
 20
762.346818
 11
281.359811
 21
762.346818
  0
ARC
  5
888
100
AcDbEntity
  8
M0
 62
     6
100
AcDbCircle
 10
276.397791
 20
762.846818
 40
0.5
100
AcDbArc
 50
197.151452
 51
270.0
  0
ARC
  5
889
100
AcDbEntity
  8
M0
 62
     6
100
AcDbCircle
 10
281.359811
 20
762.846818
 40
0.5
100
AcDbArc
 50
270.0
 51
342.85125
  0
LINE
  5
88A
100
AcDbEntity
  8
M0
 62
     6
100
AcDbLine
 10
280.293007
 20
765.232654
 11
277.46458
 21
768.061081
  0
LINE
  5
88B
100
AcDbEntity
  8
M0
 62
     6
100
AcDbLine
 10
281.359659
 20
761.446428
 11
276.397791
 21
761.446428
  0
CIRCLE
  5
88C
100
AcDbEntity
  8
M0
 62
     6
100
AcDbCircle
 10
278.878793
 20
757.146867
 40
3.0
  0
LINE
  5
88D
100
AcDbEntity
  8
M0
 62
     6
100
AcDbLine
 10
277.46458
 20
755.732654
 11
280.293007
 21
758.561081
  0
ARC
  5
88E
100
AcDbEntity
  8
M0
 62
     6
100
AcDbCircle
 10
276.397791
 20
760.946184
 40
0.5
100
AcDbArc
 50
89.998251
 51
162.874517
  0
LINE
  5
88F
100
AcDbEntity
  8
M0
 62
     6
100
AcDbLine
 10
275.103769
 20
758.446672
 11
275.919885
 21
761.0934
  0
ARC
  5
890
100
AcDbEntity
  8
M0
 62
     6
100
AcDbCircle
 10
281.359659
 20
760.946184
 40
0.5
100
AcDbArc
 50
17.121626
 51
89.998251
  0
LINE
  5
891
100
AcDbEntity
  8
M0
 62
     6
100
AcDbLine
 10
282.653787
 20
758.446428
 11
281.837579
 21
761.0934
  0
LINE
  5
892
100
AcDbEntity
  8
M0
 62
     6
100
AcDbLine
 10
282.653772
 20
755.84633
 11
282.653772
 21
758.446428
  0
LINE
  5
893
100
AcDbEntity
  8
M0
 62
     6
100
AcDbLine
 10
282.653787
 20
755.846574
 11
281.837595
 21
753.199357
  0
LINE
  5
894
100
AcDbEntity
  8
M0
 62
     6
100
AcDbLine
 10
275.103769
 20
758.446672
 11
275.103769
 21
755.846818
  0
LINE
  5
895
100
AcDbEntity
  8
M0
 62
     6
100
AcDbLine
 10
275.103769
 20
755.846818
 11
275.920023
 21
753.199357
  0
LINE
  5
896
100
AcDbEntity
  8
M0
 62
     6
100
AcDbLine
 10
276.397791
 20
752.846818
 11
281.359811
 21
752.846818
  0
ARC
  5
897
100
AcDbEntity
  8
M0
 62
     6
100
AcDbCircle
 10
276.397791
 20
753.346818
 40
0.5
100
AcDbArc
 50
197.151452
 51
270.0
  0
ARC
  5
898
100
AcDbEntity
  8
M0
 62
     6
100
AcDbCircle
 10
281.359811
 20
753.346818
 40
0.5
100
AcDbArc
 50
270.0
 51
342.85125
  0
LINE
  5
899
100
AcDbEntity
  8
M0
 62
     6
100
AcDbLine
 10
280.293007
 20
755.732654
 11
277.46458
 21
758.561081
  0
LINE
  5
89A
100
AcDbEntity
  8
M0
 62
     6
100
AcDbLine
 10
281.359659
 20
730.946428
 11
276.397791
 21
730.946428
  0
CIRCLE
  5
89B
100
AcDbEntity
  8
M0
 62
     6
100
AcDbCircle
 10
278.878793
 20
726.646867
 40
3.0
  0
LINE
  5
89C
100
AcDbEntity
  8
M0
 62
     6
100
AcDbLine
 10
277.46458
 20
725.232654
 11
280.293007
 21
728.061081
  0
ARC
  5
89D
100
AcDbEntity
  8
M0
 62
     6
100
AcDbCircle
 10
276.397791
 20
730.446184
 40
0.5
100
AcDbArc
 50
89.998251
 51
162.874517
  0
LINE
  5
89E
100
AcDbEntity
  8
M0
 62
     6
100
AcDbLine
 10
275.103769
 20
727.946672
 11
275.919885
 21
730.5934
  0
ARC
  5
89F
100
AcDbEntity
  8
M0
 62
     6
100
AcDbCircle
 10
281.359659
 20
730.446184
 40
0.5
100
AcDbArc
 50
17.121626
 51
89.998251
  0
LINE
  5
8A0
100
AcDbEntity
  8
M0
 62
     6
100
AcDbLine
 10
282.653787
 20
727.946428
 11
281.837579
 21
730.5934
  0
LINE
  5
8A1
100
AcDbEntity
  8
M0
 62
     6
100
AcDbLine
 10
282.653772
 20
725.34633
 11
282.653772
 21
727.946428
  0
LINE
  5
8A2
100
AcDbEntity
  8
M0
 62
     6
100
AcDbLine
 10
282.653787
 20
725.346574
 11
281.837595
 21
722.699357
  0
LINE
  5
8A3
100
AcDbEntity
  8
M0
 62
     6
100
AcDbLine
 10
275.103769
 20
727.946672
 11
275.103769
 21
725.346818
  0
LINE
  5
8A4
100
AcDbEntity
  8
M0
 62
     6
100
AcDbLine
 10
275.103769
 20
725.346818
 11
275.920023
 21
722.699357
  0
LINE
  5
8A5
100
AcDbEntity
  8
M0
 62
     6
100
AcDbLine
 10
276.397791
 20
722.346818
 11
281.359811
 21
722.346818
  0
ARC
  5
8A6
100
AcDbEntity
  8
M0
 62
     6
100
AcDbCircle
 10
276.397791
 20
722.846818
 40
0.5
100
AcDbArc
 50
197.151452
 51
270.0
  0
ARC
  5
8A7
100
AcDbEntity
  8
M0
 62
     6
100
AcDbCircle
 10
281.359811
 20
722.846818
 40
0.5
100
AcDbArc
 50
270.0
 51
342.85125
  0
LINE
  5
8A8
100
AcDbEntity
  8
M0
 62
     6
100
AcDbLine
 10
280.293007
 20
725.232654
 11
277.46458
 21
728.061081
  0
LINE
  5
8A9
100
AcDbEntity
  8
M0
 62
     6
100
AcDbLine
 10
281.359659
 20
740.446428
 11
276.397791
 21
740.446428
  0
CIRCLE
  5
8AA
100
AcDbEntity
  8
M0
 62
     6
100
AcDbCircle
 10
278.878793
 20
736.146867
 40
3.0
  0
LINE
  5
8AB
100
AcDbEntity
  8
M0
 62
     6
100
AcDbLine
 10
277.46458
 20
734.732654
 11
280.293007
 21
737.561081
  0
ARC
  5
8AC
100
AcDbEntity
  8
M0
 62
     6
100
AcDbCircle
 10
276.397791
 20
739.946184
 40
0.5
100
AcDbArc
 50
89.998251
 51
162.874517
  0
LINE
  5
8AD
100
AcDbEntity
  8
M0
 62
     6
100
AcDbLine
 10
275.103769
 20
737.446672
 11
275.919885
 21
740.0934
  0
ARC
  5
8AE
100
AcDbEntity
  8
M0
 62
     6
100
AcDbCircle
 10
281.359659
 20
739.946184
 40
0.5
100
AcDbArc
 50
17.121626
 51
89.998251
  0
LINE
  5
8AF
100
AcDbEntity
  8
M0
 62
     6
100
AcDbLine
 10
282.653787
 20
737.446428
 11
281.837579
 21
740.0934
  0
LINE
  5
8B0
100
AcDbEntity
  8
M0
 62
     6
100
AcDbLine
 10
282.653772
 20
734.84633
 11
282.653772
 21
737.446428
  0
LINE
  5
8B1
100
AcDbEntity
  8
M0
 62
     6
100
AcDbLine
 10
282.653787
 20
734.846574
 11
281.837595
 21
732.199357
  0
LINE
  5
8B2
100
AcDbEntity
  8
M0
 62
     6
100
AcDbLine
 10
275.103769
 20
737.446672
 11
275.103769
 21
734.846818
  0
LINE
  5
8B3
100
AcDbEntity
  8
M0
 62
     6
100
AcDbLine
 10
275.103769
 20
734.846818
 11
275.920023
 21
732.199357
  0
LINE
  5
8B4
100
AcDbEntity
  8
M0
 62
     6
100
AcDbLine
 10
276.397791
 20
731.846818
 11
281.359811
 21
731.846818
  0
ARC
  5
8B5
100
AcDbEntity
  8
M0
 62
     6
100
AcDbCircle
 10
276.397791
 20
732.346818
 40
0.5
100
AcDbArc
 50
197.151452
 51
270.0
  0
ARC
  5
8B6
100
AcDbEntity
  8
M0
 62
     6
100
AcDbCircle
 10
281.359811
 20
732.346818
 40
0.5
100
AcDbArc
 50
270.0
 51
342.85125
  0
LINE
  5
8B7
100
AcDbEntity
  8
M0
 62
     6
100
AcDbLine
 10
280.293007
 20
734.732654
 11
277.46458
 21
737.561081
  0
LINE
  5
8B8
100
AcDbEntity
  8
M0
 62
     6
100
AcDbLine
 10
159.359659
 20
770.946428
 11
154.397791
 21
770.946428
  0
CIRCLE
  5
8B9
100
AcDbEntity
  8
M0
 62
     6
100
AcDbCircle
 10
156.878793
 20
766.646867
 40
3.0
  0
LINE
  5
8BA
100
AcDbEntity
  8
M0
 62
     6
100
AcDbLine
 10
155.46458
 20
765.232654
 11
158.293007
 21
768.061081
  0
ARC
  5
8BB
100
AcDbEntity
  8
M0
 62
     6
100
AcDbCircle
 10
154.397791
 20
770.446184
 40
0.5
100
AcDbArc
 50
89.998251
 51
162.874517
  0
LINE
  5
8BC
100
AcDbEntity
  8
M0
 62
     6
100
AcDbLine
 10
153.103769
 20
767.946672
 11
153.919885
 21
770.5934
  0
ARC
  5
8BD
100
AcDbEntity
  8
M0
 62
     6
100
AcDbCircle
 10
159.359659
 20
770.446184
 40
0.5
100
AcDbArc
 50
17.121626
 51
89.998251
  0
LINE
  5
8BE
100
AcDbEntity
  8
M0
 62
     6
100
AcDbLine
 10
160.653787
 20
767.946428
 11
159.837579
 21
770.5934
  0
LINE
  5
8BF
100
AcDbEntity
  8
M0
 62
     6
100
AcDbLine
 10
160.653772
 20
765.34633
 11
160.653772
 21
767.946428
  0
LINE
  5
8C0
100
AcDbEntity
  8
M0
 62
     6
100
AcDbLine
 10
160.653787
 20
765.346574
 11
159.837595
 21
762.699357
  0
LINE
  5
8C1
100
AcDbEntity
  8
M0
 62
     6
100
AcDbLine
 10
153.103769
 20
767.946672
 11
153.103769
 21
765.346818
  0
LINE
  5
8C2
100
AcDbEntity
  8
M0
 62
     6
100
AcDbLine
 10
153.103769
 20
765.346818
 11
153.920023
 21
762.699357
  0
LINE
  5
8C3
100
AcDbEntity
  8
M0
 62
     6
100
AcDbLine
 10
154.397791
 20
762.346818
 11
159.359811
 21
762.346818
  0
ARC
  5
8C4
100
AcDbEntity
  8
M0
 62
     6
100
AcDbCircle
 10
154.397791
 20
762.846818
 40
0.5
100
AcDbArc
 50
197.151452
 51
270.0
  0
ARC
  5
8C5
100
AcDbEntity
  8
M0
 62
     6
100
AcDbCircle
 10
159.359811
 20
762.846818
 40
0.5
100
AcDbArc
 50
270.0
 51
342.85125
  0
LINE
  5
8C6
100
AcDbEntity
  8
M0
 62
     6
100
AcDbLine
 10
158.293007
 20
765.232654
 11
155.46458
 21
768.061081
  0
LINE
  5
8C7
100
AcDbEntity
  8
M0
 62
     6
100
AcDbLine
 10
159.359659
 20
761.446428
 11
154.397791
 21
761.446428
  0
CIRCLE
  5
8C8
100
AcDbEntity
  8
M0
 62
     6
100
AcDbCircle
 10
156.878793
 20
757.146867
 40
3.0
  0
LINE
  5
8C9
100
AcDbEntity
  8
M0
 62
     6
100
AcDbLine
 10
155.46458
 20
755.732654
 11
158.293007
 21
758.561081
  0
ARC
  5
8CA
100
AcDbEntity
  8
M0
 62
     6
100
AcDbCircle
 10
154.397791
 20
760.946184
 40
0.5
100
AcDbArc
 50
89.998251
 51
162.874517
  0
LINE
  5
8CB
100
AcDbEntity
  8
M0
 62
     6
100
AcDbLine
 10
153.103769
 20
758.446672
 11
153.919885
 21
761.0934
  0
ARC
  5
8CC
100
AcDbEntity
  8
M0
 62
     6
100
AcDbCircle
 10
159.359659
 20
760.946184
 40
0.5
100
AcDbArc
 50
17.121626
 51
89.998251
  0
LINE
  5
8CD
100
AcDbEntity
  8
M0
 62
     6
100
AcDbLine
 10
160.653787
 20
758.446428
 11
159.837579
 21
761.0934
  0
LINE
  5
8CE
100
AcDbEntity
  8
M0
 62
     6
100
AcDbLine
 10
160.653772
 20
755.84633
 11
160.653772
 21
758.446428
  0
LINE
  5
8CF
100
AcDbEntity
  8
M0
 62
     6
100
AcDbLine
 10
160.653787
 20
755.846574
 11
159.837595
 21
753.199357
  0
LINE
  5
8D0
100
AcDbEntity
  8
M0
 62
     6
100
AcDbLine
 10
153.103769
 20
758.446672
 11
153.103769
 21
755.846818
  0
LINE
  5
8D1
100
AcDbEntity
  8
M0
 62
     6
100
AcDbLine
 10
153.103769
 20
755.846818
 11
153.920023
 21
753.199357
  0
LINE
  5
8D2
100
AcDbEntity
  8
M0
 62
     6
100
AcDbLine
 10
154.397791
 20
752.846818
 11
159.359811
 21
752.846818
  0
ARC
  5
8D3
100
AcDbEntity
  8
M0
 62
     6
100
AcDbCircle
 10
154.397791
 20
753.346818
 40
0.5
100
AcDbArc
 50
197.151452
 51
270.0
  0
ARC
  5
8D4
100
AcDbEntity
  8
M0
 62
     6
100
AcDbCircle
 10
159.359811
 20
753.346818
 40
0.5
100
AcDbArc
 50
270.0
 51
342.85125
  0
LINE
  5
8D5
100
AcDbEntity
  8
M0
 62
     6
100
AcDbLine
 10
158.293007
 20
755.732654
 11
155.46458
 21
758.561081
  0
LINE
  5
8D6
100
AcDbEntity
  8
M0
 62
     6
100
AcDbLine
 10
159.359659
 20
740.446428
 11
154.397791
 21
740.446428
  0
CIRCLE
  5
8D7
100
AcDbEntity
  8
M0
 62
     6
100
AcDbCircle
 10
156.878793
 20
736.146867
 40
3.0
  0
LINE
  5
8D8
100
AcDbEntity
  8
M0
 62
     6
100
AcDbLine
 10
155.46458
 20
734.732654
 11
158.293007
 21
737.561081
  0
ARC
  5
8D9
100
AcDbEntity
  8
M0
 62
     6
100
AcDbCircle
 10
154.397791
 20
739.946184
 40
0.5
100
AcDbArc
 50
89.998251
 51
162.874517
  0
LINE
  5
8DA
100
AcDbEntity
  8
M0
 62
     6
100
AcDbLine
 10
153.103769
 20
737.446672
 11
153.919885
 21
740.0934
  0
ARC
  5
8DB
100
AcDbEntity
  8
M0
 62
     6
100
AcDbCircle
 10
159.359659
 20
739.946184
 40
0.5
100
AcDbArc
 50
17.121626
 51
89.998251
  0
LINE
  5
8DC
100
AcDbEntity
  8
M0
 62
     6
100
AcDbLine
 10
160.653787
 20
737.446428
 11
159.837579
 21
740.0934
  0
LINE
  5
8DD
100
AcDbEntity
  8
M0
 62
     6
100
AcDbLine
 10
160.653772
 20
734.84633
 11
160.653772
 21
737.446428
  0
LINE
  5
8DE
100
AcDbEntity
  8
M0
 62
     6
100
AcDbLine
 10
160.653787
 20
734.846574
 11
159.837595
 21
732.199357
  0
LINE
  5
8DF
100
AcDbEntity
  8
M0
 62
     6
100
AcDbLine
 10
153.103769
 20
737.446672
 11
153.103769
 21
734.846818
  0
LINE
  5
8E0
100
AcDbEntity
  8
M0
 62
     6
100
AcDbLine
 10
153.103769
 20
734.846818
 11
153.920023
 21
732.199357
  0
LINE
  5
8E1
100
AcDbEntity
  8
M0
 62
     6
100
AcDbLine
 10
154.397791
 20
731.846818
 11
159.359811
 21
731.846818
  0
ARC
  5
8E2
100
AcDbEntity
  8
M0
 62
     6
100
AcDbCircle
 10
154.397791
 20
732.346818
 40
0.5
100
AcDbArc
 50
197.151452
 51
270.0
  0
ARC
  5
8E3
100
AcDbEntity
  8
M0
 62
     6
100
AcDbCircle
 10
159.359811
 20
732.346818
 40
0.5
100
AcDbArc
 50
270.0
 51
342.85125
  0
LINE
  5
8E4
100
AcDbEntity
  8
M0
 62
     6
100
AcDbLine
 10
158.293007
 20
734.732654
 11
155.46458
 21
737.561081
  0
LINE
  5
8E5
100
AcDbEntity
  8
M0
 62
     6
100
AcDbLine
 10
159.359659
 20
730.946428
 11
154.397791
 21
730.946428
  0
CIRCLE
  5
8E6
100
AcDbEntity
  8
M0
 62
     6
100
AcDbCircle
 10
156.878793
 20
726.646867
 40
3.0
  0
LINE
  5
8E7
100
AcDbEntity
  8
M0
 62
     6
100
AcDbLine
 10
155.46458
 20
725.232654
 11
158.293007
 21
728.061081
  0
ARC
  5
8E8
100
AcDbEntity
  8
M0
 62
     6
100
AcDbCircle
 10
154.397791
 20
730.446184
 40
0.5
100
AcDbArc
 50
89.998251
 51
162.874517
  0
LINE
  5
8E9
100
AcDbEntity
  8
M0
 62
     6
100
AcDbLine
 10
153.103769
 20
727.946672
 11
153.919885
 21
730.5934
  0
ARC
  5
8EA
100
AcDbEntity
  8
M0
 62
     6
100
AcDbCircle
 10
159.359659
 20
730.446184
 40
0.5
100
AcDbArc
 50
17.121626
 51
89.998251
  0
LINE
  5
8EB
100
AcDbEntity
  8
M0
 62
     6
100
AcDbLine
 10
160.653787
 20
727.946428
 11
159.837579
 21
730.5934
  0
LINE
  5
8EC
100
AcDbEntity
  8
M0
 62
     6
100
AcDbLine
 10
160.653772
 20
725.34633
 11
160.653772
 21
727.946428
  0
LINE
  5
8ED
100
AcDbEntity
  8
M0
 62
     6
100
AcDbLine
 10
160.653787
 20
725.346574
 11
159.837595
 21
722.699357
  0
LINE
  5
8EE
100
AcDbEntity
  8
M0
 62
     6
100
AcDbLine
 10
153.103769
 20
727.946672
 11
153.103769
 21
725.346818
  0
LINE
  5
8EF
100
AcDbEntity
  8
M0
 62
     6
100
AcDbLine
 10
153.103769
 20
725.346818
 11
153.920023
 21
722.699357
  0
LINE
  5
8F0
100
AcDbEntity
  8
M0
 62
     6
100
AcDbLine
 10
154.397791
 20
722.346818
 11
159.359811
 21
722.346818
  0
ARC
  5
8F1
100
AcDbEntity
  8
M0
 62
     6
100
AcDbCircle
 10
154.397791
 20
722.846818
 40
0.5
100
AcDbArc
 50
197.151452
 51
270.0
  0
ARC
  5
8F2
100
AcDbEntity
  8
M0
 62
     6
100
AcDbCircle
 10
159.359811
 20
722.846818
 40
0.5
100
AcDbArc
 50
270.0
 51
342.85125
  0
LINE
  5
8F3
100
AcDbEntity
  8
M0
 62
     6
100
AcDbLine
 10
158.293007
 20
725.232654
 11
155.46458
 21
728.061081
  0
LINE
  5
8F4
100
AcDbEntity
  8
M0
 62
     5
100
AcDbLine
 10
287.128771
 20
719.396867
 11
287.128771
 21
733.396867
  0
LINE
  5
8F5
100
AcDbEntity
  8
M0
 62
     5
100
AcDbLine
 10
305.628725
 20
719.396867
 11
305.628725
 21
756.396867
  0
LINE
  5
8F6
100
AcDbEntity
  8
M0
 62
     5
100
AcDbLine
 10
287.128771
 20
766.897111
 11
287.128771
 21
773.896867
  0
LINE
  5
8F7
100
AcDbEntity
  8
M0
 62
     5
100
AcDbLine
 10
287.129045
 20
773.896867
 11
305.628725
 21
773.896867
  0
LINE
  5
8F8
100
AcDbEntity
  8
M0
 62
     5
100
AcDbLine
 10
287.128527
 20
719.396867
 11
305.628725
 21
719.396867
  0
LINE
  5
8F9
100
AcDbEntity
  8
M0
 62
     5
100
AcDbLine
 10
298.128771
 20
759.896867
 11
305.628725
 21
759.896867
  0
LINE
  5
8FA
100
AcDbEntity
  8
M0
 62
     5
100
AcDbLine
 10
287.128527
 20
733.396867
 11
294.628725
 21
733.396867
  0
LINE
  5
8FB
100
AcDbEntity
  8
M0
 62
     5
100
AcDbLine
 10
287.129045
 20
747.896867
 11
298.128771
 21
747.896867
  0
LINE
  5
8FC
100
AcDbEntity
  8
M0
 62
     5
100
AcDbLine
 10
294.628725
 20
745.396867
 11
305.628725
 21
745.396867
  0
LINE
  5
8FD
100
AcDbEntity
  8
M0
 62
     5
100
AcDbLine
 10
298.128771
 20
747.896867
 11
298.128771
 21
766.896867
  0
LINE
  5
8FE
100
AcDbEntity
  8
M0
 62
     5
100
AcDbLine
 10
294.628725
 20
726.396867
 11
294.628725
 21
745.396867
  0
LINE
  5
8FF
100
AcDbEntity
  8
M0
 62
     5
100
AcDbLine
 10
292.128771
 20
736.896867
 11
292.128771
 21
747.896867
  0
LINE
  5
900
100
AcDbEntity
  8
M0
 62
     5
100
AcDbLine
 10
300.628725
 20
745.396867
 11
300.628725
 21
756.396867
  0
LINE
  5
901
100
AcDbEntity
  8
M0
 62
     5
100
AcDbLine
 10
287.129045
 20
736.896867
 11
292.128771
 21
736.896867
  0
LINE
  5
902
100
AcDbEntity
  8
M0
 62
     5
100
AcDbLine
 10
300.628725
 20
756.396867
 11
305.628725
 21
756.396867
  0
LINE
  5
903
100
AcDbEntity
  8
M0
 62
     5
100
AcDbLine
 10
287.128771
 20
736.896867
 11
287.128771
 21
773.896867
  0
LINE
  5
904
100
AcDbEntity
  8
M0
 62
     5
100
AcDbLine
 10
305.628725
 20
759.896867
 11
305.628725
 21
773.896867
  0
LINE
  5
905
100
AcDbEntity
  8
M0
100
AcDbLine
 10
285.878793
 20
857.246843
 11
285.878793
 21
874.246843
  0
LINE
  5
906
100
AcDbEntity
  8
M0
100
AcDbLine
 10
280.221939
 20
857.246843
 11
285.878793
 21
862.903697
  0
LINE
  5
907
100
AcDbEntity
  8
M0
100
AcDbLine
 10
274.565085
 20
857.246843
 11
285.878793
 21
868.560551
  0
LINE
  5
908
100
AcDbEntity
  8
M0
100
AcDbLine
 10
268.908231
 20
857.246843
 11
285.878793
 21
874.217405
  0
LINE
  5
909
100
AcDbEntity
  8
M0
100
AcDbLine
 10
263.251376
 20
857.246843
 11
280.251376
 21
874.246843
  0
LINE
  5
90A
100
AcDbEntity
  8
M0
100
AcDbLine
 10
257.594522
 20
857.246843
 11
274.594522
 21
874.246843
  0
LINE
  5
90B
100
AcDbEntity
  8
M0
100
AcDbLine
 10
251.937668
 20
857.246843
 11
268.937668
 21
874.246843
  0
LINE
  5
90C
100
AcDbEntity
  8
M0
100
AcDbLine
 10
247.878595
 20
858.844624
 11
263.280814
 21
874.246843
  0
LINE
  5
90D
100
AcDbEntity
  8
M0
100
AcDbLine
 10
247.878595
 20
864.501478
 11
257.623959
 21
874.246843
  0
LINE
  5
90E
100
AcDbEntity
  8
M0
100
AcDbLine
 10
247.878595
 20
870.158333
 11
251.967105
 21
874.246843
  0
LINE
  5
90F
100
AcDbEntity
  8
M0
100
AcDbLine
 10
285.878793
 20
874.246843
 11
239.878793
 21
874.246843
  0
LINE
  5
910
100
AcDbEntity
  8
M0
100
AcDbLine
 10
245.609881
 20
873.546473
 11
246.310251
 21
874.246843
  0
LINE
  5
911
100
AcDbEntity
  8
M0
100
AcDbLine
 10
239.953122
 20
873.546568
 11
240.653397
 21
874.246843
  0
LINE
  5
912
100
AcDbEntity
  8
M0
100
AcDbLine
 10
239.878793
 20
874.246843
 11
239.878793
 21
873.546566
  0
LINE
  5
913
100
AcDbEntity
  8
M0
  6
DIVIDE
100
AcDbLine
 10
461.378763
 20
519.127187
 11
131.378763
 21
519.127187
  0
LINE
  5
914
100
AcDbEntity
  8
M0
  6
DIVIDE
100
AcDbLine
 10
461.378763
 20
519.127187
 11
461.378763
 21
229.12792
  0
LINE
  5
915
100
AcDbEntity
  8
M0
  6
DIVIDE
100
AcDbLine
 10
131.378763
 20
229.12792
 11
131.378763
 21
519.127187
  0
LINE
  5
916
100
AcDbEntity
  8
M0
  6
DIVIDE
100
AcDbLine
 10
461.378763
 20
229.12792
 11
131.378763
 21
229.12792
  0
LINE
  5
917
100
AcDbEntity
  8
M0
  6
DASHDOT
100
AcDbLine
 10
284.378763
 20
244.127187
 11
308.378763
 21
244.127187
  0
LINE
  5
918
100
AcDbEntity
  8
M0
  6
DASHDOT
100
AcDbLine
 10
296.378763
 20
227.127187
 11
296.378763
 21
256.127187
  0
CIRCLE
  5
919
100
AcDbEntity
  8
M0
100
AcDbCircle
 10
296.378763
 20
244.127187
 40
4.0
  0
CIRCLE
  5
91A
100
AcDbEntity
  8
M0
100
AcDbCircle
 10
296.378763
 20
244.127187
 40
2.799999
  0
CIRCLE
  5
91B
100
AcDbEntity
  8
M0
100
AcDbCircle
 10
446.378763
 20
504.127187
 40
4.0
  0
LINE
  5
91C
100
AcDbEntity
  8
M0
  6
DASHDOT
100
AcDbLine
 10
463.378763
 20
504.127187
 11
434.378763
 21
504.127187
  0
LINE
  5
91D
100
AcDbEntity
  8
M0
  6
DASHDOT
100
AcDbLine
 10
446.378763
 20
492.127187
 11
446.378763
 21
521.127187
  0
CIRCLE
  5
91E
100
AcDbEntity
  8
M0
100
AcDbCircle
 10
446.378763
 20
504.127187
 40
2.799999
  0
CIRCLE
  5
91F
100
AcDbEntity
  8
M0
100
AcDbCircle
 10
146.378763
 20
504.127187
 40
4.0
  0
LINE
  5
920
100
AcDbEntity
  8
M0
  6
DASHDOT
100
AcDbLine
 10
129.378763
 20
504.127187
 11
158.378763
 21
504.127187
  0
LINE
  5
921
100
AcDbEntity
  8
M0
  6
DASHDOT
100
AcDbLine
 10
146.378763
 20
492.127187
 11
146.378763
 21
521.127187
  0
CIRCLE
  5
922
100
AcDbEntity
  8
M0
100
AcDbCircle
 10
146.378763
 20
504.127187
 40
2.799999
  0
LINE
  5
923
100
AcDbEntity
  8
M1
 62
     2
100
AcDbLine
 10
40.0
 20
40.0
 11
40.0
 21
1140.0
  0
LINE
  5
924
100
AcDbEntity
  8
M1
 62
     2
100
AcDbLine
 10
40.0
 20
1140.0
 11
800.0
 21
1140.0
  0
LINE
  5
925
100
AcDbEntity
  8
M1
 62
     2
100
AcDbLine
 10
800.0
 20
1140.0
 11
800.0
 21
40.0
  0
LINE
  5
926
100
AcDbEntity
  8
M1
 62
     2
100
AcDbLine
 10
800.0
 20
40.0
 11
40.0
 21
40.0
  0
LINE
  5
927
100
AcDbEntity
  8
M1
 62
     2
100
AcDbLine
 10
800.0
 20
80.0
 11
400.0
 21
80.0
  0
LINE
  5
928
100
AcDbEntity
  8
M1
 62
     2
100
AcDbLine
 10
800.0
 20
120.0
 11
400.0
 21
120.0
  0
LINE
  5
929
100
AcDbEntity
  8
M1
 62
     2
100
AcDbLine
 10
800.0
 20
160.0
 11
400.0
 21
160.0
  0
LINE
  5
92A
100
AcDbEntity
  8
M1
 62
     2
100
AcDbLine
 10
400.0
 20
40.0
 11
400.0
 21
160.0
  0
TEXT
  5
92B
100
AcDbEntity
  8
M1
 62
     2
100
AcDbText
 10
410.0
 20
50.0
 40
20.0
  1
適　用；
  7
STANDARD
100
AcDbText
  0
TEXT
  5
92C
100
AcDbEntity
  8
M1
 62
     2
100
AcDbText
 10
410.0
 20
130.0
 40
20.0
  1
登録名：
  7
STANDARD
100
AcDbText
  0
TEXT
  5
92D
100
AcDbEntity
  8
M1
 62
     2
100
AcDbText
 10
506.0
 20
130.0
 40
20.0
  1
ＤＭＨ２００ＣＲＬＲ００
 41
0.5
  7
STANDARD
100
AcDbText
  0
TEXT
  5
92E
100
AcDbEntity
  8
M1
 62
     2
100
AcDbText
 10
410.0
 20
90.0
 40
20.0
  1
形　式；
  7
STANDARD
100
AcDbText
  0
TEXT
  5
92F
100
AcDbEntity
  8
M1
 62
     2
100
AcDbText
 10
506.0
 20
90.0
 40
20.0
  1
Ｈ２００Ｃ－ＲＬ，Ｈ２５０Ｃ－ＲＬ
 41
0.5
  7
STANDARD
100
AcDbText
  0
LINE
  5
930
100
AcDbEntity
  8
DN0
100
AcDbLine
 10
264.022876
 20
147.023959
 11
337.062878
 21
147.023959
  0
TEXT
  5
931
100
AcDbEntity
  8
DN0
100
AcDbText
 10
266.042876
 20
148.823959
 40
18.0
  1
せん孔図
 41
0.833333
  7
STANDARD
100
AcDbText
  0
ENDSEC
  0
SECTION
  2
OBJECTS
  0
DICTIONARY
  5
C
100
AcDbDictionary
  3
ACAD_GROUP
350
D
  3
ACAD_MLINESTYLE
350
E
  0
DICTIONARY
  5
D
102
{ACAD_REACTORS
330
C
102
}
100
AcDbDictionary
  0
DICTIONARY
  5
E
102
{ACAD_REACTORS
330
C
102
}
100
AcDbDictionary
  3
STANDARD
350
13
  0
MLINESTYLE
  5
13
102
{ACAD_REACTORS
330
E
102
}
100
AcDbMlineStyle
  2
STANDARD
 70
     0
  3

 62
     0
 51
90.0
 52
90.0
 71
     2
 49
0.5
 62
   256
  6
BYLAYER
 49
-0.5
 62
   256
  6
BYLAYER
  0
ENDSEC
  0
EOF
