  0
SECTION
  2
HEADER
  9
$ACADVER
  1
AC1014
  9
$INSBASE
 10
0.000000
 20
0.000000
 30
0.0
  9
$VIEWCTR
 10
7.531722
 20
4.5
  9
$VIEWSIZE
 40
9.0
  9
$SNAPMODE
 70
     0
  9
$SNAPUNIT
 10
1.0
 20
1.0
  9
$SNAPBASE
 10
0.0
 20
0.0
  9
$SNAPANG
 50
0.0
  9
$SNAPSTYLE
 70
     0
  9
$SNAPISOPAIR
 70
     0
  9
$GRIDMODE
 70
     0
  9
$GRIDUNIT
 10
0.0
 20
0.0
  9
$ORTHOMODE
 70
     0
  9
$REGENMODE
 70
     1
  9
$FILLMODE
 70
     1
  9
$QTEXTMODE
 70
     0
  9
$DRAGMODE
 70
     2
  9
$LTSCALE
  40
     1.000000
  9
$OSMODE
 70
     0
  9
$ATTMODE
 70
     1
  9
$TEXTSIZE
 40
0.2
  9
$TRACEWID
 40
0.05
  9
$TEXTSTYLE
  7
STANDARD
  9
$CELTYPE
  6
BYLAYER
  9
$CECOLOR
 62
   256
  9
$DIMSCALE
 40
1.0
  9
$DIMASZ
 40
0.18
  9
$DIMEXO
 40
0.0625
  9
$DIMDLI
 40
0.38
  9
$DIMRND
 40
0.0
  9
$DIMDLE
 40
0.0
  9
$DIMEXE
 40
0.18
  9
$DIMTP
 40
0.0
  9
$DIMTM
 40
0.0
  9
$DIMTXT
 40
0.18
  9
$DIMCEN
 40
0.09
  9
$DIMTSZ
 40
0.0
  9
$DIMTOL
 70
     0
  9
$DIMLIM
 70
     0
  9
$DIMTIH
 70
     1
  9
$DIMTOH
 70
     1
  9
$DIMSE1
 70
     0
  9
$DIMSE2
 70
     0
  9
$DIMTAD
 70
     0
  9
$DIMZIN
 70
     0
  9
$DIMBLK
  1

  9
$LUNITS
 70
     2
  9
$LUPREC
 70
     4
  9
$AXISMODE
 70
     0
  9
$AXISUNIT
 10
0.0
 20
0.0
  9
$SKETCHINC
 40
0.1
  9
$FILLETRAD
 40
0.0
  9
$AUNITS
 70
     0
  9
$AUPREC
 70
     0
  9
$MENU
  1
ACAD
  9
$ELEVATION
 40
0.0
  9
$THICKNESS
 40
0.0
  9
$VIEWDIR
 10
0.0
 20
0.0
 30
1.0
  9
$LIMCHECK
 70
     0
  9
$BLIPMODE
 70
     1
  9
$CHAMFERA
 40
0.0
  9
$CHAMFERB
 40
0.0
  9
$FASTZOOM
 70
     1
  9
$SKPOLY
 70
     0
  9
$TDCREATE
 40
0000000.0000000000
  9
$TDUPDATE
 40
0000000.0000000000
  9
$TDINDWG
 40
0.0000000000
  9
$TDUSRTIMER
 40
0.0000000000
  9
$USRTIMER
 70
     1
  9
$ANGBASE
 50
0.0
  9
$ANGDIR
 70
     0
  9
$PDMODE
 70
     0
  9
$PDSIZE
 40
0.0
  9
$PLINEWID
 40
0.0
  9
$COORDS
 70
     0
  9
$USERI1
 70
     0
  9
$USERI2
 70
     0
  9
$USERI3
 70
     0
  9
$USERI4
 70
     0
  9
$USERI5
 70
     0
  9
$USERR1
 40
0.0
  9
$USERR2
 40
0.0
  9
$USERR3
 40
0.0
  9
$USERR4
 40
0.0
  9
$USERR5
 40
0.0
  9
$CLAYER
  8
M0
  9
$EXTMIN
 10
40.0
 20
40.0
  9
$EXTMAX
 10
800.0
 20
1140.0
  9
$LIMMIN
 10
0.0
 20
0.0
  9
$LIMMAX
 10
210.0
 20
297.0
  9
$HANDSEED
  5
8D1
  0
ENDSEC
  0
SECTION
  2
CLASSES
  0
ENDSEC
  0
SECTION
  2
TABLES
  0
TABLE
  2
VPORT
  5
8
100
AcDbSymbolTable
 70
     2
  0
VPORT
  5
14
100
AcDbSymbolTableRecord
100
AcDbViewportTableRecord
  2
*ACTIVE
 70
     0
 10
0.0
 20
0.0
 11
1.0
 21
1.0
 12
484.0
 22
297.0
 13
0.0
 23
0.0
 14
1.0
 24
1.0
 15
0.0
 25
0.0
 16
0.0
 26
0.0
 36
1.0
 17
0.0
 27
0.0
 37
0.0
 40
594.0
 41
2.0
 42
50.0
 43
0.0
 44
0.0
 50
0.0
 51
0.0
 71
     0
 72
   100
 73
     1
 74
     1
 75
     0
 76
     0
 77
     0
 78
     0
  0
ENDTAB
  0
TABLE
  2
LTYPE
  5
5
100
AcDbSymbolTable
 70
     5
  0
LTYPE
  5
15
100
AcDbSymbolTableRecord
100
AcDbLinetypeTableRecord
  2
BYBLOCK
 70
     0
  3

 72
    65
 73
     0
 40
0.0
  0
LTYPE
  5
16
100
AcDbSymbolTableRecord
100
AcDbLinetypeTableRecord
  2
BYLAYER
 70
     0
  3

 72
    65
 73
     0
 40
0.0
  0
LTYPE
  5
17
100
AcDbSymbolTableRecord
100
AcDbLinetypeTableRecord
  2
CONTINUOUS
 70
    64
  3
Solid line
 72
    65
 73
     0
 40
0.0
  0
LTYPE
  5
18
100
AcDbSymbolTableRecord
100
AcDbLinetypeTableRecord
  2
DASHED
 70
    64
  3
__ __ __ __ __ __ __ __ __ __ __ __ __ __ __ __
 72
    65
 73
     2
 40
0.75
 49
0.5
 74
     0
 49
-0.25
 74
     0
  0
LTYPE
  5
19
100
AcDbSymbolTableRecord
100
AcDbLinetypeTableRecord
  2
DASHDOT
 70
    64
  3
__ . __ . __ . __ . __ . __ . __ . __ . __ . __
 72
    65
 73
     4
 40
1.0
 49
0.5
 74
     0
 49
-0.25
 74
     0
 49
0.0
 74
     0
 49
-0.25
 74
     0
  0
LTYPE
  5
1A
100
AcDbSymbolTableRecord
100
AcDbLinetypeTableRecord
  2
DIVIDE
 70
    64
  3
____ . . ____ . . ____ . . ____ . . ____ . . __
 72
    65
 73
     6
 40
1.25
 49
0.5
 74
     0
 49
-0.25
 74
     0
 49
0.0
 74
     0
 49
-0.25
 74
     0
 49
0.0
 74
     0
 49
-0.25
 74
     0
  0
LTYPE
  5
1B
100
AcDbSymbolTableRecord
100
AcDbLinetypeTableRecord
  2
DOT
 70
    64
  3
. . . . . . . . . . . . . . . . . . . . . . . .
 72
    65
 73
     2
 40
0.25
 49
0.0
 74
     0
 49
-0.25
 74
     0
  0
ENDTAB
  0
TABLE
  2
LAYER
  5
2
100
AcDbSymbolTable
 70
   102
  0
LAYER
  5
F
100
AcDbSymbolTableRecord
100
AcDbLayerTableRecord
  2
0
 70
     0
 62
     7
  6
CONTINUOUS
  0
LAYER
  5
1C
100
AcDbSymbolTableRecord
100
AcDbLayerTableRecord
  2
DEFPOINTS
 70
     0
 62
     7
  6
CONTINUOUS
  0
LAYER
  5
1D
100
AcDbSymbolTableRecord
100
AcDbLayerTableRecord
  2
M0
 70
     0
 62
     3
  6
CONTINUOUS
  0
LAYER
  5
1E
100
AcDbSymbolTableRecord
100
AcDbLayerTableRecord
  2
M1
 70
     0
 62
     3
  6
CONTINUOUS
  0
LAYER
  5
1F
100
AcDbSymbolTableRecord
100
AcDbLayerTableRecord
  2
DD0
 70
     0
 62
     4
  6
CONTINUOUS
  0
LAYER
  5
20
100
AcDbSymbolTableRecord
100
AcDbLayerTableRecord
  2
DN0
 70
     0
 62
     2
  6
CONTINUOUS
  0
ENDTAB
  0
TABLE
  2
STYLE
  5
3
100
AcDbSymbolTable
 70
     2
  0
STYLE
  5
10
100
AcDbSymbolTableRecord
100
AcDbTextStyleTableRecord
  2
STANDARD
 70
     0
 40
0.0
 41
1.0
 50
0.0
 71
     0
 42
0.2
  3
txt
  4
BIGFONT
  0
ENDTAB
  0
TABLE
  2
VIEW
  5
6
100
AcDbSymbolTable
 70
     0
  0
ENDTAB
  0
TABLE
  2
UCS
  5
7
100
AcDbSymbolTable
 70
     0
  0
ENDTAB
  0
TABLE
  2
APPID
  5
9
100
AcDbSymbolTable
 70
     1
  0
APPID
  5
11
100
AcDbSymbolTableRecord
100
AcDbRegAppTableRecord
  2
ACAD
 70
     0
  0
ENDTAB
  0
TABLE
  2
DIMSTYLE
  5
A
100
AcDbSymbolTable
 70
     2
  0
DIMSTYLE
105
27
100
AcDbSymbolTableRecord
100
AcDbDimStyleTableRecord
  2
STANDARD
 70
     0
  3

  4

  5

  6
_OPEN
  7
_OPEN
 40
1.0
 41
12.0
 42
1.0
 43
8.0
 44
1.0
 45
0.0
 46
0.0
 47
0.0
 48
0.0
140
12.6
141
0.09
142
0.0
143
0.03937
144
1.0
145
0.0
146
1.0
147
0.6
 71
     0
 72
     0
 73
     1
 74
     1
 75
     0
 76
     0
 77
     3
 78
     8
170
     0
171
     2
172
     0
173
     1
174
     0
175
     0
176
     0
177
     0
178
     0
270
     2
271
     2
272
     4
273
     2
274
     2
340
10
275
     0
280
     0
281
     0
282
     0
283
     1
284
     0
285
     0
286
     0
287
     3
288
     0
  0
DIMSTYLE
105
28
100
AcDbSymbolTableRecord
100
AcDbDimStyleTableRecord
  2
LEADSTYL
 70
     0
  3

  4

  5

  6
_OPEN
  7
_OPEN
 40
1.0
 41
12.0
 42
0.0625
 43
0.38
 44
0.18
 45
0.0
 46
0.0
 47
0.0
 48
0.0
140
12.6
141
0.09
142
0.0
143
25.4
144
1.0
145
0.0
146
1.0
147
0.6
 71
     0
 72
     0
 73
     1
 74
     1
 75
     0
 76
     0
 77
     0
 78
     0
170
     0
171
     2
172
     0
173
     1
174
     0
175
     0
176
     0
177
     0
178
     0
270
     2
271
     4
272
     4
273
     2
274
     2
340
10
275
     0
280
     0
281
     0
282
     0
283
     1
284
     0
285
     0
286
     0
287
     3
288
     0
  0
ENDTAB
  0
TABLE
  2
BLOCK_RECORD
  5
1
100
AcDbSymbolTable
 70
    15
  0
BLOCK_RECORD
  5
21
100
AcDbSymbolTableRecord
100
AcDbBlockTableRecord
  2
*MODEL_SPACE
  0
BLOCK_RECORD
  5
24
100
AcDbSymbolTableRecord
100
AcDbBlockTableRecord
  2
*PAPER_SPACE
  0
BLOCK_RECORD
  5
29
100
AcDbSymbolTableRecord
100
AcDbBlockTableRecord
  2
_NONE
  0
BLOCK_RECORD
  5
2D
100
AcDbSymbolTableRecord
100
AcDbBlockTableRecord
  2
_OPEN
  0
BLOCK_RECORD
  5
33
100
AcDbSymbolTableRecord
100
AcDbBlockTableRecord
  2
_CLOSED
  0
BLOCK_RECORD
  5
3A
100
AcDbSymbolTableRecord
100
AcDbBlockTableRecord
  2
_ORIGIN
  0
BLOCK_RECORD
  5
3F
100
AcDbSymbolTableRecord
100
AcDbBlockTableRecord
  2
_DOT
  0
BLOCK_RECORD
  5
47
100
AcDbSymbolTableRecord
100
AcDbBlockTableRecord
  2
_OBLIQUE
  0
BLOCK_RECORD
  5
4B
100
AcDbSymbolTableRecord
100
AcDbBlockTableRecord
  2
DIMS0
  0
BLOCK_RECORD
  5
57
100
AcDbSymbolTableRecord
100
AcDbBlockTableRecord
  2
DIMS1
  0
BLOCK_RECORD
  5
63
100
AcDbSymbolTableRecord
100
AcDbBlockTableRecord
  2
DIMS2
  0
BLOCK_RECORD
  5
6F
100
AcDbSymbolTableRecord
100
AcDbBlockTableRecord
  2
DIMS3
  0
BLOCK_RECORD
  5
78
100
AcDbSymbolTableRecord
100
AcDbBlockTableRecord
  2
DIMS4
  0
BLOCK_RECORD
  5
84
100
AcDbSymbolTableRecord
100
AcDbBlockTableRecord
  2
DIMS5
  0
BLOCK_RECORD
  5
8E
100
AcDbSymbolTableRecord
100
AcDbBlockTableRecord
  2
DIMS6
  0
BLOCK_RECORD
  5
9A
100
AcDbSymbolTableRecord
100
AcDbBlockTableRecord
  2
DIMS7
  0
BLOCK_RECORD
  5
A6
100
AcDbSymbolTableRecord
100
AcDbBlockTableRecord
  2
DIMS8
  0
ENDTAB
  0
ENDSEC
  0
SECTION
  2
BLOCKS
  0
BLOCK
  5
22
100
AcDbEntity
  8
0
100
AcDbBlockBegin
  2
*MODEL_SPACE
 70
     0
 10
0.0
 20
0.0
 30
0.0
  3
*MODEL_SPACE
  1

  0
ENDBLK
  5
23
100
AcDbEntity
  8
0
100
AcDbBlockEnd
  0
BLOCK
  5
25
100
AcDbEntity
 67
     1
  8
0
100
AcDbBlockBegin
  2
*PAPER_SPACE
 70
     0
 10
0.0
 20
0.0
 30
0.0
  3
*PAPER_SPACE
  1

  0
ENDBLK
  5
26
100
AcDbEntity
 67
     1
  8
0
100
AcDbBlockEnd
  0
BLOCK
  5
2A
100
AcDbEntity
  8
0
100
AcDbBlockBegin
  2
_NONE
 70
     0
 10
0.0
 20
0.0
  0
CIRCLE
  5
2B
100
AcDbEntity
  8
0
 62
     0
100
AcDbCircle
 10
0.0
 20
0.0
 40
0.25
  0
ENDBLK
  5
2C
100
AcDbEntity
  8
0
100
AcDbBlockEnd
  0
BLOCK
  5
2E
100
AcDbEntity
  8
0
100
AcDbBlockBegin
  2
_OPEN
 70
     0
 10
0.0
 20
0.0
  0
LINE
  5
2F
100
AcDbEntity
  8
0
 62
     0
100
AcDbLine
 10
-0.965926
 20
0.258819
 11
0.0
 21
0.0
  0
LINE
  5
30
100
AcDbEntity
  8
0
 62
     0
100
AcDbLine
 10
0.0
 20
0.0
 11
-0.965926
 21
-0.258819
  0
LINE
  5
31
100
AcDbEntity
  8
0
 62
     0
100
AcDbLine
 10
0.0
 20
0.0
 11
-1.0
 21
0.0
  0
ENDBLK
  5
32
100
AcDbEntity
  8
0
100
AcDbBlockEnd
  0
BLOCK
  5
34
100
AcDbEntity
  8
0
100
AcDbBlockBegin
  2
_CLOSED
 70
     0
 10
0.0
 20
0.0
  0
LINE
  5
35
100
AcDbEntity
  8
0
 62
     0
100
AcDbLine
 10
-0.965926
 20
0.258819
 11
0.0
 21
0.0
  0
LINE
  5
36
100
AcDbEntity
  8
0
 62
     0
100
AcDbLine
 10
0.0
 20
0.0
 11
-0.965926
 21
-0.258819
  0
LINE
  5
37
100
AcDbEntity
  8
0
 62
     0
100
AcDbLine
 10
-0.965926
 20
0.258819
 11
-0.965926
 21
-0.258819
  0
LINE
  5
38
100
AcDbEntity
  8
0
 62
     0
100
AcDbLine
 10
0.0
 20
0.0
 11
-1.0
 21
0.0
  0
ENDBLK
  5
39
100
AcDbEntity
  8
0
100
AcDbBlockEnd
  0
BLOCK
  5
3B
100
AcDbEntity
  8
0
100
AcDbBlockBegin
  2
_ORIGIN
 70
     0
 10
0.0
 20
0.0
  0
CIRCLE
  5
3C
100
AcDbEntity
  8
0
 62
     0
100
AcDbCircle
 10
0.0
 20
0.0
 40
0.5
  0
LINE
  5
3D
100
AcDbEntity
  8
0
 62
     0
100
AcDbLine
 10
0.0
 20
0.0
 11
-1.0
 21
0.0
  0
ENDBLK
  5
3E
100
AcDbEntity
  8
0
100
AcDbBlockEnd
  0
BLOCK
  5
40
100
AcDbEntity
  8
0
100
AcDbBlockBegin
  2
_DOT
 70
     0
 10
0.0
 20
0.0
  0
POLYLINE
  5
41
100
AcDbEntity
  8
0
 62
     0
100
AcDb2dPolyline
 66
     1
 70
     1
 40
0.5
 41
0.5
  0
VERTEX
  5
42
100
AcDbEntity
  8
0
 62
     0
100
AcDbVertex
100
AcDb2dVertex
 10
-0.25
 20
0.0
 42
1.0
  0
VERTEX
  5
43
100
AcDbEntity
  8
0
 62
     0
100
AcDbVertex
100
AcDb2dVertex
 10
0.25
 20
0.0
 42
1.0
  0
SEQEND
  5
44
100
AcDbEntity
  8
0
 62
     0
  0
LINE
  5
45
100
AcDbEntity
  8
0
 62
     0
100
AcDbLine
 10
-0.5
 20
0.0
 11
-1.0
 21
0.0
  0
ENDBLK
  5
46
100
AcDbEntity
  8
0
100
AcDbBlockEnd
  0
BLOCK
  5
48
100
AcDbEntity
  8
0
100
AcDbBlockBegin
  2
_OBLIQUE
 70
     0
 10
0.0
 20
0.0
  0
LINE
  5
49
100
AcDbEntity
  8
0
 62
     0
100
AcDbLine
 10
-0.353553
 20
-0.353553
 11
0.353553
 21
0.353553
  0
ENDBLK
  5
4A
100
AcDbEntity
  8
0
100
AcDbBlockEnd
  0
BLOCK
  5
4C
100
AcDbEntity
  8
DD0
100
AcDbBlockBegin
  2
DIMS0
 70
     0
 10
0.0
 20
0.0
  0
LINE
  5
4D
100
AcDbEntity
  8
DD0
100
AcDbLine
 10
118.844864
 20
979.228149
 11
118.844864
 21
1013.328125
  0
LINE
  5
4E
100
AcDbEntity
  8
DD0
100
AcDbLine
 10
448.844849
 20
979.228149
 11
448.844849
 21
1013.328125
  0
LINE
  5
4F
100
AcDbEntity
  8
DD0
100
AcDbLine
 10
130.435974
 20
1012.433954
 11
118.844864
 21
1009.328125
  0
LINE
  5
50
100
AcDbEntity
  8
DD0
100
AcDbLine
 10
118.844864
 20
1009.328125
 11
130.435974
 21
1006.222296
  0
LINE
  5
51
100
AcDbEntity
  8
DD0
100
AcDbLine
 10
437.253739
 20
1006.222296
 11
448.844849
 21
1009.328125
  0
LINE
  5
52
100
AcDbEntity
  8
DD0
100
AcDbLine
 10
448.844849
 20
1009.328125
 11
437.253739
 21
1012.433954
  0
LINE
  5
53
100
AcDbEntity
  8
DD0
100
AcDbLine
 10
118.844864
 20
1009.328125
 11
448.844849
 21
1009.328125
  0
TEXT
  5
54
100
AcDbEntity
  8
DD0
100
AcDbText
 10
269.564855
 20
1012.128113
 40
12.6
  1
３３０
 41
0.666667
  7
STANDARD
100
AcDbText
  0
ENDBLK
  5
55
100
AcDbEntity
  8
DD0
100
AcDbBlockEnd
  0
BLOCK
  5
58
100
AcDbEntity
  8
DD0
100
AcDbBlockBegin
  2
DIMS1
 70
     0
 10
0.0
 20
0.0
  0
LINE
  5
59
100
AcDbEntity
  8
DD0
100
AcDbLine
 10
448.844849
 20
979.228149
 11
448.844849
 21
1046.965576
  0
LINE
  5
5A
100
AcDbEntity
  8
DD0
100
AcDbLine
 10
113.84494
 20
866.728088
 11
113.84494
 21
1046.965576
  0
LINE
  5
5B
100
AcDbEntity
  8
DD0
100
AcDbLine
 10
437.253739
 20
1039.859748
 11
448.844849
 21
1042.965576
  0
LINE
  5
5C
100
AcDbEntity
  8
DD0
100
AcDbLine
 10
448.844849
 20
1042.965576
 11
437.253739
 21
1046.071405
  0
LINE
  5
5D
100
AcDbEntity
  8
DD0
100
AcDbLine
 10
125.43605
 20
1046.071405
 11
113.84494
 21
1042.965576
  0
LINE
  5
5E
100
AcDbEntity
  8
DD0
100
AcDbLine
 10
113.84494
 20
1042.965576
 11
125.43605
 21
1039.859748
  0
LINE
  5
5F
100
AcDbEntity
  8
DD0
100
AcDbLine
 10
448.844849
 20
1042.965576
 11
113.84494
 21
1042.965576
  0
TEXT
  5
60
100
AcDbEntity
  8
DD0
100
AcDbText
 10
186.424901
 20
1045.765625
 40
12.6
  1
３３５（追加補助接点ユニット付の場合）
 41
0.666667
  7
STANDARD
100
AcDbText
  0
ENDBLK
  5
61
100
AcDbEntity
  8
DD0
100
AcDbBlockEnd
  0
BLOCK
  5
64
100
AcDbEntity
  8
DD0
100
AcDbBlockBegin
  2
DIMS2
 70
     0
 10
0.0
 20
0.0
  0
LINE
  5
65
100
AcDbEntity
  8
DD0
100
AcDbLine
 10
447.844849
 20
980.228149
 11
490.464508
 21
980.228149
  0
LINE
  5
66
100
AcDbEntity
  8
DD0
100
AcDbLine
 10
260.34491
 20
639.727905
 11
490.464508
 21
639.727905
  0
LINE
  5
67
100
AcDbEntity
  8
DD0
100
AcDbLine
 10
489.570337
 20
968.63704
 11
486.464508
 21
980.228149
  0
LINE
  5
68
100
AcDbEntity
  8
DD0
100
AcDbLine
 10
486.464508
 20
980.228149
 11
483.358679
 21
968.63704
  0
LINE
  5
69
100
AcDbEntity
  8
DD0
100
AcDbLine
 10
483.358679
 20
651.319015
 11
486.464508
 21
639.727905
  0
LINE
  5
6A
100
AcDbEntity
  8
DD0
100
AcDbLine
 10
486.464508
 20
639.727905
 11
489.570337
 21
651.319015
  0
LINE
  5
6B
100
AcDbEntity
  8
DD0
100
AcDbLine
 10
486.464508
 20
980.228149
 11
486.464508
 21
639.727905
  0
TEXT
  5
6C
100
AcDbEntity
  8
DD0
100
AcDbText
 10
483.66452
 20
795.698003
 40
12.6
  1
３４１
 50
90.000003
 41
0.666667
  7
STANDARD
100
AcDbText
  0
ENDBLK
  5
6D
100
AcDbEntity
  8
DD0
100
AcDbBlockEnd
  0
BLOCK
  5
70
100
AcDbEntity
  8
DD0
100
AcDbBlockBegin
  2
DIMS3
 70
     0
 10
0.0
 20
0.0
  0
TEXT
  5
71
100
AcDbEntity
  8
DD0
100
AcDbText
 10
325.644964
 20
183.807602
 40
12.6
  1
３－Ｍ８ねじ穴
 41
0.666667
  7
STANDARD
100
AcDbText
  0
LINE
  5
72
100
AcDbEntity
  8
DD0
100
AcDbLine
 10
297.492489
 20
216.187678
 11
287.940277
 21
223.450958
  0
LINE
  5
73
100
AcDbEntity
  8
DD0
100
AcDbLine
 10
287.940277
 20
223.450958
 11
292.581095
 21
212.384667
  0
LINE
  5
74
100
AcDbEntity
  8
DD0
100
AcDbLine
 10
287.940277
 20
223.450958
 11
320.805054
 21
181.007782
  0
LINE
  5
75
100
AcDbEntity
  8
DD0
100
AcDbLine
 10
320.805145
 20
181.007782
 11
399.365082
 21
181.007767
  0
ENDBLK
  5
76
100
AcDbEntity
  8
DD0
100
AcDbBlockEnd
  0
BLOCK
  5
79
100
AcDbEntity
  8
DD0
100
AcDbBlockBegin
  2
DIMS4
 70
     0
 10
0.0
 20
0.0
  0
LINE
  5
7A
100
AcDbEntity
  8
DD0
100
AcDbLine
 10
455.344818
 20
502.835846
 11
491.714508
 21
502.835846
  0
LINE
  5
7B
100
AcDbEntity
  8
DD0
100
AcDbLine
 10
463.066986
 20
487.835602
 11
491.714508
 21
487.835602
  0
LINE
  5
7C
100
AcDbEntity
  8
DD0
100
AcDbLine
 10
484.608679
 20
514.426956
 11
487.714508
 21
502.835846
  0
LINE
  5
7D
100
AcDbEntity
  8
DD0
100
AcDbLine
 10
487.714508
 20
502.835846
 11
490.820337
 21
514.426956
  0
LINE
  5
7E
100
AcDbEntity
  8
DD0
100
AcDbLine
 10
490.820337
 20
476.244492
 11
487.714508
 21
487.835602
  0
LINE
  5
7F
100
AcDbEntity
  8
DD0
100
AcDbLine
 10
487.714508
 20
487.835602
 11
484.608679
 21
476.244492
  0
LINE
  5
80
100
AcDbEntity
  8
DD0
100
AcDbLine
 10
487.714508
 20
540.195847
 11
487.714508
 21
474.635602
  0
TEXT
  5
81
100
AcDbEntity
  8
DD0
100
AcDbText
 10
484.91452
 20
516.875799
 40
12.6
  1
１５
 50
90.000003
 41
0.666667
  7
STANDARD
100
AcDbText
  0
ENDBLK
  5
82
100
AcDbEntity
  8
DD0
100
AcDbBlockEnd
  0
BLOCK
  5
85
100
AcDbEntity
  8
DD0
100
AcDbBlockBegin
  2
DIMS5
 70
     0
 10
0.0
 20
0.0
  0
LINE
  5
86
100
AcDbEntity
  8
DD0
 60
     1
100
AcDbLine
 10
463.066986
 20
487.835602
 11
491.714508
 21
487.835602
  0
LINE
  5
87
100
AcDbEntity
  8
DD0
100
AcDbLine
 10
313.066986
 20
227.835846
 11
491.714508
 21
227.835846
  0
LINE
  5
88
100
AcDbEntity
  8
DD0
100
AcDbLine
 10
484.608679
 20
239.426956
 11
487.714508
 21
227.835846
  0
LINE
  5
89
100
AcDbEntity
  8
DD0
100
AcDbLine
 10
487.714508
 20
227.835846
 11
490.820337
 21
239.426956
  0
LINE
  5
8A
100
AcDbEntity
  8
DD0
100
AcDbLine
 10
487.714508
 20
487.835602
 11
487.714508
 21
227.835846
  0
TEXT
  5
8B
100
AcDbEntity
  8
DD0
100
AcDbText
 10
484.91452
 20
343.55573
 40
12.6
  1
２６０
 50
90.000003
 41
0.666667
  7
STANDARD
100
AcDbText
  0
ENDBLK
  5
8C
100
AcDbEntity
  8
DD0
100
AcDbBlockEnd
  0
BLOCK
  5
8F
100
AcDbEntity
  8
DD0
100
AcDbBlockBegin
  2
DIMS6
 70
     0
 10
0.0
 20
0.0
  0
LINE
  5
90
100
AcDbEntity
  8
DD0
100
AcDbLine
 10
133.844818
 20
517.057739
 11
133.844818
 21
547.543945
  0
LINE
  5
91
100
AcDbEntity
  8
DD0
100
AcDbLine
 10
433.844818
 20
517.057739
 11
433.844818
 21
547.543945
  0
LINE
  5
92
100
AcDbEntity
  8
DD0
100
AcDbLine
 10
145.435928
 20
546.649774
 11
133.844818
 21
543.543945
  0
LINE
  5
93
100
AcDbEntity
  8
DD0
100
AcDbLine
 10
133.844818
 20
543.543945
 11
145.435928
 21
540.438117
  0
LINE
  5
94
100
AcDbEntity
  8
DD0
100
AcDbLine
 10
422.253708
 20
540.438117
 11
433.844818
 21
543.543945
  0
LINE
  5
95
100
AcDbEntity
  8
DD0
100
AcDbLine
 10
433.844818
 20
543.543945
 11
422.253708
 21
546.649774
  0
LINE
  5
96
100
AcDbEntity
  8
DD0
100
AcDbLine
 10
133.844818
 20
543.543945
 11
433.844818
 21
543.543945
  0
TEXT
  5
97
100
AcDbEntity
  8
DD0
100
AcDbText
 10
269.564824
 20
546.343933
 40
12.6
  1
３００
 41
0.666667
  7
STANDARD
100
AcDbText
  0
ENDBLK
  5
98
100
AcDbEntity
  8
DD0
100
AcDbBlockEnd
  0
BLOCK
  5
9B
100
AcDbEntity
  8
DD0
100
AcDbBlockBegin
  2
DIMS7
 70
     0
 10
0.0
 20
0.0
  0
LINE
  5
9C
100
AcDbEntity
  8
DD0
100
AcDbLine
 10
725.766418
 20
984.228149
 11
725.766418
 21
1013.328125
  0
LINE
  5
9D
100
AcDbEntity
  8
DD0
100
AcDbLine
 10
728.966431
 20
984.228149
 11
728.966431
 21
1013.328125
  0
LINE
  5
9E
100
AcDbEntity
  8
DD0
100
AcDbLine
 10
714.175309
 20
1006.222296
 11
725.766418
 21
1009.328125
  0
LINE
  5
9F
100
AcDbEntity
  8
DD0
100
AcDbLine
 10
725.766418
 20
1009.328125
 11
714.175309
 21
1012.433954
  0
LINE
  5
A0
100
AcDbEntity
  8
DD0
100
AcDbLine
 10
740.557541
 20
1012.433954
 11
728.966431
 21
1009.328125
  0
LINE
  5
A1
100
AcDbEntity
  8
DD0
100
AcDbLine
 10
728.966431
 20
1009.328125
 11
740.557541
 21
1006.222296
  0
LINE
  5
A2
100
AcDbEntity
  8
DD0
100
AcDbLine
 10
712.566419
 20
1009.328125
 11
783.966434
 21
1009.328125
  0
TEXT
  5
A3
100
AcDbEntity
  8
DD0
100
AcDbText
 10
743.196448
 20
1011.728149
 40
12.6
  1
３．２
 41
0.833333
  7
STANDARD
100
AcDbText
  0
ENDBLK
  5
A4
100
AcDbEntity
  8
DD0
100
AcDbBlockEnd
  0
BLOCK
  5
A7
100
AcDbEntity
  8
DD0
100
AcDbBlockBegin
  2
DIMS8
 70
     0
 10
0.0
 20
0.0
  0
LINE
  5
A8
100
AcDbEntity
  8
DD0
100
AcDbLine
 10
728.966431
 20
984.228149
 11
728.966431
 21
1046.965576
  0
LINE
  5
A9
100
AcDbEntity
  8
DD0
100
AcDbLine
 10
534.366638
 20
912.228149
 11
534.366638
 21
1046.965576
  0
LINE
  5
AA
100
AcDbEntity
  8
DD0
100
AcDbLine
 10
717.375321
 20
1039.859748
 11
728.966431
 21
1042.965576
  0
LINE
  5
AB
100
AcDbEntity
  8
DD0
100
AcDbLine
 10
728.966431
 20
1042.965576
 11
717.375321
 21
1046.071405
  0
LINE
  5
AC
100
AcDbEntity
  8
DD0
100
AcDbLine
 10
545.957748
 20
1046.071405
 11
534.366638
 21
1042.965576
  0
LINE
  5
AD
100
AcDbEntity
  8
DD0
100
AcDbLine
 10
534.366638
 20
1042.965576
 11
545.957748
 21
1039.859748
  0
LINE
  5
AE
100
AcDbEntity
  8
DD0
100
AcDbLine
 10
728.966431
 20
1042.965576
 11
534.366638
 21
1042.965576
  0
TEXT
  5
AF
100
AcDbEntity
  8
DD0
100
AcDbText
 10
613.796484
 20
1045.365601
 40
12.6
  1
１９８
 41
0.833333
  7
STANDARD
100
AcDbText
  0
ENDBLK
  5
B0
100
AcDbEntity
  8
DD0
100
AcDbBlockEnd
  0
ENDSEC
  0
SECTION
  2
ENTITIES
  0
INSERT
  5
56
100
AcDbEntity
  8
DD0
100
AcDbBlockReference
  2
DIMS0
 10
0.0
 20
0.0
  0
INSERT
  5
62
100
AcDbEntity
  8
DD0
100
AcDbBlockReference
  2
DIMS1
 10
0.0
 20
0.0
  0
INSERT
  5
6E
100
AcDbEntity
  8
DD0
100
AcDbBlockReference
  2
DIMS2
 10
0.0
 20
0.0
  0
INSERT
  5
77
100
AcDbEntity
  8
DD0
100
AcDbBlockReference
  2
DIMS3
 10
0.0
 20
0.0
  0
INSERT
  5
83
100
AcDbEntity
  8
DD0
100
AcDbBlockReference
  2
DIMS4
 10
0.0
 20
0.0
  0
INSERT
  5
8D
100
AcDbEntity
  8
DD0
100
AcDbBlockReference
  2
DIMS5
 10
0.0
 20
0.0
  0
INSERT
  5
99
100
AcDbEntity
  8
DD0
100
AcDbBlockReference
  2
DIMS6
 10
0.0
 20
0.0
  0
INSERT
  5
A5
100
AcDbEntity
  8
DD0
100
AcDbBlockReference
  2
DIMS7
 10
0.0
 20
0.0
  0
INSERT
  5
B1
100
AcDbEntity
  8
DD0
100
AcDbBlockReference
  2
DIMS8
 10
0.0
 20
0.0
  0
LINE
  5
B2
100
AcDbEntity
  8
M0
 62
     5
100
AcDbLine
 10
264.094863
 20
807.978131
 11
264.094863
 21
821.978131
  0
LINE
  5
B3
100
AcDbEntity
  8
M0
 62
     5
100
AcDbLine
 10
282.594817
 20
807.978131
 11
282.594817
 21
844.978131
  0
LINE
  5
B4
100
AcDbEntity
  8
M0
 62
     5
100
AcDbLine
 10
264.094863
 20
855.478375
 11
264.094863
 21
862.478131
  0
LINE
  5
B5
100
AcDbEntity
  8
M0
 62
     5
100
AcDbLine
 10
264.095138
 20
862.478131
 11
282.594817
 21
862.478131
  0
LINE
  5
B6
100
AcDbEntity
  8
M0
 62
     5
100
AcDbLine
 10
264.094619
 20
807.978131
 11
282.594817
 21
807.978131
  0
LINE
  5
B7
100
AcDbEntity
  8
M0
 62
     5
100
AcDbLine
 10
275.094863
 20
848.478131
 11
282.594817
 21
848.478131
  0
LINE
  5
B8
100
AcDbEntity
  8
M0
 62
     5
100
AcDbLine
 10
264.094619
 20
821.978131
 11
271.594817
 21
821.978131
  0
LINE
  5
B9
100
AcDbEntity
  8
M0
 62
     5
100
AcDbLine
 10
264.095138
 20
836.478131
 11
275.094863
 21
836.478131
  0
LINE
  5
BA
100
AcDbEntity
  8
M0
 62
     5
100
AcDbLine
 10
271.594817
 20
833.978131
 11
282.594817
 21
833.978131
  0
LINE
  5
BB
100
AcDbEntity
  8
M0
 62
     5
100
AcDbLine
 10
275.094863
 20
836.478131
 11
275.094863
 21
855.478131
  0
LINE
  5
BC
100
AcDbEntity
  8
M0
 62
     5
100
AcDbLine
 10
271.594817
 20
814.978131
 11
271.594817
 21
833.978131
  0
LINE
  5
BD
100
AcDbEntity
  8
M0
 62
     5
100
AcDbLine
 10
269.094863
 20
825.478131
 11
269.094863
 21
836.478131
  0
LINE
  5
BE
100
AcDbEntity
  8
M0
 62
     5
100
AcDbLine
 10
277.594817
 20
833.978131
 11
277.594817
 21
844.978131
  0
LINE
  5
BF
100
AcDbEntity
  8
M0
 62
     5
100
AcDbLine
 10
264.095138
 20
825.478131
 11
269.094863
 21
825.478131
  0
LINE
  5
C0
100
AcDbEntity
  8
M0
 62
     5
100
AcDbLine
 10
277.594817
 20
844.978131
 11
282.594817
 21
844.978131
  0
LINE
  5
C1
100
AcDbEntity
  8
M0
 62
     5
100
AcDbLine
 10
264.094863
 20
825.478131
 11
264.094863
 21
862.478131
  0
LINE
  5
C2
100
AcDbEntity
  8
M0
 62
     5
100
AcDbLine
 10
282.594817
 20
848.478131
 11
282.594817
 21
862.478131
  0
LINE
  5
C3
100
AcDbEntity
  8
M0
 62
     4
100
AcDbLine
 10
123.844863
 20
980.228131
 11
118.844863
 21
975.228131
  0
LINE
  5
C4
100
AcDbEntity
  8
M0
 62
     4
100
AcDbLine
 10
118.844863
 20
975.228131
 11
118.844863
 21
695.228131
  0
LINE
  5
C5
100
AcDbEntity
  8
M0
 62
     4
100
AcDbLine
 10
118.844863
 20
695.228131
 11
120.844942
 21
693.228052
  0
LINE
  5
C6
100
AcDbEntity
  8
M0
 62
     4
100
AcDbLine
 10
118.844863
 20
720.228131
 11
120.844939
 21
720.228131
  0
LINE
  5
C7
100
AcDbEntity
  8
M0
  6
DASHDOT
 62
     4
100
AcDbLine
 10
125.344863
 20
965.228131
 11
142.344863
 21
965.228131
  0
LINE
  5
C8
100
AcDbEntity
  8
M0
  6
DASHDOT
 62
     4
100
AcDbLine
 10
133.844863
 20
956.728131
 11
133.844863
 21
973.728131
  0
LINE
  5
C9
100
AcDbEntity
  8
M0
 62
     4
100
AcDbLine
 10
443.844848
 20
980.228131
 11
123.844863
 21
980.228131
  0
LINE
  5
CA
100
AcDbEntity
  8
M0
 62
     4
100
AcDbLine
 10
443.844848
 20
980.228131
 11
448.844848
 21
975.228131
  0
LINE
  5
CB
100
AcDbEntity
  8
M0
 62
     4
100
AcDbLine
 10
448.844848
 20
975.228131
 11
448.844848
 21
695.228131
  0
LINE
  5
CC
100
AcDbEntity
  8
M0
 62
     4
100
AcDbLine
 10
268.844741
 20
690.228131
 11
443.844848
 21
690.228131
  0
LINE
  5
CD
100
AcDbEntity
  8
M0
 62
     4
100
AcDbLine
 10
448.844848
 20
695.228131
 11
443.844848
 21
690.228131
  0
LINE
  5
CE
100
AcDbEntity
  8
M0
 62
     4
100
AcDbLine
 10
448.844848
 20
952.228131
 11
414.344837
 21
952.228131
  0
LINE
  5
CF
100
AcDbEntity
  8
M0
 62
     4
100
AcDbLine
 10
428.844848
 20
710.228131
 11
428.844848
 21
690.228131
  0
LINE
  5
D0
100
AcDbEntity
  8
M0
 62
     4
100
AcDbLine
 10
448.844848
 20
720.228131
 11
438.844848
 21
720.228131
  0
ARC
  5
D1
100
AcDbEntity
  8
M0
 62
     4
100
AcDbCircle
 10
438.844848
 20
710.228131
 40
10.0
100
AcDbArc
 50
90.0
 51
179.998601
  0
CIRCLE
  5
D2
100
AcDbEntity
  8
M0
 62
     4
100
AcDbCircle
 10
433.844848
 20
965.228131
 40
4.5
  0
LINE
  5
D3
100
AcDbEntity
  8
M0
  6
DASHDOT
 62
     4
100
AcDbLine
 10
442.344848
 20
965.228131
 11
425.344848
 21
965.228131
  0
LINE
  5
D4
100
AcDbEntity
  8
M0
  6
DASHDOT
 62
     4
100
AcDbLine
 10
433.844848
 20
956.728131
 11
433.844848
 21
973.728131
  0
CIRCLE
  5
D5
100
AcDbEntity
  8
M0
 62
     4
100
AcDbCircle
 10
283.844863
 20
705.228131
 40
4.5
  0
LINE
  5
D6
100
AcDbEntity
  8
M0
  6
DASHDOT
 62
     4
100
AcDbLine
 10
275.344863
 20
705.228131
 11
292.344863
 21
705.228131
  0
LINE
  5
D7
100
AcDbEntity
  8
M0
  6
DASHDOT
 62
     4
100
AcDbLine
 10
283.844863
 20
616.292927
 11
283.844863
 21
989.943137
  0
LINE
  5
D8
100
AcDbEntity
  8
M0
 62
     4
100
AcDbLine
 10
268.844863
 20
690.228131
 11
268.844863
 21
705.228131
  0
LINE
  5
D9
100
AcDbEntity
  8
M0
 62
     4
100
AcDbLine
 10
298.844863
 20
690.228131
 11
298.844863
 21
705.228131
  0
ARC
  5
DA
100
AcDbEntity
  8
M0
 62
     4
100
AcDbCircle
 10
283.844863
 20
705.228131
 40
15.0
100
AcDbArc
 50
0.0
 51
19.47102
  0
ARC
  5
DB
100
AcDbEntity
  8
M0
 62
     4
100
AcDbCircle
 10
133.844863
 20
965.228131
 40
4.5
100
AcDbArc
 50
308.939457
 51
610.528948
  0
LINE
  5
DC
100
AcDbEntity
  8
M0
 62
     4
100
AcDbLine
 10
132.344882
 20
952.228131
 11
118.844863
 21
952.228131
  0
ARC
  5
DD
100
AcDbEntity
  8
M0
 62
     4
100
AcDbCircle
 10
219.844863
 20
940.228131
 40
4.0
100
AcDbArc
 50
131.407715
 51
408.592145
  0
ARC
  5
DE
100
AcDbEntity
  8
M0
 62
     4
100
AcDbCircle
 10
169.844863
 20
940.228131
 40
4.0
100
AcDbArc
 50
131.406393
 51
408.593467
  0
ARC
  5
DF
100
AcDbEntity
  8
M0
 62
     4
100
AcDbCircle
 10
376.844863
 20
940.228131
 40
4.0
100
AcDbArc
 50
131.411865
 51
408.587995
  0
ARC
  5
E0
100
AcDbEntity
  8
M0
 62
     4
100
AcDbCircle
 10
326.844863
 20
940.228131
 40
4.0
100
AcDbArc
 50
131.410543
 51
408.589317
  0
ARC
  5
E1
100
AcDbEntity
  8
M0
 62
     4
100
AcDbCircle
 10
376.844863
 20
730.228131
 40
4.0
100
AcDbArc
 50
311.412005
 51
588.588135
  0
ARC
  5
E2
100
AcDbEntity
  8
M0
 62
     4
100
AcDbCircle
 10
326.844863
 20
730.228131
 40
4.0
100
AcDbArc
 50
311.410683
 51
588.589457
  0
ARC
  5
E3
100
AcDbEntity
  8
M0
 62
     4
100
AcDbCircle
 10
283.844863
 20
705.228131
 40
15.0
100
AcDbArc
 50
160.52884
 51
179.999067
  0
LINE
  5
E4
100
AcDbEntity
  8
M0
 62
     4
100
AcDbLine
 10
728.966445
 20
980.228131
 11
725.766445
 21
980.228131
  0
ARC
  5
E5
100
AcDbEntity
  8
M0
 62
     4
100
AcDbCircle
 10
726.166446
 20
948.027936
 40
1.0
100
AcDbArc
 50
90.0
 51
180.0
  0
LINE
  5
E6
100
AcDbEntity
  8
M0
 62
     4
100
AcDbLine
 10
725.766445
 20
980.228131
 11
725.766445
 21
953.228131
  0
LINE
  5
E7
100
AcDbEntity
  8
M0
 62
     4
100
AcDbLine
 10
726.166446
 20
949.027936
 11
726.466445
 21
949.027936
  0
LINE
  5
E8
100
AcDbEntity
  8
M0
 62
     4
100
AcDbLine
 10
728.966445
 20
951.527936
 11
728.966445
 21
980.228131
  0
ARC
  5
E9
100
AcDbEntity
  8
M0
 62
     4
100
AcDbCircle
 10
726.466445
 20
951.527936
 40
2.5
100
AcDbArc
 50
270.0
 51
360.0
  0
ARC
  5
EA
100
AcDbEntity
  8
M0
 62
     4
100
AcDbCircle
 10
724.766445
 20
953.228131
 40
1.0
100
AcDbArc
 50
270.0
 51
360.0
  0
LINE
  5
EB
100
AcDbEntity
  8
M0
 62
     4
100
AcDbLine
 10
724.766445
 20
952.228131
 11
724.466446
 21
952.228131
  0
ARC
  5
EC
100
AcDbEntity
  8
M0
 62
     4
100
AcDbCircle
 10
724.466446
 20
949.728131
 40
2.5
100
AcDbArc
 50
90.0
 51
180.0
  0
LINE
  5
ED
100
AcDbEntity
  8
M0
 62
     4
100
AcDbLine
 10
721.966446
 20
949.728131
 11
721.966446
 21
722.728131
  0
ARC
  5
EE
100
AcDbEntity
  8
M0
 62
     4
100
AcDbCircle
 10
724.466446
 20
722.728131
 40
2.5
100
AcDbArc
 50
180.0
 51
270.0
  0
LINE
  5
EF
100
AcDbEntity
  8
M0
 62
     4
100
AcDbLine
 10
725.166446
 20
724.428128
 11
725.166446
 21
948.027936
  0
ARC
  5
F0
100
AcDbEntity
  8
M0
 62
     4
100
AcDbCircle
 10
726.166446
 20
724.428128
 40
1.0
100
AcDbArc
 50
180.0
 51
270.0
  0
LINE
  5
F1
100
AcDbEntity
  8
M0
 62
     4
100
AcDbLine
 10
724.466446
 20
720.228131
 11
724.766445
 21
720.228131
  0
LINE
  5
F2
100
AcDbEntity
  8
M0
 62
     4
100
AcDbLine
 10
725.766445
 20
690.228131
 11
728.966445
 21
690.228131
  0
LINE
  5
F3
100
AcDbEntity
  8
M0
 62
     4
100
AcDbLine
 10
728.966445
 20
690.228131
 11
728.966445
 21
720.928128
  0
ARC
  5
F4
100
AcDbEntity
  8
M0
 62
     4
100
AcDbCircle
 10
726.466445
 20
720.928128
 40
2.5
100
AcDbArc
 50
0.0
 51
90.0
  0
LINE
  5
F5
100
AcDbEntity
  8
M0
 62
     4
100
AcDbLine
 10
726.466445
 20
723.428128
 11
726.166446
 21
723.428128
  0
LINE
  5
F6
100
AcDbEntity
  8
M0
 62
     4
100
AcDbLine
 10
725.766445
 20
719.228131
 11
725.766445
 21
690.228131
  0
ARC
  5
F7
100
AcDbEntity
  8
M0
 62
     4
100
AcDbCircle
 10
724.766445
 20
719.228131
 40
1.0
100
AcDbArc
 50
0.0
 51
90.0
  0
LINE
  5
F8
100
AcDbEntity
  8
M0
 62
     7
100
AcDbLine
 10
263.844924
 20
759.227551
 11
263.844924
 21
910.727948
  0
LINE
  5
F9
100
AcDbEntity
  8
M0
 62
     7
100
AcDbLine
 10
125.844939
 20
945.228039
 11
125.844939
 21
759.227734
  0
ARC
  5
FA
100
AcDbEntity
  8
M0
 62
     7
100
AcDbCircle
 10
130.844939
 20
945.228039
 40
5.0
100
AcDbArc
 50
89.999825
 51
180.0
  0
LINE
  5
FB
100
AcDbEntity
  8
M0
 62
     7
100
AcDbLine
 10
209.844933
 20
943.228228
 11
209.844933
 21
940.228039
  0
LINE
  5
FC
100
AcDbEntity
  8
M0
 62
     7
100
AcDbLine
 10
229.844924
 20
943.228203
 11
229.844924
 21
940.228039
  0
ARC
  5
FD
100
AcDbEntity
  8
M0
 62
     7
100
AcDbCircle
 10
219.844924
 20
940.228039
 40
10.0
100
AcDbArc
 50
180.0
 51
269.999913
  0
ARC
  5
FE
100
AcDbEntity
  8
M0
 62
     7
100
AcDbCircle
 10
219.844924
 20
940.228039
 40
10.0
100
AcDbArc
 50
269.999913
 51
360.0
  0
ARC
  5
FF
100
AcDbEntity
  8
M0
 62
     7
100
AcDbCircle
 10
169.844939
 20
940.228039
 40
10.0
100
AcDbArc
 50
-90.0
 51
0.0
  0
ARC
  5
100
100
AcDbEntity
  8
M0
 62
     7
100
AcDbCircle
 10
169.844939
 20
940.228039
 40
10.0
100
AcDbArc
 50
180.0
 51
270.0
  0
LINE
  5
101
100
AcDbEntity
  8
M0
 62
     7
100
AcDbLine
 10
179.844939
 20
943.228265
 11
179.844939
 21
940.228039
  0
LINE
  5
102
100
AcDbEntity
  8
M0
 62
     7
100
AcDbLine
 10
159.844939
 20
943.228289
 11
159.844939
 21
940.228039
  0
ARC
  5
103
100
AcDbEntity
  8
M0
 62
     7
100
AcDbCircle
 10
247.844924
 20
898.228039
 40
2.0
100
AcDbArc
 50
0.0
 51
90.0
  0
ARC
  5
104
100
AcDbEntity
  8
M0
 62
     7
100
AcDbCircle
 10
239.844924
 20
898.228039
 40
2.0
100
AcDbArc
 50
90.0
 51
180.0
  0
LINE
  5
105
100
AcDbEntity
  8
M0
 62
     7
100
AcDbLine
 10
237.844924
 20
898.228039
 11
237.844924
 21
896.228039
  0
ARC
  5
106
100
AcDbEntity
  8
M0
 62
     7
100
AcDbCircle
 10
222.844924
 20
901.228039
 40
1.0
100
AcDbArc
 50
180.0
 51
269.999126
  0
LINE
  5
107
100
AcDbEntity
  8
M0
 62
     7
100
AcDbLine
 10
237.844924
 20
896.228039
 11
221.844924
 21
896.228039
  0
LINE
  5
108
100
AcDbEntity
  8
M0
 62
     7
100
AcDbLine
 10
221.844924
 20
896.228039
 11
221.844924
 21
908.228039
  0
ARC
  5
109
100
AcDbEntity
  8
M0
 62
     7
100
AcDbCircle
 10
219.844924
 20
908.228039
 40
2.0
100
AcDbArc
 50
0.0
 51
90.0
  0
ARC
  5
10A
100
AcDbEntity
  8
M0
 62
     7
100
AcDbCircle
 10
209.844933
 20
908.228039
 40
2.0
100
AcDbArc
 50
90.0
 51
180.0
  0
ARC
  5
10B
100
AcDbEntity
  8
M0
 62
     7
100
AcDbCircle
 10
206.844933
 20
901.228039
 40
1.0
100
AcDbArc
 50
270.0
 51
360.0
  0
LINE
  5
10C
100
AcDbEntity
  8
M0
 62
     7
100
AcDbLine
 10
202.844933
 20
899.228039
 11
202.844933
 21
896.228039
  0
ARC
  5
10D
100
AcDbEntity
  8
M0
 62
     7
100
AcDbCircle
 10
203.844933
 20
899.228039
 40
1.0
100
AcDbArc
 50
90.0
 51
180.0
  0
LINE
  5
10E
100
AcDbEntity
  8
M0
 62
     7
100
AcDbLine
 10
207.844933
 20
901.228039
 11
207.844933
 21
908.228039
  0
LINE
  5
10F
100
AcDbEntity
  8
M0
 62
     7
100
AcDbLine
 10
247.844924
 20
900.228039
 11
222.844924
 21
900.228039
  0
LINE
  5
110
100
AcDbEntity
  8
M0
 62
     7
100
AcDbLine
 10
237.844924
 20
772.228055
 11
237.844924
 21
774.228039
  0
ARC
  5
111
100
AcDbEntity
  8
M0
 62
     7
100
AcDbCircle
 10
239.844924
 20
772.228055
 40
2.0
100
AcDbArc
 50
179.999563
 51
269.999563
  0
ARC
  5
112
100
AcDbEntity
  8
M0
 62
     7
100
AcDbCircle
 10
247.844924
 20
772.228055
 40
2.0
100
AcDbArc
 50
-90.000437
 51
0.0
  0
ARC
  5
113
100
AcDbEntity
  8
M0
 62
     7
100
AcDbCircle
 10
219.844924
 20
762.228055
 40
2.0
100
AcDbArc
 50
269.999563
 51
360.0
  0
LINE
  5
114
100
AcDbEntity
  8
M0
 62
     7
100
AcDbLine
 10
209.844933
 20
760.228055
 11
219.844924
 21
760.228055
  0
LINE
  5
115
100
AcDbEntity
  8
M0
 62
     7
100
AcDbLine
 10
237.844924
 20
774.228039
 11
221.844924
 21
774.228039
  0
LINE
  5
116
100
AcDbEntity
  8
M0
 62
     7
100
AcDbLine
 10
249.844924
 20
772.228055
 11
249.844924
 21
898.228039
  0
LINE
  5
117
100
AcDbEntity
  8
M0
 62
     7
100
AcDbLine
 10
202.844933
 20
896.228039
 11
194.844939
 21
896.228039
  0
LINE
  5
118
100
AcDbEntity
  8
M0
 62
     7
100
AcDbLine
 10
202.844933
 20
774.228039
 11
194.844939
 21
774.228039
  0
LINE
  5
119
100
AcDbEntity
  8
M0
 62
     7
100
AcDbLine
 10
202.844933
 20
771.228055
 11
202.844933
 21
774.228039
  0
ARC
  5
11A
100
AcDbEntity
  8
M0
 62
     7
100
AcDbCircle
 10
203.844933
 20
771.228055
 40
1.0
100
AcDbArc
 50
179.999126
 51
270.0
  0
LINE
  5
11B
100
AcDbEntity
  8
M0
 62
     7
100
AcDbLine
 10
247.844924
 20
770.228055
 11
221.844924
 21
770.228055
  0
LINE
  5
11C
100
AcDbEntity
  8
M0
 62
     7
100
AcDbLine
 10
219.844924
 20
910.228039
 11
209.844933
 21
910.228039
  0
LINE
  5
11D
100
AcDbEntity
  8
M0
 62
     7
100
AcDbLine
 10
207.844933
 20
770.228055
 11
194.844939
 21
770.228055
  0
LINE
  5
11E
100
AcDbEntity
  8
M0
 62
     7
100
AcDbLine
 10
206.844933
 20
900.228039
 11
194.844939
 21
900.228039
  0
CIRCLE
  5
11F
100
AcDbEntity
  8
M0
 62
     7
100
AcDbCircle
 10
214.844924
 20
902.228039
 40
1.86
  0
CIRCLE
  5
120
100
AcDbEntity
  8
M0
 62
     7
100
AcDbCircle
 10
214.844924
 20
768.228055
 40
4.5
  0
CIRCLE
  5
121
100
AcDbEntity
  8
M0
 62
     7
100
AcDbCircle
 10
214.844924
 20
902.228039
 40
1.36
  0
CIRCLE
  5
122
100
AcDbEntity
  8
M0
 62
     7
100
AcDbCircle
 10
214.844924
 20
768.228055
 40
2.25
  0
LINE
  5
123
100
AcDbEntity
  8
M0
 62
     7
100
AcDbLine
 10
207.844933
 20
770.228055
 11
207.844933
 21
762.228055
  0
ARC
  5
124
100
AcDbEntity
  8
M0
 62
     7
100
AcDbCircle
 10
209.844933
 20
762.228055
 40
2.0
100
AcDbArc
 50
179.999563
 51
270.0
  0
LINE
  5
125
100
AcDbEntity
  8
M0
 62
     7
100
AcDbLine
 10
221.844924
 20
774.228039
 11
221.844924
 21
762.228055
  0
ARC
  5
126
100
AcDbEntity
  8
M0
 62
     7
100
AcDbCircle
 10
141.844939
 20
772.228055
 40
2.0
100
AcDbArc
 50
179.999563
 51
270.0
  0
ARC
  5
127
100
AcDbEntity
  8
M0
 62
     7
100
AcDbCircle
 10
149.844939
 20
772.228055
 40
2.0
100
AcDbArc
 50
270.0
 51
360.0
  0
LINE
  5
128
100
AcDbEntity
  8
M0
 62
     7
100
AcDbLine
 10
151.844939
 20
772.228055
 11
151.844939
 21
774.228039
  0
ARC
  5
129
100
AcDbEntity
  8
M0
 62
     7
100
AcDbCircle
 10
166.844939
 20
769.228055
 40
1.0
100
AcDbArc
 50
0.0
 51
89.999126
  0
LINE
  5
12A
100
AcDbEntity
  8
M0
 62
     7
100
AcDbLine
 10
151.844939
 20
774.228039
 11
167.844939
 21
774.228039
  0
LINE
  5
12B
100
AcDbEntity
  8
M0
 62
     7
100
AcDbLine
 10
167.844939
 20
774.228039
 11
167.844939
 21
762.228055
  0
ARC
  5
12C
100
AcDbEntity
  8
M0
 62
     7
100
AcDbCircle
 10
169.844939
 20
762.228055
 40
2.0
100
AcDbArc
 50
179.999563
 51
270.0
  0
ARC
  5
12D
100
AcDbEntity
  8
M0
 62
     7
100
AcDbCircle
 10
179.844939
 20
762.228055
 40
2.0
100
AcDbArc
 50
270.0
 51
360.0
  0
ARC
  5
12E
100
AcDbEntity
  8
M0
 62
     7
100
AcDbCircle
 10
182.844939
 20
769.228055
 40
1.0
100
AcDbArc
 50
90.0
 51
179.999126
  0
LINE
  5
12F
100
AcDbEntity
  8
M0
 62
     7
100
AcDbLine
 10
186.844939
 20
771.228055
 11
186.844939
 21
774.228039
  0
ARC
  5
130
100
AcDbEntity
  8
M0
 62
     7
100
AcDbCircle
 10
185.844939
 20
771.228055
 40
1.0
100
AcDbArc
 50
270.0
 51
360.0
  0
LINE
  5
131
100
AcDbEntity
  8
M0
 62
     7
100
AcDbLine
 10
181.844939
 20
769.228055
 11
181.844939
 21
762.228055
  0
LINE
  5
132
100
AcDbEntity
  8
M0
 62
     7
100
AcDbLine
 10
141.844939
 20
770.228055
 11
166.844939
 21
770.228055
  0
LINE
  5
133
100
AcDbEntity
  8
M0
 62
     7
100
AcDbLine
 10
151.844939
 20
898.228039
 11
151.844939
 21
896.228039
  0
ARC
  5
134
100
AcDbEntity
  8
M0
 62
     7
100
AcDbCircle
 10
149.844939
 20
898.228039
 40
2.0
100
AcDbArc
 50
0.0
 51
89.999563
  0
ARC
  5
135
100
AcDbEntity
  8
M0
 62
     7
100
AcDbCircle
 10
141.844939
 20
898.228039
 40
2.0
100
AcDbArc
 50
89.999563
 51
180.0
  0
ARC
  5
136
100
AcDbEntity
  8
M0
 62
     7
100
AcDbCircle
 10
169.844939
 20
908.228039
 40
2.0
100
AcDbArc
 50
89.999563
 51
180.0
  0
LINE
  5
137
100
AcDbEntity
  8
M0
 62
     7
100
AcDbLine
 10
179.844939
 20
910.228039
 11
169.844939
 21
910.228039
  0
LINE
  5
138
100
AcDbEntity
  8
M0
 62
     7
100
AcDbLine
 10
151.844939
 20
896.228039
 11
167.844939
 21
896.228039
  0
LINE
  5
139
100
AcDbEntity
  8
M0
 62
     7
100
AcDbLine
 10
139.844939
 20
898.228039
 11
139.844939
 21
772.228055
  0
LINE
  5
13A
100
AcDbEntity
  8
M0
 62
     7
100
AcDbLine
 10
186.844939
 20
774.228039
 11
194.844939
 21
774.228039
  0
LINE
  5
13B
100
AcDbEntity
  8
M0
 62
     7
100
AcDbLine
 10
186.844939
 20
896.228039
 11
194.844939
 21
896.228039
  0
LINE
  5
13C
100
AcDbEntity
  8
M0
 62
     7
100
AcDbLine
 10
186.844939
 20
899.228039
 11
186.844939
 21
896.228039
  0
ARC
  5
13D
100
AcDbEntity
  8
M0
 62
     7
100
AcDbCircle
 10
185.844939
 20
899.228039
 40
1.0
100
AcDbArc
 50
0.0
 51
90.0
  0
LINE
  5
13E
100
AcDbEntity
  8
M0
 62
     7
100
AcDbLine
 10
141.844939
 20
900.228039
 11
167.844939
 21
900.228039
  0
LINE
  5
13F
100
AcDbEntity
  8
M0
 62
     7
100
AcDbLine
 10
169.844939
 20
760.228055
 11
179.844939
 21
760.228055
  0
LINE
  5
140
100
AcDbEntity
  8
M0
 62
     7
100
AcDbLine
 10
181.844939
 20
900.228039
 11
194.844939
 21
900.228039
  0
LINE
  5
141
100
AcDbEntity
  8
M0
 62
     7
100
AcDbLine
 10
182.844939
 20
770.228055
 11
194.844939
 21
770.228055
  0
CIRCLE
  5
142
100
AcDbEntity
  8
M0
 62
     7
100
AcDbCircle
 10
174.844939
 20
768.228055
 40
1.86
  0
CIRCLE
  5
143
100
AcDbEntity
  8
M0
 62
     7
100
AcDbCircle
 10
174.844939
 20
902.228039
 40
4.5
  0
CIRCLE
  5
144
100
AcDbEntity
  8
M0
 62
     7
100
AcDbCircle
 10
174.844939
 20
768.228055
 40
1.36
  0
CIRCLE
  5
145
100
AcDbEntity
  8
M0
 62
     7
100
AcDbCircle
 10
174.844939
 20
902.228039
 40
2.25
  0
LINE
  5
146
100
AcDbEntity
  8
M0
 62
     7
100
AcDbLine
 10
181.844939
 20
900.228039
 11
181.844939
 21
908.228039
  0
ARC
  5
147
100
AcDbEntity
  8
M0
 62
     7
100
AcDbCircle
 10
179.844939
 20
908.228039
 40
2.0
100
AcDbArc
 50
0.0
 51
90.0
  0
LINE
  5
148
100
AcDbEntity
  8
M0
 62
     7
100
AcDbLine
 10
167.844939
 20
896.228039
 11
167.844939
 21
908.228039
  0
LINE
  5
149
100
AcDbEntity
  8
M0
 62
     7
100
AcDbLine
 10
180.844939
 20
921.728039
 11
182.344939
 21
921.728039
  0
ARC
  5
14A
100
AcDbEntity
  8
M0
 62
     7
100
AcDbCircle
 10
208.844933
 20
920.728039
 40
1.0
100
AcDbArc
 50
0.0
 51
90.0
  0
LINE
  5
14B
100
AcDbEntity
  8
M0
 62
     7
100
AcDbLine
 10
209.844933
 20
920.728039
 11
209.844933
 21
911.228039
  0
ARC
  5
14C
100
AcDbEntity
  8
M0
 62
     7
100
AcDbCircle
 10
210.844933
 20
911.228039
 40
1.0
100
AcDbArc
 50
180.0
 51
270.0
  0
ARC
  5
14D
100
AcDbEntity
  8
M0
 62
     7
100
AcDbCircle
 10
219.844924
 20
908.228039
 40
2.0
100
AcDbArc
 50
0.0
 51
90.0
  0
LINE
  5
14E
100
AcDbEntity
  8
M0
 62
     7
100
AcDbLine
 10
221.844924
 20
908.228039
 11
221.844924
 21
902.728039
  0
ARC
  5
14F
100
AcDbEntity
  8
M0
 62
     7
100
AcDbCircle
 10
209.844933
 20
908.228039
 40
2.0
100
AcDbArc
 50
90.0
 51
180.0
  0
LINE
  5
150
100
AcDbEntity
  8
M0
 62
     7
100
AcDbLine
 10
231.135253
 20
910.228039
 11
207.344933
 21
910.228039
  0
LINE
  5
151
100
AcDbEntity
  8
M0
 62
     7
100
AcDbLine
 10
127.844939
 20
760.228055
 11
137.594939
 21
760.228055
  0
LINE
  5
152
100
AcDbEntity
  8
M0
 62
     7
100
AcDbLine
 10
263.844924
 20
762.228055
 11
263.844924
 21
910.727948
  0
ARC
  5
153
100
AcDbEntity
  8
M0
 62
     7
100
AcDbCircle
 10
261.844924
 20
762.228055
 40
2.0
100
AcDbArc
 50
269.999563
 51
360.0
  0
ARC
  5
154
100
AcDbEntity
  8
M0
 62
     7
100
AcDbCircle
 10
209.844933
 20
762.228055
 40
2.0
100
AcDbArc
 50
179.999563
 51
270.0
  0
ARC
  5
155
100
AcDbEntity
  8
M0
 62
     7
100
AcDbCircle
 10
219.844924
 20
762.228055
 40
2.0
100
AcDbArc
 50
-90.000437
 51
0.0
  0
LINE
  5
156
100
AcDbEntity
  8
M0
 62
     7
100
AcDbLine
 10
221.844924
 20
762.228055
 11
221.844924
 21
767.728055
  0
CIRCLE
  5
157
100
AcDbEntity
  8
M0
 62
     7
100
AcDbCircle
 10
255.844924
 20
905.728039
 40
2.75
  0
ARC
  5
158
100
AcDbEntity
  8
M0
 62
     7
100
AcDbCircle
 10
127.844939
 20
919.728039
 40
2.0
100
AcDbArc
 50
89.999563
 51
180.0
  0
ARC
  5
159
100
AcDbEntity
  8
M0
 62
     7
100
AcDbCircle
 10
180.844939
 20
920.728039
 40
1.0
100
AcDbArc
 50
90.0
 51
180.0
  0
LINE
  5
15A
100
AcDbEntity
  8
M0
 62
     7
100
AcDbLine
 10
179.844939
 20
920.728039
 11
179.844939
 21
911.228039
  0
ARC
  5
15B
100
AcDbEntity
  8
M0
 62
     7
100
AcDbCircle
 10
178.844939
 20
911.228039
 40
1.0
100
AcDbArc
 50
-90.0
 51
0.0
  0
ARC
  5
15C
100
AcDbEntity
  8
M0
 62
     7
100
AcDbCircle
 10
169.844939
 20
908.228039
 40
2.0
100
AcDbArc
 50
89.999563
 51
180.0
  0
LINE
  5
15D
100
AcDbEntity
  8
M0
 62
     7
100
AcDbLine
 10
167.844939
 20
908.228039
 11
167.844939
 21
902.728039
  0
ARC
  5
15E
100
AcDbEntity
  8
M0
 62
     7
100
AcDbCircle
 10
179.844939
 20
908.228039
 40
2.0
100
AcDbArc
 50
0.0
 51
90.0
  0
LINE
  5
15F
100
AcDbEntity
  8
M0
 62
     7
100
AcDbLine
 10
125.844939
 20
762.228055
 11
125.844939
 21
919.728039
  0
ARC
  5
160
100
AcDbEntity
  8
M0
 62
     7
100
AcDbCircle
 10
127.844939
 20
762.228055
 40
2.0
100
AcDbArc
 50
179.999563
 51
270.0
  0
ARC
  5
161
100
AcDbEntity
  8
M0
 62
     7
100
AcDbCircle
 10
179.844939
 20
762.228055
 40
2.0
100
AcDbArc
 50
270.0
 51
360.0
  0
ARC
  5
162
100
AcDbEntity
  8
M0
 62
     7
100
AcDbCircle
 10
169.844939
 20
762.228055
 40
2.0
100
AcDbArc
 50
179.999563
 51
270.0
  0
LINE
  5
163
100
AcDbEntity
  8
M0
 62
     7
100
AcDbLine
 10
167.844939
 20
762.228055
 11
167.844939
 21
767.728055
  0
CIRCLE
  5
164
100
AcDbEntity
  8
M0
 62
     7
100
AcDbCircle
 10
133.844939
 20
905.728039
 40
2.75
  0
LINE
  5
165
100
AcDbEntity
  8
M0
 62
     7
100
AcDbLine
 10
249.844924
 20
762.799481
 11
249.844924
 21
809.728039
  0
CIRCLE
  5
166
100
AcDbEntity
  8
M0
 62
     7
100
AcDbCircle
 10
133.844939
 20
764.728055
 40
2.75
  0
CIRCLE
  5
167
100
AcDbEntity
  8
M0
 62
     7
100
AcDbCircle
 10
255.844924
 20
764.728055
 40
2.75
  0
LINE
  5
168
100
AcDbEntity
  8
M0
 62
     7
100
AcDbLine
 10
261.344924
 20
870.228039
 11
261.344924
 21
862.728039
  0
LINE
  5
169
100
AcDbEntity
  8
M0
 62
     7
100
AcDbLine
 10
261.344924
 20
870.228039
 11
263.844924
 21
870.228039
  0
LINE
  5
16A
100
AcDbEntity
  8
M0
 62
     7
100
AcDbLine
 10
256.844924
 20
838.978039
 11
263.844924
 21
838.978039
  0
ARC
  5
16B
100
AcDbEntity
  8
M0
 62
     7
100
AcDbCircle
 10
256.844924
 20
837.978039
 40
1.0
100
AcDbArc
 50
90.0
 51
180.0
  0
LINE
  5
16C
100
AcDbEntity
  8
M0
 62
     7
100
AcDbLine
 10
255.844924
 20
837.978039
 11
255.844924
 21
832.478039
  0
LINE
  5
16D
100
AcDbEntity
  8
M0
 62
     7
100
AcDbLine
 10
256.844924
 20
831.478039
 11
263.844924
 21
831.478039
  0
ARC
  5
16E
100
AcDbEntity
  8
M0
 62
     7
100
AcDbCircle
 10
256.844924
 20
832.478039
 40
1.0
100
AcDbArc
 50
179.999945
 51
269.999126
  0
LINE
  5
16F
100
AcDbEntity
  8
M0
 62
     7
100
AcDbLine
 10
263.844924
 20
837.978039
 11
259.844924
 21
837.978039
  0
LINE
  5
170
100
AcDbEntity
  8
M0
 62
     7
100
AcDbLine
 10
263.844924
 20
832.478039
 11
259.844924
 21
832.478039
  0
LINE
  5
171
100
AcDbEntity
  8
M0
 62
     7
100
AcDbLine
 10
260.344924
 20
862.728039
 11
263.844924
 21
862.728039
  0
ARC
  5
172
100
AcDbEntity
  8
M0
 62
     7
100
AcDbCircle
 10
260.344924
 20
862.228039
 40
0.5
100
AcDbArc
 50
90.0
 51
180.0
  0
LINE
  5
173
100
AcDbEntity
  8
M0
 62
     7
100
AcDbLine
 10
251.844924
 20
859.228039
 11
259.844924
 21
859.228039
  0
LINE
  5
174
100
AcDbEntity
  8
M0
 62
     7
100
AcDbLine
 10
259.844924
 20
838.978039
 11
259.844924
 21
837.978039
  0
LINE
  5
175
100
AcDbEntity
  8
M0
 62
     7
100
AcDbLine
 10
259.844924
 20
862.228039
 11
259.844924
 21
841.728039
  0
LINE
  5
176
100
AcDbEntity
  8
M0
 62
     7
100
AcDbLine
 10
260.344924
 20
852.728039
 11
263.844924
 21
852.728039
  0
ARC
  5
177
100
AcDbEntity
  8
M0
 62
     7
100
AcDbCircle
 10
260.344924
 20
852.228039
 40
0.5
100
AcDbArc
 50
90.0
 51
180.0
  0
LINE
  5
178
100
AcDbEntity
  8
M0
 62
     7
100
AcDbLine
 10
251.844924
 20
811.228039
 11
259.844924
 21
811.228039
  0
LINE
  5
179
100
AcDbEntity
  8
M0
 62
     7
100
AcDbLine
 10
259.844924
 20
808.228039
 11
259.844924
 21
828.728039
  0
LINE
  5
17A
100
AcDbEntity
  8
M0
 62
     7
100
AcDbLine
 10
260.344924
 20
817.728039
 11
263.844924
 21
817.728039
  0
LINE
  5
17B
100
AcDbEntity
  8
M0
 62
     7
100
AcDbLine
 10
139.844939
 20
907.656521
 11
139.844939
 21
860.728039
  0
LINE
  5
17C
100
AcDbEntity
  8
M0
 62
     7
100
AcDbLine
 10
249.844924
 20
907.656674
 11
249.844924
 21
860.728039
  0
LINE
  5
17D
100
AcDbEntity
  8
M0
 62
     7
100
AcDbLine
 10
249.844924
 20
809.728039
 11
249.844924
 21
762.799481
  0
LINE
  5
17E
100
AcDbEntity
  8
M0
 62
     7
100
AcDbLine
 10
139.844939
 20
809.728039
 11
139.844939
 21
762.799481
  0
ARC
  5
17F
100
AcDbEntity
  8
M0
 62
     7
100
AcDbCircle
 10
260.344924
 20
818.228039
 40
0.5
100
AcDbArc
 50
179.998251
 51
269.998251
  0
LINE
  5
180
100
AcDbEntity
  8
M0
 62
     7
100
AcDbLine
 10
259.844924
 20
808.228039
 11
259.844924
 21
828.728039
  0
LINE
  5
181
100
AcDbEntity
  8
M0
 62
     7
100
AcDbLine
 10
261.344924
 20
800.228039
 11
261.344924
 21
807.728039
  0
LINE
  5
182
100
AcDbEntity
  8
M0
 62
     7
100
AcDbLine
 10
261.344924
 20
800.228039
 11
263.844924
 21
800.228039
  0
ARC
  5
183
100
AcDbEntity
  8
M0
 62
     7
100
AcDbCircle
 10
260.344924
 20
808.228039
 40
0.5
100
AcDbArc
 50
179.998251
 51
269.998251
  0
LINE
  5
184
100
AcDbEntity
  8
M0
 62
     7
100
AcDbLine
 10
260.344924
 20
807.728039
 11
263.844924
 21
807.728039
  0
LINE
  5
185
100
AcDbEntity
  8
M0
 62
     7
100
AcDbLine
 10
259.844924
 20
831.478039
 11
259.844924
 21
832.478039
  0
LINE
  5
186
100
AcDbEntity
  8
M0
 62
     7
100
AcDbLine
 10
128.344939
 20
870.228039
 11
128.344939
 21
862.728039
  0
LINE
  5
187
100
AcDbEntity
  8
M0
 62
     7
100
AcDbLine
 10
128.344939
 20
870.228039
 11
125.844939
 21
870.228039
  0
LINE
  5
188
100
AcDbEntity
  8
M0
 62
     7
100
AcDbLine
 10
132.844939
 20
838.978039
 11
125.844939
 21
838.978039
  0
ARC
  5
189
100
AcDbEntity
  8
M0
 62
     7
100
AcDbCircle
 10
132.844939
 20
837.978039
 40
1.0
100
AcDbArc
 50
0.0
 51
89.999126
  0
LINE
  5
18A
100
AcDbEntity
  8
M0
 62
     7
100
AcDbLine
 10
133.844939
 20
837.978039
 11
133.844939
 21
832.478039
  0
LINE
  5
18B
100
AcDbEntity
  8
M0
 62
     7
100
AcDbLine
 10
132.844939
 20
831.478039
 11
125.844939
 21
831.478039
  0
ARC
  5
18C
100
AcDbEntity
  8
M0
 62
     7
100
AcDbCircle
 10
132.844939
 20
832.478039
 40
1.0
100
AcDbArc
 50
-90.0
 51
0.0
  0
LINE
  5
18D
100
AcDbEntity
  8
M0
 62
     7
100
AcDbLine
 10
125.844939
 20
837.978039
 11
129.844939
 21
837.978039
  0
LINE
  5
18E
100
AcDbEntity
  8
M0
 62
     7
100
AcDbLine
 10
125.844939
 20
832.478039
 11
129.844939
 21
832.478039
  0
LINE
  5
18F
100
AcDbEntity
  8
M0
 62
     7
100
AcDbLine
 10
129.344939
 20
862.728039
 11
125.844939
 21
862.728039
  0
ARC
  5
190
100
AcDbEntity
  8
M0
 62
     7
100
AcDbCircle
 10
129.344939
 20
862.228039
 40
0.5
100
AcDbArc
 50
0.0
 51
89.998251
  0
LINE
  5
191
100
AcDbEntity
  8
M0
 62
     7
100
AcDbLine
 10
137.844939
 20
859.228039
 11
129.844939
 21
859.228039
  0
LINE
  5
192
100
AcDbEntity
  8
M0
 62
     7
100
AcDbLine
 10
129.844939
 20
838.978039
 11
129.844939
 21
837.978039
  0
LINE
  5
193
100
AcDbEntity
  8
M0
 62
     7
100
AcDbLine
 10
129.844939
 20
862.228039
 11
129.844939
 21
841.728039
  0
LINE
  5
194
100
AcDbEntity
  8
M0
 62
     7
100
AcDbLine
 10
129.344939
 20
852.728039
 11
125.844939
 21
852.728039
  0
ARC
  5
195
100
AcDbEntity
  8
M0
 62
     7
100
AcDbCircle
 10
129.344939
 20
852.228039
 40
0.5
100
AcDbArc
 50
0.0
 51
89.998251
  0
LINE
  5
196
100
AcDbEntity
  8
M0
 62
     7
100
AcDbLine
 10
137.844939
 20
811.228039
 11
129.844939
 21
811.228039
  0
LINE
  5
197
100
AcDbEntity
  8
M0
 62
     7
100
AcDbLine
 10
129.844939
 20
808.228039
 11
129.844939
 21
828.728039
  0
LINE
  5
198
100
AcDbEntity
  8
M0
 62
     7
100
AcDbLine
 10
129.344939
 20
817.728039
 11
125.844939
 21
817.728039
  0
ARC
  5
199
100
AcDbEntity
  8
M0
 62
     7
100
AcDbCircle
 10
129.344939
 20
818.228039
 40
0.5
100
AcDbArc
 50
270.0
 51
360.0
  0
LINE
  5
19A
100
AcDbEntity
  8
M0
 62
     7
100
AcDbLine
 10
129.844939
 20
808.228039
 11
129.844939
 21
828.728039
  0
LINE
  5
19B
100
AcDbEntity
  8
M0
 62
     7
100
AcDbLine
 10
128.344939
 20
800.228039
 11
128.344939
 21
807.728039
  0
LINE
  5
19C
100
AcDbEntity
  8
M0
 62
     7
100
AcDbLine
 10
128.344939
 20
800.228039
 11
125.844939
 21
800.228039
  0
ARC
  5
19D
100
AcDbEntity
  8
M0
 62
     7
100
AcDbCircle
 10
129.344939
 20
808.228039
 40
0.5
100
AcDbArc
 50
270.0
 51
360.0
  0
LINE
  5
19E
100
AcDbEntity
  8
M0
 62
     7
100
AcDbLine
 10
129.344939
 20
807.728039
 11
125.844939
 21
807.728039
  0
LINE
  5
19F
100
AcDbEntity
  8
M0
 62
     7
100
AcDbLine
 10
129.844939
 20
831.478039
 11
129.844939
 21
832.478039
  0
CIRCLE
  5
1A0
100
AcDbEntity
  8
M0
 62
     7
100
AcDbCircle
 10
255.844924
 20
845.728039
 40
2.0
  0
CIRCLE
  5
1A1
100
AcDbEntity
  8
M0
 62
     7
100
AcDbCircle
 10
255.844924
 20
824.728039
 40
2.0
  0
CIRCLE
  5
1A2
100
AcDbEntity
  8
M0
 62
     7
100
AcDbCircle
 10
133.844939
 20
845.728039
 40
2.0
  0
CIRCLE
  5
1A3
100
AcDbEntity
  8
M0
 62
     7
100
AcDbCircle
 10
133.844939
 20
824.728039
 40
2.0
  0
CIRCLE
  5
1A4
100
AcDbEntity
  8
M0
 62
     7
100
AcDbCircle
 10
255.844924
 20
855.228039
 40
2.0
  0
LINE
  5
1A5
100
AcDbEntity
  8
M0
 62
     7
100
AcDbLine
 10
249.844924
 20
860.728039
 11
259.844924
 21
860.728039
  0
LINE
  5
1A6
100
AcDbEntity
  8
M0
 62
     7
100
AcDbLine
 10
251.844924
 20
849.728039
 11
259.844924
 21
849.728039
  0
LINE
  5
1A7
100
AcDbEntity
  8
M0
 62
     7
100
AcDbLine
 10
253.094924
 20
845.728039
 11
253.094924
 21
849.728039
  0
LINE
  5
1A8
100
AcDbEntity
  8
M0
 62
     7
100
AcDbLine
 10
258.594924
 20
845.728039
 11
258.594924
 21
849.728039
  0
ARC
  5
1A9
100
AcDbEntity
  8
M0
 62
     7
100
AcDbCircle
 10
255.844924
 20
845.728039
 40
2.75
100
AcDbArc
 50
179.99998
 51
360.0
  0
LINE
  5
1AA
100
AcDbEntity
  8
M0
 62
     7
100
AcDbLine
 10
253.094924
 20
855.228039
 11
253.094924
 21
859.228039
  0
LINE
  5
1AB
100
AcDbEntity
  8
M0
 62
     7
100
AcDbLine
 10
258.594924
 20
855.228039
 11
258.594924
 21
859.228039
  0
ARC
  5
1AC
100
AcDbEntity
  8
M0
 62
     7
100
AcDbCircle
 10
255.844924
 20
855.228039
 40
2.75
100
AcDbArc
 50
180.0
 51
360.0
  0
ARC
  5
1AD
100
AcDbEntity
  8
M0
 62
     7
100
AcDbCircle
 10
252.844924
 20
841.728039
 40
1.0
100
AcDbArc
 50
180.0
 51
269.999126
  0
LINE
  5
1AE
100
AcDbEntity
  8
M0
 62
     7
100
AcDbLine
 10
252.844924
 20
840.728039
 11
258.844924
 21
840.728039
  0
ARC
  5
1AF
100
AcDbEntity
  8
M0
 62
     7
100
AcDbCircle
 10
258.844924
 20
841.728039
 40
1.0
100
AcDbArc
 50
269.999126
 51
360.0
  0
LINE
  5
1B0
100
AcDbEntity
  8
M0
 62
     7
100
AcDbLine
 10
249.844924
 20
851.728039
 11
251.344924
 21
851.728039
  0
ARC
  5
1B1
100
AcDbEntity
  8
M0
 62
     7
100
AcDbCircle
 10
251.344924
 20
851.228039
 40
0.5
100
AcDbArc
 50
0.0
 51
90.0
  0
LINE
  5
1B2
100
AcDbEntity
  8
M0
 62
     7
100
AcDbLine
 10
251.844924
 20
860.228039
 11
251.844924
 21
841.728039
  0
ARC
  5
1B3
100
AcDbEntity
  8
M0
 62
     7
100
AcDbCircle
 10
251.344924
 20
860.228039
 40
0.5
100
AcDbArc
 50
0.0
 51
90.0
  0
CIRCLE
  5
1B4
100
AcDbEntity
  8
M0
 62
     7
100
AcDbCircle
 10
255.844924
 20
815.228039
 40
2.0
  0
LINE
  5
1B5
100
AcDbEntity
  8
M0
 62
     7
100
AcDbLine
 10
249.844924
 20
809.728039
 11
259.844924
 21
809.728039
  0
LINE
  5
1B6
100
AcDbEntity
  8
M0
 62
     7
100
AcDbLine
 10
251.844924
 20
820.728039
 11
259.844924
 21
820.728039
  0
LINE
  5
1B7
100
AcDbEntity
  8
M0
 62
     7
100
AcDbLine
 10
253.094924
 20
824.728039
 11
253.094924
 21
820.728039
  0
ARC
  5
1B8
100
AcDbEntity
  8
M0
 62
     7
100
AcDbCircle
 10
255.844924
 20
824.728039
 40
2.75
100
AcDbArc
 50
0.0
 51
179.99996
  0
LINE
  5
1B9
100
AcDbEntity
  8
M0
 62
     7
100
AcDbLine
 10
253.094924
 20
815.228039
 11
253.094924
 21
811.228039
  0
ARC
  5
1BA
100
AcDbEntity
  8
M0
 62
     7
100
AcDbCircle
 10
255.844924
 20
815.228039
 40
2.75
100
AcDbArc
 50
0.0
 51
179.999682
  0
ARC
  5
1BB
100
AcDbEntity
  8
M0
 62
     7
100
AcDbCircle
 10
252.844924
 20
828.728039
 40
1.0
100
AcDbArc
 50
90.0
 51
179.999945
  0
LINE
  5
1BC
100
AcDbEntity
  8
M0
 62
     7
100
AcDbLine
 10
252.844924
 20
829.728039
 11
258.844924
 21
829.728039
  0
LINE
  5
1BD
100
AcDbEntity
  8
M0
 62
     7
100
AcDbLine
 10
249.844924
 20
818.728039
 11
251.344924
 21
818.728039
  0
ARC
  5
1BE
100
AcDbEntity
  8
M0
 62
     7
100
AcDbCircle
 10
251.344924
 20
819.228039
 40
0.5
100
AcDbArc
 50
-90.001749
 51
0.0
  0
LINE
  5
1BF
100
AcDbEntity
  8
M0
 62
     7
100
AcDbLine
 10
251.844924
 20
810.228039
 11
251.844924
 21
828.728039
  0
ARC
  5
1C0
100
AcDbEntity
  8
M0
 62
     7
100
AcDbCircle
 10
251.344924
 20
810.228039
 40
0.5
100
AcDbArc
 50
-90.001749
 51
0.0
  0
ARC
  5
1C1
100
AcDbEntity
  8
M0
 62
     7
100
AcDbCircle
 10
258.844924
 20
828.728039
 40
1.0
100
AcDbArc
 50
0.0
 51
90.0
  0
LINE
  5
1C2
100
AcDbEntity
  8
M0
 62
     7
100
AcDbLine
 10
258.594924
 20
824.728039
 11
258.594924
 21
820.728039
  0
LINE
  5
1C3
100
AcDbEntity
  8
M0
 62
     7
100
AcDbLine
 10
258.594924
 20
815.228039
 11
258.594924
 21
811.228039
  0
CIRCLE
  5
1C4
100
AcDbEntity
  8
M0
 62
     7
100
AcDbCircle
 10
133.844939
 20
855.228039
 40
2.0
  0
LINE
  5
1C5
100
AcDbEntity
  8
M0
 62
     7
100
AcDbLine
 10
139.844939
 20
860.728039
 11
129.844939
 21
860.728039
  0
LINE
  5
1C6
100
AcDbEntity
  8
M0
 62
     7
100
AcDbLine
 10
137.844939
 20
849.728039
 11
129.844939
 21
849.728039
  0
LINE
  5
1C7
100
AcDbEntity
  8
M0
 62
     7
100
AcDbLine
 10
136.594939
 20
845.728039
 11
136.594939
 21
849.728039
  0
LINE
  5
1C8
100
AcDbEntity
  8
M0
 62
     7
100
AcDbLine
 10
131.094939
 20
845.728039
 11
131.094939
 21
849.728039
  0
ARC
  5
1C9
100
AcDbEntity
  8
M0
 62
     7
100
AcDbCircle
 10
133.844939
 20
845.728039
 40
2.75
100
AcDbArc
 50
-180.00002
 51
0.0
  0
LINE
  5
1CA
100
AcDbEntity
  8
M0
 62
     7
100
AcDbLine
 10
136.594939
 20
855.228039
 11
136.594939
 21
859.228039
  0
LINE
  5
1CB
100
AcDbEntity
  8
M0
 62
     7
100
AcDbLine
 10
131.094939
 20
855.228039
 11
131.094939
 21
859.228039
  0
ARC
  5
1CC
100
AcDbEntity
  8
M0
 62
     7
100
AcDbCircle
 10
133.844939
 20
855.228039
 40
2.75
100
AcDbArc
 50
-180.0
 51
0.0
  0
ARC
  5
1CD
100
AcDbEntity
  8
M0
 62
     7
100
AcDbCircle
 10
136.844939
 20
841.728039
 40
1.0
100
AcDbArc
 50
-90.0
 51
0.0
  0
LINE
  5
1CE
100
AcDbEntity
  8
M0
 62
     7
100
AcDbLine
 10
136.844939
 20
840.728039
 11
130.844939
 21
840.728039
  0
ARC
  5
1CF
100
AcDbEntity
  8
M0
 62
     7
100
AcDbCircle
 10
130.844939
 20
841.728039
 40
1.0
100
AcDbArc
 50
180.0
 51
270.0
  0
LINE
  5
1D0
100
AcDbEntity
  8
M0
 62
     7
100
AcDbLine
 10
139.844939
 20
851.728039
 11
138.344939
 21
851.728039
  0
ARC
  5
1D1
100
AcDbEntity
  8
M0
 62
     7
100
AcDbCircle
 10
138.344939
 20
851.228039
 40
0.5
100
AcDbArc
 50
89.998251
 51
180.0
  0
LINE
  5
1D2
100
AcDbEntity
  8
M0
 62
     7
100
AcDbLine
 10
137.844939
 20
860.228039
 11
137.844939
 21
841.728039
  0
ARC
  5
1D3
100
AcDbEntity
  8
M0
 62
     7
100
AcDbCircle
 10
138.344939
 20
860.228039
 40
0.5
100
AcDbArc
 50
89.998251
 51
180.0
  0
CIRCLE
  5
1D4
100
AcDbEntity
  8
M0
 62
     7
100
AcDbCircle
 10
133.844939
 20
815.228039
 40
2.0
  0
LINE
  5
1D5
100
AcDbEntity
  8
M0
 62
     7
100
AcDbLine
 10
139.844939
 20
809.728039
 11
129.844939
 21
809.728039
  0
LINE
  5
1D6
100
AcDbEntity
  8
M0
 62
     7
100
AcDbLine
 10
137.844939
 20
820.728039
 11
129.844939
 21
820.728039
  0
LINE
  5
1D7
100
AcDbEntity
  8
M0
 62
     7
100
AcDbLine
 10
136.594939
 20
824.728039
 11
136.594939
 21
820.728039
  0
ARC
  5
1D8
100
AcDbEntity
  8
M0
 62
     7
100
AcDbCircle
 10
133.844939
 20
824.728039
 40
2.75
100
AcDbArc
 50
0.0
 51
179.99996
  0
LINE
  5
1D9
100
AcDbEntity
  8
M0
 62
     7
100
AcDbLine
 10
136.594939
 20
815.228039
 11
136.594939
 21
811.228039
  0
ARC
  5
1DA
100
AcDbEntity
  8
M0
 62
     7
100
AcDbCircle
 10
133.844939
 20
815.228039
 40
2.75
100
AcDbArc
 50
0.0
 51
179.999682
  0
ARC
  5
1DB
100
AcDbEntity
  8
M0
 62
     7
100
AcDbCircle
 10
136.844939
 20
828.728039
 40
1.0
100
AcDbArc
 50
0.0
 51
89.999126
  0
LINE
  5
1DC
100
AcDbEntity
  8
M0
 62
     7
100
AcDbLine
 10
136.844939
 20
829.728039
 11
130.844939
 21
829.728039
  0
LINE
  5
1DD
100
AcDbEntity
  8
M0
 62
     7
100
AcDbLine
 10
139.844939
 20
818.728039
 11
138.344939
 21
818.728039
  0
ARC
  5
1DE
100
AcDbEntity
  8
M0
 62
     7
100
AcDbCircle
 10
138.344939
 20
819.228039
 40
0.5
100
AcDbArc
 50
179.998251
 51
270.0
  0
LINE
  5
1DF
100
AcDbEntity
  8
M0
 62
     7
100
AcDbLine
 10
137.844939
 20
810.228039
 11
137.844939
 21
828.728039
  0
ARC
  5
1E0
100
AcDbEntity
  8
M0
 62
     7
100
AcDbCircle
 10
138.344939
 20
810.228039
 40
0.5
100
AcDbArc
 50
179.998251
 51
270.0
  0
ARC
  5
1E1
100
AcDbEntity
  8
M0
 62
     7
100
AcDbCircle
 10
130.844939
 20
828.728039
 40
1.0
100
AcDbArc
 50
89.999126
 51
179.999945
  0
LINE
  5
1E2
100
AcDbEntity
  8
M0
 62
     7
100
AcDbLine
 10
131.094939
 20
824.728039
 11
131.094939
 21
820.728039
  0
LINE
  5
1E3
100
AcDbEntity
  8
M0
 62
     7
100
AcDbLine
 10
131.094939
 20
815.228039
 11
131.094939
 21
811.228039
  0
LINE
  5
1E4
100
AcDbEntity
  8
M0
 62
     7
100
AcDbLine
 10
207.344933
 20
760.228055
 11
231.135253
 21
760.228055
  0
LINE
  5
1E5
100
AcDbEntity
  8
M0
 62
     7
100
AcDbLine
 10
252.094924
 20
760.228055
 11
261.844924
 21
760.228055
  0
LINE
  5
1E6
100
AcDbEntity
  8
M0
 62
     7
100
AcDbLine
 10
158.55461
 20
760.228055
 11
182.344939
 21
760.228055
  0
LINE
  5
1E7
100
AcDbEntity
  8
M0
 62
     7
100
AcDbLine
 10
207.344933
 20
921.728039
 11
208.844933
 21
921.728039
  0
LINE
  5
1E8
100
AcDbEntity
  8
M0
 62
     7
100
AcDbLine
 10
182.344939
 20
910.228039
 11
158.55461
 21
910.228039
  0
LINE
  5
1E9
100
AcDbEntity
  8
M0
 62
     7
100
AcDbLine
 10
127.844939
 20
760.228146
 11
137.594939
 21
760.228146
  0
LINE
  5
1EA
100
AcDbEntity
  8
M0
 62
     7
100
AcDbLine
 10
182.844939
 20
910.227536
 11
180.344939
 21
910.227536
  0
ARC
  5
1EB
100
AcDbEntity
  8
M0
 62
     7
100
AcDbCircle
 10
127.844939
 20
762.228146
 40
2.0
100
AcDbArc
 50
179.999563
 51
270.0
  0
LINE
  5
1EC
100
AcDbEntity
  8
M0
 62
     7
100
AcDbLine
 10
182.344939
 20
921.727734
 11
157.344939
 21
921.727643
  0
ARC
  5
1ED
100
AcDbEntity
  8
M0
 62
     7
100
AcDbCircle
 10
127.844939
 20
919.727536
 40
2.0
100
AcDbArc
 50
89.999563
 51
180.0
  0
LINE
  5
1EE
100
AcDbEntity
  8
M0
 62
     7
100
AcDbLine
 10
179.844939
 20
919.728024
 11
179.844939
 21
910.727292
  0
LINE
  5
1EF
100
AcDbEntity
  8
M0
 62
     7
100
AcDbLine
 10
171.844939
 20
921.227536
 11
171.844939
 21
910.727292
  0
LINE
  5
1F0
100
AcDbEntity
  8
M0
 62
     7
100
AcDbLine
 10
157.844939
 20
910.728024
 11
165.844939
 21
910.728024
  0
LINE
  5
1F1
100
AcDbEntity
  8
M0
 62
     7
100
AcDbLine
 10
171.344939
 20
910.227536
 11
166.344939
 21
910.227536
  0
LINE
  5
1F2
100
AcDbEntity
  8
M0
 62
     7
100
AcDbLine
 10
157.844939
 20
919.228024
 11
165.844939
 21
919.228024
  0
ARC
  5
1F3
100
AcDbEntity
  8
M0
 62
     7
100
AcDbCircle
 10
180.344939
 20
910.727292
 40
0.5
100
AcDbArc
 50
180.0
 51
270.0
  0
ARC
  5
1F4
100
AcDbEntity
  8
M0
 62
     7
100
AcDbCircle
 10
171.344939
 20
910.727292
 40
0.5
100
AcDbArc
 50
270.0
 51
360.0
  0
LINE
  5
1F5
100
AcDbEntity
  8
M0
 62
     7
100
AcDbLine
 10
165.844939
 20
921.227536
 11
165.844939
 21
910.727292
  0
LINE
  5
1F6
100
AcDbEntity
  8
M0
 62
     7
100
AcDbLine
 10
157.844939
 20
919.228024
 11
157.844939
 21
910.228131
  0
LINE
  5
1F7
100
AcDbEntity
  8
M0
 62
     7
100
AcDbLine
 10
171.844939
 20
910.728024
 11
179.844939
 21
910.728024
  0
LINE
  5
1F8
100
AcDbEntity
  8
M0
 62
     7
100
AcDbLine
 10
171.844939
 20
919.228024
 11
179.844939
 21
919.228024
  0
LINE
  5
1F9
100
AcDbEntity
  8
M0
 62
     7
100
AcDbLine
 10
167.844939
 20
921.227536
 11
167.844939
 21
920.228024
  0
LINE
  5
1FA
100
AcDbEntity
  8
M0
 62
     7
100
AcDbLine
 10
169.844939
 20
921.227536
 11
169.844939
 21
920.228024
  0
ARC
  5
1FB
100
AcDbEntity
  8
M0
 62
     7
100
AcDbCircle
 10
166.344939
 20
910.727292
 40
0.5
100
AcDbArc
 50
180.0
 51
270.0
  0
ARC
  5
1FC
100
AcDbEntity
  8
M0
 62
     7
100
AcDbCircle
 10
170.344939
 20
921.227536
 40
0.5
100
AcDbArc
 50
89.998251
 51
180.0
  0
ARC
  5
1FD
100
AcDbEntity
  8
M0
 62
     7
100
AcDbCircle
 10
166.344939
 20
921.227536
 40
0.5
100
AcDbArc
 50
89.998251
 51
180.0
  0
ARC
  5
1FE
100
AcDbEntity
  8
M0
 62
     7
100
AcDbCircle
 10
171.344939
 20
921.227536
 40
0.5
100
AcDbArc
 50
0.0
 51
89.998251
  0
ARC
  5
1FF
100
AcDbEntity
  8
M0
 62
     7
100
AcDbCircle
 10
167.344939
 20
921.227536
 40
0.5
100
AcDbArc
 50
0.0
 51
89.998251
  0
LINE
  5
200
100
AcDbEntity
  8
M0
 62
     7
100
AcDbLine
 10
164.594939
 20
914.728024
 11
164.594939
 21
910.728024
  0
LINE
  5
201
100
AcDbEntity
  8
M0
 62
     7
100
AcDbLine
 10
159.094939
 20
914.728024
 11
159.094939
 21
910.728024
  0
ARC
  5
202
100
AcDbEntity
  8
M0
 62
     7
100
AcDbCircle
 10
157.344939
 20
919.228024
 40
0.5
100
AcDbArc
 50
0.0
 51
89.998251
  0
LINE
  5
203
100
AcDbEntity
  8
M0
 62
     7
100
AcDbLine
 10
167.844939
 20
920.228024
 11
169.844939
 21
920.228024
  0
LINE
  5
204
100
AcDbEntity
  8
M0
 62
     7
100
AcDbLine
 10
261.844894
 20
760.228085
 11
252.09497
 21
760.2281
  0
ARC
  5
205
100
AcDbEntity
  8
M0
 62
     7
100
AcDbCircle
 10
261.844894
 20
762.228085
 40
2.0
100
AcDbArc
 50
-90.000437
 51
0.0
  0
LINE
  5
206
100
AcDbEntity
  8
M0
 62
     7
100
AcDbLine
 10
207.344933
 20
921.72749
 11
232.344924
 21
921.727398
  0
LINE
  5
207
100
AcDbEntity
  8
M0
 62
     7
100
AcDbLine
 10
209.845009
 20
919.72778
 11
209.845009
 21
910.72778
  0
LINE
  5
208
100
AcDbEntity
  8
M0
 62
     7
100
AcDbLine
 10
217.844985
 20
919.227292
 11
217.844985
 21
910.228131
  0
LINE
  5
209
100
AcDbEntity
  8
M0
 62
     7
100
AcDbLine
 10
211.094985
 20
914.72778
 11
211.094985
 21
910.72778
  0
LINE
  5
20A
100
AcDbEntity
  8
M0
 62
     7
100
AcDbLine
 10
216.594985
 20
914.72778
 11
216.594985
 21
910.72778
  0
ARC
  5
20B
100
AcDbEntity
  8
M0
 62
     7
100
AcDbCircle
 10
213.844985
 20
914.72778
 40
2.75
100
AcDbArc
 50
0.0
 51
180.0
  0
CIRCLE
  5
20C
100
AcDbEntity
  8
M0
 62
     7
100
AcDbCircle
 10
213.844985
 20
914.72778
 40
2.0
  0
LINE
  5
20D
100
AcDbEntity
  8
M0
 62
     7
100
AcDbLine
 10
217.844985
 20
910.72778
 11
209.845009
 21
910.72778
  0
LINE
  5
20E
100
AcDbEntity
  8
M0
 62
     7
100
AcDbLine
 10
217.844985
 20
919.22778
 11
209.845009
 21
919.22778
  0
LINE
  5
20F
100
AcDbEntity
  8
M0
 62
     7
100
AcDbLine
 10
221.844985
 20
920.727536
 11
221.844985
 21
912.227536
  0
LINE
  5
210
100
AcDbEntity
  8
M0
 62
     7
100
AcDbLine
 10
221.344924
 20
910.227536
 11
231.134765
 21
910.227536
  0
ARC
  5
211
100
AcDbEntity
  8
M0
 62
     7
100
AcDbCircle
 10
223.844985
 20
912.227536
 40
2.0
100
AcDbArc
 50
180.0
 51
269.999563
  0
ARC
  5
212
100
AcDbEntity
  8
M0
 62
     7
100
AcDbCircle
 10
221.344924
 20
909.727536
 40
0.5
100
AcDbArc
 50
90.0
 51
180.0
  0
LINE
  5
213
100
AcDbEntity
  8
M0
 62
     7
100
AcDbLine
 10
218.344985
 20
919.727292
 11
221.344985
 21
919.727292
  0
ARC
  5
214
100
AcDbEntity
  8
M0
 62
     7
100
AcDbCircle
 10
218.344985
 20
919.227292
 40
0.5
100
AcDbArc
 50
90.0
 51
180.0
  0
ARC
  5
215
100
AcDbEntity
  8
M0
 62
     7
100
AcDbCircle
 10
221.344985
 20
919.227292
 40
0.5
100
AcDbArc
 50
0.0
 51
90.0
  0
CIRCLE
  5
216
100
AcDbEntity
  8
M0
 62
     7
100
AcDbCircle
 10
161.844939
 20
914.728024
 40
2.0
  0
ARC
  5
217
100
AcDbEntity
  8
M0
 62
     7
100
AcDbCircle
 10
161.844939
 20
914.728024
 40
2.75
100
AcDbArc
 50
0.0
 51
180.0
  0
LINE
  5
218
100
AcDbEntity
  8
M0
  6
DASHDOT
 62
     7
100
AcDbLine
 10
194.844939
 20
625.46365
 11
194.844939
 21
958.365292
  0
LINE
  5
219
100
AcDbEntity
  8
M0
 62
     7
100
AcDbLine
 10
125.844939
 20
919.727536
 11
125.844939
 21
762.228146
  0
LINE
  5
21A
100
AcDbEntity
  8
M0
  6
DASHDOT
 62
     7
100
AcDbLine
 10
120.844939
 20
835.228131
 11
283.844894
 21
835.228131
  0
ARC
  5
21B
100
AcDbEntity
  8
M0
 62
     7
100
AcDbCircle
 10
220.844985
 20
920.727536
 40
1.0
100
AcDbArc
 50
0.0
 51
90.0
  0
LINE
  5
21C
100
AcDbEntity
  8
M0
 62
     7
100
AcDbLine
 10
231.135268
 20
760.228116
 11
207.344933
 21
760.228146
  0
LINE
  5
21D
100
AcDbEntity
  8
M0
 62
     7
100
AcDbLine
 10
158.55461
 20
760.228146
 11
182.344939
 21
760.228146
  0
LINE
  5
21E
100
AcDbEntity
  8
M0
 62
     7
100
AcDbLine
 10
132.344939
 20
921.727551
 11
127.844939
 21
921.727536
  0
LINE
  5
21F
100
AcDbEntity
  8
M0
 62
     7
100
AcDbLine
 10
207.344911
 20
710.228192
 11
207.344895
 21
760.22807
  0
LINE
  5
220
100
AcDbEntity
  8
M0
 62
     7
100
AcDbLine
 10
204.844894
 20
764.72807
 11
207.344895
 21
760.22807
  0
LINE
  5
221
100
AcDbEntity
  8
M0
 62
     7
100
AcDbLine
 10
184.844895
 20
764.728055
 11
182.344896
 21
760.228055
  0
LINE
  5
222
100
AcDbEntity
  8
M0
 62
     7
100
AcDbLine
 10
182.344896
 20
760.228055
 11
182.344912
 21
710.228222
  0
LINE
  5
223
100
AcDbEntity
  8
M0
 62
     7
100
AcDbLine
 10
184.844893
 20
770.228055
 11
184.844895
 21
764.728055
  0
LINE
  5
224
100
AcDbEntity
  8
M0
 62
     7
100
AcDbLine
 10
204.844892
 20
770.22807
 11
204.844894
 21
764.72807
  0
CIRCLE
  5
225
100
AcDbEntity
  8
M0
 62
     7
100
AcDbCircle
 10
194.844899
 20
747.228039
 40
5.0
  0
LINE
  5
226
100
AcDbEntity
  8
M0
 62
     7
100
AcDbLine
 10
202.844925
 20
825.228085
 11
186.844939
 21
825.228085
  0
LINE
  5
227
100
AcDbEntity
  8
M0
 62
     7
100
AcDbLine
 10
202.844925
 20
829.228085
 11
202.844925
 21
825.228085
  0
LINE
  5
228
100
AcDbEntity
  8
M0
 62
     7
100
AcDbLine
 10
186.844939
 20
829.228085
 11
186.844939
 21
825.228085
  0
LINE
  5
229
100
AcDbEntity
  8
M0
 62
     7
100
AcDbLine
 10
186.544936
 20
829.228085
 11
186.844939
 21
829.228085
  0
LINE
  5
22A
100
AcDbEntity
  8
M0
 62
     7
100
AcDbLine
 10
203.144925
 20
845.528134
 11
198.844939
 21
845.528134
  0
LINE
  5
22B
100
AcDbEntity
  8
M0
 62
     7
100
AcDbLine
 10
206.144925
 20
842.528134
 11
206.144925
 21
832.228085
  0
LINE
  5
22C
100
AcDbEntity
  8
M0
 62
     7
100
AcDbLine
 10
183.544936
 20
842.528134
 11
183.544936
 21
832.228085
  0
ARC
  5
22D
100
AcDbEntity
  8
M0
 62
     7
100
AcDbCircle
 10
203.144925
 20
842.528134
 40
3.0
100
AcDbArc
 50
0.0
 51
90.0
  0
ARC
  5
22E
100
AcDbEntity
  8
M0
 62
     7
100
AcDbCircle
 10
186.544936
 20
842.528134
 40
3.0
100
AcDbArc
 50
90.0
 51
179.999982
  0
ARC
  5
22F
100
AcDbEntity
  8
M0
 62
     7
100
AcDbCircle
 10
186.544936
 20
832.228085
 40
3.0
100
AcDbArc
 50
179.999964
 51
270.0
  0
ARC
  5
230
100
AcDbEntity
  8
M0
 62
     7
100
AcDbCircle
 10
203.144925
 20
832.228085
 40
3.0
100
AcDbArc
 50
270.0
 51
360.0
  0
LINE
  5
231
100
AcDbEntity
  8
M0
 62
     7
100
AcDbLine
 10
198.844939
 20
848.228085
 11
197.594939
 21
848.228085
  0
LINE
  5
232
100
AcDbEntity
  8
M0
 62
     7
100
AcDbLine
 10
196.594939
 20
851.228085
 11
193.094939
 21
851.228085
  0
LINE
  5
233
100
AcDbEntity
  8
M0
 62
     7
100
AcDbLine
 10
197.594939
 20
850.228085
 11
197.594939
 21
848.228085
  0
LINE
  5
234
100
AcDbEntity
  8
M0
 62
     7
100
AcDbLine
 10
192.094939
 20
850.228085
 11
192.094939
 21
848.228085
  0
LINE
  5
235
100
AcDbEntity
  8
M0
 62
     7
100
AcDbLine
 10
198.844939
 20
848.228085
 11
198.844939
 21
845.528134
  0
LINE
  5
236
100
AcDbEntity
  8
M0
 62
     7
100
AcDbLine
 10
190.844939
 20
848.228085
 11
190.844939
 21
845.528134
  0
ARC
  5
237
100
AcDbEntity
  8
M0
 62
     7
100
AcDbCircle
 10
196.594939
 20
850.228085
 40
1.0
100
AcDbArc
 50
0.0
 51
90.0
  0
ARC
  5
238
100
AcDbEntity
  8
M0
 62
     7
100
AcDbCircle
 10
193.094939
 20
850.228085
 40
1.0
100
AcDbArc
 50
90.0
 51
180.0
  0
LINE
  5
239
100
AcDbEntity
  8
M0
 62
     7
100
AcDbLine
 10
202.844925
 20
829.228085
 11
203.144925
 21
829.228085
  0
LINE
  5
23A
100
AcDbEntity
  8
M0
 62
     7
100
AcDbLine
 10
190.844939
 20
845.528134
 11
186.544936
 21
845.528134
  0
LINE
  5
23B
100
AcDbEntity
  8
M0
 62
     7
100
AcDbLine
 10
192.094939
 20
848.228085
 11
190.844939
 21
848.228085
  0
LINE
  5
23C
100
AcDbEntity
  8
M0
  6
DIVIDE
 62
     7
100
AcDbLine
 10
113.844939
 20
862.728085
 11
113.844939
 21
807.728085
  0
LINE
  5
23D
100
AcDbEntity
  8
M0
  6
DIVIDE
 62
     7
100
AcDbLine
 10
125.844939
 20
862.728085
 11
113.844939
 21
862.728085
  0
LINE
  5
23E
100
AcDbEntity
  8
M0
  6
DIVIDE
 62
     7
100
AcDbLine
 10
125.844939
 20
807.728085
 11
113.844939
 21
807.728085
  0
LINE
  5
23F
100
AcDbEntity
  8
M0
 62
     7
100
AcDbLine
 10
191.844939
 20
832.977841
 11
197.844939
 21
832.977841
  0
LINE
  5
240
100
AcDbEntity
  8
M0
 62
     7
100
AcDbLine
 10
197.844939
 20
832.977841
 11
197.844939
 21
837.477841
  0
LINE
  5
241
100
AcDbEntity
  8
M0
 62
     7
100
AcDbLine
 10
197.844939
 20
837.477841
 11
191.844939
 21
837.477841
  0
LINE
  5
242
100
AcDbEntity
  8
M0
 62
     7
100
AcDbLine
 10
191.844939
 20
837.477841
 11
191.844939
 21
832.977841
  0
CIRCLE
  5
243
100
AcDbEntity
  8
M0
 62
     7
100
AcDbCircle
 10
244.844924
 20
747.228024
 40
5.0
  0
LINE
  5
244
100
AcDbEntity
  8
M0
 62
     7
100
AcDbLine
 10
232.344924
 20
710.228161
 11
232.344924
 21
759.727932
  0
LINE
  5
245
100
AcDbEntity
  8
M0
 62
     7
100
AcDbLine
 10
223.070724
 20
770.228039
 11
232.344924
 21
758.728039
  0
LINE
  5
246
100
AcDbEntity
  8
M0
 62
     7
100
AcDbLine
 10
257.344924
 20
710.228131
 11
257.344924
 21
759.727932
  0
LINE
  5
247
100
AcDbEntity
  8
M0
 62
     7
100
AcDbLine
 10
243.344924
 20
770.228039
 11
252.532518
 21
759.727932
  0
LINE
  5
248
100
AcDbEntity
  8
M0
 62
     7
100
AcDbLine
 10
166.61914
 20
770.228039
 11
157.344939
 21
758.728039
  0
LINE
  5
249
100
AcDbEntity
  8
M0
 62
     7
100
AcDbLine
 10
157.344939
 20
710.228253
 11
157.344939
 21
759.727932
  0
CIRCLE
  5
24A
100
AcDbEntity
  8
M0
 62
     7
100
AcDbCircle
 10
144.844955
 20
747.228024
 40
5.0
  0
LINE
  5
24B
100
AcDbEntity
  8
M0
 62
     7
100
AcDbLine
 10
132.344939
 20
710.228283
 11
132.344939
 21
759.727932
  0
LINE
  5
24C
100
AcDbEntity
  8
M0
 62
     7
100
AcDbLine
 10
146.344939
 20
770.228039
 11
137.157346
 21
759.727932
  0
CIRCLE
  5
24D
100
AcDbEntity
  8
M0
 62
     7
100
AcDbCircle
 10
244.844848
 20
923.228055
 40
5.0
  0
LINE
  5
24E
100
AcDbEntity
  8
M0
 62
     7
100
AcDbLine
 10
232.344863
 20
936.728055
 11
257.344863
 21
936.72807
  0
LINE
  5
24F
100
AcDbEntity
  8
M0
 62
     7
100
AcDbLine
 10
232.344863
 20
936.728055
 11
232.344879
 21
910.727948
  0
LINE
  5
250
100
AcDbEntity
  8
M0
 62
     7
100
AcDbLine
 10
223.070678
 20
900.228039
 11
232.344878
 21
911.728055
  0
LINE
  5
251
100
AcDbEntity
  8
M0
 62
     7
100
AcDbLine
 10
257.344863
 20
936.72807
 11
257.344864
 21
935.727948
  0
LINE
  5
252
100
AcDbEntity
  8
M0
 62
     7
100
AcDbLine
 10
243.344878
 20
900.228055
 11
252.532276
 21
910.727948
  0
LINE
  5
253
100
AcDbEntity
  8
M0
 62
     7
100
AcDbLine
 10
166.619109
 20
900.228009
 11
157.344909
 21
911.728009
  0
LINE
  5
254
100
AcDbEntity
  8
M0
 62
     7
100
AcDbLine
 10
157.344878
 20
961.728009
 11
157.344909
 21
911.728009
  0
CIRCLE
  5
255
100
AcDbEntity
  8
M0
 62
     7
100
AcDbCircle
 10
144.844894
 20
923.227994
 40
5.0
  0
LINE
  5
256
100
AcDbEntity
  8
M0
 62
     7
100
AcDbLine
 10
132.344875
 20
961.727978
 11
132.344913
 21
910.727948
  0
LINE
  5
257
100
AcDbEntity
  8
M0
 62
     7
100
AcDbLine
 10
146.344909
 20
900.227994
 11
137.15744
 21
910.727948
  0
LINE
  5
258
100
AcDbEntity
  8
M0
 62
     7
100
AcDbLine
 10
207.344896
 20
936.728055
 11
207.344903
 21
910.228055
  0
LINE
  5
259
100
AcDbEntity
  8
M0
 62
     7
100
AcDbLine
 10
204.844905
 20
905.728055
 11
207.344903
 21
910.228055
  0
LINE
  5
25A
100
AcDbEntity
  8
M0
 62
     7
100
AcDbLine
 10
184.844906
 20
905.728039
 11
182.344904
 21
910.228039
  0
LINE
  5
25B
100
AcDbEntity
  8
M0
 62
     7
100
AcDbLine
 10
182.344904
 20
910.228039
 11
182.344897
 21
936.728039
  0
LINE
  5
25C
100
AcDbEntity
  8
M0
 62
     7
100
AcDbLine
 10
184.844908
 20
900.228039
 11
184.844906
 21
905.728039
  0
LINE
  5
25D
100
AcDbEntity
  8
M0
 62
     7
100
AcDbLine
 10
204.844907
 20
900.228055
 11
204.844905
 21
905.728055
  0
CIRCLE
  5
25E
100
AcDbEntity
  8
M0
 62
     7
100
AcDbCircle
 10
194.8449
 20
923.228039
 40
5.0
  0
LINE
  5
25F
100
AcDbEntity
  8
M0
 62
     7
100
AcDbLine
 10
194.844924
 20
913.428051
 11
186.358108
 21
918.328045
  0
LINE
  5
260
100
AcDbEntity
  8
M0
 62
     7
100
AcDbLine
 10
186.358108
 20
918.328045
 11
186.358108
 21
928.128064
  0
LINE
  5
261
100
AcDbEntity
  8
M0
 62
     7
100
AcDbLine
 10
186.358108
 20
928.128064
 11
194.844924
 21
933.028058
  0
LINE
  5
262
100
AcDbEntity
  8
M0
 62
     7
100
AcDbLine
 10
194.844924
 20
933.028058
 11
203.332229
 21
928.128033
  0
LINE
  5
263
100
AcDbEntity
  8
M0
 62
     7
100
AcDbLine
 10
203.332229
 20
928.128033
 11
203.332229
 21
918.328045
  0
LINE
  5
264
100
AcDbEntity
  8
M0
 62
     7
100
AcDbLine
 10
203.332229
 20
918.328045
 11
194.844924
 21
913.428051
  0
CIRCLE
  5
265
100
AcDbEntity
  8
M0
 62
     7
100
AcDbCircle
 10
194.844924
 20
923.228039
 40
5.0
  0
LINE
  5
266
100
AcDbEntity
  8
M0
  6
DASHDOT
 62
     7
100
AcDbLine
 10
205.332107
 20
923.227948
 11
184.357696
 21
923.227948
  0
LINE
  5
267
100
AcDbEntity
  8
M0
 62
     7
100
AcDbLine
 10
144.844924
 20
913.428051
 11
136.358108
 21
918.328045
  0
LINE
  5
268
100
AcDbEntity
  8
M0
 62
     7
100
AcDbLine
 10
136.358108
 20
918.328045
 11
136.358108
 21
928.128064
  0
LINE
  5
269
100
AcDbEntity
  8
M0
 62
     7
100
AcDbLine
 10
136.358108
 20
928.128064
 11
144.844924
 21
933.028058
  0
LINE
  5
26A
100
AcDbEntity
  8
M0
 62
     7
100
AcDbLine
 10
144.844924
 20
933.028058
 11
153.332229
 21
928.128033
  0
LINE
  5
26B
100
AcDbEntity
  8
M0
 62
     7
100
AcDbLine
 10
153.332229
 20
928.128033
 11
153.332229
 21
918.328045
  0
LINE
  5
26C
100
AcDbEntity
  8
M0
 62
     7
100
AcDbLine
 10
153.332229
 20
918.328045
 11
144.844924
 21
913.428051
  0
CIRCLE
  5
26D
100
AcDbEntity
  8
M0
 62
     7
100
AcDbCircle
 10
144.844924
 20
923.228039
 40
5.0
  0
LINE
  5
26E
100
AcDbEntity
  8
M0
  6
DASHDOT
 62
     7
100
AcDbLine
 10
155.332107
 20
923.227948
 11
134.357696
 21
923.227948
  0
LINE
  5
26F
100
AcDbEntity
  8
M0
  6
DASHDOT
 62
     7
100
AcDbLine
 10
144.844894
 20
934.715146
 11
144.844909
 21
913.740735
  0
LINE
  5
270
100
AcDbEntity
  8
M0
 62
     7
100
AcDbLine
 10
244.844924
 20
913.428051
 11
236.358108
 21
918.328045
  0
LINE
  5
271
100
AcDbEntity
  8
M0
 62
     7
100
AcDbLine
 10
236.358108
 20
918.328045
 11
236.358108
 21
928.128064
  0
LINE
  5
272
100
AcDbEntity
  8
M0
 62
     7
100
AcDbLine
 10
236.358108
 20
928.128064
 11
244.844924
 21
933.028058
  0
LINE
  5
273
100
AcDbEntity
  8
M0
 62
     7
100
AcDbLine
 10
244.844924
 20
933.028058
 11
253.332229
 21
928.128033
  0
LINE
  5
274
100
AcDbEntity
  8
M0
 62
     7
100
AcDbLine
 10
253.332229
 20
928.128033
 11
253.332229
 21
918.328045
  0
LINE
  5
275
100
AcDbEntity
  8
M0
 62
     7
100
AcDbLine
 10
253.332229
 20
918.328045
 11
244.844924
 21
913.428051
  0
CIRCLE
  5
276
100
AcDbEntity
  8
M0
 62
     7
100
AcDbCircle
 10
244.844924
 20
923.228039
 40
5.0
  0
LINE
  5
277
100
AcDbEntity
  8
M0
  6
DASHDOT
 62
     7
100
AcDbLine
 10
255.332107
 20
923.227948
 11
234.357696
 21
923.227948
  0
LINE
  5
278
100
AcDbEntity
  8
M0
  6
DASHDOT
 62
     7
100
AcDbLine
 10
244.844894
 20
934.715146
 11
244.844909
 21
913.740735
  0
LINE
  5
279
100
AcDbEntity
  8
M0
 62
     7
100
AcDbLine
 10
144.844924
 20
737.428036
 11
136.358108
 21
742.32803
  0
LINE
  5
27A
100
AcDbEntity
  8
M0
 62
     7
100
AcDbLine
 10
136.358108
 20
742.32803
 11
136.358108
 21
752.128048
  0
LINE
  5
27B
100
AcDbEntity
  8
M0
 62
     7
100
AcDbLine
 10
136.358108
 20
752.128048
 11
144.844924
 21
757.028042
  0
LINE
  5
27C
100
AcDbEntity
  8
M0
 62
     7
100
AcDbLine
 10
144.844924
 20
757.028042
 11
153.332229
 21
752.128018
  0
LINE
  5
27D
100
AcDbEntity
  8
M0
 62
     7
100
AcDbLine
 10
153.332229
 20
752.128018
 11
153.332229
 21
742.32803
  0
LINE
  5
27E
100
AcDbEntity
  8
M0
 62
     7
100
AcDbLine
 10
153.332229
 20
742.32803
 11
144.844924
 21
737.428036
  0
CIRCLE
  5
27F
100
AcDbEntity
  8
M0
 62
     7
100
AcDbCircle
 10
144.844924
 20
747.228024
 40
5.0
  0
LINE
  5
280
100
AcDbEntity
  8
M0
  6
DASHDOT
 62
     7
100
AcDbLine
 10
155.332107
 20
747.227932
 11
134.357696
 21
747.227932
  0
LINE
  5
281
100
AcDbEntity
  8
M0
  6
DASHDOT
 62
     7
100
AcDbLine
 10
144.844894
 20
756.715146
 11
144.844981
 21
636.605193
  0
LINE
  5
282
100
AcDbEntity
  8
M0
 62
     7
100
AcDbLine
 10
194.844924
 20
737.428036
 11
186.358108
 21
742.32803
  0
LINE
  5
283
100
AcDbEntity
  8
M0
 62
     7
100
AcDbLine
 10
186.358108
 20
742.32803
 11
186.358108
 21
752.128048
  0
LINE
  5
284
100
AcDbEntity
  8
M0
 62
     7
100
AcDbLine
 10
186.358108
 20
752.128048
 11
194.844924
 21
757.028042
  0
LINE
  5
285
100
AcDbEntity
  8
M0
 62
     7
100
AcDbLine
 10
194.844924
 20
757.028042
 11
203.332229
 21
752.128018
  0
LINE
  5
286
100
AcDbEntity
  8
M0
 62
     7
100
AcDbLine
 10
203.332229
 20
752.128018
 11
203.332229
 21
742.32803
  0
LINE
  5
287
100
AcDbEntity
  8
M0
 62
     7
100
AcDbLine
 10
203.332229
 20
742.32803
 11
194.844924
 21
737.428036
  0
CIRCLE
  5
288
100
AcDbEntity
  8
M0
 62
     7
100
AcDbCircle
 10
194.844924
 20
747.228024
 40
5.0
  0
LINE
  5
289
100
AcDbEntity
  8
M0
  6
DASHDOT
 62
     7
100
AcDbLine
 10
205.332107
 20
747.227932
 11
184.357696
 21
747.227932
  0
LINE
  5
28A
100
AcDbEntity
  8
M0
 62
     7
100
AcDbLine
 10
244.844924
 20
737.428036
 11
236.358108
 21
742.32803
  0
LINE
  5
28B
100
AcDbEntity
  8
M0
 62
     7
100
AcDbLine
 10
236.358108
 20
742.32803
 11
236.358108
 21
752.128048
  0
LINE
  5
28C
100
AcDbEntity
  8
M0
 62
     7
100
AcDbLine
 10
236.358108
 20
752.128048
 11
244.844924
 21
757.028042
  0
LINE
  5
28D
100
AcDbEntity
  8
M0
 62
     7
100
AcDbLine
 10
244.844924
 20
757.028042
 11
253.332229
 21
752.128018
  0
LINE
  5
28E
100
AcDbEntity
  8
M0
 62
     7
100
AcDbLine
 10
253.332229
 20
752.128018
 11
253.332229
 21
742.32803
  0
LINE
  5
28F
100
AcDbEntity
  8
M0
 62
     7
100
AcDbLine
 10
253.332229
 20
742.32803
 11
244.844924
 21
737.428036
  0
CIRCLE
  5
290
100
AcDbEntity
  8
M0
 62
     7
100
AcDbCircle
 10
244.844924
 20
747.228024
 40
5.0
  0
LINE
  5
291
100
AcDbEntity
  8
M0
  6
DASHDOT
 62
     7
100
AcDbLine
 10
255.332107
 20
747.227932
 11
234.357696
 21
747.227932
  0
LINE
  5
292
100
AcDbEntity
  8
M0
  6
DASHDOT
 62
     7
100
AcDbLine
 10
244.844894
 20
756.715146
 11
244.844981
 21
636.605266
  0
LINE
  5
293
100
AcDbEntity
  8
M0
 62
     7
100
AcDbLine
 10
232.344879
 20
910.727948
 11
314.344833
 21
910.727948
  0
LINE
  5
294
100
AcDbEntity
  8
M0
 62
     7
100
AcDbLine
 10
232.344864
 20
935.727948
 11
314.344818
 21
935.727948
  0
LINE
  5
295
100
AcDbEntity
  8
M0
 62
     7
100
AcDbLine
 10
263.844924
 20
935.727948
 11
263.844924
 21
943.228162
  0
LINE
  5
296
100
AcDbEntity
  8
M0
 62
     7
100
AcDbLine
 10
207.344939
 20
923.227948
 11
207.344939
 21
979.228131
  0
LINE
  5
297
100
AcDbEntity
  8
M0
 62
     7
100
AcDbLine
 10
182.344939
 20
923.227948
 11
182.344939
 21
979.228131
  0
LINE
  5
298
100
AcDbEntity
  8
M0
 62
     7
100
AcDbLine
 10
182.344904
 20
910.727948
 11
207.344903
 21
910.727948
  0
LINE
  5
299
100
AcDbEntity
  8
M0
 62
     7
100
AcDbLine
 10
132.344913
 20
910.727948
 11
157.34491
 21
910.727948
  0
LINE
  5
29A
100
AcDbEntity
  8
M0
 62
     7
100
AcDbLine
 10
132.34489
 20
941.727978
 11
157.344891
 21
941.728009
  0
LINE
  5
29B
100
AcDbEntity
  8
M0
 62
     7
100
AcDbLine
 10
132.344875
 20
961.727978
 11
157.344878
 21
961.728009
  0
LINE
  5
29C
100
AcDbEntity
  8
M0
 62
     7
100
AcDbLine
 10
389.344841
 20
961.728009
 11
389.34481
 21
911.728009
  0
LINE
  5
29D
100
AcDbEntity
  8
M0
 62
     7
100
AcDbLine
 10
414.344844
 20
961.727978
 11
389.344841
 21
961.728009
  0
LINE
  5
29E
100
AcDbEntity
  8
M0
 62
     7
100
AcDbLine
 10
414.344844
 20
961.727978
 11
414.344806
 21
910.727948
  0
LINE
  5
29F
100
AcDbEntity
  8
M0
 62
     7
100
AcDbLine
 10
414.344829
 20
941.727978
 11
389.344829
 21
941.728009
  0
LINE
  5
2A0
100
AcDbEntity
  8
M0
 62
     7
100
AcDbLine
 10
414.344806
 20
910.727948
 11
389.34481
 21
910.727948
  0
LINE
  5
2A1
100
AcDbEntity
  8
M0
 62
     7
100
AcDbLine
 10
389.34483
 20
943.228009
 11
364.344817
 21
943.228039
  0
LINE
  5
2A2
100
AcDbEntity
  8
M0
 62
     7
100
AcDbLine
 10
157.344879
 20
960.228009
 11
182.344939
 21
960.228039
  0
LINE
  5
2A3
100
AcDbEntity
  8
M0
 62
     7
100
AcDbLine
 10
132.344884
 20
950.228039
 11
130.844939
 21
950.228039
  0
ARC
  5
2A4
100
AcDbEntity
  8
M0
 62
     7
100
AcDbCircle
 10
219.844924
 20
940.228039
 40
4.5
100
AcDbArc
 50
138.186602
 51
401.813258
  0
ARC
  5
2A5
100
AcDbEntity
  8
M0
 62
     7
100
AcDbCircle
 10
169.844939
 20
940.228039
 40
4.5
100
AcDbArc
 50
138.185559
 51
401.814301
  0
LINE
  5
2A6
100
AcDbEntity
  8
M0
 62
     7
100
AcDbLine
 10
207.344939
 20
960.22807
 11
389.344773
 21
960.228292
  0
LINE
  5
2A7
100
AcDbEntity
  8
M0
 62
     7
100
AcDbLine
 10
182.344939
 20
943.228261
 11
157.34489
 21
943.228292
  0
LINE
  5
2A8
100
AcDbEntity
  8
M0
 62
     7
100
AcDbLine
 10
182.344939
 20
960.228039
 11
207.344939
 21
960.22807
  0
LINE
  5
2A9
100
AcDbEntity
  8
M0
 62
     7
100
AcDbLine
 10
182.344939
 20
980.228039
 11
207.344939
 21
980.22807
  0
LINE
  5
2AA
100
AcDbEntity
  8
M0
 62
     7
100
AcDbLine
 10
339.344828
 20
910.727948
 11
364.344827
 21
910.727948
  0
LINE
  5
2AB
100
AcDbEntity
  8
M0
 62
     7
100
AcDbLine
 10
339.344818
 20
943.22807
 11
207.344939
 21
943.228231
  0
LINE
  5
2AC
100
AcDbEntity
  8
M0
 62
     7
100
AcDbLine
 10
182.344939
 20
979.228131
 11
364.344807
 21
979.228131
  0
LINE
  5
2AD
100
AcDbEntity
  8
M0
 62
     7
100
AcDbLine
 10
414.344843
 20
710.227939
 11
414.344806
 21
759.728314
  0
LINE
  5
2AE
100
AcDbEntity
  8
M0
 62
     7
100
AcDbLine
 10
389.34484
 20
710.22797
 11
389.34481
 21
758.728253
  0
LINE
  5
2AF
100
AcDbEntity
  8
M0
 62
     7
100
AcDbLine
 10
414.344806
 20
759.728314
 11
389.34481
 21
759.728314
  0
LINE
  5
2B0
100
AcDbEntity
  8
M0
 62
     7
100
AcDbLine
 10
132.344939
 20
710.228283
 11
414.344843
 21
710.227939
  0
LINE
  5
2B1
100
AcDbEntity
  8
M0
 62
     7
100
AcDbLine
 10
414.34483
 20
727.228283
 11
132.344939
 21
727.227939
  0
LINE
  5
2B2
100
AcDbEntity
  8
M0
 62
     7
100
AcDbLine
 10
289.344863
 20
759.727932
 11
314.344863
 21
759.727932
  0
LINE
  5
2B3
100
AcDbEntity
  8
M0
 62
     7
100
AcDbLine
 10
339.344819
 20
759.727932
 11
364.344819
 21
759.727932
  0
LINE
  5
2B4
100
AcDbEntity
  8
M0
 62
     7
100
AcDbLine
 10
420.844848
 20
725.228055
 11
420.844848
 21
945.228039
  0
LINE
  5
2B5
100
AcDbEntity
  8
M0
 62
     7
100
AcDbLine
 10
415.844848
 20
950.228039
 11
414.344836
 21
950.228039
  0
LINE
  5
2B6
100
AcDbEntity
  8
M0
 62
     7
100
AcDbLine
 10
282.844863
 20
943.228139
 11
282.844863
 21
935.727948
  0
ARC
  5
2B7
100
AcDbEntity
  8
M0
 62
     7
100
AcDbCircle
 10
415.844848
 20
945.228039
 40
5.0
100
AcDbArc
 50
0.0
 51
90.0
  0
ARC
  5
2B8
100
AcDbEntity
  8
M0
 62
     7
100
AcDbCircle
 10
415.844848
 20
725.228055
 40
5.0
100
AcDbArc
 50
269.999825
 51
360.0
  0
LINE
  5
2B9
100
AcDbEntity
  8
M0
 62
     7
100
AcDbLine
 10
366.844856
 20
943.228036
 11
366.844856
 21
940.228039
  0
LINE
  5
2BA
100
AcDbEntity
  8
M0
 62
     7
100
AcDbLine
 10
386.844848
 20
943.228012
 11
386.844848
 21
940.228039
  0
ARC
  5
2BB
100
AcDbEntity
  8
M0
 62
     7
100
AcDbCircle
 10
376.844848
 20
940.228039
 40
10.0
100
AcDbArc
 50
180.0
 51
269.999913
  0
ARC
  5
2BC
100
AcDbEntity
  8
M0
 62
     7
100
AcDbCircle
 10
376.844848
 20
940.228039
 40
10.0
100
AcDbArc
 50
269.999913
 51
360.0
  0
ARC
  5
2BD
100
AcDbEntity
  8
M0
 62
     7
100
AcDbCircle
 10
326.844863
 20
940.228039
 40
10.0
100
AcDbArc
 50
-90.0
 51
0.0
  0
ARC
  5
2BE
100
AcDbEntity
  8
M0
 62
     7
100
AcDbCircle
 10
326.844863
 20
940.228039
 40
10.0
100
AcDbArc
 50
180.0
 51
270.0
  0
LINE
  5
2BF
100
AcDbEntity
  8
M0
 62
     7
100
AcDbLine
 10
336.844863
 20
943.228073
 11
336.844863
 21
940.228039
  0
LINE
  5
2C0
100
AcDbEntity
  8
M0
 62
     7
100
AcDbLine
 10
316.844863
 20
943.228097
 11
316.844863
 21
940.228039
  0
ARC
  5
2C1
100
AcDbEntity
  8
M0
 62
     7
100
AcDbCircle
 10
326.844863
 20
730.228055
 40
10.0
100
AcDbArc
 50
0.0
 51
89.999913
  0
ARC
  5
2C2
100
AcDbEntity
  8
M0
 62
     7
100
AcDbCircle
 10
326.844863
 20
730.228055
 40
10.0
100
AcDbArc
 50
89.999913
 51
179.999913
  0
LINE
  5
2C3
100
AcDbEntity
  8
M0
 62
     7
100
AcDbLine
 10
336.844863
 20
727.228189
 11
336.844863
 21
730.228055
  0
LINE
  5
2C4
100
AcDbEntity
  8
M0
 62
     7
100
AcDbLine
 10
316.844863
 20
727.228164
 11
316.844863
 21
730.228055
  0
ARC
  5
2C5
100
AcDbEntity
  8
M0
 62
     7
100
AcDbCircle
 10
376.844848
 20
730.228055
 40
10.0
100
AcDbArc
 50
90.0
 51
179.999913
  0
ARC
  5
2C6
100
AcDbEntity
  8
M0
 62
     7
100
AcDbCircle
 10
376.844848
 20
730.228055
 40
10.0
100
AcDbArc
 50
0.0
 51
90.0
  0
LINE
  5
2C7
100
AcDbEntity
  8
M0
 62
     7
100
AcDbLine
 10
366.844856
 20
727.228225
 11
366.844856
 21
730.228055
  0
LINE
  5
2C8
100
AcDbEntity
  8
M0
 62
     7
100
AcDbLine
 10
386.844848
 20
727.22825
 11
386.844848
 21
730.228055
  0
CIRCLE
  5
2C9
100
AcDbEntity
  8
M0
 62
     7
100
AcDbCircle
 10
376.844848
 20
750.228055
 40
3.0
  0
CIRCLE
  5
2CA
100
AcDbEntity
  8
M0
 62
     7
100
AcDbCircle
 10
326.844863
 20
750.228055
 40
3.0
  0
ARC
  5
2CB
100
AcDbEntity
  8
M0
 62
     7
100
AcDbCircle
 10
404.844848
 20
898.228039
 40
2.0
100
AcDbArc
 50
0.0
 51
90.0
  0
ARC
  5
2CC
100
AcDbEntity
  8
M0
 62
     7
100
AcDbCircle
 10
396.844848
 20
898.228039
 40
2.0
100
AcDbArc
 50
90.0
 51
180.0
  0
LINE
  5
2CD
100
AcDbEntity
  8
M0
 62
     7
100
AcDbLine
 10
394.844848
 20
898.228039
 11
394.844848
 21
896.228039
  0
ARC
  5
2CE
100
AcDbEntity
  8
M0
 62
     7
100
AcDbCircle
 10
379.844848
 20
901.228039
 40
1.0
100
AcDbArc
 50
180.0
 51
269.999126
  0
LINE
  5
2CF
100
AcDbEntity
  8
M0
 62
     7
100
AcDbLine
 10
394.844848
 20
896.228039
 11
378.844848
 21
896.228039
  0
LINE
  5
2D0
100
AcDbEntity
  8
M0
 62
     7
100
AcDbLine
 10
378.844848
 20
896.228039
 11
378.844848
 21
908.228039
  0
ARC
  5
2D1
100
AcDbEntity
  8
M0
 62
     7
100
AcDbCircle
 10
376.844848
 20
908.228039
 40
2.0
100
AcDbArc
 50
0.0
 51
90.0
  0
ARC
  5
2D2
100
AcDbEntity
  8
M0
 62
     7
100
AcDbCircle
 10
366.844856
 20
908.228039
 40
2.0
100
AcDbArc
 50
90.0
 51
180.0
  0
ARC
  5
2D3
100
AcDbEntity
  8
M0
 62
     7
100
AcDbCircle
 10
363.844856
 20
901.228039
 40
1.0
100
AcDbArc
 50
270.0
 51
360.0
  0
LINE
  5
2D4
100
AcDbEntity
  8
M0
 62
     7
100
AcDbLine
 10
359.844856
 20
899.228039
 11
359.844856
 21
896.228039
  0
ARC
  5
2D5
100
AcDbEntity
  8
M0
 62
     7
100
AcDbCircle
 10
360.844856
 20
899.228039
 40
1.0
100
AcDbArc
 50
90.0
 51
180.0
  0
LINE
  5
2D6
100
AcDbEntity
  8
M0
 62
     7
100
AcDbLine
 10
364.844856
 20
901.228039
 11
364.844856
 21
908.228039
  0
LINE
  5
2D7
100
AcDbEntity
  8
M0
 62
     7
100
AcDbLine
 10
404.844848
 20
900.228039
 11
379.844848
 21
900.228039
  0
LINE
  5
2D8
100
AcDbEntity
  8
M0
 62
     7
100
AcDbLine
 10
394.844848
 20
772.228055
 11
394.844848
 21
774.228039
  0
ARC
  5
2D9
100
AcDbEntity
  8
M0
 62
     7
100
AcDbCircle
 10
396.844848
 20
772.228055
 40
2.0
100
AcDbArc
 50
179.999563
 51
269.999563
  0
ARC
  5
2DA
100
AcDbEntity
  8
M0
 62
     7
100
AcDbCircle
 10
404.844848
 20
772.228055
 40
2.0
100
AcDbArc
 50
-90.000437
 51
0.0
  0
ARC
  5
2DB
100
AcDbEntity
  8
M0
 62
     7
100
AcDbCircle
 10
376.844848
 20
762.228055
 40
2.0
100
AcDbArc
 50
269.999563
 51
360.0
  0
LINE
  5
2DC
100
AcDbEntity
  8
M0
 62
     7
100
AcDbLine
 10
366.844856
 20
760.228055
 11
376.844848
 21
760.228055
  0
LINE
  5
2DD
100
AcDbEntity
  8
M0
 62
     7
100
AcDbLine
 10
394.844848
 20
774.228039
 11
378.844848
 21
774.228039
  0
LINE
  5
2DE
100
AcDbEntity
  8
M0
 62
     7
100
AcDbLine
 10
406.844848
 20
772.228055
 11
406.844848
 21
898.228039
  0
LINE
  5
2DF
100
AcDbEntity
  8
M0
 62
     7
100
AcDbLine
 10
359.844856
 20
896.228039
 11
351.844863
 21
896.228039
  0
LINE
  5
2E0
100
AcDbEntity
  8
M0
 62
     7
100
AcDbLine
 10
359.844856
 20
774.228039
 11
351.844863
 21
774.228039
  0
LINE
  5
2E1
100
AcDbEntity
  8
M0
 62
     7
100
AcDbLine
 10
359.844856
 20
771.228055
 11
359.844856
 21
774.228039
  0
ARC
  5
2E2
100
AcDbEntity
  8
M0
 62
     7
100
AcDbCircle
 10
360.844856
 20
771.228055
 40
1.0
100
AcDbArc
 50
179.999126
 51
270.0
  0
LINE
  5
2E3
100
AcDbEntity
  8
M0
 62
     7
100
AcDbLine
 10
404.844848
 20
770.228055
 11
378.844848
 21
770.228055
  0
LINE
  5
2E4
100
AcDbEntity
  8
M0
 62
     7
100
AcDbLine
 10
376.844848
 20
910.228039
 11
366.844856
 21
910.228039
  0
LINE
  5
2E5
100
AcDbEntity
  8
M0
 62
     7
100
AcDbLine
 10
364.844856
 20
770.228055
 11
351.844863
 21
770.228055
  0
LINE
  5
2E6
100
AcDbEntity
  8
M0
 62
     7
100
AcDbLine
 10
363.844856
 20
900.228039
 11
351.844863
 21
900.228039
  0
CIRCLE
  5
2E7
100
AcDbEntity
  8
M0
 62
     7
100
AcDbCircle
 10
371.844848
 20
902.228039
 40
1.86
  0
CIRCLE
  5
2E8
100
AcDbEntity
  8
M0
 62
     7
100
AcDbCircle
 10
371.844848
 20
768.228055
 40
4.5
  0
CIRCLE
  5
2E9
100
AcDbEntity
  8
M0
 62
     7
100
AcDbCircle
 10
371.844848
 20
902.228039
 40
1.36
  0
CIRCLE
  5
2EA
100
AcDbEntity
  8
M0
 62
     7
100
AcDbCircle
 10
371.844848
 20
768.228055
 40
2.25
  0
LINE
  5
2EB
100
AcDbEntity
  8
M0
 62
     7
100
AcDbLine
 10
364.844856
 20
770.228055
 11
364.844856
 21
762.228055
  0
ARC
  5
2EC
100
AcDbEntity
  8
M0
 62
     7
100
AcDbCircle
 10
366.844856
 20
762.228055
 40
2.0
100
AcDbArc
 50
179.999563
 51
270.0
  0
LINE
  5
2ED
100
AcDbEntity
  8
M0
 62
     7
100
AcDbLine
 10
378.844848
 20
774.228039
 11
378.844848
 21
762.228055
  0
ARC
  5
2EE
100
AcDbEntity
  8
M0
 62
     7
100
AcDbCircle
 10
298.844863
 20
772.228055
 40
2.0
100
AcDbArc
 50
179.999563
 51
270.0
  0
ARC
  5
2EF
100
AcDbEntity
  8
M0
 62
     7
100
AcDbCircle
 10
306.844863
 20
772.228055
 40
2.0
100
AcDbArc
 50
270.0
 51
360.0
  0
LINE
  5
2F0
100
AcDbEntity
  8
M0
 62
     7
100
AcDbLine
 10
308.844863
 20
772.228055
 11
308.844863
 21
774.228039
  0
ARC
  5
2F1
100
AcDbEntity
  8
M0
 62
     7
100
AcDbCircle
 10
323.844863
 20
769.228055
 40
1.0
100
AcDbArc
 50
0.0
 51
89.999126
  0
LINE
  5
2F2
100
AcDbEntity
  8
M0
 62
     7
100
AcDbLine
 10
308.844863
 20
774.228039
 11
324.844863
 21
774.228039
  0
LINE
  5
2F3
100
AcDbEntity
  8
M0
 62
     7
100
AcDbLine
 10
324.844863
 20
774.228039
 11
324.844863
 21
762.228055
  0
ARC
  5
2F4
100
AcDbEntity
  8
M0
 62
     7
100
AcDbCircle
 10
326.844863
 20
762.228055
 40
2.0
100
AcDbArc
 50
179.999563
 51
270.0
  0
ARC
  5
2F5
100
AcDbEntity
  8
M0
 62
     7
100
AcDbCircle
 10
336.844863
 20
762.228055
 40
2.0
100
AcDbArc
 50
270.0
 51
360.0
  0
ARC
  5
2F6
100
AcDbEntity
  8
M0
 62
     7
100
AcDbCircle
 10
339.844863
 20
769.228055
 40
1.0
100
AcDbArc
 50
90.0
 51
179.999126
  0
LINE
  5
2F7
100
AcDbEntity
  8
M0
 62
     7
100
AcDbLine
 10
343.844863
 20
771.228055
 11
343.844863
 21
774.228039
  0
ARC
  5
2F8
100
AcDbEntity
  8
M0
 62
     7
100
AcDbCircle
 10
342.844863
 20
771.228055
 40
1.0
100
AcDbArc
 50
270.0
 51
360.0
  0
LINE
  5
2F9
100
AcDbEntity
  8
M0
 62
     7
100
AcDbLine
 10
338.844863
 20
769.228055
 11
338.844863
 21
762.228055
  0
LINE
  5
2FA
100
AcDbEntity
  8
M0
 62
     7
100
AcDbLine
 10
298.844863
 20
770.228055
 11
323.844863
 21
770.228055
  0
LINE
  5
2FB
100
AcDbEntity
  8
M0
 62
     7
100
AcDbLine
 10
308.844863
 20
898.228039
 11
308.844863
 21
896.228039
  0
ARC
  5
2FC
100
AcDbEntity
  8
M0
 62
     7
100
AcDbCircle
 10
306.844863
 20
898.228039
 40
2.0
100
AcDbArc
 50
0.0
 51
89.999563
  0
ARC
  5
2FD
100
AcDbEntity
  8
M0
 62
     7
100
AcDbCircle
 10
298.844863
 20
898.228039
 40
2.0
100
AcDbArc
 50
89.999563
 51
180.0
  0
ARC
  5
2FE
100
AcDbEntity
  8
M0
 62
     7
100
AcDbCircle
 10
326.844863
 20
908.228039
 40
2.0
100
AcDbArc
 50
89.999563
 51
180.0
  0
LINE
  5
2FF
100
AcDbEntity
  8
M0
 62
     7
100
AcDbLine
 10
336.844863
 20
910.228039
 11
326.844863
 21
910.228039
  0
LINE
  5
300
100
AcDbEntity
  8
M0
 62
     7
100
AcDbLine
 10
308.844863
 20
896.228039
 11
324.844863
 21
896.228039
  0
LINE
  5
301
100
AcDbEntity
  8
M0
 62
     7
100
AcDbLine
 10
296.844863
 20
898.228039
 11
296.844863
 21
772.228055
  0
LINE
  5
302
100
AcDbEntity
  8
M0
 62
     7
100
AcDbLine
 10
343.844863
 20
774.228039
 11
351.844863
 21
774.228039
  0
LINE
  5
303
100
AcDbEntity
  8
M0
 62
     7
100
AcDbLine
 10
343.844863
 20
896.228039
 11
351.844863
 21
896.228039
  0
LINE
  5
304
100
AcDbEntity
  8
M0
 62
     7
100
AcDbLine
 10
343.844863
 20
899.228039
 11
343.844863
 21
896.228039
  0
ARC
  5
305
100
AcDbEntity
  8
M0
 62
     7
100
AcDbCircle
 10
342.844863
 20
899.228039
 40
1.0
100
AcDbArc
 50
0.0
 51
90.0
  0
LINE
  5
306
100
AcDbEntity
  8
M0
 62
     7
100
AcDbLine
 10
298.844863
 20
900.228039
 11
324.844863
 21
900.228039
  0
LINE
  5
307
100
AcDbEntity
  8
M0
 62
     7
100
AcDbLine
 10
326.844863
 20
760.228055
 11
336.844863
 21
760.228055
  0
LINE
  5
308
100
AcDbEntity
  8
M0
 62
     7
100
AcDbLine
 10
338.844863
 20
900.228039
 11
351.844863
 21
900.228039
  0
LINE
  5
309
100
AcDbEntity
  8
M0
 62
     7
100
AcDbLine
 10
339.844863
 20
770.228055
 11
351.844863
 21
770.228055
  0
CIRCLE
  5
30A
100
AcDbEntity
  8
M0
 62
     7
100
AcDbCircle
 10
331.844863
 20
768.228055
 40
1.86
  0
CIRCLE
  5
30B
100
AcDbEntity
  8
M0
 62
     7
100
AcDbCircle
 10
331.844863
 20
902.228039
 40
4.5
  0
CIRCLE
  5
30C
100
AcDbEntity
  8
M0
 62
     7
100
AcDbCircle
 10
331.844863
 20
768.228055
 40
1.36
  0
CIRCLE
  5
30D
100
AcDbEntity
  8
M0
 62
     7
100
AcDbCircle
 10
331.844863
 20
902.228039
 40
2.25
  0
LINE
  5
30E
100
AcDbEntity
  8
M0
 62
     7
100
AcDbLine
 10
338.844863
 20
900.228039
 11
338.844863
 21
908.228039
  0
ARC
  5
30F
100
AcDbEntity
  8
M0
 62
     7
100
AcDbCircle
 10
336.844863
 20
908.228039
 40
2.0
100
AcDbArc
 50
0.0
 51
90.0
  0
LINE
  5
310
100
AcDbEntity
  8
M0
 62
     7
100
AcDbLine
 10
324.844863
 20
896.228039
 11
324.844863
 21
908.228039
  0
ARC
  5
311
100
AcDbEntity
  8
M0
 62
     7
100
AcDbCircle
 10
418.844848
 20
919.728039
 40
2.0
100
AcDbArc
 50
0.0
 51
90.0
  0
LINE
  5
312
100
AcDbEntity
  8
M0
 62
     7
100
AcDbLine
 10
418.844848
 20
921.728039
 11
414.344848
 21
921.728039
  0
LINE
  5
313
100
AcDbEntity
  8
M0
 62
     7
100
AcDbLine
 10
337.844863
 20
921.728039
 11
339.344863
 21
921.728039
  0
ARC
  5
314
100
AcDbEntity
  8
M0
 62
     7
100
AcDbCircle
 10
365.844856
 20
920.728039
 40
1.0
100
AcDbArc
 50
0.0
 51
90.0
  0
LINE
  5
315
100
AcDbEntity
  8
M0
 62
     7
100
AcDbLine
 10
366.844856
 20
920.728039
 11
366.844856
 21
911.228039
  0
ARC
  5
316
100
AcDbEntity
  8
M0
 62
     7
100
AcDbCircle
 10
367.844856
 20
911.228039
 40
1.0
100
AcDbArc
 50
180.0
 51
270.0
  0
ARC
  5
317
100
AcDbEntity
  8
M0
 62
     7
100
AcDbCircle
 10
376.844848
 20
908.228039
 40
2.0
100
AcDbArc
 50
0.0
 51
90.0
  0
LINE
  5
318
100
AcDbEntity
  8
M0
 62
     7
100
AcDbLine
 10
378.844848
 20
908.228039
 11
378.844848
 21
902.728039
  0
ARC
  5
319
100
AcDbEntity
  8
M0
 62
     7
100
AcDbCircle
 10
366.844856
 20
908.228039
 40
2.0
100
AcDbArc
 50
90.0
 51
180.0
  0
LINE
  5
31A
100
AcDbEntity
  8
M0
 62
     7
100
AcDbLine
 10
388.135177
 20
910.228039
 11
364.344856
 21
910.228039
  0
LINE
  5
31B
100
AcDbEntity
  8
M0
 62
     7
100
AcDbLine
 10
284.844863
 20
760.228055
 11
294.594863
 21
760.228055
  0
LINE
  5
31C
100
AcDbEntity
  8
M0
 62
     7
100
AcDbLine
 10
420.844848
 20
762.228055
 11
420.844848
 21
919.728039
  0
ARC
  5
31D
100
AcDbEntity
  8
M0
 62
     7
100
AcDbCircle
 10
418.844848
 20
762.228055
 40
2.0
100
AcDbArc
 50
269.999563
 51
360.0
  0
ARC
  5
31E
100
AcDbEntity
  8
M0
 62
     7
100
AcDbCircle
 10
366.844856
 20
762.228055
 40
2.0
100
AcDbArc
 50
179.999563
 51
270.0
  0
ARC
  5
31F
100
AcDbEntity
  8
M0
 62
     7
100
AcDbCircle
 10
376.844848
 20
762.228055
 40
2.0
100
AcDbArc
 50
-90.000437
 51
0.0
  0
LINE
  5
320
100
AcDbEntity
  8
M0
 62
     7
100
AcDbLine
 10
378.844848
 20
762.228055
 11
378.844848
 21
767.728055
  0
CIRCLE
  5
321
100
AcDbEntity
  8
M0
 62
     7
100
AcDbCircle
 10
412.844848
 20
905.728039
 40
2.75
  0
ARC
  5
322
100
AcDbEntity
  8
M0
 62
     7
100
AcDbCircle
 10
337.844863
 20
920.728039
 40
1.0
100
AcDbArc
 50
90.0
 51
180.0
  0
LINE
  5
323
100
AcDbEntity
  8
M0
 62
     7
100
AcDbLine
 10
336.844863
 20
920.728039
 11
336.844863
 21
911.228039
  0
ARC
  5
324
100
AcDbEntity
  8
M0
 62
     7
100
AcDbCircle
 10
335.844863
 20
911.228039
 40
1.0
100
AcDbArc
 50
-90.0
 51
0.0
  0
ARC
  5
325
100
AcDbEntity
  8
M0
 62
     7
100
AcDbCircle
 10
326.844863
 20
908.228039
 40
2.0
100
AcDbArc
 50
89.999563
 51
180.0
  0
LINE
  5
326
100
AcDbEntity
  8
M0
 62
     7
100
AcDbLine
 10
324.844863
 20
908.228039
 11
324.844863
 21
902.728039
  0
ARC
  5
327
100
AcDbEntity
  8
M0
 62
     7
100
AcDbCircle
 10
336.844863
 20
908.228039
 40
2.0
100
AcDbArc
 50
0.0
 51
90.0
  0
LINE
  5
328
100
AcDbEntity
  8
M0
 62
     7
100
AcDbLine
 10
282.844863
 20
762.228055
 11
282.844863
 21
910.727948
  0
ARC
  5
329
100
AcDbEntity
  8
M0
 62
     7
100
AcDbCircle
 10
284.844863
 20
762.228055
 40
2.0
100
AcDbArc
 50
179.999563
 51
270.0
  0
ARC
  5
32A
100
AcDbEntity
  8
M0
 62
     7
100
AcDbCircle
 10
336.844863
 20
762.228055
 40
2.0
100
AcDbArc
 50
270.0
 51
360.0
  0
ARC
  5
32B
100
AcDbEntity
  8
M0
 62
     7
100
AcDbCircle
 10
326.844863
 20
762.228055
 40
2.0
100
AcDbArc
 50
179.999563
 51
270.0
  0
LINE
  5
32C
100
AcDbEntity
  8
M0
 62
     7
100
AcDbLine
 10
324.844863
 20
762.228055
 11
324.844863
 21
767.728055
  0
CIRCLE
  5
32D
100
AcDbEntity
  8
M0
 62
     7
100
AcDbCircle
 10
290.844863
 20
905.728039
 40
2.75
  0
LINE
  5
32E
100
AcDbEntity
  8
M0
 62
     7
100
AcDbLine
 10
406.844848
 20
762.799481
 11
406.844848
 21
809.728039
  0
CIRCLE
  5
32F
100
AcDbEntity
  8
M0
 62
     7
100
AcDbCircle
 10
290.844863
 20
764.728055
 40
2.75
  0
CIRCLE
  5
330
100
AcDbEntity
  8
M0
 62
     7
100
AcDbCircle
 10
412.844848
 20
764.728055
 40
2.75
  0
LINE
  5
331
100
AcDbEntity
  8
M0
 62
     7
100
AcDbLine
 10
418.344848
 20
870.228039
 11
418.344848
 21
862.728039
  0
LINE
  5
332
100
AcDbEntity
  8
M0
 62
     7
100
AcDbLine
 10
418.344848
 20
870.228039
 11
420.844848
 21
870.228039
  0
LINE
  5
333
100
AcDbEntity
  8
M0
 62
     7
100
AcDbLine
 10
413.844848
 20
838.978039
 11
420.844848
 21
838.978039
  0
ARC
  5
334
100
AcDbEntity
  8
M0
 62
     7
100
AcDbCircle
 10
413.844848
 20
837.978039
 40
1.0
100
AcDbArc
 50
90.0
 51
180.0
  0
LINE
  5
335
100
AcDbEntity
  8
M0
 62
     7
100
AcDbLine
 10
412.844848
 20
837.978039
 11
412.844848
 21
832.478039
  0
LINE
  5
336
100
AcDbEntity
  8
M0
 62
     7
100
AcDbLine
 10
413.844848
 20
831.478039
 11
420.844848
 21
831.478039
  0
ARC
  5
337
100
AcDbEntity
  8
M0
 62
     7
100
AcDbCircle
 10
413.844848
 20
832.478039
 40
1.0
100
AcDbArc
 50
179.999945
 51
269.999126
  0
LINE
  5
338
100
AcDbEntity
  8
M0
 62
     7
100
AcDbLine
 10
420.844848
 20
837.978039
 11
416.844848
 21
837.978039
  0
LINE
  5
339
100
AcDbEntity
  8
M0
 62
     7
100
AcDbLine
 10
420.844848
 20
832.478039
 11
416.844848
 21
832.478039
  0
LINE
  5
33A
100
AcDbEntity
  8
M0
 62
     7
100
AcDbLine
 10
417.344848
 20
862.728039
 11
420.844848
 21
862.728039
  0
ARC
  5
33B
100
AcDbEntity
  8
M0
 62
     7
100
AcDbCircle
 10
417.344848
 20
862.228039
 40
0.5
100
AcDbArc
 50
90.0
 51
180.0
  0
LINE
  5
33C
100
AcDbEntity
  8
M0
 62
     7
100
AcDbLine
 10
408.844848
 20
859.228039
 11
416.844848
 21
859.228039
  0
LINE
  5
33D
100
AcDbEntity
  8
M0
 62
     7
100
AcDbLine
 10
416.844848
 20
838.978039
 11
416.844848
 21
837.978039
  0
LINE
  5
33E
100
AcDbEntity
  8
M0
 62
     7
100
AcDbLine
 10
416.844848
 20
862.228039
 11
416.844848
 21
841.728039
  0
LINE
  5
33F
100
AcDbEntity
  8
M0
 62
     7
100
AcDbLine
 10
417.344848
 20
852.728039
 11
420.844848
 21
852.728039
  0
ARC
  5
340
100
AcDbEntity
  8
M0
 62
     7
100
AcDbCircle
 10
417.344848
 20
852.228039
 40
0.5
100
AcDbArc
 50
90.0
 51
180.0
  0
LINE
  5
341
100
AcDbEntity
  8
M0
 62
     7
100
AcDbLine
 10
408.844848
 20
811.228039
 11
416.844848
 21
811.228039
  0
LINE
  5
342
100
AcDbEntity
  8
M0
 62
     7
100
AcDbLine
 10
416.844848
 20
808.228039
 11
416.844848
 21
828.728039
  0
LINE
  5
343
100
AcDbEntity
  8
M0
 62
     7
100
AcDbLine
 10
417.344848
 20
817.728039
 11
420.844848
 21
817.728039
  0
LINE
  5
344
100
AcDbEntity
  8
M0
 62
     7
100
AcDbLine
 10
296.844863
 20
907.656521
 11
296.844863
 21
860.728039
  0
LINE
  5
345
100
AcDbEntity
  8
M0
 62
     7
100
AcDbLine
 10
406.844848
 20
907.656674
 11
406.844848
 21
860.728039
  0
LINE
  5
346
100
AcDbEntity
  8
M0
 62
     7
100
AcDbLine
 10
406.844848
 20
809.728039
 11
406.844848
 21
762.799481
  0
LINE
  5
347
100
AcDbEntity
  8
M0
 62
     7
100
AcDbLine
 10
296.844863
 20
809.728039
 11
296.844863
 21
762.799481
  0
ARC
  5
348
100
AcDbEntity
  8
M0
 62
     7
100
AcDbCircle
 10
417.344848
 20
818.228039
 40
0.5
100
AcDbArc
 50
179.998251
 51
269.998251
  0
LINE
  5
349
100
AcDbEntity
  8
M0
 62
     7
100
AcDbLine
 10
416.844848
 20
808.228039
 11
416.844848
 21
828.728039
  0
LINE
  5
34A
100
AcDbEntity
  8
M0
 62
     7
100
AcDbLine
 10
418.344848
 20
800.228039
 11
418.344848
 21
807.728039
  0
LINE
  5
34B
100
AcDbEntity
  8
M0
 62
     7
100
AcDbLine
 10
418.344848
 20
800.228039
 11
420.844848
 21
800.228039
  0
ARC
  5
34C
100
AcDbEntity
  8
M0
 62
     7
100
AcDbCircle
 10
417.344848
 20
808.228039
 40
0.5
100
AcDbArc
 50
179.998251
 51
269.998251
  0
LINE
  5
34D
100
AcDbEntity
  8
M0
 62
     7
100
AcDbLine
 10
417.344848
 20
807.728039
 11
420.844848
 21
807.728039
  0
LINE
  5
34E
100
AcDbEntity
  8
M0
 62
     7
100
AcDbLine
 10
416.844848
 20
831.478039
 11
416.844848
 21
832.478039
  0
LINE
  5
34F
100
AcDbEntity
  8
M0
 62
     7
100
AcDbLine
 10
285.344863
 20
870.228039
 11
285.344863
 21
862.728039
  0
LINE
  5
350
100
AcDbEntity
  8
M0
 62
     7
100
AcDbLine
 10
285.344863
 20
870.228039
 11
282.844863
 21
870.228039
  0
LINE
  5
351
100
AcDbEntity
  8
M0
 62
     7
100
AcDbLine
 10
289.844863
 20
838.978039
 11
282.844863
 21
838.978039
  0
ARC
  5
352
100
AcDbEntity
  8
M0
 62
     7
100
AcDbCircle
 10
289.844863
 20
837.978039
 40
1.0
100
AcDbArc
 50
0.0
 51
89.999126
  0
LINE
  5
353
100
AcDbEntity
  8
M0
 62
     7
100
AcDbLine
 10
290.844863
 20
837.978039
 11
290.844863
 21
832.478039
  0
LINE
  5
354
100
AcDbEntity
  8
M0
 62
     7
100
AcDbLine
 10
289.844863
 20
831.478039
 11
282.844863
 21
831.478039
  0
ARC
  5
355
100
AcDbEntity
  8
M0
 62
     7
100
AcDbCircle
 10
289.844863
 20
832.478039
 40
1.0
100
AcDbArc
 50
-90.0
 51
0.0
  0
LINE
  5
356
100
AcDbEntity
  8
M0
 62
     7
100
AcDbLine
 10
282.844863
 20
837.978039
 11
286.844863
 21
837.978039
  0
LINE
  5
357
100
AcDbEntity
  8
M0
 62
     7
100
AcDbLine
 10
282.844863
 20
832.478039
 11
286.844863
 21
832.478039
  0
LINE
  5
358
100
AcDbEntity
  8
M0
 62
     7
100
AcDbLine
 10
286.344863
 20
862.728039
 11
282.844863
 21
862.728039
  0
ARC
  5
359
100
AcDbEntity
  8
M0
 62
     7
100
AcDbCircle
 10
286.344863
 20
862.228039
 40
0.5
100
AcDbArc
 50
0.0
 51
89.998251
  0
LINE
  5
35A
100
AcDbEntity
  8
M0
 62
     7
100
AcDbLine
 10
294.844863
 20
859.228039
 11
286.844863
 21
859.228039
  0
LINE
  5
35B
100
AcDbEntity
  8
M0
 62
     7
100
AcDbLine
 10
286.844863
 20
838.978039
 11
286.844863
 21
837.978039
  0
LINE
  5
35C
100
AcDbEntity
  8
M0
 62
     7
100
AcDbLine
 10
286.844863
 20
862.228039
 11
286.844863
 21
841.728039
  0
LINE
  5
35D
100
AcDbEntity
  8
M0
 62
     7
100
AcDbLine
 10
286.344863
 20
852.728039
 11
282.844863
 21
852.728039
  0
ARC
  5
35E
100
AcDbEntity
  8
M0
 62
     7
100
AcDbCircle
 10
286.344863
 20
852.228039
 40
0.5
100
AcDbArc
 50
0.0
 51
89.998251
  0
LINE
  5
35F
100
AcDbEntity
  8
M0
 62
     7
100
AcDbLine
 10
294.844863
 20
811.228039
 11
286.844863
 21
811.228039
  0
LINE
  5
360
100
AcDbEntity
  8
M0
 62
     7
100
AcDbLine
 10
286.844863
 20
808.228039
 11
286.844863
 21
828.728039
  0
LINE
  5
361
100
AcDbEntity
  8
M0
 62
     7
100
AcDbLine
 10
286.344863
 20
817.728039
 11
282.844863
 21
817.728039
  0
ARC
  5
362
100
AcDbEntity
  8
M0
 62
     7
100
AcDbCircle
 10
286.344863
 20
818.228039
 40
0.5
100
AcDbArc
 50
270.0
 51
360.0
  0
LINE
  5
363
100
AcDbEntity
  8
M0
 62
     7
100
AcDbLine
 10
286.844863
 20
808.228039
 11
286.844863
 21
828.728039
  0
LINE
  5
364
100
AcDbEntity
  8
M0
 62
     7
100
AcDbLine
 10
285.344863
 20
800.228039
 11
285.344863
 21
807.728039
  0
LINE
  5
365
100
AcDbEntity
  8
M0
 62
     7
100
AcDbLine
 10
285.344863
 20
800.228039
 11
282.844863
 21
800.228039
  0
ARC
  5
366
100
AcDbEntity
  8
M0
 62
     7
100
AcDbCircle
 10
286.344863
 20
808.228039
 40
0.5
100
AcDbArc
 50
270.0
 51
360.0
  0
LINE
  5
367
100
AcDbEntity
  8
M0
 62
     7
100
AcDbLine
 10
286.344863
 20
807.728039
 11
282.844863
 21
807.728039
  0
LINE
  5
368
100
AcDbEntity
  8
M0
 62
     7
100
AcDbLine
 10
286.844863
 20
831.478039
 11
286.844863
 21
832.478039
  0
CIRCLE
  5
369
100
AcDbEntity
  8
M0
 62
     7
100
AcDbCircle
 10
412.844848
 20
845.728039
 40
2.0
  0
CIRCLE
  5
36A
100
AcDbEntity
  8
M0
 62
     7
100
AcDbCircle
 10
412.844848
 20
824.728039
 40
2.0
  0
CIRCLE
  5
36B
100
AcDbEntity
  8
M0
 62
     7
100
AcDbCircle
 10
290.844863
 20
845.728039
 40
2.0
  0
CIRCLE
  5
36C
100
AcDbEntity
  8
M0
 62
     7
100
AcDbCircle
 10
290.844863
 20
824.728039
 40
2.0
  0
CIRCLE
  5
36D
100
AcDbEntity
  8
M0
 62
     7
100
AcDbCircle
 10
412.844848
 20
855.228039
 40
2.0
  0
LINE
  5
36E
100
AcDbEntity
  8
M0
 62
     7
100
AcDbLine
 10
406.844848
 20
860.728039
 11
416.844848
 21
860.728039
  0
LINE
  5
36F
100
AcDbEntity
  8
M0
 62
     7
100
AcDbLine
 10
408.844848
 20
849.728039
 11
416.844848
 21
849.728039
  0
LINE
  5
370
100
AcDbEntity
  8
M0
 62
     7
100
AcDbLine
 10
410.094848
 20
845.728039
 11
410.094848
 21
849.728039
  0
LINE
  5
371
100
AcDbEntity
  8
M0
 62
     7
100
AcDbLine
 10
415.594848
 20
845.728039
 11
415.594848
 21
849.728039
  0
ARC
  5
372
100
AcDbEntity
  8
M0
 62
     7
100
AcDbCircle
 10
412.844848
 20
845.728039
 40
2.75
100
AcDbArc
 50
179.99998
 51
360.0
  0
LINE
  5
373
100
AcDbEntity
  8
M0
 62
     7
100
AcDbLine
 10
410.094848
 20
855.228039
 11
410.094848
 21
859.228039
  0
LINE
  5
374
100
AcDbEntity
  8
M0
 62
     7
100
AcDbLine
 10
415.594848
 20
855.228039
 11
415.594848
 21
859.228039
  0
ARC
  5
375
100
AcDbEntity
  8
M0
 62
     7
100
AcDbCircle
 10
412.844848
 20
855.228039
 40
2.75
100
AcDbArc
 50
180.0
 51
360.0
  0
ARC
  5
376
100
AcDbEntity
  8
M0
 62
     7
100
AcDbCircle
 10
409.844848
 20
841.728039
 40
1.0
100
AcDbArc
 50
180.0
 51
269.999126
  0
LINE
  5
377
100
AcDbEntity
  8
M0
 62
     7
100
AcDbLine
 10
409.844848
 20
840.728039
 11
415.844848
 21
840.728039
  0
ARC
  5
378
100
AcDbEntity
  8
M0
 62
     7
100
AcDbCircle
 10
415.844848
 20
841.728039
 40
1.0
100
AcDbArc
 50
269.999126
 51
360.0
  0
LINE
  5
379
100
AcDbEntity
  8
M0
 62
     7
100
AcDbLine
 10
406.844848
 20
851.728039
 11
408.344848
 21
851.728039
  0
ARC
  5
37A
100
AcDbEntity
  8
M0
 62
     7
100
AcDbCircle
 10
408.344848
 20
851.228039
 40
0.5
100
AcDbArc
 50
0.0
 51
90.0
  0
LINE
  5
37B
100
AcDbEntity
  8
M0
 62
     7
100
AcDbLine
 10
408.844848
 20
860.228039
 11
408.844848
 21
841.728039
  0
ARC
  5
37C
100
AcDbEntity
  8
M0
 62
     7
100
AcDbCircle
 10
408.344848
 20
860.228039
 40
0.5
100
AcDbArc
 50
0.0
 51
90.0
  0
CIRCLE
  5
37D
100
AcDbEntity
  8
M0
 62
     7
100
AcDbCircle
 10
412.844848
 20
815.228039
 40
2.0
  0
LINE
  5
37E
100
AcDbEntity
  8
M0
 62
     7
100
AcDbLine
 10
406.844848
 20
809.728039
 11
416.844848
 21
809.728039
  0
LINE
  5
37F
100
AcDbEntity
  8
M0
 62
     7
100
AcDbLine
 10
408.844848
 20
820.728039
 11
416.844848
 21
820.728039
  0
LINE
  5
380
100
AcDbEntity
  8
M0
 62
     7
100
AcDbLine
 10
410.094848
 20
824.728039
 11
410.094848
 21
820.728039
  0
ARC
  5
381
100
AcDbEntity
  8
M0
 62
     7
100
AcDbCircle
 10
412.844848
 20
824.728039
 40
2.75
100
AcDbArc
 50
0.0
 51
179.99996
  0
LINE
  5
382
100
AcDbEntity
  8
M0
 62
     7
100
AcDbLine
 10
410.094848
 20
815.228039
 11
410.094848
 21
811.228039
  0
ARC
  5
383
100
AcDbEntity
  8
M0
 62
     7
100
AcDbCircle
 10
412.844848
 20
815.228039
 40
2.75
100
AcDbArc
 50
0.0
 51
179.999682
  0
ARC
  5
384
100
AcDbEntity
  8
M0
 62
     7
100
AcDbCircle
 10
409.844848
 20
828.728039
 40
1.0
100
AcDbArc
 50
90.0
 51
179.999945
  0
LINE
  5
385
100
AcDbEntity
  8
M0
 62
     7
100
AcDbLine
 10
409.844848
 20
829.728039
 11
415.844848
 21
829.728039
  0
LINE
  5
386
100
AcDbEntity
  8
M0
 62
     7
100
AcDbLine
 10
406.844848
 20
818.728039
 11
408.344848
 21
818.728039
  0
ARC
  5
387
100
AcDbEntity
  8
M0
 62
     7
100
AcDbCircle
 10
408.344848
 20
819.228039
 40
0.5
100
AcDbArc
 50
-90.001749
 51
0.0
  0
LINE
  5
388
100
AcDbEntity
  8
M0
 62
     7
100
AcDbLine
 10
408.844848
 20
810.228039
 11
408.844848
 21
828.728039
  0
ARC
  5
389
100
AcDbEntity
  8
M0
 62
     7
100
AcDbCircle
 10
408.344848
 20
810.228039
 40
0.5
100
AcDbArc
 50
-90.001749
 51
0.0
  0
ARC
  5
38A
100
AcDbEntity
  8
M0
 62
     7
100
AcDbCircle
 10
415.844848
 20
828.728039
 40
1.0
100
AcDbArc
 50
0.0
 51
90.0
  0
LINE
  5
38B
100
AcDbEntity
  8
M0
 62
     7
100
AcDbLine
 10
415.594848
 20
824.728039
 11
415.594848
 21
820.728039
  0
LINE
  5
38C
100
AcDbEntity
  8
M0
 62
     7
100
AcDbLine
 10
415.594848
 20
815.228039
 11
415.594848
 21
811.228039
  0
CIRCLE
  5
38D
100
AcDbEntity
  8
M0
 62
     7
100
AcDbCircle
 10
290.844863
 20
855.228039
 40
2.0
  0
LINE
  5
38E
100
AcDbEntity
  8
M0
 62
     7
100
AcDbLine
 10
296.844863
 20
860.728039
 11
286.844863
 21
860.728039
  0
LINE
  5
38F
100
AcDbEntity
  8
M0
 62
     7
100
AcDbLine
 10
294.844863
 20
849.728039
 11
286.844863
 21
849.728039
  0
LINE
  5
390
100
AcDbEntity
  8
M0
 62
     7
100
AcDbLine
 10
293.594863
 20
845.728039
 11
293.594863
 21
849.728039
  0
LINE
  5
391
100
AcDbEntity
  8
M0
 62
     7
100
AcDbLine
 10
288.094863
 20
845.728039
 11
288.094863
 21
849.728039
  0
ARC
  5
392
100
AcDbEntity
  8
M0
 62
     7
100
AcDbCircle
 10
290.844863
 20
845.728039
 40
2.75
100
AcDbArc
 50
-180.00002
 51
0.0
  0
LINE
  5
393
100
AcDbEntity
  8
M0
 62
     7
100
AcDbLine
 10
293.594863
 20
855.228039
 11
293.594863
 21
859.228039
  0
LINE
  5
394
100
AcDbEntity
  8
M0
 62
     7
100
AcDbLine
 10
288.094863
 20
855.228039
 11
288.094863
 21
859.228039
  0
ARC
  5
395
100
AcDbEntity
  8
M0
 62
     7
100
AcDbCircle
 10
290.844863
 20
855.228039
 40
2.75
100
AcDbArc
 50
-180.0
 51
0.0
  0
ARC
  5
396
100
AcDbEntity
  8
M0
 62
     7
100
AcDbCircle
 10
293.844863
 20
841.728039
 40
1.0
100
AcDbArc
 50
-90.0
 51
0.0
  0
LINE
  5
397
100
AcDbEntity
  8
M0
 62
     7
100
AcDbLine
 10
293.844863
 20
840.728039
 11
287.844863
 21
840.728039
  0
ARC
  5
398
100
AcDbEntity
  8
M0
 62
     7
100
AcDbCircle
 10
287.844863
 20
841.728039
 40
1.0
100
AcDbArc
 50
180.0
 51
270.0
  0
LINE
  5
399
100
AcDbEntity
  8
M0
 62
     7
100
AcDbLine
 10
296.844863
 20
851.728039
 11
295.344863
 21
851.728039
  0
ARC
  5
39A
100
AcDbEntity
  8
M0
 62
     7
100
AcDbCircle
 10
295.344863
 20
851.228039
 40
0.5
100
AcDbArc
 50
89.998251
 51
180.0
  0
LINE
  5
39B
100
AcDbEntity
  8
M0
 62
     7
100
AcDbLine
 10
294.844863
 20
860.228039
 11
294.844863
 21
841.728039
  0
ARC
  5
39C
100
AcDbEntity
  8
M0
 62
     7
100
AcDbCircle
 10
295.344863
 20
860.228039
 40
0.5
100
AcDbArc
 50
89.998251
 51
180.0
  0
CIRCLE
  5
39D
100
AcDbEntity
  8
M0
 62
     7
100
AcDbCircle
 10
290.844863
 20
815.228039
 40
2.0
  0
LINE
  5
39E
100
AcDbEntity
  8
M0
 62
     7
100
AcDbLine
 10
296.844863
 20
809.728039
 11
286.844863
 21
809.728039
  0
LINE
  5
39F
100
AcDbEntity
  8
M0
 62
     7
100
AcDbLine
 10
294.844863
 20
820.728039
 11
286.844863
 21
820.728039
  0
LINE
  5
3A0
100
AcDbEntity
  8
M0
 62
     7
100
AcDbLine
 10
293.594863
 20
824.728039
 11
293.594863
 21
820.728039
  0
ARC
  5
3A1
100
AcDbEntity
  8
M0
 62
     7
100
AcDbCircle
 10
290.844863
 20
824.728039
 40
2.75
100
AcDbArc
 50
0.0
 51
179.99996
  0
LINE
  5
3A2
100
AcDbEntity
  8
M0
 62
     7
100
AcDbLine
 10
293.594863
 20
815.228039
 11
293.594863
 21
811.228039
  0
ARC
  5
3A3
100
AcDbEntity
  8
M0
 62
     7
100
AcDbCircle
 10
290.844863
 20
815.228039
 40
2.75
100
AcDbArc
 50
0.0
 51
179.999682
  0
ARC
  5
3A4
100
AcDbEntity
  8
M0
 62
     7
100
AcDbCircle
 10
293.844863
 20
828.728039
 40
1.0
100
AcDbArc
 50
0.0
 51
89.999126
  0
LINE
  5
3A5
100
AcDbEntity
  8
M0
 62
     7
100
AcDbLine
 10
293.844863
 20
829.728039
 11
287.844863
 21
829.728039
  0
LINE
  5
3A6
100
AcDbEntity
  8
M0
 62
     7
100
AcDbLine
 10
296.844863
 20
818.728039
 11
295.344863
 21
818.728039
  0
ARC
  5
3A7
100
AcDbEntity
  8
M0
 62
     7
100
AcDbCircle
 10
295.344863
 20
819.228039
 40
0.5
100
AcDbArc
 50
179.998251
 51
270.0
  0
LINE
  5
3A8
100
AcDbEntity
  8
M0
 62
     7
100
AcDbLine
 10
294.844863
 20
810.228039
 11
294.844863
 21
828.728039
  0
ARC
  5
3A9
100
AcDbEntity
  8
M0
 62
     7
100
AcDbCircle
 10
295.344863
 20
810.228039
 40
0.5
100
AcDbArc
 50
179.998251
 51
270.0
  0
ARC
  5
3AA
100
AcDbEntity
  8
M0
 62
     7
100
AcDbCircle
 10
287.844863
 20
828.728039
 40
1.0
100
AcDbArc
 50
89.999126
 51
179.999945
  0
LINE
  5
3AB
100
AcDbEntity
  8
M0
 62
     7
100
AcDbLine
 10
288.094863
 20
824.728039
 11
288.094863
 21
820.728039
  0
LINE
  5
3AC
100
AcDbEntity
  8
M0
 62
     7
100
AcDbLine
 10
288.094863
 20
815.228039
 11
288.094863
 21
811.228039
  0
LINE
  5
3AD
100
AcDbEntity
  8
M0
 62
     7
100
AcDbLine
 10
364.344856
 20
760.228055
 11
388.135177
 21
760.228055
  0
LINE
  5
3AE
100
AcDbEntity
  8
M0
 62
     7
100
AcDbLine
 10
409.094848
 20
760.228055
 11
418.844848
 21
760.228055
  0
LINE
  5
3AF
100
AcDbEntity
  8
M0
 62
     7
100
AcDbLine
 10
315.554534
 20
760.228055
 11
339.344863
 21
760.228055
  0
LINE
  5
3B0
100
AcDbEntity
  8
M0
 62
     7
100
AcDbLine
 10
364.344856
 20
921.728039
 11
365.844856
 21
921.728039
  0
LINE
  5
3B1
100
AcDbEntity
  8
M0
 62
     7
100
AcDbLine
 10
339.344863
 20
910.228039
 11
315.554534
 21
910.228039
  0
LINE
  5
3B2
100
AcDbEntity
  8
M0
 62
     7
100
AcDbLine
 10
284.844863
 20
760.228146
 11
294.594863
 21
760.228146
  0
LINE
  5
3B3
100
AcDbEntity
  8
M0
 62
     7
100
AcDbLine
 10
339.844863
 20
910.227536
 11
337.344863
 21
910.227536
  0
ARC
  5
3B4
100
AcDbEntity
  8
M0
 62
     7
100
AcDbCircle
 10
284.844863
 20
762.228146
 40
2.0
100
AcDbArc
 50
179.999563
 51
270.0
  0
LINE
  5
3B5
100
AcDbEntity
  8
M0
 62
     7
100
AcDbLine
 10
339.344863
 20
921.727734
 11
314.344863
 21
921.727643
  0
LINE
  5
3B6
100
AcDbEntity
  8
M0
 62
     7
100
AcDbLine
 10
336.844863
 20
919.728024
 11
336.844863
 21
910.727292
  0
LINE
  5
3B7
100
AcDbEntity
  8
M0
 62
     7
100
AcDbLine
 10
328.844863
 20
921.227536
 11
328.844863
 21
910.727292
  0
LINE
  5
3B8
100
AcDbEntity
  8
M0
 62
     7
100
AcDbLine
 10
314.844863
 20
910.728024
 11
322.844863
 21
910.728024
  0
LINE
  5
3B9
100
AcDbEntity
  8
M0
 62
     7
100
AcDbLine
 10
328.344863
 20
910.227536
 11
323.344863
 21
910.227536
  0
LINE
  5
3BA
100
AcDbEntity
  8
M0
 62
     7
100
AcDbLine
 10
314.844863
 20
919.228024
 11
322.844863
 21
919.228024
  0
ARC
  5
3BB
100
AcDbEntity
  8
M0
 62
     7
100
AcDbCircle
 10
337.344863
 20
910.727292
 40
0.5
100
AcDbArc
 50
180.0
 51
270.0
  0
ARC
  5
3BC
100
AcDbEntity
  8
M0
 62
     7
100
AcDbCircle
 10
328.344863
 20
910.727292
 40
0.5
100
AcDbArc
 50
270.0
 51
360.0
  0
LINE
  5
3BD
100
AcDbEntity
  8
M0
 62
     7
100
AcDbLine
 10
322.844863
 20
921.227536
 11
322.844863
 21
910.727292
  0
LINE
  5
3BE
100
AcDbEntity
  8
M0
 62
     7
100
AcDbLine
 10
314.844863
 20
919.228024
 11
314.844863
 21
910.228131
  0
LINE
  5
3BF
100
AcDbEntity
  8
M0
 62
     7
100
AcDbLine
 10
328.844863
 20
910.728024
 11
336.844863
 21
910.728024
  0
LINE
  5
3C0
100
AcDbEntity
  8
M0
 62
     7
100
AcDbLine
 10
328.844863
 20
919.228024
 11
336.844863
 21
919.228024
  0
LINE
  5
3C1
100
AcDbEntity
  8
M0
 62
     7
100
AcDbLine
 10
324.844863
 20
921.227536
 11
324.844863
 21
920.228024
  0
LINE
  5
3C2
100
AcDbEntity
  8
M0
 62
     7
100
AcDbLine
 10
326.844863
 20
921.227536
 11
326.844863
 21
920.228024
  0
ARC
  5
3C3
100
AcDbEntity
  8
M0
 62
     7
100
AcDbCircle
 10
323.344863
 20
910.727292
 40
0.5
100
AcDbArc
 50
180.0
 51
270.0
  0
ARC
  5
3C4
100
AcDbEntity
  8
M0
 62
     7
100
AcDbCircle
 10
327.344863
 20
921.227536
 40
0.5
100
AcDbArc
 50
89.998251
 51
180.0
  0
ARC
  5
3C5
100
AcDbEntity
  8
M0
 62
     7
100
AcDbCircle
 10
323.344863
 20
921.227536
 40
0.5
100
AcDbArc
 50
89.998251
 51
180.0
  0
ARC
  5
3C6
100
AcDbEntity
  8
M0
 62
     7
100
AcDbCircle
 10
328.344863
 20
921.227536
 40
0.5
100
AcDbArc
 50
0.0
 51
89.998251
  0
ARC
  5
3C7
100
AcDbEntity
  8
M0
 62
     7
100
AcDbCircle
 10
324.344863
 20
921.227536
 40
0.5
100
AcDbArc
 50
0.0
 51
89.998251
  0
LINE
  5
3C8
100
AcDbEntity
  8
M0
 62
     7
100
AcDbLine
 10
321.594863
 20
914.728024
 11
321.594863
 21
910.728024
  0
LINE
  5
3C9
100
AcDbEntity
  8
M0
 62
     7
100
AcDbLine
 10
316.094863
 20
914.728024
 11
316.094863
 21
910.728024
  0
ARC
  5
3CA
100
AcDbEntity
  8
M0
 62
     7
100
AcDbCircle
 10
314.344863
 20
919.228024
 40
0.5
100
AcDbArc
 50
0.0
 51
89.998251
  0
LINE
  5
3CB
100
AcDbEntity
  8
M0
 62
     7
100
AcDbLine
 10
324.844863
 20
920.228024
 11
326.844863
 21
920.228024
  0
LINE
  5
3CC
100
AcDbEntity
  8
M0
 62
     7
100
AcDbLine
 10
418.844817
 20
760.228085
 11
409.094894
 21
760.2281
  0
LINE
  5
3CD
100
AcDbEntity
  8
M0
 62
     7
100
AcDbLine
 10
420.844909
 20
919.727292
 11
420.844817
 21
762.228085
  0
ARC
  5
3CE
100
AcDbEntity
  8
M0
 62
     7
100
AcDbCircle
 10
418.844817
 20
762.228085
 40
2.0
100
AcDbArc
 50
-90.000437
 51
0.0
  0
LINE
  5
3CF
100
AcDbEntity
  8
M0
 62
     7
100
AcDbLine
 10
364.344856
 20
921.72749
 11
389.344848
 21
921.727398
  0
ARC
  5
3D0
100
AcDbEntity
  8
M0
 62
     7
100
AcDbCircle
 10
418.844909
 20
919.727292
 40
2.0
100
AcDbArc
 50
0.0
 51
90.0
  0
LINE
  5
3D1
100
AcDbEntity
  8
M0
 62
     7
100
AcDbLine
 10
366.844933
 20
919.72778
 11
366.844933
 21
910.72778
  0
LINE
  5
3D2
100
AcDbEntity
  8
M0
 62
     7
100
AcDbLine
 10
374.844909
 20
919.227292
 11
374.844909
 21
910.228131
  0
LINE
  5
3D3
100
AcDbEntity
  8
M0
 62
     7
100
AcDbLine
 10
368.094909
 20
914.72778
 11
368.094909
 21
910.72778
  0
LINE
  5
3D4
100
AcDbEntity
  8
M0
 62
     7
100
AcDbLine
 10
373.594909
 20
914.72778
 11
373.594909
 21
910.72778
  0
ARC
  5
3D5
100
AcDbEntity
  8
M0
 62
     7
100
AcDbCircle
 10
370.844909
 20
914.72778
 40
2.75
100
AcDbArc
 50
0.0
 51
180.0
  0
CIRCLE
  5
3D6
100
AcDbEntity
  8
M0
 62
     7
100
AcDbCircle
 10
370.844909
 20
914.72778
 40
2.0
  0
LINE
  5
3D7
100
AcDbEntity
  8
M0
 62
     7
100
AcDbLine
 10
374.844909
 20
910.72778
 11
366.844933
 21
910.72778
  0
LINE
  5
3D8
100
AcDbEntity
  8
M0
 62
     7
100
AcDbLine
 10
374.844909
 20
919.22778
 11
366.844933
 21
919.22778
  0
LINE
  5
3D9
100
AcDbEntity
  8
M0
 62
     7
100
AcDbLine
 10
378.844909
 20
920.727536
 11
378.844909
 21
912.227536
  0
LINE
  5
3DA
100
AcDbEntity
  8
M0
 62
     7
100
AcDbLine
 10
378.344848
 20
910.227536
 11
388.134689
 21
910.227536
  0
ARC
  5
3DB
100
AcDbEntity
  8
M0
 62
     7
100
AcDbCircle
 10
380.844909
 20
912.227536
 40
2.0
100
AcDbArc
 50
180.0
 51
269.999563
  0
ARC
  5
3DC
100
AcDbEntity
  8
M0
 62
     7
100
AcDbCircle
 10
378.344848
 20
909.727536
 40
0.5
100
AcDbArc
 50
90.0
 51
180.0
  0
LINE
  5
3DD
100
AcDbEntity
  8
M0
 62
     7
100
AcDbLine
 10
375.344909
 20
919.727292
 11
378.344909
 21
919.727292
  0
ARC
  5
3DE
100
AcDbEntity
  8
M0
 62
     7
100
AcDbCircle
 10
375.344909
 20
919.227292
 40
0.5
100
AcDbArc
 50
90.0
 51
180.0
  0
ARC
  5
3DF
100
AcDbEntity
  8
M0
 62
     7
100
AcDbCircle
 10
378.344909
 20
919.227292
 40
0.5
100
AcDbArc
 50
0.0
 51
90.0
  0
CIRCLE
  5
3E0
100
AcDbEntity
  8
M0
 62
     7
100
AcDbCircle
 10
318.844863
 20
914.728024
 40
2.0
  0
ARC
  5
3E1
100
AcDbEntity
  8
M0
 62
     7
100
AcDbCircle
 10
318.844863
 20
914.728024
 40
2.75
100
AcDbArc
 50
0.0
 51
180.0
  0
LINE
  5
3E2
100
AcDbEntity
  8
M0
  6
DASHDOT
 62
     7
100
AcDbLine
 10
351.844863
 20
705.068905
 11
351.844863
 21
958.365292
  0
LINE
  5
3E3
100
AcDbEntity
  8
M0
  6
DASHDOT
 62
     7
100
AcDbLine
 10
283.844833
 20
835.228131
 11
428.344909
 21
835.228131
  0
ARC
  5
3E4
100
AcDbEntity
  8
M0
 62
     7
100
AcDbCircle
 10
377.844909
 20
920.727536
 40
1.0
100
AcDbArc
 50
0.0
 51
90.0
  0
LINE
  5
3E5
100
AcDbEntity
  8
M0
 62
     7
100
AcDbLine
 10
388.135192
 20
760.228116
 11
364.344856
 21
760.228146
  0
LINE
  5
3E6
100
AcDbEntity
  8
M0
 62
     7
100
AcDbLine
 10
315.554534
 20
760.228146
 11
339.344863
 21
760.228146
  0
LINE
  5
3E7
100
AcDbEntity
  8
M0
 62
     7
100
AcDbLine
 10
414.344848
 20
921.727307
 11
418.844909
 21
921.727292
  0
LINE
  5
3E8
100
AcDbEntity
  8
M0
 62
     7
100
AcDbLine
 10
364.344835
 20
710.228
 11
364.344818
 21
760.22807
  0
LINE
  5
3E9
100
AcDbEntity
  8
M0
 62
     7
100
AcDbLine
 10
361.844817
 20
764.72807
 11
364.344818
 21
760.22807
  0
LINE
  5
3EA
100
AcDbEntity
  8
M0
 62
     7
100
AcDbLine
 10
341.844818
 20
764.728055
 11
339.344819
 21
760.228055
  0
LINE
  5
3EB
100
AcDbEntity
  8
M0
 62
     7
100
AcDbLine
 10
339.344819
 20
760.228055
 11
339.344836
 21
710.228031
  0
LINE
  5
3EC
100
AcDbEntity
  8
M0
 62
     7
100
AcDbLine
 10
341.844816
 20
770.228055
 11
341.844818
 21
764.728055
  0
LINE
  5
3ED
100
AcDbEntity
  8
M0
 62
     7
100
AcDbLine
 10
361.844815
 20
770.22807
 11
361.844817
 21
764.72807
  0
CIRCLE
  5
3EE
100
AcDbEntity
  8
M0
 62
     7
100
AcDbCircle
 10
351.844823
 20
747.228039
 40
5.0
  0
LINE
  5
3EF
100
AcDbEntity
  8
M0
 62
     7
100
AcDbLine
 10
359.844849
 20
825.228085
 11
343.844863
 21
825.228085
  0
LINE
  5
3F0
100
AcDbEntity
  8
M0
 62
     7
100
AcDbLine
 10
359.844849
 20
829.228085
 11
359.844849
 21
825.228085
  0
LINE
  5
3F1
100
AcDbEntity
  8
M0
 62
     7
100
AcDbLine
 10
343.844863
 20
829.228085
 11
343.844863
 21
825.228085
  0
LINE
  5
3F2
100
AcDbEntity
  8
M0
 62
     7
100
AcDbLine
 10
343.54486
 20
829.228085
 11
343.844863
 21
829.228085
  0
LINE
  5
3F3
100
AcDbEntity
  8
M0
 62
     7
100
AcDbLine
 10
360.144849
 20
845.528134
 11
355.844863
 21
845.528134
  0
LINE
  5
3F4
100
AcDbEntity
  8
M0
 62
     7
100
AcDbLine
 10
363.144849
 20
842.528134
 11
363.144849
 21
832.228085
  0
LINE
  5
3F5
100
AcDbEntity
  8
M0
 62
     7
100
AcDbLine
 10
340.54486
 20
842.528134
 11
340.54486
 21
832.228085
  0
ARC
  5
3F6
100
AcDbEntity
  8
M0
 62
     7
100
AcDbCircle
 10
360.144849
 20
842.528134
 40
3.0
100
AcDbArc
 50
0.0
 51
90.0
  0
ARC
  5
3F7
100
AcDbEntity
  8
M0
 62
     7
100
AcDbCircle
 10
343.54486
 20
842.528134
 40
3.0
100
AcDbArc
 50
90.0
 51
179.999982
  0
ARC
  5
3F8
100
AcDbEntity
  8
M0
 62
     7
100
AcDbCircle
 10
343.54486
 20
832.228085
 40
3.0
100
AcDbArc
 50
179.999964
 51
270.0
  0
ARC
  5
3F9
100
AcDbEntity
  8
M0
 62
     7
100
AcDbCircle
 10
360.144849
 20
832.228085
 40
3.0
100
AcDbArc
 50
270.0
 51
360.0
  0
LINE
  5
3FA
100
AcDbEntity
  8
M0
 62
     7
100
AcDbLine
 10
355.844863
 20
848.228085
 11
354.594863
 21
848.228085
  0
LINE
  5
3FB
100
AcDbEntity
  8
M0
 62
     7
100
AcDbLine
 10
353.594863
 20
851.228085
 11
350.094863
 21
851.228085
  0
LINE
  5
3FC
100
AcDbEntity
  8
M0
 62
     7
100
AcDbLine
 10
354.594863
 20
850.228085
 11
354.594863
 21
848.228085
  0
LINE
  5
3FD
100
AcDbEntity
  8
M0
 62
     7
100
AcDbLine
 10
349.094863
 20
850.228085
 11
349.094863
 21
848.228085
  0
LINE
  5
3FE
100
AcDbEntity
  8
M0
 62
     7
100
AcDbLine
 10
355.844863
 20
848.228085
 11
355.844863
 21
845.528134
  0
LINE
  5
3FF
100
AcDbEntity
  8
M0
 62
     7
100
AcDbLine
 10
347.844863
 20
848.228085
 11
347.844863
 21
845.528134
  0
ARC
  5
400
100
AcDbEntity
  8
M0
 62
     7
100
AcDbCircle
 10
353.594863
 20
850.228085
 40
1.0
100
AcDbArc
 50
0.0
 51
90.0
  0
ARC
  5
401
100
AcDbEntity
  8
M0
 62
     7
100
AcDbCircle
 10
350.094863
 20
850.228085
 40
1.0
100
AcDbArc
 50
90.0
 51
180.0
  0
LINE
  5
402
100
AcDbEntity
  8
M0
 62
     7
100
AcDbLine
 10
359.844849
 20
829.228085
 11
360.144849
 21
829.228085
  0
LINE
  5
403
100
AcDbEntity
  8
M0
 62
     7
100
AcDbLine
 10
347.844863
 20
845.528134
 11
343.54486
 21
845.528134
  0
LINE
  5
404
100
AcDbEntity
  8
M0
 62
     7
100
AcDbLine
 10
349.094863
 20
848.228085
 11
347.844863
 21
848.228085
  0
LINE
  5
405
100
AcDbEntity
  8
M0
  6
DIVIDE
 62
     7
100
AcDbLine
 10
420.844848
 20
862.728085
 11
432.844848
 21
862.728085
  0
LINE
  5
406
100
AcDbEntity
  8
M0
  6
DIVIDE
 62
     7
100
AcDbLine
 10
432.844848
 20
862.728085
 11
432.844848
 21
807.728085
  0
LINE
  5
407
100
AcDbEntity
  8
M0
  6
DIVIDE
 62
     7
100
AcDbLine
 10
420.844848
 20
807.728085
 11
432.844848
 21
807.728085
  0
LINE
  5
408
100
AcDbEntity
  8
M0
 62
     7
100
AcDbLine
 10
348.844863
 20
832.977841
 11
354.844863
 21
832.977841
  0
LINE
  5
409
100
AcDbEntity
  8
M0
 62
     7
100
AcDbLine
 10
354.844863
 20
832.977841
 11
354.844863
 21
837.477841
  0
LINE
  5
40A
100
AcDbEntity
  8
M0
 62
     7
100
AcDbLine
 10
354.844863
 20
837.477841
 11
348.844863
 21
837.477841
  0
LINE
  5
40B
100
AcDbEntity
  8
M0
 62
     7
100
AcDbLine
 10
348.844863
 20
837.477841
 11
348.844863
 21
832.977841
  0
CIRCLE
  5
40C
100
AcDbEntity
  8
M0
 62
     7
100
AcDbCircle
 10
401.844848
 20
747.228024
 40
5.0
  0
LINE
  5
40D
100
AcDbEntity
  8
M0
 62
     7
100
AcDbLine
 10
389.344848
 20
733.728039
 11
389.344848
 21
759.728314
  0
LINE
  5
40E
100
AcDbEntity
  8
M0
 62
     7
100
AcDbLine
 10
380.070647
 20
770.228039
 11
389.344848
 21
758.728039
  0
LINE
  5
40F
100
AcDbEntity
  8
M0
 62
     7
100
AcDbLine
 10
414.344848
 20
733.728039
 11
414.344848
 21
754.228039
  0
LINE
  5
410
100
AcDbEntity
  8
M0
 62
     7
100
AcDbLine
 10
400.344848
 20
770.228039
 11
409.532108
 21
759.728314
  0
LINE
  5
411
100
AcDbEntity
  8
M0
 62
     7
100
AcDbLine
 10
323.619064
 20
770.228039
 11
314.344863
 21
758.728039
  0
LINE
  5
412
100
AcDbEntity
  8
M0
 62
     7
100
AcDbLine
 10
314.344863
 20
710.228061
 11
314.344863
 21
759.727932
  0
CIRCLE
  5
413
100
AcDbEntity
  8
M0
 62
     7
100
AcDbCircle
 10
301.844878
 20
747.228024
 40
5.0
  0
LINE
  5
414
100
AcDbEntity
  8
M0
 62
     7
100
AcDbLine
 10
289.344863
 20
710.228092
 11
289.344863
 21
759.727932
  0
LINE
  5
415
100
AcDbEntity
  8
M0
 62
     7
100
AcDbLine
 10
303.344863
 20
770.228039
 11
294.15727
 21
759.727932
  0
CIRCLE
  5
416
100
AcDbEntity
  8
M0
 62
     7
100
AcDbCircle
 10
401.844772
 20
923.228055
 40
5.0
  0
LINE
  5
417
100
AcDbEntity
  8
M0
 62
     7
100
AcDbLine
 10
389.344787
 20
936.728055
 11
389.344802
 21
911.728055
  0
LINE
  5
418
100
AcDbEntity
  8
M0
 62
     7
100
AcDbLine
 10
380.070602
 20
900.228039
 11
389.344802
 21
911.728055
  0
LINE
  5
419
100
AcDbEntity
  8
M0
 62
     7
100
AcDbLine
 10
414.344787
 20
936.72807
 11
414.344802
 21
916.22807
  0
LINE
  5
41A
100
AcDbEntity
  8
M0
 62
     7
100
AcDbLine
 10
400.344802
 20
900.228055
 11
409.5322
 21
910.727948
  0
LINE
  5
41B
100
AcDbEntity
  8
M0
 62
     7
100
AcDbLine
 10
323.619033
 20
900.228009
 11
314.344833
 21
911.728009
  0
LINE
  5
41C
100
AcDbEntity
  8
M0
 62
     7
100
AcDbLine
 10
314.344817
 20
936.728009
 11
314.344833
 21
910.727948
  0
LINE
  5
41D
100
AcDbEntity
  8
M0
 62
     7
100
AcDbLine
 10
314.344817
 20
936.728009
 11
289.344817
 21
936.727978
  0
CIRCLE
  5
41E
100
AcDbEntity
  8
M0
 62
     7
100
AcDbCircle
 10
301.844817
 20
923.227994
 40
5.0
  0
LINE
  5
41F
100
AcDbEntity
  8
M0
 62
     7
100
AcDbLine
 10
289.344817
 20
936.727978
 11
289.344818
 21
935.727948
  0
LINE
  5
420
100
AcDbEntity
  8
M0
 62
     7
100
AcDbLine
 10
303.344833
 20
900.227994
 11
294.157364
 21
910.727948
  0
LINE
  5
421
100
AcDbEntity
  8
M0
 62
     7
100
AcDbLine
 10
339.34482
 20
936.728039
 11
364.344819
 21
936.728055
  0
LINE
  5
422
100
AcDbEntity
  8
M0
 62
     7
100
AcDbLine
 10
364.344807
 20
979.228131
 11
364.344827
 21
910.228055
  0
LINE
  5
423
100
AcDbEntity
  8
M0
 62
     7
100
AcDbLine
 10
361.844829
 20
905.728055
 11
364.344827
 21
910.228055
  0
LINE
  5
424
100
AcDbEntity
  8
M0
 62
     7
100
AcDbLine
 10
341.84483
 20
905.728039
 11
339.344828
 21
910.228039
  0
LINE
  5
425
100
AcDbEntity
  8
M0
 62
     7
100
AcDbLine
 10
339.344828
 20
910.228039
 11
339.344808
 21
979.228131
  0
LINE
  5
426
100
AcDbEntity
  8
M0
 62
     7
100
AcDbLine
 10
341.844832
 20
900.228039
 11
341.84483
 21
905.728039
  0
LINE
  5
427
100
AcDbEntity
  8
M0
 62
     7
100
AcDbLine
 10
361.844831
 20
900.228055
 11
361.844829
 21
905.728055
  0
CIRCLE
  5
428
100
AcDbEntity
  8
M0
 62
     7
100
AcDbCircle
 10
351.844824
 20
923.228039
 40
5.0
  0
LINE
  5
429
100
AcDbEntity
  8
M0
 62
     7
100
AcDbLine
 10
351.844848
 20
913.428051
 11
343.358032
 21
918.328045
  0
LINE
  5
42A
100
AcDbEntity
  8
M0
 62
     7
100
AcDbLine
 10
343.358032
 20
918.328045
 11
343.358032
 21
928.128064
  0
LINE
  5
42B
100
AcDbEntity
  8
M0
 62
     7
100
AcDbLine
 10
343.358032
 20
928.128064
 11
351.844848
 21
933.028058
  0
LINE
  5
42C
100
AcDbEntity
  8
M0
 62
     7
100
AcDbLine
 10
351.844848
 20
933.028058
 11
360.332153
 21
928.128033
  0
LINE
  5
42D
100
AcDbEntity
  8
M0
 62
     7
100
AcDbLine
 10
360.332153
 20
928.128033
 11
360.332153
 21
918.328045
  0
LINE
  5
42E
100
AcDbEntity
  8
M0
 62
     7
100
AcDbLine
 10
360.332153
 20
918.328045
 11
351.844848
 21
913.428051
  0
CIRCLE
  5
42F
100
AcDbEntity
  8
M0
 62
     7
100
AcDbCircle
 10
351.844848
 20
923.228039
 40
5.0
  0
LINE
  5
430
100
AcDbEntity
  8
M0
  6
DASHDOT
 62
     7
100
AcDbLine
 10
362.332031
 20
923.227948
 11
341.35762
 21
923.227948
  0
LINE
  5
431
100
AcDbEntity
  8
M0
 62
     7
100
AcDbLine
 10
301.844848
 20
913.428051
 11
293.358032
 21
918.328045
  0
LINE
  5
432
100
AcDbEntity
  8
M0
 62
     7
100
AcDbLine
 10
293.358032
 20
918.328045
 11
293.358032
 21
928.128064
  0
LINE
  5
433
100
AcDbEntity
  8
M0
 62
     7
100
AcDbLine
 10
293.358032
 20
928.128064
 11
301.844848
 21
933.028058
  0
LINE
  5
434
100
AcDbEntity
  8
M0
 62
     7
100
AcDbLine
 10
301.844848
 20
933.028058
 11
310.332153
 21
928.128033
  0
LINE
  5
435
100
AcDbEntity
  8
M0
 62
     7
100
AcDbLine
 10
310.332153
 20
928.128033
 11
310.332153
 21
918.328045
  0
LINE
  5
436
100
AcDbEntity
  8
M0
 62
     7
100
AcDbLine
 10
310.332153
 20
918.328045
 11
301.844848
 21
913.428051
  0
CIRCLE
  5
437
100
AcDbEntity
  8
M0
 62
     7
100
AcDbCircle
 10
301.844848
 20
923.228039
 40
5.0
  0
LINE
  5
438
100
AcDbEntity
  8
M0
  6
DASHDOT
 62
     7
100
AcDbLine
 10
312.332031
 20
923.227948
 11
291.35762
 21
923.227948
  0
LINE
  5
439
100
AcDbEntity
  8
M0
  6
DASHDOT
 62
     7
100
AcDbLine
 10
301.844817
 20
934.715146
 11
301.844833
 21
913.740735
  0
LINE
  5
43A
100
AcDbEntity
  8
M0
 62
     7
100
AcDbLine
 10
401.844848
 20
913.428051
 11
393.358032
 21
918.328045
  0
LINE
  5
43B
100
AcDbEntity
  8
M0
 62
     7
100
AcDbLine
 10
393.358032
 20
918.328045
 11
393.358032
 21
928.128064
  0
LINE
  5
43C
100
AcDbEntity
  8
M0
 62
     7
100
AcDbLine
 10
393.358032
 20
928.128064
 11
401.844848
 21
933.028058
  0
LINE
  5
43D
100
AcDbEntity
  8
M0
 62
     7
100
AcDbLine
 10
401.844848
 20
933.028058
 11
410.332153
 21
928.128033
  0
LINE
  5
43E
100
AcDbEntity
  8
M0
 62
     7
100
AcDbLine
 10
410.332153
 20
928.128033
 11
410.332153
 21
918.328045
  0
LINE
  5
43F
100
AcDbEntity
  8
M0
 62
     7
100
AcDbLine
 10
410.332153
 20
918.328045
 11
401.844848
 21
913.428051
  0
CIRCLE
  5
440
100
AcDbEntity
  8
M0
 62
     7
100
AcDbCircle
 10
401.844848
 20
923.228039
 40
5.0
  0
LINE
  5
441
100
AcDbEntity
  8
M0
  6
DASHDOT
 62
     7
100
AcDbLine
 10
412.332031
 20
923.227948
 11
391.35762
 21
923.227948
  0
LINE
  5
442
100
AcDbEntity
  8
M0
  6
DASHDOT
 62
     7
100
AcDbLine
 10
401.844817
 20
934.715146
 11
401.844833
 21
913.740735
  0
LINE
  5
443
100
AcDbEntity
  8
M0
 62
     7
100
AcDbLine
 10
301.844848
 20
737.428036
 11
293.358032
 21
742.32803
  0
LINE
  5
444
100
AcDbEntity
  8
M0
 62
     7
100
AcDbLine
 10
293.358032
 20
742.32803
 11
293.358032
 21
752.128048
  0
LINE
  5
445
100
AcDbEntity
  8
M0
 62
     7
100
AcDbLine
 10
293.358032
 20
752.128048
 11
301.844848
 21
757.028042
  0
LINE
  5
446
100
AcDbEntity
  8
M0
 62
     7
100
AcDbLine
 10
301.844848
 20
757.028042
 11
310.332153
 21
752.128018
  0
LINE
  5
447
100
AcDbEntity
  8
M0
 62
     7
100
AcDbLine
 10
310.332153
 20
752.128018
 11
310.332153
 21
742.32803
  0
LINE
  5
448
100
AcDbEntity
  8
M0
 62
     7
100
AcDbLine
 10
310.332153
 20
742.32803
 11
301.844848
 21
737.428036
  0
CIRCLE
  5
449
100
AcDbEntity
  8
M0
 62
     7
100
AcDbCircle
 10
301.844848
 20
747.228024
 40
5.0
  0
LINE
  5
44A
100
AcDbEntity
  8
M0
  6
DASHDOT
 62
     7
100
AcDbLine
 10
312.332031
 20
747.227932
 11
291.35762
 21
747.227932
  0
LINE
  5
44B
100
AcDbEntity
  8
M0
  6
DASHDOT
 62
     7
100
AcDbLine
 10
301.844817
 20
756.715146
 11
301.844833
 21
735.740735
  0
LINE
  5
44C
100
AcDbEntity
  8
M0
 62
     7
100
AcDbLine
 10
351.844848
 20
737.428036
 11
343.358032
 21
742.32803
  0
LINE
  5
44D
100
AcDbEntity
  8
M0
 62
     7
100
AcDbLine
 10
343.358032
 20
742.32803
 11
343.358032
 21
752.128048
  0
LINE
  5
44E
100
AcDbEntity
  8
M0
 62
     7
100
AcDbLine
 10
343.358032
 20
752.128048
 11
351.844848
 21
757.028042
  0
LINE
  5
44F
100
AcDbEntity
  8
M0
 62
     7
100
AcDbLine
 10
351.844848
 20
757.028042
 11
360.332153
 21
752.128018
  0
LINE
  5
450
100
AcDbEntity
  8
M0
 62
     7
100
AcDbLine
 10
360.332153
 20
752.128018
 11
360.332153
 21
742.32803
  0
LINE
  5
451
100
AcDbEntity
  8
M0
 62
     7
100
AcDbLine
 10
360.332153
 20
742.32803
 11
351.844848
 21
737.428036
  0
CIRCLE
  5
452
100
AcDbEntity
  8
M0
 62
     7
100
AcDbCircle
 10
351.844848
 20
747.228024
 40
5.0
  0
LINE
  5
453
100
AcDbEntity
  8
M0
  6
DASHDOT
 62
     7
100
AcDbLine
 10
362.332031
 20
747.227932
 11
341.35762
 21
747.227932
  0
LINE
  5
454
100
AcDbEntity
  8
M0
 62
     7
100
AcDbLine
 10
401.844848
 20
737.428036
 11
393.358032
 21
742.32803
  0
LINE
  5
455
100
AcDbEntity
  8
M0
 62
     7
100
AcDbLine
 10
393.358032
 20
742.32803
 11
393.358032
 21
752.128048
  0
LINE
  5
456
100
AcDbEntity
  8
M0
 62
     7
100
AcDbLine
 10
393.358032
 20
752.128048
 11
401.844848
 21
757.028042
  0
LINE
  5
457
100
AcDbEntity
  8
M0
 62
     7
100
AcDbLine
 10
401.844848
 20
757.028042
 11
410.332153
 21
752.128018
  0
LINE
  5
458
100
AcDbEntity
  8
M0
 62
     7
100
AcDbLine
 10
410.332153
 20
752.128018
 11
410.332153
 21
742.32803
  0
LINE
  5
459
100
AcDbEntity
  8
M0
 62
     7
100
AcDbLine
 10
410.332153
 20
742.32803
 11
401.844848
 21
737.428036
  0
CIRCLE
  5
45A
100
AcDbEntity
  8
M0
 62
     7
100
AcDbCircle
 10
401.844848
 20
747.228024
 40
5.0
  0
LINE
  5
45B
100
AcDbEntity
  8
M0
  6
DASHDOT
 62
     7
100
AcDbLine
 10
412.332031
 20
747.227932
 11
391.35762
 21
747.227932
  0
LINE
  5
45C
100
AcDbEntity
  8
M0
  6
DASHDOT
 62
     7
100
AcDbLine
 10
401.844817
 20
756.715146
 11
401.844833
 21
735.740735
  0
LINE
  5
45D
100
AcDbEntity
  8
M0
 62
     7
100
AcDbLine
 10
282.844863
 20
910.727948
 11
282.844863
 21
727.228123
  0
ARC
  5
45E
100
AcDbEntity
  8
M0
 62
     7
100
AcDbCircle
 10
376.844848
 20
940.228039
 40
4.5
100
AcDbArc
 50
138.189876
 51
401.809984
  0
ARC
  5
45F
100
AcDbEntity
  8
M0
 62
     7
100
AcDbCircle
 10
326.844863
 20
940.228039
 40
4.5
100
AcDbArc
 50
138.188833
 51
401.811027
  0
LINE
  5
460
100
AcDbEntity
  8
M0
 62
     7
100
AcDbLine
 10
414.344836
 20
720.228055
 11
415.844848
 21
720.228055
  0
ARC
  5
461
100
AcDbEntity
  8
M0
 62
     7
100
AcDbCircle
 10
376.844848
 20
730.228055
 40
4.5
100
AcDbArc
 50
318.192883
 51
581.807257
  0
ARC
  5
462
100
AcDbEntity
  8
M0
 62
     7
100
AcDbCircle
 10
326.844863
 20
730.228055
 40
4.5
100
AcDbArc
 50
318.19184
 51
581.8083
  0
ARC
  5
463
100
AcDbEntity
  8
M0
 62
     7
100
AcDbCircle
 10
536.366653
 20
908.228131
 40
2.0
100
AcDbArc
 50
89.999563
 51
180.0
  0
LINE
  5
464
100
AcDbEntity
  8
M0
 62
     7
100
AcDbLine
 10
534.366653
 20
908.228131
 11
534.366653
 21
762.228146
  0
ARC
  5
465
100
AcDbEntity
  8
M0
 62
     7
100
AcDbCircle
 10
536.366653
 20
762.228146
 40
2.0
100
AcDbArc
 50
179.999563
 51
270.0
  0
ARC
  5
466
100
AcDbEntity
  8
M0
 62
     7
100
AcDbCircle
 10
536.366653
 20
898.228131
 40
2.0
100
AcDbArc
 50
89.999563
 51
180.0
  0
ARC
  5
467
100
AcDbEntity
  8
M0
 62
     7
100
AcDbCircle
 10
536.366653
 20
772.228146
 40
2.0
100
AcDbArc
 50
179.999563
 51
270.0
  0
LINE
  5
468
100
AcDbEntity
  8
M0
 62
     7
100
AcDbLine
 10
536.366653
 20
910.228131
 11
615.966644
 21
910.228131
  0
LINE
  5
469
100
AcDbEntity
  8
M0
 62
     7
100
AcDbLine
 10
536.366653
 20
900.228131
 11
615.966644
 21
900.228131
  0
LINE
  5
46A
100
AcDbEntity
  8
M0
 62
     7
100
AcDbLine
 10
536.366653
 20
760.228146
 11
615.966644
 21
760.228146
  0
LINE
  5
46B
100
AcDbEntity
  8
M0
 62
     7
100
AcDbLine
 10
536.366653
 20
770.228146
 11
615.966644
 21
770.228146
  0
LINE
  5
46C
100
AcDbEntity
  8
M0
 62
     7
100
AcDbLine
 10
615.966644
 20
760.228146
 11
615.966644
 21
770.228146
  0
LINE
  5
46D
100
AcDbEntity
  8
M0
 62
     7
100
AcDbLine
 10
615.966644
 20
900.228131
 11
615.966644
 21
910.228131
  0
LINE
  5
46E
100
AcDbEntity
  8
M0
 62
     7
100
AcDbLine
 10
587.966659
 20
838.978131
 11
587.966659
 21
831.478131
  0
ARC
  5
46F
100
AcDbEntity
  8
M0
 62
     7
100
AcDbCircle
 10
582.466659
 20
830.478131
 40
1.0
100
AcDbArc
 50
89.999126
 51
179.999945
  0
LINE
  5
470
100
AcDbEntity
  8
M0
 62
     7
100
AcDbLine
 10
582.466659
 20
831.478131
 11
587.966659
 21
831.478131
  0
LINE
  5
471
100
AcDbEntity
  8
M0
 62
     7
100
AcDbLine
 10
582.466659
 20
838.978131
 11
587.966659
 21
838.978131
  0
LINE
  5
472
100
AcDbEntity
  8
M0
 62
     7
100
AcDbLine
 10
655.966644
 20
921.728131
 11
643.466644
 21
921.728131
  0
ARC
  5
473
100
AcDbEntity
  8
M0
 62
     7
100
AcDbCircle
 10
643.466644
 20
920.728131
 40
1.0
100
AcDbArc
 50
89.999126
 51
180.0
  0
LINE
  5
474
100
AcDbEntity
  8
M0
 62
     7
100
AcDbLine
 10
642.466644
 20
920.728131
 11
642.466644
 21
872.228131
  0
ARC
  5
475
100
AcDbEntity
  8
M0
 62
     7
100
AcDbCircle
 10
640.466644
 20
872.228131
 40
2.0
100
AcDbArc
 50
270.0
 51
360.0
  0
LINE
  5
476
100
AcDbEntity
  8
M0
 62
     7
100
AcDbLine
 10
632.466644
 20
870.228131
 11
640.466644
 21
870.228131
  0
ARC
  5
477
100
AcDbEntity
  8
M0
 62
     7
100
AcDbCircle
 10
632.466644
 20
869.228131
 40
1.0
100
AcDbArc
 50
89.999126
 51
180.0
  0
ARC
  5
478
100
AcDbEntity
  8
M0
 62
     7
100
AcDbCircle
 10
583.466659
 20
850.728131
 40
2.0
100
AcDbArc
 50
89.999563
 51
179.999973
  0
LINE
  5
479
100
AcDbEntity
  8
M0
 62
     7
100
AcDbLine
 10
601.466659
 20
850.228131
 11
605.466644
 21
850.228131
  0
LINE
  5
47A
100
AcDbEntity
  8
M0
 62
     7
100
AcDbLine
 10
583.466659
 20
852.728131
 11
601.466659
 21
852.728131
  0
LINE
  5
47B
100
AcDbEntity
  8
M0
 62
     7
100
AcDbLine
 10
601.466659
 20
852.728131
 11
601.466659
 21
850.228131
  0
LINE
  5
47C
100
AcDbEntity
  8
M0
 62
     7
100
AcDbLine
 10
605.466644
 20
852.829159
 11
605.466644
 21
850.228131
  0
ARC
  5
47D
100
AcDbEntity
  8
M0
 62
     7
100
AcDbCircle
 10
604.466644
 20
857.728131
 40
5.0
100
AcDbArc
 50
281.536771
 51
360.0
  0
LINE
  5
47E
100
AcDbEntity
  8
M0
 62
     7
100
AcDbLine
 10
609.466644
 20
860.728131
 11
609.466644
 21
857.728131
  0
ARC
  5
47F
100
AcDbEntity
  8
M0
 62
     7
100
AcDbCircle
 10
611.466644
 20
860.728131
 40
2.0
100
AcDbArc
 50
89.999563
 51
180.0
  0
LINE
  5
480
100
AcDbEntity
  8
M0
 62
     7
100
AcDbLine
 10
624.466644
 20
861.728131
 11
631.466644
 21
861.728131
  0
LINE
  5
481
100
AcDbEntity
  8
M0
 62
     7
100
AcDbLine
 10
623.466644
 20
862.728131
 11
624.466644
 21
861.728131
  0
LINE
  5
482
100
AcDbEntity
  8
M0
 62
     7
100
AcDbLine
 10
631.466644
 20
869.228131
 11
631.466644
 21
861.728131
  0
LINE
  5
483
100
AcDbEntity
  8
M0
 62
     7
100
AcDbLine
 10
611.466644
 20
862.728131
 11
623.466644
 21
862.728131
  0
LINE
  5
484
100
AcDbEntity
  8
M0
 62
     7
100
AcDbLine
 10
655.966644
 20
760.228146
 11
616.966644
 21
760.228146
  0
ARC
  5
485
100
AcDbEntity
  8
M0
 62
     7
100
AcDbCircle
 10
643.466644
 20
761.228146
 40
1.0
100
AcDbArc
 50
179.999126
 51
270.0
  0
LINE
  5
486
100
AcDbEntity
  8
M0
 62
     7
100
AcDbLine
 10
642.466644
 20
761.228146
 11
642.466644
 21
798.228131
  0
ARC
  5
487
100
AcDbEntity
  8
M0
 62
     7
100
AcDbCircle
 10
640.466644
 20
798.228131
 40
2.0
100
AcDbArc
 50
0.0
 51
89.999563
  0
LINE
  5
488
100
AcDbEntity
  8
M0
 62
     7
100
AcDbLine
 10
632.466644
 20
800.228131
 11
640.466644
 21
800.228131
  0
ARC
  5
489
100
AcDbEntity
  8
M0
 62
     7
100
AcDbCircle
 10
632.466644
 20
801.228131
 40
1.0
100
AcDbArc
 50
179.999126
 51
270.0
  0
ARC
  5
48A
100
AcDbEntity
  8
M0
 62
     7
100
AcDbCircle
 10
583.466659
 20
819.728131
 40
2.0
100
AcDbArc
 50
179.999945
 51
270.0
  0
LINE
  5
48B
100
AcDbEntity
  8
M0
 62
     7
100
AcDbLine
 10
601.466659
 20
820.228131
 11
605.466644
 21
820.228131
  0
LINE
  5
48C
100
AcDbEntity
  8
M0
 62
     7
100
AcDbLine
 10
583.466659
 20
817.728131
 11
601.466659
 21
817.728131
  0
LINE
  5
48D
100
AcDbEntity
  8
M0
 62
     7
100
AcDbLine
 10
601.466659
 20
817.728131
 11
601.466659
 21
820.228131
  0
LINE
  5
48E
100
AcDbEntity
  8
M0
 62
     7
100
AcDbLine
 10
605.466644
 20
817.627118
 11
605.466644
 21
820.228131
  0
ARC
  5
48F
100
AcDbEntity
  8
M0
 62
     7
100
AcDbCircle
 10
604.466644
 20
812.728131
 40
5.0
100
AcDbArc
 50
0.0
 51
78.462886
  0
LINE
  5
490
100
AcDbEntity
  8
M0
 62
     7
100
AcDbLine
 10
609.466644
 20
809.728131
 11
609.466644
 21
812.728131
  0
ARC
  5
491
100
AcDbEntity
  8
M0
 62
     7
100
AcDbCircle
 10
611.466644
 20
809.728131
 40
2.0
100
AcDbArc
 50
179.999563
 51
270.0
  0
LINE
  5
492
100
AcDbEntity
  8
M0
 62
     7
100
AcDbLine
 10
624.466644
 20
808.728131
 11
631.466644
 21
808.728131
  0
LINE
  5
493
100
AcDbEntity
  8
M0
 62
     7
100
AcDbLine
 10
623.466644
 20
807.728131
 11
624.466644
 21
808.728131
  0
LINE
  5
494
100
AcDbEntity
  8
M0
 62
     7
100
AcDbLine
 10
631.466644
 20
801.228131
 11
631.466644
 21
808.728131
  0
LINE
  5
495
100
AcDbEntity
  8
M0
 62
     7
100
AcDbLine
 10
611.466644
 20
807.728131
 11
623.466644
 21
807.728131
  0
LINE
  5
496
100
AcDbEntity
  8
M0
 62
     7
100
AcDbLine
 10
581.466659
 20
850.728131
 11
581.466659
 21
819.728131
  0
LINE
  5
497
100
AcDbEntity
  8
M0
 62
     7
100
AcDbLine
 10
655.966644
 20
760.228146
 11
655.966644
 21
812.728131
  0
ARC
  5
498
100
AcDbEntity
  8
M0
 62
     7
100
AcDbCircle
 10
582.466659
 20
839.978131
 40
1.0
100
AcDbArc
 50
180.0
 51
270.0
  0
LINE
  5
499
100
AcDbEntity
  8
M0
 62
     7
100
AcDbLine
 10
655.966644
 20
857.728131
 11
655.966644
 21
921.728131
  0
LINE
  5
49A
100
AcDbEntity
  8
M0
  6
DASHDOT
 62
     7
100
AcDbLine
 10
569.477813
 20
835.228131
 11
721.966689
 21
835.228131
  0
LINE
  5
49B
100
AcDbEntity
  8
M0
 62
     7
100
AcDbLine
 10
655.966644
 20
760.228131
 11
721.966644
 21
760.228131
  0
LINE
  5
49C
100
AcDbEntity
  8
M0
 62
     7
100
AcDbLine
 10
646.466644
 20
856.728131
 11
646.466644
 21
843.228131
  0
LINE
  5
49D
100
AcDbEntity
  8
M0
 62
     7
100
AcDbLine
 10
647.466644
 20
857.728131
 11
655.966644
 21
857.728131
  0
LINE
  5
49E
100
AcDbEntity
  8
M0
 62
     7
100
AcDbLine
 10
647.466644
 20
812.728131
 11
655.966644
 21
812.728131
  0
LINE
  5
49F
100
AcDbEntity
  8
M0
 62
     7
100
AcDbLine
 10
649.466644
 20
841.228131
 11
665.766448
 21
841.228131
  0
LINE
  5
4A0
100
AcDbEntity
  8
M0
 62
     7
100
AcDbLine
 10
649.466644
 20
829.228131
 11
665.766448
 21
829.228131
  0
LINE
  5
4A1
100
AcDbEntity
  8
M0
 62
     7
100
AcDbLine
 10
665.766448
 20
841.228131
 11
665.766448
 21
837.228131
  0
LINE
  5
4A2
100
AcDbEntity
  8
M0
 62
     7
100
AcDbLine
 10
664.766448
 20
836.228131
 11
664.766448
 21
834.228131
  0
LINE
  5
4A3
100
AcDbEntity
  8
M0
 62
     7
100
AcDbLine
 10
664.766448
 20
834.228131
 11
665.766448
 21
833.228131
  0
LINE
  5
4A4
100
AcDbEntity
  8
M0
 62
     7
100
AcDbLine
 10
664.766448
 20
836.228131
 11
665.766448
 21
837.228131
  0
LINE
  5
4A5
100
AcDbEntity
  8
M0
 62
     7
100
AcDbLine
 10
665.766448
 20
833.228131
 11
665.766448
 21
829.228131
  0
LINE
  5
4A6
100
AcDbEntity
  8
M0
 62
     7
100
AcDbLine
 10
647.466644
 20
842.228131
 11
648.466644
 21
842.228131
  0
LINE
  5
4A7
100
AcDbEntity
  8
M0
 62
     7
100
AcDbLine
 10
647.466644
 20
828.228131
 11
648.466644
 21
828.228131
  0
LINE
  5
4A8
100
AcDbEntity
  8
M0
 62
     7
100
AcDbLine
 10
646.466644
 20
827.228131
 11
646.466644
 21
813.728131
  0
LINE
  5
4A9
100
AcDbEntity
  8
M0
 62
     7
100
AcDbLine
 10
655.966644
 20
812.728131
 11
655.966644
 21
760.228131
  0
ARC
  5
4AA
100
AcDbEntity
  8
M0
 62
     7
100
AcDbCircle
 10
647.466644
 20
856.728131
 40
1.0
100
AcDbArc
 50
89.999126
 51
180.0
  0
ARC
  5
4AB
100
AcDbEntity
  8
M0
 62
     7
100
AcDbCircle
 10
647.466644
 20
813.728131
 40
1.0
100
AcDbArc
 50
179.999126
 51
270.0
  0
ARC
  5
4AC
100
AcDbEntity
  8
M0
 62
     7
100
AcDbCircle
 10
647.466644
 20
843.228131
 40
1.0
100
AcDbArc
 50
180.0
 51
270.0
  0
ARC
  5
4AD
100
AcDbEntity
  8
M0
 62
     7
100
AcDbCircle
 10
649.466644
 20
842.228131
 40
1.0
100
AcDbArc
 50
180.0
 51
270.0
  0
ARC
  5
4AE
100
AcDbEntity
  8
M0
 62
     7
100
AcDbCircle
 10
647.466644
 20
827.228131
 40
1.0
100
AcDbArc
 50
89.999126
 51
179.999945
  0
ARC
  5
4AF
100
AcDbEntity
  8
M0
 62
     7
100
AcDbCircle
 10
649.466644
 20
828.228131
 40
1.0
100
AcDbArc
 50
89.999126
 51
179.999945
  0
ARC
  5
4B0
100
AcDbEntity
  8
M0
 62
     7
100
AcDbCircle
 10
663.766448
 20
840.228131
 40
2.0
100
AcDbArc
 50
0.0
 51
30.001598
  0
ARC
  5
4B1
100
AcDbEntity
  8
M0
 62
     7
100
AcDbCircle
 10
663.766448
 20
830.228131
 40
2.0
100
AcDbArc
 50
329.998165
 51
360.0
  0
ARC
  5
4B2
100
AcDbEntity
  8
M0
 62
     7
100
AcDbCircle
 10
663.766448
 20
830.228131
 40
2.0
100
AcDbArc
 50
270.0
 51
329.998165
  0
LINE
  5
4B3
100
AcDbEntity
  8
M0
 62
     7
100
AcDbLine
 10
648.466644
 20
828.228131
 11
663.766448
 21
828.228131
  0
LINE
  5
4B4
100
AcDbEntity
  8
M0
 62
     7
100
AcDbLine
 10
648.466644
 20
842.228131
 11
663.766448
 21
842.228131
  0
ARC
  5
4B5
100
AcDbEntity
  8
M0
 62
     7
100
AcDbCircle
 10
663.766448
 20
840.228131
 40
2.0
100
AcDbArc
 50
30.001598
 51
89.999563
  0
LINE
  5
4B6
100
AcDbEntity
  8
M0
 62
     7
100
AcDbLine
 10
721.966644
 20
760.228131
 11
721.966644
 21
921.727734
  0
LINE
  5
4B7
100
AcDbEntity
  8
M0
 62
     7
100
AcDbLine
 10
655.966644
 20
921.727734
 11
655.966644
 21
857.728131
  0
LINE
  5
4B8
100
AcDbEntity
  8
M0
 62
     7
100
AcDbLine
 10
721.966644
 20
921.727978
 11
655.966644
 21
921.727978
  0
LINE
  5
4B9
100
AcDbEntity
  8
M0
 62
     7
100
AcDbLine
 10
615.966598
 20
909.228299
 11
615.966598
 21
862.728299
  0
LINE
  5
4BA
100
AcDbEntity
  8
M0
 62
     7
100
AcDbLine
 10
616.966598
 20
910.228299
 11
642.466598
 21
910.228299
  0
ARC
  5
4BB
100
AcDbEntity
  8
M0
 62
     7
100
AcDbCircle
 10
616.966598
 20
909.228299
 40
1.0
100
AcDbArc
 50
89.999126
 51
180.0
  0
ARC
  5
4BC
100
AcDbEntity
  8
M0
 62
     7
100
AcDbCircle
 10
616.966598
 20
761.228299
 40
1.0
100
AcDbArc
 50
179.999126
 51
269.986012
  0
LINE
  5
4BD
100
AcDbEntity
  8
M0
 62
     7
100
AcDbLine
 10
615.966598
 20
807.728299
 11
615.966598
 21
761.228299
  0
LINE
  5
4BE
100
AcDbEntity
  8
M0
 62
     7
100
AcDbLine
 10
635.966598
 20
840.228299
 11
635.966598
 21
830.228299
  0
LINE
  5
4BF
100
AcDbEntity
  8
M0
 62
     7
100
AcDbLine
 10
646.466598
 20
853.208523
 11
646.466598
 21
825.545681
  0
LINE
  5
4C0
100
AcDbEntity
  8
M0
 62
     7
100
AcDbLine
 10
637.966598
 20
828.228299
 11
646.466598
 21
828.228299
  0
LINE
  5
4C1
100
AcDbEntity
  8
M0
 62
     7
100
AcDbLine
 10
637.966598
 20
842.228299
 11
646.466598
 21
842.228299
  0
ARC
  5
4C2
100
AcDbEntity
  8
M0
 62
     7
100
AcDbCircle
 10
637.966598
 20
840.228299
 40
2.0
100
AcDbArc
 50
89.999563
 51
179.999973
  0
ARC
  5
4C3
100
AcDbEntity
  8
M0
 62
     7
100
AcDbCircle
 10
637.966598
 20
830.228299
 40
2.0
100
AcDbArc
 50
179.999945
 51
269.993006
  0
LINE
  5
4C4
100
AcDbEntity
  8
M0
 62
     7
100
AcDbLine
 10
621.766692
 20
936.728177
 11
621.766692
 21
910.228177
  0
LINE
  5
4C5
100
AcDbEntity
  8
M0
 62
     7
100
AcDbLine
 10
626.566695
 20
936.728177
 11
626.566695
 21
910.228177
  0
LINE
  5
4C6
100
AcDbEntity
  8
M0
 62
     7
100
AcDbLine
 10
621.766692
 20
936.728177
 11
626.566695
 21
936.728177
  0
LINE
  5
4C7
100
AcDbEntity
  8
M0
 62
     7
100
AcDbLine
 10
621.766692
 20
936.728177
 11
626.566695
 21
936.728177
  0
LINE
  5
4C8
100
AcDbEntity
  8
M0
 62
     7
100
AcDbLine
 10
621.766692
 20
733.728283
 11
626.566695
 21
733.728283
  0
LINE
  5
4C9
100
AcDbEntity
  8
M0
 62
     7
100
AcDbLine
 10
621.766692
 20
733.728283
 11
626.566695
 21
733.728283
  0
LINE
  5
4CA
100
AcDbEntity
  8
M0
 62
     7
100
AcDbLine
 10
621.766692
 20
733.728283
 11
621.766692
 21
760.228177
  0
LINE
  5
4CB
100
AcDbEntity
  8
M0
 62
     7
100
AcDbLine
 10
626.566695
 20
733.728283
 11
626.566695
 21
760.228177
  0
LINE
  5
4CC
100
AcDbEntity
  8
M0
 62
     7
100
AcDbLine
 10
596.566512
 20
918.228131
 11
596.566512
 21
928.227902
  0
LINE
  5
4CD
100
AcDbEntity
  8
M0
 62
     7
100
AcDbLine
 10
596.566512
 20
928.227902
 11
606.466595
 21
928.227902
  0
LINE
  5
4CE
100
AcDbEntity
  8
M0
 62
     7
100
AcDbLine
 10
633.566497
 20
918.228131
 11
626.566497
 21
918.228131
  0
LINE
  5
4CF
100
AcDbEntity
  8
M0
 62
     7
100
AcDbLine
 10
626.566497
 20
913.419125
 11
626.566497
 21
933.036984
  0
LINE
  5
4D0
100
AcDbEntity
  8
M0
 62
     7
100
AcDbLine
 10
626.566497
 20
933.036984
 11
633.566497
 21
933.036984
  0
LINE
  5
4D1
100
AcDbEntity
  8
M0
 62
     7
100
AcDbLine
 10
633.566497
 20
933.036984
 11
633.566497
 21
913.419125
  0
LINE
  5
4D2
100
AcDbEntity
  8
M0
 62
     7
100
AcDbLine
 10
633.566497
 20
913.419125
 11
626.566497
 21
913.419125
  0
LINE
  5
4D3
100
AcDbEntity
  8
M0
 62
     7
100
AcDbLine
 10
626.566497
 20
928.227902
 11
633.566497
 21
928.227902
  0
LINE
  5
4D4
100
AcDbEntity
  8
M0
 62
     7
100
AcDbLine
 10
606.466595
 20
918.228131
 11
596.566512
 21
918.228131
  0
LINE
  5
4D5
100
AcDbEntity
  8
M0
 62
     7
100
AcDbLine
 10
626.566497
 20
757.037152
 11
626.566497
 21
737.419293
  0
LINE
  5
4D6
100
AcDbEntity
  8
M0
 62
     7
100
AcDbLine
 10
626.566497
 20
737.419293
 11
633.566497
 21
737.419293
  0
LINE
  5
4D7
100
AcDbEntity
  8
M0
 62
     7
100
AcDbLine
 10
633.566497
 20
737.419293
 11
633.566497
 21
757.037152
  0
LINE
  5
4D8
100
AcDbEntity
  8
M0
 62
     7
100
AcDbLine
 10
633.566497
 20
757.037152
 11
626.566497
 21
757.037152
  0
LINE
  5
4D9
100
AcDbEntity
  8
M0
 62
     7
100
AcDbLine
 10
596.566512
 20
752.228146
 11
596.566512
 21
742.228375
  0
LINE
  5
4DA
100
AcDbEntity
  8
M0
  6
DASHDOT
 62
     7
100
AcDbLine
 10
636.565032
 20
747.228146
 11
593.626037
 21
747.228146
  0
LINE
  5
4DB
100
AcDbEntity
  8
M0
 62
     7
100
AcDbLine
 10
596.566512
 20
742.228375
 11
601.466595
 21
742.228375
  0
LINE
  5
4DC
100
AcDbEntity
  8
M0
 62
     7
100
AcDbLine
 10
626.566497
 20
742.228375
 11
633.566497
 21
742.228375
  0
LINE
  5
4DD
100
AcDbEntity
  8
M0
 62
     7
100
AcDbLine
 10
633.566497
 20
752.228146
 11
626.566497
 21
752.228146
  0
LINE
  5
4DE
100
AcDbEntity
  8
M0
 62
     7
100
AcDbLine
 10
601.466595
 20
752.228146
 11
596.566512
 21
752.228146
  0
LINE
  5
4DF
100
AcDbEntity
  8
M0
  6
DASHDOT
 62
     7
100
AcDbLine
 10
636.565032
 20
923.228131
 11
593.626037
 21
923.228131
  0
LINE
  5
4E0
100
AcDbEntity
  8
M0
 62
     7
100
AcDbLine
 10
614.466579
 20
933.028195
 11
606.466564
 21
933.028195
  0
LINE
  5
4E1
100
AcDbEntity
  8
M0
 62
     7
100
AcDbLine
 10
606.466595
 20
933.028149
 11
606.466595
 21
913.428174
  0
LINE
  5
4E2
100
AcDbEntity
  8
M0
 62
     7
100
AcDbLine
 10
606.466579
 20
913.428189
 11
614.466579
 21
913.428189
  0
LINE
  5
4E3
100
AcDbEntity
  8
M0
 62
     7
100
AcDbLine
 10
614.466579
 20
918.328183
 11
606.466579
 21
918.328183
  0
LINE
  5
4E4
100
AcDbEntity
  8
M0
 62
     7
100
AcDbLine
 10
614.466579
 20
928.128171
 11
606.466564
 21
928.128171
  0
LINE
  5
4E5
100
AcDbEntity
  8
M0
 62
     7
100
AcDbLine
 10
609.466579
 20
737.428113
 11
601.466564
 21
737.428113
  0
LINE
  5
4E6
100
AcDbEntity
  8
M0
 62
     7
100
AcDbLine
 10
601.466595
 20
737.428158
 11
601.466595
 21
757.028134
  0
LINE
  5
4E7
100
AcDbEntity
  8
M0
 62
     7
100
AcDbLine
 10
601.466579
 20
757.028119
 11
609.466579
 21
757.028119
  0
LINE
  5
4E8
100
AcDbEntity
  8
M0
 62
     7
100
AcDbLine
 10
609.466595
 20
757.028103
 11
609.466595
 21
737.428097
  0
LINE
  5
4E9
100
AcDbEntity
  8
M0
 62
     7
100
AcDbLine
 10
609.466579
 20
752.128125
 11
601.466579
 21
752.128125
  0
LINE
  5
4EA
100
AcDbEntity
  8
M0
 62
     7
100
AcDbLine
 10
609.466595
 20
742.328137
 11
601.466595
 21
742.328137
  0
LINE
  5
4EB
100
AcDbEntity
  8
M0
 62
     7
100
AcDbLine
 10
616.966702
 20
912.228131
 11
618.566692
 21
912.228131
  0
LINE
  5
4EC
100
AcDbEntity
  8
M0
 62
     7
100
AcDbLine
 10
621.766692
 20
912.228131
 11
621.766692
 21
939.228583
  0
LINE
  5
4ED
100
AcDbEntity
  8
M0
 62
     7
100
AcDbLine
 10
618.566692
 20
934.228131
 11
616.966702
 21
934.228131
  0
LINE
  5
4EE
100
AcDbEntity
  8
M0
 62
     7
100
AcDbLine
 10
616.966702
 20
934.228131
 11
616.966702
 21
912.228131
  0
LINE
  5
4EF
100
AcDbEntity
  8
M0
 62
     7
100
AcDbLine
 10
621.766692
 20
758.228116
 11
621.766692
 21
736.228116
  0
LINE
  5
4F0
100
AcDbEntity
  8
M0
 62
     7
100
AcDbLine
 10
613.566692
 20
736.228116
 11
611.966702
 21
736.228116
  0
LINE
  5
4F1
100
AcDbEntity
  8
M0
 62
     7
100
AcDbLine
 10
611.966702
 20
736.228116
 11
611.966702
 21
758.228116
  0
LINE
  5
4F2
100
AcDbEntity
  8
M0
 62
     7
100
AcDbLine
 10
613.566692
 20
758.228177
 11
611.966702
 21
758.228177
  0
LINE
  5
4F3
100
AcDbEntity
  8
M0
 62
     7
100
AcDbLine
 10
614.466595
 20
914.028134
 11
616.966595
 21
914.028134
  0
LINE
  5
4F4
100
AcDbEntity
  8
M0
 62
     7
100
AcDbLine
 10
616.966595
 20
932.428128
 11
614.466595
 21
932.428128
  0
LINE
  5
4F5
100
AcDbEntity
  8
M0
 62
     7
100
AcDbLine
 10
614.466595
 20
933.028195
 11
614.466595
 21
913.428189
  0
LINE
  5
4F6
100
AcDbEntity
  8
M0
 62
     7
100
AcDbLine
 10
614.466595
 20
923.228146
 11
616.966595
 21
921.784771
  0
LINE
  5
4F7
100
AcDbEntity
  8
M0
 62
     7
100
AcDbLine
 10
614.466595
 20
924.671505
 11
616.966595
 21
923.228131
  0
LINE
  5
4F8
100
AcDbEntity
  8
M0
 62
     7
100
AcDbLine
 10
609.466595
 20
756.428143
 11
611.966595
 21
756.428143
  0
LINE
  5
4F9
100
AcDbEntity
  8
M0
 62
     7
100
AcDbLine
 10
611.966595
 20
756.428143
 11
611.966595
 21
738.028149
  0
LINE
  5
4FA
100
AcDbEntity
  8
M0
 62
     7
100
AcDbLine
 10
611.966595
 20
738.028149
 11
609.466595
 21
738.028149
  0
LINE
  5
4FB
100
AcDbEntity
  8
M0
 62
     7
100
AcDbLine
 10
609.466595
 20
738.028149
 11
609.466595
 21
756.428143
  0
LINE
  5
4FC
100
AcDbEntity
  8
M0
 62
     7
100
AcDbLine
 10
609.466595
 20
747.228131
 11
611.966595
 21
748.671505
  0
LINE
  5
4FD
100
AcDbEntity
  8
M0
 62
     7
100
AcDbLine
 10
609.466595
 20
745.784771
 11
611.966595
 21
747.228146
  0
LINE
  5
4FE
100
AcDbEntity
  8
M0
 62
     7
100
AcDbLine
 10
618.566692
 20
910.228299
 11
618.566692
 21
939.428583
  0
LINE
  5
4FF
100
AcDbEntity
  8
M0
 62
     7
100
AcDbLine
 10
636.215049
 20
940.228599
 11
622.766691
 21
940.228583
  0
LINE
  5
500
100
AcDbEntity
  8
M0
 62
     7
100
AcDbLine
 10
622.566688
 20
943.428583
 11
636.417678
 21
943.4286
  0
CIRCLE
  5
501
100
AcDbEntity
  8
M0
 62
     7
100
AcDbCircle
 10
636.078258
 20
950.228611
 40
6.8
  0
ARC
  5
502
100
AcDbEntity
  8
M0
 62
     7
100
AcDbCircle
 10
636.078258
 20
950.228611
 40
10.0
100
AcDbArc
 50
270.00007
 51
582.843713
  0
ARC
  5
503
100
AcDbEntity
  8
M0
 62
     7
100
AcDbCircle
 10
622.766692
 20
939.228583
 40
1.0
100
AcDbArc
 50
90.0
 51
180.0
  0
ARC
  5
504
100
AcDbEntity
  8
M0
 62
     7
100
AcDbCircle
 10
622.566692
 20
939.428583
 40
4.0
100
AcDbArc
 50
90.0
 51
180.0
  0
CIRCLE
  5
505
100
AcDbEntity
  8
M0
 62
     7
100
AcDbCircle
 10
628.566692
 20
969.228131
 40
6.8
  0
ARC
  5
506
100
AcDbEntity
  8
M0
 62
     7
100
AcDbCircle
 10
628.566692
 20
969.228131
 40
10.0
100
AcDbArc
 50
227.156357
 51
540.0
  0
LINE
  5
507
100
AcDbEntity
  8
M0
 62
     7
100
AcDbLine
 10
618.566692
 20
939.428583
 11
618.566692
 21
969.228131
  0
LINE
  5
508
100
AcDbEntity
  8
M0
 62
     7
100
AcDbLine
 10
621.766692
 20
943.347766
 11
621.766692
 21
969.228131
  0
LINE
  5
509
100
AcDbEntity
  8
M0
 62
     7
100
AcDbLine
 10
613.566692
 20
759.728146
 11
613.566692
 21
728.728505
  0
LINE
  5
50A
100
AcDbEntity
  8
M0
 62
     7
100
AcDbLine
 10
616.766692
 20
759.728146
 11
616.766692
 21
734.228146
  0
LINE
  5
50B
100
AcDbEntity
  8
M0
 62
     7
100
AcDbLine
 10
616.766692
 20
734.228146
 11
616.766692
 21
728.728505
  0
LINE
  5
50C
100
AcDbEntity
  8
M0
 62
     7
100
AcDbLine
 10
616.766692
 20
759.728146
 11
613.566692
 21
759.728146
  0
CIRCLE
  5
50D
100
AcDbEntity
  8
M0
 62
     7
100
AcDbCircle
 10
603.761753
 20
718.728505
 40
6.0
  0
CIRCLE
  5
50E
100
AcDbEntity
  8
M0
 62
     7
100
AcDbCircle
 10
584.761753
 20
718.728505
 40
6.0
  0
CIRCLE
  5
50F
100
AcDbEntity
  8
M0
 62
     7
100
AcDbCircle
 10
565.761753
 20
718.728505
 40
6.0
  0
LINE
  5
510
100
AcDbEntity
  8
M0
 62
     7
100
AcDbLine
 10
565.761753
 20
727.728505
 11
612.566692
 21
727.728505
  0
ARC
  5
511
100
AcDbEntity
  8
M0
 62
     7
100
AcDbCircle
 10
612.566692
 20
728.728505
 40
1.0
100
AcDbArc
 50
270.0
 51
360.0
  0
LINE
  5
512
100
AcDbEntity
  8
M0
 62
     7
100
AcDbLine
 10
565.761753
 20
724.728505
 11
578.053549
 21
724.728505
  0
ARC
  5
513
100
AcDbEntity
  8
M0
 62
     7
100
AcDbCircle
 10
612.766692
 20
728.728505
 40
4.0
100
AcDbArc
 50
270.0
 51
360.0
  0
ARC
  5
514
100
AcDbEntity
  8
M0
 62
     7
100
AcDbCircle
 10
603.761753
 20
718.728505
 40
9.0
100
AcDbArc
 50
90.0
 51
401.810315
  0
LINE
  5
515
100
AcDbEntity
  8
M0
 62
     7
100
AcDbLine
 10
603.761753
 20
724.728505
 11
612.766692
 21
724.728505
  0
ARC
  5
516
100
AcDbEntity
  8
M0
 62
     7
100
AcDbCircle
 10
584.761753
 20
718.728505
 40
9.0
100
AcDbArc
 50
90.0
 51
401.810315
  0
LINE
  5
517
100
AcDbEntity
  8
M0
 62
     7
100
AcDbLine
 10
584.761753
 20
724.728505
 11
597.053549
 21
724.728505
  0
ARC
  5
518
100
AcDbEntity
  8
M0
 62
     7
100
AcDbCircle
 10
565.761753
 20
718.728505
 40
9.0
100
AcDbArc
 50
90.0
 51
401.810315
  0
LINE
  5
519
100
AcDbEntity
  8
M0
 62
     2
100
AcDbLine
 10
125.844939
 20
655.227932
 11
133.344939
 21
655.227932
  0
LINE
  5
51A
100
AcDbEntity
  8
M0
 62
     2
100
AcDbLine
 10
268.844741
 20
660.227932
 11
263.844741
 21
655.227932
  0
LINE
  5
51B
100
AcDbEntity
  8
M0
 62
     2
100
AcDbLine
 10
268.844741
 20
660.227932
 11
268.844741
 21
710.228117
  0
LINE
  5
51C
100
AcDbEntity
  8
M0
 62
     2
100
AcDbLine
 10
268.844741
 20
754.227932
 11
263.844741
 21
759.227734
  0
LINE
  5
51D
100
AcDbEntity
  8
M0
 62
     2
100
AcDbLine
 10
125.844939
 20
759.227734
 11
132.344939
 21
759.227734
  0
LINE
  5
51E
100
AcDbEntity
  8
M0
 62
     2
100
AcDbLine
 10
125.844939
 20
759.227734
 11
120.844939
 21
754.227932
  0
LINE
  5
51F
100
AcDbEntity
  8
M0
 62
     2
100
AcDbLine
 10
120.844939
 20
660.227932
 11
120.844939
 21
754.227932
  0
LINE
  5
520
100
AcDbEntity
  8
M0
 62
     2
100
AcDbLine
 10
120.844939
 20
660.227932
 11
125.844939
 21
655.227932
  0
CIRCLE
  5
521
100
AcDbEntity
  8
M0
 62
     2
100
AcDbCircle
 10
169.844939
 20
750.227932
 40
3.15
  0
CIRCLE
  5
522
100
AcDbEntity
  8
M0
 62
     2
100
AcDbCircle
 10
219.844939
 20
750.227932
 40
3.15
  0
LINE
  5
523
100
AcDbEntity
  8
M0
  6
DASHDOT
 62
     2
100
AcDbLine
 10
157.344939
 20
654.571927
 11
157.344939
 21
675.883923
  0
LINE
  5
524
100
AcDbEntity
  8
M0
  6
DASHDOT
 62
     2
100
AcDbLine
 10
224.495925
 20
665.227932
 11
232.495925
 21
665.227932
  0
LINE
  5
525
100
AcDbEntity
  8
M0
  6
DASHDOT
 62
     2
100
AcDbLine
 10
232.344939
 20
654.571927
 11
232.344939
 21
666.227689
  0
LINE
  5
526
100
AcDbEntity
  8
M0
 62
     2
100
AcDbLine
 10
257.344924
 20
759.227734
 11
263.844741
 21
759.227734
  0
LINE
  5
527
100
AcDbEntity
  8
M0
 62
     2
100
AcDbLine
 10
207.344895
 20
759.227734
 11
232.344924
 21
759.227734
  0
LINE
  5
528
100
AcDbEntity
  8
M0
 62
     2
100
AcDbLine
 10
157.344939
 20
759.227734
 11
182.344896
 21
759.227734
  0
LINE
  5
529
100
AcDbEntity
  8
M0
 62
     2
100
AcDbLine
 10
156.344939
 20
655.227932
 11
183.344939
 21
655.227932
  0
LINE
  5
52A
100
AcDbEntity
  8
M0
 62
     2
100
AcDbLine
 10
206.344939
 20
655.227932
 11
233.344939
 21
655.227932
  0
LINE
  5
52B
100
AcDbEntity
  8
M0
 62
     2
100
AcDbLine
 10
256.344939
 20
655.227932
 11
263.844741
 21
655.227932
  0
ARC
  5
52C
100
AcDbEntity
  8
M0
 62
     2
100
AcDbCircle
 10
157.344939
 20
665.227932
 40
4.65
100
AcDbArc
 50
257.581317
 51
456.172585
  0
LINE
  5
52D
100
AcDbEntity
  8
M0
  6
DASHDOT
 62
     2
100
AcDbLine
 10
156.344939
 20
665.227932
 11
168.000945
 21
665.227932
  0
ARC
  5
52E
100
AcDbEntity
  8
M0
 62
     2
100
AcDbCircle
 10
232.344939
 20
665.227932
 40
4.65
100
AcDbArc
 50
171.344064
 51
282.418497
  0
ARC
  5
52F
100
AcDbEntity
  8
M0
 62
     2
100
AcDbCircle
 10
169.844939
 20
730.227932
 40
4.65
100
AcDbArc
 50
319.823143
 51
580.176997
  0
ARC
  5
530
100
AcDbEntity
  8
M0
 62
     2
100
AcDbCircle
 10
219.844939
 20
730.227932
 40
4.65
100
AcDbArc
 50
319.824127
 51
580.176013
  0
LINE
  5
531
100
AcDbEntity
  8
M0
 62
     2
100
AcDbLine
 10
268.844741
 20
727.228106
 11
268.844741
 21
754.227932
  0
LINE
  5
532
100
AcDbEntity
  8
M0
 62
   114
100
AcDbLine
 10
268.844909
 20
701.825581
 11
268.04512
 21
701.825581
  0
LINE
  5
533
100
AcDbEntity
  8
M0
 62
   114
100
AcDbLine
 10
256.844898
 20
667.825585
 11
256.844902
 21
678.825585
  0
ARC
  5
534
100
AcDbEntity
  8
M0
 62
   114
100
AcDbCircle
 10
255.844898
 20
667.825585
 40
1.0
100
AcDbArc
 50
300.000586
 51
359.999982
  0
LINE
  5
535
100
AcDbEntity
  8
M0
 62
   114
100
AcDbLine
 10
256.844902
 20
678.825585
 11
267.844902
 21
678.825582
  0
LINE
  5
536
100
AcDbEntity
  8
M0
 62
   114
100
AcDbLine
 10
268.844902
 20
679.825581
 11
268.844909
 21
701.825581
  0
ARC
  5
537
100
AcDbEntity
  8
M0
 62
   114
100
AcDbCircle
 10
267.844902
 20
679.825582
 40
1.0
100
AcDbArc
 50
269.999108
 51
359.999982
  0
LINE
  5
538
100
AcDbEntity
  8
M0
  6
DASHDOT
 62
   114
100
AcDbLine
 10
262.844901
 20
677.325583
 11
262.844905
 21
690.325583
  0
LINE
  5
539
100
AcDbEntity
  8
M0
  6
DASHDOT
 62
   114
100
AcDbLine
 10
269.344903
 20
683.825581
 11
256.344903
 21
683.825585
  0
LINE
  5
53A
100
AcDbEntity
  8
M0
 62
   114
100
AcDbLine
 10
261.644973
 20
701.825583
 11
257.344909
 21
701.825585
  0
LINE
  5
53B
100
AcDbEntity
  8
M0
 62
     7
100
AcDbLine
 10
132.344939
 20
759.727932
 11
157.344939
 21
759.727932
  0
LINE
  5
53C
100
AcDbEntity
  8
M0
 62
     7
100
AcDbLine
 10
156.344939
 20
639.727932
 11
133.344939
 21
639.727932
  0
LINE
  5
53D
100
AcDbEntity
  8
M0
  6
DASHDOT
 62
     7
100
AcDbLine
 10
131.27891
 20
652.227932
 11
157.924274
 21
652.227932
  0
LINE
  5
53E
100
AcDbEntity
  8
M0
 62
     7
100
AcDbLine
 10
156.344939
 20
688.227932
 11
156.344939
 21
639.727932
  0
LINE
  5
53F
100
AcDbEntity
  8
M0
 62
     7
100
AcDbLine
 10
133.344939
 20
639.727932
 11
133.344939
 21
688.227932
  0
LINE
  5
540
100
AcDbEntity
  8
M0
  6
DASHED
 62
     7
100
AcDbLine
 10
156.344939
 20
702.227932
 11
156.344939
 21
688.227932
  0
LINE
  5
541
100
AcDbEntity
  8
M0
  6
DASHED
 62
     7
100
AcDbLine
 10
133.344939
 20
688.227932
 11
133.344939
 21
702.227932
  0
LINE
  5
542
100
AcDbEntity
  8
M0
 62
     7
100
AcDbLine
 10
120.844939
 20
702.227932
 11
120.844939
 21
719.727932
  0
LINE
  5
543
100
AcDbEntity
  8
M0
 62
     7
100
AcDbLine
 10
120.844939
 20
719.727932
 11
132.344939
 21
719.727932
  0
LINE
  5
544
100
AcDbEntity
  8
M0
 62
     7
100
AcDbLine
 10
168.844939
 20
710.228239
 11
168.844939
 21
702.227932
  0
LINE
  5
545
100
AcDbEntity
  8
M0
 62
     7
100
AcDbLine
 10
168.844939
 20
702.227932
 11
120.844939
 21
702.227932
  0
LINE
  5
546
100
AcDbEntity
  8
M0
 62
     7
100
AcDbLine
 10
132.344939
 20
702.227932
 11
132.344939
 21
688.227932
  0
LINE
  5
547
100
AcDbEntity
  8
M0
 62
     7
100
AcDbLine
 10
157.344939
 20
702.227932
 11
157.344939
 21
688.227932
  0
LINE
  5
548
100
AcDbEntity
  8
M0
 62
     7
100
AcDbLine
 10
132.344939
 20
688.227932
 11
157.344939
 21
688.227932
  0
CIRCLE
  5
549
100
AcDbEntity
  8
M0
 62
     7
100
AcDbCircle
 10
144.844939
 20
652.227932
 40
5.0
  0
CIRCLE
  5
54A
100
AcDbEntity
  8
M0
 62
     7
100
AcDbCircle
 10
144.844939
 20
652.227932
 40
4.0
  0
CIRCLE
  5
54B
100
AcDbEntity
  8
M0
 62
     7
100
AcDbCircle
 10
144.844939
 20
678.227932
 40
5.25
  0
LINE
  5
54C
100
AcDbEntity
  8
M0
 62
     7
100
AcDbLine
 10
145.69353
 20
678.227871
 11
148.95724
 21
681.491574
  0
LINE
  5
54D
100
AcDbEntity
  8
M0
 62
     7
100
AcDbLine
 10
141.581292
 20
674.115628
 11
144.845004
 21
677.379345
  0
LINE
  5
54E
100
AcDbEntity
  8
M0
 62
     7
100
AcDbLine
 10
143.996521
 20
678.227826
 11
140.732788
 21
674.964093
  0
LINE
  5
54F
100
AcDbEntity
  8
M0
 62
     7
100
AcDbLine
 10
148.108769
 20
682.340085
 11
144.845047
 21
679.076352
  0
LINE
  5
550
100
AcDbEntity
  8
M0
 62
     7
100
AcDbLine
 10
144.845037
 20
679.076352
 11
143.07727
 21
680.844128
  0
LINE
  5
551
100
AcDbEntity
  8
M0
 62
     7
100
AcDbLine
 10
147.461295
 20
676.460095
 11
145.69353
 21
678.227871
  0
LINE
  5
552
100
AcDbEntity
  8
M0
 62
     7
100
AcDbLine
 10
144.845004
 20
677.379345
 11
146.612769
 21
675.611569
  0
LINE
  5
553
100
AcDbEntity
  8
M0
 62
     7
100
AcDbLine
 10
142.228744
 20
679.995602
 11
143.996511
 21
678.227826
  0
LINE
  5
554
100
AcDbEntity
  8
M0
 62
     7
100
AcDbLine
 10
146.612769
 20
675.611569
 11
147.461295
 21
676.460095
  0
LINE
  5
555
100
AcDbEntity
  8
M0
 62
     7
100
AcDbLine
 10
143.07727
 20
680.844128
 11
142.228744
 21
679.995602
  0
CIRCLE
  5
556
100
AcDbEntity
  8
M0
 62
     7
100
AcDbCircle
 10
144.844939
 20
678.227932
 40
5.75
  0
LINE
  5
557
100
AcDbEntity
  8
M0
  6
DASHDOT
 62
     7
100
AcDbLine
 10
153.200359
 20
678.227948
 11
136.48952
 21
678.227932
  0
LINE
  5
558
100
AcDbEntity
  8
M0
 62
     7
100
AcDbLine
 10
163.545135
 20
700.428525
 11
163.545135
 21
696.42799
  0
LINE
  5
559
100
AcDbEntity
  8
M0
 62
     7
100
AcDbLine
 10
166.144988
 20
700.428525
 11
166.144988
 21
696.42799
  0
LINE
  5
55A
100
AcDbEntity
  8
M0
 62
     7
100
AcDbLine
 10
166.344939
 20
700.428525
 11
166.344939
 21
696.42799
  0
LINE
  5
55B
100
AcDbEntity
  8
M0
 62
     7
100
AcDbLine
 10
163.344939
 20
696.42799
 11
163.344939
 21
700.428525
  0
LINE
  5
55C
100
AcDbEntity
  8
M0
 62
     7
100
AcDbLine
 10
166.344939
 20
696.42799
 11
163.344939
 21
696.42799
  0
LINE
  5
55D
100
AcDbEntity
  8
M0
 62
     7
100
AcDbLine
 10
127.594695
 20
720.42799
 11
127.520477
 21
721.275311
  0
LINE
  5
55E
100
AcDbEntity
  8
M0
 62
     7
100
AcDbLine
 10
122.095184
 20
720.428006
 11
122.169158
 21
721.275311
  0
ARC
  5
55F
100
AcDbEntity
  8
M0
 62
     7
100
AcDbCircle
 10
123.165496
 20
721.188168
 40
1.0
100
AcDbArc
 50
106.260869
 51
175.000684
  0
ARC
  5
560
100
AcDbEntity
  8
M0
 62
     7
100
AcDbCircle
 10
126.524139
 20
721.188168
 40
1.0
100
AcDbArc
 50
4.99924
 51
73.75186
  0
ARC
  5
561
100
AcDbEntity
  8
M0
 62
     7
100
AcDbCircle
 10
124.844939
 20
715.42799
 40
7.0
100
AcDbArc
 50
72.985009
 51
106.255434
  0
LINE
  5
562
100
AcDbEntity
  8
M0
 62
     7
100
AcDbLine
 10
127.594695
 20
719.727932
 11
122.094695
 21
719.727932
  0
LINE
  5
563
100
AcDbEntity
  8
M0
 62
     7
100
AcDbLine
 10
122.094695
 20
720.427884
 11
122.094695
 21
719.727932
  0
LINE
  5
564
100
AcDbEntity
  8
M0
 62
     7
100
AcDbLine
 10
127.594695
 20
720.427884
 11
127.594695
 21
719.727932
  0
LINE
  5
565
100
AcDbEntity
  8
M0
 62
     7
100
AcDbLine
 10
126.144744
 20
700.428525
 11
126.144744
 21
696.42799
  0
LINE
  5
566
100
AcDbEntity
  8
M0
 62
     7
100
AcDbLine
 10
123.544891
 20
700.428525
 11
123.544891
 21
696.42799
  0
LINE
  5
567
100
AcDbEntity
  8
M0
 62
     7
100
AcDbLine
 10
123.344939
 20
700.428525
 11
123.344939
 21
696.42799
  0
LINE
  5
568
100
AcDbEntity
  8
M0
 62
     7
100
AcDbLine
 10
126.344939
 20
696.42799
 11
126.344939
 21
700.428525
  0
LINE
  5
569
100
AcDbEntity
  8
M0
 62
     7
100
AcDbLine
 10
123.344939
 20
696.42799
 11
126.344939
 21
696.42799
  0
LINE
  5
56A
100
AcDbEntity
  8
M0
 62
     7
100
AcDbLine
 10
122.094939
 20
720.42799
 11
127.594939
 21
720.42799
  0
LINE
  5
56B
100
AcDbEntity
  8
M0
 62
     7
100
AcDbLine
 10
124.844939
 20
719.727932
 11
124.344939
 21
720.42799
  0
LINE
  5
56C
100
AcDbEntity
  8
M0
 62
     7
100
AcDbLine
 10
124.844939
 20
720.42799
 11
125.344939
 21
719.727932
  0
LINE
  5
56D
100
AcDbEntity
  8
M0
 62
   114
100
AcDbLine
 10
120.844939
 20
701.825581
 11
121.644759
 21
701.825581
  0
LINE
  5
56E
100
AcDbEntity
  8
M0
 62
   114
100
AcDbLine
 10
168.844939
 20
701.825596
 11
168.844946
 21
679.825596
  0
LINE
  5
56F
100
AcDbEntity
  8
M0
 62
   114
100
AcDbLine
 10
167.844947
 20
678.825596
 11
156.844947
 21
678.825592
  0
ARC
  5
570
100
AcDbEntity
  8
M0
 62
   114
100
AcDbCircle
 10
167.844946
 20
679.825596
 40
1.0
100
AcDbArc
 50
-90.0
 51
1.798609E-005
  0
LINE
  5
571
100
AcDbEntity
  8
M0
 62
   114
100
AcDbLine
 10
156.844947
 20
678.825592
 11
156.84495
 21
667.825592
  0
ARC
  5
572
100
AcDbEntity
  8
M0
 62
   114
100
AcDbCircle
 10
155.84495
 20
667.825592
 40
1.0
100
AcDbArc
 50
-59.999378
 51
1.798609E-005
  0
LINE
  5
573
100
AcDbEntity
  8
M0
 62
   114
100
AcDbLine
 10
132.84495
 20
667.825585
 11
132.844947
 21
678.825585
  0
ARC
  5
574
100
AcDbEntity
  8
M0
 62
   114
100
AcDbCircle
 10
133.84495
 20
667.825585
 40
1.0
100
AcDbArc
 50
179.999144
 51
239.999414
  0
LINE
  5
575
100
AcDbEntity
  8
M0
 62
   114
100
AcDbLine
 10
132.844947
 20
678.825585
 11
121.844947
 21
678.825582
  0
LINE
  5
576
100
AcDbEntity
  8
M0
 62
   114
100
AcDbLine
 10
120.844946
 20
679.825581
 11
120.844939
 21
701.825581
  0
ARC
  5
577
100
AcDbEntity
  8
M0
 62
   114
100
AcDbCircle
 10
121.844946
 20
679.825582
 40
1.0
100
AcDbArc
 50
179.999144
 51
270.0
  0
LINE
  5
578
100
AcDbEntity
  8
M0
  6
DASHDOT
 62
   114
100
AcDbLine
 10
126.844947
 20
677.325583
 11
126.844943
 21
690.325583
  0
LINE
  5
579
100
AcDbEntity
  8
M0
  6
DASHDOT
 62
   114
100
AcDbLine
 10
120.344945
 20
683.825581
 11
133.344945
 21
683.825585
  0
LINE
  5
57A
100
AcDbEntity
  8
M0
  6
DASHDOT
 62
   114
100
AcDbLine
 10
162.844947
 20
677.325594
 11
162.844943
 21
690.325594
  0
LINE
  5
57B
100
AcDbEntity
  8
M0
  6
DASHDOT
 62
   114
100
AcDbLine
 10
169.344945
 20
683.825596
 11
156.344945
 21
683.825592
  0
LINE
  5
57C
100
AcDbEntity
  8
M0
 62
   114
100
AcDbLine
 10
128.044906
 20
701.825583
 11
132.34494
 21
701.825585
  0
LINE
  5
57D
100
AcDbEntity
  8
M0
 62
   114
100
AcDbLine
 10
157.344939
 20
701.825593
 11
161.644729
 21
701.825594
  0
LINE
  5
57E
100
AcDbEntity
  8
M0
 62
   114
100
AcDbLine
 10
168.044875
 20
701.825596
 11
168.844939
 21
701.825596
  0
LINE
  5
57F
100
AcDbEntity
  8
M0
 62
   253
100
AcDbLine
 10
263.551772
 20
683.825345
 11
265.647704
 21
685.921277
  0
LINE
  5
580
100
AcDbEntity
  8
M0
 62
   253
100
AcDbLine
 10
260.748721
 20
681.022295
 11
262.844665
 21
683.118238
  0
LINE
  5
581
100
AcDbEntity
  8
M0
 62
   253
100
AcDbLine
 10
262.137558
 20
683.825345
 11
260.041615
 21
681.729401
  0
LINE
  5
582
100
AcDbEntity
  8
M0
 62
   253
100
AcDbLine
 10
264.940597
 20
686.628384
 11
262.844665
 21
684.532451
  0
LINE
  5
583
100
AcDbEntity
  8
M0
 62
   253
100
AcDbLine
 10
262.844665
 20
684.532451
 11
261.748615
 21
685.628501
  0
LINE
  5
584
100
AcDbEntity
  8
M0
 62
   253
100
AcDbLine
 10
264.647822
 20
682.729294
 11
263.551772
 21
683.825345
  0
LINE
  5
585
100
AcDbEntity
  8
M0
 62
   253
100
AcDbLine
 10
262.844665
 20
683.118238
 11
263.940715
 21
682.022188
  0
LINE
  5
586
100
AcDbEntity
  8
M0
 62
   253
100
AcDbLine
 10
261.041508
 20
684.921395
 11
262.137558
 21
683.825345
  0
CIRCLE
  5
587
100
AcDbEntity
  8
M0
 62
   253
100
AcDbCircle
 10
262.844665
 20
683.825345
 40
3.5
  0
LINE
  5
588
100
AcDbEntity
  8
M0
 62
   253
100
AcDbLine
 10
263.940715
 20
682.022188
 11
264.647822
 21
682.729294
  0
LINE
  5
589
100
AcDbEntity
  8
M0
 62
   253
100
AcDbLine
 10
261.748615
 20
685.628501
 11
261.041508
 21
684.921395
  0
CIRCLE
  5
58A
100
AcDbEntity
  8
M0
 62
   253
100
AcDbCircle
 10
262.844665
 20
683.825345
 40
4.0
  0
LINE
  5
58B
100
AcDbEntity
  8
M0
 62
   253
100
AcDbLine
 10
163.552046
 20
683.825589
 11
165.647979
 21
685.921521
  0
LINE
  5
58C
100
AcDbEntity
  8
M0
 62
   253
100
AcDbLine
 10
160.748996
 20
681.022539
 11
162.844939
 21
683.118482
  0
LINE
  5
58D
100
AcDbEntity
  8
M0
 62
   253
100
AcDbLine
 10
162.137833
 20
683.825589
 11
160.041889
 21
681.729646
  0
LINE
  5
58E
100
AcDbEntity
  8
M0
 62
   253
100
AcDbLine
 10
164.940872
 20
686.628628
 11
162.844939
 21
684.532696
  0
LINE
  5
58F
100
AcDbEntity
  8
M0
 62
   253
100
AcDbLine
 10
162.844939
 20
684.532696
 11
161.74889
 21
685.628746
  0
LINE
  5
590
100
AcDbEntity
  8
M0
 62
   253
100
AcDbLine
 10
164.648096
 20
682.729539
 11
163.552046
 21
683.825589
  0
LINE
  5
591
100
AcDbEntity
  8
M0
 62
   253
100
AcDbLine
 10
162.844939
 20
683.118482
 11
163.940989
 21
682.022432
  0
LINE
  5
592
100
AcDbEntity
  8
M0
 62
   253
100
AcDbLine
 10
161.041783
 20
684.921639
 11
162.137833
 21
683.825589
  0
CIRCLE
  5
593
100
AcDbEntity
  8
M0
 62
   253
100
AcDbCircle
 10
162.844939
 20
683.825589
 40
3.5
  0
LINE
  5
594
100
AcDbEntity
  8
M0
 62
   253
100
AcDbLine
 10
163.940989
 20
682.022432
 11
164.648096
 21
682.729539
  0
LINE
  5
595
100
AcDbEntity
  8
M0
 62
   253
100
AcDbLine
 10
161.74889
 20
685.628746
 11
161.041783
 21
684.921639
  0
CIRCLE
  5
596
100
AcDbEntity
  8
M0
 62
   253
100
AcDbCircle
 10
162.844939
 20
683.825589
 40
4.0
  0
LINE
  5
597
100
AcDbEntity
  8
M0
 62
   253
100
AcDbLine
 10
127.552046
 20
683.825345
 11
129.647979
 21
685.921277
  0
LINE
  5
598
100
AcDbEntity
  8
M0
 62
   253
100
AcDbLine
 10
124.748996
 20
681.022295
 11
126.844939
 21
683.118238
  0
LINE
  5
599
100
AcDbEntity
  8
M0
 62
   253
100
AcDbLine
 10
126.137833
 20
683.825345
 11
124.041889
 21
681.729401
  0
LINE
  5
59A
100
AcDbEntity
  8
M0
 62
   253
100
AcDbLine
 10
128.940872
 20
686.628384
 11
126.844939
 21
684.532451
  0
LINE
  5
59B
100
AcDbEntity
  8
M0
 62
   253
100
AcDbLine
 10
126.844939
 20
684.532451
 11
125.74889
 21
685.628501
  0
LINE
  5
59C
100
AcDbEntity
  8
M0
 62
   253
100
AcDbLine
 10
128.648096
 20
682.729294
 11
127.552046
 21
683.825345
  0
LINE
  5
59D
100
AcDbEntity
  8
M0
 62
   253
100
AcDbLine
 10
126.844939
 20
683.118238
 11
127.940989
 21
682.022188
  0
LINE
  5
59E
100
AcDbEntity
  8
M0
 62
   253
100
AcDbLine
 10
125.041783
 20
684.921395
 11
126.137833
 21
683.825345
  0
CIRCLE
  5
59F
100
AcDbEntity
  8
M0
 62
   253
100
AcDbCircle
 10
126.844939
 20
683.825345
 40
3.5
  0
LINE
  5
5A0
100
AcDbEntity
  8
M0
 62
   253
100
AcDbLine
 10
127.940989
 20
682.022188
 11
128.648096
 21
682.729294
  0
LINE
  5
5A1
100
AcDbEntity
  8
M0
 62
   253
100
AcDbLine
 10
125.74889
 20
685.628501
 11
125.041783
 21
684.921395
  0
CIRCLE
  5
5A2
100
AcDbEntity
  8
M0
 62
   253
100
AcDbCircle
 10
126.844939
 20
683.825345
 40
4.0
  0
LINE
  5
5A3
100
AcDbEntity
  8
M0
 62
     1
100
AcDbLine
 10
121.644744
 20
702.227931
 11
121.644745
 21
700.428518
  0
LINE
  5
5A4
100
AcDbEntity
  8
M0
 62
     1
100
AcDbLine
 10
121.644745
 20
700.428518
 11
128.044891
 21
700.42852
  0
LINE
  5
5A5
100
AcDbEntity
  8
M0
 62
     1
100
AcDbLine
 10
128.044891
 20
700.42852
 11
128.044891
 21
702.227933
  0
LINE
  5
5A6
100
AcDbEntity
  8
M0
 62
     1
100
AcDbLine
 10
128.044891
 20
702.227933
 11
121.644744
 21
702.227931
  0
LINE
  5
5A7
100
AcDbEntity
  8
M0
 62
     1
100
AcDbLine
 10
126.444549
 20
700.428519
 11
126.444549
 21
702.227933
  0
LINE
  5
5A8
100
AcDbEntity
  8
M0
 62
     1
100
AcDbLine
 10
123.244598
 20
700.428518
 11
123.244598
 21
702.227932
  0
LINE
  5
5A9
100
AcDbEntity
  8
M0
 62
     1
100
AcDbLine
 10
161.644744
 20
702.227931
 11
161.644745
 21
700.428518
  0
LINE
  5
5AA
100
AcDbEntity
  8
M0
 62
     1
100
AcDbLine
 10
161.644745
 20
700.428518
 11
168.044891
 21
700.42852
  0
LINE
  5
5AB
100
AcDbEntity
  8
M0
 62
     1
100
AcDbLine
 10
168.044891
 20
700.42852
 11
168.044891
 21
702.227933
  0
LINE
  5
5AC
100
AcDbEntity
  8
M0
 62
     1
100
AcDbLine
 10
168.044891
 20
702.227933
 11
161.644744
 21
702.227931
  0
LINE
  5
5AD
100
AcDbEntity
  8
M0
 62
     1
100
AcDbLine
 10
166.444549
 20
700.428519
 11
166.444549
 21
702.227933
  0
LINE
  5
5AE
100
AcDbEntity
  8
M0
 62
     1
100
AcDbLine
 10
163.244598
 20
700.428518
 11
163.244598
 21
702.227932
  0
LINE
  5
5AF
100
AcDbEntity
  8
M0
 62
     1
100
AcDbLine
 10
268.045104
 20
702.227931
 11
268.045104
 21
700.428518
  0
LINE
  5
5B0
100
AcDbEntity
  8
M0
 62
     1
100
AcDbLine
 10
268.045104
 20
700.428518
 11
261.644957
 21
700.42852
  0
LINE
  5
5B1
100
AcDbEntity
  8
M0
 62
     1
100
AcDbLine
 10
261.644957
 20
700.42852
 11
261.644958
 21
702.227933
  0
LINE
  5
5B2
100
AcDbEntity
  8
M0
 62
     1
100
AcDbLine
 10
261.644958
 20
702.227933
 11
268.045104
 21
702.227931
  0
LINE
  5
5B3
100
AcDbEntity
  8
M0
 62
     1
100
AcDbLine
 10
263.245299
 20
700.428519
 11
263.2453
 21
702.227933
  0
LINE
  5
5B4
100
AcDbEntity
  8
M0
 62
     1
100
AcDbLine
 10
266.44525
 20
700.428518
 11
266.445251
 21
702.227932
  0
CIRCLE
  5
5B5
100
AcDbEntity
  8
M0
 62
     4
100
AcDbCircle
 10
244.844909
 20
652.227932
 40
11.0
  0
ARC
  5
5B6
100
AcDbEntity
  8
M0
 62
     4
100
AcDbCircle
 10
244.844909
 20
652.227932
 40
9.199997
100
AcDbArc
 50
37.298384
 51
82.702826
  0
ARC
  5
5B7
100
AcDbEntity
  8
M0
 62
     4
100
AcDbCircle
 10
244.844909
 20
652.227932
 40
9.199997
100
AcDbArc
 50
337.299659
 51
382.700314
  0
ARC
  5
5B8
100
AcDbEntity
  8
M0
 62
     4
100
AcDbCircle
 10
244.844909
 20
652.227932
 40
9.199997
100
AcDbArc
 50
277.294204
 51
322.704201
  0
ARC
  5
5B9
100
AcDbEntity
  8
M0
 62
     4
100
AcDbCircle
 10
244.844909
 20
652.227932
 40
9.199997
100
AcDbArc
 50
217.291976
 51
262.706671
  0
ARC
  5
5BA
100
AcDbEntity
  8
M0
 62
     4
100
AcDbCircle
 10
244.844909
 20
652.227932
 40
9.199997
100
AcDbArc
 50
97.296264
 51
142.705002
  0
ARC
  5
5BB
100
AcDbEntity
  8
M0
 62
     4
100
AcDbCircle
 10
244.844909
 20
652.227932
 40
9.199997
100
AcDbArc
 50
157.291007
 51
202.708921
  0
LINE
  5
5BC
100
AcDbEntity
  8
M0
 62
     4
100
AcDbLine
 10
244.844932
 20
642.428036
 11
236.358116
 21
647.32803
  0
LINE
  5
5BD
100
AcDbEntity
  8
M0
 62
     4
100
AcDbLine
 10
236.358116
 20
647.32803
 11
236.358116
 21
657.128048
  0
LINE
  5
5BE
100
AcDbEntity
  8
M0
 62
     4
100
AcDbLine
 10
236.358116
 20
657.128048
 11
244.844932
 21
662.028042
  0
LINE
  5
5BF
100
AcDbEntity
  8
M0
 62
     4
100
AcDbLine
 10
244.844932
 20
662.028042
 11
253.332237
 21
657.128018
  0
LINE
  5
5C0
100
AcDbEntity
  8
M0
 62
     4
100
AcDbLine
 10
253.332237
 20
657.128018
 11
253.332237
 21
647.32803
  0
LINE
  5
5C1
100
AcDbEntity
  8
M0
 62
     4
100
AcDbLine
 10
253.332237
 20
647.32803
 11
244.844932
 21
642.428036
  0
CIRCLE
  5
5C2
100
AcDbEntity
  8
M0
 62
     4
100
AcDbCircle
 10
194.844939
 20
652.227932
 40
11.0
  0
ARC
  5
5C3
100
AcDbEntity
  8
M0
 62
     4
100
AcDbCircle
 10
194.844939
 20
652.227932
 40
9.199997
100
AcDbArc
 50
37.298384
 51
82.702826
  0
ARC
  5
5C4
100
AcDbEntity
  8
M0
 62
     4
100
AcDbCircle
 10
194.844939
 20
652.227932
 40
9.199997
100
AcDbArc
 50
337.299659
 51
382.700314
  0
ARC
  5
5C5
100
AcDbEntity
  8
M0
 62
     4
100
AcDbCircle
 10
194.844939
 20
652.227932
 40
9.199997
100
AcDbArc
 50
277.294204
 51
322.704201
  0
ARC
  5
5C6
100
AcDbEntity
  8
M0
 62
     4
100
AcDbCircle
 10
194.844939
 20
652.227932
 40
9.199997
100
AcDbArc
 50
217.291976
 51
262.706671
  0
ARC
  5
5C7
100
AcDbEntity
  8
M0
 62
     4
100
AcDbCircle
 10
194.844939
 20
652.227932
 40
9.199997
100
AcDbArc
 50
97.296264
 51
142.705002
  0
ARC
  5
5C8
100
AcDbEntity
  8
M0
 62
     4
100
AcDbCircle
 10
194.844939
 20
652.227932
 40
9.199997
100
AcDbArc
 50
157.291007
 51
202.708921
  0
LINE
  5
5C9
100
AcDbEntity
  8
M0
 62
     4
100
AcDbLine
 10
194.844962
 20
642.428036
 11
186.358147
 21
647.32803
  0
LINE
  5
5CA
100
AcDbEntity
  8
M0
 62
     4
100
AcDbLine
 10
186.358147
 20
647.32803
 11
186.358147
 21
657.128048
  0
LINE
  5
5CB
100
AcDbEntity
  8
M0
 62
     4
100
AcDbLine
 10
186.358147
 20
657.128048
 11
194.844962
 21
662.028042
  0
LINE
  5
5CC
100
AcDbEntity
  8
M0
 62
     4
100
AcDbLine
 10
194.844962
 20
662.028042
 11
203.332267
 21
657.128018
  0
LINE
  5
5CD
100
AcDbEntity
  8
M0
 62
     4
100
AcDbLine
 10
203.332267
 20
657.128018
 11
203.332267
 21
647.32803
  0
LINE
  5
5CE
100
AcDbEntity
  8
M0
 62
     4
100
AcDbLine
 10
203.332267
 20
647.32803
 11
194.844962
 21
642.428036
  0
CIRCLE
  5
5CF
100
AcDbEntity
  8
M0
 62
     4
100
AcDbCircle
 10
144.844939
 20
652.227932
 40
11.0
  0
ARC
  5
5D0
100
AcDbEntity
  8
M0
 62
     4
100
AcDbCircle
 10
144.844939
 20
652.227932
 40
9.199997
100
AcDbArc
 50
37.298384
 51
82.702826
  0
ARC
  5
5D1
100
AcDbEntity
  8
M0
 62
     4
100
AcDbCircle
 10
144.844939
 20
652.227932
 40
9.199997
100
AcDbArc
 50
337.299659
 51
382.700314
  0
ARC
  5
5D2
100
AcDbEntity
  8
M0
 62
     4
100
AcDbCircle
 10
144.844939
 20
652.227932
 40
9.199997
100
AcDbArc
 50
277.294204
 51
322.704201
  0
ARC
  5
5D3
100
AcDbEntity
  8
M0
 62
     4
100
AcDbCircle
 10
144.844939
 20
652.227932
 40
9.199997
100
AcDbArc
 50
217.291976
 51
262.706671
  0
ARC
  5
5D4
100
AcDbEntity
  8
M0
 62
     4
100
AcDbCircle
 10
144.844939
 20
652.227932
 40
9.199997
100
AcDbArc
 50
97.296264
 51
142.705002
  0
ARC
  5
5D5
100
AcDbEntity
  8
M0
 62
     4
100
AcDbCircle
 10
144.844939
 20
652.227932
 40
9.199997
100
AcDbArc
 50
157.291007
 51
202.708921
  0
LINE
  5
5D6
100
AcDbEntity
  8
M0
 62
     4
100
AcDbLine
 10
144.844962
 20
642.428036
 11
136.358147
 21
647.32803
  0
LINE
  5
5D7
100
AcDbEntity
  8
M0
 62
     4
100
AcDbLine
 10
136.358147
 20
647.32803
 11
136.358147
 21
657.128048
  0
LINE
  5
5D8
100
AcDbEntity
  8
M0
 62
     4
100
AcDbLine
 10
136.358147
 20
657.128048
 11
144.844962
 21
662.028042
  0
LINE
  5
5D9
100
AcDbEntity
  8
M0
 62
     4
100
AcDbLine
 10
144.844962
 20
662.028042
 11
153.332267
 21
657.128018
  0
LINE
  5
5DA
100
AcDbEntity
  8
M0
 62
     4
100
AcDbLine
 10
153.332267
 20
657.128018
 11
153.332267
 21
647.32803
  0
LINE
  5
5DB
100
AcDbEntity
  8
M0
 62
     4
100
AcDbLine
 10
153.332267
 20
647.32803
 11
144.844962
 21
642.428036
  0
LINE
  5
5DC
100
AcDbEntity
  8
M0
 62
   234
100
AcDbLine
 10
186.29494
 20
710.227932
 11
186.29494
 21
705.527722
  0
LINE
  5
5DD
100
AcDbEntity
  8
M0
 62
   234
100
AcDbLine
 10
203.394939
 20
703.727734
 11
203.394939
 21
710.227932
  0
LINE
  5
5DE
100
AcDbEntity
  8
M0
 62
   234
100
AcDbLine
 10
203.394939
 20
710.227932
 11
186.29494
 21
710.227932
  0
LINE
  5
5DF
100
AcDbEntity
  8
M0
 62
   234
100
AcDbLine
 10
188.594939
 20
705.527722
 11
188.594939
 21
710.227932
  0
LINE
  5
5E0
100
AcDbEntity
  8
M0
 62
   234
100
AcDbLine
 10
201.094939
 20
710.227932
 11
201.094939
 21
703.727749
  0
LINE
  5
5E1
100
AcDbEntity
  8
M0
  6
DASHDOT
 62
   234
100
AcDbLine
 10
187.844939
 20
705.927929
 11
201.844939
 21
705.927929
  0
ARC
  5
5E2
100
AcDbEntity
  8
M0
 62
   234
100
AcDbCircle
 10
194.844939
 20
705.927929
 40
3.0
100
AcDbArc
 50
312.825432
 51
547.821543
  0
LINE
  5
5E3
100
AcDbEntity
  8
M0
 62
     7
100
AcDbLine
 10
207.344895
 20
759.727932
 11
182.344896
 21
759.727932
  0
LINE
  5
5E4
100
AcDbEntity
  8
M0
 62
     7
100
AcDbLine
 10
183.344939
 20
639.727932
 11
206.344939
 21
639.727932
  0
LINE
  5
5E5
100
AcDbEntity
  8
M0
  6
DASHDOT
 62
     7
100
AcDbLine
 10
209.477262
 20
652.227932
 11
180.901075
 21
652.227932
  0
LINE
  5
5E6
100
AcDbEntity
  8
M0
 62
     7
100
AcDbLine
 10
183.344939
 20
668.72778
 11
183.344939
 21
639.727932
  0
LINE
  5
5E7
100
AcDbEntity
  8
M0
 62
     7
100
AcDbLine
 10
206.344939
 20
639.727932
 11
206.344939
 21
668.727734
  0
CIRCLE
  5
5E8
100
AcDbEntity
  8
M0
 62
     7
100
AcDbCircle
 10
194.844939
 20
652.227932
 40
5.0
  0
CIRCLE
  5
5E9
100
AcDbEntity
  8
M0
 62
     7
100
AcDbCircle
 10
194.844939
 20
652.227932
 40
4.0
  0
LINE
  5
5EA
100
AcDbEntity
  8
M0
 62
     7
100
AcDbLine
 10
182.344939
 20
710.228222
 11
182.344939
 21
704.027493
  0
LINE
  5
5EB
100
AcDbEntity
  8
M0
 62
     7
100
AcDbLine
 10
207.344939
 20
710.228192
 11
207.344939
 21
703.727749
  0
ARC
  5
5EC
100
AcDbEntity
  8
M0
 62
     1
100
AcDbCircle
 10
223.495719
 20
662.227719
 40
1.0
100
AcDbArc
 50
179.999126
 51
270.0
  0
ARC
  5
5ED
100
AcDbEntity
  8
M0
 62
     1
100
AcDbCircle
 10
223.495719
 20
662.227719
 40
1.0
100
AcDbArc
 50
270.0
 51
360.0
  0
LINE
  5
5EE
100
AcDbEntity
  8
M0
 62
     1
100
AcDbLine
 10
214.495757
 20
662.227734
 11
211.495757
 21
662.227734
  0
LINE
  5
5EF
100
AcDbEntity
  8
M0
 62
     1
100
AcDbLine
 10
192.745803
 20
703.727463
 11
192.745803
 21
704.527756
  0
ARC
  5
5F0
100
AcDbEntity
  8
M0
 62
     1
100
AcDbCircle
 10
191.745803
 20
704.527758
 40
1.0
100
AcDbArc
 50
0.0
 51
89.999126
  0
LINE
  5
5F1
100
AcDbEntity
  8
M0
 62
     1
100
AcDbLine
 10
235.495768
 20
702.727689
 11
203.495818
 21
702.727496
  0
LINE
  5
5F2
100
AcDbEntity
  8
M0
 62
     1
100
AcDbLine
 10
172.995803
 20
704.027494
 11
172.995757
 21
668.727704
  0
LINE
  5
5F3
100
AcDbEntity
  8
M0
 62
     1
100
AcDbLine
 10
214.495742
 20
666.227734
 11
215.553039
 21
666.227734
  0
LINE
  5
5F4
100
AcDbEntity
  8
M0
 62
     1
100
AcDbLine
 10
235.495721
 20
663.727704
 11
235.495788
 21
705.727688
  0
LINE
  5
5F5
100
AcDbEntity
  8
M0
 62
     1
100
AcDbLine
 10
231.640781
 20
698.227695
 11
219.845783
 21
698.227713
  0
LINE
  5
5F6
100
AcDbEntity
  8
M0
 62
     1
100
AcDbLine
 10
198.495773
 20
671.227749
 11
198.495818
 21
704.727747
  0
LINE
  5
5F7
100
AcDbEntity
  8
M0
 62
     1
100
AcDbLine
 10
200.995773
 20
671.227749
 11
200.995818
 21
704.727743
  0
LINE
  5
5F8
100
AcDbEntity
  8
M0
 62
     1
100
AcDbLine
 10
188.495773
 20
671.227765
 11
188.495818
 21
704.727763
  0
LINE
  5
5F9
100
AcDbEntity
  8
M0
 62
     1
100
AcDbLine
 10
185.995773
 20
671.22778
 11
185.995818
 21
704.727767
  0
LINE
  5
5FA
100
AcDbEntity
  8
M0
 62
     1
100
AcDbLine
 10
199.995834
 20
705.727744
 11
199.495834
 21
705.727745
  0
ARC
  5
5FB
100
AcDbEntity
  8
M0
 62
     1
100
AcDbCircle
 10
199.995818
 20
704.727744
 40
1.0
100
AcDbArc
 50
0.0
 51
89.999126
  0
LINE
  5
5FC
100
AcDbEntity
  8
M0
 62
     1
100
AcDbLine
 10
191.745803
 20
705.527758
 11
188.095748
 21
705.527737
  0
ARC
  5
5FD
100
AcDbEntity
  8
M0
 62
     1
100
AcDbCircle
 10
199.495818
 20
704.727745
 40
1.0
100
AcDbArc
 50
89.999126
 51
179.999962
  0
LINE
  5
5FE
100
AcDbEntity
  8
M0
 62
     1
100
AcDbLine
 10
209.495788
 20
685.227734
 11
202.495788
 21
685.227749
  0
LINE
  5
5FF
100
AcDbEntity
  8
M0
 62
     1
100
AcDbLine
 10
209.495803
 20
689.72773
 11
202.495803
 21
689.727741
  0
LINE
  5
600
100
AcDbEntity
  8
M0
 62
     1
100
AcDbLine
 10
209.495803
 20
687.727734
 11
202.495803
 21
687.727749
  0
LINE
  5
601
100
AcDbEntity
  8
M0
 62
     1
100
AcDbLine
 10
202.995803
 20
689.72774
 11
202.995803
 21
689.927691
  0
LINE
  5
602
100
AcDbEntity
  8
M0
 62
     1
100
AcDbLine
 10
208.995803
 20
689.72773
 11
208.995803
 21
689.927681
  0
LINE
  5
603
100
AcDbEntity
  8
M0
 62
     1
100
AcDbLine
 10
208.495818
 20
699.527536
 11
208.495818
 21
702.727731
  0
LINE
  5
604
100
AcDbEntity
  8
M0
 62
     1
100
AcDbLine
 10
203.495818
 20
699.527545
 11
203.495818
 21
702.72774
  0
LINE
  5
605
100
AcDbEntity
  8
M0
 62
     1
100
AcDbLine
 10
195.995818
 20
699.5278
 11
195.995818
 21
702.727751
  0
LINE
  5
606
100
AcDbEntity
  8
M0
 62
     1
100
AcDbLine
 10
190.995818
 20
699.527808
 11
190.995818
 21
702.727759
  0
LINE
  5
607
100
AcDbEntity
  8
M0
 62
     1
100
AcDbLine
 10
178.495818
 20
699.527828
 11
178.495818
 21
702.727779
  0
LINE
  5
608
100
AcDbEntity
  8
M0
 62
     1
100
AcDbLine
 10
183.495818
 20
699.52782
 11
183.495818
 21
702.727771
  0
LINE
  5
609
100
AcDbEntity
  8
M0
 62
     1
100
AcDbLine
 10
190.495803
 20
689.72776
 11
190.495803
 21
689.927955
  0
LINE
  5
60A
100
AcDbEntity
  8
M0
 62
     1
100
AcDbLine
 10
196.495803
 20
689.72775
 11
196.495803
 21
689.927946
  0
LINE
  5
60B
100
AcDbEntity
  8
M0
 62
     1
100
AcDbLine
 10
177.995803
 20
689.72778
 11
177.995803
 21
689.927975
  0
LINE
  5
60C
100
AcDbEntity
  8
M0
 62
     1
100
AcDbLine
 10
183.995803
 20
689.72777
 11
183.995803
 21
689.927966
  0
LINE
  5
60D
100
AcDbEntity
  8
M0
 62
     1
100
AcDbLine
 10
203.495818
 20
702.72774
 11
200.995818
 21
702.727744
  0
LINE
  5
60E
100
AcDbEntity
  8
M0
 62
     1
100
AcDbLine
 10
190.995818
 20
702.727759
 11
188.495818
 21
702.727763
  0
LINE
  5
60F
100
AcDbEntity
  8
M0
 62
     1
100
AcDbLine
 10
178.495818
 20
702.727779
 11
175.995818
 21
702.727783
  0
LINE
  5
610
100
AcDbEntity
  8
M0
 62
     1
100
AcDbLine
 10
196.995803
 20
689.727749
 11
189.995803
 21
689.727761
  0
LINE
  5
611
100
AcDbEntity
  8
M0
 62
     1
100
AcDbLine
 10
184.495803
 20
689.727769
 11
177.495803
 21
689.727781
  0
LINE
  5
612
100
AcDbEntity
  8
M0
 62
     1
100
AcDbLine
 10
210.495803
 20
690.727728
 11
210.495818
 21
701.727728
  0
LINE
  5
613
100
AcDbEntity
  8
M0
 62
     1
100
AcDbLine
 10
201.495803
 20
690.727743
 11
201.495818
 21
701.727743
  0
LINE
  5
614
100
AcDbEntity
  8
M0
 62
     1
100
AcDbLine
 10
197.995803
 20
690.727748
 11
197.995818
 21
701.727748
  0
LINE
  5
615
100
AcDbEntity
  8
M0
 62
     1
100
AcDbLine
 10
188.995803
 20
690.727763
 11
188.995818
 21
701.727763
  0
LINE
  5
616
100
AcDbEntity
  8
M0
 62
     1
100
AcDbLine
 10
185.495803
 20
690.727767
 11
185.495818
 21
701.727767
  0
LINE
  5
617
100
AcDbEntity
  8
M0
 62
     1
100
AcDbLine
 10
176.495803
 20
690.727782
 11
176.495818
 21
701.727782
  0
LINE
  5
618
100
AcDbEntity
  8
M0
 62
     1
100
AcDbLine
 10
198.495818
 20
702.727747
 11
190.995818
 21
702.727515
  0
LINE
  5
619
100
AcDbEntity
  8
M0
 62
     1
100
AcDbLine
 10
185.995818
 20
702.727767
 11
178.495818
 21
702.727535
  0
LINE
  5
61A
100
AcDbEntity
  8
M0
 62
     1
100
AcDbLine
 10
210.995773
 20
667.727734
 11
210.995788
 21
686.227734
  0
ARC
  5
61B
100
AcDbEntity
  8
M0
 62
     1
100
AcDbCircle
 10
211.495818
 20
701.727726
 40
1.0
100
AcDbArc
 50
119.999201
 51
179.999945
  0
ARC
  5
61C
100
AcDbEntity
  8
M0
 62
     1
100
AcDbCircle
 10
198.995818
 20
701.727747
 40
1.0
100
AcDbArc
 50
119.999201
 51
179.999945
  0
ARC
  5
61D
100
AcDbEntity
  8
M0
 62
     1
100
AcDbCircle
 10
186.495818
 20
701.727767
 40
1.0
100
AcDbArc
 50
119.999201
 51
179.999945
  0
ARC
  5
61E
100
AcDbEntity
  8
M0
 62
     1
100
AcDbCircle
 10
200.495818
 20
701.727745
 40
1.0
100
AcDbArc
 50
0.0
 51
59.999258
  0
ARC
  5
61F
100
AcDbEntity
  8
M0
 62
     1
100
AcDbCircle
 10
187.995818
 20
701.727764
 40
1.0
100
AcDbArc
 50
0.0
 51
59.999258
  0
LINE
  5
620
100
AcDbEntity
  8
M0
 62
     1
100
AcDbLine
 10
175.995803
 20
690.727783
 11
175.995818
 21
702.727783
  0
ARC
  5
621
100
AcDbEntity
  8
M0
 62
     1
100
AcDbCircle
 10
175.495818
 20
701.727784
 40
1.0
100
AcDbArc
 50
0.0
 51
59.999258
  0
LINE
  5
622
100
AcDbEntity
  8
M0
 62
     1
100
AcDbLine
 10
183.245834
 20
704.046326
 11
183.245834
 21
704.527771
  0
ARC
  5
623
100
AcDbEntity
  8
M0
 62
     1
100
AcDbCircle
 10
184.245834
 20
704.52777
 40
1.0
100
AcDbArc
 50
89.999126
 51
179.999945
  0
ARC
  5
624
100
AcDbEntity
  8
M0
 62
     1
100
AcDbCircle
 10
187.495818
 20
704.727764
 40
1.0
100
AcDbArc
 50
0.0
 51
89.999126
  0
ARC
  5
625
100
AcDbEntity
  8
M0
 62
     1
100
AcDbCircle
 10
186.995818
 20
704.727765
 40
1.0
100
AcDbArc
 50
89.999126
 51
179.999962
  0
LINE
  5
626
100
AcDbEntity
  8
M0
 62
     1
100
AcDbLine
 10
185.995834
 20
704.027494
 11
172.995803
 21
704.027494
  0
LINE
  5
627
100
AcDbEntity
  8
M0
 62
     1
100
AcDbLine
 10
184.495803
 20
687.72778
 11
172.995773
 21
687.727795
  0
LINE
  5
628
100
AcDbEntity
  8
M0
 62
     1
100
AcDbLine
 10
196.995803
 20
687.727749
 11
189.995803
 21
687.727765
  0
ARC
  5
629
100
AcDbEntity
  8
M0
 62
     1
100
AcDbCircle
 10
196.995803
 20
691.227749
 40
1.499996
100
AcDbArc
 50
270.0
 51
360.0
  0
ARC
  5
62A
100
AcDbEntity
  8
M0
 62
     1
100
AcDbCircle
 10
184.495803
 20
691.227769
 40
1.499996
100
AcDbArc
 50
270.0
 51
360.0
  0
ARC
  5
62B
100
AcDbEntity
  8
M0
 62
     1
100
AcDbCircle
 10
184.495803
 20
690.727769
 40
1.0
100
AcDbArc
 50
270.0
 51
360.0
  0
ARC
  5
62C
100
AcDbEntity
  8
M0
 62
     1
100
AcDbCircle
 10
196.995803
 20
690.727749
 40
1.0
100
AcDbArc
 50
270.0
 51
360.0
  0
ARC
  5
62D
100
AcDbEntity
  8
M0
 62
     1
100
AcDbCircle
 10
209.495803
 20
691.22773
 40
1.499996
100
AcDbArc
 50
270.0
 51
360.0
  0
ARC
  5
62E
100
AcDbEntity
  8
M0
 62
     1
100
AcDbCircle
 10
209.495803
 20
690.72773
 40
1.0
100
AcDbArc
 50
270.0
 51
360.0
  0
ARC
  5
62F
100
AcDbEntity
  8
M0
 62
     1
100
AcDbCircle
 10
202.495803
 20
691.227741
 40
1.499996
100
AcDbArc
 50
179.999964
 51
270.0
  0
ARC
  5
630
100
AcDbEntity
  8
M0
 62
     1
100
AcDbCircle
 10
189.995803
 20
691.227761
 40
1.499996
100
AcDbArc
 50
179.999964
 51
270.0
  0
ARC
  5
631
100
AcDbEntity
  8
M0
 62
     1
100
AcDbCircle
 10
202.495803
 20
690.727741
 40
1.0
100
AcDbArc
 50
179.999945
 51
270.0
  0
ARC
  5
632
100
AcDbEntity
  8
M0
 62
     1
100
AcDbCircle
 10
189.995803
 20
690.727761
 40
1.0
100
AcDbArc
 50
179.999945
 51
270.0
  0
ARC
  5
633
100
AcDbEntity
  8
M0
 62
     1
100
AcDbCircle
 10
177.495803
 20
690.727781
 40
1.0
100
AcDbArc
 50
179.999945
 51
270.0
  0
ARC
  5
634
100
AcDbEntity
  8
M0
 62
     1
100
AcDbCircle
 10
177.495803
 20
691.227781
 40
1.499996
100
AcDbArc
 50
179.999964
 51
270.0
  0
ARC
  5
635
100
AcDbEntity
  8
M0
 62
     1
100
AcDbCircle
 10
174.995803
 20
690.727785
 40
1.0
100
AcDbArc
 50
270.0
 51
360.0
  0
LINE
  5
636
100
AcDbEntity
  8
M0
 62
     1
100
AcDbLine
 10
174.995803
 20
689.727785
 11
172.995773
 21
689.727788
  0
LINE
  5
637
100
AcDbEntity
  8
M0
 62
     1
100
AcDbLine
 10
210.995773
 20
675.227734
 11
200.995773
 21
675.227749
  0
LINE
  5
638
100
AcDbEntity
  8
M0
 62
     1
100
AcDbLine
 10
210.995803
 20
691.227727
 11
210.995818
 21
702.727727
  0
ARC
  5
639
100
AcDbEntity
  8
M0
 62
     1
100
AcDbCircle
 10
202.495788
 20
686.227749
 40
1.499996
100
AcDbArc
 50
89.999417
 51
179.999417
  0
ARC
  5
63A
100
AcDbEntity
  8
M0
 62
     1
100
AcDbCircle
 10
209.495788
 20
686.227734
 40
1.499996
100
AcDbArc
 50
0.0
 51
89.999417
  0
ARC
  5
63B
100
AcDbEntity
  8
M0
 62
     1
100
AcDbCircle
 10
196.995788
 20
686.227749
 40
1.499996
100
AcDbArc
 50
0.0
 51
89.999417
  0
ARC
  5
63C
100
AcDbEntity
  8
M0
 62
     1
100
AcDbCircle
 10
189.995788
 20
686.227765
 40
1.499996
100
AcDbArc
 50
89.999417
 51
179.999417
  0
ARC
  5
63D
100
AcDbEntity
  8
M0
 62
     1
100
AcDbCircle
 10
184.495788
 20
686.22778
 40
1.499996
100
AcDbArc
 50
0.0
 51
89.999417
  0
LINE
  5
63E
100
AcDbEntity
  8
M0
 62
     1
100
AcDbLine
 10
175.995773
 20
674.727795
 11
175.995803
 21
686.727795
  0
ARC
  5
63F
100
AcDbEntity
  8
M0
 62
     1
100
AcDbCircle
 10
177.495788
 20
686.227795
 40
1.499996
100
AcDbArc
 50
89.999417
 51
179.999417
  0
ARC
  5
640
100
AcDbEntity
  8
M0
 62
     1
100
AcDbCircle
 10
174.995803
 20
686.727795
 40
1.0
100
AcDbArc
 50
0.0
 51
89.999126
  0
LINE
  5
641
100
AcDbEntity
  8
M0
 62
     1
100
AcDbLine
 10
198.495773
 20
675.227749
 11
188.495773
 21
675.227765
  0
LINE
  5
642
100
AcDbEntity
  8
M0
 62
     1
100
AcDbLine
 10
185.995773
 20
675.22778
 11
175.995773
 21
675.227795
  0
ARC
  5
643
100
AcDbEntity
  8
M0
 62
     1
100
AcDbCircle
 10
209.495788
 20
683.727734
 40
1.499996
100
AcDbArc
 50
0.0
 51
89.999417
  0
LINE
  5
644
100
AcDbEntity
  8
M0
 62
     1
100
AcDbLine
 10
196.995788
 20
685.227749
 11
189.995788
 21
685.227765
  0
LINE
  5
645
100
AcDbEntity
  8
M0
 62
     1
100
AcDbLine
 10
184.495788
 20
685.22778
 11
177.495788
 21
685.227795
  0
ARC
  5
646
100
AcDbEntity
  8
M0
 62
     1
100
AcDbCircle
 10
202.495788
 20
683.727749
 40
1.499996
100
AcDbArc
 50
89.999417
 51
179.999417
  0
ARC
  5
647
100
AcDbEntity
  8
M0
 62
     1
100
AcDbCircle
 10
189.995788
 20
683.727765
 40
1.499996
100
AcDbArc
 50
89.999417
 51
179.999417
  0
ARC
  5
648
100
AcDbEntity
  8
M0
 62
     1
100
AcDbCircle
 10
177.495788
 20
683.727795
 40
1.499996
100
AcDbArc
 50
89.999417
 51
179.999417
  0
ARC
  5
649
100
AcDbEntity
  8
M0
 62
     1
100
AcDbCircle
 10
196.995788
 20
683.727749
 40
1.499996
100
AcDbArc
 50
0.0
 51
89.999417
  0
ARC
  5
64A
100
AcDbEntity
  8
M0
 62
     1
100
AcDbCircle
 10
184.495788
 20
683.72778
 40
1.499996
100
AcDbArc
 50
0.0
 51
89.999417
  0
LINE
  5
64B
100
AcDbEntity
  8
M0
 62
     1
100
AcDbLine
 10
210.495773
 20
676.227734
 11
210.495788
 21
684.227734
  0
LINE
  5
64C
100
AcDbEntity
  8
M0
 62
     1
100
AcDbLine
 10
201.495773
 20
676.227749
 11
201.495788
 21
684.227749
  0
LINE
  5
64D
100
AcDbEntity
  8
M0
 62
     1
100
AcDbLine
 10
197.995773
 20
676.227749
 11
197.995788
 21
684.227749
  0
LINE
  5
64E
100
AcDbEntity
  8
M0
 62
     1
100
AcDbLine
 10
188.995773
 20
676.227765
 11
188.995788
 21
684.227765
  0
LINE
  5
64F
100
AcDbEntity
  8
M0
 62
     1
100
AcDbLine
 10
185.495773
 20
676.22778
 11
185.495788
 21
684.22778
  0
LINE
  5
650
100
AcDbEntity
  8
M0
 62
     1
100
AcDbLine
 10
176.495773
 20
676.227795
 11
176.495788
 21
684.227795
  0
ARC
  5
651
100
AcDbEntity
  8
M0
 62
     1
100
AcDbCircle
 10
209.495788
 20
684.227734
 40
1.0
100
AcDbArc
 50
0.0
 51
89.999126
  0
ARC
  5
652
100
AcDbEntity
  8
M0
 62
     1
100
AcDbCircle
 10
196.995788
 20
684.227749
 40
1.0
100
AcDbArc
 50
0.0
 51
89.999126
  0
ARC
  5
653
100
AcDbEntity
  8
M0
 62
     1
100
AcDbCircle
 10
184.495788
 20
684.22778
 40
1.0
100
AcDbArc
 50
0.0
 51
89.999126
  0
ARC
  5
654
100
AcDbEntity
  8
M0
 62
     1
100
AcDbCircle
 10
202.495788
 20
684.227749
 40
1.0
100
AcDbArc
 50
89.999126
 51
179.999126
  0
ARC
  5
655
100
AcDbEntity
  8
M0
 62
     1
100
AcDbCircle
 10
189.995788
 20
684.227765
 40
1.0
100
AcDbArc
 50
89.999126
 51
179.999126
  0
ARC
  5
656
100
AcDbEntity
  8
M0
 62
     1
100
AcDbCircle
 10
177.495788
 20
684.227795
 40
1.0
100
AcDbArc
 50
89.999126
 51
179.999126
  0
ARC
  5
657
100
AcDbEntity
  8
M0
 62
     1
100
AcDbCircle
 10
211.495773
 20
676.227734
 40
1.0
100
AcDbArc
 50
179.999126
 51
239.999632
  0
ARC
  5
658
100
AcDbEntity
  8
M0
 62
     1
100
AcDbCircle
 10
198.995773
 20
676.227749
 40
1.0
100
AcDbArc
 50
179.999126
 51
239.999632
  0
ARC
  5
659
100
AcDbEntity
  8
M0
 62
     1
100
AcDbCircle
 10
186.495773
 20
676.22778
 40
1.0
100
AcDbArc
 50
179.999126
 51
239.999632
  0
ARC
  5
65A
100
AcDbEntity
  8
M0
 62
     1
100
AcDbCircle
 10
175.495773
 20
676.227795
 40
1.0
100
AcDbArc
 50
300.001125
 51
360.0
  0
ARC
  5
65B
100
AcDbEntity
  8
M0
 62
     1
100
AcDbCircle
 10
187.995773
 20
676.227765
 40
1.0
100
AcDbArc
 50
300.001125
 51
360.0
  0
ARC
  5
65C
100
AcDbEntity
  8
M0
 62
     1
100
AcDbCircle
 10
200.495773
 20
676.227749
 40
1.0
100
AcDbArc
 50
300.001125
 51
360.0
  0
LINE
  5
65D
100
AcDbEntity
  8
M0
 62
     1
100
AcDbLine
 10
199.995773
 20
670.227749
 11
199.495773
 21
670.227749
  0
LINE
  5
65E
100
AcDbEntity
  8
M0
 62
     1
100
AcDbLine
 10
187.495773
 20
670.227765
 11
186.995773
 21
670.22778
  0
ARC
  5
65F
100
AcDbEntity
  8
M0
 62
     1
100
AcDbCircle
 10
186.995773
 20
671.22778
 40
1.0
100
AcDbArc
 50
179.999126
 51
270.0
  0
ARC
  5
660
100
AcDbEntity
  8
M0
 62
     1
100
AcDbCircle
 10
187.495773
 20
671.227765
 40
1.0
100
AcDbArc
 50
270.0
 51
360.0
  0
ARC
  5
661
100
AcDbEntity
  8
M0
 62
     1
100
AcDbCircle
 10
199.495773
 20
671.227749
 40
1.0
100
AcDbArc
 50
179.999126
 51
270.0
  0
ARC
  5
662
100
AcDbEntity
  8
M0
 62
     1
100
AcDbCircle
 10
199.995773
 20
671.227749
 40
1.0
100
AcDbArc
 50
270.0
 51
360.0
  0
LINE
  5
663
100
AcDbEntity
  8
M0
 62
     1
100
AcDbLine
 10
210.995773
 20
668.727734
 11
201.245773
 21
668.727749
  0
LINE
  5
664
100
AcDbEntity
  8
M0
 62
     1
100
AcDbLine
 10
180.245773
 20
668.72778
 11
180.245773
 21
675.22778
  0
LINE
  5
665
100
AcDbEntity
  8
M0
 62
     1
100
AcDbLine
 10
184.745773
 20
668.72778
 11
184.745773
 21
675.22778
  0
LINE
  5
666
100
AcDbEntity
  8
M0
 62
     1
100
AcDbLine
 10
205.245773
 20
668.727749
 11
205.245773
 21
675.227749
  0
LINE
  5
667
100
AcDbEntity
  8
M0
 62
     1
100
AcDbLine
 10
209.745773
 20
668.727734
 11
209.745773
 21
675.227734
  0
LINE
  5
668
100
AcDbEntity
  8
M0
 62
     1
100
AcDbLine
 10
174.995773
 20
673.727795
 11
172.995742
 21
673.727795
  0
ARC
  5
669
100
AcDbEntity
  8
M0
 62
     1
100
AcDbCircle
 10
174.995773
 20
674.727795
 40
1.0
100
AcDbArc
 50
270.0
 51
360.0
  0
LINE
  5
66A
100
AcDbEntity
  8
M0
 62
     1
100
AcDbLine
 10
232.495723
 20
664.227704
 11
232.495748
 21
680.32774
  0
LINE
  5
66B
100
AcDbEntity
  8
M0
 62
     1
100
AcDbLine
 10
234.99572
 20
672.227704
 11
233.49572
 21
672.227704
  0
ARC
  5
66C
100
AcDbEntity
  8
M0
 62
     1
100
AcDbCircle
 10
234.99572
 20
672.727704
 40
0.5
100
AcDbArc
 50
270.0
 51
360.0
  0
ARC
  5
66D
100
AcDbEntity
  8
M0
 62
     1
100
AcDbCircle
 10
233.495722
 20
673.227704
 40
1.0
100
AcDbArc
 50
179.999126
 51
270.0
  0
LINE
  5
66E
100
AcDbEntity
  8
M0
 62
     1
100
AcDbLine
 10
234.995724
 20
665.227704
 11
233.495724
 21
665.227704
  0
LINE
  5
66F
100
AcDbEntity
  8
M0
 62
     1
100
AcDbLine
 10
234.995721
 20
663.227704
 11
233.495721
 21
663.227704
  0
ARC
  5
670
100
AcDbEntity
  8
M0
 62
     1
100
AcDbCircle
 10
234.995721
 20
663.727704
 40
0.5
100
AcDbArc
 50
270.0
 51
360.0
  0
ARC
  5
671
100
AcDbEntity
  8
M0
 62
     1
100
AcDbCircle
 10
233.495723
 20
664.227704
 40
1.0
100
AcDbArc
 50
179.999126
 51
270.0
  0
ARC
  5
672
100
AcDbEntity
  8
M0
 62
     1
100
AcDbCircle
 10
234.995725
 20
665.727704
 40
0.5
100
AcDbArc
 50
270.0
 51
360.0
  0
ARC
  5
673
100
AcDbEntity
  8
M0
 62
     1
100
AcDbCircle
 10
233.495726
 20
666.227704
 40
1.0
100
AcDbArc
 50
179.999126
 51
270.0
  0
LINE
  5
674
100
AcDbEntity
  8
M0
 62
     1
100
AcDbLine
 10
234.995732
 20
670.227704
 11
233.495733
 21
670.227704
  0
ARC
  5
675
100
AcDbEntity
  8
M0
 62
     1
100
AcDbCircle
 10
233.495733
 20
671.227704
 40
1.0
100
AcDbArc
 50
179.999126
 51
270.0
  0
ARC
  5
676
100
AcDbEntity
  8
M0
 62
     1
100
AcDbCircle
 10
234.995733
 20
670.727704
 40
0.5
100
AcDbArc
 50
270.0
 51
360.0
  0
LINE
  5
677
100
AcDbEntity
  8
M0
 62
     1
100
AcDbLine
 10
224.495719
 20
662.227719
 11
224.495746
 21
679.027737
  0
LINE
  5
678
100
AcDbEntity
  8
M0
 62
     1
100
AcDbLine
 10
231.437987
 20
666.227704
 11
232.495695
 21
666.227704
  0
LINE
  5
679
100
AcDbEntity
  8
M0
 62
     1
100
AcDbLine
 10
232.495707
 20
673.227704
 11
231.746393
 21
673.227459
  0
LINE
  5
67A
100
AcDbEntity
  8
M0
 62
     1
100
AcDbLine
 10
225.244776
 20
673.227475
 11
224.495707
 21
673.227719
  0
LINE
  5
67B
100
AcDbEntity
  8
M0
 62
     1
100
AcDbLine
 10
221.4957
 20
669.227719
 11
221.49573
 21
679.027737
  0
LINE
  5
67C
100
AcDbEntity
  8
M0
 62
     1
100
AcDbLine
 10
223.495729
 20
668.227719
 11
222.495729
 21
668.227719
  0
ARC
  5
67D
100
AcDbEntity
  8
M0
 62
     1
100
AcDbCircle
 10
223.495731
 20
669.227719
 40
1.0
100
AcDbArc
 50
270.0
 51
360.0
  0
ARC
  5
67E
100
AcDbEntity
  8
M0
 62
     1
100
AcDbCircle
 10
222.495731
 20
669.227719
 40
1.0
100
AcDbArc
 50
179.999126
 51
270.0
  0
LINE
  5
67F
100
AcDbEntity
  8
M0
 62
     1
100
AcDbLine
 10
213.495773
 20
670.727749
 11
213.495788
 21
681.727734
  0
LINE
  5
680
100
AcDbEntity
  8
M0
 62
     1
100
AcDbLine
 10
220.436793
 20
673.227719
 11
221.495737
 21
673.227719
  0
LINE
  5
681
100
AcDbEntity
  8
M0
 62
     1
100
AcDbLine
 10
215.495742
 20
666.227734
 11
215.495742
 21
666.413525
  0
LINE
  5
682
100
AcDbEntity
  8
M0
 62
     1
100
AcDbLine
 10
214.495757
 20
662.227734
 11
214.495757
 21
673.409619
  0
LINE
  5
683
100
AcDbEntity
  8
M0
 62
     1
100
AcDbLine
 10
222.495719
 20
662.227719
 11
222.495729
 21
668.227719
  0
LINE
  5
684
100
AcDbEntity
  8
M0
 62
     1
100
AcDbLine
 10
224.495695
 20
666.227719
 11
225.553023
 21
666.227719
  0
LINE
  5
685
100
AcDbEntity
  8
M0
 62
     1
100
AcDbLine
 10
214.495773
 20
667.727734
 11
210.995773
 21
667.727734
  0
LINE
  5
686
100
AcDbEntity
  8
M0
 62
     1
100
AcDbLine
 10
214.495773
 20
669.727734
 11
210.995773
 21
669.727734
  0
LINE
  5
687
100
AcDbEntity
  8
M0
 62
     1
100
AcDbLine
 10
213.495773
 20
671.227734
 11
213.495788
 21
681.727734
  0
ARC
  5
688
100
AcDbEntity
  8
M0
 62
     1
100
AcDbCircle
 10
211.995773
 20
670.727734
 40
1.0
100
AcDbArc
 50
179.999126
 51
270.0
  0
ARC
  5
689
100
AcDbEntity
  8
M0
 62
     1
100
AcDbCircle
 10
212.495773
 20
670.727734
 40
1.0
100
AcDbArc
 50
270.0
 51
360.0
  0
LINE
  5
68A
100
AcDbEntity
  8
M0
 62
     1
100
AcDbLine
 10
211.495757
 20
662.227734
 11
211.495773
 21
667.727734
  0
ARC
  5
68B
100
AcDbEntity
  8
M0
 62
     1
100
AcDbCircle
 10
214.995788
 20
680.227734
 40
1.499996
100
AcDbArc
 50
89.999417
 51
119.925542
  0
LINE
  5
68C
100
AcDbEntity
  8
M0
 62
     1
100
AcDbLine
 10
213.345779
 20
689.227734
 11
211.845779
 21
687.727749
  0
LINE
  5
68D
100
AcDbEntity
  8
M0
 62
     1
100
AcDbLine
 10
213.345779
 20
689.227734
 11
211.845779
 21
690.727726
  0
LINE
  5
68E
100
AcDbEntity
  8
M0
 62
     1
100
AcDbLine
 10
210.995803
 20
687.727734
 11
210.995803
 21
691.227727
  0
LINE
  5
68F
100
AcDbEntity
  8
M0
 62
     1
100
AcDbLine
 10
219.845783
 20
698.227713
 11
219.84579
 21
702.727713
  0
LINE
  5
690
100
AcDbEntity
  8
M0
 62
     1
100
AcDbLine
 10
231.640781
 20
698.227695
 11
231.640788
 21
702.727695
  0
LINE
  5
691
100
AcDbEntity
  8
M0
 62
     1
100
AcDbLine
 10
213.345809
 20
702.727689
 11
213.345809
 21
687.727459
  0
LINE
  5
692
100
AcDbEntity
  8
M0
 62
     1
100
AcDbLine
 10
211.845779
 20
687.727459
 11
210.995818
 21
687.727704
  0
LINE
  5
693
100
AcDbEntity
  8
M0
 62
     1
100
AcDbLine
 10
211.845794
 20
690.727445
 11
210.995818
 21
690.727689
  0
LINE
  5
694
100
AcDbEntity
  8
M0
 62
     1
100
AcDbLine
 10
213.345763
 20
685.977734
 11
210.995788
 21
685.977734
  0
LINE
  5
695
100
AcDbEntity
  8
M0
 62
     1
100
AcDbLine
 10
213.345779
 20
692.477724
 11
210.995803
 21
692.477727
  0
LINE
  5
696
100
AcDbEntity
  8
M0
 62
     1
100
AcDbLine
 10
197.495803
 20
687.641964
 11
197.495803
 21
689.81355
  0
LINE
  5
697
100
AcDbEntity
  8
M0
 62
     1
100
AcDbLine
 10
201.995803
 20
687.641964
 11
201.995803
 21
689.813542
  0
LINE
  5
698
100
AcDbEntity
  8
M0
 62
     1
100
AcDbLine
 10
207.995803
 20
687.727734
 11
207.995803
 21
689.727732
  0
ARC
  5
699
100
AcDbEntity
  8
M0
 62
     1
100
AcDbCircle
 10
182.495773
 20
673.22778
 40
2.249995
100
AcDbArc
 50
179.999611
 51
360.0
  0
LINE
  5
69A
100
AcDbEntity
  8
M0
 62
     1
100
AcDbLine
 10
194.995773
 20
669.727765
 11
194.995773
 21
672.227765
  0
ARC
  5
69B
100
AcDbEntity
  8
M0
 62
     1
100
AcDbCircle
 10
207.495773
 20
673.227734
 40
2.249995
100
AcDbArc
 50
179.999611
 51
360.0
  0
LINE
  5
69C
100
AcDbEntity
  8
M0
 62
     1
100
AcDbLine
 10
197.995788
 20
683.727749
 11
197.594589
 21
683.727505
  0
LINE
  5
69D
100
AcDbEntity
  8
M0
 62
     1
100
AcDbLine
 10
185.495788
 20
683.72778
 11
185.094589
 21
683.727536
  0
ARC
  5
69E
100
AcDbEntity
  8
M0
 62
     1
100
AcDbCircle
 10
175.9458
 20
682.227795
 40
1.499996
100
AcDbArc
 50
50.758901
 51
68.48984
  0
ARC
  5
69F
100
AcDbEntity
  8
M0
 62
     1
100
AcDbCircle
 10
186.045776
 20
682.22778
 40
1.499996
100
AcDbArc
 50
111.509618
 51
129.359081
  0
ARC
  5
6A0
100
AcDbEntity
  8
M0
 62
     1
100
AcDbCircle
 10
188.445831
 20
682.227765
 40
1.499996
100
AcDbArc
 50
50.759721
 51
68.48984
  0
ARC
  5
6A1
100
AcDbEntity
  8
M0
 62
     1
100
AcDbCircle
 10
211.045776
 20
682.227734
 40
1.499996
100
AcDbArc
 50
111.509618
 51
129.359901
  0
ARC
  5
6A2
100
AcDbEntity
  8
M0
 62
     1
100
AcDbCircle
 10
200.9458
 20
682.227749
 40
1.499996
100
AcDbArc
 50
50.759721
 51
68.48984
  0
LINE
  5
6A3
100
AcDbEntity
  8
M0
 62
     1
100
AcDbLine
 10
210.495788
 20
683.727734
 11
210.094558
 21
683.72749
  0
LINE
  5
6A4
100
AcDbEntity
  8
M0
 62
     1
100
AcDbLine
 10
221.438002
 20
666.227719
 11
222.495695
 21
666.227719
  0
LINE
  5
6A5
100
AcDbEntity
  8
M0
 62
     1
100
AcDbLine
 10
201.245773
 20
668.727749
 11
201.245773
 21
673.227749
  0
LINE
  5
6A6
100
AcDbEntity
  8
M0
 62
     1
100
AcDbLine
 10
193.995773
 20
668.727765
 11
172.995742
 21
668.727795
  0
LINE
  5
6A7
100
AcDbEntity
  8
M0
 62
     1
100
AcDbLine
 10
198.495773
 20
674.227749
 11
196.995773
 21
674.227749
  0
ARC
  5
6A8
100
AcDbEntity
  8
M0
 62
     1
100
AcDbCircle
 10
196.995773
 20
672.227749
 40
1.999995
100
AcDbArc
 50
89.999563
 51
179.999563
  0
ARC
  5
6A9
100
AcDbEntity
  8
M0
 62
     1
100
AcDbCircle
 10
193.995773
 20
669.727765
 40
1.0
100
AcDbArc
 50
270.0
 51
360.0
  0
ARC
  5
6AA
100
AcDbEntity
  8
M0
 62
     1
100
AcDbCircle
 10
200.245773
 20
673.227749
 40
1.0
100
AcDbArc
 50
0.0
 51
41.409629
  0
LINE
  5
6AB
100
AcDbEntity
  8
M0
 62
     1
100
AcDbLine
 10
174.995818
 20
703.727785
 11
172.995788
 21
703.727788
  0
ARC
  5
6AC
100
AcDbEntity
  8
M0
 62
     1
100
AcDbCircle
 10
174.995818
 20
702.727785
 40
1.0
100
AcDbArc
 50
0.0
 51
89.999126
  0
LINE
  5
6AD
100
AcDbEntity
  8
M0
 62
     1
100
AcDbLine
 10
235.495788
 20
705.727688
 11
226.995789
 21
705.727702
  0
LINE
  5
6AE
100
AcDbEntity
  8
M0
 62
     1
100
AcDbLine
 10
225.995786
 20
703.927716
 11
225.995787
 21
704.727703
  0
LINE
  5
6AF
100
AcDbEntity
  8
M0
 62
     1
100
AcDbLine
 10
225.995786
 20
703.727716
 11
200.995834
 21
703.727756
  0
ARC
  5
6B0
100
AcDbEntity
  8
M0
 62
     1
100
AcDbCircle
 10
226.995787
 20
704.727702
 40
1.0
100
AcDbArc
 50
90.0
 51
179.999962
  0
LINE
  5
6B1
100
AcDbEntity
  8
M0
 62
     1
100
AcDbLine
 10
198.495834
 20
703.727699
 11
188.495818
 21
703.72747
  0
LINE
  5
6B2
100
AcDbEntity
  8
M0
 62
     1
100
AcDbLine
 10
226.645783
 20
696.677761
 11
226.645784
 21
697.177761
  0
LINE
  5
6B3
100
AcDbEntity
  8
M0
 62
     1
100
AcDbLine
 10
228.145783
 20
696.677759
 11
226.645783
 21
696.677761
  0
LINE
  5
6B4
100
AcDbEntity
  8
M0
 62
     1
100
AcDbLine
 10
228.145784
 20
697.177759
 11
226.645784
 21
697.177761
  0
LINE
  5
6B5
100
AcDbEntity
  8
M0
 62
     1
100
AcDbLine
 10
212.495757
 20
665.227734
 11
212.495773
 21
667.727734
  0
LINE
  5
6B6
100
AcDbEntity
  8
M0
 62
     1
100
AcDbLine
 10
214.495773
 20
664.227734
 11
211.495757
 21
664.227734
  0
ARC
  5
6B7
100
AcDbEntity
  8
M0
 62
     1
100
AcDbCircle
 10
213.495757
 20
665.227734
 40
1.0
100
AcDbArc
 50
179.999126
 51
270.0
  0
ARC
  5
6B8
100
AcDbEntity
  8
M0
 62
     1
100
AcDbCircle
 10
213.495757
 20
665.227734
 40
1.0
100
AcDbArc
 50
270.0
 51
360.0
  0
LINE
  5
6B9
100
AcDbEntity
  8
M0
 62
     1
100
AcDbLine
 10
228.145782
 20
695.77305
 11
228.145783
 21
696.677759
  0
LINE
  5
6BA
100
AcDbEntity
  8
M0
 62
     1
100
AcDbLine
 10
228.145784
 20
697.177759
 11
228.145786
 21
698.082483
  0
TEXT
  5
6BB
100
AcDbEntity
  8
M0
 62
     1
100
AcDbText
 10
180.346015
 20
685.078152
 40
2.800003
  1
２
 50
359.999928
 41
0.535719
  7
STANDARD
100
AcDbText
  0
TEXT
  5
6BC
100
AcDbEntity
  8
M0
 62
     1
100
AcDbText
 10
192.846015
 20
685.078137
 40
2.800003
  1
４
 50
359.999928
 41
0.535719
  7
STANDARD
100
AcDbText
  0
TEXT
  5
6BD
100
AcDbEntity
  8
M0
 62
     1
100
AcDbText
 10
205.345847
 20
685.078121
 40
2.800003
  1
６
 50
359.999928
 41
0.535719
  7
STANDARD
100
AcDbText
  0
TEXT
  5
6BE
100
AcDbEntity
  8
M0
 62
     1
100
AcDbText
 10
234.795798
 20
682.342441
 40
1.800003
  1
ＡＵＴＯ
 50
450.000566
 41
0.63658
  7
STANDARD
100
AcDbText
  0
CIRCLE
  5
6BF
100
AcDbEntity
  8
M0
 62
     1
100
AcDbCircle
 10
233.795765
 20
689.227704
 40
0.749999
  0
LINE
  5
6C0
100
AcDbEntity
  8
M0
 62
     1
100
AcDbLine
 10
230.145814
 20
696.92777
 11
228.145782
 21
695.77305
  0
LINE
  5
6C1
100
AcDbEntity
  8
M0
 62
     1
100
AcDbLine
 10
230.145814
 20
696.92777
 11
228.145786
 21
698.082483
  0
LINE
  5
6C2
100
AcDbEntity
  8
M0
 62
     1
100
AcDbLine
 10
176.894592
 20
683.727551
 11
176.495788
 21
683.727795
  0
LINE
  5
6C3
100
AcDbEntity
  8
M0
 62
     1
100
AcDbLine
 10
189.394592
 20
683.72752
 11
188.995788
 21
683.727765
  0
LINE
  5
6C4
100
AcDbEntity
  8
M0
 62
     1
100
AcDbLine
 10
201.894561
 20
683.727505
 11
201.495788
 21
683.727749
  0
ARC
  5
6C5
100
AcDbEntity
  8
M0
 62
     1
100
AcDbCircle
 10
198.543304
 20
682.227505
 40
1.499994
100
AcDbArc
 50
111.509618
 51
129.239827
  0
LINE
  5
6C6
100
AcDbEntity
  8
M0
 62
     1
100
AcDbLine
 10
215.996154
 20
705.723032
 11
211.996154
 21
705.723038
  0
ARC
  5
6C7
100
AcDbEntity
  8
M0
 62
     1
100
AcDbCircle
 10
211.996154
 20
704.723038
 40
1.0
100
AcDbArc
 50
89.999126
 51
179.999945
  0
ARC
  5
6C8
100
AcDbEntity
  8
M0
 62
     1
100
AcDbCircle
 10
215.996154
 20
704.723032
 40
1.0
100
AcDbArc
 50
0.0
 51
89.999126
  0
LINE
  5
6C9
100
AcDbEntity
  8
M0
 62
     1
100
AcDbLine
 10
210.996154
 20
704.72304
 11
210.996154
 21
703.72304
  0
LINE
  5
6CA
100
AcDbEntity
  8
M0
 62
     1
100
AcDbLine
 10
216.996154
 20
704.723031
 11
216.996154
 21
703.723031
  0
LINE
  5
6CB
100
AcDbEntity
  8
M0
 62
     1
100
AcDbLine
 10
186.995834
 20
705.727688
 11
187.495834
 21
705.727688
  0
LINE
  5
6CC
100
AcDbEntity
  8
M0
 62
     1
100
AcDbLine
 10
186.395873
 20
705.527737
 11
184.245834
 21
705.52777
  0
LINE
  5
6CD
100
AcDbEntity
  8
M0
 62
     1
100
AcDbLine
 10
213.345809
 20
687.727459
 11
213.345763
 21
681.727734
  0
LINE
  5
6CE
100
AcDbEntity
  8
M0
 62
     1
100
AcDbLine
 10
215.995803
 20
681.727734
 11
210.995788
 21
681.727734
  0
TEXT
  5
6CF
100
AcDbEntity
  8
M0
 62
     1
100
AcDbText
 10
219.345839
 20
696.942412
 40
1.800003
  1
ＴＲＩＰ
 50
450.000566
 41
0.63658
  7
STANDARD
100
AcDbText
  0
CIRCLE
  5
6D0
100
AcDbEntity
  8
M0
 62
     1
100
AcDbCircle
 10
223.344731
 20
689.227948
 40
8.299999
  0
LINE
  5
6D1
100
AcDbEntity
  8
M0
 62
     1
100
AcDbLine
 10
213.795806
 20
684.227704
 11
213.795806
 21
699.827676
  0
LINE
  5
6D2
100
AcDbEntity
  8
M0
 62
     1
100
AcDbLine
 10
210.495803
 20
703.727673
 11
210.495803
 21
702.527673
  0
LINE
  5
6D3
100
AcDbEntity
  8
M0
 62
     1
100
AcDbLine
 10
210.495803
 20
681.527676
 11
210.495803
 21
680.327679
  0
LINE
  5
6D4
100
AcDbEntity
  8
M0
 62
     1
100
AcDbLine
 10
210.495803
 20
681.527676
 11
215.995803
 21
681.527691
  0
LINE
  5
6D5
100
AcDbEntity
  8
M0
 62
     1
100
AcDbLine
 10
210.495803
 20
702.527673
 11
215.995803
 21
702.527677
  0
LINE
  5
6D6
100
AcDbEntity
  8
M0
 62
     1
100
AcDbLine
 10
221.295804
 20
679.027691
 11
225.295804
 21
679.027691
  0
LINE
  5
6D7
100
AcDbEntity
  8
M0
 62
     1
100
AcDbLine
 10
227.495803
 20
680.327694
 11
225.295804
 21
679.027691
  0
LINE
  5
6D8
100
AcDbEntity
  8
M0
 62
     1
100
AcDbLine
 10
221.295804
 20
679.027691
 11
218.495803
 21
680.327694
  0
LINE
  5
6D9
100
AcDbEntity
  8
M0
 62
     1
100
AcDbLine
 10
218.495803
 20
680.327694
 11
210.495803
 21
680.327679
  0
LINE
  5
6DA
100
AcDbEntity
  8
M0
 62
     1
100
AcDbLine
 10
234.995803
 20
680.32771
 11
227.495803
 21
680.327694
  0
ARC
  5
6DB
100
AcDbEntity
  8
M0
 62
     1
100
AcDbCircle
 10
234.995802
 20
680.82771
 40
0.5
100
AcDbArc
 50
270.0
 51
360.0
  0
LINE
  5
6DC
100
AcDbEntity
  8
M0
 62
     1
100
AcDbLine
 10
220.72321
 20
701.34047
 11
222.72321
 21
701.34047
  0
LINE
  5
6DD
100
AcDbEntity
  8
M0
 62
     1
100
AcDbLine
 10
223.8447
 20
699.077937
 11
227.8447
 21
699.077937
  0
LINE
  5
6DE
100
AcDbEntity
  8
M0
 62
     1
100
AcDbLine
 10
227.8447
 20
699.077937
 11
227.8447
 21
701.877936
  0
LINE
  5
6DF
100
AcDbEntity
  8
M0
 62
     1
100
AcDbLine
 10
227.8447
 20
701.877936
 11
223.8447
 21
701.877936
  0
LINE
  5
6E0
100
AcDbEntity
  8
M0
 62
     1
100
AcDbLine
 10
223.8447
 20
701.877936
 11
223.8447
 21
699.077937
  0
LINE
  5
6E1
100
AcDbEntity
  8
M0
 62
     1
100
AcDbLine
 10
235.495802
 20
680.82771
 11
235.495788
 21
703.227689
  0
LINE
  5
6E2
100
AcDbEntity
  8
M0
 62
     1
100
AcDbLine
 10
234.995788
 20
703.727689
 11
210.495803
 21
703.727673
  0
ARC
  5
6E3
100
AcDbEntity
  8
M0
 62
     1
100
AcDbCircle
 10
234.995788
 20
703.227689
 40
0.5
100
AcDbArc
 50
0.0
 51
90.0
  0
LINE
  5
6E4
100
AcDbEntity
  8
M0
 62
     1
100
AcDbLine
 10
215.995803
 20
681.527691
 11
215.995803
 21
683.227704
  0
LINE
  5
6E5
100
AcDbEntity
  8
M0
 62
     1
100
AcDbLine
 10
213.795806
 20
684.227704
 11
214.995803
 21
684.227704
  0
ARC
  5
6E6
100
AcDbEntity
  8
M0
 62
     1
100
AcDbCircle
 10
214.995803
 20
683.227704
 40
1.0
100
AcDbArc
 50
0.0
 51
89.999126
  0
LINE
  5
6E7
100
AcDbEntity
  8
M0
 62
     1
100
AcDbLine
 10
213.795806
 20
699.827676
 11
214.995803
 21
699.827676
  0
LINE
  5
6E8
100
AcDbEntity
  8
M0
 62
     1
100
AcDbLine
 10
215.995803
 20
700.827677
 11
215.995803
 21
702.527677
  0
ARC
  5
6E9
100
AcDbEntity
  8
M0
 62
     1
100
AcDbCircle
 10
214.995803
 20
700.827676
 40
1.0
100
AcDbArc
 50
270.0
 51
360.0
  0
CIRCLE
  5
6EA
100
AcDbEntity
  8
M0
 62
     1
100
AcDbCircle
 10
223.295798
 20
689.027691
 40
4.25
  0
CIRCLE
  5
6EB
100
AcDbEntity
  8
M0
 62
     1
100
AcDbCircle
 10
228.494618
 20
677.227704
 40
2.999997
  0
LINE
  5
6EC
100
AcDbEntity
  8
M0
 62
     1
100
AcDbLine
 10
225.535633
 20
673.280453
 11
224.719471
 21
675.927777
  0
LINE
  5
6ED
100
AcDbEntity
  8
M0
 62
     1
100
AcDbLine
 10
231.714422
 20
680.327725
 11
232.26952
 21
678.527752
  0
LINE
  5
6EE
100
AcDbEntity
  8
M0
 62
     1
100
AcDbLine
 10
231.453114
 20
673.280438
 11
232.26952
 21
675.927777
  0
LINE
  5
6EF
100
AcDbEntity
  8
M0
 62
     1
100
AcDbLine
 10
226.013661
 20
672.927777
 11
230.975331
 21
672.927777
  0
LINE
  5
6F0
100
AcDbEntity
  8
M0
 62
     1
100
AcDbLine
 10
232.26952
 20
675.927777
 11
232.26952
 21
678.527752
  0
LINE
  5
6F1
100
AcDbEntity
  8
M0
 62
     1
100
AcDbLine
 10
224.719471
 20
679.027722
 11
224.719471
 21
675.927777
  0
LINE
  5
6F2
100
AcDbEntity
  8
M0
 62
     1
100
AcDbLine
 10
230.085194
 20
675.636883
 11
226.903553
 21
678.818646
  0
LINE
  5
6F3
100
AcDbEntity
  8
M0
 62
     1
100
AcDbLine
 10
228.847889
 20
678.641888
 11
227.080311
 21
676.874188
  0
LINE
  5
6F4
100
AcDbEntity
  8
M0
 62
     1
100
AcDbLine
 10
229.908436
 20
677.581219
 11
228.140858
 21
675.813641
  0
ARC
  5
6F5
100
AcDbEntity
  8
M0
 62
     1
100
AcDbCircle
 10
226.013661
 20
673.427777
 40
0.5
100
AcDbArc
 50
197.127379
 51
270.0
  0
ARC
  5
6F6
100
AcDbEntity
  8
M0
 62
     1
100
AcDbCircle
 10
230.975331
 20
673.427777
 40
0.5
100
AcDbArc
 50
270.0
 51
342.861758
  0
ARC
  5
6F7
100
AcDbEntity
  8
M0
 62
     1
100
AcDbCircle
 10
228.495823
 20
670.227704
 40
2.999997
100
AcDbArc
 50
115.844027
 51
424.15628
  0
LINE
  5
6F8
100
AcDbEntity
  8
M0
 62
     1
100
AcDbLine
 10
225.398335
 20
673.725506
 11
224.720677
 21
671.527752
  0
LINE
  5
6F9
100
AcDbEntity
  8
M0
 62
     1
100
AcDbLine
 10
225.536839
 20
666.280453
 11
224.720677
 21
668.927777
  0
LINE
  5
6FA
100
AcDbEntity
  8
M0
 62
     1
100
AcDbLine
 10
231.591648
 20
673.729657
 11
232.270725
 21
671.527752
  0
LINE
  5
6FB
100
AcDbEntity
  8
M0
 62
     1
100
AcDbLine
 10
231.454319
 20
666.280438
 11
232.270725
 21
668.927777
  0
LINE
  5
6FC
100
AcDbEntity
  8
M0
 62
     1
100
AcDbLine
 10
226.014866
 20
665.927777
 11
230.976536
 21
665.927777
  0
LINE
  5
6FD
100
AcDbEntity
  8
M0
 62
     1
100
AcDbLine
 10
232.270725
 20
668.927777
 11
232.270725
 21
671.527752
  0
LINE
  5
6FE
100
AcDbEntity
  8
M0
 62
     1
100
AcDbLine
 10
224.720677
 20
671.527752
 11
224.720677
 21
668.927777
  0
LINE
  5
6FF
100
AcDbEntity
  8
M0
 62
     1
100
AcDbLine
 10
230.086399
 20
668.636883
 11
226.904759
 21
671.818646
  0
LINE
  5
700
100
AcDbEntity
  8
M0
 62
     1
100
AcDbLine
 10
228.849095
 20
671.641888
 11
227.081517
 21
669.874188
  0
LINE
  5
701
100
AcDbEntity
  8
M0
 62
     1
100
AcDbLine
 10
229.909642
 20
670.581219
 11
228.142063
 21
668.813641
  0
ARC
  5
702
100
AcDbEntity
  8
M0
 62
     1
100
AcDbCircle
 10
226.014866
 20
666.427777
 40
0.5
100
AcDbArc
 50
197.127379
 51
270.0
  0
ARC
  5
703
100
AcDbEntity
  8
M0
 62
     1
100
AcDbCircle
 10
230.976536
 20
666.427777
 40
0.5
100
AcDbArc
 50
270.0
 51
342.861758
  0
ARC
  5
704
100
AcDbEntity
  8
M0
 62
     1
100
AcDbCircle
 10
218.495849
 20
670.227704
 40
2.999997
100
AcDbArc
 50
115.843797
 51
424.156412
  0
LINE
  5
705
100
AcDbEntity
  8
M0
 62
     1
100
AcDbLine
 10
215.152328
 20
672.927655
 11
214.720702
 21
671.527752
  0
LINE
  5
706
100
AcDbEntity
  8
M0
 62
     1
100
AcDbLine
 10
215.536865
 20
666.280453
 11
214.720702
 21
668.927777
  0
LINE
  5
707
100
AcDbEntity
  8
M0
 62
     1
100
AcDbLine
 10
221.454334
 20
666.280438
 11
222.082508
 21
668.317303
  0
LINE
  5
708
100
AcDbEntity
  8
M0
 62
     1
100
AcDbLine
 10
216.014892
 20
665.927777
 11
220.976551
 21
665.927777
  0
LINE
  5
709
100
AcDbEntity
  8
M0
 62
     1
100
AcDbLine
 10
214.720702
 20
671.527752
 11
214.720702
 21
668.927777
  0
LINE
  5
70A
100
AcDbEntity
  8
M0
 62
     1
100
AcDbLine
 10
220.086415
 20
668.636883
 11
216.904784
 21
671.818646
  0
LINE
  5
70B
100
AcDbEntity
  8
M0
 62
     1
100
AcDbLine
 10
218.84912
 20
671.641888
 11
217.081542
 21
669.874188
  0
LINE
  5
70C
100
AcDbEntity
  8
M0
 62
     1
100
AcDbLine
 10
219.909657
 20
670.581219
 11
218.142089
 21
668.813641
  0
ARC
  5
70D
100
AcDbEntity
  8
M0
 62
     1
100
AcDbCircle
 10
216.014892
 20
666.427777
 40
0.5
100
AcDbArc
 50
197.127669
 51
270.0
  0
ARC
  5
70E
100
AcDbEntity
  8
M0
 62
     1
100
AcDbCircle
 10
220.976551
 20
666.427777
 40
0.5
100
AcDbArc
 50
270.0
 51
342.861758
  0
CIRCLE
  5
70F
100
AcDbEntity
  8
M0
 62
     1
100
AcDbCircle
 10
217.494628
 20
677.227704
 40
2.999997
  0
LINE
  5
710
100
AcDbEntity
  8
M0
 62
     1
100
AcDbLine
 10
214.274413
 20
680.327725
 11
213.719482
 21
678.527752
  0
LINE
  5
711
100
AcDbEntity
  8
M0
 62
     1
100
AcDbLine
 10
214.535644
 20
673.280453
 11
213.719482
 21
675.927777
  0
LINE
  5
712
100
AcDbEntity
  8
M0
 62
     1
100
AcDbLine
 10
220.453114
 20
673.280438
 11
221.26952
 21
675.927777
  0
LINE
  5
713
100
AcDbEntity
  8
M0
 62
     1
100
AcDbLine
 10
215.013671
 20
672.927777
 11
219.975331
 21
672.927777
  0
LINE
  5
714
100
AcDbEntity
  8
M0
 62
     1
100
AcDbLine
 10
221.26952
 20
675.927777
 11
221.26952
 21
679.027722
  0
LINE
  5
715
100
AcDbEntity
  8
M0
 62
     1
100
AcDbLine
 10
213.719482
 20
678.527752
 11
213.719482
 21
675.927777
  0
LINE
  5
716
100
AcDbEntity
  8
M0
 62
     1
100
AcDbLine
 10
219.085204
 20
675.636883
 11
215.903564
 21
678.818646
  0
LINE
  5
717
100
AcDbEntity
  8
M0
 62
     1
100
AcDbLine
 10
217.8479
 20
678.641888
 11
216.080322
 21
676.874188
  0
LINE
  5
718
100
AcDbEntity
  8
M0
 62
     1
100
AcDbLine
 10
218.908447
 20
677.581219
 11
217.140868
 21
675.813641
  0
ARC
  5
719
100
AcDbEntity
  8
M0
 62
     1
100
AcDbCircle
 10
215.013671
 20
673.427777
 40
0.5
100
AcDbArc
 50
197.127669
 51
270.0
  0
ARC
  5
71A
100
AcDbEntity
  8
M0
 62
     1
100
AcDbCircle
 10
219.975331
 20
673.427777
 40
0.5
100
AcDbArc
 50
270.0
 51
342.861758
  0
LINE
  5
71B
100
AcDbEntity
  8
M0
 62
     1
100
AcDbLine
 10
205.033736
 20
681.188794
 11
206.878585
 21
679.34396
  0
LINE
  5
71C
100
AcDbEntity
  8
M0
 62
     1
100
AcDbLine
 10
207.005462
 20
681.945904
 11
204.430389
 21
679.370831
  0
LINE
  5
71D
100
AcDbEntity
  8
M0
 62
     1
100
AcDbLine
 10
207.712569
 20
681.238797
 11
205.137496
 21
678.663723
  0
LINE
  5
71E
100
AcDbEntity
  8
M0
 62
     1
100
AcDbLine
 10
202.894607
 20
675.427945
 11
209.094604
 21
675.427945
  0
LINE
  5
71F
100
AcDbEntity
  8
M0
 62
     1
100
AcDbLine
 10
210.094604
 20
676.427929
 11
210.094604
 21
684.027905
  0
LINE
  5
720
100
AcDbEntity
  8
M0
 62
     1
100
AcDbLine
 10
201.894607
 20
684.02792
 11
201.894607
 21
676.427945
  0
CIRCLE
  5
721
100
AcDbEntity
  8
M0
 62
     1
100
AcDbCircle
 10
205.994613
 20
680.227948
 40
3.499993
  0
ARC
  5
722
100
AcDbEntity
  8
M0
 62
     1
100
AcDbCircle
 10
209.094604
 20
676.427945
 40
1.0
100
AcDbArc
 50
270.0
 51
360.0
  0
ARC
  5
723
100
AcDbEntity
  8
M0
 62
     1
100
AcDbCircle
 10
209.094604
 20
684.027752
 40
1.0
100
AcDbArc
 50
0.0
 51
89.999126
  0
ARC
  5
724
100
AcDbEntity
  8
M0
 62
     1
100
AcDbCircle
 10
202.894607
 20
684.027752
 40
1.0
100
AcDbArc
 50
89.999126
 51
179.999126
  0
ARC
  5
725
100
AcDbEntity
  8
M0
 62
     1
100
AcDbCircle
 10
202.894607
 20
676.427945
 40
1.0
100
AcDbArc
 50
179.999126
 51
270.0
  0
LINE
  5
726
100
AcDbEntity
  8
M0
 62
     1
100
AcDbLine
 10
202.894607
 20
685.027936
 11
209.094604
 21
685.027936
  0
LINE
  5
727
100
AcDbEntity
  8
M0
 62
     1
100
AcDbLine
 10
192.533767
 20
681.188794
 11
194.378616
 21
679.34396
  0
LINE
  5
728
100
AcDbEntity
  8
M0
 62
     1
100
AcDbLine
 10
194.505492
 20
681.945904
 11
191.930419
 21
679.370831
  0
LINE
  5
729
100
AcDbEntity
  8
M0
 62
     1
100
AcDbLine
 10
195.2126
 20
681.238797
 11
192.637527
 21
678.663723
  0
LINE
  5
72A
100
AcDbEntity
  8
M0
 62
     1
100
AcDbLine
 10
190.394637
 20
675.427945
 11
196.594634
 21
675.427945
  0
LINE
  5
72B
100
AcDbEntity
  8
M0
 62
     1
100
AcDbLine
 10
197.594634
 20
676.427929
 11
197.594634
 21
684.027905
  0
LINE
  5
72C
100
AcDbEntity
  8
M0
 62
     1
100
AcDbLine
 10
189.394637
 20
684.02792
 11
189.394637
 21
676.427945
  0
CIRCLE
  5
72D
100
AcDbEntity
  8
M0
 62
     1
100
AcDbCircle
 10
193.494643
 20
680.227948
 40
3.499993
  0
ARC
  5
72E
100
AcDbEntity
  8
M0
 62
     1
100
AcDbCircle
 10
196.594634
 20
676.427945
 40
1.0
100
AcDbArc
 50
270.0
 51
360.0
  0
ARC
  5
72F
100
AcDbEntity
  8
M0
 62
     1
100
AcDbCircle
 10
196.594634
 20
684.027752
 40
1.0
100
AcDbArc
 50
0.0
 51
89.999126
  0
ARC
  5
730
100
AcDbEntity
  8
M0
 62
     1
100
AcDbCircle
 10
190.394637
 20
684.027752
 40
1.0
100
AcDbArc
 50
89.999126
 51
179.999126
  0
ARC
  5
731
100
AcDbEntity
  8
M0
 62
     1
100
AcDbCircle
 10
190.394637
 20
676.427945
 40
1.0
100
AcDbArc
 50
179.999126
 51
270.0
  0
LINE
  5
732
100
AcDbEntity
  8
M0
 62
     1
100
AcDbLine
 10
190.394637
 20
685.027936
 11
196.594634
 21
685.027936
  0
ARC
  5
733
100
AcDbEntity
  8
M0
 62
     1
100
AcDbCircle
 10
190.394637
 20
690.928086
 40
1.0
100
AcDbArc
 50
179.999945
 51
270.0
  0
LINE
  5
734
100
AcDbEntity
  8
M0
 62
     1
100
AcDbLine
 10
189.394637
 20
690.927918
 11
189.394637
 21
698.527894
  0
ARC
  5
735
100
AcDbEntity
  8
M0
 62
     1
100
AcDbCircle
 10
190.394637
 20
698.527894
 40
1.0
100
AcDbArc
 50
89.999126
 51
179.999945
  0
LINE
  5
736
100
AcDbEntity
  8
M0
 62
     1
100
AcDbLine
 10
190.394637
 20
699.527894
 11
196.594634
 21
699.527894
  0
ARC
  5
737
100
AcDbEntity
  8
M0
 62
     1
100
AcDbCircle
 10
196.594634
 20
698.527894
 40
1.0
100
AcDbArc
 50
0.0
 51
89.999126
  0
LINE
  5
738
100
AcDbEntity
  8
M0
 62
     1
100
AcDbLine
 10
197.594634
 20
698.527909
 11
197.594634
 21
690.927933
  0
ARC
  5
739
100
AcDbEntity
  8
M0
 62
     1
100
AcDbCircle
 10
196.594634
 20
690.928086
 40
1.0
100
AcDbArc
 50
-90.0
 51
0.0
  0
LINE
  5
73A
100
AcDbEntity
  8
M0
 62
     1
100
AcDbLine
 10
190.394637
 20
689.927903
 11
196.594634
 21
689.927903
  0
LINE
  5
73B
100
AcDbEntity
  8
M0
 62
     1
100
AcDbLine
 10
180.033767
 20
681.188794
 11
181.878616
 21
679.34396
  0
LINE
  5
73C
100
AcDbEntity
  8
M0
 62
     1
100
AcDbLine
 10
182.005492
 20
681.945904
 11
179.430419
 21
679.370831
  0
LINE
  5
73D
100
AcDbEntity
  8
M0
 62
     1
100
AcDbLine
 10
182.7126
 20
681.238797
 11
180.137527
 21
678.663723
  0
LINE
  5
73E
100
AcDbEntity
  8
M0
 62
     1
100
AcDbLine
 10
185.094634
 20
676.427929
 11
185.094634
 21
684.027905
  0
LINE
  5
73F
100
AcDbEntity
  8
M0
 62
     1
100
AcDbLine
 10
176.894637
 20
684.02792
 11
176.894637
 21
676.427945
  0
CIRCLE
  5
740
100
AcDbEntity
  8
M0
 62
     1
100
AcDbCircle
 10
180.994643
 20
680.227948
 40
3.499993
  0
ARC
  5
741
100
AcDbEntity
  8
M0
 62
     1
100
AcDbCircle
 10
184.094634
 20
676.427945
 40
1.0
100
AcDbArc
 50
270.0
 51
360.0
  0
ARC
  5
742
100
AcDbEntity
  8
M0
 62
     1
100
AcDbCircle
 10
184.094634
 20
684.027752
 40
1.0
100
AcDbArc
 50
0.0
 51
89.999126
  0
ARC
  5
743
100
AcDbEntity
  8
M0
 62
     1
100
AcDbCircle
 10
177.894637
 20
684.027752
 40
1.0
100
AcDbArc
 50
89.999126
 51
179.999126
  0
ARC
  5
744
100
AcDbEntity
  8
M0
 62
     1
100
AcDbCircle
 10
177.894637
 20
676.427945
 40
1.0
100
AcDbArc
 50
179.999126
 51
270.0
  0
LINE
  5
745
100
AcDbEntity
  8
M0
 62
     1
100
AcDbLine
 10
177.894637
 20
685.027936
 11
184.094634
 21
685.027936
  0
ARC
  5
746
100
AcDbEntity
  8
M0
 62
     1
100
AcDbCircle
 10
177.894637
 20
690.928086
 40
1.0
100
AcDbArc
 50
179.999945
 51
270.0
  0
LINE
  5
747
100
AcDbEntity
  8
M0
 62
     1
100
AcDbLine
 10
176.894637
 20
690.927918
 11
176.894637
 21
698.527894
  0
ARC
  5
748
100
AcDbEntity
  8
M0
 62
     1
100
AcDbCircle
 10
177.894637
 20
698.527894
 40
1.0
100
AcDbArc
 50
89.999126
 51
179.999945
  0
LINE
  5
749
100
AcDbEntity
  8
M0
 62
     1
100
AcDbLine
 10
177.894637
 20
699.527894
 11
184.094634
 21
699.527894
  0
ARC
  5
74A
100
AcDbEntity
  8
M0
 62
     1
100
AcDbCircle
 10
184.094634
 20
698.527894
 40
1.0
100
AcDbArc
 50
0.0
 51
89.999126
  0
LINE
  5
74B
100
AcDbEntity
  8
M0
 62
     1
100
AcDbLine
 10
185.094634
 20
698.527909
 11
185.094634
 21
690.927933
  0
ARC
  5
74C
100
AcDbEntity
  8
M0
 62
     1
100
AcDbCircle
 10
184.094634
 20
690.928086
 40
1.0
100
AcDbArc
 50
-90.0
 51
0.0
  0
LINE
  5
74D
100
AcDbEntity
  8
M0
 62
     1
100
AcDbLine
 10
177.894637
 20
689.927903
 11
184.094634
 21
689.927903
  0
ARC
  5
74E
100
AcDbEntity
  8
M0
 62
     1
100
AcDbCircle
 10
209.094558
 20
698.527878
 40
1.0
100
AcDbArc
 50
0.0
 51
89.999126
  0
LINE
  5
74F
100
AcDbEntity
  8
M0
 62
     1
100
AcDbLine
 10
210.094558
 20
690.927887
 11
210.094558
 21
698.527863
  0
ARC
  5
750
100
AcDbEntity
  8
M0
 62
     1
100
AcDbCircle
 10
209.094558
 20
690.928071
 40
1.0
100
AcDbArc
 50
270.0
 51
360.0
  0
LINE
  5
751
100
AcDbEntity
  8
M0
 62
     1
100
AcDbLine
 10
209.094558
 20
689.927887
 11
202.894561
 21
689.927887
  0
ARC
  5
752
100
AcDbEntity
  8
M0
 62
     1
100
AcDbCircle
 10
202.894561
 20
690.928071
 40
1.0
100
AcDbArc
 50
179.999945
 51
270.0
  0
LINE
  5
753
100
AcDbEntity
  8
M0
 62
     1
100
AcDbLine
 10
201.894561
 20
698.527894
 11
201.894561
 21
690.927918
  0
ARC
  5
754
100
AcDbEntity
  8
M0
 62
     1
100
AcDbCircle
 10
202.894561
 20
698.527878
 40
1.0
100
AcDbArc
 50
89.999126
 51
179.999945
  0
LINE
  5
755
100
AcDbEntity
  8
M0
 62
     1
100
AcDbLine
 10
209.094558
 20
699.527878
 11
202.894561
 21
699.527878
  0
LINE
  5
756
100
AcDbEntity
  8
M0
 62
     1
100
AcDbLine
 10
180.033767
 20
695.688782
 11
181.878616
 21
693.843949
  0
LINE
  5
757
100
AcDbEntity
  8
M0
 62
     1
100
AcDbLine
 10
182.005492
 20
696.445893
 11
179.430419
 21
693.87082
  0
LINE
  5
758
100
AcDbEntity
  8
M0
 62
     1
100
AcDbLine
 10
182.7126
 20
695.738785
 11
180.137527
 21
693.163712
  0
CIRCLE
  5
759
100
AcDbEntity
  8
M0
 62
     1
100
AcDbCircle
 10
180.994643
 20
694.727936
 40
3.499993
  0
LINE
  5
75A
100
AcDbEntity
  8
M0
 62
     1
100
AcDbLine
 10
192.533752
 20
695.688782
 11
194.3786
 21
693.843949
  0
LINE
  5
75B
100
AcDbEntity
  8
M0
 62
     1
100
AcDbLine
 10
194.505477
 20
696.445893
 11
191.930404
 21
693.87082
  0
LINE
  5
75C
100
AcDbEntity
  8
M0
 62
     1
100
AcDbLine
 10
195.212585
 20
695.738785
 11
192.637511
 21
693.163712
  0
CIRCLE
  5
75D
100
AcDbEntity
  8
M0
 62
     1
100
AcDbCircle
 10
193.494628
 20
694.727936
 40
3.499993
  0
LINE
  5
75E
100
AcDbEntity
  8
M0
 62
     1
100
AcDbLine
 10
205.033721
 20
695.688782
 11
206.87857
 21
693.843949
  0
LINE
  5
75F
100
AcDbEntity
  8
M0
 62
     1
100
AcDbLine
 10
207.005447
 20
696.445893
 11
204.430373
 21
693.87082
  0
LINE
  5
760
100
AcDbEntity
  8
M0
 62
     1
100
AcDbLine
 10
207.712554
 20
695.738785
 11
205.137481
 21
693.163712
  0
CIRCLE
  5
761
100
AcDbEntity
  8
M0
 62
     1
100
AcDbCircle
 10
205.994598
 20
694.727936
 40
3.499993
  0
LINE
  5
762
100
AcDbEntity
  8
M0
 62
     1
100
AcDbLine
 10
224.253598
 20
689.143475
 11
224.253598
 21
691.532623
  0
LINE
  5
763
100
AcDbEntity
  8
M0
 62
     1
100
AcDbLine
 10
224.253614
 20
691.532867
 11
222.55087
 21
691.532867
  0
LINE
  5
764
100
AcDbEntity
  8
M0
 62
     1
100
AcDbLine
 10
222.55087
 20
691.532623
 11
222.55087
 21
689.143963
  0
LINE
  5
765
100
AcDbEntity
  8
M0
 62
     1
100
AcDbLine
 10
223.402234
 20
686.754315
 11
221.747983
 21
689.144452
  0
LINE
  5
766
100
AcDbEntity
  8
M0
 62
     1
100
AcDbLine
 10
223.402234
 20
686.754315
 11
225.056501
 21
689.143719
  0
LINE
  5
767
100
AcDbEntity
  8
M0
 62
     1
100
AcDbLine
 10
221.747983
 20
689.144452
 11
222.550855
 21
689.144207
  0
LINE
  5
768
100
AcDbEntity
  8
M0
 62
     1
100
AcDbLine
 10
225.056501
 20
689.143719
 11
224.253598
 21
689.143719
  0
LINE
  5
769
100
AcDbEntity
  8
M0
  6
DASHDOT
 62
     1
100
AcDbLine
 10
214.264388
 20
689.227948
 11
232.425082
 21
689.227948
  0
LINE
  5
76A
100
AcDbEntity
  8
M0
  6
DASHDOT
 62
     1
100
AcDbLine
 10
223.344731
 20
680.147595
 11
223.344731
 21
698.308288
  0
LINE
  5
76B
100
AcDbEntity
  8
M0
 62
     7
100
AcDbLine
 10
257.344924
 20
759.727932
 11
232.344924
 21
759.727932
  0
LINE
  5
76C
100
AcDbEntity
  8
M0
 62
     7
100
AcDbLine
 10
233.344909
 20
639.727932
 11
256.344909
 21
639.727932
  0
LINE
  5
76D
100
AcDbEntity
  8
M0
  6
DASHDOT
 62
     7
100
AcDbLine
 10
258.713263
 20
652.227948
 11
230.716322
 21
652.227932
  0
LINE
  5
76E
100
AcDbEntity
  8
M0
 62
     7
100
AcDbLine
 10
233.344909
 20
663.227688
 11
233.344909
 21
639.727932
  0
LINE
  5
76F
100
AcDbEntity
  8
M0
 62
     7
100
AcDbLine
 10
256.344909
 20
639.727932
 11
256.344909
 21
688.227932
  0
LINE
  5
770
100
AcDbEntity
  8
M0
  6
DASHED
 62
     7
100
AcDbLine
 10
256.344909
 20
688.227932
 11
256.344909
 21
702.227932
  0
LINE
  5
771
100
AcDbEntity
  8
M0
 62
     7
100
AcDbLine
 10
268.844909
 20
702.227932
 11
268.844909
 21
710.228117
  0
LINE
  5
772
100
AcDbEntity
  8
M0
 62
     7
100
AcDbLine
 10
220.844909
 20
710.228175
 11
220.844909
 21
703.727734
  0
LINE
  5
773
100
AcDbEntity
  8
M0
 62
     7
100
AcDbLine
 10
235.495961
 20
702.227932
 11
268.844909
 21
702.227932
  0
LINE
  5
774
100
AcDbEntity
  8
M0
 62
     7
100
AcDbLine
 10
257.344909
 20
702.227932
 11
257.344909
 21
688.227932
  0
LINE
  5
775
100
AcDbEntity
  8
M0
 62
     7
100
AcDbLine
 10
257.344909
 20
688.227932
 11
235.495939
 21
688.227932
  0
CIRCLE
  5
776
100
AcDbEntity
  8
M0
 62
     7
100
AcDbCircle
 10
244.844909
 20
652.227932
 40
5.0
  0
CIRCLE
  5
777
100
AcDbEntity
  8
M0
 62
     7
100
AcDbCircle
 10
244.844909
 20
652.227932
 40
4.0
  0
CIRCLE
  5
778
100
AcDbEntity
  8
M0
 62
     7
100
AcDbCircle
 10
244.844909
 20
678.227932
 40
5.25
  0
LINE
  5
779
100
AcDbEntity
  8
M0
 62
     7
100
AcDbLine
 10
245.6935
 20
678.227871
 11
248.957211
 21
681.491574
  0
LINE
  5
77A
100
AcDbEntity
  8
M0
 62
     7
100
AcDbLine
 10
241.581262
 20
674.115628
 11
244.844974
 21
677.379345
  0
LINE
  5
77B
100
AcDbEntity
  8
M0
 62
     7
100
AcDbLine
 10
243.996491
 20
678.227826
 11
240.732758
 21
674.964093
  0
LINE
  5
77C
100
AcDbEntity
  8
M0
 62
     7
100
AcDbLine
 10
248.108739
 20
682.340085
 11
244.845017
 21
679.076352
  0
LINE
  5
77D
100
AcDbEntity
  8
M0
 62
     7
100
AcDbLine
 10
244.845006
 20
679.076352
 11
243.077239
 21
680.844128
  0
LINE
  5
77E
100
AcDbEntity
  8
M0
 62
     7
100
AcDbLine
 10
247.461266
 20
676.460095
 11
245.6935
 21
678.227871
  0
LINE
  5
77F
100
AcDbEntity
  8
M0
 62
     7
100
AcDbLine
 10
244.844974
 20
677.379345
 11
246.61274
 21
675.611569
  0
LINE
  5
780
100
AcDbEntity
  8
M0
 62
     7
100
AcDbLine
 10
242.228713
 20
679.995602
 11
243.99648
 21
678.227826
  0
LINE
  5
781
100
AcDbEntity
  8
M0
 62
     7
100
AcDbLine
 10
246.61274
 20
675.611569
 11
247.461266
 21
676.460095
  0
LINE
  5
782
100
AcDbEntity
  8
M0
 62
     7
100
AcDbLine
 10
243.077239
 20
680.844128
 11
242.228713
 21
679.995602
  0
CIRCLE
  5
783
100
AcDbEntity
  8
M0
 62
     7
100
AcDbCircle
 10
244.844909
 20
678.227932
 40
5.75
  0
LINE
  5
784
100
AcDbEntity
  8
M0
  6
DASHDOT
 62
     7
100
AcDbLine
 10
236.48949
 20
678.227948
 11
253.200328
 21
678.227932
  0
LINE
  5
785
100
AcDbEntity
  8
M0
 62
     7
100
AcDbLine
 10
263.545104
 20
700.428525
 11
263.545104
 21
696.42799
  0
LINE
  5
786
100
AcDbEntity
  8
M0
 62
     7
100
AcDbLine
 10
266.144958
 20
700.428525
 11
266.144958
 21
696.42799
  0
LINE
  5
787
100
AcDbEntity
  8
M0
 62
     7
100
AcDbLine
 10
266.344909
 20
700.428525
 11
266.344909
 21
696.42799
  0
LINE
  5
788
100
AcDbEntity
  8
M0
 62
     7
100
AcDbLine
 10
263.344909
 20
696.42799
 11
263.344909
 21
700.428525
  0
LINE
  5
789
100
AcDbEntity
  8
M0
 62
     7
100
AcDbLine
 10
266.344909
 20
696.42799
 11
263.344909
 21
696.42799
  0
LINE
  5
78A
100
AcDbEntity
  8
M0
 62
     7
100
AcDbLine
 10
653.166686
 20
639.728146
 11
658.166686
 21
639.728146
  0
LINE
  5
78B
100
AcDbEntity
  8
M0
 62
     7
100
AcDbLine
 10
621.766692
 20
759.728146
 11
616.766692
 21
759.728146
  0
LINE
  5
78C
100
AcDbEntity
  8
M0
 62
     7
100
AcDbLine
 10
621.766692
 20
734.228146
 11
621.766692
 21
759.728146
  0
ARC
  5
78D
100
AcDbEntity
  8
M0
 62
     7
100
AcDbCircle
 10
624.766692
 20
734.228146
 40
3.0
100
AcDbArc
 50
180.0
 51
270.0
  0
LINE
  5
78E
100
AcDbEntity
  8
M0
 62
     7
100
AcDbLine
 10
616.766692
 20
759.728146
 11
616.766692
 21
734.228146
  0
ARC
  5
78F
100
AcDbEntity
  8
M0
 62
     7
100
AcDbCircle
 10
624.766692
 20
734.228146
 40
8.0
100
AcDbArc
 50
180.0
 51
270.0
  0
LINE
  5
790
100
AcDbEntity
  8
M0
 62
     7
100
AcDbLine
 10
683.166686
 20
719.728146
 11
635.166686
 21
719.728146
  0
LINE
  5
791
100
AcDbEntity
  8
M0
 62
     7
100
AcDbLine
 10
683.166686
 20
702.228146
 11
683.166686
 21
719.728146
  0
LINE
  5
792
100
AcDbEntity
  8
M0
 62
     7
100
AcDbLine
 10
635.166686
 20
702.228146
 11
683.166686
 21
702.228146
  0
LINE
  5
793
100
AcDbEntity
  8
M0
 62
     7
100
AcDbLine
 10
652.166686
 20
702.228146
 11
652.166686
 21
688.228146
  0
LINE
  5
794
100
AcDbEntity
  8
M0
 62
     7
100
AcDbLine
 10
659.166686
 20
702.228146
 11
659.166686
 21
688.228146
  0
LINE
  5
795
100
AcDbEntity
  8
M0
 62
     7
100
AcDbLine
 10
652.166686
 20
719.728146
 11
652.166686
 21
723.228146
  0
LINE
  5
796
100
AcDbEntity
  8
M0
 62
     7
100
AcDbLine
 10
650.166686
 20
725.228146
 11
627.166686
 21
725.228146
  0
ARC
  5
797
100
AcDbEntity
  8
M0
 62
     7
100
AcDbCircle
 10
650.166686
 20
723.228146
 40
2.0
100
AcDbArc
 50
0.0
 51
90.0
  0
LINE
  5
798
100
AcDbEntity
  8
M0
 62
     7
100
AcDbLine
 10
659.166686
 20
719.728146
 11
659.166686
 21
723.228146
  0
LINE
  5
799
100
AcDbEntity
  8
M0
 62
     7
100
AcDbLine
 10
627.166686
 20
732.228146
 11
650.166686
 21
732.228146
  0
ARC
  5
79A
100
AcDbEntity
  8
M0
 62
     7
100
AcDbCircle
 10
650.166686
 20
723.228146
 40
9.0
100
AcDbArc
 50
0.0
 51
90.0
  0
LINE
  5
79B
100
AcDbEntity
  8
M0
 62
     7
100
AcDbLine
 10
659.166686
 20
688.228146
 11
652.166686
 21
688.228146
  0
LINE
  5
79C
100
AcDbEntity
  8
M0
 62
     7
100
AcDbLine
 10
627.166686
 20
732.228146
 11
627.166686
 21
725.228146
  0
LINE
  5
79D
100
AcDbEntity
  8
M0
 62
     7
100
AcDbLine
 10
627.166686
 20
731.228146
 11
624.766692
 21
731.228146
  0
LINE
  5
79E
100
AcDbEntity
  8
M0
 62
     7
100
AcDbLine
 10
624.766692
 20
726.228146
 11
627.166686
 21
726.228146
  0
LINE
  5
79F
100
AcDbEntity
  8
M0
 62
     7
100
AcDbLine
 10
653.166686
 20
688.228146
 11
653.166686
 21
639.728146
  0
LINE
  5
7A0
100
AcDbEntity
  8
M0
 62
     7
100
AcDbLine
 10
658.166686
 20
639.728146
 11
658.166686
 21
688.228146
  0
LINE
  5
7A1
100
AcDbEntity
  8
M0
  6
DASHED
 62
     7
100
AcDbLine
 10
650.166686
 20
731.228146
 11
627.166686
 21
731.228146
  0
LINE
  5
7A2
100
AcDbEntity
  8
M0
  6
DASHED
 62
     7
100
AcDbLine
 10
627.166686
 20
726.228146
 11
650.166686
 21
726.228146
  0
ARC
  5
7A3
100
AcDbEntity
  8
M0
  6
DASHED
 62
     7
100
AcDbCircle
 10
650.166686
 20
723.228146
 40
3.0
100
AcDbArc
 50
0.0
 51
90.0
  0
ARC
  5
7A4
100
AcDbEntity
  8
M0
  6
DASHED
 62
     7
100
AcDbCircle
 10
650.166686
 20
723.228146
 40
8.0
100
AcDbArc
 50
0.0
 51
90.0
  0
LINE
  5
7A5
100
AcDbEntity
  8
M0
  6
DASHED
 62
     7
100
AcDbLine
 10
658.166686
 20
719.728146
 11
658.166686
 21
723.228146
  0
LINE
  5
7A6
100
AcDbEntity
  8
M0
  6
DASHED
 62
     7
100
AcDbLine
 10
653.166686
 20
723.228146
 11
653.166686
 21
719.728146
  0
LINE
  5
7A7
100
AcDbEntity
  8
M0
  6
DASHED
 62
     7
100
AcDbLine
 10
653.166686
 20
702.228146
 11
653.166686
 21
688.228146
  0
LINE
  5
7A8
100
AcDbEntity
  8
M0
  6
DASHED
 62
     7
100
AcDbLine
 10
658.166686
 20
688.228146
 11
658.166686
 21
702.228146
  0
LINE
  5
7A9
100
AcDbEntity
  8
M0
  6
DASHDOT
 62
     7
100
AcDbLine
 10
610.127746
 20
747.228146
 11
627.209335
 21
747.228146
  0
LINE
  5
7AA
100
AcDbEntity
  8
M0
 62
     7
100
AcDbLine
 10
635.166686
 20
719.728146
 11
635.166686
 21
702.228146
  0
LINE
  5
7AB
100
AcDbEntity
  8
M0
 62
     7
100
AcDbLine
 10
628.166686
 20
647.228146
 11
628.166686
 21
657.227917
  0
LINE
  5
7AC
100
AcDbEntity
  8
M0
 62
     7
100
AcDbLine
 10
628.166686
 20
657.227917
 11
641.066695
 21
657.227917
  0
LINE
  5
7AD
100
AcDbEntity
  8
M0
 62
     7
100
AcDbLine
 10
665.166686
 20
647.228146
 11
658.166686
 21
647.228146
  0
LINE
  5
7AE
100
AcDbEntity
  8
M0
  6
DASHDOT
 62
     7
100
AcDbLine
 10
668.165221
 20
652.228146
 11
625.226211
 21
652.228146
  0
LINE
  5
7AF
100
AcDbEntity
  8
M0
 62
     7
100
AcDbLine
 10
658.166686
 20
642.41914
 11
658.166686
 21
662.036999
  0
LINE
  5
7B0
100
AcDbEntity
  8
M0
 62
     7
100
AcDbLine
 10
658.166686
 20
662.036999
 11
665.166686
 21
662.036999
  0
LINE
  5
7B1
100
AcDbEntity
  8
M0
 62
     7
100
AcDbLine
 10
665.166686
 20
662.036999
 11
665.166686
 21
642.41914
  0
LINE
  5
7B2
100
AcDbEntity
  8
M0
 62
     7
100
AcDbLine
 10
665.166686
 20
642.41914
 11
658.166686
 21
642.41914
  0
LINE
  5
7B3
100
AcDbEntity
  8
M0
 62
     7
100
AcDbLine
 10
658.166686
 20
657.227917
 11
665.166686
 21
657.227917
  0
LINE
  5
7B4
100
AcDbEntity
  8
M0
 62
     7
100
AcDbLine
 10
641.066695
 20
647.228146
 11
628.166686
 21
647.228146
  0
LINE
  5
7B5
100
AcDbEntity
  8
M0
 62
     7
100
AcDbLine
 10
641.066695
 20
656.227917
 11
628.166686
 21
656.227917
  0
LINE
  5
7B6
100
AcDbEntity
  8
M0
 62
     7
100
AcDbLine
 10
641.066695
 20
648.228146
 11
628.166686
 21
648.228146
  0
LINE
  5
7B7
100
AcDbEntity
  8
M0
  6
DASHED
 62
     7
100
AcDbLine
 10
650.866687
 20
672.478146
 11
650.866687
 21
683.978146
  0
LINE
  5
7B8
100
AcDbEntity
  8
M0
  6
DASHED
 62
     7
100
AcDbLine
 10
650.066699
 20
672.478146
 11
650.866687
 21
672.478146
  0
LINE
  5
7B9
100
AcDbEntity
  8
M0
  6
DASHED
 62
     7
100
AcDbLine
 10
650.066699
 20
683.978146
 11
650.866687
 21
683.978146
  0
LINE
  5
7BA
100
AcDbEntity
  8
M0
  6
DASHED
 62
     7
100
AcDbLine
 10
650.066699
 20
672.478146
 11
650.066699
 21
683.978146
  0
LINE
  5
7BB
100
AcDbEntity
  8
M0
  6
DASHED
 62
     7
100
AcDbLine
 10
648.566699
 20
683.728146
 11
650.066699
 21
683.728146
  0
LINE
  5
7BC
100
AcDbEntity
  8
M0
  6
DASHED
 62
     7
100
AcDbLine
 10
648.566699
 20
672.728146
 11
650.066699
 21
672.728146
  0
ARC
  5
7BD
100
AcDbEntity
  8
M0
  6
DASHED
 62
     7
100
AcDbCircle
 10
658.666689
 20
678.228146
 40
14.0
100
AcDbArc
 50
163.883899
 51
196.072618
  0
ARC
  5
7BE
100
AcDbEntity
  8
M0
  6
DASHED
 62
     7
100
AcDbCircle
 10
647.039676
 20
674.878293
 40
1.9
100
AcDbArc
 50
196.075669
 51
270.0
  0
LINE
  5
7BF
100
AcDbEntity
  8
M0
  6
DASHED
 62
     7
100
AcDbLine
 10
647.039676
 20
672.978146
 11
648.566699
 21
672.978146
  0
ARC
  5
7C0
100
AcDbEntity
  8
M0
  6
DASHED
 62
     7
100
AcDbCircle
 10
647.039676
 20
681.578244
 40
1.9
100
AcDbArc
 50
90.0
 51
163.924765
  0
LINE
  5
7C1
100
AcDbEntity
  8
M0
  6
DASHED
 62
     7
100
AcDbLine
 10
648.566699
 20
683.478146
 11
647.039676
 21
683.478146
  0
LINE
  5
7C2
100
AcDbEntity
  8
M0
  6
DIVIDE
 62
     7
100
AcDbLine
 10
642.311649
 20
678.228146
 11
668.476275
 21
678.228131
  0
LINE
  5
7C3
100
AcDbEntity
  8
M0
  6
DASHED
 62
     7
100
AcDbLine
 10
648.566699
 20
683.728146
 11
648.566699
 21
672.728146
  0
LINE
  5
7C4
100
AcDbEntity
  8
M0
  6
DASHED
 62
     7
100
AcDbLine
 10
650.066699
 20
678.228146
 11
648.566699
 21
677.228146
  0
LINE
  5
7C5
100
AcDbEntity
  8
M0
  6
DASHED
 62
     7
100
AcDbLine
 10
648.566699
 20
678.228146
 11
650.066699
 21
679.228146
  0
ARC
  5
7C6
100
AcDbEntity
  8
M0
 62
     7
100
AcDbCircle
 10
686.916686
 20
725.478146
 40
3.0
100
AcDbArc
 50
0.0
 51
90.0
  0
LINE
  5
7C7
100
AcDbEntity
  8
M0
 62
     7
100
AcDbLine
 10
686.916686
 20
728.478146
 11
667.416686
 21
728.478146
  0
ARC
  5
7C8
100
AcDbEntity
  8
M0
 62
     7
100
AcDbCircle
 10
667.416686
 20
725.478146
 40
3.0
100
AcDbArc
 50
90.0
 51
180.0
  0
LINE
  5
7C9
100
AcDbEntity
  8
M0
 62
     7
100
AcDbLine
 10
664.416686
 20
725.478146
 11
664.416686
 21
719.728146
  0
LINE
  5
7CA
100
AcDbEntity
  8
M0
 62
     7
100
AcDbLine
 10
689.916686
 20
701.825802
 11
689.916686
 21
725.478146
  0
LINE
  5
7CB
100
AcDbEntity
  8
M0
 62
     7
100
AcDbLine
 10
664.416686
 20
702.228146
 11
664.416686
 21
700.325818
  0
LINE
  5
7CC
100
AcDbEntity
  8
M0
 62
     7
100
AcDbLine
 10
641.916442
 20
720.428204
 11
641.842223
 21
721.275525
  0
LINE
  5
7CD
100
AcDbEntity
  8
M0
 62
     7
100
AcDbLine
 10
636.41693
 20
720.428219
 11
636.490905
 21
721.275525
  0
ARC
  5
7CE
100
AcDbEntity
  8
M0
 62
     7
100
AcDbCircle
 10
637.487243
 20
721.188382
 40
1.0
100
AcDbArc
 50
106.261219
 51
175.001555
  0
ARC
  5
7CF
100
AcDbEntity
  8
M0
 62
     7
100
AcDbCircle
 10
640.845886
 20
721.188382
 40
1.0
100
AcDbArc
 50
4.998384
 51
73.752035
  0
ARC
  5
7D0
100
AcDbEntity
  8
M0
 62
     7
100
AcDbCircle
 10
639.166686
 20
715.428204
 40
7.0
100
AcDbArc
 50
72.985025
 51
106.255566
  0
LINE
  5
7D1
100
AcDbEntity
  8
M0
 62
     7
100
AcDbLine
 10
641.916442
 20
719.728146
 11
636.416442
 21
719.728146
  0
LINE
  5
7D2
100
AcDbEntity
  8
M0
 62
     7
100
AcDbLine
 10
636.416442
 20
720.428097
 11
636.416442
 21
719.728146
  0
LINE
  5
7D3
100
AcDbEntity
  8
M0
 62
     7
100
AcDbLine
 10
641.916442
 20
720.428097
 11
641.916442
 21
719.728146
  0
LINE
  5
7D4
100
AcDbEntity
  8
M0
 62
     7
100
AcDbLine
 10
640.466492
 20
700.428723
 11
640.466492
 21
696.428204
  0
LINE
  5
7D5
100
AcDbEntity
  8
M0
 62
     7
100
AcDbLine
 10
637.866638
 20
700.428723
 11
637.866638
 21
696.428204
  0
LINE
  5
7D6
100
AcDbEntity
  8
M0
 62
     7
100
AcDbLine
 10
637.666687
 20
700.428723
 11
637.666687
 21
696.428204
  0
LINE
  5
7D7
100
AcDbEntity
  8
M0
 62
     7
100
AcDbLine
 10
640.666687
 20
696.428204
 11
640.666687
 21
700.428723
  0
LINE
  5
7D8
100
AcDbEntity
  8
M0
 62
     7
100
AcDbLine
 10
637.666687
 20
696.428204
 11
640.666687
 21
696.428204
  0
LINE
  5
7D9
100
AcDbEntity
  8
M0
 62
     7
100
AcDbLine
 10
636.416686
 20
720.428204
 11
641.916686
 21
720.428204
  0
LINE
  5
7DA
100
AcDbEntity
  8
M0
 62
     7
100
AcDbLine
 10
639.166686
 20
719.728146
 11
638.666686
 21
720.428204
  0
LINE
  5
7DB
100
AcDbEntity
  8
M0
 62
     7
100
AcDbLine
 10
639.166686
 20
720.428204
 11
639.666686
 21
719.728146
  0
LINE
  5
7DC
100
AcDbEntity
  8
M0
 62
     7
100
AcDbLine
 10
676.41693
 20
720.428204
 11
676.491149
 21
721.275525
  0
LINE
  5
7DD
100
AcDbEntity
  8
M0
 62
     7
100
AcDbLine
 10
681.916442
 20
720.428219
 11
681.842468
 21
721.275525
  0
ARC
  5
7DE
100
AcDbEntity
  8
M0
 62
     7
100
AcDbCircle
 10
680.84613
 20
721.188382
 40
1.0
100
AcDbArc
 50
4.998445
 51
73.738886
  0
ARC
  5
7DF
100
AcDbEntity
  8
M0
 62
     7
100
AcDbCircle
 10
677.487487
 20
721.188382
 40
1.0
100
AcDbArc
 50
106.248385
 51
175.001631
  0
ARC
  5
7E0
100
AcDbEntity
  8
M0
 62
     7
100
AcDbCircle
 10
679.166686
 20
715.428204
 40
7.0
100
AcDbArc
 50
73.744411
 51
107.014908
  0
LINE
  5
7E1
100
AcDbEntity
  8
M0
 62
     7
100
AcDbLine
 10
676.41693
 20
719.728146
 11
681.91693
 21
719.728146
  0
LINE
  5
7E2
100
AcDbEntity
  8
M0
 62
     7
100
AcDbLine
 10
681.91693
 20
720.428097
 11
681.91693
 21
719.728146
  0
LINE
  5
7E3
100
AcDbEntity
  8
M0
 62
     7
100
AcDbLine
 10
676.41693
 20
720.428097
 11
676.41693
 21
719.728146
  0
LINE
  5
7E4
100
AcDbEntity
  8
M0
 62
     7
100
AcDbLine
 10
677.866882
 20
702.228146
 11
677.866882
 21
701.825802
  0
LINE
  5
7E5
100
AcDbEntity
  8
M0
 62
     7
100
AcDbLine
 10
680.466735
 20
702.228146
 11
680.466735
 21
701.825802
  0
LINE
  5
7E6
100
AcDbEntity
  8
M0
 62
     7
100
AcDbLine
 10
680.666686
 20
702.228146
 11
680.666686
 21
701.825802
  0
LINE
  5
7E7
100
AcDbEntity
  8
M0
 62
     7
100
AcDbLine
 10
677.666686
 20
701.825802
 11
677.666686
 21
702.228146
  0
LINE
  5
7E8
100
AcDbEntity
  8
M0
 62
     7
100
AcDbLine
 10
681.916686
 20
720.428204
 11
676.416686
 21
720.428204
  0
LINE
  5
7E9
100
AcDbEntity
  8
M0
 62
     7
100
AcDbLine
 10
679.166686
 20
719.728146
 11
679.666686
 21
720.428204
  0
LINE
  5
7EA
100
AcDbEntity
  8
M0
 62
     7
100
AcDbLine
 10
679.166686
 20
720.428204
 11
678.666686
 21
719.728146
  0
LINE
  5
7EB
100
AcDbEntity
  8
M0
  6
DASHED
 62
     7
100
AcDbLine
 10
658.166686
 20
681.228146
 11
670.166686
 21
681.228146
  0
LINE
  5
7EC
100
AcDbEntity
  8
M0
  6
DASHED
 62
     7
100
AcDbLine
 10
658.166686
 20
675.228146
 11
670.166686
 21
675.228146
  0
LINE
  5
7ED
100
AcDbEntity
  8
M0
 62
     1
100
AcDbLine
 10
559.666702
 20
680.526898
 11
559.666702
 21
681.726895
  0
LINE
  5
7EE
100
AcDbEntity
  8
M0
 62
     1
100
AcDbLine
 10
559.666702
 20
702.726874
 11
559.666702
 21
703.92687
  0
LINE
  5
7EF
100
AcDbEntity
  8
M0
 62
     1
100
AcDbLine
 10
575.166686
 20
680.526898
 11
559.666702
 21
680.526898
  0
LINE
  5
7F0
100
AcDbEntity
  8
M0
 62
     1
100
AcDbLine
 10
575.166686
 20
703.92687
 11
559.666702
 21
703.92687
  0
LINE
  5
7F1
100
AcDbEntity
  8
M0
 62
     1
100
AcDbLine
 10
575.166686
 20
681.726895
 11
571.366683
 21
681.726895
  0
LINE
  5
7F2
100
AcDbEntity
  8
M0
 62
     1
100
AcDbLine
 10
575.166686
 20
681.726895
 11
575.166686
 21
680.526898
  0
LINE
  5
7F3
100
AcDbEntity
  8
M0
 62
     1
100
AcDbLine
 10
562.666686
 20
682.426892
 11
566.81668
 21
682.426892
  0
LINE
  5
7F4
100
AcDbEntity
  8
M0
 62
     1
100
AcDbLine
 10
562.666686
 20
702.026877
 11
566.81668
 21
702.026877
  0
LINE
  5
7F5
100
AcDbEntity
  8
M0
 62
     1
100
AcDbLine
 10
562.666686
 20
702.026877
 11
562.666686
 21
682.426892
  0
LINE
  5
7F6
100
AcDbEntity
  8
M0
 62
     1
100
AcDbLine
 10
571.366683
 20
704.726873
 11
571.366683
 21
680.526898
  0
LINE
  5
7F7
100
AcDbEntity
  8
M0
 62
     1
100
AcDbLine
 10
575.166686
 20
703.92687
 11
575.166686
 21
702.726874
  0
LINE
  5
7F8
100
AcDbEntity
  8
M0
 62
     1
100
AcDbLine
 10
562.366683
 20
703.92687
 11
562.366683
 21
705.226873
  0
LINE
  5
7F9
100
AcDbEntity
  8
M0
 62
     1
100
AcDbLine
 10
562.366683
 20
705.226873
 11
570.866683
 21
705.226873
  0
LINE
  5
7FA
100
AcDbEntity
  8
M0
 62
     1
100
AcDbLine
 10
575.166686
 20
702.726874
 11
571.366683
 21
702.726874
  0
LINE
  5
7FB
100
AcDbEntity
  8
M0
 62
     1
100
AcDbLine
 10
566.81668
 20
681.726895
 11
559.666702
 21
681.726895
  0
LINE
  5
7FC
100
AcDbEntity
  8
M0
 62
     1
100
AcDbLine
 10
566.81668
 20
702.726874
 11
559.666702
 21
702.726874
  0
ARC
  5
7FD
100
AcDbEntity
  8
M0
 62
     1
100
AcDbCircle
 10
566.81668
 20
702.376883
 40
0.35
100
AcDbArc
 50
270.0
 51
360.0
  0
ARC
  5
7FE
100
AcDbEntity
  8
M0
 62
     1
100
AcDbCircle
 10
566.81668
 20
702.376883
 40
0.35
100
AcDbArc
 50
0.0
 51
89.997502
  0
ARC
  5
7FF
100
AcDbEntity
  8
M0
 62
     1
100
AcDbCircle
 10
566.81668
 20
682.076886
 40
0.35
100
AcDbArc
 50
270.0
 51
360.0
  0
ARC
  5
800
100
AcDbEntity
  8
M0
 62
     1
100
AcDbCircle
 10
566.81668
 20
682.076886
 40
0.35
100
AcDbArc
 50
0.0
 51
89.997502
  0
ARC
  5
801
100
AcDbEntity
  8
M0
 62
     1
100
AcDbCircle
 10
570.866683
 20
704.726873
 40
0.5
100
AcDbArc
 50
0.0
 51
89.998251
  0
LINE
  5
802
100
AcDbEntity
  8
M0
 62
     1
100
AcDbLine
 10
561.170043
 20
685.977429
 11
562.666686
 21
685.977429
  0
LINE
  5
803
100
AcDbEntity
  8
M0
 62
     1
100
AcDbLine
 10
562.666564
 20
692.477423
 11
561.170043
 21
692.477423
  0
LINE
  5
804
100
AcDbEntity
  8
M0
 62
     1
100
AcDbLine
 10
560.670043
 20
691.977178
 11
560.670043
 21
686.477429
  0
ARC
  5
805
100
AcDbEntity
  8
M0
 62
     1
100
AcDbCircle
 10
561.170058
 20
691.977178
 40
0.5
100
AcDbArc
 50
89.998251
 51
179.999891
  0
ARC
  5
806
100
AcDbEntity
  8
M0
 62
     1
100
AcDbCircle
 10
561.170058
 20
686.477429
 40
0.5
100
AcDbArc
 50
179.998251
 51
270.0
  0
LINE
  5
807
100
AcDbEntity
  8
M0
 62
     1
100
AcDbLine
 10
633.165978
 20
667.727307
 11
633.166423
 21
702.727297
  0
LINE
  5
808
100
AcDbEntity
  8
M0
 62
     1
100
AcDbLine
 10
633.166591
 20
702.727297
 11
631.66552
 21
702.72692
  0
LINE
  5
809
100
AcDbEntity
  8
M0
 62
     1
100
AcDbLine
 10
558.166641
 20
703.728247
 11
558.166442
 21
687.728161
  0
LINE
  5
80A
100
AcDbEntity
  8
M0
 62
     1
100
AcDbLine
 10
577.585449
 20
668.228009
 11
601.202071
 21
668.227704
  0
LINE
  5
80B
100
AcDbEntity
  8
M0
 62
     1
100
AcDbLine
 10
562.666412
 20
681.728207
 11
562.666442
 21
684.978207
  0
LINE
  5
80C
100
AcDbEntity
  8
M0
 62
     1
100
AcDbLine
 10
584.466659
 20
705.727915
 11
560.166656
 21
705.728224
  0
LINE
  5
80D
100
AcDbEntity
  8
M0
 62
     1
100
AcDbLine
 10
574.987396
 20
669.728039
 11
569.683639
 21
669.728116
  0
LINE
  5
80E
100
AcDbEntity
  8
M0
 62
     1
100
AcDbLine
 10
564.488281
 20
680.526928
 11
566.785888
 21
671.951687
  0
ARC
  5
80F
100
AcDbEntity
  8
M0
 62
     1
100
AcDbCircle
 10
569.683669
 20
672.728116
 40
3.0
100
AcDbArc
 50
194.999447
 51
270.0
  0
LINE
  5
810
100
AcDbEntity
  8
M0
 62
     1
100
AcDbLine
 10
571.988189
 20
680.526928
 11
574.687682
 21
670.451596
  0
ARC
  5
811
100
AcDbEntity
  8
M0
 62
     1
100
AcDbCircle
 10
577.585479
 20
671.228009
 40
3.0
100
AcDbArc
 50
194.998884
 51
270.0
  0
LINE
  5
812
100
AcDbEntity
  8
M0
 62
     1
100
AcDbLine
 10
562.666564
 20
693.478193
 11
562.666656
 21
701.728193
  0
ARC
  5
813
100
AcDbEntity
  8
M0
 62
     1
100
AcDbCircle
 10
563.666656
 20
701.72818
 40
1.0
100
AcDbArc
 50
89.999126
 51
179.999945
  0
LINE
  5
814
100
AcDbEntity
  8
M0
 62
     1
100
AcDbLine
 10
558.166473
 20
689.72796
 11
560.670104
 21
689.727929
  0
LINE
  5
815
100
AcDbEntity
  8
M0
 62
     1
100
AcDbLine
 10
558.166442
 20
687.727978
 11
560.670104
 21
687.727932
  0
LINE
  5
816
100
AcDbEntity
  8
M0
 62
     1
100
AcDbLine
 10
576.513717
 20
672.228024
 11
586.166229
 21
672.227902
  0
ARC
  5
817
100
AcDbEntity
  8
M0
 62
     1
100
AcDbCircle
 10
576.513747
 20
675.228024
 40
3.0
100
AcDbArc
 50
194.999447
 51
270.0
  0
LINE
  5
818
100
AcDbEntity
  8
M0
 62
     1
100
AcDbLine
 10
589.166213
 20
670.227856
 11
600.666183
 21
670.227719
  0
LINE
  5
819
100
AcDbEntity
  8
M0
 62
     1
100
AcDbLine
 10
603.540527
 20
665.227688
 11
607.366119
 21
665.227627
  0
LINE
  5
81A
100
AcDbEntity
  8
M0
 62
     1
100
AcDbLine
 10
604.442428
 20
661.227673
 11
620.759936
 21
661.227459
  0
ARC
  5
81B
100
AcDbEntity
  8
M0
 62
     1
100
AcDbCircle
 10
584.466628
 20
703.727839
 40
2.0
100
AcDbArc
 50
14.333164
 51
89.999563
  0
LINE
  5
81C
100
AcDbEntity
  8
M0
 62
     1
100
AcDbLine
 10
622.491981
 20
662.227444
 11
625.667496
 21
667.727398
  0
ARC
  5
81D
100
AcDbEntity
  8
M0
 62
     1
100
AcDbCircle
 10
620.759953
 20
663.227459
 40
2.0
100
AcDbArc
 50
270.0
 51
329.999445
  0
ARC
  5
81E
100
AcDbEntity
  8
M0
 62
     1
100
AcDbCircle
 10
603.540557
 20
667.227688
 40
2.0
100
AcDbArc
 50
194.999701
 51
270.0
  0
LINE
  5
81F
100
AcDbEntity
  8
M0
 62
     1
100
AcDbLine
 10
610.366088
 20
663.227597
 11
621.91467
 21
663.227444
  0
ARC
  5
820
100
AcDbEntity
  8
M0
 62
     1
100
AcDbCircle
 10
621.914687
 20
665.227444
 40
2.0
100
AcDbArc
 50
270.0
 51
329.999445
  0
LINE
  5
821
100
AcDbEntity
  8
M0
 62
     1
100
AcDbLine
 10
601.166198
 20
667.727704
 11
589.166167
 21
667.727856
  0
LINE
  5
822
100
AcDbEntity
  8
M0
 62
     1
100
AcDbLine
 10
588.416183
 20
668.227871
 11
589.166167
 21
667.727856
  0
LINE
  5
823
100
AcDbEntity
  8
M0
 62
     1
100
AcDbLine
 10
586.166229
 20
672.227902
 11
589.166213
 21
670.227856
  0
LINE
  5
824
100
AcDbEntity
  8
M0
 62
     1
100
AcDbLine
 10
625.667505
 20
667.727398
 11
633.166146
 21
667.727307
  0
LINE
  5
825
100
AcDbEntity
  8
M0
 62
     1
100
AcDbLine
 10
622.492005
 20
662.227444
 11
628.166077
 21
662.227368
  0
LINE
  5
826
100
AcDbEntity
  8
M0
 62
     1
100
AcDbLine
 10
630.166102
 20
664.227337
 11
630.166147
 21
667.727337
  0
ARC
  5
827
100
AcDbEntity
  8
M0
 62
     1
100
AcDbCircle
 10
628.166102
 20
664.227368
 40
2.0
100
AcDbArc
 50
270.0
 51
360.0
  0
LINE
  5
828
100
AcDbEntity
  8
M0
 62
     1
100
AcDbLine
 10
607.366119
 20
665.227627
 11
610.366088
 21
663.227597
  0
LINE
  5
829
100
AcDbEntity
  8
M0
 62
     1
100
AcDbLine
 10
568.025329
 20
670.228131
 11
565.147247
 21
670.228177
  0
LINE
  5
82A
100
AcDbEntity
  8
M0
 62
     1
100
AcDbLine
 10
558.166427
 20
687.728177
 11
559.774368
 21
681.726925
  0
ARC
  5
82B
100
AcDbEntity
  8
M0
 62
     1
100
AcDbCircle
 10
565.157287
 20
673.228146
 40
3.0
100
AcDbArc
 50
194.998884
 51
270.0
  0
LINE
  5
82C
100
AcDbEntity
  8
M0
 62
     1
100
AcDbLine
 10
601.166167
 20
667.727765
 11
602.510589
 21
662.710049
  0
LINE
  5
82D
100
AcDbEntity
  8
M0
 62
     1
100
AcDbLine
 10
600.666198
 20
670.227719
 11
601.608703
 21
666.710064
  0
ARC
  5
82E
100
AcDbEntity
  8
M0
 62
     1
100
AcDbCircle
 10
604.442443
 20
663.227673
 40
2.0
100
AcDbArc
 50
194.999166
 51
270.0
  0
LINE
  5
82F
100
AcDbEntity
  8
M0
 62
     1
100
AcDbLine
 10
631.66552
 20
704.226919
 11
576.165572
 21
704.226678
  0
LINE
  5
830
100
AcDbEntity
  8
M0
 62
     1
100
AcDbLine
 10
631.665585
 20
704.227163
 11
631.665582
 21
702.72692
  0
LINE
  5
831
100
AcDbEntity
  8
M0
 62
     1
100
AcDbLine
 10
576.165572
 20
704.226922
 11
575.665588
 21
702.726441
  0
LINE
  5
832
100
AcDbEntity
  8
M0
 62
     1
100
AcDbLine
 10
575.665923
 20
702.726929
 11
563.666671
 21
702.72818
  0
LINE
  5
833
100
AcDbEntity
  8
M0
 62
     1
100
AcDbLine
 10
560.095901
 20
680.526928
 11
562.259506
 21
672.451733
  0
ARC
  5
834
100
AcDbEntity
  8
M0
 62
     1
100
AcDbCircle
 10
560.166641
 20
703.728224
 40
2.0
100
AcDbArc
 50
89.999563
 51
179.999962
  0
LINE
  5
835
100
AcDbEntity
  8
M0
 62
   114
100
AcDbLine
 10
719.066589
 20
671.825802
 11
719.066598
 21
701.825802
  0
LINE
  5
836
100
AcDbEntity
  8
M0
 62
   114
100
AcDbLine
 10
658.066587
 20
666.825821
 11
670.066587
 21
666.825818
  0
LINE
  5
837
100
AcDbEntity
  8
M0
 62
   114
100
AcDbLine
 10
673.066589
 20
671.825817
 11
719.066589
 21
671.825802
  0
LINE
  5
838
100
AcDbEntity
  8
M0
 62
   114
100
AcDbLine
 10
670.066587
 20
666.825818
 11
670.066588
 21
668.825818
  0
ARC
  5
839
100
AcDbEntity
  8
M0
 62
   114
100
AcDbCircle
 10
673.066588
 20
668.825817
 40
3.0
100
AcDbArc
 50
90.0
 51
179.999964
  0
LINE
  5
83A
100
AcDbEntity
  8
M0
 62
   114
100
AcDbLine
 10
659.566598
 20
701.825821
 11
659.566593
 21
685.825821
  0
LINE
  5
83B
100
AcDbEntity
  8
M0
 62
   114
100
AcDbLine
 10
659.566593
 20
685.825821
 11
658.066593
 21
685.825821
  0
LINE
  5
83C
100
AcDbEntity
  8
M0
 62
   114
100
AcDbLine
 10
658.066593
 20
685.825821
 11
658.066587
 21
666.825821
  0
LINE
  5
83D
100
AcDbEntity
  8
M0
 62
   114
100
AcDbLine
 10
719.066598
 20
701.825802
 11
664.566598
 21
701.825819
  0
LINE
  5
83E
100
AcDbEntity
  8
M0
 62
   114
100
AcDbLine
 10
664.566598
 20
701.825819
 11
664.566598
 21
700.325819
  0
LINE
  5
83F
100
AcDbEntity
  8
M0
 62
   114
100
AcDbLine
 10
664.566598
 20
700.325819
 11
663.566598
 21
700.32582
  0
LINE
  5
840
100
AcDbEntity
  8
M0
 62
   114
100
AcDbLine
 10
663.566598
 20
700.32582
 11
663.566598
 21
701.82582
  0
LINE
  5
841
100
AcDbEntity
  8
M0
 62
   114
100
AcDbLine
 10
663.566598
 20
701.82582
 11
659.566598
 21
701.825821
  0
LINE
  5
842
100
AcDbEntity
  8
M0
 62
   114
100
AcDbLine
 10
659.566594
 20
689.825821
 11
719.066594
 21
689.825802
  0
LINE
  5
843
100
AcDbEntity
  8
M0
 62
   114
100
AcDbLine
 10
707.066594
 20
689.825806
 11
707.066591
 21
679.825806
  0
ARC
  5
844
100
AcDbEntity
  8
M0
 62
   114
100
AcDbCircle
 10
708.066591
 20
679.825806
 40
1.0
100
AcDbArc
 50
179.999982
 51
270.0
  0
LINE
  5
845
100
AcDbEntity
  8
M0
 62
   114
100
AcDbLine
 10
698.066589
 20
671.825809
 11
698.066591
 21
677.825809
  0
ARC
  5
846
100
AcDbEntity
  8
M0
 62
   114
100
AcDbCircle
 10
699.066591
 20
677.825809
 40
1.0
100
AcDbArc
 50
90.0
 51
179.999982
  0
LINE
  5
847
100
AcDbEntity
  8
M0
 62
   114
100
AcDbLine
 10
719.066591
 20
678.825802
 11
684.066591
 21
678.825813
  0
LINE
  5
848
100
AcDbEntity
  8
M0
 62
   114
100
AcDbLine
 10
683.066589
 20
671.825814
 11
683.066591
 21
677.825814
  0
ARC
  5
849
100
AcDbEntity
  8
M0
 62
   114
100
AcDbCircle
 10
684.066591
 20
677.825813
 40
1.0
100
AcDbArc
 50
90.0
 51
179.999982
  0
LINE
  5
84A
100
AcDbEntity
  8
M0
 62
   114
100
AcDbLine
 10
676.216604
 20
691.825816
 11
681.916601
 21
691.825814
  0
LINE
  5
84B
100
AcDbEntity
  8
M0
 62
   114
100
AcDbLine
 10
676.216603
 20
689.825816
 11
676.216604
 21
691.825816
  0
LINE
  5
84C
100
AcDbEntity
  8
M0
 62
   114
100
AcDbLine
 10
681.9166
 20
689.825814
 11
681.916601
 21
691.825814
  0
LINE
  5
84D
100
AcDbEntity
  8
M0
  6
DASHDOT
 62
   114
100
AcDbLine
 10
679.066594
 20
687.621723
 11
679.066605
 21
724.584772
  0
LINE
  5
84E
100
AcDbEntity
  8
M0
 62
     1
100
AcDbLine
 10
635.966491
 20
702.228145
 11
635.966492
 21
700.428731
  0
LINE
  5
84F
100
AcDbEntity
  8
M0
 62
     1
100
AcDbLine
 10
635.966492
 20
700.428731
 11
642.366638
 21
700.428733
  0
LINE
  5
850
100
AcDbEntity
  8
M0
 62
     1
100
AcDbLine
 10
642.366638
 20
700.428733
 11
642.366637
 21
702.228147
  0
LINE
  5
851
100
AcDbEntity
  8
M0
 62
     1
100
AcDbLine
 10
642.366637
 20
702.228147
 11
635.966491
 21
702.228145
  0
LINE
  5
852
100
AcDbEntity
  8
M0
 62
     1
100
AcDbLine
 10
640.766296
 20
700.428733
 11
640.766296
 21
702.228147
  0
LINE
  5
853
100
AcDbEntity
  8
M0
 62
     1
100
AcDbLine
 10
637.566345
 20
700.428732
 11
637.566344
 21
702.228146
  0
LINE
  5
854
100
AcDbEntity
  8
M0
  6
DASHDOT
 62
     4
100
AcDbLine
 10
677.166702
 20
678.227917
 11
668.166686
 21
678.227902
  0
LINE
  5
855
100
AcDbEntity
  8
M0
  6
DASHED
 62
     4
100
AcDbLine
 10
675.166686
 20
672.477887
 11
670.166686
 21
672.477887
  0
LINE
  5
856
100
AcDbEntity
  8
M0
  6
DASHED
 62
     4
100
AcDbLine
 10
675.166702
 20
683.977871
 11
675.166686
 21
672.477887
  0
LINE
  5
857
100
AcDbEntity
  8
M0
  6
DASHED
 62
     4
100
AcDbLine
 10
670.166686
 20
672.477887
 11
670.166686
 21
683.977871
  0
LINE
  5
858
100
AcDbEntity
  8
M0
  6
DASHED
 62
     4
100
AcDbLine
 10
675.166702
 20
681.102871
 11
670.166686
 21
681.102871
  0
LINE
  5
859
100
AcDbEntity
  8
M0
  6
DASHED
 62
     4
100
AcDbLine
 10
675.166686
 20
675.352887
 11
670.166686
 21
675.352887
  0
LINE
  5
85A
100
AcDbEntity
  8
M0
  6
DASHED
 62
     4
100
AcDbLine
 10
670.166686
 20
683.977871
 11
675.166702
 21
683.977856
  0
LINE
  5
85B
100
AcDbEntity
  8
M0
 62
   253
100
AcDbLine
 10
706.566589
 20
679.825802
 11
706.566589
 21
687.825802
  0
LINE
  5
85C
100
AcDbEntity
  8
M0
 62
   253
100
AcDbLine
 10
707.066589
 20
679.825802
 11
707.066589
 21
687.825802
  0
LINE
  5
85D
100
AcDbEntity
  8
M0
 62
   253
100
AcDbLine
 10
705.566589
 20
687.325802
 11
706.566589
 21
687.325802
  0
LINE
  5
85E
100
AcDbEntity
  8
M0
 62
   253
100
AcDbLine
 10
705.566589
 20
680.325802
 11
706.566589
 21
680.325802
  0
LINE
  5
85F
100
AcDbEntity
  8
M0
 62
   253
100
AcDbLine
 10
706.566589
 20
687.825802
 11
707.066589
 21
687.825802
  0
LINE
  5
860
100
AcDbEntity
  8
M0
 62
   253
100
AcDbLine
 10
706.566589
 20
679.825802
 11
707.066589
 21
679.825802
  0
LINE
  5
861
100
AcDbEntity
  8
M0
 62
   253
100
AcDbLine
 10
705.566589
 20
680.325924
 11
705.566589
 21
687.325924
  0
LINE
  5
862
100
AcDbEntity
  8
M0
 62
   253
100
AcDbLine
 10
723.566589
 20
681.825924
 11
723.566589
 21
685.825924
  0
LINE
  5
863
100
AcDbEntity
  8
M0
 62
   253
100
AcDbLine
 10
723.566589
 20
685.825924
 11
721.366631
 21
685.825924
  0
LINE
  5
864
100
AcDbEntity
  8
M0
 62
   253
100
AcDbLine
 10
705.566589
 20
685.825924
 11
705.566589
 21
681.825924
  0
LINE
  5
865
100
AcDbEntity
  8
M0
 62
   253
100
AcDbLine
 10
721.366631
 20
681.825924
 11
723.566589
 21
681.825924
  0
LINE
  5
866
100
AcDbEntity
  8
M0
  6
DASHDOT
 62
   253
100
AcDbLine
 10
700.566589
 20
683.825924
 11
725.577087
 21
683.825924
  0
LINE
  5
867
100
AcDbEntity
  8
M0
 62
   253
100
AcDbLine
 10
705.566589
 20
687.325924
 11
704.587569
 21
687.325924
  0
ARC
  5
868
100
AcDbEntity
  8
M0
 62
   253
100
AcDbCircle
 10
704.587569
 20
686.025921
 40
1.299999
100
AcDbArc
 50
90.0
 51
163.398526
  0
LINE
  5
869
100
AcDbEntity
  8
M0
 62
   253
100
AcDbLine
 10
704.587569
 20
680.325924
 11
705.566589
 21
680.325924
  0
ARC
  5
86A
100
AcDbEntity
  8
M0
 62
   253
100
AcDbCircle
 10
704.587569
 20
681.625927
 40
1.299999
100
AcDbArc
 50
196.601394
 51
270.0
  0
LINE
  5
86B
100
AcDbEntity
  8
M0
 62
   253
100
AcDbLine
 10
721.366631
 20
685.525921
 11
723.566589
 21
685.525921
  0
LINE
  5
86C
100
AcDbEntity
  8
M0
 62
   253
100
AcDbLine
 10
721.366631
 20
682.125927
 11
723.566589
 21
682.125927
  0
LINE
  5
86D
100
AcDbEntity
  8
M0
 62
   253
100
AcDbLine
 10
702.980483
 20
684.325924
 11
704.380492
 21
684.325924
  0
LINE
  5
86E
100
AcDbEntity
  8
M0
 62
   253
100
AcDbLine
 10
704.380492
 20
684.325924
 11
704.380492
 21
683.325924
  0
LINE
  5
86F
100
AcDbEntity
  8
M0
 62
   253
100
AcDbLine
 10
704.380492
 20
683.325924
 11
702.980483
 21
683.325924
  0
ARC
  5
870
100
AcDbEntity
  8
M0
 62
   253
100
AcDbCircle
 10
711.966583
 20
683.825924
 40
9.0
100
AcDbArc
 50
163.398451
 51
176.815238
  0
ARC
  5
871
100
AcDbEntity
  8
M0
 62
   253
100
AcDbCircle
 10
711.966583
 20
683.825924
 40
9.0
100
AcDbArc
 50
183.18469
 51
196.60153
  0
LINE
  5
872
100
AcDbEntity
  8
M0
 62
   253
100
AcDbLine
 10
706.566589
 20
683.825924
 11
705.566589
 21
683.325924
  0
LINE
  5
873
100
AcDbEntity
  8
M0
 62
   253
100
AcDbLine
 10
705.566589
 20
683.825924
 11
706.566589
 21
684.325909
  0
LINE
  5
874
100
AcDbEntity
  8
M0
 62
     4
100
AcDbLine
 10
651.566695
 20
641.228146
 11
653.166686
 21
641.228146
  0
LINE
  5
875
100
AcDbEntity
  8
M0
 62
     4
100
AcDbLine
 10
653.166686
 20
641.228146
 11
653.166686
 21
663.228146
  0
LINE
  5
876
100
AcDbEntity
  8
M0
 62
     4
100
AcDbLine
 10
653.166686
 20
663.228146
 11
651.566695
 21
663.228146
  0
LINE
  5
877
100
AcDbEntity
  8
M0
 62
     4
100
AcDbLine
 10
651.566695
 20
663.228146
 11
651.566695
 21
641.228146
  0
LINE
  5
878
100
AcDbEntity
  8
M0
 62
     4
100
AcDbLine
 10
649.066695
 20
643.028141
 11
651.566695
 21
643.028141
  0
LINE
  5
879
100
AcDbEntity
  8
M0
 62
     4
100
AcDbLine
 10
651.566695
 20
661.428134
 11
649.066695
 21
661.428134
  0
LINE
  5
87A
100
AcDbEntity
  8
M0
 62
     4
100
AcDbLine
 10
649.066695
 20
652.228152
 11
651.566695
 21
650.784778
  0
LINE
  5
87B
100
AcDbEntity
  8
M0
 62
     4
100
AcDbLine
 10
649.066695
 20
653.671511
 11
651.566695
 21
652.228137
  0
LINE
  5
87C
100
AcDbEntity
  8
M0
 62
     4
100
AcDbLine
 10
649.06668
 20
662.028185
 11
641.066665
 21
662.028185
  0
LINE
  5
87D
100
AcDbEntity
  8
M0
 62
     4
100
AcDbLine
 10
641.066695
 20
662.02814
 11
641.066695
 21
642.428165
  0
LINE
  5
87E
100
AcDbEntity
  8
M0
 62
     4
100
AcDbLine
 10
641.06668
 20
642.42818
 11
649.06668
 21
642.42818
  0
LINE
  5
87F
100
AcDbEntity
  8
M0
 62
     4
100
AcDbLine
 10
649.066695
 20
642.428195
 11
649.066695
 21
662.028201
  0
LINE
  5
880
100
AcDbEntity
  8
M0
 62
     4
100
AcDbLine
 10
649.06668
 20
647.328174
 11
641.06668
 21
647.328174
  0
LINE
  5
881
100
AcDbEntity
  8
M0
 62
     4
100
AcDbLine
 10
649.06668
 20
657.128161
 11
641.066665
 21
657.128161
  0
LINE
  5
882
100
AcDbEntity
  8
M0
 62
   234
100
AcDbLine
 10
643.666686
 20
672.728146
 11
653.166686
 21
672.728146
  0
LINE
  5
883
100
AcDbEntity
  8
M0
 62
   234
100
AcDbLine
 10
633.166686
 20
669.228146
 11
640.166686
 21
669.228146
  0
LINE
  5
884
100
AcDbEntity
  8
M0
 62
   234
100
AcDbLine
 10
640.166686
 20
669.228146
 11
643.666686
 21
672.728146
  0
LINE
  5
885
100
AcDbEntity
  8
M0
 62
   234
100
AcDbLine
 10
635.166686
 20
710.228146
 11
630.166686
 21
710.228146
  0
LINE
  5
886
100
AcDbEntity
  8
M0
 62
   234
100
AcDbLine
 10
630.166686
 20
710.228146
 11
630.166686
 21
704.728146
  0
LINE
  5
887
100
AcDbEntity
  8
M0
 62
   234
100
AcDbLine
 10
633.166686
 20
699.728146
 11
633.166686
 21
669.228146
  0
LINE
  5
888
100
AcDbEntity
  8
M0
 62
   234
100
AcDbLine
 10
636.966686
 20
699.728146
 11
633.166686
 21
699.728146
  0
ARC
  5
889
100
AcDbEntity
  8
M0
 62
   234
100
AcDbCircle
 10
636.966686
 20
702.228146
 40
2.5
100
AcDbArc
 50
270.0
 51
286.2601
  0
LINE
  5
88A
100
AcDbEntity
  8
M0
 62
   234
100
AcDbLine
 10
630.166686
 20
704.728146
 11
635.166686
 21
704.728146
  0
LINE
  5
88B
100
AcDbEntity
  8
M0
 62
   234
100
AcDbLine
 10
635.466686
 20
699.728146
 11
635.466686
 21
669.228146
  0
LINE
  5
88C
100
AcDbEntity
  8
M0
  6
DASHDOT
 62
   234
100
AcDbLine
 10
648.529972
 20
678.228146
 11
655.472045
 21
678.228146
  0
LINE
  5
88D
100
AcDbEntity
  8
M0
  6
DASHED
 62
   234
100
AcDbLine
 10
650.866683
 20
674.728146
 11
653.166686
 21
674.728146
  0
LINE
  5
88E
100
AcDbEntity
  8
M0
  6
DASHED
 62
   234
100
AcDbLine
 10
650.866683
 20
702.228146
 11
650.866683
 21
672.728146
  0
LINE
  5
88F
100
AcDbEntity
  8
M0
  6
DASHED
 62
   234
100
AcDbLine
 10
650.866683
 20
681.728146
 11
653.166686
 21
681.728146
  0
LINE
  5
890
100
AcDbEntity
  8
M0
 62
     2
100
AcDbLine
 10
721.866637
 20
674.364087
 11
721.866637
 21
654.826046
  0
LINE
  5
891
100
AcDbEntity
  8
M0
 62
     2
100
AcDbLine
 10
721.866637
 20
654.825863
 11
724.166686
 21
654.825863
  0
LINE
  5
892
100
AcDbEntity
  8
M0
 62
     2
100
AcDbLine
 10
724.166686
 20
654.826046
 11
724.166686
 21
674.326031
  0
LINE
  5
893
100
AcDbEntity
  8
M0
  6
DASHDOT
 62
     2
100
AcDbLine
 10
716.866637
 20
659.825848
 11
729.166686
 21
659.825848
  0
ARC
  5
894
100
AcDbEntity
  8
M0
 62
     2
100
AcDbCircle
 10
721.366637
 20
674.364087
 40
0.5
100
AcDbArc
 50
0.0
 51
81.293564
  0
ARC
  5
895
100
AcDbEntity
  8
M0
 62
     2
100
AcDbCircle
 10
721.366637
 20
674.326031
 40
2.799999
100
AcDbArc
 50
0.0
 51
81.288555
  0
ARC
  5
896
100
AcDbEntity
  8
M0
 62
     2
100
AcDbCircle
 10
721.866637
 20
677.587918
 40
0.5
100
AcDbArc
 50
180.0
 51
261.266308
  0
ARC
  5
897
100
AcDbEntity
  8
M0
 62
     2
100
AcDbCircle
 10
721.866393
 20
677.626034
 40
2.799999
100
AcDbArc
 50
180.0
 51
261.288781
  0
LINE
  5
898
100
AcDbEntity
  8
M0
 62
     2
100
AcDbLine
 10
721.366637
 20
677.587918
 11
721.366637
 21
721.075863
  0
LINE
  5
899
100
AcDbEntity
  8
M0
 62
     2
100
AcDbLine
 10
719.066589
 20
677.626034
 11
719.066589
 21
758.825848
  0
LINE
  5
89A
100
AcDbEntity
  8
M0
 62
     2
100
AcDbLine
 10
721.366637
 20
721.075863
 11
721.866637
 21
721.075863
  0
LINE
  5
89B
100
AcDbEntity
  8
M0
 62
     2
100
AcDbLine
 10
721.866637
 20
721.075863
 11
721.866637
 21
738.575863
  0
LINE
  5
89C
100
AcDbEntity
  8
M0
 62
     2
100
AcDbLine
 10
721.366637
 20
738.575863
 11
721.866637
 21
738.575863
  0
LINE
  5
89D
100
AcDbEntity
  8
M0
 62
     2
100
AcDbLine
 10
721.366637
 20
738.575863
 11
721.366637
 21
758.825863
  0
LINE
  5
89E
100
AcDbEntity
  8
M0
 62
     2
100
AcDbLine
 10
719.066589
 20
758.825863
 11
721.366637
 21
758.825863
  0
CIRCLE
  5
89F
100
AcDbEntity
  8
M0
 62
     4
100
AcDbCircle
 10
133.844817
 20
487.835599
 40
6.0
  0
CIRCLE
  5
8A0
100
AcDbEntity
  8
M0
 62
     4
100
AcDbCircle
 10
433.844817
 20
487.835599
 40
6.0
  0
CIRCLE
  5
8A1
100
AcDbEntity
  8
M0
 62
     4
100
AcDbCircle
 10
283.844817
 20
227.835844
 40
6.0
  0
LINE
  5
8A2
100
AcDbEntity
  8
M0
  6
DIVIDE
 62
     4
100
AcDbLine
 10
116.344817
 20
212.835844
 11
120.840829
 21
212.835844
  0
LINE
  5
8A3
100
AcDbEntity
  8
M0
  6
DIVIDE
 62
     4
100
AcDbLine
 10
451.344817
 20
212.835844
 11
451.344817
 21
502.835844
  0
LINE
  5
8A4
100
AcDbEntity
  8
M0
  6
DIVIDE
 62
     4
100
AcDbLine
 10
451.344817
 20
502.835844
 11
116.344817
 21
502.835844
  0
LINE
  5
8A5
100
AcDbEntity
  8
M0
  6
DIVIDE
 62
     4
100
AcDbLine
 10
116.344817
 20
502.835844
 11
116.344817
 21
212.835844
  0
LINE
  5
8A6
100
AcDbEntity
  8
M0
  6
DASHDOT
 62
     4
100
AcDbLine
 10
283.844817
 20
195.613431
 11
283.844817
 21
520.058012
  0
CIRCLE
  5
8A7
100
AcDbEntity
  8
M0
 62
     4
100
AcDbCircle
 10
133.844817
 20
487.835599
 40
3.0
  0
LINE
  5
8A8
100
AcDbEntity
  8
M0
  6
DASHDOT
 62
     4
100
AcDbLine
 10
108.622588
 20
487.835599
 11
159.067046
 21
487.835599
  0
LINE
  5
8A9
100
AcDbEntity
  8
M0
  6
DASHDOT
 62
     4
100
AcDbLine
 10
133.844817
 20
462.613187
 11
133.844817
 21
513.057767
  0
CIRCLE
  5
8AA
100
AcDbEntity
  8
M0
 62
     4
100
AcDbCircle
 10
433.844817
 20
487.835599
 40
3.0
  0
LINE
  5
8AB
100
AcDbEntity
  8
M0
  6
DASHDOT
 62
     4
100
AcDbLine
 10
408.622405
 20
487.835599
 11
459.066985
 21
487.835599
  0
LINE
  5
8AC
100
AcDbEntity
  8
M0
  6
DASHDOT
 62
     4
100
AcDbLine
 10
433.844817
 20
462.613187
 11
433.844817
 21
513.057767
  0
CIRCLE
  5
8AD
100
AcDbEntity
  8
M0
 62
     4
100
AcDbCircle
 10
283.844817
 20
227.835844
 40
3.0
  0
LINE
  5
8AE
100
AcDbEntity
  8
M0
  6
DASHDOT
 62
     4
100
AcDbLine
 10
258.622405
 20
227.835844
 11
309.066985
 21
227.835844
  0
LINE
  5
8AF
100
AcDbEntity
  8
M0
  6
DIVIDE
 62
     4
100
AcDbLine
 10
268.840631
 20
212.835844
 11
451.344817
 21
212.835844
  0
LINE
  5
8B0
100
AcDbEntity
  8
M0
  6
DIVIDE
 62
     2
100
AcDbLine
 10
124.590829
 20
177.83459
 11
132.090829
 21
177.83459
  0
LINE
  5
8B1
100
AcDbEntity
  8
M0
  6
DIVIDE
 62
     2
100
AcDbLine
 10
267.590631
 20
182.83459
 11
262.590631
 21
177.83459
  0
LINE
  5
8B2
100
AcDbEntity
  8
M0
  6
DIVIDE
 62
     2
100
AcDbLine
 10
267.590631
 20
182.83459
 11
267.590631
 21
212.835844
  0
LINE
  5
8B3
100
AcDbEntity
  8
M0
  6
DIVIDE
 62
     2
100
AcDbLine
 10
119.590829
 20
182.83459
 11
119.590829
 21
212.835844
  0
LINE
  5
8B4
100
AcDbEntity
  8
M0
  6
DIVIDE
 62
     2
100
AcDbLine
 10
119.590829
 20
182.83459
 11
124.590829
 21
177.83459
  0
LINE
  5
8B5
100
AcDbEntity
  8
M0
  6
DIVIDE
 62
     2
100
AcDbLine
 10
155.090829
 20
177.83459
 11
182.090829
 21
177.83459
  0
LINE
  5
8B6
100
AcDbEntity
  8
M0
  6
DIVIDE
 62
     2
100
AcDbLine
 10
205.090829
 20
177.83459
 11
232.090829
 21
177.83459
  0
LINE
  5
8B7
100
AcDbEntity
  8
M0
  6
DIVIDE
 62
     2
100
AcDbLine
 10
255.090829
 20
177.83459
 11
262.590631
 21
177.83459
  0
LINE
  5
8B8
100
AcDbEntity
  8
M0
  6
DIVIDE
 62
     7
100
AcDbLine
 10
155.090829
 20
162.33459
 11
132.090829
 21
162.33459
  0
LINE
  5
8B9
100
AcDbEntity
  8
M0
  6
DIVIDE
 62
     7
100
AcDbLine
 10
155.090829
 20
177.83459
 11
155.090829
 21
162.33459
  0
LINE
  5
8BA
100
AcDbEntity
  8
M0
  6
DIVIDE
 62
     7
100
AcDbLine
 10
132.090829
 20
162.33459
 11
132.090829
 21
177.83459
  0
LINE
  5
8BB
100
AcDbEntity
  8
M0
  6
DIVIDE
 62
     7
100
AcDbLine
 10
182.090829
 20
162.33459
 11
205.090829
 21
162.33459
  0
LINE
  5
8BC
100
AcDbEntity
  8
M0
  6
DIVIDE
 62
     7
100
AcDbLine
 10
182.090829
 20
177.83459
 11
182.090829
 21
162.33459
  0
LINE
  5
8BD
100
AcDbEntity
  8
M0
  6
DIVIDE
 62
     7
100
AcDbLine
 10
205.090829
 20
162.33459
 11
205.090829
 21
177.83459
  0
LINE
  5
8BE
100
AcDbEntity
  8
M0
  6
DIVIDE
 62
     7
100
AcDbLine
 10
232.090799
 20
162.33459
 11
255.090799
 21
162.33459
  0
LINE
  5
8BF
100
AcDbEntity
  8
M0
  6
DIVIDE
 62
     7
100
AcDbLine
 10
232.090799
 20
177.83459
 11
232.090799
 21
162.33459
  0
LINE
  5
8C0
100
AcDbEntity
  8
M0
  6
DIVIDE
 62
     7
100
AcDbLine
 10
255.090799
 20
162.33459
 11
255.090799
 21
177.83459
  0
LINE
  5
8C1
100
AcDbEntity
  8
M1
 62
     2
100
AcDbLine
 10
40.0
 20
40.0
 11
40.0
 21
1140.0
  0
LINE
  5
8C2
100
AcDbEntity
  8
M1
 62
     2
100
AcDbLine
 10
40.0
 20
1140.0
 11
800.0
 21
1140.0
  0
LINE
  5
8C3
100
AcDbEntity
  8
M1
 62
     2
100
AcDbLine
 10
800.0
 20
1140.0
 11
800.0
 21
40.0
  0
LINE
  5
8C4
100
AcDbEntity
  8
M1
 62
     2
100
AcDbLine
 10
800.0
 20
40.0
 11
40.0
 21
40.0
  0
LINE
  5
8C5
100
AcDbEntity
  8
M1
 62
     2
100
AcDbLine
 10
800.0
 20
80.0
 11
400.0
 21
80.0
  0
LINE
  5
8C6
100
AcDbEntity
  8
M1
 62
     2
100
AcDbLine
 10
800.0
 20
120.0
 11
400.0
 21
120.0
  0
LINE
  5
8C7
100
AcDbEntity
  8
M1
 62
     2
100
AcDbLine
 10
800.0
 20
160.0
 11
400.0
 21
160.0
  0
LINE
  5
8C8
100
AcDbEntity
  8
M1
 62
     2
100
AcDbLine
 10
400.0
 20
40.0
 11
400.0
 21
160.0
  0
TEXT
  5
8C9
100
AcDbEntity
  8
M1
 62
     2
100
AcDbText
 10
410.0
 20
50.0
 40
20.0
  1
適　用；
  7
STANDARD
100
AcDbText
  0
TEXT
  5
8CA
100
AcDbEntity
  8
M1
 62
     2
100
AcDbText
 10
410.0
 20
130.0
 40
20.0
  1
登録名：
  7
STANDARD
100
AcDbText
  0
TEXT
  5
8CB
100
AcDbEntity
  8
M1
 62
     2
100
AcDbText
 10
506.0
 20
130.0
 40
20.0
  1
ＤＭＨ２００ＣＲＴＲ００
 41
0.5
  7
STANDARD
100
AcDbText
  0
TEXT
  5
8CC
100
AcDbEntity
  8
M1
 62
     2
100
AcDbText
 10
410.0
 20
90.0
 40
20.0
  1
形　式；
  7
STANDARD
100
AcDbText
  0
TEXT
  5
8CD
100
AcDbEntity
  8
M1
 62
     2
100
AcDbText
 10
506.0
 20
90.0
 40
20.0
  1
Ｈ２００Ｃ－ＲＴ，Ｈ２００Ｃ－ＲＴＫ，Ｈ２５０Ｃ－ＲＴ，Ｈ２５０Ｃ－ＲＴＫ
 41
0.25
  7
STANDARD
100
AcDbText
  0
LINE
  5
8CE
100
AcDbEntity
  8
DN0
100
AcDbLine
 10
245.998615
 20
115.918468
 11
319.038617
 21
115.918468
  0
TEXT
  5
8CF
100
AcDbEntity
  8
DN0
100
AcDbText
 10
248.018614
 20
117.718468
 40
18.0
  1
せん孔図
 41
0.833333
  7
STANDARD
100
AcDbText
  0
ENDSEC
  0
SECTION
  2
OBJECTS
  0
DICTIONARY
  5
C
100
AcDbDictionary
  3
ACAD_GROUP
350
D
  3
ACAD_MLINESTYLE
350
E
  0
DICTIONARY
  5
D
102
{ACAD_REACTORS
330
C
102
}
100
AcDbDictionary
  0
DICTIONARY
  5
E
102
{ACAD_REACTORS
330
C
102
}
100
AcDbDictionary
  3
STANDARD
350
13
  0
MLINESTYLE
  5
13
102
{ACAD_REACTORS
330
E
102
}
100
AcDbMlineStyle
  2
STANDARD
 70
     0
  3

 62
     0
 51
90.0
 52
90.0
 71
     2
 49
0.5
 62
   256
  6
BYLAYER
 49
-0.5
 62
   256
  6
BYLAYER
  0
ENDSEC
  0
EOF
