  0
SECTION
  2
HEADER
  9
$ACADVER
  1
AC1014
  9
$INSBASE
 10
0.000000
 20
0.000000
 30
0.0
  9
$VIEWCTR
 10
7.531722
 20
4.5
  9
$VIEWSIZE
 40
9.0
  9
$SNAPMODE
 70
     0
  9
$SNAPUNIT
 10
1.0
 20
1.0
  9
$SNAPBASE
 10
0.0
 20
0.0
  9
$SNAPANG
 50
0.0
  9
$SNAPSTYLE
 70
     0
  9
$SNAPISOPAIR
 70
     0
  9
$GRIDMODE
 70
     0
  9
$GRIDUNIT
 10
0.0
 20
0.0
  9
$ORTHOMODE
 70
     0
  9
$REGENMODE
 70
     1
  9
$FILLMODE
 70
     1
  9
$QTEXTMODE
 70
     0
  9
$DRAGMODE
 70
     2
  9
$LTSCALE
  40
     1.000000
  9
$OSMODE
 70
     0
  9
$ATTMODE
 70
     1
  9
$TEXTSIZE
 40
0.2
  9
$TRACEWID
 40
0.05
  9
$TEXTSTYLE
  7
STANDARD
  9
$CELTYPE
  6
BYLAYER
  9
$CECOLOR
 62
   256
  9
$DIMSCALE
 40
1.0
  9
$DIMASZ
 40
0.18
  9
$DIMEXO
 40
0.0625
  9
$DIMDLI
 40
0.38
  9
$DIMRND
 40
0.0
  9
$DIMDLE
 40
0.0
  9
$DIMEXE
 40
0.18
  9
$DIMTP
 40
0.0
  9
$DIMTM
 40
0.0
  9
$DIMTXT
 40
0.18
  9
$DIMCEN
 40
0.09
  9
$DIMTSZ
 40
0.0
  9
$DIMTOL
 70
     0
  9
$DIMLIM
 70
     0
  9
$DIMTIH
 70
     1
  9
$DIMTOH
 70
     1
  9
$DIMSE1
 70
     0
  9
$DIMSE2
 70
     0
  9
$DIMTAD
 70
     0
  9
$DIMZIN
 70
     0
  9
$DIMBLK
  1

  9
$LUNITS
 70
     2
  9
$LUPREC
 70
     4
  9
$AXISMODE
 70
     0
  9
$AXISUNIT
 10
0.0
 20
0.0
  9
$SKETCHINC
 40
0.1
  9
$FILLETRAD
 40
0.0
  9
$AUNITS
 70
     0
  9
$AUPREC
 70
     0
  9
$MENU
  1
ACAD
  9
$ELEVATION
 40
0.0
  9
$THICKNESS
 40
0.0
  9
$VIEWDIR
 10
0.0
 20
0.0
 30
1.0
  9
$LIMCHECK
 70
     0
  9
$BLIPMODE
 70
     1
  9
$CHAMFERA
 40
0.0
  9
$CHAMFERB
 40
0.0
  9
$FASTZOOM
 70
     1
  9
$SKPOLY
 70
     0
  9
$TDCREATE
 40
0000000.0000000000
  9
$TDUPDATE
 40
0000000.0000000000
  9
$TDINDWG
 40
0.0000000000
  9
$TDUSRTIMER
 40
0.0000000000
  9
$USRTIMER
 70
     1
  9
$ANGBASE
 50
0.0
  9
$ANGDIR
 70
     0
  9
$PDMODE
 70
     0
  9
$PDSIZE
 40
0.0
  9
$PLINEWID
 40
0.0
  9
$COORDS
 70
     0
  9
$USERI1
 70
     0
  9
$USERI2
 70
     0
  9
$USERI3
 70
     0
  9
$USERI4
 70
     0
  9
$USERI5
 70
     0
  9
$USERR1
 40
0.0
  9
$USERR2
 40
0.0
  9
$USERR3
 40
0.0
  9
$USERR4
 40
0.0
  9
$USERR5
 40
0.0
  9
$CLAYER
  8
M0
  9
$EXTMIN
 10
33.333332
 20
33.333332
  9
$EXTMAX
 10
666.66664
 20
949.999962
  9
$LIMMIN
 10
0.0
 20
0.0
  9
$LIMMAX
 10
210.0
 20
297.0
  9
$HANDSEED
  5
660
  0
ENDSEC
  0
SECTION
  2
CLASSES
  0
ENDSEC
  0
SECTION
  2
TABLES
  0
TABLE
  2
VPORT
  5
8
100
AcDbSymbolTable
 70
     2
  0
VPORT
  5
14
100
AcDbSymbolTableRecord
100
AcDbViewportTableRecord
  2
*ACTIVE
 70
     0
 10
0.0
 20
0.0
 11
1.0
 21
1.0
 12
484.0
 22
297.0
 13
0.0
 23
0.0
 14
1.0
 24
1.0
 15
0.0
 25
0.0
 16
0.0
 26
0.0
 36
1.0
 17
0.0
 27
0.0
 37
0.0
 40
594.0
 41
2.0
 42
50.0
 43
0.0
 44
0.0
 50
0.0
 51
0.0
 71
     0
 72
   100
 73
     1
 74
     1
 75
     0
 76
     0
 77
     0
 78
     0
  0
ENDTAB
  0
TABLE
  2
LTYPE
  5
5
100
AcDbSymbolTable
 70
     5
  0
LTYPE
  5
15
100
AcDbSymbolTableRecord
100
AcDbLinetypeTableRecord
  2
BYBLOCK
 70
     0
  3

 72
    65
 73
     0
 40
0.0
  0
LTYPE
  5
16
100
AcDbSymbolTableRecord
100
AcDbLinetypeTableRecord
  2
BYLAYER
 70
     0
  3

 72
    65
 73
     0
 40
0.0
  0
LTYPE
  5
17
100
AcDbSymbolTableRecord
100
AcDbLinetypeTableRecord
  2
CONTINUOUS
 70
    64
  3
Solid line
 72
    65
 73
     0
 40
0.0
  0
LTYPE
  5
18
100
AcDbSymbolTableRecord
100
AcDbLinetypeTableRecord
  2
DASHED
 70
    64
  3
__ __ __ __ __ __ __ __ __ __ __ __ __ __ __ __
 72
    65
 73
     2
 40
0.75
 49
0.5
 74
     0
 49
-0.25
 74
     0
  0
LTYPE
  5
19
100
AcDbSymbolTableRecord
100
AcDbLinetypeTableRecord
  2
DASHDOT
 70
    64
  3
__ . __ . __ . __ . __ . __ . __ . __ . __ . __
 72
    65
 73
     4
 40
1.0
 49
0.5
 74
     0
 49
-0.25
 74
     0
 49
0.0
 74
     0
 49
-0.25
 74
     0
  0
LTYPE
  5
1A
100
AcDbSymbolTableRecord
100
AcDbLinetypeTableRecord
  2
DIVIDE
 70
    64
  3
____ . . ____ . . ____ . . ____ . . ____ . . __
 72
    65
 73
     6
 40
1.25
 49
0.5
 74
     0
 49
-0.25
 74
     0
 49
0.0
 74
     0
 49
-0.25
 74
     0
 49
0.0
 74
     0
 49
-0.25
 74
     0
  0
LTYPE
  5
1B
100
AcDbSymbolTableRecord
100
AcDbLinetypeTableRecord
  2
DOT
 70
    64
  3
. . . . . . . . . . . . . . . . . . . . . . . .
 72
    65
 73
     2
 40
0.25
 49
0.0
 74
     0
 49
-0.25
 74
     0
  0
ENDTAB
  0
TABLE
  2
LAYER
  5
2
100
AcDbSymbolTable
 70
   102
  0
LAYER
  5
F
100
AcDbSymbolTableRecord
100
AcDbLayerTableRecord
  2
0
 70
     0
 62
     7
  6
CONTINUOUS
  0
LAYER
  5
1C
100
AcDbSymbolTableRecord
100
AcDbLayerTableRecord
  2
DEFPOINTS
 70
     0
 62
     7
  6
CONTINUOUS
  0
LAYER
  5
1D
100
AcDbSymbolTableRecord
100
AcDbLayerTableRecord
  2
M0
 70
     0
 62
     3
  6
CONTINUOUS
  0
LAYER
  5
1E
100
AcDbSymbolTableRecord
100
AcDbLayerTableRecord
  2
M1
 70
     0
 62
     3
  6
CONTINUOUS
  0
LAYER
  5
1F
100
AcDbSymbolTableRecord
100
AcDbLayerTableRecord
  2
DD0
 70
     0
 62
     4
  6
CONTINUOUS
  0
LAYER
  5
20
100
AcDbSymbolTableRecord
100
AcDbLayerTableRecord
  2
DN0
 70
     0
 62
     2
  6
CONTINUOUS
  0
ENDTAB
  0
TABLE
  2
STYLE
  5
3
100
AcDbSymbolTable
 70
     2
  0
STYLE
  5
10
100
AcDbSymbolTableRecord
100
AcDbTextStyleTableRecord
  2
STANDARD
 70
     0
 40
0.0
 41
1.0
 50
0.0
 71
     0
 42
0.2
  3
txt
  4
BIGFONT
  0
ENDTAB
  0
TABLE
  2
VIEW
  5
6
100
AcDbSymbolTable
 70
     0
  0
ENDTAB
  0
TABLE
  2
UCS
  5
7
100
AcDbSymbolTable
 70
     0
  0
ENDTAB
  0
TABLE
  2
APPID
  5
9
100
AcDbSymbolTable
 70
     1
  0
APPID
  5
11
100
AcDbSymbolTableRecord
100
AcDbRegAppTableRecord
  2
ACAD
 70
     0
  0
ENDTAB
  0
TABLE
  2
DIMSTYLE
  5
A
100
AcDbSymbolTable
 70
     2
  0
DIMSTYLE
105
27
100
AcDbSymbolTableRecord
100
AcDbDimStyleTableRecord
  2
STANDARD
 70
     0
  3

  4

  5

  6
_OPEN
  7
_OPEN
 40
1.0
 41
10.0
 42
1.0
 43
8.0
 44
1.0
 45
0.0
 46
0.0
 47
0.0
 48
0.0
140
10.5
141
0.09
142
0.0
143
0.03937
144
1.0
145
0.0
146
1.0
147
0.6
 71
     0
 72
     0
 73
     1
 74
     1
 75
     0
 76
     0
 77
     3
 78
     8
170
     0
171
     2
172
     0
173
     1
174
     0
175
     0
176
     0
177
     0
178
     0
270
     2
271
     2
272
     4
273
     2
274
     2
340
10
275
     0
280
     0
281
     0
282
     0
283
     1
284
     0
285
     0
286
     0
287
     3
288
     0
  0
DIMSTYLE
105
28
100
AcDbSymbolTableRecord
100
AcDbDimStyleTableRecord
  2
LEADSTYL
 70
     0
  3

  4

  5

  6
_OPEN
  7
_OPEN
 40
1.0
 41
10.0
 42
0.0625
 43
0.38
 44
0.18
 45
0.0
 46
0.0
 47
0.0
 48
0.0
140
10.5
141
0.09
142
0.0
143
25.4
144
1.0
145
0.0
146
1.0
147
0.6
 71
     0
 72
     0
 73
     1
 74
     1
 75
     0
 76
     0
 77
     0
 78
     0
170
     0
171
     2
172
     0
173
     1
174
     0
175
     0
176
     0
177
     0
178
     0
270
     2
271
     4
272
     4
273
     2
274
     2
340
10
275
     0
280
     0
281
     0
282
     0
283
     1
284
     0
285
     0
286
     0
287
     3
288
     0
  0
ENDTAB
  0
TABLE
  2
BLOCK_RECORD
  5
1
100
AcDbSymbolTable
 70
    15
  0
BLOCK_RECORD
  5
21
100
AcDbSymbolTableRecord
100
AcDbBlockTableRecord
  2
*MODEL_SPACE
  0
BLOCK_RECORD
  5
24
100
AcDbSymbolTableRecord
100
AcDbBlockTableRecord
  2
*PAPER_SPACE
  0
BLOCK_RECORD
  5
29
100
AcDbSymbolTableRecord
100
AcDbBlockTableRecord
  2
_NONE
  0
BLOCK_RECORD
  5
2D
100
AcDbSymbolTableRecord
100
AcDbBlockTableRecord
  2
_OPEN
  0
BLOCK_RECORD
  5
33
100
AcDbSymbolTableRecord
100
AcDbBlockTableRecord
  2
_CLOSED
  0
BLOCK_RECORD
  5
3A
100
AcDbSymbolTableRecord
100
AcDbBlockTableRecord
  2
_ORIGIN
  0
BLOCK_RECORD
  5
3F
100
AcDbSymbolTableRecord
100
AcDbBlockTableRecord
  2
_DOT
  0
BLOCK_RECORD
  5
47
100
AcDbSymbolTableRecord
100
AcDbBlockTableRecord
  2
_OBLIQUE
  0
BLOCK_RECORD
  5
4B
100
AcDbSymbolTableRecord
100
AcDbBlockTableRecord
  2
DIMS0
  0
BLOCK_RECORD
  5
57
100
AcDbSymbolTableRecord
100
AcDbBlockTableRecord
  2
DIMS1
  0
BLOCK_RECORD
  5
63
100
AcDbSymbolTableRecord
100
AcDbBlockTableRecord
  2
DIMS2
  0
BLOCK_RECORD
  5
6F
100
AcDbSymbolTableRecord
100
AcDbBlockTableRecord
  2
DIMS3
  0
BLOCK_RECORD
  5
7B
100
AcDbSymbolTableRecord
100
AcDbBlockTableRecord
  2
DIMS4
  0
BLOCK_RECORD
  5
87
100
AcDbSymbolTableRecord
100
AcDbBlockTableRecord
  2
DIMS5
  0
BLOCK_RECORD
  5
93
100
AcDbSymbolTableRecord
100
AcDbBlockTableRecord
  2
DIMS6
  0
BLOCK_RECORD
  5
9F
100
AcDbSymbolTableRecord
100
AcDbBlockTableRecord
  2
DIMS7
  0
BLOCK_RECORD
  5
A8
100
AcDbSymbolTableRecord
100
AcDbBlockTableRecord
  2
DIMS8
  0
ENDTAB
  0
ENDSEC
  0
SECTION
  2
BLOCKS
  0
BLOCK
  5
22
100
AcDbEntity
  8
0
100
AcDbBlockBegin
  2
*MODEL_SPACE
 70
     0
 10
0.0
 20
0.0
 30
0.0
  3
*MODEL_SPACE
  1

  0
ENDBLK
  5
23
100
AcDbEntity
  8
0
100
AcDbBlockEnd
  0
BLOCK
  5
25
100
AcDbEntity
 67
     1
  8
0
100
AcDbBlockBegin
  2
*PAPER_SPACE
 70
     0
 10
0.0
 20
0.0
 30
0.0
  3
*PAPER_SPACE
  1

  0
ENDBLK
  5
26
100
AcDbEntity
 67
     1
  8
0
100
AcDbBlockEnd
  0
BLOCK
  5
2A
100
AcDbEntity
  8
0
100
AcDbBlockBegin
  2
_NONE
 70
     0
 10
0.0
 20
0.0
  0
CIRCLE
  5
2B
100
AcDbEntity
  8
0
 62
     0
100
AcDbCircle
 10
0.0
 20
0.0
 40
0.25
  0
ENDBLK
  5
2C
100
AcDbEntity
  8
0
100
AcDbBlockEnd
  0
BLOCK
  5
2E
100
AcDbEntity
  8
0
100
AcDbBlockBegin
  2
_OPEN
 70
     0
 10
0.0
 20
0.0
  0
LINE
  5
2F
100
AcDbEntity
  8
0
 62
     0
100
AcDbLine
 10
-0.965926
 20
0.258819
 11
0.0
 21
0.0
  0
LINE
  5
30
100
AcDbEntity
  8
0
 62
     0
100
AcDbLine
 10
0.0
 20
0.0
 11
-0.965926
 21
-0.258819
  0
LINE
  5
31
100
AcDbEntity
  8
0
 62
     0
100
AcDbLine
 10
0.0
 20
0.0
 11
-1.0
 21
0.0
  0
ENDBLK
  5
32
100
AcDbEntity
  8
0
100
AcDbBlockEnd
  0
BLOCK
  5
34
100
AcDbEntity
  8
0
100
AcDbBlockBegin
  2
_CLOSED
 70
     0
 10
0.0
 20
0.0
  0
LINE
  5
35
100
AcDbEntity
  8
0
 62
     0
100
AcDbLine
 10
-0.965926
 20
0.258819
 11
0.0
 21
0.0
  0
LINE
  5
36
100
AcDbEntity
  8
0
 62
     0
100
AcDbLine
 10
0.0
 20
0.0
 11
-0.965926
 21
-0.258819
  0
LINE
  5
37
100
AcDbEntity
  8
0
 62
     0
100
AcDbLine
 10
-0.965926
 20
0.258819
 11
-0.965926
 21
-0.258819
  0
LINE
  5
38
100
AcDbEntity
  8
0
 62
     0
100
AcDbLine
 10
0.0
 20
0.0
 11
-1.0
 21
0.0
  0
ENDBLK
  5
39
100
AcDbEntity
  8
0
100
AcDbBlockEnd
  0
BLOCK
  5
3B
100
AcDbEntity
  8
0
100
AcDbBlockBegin
  2
_ORIGIN
 70
     0
 10
0.0
 20
0.0
  0
CIRCLE
  5
3C
100
AcDbEntity
  8
0
 62
     0
100
AcDbCircle
 10
0.0
 20
0.0
 40
0.5
  0
LINE
  5
3D
100
AcDbEntity
  8
0
 62
     0
100
AcDbLine
 10
0.0
 20
0.0
 11
-1.0
 21
0.0
  0
ENDBLK
  5
3E
100
AcDbEntity
  8
0
100
AcDbBlockEnd
  0
BLOCK
  5
40
100
AcDbEntity
  8
0
100
AcDbBlockBegin
  2
_DOT
 70
     0
 10
0.0
 20
0.0
  0
POLYLINE
  5
41
100
AcDbEntity
  8
0
 62
     0
100
AcDb2dPolyline
 66
     1
 70
     1
 40
0.5
 41
0.5
  0
VERTEX
  5
42
100
AcDbEntity
  8
0
 62
     0
100
AcDbVertex
100
AcDb2dVertex
 10
-0.25
 20
0.0
 42
1.0
  0
VERTEX
  5
43
100
AcDbEntity
  8
0
 62
     0
100
AcDbVertex
100
AcDb2dVertex
 10
0.25
 20
0.0
 42
1.0
  0
SEQEND
  5
44
100
AcDbEntity
  8
0
 62
     0
  0
LINE
  5
45
100
AcDbEntity
  8
0
 62
     0
100
AcDbLine
 10
-0.5
 20
0.0
 11
-1.0
 21
0.0
  0
ENDBLK
  5
46
100
AcDbEntity
  8
0
100
AcDbBlockEnd
  0
BLOCK
  5
48
100
AcDbEntity
  8
0
100
AcDbBlockBegin
  2
_OBLIQUE
 70
     0
 10
0.0
 20
0.0
  0
LINE
  5
49
100
AcDbEntity
  8
0
 62
     0
100
AcDbLine
 10
-0.353553
 20
-0.353553
 11
0.353553
 21
0.353553
  0
ENDBLK
  5
4A
100
AcDbEntity
  8
0
100
AcDbBlockEnd
  0
BLOCK
  5
4C
100
AcDbEntity
  8
DD0
100
AcDbBlockBegin
  2
DIMS0
 70
     0
 10
0.0
 20
0.0
  0
LINE
  5
4D
100
AcDbEntity
  8
DD0
100
AcDbLine
 10
300.957274
 20
838.577288
 11
300.957274
 21
867.569444
  0
LINE
  5
4E
100
AcDbEntity
  8
DD0
100
AcDbLine
 10
162.957261
 20
838.577288
 11
162.957261
 21
867.569444
  0
LINE
  5
4F
100
AcDbEntity
  8
DD0
100
AcDbLine
 10
291.298016
 20
861.64792
 11
300.957274
 21
864.236111
  0
LINE
  5
50
100
AcDbEntity
  8
DD0
100
AcDbLine
 10
300.957274
 20
864.236111
 11
291.298016
 21
866.824301
  0
LINE
  5
51
100
AcDbEntity
  8
DD0
100
AcDbLine
 10
172.616519
 20
866.824301
 11
162.957261
 21
864.236111
  0
LINE
  5
52
100
AcDbEntity
  8
DD0
100
AcDbLine
 10
162.957261
 20
864.236111
 11
172.616519
 21
861.64792
  0
LINE
  5
53
100
AcDbEntity
  8
DD0
100
AcDbLine
 10
300.957274
 20
864.236111
 11
162.957261
 21
864.236111
  0
TEXT
  5
54
100
AcDbEntity
  8
DD0
100
AcDbText
 10
217.065604
 20
866.236131
 40
10.5
  1
１３８
 41
0.833333
  7
STANDARD
100
AcDbText
  0
ENDBLK
  5
55
100
AcDbEntity
  8
DD0
100
AcDbBlockEnd
  0
BLOCK
  5
58
100
AcDbEntity
  8
DD0
100
AcDbBlockBegin
  2
DIMS1
 70
     0
 10
0.0
 20
0.0
  0
LINE
  5
59
100
AcDbEntity
  8
DD0
100
AcDbLine
 10
164.623928
 20
840.243955
 11
123.46917
 21
840.243955
  0
LINE
  5
5A
100
AcDbEntity
  8
DD0
100
AcDbLine
 10
167.123928
 20
528.743977
 11
123.46917
 21
528.743977
  0
LINE
  5
5B
100
AcDbEntity
  8
DD0
100
AcDbLine
 10
129.390693
 20
830.584697
 11
126.802503
 21
840.243955
  0
LINE
  5
5C
100
AcDbEntity
  8
DD0
100
AcDbLine
 10
126.802503
 20
840.243955
 11
124.214313
 21
830.584697
  0
LINE
  5
5D
100
AcDbEntity
  8
DD0
100
AcDbLine
 10
124.214313
 20
538.403235
 11
126.802503
 21
528.743977
  0
LINE
  5
5E
100
AcDbEntity
  8
DD0
100
AcDbLine
 10
126.802503
 20
528.743977
 11
129.390693
 21
538.403235
  0
LINE
  5
5F
100
AcDbEntity
  8
DD0
100
AcDbLine
 10
126.802503
 20
840.243955
 11
126.802503
 21
528.743977
  0
TEXT
  5
60
100
AcDbEntity
  8
DD0
100
AcDbText
 10
124.802508
 20
669.602309
 40
10.5
  1
３１１
 50
90.000003
 41
0.833333
  7
STANDARD
100
AcDbText
  0
ENDBLK
  5
61
100
AcDbEntity
  8
DD0
100
AcDbBlockEnd
  0
BLOCK
  5
64
100
AcDbEntity
  8
DD0
100
AcDbBlockBegin
  2
DIMS2
 70
     0
 10
0.0
 20
0.0
  0
LINE
  5
65
100
AcDbEntity
  8
DD0
100
AcDbLine
 10
150.957267
 20
756.077291
 11
150.957267
 21
890.745916
  0
LINE
  5
66
100
AcDbEntity
  8
DD0
100
AcDbLine
 10
312.957268
 20
756.077291
 11
312.957268
 21
890.745916
  0
LINE
  5
67
100
AcDbEntity
  8
DD0
100
AcDbLine
 10
160.616525
 20
890.000773
 11
150.957267
 21
887.412583
  0
LINE
  5
68
100
AcDbEntity
  8
DD0
100
AcDbLine
 10
150.957267
 20
887.412583
 11
160.616525
 21
884.824392
  0
LINE
  5
69
100
AcDbEntity
  8
DD0
100
AcDbLine
 10
303.29801
 20
884.824392
 11
312.957268
 21
887.412583
  0
LINE
  5
6A
100
AcDbEntity
  8
DD0
100
AcDbLine
 10
312.957268
 20
887.412583
 11
303.29801
 21
890.000773
  0
LINE
  5
6B
100
AcDbEntity
  8
DD0
100
AcDbLine
 10
150.957267
 20
887.412583
 11
312.957268
 21
887.412583
  0
TEXT
  5
6C
100
AcDbEntity
  8
DD0
100
AcDbText
 10
154.065602
 20
889.412603
 40
10.5
  1
補助接点４ａ４ｂ付の場合１６２
 41
0.833333
  7
STANDARD
100
AcDbText
  0
ENDBLK
  5
6D
100
AcDbEntity
  8
DD0
100
AcDbBlockEnd
  0
BLOCK
  5
70
100
AcDbEntity
  8
DD0
100
AcDbBlockBegin
  2
DIMS3
 70
     0
 10
0.0
 20
0.0
  0
LINE
  5
71
100
AcDbEntity
  8
DD0
100
AcDbLine
 10
577.260414
 20
843.577288
 11
577.260414
 21
867.569444
  0
LINE
  5
72
100
AcDbEntity
  8
DD0
100
AcDbLine
 10
579.560422
 20
843.577288
 11
579.560422
 21
867.569444
  0
LINE
  5
73
100
AcDbEntity
  8
DD0
100
AcDbLine
 10
567.601156
 20
861.64792
 11
577.260414
 21
864.236111
  0
LINE
  5
74
100
AcDbEntity
  8
DD0
100
AcDbLine
 10
577.260414
 20
864.236111
 11
567.601156
 21
866.824301
  0
LINE
  5
75
100
AcDbEntity
  8
DD0
100
AcDbLine
 10
589.21968
 20
866.824301
 11
579.560422
 21
864.236111
  0
LINE
  5
76
100
AcDbEntity
  8
DD0
100
AcDbLine
 10
579.560422
 20
864.236111
 11
589.21968
 21
861.64792
  0
LINE
  5
77
100
AcDbEntity
  8
DD0
100
AcDbLine
 10
566.260415
 20
864.236111
 11
625.393757
 21
864.236111
  0
TEXT
  5
78
100
AcDbEntity
  8
DD0
100
AcDbText
 10
591.418769
 20
866.236131
 40
10.5
  1
２．３
 41
0.833333
  7
STANDARD
100
AcDbText
  0
ENDBLK
  5
79
100
AcDbEntity
  8
DD0
100
AcDbBlockEnd
  0
BLOCK
  5
7C
100
AcDbEntity
  8
DD0
100
AcDbBlockBegin
  2
DIMS4
 70
     0
 10
0.0
 20
0.0
  0
LINE
  5
7D
100
AcDbEntity
  8
DD0
100
AcDbLine
 10
580.060402
 20
843.577288
 11
580.060402
 21
890.745916
  0
LINE
  5
7E
100
AcDbEntity
  8
DD0
100
AcDbLine
 10
389.660426
 20
801.57732
 11
389.660426
 21
890.745916
  0
LINE
  5
7F
100
AcDbEntity
  8
DD0
100
AcDbLine
 10
570.401144
 20
884.824392
 11
580.060402
 21
887.412583
  0
LINE
  5
80
100
AcDbEntity
  8
DD0
100
AcDbLine
 10
580.060402
 20
887.412583
 11
570.401144
 21
890.000773
  0
LINE
  5
81
100
AcDbEntity
  8
DD0
100
AcDbLine
 10
399.319683
 20
890.000773
 11
389.660426
 21
887.412583
  0
LINE
  5
82
100
AcDbEntity
  8
DD0
100
AcDbLine
 10
389.660426
 20
887.412583
 11
399.319683
 21
884.824392
  0
LINE
  5
83
100
AcDbEntity
  8
DD0
100
AcDbLine
 10
580.060402
 20
887.412583
 11
389.660426
 21
887.412583
  0
TEXT
  5
84
100
AcDbEntity
  8
DD0
100
AcDbText
 10
469.968731
 20
889.412603
 40
10.5
  1
１９１
 41
0.833333
  7
STANDARD
100
AcDbText
  0
ENDBLK
  5
85
100
AcDbEntity
  8
DD0
100
AcDbBlockEnd
  0
BLOCK
  5
88
100
AcDbEntity
  8
DD0
100
AcDbBlockBegin
  2
DIMS5
 70
     0
 10
0.0
 20
0.0
  0
LINE
  5
89
100
AcDbEntity
  8
DD0
100
AcDbLine
 10
304.290607
 20
455.775078
 11
345.918311
 21
455.775078
  0
LINE
  5
8A
100
AcDbEntity
  8
DD0
100
AcDbLine
 10
304.290607
 20
445.775129
 11
345.918311
 21
445.775129
  0
LINE
  5
8B
100
AcDbEntity
  8
DD0
100
AcDbLine
 10
339.996787
 20
465.434335
 11
342.584978
 21
455.775078
  0
LINE
  5
8C
100
AcDbEntity
  8
DD0
100
AcDbLine
 10
342.584978
 20
455.775078
 11
345.173168
 21
465.434335
  0
LINE
  5
8D
100
AcDbEntity
  8
DD0
100
AcDbLine
 10
345.173168
 20
436.115871
 11
342.584978
 21
445.775129
  0
LINE
  5
8E
100
AcDbEntity
  8
DD0
100
AcDbLine
 10
342.584978
 20
445.775129
 11
339.996787
 21
436.115871
  0
LINE
  5
8F
100
AcDbEntity
  8
DD0
100
AcDbLine
 10
342.584978
 20
491.108411
 11
342.584978
 21
434.775129
  0
TEXT
  5
90
100
AcDbEntity
  8
DD0
100
AcDbText
 10
340.584983
 20
467.633425
 40
10.5
  1
１０
 50
90.000003
 41
0.833333
  7
STANDARD
100
AcDbText
  0
ENDBLK
  5
91
100
AcDbEntity
  8
DD0
100
AcDbBlockEnd
  0
BLOCK
  5
94
100
AcDbEntity
  8
DD0
100
AcDbBlockBegin
  2
DIMS6
 70
     0
 10
0.0
 20
0.0
  0
LINE
  5
95
100
AcDbEntity
  8
DD0
 60
     1
100
AcDbLine
 10
304.290607
 20
445.775129
 11
345.918311
 21
445.775129
  0
LINE
  5
96
100
AcDbEntity
  8
DD0
100
AcDbLine
 10
304.290607
 20
235.775112
 11
345.918311
 21
235.775112
  0
LINE
  5
97
100
AcDbEntity
  8
DD0
100
AcDbLine
 10
345.173168
 20
436.115871
 11
342.584978
 21
445.775129
  0
LINE
  5
98
100
AcDbEntity
  8
DD0
100
AcDbLine
 10
342.584978
 20
445.775129
 11
339.996787
 21
436.115871
  0
LINE
  5
99
100
AcDbEntity
  8
DD0
100
AcDbLine
 10
339.996787
 20
245.43437
 11
342.584978
 21
235.775112
  0
LINE
  5
9A
100
AcDbEntity
  8
DD0
100
AcDbLine
 10
342.584978
 20
235.775112
 11
345.173168
 21
245.43437
  0
LINE
  5
9B
100
AcDbEntity
  8
DD0
100
AcDbLine
 10
342.584978
 20
445.775129
 11
342.584978
 21
235.775112
  0
TEXT
  5
9C
100
AcDbEntity
  8
DD0
100
AcDbText
 10
340.584983
 20
325.883476
 40
10.5
  1
２１０
 50
90.000003
 41
0.833333
  7
STANDARD
100
AcDbText
  0
ENDBLK
  5
9D
100
AcDbEntity
  8
DD0
100
AcDbBlockEnd
  0
BLOCK
  5
A0
100
AcDbEntity
  8
DD0
100
AcDbBlockBegin
  2
DIMS7
 70
     0
 10
0.0
 20
0.0
  0
TEXT
  5
A1
100
AcDbEntity
  8
DD0
100
AcDbText
 10
91.118839
 20
488.013337
 40
10.5
  1
４－Ｍ８ねじ穴
 41
0.833333
  7
STANDARD
100
AcDbText
  0
LINE
  5
A2
100
AcDbEntity
  8
DD0
100
AcDbLine
 10
195.246574
 20
453.39565
 11
203.839904
 21
448.281487
  0
LINE
  5
A3
100
AcDbEntity
  8
DD0
100
AcDbLine
 10
203.839904
 20
448.281487
 11
198.954944
 21
457.007147
  0
LINE
  5
A4
100
AcDbEntity
  8
DD0
100
AcDbLine
 10
203.839904
 20
448.281487
 11
167.09383
 21
486.013215
  0
LINE
  5
A5
100
AcDbEntity
  8
DD0
100
AcDbLine
 10
167.093855
 20
486.013317
 11
86.927175
 21
486.013164
  0
ENDBLK
  5
A6
100
AcDbEntity
  8
DD0
100
AcDbBlockEnd
  0
BLOCK
  5
A9
100
AcDbEntity
  8
DD0
100
AcDbBlockBegin
  2
DIMS8
 70
     0
 10
0.0
 20
0.0
  0
LINE
  5
AA
100
AcDbEntity
  8
DD0
 60
     1
100
AcDbLine
 10
206.957262
 20
486.441784
 11
206.957262
 21
482.679882
  0
LINE
  5
AB
100
AcDbEntity
  8
DD0
 60
     1
100
AcDbLine
 10
256.95726
 20
486.441784
 11
256.95726
 21
482.679882
  0
LINE
  5
AC
100
AcDbEntity
  8
DD0
100
AcDbLine
 10
216.61652
 20
488.601406
 11
206.957262
 21
486.013215
  0
LINE
  5
AD
100
AcDbEntity
  8
DD0
100
AcDbLine
 10
206.957262
 20
486.013215
 11
216.61652
 21
483.425025
  0
LINE
  5
AE
100
AcDbEntity
  8
DD0
100
AcDbLine
 10
247.298002
 20
483.425025
 11
256.95726
 21
486.013215
  0
LINE
  5
AF
100
AcDbEntity
  8
DD0
100
AcDbLine
 10
256.95726
 20
486.013215
 11
247.298002
 21
488.601406
  0
LINE
  5
B0
100
AcDbEntity
  8
DD0
100
AcDbLine
 10
206.957262
 20
486.013215
 11
256.95726
 21
486.013215
  0
TEXT
  5
B1
100
AcDbEntity
  8
DD0
100
AcDbText
 10
222.315594
 20
488.013235
 40
10.5
  1
５０
 41
0.833333
  7
STANDARD
100
AcDbText
  0
ENDBLK
  5
B2
100
AcDbEntity
  8
DD0
100
AcDbBlockEnd
  0
ENDSEC
  0
SECTION
  2
ENTITIES
  0
INSERT
  5
56
100
AcDbEntity
  8
DD0
100
AcDbBlockReference
  2
DIMS0
 10
0.0
 20
0.0
  0
INSERT
  5
62
100
AcDbEntity
  8
DD0
100
AcDbBlockReference
  2
DIMS1
 10
0.0
 20
0.0
  0
INSERT
  5
6E
100
AcDbEntity
  8
DD0
100
AcDbBlockReference
  2
DIMS2
 10
0.0
 20
0.0
  0
INSERT
  5
7A
100
AcDbEntity
  8
DD0
100
AcDbBlockReference
  2
DIMS3
 10
0.0
 20
0.0
  0
INSERT
  5
86
100
AcDbEntity
  8
DD0
100
AcDbBlockReference
  2
DIMS4
 10
0.0
 20
0.0
  0
INSERT
  5
92
100
AcDbEntity
  8
DD0
100
AcDbBlockReference
  2
DIMS5
 10
0.0
 20
0.0
  0
INSERT
  5
9E
100
AcDbEntity
  8
DD0
100
AcDbBlockReference
  2
DIMS6
 10
0.0
 20
0.0
  0
INSERT
  5
A7
100
AcDbEntity
  8
DD0
100
AcDbBlockReference
  2
DIMS7
 10
0.0
 20
0.0
  0
INSERT
  5
B3
100
AcDbEntity
  8
DD0
100
AcDbBlockReference
  2
DIMS8
 10
0.0
 20
0.0
  0
LINE
  5
B4
100
AcDbEntity
  8
M0
100
AcDbLine
 10
300.957266
 20
615.243992
 11
300.957266
 21
835.243976
  0
LINE
  5
B5
100
AcDbEntity
  8
M0
100
AcDbLine
 10
295.957266
 20
840.243976
 11
167.957267
 21
840.243976
  0
LINE
  5
B6
100
AcDbEntity
  8
M0
100
AcDbLine
 10
162.957267
 20
835.243976
 11
162.957267
 21
615.243992
  0
LINE
  5
B7
100
AcDbEntity
  8
M0
100
AcDbLine
 10
167.957267
 20
610.243992
 11
169.357261
 21
610.243992
  0
ARC
  5
B8
100
AcDbEntity
  8
M0
100
AcDbCircle
 10
295.957266
 20
835.243976
 40
5.0
100
AcDbArc
 50
0.0
 51
90.0
  0
ARC
  5
B9
100
AcDbEntity
  8
M0
100
AcDbCircle
 10
167.957267
 20
835.243976
 40
5.0
100
AcDbArc
 50
90.0
 51
180.0
  0
ARC
  5
BA
100
AcDbEntity
  8
M0
100
AcDbCircle
 10
167.957267
 20
615.243992
 40
5.0
100
AcDbArc
 50
179.999825
 51
270.0
  0
ARC
  5
BB
100
AcDbEntity
  8
M0
100
AcDbCircle
 10
295.957266
 20
615.243992
 40
5.0
100
AcDbArc
 50
269.999825
 51
360.0
  0
LINE
  5
BC
100
AcDbEntity
  8
M0
100
AcDbLine
 10
246.957266
 20
840.243976
 11
246.957266
 21
830.243976
  0
LINE
  5
BD
100
AcDbEntity
  8
M0
100
AcDbLine
 10
266.957266
 20
840.243976
 11
266.957266
 21
830.243976
  0
ARC
  5
BE
100
AcDbEntity
  8
M0
100
AcDbCircle
 10
256.957266
 20
830.243976
 40
10.0
100
AcDbArc
 50
180.0
 51
269.999913
  0
ARC
  5
BF
100
AcDbEntity
  8
M0
100
AcDbCircle
 10
256.957266
 20
830.243976
 40
10.0
100
AcDbArc
 50
269.999913
 51
360.0
  0
CIRCLE
  5
C0
100
AcDbEntity
  8
M0
100
AcDbCircle
 10
256.957266
 20
830.243976
 40
4.5
  0
ARC
  5
C1
100
AcDbEntity
  8
M0
100
AcDbCircle
 10
206.957266
 20
830.243976
 40
10.0
100
AcDbArc
 50
-90.000087
 51
0.0
  0
ARC
  5
C2
100
AcDbEntity
  8
M0
100
AcDbCircle
 10
206.957266
 20
830.243976
 40
10.0
100
AcDbArc
 50
180.0
 51
269.999913
  0
LINE
  5
C3
100
AcDbEntity
  8
M0
100
AcDbLine
 10
216.957266
 20
840.243976
 11
216.957266
 21
830.243976
  0
LINE
  5
C4
100
AcDbEntity
  8
M0
100
AcDbLine
 10
196.957266
 20
840.243976
 11
196.957266
 21
830.243976
  0
CIRCLE
  5
C5
100
AcDbEntity
  8
M0
100
AcDbCircle
 10
206.957266
 20
830.243976
 40
4.5
  0
ARC
  5
C6
100
AcDbEntity
  8
M0
100
AcDbCircle
 10
206.957266
 20
620.243992
 40
10.0
100
AcDbArc
 50
0.0
 51
90.0
  0
ARC
  5
C7
100
AcDbEntity
  8
M0
100
AcDbCircle
 10
206.957266
 20
620.243992
 40
10.0
100
AcDbArc
 50
90.0
 51
179.999913
  0
LINE
  5
C8
100
AcDbEntity
  8
M0
100
AcDbLine
 10
216.957266
 20
610.243992
 11
216.957266
 21
620.243992
  0
LINE
  5
C9
100
AcDbEntity
  8
M0
100
AcDbLine
 10
196.957266
 20
610.243992
 11
196.957266
 21
620.243992
  0
CIRCLE
  5
CA
100
AcDbEntity
  8
M0
100
AcDbCircle
 10
206.957266
 20
620.243992
 40
4.5
  0
ARC
  5
CB
100
AcDbEntity
  8
M0
100
AcDbCircle
 10
256.957266
 20
620.243992
 40
10.0
100
AcDbArc
 50
90.0
 51
179.999913
  0
ARC
  5
CC
100
AcDbEntity
  8
M0
100
AcDbCircle
 10
256.957266
 20
620.243992
 40
10.0
100
AcDbArc
 50
0.0
 51
90.0
  0
LINE
  5
CD
100
AcDbEntity
  8
M0
100
AcDbLine
 10
246.957266
 20
610.243992
 11
246.957266
 21
620.243992
  0
LINE
  5
CE
100
AcDbEntity
  8
M0
100
AcDbLine
 10
266.957266
 20
610.243992
 11
266.957266
 21
620.243992
  0
CIRCLE
  5
CF
100
AcDbEntity
  8
M0
100
AcDbCircle
 10
256.957266
 20
620.243992
 40
4.5
  0
CIRCLE
  5
D0
100
AcDbEntity
  8
M0
100
AcDbCircle
 10
256.957266
 20
640.243992
 40
3.0
  0
LINE
  5
D1
100
AcDbEntity
  8
M0
  6
DASHDOT
100
AcDbLine
 10
248.957266
 20
640.243992
 11
264.957266
 21
640.243992
  0
LINE
  5
D2
100
AcDbEntity
  8
M0
  6
DASHDOT
100
AcDbLine
 10
256.957266
 20
632.243992
 11
256.957266
 21
648.243992
  0
CIRCLE
  5
D3
100
AcDbEntity
  8
M0
100
AcDbCircle
 10
206.957266
 20
640.243992
 40
3.0
  0
LINE
  5
D4
100
AcDbEntity
  8
M0
  6
DASHDOT
100
AcDbLine
 10
214.957266
 20
640.243992
 11
198.957266
 21
640.243992
  0
LINE
  5
D5
100
AcDbEntity
  8
M0
  6
DASHDOT
100
AcDbLine
 10
206.957266
 20
632.243992
 11
206.957266
 21
648.243992
  0
ARC
  5
D6
100
AcDbEntity
  8
M0
100
AcDbCircle
 10
284.957266
 20
788.243976
 40
2.0
100
AcDbArc
 50
0.0
 51
90.0
  0
ARC
  5
D7
100
AcDbEntity
  8
M0
100
AcDbCircle
 10
276.957266
 20
788.243976
 40
2.0
100
AcDbArc
 50
90.0
 51
180.0
  0
LINE
  5
D8
100
AcDbEntity
  8
M0
100
AcDbLine
 10
274.957266
 20
788.243976
 11
274.957266
 21
786.243976
  0
ARC
  5
D9
100
AcDbEntity
  8
M0
100
AcDbCircle
 10
259.957266
 20
791.243976
 40
1.0
100
AcDbArc
 50
180.0
 51
269.999126
  0
LINE
  5
DA
100
AcDbEntity
  8
M0
100
AcDbLine
 10
274.957266
 20
786.243976
 11
258.957266
 21
786.243976
  0
LINE
  5
DB
100
AcDbEntity
  8
M0
100
AcDbLine
 10
258.957266
 20
786.243976
 11
258.957266
 21
798.243976
  0
ARC
  5
DC
100
AcDbEntity
  8
M0
100
AcDbCircle
 10
256.957266
 20
798.243976
 40
2.0
100
AcDbArc
 50
0.0
 51
90.0
  0
ARC
  5
DD
100
AcDbEntity
  8
M0
100
AcDbCircle
 10
246.957266
 20
798.243976
 40
2.0
100
AcDbArc
 50
90.0
 51
180.0
  0
ARC
  5
DE
100
AcDbEntity
  8
M0
100
AcDbCircle
 10
243.957266
 20
791.243976
 40
1.0
100
AcDbArc
 50
269.999126
 51
360.0
  0
LINE
  5
DF
100
AcDbEntity
  8
M0
100
AcDbLine
 10
239.957266
 20
789.243976
 11
239.957266
 21
786.243976
  0
ARC
  5
E0
100
AcDbEntity
  8
M0
100
AcDbCircle
 10
240.957266
 20
789.243976
 40
1.0
100
AcDbArc
 50
90.0
 51
180.0
  0
LINE
  5
E1
100
AcDbEntity
  8
M0
100
AcDbLine
 10
244.957266
 20
791.243976
 11
244.957266
 21
798.243976
  0
LINE
  5
E2
100
AcDbEntity
  8
M0
100
AcDbLine
 10
284.957266
 20
790.243976
 11
259.957266
 21
790.243976
  0
LINE
  5
E3
100
AcDbEntity
  8
M0
100
AcDbLine
 10
274.957266
 20
662.243992
 11
274.957266
 21
664.243992
  0
ARC
  5
E4
100
AcDbEntity
  8
M0
100
AcDbCircle
 10
276.957266
 20
662.243992
 40
2.0
100
AcDbArc
 50
179.999563
 51
269.999563
  0
ARC
  5
E5
100
AcDbEntity
  8
M0
100
AcDbCircle
 10
284.957266
 20
662.243992
 40
2.0
100
AcDbArc
 50
-90.000437
 51
0.0
  0
ARC
  5
E6
100
AcDbEntity
  8
M0
100
AcDbCircle
 10
256.957266
 20
652.243992
 40
2.0
100
AcDbArc
 50
269.999563
 51
360.0
  0
LINE
  5
E7
100
AcDbEntity
  8
M0
100
AcDbLine
 10
246.957266
 20
650.243992
 11
256.957266
 21
650.243992
  0
LINE
  5
E8
100
AcDbEntity
  8
M0
100
AcDbLine
 10
274.957266
 20
664.243992
 11
258.957266
 21
664.243992
  0
LINE
  5
E9
100
AcDbEntity
  8
M0
100
AcDbLine
 10
286.957266
 20
662.243992
 11
286.957266
 21
788.243976
  0
LINE
  5
EA
100
AcDbEntity
  8
M0
100
AcDbLine
 10
239.957266
 20
786.243976
 11
231.957266
 21
786.243976
  0
LINE
  5
EB
100
AcDbEntity
  8
M0
100
AcDbLine
 10
239.957266
 20
664.243992
 11
231.957266
 21
664.243992
  0
LINE
  5
EC
100
AcDbEntity
  8
M0
100
AcDbLine
 10
239.957266
 20
661.243992
 11
239.957266
 21
664.243992
  0
ARC
  5
ED
100
AcDbEntity
  8
M0
100
AcDbCircle
 10
240.957266
 20
661.243992
 40
1.0
100
AcDbArc
 50
179.999126
 51
269.999126
  0
LINE
  5
EE
100
AcDbEntity
  8
M0
100
AcDbLine
 10
284.957266
 20
660.243992
 11
258.957266
 21
660.243992
  0
LINE
  5
EF
100
AcDbEntity
  8
M0
100
AcDbLine
 10
256.957266
 20
800.243976
 11
246.957266
 21
800.243976
  0
LINE
  5
F0
100
AcDbEntity
  8
M0
100
AcDbLine
 10
244.957266
 20
660.243992
 11
231.957266
 21
660.243992
  0
LINE
  5
F1
100
AcDbEntity
  8
M0
100
AcDbLine
 10
243.957266
 20
790.243976
 11
231.957266
 21
790.243976
  0
LINE
  5
F2
100
AcDbEntity
  8
M0
  6
DASHDOT
100
AcDbLine
 10
244.707266
 20
792.243976
 11
259.207266
 21
792.243976
  0
LINE
  5
F3
100
AcDbEntity
  8
M0
  6
DASHDOT
100
AcDbLine
 10
251.957266
 20
784.993976
 11
251.957266
 21
799.493976
  0
CIRCLE
  5
F4
100
AcDbEntity
  8
M0
100
AcDbCircle
 10
251.957266
 20
792.243976
 40
1.86
  0
CIRCLE
  5
F5
100
AcDbEntity
  8
M0
100
AcDbCircle
 10
251.957266
 20
658.243992
 40
4.5
  0
CIRCLE
  5
F6
100
AcDbEntity
  8
M0
100
AcDbCircle
 10
251.957266
 20
792.243976
 40
1.36
  0
CIRCLE
  5
F7
100
AcDbEntity
  8
M0
100
AcDbCircle
 10
251.957266
 20
658.243992
 40
2.25
  0
LINE
  5
F8
100
AcDbEntity
  8
M0
  6
DASHDOT
100
AcDbLine
 10
244.707266
 20
658.243992
 11
259.207266
 21
658.243992
  0
LINE
  5
F9
100
AcDbEntity
  8
M0
  6
DASHDOT
100
AcDbLine
 10
251.957266
 20
650.993992
 11
251.957266
 21
665.493992
  0
LINE
  5
FA
100
AcDbEntity
  8
M0
100
AcDbLine
 10
244.957266
 20
660.243992
 11
244.957266
 21
652.243992
  0
ARC
  5
FB
100
AcDbEntity
  8
M0
100
AcDbCircle
 10
246.957266
 20
652.243992
 40
2.0
100
AcDbArc
 50
179.999563
 51
269.999563
  0
LINE
  5
FC
100
AcDbEntity
  8
M0
100
AcDbLine
 10
258.957266
 20
664.243992
 11
258.957266
 21
652.243992
  0
ARC
  5
FD
100
AcDbEntity
  8
M0
100
AcDbCircle
 10
178.957266
 20
662.243992
 40
2.0
100
AcDbArc
 50
179.999563
 51
269.999563
  0
ARC
  5
FE
100
AcDbEntity
  8
M0
100
AcDbCircle
 10
186.957266
 20
662.243992
 40
2.0
100
AcDbArc
 50
269.999563
 51
360.0
  0
LINE
  5
FF
100
AcDbEntity
  8
M0
100
AcDbLine
 10
188.957266
 20
662.243992
 11
188.957266
 21
664.243992
  0
ARC
  5
100
100
AcDbEntity
  8
M0
100
AcDbCircle
 10
203.957266
 20
659.243992
 40
1.0
100
AcDbArc
 50
0.0
 51
90.0
  0
LINE
  5
101
100
AcDbEntity
  8
M0
100
AcDbLine
 10
188.957266
 20
664.243992
 11
204.957266
 21
664.243992
  0
LINE
  5
102
100
AcDbEntity
  8
M0
100
AcDbLine
 10
204.957266
 20
664.243992
 11
204.957266
 21
652.243992
  0
ARC
  5
103
100
AcDbEntity
  8
M0
100
AcDbCircle
 10
206.957266
 20
652.243992
 40
2.0
100
AcDbArc
 50
179.999563
 51
269.999563
  0
ARC
  5
104
100
AcDbEntity
  8
M0
100
AcDbCircle
 10
216.957266
 20
652.243992
 40
2.0
100
AcDbArc
 50
269.999563
 51
360.0
  0
ARC
  5
105
100
AcDbEntity
  8
M0
100
AcDbCircle
 10
219.957266
 20
659.243992
 40
1.0
100
AcDbArc
 50
90.0
 51
179.999126
  0
LINE
  5
106
100
AcDbEntity
  8
M0
100
AcDbLine
 10
223.957266
 20
661.243992
 11
223.957266
 21
664.243992
  0
ARC
  5
107
100
AcDbEntity
  8
M0
100
AcDbCircle
 10
222.957266
 20
661.243992
 40
1.0
100
AcDbArc
 50
269.999126
 51
360.0
  0
LINE
  5
108
100
AcDbEntity
  8
M0
100
AcDbLine
 10
218.957266
 20
659.243992
 11
218.957266
 21
652.243992
  0
LINE
  5
109
100
AcDbEntity
  8
M0
100
AcDbLine
 10
178.957266
 20
660.243992
 11
203.957266
 21
660.243992
  0
LINE
  5
10A
100
AcDbEntity
  8
M0
100
AcDbLine
 10
188.957266
 20
788.243976
 11
188.957266
 21
786.243976
  0
ARC
  5
10B
100
AcDbEntity
  8
M0
100
AcDbCircle
 10
186.957266
 20
788.243976
 40
2.0
100
AcDbArc
 50
0.0
 51
90.0
  0
ARC
  5
10C
100
AcDbEntity
  8
M0
100
AcDbCircle
 10
178.957266
 20
788.243976
 40
2.0
100
AcDbArc
 50
90.0
 51
180.0
  0
ARC
  5
10D
100
AcDbEntity
  8
M0
100
AcDbCircle
 10
206.957266
 20
798.243976
 40
2.0
100
AcDbArc
 50
90.0
 51
180.0
  0
LINE
  5
10E
100
AcDbEntity
  8
M0
100
AcDbLine
 10
216.957266
 20
800.243976
 11
206.957266
 21
800.243976
  0
LINE
  5
10F
100
AcDbEntity
  8
M0
100
AcDbLine
 10
188.957266
 20
786.243976
 11
204.957266
 21
786.243976
  0
LINE
  5
110
100
AcDbEntity
  8
M0
100
AcDbLine
 10
176.957267
 20
788.243976
 11
176.957267
 21
662.243992
  0
LINE
  5
111
100
AcDbEntity
  8
M0
100
AcDbLine
 10
223.957266
 20
664.243992
 11
231.957266
 21
664.243992
  0
LINE
  5
112
100
AcDbEntity
  8
M0
100
AcDbLine
 10
223.957266
 20
786.243976
 11
231.957266
 21
786.243976
  0
LINE
  5
113
100
AcDbEntity
  8
M0
100
AcDbLine
 10
223.957266
 20
789.243976
 11
223.957266
 21
786.243976
  0
ARC
  5
114
100
AcDbEntity
  8
M0
100
AcDbCircle
 10
222.957266
 20
789.243976
 40
1.0
100
AcDbArc
 50
0.0
 51
90.0
  0
LINE
  5
115
100
AcDbEntity
  8
M0
100
AcDbLine
 10
178.957266
 20
790.243976
 11
204.957266
 21
790.243976
  0
LINE
  5
116
100
AcDbEntity
  8
M0
100
AcDbLine
 10
206.957266
 20
650.243992
 11
216.957266
 21
650.243992
  0
LINE
  5
117
100
AcDbEntity
  8
M0
100
AcDbLine
 10
218.957266
 20
790.243976
 11
231.957266
 21
790.243976
  0
LINE
  5
118
100
AcDbEntity
  8
M0
100
AcDbLine
 10
219.957266
 20
660.243992
 11
231.957266
 21
660.243992
  0
LINE
  5
119
100
AcDbEntity
  8
M0
  6
DASHDOT
100
AcDbLine
 10
219.207266
 20
658.243992
 11
204.707266
 21
658.243992
  0
LINE
  5
11A
100
AcDbEntity
  8
M0
  6
DASHDOT
100
AcDbLine
 10
211.957266
 20
665.493992
 11
211.957266
 21
650.993992
  0
CIRCLE
  5
11B
100
AcDbEntity
  8
M0
100
AcDbCircle
 10
211.957266
 20
658.243992
 40
1.86
  0
CIRCLE
  5
11C
100
AcDbEntity
  8
M0
100
AcDbCircle
 10
211.957266
 20
792.243976
 40
4.5
  0
CIRCLE
  5
11D
100
AcDbEntity
  8
M0
100
AcDbCircle
 10
211.957266
 20
658.243992
 40
1.36
  0
CIRCLE
  5
11E
100
AcDbEntity
  8
M0
100
AcDbCircle
 10
211.957266
 20
792.243976
 40
2.25
  0
LINE
  5
11F
100
AcDbEntity
  8
M0
  6
DASHDOT
100
AcDbLine
 10
219.207266
 20
792.243976
 11
204.707266
 21
792.243976
  0
LINE
  5
120
100
AcDbEntity
  8
M0
  6
DASHDOT
100
AcDbLine
 10
211.957266
 20
799.493976
 11
211.957266
 21
784.993976
  0
LINE
  5
121
100
AcDbEntity
  8
M0
100
AcDbLine
 10
218.957266
 20
790.243976
 11
218.957266
 21
798.243976
  0
ARC
  5
122
100
AcDbEntity
  8
M0
100
AcDbCircle
 10
216.957266
 20
798.243976
 40
2.0
100
AcDbArc
 50
0.0
 51
90.0
  0
LINE
  5
123
100
AcDbEntity
  8
M0
100
AcDbLine
 10
204.957266
 20
786.243976
 11
204.957266
 21
798.243976
  0
ARC
  5
124
100
AcDbEntity
  8
M0
100
AcDbCircle
 10
298.957266
 20
809.743976
 40
2.0
100
AcDbArc
 50
0.0
 51
90.0
  0
LINE
  5
125
100
AcDbEntity
  8
M0
100
AcDbLine
 10
298.957266
 20
811.743976
 11
294.457266
 21
811.743976
  0
LINE
  5
126
100
AcDbEntity
  8
M0
100
AcDbLine
 10
217.957266
 20
811.743976
 11
219.457266
 21
811.743976
  0
ARC
  5
127
100
AcDbEntity
  8
M0
100
AcDbCircle
 10
245.957266
 20
810.743976
 40
1.0
100
AcDbArc
 50
0.0
 51
90.0
  0
LINE
  5
128
100
AcDbEntity
  8
M0
100
AcDbLine
 10
246.957266
 20
810.743976
 11
246.957266
 21
801.243976
  0
ARC
  5
129
100
AcDbEntity
  8
M0
100
AcDbCircle
 10
247.957266
 20
801.243976
 40
1.0
100
AcDbArc
 50
180.0
 51
269.999126
  0
ARC
  5
12A
100
AcDbEntity
  8
M0
100
AcDbCircle
 10
256.957266
 20
798.243976
 40
2.0
100
AcDbArc
 50
0.0
 51
90.0
  0
LINE
  5
12B
100
AcDbEntity
  8
M0
100
AcDbLine
 10
258.957266
 20
798.243976
 11
258.957266
 21
792.743976
  0
ARC
  5
12C
100
AcDbEntity
  8
M0
100
AcDbCircle
 10
246.957266
 20
798.243976
 40
2.0
100
AcDbArc
 50
90.0
 51
180.0
  0
LINE
  5
12D
100
AcDbEntity
  8
M0
100
AcDbLine
 10
268.24758
 20
800.243976
 11
244.457266
 21
800.243976
  0
LINE
  5
12E
100
AcDbEntity
  8
M0
100
AcDbLine
 10
164.957267
 20
650.243992
 11
174.707267
 21
650.243992
  0
LINE
  5
12F
100
AcDbEntity
  8
M0
100
AcDbLine
 10
300.957266
 20
652.243992
 11
300.957266
 21
809.743976
  0
ARC
  5
130
100
AcDbEntity
  8
M0
100
AcDbCircle
 10
298.957266
 20
652.243992
 40
2.0
100
AcDbArc
 50
269.999563
 51
360.0
  0
ARC
  5
131
100
AcDbEntity
  8
M0
100
AcDbCircle
 10
246.957266
 20
652.243992
 40
2.0
100
AcDbArc
 50
179.999563
 51
269.999563
  0
ARC
  5
132
100
AcDbEntity
  8
M0
100
AcDbCircle
 10
256.957266
 20
652.243992
 40
2.0
100
AcDbArc
 50
-90.000437
 51
0.0
  0
LINE
  5
133
100
AcDbEntity
  8
M0
100
AcDbLine
 10
258.957266
 20
652.243992
 11
258.957266
 21
657.743992
  0
CIRCLE
  5
134
100
AcDbEntity
  8
M0
100
AcDbCircle
 10
292.957266
 20
795.743976
 40
2.75
  0
LINE
  5
135
100
AcDbEntity
  8
M0
  6
DASHDOT
100
AcDbLine
 10
285.207266
 20
795.743976
 11
300.707266
 21
795.743976
  0
ARC
  5
136
100
AcDbEntity
  8
M0
100
AcDbCircle
 10
164.957267
 20
809.743976
 40
2.0
100
AcDbArc
 50
90.0
 51
180.0
  0
ARC
  5
137
100
AcDbEntity
  8
M0
100
AcDbCircle
 10
217.957266
 20
810.743976
 40
1.0
100
AcDbArc
 50
90.0
 51
180.0
  0
LINE
  5
138
100
AcDbEntity
  8
M0
100
AcDbLine
 10
216.957266
 20
810.743976
 11
216.957266
 21
801.243976
  0
ARC
  5
139
100
AcDbEntity
  8
M0
100
AcDbCircle
 10
215.957266
 20
801.243976
 40
1.0
100
AcDbArc
 50
-90.000874
 51
0.0
  0
ARC
  5
13A
100
AcDbEntity
  8
M0
100
AcDbCircle
 10
206.957266
 20
798.243976
 40
2.0
100
AcDbArc
 50
90.0
 51
180.0
  0
LINE
  5
13B
100
AcDbEntity
  8
M0
100
AcDbLine
 10
204.957266
 20
798.243976
 11
204.957266
 21
792.743976
  0
ARC
  5
13C
100
AcDbEntity
  8
M0
100
AcDbCircle
 10
216.957266
 20
798.243976
 40
2.0
100
AcDbArc
 50
0.0
 51
90.0
  0
LINE
  5
13D
100
AcDbEntity
  8
M0
100
AcDbLine
 10
162.957267
 20
652.243992
 11
162.957267
 21
809.743976
  0
ARC
  5
13E
100
AcDbEntity
  8
M0
100
AcDbCircle
 10
164.957267
 20
652.243992
 40
2.0
100
AcDbArc
 50
179.999563
 51
270.0
  0
ARC
  5
13F
100
AcDbEntity
  8
M0
100
AcDbCircle
 10
216.957266
 20
652.243992
 40
2.0
100
AcDbArc
 50
269.999563
 51
360.0
  0
LINE
  5
140
100
AcDbEntity
  8
M0
  6
DASHDOT
100
AcDbLine
 10
292.957266
 20
632.27811
 11
292.957266
 21
803.493976
  0
LINE
  5
141
100
AcDbEntity
  8
M0
100
AcDbLine
 10
286.957266
 20
798.243976
 11
286.957266
 21
750.743976
  0
LINE
  5
142
100
AcDbEntity
  8
M0
100
AcDbLine
 10
176.957267
 20
798.243976
 11
176.957267
 21
750.743976
  0
ARC
  5
143
100
AcDbEntity
  8
M0
100
AcDbCircle
 10
206.957266
 20
652.243992
 40
2.0
100
AcDbArc
 50
179.999563
 51
269.999563
  0
LINE
  5
144
100
AcDbEntity
  8
M0
100
AcDbLine
 10
204.957266
 20
652.243992
 11
204.957266
 21
657.743992
  0
LINE
  5
145
100
AcDbEntity
  8
M0
  6
DASHDOT
100
AcDbLine
 10
211.957266
 20
662.743992
 11
211.957266
 21
647.743992
  0
CIRCLE
  5
146
100
AcDbEntity
  8
M0
100
AcDbCircle
 10
170.957267
 20
795.743976
 40
2.75
  0
LINE
  5
147
100
AcDbEntity
  8
M0
  6
DASHDOT
100
AcDbLine
 10
178.707266
 20
795.743976
 11
163.207267
 21
795.743976
  0
LINE
  5
148
100
AcDbEntity
  8
M0
  6
DASHDOT
100
AcDbLine
 10
170.957267
 20
787.993976
 11
170.957267
 21
803.493976
  0
LINE
  5
149
100
AcDbEntity
  8
M0
100
AcDbLine
 10
286.957266
 20
652.815418
 11
286.957266
 21
699.743976
  0
LINE
  5
14A
100
AcDbEntity
  8
M0
100
AcDbLine
 10
286.957266
 20
699.743976
 11
286.957266
 21
652.815418
  0
LINE
  5
14B
100
AcDbEntity
  8
M0
  6
DASHDOT
100
AcDbLine
 10
170.957267
 20
632.27811
 11
170.957267
 21
803.493976
  0
LINE
  5
14C
100
AcDbEntity
  8
M0
100
AcDbLine
 10
176.957267
 20
699.743976
 11
176.957267
 21
652.815418
  0
CIRCLE
  5
14D
100
AcDbEntity
  8
M0
100
AcDbCircle
 10
170.957267
 20
654.743976
 40
2.75
  0
LINE
  5
14E
100
AcDbEntity
  8
M0
  6
DASHDOT
100
AcDbLine
 10
178.707266
 20
654.743976
 11
163.207267
 21
654.743976
  0
CIRCLE
  5
14F
100
AcDbEntity
  8
M0
100
AcDbCircle
 10
292.957266
 20
654.743992
 40
2.75
  0
LINE
  5
150
100
AcDbEntity
  8
M0
  6
DASHDOT
100
AcDbLine
 10
285.207266
 20
654.743992
 11
300.707266
 21
654.743992
  0
LINE
  5
151
100
AcDbEntity
  8
M0
100
AcDbLine
 10
298.457266
 20
760.243976
 11
298.457266
 21
752.743976
  0
LINE
  5
152
100
AcDbEntity
  8
M0
100
AcDbLine
 10
298.457266
 20
760.243976
 11
300.957266
 21
760.243976
  0
LINE
  5
153
100
AcDbEntity
  8
M0
100
AcDbLine
 10
293.957266
 20
728.993976
 11
300.957266
 21
728.993976
  0
ARC
  5
154
100
AcDbEntity
  8
M0
100
AcDbCircle
 10
293.957266
 20
727.993976
 40
1.0
100
AcDbArc
 50
90.0
 51
180.0
  0
LINE
  5
155
100
AcDbEntity
  8
M0
100
AcDbLine
 10
292.957266
 20
727.993976
 11
292.957266
 21
722.493976
  0
LINE
  5
156
100
AcDbEntity
  8
M0
100
AcDbLine
 10
293.957266
 20
721.493976
 11
300.957266
 21
721.493976
  0
ARC
  5
157
100
AcDbEntity
  8
M0
100
AcDbCircle
 10
293.957266
 20
722.493976
 40
1.0
100
AcDbArc
 50
180.0
 51
269.999126
  0
LINE
  5
158
100
AcDbEntity
  8
M0
100
AcDbLine
 10
300.957266
 20
727.993976
 11
296.957266
 21
727.993976
  0
LINE
  5
159
100
AcDbEntity
  8
M0
100
AcDbLine
 10
300.957266
 20
722.493976
 11
296.957266
 21
722.493976
  0
LINE
  5
15A
100
AcDbEntity
  8
M0
100
AcDbLine
 10
297.457266
 20
752.743976
 11
300.957266
 21
752.743976
  0
ARC
  5
15B
100
AcDbEntity
  8
M0
100
AcDbCircle
 10
297.457266
 20
752.243976
 40
0.5
100
AcDbArc
 50
90.0
 51
180.0
  0
LINE
  5
15C
100
AcDbEntity
  8
M0
100
AcDbLine
 10
288.957266
 20
749.243976
 11
296.957266
 21
749.243976
  0
LINE
  5
15D
100
AcDbEntity
  8
M0
100
AcDbLine
 10
296.957266
 20
728.993976
 11
296.957266
 21
727.993976
  0
LINE
  5
15E
100
AcDbEntity
  8
M0
100
AcDbLine
 10
296.957266
 20
752.243976
 11
296.957266
 21
731.743976
  0
LINE
  5
15F
100
AcDbEntity
  8
M0
100
AcDbLine
 10
297.457266
 20
742.743976
 11
300.957266
 21
742.743976
  0
ARC
  5
160
100
AcDbEntity
  8
M0
100
AcDbCircle
 10
297.457266
 20
742.243976
 40
0.5
100
AcDbArc
 50
90.0
 51
180.0
  0
LINE
  5
161
100
AcDbEntity
  8
M0
100
AcDbLine
 10
288.957266
 20
701.243976
 11
296.957266
 21
701.243976
  0
LINE
  5
162
100
AcDbEntity
  8
M0
100
AcDbLine
 10
296.957266
 20
698.243976
 11
296.957266
 21
718.743976
  0
LINE
  5
163
100
AcDbEntity
  8
M0
100
AcDbLine
 10
297.457266
 20
707.743976
 11
300.957266
 21
707.743976
  0
ARC
  5
164
100
AcDbEntity
  8
M0
100
AcDbCircle
 10
297.457266
 20
708.243976
 40
0.5
100
AcDbArc
 50
180.0
 51
269.998251
  0
LINE
  5
165
100
AcDbEntity
  8
M0
100
AcDbLine
 10
296.957266
 20
698.243976
 11
296.957266
 21
718.743976
  0
LINE
  5
166
100
AcDbEntity
  8
M0
100
AcDbLine
 10
298.457266
 20
690.243977
 11
298.457266
 21
697.743976
  0
LINE
  5
167
100
AcDbEntity
  8
M0
100
AcDbLine
 10
298.457266
 20
690.243977
 11
300.957266
 21
690.243977
  0
ARC
  5
168
100
AcDbEntity
  8
M0
100
AcDbCircle
 10
297.457266
 20
698.243976
 40
0.5
100
AcDbArc
 50
180.0
 51
269.998251
  0
LINE
  5
169
100
AcDbEntity
  8
M0
100
AcDbLine
 10
297.457266
 20
697.743976
 11
300.957266
 21
697.743976
  0
LINE
  5
16A
100
AcDbEntity
  8
M0
100
AcDbLine
 10
296.957266
 20
721.493976
 11
296.957266
 21
722.493976
  0
LINE
  5
16B
100
AcDbEntity
  8
M0
100
AcDbLine
 10
165.457267
 20
760.243976
 11
165.457267
 21
752.743976
  0
LINE
  5
16C
100
AcDbEntity
  8
M0
100
AcDbLine
 10
165.457267
 20
760.243976
 11
162.957267
 21
760.243976
  0
LINE
  5
16D
100
AcDbEntity
  8
M0
100
AcDbLine
 10
169.957267
 20
728.993976
 11
162.957267
 21
728.993976
  0
ARC
  5
16E
100
AcDbEntity
  8
M0
100
AcDbCircle
 10
169.957267
 20
727.993976
 40
1.0
100
AcDbArc
 50
0.0
 51
90.0
  0
LINE
  5
16F
100
AcDbEntity
  8
M0
100
AcDbLine
 10
170.957267
 20
727.993976
 11
170.957267
 21
722.493976
  0
LINE
  5
170
100
AcDbEntity
  8
M0
100
AcDbLine
 10
169.957267
 20
721.493976
 11
162.957267
 21
721.493976
  0
ARC
  5
171
100
AcDbEntity
  8
M0
100
AcDbCircle
 10
169.957267
 20
722.493976
 40
1.0
100
AcDbArc
 50
-90.0
 51
0.0
  0
LINE
  5
172
100
AcDbEntity
  8
M0
100
AcDbLine
 10
162.957267
 20
727.993976
 11
166.957267
 21
727.993976
  0
LINE
  5
173
100
AcDbEntity
  8
M0
100
AcDbLine
 10
162.957267
 20
722.493976
 11
166.957267
 21
722.493976
  0
LINE
  5
174
100
AcDbEntity
  8
M0
100
AcDbLine
 10
166.457267
 20
752.743976
 11
162.957267
 21
752.743976
  0
ARC
  5
175
100
AcDbEntity
  8
M0
100
AcDbCircle
 10
166.457267
 20
752.243976
 40
0.5
100
AcDbArc
 50
0.0
 51
90.0
  0
LINE
  5
176
100
AcDbEntity
  8
M0
100
AcDbLine
 10
174.957267
 20
749.243976
 11
166.957267
 21
749.243976
  0
LINE
  5
177
100
AcDbEntity
  8
M0
100
AcDbLine
 10
166.957267
 20
728.993976
 11
166.957267
 21
727.993976
  0
LINE
  5
178
100
AcDbEntity
  8
M0
100
AcDbLine
 10
166.957267
 20
752.243976
 11
166.957267
 21
731.743976
  0
LINE
  5
179
100
AcDbEntity
  8
M0
100
AcDbLine
 10
166.457267
 20
742.743976
 11
162.957267
 21
742.743976
  0
ARC
  5
17A
100
AcDbEntity
  8
M0
100
AcDbCircle
 10
166.457267
 20
742.243976
 40
0.5
100
AcDbArc
 50
0.0
 51
90.0
  0
LINE
  5
17B
100
AcDbEntity
  8
M0
100
AcDbLine
 10
174.957267
 20
701.243976
 11
166.957267
 21
701.243976
  0
LINE
  5
17C
100
AcDbEntity
  8
M0
100
AcDbLine
 10
166.957267
 20
698.243976
 11
166.957267
 21
718.743976
  0
LINE
  5
17D
100
AcDbEntity
  8
M0
100
AcDbLine
 10
166.457267
 20
707.743976
 11
162.957267
 21
707.743961
  0
ARC
  5
17E
100
AcDbEntity
  8
M0
100
AcDbCircle
 10
166.457267
 20
708.243976
 40
0.5
100
AcDbArc
 50
270.0
 51
360.0
  0
LINE
  5
17F
100
AcDbEntity
  8
M0
100
AcDbLine
 10
166.957267
 20
698.243976
 11
166.957267
 21
718.743976
  0
LINE
  5
180
100
AcDbEntity
  8
M0
100
AcDbLine
 10
165.457267
 20
690.243976
 11
165.457267
 21
697.743961
  0
LINE
  5
181
100
AcDbEntity
  8
M0
100
AcDbLine
 10
165.457267
 20
690.243976
 11
162.957267
 21
690.243976
  0
ARC
  5
182
100
AcDbEntity
  8
M0
100
AcDbCircle
 10
166.457267
 20
698.243976
 40
0.5
100
AcDbArc
 50
270.0
 51
360.0
  0
LINE
  5
183
100
AcDbEntity
  8
M0
100
AcDbLine
 10
166.457267
 20
697.743976
 11
162.957267
 21
697.743961
  0
LINE
  5
184
100
AcDbEntity
  8
M0
100
AcDbLine
 10
166.957267
 20
721.493976
 11
166.957267
 21
722.493976
  0
CIRCLE
  5
185
100
AcDbEntity
  8
M0
100
AcDbCircle
 10
292.957266
 20
735.743976
 40
2.0
  0
LINE
  5
186
100
AcDbEntity
  8
M0
  6
DASHDOT
100
AcDbLine
 10
285.957266
 20
735.743976
 11
299.957266
 21
735.743976
  0
LINE
  5
187
100
AcDbEntity
  8
M0
  6
DASHDOT
100
AcDbLine
 10
292.957266
 20
728.743976
 11
292.957266
 21
742.743976
  0
CIRCLE
  5
188
100
AcDbEntity
  8
M0
100
AcDbCircle
 10
292.957266
 20
714.743976
 40
2.0
  0
LINE
  5
189
100
AcDbEntity
  8
M0
  6
DASHDOT
100
AcDbLine
 10
285.957266
 20
714.743976
 11
299.957266
 21
714.743976
  0
CIRCLE
  5
18A
100
AcDbEntity
  8
M0
100
AcDbCircle
 10
170.957267
 20
735.743976
 40
2.0
  0
LINE
  5
18B
100
AcDbEntity
  8
M0
  6
DASHDOT
100
AcDbLine
 10
177.957266
 20
735.743976
 11
163.957267
 21
735.743976
  0
LINE
  5
18C
100
AcDbEntity
  8
M0
  6
DASHDOT
100
AcDbLine
 10
170.957267
 20
728.743976
 11
170.957267
 21
742.743976
  0
CIRCLE
  5
18D
100
AcDbEntity
  8
M0
100
AcDbCircle
 10
170.957267
 20
714.743976
 40
2.0
  0
LINE
  5
18E
100
AcDbEntity
  8
M0
  6
DASHDOT
100
AcDbLine
 10
177.957266
 20
714.743976
 11
163.957267
 21
714.743976
  0
CIRCLE
  5
18F
100
AcDbEntity
  8
M0
100
AcDbCircle
 10
292.957266
 20
745.243976
 40
2.0
  0
LINE
  5
190
100
AcDbEntity
  8
M0
  6
DASHDOT
100
AcDbLine
 10
285.957266
 20
745.243976
 11
299.957266
 21
745.243976
  0
LINE
  5
191
100
AcDbEntity
  8
M0
  6
DASHDOT
100
AcDbLine
 10
292.957266
 20
738.243976
 11
292.957266
 21
752.243976
  0
LINE
  5
192
100
AcDbEntity
  8
M0
100
AcDbLine
 10
286.957266
 20
750.743976
 11
296.957266
 21
750.743976
  0
LINE
  5
193
100
AcDbEntity
  8
M0
100
AcDbLine
 10
288.957266
 20
739.743976
 11
296.957266
 21
739.743976
  0
LINE
  5
194
100
AcDbEntity
  8
M0
100
AcDbLine
 10
290.207266
 20
735.743976
 11
290.207266
 21
739.743976
  0
LINE
  5
195
100
AcDbEntity
  8
M0
100
AcDbLine
 10
295.707266
 20
735.743976
 11
295.707266
 21
739.743976
  0
ARC
  5
196
100
AcDbEntity
  8
M0
100
AcDbCircle
 10
292.957266
 20
735.743976
 40
2.75
100
AcDbArc
 50
180.0
 51
360.0
  0
LINE
  5
197
100
AcDbEntity
  8
M0
100
AcDbLine
 10
290.207266
 20
745.243976
 11
290.207266
 21
749.243976
  0
LINE
  5
198
100
AcDbEntity
  8
M0
100
AcDbLine
 10
295.707266
 20
745.243976
 11
295.707266
 21
749.243976
  0
ARC
  5
199
100
AcDbEntity
  8
M0
100
AcDbCircle
 10
292.957266
 20
745.243976
 40
2.75
100
AcDbArc
 50
180.0
 51
360.0
  0
ARC
  5
19A
100
AcDbEntity
  8
M0
100
AcDbCircle
 10
289.957266
 20
731.743976
 40
1.0
100
AcDbArc
 50
180.0
 51
269.999126
  0
LINE
  5
19B
100
AcDbEntity
  8
M0
100
AcDbLine
 10
289.957266
 20
730.743976
 11
295.957266
 21
730.743976
  0
ARC
  5
19C
100
AcDbEntity
  8
M0
100
AcDbCircle
 10
295.957266
 20
731.743976
 40
1.0
100
AcDbArc
 50
269.999126
 51
360.0
  0
LINE
  5
19D
100
AcDbEntity
  8
M0
100
AcDbLine
 10
286.957266
 20
741.743976
 11
288.457266
 21
741.743976
  0
ARC
  5
19E
100
AcDbEntity
  8
M0
100
AcDbCircle
 10
288.457266
 20
741.243976
 40
0.5
100
AcDbArc
 50
0.0
 51
90.0
  0
LINE
  5
19F
100
AcDbEntity
  8
M0
100
AcDbLine
 10
288.957266
 20
750.243976
 11
288.957266
 21
731.743976
  0
ARC
  5
1A0
100
AcDbEntity
  8
M0
100
AcDbCircle
 10
288.457266
 20
750.243976
 40
0.5
100
AcDbArc
 50
0.0
 51
90.0
  0
CIRCLE
  5
1A1
100
AcDbEntity
  8
M0
100
AcDbCircle
 10
292.957266
 20
705.243976
 40
2.0
  0
LINE
  5
1A2
100
AcDbEntity
  8
M0
  6
DASHDOT
100
AcDbLine
 10
285.957266
 20
705.243976
 11
299.957266
 21
705.243976
  0
LINE
  5
1A3
100
AcDbEntity
  8
M0
100
AcDbLine
 10
286.957266
 20
699.743976
 11
296.957266
 21
699.743976
  0
LINE
  5
1A4
100
AcDbEntity
  8
M0
100
AcDbLine
 10
288.957266
 20
710.743976
 11
296.957266
 21
710.743976
  0
LINE
  5
1A5
100
AcDbEntity
  8
M0
100
AcDbLine
 10
290.207266
 20
714.743976
 11
290.207266
 21
710.743976
  0
ARC
  5
1A6
100
AcDbEntity
  8
M0
100
AcDbCircle
 10
292.957266
 20
714.743976
 40
2.75
100
AcDbArc
 50
0.0
 51
180.0
  0
LINE
  5
1A7
100
AcDbEntity
  8
M0
100
AcDbLine
 10
290.207266
 20
705.243976
 11
290.207266
 21
701.243976
  0
ARC
  5
1A8
100
AcDbEntity
  8
M0
100
AcDbCircle
 10
292.957266
 20
705.243976
 40
2.75
100
AcDbArc
 50
0.0
 51
180.0
  0
ARC
  5
1A9
100
AcDbEntity
  8
M0
100
AcDbCircle
 10
289.957266
 20
718.743976
 40
1.0
100
AcDbArc
 50
90.0
 51
180.0
  0
LINE
  5
1AA
100
AcDbEntity
  8
M0
100
AcDbLine
 10
289.957266
 20
719.743976
 11
295.957266
 21
719.743976
  0
LINE
  5
1AB
100
AcDbEntity
  8
M0
100
AcDbLine
 10
286.957266
 20
708.743976
 11
288.457266
 21
708.743976
  0
ARC
  5
1AC
100
AcDbEntity
  8
M0
100
AcDbCircle
 10
288.457266
 20
709.243976
 40
0.5
100
AcDbArc
 50
-90.001749
 51
0.0
  0
LINE
  5
1AD
100
AcDbEntity
  8
M0
100
AcDbLine
 10
288.957266
 20
700.243976
 11
288.957266
 21
718.743976
  0
ARC
  5
1AE
100
AcDbEntity
  8
M0
100
AcDbCircle
 10
288.457266
 20
700.243976
 40
0.5
100
AcDbArc
 50
-90.001749
 51
0.0
  0
ARC
  5
1AF
100
AcDbEntity
  8
M0
100
AcDbCircle
 10
295.957266
 20
718.743976
 40
1.0
100
AcDbArc
 50
0.0
 51
90.0
  0
LINE
  5
1B0
100
AcDbEntity
  8
M0
100
AcDbLine
 10
295.707266
 20
714.743976
 11
295.707266
 21
710.743976
  0
LINE
  5
1B1
100
AcDbEntity
  8
M0
100
AcDbLine
 10
295.707266
 20
705.243976
 11
295.707266
 21
701.243976
  0
CIRCLE
  5
1B2
100
AcDbEntity
  8
M0
100
AcDbCircle
 10
170.957267
 20
745.243976
 40
2.0
  0
LINE
  5
1B3
100
AcDbEntity
  8
M0
  6
DASHDOT
100
AcDbLine
 10
177.957266
 20
745.243976
 11
163.957267
 21
745.243976
  0
LINE
  5
1B4
100
AcDbEntity
  8
M0
  6
DASHDOT
100
AcDbLine
 10
170.957267
 20
738.243976
 11
170.957267
 21
752.243976
  0
LINE
  5
1B5
100
AcDbEntity
  8
M0
100
AcDbLine
 10
176.957267
 20
750.743976
 11
166.957267
 21
750.743976
  0
LINE
  5
1B6
100
AcDbEntity
  8
M0
100
AcDbLine
 10
174.957267
 20
739.743976
 11
166.957267
 21
739.743976
  0
LINE
  5
1B7
100
AcDbEntity
  8
M0
100
AcDbLine
 10
173.707267
 20
735.743976
 11
173.707267
 21
739.743976
  0
LINE
  5
1B8
100
AcDbEntity
  8
M0
100
AcDbLine
 10
168.207267
 20
735.743976
 11
168.207267
 21
739.743976
  0
ARC
  5
1B9
100
AcDbEntity
  8
M0
100
AcDbCircle
 10
170.957267
 20
735.743976
 40
2.75
100
AcDbArc
 50
-180.0
 51
0.0
  0
LINE
  5
1BA
100
AcDbEntity
  8
M0
100
AcDbLine
 10
173.707267
 20
745.243976
 11
173.707267
 21
749.243976
  0
LINE
  5
1BB
100
AcDbEntity
  8
M0
100
AcDbLine
 10
168.207267
 20
745.243976
 11
168.207267
 21
749.243976
  0
ARC
  5
1BC
100
AcDbEntity
  8
M0
100
AcDbCircle
 10
170.957267
 20
745.243976
 40
2.75
100
AcDbArc
 50
-180.0
 51
0.0
  0
ARC
  5
1BD
100
AcDbEntity
  8
M0
100
AcDbCircle
 10
173.957267
 20
731.743976
 40
1.0
100
AcDbArc
 50
-90.0
 51
0.0
  0
LINE
  5
1BE
100
AcDbEntity
  8
M0
100
AcDbLine
 10
173.957267
 20
730.743976
 11
167.957267
 21
730.743976
  0
ARC
  5
1BF
100
AcDbEntity
  8
M0
100
AcDbCircle
 10
167.957267
 20
731.743976
 40
1.0
100
AcDbArc
 50
180.0
 51
270.0
  0
LINE
  5
1C0
100
AcDbEntity
  8
M0
100
AcDbLine
 10
176.957267
 20
741.743976
 11
175.457267
 21
741.743976
  0
ARC
  5
1C1
100
AcDbEntity
  8
M0
100
AcDbCircle
 10
175.457267
 20
741.243976
 40
0.5
100
AcDbArc
 50
90.0
 51
180.0
  0
LINE
  5
1C2
100
AcDbEntity
  8
M0
100
AcDbLine
 10
174.957267
 20
750.243976
 11
174.957267
 21
731.743976
  0
ARC
  5
1C3
100
AcDbEntity
  8
M0
100
AcDbCircle
 10
175.457267
 20
750.243976
 40
0.5
100
AcDbArc
 50
90.0
 51
180.0
  0
CIRCLE
  5
1C4
100
AcDbEntity
  8
M0
100
AcDbCircle
 10
170.957267
 20
705.243976
 40
2.0
  0
LINE
  5
1C5
100
AcDbEntity
  8
M0
  6
DASHDOT
100
AcDbLine
 10
177.957266
 20
705.243976
 11
163.957267
 21
705.243976
  0
LINE
  5
1C6
100
AcDbEntity
  8
M0
100
AcDbLine
 10
176.957267
 20
699.743976
 11
166.957267
 21
699.743976
  0
LINE
  5
1C7
100
AcDbEntity
  8
M0
100
AcDbLine
 10
174.957267
 20
710.743976
 11
166.957267
 21
710.743976
  0
LINE
  5
1C8
100
AcDbEntity
  8
M0
100
AcDbLine
 10
173.707267
 20
714.743976
 11
173.707267
 21
710.743976
  0
ARC
  5
1C9
100
AcDbEntity
  8
M0
100
AcDbCircle
 10
170.957267
 20
714.743976
 40
2.75
100
AcDbArc
 50
0.0
 51
180.0
  0
LINE
  5
1CA
100
AcDbEntity
  8
M0
100
AcDbLine
 10
173.707267
 20
705.243976
 11
173.707267
 21
701.243976
  0
ARC
  5
1CB
100
AcDbEntity
  8
M0
100
AcDbCircle
 10
170.957267
 20
705.243976
 40
2.75
100
AcDbArc
 50
0.0
 51
180.0
  0
ARC
  5
1CC
100
AcDbEntity
  8
M0
100
AcDbCircle
 10
173.957267
 20
718.743976
 40
1.0
100
AcDbArc
 50
0.0
 51
90.0
  0
LINE
  5
1CD
100
AcDbEntity
  8
M0
100
AcDbLine
 10
173.957267
 20
719.743976
 11
167.957267
 21
719.743976
  0
LINE
  5
1CE
100
AcDbEntity
  8
M0
100
AcDbLine
 10
176.957267
 20
708.743976
 11
175.457267
 21
708.743976
  0
ARC
  5
1CF
100
AcDbEntity
  8
M0
100
AcDbCircle
 10
175.457267
 20
709.243976
 40
0.5
100
AcDbArc
 50
180.0
 51
270.0
  0
LINE
  5
1D0
100
AcDbEntity
  8
M0
100
AcDbLine
 10
174.957267
 20
700.243976
 11
174.957267
 21
718.743976
  0
ARC
  5
1D1
100
AcDbEntity
  8
M0
100
AcDbCircle
 10
175.457267
 20
700.243976
 40
0.5
100
AcDbArc
 50
180.0
 51
270.0
  0
ARC
  5
1D2
100
AcDbEntity
  8
M0
100
AcDbCircle
 10
167.957267
 20
718.743976
 40
1.0
100
AcDbArc
 50
90.0
 51
180.0
  0
LINE
  5
1D3
100
AcDbEntity
  8
M0
100
AcDbLine
 10
168.207267
 20
714.743976
 11
168.207267
 21
710.743976
  0
LINE
  5
1D4
100
AcDbEntity
  8
M0
100
AcDbLine
 10
168.207267
 20
705.243976
 11
168.207267
 21
701.243976
  0
LINE
  5
1D5
100
AcDbEntity
  8
M0
100
AcDbLine
 10
244.457266
 20
650.243992
 11
268.24758
 21
650.243992
  0
LINE
  5
1D6
100
AcDbEntity
  8
M0
100
AcDbLine
 10
289.207266
 20
650.243992
 11
298.957266
 21
650.243992
  0
LINE
  5
1D7
100
AcDbEntity
  8
M0
100
AcDbLine
 10
195.666937
 20
650.243992
 11
219.457266
 21
650.243992
  0
LINE
  5
1D8
100
AcDbEntity
  8
M0
100
AcDbLine
 10
244.457266
 20
811.743976
 11
245.957266
 21
811.743976
  0
LINE
  5
1D9
100
AcDbEntity
  8
M0
100
AcDbLine
 10
219.457266
 20
800.243976
 11
195.666937
 21
800.243976
  0
LINE
  5
1DA
100
AcDbEntity
  8
M0
100
AcDbLine
 10
164.957267
 20
650.243992
 11
174.707267
 21
650.243992
  0
LINE
  5
1DB
100
AcDbEntity
  8
M0
100
AcDbLine
 10
219.957266
 20
800.243381
 11
217.457266
 21
800.243381
  0
LINE
  5
1DC
100
AcDbEntity
  8
M0
  6
DASHDOT
100
AcDbLine
 10
231.957266
 20
642.743915
 11
231.957266
 21
815.920078
  0
ARC
  5
1DD
100
AcDbEntity
  8
M0
100
AcDbCircle
 10
164.957267
 20
652.243992
 40
2.0
100
AcDbArc
 50
179.999563
 51
270.0
  0
LINE
  5
1DE
100
AcDbEntity
  8
M0
100
AcDbLine
 10
219.457266
 20
811.74358
 11
194.457266
 21
811.743488
  0
ARC
  5
1DF
100
AcDbEntity
  8
M0
100
AcDbCircle
 10
164.957267
 20
809.743381
 40
2.0
100
AcDbArc
 50
90.0
 51
180.0
  0
LINE
  5
1E0
100
AcDbEntity
  8
M0
  6
DASHDOT
100
AcDbLine
 10
212.957266
 20
809.88303
 11
212.957266
 21
800.243381
  0
LINE
  5
1E1
100
AcDbEntity
  8
M0
100
AcDbLine
 10
216.957266
 20
809.74387
 11
216.957266
 21
800.743137
  0
LINE
  5
1E2
100
AcDbEntity
  8
M0
100
AcDbLine
 10
208.957266
 20
811.243381
 11
208.957266
 21
800.743137
  0
LINE
  5
1E3
100
AcDbEntity
  8
M0
100
AcDbLine
 10
215.707266
 20
804.74387
 11
215.707266
 21
800.74387
  0
LINE
  5
1E4
100
AcDbEntity
  8
M0
100
AcDbLine
 10
210.207266
 20
804.74387
 11
210.207266
 21
800.74387
  0
LINE
  5
1E5
100
AcDbEntity
  8
M0
  6
DASHDOT
100
AcDbLine
 10
194.957266
 20
804.74387
 11
202.957266
 21
804.74387
  0
ARC
  5
1E6
100
AcDbEntity
  8
M0
100
AcDbCircle
 10
212.957266
 20
804.74387
 40
2.75
100
AcDbArc
 50
0.0
 51
180.0
  0
CIRCLE
  5
1E7
100
AcDbEntity
  8
M0
100
AcDbCircle
 10
212.957266
 20
804.74387
 40
2.0
  0
LINE
  5
1E8
100
AcDbEntity
  8
M0
100
AcDbLine
 10
194.957266
 20
800.74387
 11
202.957266
 21
800.74387
  0
LINE
  5
1E9
100
AcDbEntity
  8
M0
100
AcDbLine
 10
208.457266
 20
800.243381
 11
203.457266
 21
800.243381
  0
LINE
  5
1EA
100
AcDbEntity
  8
M0
100
AcDbLine
 10
194.957266
 20
809.24387
 11
202.957266
 21
809.24387
  0
ARC
  5
1EB
100
AcDbEntity
  8
M0
100
AcDbCircle
 10
217.457266
 20
800.743137
 40
0.5
100
AcDbArc
 50
180.0
 51
269.998251
  0
ARC
  5
1EC
100
AcDbEntity
  8
M0
100
AcDbCircle
 10
208.457266
 20
800.743137
 40
0.5
100
AcDbArc
 50
269.998251
 51
360.0
  0
LINE
  5
1ED
100
AcDbEntity
  8
M0
  6
DASHDOT
100
AcDbLine
 10
198.957266
 20
809.973606
 11
198.957266
 21
800.243381
  0
LINE
  5
1EE
100
AcDbEntity
  8
M0
100
AcDbLine
 10
202.957266
 20
811.243381
 11
202.957266
 21
800.743137
  0
LINE
  5
1EF
100
AcDbEntity
  8
M0
100
AcDbLine
 10
194.957266
 20
809.24387
 11
194.957266
 21
800.243976
  0
LINE
  5
1F0
100
AcDbEntity
  8
M0
100
AcDbLine
 10
208.957266
 20
800.74387
 11
216.957266
 21
800.74387
  0
LINE
  5
1F1
100
AcDbEntity
  8
M0
  6
DASHDOT
100
AcDbLine
 10
208.957266
 20
804.74387
 11
216.957266
 21
804.74387
  0
LINE
  5
1F2
100
AcDbEntity
  8
M0
100
AcDbLine
 10
208.957266
 20
809.24387
 11
216.957266
 21
809.24387
  0
LINE
  5
1F3
100
AcDbEntity
  8
M0
100
AcDbLine
 10
204.957266
 20
811.243381
 11
204.957266
 21
810.24387
  0
LINE
  5
1F4
100
AcDbEntity
  8
M0
100
AcDbLine
 10
206.957266
 20
811.243381
 11
206.957266
 21
810.24387
  0
ARC
  5
1F5
100
AcDbEntity
  8
M0
100
AcDbCircle
 10
203.457266
 20
800.743137
 40
0.5
100
AcDbArc
 50
180.0
 51
269.998251
  0
ARC
  5
1F6
100
AcDbEntity
  8
M0
100
AcDbCircle
 10
207.457266
 20
811.243381
 40
0.5
100
AcDbArc
 50
90.0
 51
180.0
  0
ARC
  5
1F7
100
AcDbEntity
  8
M0
100
AcDbCircle
 10
203.457266
 20
811.243381
 40
0.5
100
AcDbArc
 50
90.0
 51
180.0
  0
ARC
  5
1F8
100
AcDbEntity
  8
M0
100
AcDbCircle
 10
208.457266
 20
811.243381
 40
0.5
100
AcDbArc
 50
0.0
 51
90.0
  0
ARC
  5
1F9
100
AcDbEntity
  8
M0
100
AcDbCircle
 10
204.457266
 20
811.243381
 40
0.5
100
AcDbArc
 50
0.0
 51
90.0
  0
LINE
  5
1FA
100
AcDbEntity
  8
M0
100
AcDbLine
 10
201.707266
 20
804.74387
 11
201.707266
 21
800.74387
  0
LINE
  5
1FB
100
AcDbEntity
  8
M0
100
AcDbLine
 10
196.207266
 20
804.74387
 11
196.207266
 21
800.74387
  0
ARC
  5
1FC
100
AcDbEntity
  8
M0
100
AcDbCircle
 10
194.457266
 20
809.24387
 40
0.5
100
AcDbArc
 50
0.0
 51
90.0
  0
LINE
  5
1FD
100
AcDbEntity
  8
M0
100
AcDbLine
 10
204.957266
 20
810.24387
 11
206.957266
 21
810.24387
  0
LINE
  5
1FE
100
AcDbEntity
  8
M0
  6
DIVIDE
100
AcDbLine
 10
203.457266
 20
808.24387
 11
203.457266
 21
804.74387
  0
LINE
  5
1FF
100
AcDbEntity
  8
M0
  6
DIVIDE
100
AcDbLine
 10
208.457266
 20
808.24387
 11
208.457266
 21
804.74387
  0
LINE
  5
200
100
AcDbEntity
  8
M0
  6
DIVIDE
100
AcDbLine
 10
203.457266
 20
808.24387
 11
208.457266
 21
808.24387
  0
LINE
  5
201
100
AcDbEntity
  8
M0
  6
DIVIDE
100
AcDbLine
 10
203.457266
 20
804.74387
 11
208.457266
 21
804.74387
  0
LINE
  5
202
100
AcDbEntity
  8
M0
100
AcDbLine
 10
298.957236
 20
650.243931
 11
289.207312
 21
650.243931
  0
LINE
  5
203
100
AcDbEntity
  8
M0
100
AcDbLine
 10
300.957327
 20
809.743137
 11
300.957236
 21
652.243931
  0
ARC
  5
204
100
AcDbEntity
  8
M0
100
AcDbCircle
 10
298.957236
 20
652.243931
 40
2.0
100
AcDbArc
 50
-90.000437
 51
0.0
  0
LINE
  5
205
100
AcDbEntity
  8
M0
100
AcDbLine
 10
244.457266
 20
811.743335
 11
269.457266
 21
811.743244
  0
ARC
  5
206
100
AcDbEntity
  8
M0
100
AcDbCircle
 10
298.957327
 20
809.743137
 40
2.0
100
AcDbArc
 50
0.0
 51
90.0
  0
LINE
  5
207
100
AcDbEntity
  8
M0
100
AcDbLine
 10
246.957343
 20
809.743625
 11
246.957343
 21
800.743625
  0
LINE
  5
208
100
AcDbEntity
  8
M0
100
AcDbLine
 10
254.957327
 20
809.243137
 11
254.957327
 21
800.243976
  0
LINE
  5
209
100
AcDbEntity
  8
M0
100
AcDbLine
 10
248.207327
 20
804.743625
 11
248.207327
 21
800.743625
  0
LINE
  5
20A
100
AcDbEntity
  8
M0
100
AcDbLine
 10
253.707327
 20
804.743625
 11
253.707327
 21
800.743625
  0
LINE
  5
20B
100
AcDbEntity
  8
M0
  6
DASHDOT
100
AcDbLine
 10
254.957327
 20
804.743625
 11
246.957343
 21
804.743625
  0
ARC
  5
20C
100
AcDbEntity
  8
M0
100
AcDbCircle
 10
250.957327
 20
804.743625
 40
2.75
100
AcDbArc
 50
0.0
 51
180.0
  0
CIRCLE
  5
20D
100
AcDbEntity
  8
M0
100
AcDbCircle
 10
250.957327
 20
804.743625
 40
2.0
  0
LINE
  5
20E
100
AcDbEntity
  8
M0
100
AcDbLine
 10
254.957327
 20
800.743625
 11
246.957343
 21
800.743625
  0
LINE
  5
20F
100
AcDbEntity
  8
M0
100
AcDbLine
 10
254.957327
 20
809.243625
 11
246.957343
 21
809.243625
  0
LINE
  5
210
100
AcDbEntity
  8
M0
100
AcDbLine
 10
258.957327
 20
810.743381
 11
258.957327
 21
802.243381
  0
LINE
  5
211
100
AcDbEntity
  8
M0
100
AcDbLine
 10
258.457266
 20
800.243381
 11
268.247107
 21
800.243381
  0
ARC
  5
212
100
AcDbEntity
  8
M0
100
AcDbCircle
 10
260.957327
 20
802.243381
 40
2.0
100
AcDbArc
 50
180.0
 51
269.999563
  0
ARC
  5
213
100
AcDbEntity
  8
M0
100
AcDbCircle
 10
258.457266
 20
799.743381
 40
0.5
100
AcDbArc
 50
90.0
 51
180.0
  0
LINE
  5
214
100
AcDbEntity
  8
M0
100
AcDbLine
 10
255.457327
 20
809.743137
 11
258.457327
 21
809.743137
  0
ARC
  5
215
100
AcDbEntity
  8
M0
100
AcDbCircle
 10
255.457327
 20
809.243137
 40
0.5
100
AcDbArc
 50
90.0
 51
180.0
  0
ARC
  5
216
100
AcDbEntity
  8
M0
100
AcDbCircle
 10
258.457327
 20
809.243137
 40
0.5
100
AcDbArc
 50
0.0
 51
90.0
  0
CIRCLE
  5
217
100
AcDbEntity
  8
M0
100
AcDbCircle
 10
198.957266
 20
804.74387
 40
2.0
  0
ARC
  5
218
100
AcDbEntity
  8
M0
100
AcDbCircle
 10
198.957266
 20
804.74387
 40
2.75
100
AcDbArc
 50
0.0
 51
180.0
  0
LINE
  5
219
100
AcDbEntity
  8
M0
100
AcDbLine
 10
162.957267
 20
809.743381
 11
162.957267
 21
652.243992
  0
LINE
  5
21A
100
AcDbEntity
  8
M0
  6
DASHDOT
100
AcDbLine
 10
157.957268
 20
725.243976
 11
308.457327
 21
725.243976
  0
ARC
  5
21B
100
AcDbEntity
  8
M0
100
AcDbCircle
 10
257.957327
 20
810.743381
 40
1.0
100
AcDbArc
 50
0.0
 51
90.0
  0
LINE
  5
21C
100
AcDbEntity
  8
M0
100
AcDbLine
 10
268.24761
 20
650.243946
 11
244.457266
 21
650.243976
  0
LINE
  5
21D
100
AcDbEntity
  8
M0
100
AcDbLine
 10
195.666937
 20
650.243992
 11
219.457266
 21
650.243992
  0
LINE
  5
21E
100
AcDbEntity
  8
M0
100
AcDbLine
 10
169.457267
 20
811.743397
 11
164.957267
 21
811.743381
  0
LINE
  5
21F
100
AcDbEntity
  8
M0
100
AcDbLine
 10
294.457266
 20
811.743152
 11
298.957327
 21
811.743137
  0
LINE
  5
220
100
AcDbEntity
  8
M0
  6
DASHDOT
100
AcDbLine
 10
250.957266
 20
809.88303
 11
250.957266
 21
800.243381
  0
LINE
  5
221
100
AcDbEntity
  8
M0
100
AcDbLine
 10
219.457266
 20
623.743992
 11
220.457266
 21
623.743992
  0
LINE
  5
222
100
AcDbEntity
  8
M0
100
AcDbLine
 10
244.457266
 20
623.743992
 11
244.457266
 21
650.243992
  0
LINE
  5
223
100
AcDbEntity
  8
M0
100
AcDbLine
 10
241.957266
 20
654.743992
 11
244.457266
 21
650.243992
  0
LINE
  5
224
100
AcDbEntity
  8
M0
100
AcDbLine
 10
221.957266
 20
654.743992
 11
219.457266
 21
650.243992
  0
LINE
  5
225
100
AcDbEntity
  8
M0
100
AcDbLine
 10
219.457266
 20
650.243992
 11
219.457266
 21
623.743992
  0
LINE
  5
226
100
AcDbEntity
  8
M0
100
AcDbLine
 10
221.957266
 20
660.243992
 11
221.957266
 21
654.743992
  0
LINE
  5
227
100
AcDbEntity
  8
M0
100
AcDbLine
 10
241.957266
 20
660.243992
 11
241.957266
 21
654.743992
  0
CIRCLE
  5
228
100
AcDbEntity
  8
M0
100
AcDbCircle
 10
231.957266
 20
636.243992
 40
5.0
  0
LINE
  5
229
100
AcDbEntity
  8
M0
  6
DASHDOT
100
AcDbLine
 10
231.957266
 20
656.259006
 11
231.957266
 21
616.228962
  0
LINE
  5
22A
100
AcDbEntity
  8
M0
  6
DASHDOT
100
AcDbLine
 10
211.942252
 20
636.243992
 11
251.972281
 21
636.243992
  0
LINE
  5
22B
100
AcDbEntity
  8
M0
100
AcDbLine
 10
239.957266
 20
715.243976
 11
223.957266
 21
715.243976
  0
LINE
  5
22C
100
AcDbEntity
  8
M0
100
AcDbLine
 10
239.957266
 20
719.243976
 11
239.957266
 21
715.243976
  0
LINE
  5
22D
100
AcDbEntity
  8
M0
100
AcDbLine
 10
223.957266
 20
719.243976
 11
223.957266
 21
715.243976
  0
LINE
  5
22E
100
AcDbEntity
  8
M0
100
AcDbLine
 10
223.657263
 20
719.243976
 11
223.957266
 21
719.243976
  0
LINE
  5
22F
100
AcDbEntity
  8
M0
100
AcDbLine
 10
240.257254
 20
735.543964
 11
235.957266
 21
735.543964
  0
LINE
  5
230
100
AcDbEntity
  8
M0
100
AcDbLine
 10
243.257254
 20
732.543964
 11
243.257254
 21
722.243976
  0
LINE
  5
231
100
AcDbEntity
  8
M0
100
AcDbLine
 10
220.657263
 20
732.543964
 11
220.657263
 21
722.243976
  0
ARC
  5
232
100
AcDbEntity
  8
M0
100
AcDbCircle
 10
240.257254
 20
732.543964
 40
3.0
100
AcDbArc
 50
0.0
 51
90.0
  0
ARC
  5
233
100
AcDbEntity
  8
M0
100
AcDbCircle
 10
223.657263
 20
732.543964
 40
3.0
100
AcDbArc
 50
90.0
 51
180.0
  0
ARC
  5
234
100
AcDbEntity
  8
M0
100
AcDbCircle
 10
223.657263
 20
722.243976
 40
3.0
100
AcDbArc
 50
180.0
 51
269.999709
  0
ARC
  5
235
100
AcDbEntity
  8
M0
100
AcDbCircle
 10
240.257254
 20
722.243976
 40
3.0
100
AcDbArc
 50
269.999709
 51
360.0
  0
LINE
  5
236
100
AcDbEntity
  8
M0
100
AcDbLine
 10
235.957266
 20
738.243976
 11
234.707266
 21
738.243976
  0
LINE
  5
237
100
AcDbEntity
  8
M0
100
AcDbLine
 10
233.707266
 20
741.243976
 11
230.207266
 21
741.243976
  0
LINE
  5
238
100
AcDbEntity
  8
M0
100
AcDbLine
 10
234.707266
 20
740.243976
 11
234.707266
 21
738.243976
  0
LINE
  5
239
100
AcDbEntity
  8
M0
100
AcDbLine
 10
229.207266
 20
740.243976
 11
229.207266
 21
738.243976
  0
LINE
  5
23A
100
AcDbEntity
  8
M0
100
AcDbLine
 10
235.957266
 20
738.243976
 11
235.957266
 21
735.543964
  0
LINE
  5
23B
100
AcDbEntity
  8
M0
100
AcDbLine
 10
227.957266
 20
738.243976
 11
227.957266
 21
735.543964
  0
ARC
  5
23C
100
AcDbEntity
  8
M0
100
AcDbCircle
 10
233.707266
 20
740.243976
 40
1.0
100
AcDbArc
 50
0.0
 51
90.0
  0
ARC
  5
23D
100
AcDbEntity
  8
M0
100
AcDbCircle
 10
230.207266
 20
740.243976
 40
1.0
100
AcDbArc
 50
90.0
 51
180.0
  0
LINE
  5
23E
100
AcDbEntity
  8
M0
100
AcDbLine
 10
239.957266
 20
719.243976
 11
240.257254
 21
719.243976
  0
LINE
  5
23F
100
AcDbEntity
  8
M0
100
AcDbLine
 10
227.957266
 20
735.543964
 11
223.657263
 21
735.543964
  0
LINE
  5
240
100
AcDbEntity
  8
M0
100
AcDbLine
 10
229.207266
 20
738.243976
 11
227.957266
 21
738.243976
  0
LINE
  5
241
100
AcDbEntity
  8
M0
  6
DIVIDE
100
AcDbLine
 10
150.957268
 20
752.743961
 11
150.957268
 21
697.743961
  0
LINE
  5
242
100
AcDbEntity
  8
M0
  6
DIVIDE
100
AcDbLine
 10
162.957267
 20
752.743976
 11
150.957268
 21
752.743961
  0
LINE
  5
243
100
AcDbEntity
  8
M0
  6
DIVIDE
100
AcDbLine
 10
162.957267
 20
697.743976
 11
150.957268
 21
697.743961
  0
LINE
  5
244
100
AcDbEntity
  8
M0
  6
DIVIDE
100
AcDbLine
 10
300.957266
 20
752.743976
 11
312.957266
 21
752.743961
  0
LINE
  5
245
100
AcDbEntity
  8
M0
  6
DIVIDE
100
AcDbLine
 10
312.957266
 20
752.743961
 11
312.957266
 21
697.743961
  0
LINE
  5
246
100
AcDbEntity
  8
M0
  6
DIVIDE
100
AcDbLine
 10
300.957266
 20
697.743976
 11
312.957266
 21
697.743961
  0
CIRCLE
  5
247
100
AcDbEntity
  8
M0
100
AcDbCircle
 10
281.957266
 20
636.243992
 40
5.0
  0
LINE
  5
248
100
AcDbEntity
  8
M0
  6
DASHDOT
100
AcDbLine
 10
261.942252
 20
636.243992
 11
301.972281
 21
636.243992
  0
LINE
  5
249
100
AcDbEntity
  8
M0
  6
DASHDOT
100
AcDbLine
 10
281.957266
 20
616.228962
 11
281.957266
 21
656.259006
  0
LINE
  5
24A
100
AcDbEntity
  8
M0
100
AcDbLine
 10
269.457266
 20
623.743992
 11
270.457266
 21
623.743992
  0
LINE
  5
24B
100
AcDbEntity
  8
M0
100
AcDbLine
 10
269.457266
 20
623.743992
 11
269.457266
 21
648.743992
  0
LINE
  5
24C
100
AcDbEntity
  8
M0
100
AcDbLine
 10
260.183066
 20
660.243992
 11
269.457266
 21
648.743992
  0
LINE
  5
24D
100
AcDbEntity
  8
M0
100
AcDbLine
 10
294.457266
 20
623.743992
 11
294.457266
 21
644.243992
  0
LINE
  5
24E
100
AcDbEntity
  8
M0
100
AcDbLine
 10
280.457266
 20
660.243992
 11
290.519766
 21
648.743992
  0
LINE
  5
24F
100
AcDbEntity
  8
M0
100
AcDbLine
 10
203.731451
 20
660.243992
 11
194.457266
 21
648.743992
  0
LINE
  5
250
100
AcDbEntity
  8
M0
100
AcDbLine
 10
194.457266
 20
623.743992
 11
194.457266
 21
648.743992
  0
LINE
  5
251
100
AcDbEntity
  8
M0
100
AcDbLine
 10
194.457266
 20
623.743992
 11
193.457266
 21
623.743992
  0
CIRCLE
  5
252
100
AcDbEntity
  8
M0
100
AcDbCircle
 10
181.957266
 20
636.243992
 40
5.0
  0
LINE
  5
253
100
AcDbEntity
  8
M0
  6
DASHDOT
100
AcDbLine
 10
181.957266
 20
616.228962
 11
181.957266
 21
656.259006
  0
LINE
  5
254
100
AcDbEntity
  8
M0
  6
DASHDOT
100
AcDbLine
 10
201.972281
 20
636.243992
 11
161.942253
 21
636.243992
  0
LINE
  5
255
100
AcDbEntity
  8
M0
100
AcDbLine
 10
169.457267
 20
623.743992
 11
169.457267
 21
644.243992
  0
LINE
  5
256
100
AcDbEntity
  8
M0
100
AcDbLine
 10
183.457266
 20
660.243992
 11
173.394767
 21
648.743992
  0
CIRCLE
  5
257
100
AcDbEntity
  8
M0
100
AcDbCircle
 10
281.957266
 20
814.243961
 40
5.0
  0
LINE
  5
258
100
AcDbEntity
  8
M0
  6
DASHDOT
100
AcDbLine
 10
261.942252
 20
814.243961
 11
301.972281
 21
814.243961
  0
LINE
  5
259
100
AcDbEntity
  8
M0
  6
DASHDOT
100
AcDbLine
 10
281.957266
 20
834.258991
 11
281.957266
 21
794.228946
  0
LINE
  5
25A
100
AcDbEntity
  8
M0
100
AcDbLine
 10
269.457266
 20
826.743961
 11
294.457266
 21
826.743961
  0
LINE
  5
25B
100
AcDbEntity
  8
M0
100
AcDbLine
 10
269.457266
 20
826.743961
 11
269.457266
 21
801.743961
  0
LINE
  5
25C
100
AcDbEntity
  8
M0
100
AcDbLine
 10
260.183066
 20
790.243976
 11
269.457266
 21
801.743961
  0
LINE
  5
25D
100
AcDbEntity
  8
M0
100
AcDbLine
 10
294.457266
 20
826.743961
 11
294.457266
 21
806.243961
  0
LINE
  5
25E
100
AcDbEntity
  8
M0
100
AcDbLine
 10
280.457266
 20
790.243976
 11
294.457266
 21
806.243961
  0
LINE
  5
25F
100
AcDbEntity
  8
M0
100
AcDbLine
 10
203.731451
 20
790.243976
 11
194.457266
 21
801.743961
  0
LINE
  5
260
100
AcDbEntity
  8
M0
100
AcDbLine
 10
194.457266
 20
826.743961
 11
194.457266
 21
801.743961
  0
LINE
  5
261
100
AcDbEntity
  8
M0
100
AcDbLine
 10
194.457266
 20
826.743961
 11
169.457267
 21
826.743961
  0
CIRCLE
  5
262
100
AcDbEntity
  8
M0
100
AcDbCircle
 10
181.957266
 20
814.243961
 40
5.0
  0
LINE
  5
263
100
AcDbEntity
  8
M0
  6
DASHDOT
100
AcDbLine
 10
181.957266
 20
834.258991
 11
181.957266
 21
794.228946
  0
LINE
  5
264
100
AcDbEntity
  8
M0
  6
DASHDOT
100
AcDbLine
 10
201.972281
 20
814.243961
 11
161.942253
 21
814.243961
  0
LINE
  5
265
100
AcDbEntity
  8
M0
100
AcDbLine
 10
169.457267
 20
826.743961
 11
169.457267
 21
806.243961
  0
LINE
  5
266
100
AcDbEntity
  8
M0
100
AcDbLine
 10
183.457266
 20
790.243976
 11
169.457267
 21
806.243961
  0
LINE
  5
267
100
AcDbEntity
  8
M0
100
AcDbLine
 10
219.457266
 20
826.743961
 11
244.457266
 21
826.743961
  0
LINE
  5
268
100
AcDbEntity
  8
M0
100
AcDbLine
 10
244.457266
 20
826.743961
 11
244.457266
 21
800.243961
  0
LINE
  5
269
100
AcDbEntity
  8
M0
100
AcDbLine
 10
241.957266
 20
795.743961
 11
244.457266
 21
800.243961
  0
LINE
  5
26A
100
AcDbEntity
  8
M0
100
AcDbLine
 10
221.957266
 20
795.743961
 11
219.457266
 21
800.243961
  0
LINE
  5
26B
100
AcDbEntity
  8
M0
100
AcDbLine
 10
219.457266
 20
800.243961
 11
219.457266
 21
826.743961
  0
LINE
  5
26C
100
AcDbEntity
  8
M0
100
AcDbLine
 10
221.957266
 20
790.243976
 11
221.957266
 21
795.743961
  0
LINE
  5
26D
100
AcDbEntity
  8
M0
100
AcDbLine
 10
241.957266
 20
790.243976
 11
241.957266
 21
795.743961
  0
CIRCLE
  5
26E
100
AcDbEntity
  8
M0
100
AcDbCircle
 10
231.957266
 20
814.243961
 40
5.0
  0
LINE
  5
26F
100
AcDbEntity
  8
M0
  6
DASHDOT
100
AcDbLine
 10
231.957266
 20
794.228946
 11
231.957266
 21
834.258991
  0
LINE
  5
270
100
AcDbEntity
  8
M0
  6
DASHDOT
100
AcDbLine
 10
211.942252
 20
814.243961
 11
251.972281
 21
814.243961
  0
LINE
  5
271
100
AcDbEntity
  8
M0
100
AcDbLine
 10
231.957266
 20
804.443989
 11
223.47045
 21
809.343982
  0
LINE
  5
272
100
AcDbEntity
  8
M0
100
AcDbLine
 10
223.47045
 20
809.343982
 11
223.47045
 21
819.144001
  0
LINE
  5
273
100
AcDbEntity
  8
M0
100
AcDbLine
 10
223.47045
 20
819.144001
 11
231.957266
 21
824.043995
  0
LINE
  5
274
100
AcDbEntity
  8
M0
100
AcDbLine
 10
231.957266
 20
824.043995
 11
240.444571
 21
819.14397
  0
LINE
  5
275
100
AcDbEntity
  8
M0
100
AcDbLine
 10
240.444571
 20
819.14397
 11
240.444571
 21
809.343982
  0
LINE
  5
276
100
AcDbEntity
  8
M0
100
AcDbLine
 10
240.444571
 20
809.343982
 11
231.957266
 21
804.443989
  0
CIRCLE
  5
277
100
AcDbEntity
  8
M0
100
AcDbCircle
 10
231.957266
 20
814.243976
 40
5.0
  0
LINE
  5
278
100
AcDbEntity
  8
M0
  6
DASHDOT
100
AcDbLine
 10
242.444449
 20
814.243885
 11
221.470038
 21
814.243885
  0
LINE
  5
279
100
AcDbEntity
  8
M0
  6
DASHDOT
100
AcDbLine
 10
231.957236
 20
824.731083
 11
231.957251
 21
803.756672
  0
LINE
  5
27A
100
AcDbEntity
  8
M0
100
AcDbLine
 10
181.957266
 20
804.443989
 11
173.470451
 21
809.343982
  0
LINE
  5
27B
100
AcDbEntity
  8
M0
100
AcDbLine
 10
173.470451
 20
809.343982
 11
173.470451
 21
819.144001
  0
LINE
  5
27C
100
AcDbEntity
  8
M0
100
AcDbLine
 10
173.470451
 20
819.144001
 11
181.957266
 21
824.043995
  0
LINE
  5
27D
100
AcDbEntity
  8
M0
100
AcDbLine
 10
181.957266
 20
824.043995
 11
190.444571
 21
819.14397
  0
LINE
  5
27E
100
AcDbEntity
  8
M0
100
AcDbLine
 10
190.444571
 20
819.14397
 11
190.444571
 21
809.343982
  0
LINE
  5
27F
100
AcDbEntity
  8
M0
100
AcDbLine
 10
190.444571
 20
809.343982
 11
181.957266
 21
804.443989
  0
CIRCLE
  5
280
100
AcDbEntity
  8
M0
100
AcDbCircle
 10
181.957266
 20
814.243976
 40
5.0
  0
LINE
  5
281
100
AcDbEntity
  8
M0
  6
DASHDOT
100
AcDbLine
 10
192.444449
 20
814.243885
 11
171.470039
 21
814.243885
  0
LINE
  5
282
100
AcDbEntity
  8
M0
  6
DASHDOT
100
AcDbLine
 10
181.957236
 20
824.731083
 11
181.957251
 21
803.756672
  0
LINE
  5
283
100
AcDbEntity
  8
M0
100
AcDbLine
 10
281.957266
 20
804.443973
 11
273.47045
 21
809.343967
  0
LINE
  5
284
100
AcDbEntity
  8
M0
100
AcDbLine
 10
273.47045
 20
809.343967
 11
273.47045
 21
819.143985
  0
LINE
  5
285
100
AcDbEntity
  8
M0
100
AcDbLine
 10
273.47045
 20
819.143985
 11
281.957266
 21
824.043979
  0
LINE
  5
286
100
AcDbEntity
  8
M0
100
AcDbLine
 10
281.957266
 20
824.043979
 11
290.444571
 21
819.143955
  0
LINE
  5
287
100
AcDbEntity
  8
M0
100
AcDbLine
 10
290.444571
 20
819.143955
 11
290.444571
 21
809.343967
  0
LINE
  5
288
100
AcDbEntity
  8
M0
100
AcDbLine
 10
290.444571
 20
809.343967
 11
281.957266
 21
804.443973
  0
CIRCLE
  5
289
100
AcDbEntity
  8
M0
100
AcDbCircle
 10
281.957266
 20
814.243961
 40
5.0
  0
LINE
  5
28A
100
AcDbEntity
  8
M0
  6
DASHDOT
100
AcDbLine
 10
292.444449
 20
814.24387
 11
271.470038
 21
814.24387
  0
LINE
  5
28B
100
AcDbEntity
  8
M0
  6
DASHDOT
100
AcDbLine
 10
281.957236
 20
824.731067
 11
281.957251
 21
803.756656
  0
LINE
  5
28C
100
AcDbEntity
  8
M0
100
AcDbLine
 10
181.957266
 20
626.444004
 11
173.470451
 21
631.343998
  0
LINE
  5
28D
100
AcDbEntity
  8
M0
100
AcDbLine
 10
173.470451
 20
631.343998
 11
173.470451
 21
641.144016
  0
LINE
  5
28E
100
AcDbEntity
  8
M0
100
AcDbLine
 10
173.470451
 20
641.144016
 11
181.957266
 21
646.04401
  0
LINE
  5
28F
100
AcDbEntity
  8
M0
100
AcDbLine
 10
181.957266
 20
646.04401
 11
190.444571
 21
641.143985
  0
LINE
  5
290
100
AcDbEntity
  8
M0
100
AcDbLine
 10
190.444571
 20
641.143985
 11
190.444571
 21
631.343998
  0
LINE
  5
291
100
AcDbEntity
  8
M0
100
AcDbLine
 10
190.444571
 20
631.343998
 11
181.957266
 21
626.444004
  0
CIRCLE
  5
292
100
AcDbEntity
  8
M0
100
AcDbCircle
 10
181.957266
 20
636.243992
 40
5.0
  0
LINE
  5
293
100
AcDbEntity
  8
M0
  6
DASHDOT
100
AcDbLine
 10
192.444449
 20
636.2439
 11
171.470039
 21
636.2439
  0
LINE
  5
294
100
AcDbEntity
  8
M0
  6
DASHDOT
100
AcDbLine
 10
181.957236
 20
646.731098
 11
181.957251
 21
625.756687
  0
LINE
  5
295
100
AcDbEntity
  8
M0
100
AcDbLine
 10
231.957266
 20
626.444004
 11
223.47045
 21
631.343998
  0
LINE
  5
296
100
AcDbEntity
  8
M0
100
AcDbLine
 10
223.47045
 20
631.343998
 11
223.47045
 21
641.144016
  0
LINE
  5
297
100
AcDbEntity
  8
M0
100
AcDbLine
 10
223.47045
 20
641.144016
 11
231.957266
 21
646.04401
  0
LINE
  5
298
100
AcDbEntity
  8
M0
100
AcDbLine
 10
231.957266
 20
646.04401
 11
240.444571
 21
641.143985
  0
LINE
  5
299
100
AcDbEntity
  8
M0
100
AcDbLine
 10
240.444571
 20
641.143985
 11
240.444571
 21
631.343998
  0
LINE
  5
29A
100
AcDbEntity
  8
M0
100
AcDbLine
 10
240.444571
 20
631.343998
 11
231.957266
 21
626.444004
  0
CIRCLE
  5
29B
100
AcDbEntity
  8
M0
100
AcDbCircle
 10
231.957266
 20
636.243992
 40
5.0
  0
LINE
  5
29C
100
AcDbEntity
  8
M0
  6
DASHDOT
100
AcDbLine
 10
242.444449
 20
636.2439
 11
221.470038
 21
636.2439
  0
LINE
  5
29D
100
AcDbEntity
  8
M0
  6
DASHDOT
100
AcDbLine
 10
231.957236
 20
646.731098
 11
231.957251
 21
625.756687
  0
LINE
  5
29E
100
AcDbEntity
  8
M0
100
AcDbLine
 10
281.957266
 20
626.444004
 11
273.47045
 21
631.343998
  0
LINE
  5
29F
100
AcDbEntity
  8
M0
100
AcDbLine
 10
273.47045
 20
631.343998
 11
273.47045
 21
641.144016
  0
LINE
  5
2A0
100
AcDbEntity
  8
M0
100
AcDbLine
 10
273.47045
 20
641.144016
 11
281.957266
 21
646.04401
  0
LINE
  5
2A1
100
AcDbEntity
  8
M0
100
AcDbLine
 10
281.957266
 20
646.04401
 11
290.444571
 21
641.143985
  0
LINE
  5
2A2
100
AcDbEntity
  8
M0
100
AcDbLine
 10
290.444571
 20
641.143985
 11
290.444571
 21
631.343998
  0
LINE
  5
2A3
100
AcDbEntity
  8
M0
100
AcDbLine
 10
290.444571
 20
631.343998
 11
281.957266
 21
626.444004
  0
CIRCLE
  5
2A4
100
AcDbEntity
  8
M0
100
AcDbCircle
 10
281.957266
 20
636.243992
 40
5.0
  0
LINE
  5
2A5
100
AcDbEntity
  8
M0
  6
DASHDOT
100
AcDbLine
 10
292.444449
 20
636.2439
 11
271.470038
 21
636.2439
  0
LINE
  5
2A6
100
AcDbEntity
  8
M0
  6
DASHDOT
100
AcDbLine
 10
281.957236
 20
646.731098
 11
281.957251
 21
625.756687
  0
LINE
  5
2A7
100
AcDbEntity
  8
M0
100
AcDbLine
 10
170.457267
 20
645.386844
 11
169.457267
 21
644.243992
  0
LINE
  5
2A8
100
AcDbEntity
  8
M0
100
AcDbLine
 10
170.457267
 20
623.743992
 11
169.457267
 21
623.743992
  0
LINE
  5
2A9
100
AcDbEntity
  8
M0
100
AcDbLine
 10
243.457266
 20
623.743992
 11
244.457266
 21
623.743992
  0
LINE
  5
2AA
100
AcDbEntity
  8
M0
100
AcDbLine
 10
293.457266
 20
623.743992
 11
294.457266
 21
623.743992
  0
LINE
  5
2AB
100
AcDbEntity
  8
M0
100
AcDbLine
 10
293.457266
 20
645.386844
 11
294.457266
 21
644.243992
  0
LINE
  5
2AC
100
AcDbEntity
  8
M0
100
AcDbLine
 10
194.557257
 20
610.243992
 11
220.457266
 21
610.243992
  0
LINE
  5
2AD
100
AcDbEntity
  8
M0
100
AcDbLine
 10
243.457266
 20
610.243992
 11
269.35726
 21
610.243992
  0
LINE
  5
2AE
100
AcDbEntity
  8
M0
100
AcDbLine
 10
294.557257
 20
610.243992
 11
295.957266
 21
610.243992
  0
LINE
  5
2AF
100
AcDbEntity
  8
M0
100
AcDbLine
 10
228.957083
 20
722.993976
 11
234.957083
 21
722.993976
  0
LINE
  5
2B0
100
AcDbEntity
  8
M0
100
AcDbLine
 10
234.957083
 20
722.993976
 11
234.957083
 21
727.493976
  0
LINE
  5
2B1
100
AcDbEntity
  8
M0
100
AcDbLine
 10
234.957083
 20
727.493976
 11
228.957083
 21
727.493976
  0
LINE
  5
2B2
100
AcDbEntity
  8
M0
100
AcDbLine
 10
228.957083
 20
727.493976
 11
228.957083
 21
722.993976
  0
TEXT
  5
2B3
100
AcDbEntity
  8
M0
100
AcDbText
 10
203.632295
 20
804.793674
 40
3.5
  1
Ａ２
 41
0.64286
  7
STANDARD
100
AcDbText
  0
LINE
  5
2B4
100
AcDbEntity
  8
M0
100
AcDbLine
 10
579.5604
 20
610.243992
 11
579.5604
 21
840.243976
  0
LINE
  5
2B5
100
AcDbEntity
  8
M0
100
AcDbLine
 10
577.260413
 20
840.243976
 11
577.260413
 21
610.243992
  0
LINE
  5
2B6
100
AcDbEntity
  8
M0
  6
DASHDOT
100
AcDbLine
 10
572.260413
 20
725.243976
 11
584.5604
 21
725.243976
  0
LINE
  5
2B7
100
AcDbEntity
  8
M0
100
AcDbLine
 10
577.260413
 20
610.243992
 11
580.0604
 21
610.243992
  0
LINE
  5
2B8
100
AcDbEntity
  8
M0
100
AcDbLine
 10
580.0604
 20
610.243992
 11
580.0604
 21
630.243992
  0
LINE
  5
2B9
100
AcDbEntity
  8
M0
100
AcDbLine
 10
579.5604
 20
630.243992
 11
580.0604
 21
630.243992
  0
LINE
  5
2BA
100
AcDbEntity
  8
M0
100
AcDbLine
 10
580.0604
 20
840.243976
 11
580.0604
 21
820.243976
  0
LINE
  5
2BB
100
AcDbEntity
  8
M0
100
AcDbLine
 10
579.5604
 20
820.243976
 11
580.0604
 21
820.243976
  0
LINE
  5
2BC
100
AcDbEntity
  8
M0
100
AcDbLine
 10
580.0604
 20
840.243976
 11
577.260413
 21
840.243976
  0
ARC
  5
2BD
100
AcDbEntity
  8
M0
100
AcDbCircle
 10
391.660422
 20
798.243976
 40
2.0
100
AcDbArc
 50
89.999563
 51
180.0
  0
LINE
  5
2BE
100
AcDbEntity
  8
M0
100
AcDbLine
 10
389.660422
 20
798.243976
 11
389.660422
 21
652.243992
  0
ARC
  5
2BF
100
AcDbEntity
  8
M0
100
AcDbCircle
 10
391.660422
 20
652.243992
 40
2.0
100
AcDbArc
 50
179.999563
 51
270.0
  0
ARC
  5
2C0
100
AcDbEntity
  8
M0
100
AcDbCircle
 10
391.660422
 20
788.243976
 40
2.0
100
AcDbArc
 50
89.999563
 51
180.0
  0
ARC
  5
2C1
100
AcDbEntity
  8
M0
100
AcDbCircle
 10
391.660422
 20
662.243992
 40
2.0
100
AcDbArc
 50
179.999563
 51
270.0
  0
LINE
  5
2C2
100
AcDbEntity
  8
M0
100
AcDbLine
 10
391.660422
 20
800.243976
 11
471.260428
 21
800.243976
  0
LINE
  5
2C3
100
AcDbEntity
  8
M0
100
AcDbLine
 10
391.660422
 20
790.243976
 11
471.260428
 21
790.243976
  0
LINE
  5
2C4
100
AcDbEntity
  8
M0
100
AcDbLine
 10
391.660422
 20
650.243992
 11
471.260428
 21
650.243992
  0
LINE
  5
2C5
100
AcDbEntity
  8
M0
100
AcDbLine
 10
391.660422
 20
660.243992
 11
471.260428
 21
660.243992
  0
LINE
  5
2C6
100
AcDbEntity
  8
M0
100
AcDbLine
 10
471.260428
 20
650.243992
 11
471.260428
 21
660.243992
  0
LINE
  5
2C7
100
AcDbEntity
  8
M0
100
AcDbLine
 10
471.260428
 20
790.243976
 11
471.260428
 21
800.243976
  0
LINE
  5
2C8
100
AcDbEntity
  8
M0
  6
DASHDOT
100
AcDbLine
 10
424.771582
 20
725.243976
 11
527.658698
 21
725.243976
  0
LINE
  5
2C9
100
AcDbEntity
  8
M0
100
AcDbLine
 10
443.260428
 20
728.993976
 11
443.260428
 21
721.493976
  0
ARC
  5
2CA
100
AcDbEntity
  8
M0
100
AcDbCircle
 10
437.760428
 20
720.493976
 40
1.0
100
AcDbArc
 50
89.999126
 51
180.0
  0
LINE
  5
2CB
100
AcDbEntity
  8
M0
100
AcDbLine
 10
437.760428
 20
721.493976
 11
443.260428
 21
721.493976
  0
LINE
  5
2CC
100
AcDbEntity
  8
M0
100
AcDbLine
 10
437.760428
 20
728.993976
 11
443.260428
 21
728.993976
  0
LINE
  5
2CD
100
AcDbEntity
  8
M0
100
AcDbLine
 10
511.260413
 20
811.743976
 11
498.760414
 21
811.743976
  0
ARC
  5
2CE
100
AcDbEntity
  8
M0
100
AcDbCircle
 10
498.760414
 20
810.743976
 40
1.0
100
AcDbArc
 50
90.0
 51
180.0
  0
LINE
  5
2CF
100
AcDbEntity
  8
M0
100
AcDbLine
 10
497.760414
 20
810.743976
 11
497.760414
 21
762.243976
  0
ARC
  5
2D0
100
AcDbEntity
  8
M0
100
AcDbCircle
 10
495.760414
 20
762.243976
 40
2.0
100
AcDbArc
 50
270.0
 51
360.0
  0
LINE
  5
2D1
100
AcDbEntity
  8
M0
100
AcDbLine
 10
487.760415
 20
760.243976
 11
495.760414
 21
760.243976
  0
ARC
  5
2D2
100
AcDbEntity
  8
M0
100
AcDbCircle
 10
487.760415
 20
759.243976
 40
1.0
100
AcDbArc
 50
90.0
 51
180.0
  0
ARC
  5
2D3
100
AcDbEntity
  8
M0
100
AcDbCircle
 10
438.760428
 20
740.743976
 40
2.0
100
AcDbArc
 50
89.999563
 51
180.0
  0
LINE
  5
2D4
100
AcDbEntity
  8
M0
100
AcDbLine
 10
456.760428
 20
740.243976
 11
460.760428
 21
740.243976
  0
LINE
  5
2D5
100
AcDbEntity
  8
M0
100
AcDbLine
 10
438.760428
 20
742.743976
 11
456.760428
 21
742.743976
  0
LINE
  5
2D6
100
AcDbEntity
  8
M0
100
AcDbLine
 10
456.760428
 20
742.743976
 11
456.760428
 21
740.243976
  0
LINE
  5
2D7
100
AcDbEntity
  8
M0
100
AcDbLine
 10
460.760428
 20
742.84499
 11
460.760428
 21
740.243976
  0
ARC
  5
2D8
100
AcDbEntity
  8
M0
100
AcDbCircle
 10
459.760428
 20
747.743976
 40
5.0
100
AcDbArc
 50
281.536942
 51
360.0
  0
LINE
  5
2D9
100
AcDbEntity
  8
M0
100
AcDbLine
 10
464.760428
 20
750.743976
 11
464.760428
 21
747.743976
  0
ARC
  5
2DA
100
AcDbEntity
  8
M0
100
AcDbCircle
 10
466.760428
 20
750.743976
 40
2.0
100
AcDbArc
 50
89.999563
 51
180.0
  0
LINE
  5
2DB
100
AcDbEntity
  8
M0
100
AcDbLine
 10
479.760415
 20
751.743976
 11
486.760415
 21
751.743976
  0
LINE
  5
2DC
100
AcDbEntity
  8
M0
100
AcDbLine
 10
478.760415
 20
752.743976
 11
479.760415
 21
751.743976
  0
LINE
  5
2DD
100
AcDbEntity
  8
M0
100
AcDbLine
 10
486.760415
 20
759.243976
 11
486.760415
 21
751.743976
  0
LINE
  5
2DE
100
AcDbEntity
  8
M0
100
AcDbLine
 10
466.760428
 20
752.743976
 11
478.760415
 21
752.743976
  0
LINE
  5
2DF
100
AcDbEntity
  8
M0
100
AcDbLine
 10
511.260413
 20
650.243992
 11
472.260428
 21
650.243992
  0
ARC
  5
2E0
100
AcDbEntity
  8
M0
100
AcDbCircle
 10
498.760414
 20
651.243992
 40
1.0
100
AcDbArc
 50
179.999126
 51
270.0
  0
LINE
  5
2E1
100
AcDbEntity
  8
M0
100
AcDbLine
 10
497.760414
 20
651.243992
 11
497.760414
 21
688.243992
  0
ARC
  5
2E2
100
AcDbEntity
  8
M0
100
AcDbCircle
 10
495.760414
 20
688.243992
 40
2.0
100
AcDbArc
 50
0.0
 51
90.0
  0
LINE
  5
2E3
100
AcDbEntity
  8
M0
100
AcDbLine
 10
487.760415
 20
690.243981
 11
495.760414
 21
690.243981
  0
ARC
  5
2E4
100
AcDbEntity
  8
M0
100
AcDbCircle
 10
487.760415
 20
691.243981
 40
1.0
100
AcDbArc
 50
180.0
 51
270.0
  0
ARC
  5
2E5
100
AcDbEntity
  8
M0
100
AcDbCircle
 10
438.760428
 20
709.743976
 40
2.0
100
AcDbArc
 50
180.0
 51
270.0
  0
LINE
  5
2E6
100
AcDbEntity
  8
M0
100
AcDbLine
 10
456.760428
 20
710.243976
 11
460.760428
 21
710.243976
  0
LINE
  5
2E7
100
AcDbEntity
  8
M0
100
AcDbLine
 10
438.760428
 20
707.743976
 11
456.760428
 21
707.743976
  0
LINE
  5
2E8
100
AcDbEntity
  8
M0
100
AcDbLine
 10
456.760428
 20
707.743976
 11
456.760428
 21
710.243976
  0
LINE
  5
2E9
100
AcDbEntity
  8
M0
100
AcDbLine
 10
460.760428
 20
707.642948
 11
460.760428
 21
710.243976
  0
ARC
  5
2EA
100
AcDbEntity
  8
M0
100
AcDbCircle
 10
459.760428
 20
702.743981
 40
5.0
100
AcDbArc
 50
0.0
 51
78.462841
  0
LINE
  5
2EB
100
AcDbEntity
  8
M0
100
AcDbLine
 10
464.760428
 20
699.743981
 11
464.760428
 21
702.743981
  0
ARC
  5
2EC
100
AcDbEntity
  8
M0
100
AcDbCircle
 10
466.760428
 20
699.743981
 40
2.0
100
AcDbArc
 50
179.999973
 51
270.0
  0
LINE
  5
2ED
100
AcDbEntity
  8
M0
100
AcDbLine
 10
479.760415
 20
698.743981
 11
486.760415
 21
698.743981
  0
LINE
  5
2EE
100
AcDbEntity
  8
M0
100
AcDbLine
 10
478.760415
 20
697.743981
 11
479.760415
 21
698.743981
  0
LINE
  5
2EF
100
AcDbEntity
  8
M0
100
AcDbLine
 10
486.760415
 20
691.243981
 11
486.760415
 21
698.743981
  0
LINE
  5
2F0
100
AcDbEntity
  8
M0
100
AcDbLine
 10
466.760428
 20
697.743981
 11
478.760415
 21
697.743981
  0
LINE
  5
2F1
100
AcDbEntity
  8
M0
100
AcDbLine
 10
436.760428
 20
740.743976
 11
436.760428
 21
709.743976
  0
LINE
  5
2F2
100
AcDbEntity
  8
M0
100
AcDbLine
 10
511.260413
 20
650.243992
 11
511.260413
 21
702.743981
  0
ARC
  5
2F3
100
AcDbEntity
  8
M0
100
AcDbCircle
 10
437.760428
 20
729.993976
 40
1.0
100
AcDbArc
 50
180.0
 51
270.0
  0
LINE
  5
2F4
100
AcDbEntity
  8
M0
100
AcDbLine
 10
511.260413
 20
747.743976
 11
511.260413
 21
811.743976
  0
LINE
  5
2F5
100
AcDbEntity
  8
M0
100
AcDbLine
 10
511.260413
 20
650.243992
 11
577.260413
 21
650.243992
  0
LINE
  5
2F6
100
AcDbEntity
  8
M0
  6
DASHDOT
100
AcDbLine
 10
506.260413
 20
725.243976
 11
582.260413
 21
725.243976
  0
LINE
  5
2F7
100
AcDbEntity
  8
M0
100
AcDbLine
 10
501.760414
 20
746.743976
 11
501.760414
 21
733.243976
  0
LINE
  5
2F8
100
AcDbEntity
  8
M0
100
AcDbLine
 10
502.760414
 20
747.743976
 11
511.260413
 21
747.743976
  0
LINE
  5
2F9
100
AcDbEntity
  8
M0
100
AcDbLine
 10
502.760414
 20
702.743981
 11
511.260413
 21
702.743981
  0
LINE
  5
2FA
100
AcDbEntity
  8
M0
100
AcDbLine
 10
504.760414
 20
731.243976
 11
521.060217
 21
731.243976
  0
LINE
  5
2FB
100
AcDbEntity
  8
M0
100
AcDbLine
 10
504.760414
 20
719.243976
 11
521.060217
 21
719.243976
  0
LINE
  5
2FC
100
AcDbEntity
  8
M0
100
AcDbLine
 10
521.060217
 20
731.243976
 11
521.060217
 21
727.243976
  0
LINE
  5
2FD
100
AcDbEntity
  8
M0
100
AcDbLine
 10
520.060217
 20
726.243976
 11
520.060217
 21
724.243976
  0
LINE
  5
2FE
100
AcDbEntity
  8
M0
100
AcDbLine
 10
520.060217
 20
724.243976
 11
521.060217
 21
723.243976
  0
LINE
  5
2FF
100
AcDbEntity
  8
M0
100
AcDbLine
 10
520.060217
 20
726.243976
 11
521.060217
 21
727.243976
  0
LINE
  5
300
100
AcDbEntity
  8
M0
100
AcDbLine
 10
521.060217
 20
723.243976
 11
521.060217
 21
719.243976
  0
LINE
  5
301
100
AcDbEntity
  8
M0
100
AcDbLine
 10
502.760414
 20
732.243976
 11
503.760414
 21
732.243976
  0
LINE
  5
302
100
AcDbEntity
  8
M0
100
AcDbLine
 10
502.760414
 20
718.243976
 11
503.760414
 21
718.243976
  0
LINE
  5
303
100
AcDbEntity
  8
M0
100
AcDbLine
 10
501.760414
 20
717.243976
 11
501.760414
 21
703.743981
  0
LINE
  5
304
100
AcDbEntity
  8
M0
100
AcDbLine
 10
511.260413
 20
702.743981
 11
511.260413
 21
650.243992
  0
ARC
  5
305
100
AcDbEntity
  8
M0
100
AcDbCircle
 10
502.760414
 20
746.743976
 40
1.0
100
AcDbArc
 50
90.0
 51
180.0
  0
ARC
  5
306
100
AcDbEntity
  8
M0
100
AcDbCircle
 10
502.760414
 20
703.743981
 40
1.0
100
AcDbArc
 50
180.0
 51
270.0
  0
ARC
  5
307
100
AcDbEntity
  8
M0
100
AcDbCircle
 10
502.760414
 20
733.243976
 40
1.0
100
AcDbArc
 50
180.0
 51
270.0
  0
ARC
  5
308
100
AcDbEntity
  8
M0
100
AcDbCircle
 10
504.760414
 20
732.243976
 40
1.0
100
AcDbArc
 50
180.0
 51
270.0
  0
ARC
  5
309
100
AcDbEntity
  8
M0
100
AcDbCircle
 10
502.760414
 20
717.243976
 40
1.0
100
AcDbArc
 50
90.0
 51
180.0
  0
ARC
  5
30A
100
AcDbEntity
  8
M0
100
AcDbCircle
 10
504.760414
 20
718.243976
 40
1.0
100
AcDbArc
 50
90.0
 51
180.0
  0
ARC
  5
30B
100
AcDbEntity
  8
M0
100
AcDbCircle
 10
519.060217
 20
730.243976
 40
2.0
100
AcDbArc
 50
0.0
 51
30.001722
  0
ARC
  5
30C
100
AcDbEntity
  8
M0
100
AcDbCircle
 10
519.060217
 20
720.243976
 40
2.0
100
AcDbArc
 50
329.9979
 51
360.0
  0
ARC
  5
30D
100
AcDbEntity
  8
M0
100
AcDbCircle
 10
519.060217
 20
720.243976
 40
2.0
100
AcDbArc
 50
269.999563
 51
329.9979
  0
LINE
  5
30E
100
AcDbEntity
  8
M0
100
AcDbLine
 10
503.760414
 20
718.243976
 11
519.060217
 21
718.243976
  0
LINE
  5
30F
100
AcDbEntity
  8
M0
100
AcDbLine
 10
503.760414
 20
732.243976
 11
519.060217
 21
732.243976
  0
ARC
  5
310
100
AcDbEntity
  8
M0
100
AcDbCircle
 10
519.060217
 20
730.243976
 40
2.0
100
AcDbArc
 50
30.001722
 51
90.0
  0
LINE
  5
311
100
AcDbEntity
  8
M0
100
AcDbLine
 10
577.260413
 20
650.243992
 11
577.260413
 21
811.74358
  0
LINE
  5
312
100
AcDbEntity
  8
M0
100
AcDbLine
 10
511.260413
 20
811.74358
 11
511.260413
 21
747.743976
  0
LINE
  5
313
100
AcDbEntity
  8
M0
100
AcDbLine
 10
577.260413
 20
811.743824
 11
511.260413
 21
811.743824
  0
LINE
  5
314
100
AcDbEntity
  8
M0
100
AcDbLine
 10
471.260428
 20
799.243976
 11
471.260428
 21
752.743976
  0
LINE
  5
315
100
AcDbEntity
  8
M0
100
AcDbLine
 10
472.260428
 20
800.243976
 11
497.760414
 21
800.243976
  0
ARC
  5
316
100
AcDbEntity
  8
M0
100
AcDbCircle
 10
472.260428
 20
799.243976
 40
1.0
100
AcDbArc
 50
89.999126
 51
180.0
  0
ARC
  5
317
100
AcDbEntity
  8
M0
100
AcDbCircle
 10
472.260428
 20
651.243992
 40
1.0
100
AcDbArc
 50
179.999126
 51
270.0
  0
LINE
  5
318
100
AcDbEntity
  8
M0
100
AcDbLine
 10
471.260428
 20
697.743981
 11
471.260428
 21
651.243992
  0
LINE
  5
319
100
AcDbEntity
  8
M0
100
AcDbLine
 10
491.260414
 20
730.243976
 11
491.260414
 21
720.243976
  0
LINE
  5
31A
100
AcDbEntity
  8
M0
100
AcDbLine
 10
501.760414
 20
743.224277
 11
501.760414
 21
715.561451
  0
LINE
  5
31B
100
AcDbEntity
  8
M0
100
AcDbLine
 10
493.260414
 20
718.243976
 11
501.760414
 21
718.243976
  0
LINE
  5
31C
100
AcDbEntity
  8
M0
100
AcDbLine
 10
493.260414
 20
732.243976
 11
501.760414
 21
732.243976
  0
ARC
  5
31D
100
AcDbEntity
  8
M0
100
AcDbCircle
 10
493.260414
 20
730.243976
 40
2.0
100
AcDbArc
 50
90.0
 51
180.0
  0
ARC
  5
31E
100
AcDbEntity
  8
M0
100
AcDbCircle
 10
493.260414
 20
720.243976
 40
2.0
100
AcDbArc
 50
180.0
 51
270.0
  0
LINE
  5
31F
100
AcDbEntity
  8
M0
100
AcDbLine
 10
477.060415
 20
826.743976
 11
477.060415
 21
800.243976
  0
LINE
  5
320
100
AcDbEntity
  8
M0
100
AcDbLine
 10
481.860415
 20
826.743976
 11
481.860415
 21
800.243976
  0
LINE
  5
321
100
AcDbEntity
  8
M0
100
AcDbLine
 10
477.060415
 20
826.743976
 11
481.860415
 21
826.743976
  0
LINE
  5
322
100
AcDbEntity
  8
M0
100
AcDbLine
 10
477.060415
 20
826.743976
 11
481.860415
 21
826.743976
  0
LINE
  5
323
100
AcDbEntity
  8
M0
100
AcDbLine
 10
477.060415
 20
623.743992
 11
481.860415
 21
623.743992
  0
LINE
  5
324
100
AcDbEntity
  8
M0
100
AcDbLine
 10
477.060415
 20
623.743992
 11
481.860415
 21
623.743992
  0
LINE
  5
325
100
AcDbEntity
  8
M0
100
AcDbLine
 10
477.060415
 20
623.743992
 11
477.060415
 21
650.243992
  0
LINE
  5
326
100
AcDbEntity
  8
M0
100
AcDbLine
 10
481.860415
 20
623.743992
 11
481.860415
 21
650.243992
  0
LINE
  5
327
100
AcDbEntity
  8
M0
  6
DIVIDE
100
AcDbLine
 10
473.060415
 20
708.82085
 11
473.060415
 21
697.743981
  0
LINE
  5
328
100
AcDbEntity
  8
M0
  6
DIVIDE
100
AcDbLine
 10
444.060416
 20
717.228183
 11
444.060416
 21
707.743976
  0
LINE
  5
329
100
AcDbEntity
  8
M0
  6
DIVIDE
100
AcDbLine
 10
445.560416
 20
717.228183
 11
445.560416
 21
707.743976
  0
LINE
  5
32A
100
AcDbEntity
  8
M0
  6
DIVIDE
100
AcDbLine
 10
474.560415
 20
708.82085
 11
474.560415
 21
697.743981
  0
LINE
  5
32B
100
AcDbEntity
  8
M0
100
AcDbLine
 10
451.860419
 20
809.243976
 11
451.860419
 21
819.243747
  0
LINE
  5
32C
100
AcDbEntity
  8
M0
100
AcDbLine
 10
451.860419
 20
819.243747
 11
464.960425
 21
819.243747
  0
LINE
  5
32D
100
AcDbEntity
  8
M0
100
AcDbLine
 10
488.860414
 20
809.243976
 11
481.860415
 21
809.243976
  0
LINE
  5
32E
100
AcDbEntity
  8
M0
  6
DASHDOT
100
AcDbLine
 10
491.858949
 20
814.243976
 11
448.919943
 21
814.243976
  0
LINE
  5
32F
100
AcDbEntity
  8
M0
100
AcDbLine
 10
481.860415
 20
804.434971
 11
481.860415
 21
824.052829
  0
LINE
  5
330
100
AcDbEntity
  8
M0
100
AcDbLine
 10
481.860415
 20
824.052829
 11
488.860414
 21
824.052829
  0
LINE
  5
331
100
AcDbEntity
  8
M0
100
AcDbLine
 10
488.860414
 20
824.052829
 11
488.860414
 21
804.434971
  0
LINE
  5
332
100
AcDbEntity
  8
M0
100
AcDbLine
 10
488.860414
 20
804.434971
 11
481.860415
 21
804.434971
  0
LINE
  5
333
100
AcDbEntity
  8
M0
100
AcDbLine
 10
481.860415
 20
819.243747
 11
488.860414
 21
819.243747
  0
LINE
  5
334
100
AcDbEntity
  8
M0
100
AcDbLine
 10
464.960425
 20
809.243976
 11
451.860419
 21
809.243976
  0
LINE
  5
335
100
AcDbEntity
  8
M0
100
AcDbLine
 10
481.860415
 20
646.052997
 11
481.860415
 21
626.435138
  0
LINE
  5
336
100
AcDbEntity
  8
M0
100
AcDbLine
 10
481.860415
 20
626.435138
 11
488.860414
 21
626.435138
  0
LINE
  5
337
100
AcDbEntity
  8
M0
100
AcDbLine
 10
488.860414
 20
626.435138
 11
488.860414
 21
646.052997
  0
LINE
  5
338
100
AcDbEntity
  8
M0
100
AcDbLine
 10
488.860414
 20
646.052997
 11
481.860415
 21
646.052997
  0
LINE
  5
339
100
AcDbEntity
  8
M0
100
AcDbLine
 10
451.860419
 20
641.243992
 11
451.860419
 21
631.24422
  0
LINE
  5
33A
100
AcDbEntity
  8
M0
  6
DASHDOT
100
AcDbLine
 10
491.858949
 20
636.243992
 11
448.919943
 21
636.243992
  0
LINE
  5
33B
100
AcDbEntity
  8
M0
100
AcDbLine
 10
451.860419
 20
631.24422
 11
464.960425
 21
631.24422
  0
LINE
  5
33C
100
AcDbEntity
  8
M0
100
AcDbLine
 10
481.860415
 20
631.24422
 11
488.860414
 21
631.24422
  0
LINE
  5
33D
100
AcDbEntity
  8
M0
100
AcDbLine
 10
488.860414
 20
641.243992
 11
481.860415
 21
641.243992
  0
LINE
  5
33E
100
AcDbEntity
  8
M0
100
AcDbLine
 10
464.960425
 20
641.243992
 11
451.860419
 21
641.243992
  0
LINE
  5
33F
100
AcDbEntity
  8
M0
100
AcDbLine
 10
472.960409
 20
824.044025
 11
464.960394
 21
824.044025
  0
LINE
  5
340
100
AcDbEntity
  8
M0
100
AcDbLine
 10
464.960425
 20
824.043979
 11
464.960425
 21
804.444004
  0
LINE
  5
341
100
AcDbEntity
  8
M0
100
AcDbLine
 10
464.96041
 20
804.444019
 11
472.960409
 21
804.444019
  0
LINE
  5
342
100
AcDbEntity
  8
M0
100
AcDbLine
 10
472.960424
 20
804.444034
 11
472.960424
 21
824.04404
  0
LINE
  5
343
100
AcDbEntity
  8
M0
  6
DASHDOT
100
AcDbLine
 10
479.960409
 20
814.243976
 11
457.960394
 21
814.243976
  0
LINE
  5
344
100
AcDbEntity
  8
M0
100
AcDbLine
 10
472.960409
 20
809.344013
 11
464.96041
 21
809.344013
  0
LINE
  5
345
100
AcDbEntity
  8
M0
100
AcDbLine
 10
472.960409
 20
819.144001
 11
464.960394
 21
819.144001
  0
LINE
  5
346
100
AcDbEntity
  8
M0
100
AcDbLine
 10
472.960409
 20
626.443943
 11
464.960394
 21
626.443943
  0
LINE
  5
347
100
AcDbEntity
  8
M0
100
AcDbLine
 10
464.960425
 20
626.443989
 11
464.960425
 21
646.043964
  0
LINE
  5
348
100
AcDbEntity
  8
M0
100
AcDbLine
 10
464.96041
 20
646.043949
 11
472.960409
 21
646.043949
  0
LINE
  5
349
100
AcDbEntity
  8
M0
100
AcDbLine
 10
472.960424
 20
646.043934
 11
472.960424
 21
626.443928
  0
LINE
  5
34A
100
AcDbEntity
  8
M0
  6
DASHDOT
100
AcDbLine
 10
479.960409
 20
636.243992
 11
457.960394
 21
636.243992
  0
LINE
  5
34B
100
AcDbEntity
  8
M0
100
AcDbLine
 10
472.960409
 20
641.143955
 11
464.96041
 21
641.143955
  0
LINE
  5
34C
100
AcDbEntity
  8
M0
100
AcDbLine
 10
472.960409
 20
631.343967
 11
464.960394
 21
631.343967
  0
LINE
  5
34D
100
AcDbEntity
  8
M0
100
AcDbLine
 10
475.460424
 20
803.243992
 11
477.060415
 21
803.243992
  0
LINE
  5
34E
100
AcDbEntity
  8
M0
100
AcDbLine
 10
477.060415
 20
803.243992
 11
477.060415
 21
825.243992
  0
LINE
  5
34F
100
AcDbEntity
  8
M0
100
AcDbLine
 10
477.060415
 20
825.243992
 11
475.460424
 21
825.243992
  0
LINE
  5
350
100
AcDbEntity
  8
M0
100
AcDbLine
 10
475.460424
 20
825.243992
 11
475.460424
 21
803.243992
  0
LINE
  5
351
100
AcDbEntity
  8
M0
  6
DASHDOT
100
AcDbLine
 10
472.46041
 20
814.243976
 11
480.060415
 21
814.243992
  0
LINE
  5
352
100
AcDbEntity
  8
M0
100
AcDbLine
 10
477.060415
 20
647.243976
 11
477.060415
 21
625.243976
  0
LINE
  5
353
100
AcDbEntity
  8
M0
100
AcDbLine
 10
477.060415
 20
625.243976
 11
475.460424
 21
625.243976
  0
LINE
  5
354
100
AcDbEntity
  8
M0
100
AcDbLine
 10
475.460424
 20
625.243976
 11
475.460424
 21
647.243976
  0
LINE
  5
355
100
AcDbEntity
  8
M0
  6
DASHDOT
100
AcDbLine
 10
472.46041
 20
636.243992
 11
480.060415
 21
636.243976
  0
LINE
  5
356
100
AcDbEntity
  8
M0
100
AcDbLine
 10
472.960424
 20
805.043979
 11
475.460424
 21
805.043979
  0
LINE
  5
357
100
AcDbEntity
  8
M0
100
AcDbLine
 10
475.460424
 20
805.043979
 11
475.460424
 21
823.443973
  0
LINE
  5
358
100
AcDbEntity
  8
M0
100
AcDbLine
 10
475.460424
 20
823.443973
 11
472.960424
 21
823.443973
  0
LINE
  5
359
100
AcDbEntity
  8
M0
100
AcDbLine
 10
472.960424
 20
823.443973
 11
472.960424
 21
805.043979
  0
LINE
  5
35A
100
AcDbEntity
  8
M0
  6
DASHDOT
100
AcDbLine
 10
453.960425
 20
814.243976
 11
480.460424
 21
814.243976
  0
LINE
  5
35B
100
AcDbEntity
  8
M0
100
AcDbLine
 10
472.960424
 20
814.243992
 11
475.460424
 21
812.800617
  0
LINE
  5
35C
100
AcDbEntity
  8
M0
100
AcDbLine
 10
472.960424
 20
815.687351
 11
475.460424
 21
814.243976
  0
LINE
  5
35D
100
AcDbEntity
  8
M0
100
AcDbLine
 10
472.960424
 20
645.443989
 11
475.460424
 21
645.443989
  0
LINE
  5
35E
100
AcDbEntity
  8
M0
100
AcDbLine
 10
475.460424
 20
645.443989
 11
475.460424
 21
627.043995
  0
LINE
  5
35F
100
AcDbEntity
  8
M0
100
AcDbLine
 10
475.460424
 20
627.043995
 11
472.960424
 21
627.043995
  0
LINE
  5
360
100
AcDbEntity
  8
M0
100
AcDbLine
 10
472.960424
 20
627.043995
 11
472.960424
 21
645.443989
  0
LINE
  5
361
100
AcDbEntity
  8
M0
100
AcDbLine
 10
472.960424
 20
636.243976
 11
475.460424
 21
637.687351
  0
LINE
  5
362
100
AcDbEntity
  8
M0
100
AcDbLine
 10
472.960424
 20
634.800617
 11
475.460424
 21
636.243992
  0
LINE
  5
363
100
AcDbEntity
  8
M0
  6
DASHDOT
100
AcDbLine
 10
453.960425
 20
636.243992
 11
480.460424
 21
636.243992
  0
LINE
  5
364
100
AcDbEntity
  8
M0
 62
     4
100
AcDbLine
 10
157.957266
 20
550.243976
 11
157.957266
 21
644.243976
  0
LINE
  5
365
100
AcDbEntity
  8
M0
 62
     4
100
AcDbLine
 10
305.957068
 20
550.243976
 11
305.957068
 21
644.243976
  0
CIRCLE
  5
366
100
AcDbEntity
  8
M0
 62
     4
100
AcDbCircle
 10
256.957266
 20
640.243976
 40
3.15
  0
CIRCLE
  5
367
100
AcDbEntity
  8
M0
 62
     4
100
AcDbCircle
 10
206.957266
 20
640.243976
 40
3.15
  0
CIRCLE
  5
368
100
AcDbEntity
  8
M0
 62
     4
100
AcDbCircle
 10
299.957068
 20
574.243976
 40
2.0
  0
CIRCLE
  5
369
100
AcDbEntity
  8
M0
 62
     4
100
AcDbCircle
 10
199.957266
 20
574.243976
 40
2.0
  0
CIRCLE
  5
36A
100
AcDbEntity
  8
M0
 62
     4
100
AcDbCircle
 10
163.957266
 20
574.243976
 40
2.0
  0
LINE
  5
36B
100
AcDbEntity
  8
M0
 62
     4
100
AcDbLine
 10
305.957068
 20
644.243976
 11
300.957068
 21
649.243778
  0
LINE
  5
36C
100
AcDbEntity
  8
M0
 62
     4
100
AcDbLine
 10
162.957266
 20
649.243778
 11
157.957266
 21
644.243976
  0
CIRCLE
  5
36D
100
AcDbEntity
  8
M0
 62
     4
100
AcDbCircle
 10
299.957068
 20
574.243976
 40
1.75
  0
CIRCLE
  5
36E
100
AcDbEntity
  8
M0
 62
     4
100
AcDbCircle
 10
199.957266
 20
574.243976
 40
1.75
  0
CIRCLE
  5
36F
100
AcDbEntity
  8
M0
 62
     4
100
AcDbCircle
 10
163.957266
 20
574.243976
 40
1.75
  0
CIRCLE
  5
370
100
AcDbEntity
  8
M0
 62
     4
100
AcDbCircle
 10
256.957266
 20
620.243976
 40
8.75
  0
CIRCLE
  5
371
100
AcDbEntity
  8
M0
 62
     4
100
AcDbCircle
 10
206.957266
 20
620.243976
 40
8.75
  0
LINE
  5
372
100
AcDbEntity
  8
M0
 62
     4
100
AcDbLine
 10
157.776266
 20
565.243976
 11
170.457266
 21
565.243976
  0
LINE
  5
373
100
AcDbEntity
  8
M0
 62
     4
100
AcDbLine
 10
162.957266
 20
545.243976
 11
170.457266
 21
545.243976
  0
LINE
  5
374
100
AcDbEntity
  8
M0
 62
     4
100
AcDbLine
 10
157.957266
 20
550.243976
 11
162.957266
 21
545.243976
  0
LINE
  5
375
100
AcDbEntity
  8
M0
 62
     4
100
AcDbLine
 10
305.957068
 20
550.243976
 11
300.957068
 21
545.243976
  0
LINE
  5
376
100
AcDbEntity
  8
M0
  6
DASHDOT
100
AcDbLine
 10
194.457266
 20
545.243976
 11
194.457266
 21
565.243976
  0
CIRCLE
  5
377
100
AcDbEntity
  8
M0
 62
     4
100
AcDbCircle
 10
256.957266
 20
620.243976
 40
4.65
  0
CIRCLE
  5
378
100
AcDbEntity
  8
M0
 62
     4
100
AcDbCircle
 10
206.957266
 20
620.243976
 40
4.65
  0
LINE
  5
379
100
AcDbEntity
  8
M0
 62
     4
100
AcDbLine
 10
193.457266
 20
565.243976
 11
209.957022
 21
565.243976
  0
LINE
  5
37A
100
AcDbEntity
  8
M0
 62
     4
100
AcDbLine
 10
193.457266
 20
545.243976
 11
220.457266
 21
545.243976
  0
ARC
  5
37B
100
AcDbEntity
  8
M0
 62
     4
100
AcDbCircle
 10
194.457266
 20
555.243976
 40
4.65
100
AcDbArc
 50
257.581355
 51
462.418686
  0
LINE
  5
37C
100
AcDbEntity
  8
M0
 62
     4
100
AcDbLine
 10
243.457266
 20
545.243976
 11
270.457266
 21
545.243976
  0
LINE
  5
37D
100
AcDbEntity
  8
M0
 62
     4
100
AcDbLine
 10
293.457266
 20
565.243976
 11
305.957068
 21
565.243976
  0
LINE
  5
37E
100
AcDbEntity
  8
M0
 62
     4
100
AcDbLine
 10
293.457266
 20
545.243976
 11
300.957068
 21
545.243976
  0
LINE
  5
37F
100
AcDbEntity
  8
M0
 62
     4
100
AcDbLine
 10
577.760413
 20
545.243854
 11
580.060461
 21
545.243854
  0
LINE
  5
380
100
AcDbEntity
  8
M0
 62
     4
100
AcDbLine
 10
580.060461
 20
545.244037
 11
580.060461
 21
564.744022
  0
LINE
  5
381
100
AcDbEntity
  8
M0
 62
     4
100
AcDbLine
 10
577.760413
 20
564.782078
 11
577.760413
 21
545.244037
  0
LINE
  5
382
100
AcDbEntity
  8
M0
 62
     4
100
AcDbLine
 10
574.960364
 20
568.044025
 11
574.960364
 21
649.243839
  0
LINE
  5
383
100
AcDbEntity
  8
M0
 62
     4
100
AcDbLine
 10
577.260413
 20
568.005909
 11
577.260413
 21
611.493854
  0
LINE
  5
384
100
AcDbEntity
  8
M0
 62
     4
100
AcDbLine
 10
574.960364
 20
649.243854
 11
577.260413
 21
649.243854
  0
LINE
  5
385
100
AcDbEntity
  8
M0
 62
     4
100
AcDbLine
 10
577.260413
 20
628.993854
 11
577.260413
 21
649.243854
  0
LINE
  5
386
100
AcDbEntity
  8
M0
100
AcDbLine
 10
579.604407
 20
545.244022
 11
580.059973
 21
545.699451
  0
ARC
  5
387
100
AcDbEntity
  8
M0
 62
     4
100
AcDbCircle
 10
577.760168
 20
568.044025
 40
2.799999
100
AcDbArc
 50
180.0
 51
261.288473
  0
ARC
  5
388
100
AcDbEntity
  8
M0
 62
     4
100
AcDbCircle
 10
577.260413
 20
564.744022
 40
2.799999
100
AcDbArc
 50
0.0
 51
81.288734
  0
ARC
  5
389
100
AcDbEntity
  8
M0
 62
     4
100
AcDbCircle
 10
577.260413
 20
564.782078
 40
0.5
100
AcDbArc
 50
0.0
 51
81.29372
  0
ARC
  5
38A
100
AcDbEntity
  8
M0
 62
     4
100
AcDbCircle
 10
577.760413
 20
568.005909
 40
0.5
100
AcDbArc
 50
180.0
 51
261.265802
  0
LINE
  5
38B
100
AcDbEntity
  8
M0
 62
     6
100
AcDbLine
 10
209.956793
 20
588.394123
 11
209.956793
 21
556.894123
  0
LINE
  5
38C
100
AcDbEntity
  8
M0
 62
     6
100
AcDbLine
 10
250.456793
 20
554.394138
 11
251.517584
 21
554.394138
  0
LINE
  5
38D
100
AcDbEntity
  8
M0
 62
     6
100
AcDbLine
 10
272.456793
 20
551.394123
 11
272.456793
 21
588.394123
  0
LINE
  5
38E
100
AcDbEntity
  8
M0
 62
     6
100
AcDbLine
 10
272.456793
 20
562.894123
 11
247.956793
 21
562.894123
  0
LINE
  5
38F
100
AcDbEntity
  8
M0
 62
     6
100
AcDbLine
 10
269.456793
 20
551.394123
 11
269.456793
 21
561.394123
  0
LINE
  5
390
100
AcDbEntity
  8
M0
 62
     6
100
AcDbLine
 10
261.456793
 20
550.394169
 11
261.456793
 21
561.894123
  0
LINE
  5
391
100
AcDbEntity
  8
M0
 62
     6
100
AcDbLine
 10
258.456793
 20
550.394138
 11
258.456793
 21
561.894123
  0
LINE
  5
392
100
AcDbEntity
  8
M0
 62
     6
100
AcDbLine
 10
250.456793
 20
552.644184
 11
250.456793
 21
561.894123
  0
LINE
  5
393
100
AcDbEntity
  8
M0
 62
     6
100
AcDbLine
 10
247.956793
 20
549.394169
 11
247.956793
 21
570.894214
  0
ARC
  5
394
100
AcDbEntity
  8
M0
 62
     6
100
AcDbCircle
 10
257.456793
 20
561.894123
 40
1.0
100
AcDbArc
 50
0.0
 51
90.0
  0
ARC
  5
395
100
AcDbEntity
  8
M0
 62
     6
100
AcDbCircle
 10
262.456793
 20
561.894123
 40
1.0
100
AcDbArc
 50
90.0
 51
180.0
  0
ARC
  5
396
100
AcDbEntity
  8
M0
 62
     6
100
AcDbCircle
 10
251.456793
 20
561.894123
 40
1.0
100
AcDbArc
 50
90.0
 51
180.0
  0
LINE
  5
397
100
AcDbEntity
  8
M0
 62
     6
100
AcDbLine
 10
259.456793
 20
549.394138
 11
260.456793
 21
549.394138
  0
LINE
  5
398
100
AcDbEntity
  8
M0
 62
     6
100
AcDbLine
 10
269.456793
 20
551.394123
 11
272.456793
 21
551.394123
  0
ARC
  5
399
100
AcDbEntity
  8
M0
 62
     6
100
AcDbCircle
 10
259.456793
 20
550.394138
 40
1.0
100
AcDbArc
 50
180.0
 51
269.999126
  0
ARC
  5
39A
100
AcDbEntity
  8
M0
 62
     6
100
AcDbCircle
 10
260.456793
 20
550.394153
 40
1.0
100
AcDbArc
 50
269.999126
 51
360.0
  0
ARC
  5
39B
100
AcDbEntity
  8
M0
 62
     6
100
AcDbCircle
 10
249.206793
 20
552.644169
 40
1.249996
100
AcDbArc
 50
180.0
 51
269.999301
  0
ARC
  5
39C
100
AcDbEntity
  8
M0
 62
     6
100
AcDbCircle
 10
249.206793
 20
552.644169
 40
1.249996
100
AcDbArc
 50
269.999301
 51
360.0
  0
LINE
  5
39D
100
AcDbEntity
  8
M0
 62
     6
100
AcDbLine
 10
261.456793
 20
554.394138
 11
262.517584
 21
554.394138
  0
LINE
  5
39E
100
AcDbEntity
  8
M0
 62
     6
100
AcDbLine
 10
251.456793
 20
549.394169
 11
247.956793
 21
549.394169
  0
LINE
  5
39F
100
AcDbEntity
  8
M0
 62
     6
100
AcDbLine
 10
251.456793
 20
549.394169
 11
251.456793
 21
554.394153
  0
ARC
  5
3A0
100
AcDbEntity
  8
M0
 62
     6
100
AcDbCircle
 10
267.956793
 20
561.394123
 40
1.499996
100
AcDbArc
 50
0.0
 51
90.0
  0
LINE
  5
3A1
100
AcDbEntity
  8
M0
 62
     6
100
AcDbLine
 10
272.456793
 20
588.394123
 11
244.668341
 21
588.394108
  0
LINE
  5
3A2
100
AcDbEntity
  8
M0
 62
     6
100
AcDbLine
 10
268.806891
 20
586.894123
 11
268.806891
 21
582.894123
  0
LINE
  5
3A3
100
AcDbEntity
  8
M0
 62
     6
100
AcDbLine
 10
268.306891
 20
582.394123
 11
257.306891
 21
582.394123
  0
LINE
  5
3A4
100
AcDbEntity
  8
M0
 62
     6
100
AcDbLine
 10
256.806891
 20
582.894123
 11
256.806891
 21
586.894123
  0
LINE
  5
3A5
100
AcDbEntity
  8
M0
 62
     6
100
AcDbLine
 10
272.456793
 20
586.894123
 11
237.956793
 21
586.894092
  0
ARC
  5
3A6
100
AcDbEntity
  8
M0
 62
     6
100
AcDbCircle
 10
257.306891
 20
582.894123
 40
0.5
100
AcDbArc
 50
180.0
 51
269.998251
  0
ARC
  5
3A7
100
AcDbEntity
  8
M0
 62
     6
100
AcDbCircle
 10
268.306891
 20
582.894123
 40
0.5
100
AcDbArc
 50
269.998251
 51
360.0
  0
LINE
  5
3A8
100
AcDbEntity
  8
M0
 62
     6
100
AcDbLine
 10
251.306891
 20
562.894108
 11
251.306891
 21
586.894123
  0
LINE
  5
3A9
100
AcDbEntity
  8
M0
 62
     6
100
AcDbLine
 10
237.956793
 20
555.644123
 11
237.956793
 21
588.644123
  0
LINE
  5
3AA
100
AcDbEntity
  8
M0
 62
     6
100
AcDbLine
 10
235.456793
 20
555.644123
 11
235.456793
 21
588.644123
  0
LINE
  5
3AB
100
AcDbEntity
  8
M0
 62
     6
100
AcDbLine
 10
225.456793
 20
555.644169
 11
225.456793
 21
588.644123
  0
LINE
  5
3AC
100
AcDbEntity
  8
M0
 62
     6
100
AcDbLine
 10
222.956793
 20
555.644169
 11
222.956793
 21
588.644123
  0
LINE
  5
3AD
100
AcDbEntity
  8
M0
 62
     6
100
AcDbLine
 10
212.956793
 20
559.144123
 11
212.956793
 21
570.894214
  0
LINE
  5
3AE
100
AcDbEntity
  8
M0
 62
     6
100
AcDbLine
 10
211.706793
 20
557.894123
 11
209.956793
 21
557.894123
  0
ARC
  5
3AF
100
AcDbEntity
  8
M0
 62
     6
100
AcDbCircle
 10
211.706793
 20
559.144123
 40
1.249996
100
AcDbArc
 50
269.999301
 51
360.0
  0
ARC
  5
3B0
100
AcDbEntity
  8
M0
 62
     6
100
AcDbCircle
 10
236.706793
 20
555.644123
 40
1.249996
100
AcDbArc
 50
269.999301
 51
360.0
  0
ARC
  5
3B1
100
AcDbEntity
  8
M0
 62
     6
100
AcDbCircle
 10
236.706793
 20
555.644123
 40
1.249996
100
AcDbArc
 50
180.0
 51
269.999301
  0
ARC
  5
3B2
100
AcDbEntity
  8
M0
 62
     6
100
AcDbCircle
 10
224.206793
 20
555.644169
 40
1.249996
100
AcDbArc
 50
180.0
 51
269.999301
  0
ARC
  5
3B3
100
AcDbEntity
  8
M0
 62
     6
100
AcDbCircle
 10
224.206793
 20
555.644169
 40
1.249996
100
AcDbArc
 50
269.999301
 51
360.0
  0
ARC
  5
3B4
100
AcDbEntity
  8
M0
 62
     6
100
AcDbCircle
 10
211.706793
 20
587.144123
 40
1.249996
100
AcDbArc
 50
0.0
 51
90.0
  0
LINE
  5
3B5
100
AcDbEntity
  8
M0
 62
     6
100
AcDbLine
 10
247.956793
 20
559.394214
 11
237.956793
 21
559.394214
  0
LINE
  5
3B6
100
AcDbEntity
  8
M0
 62
     6
100
AcDbLine
 10
225.456793
 20
559.394214
 11
235.456793
 21
559.394214
  0
LINE
  5
3B7
100
AcDbEntity
  8
M0
 62
     6
100
AcDbLine
 10
222.956793
 20
559.394214
 11
212.956793
 21
559.394214
  0
LINE
  5
3B8
100
AcDbEntity
  8
M0
 62
     6
100
AcDbLine
 10
221.456793
 20
569.394214
 11
213.956793
 21
569.394214
  0
LINE
  5
3B9
100
AcDbEntity
  8
M0
 62
     6
100
AcDbLine
 10
226.956793
 20
569.394214
 11
234.456793
 21
569.39423
  0
LINE
  5
3BA
100
AcDbEntity
  8
M0
 62
     6
100
AcDbLine
 10
246.956793
 20
569.394214
 11
238.956793
 21
569.394214
  0
LINE
  5
3BB
100
AcDbEntity
  8
M0
 62
     6
100
AcDbLine
 10
246.956793
 20
571.894214
 11
239.456793
 21
571.894214
  0
LINE
  5
3BC
100
AcDbEntity
  8
M0
 62
     6
100
AcDbLine
 10
226.956793
 20
571.894214
 11
233.956793
 21
571.89423
  0
LINE
  5
3BD
100
AcDbEntity
  8
M0
 62
     6
100
AcDbLine
 10
221.456793
 20
571.894214
 11
213.956793
 21
571.894214
  0
LINE
  5
3BE
100
AcDbEntity
  8
M0
 62
     6
100
AcDbLine
 10
246.956793
 20
573.894214
 11
238.956793
 21
573.894214
  0
LINE
  5
3BF
100
AcDbEntity
  8
M0
 62
     6
100
AcDbLine
 10
226.956793
 20
573.894214
 11
234.456793
 21
573.89423
  0
LINE
  5
3C0
100
AcDbEntity
  8
M0
 62
     6
100
AcDbLine
 10
221.456793
 20
573.894214
 11
213.956793
 21
573.894214
  0
LINE
  5
3C1
100
AcDbEntity
  8
M0
 62
     6
100
AcDbLine
 10
247.956793
 20
574.894214
 11
247.956793
 21
586.894123
  0
LINE
  5
3C2
100
AcDbEntity
  8
M0
 62
     6
100
AcDbLine
 10
212.956793
 20
574.894214
 11
212.956793
 21
587.144123
  0
ARC
  5
3C3
100
AcDbEntity
  8
M0
 62
     6
100
AcDbCircle
 10
213.956793
 20
574.894214
 40
1.0
100
AcDbArc
 50
180.0
 51
269.999126
  0
ARC
  5
3C4
100
AcDbEntity
  8
M0
 62
     6
100
AcDbCircle
 10
213.956793
 20
570.894214
 40
1.0
100
AcDbArc
 50
90.0
 51
180.0
  0
ARC
  5
3C5
100
AcDbEntity
  8
M0
 62
     6
100
AcDbCircle
 10
221.456793
 20
567.894214
 40
1.499996
100
AcDbArc
 50
0.0
 51
90.0
  0
ARC
  5
3C6
100
AcDbEntity
  8
M0
 62
     6
100
AcDbCircle
 10
221.456793
 20
570.394214
 40
1.499996
100
AcDbArc
 50
0.0
 51
90.0
  0
ARC
  5
3C7
100
AcDbEntity
  8
M0
 62
     6
100
AcDbCircle
 10
233.956793
 20
570.39423
 40
1.499996
100
AcDbArc
 50
0.0
 51
90.0
  0
ARC
  5
3C8
100
AcDbEntity
  8
M0
 62
     6
100
AcDbCircle
 10
226.956793
 20
575.39423
 40
1.499996
100
AcDbArc
 50
180.0
 51
269.999417
  0
ARC
  5
3C9
100
AcDbEntity
  8
M0
 62
     6
100
AcDbCircle
 10
226.956793
 20
570.39423
 40
1.499996
100
AcDbArc
 50
90.0
 51
180.0
  0
ARC
  5
3CA
100
AcDbEntity
  8
M0
 62
     6
100
AcDbCircle
 10
239.456793
 20
570.394214
 40
1.499996
100
AcDbArc
 50
90.0
 51
180.0
  0
ARC
  5
3CB
100
AcDbEntity
  8
M0
 62
     6
100
AcDbCircle
 10
226.956793
 20
567.89423
 40
1.499996
100
AcDbArc
 50
90.0
 51
180.0
  0
ARC
  5
3CC
100
AcDbEntity
  8
M0
 62
     6
100
AcDbCircle
 10
234.456793
 20
574.89423
 40
1.0
100
AcDbArc
 50
269.999126
 51
360.0
  0
ARC
  5
3CD
100
AcDbEntity
  8
M0
 62
     6
100
AcDbCircle
 10
234.456793
 20
568.39423
 40
1.0
100
AcDbArc
 50
0.0
 51
90.0
  0
ARC
  5
3CE
100
AcDbEntity
  8
M0
 62
     6
100
AcDbCircle
 10
221.456793
 20
575.394214
 40
1.499996
100
AcDbArc
 50
269.999417
 51
360.0
  0
ARC
  5
3CF
100
AcDbEntity
  8
M0
 62
     6
100
AcDbCircle
 10
213.956793
 20
568.394214
 40
1.0
100
AcDbArc
 50
90.0
 51
180.0
  0
ARC
  5
3D0
100
AcDbEntity
  8
M0
 62
     6
100
AcDbCircle
 10
238.956793
 20
568.394214
 40
1.0
100
AcDbArc
 50
90.0
 51
180.0
  0
ARC
  5
3D1
100
AcDbEntity
  8
M0
 62
     6
100
AcDbCircle
 10
238.956793
 20
574.894214
 40
1.0
100
AcDbArc
 50
180.0
 51
269.999126
  0
ARC
  5
3D2
100
AcDbEntity
  8
M0
 62
     6
100
AcDbCircle
 10
246.956793
 20
568.394214
 40
1.0
100
AcDbArc
 50
0.0
 51
90.0
  0
ARC
  5
3D3
100
AcDbEntity
  8
M0
 62
     6
100
AcDbCircle
 10
246.956793
 20
570.894214
 40
1.0
100
AcDbArc
 50
0.0
 51
90.0
  0
ARC
  5
3D4
100
AcDbEntity
  8
M0
 62
     6
100
AcDbCircle
 10
246.956793
 20
574.894214
 40
1.0
100
AcDbArc
 50
269.999126
 51
360.0
  0
LINE
  5
3D5
100
AcDbEntity
  8
M0
 62
     6
100
AcDbLine
 10
217.206793
 20
554.894123
 11
211.956793
 21
554.894123
  0
ARC
  5
3D6
100
AcDbEntity
  8
M0
 62
     6
100
AcDbCircle
 10
211.956793
 20
556.894123
 40
1.999995
100
AcDbArc
 50
180.0
 51
269.999563
  0
LINE
  5
3D7
100
AcDbEntity
  8
M0
 62
     6
100
AcDbLine
 10
217.206793
 20
554.894123
 11
217.206793
 21
559.394214
  0
LINE
  5
3D8
100
AcDbEntity
  8
M0
 62
     6
100
AcDbLine
 10
221.706793
 20
556.394138
 11
221.706793
 21
559.394214
  0
LINE
  5
3D9
100
AcDbEntity
  8
M0
 62
     6
100
AcDbLine
 10
227.456793
 20
556.394138
 11
227.456793
 21
556.894123
  0
LINE
  5
3DA
100
AcDbEntity
  8
M0
 62
     6
100
AcDbLine
 10
242.206793
 20
556.394123
 11
242.206793
 21
557.229069
  0
LINE
  5
3DB
100
AcDbEntity
  8
M0
 62
     6
100
AcDbLine
 10
234.456793
 20
558.894123
 11
229.456793
 21
558.894123
  0
LINE
  5
3DC
100
AcDbEntity
  8
M0
 62
     6
100
AcDbLine
 10
221.706793
 20
556.394123
 11
222.956793
 21
556.394138
  0
LINE
  5
3DD
100
AcDbEntity
  8
M0
 62
     6
100
AcDbLine
 10
242.206793
 20
556.394123
 11
237.956793
 21
556.394123
  0
ARC
  5
3DE
100
AcDbEntity
  8
M0
 62
     6
100
AcDbCircle
 10
234.456793
 20
556.894123
 40
1.999995
100
AcDbArc
 50
60.00023
 51
90.0
  0
ARC
  5
3DF
100
AcDbEntity
  8
M0
 62
     6
100
AcDbCircle
 10
229.456793
 20
556.894123
 40
1.999995
100
AcDbArc
 50
90.0
 51
180.0
  0
LINE
  5
3E0
100
AcDbEntity
  8
M0
 62
     6
100
AcDbLine
 10
225.456793
 20
556.394138
 11
227.456793
 21
556.394123
  0
LINE
  5
3E1
100
AcDbEntity
  8
M0
 62
     6
100
AcDbLine
 10
246.706793
 20
554.894169
 11
246.706793
 21
556.36301
  0
LINE
  5
3E2
100
AcDbEntity
  8
M0
 62
     6
100
AcDbLine
 10
247.956793
 20
554.894169
 11
246.706793
 21
554.894169
  0
LINE
  5
3E3
100
AcDbEntity
  8
M0
 62
     6
100
AcDbLine
 10
241.668372
 20
588.394108
 11
231.957037
 21
588.394138
  0
LINE
  5
3E4
100
AcDbEntity
  8
M0
 62
     6
100
AcDbLine
 10
216.668356
 20
588.394108
 11
209.956793
 21
588.394123
  0
LINE
  5
3E5
100
AcDbEntity
  8
M0
 62
     6
100
AcDbLine
 10
222.956793
 20
586.894077
 11
212.956793
 21
586.894123
  0
LINE
  5
3E6
100
AcDbEntity
  8
M0
 62
     6
100
AcDbLine
 10
235.456793
 20
586.894077
 11
225.456793
 21
586.894123
  0
LINE
  5
3E7
100
AcDbEntity
  8
M0
 62
     6
100
AcDbLine
 10
222.956793
 20
584.394077
 11
212.956793
 21
584.394123
  0
LINE
  5
3E8
100
AcDbEntity
  8
M0
 62
     6
100
AcDbLine
 10
247.956793
 20
584.394016
 11
237.956793
 21
584.394062
  0
LINE
  5
3E9
100
AcDbEntity
  8
M0
 62
     6
100
AcDbLine
 10
257.395743
 20
554.394138
 11
258.456793
 21
554.394138
  0
LINE
  5
3EA
100
AcDbEntity
  8
M0
 62
     6
100
AcDbLine
 10
268.395743
 20
554.394138
 11
269.456793
 21
554.394153
  0
LINE
  5
3EB
100
AcDbEntity
  8
M0
 62
     6
100
AcDbLine
 10
231.957037
 20
588.394108
 11
219.668326
 21
588.394108
  0
CIRCLE
  5
3EC
100
AcDbEntity
  8
M0
 62
     6
100
AcDbCircle
 10
260.457037
 20
573.394123
 40
3.75
  0
CIRCLE
  5
3ED
100
AcDbEntity
  8
M0
 62
     6
100
AcDbCircle
 10
260.457037
 20
573.394123
 40
8.299995
  0
LINE
  5
3EE
100
AcDbEntity
  8
M0
  6
DASHDOT
 62
     6
100
AcDbLine
 10
244.64942
 20
573.394123
 11
276.26441
 21
573.394123
  0
LINE
  5
3EF
100
AcDbEntity
  8
M0
  6
DASHDOT
 62
     6
100
AcDbLine
 10
260.457037
 20
557.586612
 11
260.457037
 21
589.201618
  0
LINE
  5
3F0
100
AcDbEntity
  8
M0
 62
     6
100
AcDbLine
 10
260.806891
 20
583.244114
 11
264.806891
 21
583.244114
  0
LINE
  5
3F1
100
AcDbEntity
  8
M0
 62
     6
100
AcDbLine
 10
264.806891
 20
583.244114
 11
264.806891
 21
586.044117
  0
LINE
  5
3F2
100
AcDbEntity
  8
M0
 62
     6
100
AcDbLine
 10
264.806891
 20
586.044117
 11
260.806891
 21
586.044117
  0
LINE
  5
3F3
100
AcDbEntity
  8
M0
 62
     6
100
AcDbLine
 10
260.806891
 20
586.044117
 11
260.806891
 21
583.244114
  0
LINE
  5
3F4
100
AcDbEntity
  8
M0
 62
     6
100
AcDbLine
 10
239.1565
 20
574.093906
 11
246.756598
 21
574.093891
  0
LINE
  5
3F5
100
AcDbEntity
  8
M0
 62
     6
100
AcDbLine
 10
226.6565
 20
574.093906
 11
234.256598
 21
574.093891
  0
LINE
  5
3F6
100
AcDbEntity
  8
M0
 62
     6
100
AcDbLine
 10
221.756598
 20
574.093906
 11
221.756598
 21
582.893894
  0
LINE
  5
3F7
100
AcDbEntity
  8
M0
 62
     6
100
AcDbLine
 10
214.156744
 20
582.893894
 11
214.1565
 21
574.093921
  0
LINE
  5
3F8
100
AcDbEntity
  8
M0
 62
     6
100
AcDbLine
 10
214.1565
 20
574.093906
 11
221.756598
 21
574.093891
  0
LINE
  5
3F9
100
AcDbEntity
  8
M0
 62
     6
100
AcDbLine
 10
220.956793
 20
554.394123
 11
247.956549
 21
554.394123
  0
LINE
  5
3FA
100
AcDbEntity
  8
M0
 62
     6
100
AcDbLine
 10
219.956793
 20
555.394123
 11
219.956793
 21
559.394214
  0
ARC
  5
3FB
100
AcDbEntity
  8
M0
 62
     6
100
AcDbCircle
 10
220.956793
 20
555.394123
 40
1.0
100
AcDbArc
 50
180.0
 51
269.999126
  0
LINE
  5
3FC
100
AcDbEntity
  8
M0
 62
     6
100
AcDbLine
 10
241.995856
 20
579.854725
 11
243.840582
 21
578.009891
  0
LINE
  5
3FD
100
AcDbEntity
  8
M0
 62
     6
100
AcDbLine
 10
243.967535
 20
580.611835
 11
241.39234
 21
578.036762
  0
LINE
  5
3FE
100
AcDbEntity
  8
M0
 62
     6
100
AcDbLine
 10
244.674567
 20
579.904728
 11
242.099615
 21
577.329654
  0
CIRCLE
  5
3FF
100
AcDbEntity
  8
M0
 62
     6
100
AcDbCircle
 10
242.956793
 20
578.893879
 40
3.499993
  0
LINE
  5
400
100
AcDbEntity
  8
M0
  6
DASHDOT
 62
     6
100
AcDbLine
 10
248.616217
 20
578.893879
 11
237.297125
 21
578.893879
  0
LINE
  5
401
100
AcDbEntity
  8
M0
  6
DASHDOT
 62
     6
100
AcDbLine
 10
242.956549
 20
584.553303
 11
242.956793
 21
573.23444
  0
LINE
  5
402
100
AcDbEntity
  8
M0
 62
     6
100
AcDbLine
 10
229.495856
 20
579.854725
 11
231.340582
 21
578.009891
  0
LINE
  5
403
100
AcDbEntity
  8
M0
 62
     6
100
AcDbLine
 10
231.467535
 20
580.611835
 11
228.89234
 21
578.036762
  0
LINE
  5
404
100
AcDbEntity
  8
M0
 62
     6
100
AcDbLine
 10
232.174567
 20
579.904728
 11
229.599615
 21
577.329654
  0
CIRCLE
  5
405
100
AcDbEntity
  8
M0
 62
     6
100
AcDbCircle
 10
230.456793
 20
578.893879
 40
3.499993
  0
LINE
  5
406
100
AcDbEntity
  8
M0
  6
DASHDOT
 62
     6
100
AcDbLine
 10
236.116217
 20
578.893879
 11
224.797125
 21
578.893879
  0
LINE
  5
407
100
AcDbEntity
  8
M0
  6
DASHDOT
 62
     6
100
AcDbLine
 10
230.456549
 20
584.553303
 11
230.456793
 21
573.23444
  0
LINE
  5
408
100
AcDbEntity
  8
M0
 62
     6
100
AcDbLine
 10
216.995856
 20
579.854725
 11
218.840582
 21
578.009891
  0
LINE
  5
409
100
AcDbEntity
  8
M0
 62
     6
100
AcDbLine
 10
218.967535
 20
580.611835
 11
216.39234
 21
578.036762
  0
LINE
  5
40A
100
AcDbEntity
  8
M0
 62
     6
100
AcDbLine
 10
219.674567
 20
579.904728
 11
217.099615
 21
577.329654
  0
CIRCLE
  5
40B
100
AcDbEntity
  8
M0
 62
     6
100
AcDbCircle
 10
217.956793
 20
578.893879
 40
3.499993
  0
LINE
  5
40C
100
AcDbEntity
  8
M0
  6
DASHDOT
 62
     6
100
AcDbLine
 10
223.616217
 20
578.893879
 11
212.297125
 21
578.893879
  0
LINE
  5
40D
100
AcDbEntity
  8
M0
  6
DASHDOT
 62
     6
100
AcDbLine
 10
217.956549
 20
584.553303
 11
217.956793
 21
573.23444
  0
LINE
  5
40E
100
AcDbEntity
  8
M0
 62
     6
100
AcDbLine
 10
216.995856
 20
565.354725
 11
218.840582
 21
563.509891
  0
LINE
  5
40F
100
AcDbEntity
  8
M0
 62
     6
100
AcDbLine
 10
218.967535
 20
566.111835
 11
216.39234
 21
563.536762
  0
LINE
  5
410
100
AcDbEntity
  8
M0
 62
     6
100
AcDbLine
 10
219.674567
 20
565.404728
 11
217.099615
 21
562.829654
  0
LINE
  5
411
100
AcDbEntity
  8
M0
 62
     6
100
AcDbLine
 10
214.856696
 20
559.593876
 11
221.056647
 21
559.593876
  0
LINE
  5
412
100
AcDbEntity
  8
M0
 62
     6
100
AcDbLine
 10
222.056647
 20
560.59386
 11
222.056647
 21
568.193836
  0
LINE
  5
413
100
AcDbEntity
  8
M0
 62
     6
100
AcDbLine
 10
213.856696
 20
568.193851
 11
213.856696
 21
560.593876
  0
CIRCLE
  5
414
100
AcDbEntity
  8
M0
 62
     6
100
AcDbCircle
 10
217.956793
 20
564.393879
 40
3.499993
  0
ARC
  5
415
100
AcDbEntity
  8
M0
 62
     6
100
AcDbCircle
 10
221.056647
 20
560.593876
 40
1.0
100
AcDbArc
 50
269.999126
 51
360.0
  0
ARC
  5
416
100
AcDbEntity
  8
M0
 62
     6
100
AcDbCircle
 10
221.056647
 20
568.193683
 40
1.0
100
AcDbArc
 50
0.0
 51
90.0
  0
ARC
  5
417
100
AcDbEntity
  8
M0
 62
     6
100
AcDbCircle
 10
214.856696
 20
568.193683
 40
1.0
100
AcDbArc
 50
90.0
 51
180.0
  0
ARC
  5
418
100
AcDbEntity
  8
M0
 62
     6
100
AcDbCircle
 10
214.856696
 20
560.593876
 40
1.0
100
AcDbArc
 50
180.0
 51
269.999126
  0
LINE
  5
419
100
AcDbEntity
  8
M0
  6
DASHDOT
 62
     6
100
AcDbLine
 10
223.616217
 20
564.393879
 11
212.297125
 21
564.393879
  0
LINE
  5
41A
100
AcDbEntity
  8
M0
  6
DASHDOT
 62
     6
100
AcDbLine
 10
217.956549
 20
570.053303
 11
217.956793
 21
558.73444
  0
LINE
  5
41B
100
AcDbEntity
  8
M0
 62
     6
100
AcDbLine
 10
214.856696
 20
569.193866
 11
221.056647
 21
569.193866
  0
LINE
  5
41C
100
AcDbEntity
  8
M0
 62
     6
100
AcDbLine
 10
229.495856
 20
565.354725
 11
231.340582
 21
563.509891
  0
LINE
  5
41D
100
AcDbEntity
  8
M0
 62
     6
100
AcDbLine
 10
231.467535
 20
566.111835
 11
228.89234
 21
563.536762
  0
LINE
  5
41E
100
AcDbEntity
  8
M0
 62
     6
100
AcDbLine
 10
232.174567
 20
565.404728
 11
229.599615
 21
562.829654
  0
LINE
  5
41F
100
AcDbEntity
  8
M0
 62
     6
100
AcDbLine
 10
227.356696
 20
559.593876
 11
233.556647
 21
559.593876
  0
LINE
  5
420
100
AcDbEntity
  8
M0
 62
     6
100
AcDbLine
 10
234.556647
 20
560.59386
 11
234.556647
 21
568.193836
  0
LINE
  5
421
100
AcDbEntity
  8
M0
 62
     6
100
AcDbLine
 10
226.356696
 20
568.193851
 11
226.356696
 21
560.593876
  0
CIRCLE
  5
422
100
AcDbEntity
  8
M0
 62
     6
100
AcDbCircle
 10
230.456793
 20
564.393879
 40
3.499993
  0
ARC
  5
423
100
AcDbEntity
  8
M0
 62
     6
100
AcDbCircle
 10
233.556647
 20
560.593876
 40
1.0
100
AcDbArc
 50
269.999126
 51
360.0
  0
ARC
  5
424
100
AcDbEntity
  8
M0
 62
     6
100
AcDbCircle
 10
233.556647
 20
568.193683
 40
1.0
100
AcDbArc
 50
0.0
 51
90.0
  0
ARC
  5
425
100
AcDbEntity
  8
M0
 62
     6
100
AcDbCircle
 10
227.356696
 20
568.193683
 40
1.0
100
AcDbArc
 50
90.0
 51
180.0
  0
ARC
  5
426
100
AcDbEntity
  8
M0
 62
     6
100
AcDbCircle
 10
227.356696
 20
560.593876
 40
1.0
100
AcDbArc
 50
180.0
 51
269.999126
  0
LINE
  5
427
100
AcDbEntity
  8
M0
  6
DASHDOT
 62
     6
100
AcDbLine
 10
236.116217
 20
564.393879
 11
224.797125
 21
564.393879
  0
LINE
  5
428
100
AcDbEntity
  8
M0
  6
DASHDOT
 62
     6
100
AcDbLine
 10
230.456549
 20
570.053303
 11
230.456793
 21
558.73444
  0
LINE
  5
429
100
AcDbEntity
  8
M0
 62
     6
100
AcDbLine
 10
227.356696
 20
569.193866
 11
233.556647
 21
569.193866
  0
LINE
  5
42A
100
AcDbEntity
  8
M0
 62
     6
100
AcDbLine
 10
241.995856
 20
565.354725
 11
243.840582
 21
563.509891
  0
LINE
  5
42B
100
AcDbEntity
  8
M0
 62
     6
100
AcDbLine
 10
243.967535
 20
566.111835
 11
241.39234
 21
563.536762
  0
LINE
  5
42C
100
AcDbEntity
  8
M0
 62
     6
100
AcDbLine
 10
244.674567
 20
565.404728
 11
242.099615
 21
562.829654
  0
LINE
  5
42D
100
AcDbEntity
  8
M0
 62
     6
100
AcDbLine
 10
239.856696
 20
559.593876
 11
246.056647
 21
559.593876
  0
LINE
  5
42E
100
AcDbEntity
  8
M0
 62
     6
100
AcDbLine
 10
247.056647
 20
560.59386
 11
247.056647
 21
568.193836
  0
LINE
  5
42F
100
AcDbEntity
  8
M0
 62
     6
100
AcDbLine
 10
238.856696
 20
568.193851
 11
238.856696
 21
560.593876
  0
CIRCLE
  5
430
100
AcDbEntity
  8
M0
 62
     6
100
AcDbCircle
 10
242.956793
 20
564.393879
 40
3.499993
  0
ARC
  5
431
100
AcDbEntity
  8
M0
 62
     6
100
AcDbCircle
 10
246.056647
 20
560.593876
 40
1.0
100
AcDbArc
 50
269.999126
 51
360.0
  0
ARC
  5
432
100
AcDbEntity
  8
M0
 62
     6
100
AcDbCircle
 10
246.056647
 20
568.193683
 40
1.0
100
AcDbArc
 50
0.0
 51
90.0
  0
ARC
  5
433
100
AcDbEntity
  8
M0
 62
     6
100
AcDbCircle
 10
239.856696
 20
568.193683
 40
1.0
100
AcDbArc
 50
90.0
 51
180.0
  0
ARC
  5
434
100
AcDbEntity
  8
M0
 62
     6
100
AcDbCircle
 10
239.856696
 20
560.593876
 40
1.0
100
AcDbArc
 50
180.0
 51
269.999126
  0
LINE
  5
435
100
AcDbEntity
  8
M0
  6
DASHDOT
 62
     6
100
AcDbLine
 10
248.616217
 20
564.393879
 11
237.297125
 21
564.393879
  0
LINE
  5
436
100
AcDbEntity
  8
M0
  6
DASHDOT
 62
     6
100
AcDbLine
 10
242.956549
 20
570.053303
 11
242.956793
 21
558.73444
  0
LINE
  5
437
100
AcDbEntity
  8
M0
 62
     6
100
AcDbLine
 10
239.856696
 20
569.193866
 11
246.056647
 21
569.193866
  0
LINE
  5
438
100
AcDbEntity
  8
M0
 62
     6
100
AcDbLine
 10
244.956549
 20
559.394214
 11
245.840582
 21
558.510135
  0
LINE
  5
439
100
AcDbEntity
  8
M0
 62
     6
100
AcDbLine
 10
244.249762
 20
559.394214
 11
243.39234
 21
558.537006
  0
LINE
  5
43A
100
AcDbEntity
  8
M0
 62
     6
100
AcDbLine
 10
245.663824
 20
559.394214
 11
244.099615
 21
557.829899
  0
ARC
  5
43B
100
AcDbEntity
  8
M0
 62
     6
100
AcDbCircle
 10
244.956793
 20
559.394123
 40
3.499993
100
AcDbArc
 50
180.0
 51
328.994733
  0
LINE
  5
43C
100
AcDbEntity
  8
M0
  6
DASHDOT
 62
     6
100
AcDbLine
 10
250.616217
 20
559.394123
 11
239.297125
 21
559.394123
  0
LINE
  5
43D
100
AcDbEntity
  8
M0
  6
DASHDOT
 62
     6
100
AcDbLine
 10
244.956549
 20
559.394214
 11
244.956793
 21
553.734684
  0
CIRCLE
  5
43E
100
AcDbEntity
  8
M0
 62
     6
100
AcDbCircle
 10
254.456793
 20
558.394123
 40
2.999997
  0
LINE
  5
43F
100
AcDbEntity
  8
M0
 62
     6
100
AcDbLine
 10
251.497809
 20
562.341465
 11
250.681647
 21
559.694172
  0
LINE
  5
440
100
AcDbEntity
  8
M0
 62
     6
100
AcDbLine
 10
251.497809
 20
554.446872
 11
250.681647
 21
557.094196
  0
LINE
  5
441
100
AcDbEntity
  8
M0
 62
     6
100
AcDbLine
 10
257.415289
 20
562.34148
 11
258.231696
 21
559.694172
  0
LINE
  5
442
100
AcDbEntity
  8
M0
 62
     6
100
AcDbLine
 10
257.415289
 20
554.446857
 11
258.231696
 21
557.094196
  0
LINE
  5
443
100
AcDbEntity
  8
M0
 62
     6
100
AcDbLine
 10
251.975836
 20
554.094196
 11
256.937506
 21
554.094196
  0
LINE
  5
444
100
AcDbEntity
  8
M0
 62
     6
100
AcDbLine
 10
258.231696
 20
557.094196
 11
258.231696
 21
559.694172
  0
LINE
  5
445
100
AcDbEntity
  8
M0
 62
     6
100
AcDbLine
 10
256.937506
 20
562.694172
 11
251.975836
 21
562.694156
  0
LINE
  5
446
100
AcDbEntity
  8
M0
 62
     6
100
AcDbLine
 10
250.681647
 20
559.694172
 11
250.681647
 21
557.094196
  0
LINE
  5
447
100
AcDbEntity
  8
M0
  6
DASHDOT
 62
     6
100
AcDbLine
 10
248.181647
 20
558.394123
 11
260.731696
 21
558.394123
  0
LINE
  5
448
100
AcDbEntity
  8
M0
  6
DASHDOT
 62
     6
100
AcDbLine
 10
254.456793
 20
551.594211
 11
254.456793
 21
565.194172
  0
LINE
  5
449
100
AcDbEntity
  8
M0
 62
     6
100
AcDbLine
 10
256.047369
 20
556.803303
 11
252.865729
 21
559.985065
  0
LINE
  5
44A
100
AcDbEntity
  8
M0
 62
     6
100
AcDbLine
 10
254.810065
 20
559.808307
 11
253.042487
 21
558.040607
  0
LINE
  5
44B
100
AcDbEntity
  8
M0
 62
     6
100
AcDbLine
 10
255.870612
 20
558.747638
 11
254.103033
 21
556.98006
  0
ARC
  5
44C
100
AcDbEntity
  8
M0
 62
     6
100
AcDbCircle
 10
251.975836
 20
562.194156
 40
0.5
100
AcDbArc
 50
90.0
 51
162.874517
  0
ARC
  5
44D
100
AcDbEntity
  8
M0
 62
     6
100
AcDbCircle
 10
251.975836
 20
554.594196
 40
0.5
100
AcDbArc
 50
197.128825
 51
269.998251
  0
ARC
  5
44E
100
AcDbEntity
  8
M0
 62
     6
100
AcDbCircle
 10
256.937506
 20
554.594196
 40
0.5
100
AcDbArc
 50
269.998251
 51
342.859604
  0
ARC
  5
44F
100
AcDbEntity
  8
M0
 62
     6
100
AcDbCircle
 10
256.937506
 20
562.194156
 40
0.5
100
AcDbArc
 50
17.136539
 51
90.0
  0
CIRCLE
  5
450
100
AcDbEntity
  8
M0
 62
     6
100
AcDbCircle
 10
265.456793
 20
558.394123
 40
2.999997
  0
LINE
  5
451
100
AcDbEntity
  8
M0
 62
     6
100
AcDbLine
 10
262.497809
 20
562.341465
 11
261.681647
 21
559.694172
  0
LINE
  5
452
100
AcDbEntity
  8
M0
 62
     6
100
AcDbLine
 10
262.497809
 20
554.446872
 11
261.681647
 21
557.094196
  0
LINE
  5
453
100
AcDbEntity
  8
M0
 62
     6
100
AcDbLine
 10
268.415289
 20
562.34148
 11
269.231696
 21
559.694172
  0
LINE
  5
454
100
AcDbEntity
  8
M0
 62
     6
100
AcDbLine
 10
268.415289
 20
554.446857
 11
269.231696
 21
557.094196
  0
LINE
  5
455
100
AcDbEntity
  8
M0
 62
     6
100
AcDbLine
 10
262.975836
 20
554.094196
 11
267.937506
 21
554.094196
  0
LINE
  5
456
100
AcDbEntity
  8
M0
 62
     6
100
AcDbLine
 10
269.231696
 20
557.094196
 11
269.231696
 21
559.694172
  0
LINE
  5
457
100
AcDbEntity
  8
M0
 62
     6
100
AcDbLine
 10
267.937506
 20
562.694172
 11
262.975836
 21
562.694156
  0
LINE
  5
458
100
AcDbEntity
  8
M0
 62
     6
100
AcDbLine
 10
261.681647
 20
559.694172
 11
261.681647
 21
557.094196
  0
LINE
  5
459
100
AcDbEntity
  8
M0
  6
DASHDOT
 62
     6
100
AcDbLine
 10
259.181647
 20
558.394123
 11
271.731696
 21
558.394123
  0
LINE
  5
45A
100
AcDbEntity
  8
M0
  6
DASHDOT
 62
     6
100
AcDbLine
 10
265.456793
 20
551.594211
 11
265.456793
 21
565.194172
  0
LINE
  5
45B
100
AcDbEntity
  8
M0
 62
     6
100
AcDbLine
 10
267.047369
 20
556.803303
 11
263.865729
 21
559.985065
  0
LINE
  5
45C
100
AcDbEntity
  8
M0
 62
     6
100
AcDbLine
 10
265.810065
 20
559.808307
 11
264.042487
 21
558.040607
  0
LINE
  5
45D
100
AcDbEntity
  8
M0
 62
     6
100
AcDbLine
 10
266.870612
 20
558.747638
 11
265.103033
 21
556.98006
  0
ARC
  5
45E
100
AcDbEntity
  8
M0
 62
     6
100
AcDbCircle
 10
262.975836
 20
562.194156
 40
0.5
100
AcDbArc
 50
90.0
 51
162.874517
  0
ARC
  5
45F
100
AcDbEntity
  8
M0
 62
     6
100
AcDbCircle
 10
262.975836
 20
554.594196
 40
0.5
100
AcDbArc
 50
197.128825
 51
269.998251
  0
ARC
  5
460
100
AcDbEntity
  8
M0
 62
     6
100
AcDbCircle
 10
267.937506
 20
554.594196
 40
0.5
100
AcDbArc
 50
269.998251
 51
342.859604
  0
ARC
  5
461
100
AcDbEntity
  8
M0
 62
     6
100
AcDbCircle
 10
267.937506
 20
562.194156
 40
0.5
100
AcDbArc
 50
17.136539
 51
90.0
  0
LINE
  5
462
100
AcDbEntity
  8
M0
 62
     6
100
AcDbLine
 10
235.456793
 20
584.394077
 11
225.456793
 21
584.394123
  0
LINE
  5
463
100
AcDbEntity
  8
M0
100
AcDbLine
 10
574.960371
 20
568.243949
 11
539.960371
 21
568.24396
  0
LINE
  5
464
100
AcDbEntity
  8
M0
100
AcDbLine
 10
538.960368
 20
561.24396
 11
538.96037
 21
567.24396
  0
ARC
  5
465
100
AcDbEntity
  8
M0
100
AcDbCircle
 10
539.96037
 20
567.24396
 40
1.0
100
AcDbArc
 50
90.0
 51
179.999982
  0
LINE
  5
466
100
AcDbEntity
  8
M0
100
AcDbLine
 10
553.960368
 20
561.243955
 11
553.96037
 21
567.243955
  0
ARC
  5
467
100
AcDbEntity
  8
M0
100
AcDbCircle
 10
554.96037
 20
567.243955
 40
1.0
100
AcDbArc
 50
90.0
 51
179.999982
  0
ARC
  5
468
100
AcDbEntity
  8
M0
100
AcDbCircle
 10
563.960371
 20
569.243952
 40
1.0
100
AcDbArc
 50
179.999982
 51
269.999108
  0
LINE
  5
469
100
AcDbEntity
  8
M0
100
AcDbLine
 10
562.960374
 20
577.243952
 11
562.960371
 21
569.243952
  0
ARC
  5
46A
100
AcDbEntity
  8
M0
100
AcDbCircle
 10
560.960374
 20
577.243953
 40
2.0
100
AcDbArc
 50
359.999545
 51
450.0
  0
LINE
  5
46B
100
AcDbEntity
  8
M0
  6
DASHDOT
100
AcDbLine
 10
560.795348
 20
573.243953
 11
578.848785
 21
573.243947
  0
LINE
  5
46C
100
AcDbEntity
  8
M0
100
AcDbLine
 10
513.960373
 20
575.243968
 11
515.460373
 21
575.243967
  0
LINE
  5
46D
100
AcDbEntity
  8
M0
100
AcDbLine
 10
513.960373
 20
575.243968
 11
513.960367
 21
556.243968
  0
LINE
  5
46E
100
AcDbEntity
  8
M0
100
AcDbLine
 10
574.960378
 20
591.243949
 11
540.86028
 21
591.243959
  0
LINE
  5
46F
100
AcDbEntity
  8
M0
100
AcDbLine
 10
515.460374
 20
579.243967
 11
560.960374
 21
579.243953
  0
LINE
  5
470
100
AcDbEntity
  8
M0
100
AcDbLine
 10
515.460377
 20
588.39387
 11
515.460373
 21
575.243967
  0
LINE
  5
471
100
AcDbEntity
  8
M0
100
AcDbLine
 10
513.960367
 20
556.243968
 11
525.960367
 21
556.243964
  0
LINE
  5
472
100
AcDbEntity
  8
M0
100
AcDbLine
 10
574.960368
 20
561.243949
 11
528.960368
 21
561.243963
  0
LINE
  5
473
100
AcDbEntity
  8
M0
100
AcDbLine
 10
525.960367
 20
556.243964
 11
525.960368
 21
558.243964
  0
ARC
  5
474
100
AcDbEntity
  8
M0
100
AcDbCircle
 10
528.960368
 20
558.243963
 40
3.0
100
AcDbArc
 50
90.0
 51
179.999982
  0
LINE
  5
475
100
AcDbEntity
  8
M0
100
AcDbLine
 10
574.960368
 20
561.243949
 11
574.960378
 21
591.243949
  0
LINE
  5
476
100
AcDbEntity
  8
M0
100
AcDbLine
 10
508.960364
 20
577.243717
 11
508.960364
 21
561.743976
  0
LINE
  5
477
100
AcDbEntity
  8
M0
100
AcDbLine
 10
491.260352
 20
588.743976
 11
491.260352
 21
558.243976
  0
LINE
  5
478
100
AcDbEntity
  8
M0
100
AcDbLine
 10
485.960364
 20
599.243976
 11
492.860266
 21
599.243976
  0
LINE
  5
479
100
AcDbEntity
  8
M0
100
AcDbLine
 10
485.960364
 20
599.243976
 11
485.960364
 21
593.743976
  0
LINE
  5
47A
100
AcDbEntity
  8
M0
100
AcDbLine
 10
495.960364
 20
558.243976
 11
499.460364
 21
561.743976
  0
LINE
  5
47B
100
AcDbEntity
  8
M0
  6
DASHED
100
AcDbLine
 10
506.660361
 20
561.743976
 11
506.660361
 21
588.393863
  0
LINE
  5
47C
100
AcDbEntity
  8
M0
100
AcDbLine
 10
499.460364
 20
561.743976
 11
508.960364
 21
561.743976
  0
LINE
  5
47D
100
AcDbEntity
  8
M0
100
AcDbLine
 10
488.960364
 20
558.243976
 11
495.960364
 21
558.243976
  0
LINE
  5
47E
100
AcDbEntity
  8
M0
100
AcDbLine
 10
488.960364
 20
574.243976
 11
491.260352
 21
574.243976
  0
LINE
  5
47F
100
AcDbEntity
  8
M0
100
AcDbLine
 10
485.960364
 20
593.743976
 11
492.760352
 21
593.743976
  0
LINE
  5
480
100
AcDbEntity
  8
M0
100
AcDbLine
 10
488.960364
 20
588.743976
 11
492.760352
 21
588.743976
  0
LINE
  5
481
100
AcDbEntity
  8
M0
100
AcDbLine
 10
488.960364
 20
588.743976
 11
488.960364
 21
558.243976
  0
LINE
  5
482
100
AcDbEntity
  8
M0
 62
     4
100
AcDbLine
 10
562.460364
 20
569.243732
 11
562.460364
 21
577.243732
  0
LINE
  5
483
100
AcDbEntity
  8
M0
 62
     4
100
AcDbLine
 10
562.960364
 20
569.243732
 11
562.960364
 21
577.243732
  0
LINE
  5
484
100
AcDbEntity
  8
M0
 62
     4
100
AcDbLine
 10
561.460364
 20
576.743732
 11
562.460364
 21
576.743732
  0
LINE
  5
485
100
AcDbEntity
  8
M0
 62
     4
100
AcDbLine
 10
561.460364
 20
569.743732
 11
562.460364
 21
569.743732
  0
LINE
  5
486
100
AcDbEntity
  8
M0
 62
     4
100
AcDbLine
 10
562.460364
 20
577.243732
 11
562.960364
 21
577.243732
  0
LINE
  5
487
100
AcDbEntity
  8
M0
 62
     4
100
AcDbLine
 10
562.460364
 20
569.243732
 11
562.960364
 21
569.243732
  0
LINE
  5
488
100
AcDbEntity
  8
M0
 62
     4
100
AcDbLine
 10
561.460364
 20
569.743854
 11
561.460364
 21
576.743854
  0
LINE
  5
489
100
AcDbEntity
  8
M0
 62
     4
100
AcDbLine
 10
561.460364
 20
575.243854
 11
561.460364
 21
571.243854
  0
LINE
  5
48A
100
AcDbEntity
  8
M0
  6
DASHDOT
 62
     4
100
AcDbLine
 10
556.460364
 20
573.243854
 11
573.470862
 21
573.243854
  0
LINE
  5
48B
100
AcDbEntity
  8
M0
 62
     4
100
AcDbLine
 10
561.460364
 20
576.743854
 11
560.481345
 21
576.743854
  0
ARC
  5
48C
100
AcDbEntity
  8
M0
 62
     4
100
AcDbCircle
 10
560.481345
 20
575.443851
 40
1.299999
100
AcDbArc
 50
90.0
 51
163.399181
  0
LINE
  5
48D
100
AcDbEntity
  8
M0
 62
     4
100
AcDbLine
 10
560.481345
 20
569.743854
 11
561.460364
 21
569.743854
  0
ARC
  5
48E
100
AcDbEntity
  8
M0
 62
     4
100
AcDbCircle
 10
560.481345
 20
571.043857
 40
1.299999
100
AcDbArc
 50
196.601463
 51
269.999327
  0
LINE
  5
48F
100
AcDbEntity
  8
M0
 62
     4
100
AcDbLine
 10
558.874258
 20
573.743854
 11
560.274268
 21
573.743854
  0
LINE
  5
490
100
AcDbEntity
  8
M0
 62
     4
100
AcDbLine
 10
560.274268
 20
573.743854
 11
560.274268
 21
572.743854
  0
LINE
  5
491
100
AcDbEntity
  8
M0
 62
     4
100
AcDbLine
 10
560.274268
 20
572.743854
 11
558.874258
 21
572.743854
  0
ARC
  5
492
100
AcDbEntity
  8
M0
 62
     4
100
AcDbCircle
 10
567.860358
 20
573.243854
 40
9.0
100
AcDbArc
 50
163.398489
 51
176.815266
  0
ARC
  5
493
100
AcDbEntity
  8
M0
 62
     4
100
AcDbCircle
 10
567.860358
 20
573.243854
 40
9.0
100
AcDbArc
 50
183.184734
 51
196.601511
  0
LINE
  5
494
100
AcDbEntity
  8
M0
 62
     3
100
AcDbLine
 10
492.860266
 20
613.143635
 11
492.860266
 21
610.143635
  0
LINE
  5
495
100
AcDbEntity
  8
M0
100
AcDbLine
 10
492.860266
 20
588.393879
 11
540.860266
 21
588.393879
  0
LINE
  5
496
100
AcDbEntity
  8
M0
100
AcDbLine
 10
540.860266
 20
588.393879
 11
540.860266
 21
605.893879
  0
LINE
  5
497
100
AcDbEntity
  8
M0
100
AcDbLine
 10
540.860266
 20
605.893879
 11
492.860266
 21
605.893879
  0
LINE
  5
498
100
AcDbEntity
  8
M0
100
AcDbLine
 10
518.660315
 20
607.09383
 11
515.060217
 21
607.09383
  0
LINE
  5
499
100
AcDbEntity
  8
M0
100
AcDbLine
 10
515.060217
 20
587.193683
 11
518.660315
 21
587.193683
  0
LINE
  5
49A
100
AcDbEntity
  8
M0
100
AcDbLine
 10
518.660315
 20
607.09383
 11
518.660315
 21
605.893879
  0
LINE
  5
49B
100
AcDbEntity
  8
M0
 62
     4
100
AcDbLine
 10
515.060217
 20
607.09383
 11
515.060217
 21
605.893879
  0
LINE
  5
49C
100
AcDbEntity
  8
M0
100
AcDbLine
 10
518.660315
 20
588.393879
 11
518.660315
 21
587.193683
  0
LINE
  5
49D
100
AcDbEntity
  8
M0
 62
     4
100
AcDbLine
 10
515.060217
 20
588.393879
 11
515.060217
 21
587.193683
  0
ARC
  5
49E
100
AcDbEntity
  8
M0
100
AcDbCircle
 10
524.61051
 20
611.643879
 40
1.5
100
AcDbArc
 50
269.971441
 51
450.0
  0
LINE
  5
49F
100
AcDbEntity
  8
M0
100
AcDbLine
 10
524.61051
 20
610.143879
 11
492.860266
 21
610.143879
  0
LINE
  5
4A0
100
AcDbEntity
  8
M0
 62
     3
100
AcDbLine
 10
524.61051
 20
613.143879
 11
492.860266
 21
613.143879
  0
LINE
  5
4A1
100
AcDbEntity
  8
M0
100
AcDbLine
 10
499.810217
 20
605.893879
 11
499.810217
 21
606.59383
  0
LINE
  5
4A2
100
AcDbEntity
  8
M0
100
AcDbLine
 10
499.810217
 20
606.59383
 11
493.910315
 21
606.59383
  0
LINE
  5
4A3
100
AcDbEntity
  8
M0
100
AcDbLine
 10
493.910315
 20
606.59383
 11
493.910315
 21
605.893879
  0
LINE
  5
4A4
100
AcDbEntity
  8
M0
100
AcDbLine
 10
493.910315
 20
605.893879
 11
499.810217
 21
605.893879
  0
LINE
  5
4A5
100
AcDbEntity
  8
M0
100
AcDbLine
 10
500.060461
 20
586.841388
 11
500.060461
 21
588.14632
  0
LINE
  5
4A6
100
AcDbEntity
  8
M0
100
AcDbLine
 10
498.888831
 20
588.393879
 11
494.831702
 21
588.393879
  0
LINE
  5
4A7
100
AcDbEntity
  8
M0
100
AcDbLine
 10
493.660315
 20
588.14632
 11
493.660315
 21
586.841388
  0
LINE
  5
4A8
100
AcDbEntity
  8
M0
100
AcDbLine
 10
494.831702
 20
586.59383
 11
498.888831
 21
586.59383
  0
LINE
  5
4A9
100
AcDbEntity
  8
M0
100
AcDbLine
 10
495.260413
 20
586.841388
 11
495.260413
 21
588.14632
  0
LINE
  5
4AA
100
AcDbEntity
  8
M0
 62
     4
100
AcDbLine
 10
498.460364
 20
586.841388
 11
498.460364
 21
588.14632
  0
ARC
  5
4AB
100
AcDbEntity
  8
M0
100
AcDbCircle
 10
494.460364
 20
587.731769
 40
1.197071
100
AcDbArc
 50
228.066421
 51
311.916478
  0
ARC
  5
4AC
100
AcDbEntity
  8
M0
100
AcDbCircle
 10
496.860266
 20
591.888752
 40
5.294884
100
AcDbArc
 50
252.410424
 51
287.583518
  0
ARC
  5
4AD
100
AcDbEntity
  8
M0
100
AcDbCircle
 10
499.260413
 20
587.731769
 40
1.197071
100
AcDbArc
 50
228.066421
 51
311.916478
  0
ARC
  5
4AE
100
AcDbEntity
  8
M0
100
AcDbCircle
 10
494.460364
 20
587.255695
 40
1.197071
100
AcDbArc
 50
48.067508
 51
131.94183
  0
ARC
  5
4AF
100
AcDbEntity
  8
M0
100
AcDbCircle
 10
496.860266
 20
583.098957
 40
5.294884
100
AcDbArc
 50
72.413142
 51
107.590306
  0
ARC
  5
4B0
100
AcDbEntity
  8
M0
100
AcDbCircle
 10
499.260413
 20
587.255695
 40
1.197071
100
AcDbArc
 50
48.075271
 51
131.94183
  0
LINE
  5
4B1
100
AcDbEntity
  8
M0
100
AcDbLine
 10
494.257727
 20
608.2784
 11
494.110266
 21
606.59383
  0
ARC
  5
4B2
100
AcDbEntity
  8
M0
100
AcDbCircle
 10
495.857336
 20
600.213947
 40
9.0
100
AcDbArc
 50
86.15657
 51
94.324917
  0
ARC
  5
4B3
100
AcDbEntity
  8
M0
100
AcDbCircle
 10
497.86344
 20
600.213947
 40
9.0
100
AcDbArc
 50
85.675083
 51
93.84343
  0
LINE
  5
4B4
100
AcDbEntity
  8
M0
100
AcDbLine
 10
499.463049
 20
608.2784
 11
499.610266
 21
606.59383
  0
ARC
  5
4B5
100
AcDbEntity
  8
M0
100
AcDbCircle
 10
495.253821
 20
608.191242
 40
1.0
100
AcDbArc
 50
94.327361
 51
175.014847
  0
ARC
  5
4B6
100
AcDbEntity
  8
M0
100
AcDbCircle
 10
498.466711
 20
608.191242
 40
1.0
100
AcDbArc
 50
4.986176
 51
85.673511
  0
LINE
  5
4B7
100
AcDbEntity
  8
M0
100
AcDbLine
 10
498.360266
 20
582.59383
 11
495.360266
 21
582.59383
  0
LINE
  5
4B8
100
AcDbEntity
  8
M0
100
AcDbLine
 10
495.360266
 20
582.59383
 11
495.360266
 21
586.59383
  0
LINE
  5
4B9
100
AcDbEntity
  8
M0
100
AcDbLine
 10
494.110266
 20
606.59383
 11
499.610266
 21
606.59383
  0
LINE
  5
4BA
100
AcDbEntity
  8
M0
100
AcDbLine
 10
497.260413
 20
609.193683
 11
497.260413
 21
608.09383
  0
LINE
  5
4BB
100
AcDbEntity
  8
M0
100
AcDbLine
 10
496.460364
 20
609.193683
 11
496.460364
 21
608.09383
  0
LINE
  5
4BC
100
AcDbEntity
  8
M0
100
AcDbLine
 10
496.460364
 20
608.09383
 11
497.260413
 21
608.09383
  0
LINE
  5
4BD
100
AcDbEntity
  8
M0
100
AcDbLine
 10
495.860266
 20
586.59383
 11
495.860266
 21
582.59383
  0
LINE
  5
4BE
100
AcDbEntity
  8
M0
100
AcDbLine
 10
497.860266
 20
586.59383
 11
497.860266
 21
582.59383
  0
LINE
  5
4BF
100
AcDbEntity
  8
M0
100
AcDbLine
 10
498.360266
 20
586.59383
 11
498.360266
 21
582.59383
  0
LINE
  5
4C0
100
AcDbEntity
  8
M0
100
AcDbLine
 10
533.910315
 20
605.893879
 11
533.910315
 21
606.59383
  0
LINE
  5
4C1
100
AcDbEntity
  8
M0
100
AcDbLine
 10
533.910315
 20
606.59383
 11
539.810217
 21
606.59383
  0
LINE
  5
4C2
100
AcDbEntity
  8
M0
100
AcDbLine
 10
539.810217
 20
606.59383
 11
539.810217
 21
605.893879
  0
LINE
  5
4C3
100
AcDbEntity
  8
M0
100
AcDbLine
 10
539.810217
 20
605.893879
 11
533.910315
 21
605.893879
  0
LINE
  5
4C4
100
AcDbEntity
  8
M0
100
AcDbLine
 10
533.660315
 20
586.943683
 11
533.660315
 21
588.14632
  0
LINE
  5
4C5
100
AcDbEntity
  8
M0
100
AcDbLine
 10
534.831702
 20
588.393879
 11
538.888831
 21
588.393879
  0
LINE
  5
4C6
100
AcDbEntity
  8
M0
100
AcDbLine
 10
540.060217
 20
588.14632
 11
540.060217
 21
586.943683
  0
LINE
  5
4C7
100
AcDbEntity
  8
M0
100
AcDbLine
 10
538.460364
 20
586.943683
 11
538.460364
 21
588.14632
  0
LINE
  5
4C8
100
AcDbEntity
  8
M0
100
AcDbLine
 10
535.260413
 20
586.943683
 11
535.260413
 21
588.14632
  0
ARC
  5
4C9
100
AcDbEntity
  8
M0
100
AcDbCircle
 10
539.260168
 20
587.255695
 40
1.197071
100
AcDbArc
 50
48.067508
 51
131.94183
  0
ARC
  5
4CA
100
AcDbEntity
  8
M0
100
AcDbCircle
 10
536.860266
 20
583.098957
 40
5.294884
100
AcDbArc
 50
72.413142
 51
107.590306
  0
ARC
  5
4CB
100
AcDbEntity
  8
M0
100
AcDbCircle
 10
534.460364
 20
587.255695
 40
1.197071
100
AcDbArc
 50
48.067508
 51
131.94183
  0
LINE
  5
4CC
100
AcDbEntity
  8
M0
100
AcDbLine
 10
539.544592
 20
607.34383
 11
539.610266
 21
606.59383
  0
LINE
  5
4CD
100
AcDbEntity
  8
M0
100
AcDbLine
 10
534.17594
 20
607.34383
 11
534.110266
 21
606.59383
  0
LINE
  5
4CE
100
AcDbEntity
  8
M0
100
AcDbLine
 10
539.610266
 20
606.59383
 11
534.110266
 21
606.59383
  0
LINE
  5
4CF
100
AcDbEntity
  8
M0
100
AcDbLine
 10
492.860266
 20
605.893635
 11
492.860266
 21
588.393879
  0
LINE
  5
4D0
100
AcDbEntity
  8
M0
100
AcDbLine
 10
508.960364
 20
528.743732
 11
513.960364
 21
528.743732
  0
LINE
  5
4D1
100
AcDbEntity
  8
M0
100
AcDbLine
 10
513.960364
 20
528.743732
 11
513.960364
 21
577.243732
  0
LINE
  5
4D2
100
AcDbEntity
  8
M0
100
AcDbLine
 10
477.560217
 20
648.743732
 11
472.560217
 21
648.743732
  0
LINE
  5
4D3
100
AcDbEntity
  8
M0
100
AcDbLine
 10
472.560217
 20
648.743732
 11
472.560217
 21
623.243732
  0
LINE
  5
4D4
100
AcDbEntity
  8
M0
100
AcDbLine
 10
477.560217
 20
648.743732
 11
477.560217
 21
623.243732
  0
LINE
  5
4D5
100
AcDbEntity
  8
M0
100
AcDbLine
 10
508.960364
 20
528.743732
 11
508.960364
 21
577.243732
  0
ARC
  5
4D6
100
AcDbEntity
  8
M0
100
AcDbCircle
 10
480.560217
 20
623.243732
 40
3.0
100
AcDbArc
 50
180.0
 51
269.999709
  0
ARC
  5
4D7
100
AcDbEntity
  8
M0
  6
DASHED
 62
     3
100
AcDbCircle
 10
505.960364
 20
612.243732
 40
3.0
100
AcDbArc
 50
17.46155
 51
90.0
  0
ARC
  5
4D8
100
AcDbEntity
  8
M0
 62
     3
100
AcDbCircle
 10
480.560217
 20
623.243732
 40
8.0
100
AcDbArc
 50
180.0
 51
269.999891
  0
ARC
  5
4D9
100
AcDbEntity
  8
M0
  6
DASHED
100
AcDbCircle
 10
505.960364
 20
612.243732
 40
8.0
100
AcDbArc
 50
6.460621
 51
90.0
  0
LINE
  5
4DA
100
AcDbEntity
  8
M0
100
AcDbLine
 10
480.560217
 20
620.243732
 11
482.960364
 21
620.243732
  0
LINE
  5
4DB
100
AcDbEntity
  8
M0
 62
     3
100
AcDbLine
 10
480.560217
 20
615.243732
 11
482.960364
 21
615.243732
  0
LINE
  5
4DC
100
AcDbEntity
  8
M0
  6
DASHDOT
100
AcDbLine
 10
500.284583
 20
567.243732
 11
523.792395
 21
567.243732
  0
LINE
  5
4DD
100
AcDbEntity
  8
M0
  6
DASHDOT
100
AcDbLine
 10
463.651434
 20
636.243732
 11
487.697424
 21
636.243732
  0
LINE
  5
4DE
100
AcDbEntity
  8
M0
 62
     3
100
AcDbLine
 10
482.960364
 20
614.143635
 11
482.960364
 21
621.343586
  0
LINE
  5
4DF
100
AcDbEntity
  8
M0
100
AcDbLine
 10
482.960364
 20
621.343586
 11
505.96012
 21
621.343586
  0
LINE
  5
4E0
100
AcDbEntity
  8
M0
 62
     3
100
AcDbLine
 10
482.960364
 20
614.143635
 11
505.96012
 21
614.143635
  0
LINE
  5
4E1
100
AcDbEntity
  8
M0
100
AcDbLine
 10
507.860266
 20
577.243732
 11
507.860266
 21
588.393879
  0
LINE
  5
4E2
100
AcDbEntity
  8
M0
100
AcDbLine
 10
515.060217
 20
577.243732
 11
515.060217
 21
588.393879
  0
LINE
  5
4E3
100
AcDbEntity
  8
M0
100
AcDbLine
 10
507.860266
 20
577.243732
 11
515.060217
 21
577.243732
  0
ARC
  5
4E4
100
AcDbEntity
  8
M0
 62
     3
100
AcDbCircle
 10
505.96012
 20
612.243488
 40
1.9
100
AcDbArc
 50
28.287293
 51
90.0
  0
ARC
  5
4E5
100
AcDbEntity
  8
M0
100
AcDbCircle
 10
505.96012
 20
612.243488
 40
9.099998
100
AcDbArc
 50
5.678473
 51
90.0
  0
LINE
  5
4E6
100
AcDbEntity
  8
M0
  6
DASHED
 62
     3
100
AcDbLine
 10
482.960364
 20
615.243732
 11
505.960364
 21
615.243732
  0
LINE
  5
4E7
100
AcDbEntity
  8
M0
  6
DASHED
100
AcDbLine
 10
482.960364
 20
620.243732
 11
505.960364
 21
620.243732
  0
LINE
  5
4E8
100
AcDbEntity
  8
M0
  6
DASHED
100
AcDbLine
 10
508.960364
 20
577.243732
 11
508.960364
 21
588.393879
  0
LINE
  5
4E9
100
AcDbEntity
  8
M0
  6
DASHED
100
AcDbLine
 10
513.960364
 20
577.243732
 11
513.960364
 21
588.393879
  0
LINE
  5
4EA
100
AcDbEntity
  8
M0
100
AcDbLine
 10
485.4672
 20
622.443439
 11
491.4672
 21
622.443439
  0
LINE
  5
4EB
100
AcDbEntity
  8
M0
 62
     3
100
AcDbLine
 10
485.4672
 20
613.043537
 11
491.4672
 21
613.043537
  0
LINE
  5
4EC
100
AcDbEntity
  8
M0
 62
     3
100
AcDbLine
 10
485.4672
 20
622.443439
 11
485.4672
 21
613.043537
  0
LINE
  5
4ED
100
AcDbEntity
  8
M0
 62
     3
100
AcDbLine
 10
491.4672
 20
622.443439
 11
491.4672
 21
613.043537
  0
LINE
  5
4EE
100
AcDbEntity
  8
M0
100
AcDbLine
 10
507.860266
 20
605.893635
 11
507.860266
 21
610.143635
  0
LINE
  5
4EF
100
AcDbEntity
  8
M0
  6
DASHED
100
AcDbLine
 10
508.960364
 20
605.893635
 11
508.960364
 21
610.143635
  0
LINE
  5
4F0
100
AcDbEntity
  8
M0
  6
DASHED
100
AcDbLine
 10
513.960364
 20
605.893635
 11
513.960364
 21
610.143635
  0
LINE
  5
4F1
100
AcDbEntity
  8
M0
100
AcDbLine
 10
515.060217
 20
605.893635
 11
515.060217
 21
610.143635
  0
LINE
  5
4F2
100
AcDbEntity
  8
M0
100
AcDbLine
 10
498.660361
 20
536.243839
 11
485.46012
 21
536.243976
  0
LINE
  5
4F3
100
AcDbEntity
  8
M0
100
AcDbLine
 10
483.96012
 20
537.743976
 11
483.96012
 21
544.743732
  0
LINE
  5
4F4
100
AcDbEntity
  8
M0
100
AcDbLine
 10
485.46012
 20
546.243732
 11
498.660361
 21
546.243732
  0
LINE
  5
4F5
100
AcDbEntity
  8
M0
  6
DASHDOT
100
AcDbLine
 10
525.646887
 20
541.243976
 11
478.96012
 21
541.243976
  0
LINE
  5
4F6
100
AcDbEntity
  8
M0
100
AcDbLine
 10
498.660361
 20
537.743686
 11
483.96012
 21
537.743976
  0
LINE
  5
4F7
100
AcDbEntity
  8
M0
100
AcDbLine
 10
483.96012
 20
544.743976
 11
498.660361
 21
544.743976
  0
LINE
  5
4F8
100
AcDbEntity
  8
M0
100
AcDbLine
 10
485.46012
 20
536.243976
 11
485.46012
 21
546.243976
  0
LINE
  5
4F9
100
AcDbEntity
  8
M0
100
AcDbLine
 10
485.46012
 20
546.243732
 11
483.96012
 21
544.743732
  0
LINE
  5
4FA
100
AcDbEntity
  8
M0
100
AcDbLine
 10
485.46012
 20
536.243976
 11
483.96012
 21
537.743976
  0
LINE
  5
4FB
100
AcDbEntity
  8
M0
100
AcDbLine
 10
520.065344
 20
531.443928
 11
513.960364
 21
531.443928
  0
LINE
  5
4FC
100
AcDbEntity
  8
M0
100
AcDbLine
 10
513.960364
 20
531.443928
 11
513.960364
 21
551.043781
  0
LINE
  5
4FD
100
AcDbEntity
  8
M0
100
AcDbLine
 10
513.960364
 20
551.043781
 11
520.065344
 21
551.043781
  0
LINE
  5
4FE
100
AcDbEntity
  8
M0
100
AcDbLine
 10
520.960364
 20
547.693683
 11
520.960364
 21
534.794025
  0
ARC
  5
4FF
100
AcDbEntity
  8
M0
100
AcDbCircle
 10
517.611731
 20
548.59383
 40
3.467455
100
AcDbArc
 50
-44.964165
 51
44.956676
  0
ARC
  5
500
100
AcDbEntity
  8
M0
100
AcDbCircle
 10
507.097571
 20
541.243732
 40
13.862621
100
AcDbArc
 50
-20.701141
 51
20.698107
  0
ARC
  5
501
100
AcDbEntity
  8
M0
100
AcDbCircle
 10
517.611731
 20
533.893879
 40
3.467455
100
AcDbArc
 50
315.035835
 51
404.956676
  0
LINE
  5
502
100
AcDbEntity
  8
M0
100
AcDbLine
 10
520.065344
 20
546.143879
 11
513.960364
 21
546.143879
  0
LINE
  5
503
100
AcDbEntity
  8
M0
100
AcDbLine
 10
520.065344
 20
536.34383
 11
513.960364
 21
536.34383
  0
ARC
  5
504
100
AcDbEntity
  8
M0
100
AcDbCircle
 10
537.863196
 20
600.213947
 40
9.0
100
AcDbArc
 50
85.675083
 51
93.84343
  0
LINE
  5
505
100
AcDbEntity
  8
M0
100
AcDbLine
 10
537.260168
 20
609.193683
 11
537.260168
 21
608.09383
  0
LINE
  5
506
100
AcDbEntity
  8
M0
100
AcDbLine
 10
537.260168
 20
608.09383
 11
536.46012
 21
608.09383
  0
LINE
  5
507
100
AcDbEntity
  8
M0
100
AcDbLine
 10
536.46012
 20
609.193683
 11
536.46012
 21
608.09383
  0
ARC
  5
508
100
AcDbEntity
  8
M0
100
AcDbCircle
 10
535.857092
 20
600.213947
 40
9.0
100
AcDbArc
 50
86.15657
 51
94.324917
  0
ARC
  5
509
100
AcDbEntity
  8
M0
100
AcDbCircle
 10
535.253821
 20
608.191242
 40
1.0
100
AcDbArc
 50
94.327361
 51
175.0139
  0
ARC
  5
50A
100
AcDbEntity
  8
M0
100
AcDbCircle
 10
538.466711
 20
608.191242
 40
1.0
100
AcDbArc
 50
4.985229
 51
85.673511
  0
LINE
  5
50B
100
AcDbEntity
  8
M0
100
AcDbLine
 10
534.257483
 20
608.2784
 11
534.110266
 21
606.59383
  0
LINE
  5
50C
100
AcDbEntity
  8
M0
100
AcDbLine
 10
539.462805
 20
608.2784
 11
539.610266
 21
606.59383
  0
LINE
  5
50D
100
AcDbEntity
  8
M0
100
AcDbLine
 10
533.660071
 20
586.841388
 11
533.660071
 21
588.14632
  0
LINE
  5
50E
100
AcDbEntity
  8
M0
100
AcDbLine
 10
540.060217
 20
588.14632
 11
540.060217
 21
586.841388
  0
LINE
  5
50F
100
AcDbEntity
  8
M0
100
AcDbLine
 10
538.888831
 20
586.59383
 11
534.831702
 21
586.59383
  0
LINE
  5
510
100
AcDbEntity
  8
M0
100
AcDbLine
 10
538.46012
 20
586.841388
 11
538.46012
 21
588.14632
  0
LINE
  5
511
100
AcDbEntity
  8
M0
 62
     4
100
AcDbLine
 10
535.260168
 20
586.841388
 11
535.260168
 21
588.14632
  0
ARC
  5
512
100
AcDbEntity
  8
M0
100
AcDbCircle
 10
539.260168
 20
587.731769
 40
1.197071
100
AcDbArc
 50
228.082978
 51
311.933036
  0
ARC
  5
513
100
AcDbEntity
  8
M0
100
AcDbCircle
 10
536.860266
 20
591.888752
 40
5.294884
100
AcDbArc
 50
252.416324
 51
287.589419
  0
ARC
  5
514
100
AcDbEntity
  8
M0
100
AcDbCircle
 10
534.46012
 20
587.731769
 40
1.197071
100
AcDbArc
 50
228.082978
 51
311.933036
  0
ARC
  5
515
100
AcDbEntity
  8
M0
100
AcDbCircle
 10
539.260168
 20
587.255695
 40
1.197071
100
AcDbArc
 50
48.058713
 51
131.933036
  0
ARC
  5
516
100
AcDbEntity
  8
M0
100
AcDbCircle
 10
536.860266
 20
583.098957
 40
5.294884
100
AcDbArc
 50
72.409694
 51
107.587016
  0
ARC
  5
517
100
AcDbEntity
  8
M0
100
AcDbCircle
 10
534.46012
 20
587.255695
 40
1.197071
100
AcDbArc
 50
48.058713
 51
131.925273
  0
LINE
  5
518
100
AcDbEntity
  8
M0
100
AcDbLine
 10
535.360266
 20
582.59383
 11
538.360266
 21
582.59383
  0
LINE
  5
519
100
AcDbEntity
  8
M0
100
AcDbLine
 10
538.360266
 20
582.59383
 11
538.360266
 21
586.59383
  0
LINE
  5
51A
100
AcDbEntity
  8
M0
100
AcDbLine
 10
537.860266
 20
586.59383
 11
537.860266
 21
582.59383
  0
LINE
  5
51B
100
AcDbEntity
  8
M0
100
AcDbLine
 10
535.860266
 20
586.59383
 11
535.860266
 21
582.59383
  0
LINE
  5
51C
100
AcDbEntity
  8
M0
100
AcDbLine
 10
535.360266
 20
586.59383
 11
535.360266
 21
582.59383
  0
LINE
  5
51D
100
AcDbEntity
  8
M0
100
AcDbLine
 10
257.957037
 20
605.894123
 11
257.957037
 21
588.394123
  0
LINE
  5
51E
100
AcDbEntity
  8
M0
100
AcDbLine
 10
257.957037
 20
588.394123
 11
305.957037
 21
588.394123
  0
LINE
  5
51F
100
AcDbEntity
  8
M0
100
AcDbLine
 10
305.957037
 20
588.394123
 11
305.957037
 21
605.894123
  0
LINE
  5
520
100
AcDbEntity
  8
M0
100
AcDbLine
 10
305.957037
 20
605.894123
 11
257.957037
 21
605.894123
  0
LINE
  5
521
100
AcDbEntity
  8
M0
100
AcDbLine
 10
259.354498
 20
608.278644
 11
259.207282
 21
606.594074
  0
ARC
  5
522
100
AcDbEntity
  8
M0
100
AcDbCircle
 10
260.954108
 20
600.214191
 40
9.0
100
AcDbArc
 50
86.154625
 51
94.323069
  0
ARC
  5
523
100
AcDbEntity
  8
M0
100
AcDbCircle
 10
262.960211
 20
600.214191
 40
9.0
100
AcDbArc
 50
85.671574
 51
93.840413
  0
LINE
  5
524
100
AcDbEntity
  8
M0
100
AcDbLine
 10
264.559821
 20
608.278644
 11
264.707037
 21
606.594074
  0
ARC
  5
525
100
AcDbEntity
  8
M0
100
AcDbCircle
 10
260.350836
 20
608.191486
 40
1.0
100
AcDbArc
 50
94.315962
 51
175.0139
  0
ARC
  5
526
100
AcDbEntity
  8
M0
100
AcDbCircle
 10
263.563483
 20
608.191486
 40
1.0
100
AcDbArc
 50
4.972089
 51
85.646288
  0
LINE
  5
527
100
AcDbEntity
  8
M0
100
AcDbLine
 10
259.207037
 20
606.594074
 11
264.707037
 21
606.594074
  0
LINE
  5
528
100
AcDbEntity
  8
M0
100
AcDbLine
 10
262.357184
 20
609.193928
 11
262.357184
 21
608.094074
  0
LINE
  5
529
100
AcDbEntity
  8
M0
100
AcDbLine
 10
261.557135
 20
609.193928
 11
261.557135
 21
608.094074
  0
LINE
  5
52A
100
AcDbEntity
  8
M0
100
AcDbLine
 10
261.557135
 20
608.094074
 11
262.357184
 21
608.094074
  0
LINE
  5
52B
100
AcDbEntity
  8
M0
100
AcDbLine
 10
262.707282
 20
588.394123
 11
261.207282
 21
588.394123
  0
LINE
  5
52C
100
AcDbEntity
  8
M0
100
AcDbLine
 10
264.907233
 20
605.894123
 11
264.907233
 21
606.594074
  0
LINE
  5
52D
100
AcDbEntity
  8
M0
100
AcDbLine
 10
264.907233
 20
606.594074
 11
259.007086
 21
606.594074
  0
LINE
  5
52E
100
AcDbEntity
  8
M0
100
AcDbLine
 10
259.007086
 20
606.594074
 11
259.007086
 21
605.894123
  0
LINE
  5
52F
100
AcDbEntity
  8
M0
100
AcDbLine
 10
259.007086
 20
605.894123
 11
264.907233
 21
605.894123
  0
LINE
  5
530
100
AcDbEntity
  8
M0
100
AcDbLine
 10
304.559821
 20
608.278644
 11
304.707037
 21
606.594074
  0
ARC
  5
531
100
AcDbEntity
  8
M0
100
AcDbCircle
 10
302.960211
 20
600.214191
 40
9.0
100
AcDbArc
 50
85.673034
 51
93.843236
  0
ARC
  5
532
100
AcDbEntity
  8
M0
100
AcDbCircle
 10
300.954108
 20
600.214191
 40
9.0
100
AcDbArc
 50
86.156279
 51
94.326869
  0
LINE
  5
533
100
AcDbEntity
  8
M0
100
AcDbLine
 10
299.354498
 20
608.278644
 11
299.207282
 21
606.594074
  0
ARC
  5
534
100
AcDbEntity
  8
M0
100
AcDbCircle
 10
303.563483
 20
608.191486
 40
1.0
100
AcDbArc
 50
4.986176
 51
85.659497
  0
ARC
  5
535
100
AcDbEntity
  8
M0
100
AcDbCircle
 10
300.350836
 20
608.191486
 40
1.0
100
AcDbArc
 50
94.329104
 51
175.0139
  0
LINE
  5
536
100
AcDbEntity
  8
M0
100
AcDbLine
 10
300.457037
 20
582.594074
 11
303.457037
 21
582.594074
  0
LINE
  5
537
100
AcDbEntity
  8
M0
100
AcDbLine
 10
303.457037
 20
582.594074
 11
303.457037
 21
586.534504
  0
LINE
  5
538
100
AcDbEntity
  8
M0
100
AcDbLine
 10
304.707037
 20
606.594074
 11
299.207037
 21
606.594074
  0
LINE
  5
539
100
AcDbEntity
  8
M0
100
AcDbLine
 10
301.557135
 20
609.193928
 11
301.557135
 21
608.094074
  0
LINE
  5
53A
100
AcDbEntity
  8
M0
100
AcDbLine
 10
302.357184
 20
609.193928
 11
302.357184
 21
608.094074
  0
LINE
  5
53B
100
AcDbEntity
  8
M0
100
AcDbLine
 10
302.357184
 20
608.094074
 11
301.557135
 21
608.094074
  0
LINE
  5
53C
100
AcDbEntity
  8
M0
100
AcDbLine
 10
302.957037
 20
586.594074
 11
302.957037
 21
582.594074
  0
LINE
  5
53D
100
AcDbEntity
  8
M0
100
AcDbLine
 10
300.957037
 20
586.554279
 11
300.957037
 21
582.594074
  0
LINE
  5
53E
100
AcDbEntity
  8
M0
100
AcDbLine
 10
300.457037
 20
586.534504
 11
300.457037
 21
582.594074
  0
LINE
  5
53F
100
AcDbEntity
  8
M0
100
AcDbLine
 10
301.207037
 20
588.394123
 11
302.707037
 21
588.394123
  0
LINE
  5
540
100
AcDbEntity
  8
M0
100
AcDbLine
 10
304.707037
 20
588.144123
 11
304.707037
 21
586.844074
  0
LINE
  5
541
100
AcDbEntity
  8
M0
100
AcDbLine
 10
302.707037
 20
586.594074
 11
301.207282
 21
586.594074
  0
LINE
  5
542
100
AcDbEntity
  8
M0
100
AcDbLine
 10
299.207037
 20
586.844074
 11
299.207037
 21
588.144123
  0
LINE
  5
543
100
AcDbEntity
  8
M0
100
AcDbLine
 10
301.957037
 20
586.844074
 11
301.957037
 21
588.144123
  0
ARC
  5
544
100
AcDbEntity
  8
M0
100
AcDbCircle
 10
300.582037
 20
585.269123
 40
3.186886
100
AcDbArc
 50
64.435128
 51
115.567573
  0
ARC
  5
545
100
AcDbEntity
  8
M0
100
AcDbCircle
 10
303.332037
 20
585.269123
 40
3.186886
100
AcDbArc
 50
64.435128
 51
115.567573
  0
ARC
  5
546
100
AcDbEntity
  8
M0
100
AcDbCircle
 10
300.582037
 20
589.719074
 40
3.186886
100
AcDbArc
 50
244.437087
 51
295.555919
  0
ARC
  5
547
100
AcDbEntity
  8
M0
100
AcDbCircle
 10
303.332037
 20
589.719074
 40
3.186886
100
AcDbArc
 50
244.436473
 51
295.555919
  0
LINE
  5
548
100
AcDbEntity
  8
M0
100
AcDbLine
 10
299.007086
 20
605.894123
 11
299.007086
 21
606.594074
  0
LINE
  5
549
100
AcDbEntity
  8
M0
100
AcDbLine
 10
299.007086
 20
606.594074
 11
304.907233
 21
606.594074
  0
LINE
  5
54A
100
AcDbEntity
  8
M0
100
AcDbLine
 10
304.907233
 20
606.594074
 11
304.907233
 21
605.894123
  0
LINE
  5
54B
100
AcDbEntity
  8
M0
100
AcDbLine
 10
304.907233
 20
605.894123
 11
299.007086
 21
605.894123
  0
LINE
  5
54C
100
AcDbEntity
  8
M0
100
AcDbLine
 10
270.457037
 20
528.743976
 11
293.457037
 21
528.743976
  0
LINE
  5
54D
100
AcDbEntity
  8
M0
100
AcDbLine
 10
293.457037
 20
528.743976
 11
293.457037
 21
577.243976
  0
LINE
  5
54E
100
AcDbEntity
  8
M0
100
AcDbLine
 10
293.457037
 20
648.743976
 11
270.457037
 21
648.743976
  0
LINE
  5
54F
100
AcDbEntity
  8
M0
100
AcDbLine
 10
270.457037
 20
648.743976
 11
270.457037
 21
615.243976
  0
LINE
  5
550
100
AcDbEntity
  8
M0
  6
DASHDOT
100
AcDbLine
 10
281.957037
 20
518.743976
 11
281.957037
 21
658.743976
  0
CIRCLE
  5
551
100
AcDbEntity
  8
M0
100
AcDbCircle
 10
281.957037
 20
541.243976
 40
5.0
  0
LINE
  5
552
100
AcDbEntity
  8
M0
  6
DASHDOT
100
AcDbLine
 10
266.957037
 20
541.243976
 11
296.957037
 21
541.243976
  0
CIRCLE
  5
553
100
AcDbEntity
  8
M0
100
AcDbCircle
 10
281.957037
 20
567.243976
 40
3.25
  0
LINE
  5
554
100
AcDbEntity
  8
M0
  6
DASHDOT
100
AcDbLine
 10
268.707037
 20
567.243976
 11
295.207037
 21
567.243976
  0
LINE
  5
555
100
AcDbEntity
  8
M0
100
AcDbLine
 10
270.457037
 20
615.243976
 11
293.457037
 21
615.243976
  0
LINE
  5
556
100
AcDbEntity
  8
M0
  6
DASHED
100
AcDbLine
 10
270.457037
 20
620.243976
 11
293.457037
 21
620.243976
  0
CIRCLE
  5
557
100
AcDbEntity
  8
M0
100
AcDbCircle
 10
281.957037
 20
636.243976
 40
5.5
  0
LINE
  5
558
100
AcDbEntity
  8
M0
  6
DASHDOT
100
AcDbLine
 10
266.457037
 20
636.243976
 11
297.457037
 21
636.243976
  0
LINE
  5
559
100
AcDbEntity
  8
M0
100
AcDbLine
 10
269.357031
 20
614.143879
 11
294.557028
 21
614.143879
  0
LINE
  5
55A
100
AcDbEntity
  8
M0
100
AcDbLine
 10
272.456793
 20
577.243976
 11
294.557028
 21
577.243976
  0
LINE
  5
55B
100
AcDbEntity
  8
M0
100
AcDbLine
 10
269.357031
 20
621.34383
 11
270.457037
 21
621.34383
  0
LINE
  5
55C
100
AcDbEntity
  8
M0
100
AcDbLine
 10
294.557028
 20
577.243976
 11
294.557028
 21
588.394123
  0
LINE
  5
55D
100
AcDbEntity
  8
M0
100
AcDbLine
 10
270.457037
 20
551.394123
 11
270.457037
 21
528.743976
  0
LINE
  5
55E
100
AcDbEntity
  8
M0
  6
DASHED
100
AcDbLine
 10
293.457037
 20
577.243976
 11
293.457037
 21
588.394123
  0
LINE
  5
55F
100
AcDbEntity
  8
M0
  6
DASHED
100
AcDbLine
 10
270.457037
 20
614.143879
 11
270.457037
 21
605.893879
  0
LINE
  5
560
100
AcDbEntity
  8
M0
100
AcDbLine
 10
293.457037
 20
615.243976
 11
293.457037
 21
648.743976
  0
LINE
  5
561
100
AcDbEntity
  8
M0
  6
DASHED
100
AcDbLine
 10
270.457037
 20
621.34383
 11
293.457037
 21
621.34383
  0
LINE
  5
562
100
AcDbEntity
  8
M0
100
AcDbLine
 10
293.457037
 20
621.34383
 11
294.557028
 21
621.34383
  0
LINE
  5
563
100
AcDbEntity
  8
M0
100
AcDbLine
 10
269.357031
 20
605.893879
 11
269.357031
 21
621.34383
  0
LINE
  5
564
100
AcDbEntity
  8
M0
  6
DASHED
100
AcDbLine
 10
293.457037
 20
605.893879
 11
293.457037
 21
614.143879
  0
LINE
  5
565
100
AcDbEntity
  8
M0
100
AcDbLine
 10
294.557028
 20
605.893879
 11
294.557028
 21
621.34383
  0
CIRCLE
  5
566
100
AcDbEntity
  8
M0
100
AcDbCircle
 10
281.957037
 20
541.243976
 40
3.5
  0
LINE
  5
567
100
AcDbEntity
  8
M0
 62
     6
100
AcDbLine
 10
433.879309
 20
555.243976
 11
449.085852
 21
555.243976
  0
LINE
  5
568
100
AcDbEntity
  8
M0
 62
     6
100
AcDbLine
 10
488.960364
 20
560.243961
 11
488.960364
 21
592.743976
  0
LINE
  5
569
100
AcDbEntity
  8
M0
 62
     6
100
AcDbLine
 10
487.460364
 20
594.243976
 11
431.960364
 21
594.243961
  0
LINE
  5
56A
100
AcDbEntity
  8
M0
 62
     6
100
AcDbLine
 10
415.460364
 20
592.743961
 11
415.460364
 21
577.743946
  0
LINE
  5
56B
100
AcDbEntity
  8
M0
 62
     6
100
AcDbLine
 10
431.460364
 20
592.743961
 11
419.960364
 21
592.743961
  0
LINE
  5
56C
100
AcDbEntity
  8
M0
 62
     6
100
AcDbLine
 10
431.960364
 20
594.243976
 11
431.460364
 21
592.743961
  0
LINE
  5
56D
100
AcDbEntity
  8
M0
 62
     6
100
AcDbLine
 10
426.460364
 20
568.743976
 11
426.460364
 21
592.743961
  0
LINE
  5
56E
100
AcDbEntity
  8
M0
 62
     6
100
AcDbLine
 10
440.260168
 20
595.743961
 11
427.259924
 21
595.743946
  0
ARC
  5
56F
100
AcDbEntity
  8
M0
 62
     6
100
AcDbCircle
 10
418.460364
 20
592.743961
 40
2.999997
100
AcDbArc
 50
90.0
 51
180.0
  0
LINE
  5
570
100
AcDbEntity
  8
M0
 62
     6
100
AcDbLine
 10
419.960364
 20
568.743976
 11
427.959875
 21
568.743976
  0
LINE
  5
571
100
AcDbEntity
  8
M0
 62
     6
100
AcDbLine
 10
419.960364
 20
568.743976
 11
419.960364
 21
575.493931
  0
LINE
  5
572
100
AcDbEntity
  8
M0
 62
     6
100
AcDbLine
 10
427.96012
 20
568.743976
 11
430.981604
 21
557.467533
  0
LINE
  5
573
100
AcDbEntity
  8
M0
 62
     6
100
AcDbLine
 10
432.807532
 20
559.243976
 11
447.760168
 21
559.243976
  0
ARC
  5
574
100
AcDbEntity
  8
M0
 62
     6
100
AcDbCircle
 10
432.807532
 20
562.243976
 40
2.999997
100
AcDbArc
 50
195.000292
 51
269.999709
  0
ARC
  5
575
100
AcDbEntity
  8
M0
 62
     6
100
AcDbCircle
 10
433.879309
 20
558.243976
 40
2.999997
100
AcDbArc
 50
195.000292
 51
269.999709
  0
LINE
  5
576
100
AcDbEntity
  8
M0
 62
     6
100
AcDbLine
 10
423.237463
 20
560.243931
 11
422.451086
 21
560.243946
  0
LINE
  5
577
100
AcDbEntity
  8
M0
 62
     6
100
AcDbLine
 10
415.460364
 20
577.743946
 11
419.553381
 21
562.467563
  0
ARC
  5
578
100
AcDbEntity
  8
M0
 62
     6
100
AcDbCircle
 10
422.451086
 20
563.243946
 40
2.999997
100
AcDbArc
 50
194.99909
 51
269.999709
  0
LINE
  5
579
100
AcDbEntity
  8
M0
 62
     6
100
AcDbLine
 10
420.96012
 20
568.743976
 11
423.445715
 21
559.467533
  0
LINE
  5
57A
100
AcDbEntity
  8
M0
 62
     6
100
AcDbLine
 10
426.34342
 20
557.243976
 11
431.041418
 21
557.243976
  0
ARC
  5
57B
100
AcDbEntity
  8
M0
 62
     6
100
AcDbCircle
 10
426.34342
 20
560.243976
 40
2.999997
100
AcDbArc
 50
195.000292
 51
269.999709
  0
LINE
  5
57C
100
AcDbEntity
  8
M0
 62
     6
100
AcDbLine
 10
488.960364
 20
592.743976
 11
487.460364
 21
592.743976
  0
LINE
  5
57D
100
AcDbEntity
  8
M0
 62
     6
100
AcDbLine
 10
487.460364
 20
592.743976
 11
487.460364
 21
594.243976
  0
LINE
  5
57E
100
AcDbEntity
  8
M0
 62
     6
100
AcDbLine
 10
488.960364
 20
567.743976
 11
458.960364
 21
567.743961
  0
LINE
  5
57F
100
AcDbEntity
  8
M0
 62
     6
100
AcDbLine
 10
488.960364
 20
560.243976
 11
480.960364
 21
560.243961
  0
LINE
  5
580
100
AcDbEntity
  8
M0
 62
     6
100
AcDbLine
 10
458.960364
 20
567.743961
 11
457.079749
 21
560.726261
  0
LINE
  5
581
100
AcDbEntity
  8
M0
 62
     6
100
AcDbLine
 10
451.156165
 20
557.243961
 11
451.017493
 21
556.726276
  0
ARC
  5
582
100
AcDbEntity
  8
M0
 62
     6
100
AcDbCircle
 10
449.085852
 20
557.243976
 40
1.999998
100
AcDbArc
 50
269.999563
 51
344.996272
  0
LINE
  5
583
100
AcDbEntity
  8
M0
 62
     6
100
AcDbLine
 10
462.334387
 20
555.243931
 11
483.960364
 21
555.243931
  0
LINE
  5
584
100
AcDbEntity
  8
M0
 62
     6
100
AcDbLine
 10
485.960364
 20
560.243961
 11
485.960364
 21
557.243931
  0
LINE
  5
585
100
AcDbEntity
  8
M0
 62
     6
100
AcDbLine
 10
459.46012
 20
560.243961
 11
460.402502
 21
556.726307
  0
ARC
  5
586
100
AcDbEntity
  8
M0
 62
     6
100
AcDbCircle
 10
462.334387
 20
557.243931
 40
1.999998
100
AcDbArc
 50
194.999475
 51
269.999563
  0
ARC
  5
587
100
AcDbEntity
  8
M0
 62
     6
100
AcDbCircle
 10
483.960364
 20
557.243931
 40
1.999998
100
AcDbArc
 50
269.999563
 51
360.0
  0
LINE
  5
588
100
AcDbEntity
  8
M0
 62
     6
100
AcDbLine
 10
477.960364
 20
558.243961
 11
476.960364
 21
558.243961
  0
LINE
  5
589
100
AcDbEntity
  8
M0
 62
     6
100
AcDbLine
 10
473.960364
 20
560.243961
 11
476.960364
 21
558.243961
  0
LINE
  5
58A
100
AcDbEntity
  8
M0
 62
     6
100
AcDbLine
 10
477.960364
 20
558.243961
 11
480.960364
 21
560.243961
  0
LINE
  5
58B
100
AcDbEntity
  8
M0
 62
     6
100
AcDbLine
 10
473.96012
 20
560.243961
 11
456.879797
 21
560.243946
  0
ARC
  5
58C
100
AcDbEntity
  8
M0
 62
     6
100
AcDbCircle
 10
455.147864
 20
561.243976
 40
1.999998
100
AcDbArc
 50
269.999563
 51
344.997652
  0
LINE
  5
58D
100
AcDbEntity
  8
M0
 62
     6
100
AcDbLine
 10
454.760168
 20
559.243976
 11
455.147864
 21
559.243976
  0
ARC
  5
58E
100
AcDbEntity
  8
M0
 62
     6
100
AcDbCircle
 10
440.260168
 20
593.743961
 40
1.999998
100
AcDbArc
 50
14.478992
 51
90.0
  0
LINE
  5
58F
100
AcDbEntity
  8
M0
 62
     6
100
AcDbLine
 10
447.760413
 20
559.243976
 11
450.760413
 21
557.243976
  0
LINE
  5
590
100
AcDbEntity
  8
M0
 62
     6
100
AcDbLine
 10
451.760413
 20
557.243976
 11
450.760413
 21
557.243976
  0
LINE
  5
591
100
AcDbEntity
  8
M0
 62
     6
100
AcDbLine
 10
451.760413
 20
557.243976
 11
454.760413
 21
559.243976
  0
LINE
  5
592
100
AcDbEntity
  8
M0
 62
     6
100
AcDbLine
 10
425.659933
 20
595.743946
 11
418.460364
 21
595.743961
  0
LINE
  5
593
100
AcDbEntity
  8
M0
 62
     6
100
AcDbLine
 10
419.960364
 20
582.993915
 11
419.960364
 21
592.743961
  0
LINE
  5
594
100
AcDbEntity
  8
M0
 62
     6
100
AcDbLine
 10
487.459875
 20
594.243961
 11
479.96012
 21
594.243946
  0
LINE
  5
595
100
AcDbEntity
  8
M0
 62
     6
100
AcDbLine
 10
488.96012
 20
569.243976
 11
488.96012
 21
560.243976
  0
LINE
  5
596
100
AcDbEntity
  8
M0
 62
     6
100
AcDbLine
 10
488.959875
 20
592.743961
 11
488.959875
 21
574.243961
  0
ARC
  5
597
100
AcDbEntity
  8
M0
 62
     6
100
AcDbCircle
 10
487.459875
 20
592.743961
 40
1.5
100
AcDbArc
 50
0.0
 51
90.0
  0
LINE
  5
598
100
AcDbEntity
  8
M0
 62
     6
100
AcDbLine
 10
428.395178
 20
601.243549
 11
428.32804
 21
601.225574
  0
LINE
  5
599
100
AcDbEntity
  8
M0
 62
     6
100
AcDbLine
 10
420.460364
 20
570.943928
 11
424.460364
 21
570.943928
  0
LINE
  5
59A
100
AcDbEntity
  8
M0
 62
     6
100
AcDbLine
 10
424.460364
 20
570.943928
 11
424.460364
 21
587.543918
  0
LINE
  5
59B
100
AcDbEntity
  8
M0
 62
     6
100
AcDbLine
 10
424.460364
 20
587.543918
 11
420.460364
 21
587.543918
  0
LINE
  5
59C
100
AcDbEntity
  8
M0
 62
     6
100
AcDbLine
 10
420.460364
 20
587.543918
 11
420.460364
 21
570.943928
  0
LINE
  5
59D
100
AcDbEntity
  8
M0
 62
     6
100
AcDbLine
 10
424.460364
 20
572.243931
 11
426.460364
 21
572.243931
  0
LINE
  5
59E
100
AcDbEntity
  8
M0
 62
     6
100
AcDbLine
 10
426.460364
 20
572.243931
 11
426.460364
 21
586.243931
  0
LINE
  5
59F
100
AcDbEntity
  8
M0
 62
     6
100
AcDbLine
 10
426.460364
 20
586.243931
 11
424.460364
 21
586.243931
  0
LINE
  5
5A0
100
AcDbEntity
  8
M0
 62
     6
100
AcDbLine
 10
416.460364
 20
575.493976
 11
420.460364
 21
575.493976
  0
LINE
  5
5A1
100
AcDbEntity
  8
M0
 62
     6
100
AcDbLine
 10
420.460364
 20
582.993976
 11
416.460364
 21
582.993961
  0
LINE
  5
5A2
100
AcDbEntity
  8
M0
 62
     6
100
AcDbLine
 10
415.960364
 20
582.493961
 11
415.960364
 21
575.993976
  0
ARC
  5
5A3
100
AcDbEntity
  8
M0
 62
     6
100
AcDbCircle
 10
416.460364
 20
582.493961
 40
0.5
100
AcDbArc
 50
90.0
 51
180.0
  0
ARC
  5
5A4
100
AcDbEntity
  8
M0
 62
     6
100
AcDbCircle
 10
416.460364
 20
575.993976
 40
0.5
100
AcDbArc
 50
180.0
 51
269.998251
  0
LINE
  5
5A5
100
AcDbEntity
  8
M0
100
AcDbLine
 10
205.957266
 20
588.394123
 11
222.957022
 21
588.394123
  0
LINE
  5
5A6
100
AcDbEntity
  8
M0
100
AcDbLine
 10
212.70751
 20
588.394123
 11
211.20751
 21
588.394123
  0
LINE
  5
5A7
100
AcDbEntity
  8
M0
100
AcDbLine
 10
251.207266
 20
588.394123
 11
252.707266
 21
588.394123
  0
LINE
  5
5A8
100
AcDbEntity
  8
M0
100
AcDbLine
 10
220.457266
 20
528.743976
 11
243.457266
 21
528.743976
  0
LINE
  5
5A9
100
AcDbEntity
  8
M0
100
AcDbLine
 10
243.457266
 20
528.743976
 11
243.457266
 21
554.394123
  0
LINE
  5
5AA
100
AcDbEntity
  8
M0
100
AcDbLine
 10
243.457266
 20
648.743976
 11
220.457266
 21
648.743976
  0
LINE
  5
5AB
100
AcDbEntity
  8
M0
100
AcDbLine
 10
220.457266
 20
648.743976
 11
220.457266
 21
615.243976
  0
LINE
  5
5AC
100
AcDbEntity
  8
M0
  6
DASHDOT
100
AcDbLine
 10
231.957266
 20
518.743976
 11
231.957266
 21
658.743976
  0
CIRCLE
  5
5AD
100
AcDbEntity
  8
M0
100
AcDbCircle
 10
231.957266
 20
541.243976
 40
5.0
  0
LINE
  5
5AE
100
AcDbEntity
  8
M0
  6
DASHDOT
100
AcDbLine
 10
216.957266
 20
541.243976
 11
246.957266
 21
541.243976
  0
LINE
  5
5AF
100
AcDbEntity
  8
M0
100
AcDbLine
 10
220.457266
 20
615.243976
 11
243.457266
 21
615.243976
  0
LINE
  5
5B0
100
AcDbEntity
  8
M0
  6
DASHED
100
AcDbLine
 10
220.457266
 20
620.243976
 11
243.457266
 21
620.243976
  0
CIRCLE
  5
5B1
100
AcDbEntity
  8
M0
100
AcDbCircle
 10
231.957266
 20
636.243976
 40
5.5
  0
LINE
  5
5B2
100
AcDbEntity
  8
M0
  6
DASHDOT
100
AcDbLine
 10
216.457266
 20
636.243976
 11
247.457266
 21
636.243976
  0
LINE
  5
5B3
100
AcDbEntity
  8
M0
100
AcDbLine
 10
219.35726
 20
614.143879
 11
244.557257
 21
614.143879
  0
LINE
  5
5B4
100
AcDbEntity
  8
M0
100
AcDbLine
 10
219.35726
 20
621.34383
 11
220.457266
 21
621.34383
  0
LINE
  5
5B5
100
AcDbEntity
  8
M0
100
AcDbLine
 10
220.457266
 20
614.143879
 11
220.457266
 21
588.394092
  0
LINE
  5
5B6
100
AcDbEntity
  8
M0
100
AcDbLine
 10
243.457266
 20
615.243976
 11
243.457266
 21
648.743976
  0
LINE
  5
5B7
100
AcDbEntity
  8
M0
  6
DASHED
100
AcDbLine
 10
220.457266
 20
621.34383
 11
243.457266
 21
621.34383
  0
LINE
  5
5B8
100
AcDbEntity
  8
M0
100
AcDbLine
 10
243.457266
 20
621.34383
 11
244.557257
 21
621.34383
  0
LINE
  5
5B9
100
AcDbEntity
  8
M0
100
AcDbLine
 10
219.35726
 20
614.143879
 11
219.35726
 21
621.34383
  0
LINE
  5
5BA
100
AcDbEntity
  8
M0
100
AcDbLine
 10
244.557257
 20
614.143879
 11
244.557257
 21
621.34383
  0
CIRCLE
  5
5BB
100
AcDbEntity
  8
M0
100
AcDbCircle
 10
231.957266
 20
541.243976
 40
3.5
  0
LINE
  5
5BC
100
AcDbEntity
  8
M0
100
AcDbLine
 10
237.957022
 20
588.394123
 11
255.957266
 21
588.394123
  0
LINE
  5
5BD
100
AcDbEntity
  8
M0
100
AcDbLine
 10
220.457266
 20
554.394123
 11
220.457266
 21
528.743976
  0
LINE
  5
5BE
100
AcDbEntity
  8
M0
100
AcDbLine
 10
243.457266
 20
588.394047
 11
243.457266
 21
614.143879
  0
LINE
  5
5BF
100
AcDbEntity
  8
M0
100
AcDbLine
 10
157.957266
 20
605.894123
 11
157.957266
 21
588.394123
  0
LINE
  5
5C0
100
AcDbEntity
  8
M0
100
AcDbLine
 10
157.957266
 20
588.394123
 11
205.957266
 21
588.394123
  0
LINE
  5
5C1
100
AcDbEntity
  8
M0
100
AcDbLine
 10
205.957266
 20
588.394123
 11
205.957266
 21
605.894123
  0
LINE
  5
5C2
100
AcDbEntity
  8
M0
100
AcDbLine
 10
205.957266
 20
605.894123
 11
157.957266
 21
605.894123
  0
LINE
  5
5C3
100
AcDbEntity
  8
M0
100
AcDbLine
 10
159.354727
 20
608.278644
 11
159.20751
 21
606.594074
  0
ARC
  5
5C4
100
AcDbEntity
  8
M0
100
AcDbCircle
 10
160.954337
 20
600.214191
 40
9.0
100
AcDbArc
 50
86.154625
 51
94.323069
  0
ARC
  5
5C5
100
AcDbEntity
  8
M0
100
AcDbCircle
 10
162.96044
 20
600.214191
 40
9.0
100
AcDbArc
 50
85.671574
 51
93.840413
  0
LINE
  5
5C6
100
AcDbEntity
  8
M0
100
AcDbLine
 10
164.560049
 20
608.278644
 11
164.707266
 21
606.594074
  0
ARC
  5
5C7
100
AcDbEntity
  8
M0
100
AcDbCircle
 10
160.351065
 20
608.191486
 40
1.0
100
AcDbArc
 50
94.315962
 51
175.0139
  0
ARC
  5
5C8
100
AcDbEntity
  8
M0
100
AcDbCircle
 10
163.563712
 20
608.191486
 40
1.0
100
AcDbArc
 50
4.972089
 51
85.646288
  0
LINE
  5
5C9
100
AcDbEntity
  8
M0
100
AcDbLine
 10
163.457266
 20
582.594074
 11
160.457266
 21
582.594074
  0
LINE
  5
5CA
100
AcDbEntity
  8
M0
100
AcDbLine
 10
160.457266
 20
582.594074
 11
160.457266
 21
586.534504
  0
LINE
  5
5CB
100
AcDbEntity
  8
M0
100
AcDbLine
 10
159.207266
 20
606.594074
 11
164.707266
 21
606.594074
  0
LINE
  5
5CC
100
AcDbEntity
  8
M0
100
AcDbLine
 10
162.357413
 20
609.193928
 11
162.357413
 21
608.094074
  0
LINE
  5
5CD
100
AcDbEntity
  8
M0
100
AcDbLine
 10
161.557364
 20
609.193928
 11
161.557364
 21
608.094074
  0
LINE
  5
5CE
100
AcDbEntity
  8
M0
100
AcDbLine
 10
161.557364
 20
608.094074
 11
162.357413
 21
608.094074
  0
LINE
  5
5CF
100
AcDbEntity
  8
M0
100
AcDbLine
 10
160.95751
 20
586.594074
 11
160.957266
 21
582.594074
  0
LINE
  5
5D0
100
AcDbEntity
  8
M0
100
AcDbLine
 10
162.95751
 20
586.554279
 11
162.957266
 21
582.594074
  0
LINE
  5
5D1
100
AcDbEntity
  8
M0
100
AcDbLine
 10
163.45751
 20
586.534504
 11
163.457266
 21
582.594074
  0
LINE
  5
5D2
100
AcDbEntity
  8
M0
100
AcDbLine
 10
162.70751
 20
588.394123
 11
161.20751
 21
588.394123
  0
LINE
  5
5D3
100
AcDbEntity
  8
M0
100
AcDbLine
 10
159.207266
 20
588.144123
 11
159.207266
 21
586.844074
  0
LINE
  5
5D4
100
AcDbEntity
  8
M0
100
AcDbLine
 10
161.20751
 20
586.594074
 11
162.707266
 21
586.594074
  0
LINE
  5
5D5
100
AcDbEntity
  8
M0
100
AcDbLine
 10
164.707266
 20
586.844074
 11
164.707266
 21
588.144123
  0
LINE
  5
5D6
100
AcDbEntity
  8
M0
100
AcDbLine
 10
161.957266
 20
586.844074
 11
161.957266
 21
588.144123
  0
ARC
  5
5D7
100
AcDbEntity
  8
M0
100
AcDbCircle
 10
163.332266
 20
585.269123
 40
3.186886
100
AcDbArc
 50
64.432922
 51
115.557878
  0
ARC
  5
5D8
100
AcDbEntity
  8
M0
100
AcDbCircle
 10
160.582266
 20
585.269123
 40
3.186886
100
AcDbArc
 50
64.432675
 51
115.55763
  0
ARC
  5
5D9
100
AcDbEntity
  8
M0
100
AcDbCircle
 10
163.33251
 20
589.719074
 40
3.186886
100
AcDbArc
 50
244.438313
 51
295.560944
  0
ARC
  5
5DA
100
AcDbEntity
  8
M0
100
AcDbCircle
 10
160.58251
 20
589.719074
 40
3.186886
100
AcDbArc
 50
244.438561
 51
295.554811
  0
LINE
  5
5DB
100
AcDbEntity
  8
M0
100
AcDbLine
 10
164.907462
 20
605.894123
 11
164.907462
 21
606.594074
  0
LINE
  5
5DC
100
AcDbEntity
  8
M0
100
AcDbLine
 10
164.907462
 20
606.594074
 11
159.007315
 21
606.594074
  0
LINE
  5
5DD
100
AcDbEntity
  8
M0
100
AcDbLine
 10
159.007315
 20
606.594074
 11
159.007315
 21
605.894123
  0
LINE
  5
5DE
100
AcDbEntity
  8
M0
100
AcDbLine
 10
159.007315
 20
605.894123
 11
164.907462
 21
605.894123
  0
LINE
  5
5DF
100
AcDbEntity
  8
M0
100
AcDbLine
 10
204.560049
 20
608.278644
 11
204.707266
 21
606.594074
  0
ARC
  5
5E0
100
AcDbEntity
  8
M0
100
AcDbCircle
 10
202.96044
 20
600.214191
 40
9.0
100
AcDbArc
 50
85.673034
 51
93.843236
  0
ARC
  5
5E1
100
AcDbEntity
  8
M0
100
AcDbCircle
 10
200.954337
 20
600.214191
 40
9.0
100
AcDbArc
 50
86.156279
 51
94.326869
  0
LINE
  5
5E2
100
AcDbEntity
  8
M0
100
AcDbLine
 10
199.354727
 20
608.278644
 11
199.20751
 21
606.594074
  0
ARC
  5
5E3
100
AcDbEntity
  8
M0
100
AcDbCircle
 10
203.563712
 20
608.191486
 40
1.0
100
AcDbArc
 50
4.986176
 51
85.659497
  0
ARC
  5
5E4
100
AcDbEntity
  8
M0
100
AcDbCircle
 10
200.351065
 20
608.191486
 40
1.0
100
AcDbArc
 50
94.329104
 51
175.0139
  0
LINE
  5
5E5
100
AcDbEntity
  8
M0
100
AcDbLine
 10
200.457266
 20
582.594074
 11
203.457266
 21
582.594074
  0
LINE
  5
5E6
100
AcDbEntity
  8
M0
100
AcDbLine
 10
203.457266
 20
582.594074
 11
203.457266
 21
586.534504
  0
LINE
  5
5E7
100
AcDbEntity
  8
M0
100
AcDbLine
 10
204.707266
 20
606.594074
 11
199.207266
 21
606.594074
  0
LINE
  5
5E8
100
AcDbEntity
  8
M0
100
AcDbLine
 10
201.557364
 20
609.193928
 11
201.557364
 21
608.094074
  0
LINE
  5
5E9
100
AcDbEntity
  8
M0
100
AcDbLine
 10
202.357413
 20
609.193928
 11
202.357413
 21
608.094074
  0
LINE
  5
5EA
100
AcDbEntity
  8
M0
100
AcDbLine
 10
202.357413
 20
608.094074
 11
201.557364
 21
608.094074
  0
LINE
  5
5EB
100
AcDbEntity
  8
M0
100
AcDbLine
 10
202.957266
 20
586.594074
 11
202.957266
 21
582.594074
  0
LINE
  5
5EC
100
AcDbEntity
  8
M0
100
AcDbLine
 10
200.957266
 20
586.554279
 11
200.957266
 21
582.594074
  0
LINE
  5
5ED
100
AcDbEntity
  8
M0
100
AcDbLine
 10
200.457266
 20
586.534504
 11
200.457266
 21
582.594074
  0
LINE
  5
5EE
100
AcDbEntity
  8
M0
100
AcDbLine
 10
201.207266
 20
588.394123
 11
202.707266
 21
588.394123
  0
LINE
  5
5EF
100
AcDbEntity
  8
M0
100
AcDbLine
 10
204.707266
 20
588.144123
 11
204.707266
 21
586.844074
  0
LINE
  5
5F0
100
AcDbEntity
  8
M0
100
AcDbLine
 10
202.707266
 20
586.594074
 11
201.20751
 21
586.594074
  0
LINE
  5
5F1
100
AcDbEntity
  8
M0
100
AcDbLine
 10
199.207266
 20
586.844074
 11
199.207266
 21
588.144123
  0
LINE
  5
5F2
100
AcDbEntity
  8
M0
100
AcDbLine
 10
201.957266
 20
586.844074
 11
201.957266
 21
588.144123
  0
ARC
  5
5F3
100
AcDbEntity
  8
M0
100
AcDbCircle
 10
200.582266
 20
585.269123
 40
3.186886
100
AcDbArc
 50
64.435128
 51
115.567573
  0
ARC
  5
5F4
100
AcDbEntity
  8
M0
100
AcDbCircle
 10
203.332266
 20
585.269123
 40
3.186886
100
AcDbArc
 50
64.435128
 51
115.567573
  0
ARC
  5
5F5
100
AcDbEntity
  8
M0
100
AcDbCircle
 10
200.582266
 20
589.719074
 40
3.186886
100
AcDbArc
 50
244.437087
 51
295.555919
  0
ARC
  5
5F6
100
AcDbEntity
  8
M0
100
AcDbCircle
 10
203.332266
 20
589.719074
 40
3.186886
100
AcDbArc
 50
244.436473
 51
295.555919
  0
LINE
  5
5F7
100
AcDbEntity
  8
M0
100
AcDbLine
 10
199.007315
 20
605.894123
 11
199.007315
 21
606.594074
  0
LINE
  5
5F8
100
AcDbEntity
  8
M0
100
AcDbLine
 10
199.007315
 20
606.594074
 11
204.907462
 21
606.594074
  0
LINE
  5
5F9
100
AcDbEntity
  8
M0
100
AcDbLine
 10
204.907462
 20
606.594074
 11
204.907462
 21
605.894123
  0
LINE
  5
5FA
100
AcDbEntity
  8
M0
100
AcDbLine
 10
204.907462
 20
605.894123
 11
199.007315
 21
605.894123
  0
LINE
  5
5FB
100
AcDbEntity
  8
M0
100
AcDbLine
 10
170.457266
 20
528.743976
 11
193.457266
 21
528.743976
  0
LINE
  5
5FC
100
AcDbEntity
  8
M0
100
AcDbLine
 10
193.457266
 20
528.743976
 11
193.457266
 21
577.243976
  0
LINE
  5
5FD
100
AcDbEntity
  8
M0
100
AcDbLine
 10
193.457266
 20
648.743976
 11
170.457266
 21
648.743976
  0
LINE
  5
5FE
100
AcDbEntity
  8
M0
100
AcDbLine
 10
170.457266
 20
648.743976
 11
170.457266
 21
615.243976
  0
LINE
  5
5FF
100
AcDbEntity
  8
M0
  6
DASHDOT
100
AcDbLine
 10
181.957266
 20
518.743976
 11
181.957266
 21
658.743976
  0
CIRCLE
  5
600
100
AcDbEntity
  8
M0
100
AcDbCircle
 10
181.957266
 20
541.243976
 40
5.0
  0
LINE
  5
601
100
AcDbEntity
  8
M0
  6
DASHDOT
100
AcDbLine
 10
166.957266
 20
541.243976
 11
196.957266
 21
541.243976
  0
CIRCLE
  5
602
100
AcDbEntity
  8
M0
100
AcDbCircle
 10
181.957266
 20
567.243976
 40
3.25
  0
LINE
  5
603
100
AcDbEntity
  8
M0
  6
DASHDOT
100
AcDbLine
 10
168.707266
 20
567.243976
 11
195.207266
 21
567.243976
  0
LINE
  5
604
100
AcDbEntity
  8
M0
100
AcDbLine
 10
170.457266
 20
615.243976
 11
193.457266
 21
615.243976
  0
LINE
  5
605
100
AcDbEntity
  8
M0
  6
DASHED
100
AcDbLine
 10
170.457266
 20
620.243976
 11
193.457266
 21
620.243976
  0
CIRCLE
  5
606
100
AcDbEntity
  8
M0
100
AcDbCircle
 10
181.957266
 20
636.243976
 40
5.5
  0
LINE
  5
607
100
AcDbEntity
  8
M0
  6
DASHDOT
100
AcDbLine
 10
166.457266
 20
636.243976
 11
197.457266
 21
636.243976
  0
LINE
  5
608
100
AcDbEntity
  8
M0
100
AcDbLine
 10
169.35726
 20
614.143879
 11
194.557257
 21
614.143879
  0
LINE
  5
609
100
AcDbEntity
  8
M0
100
AcDbLine
 10
169.35726
 20
577.243976
 11
194.557257
 21
577.243976
  0
LINE
  5
60A
100
AcDbEntity
  8
M0
100
AcDbLine
 10
169.35726
 20
621.34383
 11
170.457266
 21
621.34383
  0
LINE
  5
60B
100
AcDbEntity
  8
M0
100
AcDbLine
 10
169.35726
 20
577.243976
 11
169.35726
 21
588.394123
  0
LINE
  5
60C
100
AcDbEntity
  8
M0
100
AcDbLine
 10
194.557257
 20
577.243976
 11
194.557257
 21
588.394123
  0
LINE
  5
60D
100
AcDbEntity
  8
M0
100
AcDbLine
 10
170.457266
 20
577.243976
 11
170.457266
 21
528.743976
  0
LINE
  5
60E
100
AcDbEntity
  8
M0
  6
DASHED
100
AcDbLine
 10
193.457266
 20
577.243976
 11
193.457266
 21
588.394123
  0
LINE
  5
60F
100
AcDbEntity
  8
M0
  6
DASHED
100
AcDbLine
 10
170.457266
 20
614.143879
 11
170.457266
 21
605.893879
  0
LINE
  5
610
100
AcDbEntity
  8
M0
100
AcDbLine
 10
193.457266
 20
615.243976
 11
193.457266
 21
648.743976
  0
LINE
  5
611
100
AcDbEntity
  8
M0
  6
DASHED
100
AcDbLine
 10
170.457266
 20
621.34383
 11
193.457266
 21
621.34383
  0
LINE
  5
612
100
AcDbEntity
  8
M0
100
AcDbLine
 10
193.457266
 20
621.34383
 11
194.557257
 21
621.34383
  0
LINE
  5
613
100
AcDbEntity
  8
M0
100
AcDbLine
 10
169.35726
 20
605.893879
 11
169.35726
 21
621.34383
  0
LINE
  5
614
100
AcDbEntity
  8
M0
  6
DASHED
100
AcDbLine
 10
170.457266
 20
588.394123
 11
170.457266
 21
577.243976
  0
LINE
  5
615
100
AcDbEntity
  8
M0
  6
DASHED
100
AcDbLine
 10
193.457266
 20
605.893879
 11
193.457266
 21
614.143879
  0
LINE
  5
616
100
AcDbEntity
  8
M0
100
AcDbLine
 10
194.557257
 20
605.893879
 11
194.557257
 21
621.34383
  0
CIRCLE
  5
617
100
AcDbEntity
  8
M0
100
AcDbCircle
 10
181.957266
 20
541.243976
 40
3.5
  0
LINE
  5
618
100
AcDbEntity
  8
M0
 62
     4
100
AcDbLine
 10
181.957266
 20
531.443989
 11
173.47045
 21
536.343982
  0
LINE
  5
619
100
AcDbEntity
  8
M0
 62
     4
100
AcDbLine
 10
173.47045
 20
536.343982
 11
173.47045
 21
546.144001
  0
LINE
  5
61A
100
AcDbEntity
  8
M0
 62
     4
100
AcDbLine
 10
173.47045
 20
546.144001
 11
181.957266
 21
551.043995
  0
LINE
  5
61B
100
AcDbEntity
  8
M0
 62
     4
100
AcDbLine
 10
181.957266
 20
551.043995
 11
190.444571
 21
546.14397
  0
LINE
  5
61C
100
AcDbEntity
  8
M0
 62
     4
100
AcDbLine
 10
190.444571
 20
546.14397
 11
190.444571
 21
536.343982
  0
LINE
  5
61D
100
AcDbEntity
  8
M0
 62
     4
100
AcDbLine
 10
190.444571
 20
536.343982
 11
181.957266
 21
531.443989
  0
CIRCLE
  5
61E
100
AcDbEntity
  8
M0
 62
     4
100
AcDbCircle
 10
181.957266
 20
541.243976
 40
5.0
  0
LINE
  5
61F
100
AcDbEntity
  8
M0
  6
DASHDOT
 62
     4
100
AcDbLine
 10
192.444449
 20
541.243885
 11
171.470038
 21
541.243885
  0
LINE
  5
620
100
AcDbEntity
  8
M0
  6
DASHDOT
 62
     4
100
AcDbLine
 10
181.957236
 20
551.731083
 11
181.957251
 21
530.756672
  0
LINE
  5
621
100
AcDbEntity
  8
M0
 62
     4
100
AcDbLine
 10
231.957266
 20
531.443989
 11
223.47045
 21
536.343982
  0
LINE
  5
622
100
AcDbEntity
  8
M0
 62
     4
100
AcDbLine
 10
223.47045
 20
536.343982
 11
223.47045
 21
546.144001
  0
LINE
  5
623
100
AcDbEntity
  8
M0
 62
     4
100
AcDbLine
 10
223.47045
 20
546.144001
 11
231.957266
 21
551.043995
  0
LINE
  5
624
100
AcDbEntity
  8
M0
 62
     4
100
AcDbLine
 10
231.957266
 20
551.043995
 11
240.444571
 21
546.14397
  0
LINE
  5
625
100
AcDbEntity
  8
M0
 62
     4
100
AcDbLine
 10
240.444571
 20
546.14397
 11
240.444571
 21
536.343982
  0
LINE
  5
626
100
AcDbEntity
  8
M0
 62
     4
100
AcDbLine
 10
240.444571
 20
536.343982
 11
231.957266
 21
531.443989
  0
CIRCLE
  5
627
100
AcDbEntity
  8
M0
 62
     4
100
AcDbCircle
 10
231.957266
 20
541.243976
 40
5.0
  0
LINE
  5
628
100
AcDbEntity
  8
M0
  6
DASHDOT
 62
     4
100
AcDbLine
 10
242.444449
 20
541.243885
 11
221.470038
 21
541.243885
  0
LINE
  5
629
100
AcDbEntity
  8
M0
  6
DASHDOT
 62
     4
100
AcDbLine
 10
231.957236
 20
551.731083
 11
231.957251
 21
530.756672
  0
LINE
  5
62A
100
AcDbEntity
  8
M0
 62
     4
100
AcDbLine
 10
281.957037
 20
531.443989
 11
273.470221
 21
536.343982
  0
LINE
  5
62B
100
AcDbEntity
  8
M0
 62
     4
100
AcDbLine
 10
273.470221
 20
536.343982
 11
273.470221
 21
546.144001
  0
LINE
  5
62C
100
AcDbEntity
  8
M0
 62
     4
100
AcDbLine
 10
273.470221
 20
546.144001
 11
281.957037
 21
551.043995
  0
LINE
  5
62D
100
AcDbEntity
  8
M0
 62
     4
100
AcDbLine
 10
281.957037
 20
551.043995
 11
290.444342
 21
546.14397
  0
LINE
  5
62E
100
AcDbEntity
  8
M0
 62
     4
100
AcDbLine
 10
290.444342
 20
546.14397
 11
290.444342
 21
536.343982
  0
LINE
  5
62F
100
AcDbEntity
  8
M0
 62
     4
100
AcDbLine
 10
290.444342
 20
536.343982
 11
281.957037
 21
531.443989
  0
CIRCLE
  5
630
100
AcDbEntity
  8
M0
 62
     4
100
AcDbCircle
 10
281.957037
 20
541.243976
 40
5.0
  0
LINE
  5
631
100
AcDbEntity
  8
M0
  6
DASHDOT
 62
     4
100
AcDbLine
 10
292.44422
 20
541.243885
 11
271.469809
 21
541.243885
  0
LINE
  5
632
100
AcDbEntity
  8
M0
  6
DASHDOT
 62
     4
100
AcDbLine
 10
281.957007
 20
551.731083
 11
281.957022
 21
530.756672
  0
LINE
  5
633
100
AcDbEntity
  8
M0
 62
     4
100
AcDbLine
 10
506.6603
 20
551.043796
 11
498.660284
 21
551.043796
  0
LINE
  5
634
100
AcDbEntity
  8
M0
 62
     4
100
AcDbLine
 10
498.660315
 20
551.043751
 11
498.660315
 21
531.443775
  0
LINE
  5
635
100
AcDbEntity
  8
M0
 62
     4
100
AcDbLine
 10
498.6603
 20
531.44379
 11
506.6603
 21
531.44379
  0
LINE
  5
636
100
AcDbEntity
  8
M0
 62
     4
100
AcDbLine
 10
506.660315
 20
531.443805
 11
506.660315
 21
551.043812
  0
LINE
  5
637
100
AcDbEntity
  8
M0
  6
DASHDOT
 62
     4
100
AcDbLine
 10
513.6603
 20
541.243747
 11
491.660284
 21
541.243747
  0
LINE
  5
638
100
AcDbEntity
  8
M0
 62
     4
100
AcDbLine
 10
506.6603
 20
536.343784
 11
498.6603
 21
536.343784
  0
LINE
  5
639
100
AcDbEntity
  8
M0
 62
     4
100
AcDbLine
 10
506.6603
 20
546.143772
 11
498.660284
 21
546.143772
  0
LINE
  5
63A
100
AcDbEntity
  8
M0
 62
     7
100
AcDbLine
 10
506.660361
 20
530.243976
 11
508.960364
 21
530.243976
  0
LINE
  5
63B
100
AcDbEntity
  8
M0
 62
     7
100
AcDbLine
 10
508.960364
 20
530.243976
 11
508.960364
 21
552.243976
  0
LINE
  5
63C
100
AcDbEntity
  8
M0
 62
     7
100
AcDbLine
 10
508.960364
 20
552.243976
 11
506.660361
 21
552.243976
  0
LINE
  5
63D
100
AcDbEntity
  8
M0
 62
     7
100
AcDbLine
 10
506.660361
 20
552.243976
 11
506.660361
 21
530.243976
  0
LINE
  5
63E
100
AcDbEntity
  8
M0
  6
DASHDOT
 62
     7
100
AcDbLine
 10
503.660345
 20
541.243961
 11
511.960364
 21
541.243976
  0
CIRCLE
  5
63F
100
AcDbEntity
  8
M0
100
AcDbCircle
 10
206.957266
 20
445.775107
 40
4.0
  0
LINE
  5
640
100
AcDbEntity
  8
M0
  6
DASHDOT
100
AcDbLine
 10
162.957266
 20
445.775107
 11
250.957266
 21
445.775107
  0
LINE
  5
641
100
AcDbEntity
  8
M0
  6
DASHDOT
100
AcDbLine
 10
206.957266
 20
401.775107
 11
206.957266
 21
489.775092
  0
CIRCLE
  5
642
100
AcDbEntity
  8
M0
100
AcDbCircle
 10
256.957266
 20
445.775107
 40
4.0
  0
LINE
  5
643
100
AcDbEntity
  8
M0
  6
DASHDOT
100
AcDbLine
 10
300.957266
 20
445.775107
 11
212.957266
 21
445.775107
  0
LINE
  5
644
100
AcDbEntity
  8
M0
  6
DASHDOT
100
AcDbLine
 10
256.957266
 20
401.775107
 11
256.957266
 21
489.775092
  0
CIRCLE
  5
645
100
AcDbEntity
  8
M0
100
AcDbCircle
 10
256.957266
 20
235.775107
 40
4.0
  0
LINE
  5
646
100
AcDbEntity
  8
M0
  6
DASHDOT
100
AcDbLine
 10
300.957266
 20
235.775107
 11
212.957266
 21
235.775107
  0
LINE
  5
647
100
AcDbEntity
  8
M0
  6
DASHDOT
100
AcDbLine
 10
256.957266
 20
191.775107
 11
256.957266
 21
279.775092
  0
CIRCLE
  5
648
100
AcDbEntity
  8
M0
100
AcDbCircle
 10
206.957266
 20
235.775107
 40
4.0
  0
LINE
  5
649
100
AcDbEntity
  8
M0
  6
DASHDOT
100
AcDbLine
 10
162.957266
 20
235.775107
 11
250.957266
 21
235.775107
  0
LINE
  5
64A
100
AcDbEntity
  8
M0
  6
DASHDOT
100
AcDbLine
 10
206.957266
 20
191.775107
 11
206.957266
 21
279.775092
  0
LINE
  5
64B
100
AcDbEntity
  8
M0
100
AcDbLine
 10
300.957266
 20
160.775107
 11
300.957266
 21
455.775092
  0
LINE
  5
64C
100
AcDbEntity
  8
M0
100
AcDbLine
 10
300.957266
 20
455.775092
 11
162.957266
 21
455.775092
  0
LINE
  5
64D
100
AcDbEntity
  8
M0
100
AcDbLine
 10
162.957266
 20
455.775092
 11
162.957266
 21
160.775107
  0
LINE
  5
64E
100
AcDbEntity
  8
M0
100
AcDbLine
 10
162.957266
 20
160.775107
 11
300.957266
 21
160.775107
  0
LINE
  5
64F
100
AcDbEntity
  8
M0
  6
DASHDOT
100
AcDbLine
 10
231.957266
 20
150.522764
 11
231.957266
 21
477.330235
  0
LINE
  5
650
100
AcDbEntity
  8
M1
 62
     2
100
AcDbLine
 10
33.333332
 20
33.333332
 11
33.333332
 21
949.999962
  0
LINE
  5
651
100
AcDbEntity
  8
M1
 62
     2
100
AcDbLine
 10
33.333332
 20
949.999962
 11
666.66664
 21
949.999962
  0
LINE
  5
652
100
AcDbEntity
  8
M1
 62
     2
100
AcDbLine
 10
666.66664
 20
949.999962
 11
666.66664
 21
33.333332
  0
LINE
  5
653
100
AcDbEntity
  8
M1
 62
     2
100
AcDbLine
 10
666.66664
 20
33.333332
 11
33.333332
 21
33.333332
  0
LINE
  5
654
100
AcDbEntity
  8
M1
 62
     2
100
AcDbLine
 10
666.66664
 20
66.666664
 11
333.33332
 21
66.666664
  0
LINE
  5
655
100
AcDbEntity
  8
M1
 62
     2
100
AcDbLine
 10
666.66664
 20
99.999996
 11
333.33332
 21
99.999996
  0
LINE
  5
656
100
AcDbEntity
  8
M1
 62
     2
100
AcDbLine
 10
666.66664
 20
133.333328
 11
333.33332
 21
133.333328
  0
LINE
  5
657
100
AcDbEntity
  8
M1
 62
     2
100
AcDbLine
 10
333.33332
 20
33.333332
 11
333.33332
 21
133.333328
  0
TEXT
  5
658
100
AcDbEntity
  8
M1
 62
     2
100
AcDbText
 10
341.666653
 20
41.666665
 40
16.666666
  1
適　用；
 41
1.0
  7
STANDARD
100
AcDbText
  0
TEXT
  5
659
100
AcDbEntity
  8
M1
 62
     2
100
AcDbText
 10
341.666653
 20
108.333329
 40
16.666666
  1
登録名：
 41
1.0
  7
STANDARD
100
AcDbText
  0
TEXT
  5
65A
100
AcDbEntity
  8
M1
 62
     2
100
AcDbText
 10
421.66665
 20
108.333329
 40
16.666666
  1
ＤＭＨ２００ＣＴＲ００
 41
0.5
  7
STANDARD
100
AcDbText
  0
TEXT
  5
65B
100
AcDbEntity
  8
M1
 62
     2
100
AcDbText
 10
341.666653
 20
74.999997
 40
16.666666
  1
形　式；
 41
1.0
  7
STANDARD
100
AcDbText
  0
TEXT
  5
65C
100
AcDbEntity
  8
M1
 62
     2
100
AcDbText
 10
421.66665
 20
74.999997
 40
16.666666
  1
Ｈ２００Ｃ－Ｔ，Ｈ２００Ｃ－ＴＫ，Ｈ２５０Ｃ－Ｔ，Ｈ２５０Ｃ－ＴＫ
 41
0.25
  7
STANDARD
100
AcDbText
  0
LINE
  5
65D
100
AcDbEntity
  8
DN0
100
AcDbLine
 10
207.8416
 20
105.1932
 11
268.708267
 21
105.1932
  0
TEXT
  5
65E
100
AcDbEntity
  8
DN0
100
AcDbText
 10
209.524934
 20
106.6932
 40
14.999999
  1
せん孔図
 41
0.833333
  7
STANDARD
100
AcDbText
  0
ENDSEC
  0
SECTION
  2
OBJECTS
  0
DICTIONARY
  5
C
100
AcDbDictionary
  3
ACAD_GROUP
350
D
  3
ACAD_MLINESTYLE
350
E
  0
DICTIONARY
  5
D
102
{ACAD_REACTORS
330
C
102
}
100
AcDbDictionary
  0
DICTIONARY
  5
E
102
{ACAD_REACTORS
330
C
102
}
100
AcDbDictionary
  3
STANDARD
350
13
  0
MLINESTYLE
  5
13
102
{ACAD_REACTORS
330
E
102
}
100
AcDbMlineStyle
  2
STANDARD
 70
     0
  3

 62
     0
 51
90.0
 52
90.0
 71
     2
 49
0.5
 62
   256
  6
BYLAYER
 49
-0.5
 62
   256
  6
BYLAYER
  0
ENDSEC
  0
EOF
