  0
SECTION
  2
HEADER
  9
$ACADVER
  1
AC1014
  9
$INSBASE
 10
0.000000
 20
0.000000
 30
0.0
  9
$VIEWCTR
 10
7.531722
 20
4.5
  9
$VIEWSIZE
 40
9.0
  9
$SNAPMODE
 70
     0
  9
$SNAPUNIT
 10
1.0
 20
1.0
  9
$SNAPBASE
 10
0.0
 20
0.0
  9
$SNAPANG
 50
0.0
  9
$SNAPSTYLE
 70
     0
  9
$SNAPISOPAIR
 70
     0
  9
$GRIDMODE
 70
     0
  9
$GRIDUNIT
 10
0.0
 20
0.0
  9
$ORTHOMODE
 70
     0
  9
$REGENMODE
 70
     1
  9
$FILLMODE
 70
     1
  9
$QTEXTMODE
 70
     0
  9
$DRAGMODE
 70
     2
  9
$LTSCALE
  40
     1.000000
  9
$OSMODE
 70
     0
  9
$ATTMODE
 70
     1
  9
$TEXTSIZE
 40
0.2
  9
$TRACEWID
 40
0.05
  9
$TEXTSTYLE
  7
STANDARD
  9
$CELTYPE
  6
BYLAYER
  9
$CECOLOR
 62
   256
  9
$DIMSCALE
 40
1.0
  9
$DIMASZ
 40
0.18
  9
$DIMEXO
 40
0.0625
  9
$DIMDLI
 40
0.38
  9
$DIMRND
 40
0.0
  9
$DIMDLE
 40
0.0
  9
$DIMEXE
 40
0.18
  9
$DIMTP
 40
0.0
  9
$DIMTM
 40
0.0
  9
$DIMTXT
 40
0.18
  9
$DIMCEN
 40
0.09
  9
$DIMTSZ
 40
0.0
  9
$DIMTOL
 70
     0
  9
$DIMLIM
 70
     0
  9
$DIMTIH
 70
     1
  9
$DIMTOH
 70
     1
  9
$DIMSE1
 70
     0
  9
$DIMSE2
 70
     0
  9
$DIMTAD
 70
     0
  9
$DIMZIN
 70
     0
  9
$DIMBLK
  1

  9
$LUNITS
 70
     2
  9
$LUPREC
 70
     4
  9
$AXISMODE
 70
     0
  9
$AXISUNIT
 10
0.0
 20
0.0
  9
$SKETCHINC
 40
0.1
  9
$FILLETRAD
 40
0.0
  9
$AUNITS
 70
     0
  9
$AUPREC
 70
     0
  9
$MENU
  1
ACAD
  9
$ELEVATION
 40
0.0
  9
$THICKNESS
 40
0.0
  9
$VIEWDIR
 10
0.0
 20
0.0
 30
1.0
  9
$LIMCHECK
 70
     0
  9
$BLIPMODE
 70
     1
  9
$CHAMFERA
 40
0.0
  9
$CHAMFERB
 40
0.0
  9
$FASTZOOM
 70
     1
  9
$SKPOLY
 70
     0
  9
$TDCREATE
 40
0000000.0000000000
  9
$TDUPDATE
 40
0000000.0000000000
  9
$TDINDWG
 40
0.0000000000
  9
$TDUSRTIMER
 40
0.0000000000
  9
$USRTIMER
 70
     1
  9
$ANGBASE
 50
0.0
  9
$ANGDIR
 70
     0
  9
$PDMODE
 70
     0
  9
$PDSIZE
 40
0.0
  9
$PLINEWID
 40
0.0
  9
$COORDS
 70
     0
  9
$USERI1
 70
     0
  9
$USERI2
 70
     0
  9
$USERI3
 70
     0
  9
$USERI4
 70
     0
  9
$USERI5
 70
     0
  9
$USERR1
 40
0.0
  9
$USERR2
 40
0.0
  9
$USERR3
 40
0.0
  9
$USERR4
 40
0.0
  9
$USERR5
 40
0.0
  9
$CLAYER
  8
M0
  9
$EXTMIN
 10
40.0
 20
40.0
  9
$EXTMAX
 10
800.0
 20
1140.0
  9
$LIMMIN
 10
0.0
 20
0.0
  9
$LIMMAX
 10
210.0
 20
297.0
  9
$HANDSEED
  5
60F
  0
ENDSEC
  0
SECTION
  2
CLASSES
  0
ENDSEC
  0
SECTION
  2
TABLES
  0
TABLE
  2
VPORT
  5
8
100
AcDbSymbolTable
 70
     2
  0
VPORT
  5
14
100
AcDbSymbolTableRecord
100
AcDbViewportTableRecord
  2
*ACTIVE
 70
     0
 10
0.0
 20
0.0
 11
1.0
 21
1.0
 12
484.0
 22
297.0
 13
0.0
 23
0.0
 14
1.0
 24
1.0
 15
0.0
 25
0.0
 16
0.0
 26
0.0
 36
1.0
 17
0.0
 27
0.0
 37
0.0
 40
594.0
 41
2.0
 42
50.0
 43
0.0
 44
0.0
 50
0.0
 51
0.0
 71
     0
 72
   100
 73
     1
 74
     1
 75
     0
 76
     0
 77
     0
 78
     0
  0
ENDTAB
  0
TABLE
  2
LTYPE
  5
5
100
AcDbSymbolTable
 70
     5
  0
LTYPE
  5
15
100
AcDbSymbolTableRecord
100
AcDbLinetypeTableRecord
  2
BYBLOCK
 70
     0
  3

 72
    65
 73
     0
 40
0.0
  0
LTYPE
  5
16
100
AcDbSymbolTableRecord
100
AcDbLinetypeTableRecord
  2
BYLAYER
 70
     0
  3

 72
    65
 73
     0
 40
0.0
  0
LTYPE
  5
17
100
AcDbSymbolTableRecord
100
AcDbLinetypeTableRecord
  2
CONTINUOUS
 70
    64
  3
Solid line
 72
    65
 73
     0
 40
0.0
  0
LTYPE
  5
18
100
AcDbSymbolTableRecord
100
AcDbLinetypeTableRecord
  2
DASHED
 70
    64
  3
__ __ __ __ __ __ __ __ __ __ __ __ __ __ __ __
 72
    65
 73
     2
 40
0.75
 49
0.5
 74
     0
 49
-0.25
 74
     0
  0
LTYPE
  5
19
100
AcDbSymbolTableRecord
100
AcDbLinetypeTableRecord
  2
DASHDOT
 70
    64
  3
__ . __ . __ . __ . __ . __ . __ . __ . __ . __
 72
    65
 73
     4
 40
1.0
 49
0.5
 74
     0
 49
-0.25
 74
     0
 49
0.0
 74
     0
 49
-0.25
 74
     0
  0
LTYPE
  5
1A
100
AcDbSymbolTableRecord
100
AcDbLinetypeTableRecord
  2
DIVIDE
 70
    64
  3
____ . . ____ . . ____ . . ____ . . ____ . . __
 72
    65
 73
     6
 40
1.25
 49
0.5
 74
     0
 49
-0.25
 74
     0
 49
0.0
 74
     0
 49
-0.25
 74
     0
 49
0.0
 74
     0
 49
-0.25
 74
     0
  0
LTYPE
  5
1B
100
AcDbSymbolTableRecord
100
AcDbLinetypeTableRecord
  2
DOT
 70
    64
  3
. . . . . . . . . . . . . . . . . . . . . . . .
 72
    65
 73
     2
 40
0.25
 49
0.0
 74
     0
 49
-0.25
 74
     0
  0
ENDTAB
  0
TABLE
  2
LAYER
  5
2
100
AcDbSymbolTable
 70
   102
  0
LAYER
  5
F
100
AcDbSymbolTableRecord
100
AcDbLayerTableRecord
  2
0
 70
     0
 62
     7
  6
CONTINUOUS
  0
LAYER
  5
1C
100
AcDbSymbolTableRecord
100
AcDbLayerTableRecord
  2
DEFPOINTS
 70
     0
 62
     7
  6
CONTINUOUS
  0
LAYER
  5
1D
100
AcDbSymbolTableRecord
100
AcDbLayerTableRecord
  2
M0
 70
     0
 62
     3
  6
CONTINUOUS
  0
LAYER
  5
1E
100
AcDbSymbolTableRecord
100
AcDbLayerTableRecord
  2
M1
 70
     0
 62
     3
  6
CONTINUOUS
  0
LAYER
  5
1F
100
AcDbSymbolTableRecord
100
AcDbLayerTableRecord
  2
DD0
 70
     0
 62
     4
  6
CONTINUOUS
  0
LAYER
  5
20
100
AcDbSymbolTableRecord
100
AcDbLayerTableRecord
  2
DN0
 70
     0
 62
     2
  6
CONTINUOUS
  0
ENDTAB
  0
TABLE
  2
STYLE
  5
3
100
AcDbSymbolTable
 70
     2
  0
STYLE
  5
10
100
AcDbSymbolTableRecord
100
AcDbTextStyleTableRecord
  2
STANDARD
 70
     0
 40
0.0
 41
1.0
 50
0.0
 71
     0
 42
0.2
  3
txt
  4
BIGFONT
  0
ENDTAB
  0
TABLE
  2
VIEW
  5
6
100
AcDbSymbolTable
 70
     0
  0
ENDTAB
  0
TABLE
  2
UCS
  5
7
100
AcDbSymbolTable
 70
     0
  0
ENDTAB
  0
TABLE
  2
APPID
  5
9
100
AcDbSymbolTable
 70
     1
  0
APPID
  5
11
100
AcDbSymbolTableRecord
100
AcDbRegAppTableRecord
  2
ACAD
 70
     0
  0
ENDTAB
  0
TABLE
  2
DIMSTYLE
  5
A
100
AcDbSymbolTable
 70
     2
  0
DIMSTYLE
105
27
100
AcDbSymbolTableRecord
100
AcDbDimStyleTableRecord
  2
STANDARD
 70
     0
  3

  4

  5

  6
_OPEN
  7
_OPEN
 40
1.0
 41
12.0
 42
1.0
 43
8.0
 44
1.0
 45
0.0
 46
0.0
 47
0.0
 48
0.0
140
12.6
141
0.09
142
0.0
143
0.03937
144
1.0
145
0.0
146
1.0
147
0.6
 71
     0
 72
     0
 73
     1
 74
     1
 75
     0
 76
     0
 77
     3
 78
     8
170
     0
171
     2
172
     0
173
     1
174
     0
175
     0
176
     0
177
     0
178
     0
270
     2
271
     2
272
     4
273
     2
274
     2
340
10
275
     0
280
     0
281
     0
282
     0
283
     1
284
     0
285
     0
286
     0
287
     3
288
     0
  0
DIMSTYLE
105
28
100
AcDbSymbolTableRecord
100
AcDbDimStyleTableRecord
  2
LEADSTYL
 70
     0
  3

  4

  5

  6
_OPEN
  7
_OPEN
 40
1.0
 41
12.0
 42
0.0625
 43
0.38
 44
0.18
 45
0.0
 46
0.0
 47
0.0
 48
0.0
140
12.6
141
0.09
142
0.0
143
25.4
144
1.0
145
0.0
146
1.0
147
0.6
 71
     0
 72
     0
 73
     1
 74
     1
 75
     0
 76
     0
 77
     0
 78
     0
170
     0
171
     2
172
     0
173
     1
174
     0
175
     0
176
     0
177
     0
178
     0
270
     2
271
     4
272
     4
273
     2
274
     2
340
10
275
     0
280
     0
281
     0
282
     0
283
     1
284
     0
285
     0
286
     0
287
     3
288
     0
  0
ENDTAB
  0
TABLE
  2
BLOCK_RECORD
  5
1
100
AcDbSymbolTable
 70
    18
  0
BLOCK_RECORD
  5
21
100
AcDbSymbolTableRecord
100
AcDbBlockTableRecord
  2
*MODEL_SPACE
  0
BLOCK_RECORD
  5
24
100
AcDbSymbolTableRecord
100
AcDbBlockTableRecord
  2
*PAPER_SPACE
  0
BLOCK_RECORD
  5
29
100
AcDbSymbolTableRecord
100
AcDbBlockTableRecord
  2
_NONE
  0
BLOCK_RECORD
  5
2D
100
AcDbSymbolTableRecord
100
AcDbBlockTableRecord
  2
_OPEN
  0
BLOCK_RECORD
  5
33
100
AcDbSymbolTableRecord
100
AcDbBlockTableRecord
  2
_CLOSED
  0
BLOCK_RECORD
  5
3A
100
AcDbSymbolTableRecord
100
AcDbBlockTableRecord
  2
_ORIGIN
  0
BLOCK_RECORD
  5
3F
100
AcDbSymbolTableRecord
100
AcDbBlockTableRecord
  2
_DOT
  0
BLOCK_RECORD
  5
47
100
AcDbSymbolTableRecord
100
AcDbBlockTableRecord
  2
_OBLIQUE
  0
BLOCK_RECORD
  5
4B
100
AcDbSymbolTableRecord
100
AcDbBlockTableRecord
  2
DIMS0
  0
BLOCK_RECORD
  5
57
100
AcDbSymbolTableRecord
100
AcDbBlockTableRecord
  2
DIMS1
  0
BLOCK_RECORD
  5
63
100
AcDbSymbolTableRecord
100
AcDbBlockTableRecord
  2
DIMS2
  0
BLOCK_RECORD
  5
6F
100
AcDbSymbolTableRecord
100
AcDbBlockTableRecord
  2
DIMS3
  0
BLOCK_RECORD
  5
7A
100
AcDbSymbolTableRecord
100
AcDbBlockTableRecord
  2
DIMS4
  0
BLOCK_RECORD
  5
86
100
AcDbSymbolTableRecord
100
AcDbBlockTableRecord
  2
DIMS5
  0
BLOCK_RECORD
  5
92
100
AcDbSymbolTableRecord
100
AcDbBlockTableRecord
  2
DIMS6
  0
BLOCK_RECORD
  5
9B
100
AcDbSymbolTableRecord
100
AcDbBlockTableRecord
  2
DIMS7
  0
BLOCK_RECORD
  5
A7
100
AcDbSymbolTableRecord
100
AcDbBlockTableRecord
  2
DIMS8
  0
BLOCK_RECORD
  5
B3
100
AcDbSymbolTableRecord
100
AcDbBlockTableRecord
  2
DIMS9
  0
BLOCK_RECORD
  5
BF
100
AcDbSymbolTableRecord
100
AcDbBlockTableRecord
  2
DIMS10
  0
BLOCK_RECORD
  5
C8
100
AcDbSymbolTableRecord
100
AcDbBlockTableRecord
  2
DIMS11
  0
ENDTAB
  0
ENDSEC
  0
SECTION
  2
BLOCKS
  0
BLOCK
  5
22
100
AcDbEntity
  8
0
100
AcDbBlockBegin
  2
*MODEL_SPACE
 70
     0
 10
0.0
 20
0.0
 30
0.0
  3
*MODEL_SPACE
  1

  0
ENDBLK
  5
23
100
AcDbEntity
  8
0
100
AcDbBlockEnd
  0
BLOCK
  5
25
100
AcDbEntity
 67
     1
  8
0
100
AcDbBlockBegin
  2
*PAPER_SPACE
 70
     0
 10
0.0
 20
0.0
 30
0.0
  3
*PAPER_SPACE
  1

  0
ENDBLK
  5
26
100
AcDbEntity
 67
     1
  8
0
100
AcDbBlockEnd
  0
BLOCK
  5
2A
100
AcDbEntity
  8
0
100
AcDbBlockBegin
  2
_NONE
 70
     0
 10
0.0
 20
0.0
  0
CIRCLE
  5
2B
100
AcDbEntity
  8
0
 62
     0
100
AcDbCircle
 10
0.0
 20
0.0
 40
0.25
  0
ENDBLK
  5
2C
100
AcDbEntity
  8
0
100
AcDbBlockEnd
  0
BLOCK
  5
2E
100
AcDbEntity
  8
0
100
AcDbBlockBegin
  2
_OPEN
 70
     0
 10
0.0
 20
0.0
  0
LINE
  5
2F
100
AcDbEntity
  8
0
 62
     0
100
AcDbLine
 10
-0.965926
 20
0.258819
 11
0.0
 21
0.0
  0
LINE
  5
30
100
AcDbEntity
  8
0
 62
     0
100
AcDbLine
 10
0.0
 20
0.0
 11
-0.965926
 21
-0.258819
  0
LINE
  5
31
100
AcDbEntity
  8
0
 62
     0
100
AcDbLine
 10
0.0
 20
0.0
 11
-1.0
 21
0.0
  0
ENDBLK
  5
32
100
AcDbEntity
  8
0
100
AcDbBlockEnd
  0
BLOCK
  5
34
100
AcDbEntity
  8
0
100
AcDbBlockBegin
  2
_CLOSED
 70
     0
 10
0.0
 20
0.0
  0
LINE
  5
35
100
AcDbEntity
  8
0
 62
     0
100
AcDbLine
 10
-0.965926
 20
0.258819
 11
0.0
 21
0.0
  0
LINE
  5
36
100
AcDbEntity
  8
0
 62
     0
100
AcDbLine
 10
0.0
 20
0.0
 11
-0.965926
 21
-0.258819
  0
LINE
  5
37
100
AcDbEntity
  8
0
 62
     0
100
AcDbLine
 10
-0.965926
 20
0.258819
 11
-0.965926
 21
-0.258819
  0
LINE
  5
38
100
AcDbEntity
  8
0
 62
     0
100
AcDbLine
 10
0.0
 20
0.0
 11
-1.0
 21
0.0
  0
ENDBLK
  5
39
100
AcDbEntity
  8
0
100
AcDbBlockEnd
  0
BLOCK
  5
3B
100
AcDbEntity
  8
0
100
AcDbBlockBegin
  2
_ORIGIN
 70
     0
 10
0.0
 20
0.0
  0
CIRCLE
  5
3C
100
AcDbEntity
  8
0
 62
     0
100
AcDbCircle
 10
0.0
 20
0.0
 40
0.5
  0
LINE
  5
3D
100
AcDbEntity
  8
0
 62
     0
100
AcDbLine
 10
0.0
 20
0.0
 11
-1.0
 21
0.0
  0
ENDBLK
  5
3E
100
AcDbEntity
  8
0
100
AcDbBlockEnd
  0
BLOCK
  5
40
100
AcDbEntity
  8
0
100
AcDbBlockBegin
  2
_DOT
 70
     0
 10
0.0
 20
0.0
  0
POLYLINE
  5
41
100
AcDbEntity
  8
0
 62
     0
100
AcDb2dPolyline
 66
     1
 70
     1
 40
0.5
 41
0.5
  0
VERTEX
  5
42
100
AcDbEntity
  8
0
 62
     0
100
AcDbVertex
100
AcDb2dVertex
 10
-0.25
 20
0.0
 42
1.0
  0
VERTEX
  5
43
100
AcDbEntity
  8
0
 62
     0
100
AcDbVertex
100
AcDb2dVertex
 10
0.25
 20
0.0
 42
1.0
  0
SEQEND
  5
44
100
AcDbEntity
  8
0
 62
     0
  0
LINE
  5
45
100
AcDbEntity
  8
0
 62
     0
100
AcDbLine
 10
-0.5
 20
0.0
 11
-1.0
 21
0.0
  0
ENDBLK
  5
46
100
AcDbEntity
  8
0
100
AcDbBlockEnd
  0
BLOCK
  5
48
100
AcDbEntity
  8
0
100
AcDbBlockBegin
  2
_OBLIQUE
 70
     0
 10
0.0
 20
0.0
  0
LINE
  5
49
100
AcDbEntity
  8
0
 62
     0
100
AcDbLine
 10
-0.353553
 20
-0.353553
 11
0.353553
 21
0.353553
  0
ENDBLK
  5
4A
100
AcDbEntity
  8
0
100
AcDbBlockEnd
  0
BLOCK
  5
4C
100
AcDbEntity
  8
DD0
100
AcDbBlockBegin
  2
DIMS0
 70
     0
 10
0.0
 20
0.0
  0
LINE
  5
4D
100
AcDbEntity
  8
DD0
100
AcDbLine
 10
309.340057
 20
614.192322
 11
397.940002
 21
614.192322
  0
LINE
  5
4E
100
AcDbEntity
  8
DD0
100
AcDbLine
 10
309.340302
 20
854.192139
 11
397.940002
 21
854.192139
  0
LINE
  5
4F
100
AcDbEntity
  8
DD0
100
AcDbLine
 10
390.834174
 20
625.783432
 11
393.940002
 21
614.192322
  0
LINE
  5
50
100
AcDbEntity
  8
DD0
100
AcDbLine
 10
393.940002
 20
614.192322
 11
397.045831
 21
625.783432
  0
LINE
  5
51
100
AcDbEntity
  8
DD0
100
AcDbLine
 10
397.045831
 20
842.601029
 11
393.940002
 21
854.192139
  0
LINE
  5
52
100
AcDbEntity
  8
DD0
100
AcDbLine
 10
393.940002
 20
854.192139
 11
390.834174
 21
842.601029
  0
LINE
  5
53
100
AcDbEntity
  8
DD0
100
AcDbLine
 10
393.940002
 20
614.192322
 11
393.940002
 21
854.192139
  0
TEXT
  5
54
100
AcDbEntity
  8
DD0
100
AcDbText
 10
391.540009
 20
716.322241
 40
12.6
  1
２４０
 50
90.000003
 41
0.833333
  7
STANDARD
100
AcDbText
  0
ENDBLK
  5
55
100
AcDbEntity
  8
DD0
100
AcDbBlockEnd
  0
BLOCK
  5
58
100
AcDbEntity
  8
DD0
100
AcDbBlockBegin
  2
DIMS1
 70
     0
 10
0.0
 20
0.0
  0
LINE
  5
59
100
AcDbEntity
  8
DD0
100
AcDbLine
 10
309.340057
 20
614.192322
 11
397.940002
 21
614.192322
  0
LINE
  5
5A
100
AcDbEntity
  8
DD0
100
AcDbLine
 10
270.340027
 20
557.192383
 11
397.940002
 21
557.192383
  0
LINE
  5
5B
100
AcDbEntity
  8
DD0
100
AcDbLine
 10
397.045831
 20
602.601212
 11
393.940002
 21
614.192322
  0
LINE
  5
5C
100
AcDbEntity
  8
DD0
100
AcDbLine
 10
393.940002
 20
614.192322
 11
390.834174
 21
602.601212
  0
LINE
  5
5D
100
AcDbEntity
  8
DD0
100
AcDbLine
 10
390.834174
 20
568.783493
 11
393.940002
 21
557.192383
  0
LINE
  5
5E
100
AcDbEntity
  8
DD0
100
AcDbLine
 10
393.940002
 20
557.192383
 11
397.045831
 21
568.783493
  0
LINE
  5
5F
100
AcDbEntity
  8
DD0
100
AcDbLine
 10
393.940002
 20
614.192322
 11
393.940002
 21
557.192383
  0
TEXT
  5
60
100
AcDbEntity
  8
DD0
100
AcDbText
 10
391.540009
 20
574.122412
 40
12.6
  1
６７
 50
90.000003
 41
0.833333
  7
STANDARD
100
AcDbText
  0
ENDBLK
  5
61
100
AcDbEntity
  8
DD0
100
AcDbBlockEnd
  0
BLOCK
  5
64
100
AcDbEntity
  8
DD0
100
AcDbBlockBegin
  2
DIMS2
 70
     0
 10
0.0
 20
0.0
  0
LINE
  5
65
100
AcDbEntity
  8
DD0
100
AcDbLine
 10
345.840057
 20
792.192139
 11
345.840057
 21
949.412109
  0
LINE
  5
66
100
AcDbEntity
  8
DD0
100
AcDbLine
 10
158.790268
 20
825.992065
 11
158.790268
 21
949.412109
  0
LINE
  5
67
100
AcDbEntity
  8
DD0
100
AcDbLine
 10
334.248947
 20
942.306281
 11
345.840057
 21
945.412109
  0
LINE
  5
68
100
AcDbEntity
  8
DD0
100
AcDbLine
 10
345.840057
 20
945.412109
 11
334.248947
 21
948.517938
  0
LINE
  5
69
100
AcDbEntity
  8
DD0
100
AcDbLine
 10
170.381378
 20
948.517938
 11
158.790268
 21
945.412109
  0
LINE
  5
6A
100
AcDbEntity
  8
DD0
100
AcDbLine
 10
158.790268
 20
945.412109
 11
170.381378
 21
942.306281
  0
LINE
  5
6B
100
AcDbEntity
  8
DD0
100
AcDbLine
 10
345.840057
 20
945.412109
 11
158.790268
 21
945.412109
  0
TEXT
  5
6C
100
AcDbEntity
  8
DD0
100
AcDbText
 10
234.445166
 20
947.812134
 40
12.6
  1
１８７
 41
0.833333
  7
STANDARD
100
AcDbText
  0
ENDBLK
  5
6D
100
AcDbEntity
  8
DD0
100
AcDbBlockEnd
  0
BLOCK
  5
70
100
AcDbEntity
  8
DD0
100
AcDbBlockBegin
  2
DIMS3
 70
     0
 10
0.0
 20
0.0
  0
LINE
  5
71
100
AcDbEntity
  8
DD0
100
AcDbLine
 10
345.840057
 20
792.192139
 11
345.840057
 21
995.612793
  0
LINE
  5
72
100
AcDbEntity
  8
DD0
100
AcDbLine
 10
147.340012
 20
778.392151
 11
147.340012
 21
995.612793
  0
LINE
  5
73
100
AcDbEntity
  8
DD0
100
AcDbLine
 10
334.248947
 20
988.506964
 11
345.840057
 21
991.612793
  0
LINE
  5
74
100
AcDbEntity
  8
DD0
100
AcDbLine
 10
345.840057
 20
991.612793
 11
334.248947
 21
994.718622
  0
LINE
  5
75
100
AcDbEntity
  8
DD0
100
AcDbLine
 10
158.931121
 20
994.718622
 11
147.340012
 21
991.612793
  0
LINE
  5
76
100
AcDbEntity
  8
DD0
100
AcDbLine
 10
147.340012
 20
991.612793
 11
158.931121
 21
988.506964
  0
LINE
  5
77
100
AcDbEntity
  8
DD0
100
AcDbLine
 10
345.840057
 20
991.612793
 11
147.340012
 21
991.612793
  0
ENDBLK
  5
78
100
AcDbEntity
  8
DD0
100
AcDbBlockEnd
  0
BLOCK
  5
7B
100
AcDbEntity
  8
DD0
100
AcDbBlockBegin
  2
DIMS4
 70
     0
 10
0.0
 20
0.0
  0
LINE
  5
7C
100
AcDbEntity
  8
DD0
100
AcDbLine
 10
687.427246
 20
610.191895
 11
687.427246
 21
589.831482
  0
LINE
  5
7D
100
AcDbEntity
  8
DD0
100
AcDbLine
 10
684.227173
 20
610.191895
 11
684.227173
 21
589.831482
  0
LINE
  5
7E
100
AcDbEntity
  8
DD0
100
AcDbLine
 10
699.018356
 20
596.937311
 11
687.427246
 21
593.831482
  0
LINE
  5
7F
100
AcDbEntity
  8
DD0
100
AcDbLine
 10
687.427246
 20
593.831482
 11
699.018356
 21
590.725653
  0
LINE
  5
80
100
AcDbEntity
  8
DD0
100
AcDbLine
 10
672.636063
 20
590.725653
 11
684.227173
 21
593.831482
  0
LINE
  5
81
100
AcDbEntity
  8
DD0
100
AcDbLine
 10
684.227173
 20
593.831482
 11
672.636063
 21
596.937311
  0
LINE
  5
82
100
AcDbEntity
  8
DD0
100
AcDbLine
 10
700.627246
 20
593.831482
 11
629.227169
 21
593.831482
  0
TEXT
  5
83
100
AcDbEntity
  8
DD0
100
AcDbText
 10
632.45719
 20
596.231506
 40
12.6
  1
３．２
 41
0.833333
  7
STANDARD
100
AcDbText
  0
ENDBLK
  5
84
100
AcDbEntity
  8
DD0
100
AcDbBlockEnd
  0
BLOCK
  5
87
100
AcDbEntity
  8
DD0
100
AcDbBlockBegin
  2
DIMS5
 70
     0
 10
0.0
 20
0.0
  0
LINE
  5
88
100
AcDbEntity
  8
DD0
100
AcDbLine
 10
687.427307
 20
858.191895
 11
687.427307
 21
949.412109
  0
LINE
  5
89
100
AcDbEntity
  8
DD0
100
AcDbLine
 10
462.227295
 20
811.191895
 11
462.227295
 21
949.412109
  0
LINE
  5
8A
100
AcDbEntity
  8
DD0
100
AcDbLine
 10
675.836197
 20
942.306281
 11
687.427307
 21
945.412109
  0
LINE
  5
8B
100
AcDbEntity
  8
DD0
100
AcDbLine
 10
687.427307
 20
945.412109
 11
675.836197
 21
948.517938
  0
LINE
  5
8C
100
AcDbEntity
  8
DD0
100
AcDbLine
 10
473.818405
 20
948.517938
 11
462.227295
 21
945.412109
  0
LINE
  5
8D
100
AcDbEntity
  8
DD0
100
AcDbLine
 10
462.227295
 20
945.412109
 11
473.818405
 21
942.306281
  0
LINE
  5
8E
100
AcDbEntity
  8
DD0
100
AcDbLine
 10
687.427307
 20
945.412109
 11
462.227295
 21
945.412109
  0
TEXT
  5
8F
100
AcDbEntity
  8
DD0
100
AcDbText
 10
556.957251
 20
947.812134
 40
12.6
  1
２２５
 41
0.833333
  7
STANDARD
100
AcDbText
  0
ENDBLK
  5
90
100
AcDbEntity
  8
DD0
100
AcDbBlockEnd
  0
BLOCK
  5
93
100
AcDbEntity
  8
DD0
100
AcDbBlockBegin
  2
DIMS6
 70
     0
 10
0.0
 20
0.0
  0
TEXT
  5
94
100
AcDbEntity
  8
DD0
100
AcDbText
 10
299.370032
 20
566.592163
 40
12.6
  1
相間バリア
 41
0.833333
  7
STANDARD
100
AcDbText
  0
LINE
  5
95
100
AcDbEntity
  8
DD0
100
AcDbLine
 10
276.541885
 20
577.873745
 11
266.340027
 21
584.192139
  0
LINE
  5
96
100
AcDbEntity
  8
DD0
100
AcDbLine
 10
266.340027
 20
584.192139
 11
272.015898
 21
573.61932
  0
LINE
  5
97
100
AcDbEntity
  8
DD0
100
AcDbLine
 10
266.340027
 20
584.192139
 11
285.140015
 21
564.192139
  0
LINE
  5
98
100
AcDbEntity
  8
DD0
100
AcDbLine
 10
285.140015
 20
564.192139
 11
374.540009
 21
564.192139
  0
ENDBLK
  5
99
100
AcDbEntity
  8
DD0
100
AcDbBlockEnd
  0
BLOCK
  5
9C
100
AcDbEntity
  8
DD0
100
AcDbBlockBegin
  2
DIMS7
 70
     0
 10
0.0
 20
0.0
  0
LINE
  5
9D
100
AcDbEntity
  8
DD0
100
AcDbLine
 10
349.840088
 20
454.732117
 11
397.940002
 21
454.732117
  0
LINE
  5
9E
100
AcDbEntity
  8
DD0
100
AcDbLine
 10
289.22403
 20
444.732117
 11
397.940002
 21
444.732117
  0
LINE
  5
9F
100
AcDbEntity
  8
DD0
100
AcDbLine
 10
390.834174
 20
466.323227
 11
393.940002
 21
454.732117
  0
LINE
  5
A0
100
AcDbEntity
  8
DD0
100
AcDbLine
 10
393.940002
 20
454.732117
 11
397.045831
 21
466.323227
  0
LINE
  5
A1
100
AcDbEntity
  8
DD0
100
AcDbLine
 10
397.045831
 20
433.141007
 11
393.940002
 21
444.732117
  0
LINE
  5
A2
100
AcDbEntity
  8
DD0
100
AcDbLine
 10
393.940002
 20
444.732117
 11
390.834174
 21
433.141007
  0
LINE
  5
A3
100
AcDbEntity
  8
DD0
100
AcDbLine
 10
393.940002
 20
485.08992
 11
393.940002
 21
431.532117
  0
TEXT
  5
A4
100
AcDbEntity
  8
DD0
100
AcDbText
 10
390.094931
 20
456.919684
 40
12.6
  1
１０
 50
90.003479
 41
0.833333
  7
STANDARD
100
AcDbText
  0
ENDBLK
  5
A5
100
AcDbEntity
  8
DD0
100
AcDbBlockEnd
  0
BLOCK
  5
A8
100
AcDbEntity
  8
DD0
100
AcDbBlockBegin
  2
DIMS8
 70
     0
 10
0.0
 20
0.0
  0
LINE
  5
A9
100
AcDbEntity
  8
DD0
 60
     1
100
AcDbLine
 10
289.22403
 20
444.732117
 11
397.940002
 21
444.732117
  0
LINE
  5
AA
100
AcDbEntity
  8
DD0
100
AcDbLine
 10
288.320923
 20
224.732132
 11
397.940002
 21
224.732132
  0
LINE
  5
AB
100
AcDbEntity
  8
DD0
100
AcDbLine
 10
397.045831
 20
433.141007
 11
393.940002
 21
444.732117
  0
LINE
  5
AC
100
AcDbEntity
  8
DD0
100
AcDbLine
 10
393.940002
 20
444.732117
 11
390.834174
 21
433.141007
  0
LINE
  5
AD
100
AcDbEntity
  8
DD0
100
AcDbLine
 10
390.834174
 20
236.323242
 11
393.940002
 21
224.732132
  0
LINE
  5
AE
100
AcDbEntity
  8
DD0
100
AcDbLine
 10
393.940002
 20
224.732132
 11
397.045831
 21
236.323242
  0
LINE
  5
AF
100
AcDbEntity
  8
DD0
100
AcDbLine
 10
393.940002
 20
444.732117
 11
393.940002
 21
224.732132
  0
TEXT
  5
B0
100
AcDbEntity
  8
DD0
100
AcDbText
 10
391.540009
 20
316.862128
 40
12.6
  1
２２０
 50
90.000003
 41
0.833333
  7
STANDARD
100
AcDbText
  0
ENDBLK
  5
B1
100
AcDbEntity
  8
DD0
100
AcDbBlockEnd
  0
BLOCK
  5
B4
100
AcDbEntity
  8
DD0
100
AcDbBlockBegin
  2
DIMS9
 70
     0
 10
0.0
 20
0.0
  0
LINE
  5
B5
100
AcDbEntity
  8
DD0
100
AcDbLine
 10
158.840073
 20
210.732132
 11
158.840073
 21
171.33226
  0
LINE
  5
B6
100
AcDbEntity
  8
DD0
100
AcDbLine
 10
240.340073
 20
195.337402
 11
240.340073
 21
171.33226
  0
LINE
  5
B7
100
AcDbEntity
  8
DD0
100
AcDbLine
 10
170.431183
 20
178.438089
 11
158.840073
 21
175.33226
  0
LINE
  5
B8
100
AcDbEntity
  8
DD0
100
AcDbLine
 10
158.840073
 20
175.33226
 11
170.431183
 21
172.226432
  0
LINE
  5
B9
100
AcDbEntity
  8
DD0
100
AcDbLine
 10
228.748963
 20
172.226432
 11
240.340073
 21
175.33226
  0
LINE
  5
BA
100
AcDbEntity
  8
DD0
100
AcDbLine
 10
240.340073
 20
175.33226
 11
228.748963
 21
178.438089
  0
LINE
  5
BB
100
AcDbEntity
  8
DD0
100
AcDbLine
 10
91.240074
 20
175.33226
 11
240.340073
 21
175.33226
  0
TEXT
  5
BC
100
AcDbEntity
  8
DD0
100
AcDbText
 10
94.470076
 20
177.732254
 40
12.6
  1
８１．５
 41
0.833333
  7
STANDARD
100
AcDbText
  0
ENDBLK
  5
BD
100
AcDbEntity
  8
DD0
100
AcDbBlockEnd
  0
BLOCK
  5
C0
100
AcDbEntity
  8
DD0
100
AcDbBlockBegin
  2
DIMS10
 70
     0
 10
0.0
 20
0.0
  0
TEXT
  5
C1
100
AcDbEntity
  8
DD0
100
AcDbText
 10
92.621458
 20
477.008606
 40
12.6
  1
４－Ｍ８ねじ穴
 41
0.833333
  7
STANDARD
100
AcDbText
  0
LINE
  5
C2
100
AcDbEntity
  8
DD0
100
AcDbLine
 10
197.996035
 20
454.50559
 11
208.115967
 21
448.056793
  0
LINE
  5
C3
100
AcDbEntity
  8
DD0
100
AcDbLine
 10
208.115967
 20
448.056793
 11
202.576247
 21
458.701581
  0
LINE
  5
C4
100
AcDbEntity
  8
DD0
100
AcDbLine
 10
208.115967
 20
448.056793
 11
183.791504
 21
474.608612
  0
LINE
  5
C5
100
AcDbEntity
  8
DD0
100
AcDbLine
 10
183.791473
 20
474.608612
 11
87.591461
 21
474.608643
  0
ENDBLK
  5
C6
100
AcDbEntity
  8
DD0
100
AcDbBlockEnd
  0
BLOCK
  5
C9
100
AcDbEntity
  8
DD0
100
AcDbBlockBegin
  2
DIMS11
 70
     0
 10
0.0
 20
0.0
  0
LINE
  5
CA
100
AcDbEntity
  8
DD0
100
AcDbLine
 10
210.340073
 20
464.952209
 11
210.340073
 21
503.286804
  0
LINE
  5
CB
100
AcDbEntity
  8
DD0
100
AcDbLine
 10
270.340088
 20
464.952209
 11
270.340088
 21
503.286804
  0
LINE
  5
CC
100
AcDbEntity
  8
DD0
100
AcDbLine
 10
221.931183
 20
502.392633
 11
210.340073
 21
499.286804
  0
LINE
  5
CD
100
AcDbEntity
  8
DD0
100
AcDbLine
 10
210.340073
 20
499.286804
 11
221.931183
 21
496.180976
  0
LINE
  5
CE
100
AcDbEntity
  8
DD0
100
AcDbLine
 10
258.748978
 20
496.180976
 11
270.340088
 21
499.286804
  0
LINE
  5
CF
100
AcDbEntity
  8
DD0
100
AcDbLine
 10
270.340088
 20
499.286804
 11
258.748978
 21
502.392633
  0
LINE
  5
D0
100
AcDbEntity
  8
DD0
100
AcDbLine
 10
210.340073
 20
499.286804
 11
270.340088
 21
499.286804
  0
TEXT
  5
D1
100
AcDbEntity
  8
DD0
100
AcDbText
 10
228.770087
 20
501.686798
 40
12.6
  1
６０
 41
0.833333
  7
STANDARD
100
AcDbText
  0
ENDBLK
  5
D2
100
AcDbEntity
  8
DD0
100
AcDbBlockEnd
  0
ENDSEC
  0
SECTION
  2
ENTITIES
  0
INSERT
  5
56
100
AcDbEntity
  8
DD0
100
AcDbBlockReference
  2
DIMS0
 10
0.0
 20
0.0
  0
INSERT
  5
62
100
AcDbEntity
  8
DD0
100
AcDbBlockReference
  2
DIMS1
 10
0.0
 20
0.0
  0
INSERT
  5
6E
100
AcDbEntity
  8
DD0
100
AcDbBlockReference
  2
DIMS2
 10
0.0
 20
0.0
  0
INSERT
  5
79
100
AcDbEntity
  8
DD0
100
AcDbBlockReference
  2
DIMS3
 10
0.0
 20
0.0
  0
INSERT
  5
85
100
AcDbEntity
  8
DD0
100
AcDbBlockReference
  2
DIMS4
 10
0.0
 20
0.0
  0
INSERT
  5
91
100
AcDbEntity
  8
DD0
100
AcDbBlockReference
  2
DIMS5
 10
0.0
 20
0.0
  0
INSERT
  5
9A
100
AcDbEntity
  8
DD0
100
AcDbBlockReference
  2
DIMS6
 10
0.0
 20
0.0
  0
INSERT
  5
A6
100
AcDbEntity
  8
DD0
100
AcDbBlockReference
  2
DIMS7
 10
0.0
 20
0.0
  0
INSERT
  5
B2
100
AcDbEntity
  8
DD0
100
AcDbBlockReference
  2
DIMS8
 10
0.0
 20
0.0
  0
INSERT
  5
BE
100
AcDbEntity
  8
DD0
100
AcDbBlockReference
  2
DIMS9
 10
0.0
 20
0.0
  0
INSERT
  5
C7
100
AcDbEntity
  8
DD0
100
AcDbBlockReference
  2
DIMS10
 10
0.0
 20
0.0
  0
INSERT
  5
D3
100
AcDbEntity
  8
DD0
100
AcDbBlockReference
  2
DIMS11
 10
0.0
 20
0.0
  0
ARC
  5
D4
100
AcDbEntity
  8
M0
 62
     4
100
AcDbCircle
 10
305.340293
 20
849.192147
 40
5.0
100
AcDbArc
 50
53.130102
 51
90.0
  0
ARC
  5
D5
100
AcDbEntity
  8
M0
 62
     4
100
AcDbCircle
 10
305.340077
 20
619.19233
 40
5.0
100
AcDbArc
 50
270.0
 51
306.8664
  0
LINE
  5
D6
100
AcDbEntity
  8
M0
 62
     4
100
AcDbLine
 10
321.790105
 20
652.192315
 11
321.790147
 21
708.586483
  0
ARC
  5
D7
100
AcDbEntity
  8
M0
 62
     4
100
AcDbCircle
 10
316.590268
 20
821.992185
 40
5.2
100
AcDbArc
 50
359.997256
 51
384.018534
  0
LINE
  5
D8
100
AcDbEntity
  8
M0
 62
     4
100
AcDbLine
 10
321.790259
 20
816.192132
 11
313.340262
 21
816.19214
  0
LINE
  5
D9
100
AcDbEntity
  8
M0
 62
     4
100
AcDbLine
 10
318.590263
 20
817.192036
 11
318.590262
 21
816.192135
  0
LINE
  5
DA
100
AcDbEntity
  8
M0
 62
     4
100
AcDbLine
 10
305.340298
 20
854.192147
 11
175.340302
 21
854.192269
  0
LINE
  5
DB
100
AcDbEntity
  8
M0
 62
     4
100
AcDbLine
 10
175.340076
 20
614.192453
 11
305.340072
 21
614.19233
  0
CIRCLE
  5
DC
100
AcDbEntity
  8
M0
 62
     4
100
AcDbCircle
 10
270.340289
 20
844.19218
 40
4.5
  0
LINE
  5
DD
100
AcDbEntity
  8
M0
  6
DASHDOT
 62
     4
100
AcDbLine
 10
270.340298
 20
853.69218
 11
270.34028
 21
834.69218
  0
LINE
  5
DE
100
AcDbEntity
  8
M0
  6
DASHDOT
 62
     4
100
AcDbLine
 10
260.840289
 20
844.192189
 11
279.840289
 21
844.192171
  0
CIRCLE
  5
DF
100
AcDbEntity
  8
M0
 62
     4
100
AcDbCircle
 10
270.340081
 20
624.192363
 40
4.5
  0
LINE
  5
E0
100
AcDbEntity
  8
M0
  6
DASHDOT
 62
     4
100
AcDbLine
 10
270.34009
 20
633.692363
 11
270.340072
 21
614.692363
  0
LINE
  5
E1
100
AcDbEntity
  8
M0
  6
DASHDOT
 62
     4
100
AcDbLine
 10
260.840081
 20
624.192372
 11
279.840081
 21
624.192354
  0
LINE
  5
E2
100
AcDbEntity
  8
M0
 62
     4
100
AcDbLine
 10
279.340298
 20
854.192172
 11
279.340289
 21
844.192172
  0
LINE
  5
E3
100
AcDbEntity
  8
M0
 62
     4
100
AcDbLine
 10
261.340298
 20
854.192189
 11
261.340289
 21
844.192189
  0
ARC
  5
E4
100
AcDbEntity
  8
M0
 62
     4
100
AcDbCircle
 10
270.340289
 20
844.19218
 40
9.0
100
AcDbArc
 50
179.999946
 51
242.734414
  0
LINE
  5
E5
100
AcDbEntity
  8
M0
 62
     4
100
AcDbLine
 10
283.340019
 20
633.192351
 11
270.34009
 21
633.192363
  0
LINE
  5
E6
100
AcDbEntity
  8
M0
 62
     4
100
AcDbLine
 10
261.340081
 20
624.192372
 11
261.340072
 21
614.192372
  0
ARC
  5
E7
100
AcDbEntity
  8
M0
 62
     4
100
AcDbCircle
 10
270.340081
 20
624.192363
 40
9.0
100
AcDbArc
 50
90.0
 51
179.999946
  0
ARC
  5
E8
100
AcDbEntity
  8
M0
 62
     4
100
AcDbCircle
 10
175.340297
 20
849.192269
 40
5.0
100
AcDbArc
 50
90.0
 51
179.999946
  0
ARC
  5
E9
100
AcDbEntity
  8
M0
 62
     4
100
AcDbCircle
 10
175.34008
 20
619.192453
 40
5.0
100
AcDbArc
 50
179.999946
 51
270.0
  0
LINE
  5
EA
100
AcDbEntity
  8
M0
 62
     4
100
AcDbLine
 10
158.790112
 20
652.192453
 11
158.790272
 21
821.99209
  0
ARC
  5
EB
100
AcDbEntity
  8
M0
 62
     4
100
AcDbCircle
 10
163.990271
 20
821.992085
 40
5.2
100
AcDbArc
 50
153.415994
 51
179.999946
  0
LINE
  5
EC
100
AcDbEntity
  8
M0
 62
     4
100
AcDbLine
 10
158.890266
 20
816.192285
 11
167.340266
 21
816.192277
  0
LINE
  5
ED
100
AcDbEntity
  8
M0
 62
     4
100
AcDbLine
 10
161.990267
 20
817.192036
 11
161.990266
 21
816.192038
  0
LINE
  5
EE
100
AcDbEntity
  8
M0
 62
     4
100
AcDbLine
 10
170.340297
 20
849.192274
 11
170.340292
 21
844.192165
  0
LINE
  5
EF
100
AcDbEntity
  8
M0
 62
     4
100
AcDbLine
 10
170.340085
 20
624.191904
 11
170.34008
 21
619.192457
  0
CIRCLE
  5
F0
100
AcDbEntity
  8
M0
 62
     4
100
AcDbCircle
 10
210.340289
 20
844.192237
 40
4.5
  0
LINE
  5
F1
100
AcDbEntity
  8
M0
  6
DASHDOT
 62
     4
100
AcDbLine
 10
210.340298
 20
853.692237
 11
210.34028
 21
834.692237
  0
LINE
  5
F2
100
AcDbEntity
  8
M0
  6
DASHDOT
 62
     4
100
AcDbLine
 10
219.840289
 20
844.192228
 11
200.840289
 21
844.192245
  0
CIRCLE
  5
F3
100
AcDbEntity
  8
M0
 62
     4
100
AcDbCircle
 10
210.340081
 20
624.19242
 40
4.5
  0
LINE
  5
F4
100
AcDbEntity
  8
M0
  6
DASHDOT
 62
     4
100
AcDbLine
 10
210.34009
 20
633.69242
 11
210.340072
 21
614.69242
  0
LINE
  5
F5
100
AcDbEntity
  8
M0
  6
DASHDOT
 62
     4
100
AcDbLine
 10
219.840081
 20
624.192411
 11
200.840081
 21
624.192429
  0
LINE
  5
F6
100
AcDbEntity
  8
M0
 62
     4
100
AcDbLine
 10
201.340298
 20
854.192245
 11
201.340289
 21
844.192245
  0
LINE
  5
F7
100
AcDbEntity
  8
M0
 62
     4
100
AcDbLine
 10
219.340298
 20
854.192228
 11
219.340289
 21
844.192228
  0
ARC
  5
F8
100
AcDbEntity
  8
M0
 62
     4
100
AcDbCircle
 10
210.340289
 20
844.192237
 40
9.0
100
AcDbArc
 50
179.999946
 51
359.998392
  0
LINE
  5
F9
100
AcDbEntity
  8
M0
 62
     4
100
AcDbLine
 10
197.340019
 20
633.192432
 11
210.34009
 21
633.19242
  0
LINE
  5
FA
100
AcDbEntity
  8
M0
 62
     4
100
AcDbLine
 10
219.340081
 20
624.192411
 11
219.340072
 21
614.192411
  0
ARC
  5
FB
100
AcDbEntity
  8
M0
 62
     4
100
AcDbCircle
 10
210.340081
 20
624.19242
 40
9.0
100
AcDbArc
 50
-0.000151
 51
90.0
  0
ARC
  5
FC
100
AcDbEntity
  8
M0
 62
     4
100
AcDbCircle
 10
180.340081
 20
624.192448
 40
4.5
100
AcDbArc
 50
180.006927
 51
359.993073
  0
LINE
  5
FD
100
AcDbEntity
  8
M0
 62
     4
100
AcDbLine
 10
321.790215
 20
780.392144
 11
321.790265
 21
821.99218
  0
ARC
  5
FE
100
AcDbEntity
  8
M0
 62
     4
100
AcDbCircle
 10
293.840019
 20
850.192147
 40
3.0
100
AcDbArc
 50
90.0
 51
180.0
  0
LINE
  5
FF
100
AcDbEntity
  8
M0
 62
     4
100
AcDbLine
 10
290.840019
 20
850.192147
 11
290.840019
 21
844.192168
  0
LINE
  5
100
100
AcDbEntity
  8
M0
  6
DASHDOT
 62
     4
100
AcDbLine
 10
298.340013
 20
809.52551
 11
298.340013
 21
848.858843
  0
LINE
  5
101
100
AcDbEntity
  8
M0
 62
     4
100
AcDbLine
 10
322.340019
 20
853.192147
 11
293.840019
 21
853.192147
  0
LINE
  5
102
100
AcDbEntity
  8
M0
 62
     4
100
AcDbLine
 10
322.340019
 20
615.192147
 11
293.840019
 21
615.192147
  0
ARC
  5
103
100
AcDbEntity
  8
M0
 62
     4
100
AcDbCircle
 10
293.840019
 20
618.192147
 40
3.0
100
AcDbArc
 50
180.0
 51
270.0
  0
LINE
  5
104
100
AcDbEntity
  8
M0
 62
     4
100
AcDbLine
 10
290.840019
 20
624.191904
 11
290.840019
 21
618.192147
  0
LINE
  5
105
100
AcDbEntity
  8
M0
 62
     4
100
AcDbLine
 10
321.790032
 20
649.192147
 11
313.340019
 21
649.192147
  0
ARC
  5
106
100
AcDbEntity
  8
M0
 62
     4
100
AcDbCircle
 10
270.340289
 20
844.19218
 40
9.0
100
AcDbArc
 50
249.850289
 51
359.998392
  0
CIRCLE
  5
107
100
AcDbEntity
  8
M0
 62
     4
100
AcDbCircle
 10
278.340019
 20
649.192147
 40
3.0
  0
CIRCLE
  5
108
100
AcDbEntity
  8
M0
 62
     4
100
AcDbCircle
 10
202.340019
 20
649.192147
 40
3.0
  0
LINE
  5
109
100
AcDbEntity
  8
M0
 62
     2
100
AcDbLine
 10
209.840019
 20
659.192159
 11
211.840019
 21
659.192159
  0
LINE
  5
10A
100
AcDbEntity
  8
M0
 62
     2
100
AcDbLine
 10
221.840019
 20
660.192159
 11
221.840019
 21
662.192159
  0
LINE
  5
10B
100
AcDbEntity
  8
M0
 62
     2
100
AcDbLine
 10
208.840022
 20
660.192159
 11
208.840022
 21
663.192159
  0
LINE
  5
10C
100
AcDbEntity
  8
M0
 62
     2
100
AcDbLine
 10
271.840019
 20
660.192159
 11
271.840019
 21
663.192159
  0
LINE
  5
10D
100
AcDbEntity
  8
M0
 62
     2
100
AcDbLine
 10
259.840019
 20
659.192159
 11
261.840019
 21
659.192159
  0
LINE
  5
10E
100
AcDbEntity
  8
M0
 62
     2
100
AcDbLine
 10
218.840019
 20
659.192159
 11
220.840019
 21
659.192159
  0
LINE
  5
10F
100
AcDbEntity
  8
M0
 62
     2
100
AcDbLine
 10
268.840019
 20
659.192159
 11
270.840019
 21
659.192159
  0
ARC
  5
110
100
AcDbEntity
  8
M0
 62
     2
100
AcDbCircle
 10
209.840019
 20
660.192159
 40
1.0
100
AcDbArc
 50
179.999126
 51
269.999126
  0
ARC
  5
111
100
AcDbEntity
  8
M0
 62
     2
100
AcDbCircle
 10
211.840019
 20
660.192159
 40
1.0
100
AcDbArc
 50
269.999126
 51
360.0
  0
ARC
  5
112
100
AcDbEntity
  8
M0
 62
     2
100
AcDbCircle
 10
218.840019
 20
660.192159
 40
1.0
100
AcDbArc
 50
179.999126
 51
269.999126
  0
ARC
  5
113
100
AcDbEntity
  8
M0
 62
     2
100
AcDbCircle
 10
220.840019
 20
660.192159
 40
1.0
100
AcDbArc
 50
269.999126
 51
360.0
  0
ARC
  5
114
100
AcDbEntity
  8
M0
 62
     2
100
AcDbCircle
 10
259.840019
 20
660.192159
 40
1.0
100
AcDbArc
 50
179.999126
 51
269.999126
  0
ARC
  5
115
100
AcDbEntity
  8
M0
 62
     2
100
AcDbCircle
 10
261.840019
 20
660.192159
 40
1.0
100
AcDbArc
 50
269.999126
 51
360.0
  0
ARC
  5
116
100
AcDbEntity
  8
M0
 62
     2
100
AcDbCircle
 10
268.840019
 20
660.192159
 40
1.0
100
AcDbArc
 50
179.999126
 51
269.999126
  0
ARC
  5
117
100
AcDbEntity
  8
M0
 62
     2
100
AcDbCircle
 10
270.840019
 20
660.192159
 40
1.0
100
AcDbArc
 50
269.999126
 51
360.0
  0
LINE
  5
118
100
AcDbEntity
  8
M0
 62
     2
100
AcDbLine
 10
208.840022
 20
808.192143
 11
208.840022
 21
805.192143
  0
ARC
  5
119
100
AcDbEntity
  8
M0
 62
     2
100
AcDbCircle
 10
209.840019
 20
808.192143
 40
1.0
100
AcDbArc
 50
90.0
 51
180.0
  0
LINE
  5
11A
100
AcDbEntity
  8
M0
 62
     2
100
AcDbLine
 10
209.840019
 20
809.192143
 11
211.840019
 21
809.192143
  0
LINE
  5
11B
100
AcDbEntity
  8
M0
 62
     2
100
AcDbLine
 10
212.840019
 20
805.192143
 11
212.840019
 21
808.192143
  0
ARC
  5
11C
100
AcDbEntity
  8
M0
 62
     2
100
AcDbCircle
 10
211.840019
 20
808.192143
 40
1.0
100
AcDbArc
 50
0.0
 51
90.0
  0
LINE
  5
11D
100
AcDbEntity
  8
M0
 62
     2
100
AcDbLine
 10
217.840019
 20
805.192143
 11
217.840019
 21
808.192143
  0
ARC
  5
11E
100
AcDbEntity
  8
M0
 62
     2
100
AcDbCircle
 10
218.840019
 20
808.192143
 40
1.0
100
AcDbArc
 50
90.0
 51
180.0
  0
LINE
  5
11F
100
AcDbEntity
  8
M0
 62
     2
100
AcDbLine
 10
218.840019
 20
809.192143
 11
220.840019
 21
809.192143
  0
LINE
  5
120
100
AcDbEntity
  8
M0
 62
     2
100
AcDbLine
 10
221.840019
 20
808.192143
 11
221.840019
 21
805.192143
  0
ARC
  5
121
100
AcDbEntity
  8
M0
 62
     2
100
AcDbCircle
 10
220.840019
 20
808.192143
 40
1.0
100
AcDbArc
 50
0.0
 51
90.0
  0
LINE
  5
122
100
AcDbEntity
  8
M0
 62
     2
100
AcDbLine
 10
258.840019
 20
805.192143
 11
258.840019
 21
808.192143
  0
ARC
  5
123
100
AcDbEntity
  8
M0
 62
     2
100
AcDbCircle
 10
259.840019
 20
808.192143
 40
1.0
100
AcDbArc
 50
90.0
 51
180.0
  0
LINE
  5
124
100
AcDbEntity
  8
M0
 62
     2
100
AcDbLine
 10
259.840019
 20
809.192143
 11
261.840019
 21
809.192143
  0
LINE
  5
125
100
AcDbEntity
  8
M0
 62
     2
100
AcDbLine
 10
262.840019
 20
805.192143
 11
262.840019
 21
808.192143
  0
ARC
  5
126
100
AcDbEntity
  8
M0
 62
     2
100
AcDbCircle
 10
261.840019
 20
808.192143
 40
1.0
100
AcDbArc
 50
0.0
 51
90.0
  0
LINE
  5
127
100
AcDbEntity
  8
M0
 62
     2
100
AcDbLine
 10
267.840019
 20
808.192143
 11
267.840019
 21
805.192143
  0
ARC
  5
128
100
AcDbEntity
  8
M0
 62
     2
100
AcDbCircle
 10
268.840019
 20
808.192143
 40
1.0
100
AcDbArc
 50
90.0
 51
180.0
  0
LINE
  5
129
100
AcDbEntity
  8
M0
 62
     2
100
AcDbLine
 10
268.840019
 20
809.192143
 11
270.840019
 21
809.192143
  0
LINE
  5
12A
100
AcDbEntity
  8
M0
 62
     2
100
AcDbLine
 10
271.840019
 20
808.192143
 11
271.840019
 21
805.192143
  0
ARC
  5
12B
100
AcDbEntity
  8
M0
 62
     2
100
AcDbCircle
 10
270.840019
 20
808.192143
 40
1.0
100
AcDbArc
 50
0.0
 51
90.0
  0
LINE
  5
12C
100
AcDbEntity
  8
M0
  6
DASHDOT
 62
     2
100
AcDbLine
 10
142.927315
 20
734.192147
 11
340.250115
 21
734.192147
  0
ARC
  5
12D
100
AcDbEntity
  8
M0
 62
     2
100
AcDbCircle
 10
319.840019
 20
814.192143
 40
2.0
100
AcDbArc
 50
0.0
 51
90.0
  0
LINE
  5
12E
100
AcDbEntity
  8
M0
 62
     2
100
AcDbLine
 10
319.840019
 20
816.192143
 11
313.340019
 21
816.192143
  0
ARC
  5
12F
100
AcDbEntity
  8
M0
 62
     2
100
AcDbCircle
 10
160.840035
 20
814.192143
 40
2.0
100
AcDbArc
 50
89.999563
 51
180.0
  0
LINE
  5
130
100
AcDbEntity
  8
M0
 62
     2
100
AcDbLine
 10
160.840035
 20
816.192143
 11
167.340022
 21
816.192143
  0
LINE
  5
131
100
AcDbEntity
  8
M0
 62
     2
100
AcDbLine
 10
184.340023
 20
805.192143
 11
208.840022
 21
805.192143
  0
LINE
  5
132
100
AcDbEntity
  8
M0
 62
     2
100
AcDbLine
 10
280.64
 20
811.192143
 11
271.572072
 21
811.192143
  0
LINE
  5
133
100
AcDbEntity
  8
M0
 62
     2
100
AcDbLine
 10
321.840019
 20
654.192159
 11
321.840019
 21
710.392159
  0
ARC
  5
134
100
AcDbEntity
  8
M0
 62
     2
100
AcDbCircle
 10
319.840019
 20
654.192159
 40
2.0
100
AcDbArc
 50
-90.000437
 51
0.0
  0
LINE
  5
135
100
AcDbEntity
  8
M0
 62
     2
100
AcDbLine
 10
319.840019
 20
652.192159
 11
313.340019
 21
652.192159
  0
LINE
  5
136
100
AcDbEntity
  8
M0
 62
     2
100
AcDbLine
 10
184.340023
 20
663.192159
 11
208.840022
 21
663.192159
  0
LINE
  5
137
100
AcDbEntity
  8
M0
 62
     2
100
AcDbLine
 10
158.840035
 20
654.192159
 11
158.840035
 21
814.192143
  0
ARC
  5
138
100
AcDbEntity
  8
M0
 62
     2
100
AcDbCircle
 10
160.840035
 20
654.192159
 40
2.0
100
AcDbArc
 50
179.999563
 51
270.0
  0
LINE
  5
139
100
AcDbEntity
  8
M0
 62
     2
100
AcDbLine
 10
160.840035
 20
652.192159
 11
167.340035
 21
652.192159
  0
LINE
  5
13A
100
AcDbEntity
  8
M0
 62
     2
100
AcDbLine
 10
271.840019
 20
663.192159
 11
296.340019
 21
663.192159
  0
LINE
  5
13B
100
AcDbEntity
  8
M0
 62
     2
100
AcDbLine
 10
212.840019
 20
805.192143
 11
217.840019
 21
805.192143
  0
LINE
  5
13C
100
AcDbEntity
  8
M0
 62
     2
100
AcDbLine
 10
221.840019
 20
805.192143
 11
258.840019
 21
805.192143
  0
LINE
  5
13D
100
AcDbEntity
  8
M0
 62
     2
100
AcDbLine
 10
262.840019
 20
805.192143
 11
267.840019
 21
805.192143
  0
LINE
  5
13E
100
AcDbEntity
  8
M0
 62
     2
100
AcDbLine
 10
271.840019
 20
805.192143
 11
296.340019
 21
805.192143
  0
ARC
  5
13F
100
AcDbEntity
  8
M0
 62
     2
100
AcDbCircle
 10
170.340035
 20
662.192159
 40
7.0
100
AcDbArc
 50
81.786915
 51
255.03109
  0
ARC
  5
140
100
AcDbEntity
  8
M0
 62
     2
100
AcDbCircle
 10
310.340019
 20
806.192143
 40
7.0
100
AcDbArc
 50
261.786789
 51
435.029774
  0
LINE
  5
141
100
AcDbEntity
  8
M0
 62
     2
100
AcDbLine
 10
226.197182
 20
811.192143
 11
221.572072
 21
811.192143
  0
ARC
  5
142
100
AcDbEntity
  8
M0
 62
     2
100
AcDbCircle
 10
310.340019
 20
662.192159
 40
7.0
100
AcDbArc
 50
284.968793
 51
458.213211
  0
ARC
  5
143
100
AcDbEntity
  8
M0
 62
     2
100
AcDbCircle
 10
170.340035
 20
806.192143
 40
7.0
100
AcDbArc
 50
104.970409
 51
279.462186
  0
LINE
  5
144
100
AcDbEntity
  8
M0
 62
     2
100
AcDbLine
 10
321.840019
 20
780.392128
 11
321.840019
 21
814.192143
  0
LINE
  5
145
100
AcDbEntity
  8
M0
 62
     2
100
AcDbLine
 10
158.790131
 20
672.192147
 11
171.340019
 21
672.192147
  0
LINE
  5
146
100
AcDbEntity
  8
M0
 62
     2
100
AcDbLine
 10
158.790247
 20
796.192147
 11
171.340019
 21
796.192147
  0
LINE
  5
147
100
AcDbEntity
  8
M0
 62
     2
100
AcDbLine
 10
309.340019
 20
796.192147
 11
321.790213
 21
796.192147
  0
LINE
  5
148
100
AcDbEntity
  8
M0
 62
     2
100
AcDbLine
 10
309.340019
 20
672.192147
 11
321.79012
 21
672.192147
  0
LINE
  5
149
100
AcDbEntity
  8
M0
 62
     2
100
AcDbLine
 10
259.107966
 20
811.192143
 11
254.482869
 21
811.192143
  0
LINE
  5
14A
100
AcDbEntity
  8
M0
 62
     2
100
AcDbLine
 10
209.107966
 20
811.192143
 11
200.040063
 21
811.192143
  0
LINE
  5
14B
100
AcDbEntity
  8
M0
 62
   234
100
AcDbLine
 10
171.340011
 20
771.892144
 11
171.340028
 21
718.892149
  0
LINE
  5
14C
100
AcDbEntity
  8
M0
 62
   234
100
AcDbLine
 10
161.340011
 20
771.892141
 11
171.340011
 21
771.892144
  0
LINE
  5
14D
100
AcDbEntity
  8
M0
 62
   234
100
AcDbLine
 10
161.340028
 20
718.892146
 11
171.340028
 21
718.892149
  0
LINE
  5
14E
100
AcDbEntity
  8
M0
 62
   234
100
AcDbLine
 10
171.340028
 20
718.892149
 11
161.340028
 21
718.892146
  0
LINE
  5
14F
100
AcDbEntity
  8
M0
 62
   234
100
AcDbLine
 10
159.340029
 20
716.392156
 11
159.34001
 21
774.392141
  0
CIRCLE
  5
150
100
AcDbEntity
  8
M0
 62
   234
100
AcDbCircle
 10
168.34001
 20
776.392143
 40
2.25
  0
LINE
  5
151
100
AcDbEntity
  8
M0
 62
   234
100
AcDbLine
 10
160.84001
 20
774.392141
 11
159.34001
 21
774.392141
  0
ARC
  5
152
100
AcDbEntity
  8
M0
 62
   234
100
AcDbCircle
 10
160.840011
 20
773.892141
 40
0.5
100
AcDbArc
 50
-0.001731
 51
90.0
  0
LINE
  5
153
100
AcDbEntity
  8
M0
 62
   234
100
AcDbLine
 10
163.840011
 20
771.892142
 11
163.84001
 21
776.392142
  0
ARC
  5
154
100
AcDbEntity
  8
M0
 62
   234
100
AcDbCircle
 10
167.84001
 20
776.392143
 40
4.0
100
AcDbArc
 50
90.0
 51
180.000018
  0
LINE
  5
155
100
AcDbEntity
  8
M0
 62
   234
100
AcDbLine
 10
171.340009
 20
780.392144
 11
167.840009
 21
780.392143
  0
LINE
  5
156
100
AcDbEntity
  8
M0
 62
   234
100
AcDbLine
 10
161.340018
 20
750.892141
 11
169.340018
 21
750.892144
  0
LINE
  5
157
100
AcDbEntity
  8
M0
 62
   234
100
AcDbLine
 10
171.340021
 20
741.642148
 11
159.340021
 21
741.642144
  0
LINE
  5
158
100
AcDbEntity
  8
M0
 62
   234
100
AcDbLine
 10
171.340018
 20
749.142148
 11
159.340018
 21
749.142144
  0
LINE
  5
159
100
AcDbEntity
  8
M0
 62
   234
100
AcDbLine
 10
161.340011
 20
773.892141
 11
161.340018
 21
750.892141
  0
LINE
  5
15A
100
AcDbEntity
  8
M0
 62
   234
100
AcDbLine
 10
169.340011
 20
771.892144
 11
169.340018
 21
750.892144
  0
LINE
  5
15B
100
AcDbEntity
  8
M0
 62
   234
100
AcDbLine
 10
169.340021
 20
739.892148
 11
169.340028
 21
718.892148
  0
LINE
  5
15C
100
AcDbEntity
  8
M0
 62
   234
100
AcDbLine
 10
163.340018
 20
749.142146
 11
163.340019
 21
748.142146
  0
LINE
  5
15D
100
AcDbEntity
  8
M0
 62
   234
100
AcDbLine
 10
160.340019
 20
748.142145
 11
163.340019
 21
748.142146
  0
LINE
  5
15E
100
AcDbEntity
  8
M0
 62
   234
100
AcDbLine
 10
160.340018
 20
749.142145
 11
160.340021
 21
741.642145
  0
LINE
  5
15F
100
AcDbEntity
  8
M0
 62
   234
100
AcDbLine
 10
160.34002
 20
742.642145
 11
163.34002
 21
742.642146
  0
LINE
  5
160
100
AcDbEntity
  8
M0
 62
   234
100
AcDbLine
 10
163.34002
 20
742.642146
 11
163.340021
 21
741.642146
  0
LINE
  5
161
100
AcDbEntity
  8
M0
 62
   234
100
AcDbLine
 10
167.840019
 20
748.142147
 11
167.84002
 21
742.642147
  0
LINE
  5
162
100
AcDbEntity
  8
M0
 62
   234
100
AcDbLine
 10
166.340018
 20
749.142147
 11
166.340021
 21
741.642147
  0
LINE
  5
163
100
AcDbEntity
  8
M0
 62
   234
100
AcDbLine
 10
166.34002
 20
742.642147
 11
171.34002
 21
742.642148
  0
LINE
  5
164
100
AcDbEntity
  8
M0
 62
   234
100
AcDbLine
 10
166.340019
 20
748.142147
 11
171.340019
 21
748.142148
  0
LINE
  5
165
100
AcDbEntity
  8
M0
 62
   234
100
AcDbLine
 10
163.840028
 20
718.892147
 11
163.840029
 21
714.392157
  0
ARC
  5
166
100
AcDbEntity
  8
M0
 62
   234
100
AcDbCircle
 10
167.840029
 20
714.392159
 40
4.0
100
AcDbArc
 50
179.999799
 51
270.0
  0
LINE
  5
167
100
AcDbEntity
  8
M0
 62
   234
100
AcDbLine
 10
171.340031
 20
710.39216
 11
167.840031
 21
710.392159
  0
ARC
  5
168
100
AcDbEntity
  8
M0
 62
   234
100
AcDbCircle
 10
160.840029
 20
716.892156
 40
0.5
100
AcDbArc
 50
270.0
 51
360.000018
  0
LINE
  5
169
100
AcDbEntity
  8
M0
 62
   234
100
AcDbLine
 10
160.840029
 20
716.392156
 11
159.340029
 21
716.392156
  0
LINE
  5
16A
100
AcDbEntity
  8
M0
 62
   234
100
AcDbLine
 10
161.340021
 20
739.892145
 11
161.340029
 21
716.892156
  0
LINE
  5
16B
100
AcDbEntity
  8
M0
 62
   234
100
AcDbLine
 10
161.340021
 20
739.892145
 11
169.340021
 21
739.892148
  0
LINE
  5
16C
100
AcDbEntity
  8
M0
  6
DIVIDE
 62
   234
100
AcDbLine
 10
149.340011
 20
771.892141
 11
159.340011
 21
771.892144
  0
LINE
  5
16D
100
AcDbEntity
  8
M0
  6
DIVIDE
 62
   234
100
AcDbLine
 10
149.340011
 20
773.892141
 11
149.340011
 21
771.892141
  0
ARC
  5
16E
100
AcDbEntity
  8
M0
  6
DIVIDE
 62
   234
100
AcDbCircle
 10
148.840011
 20
773.892141
 40
0.5
100
AcDbArc
 50
-0.001731
 51
90.0
  0
LINE
  5
16F
100
AcDbEntity
  8
M0
  6
DIVIDE
 62
   234
100
AcDbLine
 10
148.84001
 20
774.392141
 11
147.34001
 21
774.392141
  0
LINE
  5
170
100
AcDbEntity
  8
M0
  6
DIVIDE
 62
   234
100
AcDbLine
 10
147.340029
 20
716.392156
 11
147.34001
 21
774.392141
  0
LINE
  5
171
100
AcDbEntity
  8
M0
  6
DIVIDE
 62
   234
100
AcDbLine
 10
148.840029
 20
716.392156
 11
147.340029
 21
716.392156
  0
ARC
  5
172
100
AcDbEntity
  8
M0
  6
DIVIDE
 62
   234
100
AcDbCircle
 10
148.840029
 20
716.892156
 40
0.5
100
AcDbArc
 50
270.0
 51
360.000018
  0
LINE
  5
173
100
AcDbEntity
  8
M0
  6
DIVIDE
 62
   234
100
AcDbLine
 10
149.340028
 20
718.892146
 11
149.340029
 21
716.892156
  0
LINE
  5
174
100
AcDbEntity
  8
M0
  6
DIVIDE
 62
   234
100
AcDbLine
 10
159.340028
 20
718.892149
 11
149.340028
 21
718.892146
  0
LINE
  5
175
100
AcDbEntity
  8
M0
100
AcDbLine
 10
225.340019
 20
624.191904
 11
255.340019
 21
624.191904
  0
LINE
  5
176
100
AcDbEntity
  8
M0
100
AcDbLine
 10
227.340019
 20
663.191975
 11
227.340019
 21
661.191899
  0
LINE
  5
177
100
AcDbEntity
  8
M0
100
AcDbLine
 10
253.340019
 20
661.191899
 11
253.340019
 21
663.191975
  0
LINE
  5
178
100
AcDbEntity
  8
M0
100
AcDbLine
 10
225.340019
 20
654.191899
 11
227.340019
 21
661.191899
  0
LINE
  5
179
100
AcDbEntity
  8
M0
100
AcDbLine
 10
225.340019
 20
624.191904
 11
225.340019
 21
654.191899
  0
LINE
  5
17A
100
AcDbEntity
  8
M0
100
AcDbLine
 10
255.340019
 20
624.191904
 11
255.340019
 21
654.191899
  0
LINE
  5
17B
100
AcDbEntity
  8
M0
100
AcDbLine
 10
253.340019
 20
661.191899
 11
255.340019
 21
654.191899
  0
CIRCLE
  5
17C
100
AcDbEntity
  8
M0
100
AcDbCircle
 10
240.340019
 20
639.191903
 40
6.0
  0
LINE
  5
17D
100
AcDbEntity
  8
M0
  6
DASHDOT
100
AcDbLine
 10
220.673353
 20
639.191903
 11
260.006686
 21
639.191903
  0
LINE
  5
17E
100
AcDbEntity
  8
M0
100
AcDbLine
 10
283.340019
 20
624.191904
 11
300.340019
 21
624.191904
  0
LINE
  5
17F
100
AcDbEntity
  8
M0
100
AcDbLine
 10
313.340019
 20
624.191904
 11
313.340019
 21
654.191899
  0
LINE
  5
180
100
AcDbEntity
  8
M0
100
AcDbLine
 10
283.340019
 20
654.191899
 11
283.340019
 21
624.191904
  0
LINE
  5
181
100
AcDbEntity
  8
M0
100
AcDbLine
 10
283.340019
 20
624.191904
 11
313.340019
 21
624.191904
  0
LINE
  5
182
100
AcDbEntity
  8
M0
100
AcDbLine
 10
283.340019
 20
654.191899
 11
275.239937
 21
663.191975
  0
LINE
  5
183
100
AcDbEntity
  8
M0
100
AcDbLine
 10
313.340019
 20
654.191899
 11
304.673271
 21
663.191975
  0
CIRCLE
  5
184
100
AcDbEntity
  8
M0
100
AcDbCircle
 10
298.340019
 20
639.191903
 40
6.0
  0
LINE
  5
185
100
AcDbEntity
  8
M0
  6
DASHDOT
100
AcDbLine
 10
278.673353
 20
639.191903
 11
318.006686
 21
639.191903
  0
LINE
  5
186
100
AcDbEntity
  8
M0
  6
DASHDOT
100
AcDbLine
 10
298.340019
 20
619.525237
 11
298.340019
 21
658.858569
  0
LINE
  5
187
100
AcDbEntity
  8
M0
 62
     6
100
AcDbLine
 10
298.340019
 20
628.241856
 11
288.857109
 21
633.716862
  0
LINE
  5
188
100
AcDbEntity
  8
M0
 62
     6
100
AcDbLine
 10
288.857109
 20
633.716862
 11
288.857109
 21
644.666844
  0
LINE
  5
189
100
AcDbEntity
  8
M0
 62
     6
100
AcDbLine
 10
288.857109
 20
644.666844
 11
298.340019
 21
650.14185
  0
LINE
  5
18A
100
AcDbEntity
  8
M0
 62
     6
100
AcDbLine
 10
298.340019
 20
650.14185
 11
307.823174
 21
644.666844
  0
LINE
  5
18B
100
AcDbEntity
  8
M0
 62
     6
100
AcDbLine
 10
307.823174
 20
644.666844
 11
307.823174
 21
633.716832
  0
LINE
  5
18C
100
AcDbEntity
  8
M0
 62
     6
100
AcDbLine
 10
307.823174
 20
633.716832
 11
298.340019
 21
628.241856
  0
CIRCLE
  5
18D
100
AcDbEntity
  8
M0
 62
     6
100
AcDbCircle
 10
298.340019
 20
639.191838
 40
6.0
  0
LINE
  5
18E
100
AcDbEntity
  8
M0
 62
     6
100
AcDbLine
 10
240.340019
 20
628.241856
 11
230.857109
 21
633.716862
  0
LINE
  5
18F
100
AcDbEntity
  8
M0
 62
     6
100
AcDbLine
 10
230.857109
 20
633.716862
 11
230.857109
 21
644.666844
  0
LINE
  5
190
100
AcDbEntity
  8
M0
 62
     6
100
AcDbLine
 10
230.857109
 20
644.666844
 11
240.340019
 21
650.14185
  0
LINE
  5
191
100
AcDbEntity
  8
M0
 62
     6
100
AcDbLine
 10
240.340019
 20
650.14185
 11
249.823174
 21
644.666844
  0
LINE
  5
192
100
AcDbEntity
  8
M0
 62
     6
100
AcDbLine
 10
249.823174
 20
644.666844
 11
249.823174
 21
633.716832
  0
LINE
  5
193
100
AcDbEntity
  8
M0
 62
     6
100
AcDbLine
 10
249.823174
 20
633.716832
 11
240.340019
 21
628.241856
  0
CIRCLE
  5
194
100
AcDbEntity
  8
M0
 62
     6
100
AcDbCircle
 10
240.340019
 20
639.191838
 40
6.0
  0
LINE
  5
195
100
AcDbEntity
  8
M0
100
AcDbLine
 10
197.340019
 20
624.191904
 11
180.340019
 21
624.191904
  0
LINE
  5
196
100
AcDbEntity
  8
M0
100
AcDbLine
 10
167.340019
 20
624.191904
 11
167.340019
 21
654.191899
  0
LINE
  5
197
100
AcDbEntity
  8
M0
100
AcDbLine
 10
197.340019
 20
654.191899
 11
197.340019
 21
624.191904
  0
LINE
  5
198
100
AcDbEntity
  8
M0
100
AcDbLine
 10
197.340019
 20
624.191904
 11
167.340019
 21
624.191904
  0
LINE
  5
199
100
AcDbEntity
  8
M0
100
AcDbLine
 10
197.340019
 20
654.191899
 11
205.440087
 21
663.191975
  0
LINE
  5
19A
100
AcDbEntity
  8
M0
100
AcDbLine
 10
167.340019
 20
654.191899
 11
176.006752
 21
663.191975
  0
CIRCLE
  5
19B
100
AcDbEntity
  8
M0
100
AcDbCircle
 10
182.340019
 20
639.191903
 40
6.0
  0
LINE
  5
19C
100
AcDbEntity
  8
M0
  6
DASHDOT
100
AcDbLine
 10
162.673353
 20
639.191903
 11
202.006686
 21
639.191903
  0
LINE
  5
19D
100
AcDbEntity
  8
M0
  6
DASHDOT
100
AcDbLine
 10
182.340019
 20
619.525237
 11
182.340019
 21
658.858569
  0
LINE
  5
19E
100
AcDbEntity
  8
M0
 62
     6
100
AcDbLine
 10
182.340019
 20
628.241856
 11
191.82293
 21
633.716862
  0
LINE
  5
19F
100
AcDbEntity
  8
M0
 62
     6
100
AcDbLine
 10
191.82293
 20
633.716862
 11
191.82293
 21
644.666844
  0
LINE
  5
1A0
100
AcDbEntity
  8
M0
 62
     6
100
AcDbLine
 10
191.82293
 20
644.666844
 11
182.340019
 21
650.14185
  0
LINE
  5
1A1
100
AcDbEntity
  8
M0
 62
     6
100
AcDbLine
 10
182.340019
 20
650.14185
 11
172.856865
 21
644.666844
  0
LINE
  5
1A2
100
AcDbEntity
  8
M0
 62
     6
100
AcDbLine
 10
172.856865
 20
644.666844
 11
172.856865
 21
633.716832
  0
LINE
  5
1A3
100
AcDbEntity
  8
M0
 62
     6
100
AcDbLine
 10
172.856865
 20
633.716832
 11
182.340019
 21
628.241856
  0
CIRCLE
  5
1A4
100
AcDbEntity
  8
M0
 62
     6
100
AcDbCircle
 10
182.340019
 20
639.191838
 40
6.0
  0
LINE
  5
1A5
100
AcDbEntity
  8
M0
100
AcDbLine
 10
197.340003
 20
844.192182
 11
180.340003
 21
844.192171
  0
LINE
  5
1A6
100
AcDbEntity
  8
M0
100
AcDbLine
 10
167.340003
 20
844.192163
 11
167.340022
 21
814.192168
  0
LINE
  5
1A7
100
AcDbEntity
  8
M0
100
AcDbLine
 10
197.340022
 20
814.192187
 11
197.340003
 21
844.192182
  0
LINE
  5
1A8
100
AcDbEntity
  8
M0
100
AcDbLine
 10
197.340003
 20
844.192182
 11
167.340003
 21
844.192163
  0
LINE
  5
1A9
100
AcDbEntity
  8
M0
100
AcDbLine
 10
197.340022
 20
814.192187
 11
205.440095
 21
805.192112
  0
LINE
  5
1AA
100
AcDbEntity
  8
M0
100
AcDbLine
 10
167.340022
 20
814.192168
 11
176.006761
 21
805.192093
  0
CIRCLE
  5
1AB
100
AcDbEntity
  8
M0
100
AcDbCircle
 10
182.340013
 20
829.192176
 40
6.0
  0
LINE
  5
1AC
100
AcDbEntity
  8
M0
  6
DASHDOT
100
AcDbLine
 10
162.673346
 20
829.192176
 11
202.006679
 21
829.192176
  0
LINE
  5
1AD
100
AcDbEntity
  8
M0
  6
DASHDOT
100
AcDbLine
 10
182.340013
 20
809.52551
 11
182.340013
 21
848.858843
  0
LINE
  5
1AE
100
AcDbEntity
  8
M0
100
AcDbLine
 10
225.340003
 20
844.192163
 11
255.340003
 21
844.192182
  0
LINE
  5
1AF
100
AcDbEntity
  8
M0
100
AcDbLine
 10
227.340028
 20
805.192089
 11
227.340026
 21
807.192169
  0
LINE
  5
1B0
100
AcDbEntity
  8
M0
100
AcDbLine
 10
253.340026
 20
807.192185
 11
253.340028
 21
805.192105
  0
LINE
  5
1B1
100
AcDbEntity
  8
M0
100
AcDbLine
 10
225.340022
 20
814.192168
 11
227.340026
 21
807.192169
  0
LINE
  5
1B2
100
AcDbEntity
  8
M0
100
AcDbLine
 10
225.340003
 20
844.192163
 11
225.340022
 21
814.192168
  0
LINE
  5
1B3
100
AcDbEntity
  8
M0
100
AcDbLine
 10
255.340003
 20
844.192182
 11
255.340022
 21
814.192187
  0
LINE
  5
1B4
100
AcDbEntity
  8
M0
100
AcDbLine
 10
253.340026
 20
807.192185
 11
255.340022
 21
814.192187
  0
CIRCLE
  5
1B5
100
AcDbEntity
  8
M0
100
AcDbCircle
 10
240.340013
 20
829.192176
 40
6.0
  0
LINE
  5
1B6
100
AcDbEntity
  8
M0
  6
DASHDOT
100
AcDbLine
 10
240.340019
 20
597.280263
 11
240.340019
 21
876.040211
  0
LINE
  5
1B7
100
AcDbEntity
  8
M0
  6
DASHDOT
100
AcDbLine
 10
220.67341
 20
829.192249
 11
260.006743
 21
829.192249
  0
LINE
  5
1B8
100
AcDbEntity
  8
M0
  6
DASHDOT
100
AcDbLine
 10
240.340076
 20
809.525582
 11
240.340076
 21
848.858915
  0
LINE
  5
1B9
100
AcDbEntity
  8
M0
100
AcDbLine
 10
283.340003
 20
844.192163
 11
300.340003
 21
844.192174
  0
LINE
  5
1BA
100
AcDbEntity
  8
M0
100
AcDbLine
 10
313.340003
 20
844.192182
 11
313.340022
 21
814.192187
  0
LINE
  5
1BB
100
AcDbEntity
  8
M0
100
AcDbLine
 10
283.340022
 20
814.192168
 11
283.340003
 21
844.192163
  0
LINE
  5
1BC
100
AcDbEntity
  8
M0
100
AcDbLine
 10
283.340003
 20
844.192163
 11
313.340003
 21
844.192182
  0
LINE
  5
1BD
100
AcDbEntity
  8
M0
100
AcDbLine
 10
283.340022
 20
814.192168
 11
275.239945
 21
805.192083
  0
LINE
  5
1BE
100
AcDbEntity
  8
M0
100
AcDbLine
 10
313.340022
 20
814.192187
 11
304.67328
 21
805.192101
  0
CIRCLE
  5
1BF
100
AcDbEntity
  8
M0
100
AcDbCircle
 10
298.340013
 20
829.192176
 40
6.0
  0
LINE
  5
1C0
100
AcDbEntity
  8
M0
  6
DASHDOT
100
AcDbLine
 10
278.673346
 20
829.192176
 11
318.006679
 21
829.192176
  0
LINE
  5
1C1
100
AcDbEntity
  8
M0
 62
     6
100
AcDbLine
 10
298.34007
 20
840.14223
 11
288.857163
 21
834.667218
  0
LINE
  5
1C2
100
AcDbEntity
  8
M0
 62
     6
100
AcDbLine
 10
288.857163
 20
834.667218
 11
288.85717
 21
823.717237
  0
LINE
  5
1C3
100
AcDbEntity
  8
M0
 62
     6
100
AcDbLine
 10
288.85717
 20
823.717237
 11
298.340083
 21
818.242237
  0
LINE
  5
1C4
100
AcDbEntity
  8
M0
 62
     6
100
AcDbLine
 10
298.340083
 20
818.242237
 11
307.823234
 21
823.717249
  0
LINE
  5
1C5
100
AcDbEntity
  8
M0
 62
     6
100
AcDbLine
 10
307.823234
 20
823.717249
 11
307.823227
 21
834.667261
  0
LINE
  5
1C6
100
AcDbEntity
  8
M0
 62
     6
100
AcDbLine
 10
307.823227
 20
834.667261
 11
298.34007
 21
840.14223
  0
CIRCLE
  5
1C7
100
AcDbEntity
  8
M0
 62
     6
100
AcDbCircle
 10
298.340076
 20
829.192249
 40
6.0
  0
LINE
  5
1C8
100
AcDbEntity
  8
M0
 62
     6
100
AcDbLine
 10
240.34007
 20
840.14223
 11
230.857163
 21
834.667218
  0
LINE
  5
1C9
100
AcDbEntity
  8
M0
 62
     6
100
AcDbLine
 10
230.857163
 20
834.667218
 11
230.85717
 21
823.717237
  0
LINE
  5
1CA
100
AcDbEntity
  8
M0
 62
     6
100
AcDbLine
 10
230.85717
 20
823.717237
 11
240.340083
 21
818.242237
  0
LINE
  5
1CB
100
AcDbEntity
  8
M0
 62
     6
100
AcDbLine
 10
240.340083
 20
818.242237
 11
249.823234
 21
823.717249
  0
LINE
  5
1CC
100
AcDbEntity
  8
M0
 62
     6
100
AcDbLine
 10
249.823234
 20
823.717249
 11
249.823227
 21
834.667261
  0
LINE
  5
1CD
100
AcDbEntity
  8
M0
 62
     6
100
AcDbLine
 10
249.823227
 20
834.667261
 11
240.34007
 21
840.14223
  0
CIRCLE
  5
1CE
100
AcDbEntity
  8
M0
 62
     6
100
AcDbCircle
 10
240.340076
 20
829.192249
 40
6.0
  0
LINE
  5
1CF
100
AcDbEntity
  8
M0
 62
     6
100
AcDbLine
 10
182.34007
 20
840.14223
 11
191.822983
 21
834.66723
  0
LINE
  5
1D0
100
AcDbEntity
  8
M0
 62
     6
100
AcDbLine
 10
191.822983
 20
834.66723
 11
191.82299
 21
823.717249
  0
LINE
  5
1D1
100
AcDbEntity
  8
M0
 62
     6
100
AcDbLine
 10
191.82299
 20
823.717249
 11
182.340083
 21
818.242237
  0
LINE
  5
1D2
100
AcDbEntity
  8
M0
 62
     6
100
AcDbLine
 10
182.340083
 20
818.242237
 11
172.856926
 21
823.717237
  0
LINE
  5
1D3
100
AcDbEntity
  8
M0
 62
     6
100
AcDbLine
 10
172.856926
 20
823.717237
 11
172.856919
 21
834.667249
  0
LINE
  5
1D4
100
AcDbEntity
  8
M0
 62
     6
100
AcDbLine
 10
172.856919
 20
834.667249
 11
182.34007
 21
840.14223
  0
CIRCLE
  5
1D5
100
AcDbEntity
  8
M0
 62
     6
100
AcDbCircle
 10
182.340076
 20
829.192249
 40
6.0
  0
LINE
  5
1D6
100
AcDbEntity
  8
M0
100
AcDbLine
 10
566.427196
 20
844.19222
 11
572.427196
 21
844.19222
  0
LINE
  5
1D7
100
AcDbEntity
  8
M0
100
AcDbLine
 10
566.427196
 20
844.19222
 11
566.427196
 21
805.191917
  0
LINE
  5
1D8
100
AcDbEntity
  8
M0
100
AcDbLine
 10
572.427196
 20
805.191917
 11
572.427196
 21
844.19222
  0
LINE
  5
1D9
100
AcDbEntity
  8
M0
100
AcDbLine
 10
687.427223
 20
614.191917
 11
687.427298
 21
854.191917
  0
LINE
  5
1DA
100
AcDbEntity
  8
M0
 62
     4
100
AcDbLine
 10
536.427288
 20
835.191899
 11
551.127202
 21
835.191899
  0
LINE
  5
1DB
100
AcDbEntity
  8
M0
 62
     4
100
AcDbLine
 10
580.427288
 20
823.191899
 11
572.427288
 21
823.191899
  0
LINE
  5
1DC
100
AcDbEntity
  8
M0
  6
DASHDOT
 62
     4
100
AcDbLine
 10
585.427288
 20
829.191899
 11
532.043437
 21
829.191899
  0
LINE
  5
1DD
100
AcDbEntity
  8
M0
 62
     4
100
AcDbLine
 10
572.427288
 20
818.228886
 11
572.427288
 21
840.154897
  0
LINE
  5
1DE
100
AcDbEntity
  8
M0
 62
     4
100
AcDbLine
 10
572.427288
 20
840.154897
 11
580.427288
 21
840.154897
  0
LINE
  5
1DF
100
AcDbEntity
  8
M0
 62
     4
100
AcDbLine
 10
580.427288
 20
840.154897
 11
580.427288
 21
818.228886
  0
LINE
  5
1E0
100
AcDbEntity
  8
M0
 62
     4
100
AcDbLine
 10
580.427288
 20
818.228886
 11
572.427288
 21
818.228886
  0
LINE
  5
1E1
100
AcDbEntity
  8
M0
 62
     4
100
AcDbLine
 10
536.427288
 20
835.191899
 11
536.427288
 21
823.191899
  0
LINE
  5
1E2
100
AcDbEntity
  8
M0
 62
     4
100
AcDbLine
 10
551.12721
 20
823.191899
 11
536.427288
 21
823.191899
  0
LINE
  5
1E3
100
AcDbEntity
  8
M0
 62
     4
100
AcDbLine
 10
572.427288
 20
835.191899
 11
580.427288
 21
835.191899
  0
LINE
  5
1E4
100
AcDbEntity
  8
M0
 62
     6
100
AcDbLine
 10
551.126955
 20
840.141939
 11
561.126955
 21
840.141945
  0
LINE
  5
1E5
100
AcDbEntity
  8
M0
 62
     6
100
AcDbLine
 10
561.127199
 20
840.14193
 11
561.127213
 21
818.241936
  0
LINE
  5
1E6
100
AcDbEntity
  8
M0
 62
     6
100
AcDbLine
 10
551.127213
 20
818.241975
 11
551.127199
 21
840.141954
  0
LINE
  5
1E7
100
AcDbEntity
  8
M0
 62
     6
100
AcDbLine
 10
561.126959
 20
834.666969
 11
551.126959
 21
834.666963
  0
LINE
  5
1E8
100
AcDbEntity
  8
M0
 62
     6
100
AcDbLine
 10
551.126725
 20
818.241945
 11
561.126969
 21
818.241951
  0
LINE
  5
1E9
100
AcDbEntity
  8
M0
 62
     6
100
AcDbLine
 10
561.126965
 20
823.716957
 11
551.126721
 21
823.716951
  0
LINE
  5
1EA
100
AcDbEntity
  8
M0
 62
     6
100
AcDbLine
 10
564.127244
 20
842.191947
 11
566.427247
 21
842.191948
  0
LINE
  5
1EB
100
AcDbEntity
  8
M0
 62
     6
100
AcDbLine
 10
566.427247
 20
842.191948
 11
566.427263
 21
816.191948
  0
LINE
  5
1EC
100
AcDbEntity
  8
M0
 62
     6
100
AcDbLine
 10
566.427263
 20
816.191948
 11
564.12726
 21
816.191947
  0
LINE
  5
1ED
100
AcDbEntity
  8
M0
 62
     6
100
AcDbLine
 10
564.12726
 20
816.191947
 11
564.127244
 21
842.191947
  0
LINE
  5
1EE
100
AcDbEntity
  8
M0
 62
     6
100
AcDbLine
 10
551.126995
 20
628.242739
 11
561.126995
 21
628.242739
  0
LINE
  5
1EF
100
AcDbEntity
  8
M0
 62
     6
100
AcDbLine
 10
561.127239
 20
628.242754
 11
561.127239
 21
650.142748
  0
LINE
  5
1F0
100
AcDbEntity
  8
M0
 62
     6
100
AcDbLine
 10
551.127239
 20
650.142703
 11
551.127239
 21
628.242724
  0
LINE
  5
1F1
100
AcDbEntity
  8
M0
 62
     6
100
AcDbLine
 10
561.126995
 20
633.717715
 11
551.126995
 21
633.717715
  0
LINE
  5
1F2
100
AcDbEntity
  8
M0
 62
     6
100
AcDbLine
 10
551.12675
 20
650.142733
 11
561.126995
 21
650.142733
  0
LINE
  5
1F3
100
AcDbEntity
  8
M0
 62
     6
100
AcDbLine
 10
561.126995
 20
644.667727
 11
551.12675
 21
644.667727
  0
LINE
  5
1F4
100
AcDbEntity
  8
M0
100
AcDbLine
 10
566.427334
 20
624.192847
 11
572.427334
 21
624.192851
  0
LINE
  5
1F5
100
AcDbEntity
  8
M0
100
AcDbLine
 10
566.427334
 20
624.192847
 11
566.42731
 21
663.191917
  0
LINE
  5
1F6
100
AcDbEntity
  8
M0
100
AcDbLine
 10
572.42731
 20
663.191917
 11
572.427334
 21
624.192851
  0
LINE
  5
1F7
100
AcDbEntity
  8
M0
 62
     4
100
AcDbLine
 10
536.427386
 20
633.192772
 11
551.127239
 21
633.192773
  0
LINE
  5
1F8
100
AcDbEntity
  8
M0
 62
     4
100
AcDbLine
 10
580.427379
 20
645.19279
 11
572.427379
 21
645.192785
  0
LINE
  5
1F9
100
AcDbEntity
  8
M0
  6
DASHDOT
 62
     4
100
AcDbLine
 10
585.427382
 20
639.192793
 11
532.043532
 21
639.19277
  0
LINE
  5
1FA
100
AcDbEntity
  8
M0
 62
     4
100
AcDbLine
 10
572.427375
 20
650.155798
 11
572.427389
 21
628.229788
  0
LINE
  5
1FB
100
AcDbEntity
  8
M0
 62
     4
100
AcDbLine
 10
572.427389
 20
628.229788
 11
580.427389
 21
628.229793
  0
LINE
  5
1FC
100
AcDbEntity
  8
M0
 62
     4
100
AcDbLine
 10
580.427389
 20
628.229793
 11
580.427375
 21
650.155803
  0
LINE
  5
1FD
100
AcDbEntity
  8
M0
 62
     4
100
AcDbLine
 10
580.427375
 20
650.155803
 11
572.427375
 21
650.155798
  0
LINE
  5
1FE
100
AcDbEntity
  8
M0
 62
     4
100
AcDbLine
 10
536.427386
 20
633.192772
 11
536.427379
 21
645.192772
  0
LINE
  5
1FF
100
AcDbEntity
  8
M0
 62
     4
100
AcDbLine
 10
551.127239
 20
645.192773
 11
536.427379
 21
645.192772
  0
LINE
  5
200
100
AcDbEntity
  8
M0
 62
     4
100
AcDbLine
 10
572.427386
 20
633.192785
 11
580.427386
 21
633.19279
  0
LINE
  5
201
100
AcDbEntity
  8
M0
 62
    74
100
AcDbLine
 10
335.340043
 20
788.192148
 11
335.340038
 21
773.192148
  0
LINE
  5
202
100
AcDbEntity
  8
M0
 62
    74
100
AcDbLine
 10
344.340043
 20
788.192146
 11
344.340038
 21
773.192146
  0
LINE
  5
203
100
AcDbEntity
  8
M0
 62
    74
100
AcDbLine
 10
335.840038
 20
773.192148
 11
335.840031
 21
751.692148
  0
LINE
  5
204
100
AcDbEntity
  8
M0
 62
    74
100
AcDbLine
 10
343.840038
 20
773.192146
 11
343.840031
 21
751.692146
  0
LINE
  5
205
100
AcDbEntity
  8
M0
 62
    74
100
AcDbLine
 10
333.840043
 20
788.192149
 11
345.840043
 21
788.192145
  0
LINE
  5
206
100
AcDbEntity
  8
M0
 62
    74
100
AcDbLine
 10
333.84004
 20
778.192149
 11
335.34004
 21
778.192148
  0
LINE
  5
207
100
AcDbEntity
  8
M0
 62
    74
100
AcDbLine
 10
344.34004
 20
778.192146
 11
345.84004
 21
778.192145
  0
LINE
  5
208
100
AcDbEntity
  8
M0
 62
    74
100
AcDbLine
 10
335.340038
 20
773.192148
 11
335.840038
 21
773.192148
  0
LINE
  5
209
100
AcDbEntity
  8
M0
 62
    74
100
AcDbLine
 10
343.840038
 20
773.192146
 11
344.340038
 21
773.192146
  0
LINE
  5
20A
100
AcDbEntity
  8
M0
 62
    74
100
AcDbLine
 10
345.840032
 20
754.192145
 11
345.840043
 21
788.192145
  0
LINE
  5
20B
100
AcDbEntity
  8
M0
 62
    74
100
AcDbLine
 10
345.840032
 20
754.192145
 11
345.640035
 21
754.192145
  0
LINE
  5
20C
100
AcDbEntity
  8
M0
 62
    74
100
AcDbLine
 10
333.840031
 20
751.692149
 11
345.640034
 21
751.692145
  0
LINE
  5
20D
100
AcDbEntity
  8
M0
 62
    74
100
AcDbLine
 10
344.640032
 20
745.192146
 11
344.640033
 21
748.192146
  0
LINE
  5
20E
100
AcDbEntity
  8
M0
 62
    74
100
AcDbLine
 10
345.640033
 20
748.192145
 11
344.640033
 21
748.192146
  0
LINE
  5
20F
100
AcDbEntity
  8
M0
 62
    74
100
AcDbLine
 10
345.640033
 20
746.942145
 11
344.640033
 21
746.942146
  0
LINE
  5
210
100
AcDbEntity
  8
M0
 62
    74
100
AcDbLine
 10
345.640035
 20
754.192145
 11
345.640033
 21
746.942145
  0
LINE
  5
211
100
AcDbEntity
  8
M0
 62
    74
100
AcDbLine
 10
333.840029
 20
745.192149
 11
333.840043
 21
788.192149
  0
LINE
  5
212
100
AcDbEntity
  8
M0
 62
    74
100
AcDbLine
 10
335.34004
 20
781.192148
 11
344.34004
 21
781.192146
  0
LINE
  5
213
100
AcDbEntity
  8
M0
 62
    74
100
AcDbLine
 10
335.840033
 20
756.192148
 11
343.840033
 21
756.192146
  0
LINE
  5
214
100
AcDbEntity
  8
M0
 62
    74
100
AcDbLine
 10
335.340016
 20
702.192148
 11
335.34002
 21
717.192148
  0
LINE
  5
215
100
AcDbEntity
  8
M0
 62
    74
100
AcDbLine
 10
344.340016
 20
702.192146
 11
344.34002
 21
717.192146
  0
LINE
  5
216
100
AcDbEntity
  8
M0
 62
    74
100
AcDbLine
 10
335.84002
 20
717.192148
 11
335.840027
 21
738.692148
  0
LINE
  5
217
100
AcDbEntity
  8
M0
 62
    74
100
AcDbLine
 10
343.84002
 20
717.192146
 11
343.840027
 21
738.692146
  0
LINE
  5
218
100
AcDbEntity
  8
M0
 62
    74
100
AcDbLine
 10
333.840016
 20
702.192149
 11
345.840016
 21
702.192145
  0
LINE
  5
219
100
AcDbEntity
  8
M0
 62
    74
100
AcDbLine
 10
333.840019
 20
712.192149
 11
335.340019
 21
712.192148
  0
LINE
  5
21A
100
AcDbEntity
  8
M0
 62
    74
100
AcDbLine
 10
344.340019
 20
712.192146
 11
345.840019
 21
712.192145
  0
LINE
  5
21B
100
AcDbEntity
  8
M0
 62
    74
100
AcDbLine
 10
335.34002
 20
717.192148
 11
335.84002
 21
717.192148
  0
LINE
  5
21C
100
AcDbEntity
  8
M0
 62
    74
100
AcDbLine
 10
343.84002
 20
717.192146
 11
344.34002
 21
717.192146
  0
LINE
  5
21D
100
AcDbEntity
  8
M0
 62
    74
100
AcDbLine
 10
345.840026
 20
736.192145
 11
345.840016
 21
702.192145
  0
LINE
  5
21E
100
AcDbEntity
  8
M0
 62
    74
100
AcDbLine
 10
345.840026
 20
736.192145
 11
345.640029
 21
736.192145
  0
LINE
  5
21F
100
AcDbEntity
  8
M0
 62
    74
100
AcDbLine
 10
333.840027
 20
738.692149
 11
345.64003
 21
738.692145
  0
LINE
  5
220
100
AcDbEntity
  8
M0
 62
    74
100
AcDbLine
 10
344.640032
 20
745.192146
 11
344.640031
 21
742.192146
  0
LINE
  5
221
100
AcDbEntity
  8
M0
 62
    74
100
AcDbLine
 10
345.640031
 20
742.192145
 11
344.640031
 21
742.192146
  0
LINE
  5
222
100
AcDbEntity
  8
M0
 62
    74
100
AcDbLine
 10
345.640032
 20
743.442145
 11
344.640032
 21
743.442146
  0
LINE
  5
223
100
AcDbEntity
  8
M0
 62
    74
100
AcDbLine
 10
345.640029
 20
736.192145
 11
345.640032
 21
743.442145
  0
LINE
  5
224
100
AcDbEntity
  8
M0
 62
    74
100
AcDbLine
 10
333.840029
 20
745.192149
 11
333.840016
 21
702.192149
  0
LINE
  5
225
100
AcDbEntity
  8
M0
 62
    74
100
AcDbLine
 10
335.340018
 20
709.192148
 11
344.340018
 21
709.192146
  0
LINE
  5
226
100
AcDbEntity
  8
M0
 62
    74
100
AcDbLine
 10
335.840026
 20
734.192148
 11
343.840026
 21
734.192146
  0
LINE
  5
227
100
AcDbEntity
  8
M0
 62
    74
100
AcDbLine
 10
335.840021
 20
719.692148
 11
343.840021
 21
719.692146
  0
LINE
  5
228
100
AcDbEntity
  8
M0
 62
    74
100
AcDbLine
 10
335.840037
 20
770.692148
 11
343.840037
 21
770.692146
  0
LINE
  5
229
100
AcDbEntity
  8
M0
 62
   234
100
AcDbLine
 10
321.340028
 20
771.892144
 11
321.340012
 21
718.892149
  0
LINE
  5
22A
100
AcDbEntity
  8
M0
 62
   234
100
AcDbLine
 10
331.340028
 20
771.892141
 11
321.340028
 21
771.892144
  0
LINE
  5
22B
100
AcDbEntity
  8
M0
 62
   234
100
AcDbLine
 10
331.340012
 20
718.892146
 11
321.340012
 21
718.892149
  0
LINE
  5
22C
100
AcDbEntity
  8
M0
 62
   234
100
AcDbLine
 10
321.340012
 20
718.892149
 11
331.340012
 21
718.892146
  0
LINE
  5
22D
100
AcDbEntity
  8
M0
 62
   234
100
AcDbLine
 10
333.340011
 20
716.392156
 11
333.340029
 21
774.392141
  0
CIRCLE
  5
22E
100
AcDbEntity
  8
M0
 62
   234
100
AcDbCircle
 10
324.34003
 20
776.392143
 40
2.25
  0
LINE
  5
22F
100
AcDbEntity
  8
M0
 62
   234
100
AcDbLine
 10
331.840029
 20
774.392141
 11
333.340029
 21
774.392141
  0
ARC
  5
230
100
AcDbEntity
  8
M0
 62
   234
100
AcDbCircle
 10
331.840029
 20
773.892141
 40
0.5
100
AcDbArc
 50
90.0
 51
179.999982
  0
LINE
  5
231
100
AcDbEntity
  8
M0
 62
   234
100
AcDbLine
 10
328.840028
 20
771.892142
 11
328.84003
 21
776.392142
  0
ARC
  5
232
100
AcDbEntity
  8
M0
 62
   234
100
AcDbCircle
 10
324.84003
 20
776.392143
 40
4.0
100
AcDbArc
 50
359.999763
 51
450.0
  0
LINE
  5
233
100
AcDbEntity
  8
M0
 62
   234
100
AcDbLine
 10
316.840031
 20
780.392146
 11
324.840031
 21
780.392143
  0
LINE
  5
234
100
AcDbEntity
  8
M0
 62
   234
100
AcDbLine
 10
331.340022
 20
750.892141
 11
323.340022
 21
750.892144
  0
LINE
  5
235
100
AcDbEntity
  8
M0
 62
   234
100
AcDbLine
 10
321.340019
 20
741.642148
 11
333.340019
 21
741.642144
  0
LINE
  5
236
100
AcDbEntity
  8
M0
 62
   234
100
AcDbLine
 10
321.340021
 20
749.142148
 11
333.340021
 21
749.142144
  0
LINE
  5
237
100
AcDbEntity
  8
M0
 62
   234
100
AcDbLine
 10
331.340029
 20
773.892141
 11
331.340022
 21
750.892141
  0
LINE
  5
238
100
AcDbEntity
  8
M0
 62
   234
100
AcDbLine
 10
323.340028
 20
771.892144
 11
323.340022
 21
750.892144
  0
LINE
  5
239
100
AcDbEntity
  8
M0
 62
   234
100
AcDbLine
 10
323.340018
 20
739.892148
 11
323.340012
 21
718.892148
  0
LINE
  5
23A
100
AcDbEntity
  8
M0
 62
   234
100
AcDbLine
 10
329.340021
 20
749.142146
 11
329.340021
 21
748.142146
  0
LINE
  5
23B
100
AcDbEntity
  8
M0
 62
   234
100
AcDbLine
 10
332.340021
 20
748.142145
 11
329.340021
 21
748.142146
  0
LINE
  5
23C
100
AcDbEntity
  8
M0
 62
   234
100
AcDbLine
 10
332.340021
 20
749.142145
 11
332.340019
 21
741.642145
  0
LINE
  5
23D
100
AcDbEntity
  8
M0
 62
   234
100
AcDbLine
 10
332.340019
 20
742.642145
 11
329.340019
 21
742.642146
  0
LINE
  5
23E
100
AcDbEntity
  8
M0
 62
   234
100
AcDbLine
 10
329.340019
 20
742.642146
 11
329.340019
 21
741.642146
  0
LINE
  5
23F
100
AcDbEntity
  8
M0
 62
   234
100
AcDbLine
 10
324.840021
 20
748.142147
 11
324.840019
 21
742.642147
  0
LINE
  5
240
100
AcDbEntity
  8
M0
 62
   234
100
AcDbLine
 10
326.340021
 20
749.142147
 11
326.340019
 21
741.642147
  0
LINE
  5
241
100
AcDbEntity
  8
M0
 62
   234
100
AcDbLine
 10
326.340019
 20
742.642147
 11
321.340019
 21
742.642148
  0
LINE
  5
242
100
AcDbEntity
  8
M0
 62
   234
100
AcDbLine
 10
326.340021
 20
748.142147
 11
321.340021
 21
748.142148
  0
LINE
  5
243
100
AcDbEntity
  8
M0
 62
   234
100
AcDbLine
 10
328.840012
 20
718.892147
 11
328.84001
 21
714.392157
  0
ARC
  5
244
100
AcDbEntity
  8
M0
 62
   234
100
AcDbCircle
 10
324.84001
 20
714.392159
 40
4.0
100
AcDbArc
 50
269.999763
 51
359.999982
  0
LINE
  5
245
100
AcDbEntity
  8
M0
 62
   234
100
AcDbLine
 10
316.840031
 20
710.392179
 11
324.840009
 21
710.392159
  0
CIRCLE
  5
246
100
AcDbEntity
  8
M0
 62
   234
100
AcDbCircle
 10
324.34001
 20
714.392159
 40
2.25
  0
ARC
  5
247
100
AcDbEntity
  8
M0
 62
   234
100
AcDbCircle
 10
331.840011
 20
716.892156
 40
0.5
100
AcDbArc
 50
179.998233
 51
269.998233
  0
LINE
  5
248
100
AcDbEntity
  8
M0
 62
   234
100
AcDbLine
 10
331.840011
 20
716.392156
 11
333.340011
 21
716.392156
  0
LINE
  5
249
100
AcDbEntity
  8
M0
 62
   234
100
AcDbLine
 10
331.340018
 20
739.892145
 11
331.340011
 21
716.892156
  0
LINE
  5
24A
100
AcDbEntity
  8
M0
 62
   234
100
AcDbLine
 10
331.340018
 20
739.892145
 11
323.340018
 21
739.892148
  0
LINE
  5
24B
100
AcDbEntity
  8
M0
 62
   234
100
AcDbLine
 10
316.840031
 20
780.392146
 11
316.840028
 21
771.892142
  0
LINE
  5
24C
100
AcDbEntity
  8
M0
 62
   234
100
AcDbLine
 10
316.840031
 20
710.392148
 11
316.840028
 21
718.892152
  0
LINE
  5
24D
100
AcDbEntity
  8
M0
 62
   234
100
AcDbLine
 10
623.727178
 20
843.191917
 11
633.727178
 21
853.191917
  0
LINE
  5
24E
100
AcDbEntity
  8
M0
 62
   234
100
AcDbLine
 10
603.727178
 20
699.191917
 11
591.727178
 21
699.191917
  0
LINE
  5
24F
100
AcDbEntity
  8
M0
 62
   234
100
AcDbLine
 10
603.727178
 20
707.191917
 11
591.727178
 21
707.191917
  0
LINE
  5
250
100
AcDbEntity
  8
M0
 62
   234
100
AcDbLine
 10
591.727178
 20
769.191917
 11
603.727178
 21
769.191917
  0
LINE
  5
251
100
AcDbEntity
  8
M0
 62
   234
100
AcDbLine
 10
591.727178
 20
761.191917
 11
603.727178
 21
761.191917
  0
LINE
  5
252
100
AcDbEntity
  8
M0
 62
   234
100
AcDbLine
 10
591.727178
 20
718.191917
 11
603.727178
 21
718.191917
  0
LINE
  5
253
100
AcDbEntity
  8
M0
 62
   234
100
AcDbLine
 10
591.727178
 20
710.191917
 11
603.727178
 21
710.191917
  0
LINE
  5
254
100
AcDbEntity
  8
M0
 62
   234
100
AcDbLine
 10
591.727178
 20
772.191917
 11
603.727178
 21
772.191917
  0
LINE
  5
255
100
AcDbEntity
  8
M0
 62
   234
100
AcDbLine
 10
591.727178
 20
780.191917
 11
591.727178
 21
772.191917
  0
LINE
  5
256
100
AcDbEntity
  8
M0
 62
   234
100
AcDbLine
 10
591.727178
 20
769.191917
 11
591.727178
 21
761.191917
  0
LINE
  5
257
100
AcDbEntity
  8
M0
 62
   234
100
AcDbLine
 10
591.727178
 20
718.191917
 11
591.727178
 21
710.191917
  0
LINE
  5
258
100
AcDbEntity
  8
M0
 62
   234
100
AcDbLine
 10
591.727178
 20
707.191917
 11
591.727178
 21
699.191917
  0
LINE
  5
259
100
AcDbEntity
  8
M0
 62
   234
100
AcDbLine
 10
591.727178
 20
780.191917
 11
603.727178
 21
780.191917
  0
LINE
  5
25A
100
AcDbEntity
  8
M0
 62
   234
100
AcDbLine
 10
593.727178
 20
812.191917
 11
603.727178
 21
812.191917
  0
LINE
  5
25B
100
AcDbEntity
  8
M0
 62
   234
100
AcDbLine
 10
603.727178
 20
810.191917
 11
593.727178
 21
810.191917
  0
LINE
  5
25C
100
AcDbEntity
  8
M0
 62
   234
100
AcDbLine
 10
603.727178
 20
808.191917
 11
593.727178
 21
808.191917
  0
LINE
  5
25D
100
AcDbEntity
  8
M0
 62
   234
100
AcDbLine
 10
614.727178
 20
843.191917
 11
623.727178
 21
843.191917
  0
ARC
  5
25E
100
AcDbEntity
  8
M0
 62
   234
100
AcDbCircle
 10
614.727178
 20
832.191917
 40
11.0
100
AcDbArc
 50
90.0
 51
180.0
  0
ARC
  5
25F
100
AcDbEntity
  8
M0
 62
   234
100
AcDbCircle
 10
598.727178
 20
828.191917
 40
5.0
100
AcDbArc
 50
90.0
 51
180.0
  0
LINE
  5
260
100
AcDbEntity
  8
M0
 62
   234
100
AcDbLine
 10
598.727178
 20
833.191917
 11
603.772727
 21
833.191917
  0
LINE
  5
261
100
AcDbEntity
  8
M0
 62
   234
100
AcDbLine
 10
593.727178
 20
828.191917
 11
593.727178
 21
812.191917
  0
LINE
  5
262
100
AcDbEntity
  8
M0
 62
   234
100
AcDbLine
 10
593.727178
 20
810.191917
 11
593.727178
 21
808.191917
  0
LINE
  5
263
100
AcDbEntity
  8
M0
 62
   234
100
AcDbLine
 10
603.727178
 20
832.191917
 11
603.727178
 21
633.091917
  0
LINE
  5
264
100
AcDbEntity
  8
M0
 62
   234
100
AcDbLine
 10
668.727178
 20
615.191917
 11
650.827178
 21
633.091917
  0
LINE
  5
265
100
AcDbEntity
  8
M0
 62
   234
100
AcDbLine
 10
598.727178
 20
633.091917
 11
650.827178
 21
633.091917
  0
ARC
  5
266
100
AcDbEntity
  8
M0
 62
   234
100
AcDbCircle
 10
598.727178
 20
638.091917
 40
5.0
100
AcDbArc
 50
180.0
 51
270.0
  0
LINE
  5
267
100
AcDbEntity
  8
M0
 62
   234
100
AcDbLine
 10
595.727178
 20
648.091917
 11
603.727178
 21
648.091917
  0
LINE
  5
268
100
AcDbEntity
  8
M0
 62
   234
100
AcDbLine
 10
593.727178
 20
638.091917
 11
593.727178
 21
646.091917
  0
ARC
  5
269
100
AcDbEntity
  8
M0
 62
   234
100
AcDbCircle
 10
595.727178
 20
646.091917
 40
2.0
100
AcDbArc
 50
90.0
 51
180.0
  0
LINE
  5
26A
100
AcDbEntity
  8
M0
 62
   234
100
AcDbLine
 10
680.227178
 20
853.191917
 11
680.227178
 21
615.191917
  0
LINE
  5
26B
100
AcDbEntity
  8
M0
 62
   234
100
AcDbLine
 10
684.227178
 20
853.191917
 11
633.727178
 21
853.191917
  0
LINE
  5
26C
100
AcDbEntity
  8
M0
 62
   234
100
AcDbLine
 10
668.727178
 20
615.191917
 11
684.227178
 21
615.191917
  0
LINE
  5
26D
100
AcDbEntity
  8
M0
  6
DASHED
 62
   234
100
AcDbLine
 10
603.927178
 20
814.191917
 11
603.927178
 21
822.691917
  0
LINE
  5
26E
100
AcDbEntity
  8
M0
 62
   234
100
AcDbLine
 10
673.527178
 20
853.191917
 11
673.527178
 21
615.191917
  0
LINE
  5
26F
100
AcDbEntity
  8
M0
  6
DASHDOT
 62
     1
100
AcDbLine
 10
457.22731
 20
734.191917
 11
697.72726
 21
734.191917
  0
LINE
  5
270
100
AcDbEntity
  8
M0
 62
   154
100
AcDbLine
 10
552.727178
 20
751.691917
 11
564.727178
 21
751.691917
  0
LINE
  5
271
100
AcDbEntity
  8
M0
 62
   154
100
AcDbLine
 10
552.727178
 20
738.691917
 11
564.727178
 21
738.691917
  0
LINE
  5
272
100
AcDbEntity
  8
M0
 62
   154
100
AcDbLine
 10
591.727178
 20
732.691917
 11
603.527178
 21
732.691917
  0
LINE
  5
273
100
AcDbEntity
  8
M0
 62
   154
100
AcDbLine
 10
591.727178
 20
757.691917
 11
603.527178
 21
757.691917
  0
LINE
  5
274
100
AcDbEntity
  8
M0
 62
   154
100
AcDbLine
 10
591.727178
 20
702.191917
 11
591.727178
 21
732.691917
  0
LINE
  5
275
100
AcDbEntity
  8
M0
 62
   154
100
AcDbLine
 10
591.727178
 20
757.691917
 11
591.727178
 21
788.191917
  0
ARC
  5
276
100
AcDbEntity
  8
M0
 62
   154
100
AcDbCircle
 10
573.727178
 20
781.191917
 40
3.0
100
AcDbArc
 50
270.0
 51
360.0
  0
ARC
  5
277
100
AcDbEntity
  8
M0
 62
   154
100
AcDbCircle
 10
573.727178
 20
709.191917
 40
3.0
100
AcDbArc
 50
0.0
 51
90.0
  0
LINE
  5
278
100
AcDbEntity
  8
M0
 62
   154
100
AcDbLine
 10
569.727178
 20
778.191917
 11
573.727178
 21
778.191917
  0
LINE
  5
279
100
AcDbEntity
  8
M0
 62
   154
100
AcDbLine
 10
564.727178
 20
773.191917
 11
564.727178
 21
751.691917
  0
ARC
  5
27A
100
AcDbEntity
  8
M0
 62
   154
100
AcDbCircle
 10
569.727178
 20
773.191917
 40
5.0
100
AcDbArc
 50
90.0
 51
180.0
  0
LINE
  5
27B
100
AcDbEntity
  8
M0
 62
   154
100
AcDbLine
 10
564.727178
 20
738.691917
 11
564.727178
 21
717.191917
  0
LINE
  5
27C
100
AcDbEntity
  8
M0
 62
   154
100
AcDbLine
 10
569.727178
 20
712.191917
 11
573.727178
 21
712.191917
  0
ARC
  5
27D
100
AcDbEntity
  8
M0
 62
   154
100
AcDbCircle
 10
569.727178
 20
717.191917
 40
5.0
100
AcDbArc
 50
180.0
 51
270.0
  0
LINE
  5
27E
100
AcDbEntity
  8
M0
 62
   154
100
AcDbLine
 10
576.727178
 20
709.191917
 11
576.727178
 21
707.191917
  0
LINE
  5
27F
100
AcDbEntity
  8
M0
 62
   154
100
AcDbLine
 10
581.727178
 20
702.191917
 11
591.727178
 21
702.191917
  0
ARC
  5
280
100
AcDbEntity
  8
M0
 62
   154
100
AcDbCircle
 10
581.727178
 20
707.191917
 40
5.0
100
AcDbArc
 50
180.0
 51
270.0
  0
LINE
  5
281
100
AcDbEntity
  8
M0
 62
   154
100
AcDbLine
 10
591.727178
 20
788.191917
 11
581.727178
 21
788.191917
  0
LINE
  5
282
100
AcDbEntity
  8
M0
 62
   154
100
AcDbLine
 10
576.727178
 20
783.191917
 11
576.727178
 21
781.191917
  0
ARC
  5
283
100
AcDbEntity
  8
M0
 62
   154
100
AcDbCircle
 10
581.727178
 20
783.191917
 40
5.0
100
AcDbArc
 50
90.0
 51
180.0
  0
LINE
  5
284
100
AcDbEntity
  8
M0
 62
   154
100
AcDbLine
 10
552.727178
 20
751.691917
 11
552.727178
 21
738.691917
  0
LINE
  5
285
100
AcDbEntity
  8
M0
 62
   154
100
AcDbLine
 10
603.527178
 20
757.691917
 11
603.527178
 21
732.691917
  0
LINE
  5
286
100
AcDbEntity
  8
M0
100
AcDbLine
 10
577.527178
 20
796.191917
 11
577.527178
 21
785.904849
  0
LINE
  5
287
100
AcDbEntity
  8
M0
100
AcDbLine
 10
597.527178
 20
663.191917
 11
566.427178
 21
663.191917
  0
LINE
  5
288
100
AcDbEntity
  8
M0
100
AcDbLine
 10
597.527178
 20
805.191917
 11
566.427178
 21
805.191917
  0
LINE
  5
289
100
AcDbEntity
  8
M0
100
AcDbLine
 10
597.527178
 20
796.191917
 11
577.527178
 21
796.191917
  0
LINE
  5
28A
100
AcDbEntity
  8
M0
100
AcDbLine
 10
597.527178
 20
672.191917
 11
577.527178
 21
672.191917
  0
LINE
  5
28B
100
AcDbEntity
  8
M0
100
AcDbLine
 10
597.527178
 20
799.191917
 11
566.427178
 21
799.191917
  0
LINE
  5
28C
100
AcDbEntity
  8
M0
100
AcDbLine
 10
597.527178
 20
669.191917
 11
566.427178
 21
669.191917
  0
LINE
  5
28D
100
AcDbEntity
  8
M0
100
AcDbLine
 10
597.527178
 20
652.191917
 11
603.727178
 21
652.191917
  0
LINE
  5
28E
100
AcDbEntity
  8
M0
100
AcDbLine
 10
566.427178
 20
805.191917
 11
566.427178
 21
776.948245
  0
LINE
  5
28F
100
AcDbEntity
  8
M0
100
AcDbLine
 10
597.527178
 20
652.191917
 11
597.527178
 21
672.191917
  0
LINE
  5
290
100
AcDbEntity
  8
M0
100
AcDbLine
 10
597.527178
 20
796.191917
 11
597.527178
 21
808.191917
  0
LINE
  5
291
100
AcDbEntity
  8
M0
100
AcDbLine
 10
577.527178
 20
704.478985
 11
577.527178
 21
672.191917
  0
LINE
  5
292
100
AcDbEntity
  8
M0
100
AcDbLine
 10
566.427178
 20
713.435589
 11
566.427178
 21
663.191917
  0
LINE
  5
293
100
AcDbEntity
  8
M0
100
AcDbLine
 10
572.427196
 20
809.191917
 11
593.727178
 21
809.191917
  0
LINE
  5
294
100
AcDbEntity
  8
M0
100
AcDbLine
 10
572.427314
 20
659.191917
 11
597.527178
 21
659.191917
  0
LINE
  5
295
100
AcDbEntity
  8
M0
100
AcDbLine
 10
687.427298
 20
854.191917
 11
684.227178
 21
854.191917
  0
LINE
  5
296
100
AcDbEntity
  8
M0
100
AcDbLine
 10
684.227178
 20
614.191917
 11
687.427223
 21
614.191917
  0
LINE
  5
297
100
AcDbEntity
  8
M0
  6
DOT
100
AcDbLine
 10
684.227178
 20
854.191917
 11
684.227178
 21
614.191917
  0
LINE
  5
298
100
AcDbEntity
  8
M0
 62
   114
100
AcDbLine
 10
547.527178
 20
760.191917
 11
547.527178
 21
762.691917
  0
LINE
  5
299
100
AcDbEntity
  8
M0
 62
   114
100
AcDbLine
 10
551.527178
 20
762.691917
 11
551.527178
 21
760.191917
  0
LINE
  5
29A
100
AcDbEntity
  8
M0
 62
   114
100
AcDbLine
 10
547.527178
 20
760.191917
 11
551.527178
 21
760.191917
  0
LINE
  5
29B
100
AcDbEntity
  8
M0
 62
   114
100
AcDbLine
 10
526.027178
 20
762.691917
 11
547.527178
 21
762.691917
  0
ARC
  5
29C
100
AcDbEntity
  8
M0
 62
   114
100
AcDbCircle
 10
526.027178
 20
760.691917
 40
2.0
100
AcDbArc
 50
90.0
 51
180.0
  0
ARC
  5
29D
100
AcDbEntity
  8
M0
 62
   114
100
AcDbCircle
 10
529.027178
 20
760.691917
 40
5.0
100
AcDbArc
 50
90.0
 51
180.0
  0
LINE
  5
29E
100
AcDbEntity
  8
M0
 62
   114
100
AcDbLine
 10
529.027178
 20
765.691917
 11
552.570656
 21
765.691917
  0
LINE
  5
29F
100
AcDbEntity
  8
M0
 62
   114
100
AcDbLine
 10
551.527178
 20
762.691917
 11
555.060062
 21
772.848958
  0
ARC
  5
2A0
100
AcDbEntity
  8
M0
 62
   114
100
AcDbCircle
 10
556.949055
 20
772.191917
 40
2.0
100
AcDbArc
 50
90.0
 51
160.820992
  0
LINE
  5
2A1
100
AcDbEntity
  8
M0
 62
   114
100
AcDbLine
 10
564.828198
 20
774.191917
 11
556.949055
 21
774.191917
  0
LINE
  5
2A2
100
AcDbEntity
  8
M0
 62
   114
100
AcDbLine
 10
534.527178
 20
745.191917
 11
534.527178
 21
748.941917
  0
LINE
  5
2A3
100
AcDbEntity
  8
M0
 62
   114
100
AcDbLine
 10
524.027178
 20
748.941917
 11
534.527178
 21
748.941917
  0
LINE
  5
2A4
100
AcDbEntity
  8
M0
 62
   114
100
AcDbLine
 10
524.027178
 20
760.691917
 11
524.027178
 21
748.941917
  0
LINE
  5
2A5
100
AcDbEntity
  8
M0
 62
   114
100
AcDbLine
 10
571.527178
 20
778.191917
 11
571.527178
 21
780.191917
  0
LINE
  5
2A6
100
AcDbEntity
  8
M0
 62
   114
100
AcDbLine
 10
576.555605
 20
780.191917
 11
571.527178
 21
780.191917
  0
LINE
  5
2A7
100
AcDbEntity
  8
M0
 62
   114
100
AcDbLine
 10
547.527178
 20
730.191917
 11
547.527178
 21
727.691917
  0
LINE
  5
2A8
100
AcDbEntity
  8
M0
 62
   114
100
AcDbLine
 10
551.527178
 20
727.691917
 11
551.527178
 21
730.191917
  0
LINE
  5
2A9
100
AcDbEntity
  8
M0
 62
   114
100
AcDbLine
 10
547.527178
 20
730.191917
 11
551.527178
 21
730.191917
  0
LINE
  5
2AA
100
AcDbEntity
  8
M0
 62
   114
100
AcDbLine
 10
526.027178
 20
727.691917
 11
547.527178
 21
727.691917
  0
ARC
  5
2AB
100
AcDbEntity
  8
M0
 62
   114
100
AcDbCircle
 10
526.027178
 20
729.691917
 40
2.0
100
AcDbArc
 50
180.0
 51
270.0
  0
ARC
  5
2AC
100
AcDbEntity
  8
M0
 62
   114
100
AcDbCircle
 10
529.027178
 20
729.691917
 40
5.0
100
AcDbArc
 50
180.0
 51
270.0
  0
LINE
  5
2AD
100
AcDbEntity
  8
M0
 62
   114
100
AcDbLine
 10
529.027178
 20
724.691917
 11
552.570656
 21
724.691917
  0
LINE
  5
2AE
100
AcDbEntity
  8
M0
 62
   114
100
AcDbLine
 10
551.527178
 20
727.691917
 11
555.060062
 21
717.534876
  0
ARC
  5
2AF
100
AcDbEntity
  8
M0
 62
   114
100
AcDbCircle
 10
556.949055
 20
718.191917
 40
2.0
100
AcDbArc
 50
199.179008
 51
270.0
  0
LINE
  5
2B0
100
AcDbEntity
  8
M0
 62
   114
100
AcDbLine
 10
564.828198
 20
716.191917
 11
556.949055
 21
716.191917
  0
LINE
  5
2B1
100
AcDbEntity
  8
M0
 62
   114
100
AcDbLine
 10
534.527178
 20
745.191917
 11
534.527178
 21
741.441917
  0
LINE
  5
2B2
100
AcDbEntity
  8
M0
 62
   114
100
AcDbLine
 10
524.027178
 20
741.441917
 11
534.527178
 21
741.441917
  0
LINE
  5
2B3
100
AcDbEntity
  8
M0
 62
   114
100
AcDbLine
 10
524.027178
 20
729.691917
 11
524.027178
 21
741.441917
  0
LINE
  5
2B4
100
AcDbEntity
  8
M0
  6
DASHED
 62
   114
100
AcDbLine
 10
535.427178
 20
729.691917
 11
535.427178
 21
739.191917
  0
LINE
  5
2B5
100
AcDbEntity
  8
M0
  6
DASHED
 62
   114
100
AcDbLine
 10
564.427178
 20
720.691917
 11
564.427178
 21
730.191917
  0
LINE
  5
2B6
100
AcDbEntity
  8
M0
 62
   114
100
AcDbLine
 10
571.527178
 20
712.191917
 11
571.527178
 21
710.191917
  0
LINE
  5
2B7
100
AcDbEntity
  8
M0
 62
   114
100
AcDbLine
 10
576.555605
 20
710.191917
 11
571.527178
 21
710.191917
  0
LINE
  5
2B8
100
AcDbEntity
  8
M0
 62
   114
100
AcDbLine
 10
532.527178
 20
747.941917
 11
532.527178
 21
748.941917
  0
LINE
  5
2B9
100
AcDbEntity
  8
M0
 62
   114
100
AcDbLine
 10
532.527178
 20
747.941917
 11
534.527178
 21
747.941917
  0
LINE
  5
2BA
100
AcDbEntity
  8
M0
 62
   114
100
AcDbLine
 10
532.527178
 20
741.441917
 11
532.527178
 21
742.441917
  0
LINE
  5
2BB
100
AcDbEntity
  8
M0
 62
   114
100
AcDbLine
 10
532.527178
 20
742.441917
 11
534.527178
 21
742.441917
  0
LINE
  5
2BC
100
AcDbEntity
  8
M0
 62
   114
100
AcDbLine
 10
311.18861
 20
662.192083
 11
314.452322
 21
665.455795
  0
LINE
  5
2BD
100
AcDbEntity
  8
M0
 62
   114
100
AcDbLine
 10
308.35999
 20
659.363463
 11
310.340084
 21
661.343557
  0
LINE
  5
2BE
100
AcDbEntity
  8
M0
 62
   114
100
AcDbLine
 10
309.491601
 20
662.19204
 11
307.527516
 21
660.227955
  0
LINE
  5
2BF
100
AcDbEntity
  8
M0
 62
   114
100
AcDbLine
 10
313.60385
 20
666.30431
 11
310.340127
 21
663.040566
  0
LINE
  5
2C0
100
AcDbEntity
  8
M0
 62
   114
100
AcDbLine
 10
310.340117
 20
663.040577
 11
308.57235
 21
664.808344
  0
LINE
  5
2C1
100
AcDbEntity
  8
M0
 62
   114
100
AcDbLine
 10
312.956377
 20
660.424316
 11
311.18861
 21
662.192083
  0
LINE
  5
2C2
100
AcDbEntity
  8
M0
 62
   114
100
AcDbLine
 10
310.340084
 20
661.343557
 11
312.107851
 21
659.57579
  0
LINE
  5
2C3
100
AcDbEntity
  8
M0
 62
   114
100
AcDbLine
 10
307.723824
 20
663.959818
 11
309.491591
 21
662.192051
  0
LINE
  5
2C4
100
AcDbEntity
  8
M0
 62
   114
100
AcDbLine
 10
312.107851
 20
659.57579
 11
312.956377
 21
660.424316
  0
LINE
  5
2C5
100
AcDbEntity
  8
M0
 62
   114
100
AcDbLine
 10
308.57235
 20
664.808344
 11
307.723824
 21
663.959818
  0
ARC
  5
2C6
100
AcDbEntity
  8
M0
 62
   114
100
AcDbCircle
 10
310.340019
 20
662.192159
 40
5.75
100
AcDbArc
 50
277.813215
 51
460.132308
  0
ARC
  5
2C7
100
AcDbEntity
  8
M0
 62
   114
100
AcDbCircle
 10
310.340019
 20
662.192159
 40
5.25
100
AcDbArc
 50
273.723338
 51
461.812432
  0
LINE
  5
2C8
100
AcDbEntity
  8
M0
 62
   114
100
AcDbLine
 10
311.18861
 20
806.192068
 11
314.452322
 21
809.455779
  0
LINE
  5
2C9
100
AcDbEntity
  8
M0
 62
   114
100
AcDbLine
 10
308.274332
 20
803.277789
 11
310.340084
 21
805.343542
  0
LINE
  5
2CA
100
AcDbEntity
  8
M0
 62
   114
100
AcDbLine
 10
309.491601
 20
806.192025
 11
307.425871
 21
804.126295
  0
LINE
  5
2CB
100
AcDbEntity
  8
M0
 62
   114
100
AcDbLine
 10
313.60385
 20
810.304294
 11
310.340127
 21
807.040551
  0
LINE
  5
2CC
100
AcDbEntity
  8
M0
 62
   114
100
AcDbLine
 10
310.340117
 20
807.040561
 11
308.57235
 21
808.808328
  0
LINE
  5
2CD
100
AcDbEntity
  8
M0
 62
   114
100
AcDbLine
 10
312.956377
 20
804.424301
 11
311.18861
 21
806.192068
  0
LINE
  5
2CE
100
AcDbEntity
  8
M0
 62
   114
100
AcDbLine
 10
310.340084
 20
805.343542
 11
312.107851
 21
803.575775
  0
LINE
  5
2CF
100
AcDbEntity
  8
M0
 62
   114
100
AcDbLine
 10
307.723824
 20
807.959802
 11
309.491591
 21
806.192035
  0
LINE
  5
2D0
100
AcDbEntity
  8
M0
 62
   114
100
AcDbLine
 10
312.107851
 20
803.575775
 11
312.956377
 21
804.424301
  0
LINE
  5
2D1
100
AcDbEntity
  8
M0
 62
   114
100
AcDbLine
 10
308.57235
 20
808.808328
 11
307.723824
 21
807.959802
  0
ARC
  5
2D2
100
AcDbEntity
  8
M0
 62
   114
100
AcDbCircle
 10
310.340019
 20
806.192143
 40
5.25
100
AcDbArc
 50
258.187553
 51
446.274448
  0
ARC
  5
2D3
100
AcDbEntity
  8
M0
 62
   114
100
AcDbCircle
 10
310.340019
 20
806.192143
 40
5.75
100
AcDbArc
 50
259.867687
 51
442.18488
  0
LINE
  5
2D4
100
AcDbEntity
  8
M0
 62
   114
100
AcDbLine
 10
171.188625
 20
806.192068
 11
173.152594
 21
808.156036
  0
LINE
  5
2D5
100
AcDbEntity
  8
M0
 62
   114
100
AcDbLine
 10
167.076388
 20
802.07983
 11
170.340099
 21
805.343542
  0
LINE
  5
2D6
100
AcDbEntity
  8
M0
 62
   114
100
AcDbLine
 10
169.491617
 20
806.192025
 11
166.227883
 21
802.928291
  0
LINE
  5
2D7
100
AcDbEntity
  8
M0
 62
   114
100
AcDbLine
 10
172.320113
 20
809.020534
 11
170.340143
 21
807.040551
  0
LINE
  5
2D8
100
AcDbEntity
  8
M0
 62
   114
100
AcDbLine
 10
170.340132
 20
807.040561
 11
168.572365
 21
808.808328
  0
LINE
  5
2D9
100
AcDbEntity
  8
M0
 62
   114
100
AcDbLine
 10
172.956392
 20
804.424301
 11
171.188625
 21
806.192068
  0
LINE
  5
2DA
100
AcDbEntity
  8
M0
 62
   114
100
AcDbLine
 10
170.340099
 20
805.343542
 11
172.107866
 21
803.575775
  0
LINE
  5
2DB
100
AcDbEntity
  8
M0
 62
   114
100
AcDbLine
 10
167.723839
 20
807.959802
 11
169.491606
 21
806.192035
  0
LINE
  5
2DC
100
AcDbEntity
  8
M0
 62
   114
100
AcDbLine
 10
172.107866
 20
803.575775
 11
172.956392
 21
804.424301
  0
LINE
  5
2DD
100
AcDbEntity
  8
M0
 62
   114
100
AcDbLine
 10
168.572365
 20
808.808328
 11
167.723839
 21
807.959802
  0
ARC
  5
2DE
100
AcDbEntity
  8
M0
 62
   114
100
AcDbCircle
 10
170.340035
 20
806.192143
 40
5.75
100
AcDbArc
 50
97.815355
 51
280.132157
  0
ARC
  5
2DF
100
AcDbEntity
  8
M0
 62
   114
100
AcDbCircle
 10
170.340035
 20
806.192143
 40
5.25
100
AcDbArc
 50
93.725821
 51
281.812271
  0
LINE
  5
2E0
100
AcDbEntity
  8
M0
 62
   114
100
AcDbLine
 10
171.188625
 20
662.192083
 11
173.254377
 21
664.257835
  0
LINE
  5
2E1
100
AcDbEntity
  8
M0
 62
   114
100
AcDbLine
 10
167.076388
 20
658.079845
 11
170.340099
 21
661.343557
  0
LINE
  5
2E2
100
AcDbEntity
  8
M0
 62
   114
100
AcDbLine
 10
169.491617
 20
662.19204
 11
166.227883
 21
658.928307
  0
LINE
  5
2E3
100
AcDbEntity
  8
M0
 62
   114
100
AcDbLine
 10
172.405866
 20
665.106303
 11
170.340143
 21
663.040566
  0
LINE
  5
2E4
100
AcDbEntity
  8
M0
 62
   114
100
AcDbLine
 10
170.340132
 20
663.040577
 11
168.572365
 21
664.808344
  0
LINE
  5
2E5
100
AcDbEntity
  8
M0
 62
   114
100
AcDbLine
 10
172.956392
 20
660.424316
 11
171.188625
 21
662.192083
  0
LINE
  5
2E6
100
AcDbEntity
  8
M0
 62
   114
100
AcDbLine
 10
170.340099
 20
661.343557
 11
172.107866
 21
659.57579
  0
LINE
  5
2E7
100
AcDbEntity
  8
M0
 62
   114
100
AcDbLine
 10
167.723839
 20
663.959818
 11
169.491606
 21
662.192051
  0
LINE
  5
2E8
100
AcDbEntity
  8
M0
 62
   114
100
AcDbLine
 10
172.107866
 20
659.57579
 11
172.956392
 21
660.424316
  0
LINE
  5
2E9
100
AcDbEntity
  8
M0
 62
   114
100
AcDbLine
 10
168.572365
 20
664.808344
 11
167.723839
 21
663.959818
  0
ARC
  5
2EA
100
AcDbEntity
  8
M0
 62
   114
100
AcDbCircle
 10
170.340035
 20
662.192159
 40
5.75
100
AcDbArc
 50
79.867849
 51
262.186614
  0
ARC
  5
2EB
100
AcDbEntity
  8
M0
 62
   114
100
AcDbCircle
 10
170.340035
 20
662.192159
 40
5.25
100
AcDbArc
 50
78.187745
 51
266.276456
  0
CIRCLE
  5
2EC
100
AcDbEntity
  8
M0
 62
     2
100
AcDbCircle
 10
240.340076
 20
829.192249
 40
13.0
  0
CIRCLE
  5
2ED
100
AcDbEntity
  8
M0
 62
     7
100
AcDbCircle
 10
240.340076
 20
829.192249
 40
10.75
  0
CIRCLE
  5
2EE
100
AcDbEntity
  8
M0
 62
     2
100
AcDbCircle
 10
182.340013
 20
829.192176
 40
13.0
  0
CIRCLE
  5
2EF
100
AcDbEntity
  8
M0
 62
     7
100
AcDbCircle
 10
182.340013
 20
829.192176
 40
10.75
  0
CIRCLE
  5
2F0
100
AcDbEntity
  8
M0
 62
     2
100
AcDbCircle
 10
298.340013
 20
829.192176
 40
13.0
  0
CIRCLE
  5
2F1
100
AcDbEntity
  8
M0
 62
     7
100
AcDbCircle
 10
298.340013
 20
829.192176
 40
10.75
  0
CIRCLE
  5
2F2
100
AcDbEntity
  8
M0
 62
     2
100
AcDbCircle
 10
298.340019
 20
639.191903
 40
13.0
  0
CIRCLE
  5
2F3
100
AcDbEntity
  8
M0
 62
     7
100
AcDbCircle
 10
298.340019
 20
639.191903
 40
10.75
  0
CIRCLE
  5
2F4
100
AcDbEntity
  8
M0
 62
     2
100
AcDbCircle
 10
240.340019
 20
639.191903
 40
13.0
  0
CIRCLE
  5
2F5
100
AcDbEntity
  8
M0
 62
     7
100
AcDbCircle
 10
240.340019
 20
639.191903
 40
10.75
  0
CIRCLE
  5
2F6
100
AcDbEntity
  8
M0
 62
     2
100
AcDbCircle
 10
182.340019
 20
639.191903
 40
13.0
  0
CIRCLE
  5
2F7
100
AcDbEntity
  8
M0
 62
     7
100
AcDbCircle
 10
182.340019
 20
639.191903
 40
10.75
  0
LINE
  5
2F8
100
AcDbEntity
  8
M0
 62
     7
100
AcDbLine
 10
561.127244
 20
649.942935
 11
564.127244
 21
649.942935
  0
LINE
  5
2F9
100
AcDbEntity
  8
M0
 62
     7
100
AcDbLine
 10
564.127244
 20
649.942935
 11
564.127244
 21
628.442935
  0
LINE
  5
2FA
100
AcDbEntity
  8
M0
 62
     7
100
AcDbLine
 10
564.127244
 20
628.442935
 11
561.127244
 21
628.442935
  0
LINE
  5
2FB
100
AcDbEntity
  8
M0
 62
     7
100
AcDbLine
 10
561.127244
 20
628.442935
 11
561.127244
 21
649.942935
  0
LINE
  5
2FC
100
AcDbEntity
  8
M0
 62
     7
100
AcDbLine
 10
561.127244
 20
639.192919
 11
564.127244
 21
640.92496
  0
LINE
  5
2FD
100
AcDbEntity
  8
M0
 62
     7
100
AcDbLine
 10
561.127244
 20
637.460894
 11
564.127244
 21
639.192935
  0
LINE
  5
2FE
100
AcDbEntity
  8
M0
 62
     7
100
AcDbLine
 10
561.127149
 20
839.942062
 11
564.127149
 21
839.942062
  0
LINE
  5
2FF
100
AcDbEntity
  8
M0
 62
     7
100
AcDbLine
 10
564.127149
 20
839.942062
 11
564.127149
 21
818.442062
  0
LINE
  5
300
100
AcDbEntity
  8
M0
 62
     7
100
AcDbLine
 10
564.127149
 20
818.442062
 11
561.127149
 21
818.442062
  0
LINE
  5
301
100
AcDbEntity
  8
M0
 62
     7
100
AcDbLine
 10
561.127149
 20
818.442062
 11
561.127149
 21
839.942062
  0
LINE
  5
302
100
AcDbEntity
  8
M0
 62
     7
100
AcDbLine
 10
561.127149
 20
829.192047
 11
564.127149
 21
830.924087
  0
LINE
  5
303
100
AcDbEntity
  8
M0
 62
     7
100
AcDbLine
 10
561.127149
 20
827.460022
 11
564.127149
 21
829.192062
  0
LINE
  5
304
100
AcDbEntity
  8
M0
 62
     6
100
AcDbLine
 10
564.127339
 20
652.192819
 11
566.427342
 21
652.19282
  0
LINE
  5
305
100
AcDbEntity
  8
M0
 62
     6
100
AcDbLine
 10
566.427342
 20
652.19282
 11
566.427358
 21
626.19282
  0
LINE
  5
306
100
AcDbEntity
  8
M0
 62
     6
100
AcDbLine
 10
566.427358
 20
626.19282
 11
564.127355
 21
626.192819
  0
LINE
  5
307
100
AcDbEntity
  8
M0
 62
     6
100
AcDbLine
 10
564.127355
 20
626.192819
 11
564.127339
 21
652.192819
  0
CIRCLE
  5
308
100
AcDbEntity
  8
M0
100
AcDbCircle
 10
165.340013
 20
755.892147
 40
3.0
  0
LINE
  5
309
100
AcDbEntity
  8
M0
100
AcDbLine
 10
168.298997
 20
759.839489
 11
169.115159
 21
757.192196
  0
LINE
  5
30A
100
AcDbEntity
  8
M0
100
AcDbLine
 10
168.298997
 20
751.944898
 11
169.115159
 21
754.592221
  0
LINE
  5
30B
100
AcDbEntity
  8
M0
100
AcDbLine
 10
162.381517
 20
759.839504
 11
161.56511
 21
757.192196
  0
LINE
  5
30C
100
AcDbEntity
  8
M0
100
AcDbLine
 10
162.381517
 20
751.944882
 11
161.56511
 21
754.592221
  0
LINE
  5
30D
100
AcDbEntity
  8
M0
100
AcDbLine
 10
167.82097
 20
751.592221
 11
162.8593
 21
751.592221
  0
LINE
  5
30E
100
AcDbEntity
  8
M0
100
AcDbLine
 10
161.56511
 20
754.592221
 11
161.56511
 21
757.192196
  0
LINE
  5
30F
100
AcDbEntity
  8
M0
100
AcDbLine
 10
162.8593
 20
760.192196
 11
167.82097
 21
760.192181
  0
LINE
  5
310
100
AcDbEntity
  8
M0
100
AcDbLine
 10
169.115159
 20
757.192196
 11
169.115159
 21
754.592221
  0
LINE
  5
311
100
AcDbEntity
  8
M0
  6
DASHDOT
100
AcDbLine
 10
171.615158
 20
755.892147
 11
159.06511
 21
755.892147
  0
LINE
  5
312
100
AcDbEntity
  8
M0
100
AcDbLine
 10
163.749437
 20
754.301328
 11
166.931077
 21
757.483089
  0
LINE
  5
313
100
AcDbEntity
  8
M0
100
AcDbLine
 10
164.986741
 20
757.306332
 11
166.754319
 21
755.538632
  0
LINE
  5
314
100
AcDbEntity
  8
M0
100
AcDbLine
 10
163.926194
 20
756.245663
 11
165.693773
 21
754.478086
  0
ARC
  5
315
100
AcDbEntity
  8
M0
100
AcDbCircle
 10
167.82097
 20
759.692181
 40
0.5
100
AcDbArc
 50
17.127146
 51
90.0
  0
ARC
  5
316
100
AcDbEntity
  8
M0
100
AcDbCircle
 10
167.82097
 20
752.092221
 40
0.5
100
AcDbArc
 50
270.0
 51
342.871263
  0
ARC
  5
317
100
AcDbEntity
  8
M0
100
AcDbCircle
 10
162.8593
 20
752.092221
 40
0.5
100
AcDbArc
 50
197.138555
 51
270.0
  0
ARC
  5
318
100
AcDbEntity
  8
M0
100
AcDbCircle
 10
162.8593
 20
759.692181
 40
0.5
100
AcDbArc
 50
90.0
 51
162.862931
  0
LINE
  5
319
100
AcDbEntity
  8
M0
  6
DASHDOT
100
AcDbLine
 10
165.340013
 20
749.092237
 11
165.340013
 21
763.267545
  0
CIRCLE
  5
31A
100
AcDbEntity
  8
M0
100
AcDbCircle
 10
165.34001
 20
765.392147
 40
3.0
  0
LINE
  5
31B
100
AcDbEntity
  8
M0
100
AcDbLine
 10
168.298994
 20
769.339489
 11
169.115156
 21
766.692196
  0
LINE
  5
31C
100
AcDbEntity
  8
M0
100
AcDbLine
 10
168.298994
 20
761.444898
 11
169.115156
 21
764.092221
  0
LINE
  5
31D
100
AcDbEntity
  8
M0
100
AcDbLine
 10
162.381514
 20
769.339504
 11
161.565107
 21
766.692196
  0
LINE
  5
31E
100
AcDbEntity
  8
M0
100
AcDbLine
 10
162.381514
 20
761.444882
 11
161.565107
 21
764.092221
  0
LINE
  5
31F
100
AcDbEntity
  8
M0
100
AcDbLine
 10
167.820967
 20
761.092221
 11
162.859297
 21
761.092221
  0
LINE
  5
320
100
AcDbEntity
  8
M0
100
AcDbLine
 10
161.565107
 20
764.092221
 11
161.565107
 21
766.692196
  0
LINE
  5
321
100
AcDbEntity
  8
M0
100
AcDbLine
 10
162.859297
 20
769.692196
 11
167.820967
 21
769.692181
  0
LINE
  5
322
100
AcDbEntity
  8
M0
100
AcDbLine
 10
169.115156
 20
766.692196
 11
169.115156
 21
764.092221
  0
LINE
  5
323
100
AcDbEntity
  8
M0
  6
DASHDOT
100
AcDbLine
 10
171.615155
 20
765.392147
 11
159.065107
 21
765.392147
  0
LINE
  5
324
100
AcDbEntity
  8
M0
100
AcDbLine
 10
163.749434
 20
763.801328
 11
166.931074
 21
766.983089
  0
LINE
  5
325
100
AcDbEntity
  8
M0
100
AcDbLine
 10
164.986738
 20
766.806332
 11
166.754316
 21
765.038632
  0
LINE
  5
326
100
AcDbEntity
  8
M0
100
AcDbLine
 10
163.926191
 20
765.745663
 11
165.69377
 21
763.978086
  0
ARC
  5
327
100
AcDbEntity
  8
M0
100
AcDbCircle
 10
167.820967
 20
769.192181
 40
0.5
100
AcDbArc
 50
17.127146
 51
90.0
  0
ARC
  5
328
100
AcDbEntity
  8
M0
100
AcDbCircle
 10
167.820967
 20
761.592221
 40
0.5
100
AcDbArc
 50
270.0
 51
342.871263
  0
ARC
  5
329
100
AcDbEntity
  8
M0
100
AcDbCircle
 10
162.859297
 20
761.592221
 40
0.5
100
AcDbArc
 50
197.138555
 51
270.0
  0
ARC
  5
32A
100
AcDbEntity
  8
M0
100
AcDbCircle
 10
162.859297
 20
769.192181
 40
0.5
100
AcDbArc
 50
90.0
 51
162.862931
  0
LINE
  5
32B
100
AcDbEntity
  8
M0
  6
DASHDOT
100
AcDbLine
 10
165.34001
 20
758.592237
 11
165.34001
 21
772.767545
  0
CIRCLE
  5
32C
100
AcDbEntity
  8
M0
100
AcDbCircle
 10
165.340013
 20
734.892147
 40
3.0
  0
LINE
  5
32D
100
AcDbEntity
  8
M0
100
AcDbLine
 10
168.298997
 20
730.944805
 11
169.115159
 21
733.592098
  0
LINE
  5
32E
100
AcDbEntity
  8
M0
100
AcDbLine
 10
168.298997
 20
738.839396
 11
169.115159
 21
736.192073
  0
LINE
  5
32F
100
AcDbEntity
  8
M0
100
AcDbLine
 10
162.381517
 20
730.94479
 11
161.56511
 21
733.592098
  0
LINE
  5
330
100
AcDbEntity
  8
M0
100
AcDbLine
 10
162.381517
 20
738.839412
 11
161.56511
 21
736.192073
  0
LINE
  5
331
100
AcDbEntity
  8
M0
100
AcDbLine
 10
167.82097
 20
739.192073
 11
162.8593
 21
739.192073
  0
LINE
  5
332
100
AcDbEntity
  8
M0
100
AcDbLine
 10
161.56511
 20
736.192073
 11
161.56511
 21
733.592098
  0
LINE
  5
333
100
AcDbEntity
  8
M0
100
AcDbLine
 10
162.8593
 20
730.592098
 11
167.82097
 21
730.592113
  0
LINE
  5
334
100
AcDbEntity
  8
M0
100
AcDbLine
 10
169.115159
 20
733.592098
 11
169.115159
 21
736.192073
  0
LINE
  5
335
100
AcDbEntity
  8
M0
  6
DASHDOT
100
AcDbLine
 10
171.615158
 20
734.892147
 11
159.06511
 21
734.892147
  0
LINE
  5
336
100
AcDbEntity
  8
M0
100
AcDbLine
 10
163.749437
 20
736.482966
 11
166.931077
 21
733.301205
  0
LINE
  5
337
100
AcDbEntity
  8
M0
100
AcDbLine
 10
164.986741
 20
733.477962
 11
166.754319
 21
735.245663
  0
LINE
  5
338
100
AcDbEntity
  8
M0
100
AcDbLine
 10
163.926194
 20
734.538631
 11
165.693773
 21
736.306209
  0
ARC
  5
339
100
AcDbEntity
  8
M0
100
AcDbCircle
 10
167.82097
 20
731.092113
 40
0.5
100
AcDbArc
 50
270.0
 51
342.872854
  0
ARC
  5
33A
100
AcDbEntity
  8
M0
100
AcDbCircle
 10
167.82097
 20
738.692073
 40
0.5
100
AcDbArc
 50
17.128737
 51
90.0
  0
ARC
  5
33B
100
AcDbEntity
  8
M0
100
AcDbCircle
 10
162.8593
 20
738.692073
 40
0.5
100
AcDbArc
 50
90.0
 51
162.861445
  0
ARC
  5
33C
100
AcDbEntity
  8
M0
100
AcDbCircle
 10
162.8593
 20
731.092113
 40
0.5
100
AcDbArc
 50
197.137069
 51
270.0
  0
LINE
  5
33D
100
AcDbEntity
  8
M0
  6
DASHDOT
100
AcDbLine
 10
165.340013
 20
741.692058
 11
165.340013
 21
727.516749
  0
CIRCLE
  5
33E
100
AcDbEntity
  8
M0
100
AcDbCircle
 10
165.34001
 20
725.392147
 40
3.0
  0
LINE
  5
33F
100
AcDbEntity
  8
M0
100
AcDbLine
 10
168.298994
 20
721.444805
 11
169.115156
 21
724.092098
  0
LINE
  5
340
100
AcDbEntity
  8
M0
100
AcDbLine
 10
168.298994
 20
729.339396
 11
169.115156
 21
726.692073
  0
LINE
  5
341
100
AcDbEntity
  8
M0
100
AcDbLine
 10
162.381514
 20
721.44479
 11
161.565107
 21
724.092098
  0
LINE
  5
342
100
AcDbEntity
  8
M0
100
AcDbLine
 10
162.381514
 20
729.339412
 11
161.565107
 21
726.692073
  0
LINE
  5
343
100
AcDbEntity
  8
M0
100
AcDbLine
 10
167.820967
 20
729.692073
 11
162.859297
 21
729.692073
  0
LINE
  5
344
100
AcDbEntity
  8
M0
100
AcDbLine
 10
161.565107
 20
726.692073
 11
161.565107
 21
724.092098
  0
LINE
  5
345
100
AcDbEntity
  8
M0
100
AcDbLine
 10
162.859297
 20
721.092098
 11
167.820967
 21
721.092113
  0
LINE
  5
346
100
AcDbEntity
  8
M0
100
AcDbLine
 10
169.115156
 20
724.092098
 11
169.115156
 21
726.692073
  0
LINE
  5
347
100
AcDbEntity
  8
M0
  6
DASHDOT
100
AcDbLine
 10
171.615155
 20
725.392147
 11
159.065107
 21
725.392147
  0
LINE
  5
348
100
AcDbEntity
  8
M0
100
AcDbLine
 10
163.749434
 20
726.982966
 11
166.931074
 21
723.801205
  0
LINE
  5
349
100
AcDbEntity
  8
M0
100
AcDbLine
 10
164.986738
 20
723.977962
 11
166.754316
 21
725.745663
  0
LINE
  5
34A
100
AcDbEntity
  8
M0
100
AcDbLine
 10
163.926191
 20
725.038631
 11
165.69377
 21
726.806209
  0
ARC
  5
34B
100
AcDbEntity
  8
M0
100
AcDbCircle
 10
167.820967
 20
721.592113
 40
0.5
100
AcDbArc
 50
270.0
 51
342.872854
  0
ARC
  5
34C
100
AcDbEntity
  8
M0
100
AcDbCircle
 10
167.820967
 20
729.192073
 40
0.5
100
AcDbArc
 50
17.128737
 51
90.0
  0
ARC
  5
34D
100
AcDbEntity
  8
M0
100
AcDbCircle
 10
162.859297
 20
729.192073
 40
0.5
100
AcDbArc
 50
90.0
 51
162.861445
  0
ARC
  5
34E
100
AcDbEntity
  8
M0
100
AcDbCircle
 10
162.859297
 20
721.592113
 40
0.5
100
AcDbArc
 50
197.137069
 51
270.0
  0
LINE
  5
34F
100
AcDbEntity
  8
M0
  6
DASHDOT
100
AcDbLine
 10
165.34001
 20
732.192058
 11
165.34001
 21
718.016749
  0
LINE
  5
350
100
AcDbEntity
  8
M0
 62
   234
100
AcDbLine
 10
309.340028
 20
771.892144
 11
309.340011
 21
718.892149
  0
LINE
  5
351
100
AcDbEntity
  8
M0
 62
   234
100
AcDbLine
 10
319.340028
 20
771.892141
 11
309.340028
 21
771.892144
  0
LINE
  5
352
100
AcDbEntity
  8
M0
 62
   234
100
AcDbLine
 10
319.340011
 20
718.892146
 11
309.340011
 21
718.892149
  0
LINE
  5
353
100
AcDbEntity
  8
M0
 62
   234
100
AcDbLine
 10
309.340011
 20
718.892149
 11
319.340011
 21
718.892146
  0
LINE
  5
354
100
AcDbEntity
  8
M0
 62
   234
100
AcDbLine
 10
321.34001
 20
716.392156
 11
321.340028
 21
774.392141
  0
CIRCLE
  5
355
100
AcDbEntity
  8
M0
 62
   234
100
AcDbCircle
 10
312.340029
 20
776.392143
 40
2.25
  0
LINE
  5
356
100
AcDbEntity
  8
M0
 62
   234
100
AcDbLine
 10
319.840028
 20
774.392141
 11
321.340028
 21
774.392141
  0
ARC
  5
357
100
AcDbEntity
  8
M0
 62
   234
100
AcDbCircle
 10
319.840028
 20
773.892141
 40
0.5
100
AcDbArc
 50
90.0
 51
180.001731
  0
LINE
  5
358
100
AcDbEntity
  8
M0
 62
   234
100
AcDbLine
 10
316.840028
 20
771.892142
 11
316.840029
 21
776.392142
  0
ARC
  5
359
100
AcDbEntity
  8
M0
 62
   234
100
AcDbCircle
 10
312.840029
 20
776.392143
 40
4.0
100
AcDbArc
 50
359.999982
 51
450.0
  0
LINE
  5
35A
100
AcDbEntity
  8
M0
 62
   234
100
AcDbLine
 10
309.34003
 20
780.392144
 11
312.84003
 21
780.392143
  0
LINE
  5
35B
100
AcDbEntity
  8
M0
 62
   234
100
AcDbLine
 10
319.340021
 20
750.892141
 11
311.340021
 21
750.892144
  0
LINE
  5
35C
100
AcDbEntity
  8
M0
 62
   234
100
AcDbLine
 10
309.340018
 20
741.642148
 11
321.340018
 21
741.642144
  0
LINE
  5
35D
100
AcDbEntity
  8
M0
 62
   234
100
AcDbLine
 10
309.34002
 20
749.142148
 11
321.34002
 21
749.142144
  0
LINE
  5
35E
100
AcDbEntity
  8
M0
 62
   234
100
AcDbLine
 10
319.340028
 20
773.892141
 11
319.340021
 21
750.892141
  0
LINE
  5
35F
100
AcDbEntity
  8
M0
 62
   234
100
AcDbLine
 10
311.340028
 20
771.892144
 11
311.340021
 21
750.892144
  0
LINE
  5
360
100
AcDbEntity
  8
M0
 62
   234
100
AcDbLine
 10
311.340018
 20
739.892148
 11
311.340011
 21
718.892148
  0
LINE
  5
361
100
AcDbEntity
  8
M0
 62
   234
100
AcDbLine
 10
317.34002
 20
749.142146
 11
317.34002
 21
748.142146
  0
LINE
  5
362
100
AcDbEntity
  8
M0
 62
   234
100
AcDbLine
 10
320.34002
 20
748.142145
 11
317.34002
 21
748.142146
  0
LINE
  5
363
100
AcDbEntity
  8
M0
 62
   234
100
AcDbLine
 10
320.34002
 20
749.142145
 11
320.340018
 21
741.642145
  0
LINE
  5
364
100
AcDbEntity
  8
M0
 62
   234
100
AcDbLine
 10
320.340018
 20
742.642145
 11
317.340018
 21
742.642146
  0
LINE
  5
365
100
AcDbEntity
  8
M0
 62
   234
100
AcDbLine
 10
317.340018
 20
742.642146
 11
317.340018
 21
741.642146
  0
LINE
  5
366
100
AcDbEntity
  8
M0
 62
   234
100
AcDbLine
 10
312.84002
 20
748.142147
 11
312.840018
 21
742.642147
  0
LINE
  5
367
100
AcDbEntity
  8
M0
 62
   234
100
AcDbLine
 10
314.34002
 20
749.142147
 11
314.340018
 21
741.642147
  0
LINE
  5
368
100
AcDbEntity
  8
M0
 62
   234
100
AcDbLine
 10
314.340018
 20
742.642147
 11
309.340018
 21
742.642148
  0
LINE
  5
369
100
AcDbEntity
  8
M0
 62
   234
100
AcDbLine
 10
314.34002
 20
748.142147
 11
309.34002
 21
748.142148
  0
LINE
  5
36A
100
AcDbEntity
  8
M0
 62
   234
100
AcDbLine
 10
316.840011
 20
718.892147
 11
316.84001
 21
714.392157
  0
ARC
  5
36B
100
AcDbEntity
  8
M0
 62
   234
100
AcDbCircle
 10
312.84001
 20
714.392159
 40
4.0
100
AcDbArc
 50
-90.0
 51
0.000201
  0
LINE
  5
36C
100
AcDbEntity
  8
M0
 62
   234
100
AcDbLine
 10
309.340008
 20
710.39216
 11
312.840008
 21
710.392159
  0
ARC
  5
36D
100
AcDbEntity
  8
M0
 62
   234
100
AcDbCircle
 10
319.84001
 20
716.892156
 40
0.5
100
AcDbArc
 50
179.999982
 51
270.0
  0
LINE
  5
36E
100
AcDbEntity
  8
M0
 62
   234
100
AcDbLine
 10
319.84001
 20
716.392156
 11
321.34001
 21
716.392156
  0
LINE
  5
36F
100
AcDbEntity
  8
M0
 62
   234
100
AcDbLine
 10
319.340018
 20
739.892145
 11
319.34001
 21
716.892156
  0
LINE
  5
370
100
AcDbEntity
  8
M0
 62
   234
100
AcDbLine
 10
319.340018
 20
739.892145
 11
311.340018
 21
739.892148
  0
CIRCLE
  5
371
100
AcDbEntity
  8
M0
100
AcDbCircle
 10
315.340029
 20
725.392147
 40
3.0
  0
LINE
  5
372
100
AcDbEntity
  8
M0
100
AcDbLine
 10
312.381045
 20
721.444805
 11
311.564883
 21
724.092098
  0
LINE
  5
373
100
AcDbEntity
  8
M0
100
AcDbLine
 10
312.381045
 20
729.339396
 11
311.564883
 21
726.692073
  0
LINE
  5
374
100
AcDbEntity
  8
M0
100
AcDbLine
 10
318.298525
 20
721.44479
 11
319.114931
 21
724.092098
  0
LINE
  5
375
100
AcDbEntity
  8
M0
100
AcDbLine
 10
318.298525
 20
729.339412
 11
319.114931
 21
726.692073
  0
LINE
  5
376
100
AcDbEntity
  8
M0
100
AcDbLine
 10
312.859072
 20
729.692073
 11
317.820742
 21
729.692073
  0
LINE
  5
377
100
AcDbEntity
  8
M0
100
AcDbLine
 10
319.114931
 20
726.692073
 11
319.114931
 21
724.092098
  0
LINE
  5
378
100
AcDbEntity
  8
M0
100
AcDbLine
 10
317.820742
 20
721.092098
 11
312.859072
 21
721.092113
  0
LINE
  5
379
100
AcDbEntity
  8
M0
100
AcDbLine
 10
311.564883
 20
724.092098
 11
311.564883
 21
726.692073
  0
LINE
  5
37A
100
AcDbEntity
  8
M0
  6
DASHDOT
100
AcDbLine
 10
309.064884
 20
725.392147
 11
321.614931
 21
725.392147
  0
LINE
  5
37B
100
AcDbEntity
  8
M0
100
AcDbLine
 10
316.930605
 20
726.982966
 11
313.748965
 21
723.801205
  0
LINE
  5
37C
100
AcDbEntity
  8
M0
100
AcDbLine
 10
315.693301
 20
723.977962
 11
313.925722
 21
725.745663
  0
LINE
  5
37D
100
AcDbEntity
  8
M0
100
AcDbLine
 10
316.753847
 20
725.038631
 11
314.986269
 21
726.806209
  0
ARC
  5
37E
100
AcDbEntity
  8
M0
100
AcDbCircle
 10
312.859072
 20
721.592113
 40
0.5
100
AcDbArc
 50
197.127146
 51
270.0
  0
ARC
  5
37F
100
AcDbEntity
  8
M0
100
AcDbCircle
 10
312.859072
 20
729.192073
 40
0.5
100
AcDbArc
 50
90.0
 51
162.871263
  0
ARC
  5
380
100
AcDbEntity
  8
M0
100
AcDbCircle
 10
317.820742
 20
729.192073
 40
0.5
100
AcDbArc
 50
17.138555
 51
90.0
  0
ARC
  5
381
100
AcDbEntity
  8
M0
100
AcDbCircle
 10
317.820742
 20
721.592113
 40
0.5
100
AcDbArc
 50
270.0
 51
342.862931
  0
LINE
  5
382
100
AcDbEntity
  8
M0
  6
DASHDOT
100
AcDbLine
 10
315.340029
 20
732.192058
 11
315.340029
 21
718.016749
  0
CIRCLE
  5
383
100
AcDbEntity
  8
M0
100
AcDbCircle
 10
315.340026
 20
734.892147
 40
3.0
  0
LINE
  5
384
100
AcDbEntity
  8
M0
100
AcDbLine
 10
312.381042
 20
730.944805
 11
311.56488
 21
733.592098
  0
LINE
  5
385
100
AcDbEntity
  8
M0
100
AcDbLine
 10
312.381042
 20
738.839396
 11
311.56488
 21
736.192073
  0
LINE
  5
386
100
AcDbEntity
  8
M0
100
AcDbLine
 10
318.298522
 20
730.94479
 11
319.114928
 21
733.592098
  0
LINE
  5
387
100
AcDbEntity
  8
M0
100
AcDbLine
 10
318.298522
 20
738.839412
 11
319.114928
 21
736.192073
  0
LINE
  5
388
100
AcDbEntity
  8
M0
100
AcDbLine
 10
312.859069
 20
739.192073
 11
317.820739
 21
739.192073
  0
LINE
  5
389
100
AcDbEntity
  8
M0
100
AcDbLine
 10
319.114928
 20
736.192073
 11
319.114928
 21
733.592098
  0
LINE
  5
38A
100
AcDbEntity
  8
M0
100
AcDbLine
 10
317.820739
 20
730.592098
 11
312.859069
 21
730.592113
  0
LINE
  5
38B
100
AcDbEntity
  8
M0
100
AcDbLine
 10
311.56488
 20
733.592098
 11
311.56488
 21
736.192073
  0
LINE
  5
38C
100
AcDbEntity
  8
M0
  6
DASHDOT
100
AcDbLine
 10
309.064881
 20
734.892147
 11
321.614928
 21
734.892147
  0
LINE
  5
38D
100
AcDbEntity
  8
M0
100
AcDbLine
 10
316.930602
 20
736.482966
 11
313.748962
 21
733.301205
  0
LINE
  5
38E
100
AcDbEntity
  8
M0
100
AcDbLine
 10
315.693298
 20
733.477962
 11
313.925719
 21
735.245663
  0
LINE
  5
38F
100
AcDbEntity
  8
M0
100
AcDbLine
 10
316.753844
 20
734.538631
 11
314.986266
 21
736.306209
  0
ARC
  5
390
100
AcDbEntity
  8
M0
100
AcDbCircle
 10
312.859069
 20
731.092113
 40
0.5
100
AcDbArc
 50
197.127146
 51
270.0
  0
ARC
  5
391
100
AcDbEntity
  8
M0
100
AcDbCircle
 10
312.859069
 20
738.692073
 40
0.5
100
AcDbArc
 50
90.0
 51
162.871263
  0
ARC
  5
392
100
AcDbEntity
  8
M0
100
AcDbCircle
 10
317.820739
 20
738.692073
 40
0.5
100
AcDbArc
 50
17.138555
 51
90.0
  0
ARC
  5
393
100
AcDbEntity
  8
M0
100
AcDbCircle
 10
317.820739
 20
731.092113
 40
0.5
100
AcDbArc
 50
270.0
 51
342.862931
  0
LINE
  5
394
100
AcDbEntity
  8
M0
  6
DASHDOT
100
AcDbLine
 10
315.340026
 20
741.692058
 11
315.340026
 21
727.516749
  0
CIRCLE
  5
395
100
AcDbEntity
  8
M0
100
AcDbCircle
 10
315.340026
 20
755.892147
 40
3.0
  0
LINE
  5
396
100
AcDbEntity
  8
M0
100
AcDbLine
 10
312.381042
 20
759.839489
 11
311.56488
 21
757.192196
  0
LINE
  5
397
100
AcDbEntity
  8
M0
100
AcDbLine
 10
312.381042
 20
751.944898
 11
311.56488
 21
754.592221
  0
LINE
  5
398
100
AcDbEntity
  8
M0
100
AcDbLine
 10
318.298522
 20
759.839504
 11
319.114928
 21
757.192196
  0
LINE
  5
399
100
AcDbEntity
  8
M0
100
AcDbLine
 10
318.298522
 20
751.944882
 11
319.114928
 21
754.592221
  0
LINE
  5
39A
100
AcDbEntity
  8
M0
100
AcDbLine
 10
312.859069
 20
751.592221
 11
317.820739
 21
751.592221
  0
LINE
  5
39B
100
AcDbEntity
  8
M0
100
AcDbLine
 10
319.114928
 20
754.592221
 11
319.114928
 21
757.192196
  0
LINE
  5
39C
100
AcDbEntity
  8
M0
100
AcDbLine
 10
317.820739
 20
760.192196
 11
312.859069
 21
760.192181
  0
LINE
  5
39D
100
AcDbEntity
  8
M0
100
AcDbLine
 10
311.56488
 20
757.192196
 11
311.56488
 21
754.592221
  0
LINE
  5
39E
100
AcDbEntity
  8
M0
  6
DASHDOT
100
AcDbLine
 10
309.064881
 20
755.892147
 11
321.614928
 21
755.892147
  0
LINE
  5
39F
100
AcDbEntity
  8
M0
100
AcDbLine
 10
316.930602
 20
754.301328
 11
313.748962
 21
757.483089
  0
LINE
  5
3A0
100
AcDbEntity
  8
M0
100
AcDbLine
 10
315.693298
 20
757.306332
 11
313.925719
 21
755.538632
  0
LINE
  5
3A1
100
AcDbEntity
  8
M0
100
AcDbLine
 10
316.753844
 20
756.245663
 11
314.986266
 21
754.478086
  0
ARC
  5
3A2
100
AcDbEntity
  8
M0
100
AcDbCircle
 10
312.859069
 20
759.692181
 40
0.5
100
AcDbArc
 50
90.0
 51
162.872854
  0
ARC
  5
3A3
100
AcDbEntity
  8
M0
100
AcDbCircle
 10
312.859069
 20
752.092221
 40
0.5
100
AcDbArc
 50
197.128737
 51
270.0
  0
ARC
  5
3A4
100
AcDbEntity
  8
M0
100
AcDbCircle
 10
317.820739
 20
752.092221
 40
0.5
100
AcDbArc
 50
270.0
 51
342.861445
  0
ARC
  5
3A5
100
AcDbEntity
  8
M0
100
AcDbCircle
 10
317.820739
 20
759.692181
 40
0.5
100
AcDbArc
 50
17.137069
 51
90.0
  0
LINE
  5
3A6
100
AcDbEntity
  8
M0
  6
DASHDOT
100
AcDbLine
 10
315.340026
 20
749.092237
 11
315.340026
 21
763.267545
  0
CIRCLE
  5
3A7
100
AcDbEntity
  8
M0
100
AcDbCircle
 10
315.340029
 20
765.392147
 40
3.0
  0
LINE
  5
3A8
100
AcDbEntity
  8
M0
100
AcDbLine
 10
312.381045
 20
769.339489
 11
311.564883
 21
766.692196
  0
LINE
  5
3A9
100
AcDbEntity
  8
M0
100
AcDbLine
 10
312.381045
 20
761.444898
 11
311.564883
 21
764.092221
  0
LINE
  5
3AA
100
AcDbEntity
  8
M0
100
AcDbLine
 10
318.298525
 20
769.339504
 11
319.114931
 21
766.692196
  0
LINE
  5
3AB
100
AcDbEntity
  8
M0
100
AcDbLine
 10
318.298525
 20
761.444882
 11
319.114931
 21
764.092221
  0
LINE
  5
3AC
100
AcDbEntity
  8
M0
100
AcDbLine
 10
312.859072
 20
761.092221
 11
317.820742
 21
761.092221
  0
LINE
  5
3AD
100
AcDbEntity
  8
M0
100
AcDbLine
 10
319.114931
 20
764.092221
 11
319.114931
 21
766.692196
  0
LINE
  5
3AE
100
AcDbEntity
  8
M0
100
AcDbLine
 10
317.820742
 20
769.692196
 11
312.859072
 21
769.692181
  0
LINE
  5
3AF
100
AcDbEntity
  8
M0
100
AcDbLine
 10
311.564883
 20
766.692196
 11
311.564883
 21
764.092221
  0
LINE
  5
3B0
100
AcDbEntity
  8
M0
  6
DASHDOT
100
AcDbLine
 10
309.064884
 20
765.392147
 11
321.614931
 21
765.392147
  0
LINE
  5
3B1
100
AcDbEntity
  8
M0
100
AcDbLine
 10
316.930605
 20
763.801328
 11
313.748965
 21
766.983089
  0
LINE
  5
3B2
100
AcDbEntity
  8
M0
100
AcDbLine
 10
315.693301
 20
766.806332
 11
313.925722
 21
765.038632
  0
LINE
  5
3B3
100
AcDbEntity
  8
M0
100
AcDbLine
 10
316.753847
 20
765.745663
 11
314.986269
 21
763.978086
  0
ARC
  5
3B4
100
AcDbEntity
  8
M0
100
AcDbCircle
 10
312.859072
 20
769.192181
 40
0.5
100
AcDbArc
 50
90.0
 51
162.872854
  0
ARC
  5
3B5
100
AcDbEntity
  8
M0
100
AcDbCircle
 10
312.859072
 20
761.592221
 40
0.5
100
AcDbArc
 50
197.128737
 51
270.0
  0
ARC
  5
3B6
100
AcDbEntity
  8
M0
100
AcDbCircle
 10
317.820742
 20
761.592221
 40
0.5
100
AcDbArc
 50
270.0
 51
342.861445
  0
ARC
  5
3B7
100
AcDbEntity
  8
M0
100
AcDbCircle
 10
317.820742
 20
769.192181
 40
0.5
100
AcDbArc
 50
17.137069
 51
90.0
  0
LINE
  5
3B8
100
AcDbEntity
  8
M0
  6
DASHDOT
100
AcDbLine
 10
315.340029
 20
758.592237
 11
315.340029
 21
772.767545
  0
CIRCLE
  5
3B9
100
AcDbEntity
  8
M0
100
AcDbCircle
 10
327.34003
 20
765.392147
 40
3.0
  0
LINE
  5
3BA
100
AcDbEntity
  8
M0
100
AcDbLine
 10
324.381046
 20
769.339489
 11
323.564883
 21
766.692196
  0
LINE
  5
3BB
100
AcDbEntity
  8
M0
100
AcDbLine
 10
324.381046
 20
761.444898
 11
323.564883
 21
764.092221
  0
LINE
  5
3BC
100
AcDbEntity
  8
M0
100
AcDbLine
 10
330.298526
 20
769.339504
 11
331.114932
 21
766.692196
  0
LINE
  5
3BD
100
AcDbEntity
  8
M0
100
AcDbLine
 10
330.298526
 20
761.444882
 11
331.114932
 21
764.092221
  0
LINE
  5
3BE
100
AcDbEntity
  8
M0
100
AcDbLine
 10
324.859073
 20
761.092221
 11
329.820743
 21
761.092221
  0
LINE
  5
3BF
100
AcDbEntity
  8
M0
100
AcDbLine
 10
331.114932
 20
764.092221
 11
331.114932
 21
766.692196
  0
LINE
  5
3C0
100
AcDbEntity
  8
M0
100
AcDbLine
 10
329.820743
 20
769.692196
 11
324.859073
 21
769.692181
  0
LINE
  5
3C1
100
AcDbEntity
  8
M0
100
AcDbLine
 10
323.564883
 20
766.692196
 11
323.564883
 21
764.092221
  0
LINE
  5
3C2
100
AcDbEntity
  8
M0
  6
DASHDOT
100
AcDbLine
 10
321.064884
 20
765.392147
 11
333.614932
 21
765.392147
  0
LINE
  5
3C3
100
AcDbEntity
  8
M0
100
AcDbLine
 10
328.930606
 20
763.801328
 11
325.748965
 21
766.983089
  0
LINE
  5
3C4
100
AcDbEntity
  8
M0
100
AcDbLine
 10
327.693301
 20
766.806332
 11
325.925723
 21
765.038632
  0
LINE
  5
3C5
100
AcDbEntity
  8
M0
100
AcDbLine
 10
328.753848
 20
765.745663
 11
326.98627
 21
763.978086
  0
ARC
  5
3C6
100
AcDbEntity
  8
M0
100
AcDbCircle
 10
324.859073
 20
769.192181
 40
0.5
100
AcDbArc
 50
90.0
 51
162.872854
  0
ARC
  5
3C7
100
AcDbEntity
  8
M0
100
AcDbCircle
 10
324.859073
 20
761.592221
 40
0.5
100
AcDbArc
 50
197.128737
 51
270.0
  0
ARC
  5
3C8
100
AcDbEntity
  8
M0
100
AcDbCircle
 10
329.820743
 20
761.592221
 40
0.5
100
AcDbArc
 50
270.0
 51
342.861445
  0
ARC
  5
3C9
100
AcDbEntity
  8
M0
100
AcDbCircle
 10
329.820743
 20
769.192181
 40
0.5
100
AcDbArc
 50
17.137069
 51
90.0
  0
LINE
  5
3CA
100
AcDbEntity
  8
M0
  6
DASHDOT
100
AcDbLine
 10
327.34003
 20
758.592237
 11
327.34003
 21
772.767545
  0
CIRCLE
  5
3CB
100
AcDbEntity
  8
M0
100
AcDbCircle
 10
327.340027
 20
755.892147
 40
3.0
  0
LINE
  5
3CC
100
AcDbEntity
  8
M0
100
AcDbLine
 10
324.381043
 20
759.839489
 11
323.56488
 21
757.192196
  0
LINE
  5
3CD
100
AcDbEntity
  8
M0
100
AcDbLine
 10
324.381043
 20
751.944898
 11
323.56488
 21
754.592221
  0
LINE
  5
3CE
100
AcDbEntity
  8
M0
100
AcDbLine
 10
330.298523
 20
759.839504
 11
331.114929
 21
757.192196
  0
LINE
  5
3CF
100
AcDbEntity
  8
M0
100
AcDbLine
 10
330.298523
 20
751.944882
 11
331.114929
 21
754.592221
  0
LINE
  5
3D0
100
AcDbEntity
  8
M0
100
AcDbLine
 10
324.85907
 20
751.592221
 11
329.82074
 21
751.592221
  0
LINE
  5
3D1
100
AcDbEntity
  8
M0
100
AcDbLine
 10
331.114929
 20
754.592221
 11
331.114929
 21
757.192196
  0
LINE
  5
3D2
100
AcDbEntity
  8
M0
100
AcDbLine
 10
329.82074
 20
760.192196
 11
324.85907
 21
760.192181
  0
LINE
  5
3D3
100
AcDbEntity
  8
M0
100
AcDbLine
 10
323.56488
 20
757.192196
 11
323.56488
 21
754.592221
  0
LINE
  5
3D4
100
AcDbEntity
  8
M0
  6
DASHDOT
100
AcDbLine
 10
321.064881
 20
755.892147
 11
333.614929
 21
755.892147
  0
LINE
  5
3D5
100
AcDbEntity
  8
M0
100
AcDbLine
 10
328.930603
 20
754.301328
 11
325.748962
 21
757.483089
  0
LINE
  5
3D6
100
AcDbEntity
  8
M0
100
AcDbLine
 10
327.693298
 20
757.306332
 11
325.92572
 21
755.538632
  0
LINE
  5
3D7
100
AcDbEntity
  8
M0
100
AcDbLine
 10
328.753845
 20
756.245663
 11
326.986267
 21
754.478086
  0
ARC
  5
3D8
100
AcDbEntity
  8
M0
100
AcDbCircle
 10
324.85907
 20
759.692181
 40
0.5
100
AcDbArc
 50
90.0
 51
162.872854
  0
ARC
  5
3D9
100
AcDbEntity
  8
M0
100
AcDbCircle
 10
324.85907
 20
752.092221
 40
0.5
100
AcDbArc
 50
197.128737
 51
270.0
  0
ARC
  5
3DA
100
AcDbEntity
  8
M0
100
AcDbCircle
 10
329.82074
 20
752.092221
 40
0.5
100
AcDbArc
 50
270.0
 51
342.861445
  0
ARC
  5
3DB
100
AcDbEntity
  8
M0
100
AcDbCircle
 10
329.82074
 20
759.692181
 40
0.5
100
AcDbArc
 50
17.137069
 51
90.0
  0
LINE
  5
3DC
100
AcDbEntity
  8
M0
  6
DASHDOT
100
AcDbLine
 10
327.340027
 20
749.092237
 11
327.340027
 21
763.267545
  0
CIRCLE
  5
3DD
100
AcDbEntity
  8
M0
100
AcDbCircle
 10
327.340027
 20
734.892147
 40
3.0
  0
LINE
  5
3DE
100
AcDbEntity
  8
M0
100
AcDbLine
 10
324.381043
 20
730.944805
 11
323.56488
 21
733.592098
  0
LINE
  5
3DF
100
AcDbEntity
  8
M0
100
AcDbLine
 10
324.381043
 20
738.839396
 11
323.56488
 21
736.192073
  0
LINE
  5
3E0
100
AcDbEntity
  8
M0
100
AcDbLine
 10
330.298523
 20
730.94479
 11
331.114929
 21
733.592098
  0
LINE
  5
3E1
100
AcDbEntity
  8
M0
100
AcDbLine
 10
330.298523
 20
738.839412
 11
331.114929
 21
736.192073
  0
LINE
  5
3E2
100
AcDbEntity
  8
M0
100
AcDbLine
 10
324.85907
 20
739.192073
 11
329.82074
 21
739.192073
  0
LINE
  5
3E3
100
AcDbEntity
  8
M0
100
AcDbLine
 10
331.114929
 20
736.192073
 11
331.114929
 21
733.592098
  0
LINE
  5
3E4
100
AcDbEntity
  8
M0
100
AcDbLine
 10
329.82074
 20
730.592098
 11
324.85907
 21
730.592113
  0
LINE
  5
3E5
100
AcDbEntity
  8
M0
100
AcDbLine
 10
323.56488
 20
733.592098
 11
323.56488
 21
736.192073
  0
LINE
  5
3E6
100
AcDbEntity
  8
M0
  6
DASHDOT
100
AcDbLine
 10
321.064881
 20
734.892147
 11
333.614929
 21
734.892147
  0
LINE
  5
3E7
100
AcDbEntity
  8
M0
100
AcDbLine
 10
328.930603
 20
736.482966
 11
325.748962
 21
733.301205
  0
LINE
  5
3E8
100
AcDbEntity
  8
M0
100
AcDbLine
 10
327.693298
 20
733.477962
 11
325.92572
 21
735.245663
  0
LINE
  5
3E9
100
AcDbEntity
  8
M0
100
AcDbLine
 10
328.753845
 20
734.538631
 11
326.986267
 21
736.306209
  0
ARC
  5
3EA
100
AcDbEntity
  8
M0
100
AcDbCircle
 10
324.85907
 20
731.092113
 40
0.5
100
AcDbArc
 50
197.127146
 51
270.0
  0
ARC
  5
3EB
100
AcDbEntity
  8
M0
100
AcDbCircle
 10
324.85907
 20
738.692073
 40
0.5
100
AcDbArc
 50
90.0
 51
162.871263
  0
ARC
  5
3EC
100
AcDbEntity
  8
M0
100
AcDbCircle
 10
329.82074
 20
738.692073
 40
0.5
100
AcDbArc
 50
17.138555
 51
90.0
  0
ARC
  5
3ED
100
AcDbEntity
  8
M0
100
AcDbCircle
 10
329.82074
 20
731.092113
 40
0.5
100
AcDbArc
 50
270.0
 51
342.862931
  0
LINE
  5
3EE
100
AcDbEntity
  8
M0
  6
DASHDOT
100
AcDbLine
 10
327.340027
 20
741.692058
 11
327.340027
 21
727.516749
  0
CIRCLE
  5
3EF
100
AcDbEntity
  8
M0
100
AcDbCircle
 10
327.34003
 20
725.392147
 40
3.0
  0
LINE
  5
3F0
100
AcDbEntity
  8
M0
100
AcDbLine
 10
324.381046
 20
721.444805
 11
323.564883
 21
724.092098
  0
LINE
  5
3F1
100
AcDbEntity
  8
M0
100
AcDbLine
 10
324.381046
 20
729.339396
 11
323.564883
 21
726.692073
  0
LINE
  5
3F2
100
AcDbEntity
  8
M0
100
AcDbLine
 10
330.298526
 20
721.44479
 11
331.114932
 21
724.092098
  0
LINE
  5
3F3
100
AcDbEntity
  8
M0
100
AcDbLine
 10
330.298526
 20
729.339412
 11
331.114932
 21
726.692073
  0
LINE
  5
3F4
100
AcDbEntity
  8
M0
100
AcDbLine
 10
324.859073
 20
729.692073
 11
329.820743
 21
729.692073
  0
LINE
  5
3F5
100
AcDbEntity
  8
M0
100
AcDbLine
 10
331.114932
 20
726.692073
 11
331.114932
 21
724.092098
  0
LINE
  5
3F6
100
AcDbEntity
  8
M0
100
AcDbLine
 10
329.820743
 20
721.092098
 11
324.859073
 21
721.092113
  0
LINE
  5
3F7
100
AcDbEntity
  8
M0
100
AcDbLine
 10
323.564883
 20
724.092098
 11
323.564883
 21
726.692073
  0
LINE
  5
3F8
100
AcDbEntity
  8
M0
  6
DASHDOT
100
AcDbLine
 10
321.064884
 20
725.392147
 11
333.614932
 21
725.392147
  0
LINE
  5
3F9
100
AcDbEntity
  8
M0
100
AcDbLine
 10
328.930606
 20
726.982966
 11
325.748965
 21
723.801205
  0
LINE
  5
3FA
100
AcDbEntity
  8
M0
100
AcDbLine
 10
327.693301
 20
723.977962
 11
325.925723
 21
725.745663
  0
LINE
  5
3FB
100
AcDbEntity
  8
M0
100
AcDbLine
 10
328.753848
 20
725.038631
 11
326.98627
 21
726.806209
  0
ARC
  5
3FC
100
AcDbEntity
  8
M0
100
AcDbCircle
 10
324.859073
 20
721.592113
 40
0.5
100
AcDbArc
 50
197.127146
 51
270.0
  0
ARC
  5
3FD
100
AcDbEntity
  8
M0
100
AcDbCircle
 10
324.859073
 20
729.192073
 40
0.5
100
AcDbArc
 50
90.0
 51
162.871263
  0
ARC
  5
3FE
100
AcDbEntity
  8
M0
100
AcDbCircle
 10
329.820743
 20
729.192073
 40
0.5
100
AcDbArc
 50
17.138555
 51
90.0
  0
ARC
  5
3FF
100
AcDbEntity
  8
M0
100
AcDbCircle
 10
329.820743
 20
721.592113
 40
0.5
100
AcDbArc
 50
270.0
 51
342.862931
  0
LINE
  5
400
100
AcDbEntity
  8
M0
  6
DASHDOT
100
AcDbLine
 10
327.34003
 20
732.192058
 11
327.34003
 21
718.016749
  0
CIRCLE
  5
401
100
AcDbEntity
  8
M0
100
AcDbCircle
 10
339.840023
 20
725.192147
 40
3.0
  0
LINE
  5
402
100
AcDbEntity
  8
M0
100
AcDbLine
 10
336.881039
 20
721.244805
 11
336.064876
 21
723.892098
  0
LINE
  5
403
100
AcDbEntity
  8
M0
100
AcDbLine
 10
336.881039
 20
729.139396
 11
336.064876
 21
726.492073
  0
LINE
  5
404
100
AcDbEntity
  8
M0
100
AcDbLine
 10
342.798519
 20
721.24479
 11
343.614925
 21
723.892098
  0
LINE
  5
405
100
AcDbEntity
  8
M0
100
AcDbLine
 10
342.798519
 20
729.139412
 11
343.614925
 21
726.492073
  0
LINE
  5
406
100
AcDbEntity
  8
M0
100
AcDbLine
 10
337.359066
 20
729.492073
 11
342.320736
 21
729.492073
  0
LINE
  5
407
100
AcDbEntity
  8
M0
100
AcDbLine
 10
343.614925
 20
726.492073
 11
343.614925
 21
723.892098
  0
LINE
  5
408
100
AcDbEntity
  8
M0
100
AcDbLine
 10
342.320736
 20
720.892098
 11
337.359066
 21
720.892113
  0
LINE
  5
409
100
AcDbEntity
  8
M0
100
AcDbLine
 10
336.064876
 20
723.892098
 11
336.064876
 21
726.492073
  0
LINE
  5
40A
100
AcDbEntity
  8
M0
  6
DASHDOT
100
AcDbLine
 10
333.564877
 20
725.192147
 11
346.114925
 21
725.192147
  0
LINE
  5
40B
100
AcDbEntity
  8
M0
100
AcDbLine
 10
341.430599
 20
726.782966
 11
338.248958
 21
723.601205
  0
LINE
  5
40C
100
AcDbEntity
  8
M0
100
AcDbLine
 10
340.193294
 20
723.777962
 11
338.425716
 21
725.545663
  0
LINE
  5
40D
100
AcDbEntity
  8
M0
100
AcDbLine
 10
341.253841
 20
724.838631
 11
339.486263
 21
726.606209
  0
ARC
  5
40E
100
AcDbEntity
  8
M0
100
AcDbCircle
 10
337.359066
 20
721.392113
 40
0.5
100
AcDbArc
 50
197.127146
 51
270.0
  0
ARC
  5
40F
100
AcDbEntity
  8
M0
100
AcDbCircle
 10
337.359066
 20
728.992073
 40
0.5
100
AcDbArc
 50
90.0
 51
162.871263
  0
ARC
  5
410
100
AcDbEntity
  8
M0
100
AcDbCircle
 10
342.320736
 20
728.992073
 40
0.5
100
AcDbArc
 50
17.138555
 51
90.0
  0
ARC
  5
411
100
AcDbEntity
  8
M0
100
AcDbCircle
 10
342.320736
 20
721.392113
 40
0.5
100
AcDbArc
 50
270.0
 51
342.862931
  0
LINE
  5
412
100
AcDbEntity
  8
M0
  6
DASHDOT
100
AcDbLine
 10
339.840023
 20
731.992058
 11
339.840023
 21
717.816749
  0
CIRCLE
  5
413
100
AcDbEntity
  8
M0
100
AcDbCircle
 10
339.840035
 20
765.192147
 40
3.0
  0
LINE
  5
414
100
AcDbEntity
  8
M0
100
AcDbLine
 10
336.881051
 20
761.244805
 11
336.064889
 21
763.892098
  0
LINE
  5
415
100
AcDbEntity
  8
M0
100
AcDbLine
 10
336.881051
 20
769.139396
 11
336.064889
 21
766.492073
  0
LINE
  5
416
100
AcDbEntity
  8
M0
100
AcDbLine
 10
342.798532
 20
761.24479
 11
343.614938
 21
763.892098
  0
LINE
  5
417
100
AcDbEntity
  8
M0
100
AcDbLine
 10
342.798532
 20
769.139412
 11
343.614938
 21
766.492073
  0
LINE
  5
418
100
AcDbEntity
  8
M0
100
AcDbLine
 10
337.359078
 20
769.492073
 11
342.320748
 21
769.492073
  0
LINE
  5
419
100
AcDbEntity
  8
M0
100
AcDbLine
 10
343.614938
 20
766.492073
 11
343.614938
 21
763.892098
  0
LINE
  5
41A
100
AcDbEntity
  8
M0
100
AcDbLine
 10
342.320748
 20
760.892098
 11
337.359078
 21
760.892113
  0
LINE
  5
41B
100
AcDbEntity
  8
M0
100
AcDbLine
 10
336.064889
 20
763.892098
 11
336.064889
 21
766.492073
  0
LINE
  5
41C
100
AcDbEntity
  8
M0
  6
DASHDOT
100
AcDbLine
 10
333.56489
 20
765.192147
 11
346.114938
 21
765.192147
  0
LINE
  5
41D
100
AcDbEntity
  8
M0
100
AcDbLine
 10
341.430612
 20
766.782966
 11
338.248971
 21
763.601205
  0
LINE
  5
41E
100
AcDbEntity
  8
M0
100
AcDbLine
 10
340.193307
 20
763.777962
 11
338.425729
 21
765.545663
  0
LINE
  5
41F
100
AcDbEntity
  8
M0
100
AcDbLine
 10
341.253854
 20
764.838631
 11
339.486276
 21
766.606209
  0
ARC
  5
420
100
AcDbEntity
  8
M0
100
AcDbCircle
 10
337.359078
 20
761.392113
 40
0.5
100
AcDbArc
 50
197.127146
 51
270.0
  0
ARC
  5
421
100
AcDbEntity
  8
M0
100
AcDbCircle
 10
337.359078
 20
768.992073
 40
0.5
100
AcDbArc
 50
90.0
 51
162.871263
  0
ARC
  5
422
100
AcDbEntity
  8
M0
100
AcDbCircle
 10
342.320748
 20
768.992073
 40
0.5
100
AcDbArc
 50
17.138555
 51
90.0
  0
ARC
  5
423
100
AcDbEntity
  8
M0
100
AcDbCircle
 10
342.320748
 20
761.392113
 40
0.5
100
AcDbArc
 50
270.0
 51
342.862931
  0
LINE
  5
424
100
AcDbEntity
  8
M0
  6
DASHDOT
100
AcDbLine
 10
339.840035
 20
771.992058
 11
339.840035
 21
757.816749
  0
LINE
  5
425
100
AcDbEntity
  8
M0
 62
     6
100
AcDbLine
 10
339.840019
 20
808.192147
 11
327.840019
 21
808.192147
  0
LINE
  5
426
100
AcDbEntity
  8
M0
 62
     6
100
AcDbLine
 10
339.840019
 20
810.192147
 11
327.840019
 21
810.192147
  0
LINE
  5
427
100
AcDbEntity
  8
M0
 62
     6
100
AcDbLine
 10
334.840019
 20
812.192147
 11
323.440019
 21
812.192147
  0
LINE
  5
428
100
AcDbEntity
  8
M0
 62
     6
100
AcDbLine
 10
330.140019
 20
841.192147
 11
330.140019
 21
839.692147
  0
LINE
  5
429
100
AcDbEntity
  8
M0
 62
     6
100
AcDbLine
 10
329.140019
 20
841.192147
 11
329.140019
 21
839.692147
  0
LINE
  5
42A
100
AcDbEntity
  8
M0
 62
     6
100
AcDbLine
 10
329.140019
 20
841.192147
 11
330.140019
 21
841.192147
  0
LINE
  5
42B
100
AcDbEntity
  8
M0
 62
     6
100
AcDbLine
 10
334.140019
 20
839.692147
 11
325.140019
 21
839.692147
  0
LINE
  5
42C
100
AcDbEntity
  8
M0
 62
     6
100
AcDbLine
 10
334.140019
 20
824.192147
 11
334.140019
 21
839.692147
  0
LINE
  5
42D
100
AcDbEntity
  8
M0
 62
     6
100
AcDbLine
 10
342.840019
 20
837.192147
 11
334.140019
 21
837.192147
  0
LINE
  5
42E
100
AcDbEntity
  8
M0
 62
     6
100
AcDbLine
 10
323.440019
 20
824.192147
 11
344.240019
 21
824.192147
  0
LINE
  5
42F
100
AcDbEntity
  8
M0
 62
     6
100
AcDbLine
 10
324.840019
 20
814.192147
 11
332.840019
 21
814.192147
  0
LINE
  5
430
100
AcDbEntity
  8
M0
 62
     6
100
AcDbLine
 10
324.840019
 20
824.192147
 11
324.840019
 21
814.192147
  0
LINE
  5
431
100
AcDbEntity
  8
M0
 62
     6
100
AcDbLine
 10
332.840019
 20
824.192147
 11
332.840019
 21
814.192147
  0
LINE
  5
432
100
AcDbEntity
  8
M0
 62
     6
100
AcDbLine
 10
342.840019
 20
837.192147
 11
342.840019
 21
824.192147
  0
LINE
  5
433
100
AcDbEntity
  8
M0
 62
     6
100
AcDbLine
 10
334.840019
 20
837.192147
 11
334.840019
 21
824.192147
  0
LINE
  5
434
100
AcDbEntity
  8
M0
 62
     6
100
AcDbLine
 10
332.840019
 20
823.692147
 11
324.840019
 21
823.692147
  0
LINE
  5
435
100
AcDbEntity
  8
M0
 62
     6
100
AcDbLine
 10
342.840019
 20
833.692147
 11
334.840019
 21
833.692147
  0
LINE
  5
436
100
AcDbEntity
  8
M0
 62
     6
100
AcDbLine
 10
338.840019
 20
814.692147
 11
334.840019
 21
814.692147
  0
LINE
  5
437
100
AcDbEntity
  8
M0
 62
     6
100
AcDbLine
 10
333.840019
 20
780.192147
 11
326.089018
 21
780.192147
  0
LINE
  5
438
100
AcDbEntity
  8
M0
 62
     6
100
AcDbLine
 10
333.840019
 20
778.192147
 11
328.412142
 21
778.192147
  0
LINE
  5
439
100
AcDbEntity
  8
M0
 62
     6
100
AcDbLine
 10
339.890019
 20
648.092147
 11
341.840019
 21
648.092147
  0
LINE
  5
43A
100
AcDbEntity
  8
M0
 62
     6
100
AcDbLine
 10
337.790019
 20
648.092147
 11
337.790019
 21
633.092147
  0
LINE
  5
43B
100
AcDbEntity
  8
M0
 62
     6
100
AcDbLine
 10
339.890019
 20
648.092147
 11
339.890019
 21
633.092147
  0
LINE
  5
43C
100
AcDbEntity
  8
M0
 62
     6
100
AcDbLine
 10
341.840019
 20
633.092147
 11
341.840019
 21
648.092147
  0
LINE
  5
43D
100
AcDbEntity
  8
M0
 62
     6
100
AcDbLine
 10
335.840019
 20
648.092147
 11
335.840019
 21
633.092147
  0
LINE
  5
43E
100
AcDbEntity
  8
M0
 62
     6
100
AcDbLine
 10
335.840019
 20
648.092147
 11
337.790019
 21
648.092147
  0
LINE
  5
43F
100
AcDbEntity
  8
M0
 62
     6
100
AcDbLine
 10
344.240019
 20
824.192147
 11
344.240019
 21
788.192146
  0
LINE
  5
440
100
AcDbEntity
  8
M0
 62
     6
100
AcDbLine
 10
342.540019
 20
633.092147
 11
342.540019
 21
615.192147
  0
LINE
  5
441
100
AcDbEntity
  8
M0
 62
     6
100
AcDbLine
 10
323.440019
 20
824.192147
 11
323.440019
 21
780.392144
  0
LINE
  5
442
100
AcDbEntity
  8
M0
 62
     6
100
AcDbLine
 10
325.140019
 20
633.092147
 11
325.140019
 21
615.192147
  0
LINE
  5
443
100
AcDbEntity
  8
M0
 62
     6
100
AcDbLine
 10
323.440019
 20
633.092147
 11
344.240019
 21
633.092147
  0
CIRCLE
  5
444
100
AcDbEntity
  8
M0
 62
     6
100
AcDbCircle
 10
327.840019
 20
703.192147
 40
4.0
  0
LINE
  5
445
100
AcDbEntity
  8
M0
 62
     6
100
AcDbLine
 10
325.140019
 20
853.192147
 11
325.140019
 21
824.192147
  0
LINE
  5
446
100
AcDbEntity
  8
M0
 62
     6
100
AcDbLine
 10
342.540019
 20
853.192147
 11
342.540019
 21
837.192147
  0
LINE
  5
447
100
AcDbEntity
  8
M0
  6
DASHDOT
 62
     6
100
AcDbLine
 10
333.840019
 20
605.192147
 11
333.840019
 21
863.192147
  0
LINE
  5
448
100
AcDbEntity
  8
M0
  6
DASHDOT
 62
     6
100
AcDbLine
 10
312.340019
 20
734.192147
 11
355.340019
 21
734.192147
  0
LINE
  5
449
100
AcDbEntity
  8
M0
 62
     6
100
AcDbLine
 10
322.340019
 20
615.192147
 11
345.340019
 21
615.192147
  0
LINE
  5
44A
100
AcDbEntity
  8
M0
 62
     6
100
AcDbLine
 10
322.340019
 20
853.192147
 11
322.340019
 21
780.392144
  0
LINE
  5
44B
100
AcDbEntity
  8
M0
 62
     6
100
AcDbLine
 10
345.340019
 20
853.192147
 11
322.340019
 21
853.192147
  0
LINE
  5
44C
100
AcDbEntity
  8
M0
 62
     6
100
AcDbLine
 10
345.340019
 20
615.192147
 11
345.340019
 21
702.192145
  0
ARC
  5
44D
100
AcDbEntity
  8
M0
 62
     6
100
AcDbCircle
 10
335.840019
 20
632.092147
 40
3.0
100
AcDbArc
 50
270.0
 51
360.0
  0
ARC
  5
44E
100
AcDbEntity
  8
M0
 62
     6
100
AcDbCircle
 10
331.840019
 20
632.092147
 40
3.0
100
AcDbArc
 50
180.0
 51
270.0
  0
LINE
  5
44F
100
AcDbEntity
  8
M0
 62
     6
100
AcDbLine
 10
335.840019
 20
629.092147
 11
331.840019
 21
629.092147
  0
LINE
  5
450
100
AcDbEntity
  8
M0
 62
     6
100
AcDbLine
 10
338.840019
 20
632.092147
 11
338.840019
 21
633.092147
  0
LINE
  5
451
100
AcDbEntity
  8
M0
 62
     6
100
AcDbLine
 10
328.840019
 20
632.092147
 11
328.840019
 21
633.092147
  0
LINE
  5
452
100
AcDbEntity
  8
M0
 62
     6
100
AcDbLine
 10
338.840019
 20
824.192147
 11
338.840019
 21
814.692147
  0
LINE
  5
453
100
AcDbEntity
  8
M0
 62
     6
100
AcDbLine
 10
334.840019
 20
812.192147
 11
334.840019
 21
814.692147
  0
ARC
  5
454
100
AcDbEntity
  8
M0
 62
     6
100
AcDbCircle
 10
339.840019
 20
809.192147
 40
1.0
100
AcDbArc
 50
0.0
 51
90.0
  0
ARC
  5
455
100
AcDbEntity
  8
M0
 62
     6
100
AcDbCircle
 10
339.840019
 20
809.192147
 40
1.0
100
AcDbArc
 50
270.0
 51
360.0
  0
ARC
  5
456
100
AcDbEntity
  8
M0
 62
     6
100
AcDbCircle
 10
327.840019
 20
809.192147
 40
1.0
100
AcDbArc
 50
180.0
 51
270.0
  0
ARC
  5
457
100
AcDbEntity
  8
M0
 62
     6
100
AcDbCircle
 10
327.840019
 20
809.192147
 40
1.0
100
AcDbArc
 50
90.0
 51
180.0
  0
CIRCLE
  5
458
100
AcDbEntity
  8
M0
 62
     6
100
AcDbCircle
 10
327.840019
 20
703.192147
 40
1.75
  0
ARC
  5
459
100
AcDbEntity
  8
M0
 62
     6
100
AcDbCircle
 10
339.840019
 20
703.192147
 40
4.0
100
AcDbArc
 50
194.477494
 51
345.52247
  0
ARC
  5
45A
100
AcDbEntity
  8
M0
 62
     6
100
AcDbCircle
 10
339.840019
 20
703.192147
 40
1.75
100
AcDbArc
 50
214.849887
 51
325.150077
  0
LINE
  5
45B
100
AcDbEntity
  8
M0
 62
     6
100
AcDbLine
 10
345.340019
 20
788.192145
 11
345.340019
 21
853.192147
  0
LINE
  5
45C
100
AcDbEntity
  8
M0
 62
     6
100
AcDbLine
 10
344.240019
 20
702.192146
 11
344.240019
 21
633.092147
  0
LINE
  5
45D
100
AcDbEntity
  8
M0
 62
     6
100
AcDbLine
 10
322.340019
 20
710.392165
 11
322.340019
 21
615.192147
  0
LINE
  5
45E
100
AcDbEntity
  8
M0
 62
     6
100
AcDbLine
 10
323.440019
 20
710.392162
 11
323.440019
 21
633.092147
  0
CIRCLE
  5
45F
100
AcDbEntity
  8
M0
100
AcDbCircle
 10
338.840019
 20
828.692147
 40
3.0
  0
LINE
  5
460
100
AcDbEntity
  8
M0
100
AcDbLine
 10
335.881035
 20
824.744805
 11
335.064873
 21
827.392098
  0
LINE
  5
461
100
AcDbEntity
  8
M0
100
AcDbLine
 10
335.881035
 20
832.639396
 11
335.064873
 21
829.992073
  0
LINE
  5
462
100
AcDbEntity
  8
M0
100
AcDbLine
 10
341.798516
 20
824.74479
 11
342.614922
 21
827.392098
  0
LINE
  5
463
100
AcDbEntity
  8
M0
100
AcDbLine
 10
341.798516
 20
832.639412
 11
342.614922
 21
829.992073
  0
LINE
  5
464
100
AcDbEntity
  8
M0
100
AcDbLine
 10
336.359062
 20
832.992073
 11
341.320732
 21
832.992073
  0
LINE
  5
465
100
AcDbEntity
  8
M0
100
AcDbLine
 10
342.614922
 20
829.992073
 11
342.614922
 21
827.392098
  0
LINE
  5
466
100
AcDbEntity
  8
M0
100
AcDbLine
 10
341.320732
 20
824.392098
 11
336.359062
 21
824.392113
  0
LINE
  5
467
100
AcDbEntity
  8
M0
100
AcDbLine
 10
335.064873
 20
827.392098
 11
335.064873
 21
829.992073
  0
LINE
  5
468
100
AcDbEntity
  8
M0
  6
DASHDOT
100
AcDbLine
 10
332.564874
 20
828.692147
 11
345.114922
 21
828.692147
  0
LINE
  5
469
100
AcDbEntity
  8
M0
100
AcDbLine
 10
340.430596
 20
830.282966
 11
337.248955
 21
827.101205
  0
LINE
  5
46A
100
AcDbEntity
  8
M0
100
AcDbLine
 10
339.193291
 20
827.277962
 11
337.425713
 21
829.045663
  0
LINE
  5
46B
100
AcDbEntity
  8
M0
100
AcDbLine
 10
340.253838
 20
828.338631
 11
338.48626
 21
830.106209
  0
ARC
  5
46C
100
AcDbEntity
  8
M0
100
AcDbCircle
 10
336.359062
 20
824.892113
 40
0.5
100
AcDbArc
 50
197.127146
 51
270.0
  0
ARC
  5
46D
100
AcDbEntity
  8
M0
100
AcDbCircle
 10
336.359062
 20
832.492073
 40
0.5
100
AcDbArc
 50
90.0
 51
162.871263
  0
ARC
  5
46E
100
AcDbEntity
  8
M0
100
AcDbCircle
 10
341.320732
 20
832.492073
 40
0.5
100
AcDbArc
 50
17.138555
 51
90.0
  0
ARC
  5
46F
100
AcDbEntity
  8
M0
100
AcDbCircle
 10
341.320732
 20
824.892113
 40
0.5
100
AcDbArc
 50
270.0
 51
342.862931
  0
LINE
  5
470
100
AcDbEntity
  8
M0
  6
DASHDOT
100
AcDbLine
 10
338.840019
 20
835.492058
 11
338.840019
 21
821.316749
  0
CIRCLE
  5
471
100
AcDbEntity
  8
M0
100
AcDbCircle
 10
328.840019
 20
818.692147
 40
3.0
  0
LINE
  5
472
100
AcDbEntity
  8
M0
100
AcDbLine
 10
325.881035
 20
814.744805
 11
325.064873
 21
817.392098
  0
LINE
  5
473
100
AcDbEntity
  8
M0
100
AcDbLine
 10
325.881035
 20
822.639396
 11
325.064873
 21
819.992073
  0
LINE
  5
474
100
AcDbEntity
  8
M0
100
AcDbLine
 10
331.798516
 20
814.74479
 11
332.614922
 21
817.392098
  0
LINE
  5
475
100
AcDbEntity
  8
M0
100
AcDbLine
 10
331.798516
 20
822.639412
 11
332.614922
 21
819.992073
  0
LINE
  5
476
100
AcDbEntity
  8
M0
100
AcDbLine
 10
326.359062
 20
822.992073
 11
331.320732
 21
822.992073
  0
LINE
  5
477
100
AcDbEntity
  8
M0
100
AcDbLine
 10
332.614922
 20
819.992073
 11
332.614922
 21
817.392098
  0
LINE
  5
478
100
AcDbEntity
  8
M0
100
AcDbLine
 10
331.320732
 20
814.392098
 11
326.359062
 21
814.392113
  0
LINE
  5
479
100
AcDbEntity
  8
M0
100
AcDbLine
 10
325.064873
 20
817.392098
 11
325.064873
 21
819.992073
  0
LINE
  5
47A
100
AcDbEntity
  8
M0
  6
DASHDOT
100
AcDbLine
 10
322.564874
 20
818.692147
 11
335.114922
 21
818.692147
  0
LINE
  5
47B
100
AcDbEntity
  8
M0
100
AcDbLine
 10
330.430596
 20
820.282966
 11
327.248955
 21
817.101205
  0
LINE
  5
47C
100
AcDbEntity
  8
M0
100
AcDbLine
 10
329.193291
 20
817.277962
 11
327.425713
 21
819.045663
  0
LINE
  5
47D
100
AcDbEntity
  8
M0
100
AcDbLine
 10
330.253838
 20
818.338631
 11
328.48626
 21
820.106209
  0
ARC
  5
47E
100
AcDbEntity
  8
M0
100
AcDbCircle
 10
326.359062
 20
814.892113
 40
0.5
100
AcDbArc
 50
197.127146
 51
270.0
  0
ARC
  5
47F
100
AcDbEntity
  8
M0
100
AcDbCircle
 10
326.359062
 20
822.492073
 40
0.5
100
AcDbArc
 50
90.0
 51
162.871263
  0
ARC
  5
480
100
AcDbEntity
  8
M0
100
AcDbCircle
 10
331.320732
 20
822.492073
 40
0.5
100
AcDbArc
 50
17.138555
 51
90.0
  0
ARC
  5
481
100
AcDbEntity
  8
M0
100
AcDbCircle
 10
331.320732
 20
814.892113
 40
0.5
100
AcDbArc
 50
270.0
 51
342.862931
  0
LINE
  5
482
100
AcDbEntity
  8
M0
  6
DASHDOT
100
AcDbLine
 10
328.840019
 20
825.492058
 11
328.840019
 21
811.316749
  0
LINE
  5
483
100
AcDbEntity
  8
M0
100
AcDbLine
 10
321.340019
 20
830.392036
 11
313.340012
 21
830.392036
  0
LINE
  5
484
100
AcDbEntity
  8
M0
100
AcDbLine
 10
159.340019
 20
817.192036
 11
167.34002
 21
817.192036
  0
LINE
  5
485
100
AcDbEntity
  8
M0
  6
DASHDOT
100
AcDbLine
 10
240.340019
 20
807.192036
 11
240.340019
 21
840.392036
  0
LINE
  5
486
100
AcDbEntity
  8
M0
100
AcDbLine
 10
321.340019
 20
833.592036
 11
313.34001
 21
833.592036
  0
LINE
  5
487
100
AcDbEntity
  8
M0
100
AcDbLine
 10
321.340019
 20
817.192036
 11
321.340019
 21
833.592036
  0
LINE
  5
488
100
AcDbEntity
  8
M0
100
AcDbLine
 10
159.340019
 20
833.592036
 11
159.340019
 21
817.192036
  0
LINE
  5
489
100
AcDbEntity
  8
M0
100
AcDbLine
 10
197.34002
 20
817.192036
 11
202.240019
 21
817.192036
  0
LINE
  5
48A
100
AcDbEntity
  8
M0
100
AcDbLine
 10
167.340012
 20
830.392036
 11
159.340019
 21
830.392036
  0
LINE
  5
48B
100
AcDbEntity
  8
M0
100
AcDbLine
 10
167.34001
 20
833.592036
 11
159.340019
 21
833.592036
  0
LINE
  5
48C
100
AcDbEntity
  8
M0
100
AcDbLine
 10
281.240019
 20
817.192036
 11
283.34002
 21
817.192036
  0
LINE
  5
48D
100
AcDbEntity
  8
M0
100
AcDbLine
 10
202.240019
 20
830.392036
 11
197.340012
 21
830.392036
  0
LINE
  5
48E
100
AcDbEntity
  8
M0
100
AcDbLine
 10
225.34001
 20
833.592036
 11
197.34001
 21
833.592036
  0
LINE
  5
48F
100
AcDbEntity
  8
M0
100
AcDbLine
 10
313.34002
 20
817.192036
 11
321.340019
 21
817.192036
  0
LINE
  5
490
100
AcDbEntity
  8
M0
100
AcDbLine
 10
283.340012
 20
830.392036
 11
281.240019
 21
830.392036
  0
LINE
  5
491
100
AcDbEntity
  8
M0
100
AcDbLine
 10
283.34001
 20
833.592036
 11
267.240019
 21
833.592036
  0
LINE
  5
492
100
AcDbEntity
  8
M0
 62
     4
100
AcDbLine
 10
202.240019
 20
831.192147
 11
202.240019
 21
811.192143
  0
LINE
  5
493
100
AcDbEntity
  8
M0
 62
     4
100
AcDbLine
 10
281.240019
 20
811.858832
 11
281.240019
 21
831.192147
  0
LINE
  5
494
100
AcDbEntity
  8
M0
 62
     4
100
AcDbLine
 10
275.740019
 20
826.192147
 11
275.740019
 21
811.192143
  0
LINE
  5
495
100
AcDbEntity
  8
M0
 62
     4
100
AcDbLine
 10
267.740019
 20
826.192147
 11
267.740019
 21
812.192147
  0
LINE
  5
496
100
AcDbEntity
  8
M0
 62
     4
100
AcDbLine
 10
218.740019
 20
826.192147
 11
218.740019
 21
812.192147
  0
LINE
  5
497
100
AcDbEntity
  8
M0
 62
     4
100
AcDbLine
 10
212.740019
 20
826.192147
 11
212.740019
 21
812.192147
  0
LINE
  5
498
100
AcDbEntity
  8
M0
 62
     4
100
AcDbLine
 10
204.740019
 20
826.192147
 11
204.740019
 21
811.192143
  0
LINE
  5
499
100
AcDbEntity
  8
M0
 62
     4
100
AcDbLine
 10
202.240019
 20
831.192147
 11
223.240019
 21
831.192147
  0
ARC
  5
49A
100
AcDbEntity
  8
M0
 62
     4
100
AcDbCircle
 10
223.240019
 20
835.192147
 40
4.0
100
AcDbArc
 50
270.0
 51
301.668102
  0
LINE
  5
49B
100
AcDbEntity
  8
M0
 62
     4
100
AcDbLine
 10
267.240019
 20
826.192147
 11
267.240019
 21
836.192147
  0
LINE
  5
49C
100
AcDbEntity
  8
M0
 62
     4
100
AcDbLine
 10
271.240019
 20
831.192147
 11
281.240019
 21
831.192147
  0
ARC
  5
49D
100
AcDbEntity
  8
M0
 62
     4
100
AcDbCircle
 10
271.240019
 20
835.192147
 40
4.0
100
AcDbArc
 50
180.0
 51
270.0
  0
LINE
  5
49E
100
AcDbEntity
  8
M0
 62
     4
100
AcDbLine
 10
267.240019
 20
836.192147
 11
255.340008
 21
836.192147
  0
LINE
  5
49F
100
AcDbEntity
  8
M0
 62
     4
100
AcDbLine
 10
204.740019
 20
826.192147
 11
202.240019
 21
826.192147
  0
LINE
  5
4A0
100
AcDbEntity
  8
M0
 62
     4
100
AcDbLine
 10
218.740019
 20
826.192147
 11
212.740019
 21
826.192147
  0
LINE
  5
4A1
100
AcDbEntity
  8
M0
 62
     4
100
AcDbLine
 10
281.240019
 20
826.192147
 11
275.740019
 21
826.192147
  0
LINE
  5
4A2
100
AcDbEntity
  8
M0
 62
     4
100
AcDbLine
 10
263.740019
 20
812.192147
 11
263.740019
 21
826.192147
  0
LINE
  5
4A3
100
AcDbEntity
  8
M0
 62
     4
100
AcDbLine
 10
267.740019
 20
826.192147
 11
263.740019
 21
826.192147
  0
LINE
  5
4A4
100
AcDbEntity
  8
M0
 62
     4
100
AcDbLine
 10
267.740019
 20
821.192147
 11
275.740019
 21
821.192147
  0
LINE
  5
4A5
100
AcDbEntity
  8
M0
 62
     4
100
AcDbLine
 10
218.740019
 20
821.192147
 11
225.340018
 21
821.192147
  0
LINE
  5
4A6
100
AcDbEntity
  8
M0
 62
     4
100
AcDbLine
 10
204.740019
 20
821.192147
 11
212.740019
 21
821.192147
  0
LINE
  5
4A7
100
AcDbEntity
  8
M0
 62
   114
100
AcDbLine
 10
301.18861
 20
845.192072
 11
304.452322
 21
848.455783
  0
LINE
  5
4A8
100
AcDbEntity
  8
M0
 62
   114
100
AcDbLine
 10
300.188712
 20
844.192174
 11
300.340084
 21
844.343546
  0
LINE
  5
4A9
100
AcDbEntity
  8
M0
 62
   114
100
AcDbLine
 10
299.491601
 20
845.192028
 11
298.491745
 21
844.192173
  0
LINE
  5
4AA
100
AcDbEntity
  8
M0
 62
   114
100
AcDbLine
 10
303.60385
 20
849.304298
 11
300.340127
 21
846.040554
  0
LINE
  5
4AB
100
AcDbEntity
  8
M0
 62
   114
100
AcDbLine
 10
300.340117
 20
846.040565
 11
298.57235
 21
847.808332
  0
LINE
  5
4AC
100
AcDbEntity
  8
M0
 62
   114
100
AcDbLine
 10
302.188507
 20
844.192175
 11
301.18861
 21
845.192072
  0
LINE
  5
4AD
100
AcDbEntity
  8
M0
 62
   114
100
AcDbLine
 10
300.340084
 20
844.343546
 11
300.491456
 21
844.192174
  0
LINE
  5
4AE
100
AcDbEntity
  8
M0
 62
   114
100
AcDbLine
 10
297.723824
 20
846.959806
 11
299.491591
 21
845.192039
  0
LINE
  5
4AF
100
AcDbEntity
  8
M0
 62
   114
100
AcDbLine
 10
298.57235
 20
847.808332
 11
297.723824
 21
846.959806
  0
ARC
  5
4B0
100
AcDbEntity
  8
M0
 62
   114
100
AcDbCircle
 10
300.340019
 20
845.192147
 40
5.75
100
AcDbArc
 50
349.984895
 51
550.015177
  0
ARC
  5
4B1
100
AcDbEntity
  8
M0
 62
   114
100
AcDbCircle
 10
300.340019
 20
845.192147
 40
5.25
100
AcDbArc
 50
349.019757
 51
550.980315
  0
LINE
  5
4B2
100
AcDbEntity
  8
M0
 62
   114
100
AcDbLine
 10
169.047136
 20
714.392159
 11
171.143069
 21
716.488091
  0
LINE
  5
4B3
100
AcDbEntity
  8
M0
 62
   114
100
AcDbLine
 10
166.244086
 20
711.589109
 11
168.340029
 21
713.685052
  0
LINE
  5
4B4
100
AcDbEntity
  8
M0
 62
   114
100
AcDbLine
 10
167.632923
 20
714.392159
 11
165.536979
 21
712.296216
  0
LINE
  5
4B5
100
AcDbEntity
  8
M0
 62
   114
100
AcDbLine
 10
170.435962
 20
717.195198
 11
168.340029
 21
715.099265
  0
LINE
  5
4B6
100
AcDbEntity
  8
M0
 62
   114
100
AcDbLine
 10
168.340029
 20
715.099265
 11
167.243979
 21
716.195316
  0
LINE
  5
4B7
100
AcDbEntity
  8
M0
 62
   114
100
AcDbLine
 10
170.143186
 20
713.296109
 11
169.047136
 21
714.392159
  0
LINE
  5
4B8
100
AcDbEntity
  8
M0
 62
   114
100
AcDbLine
 10
168.340029
 20
713.685052
 11
169.436079
 21
712.589002
  0
LINE
  5
4B9
100
AcDbEntity
  8
M0
 62
   114
100
AcDbLine
 10
166.536873
 20
715.488209
 11
167.632923
 21
714.392159
  0
LINE
  5
4BA
100
AcDbEntity
  8
M0
 62
   114
100
AcDbLine
 10
169.436079
 20
712.589002
 11
170.143186
 21
713.296109
  0
LINE
  5
4BB
100
AcDbEntity
  8
M0
 62
   114
100
AcDbLine
 10
167.243979
 20
716.195316
 11
166.536873
 21
715.488209
  0
ARC
  5
4BC
100
AcDbEntity
  8
M0
 62
   114
100
AcDbCircle
 10
168.340029
 20
714.392159
 40
4.0
100
AcDbArc
 50
41.409836
 51
318.590164
  0
ARC
  5
4BD
100
AcDbEntity
  8
M0
 62
   114
100
AcDbCircle
 10
168.340029
 20
714.392159
 40
3.5
100
AcDbArc
 50
31.003032
 51
328.996968
  0
LINE
  5
4BE
100
AcDbEntity
  8
M0
 62
   114
100
AcDbLine
 10
313.047116
 20
714.392159
 11
315.143049
 21
716.488091
  0
LINE
  5
4BF
100
AcDbEntity
  8
M0
 62
   114
100
AcDbLine
 10
310.244066
 20
711.589109
 11
312.34001
 21
713.685052
  0
LINE
  5
4C0
100
AcDbEntity
  8
M0
 62
   114
100
AcDbLine
 10
311.632903
 20
714.392159
 11
309.53696
 21
712.296216
  0
LINE
  5
4C1
100
AcDbEntity
  8
M0
 62
   114
100
AcDbLine
 10
314.435942
 20
717.195198
 11
312.34001
 21
715.099265
  0
LINE
  5
4C2
100
AcDbEntity
  8
M0
 62
   114
100
AcDbLine
 10
312.34001
 20
715.099265
 11
311.24396
 21
716.195316
  0
LINE
  5
4C3
100
AcDbEntity
  8
M0
 62
   114
100
AcDbLine
 10
314.143166
 20
713.296109
 11
313.047116
 21
714.392159
  0
LINE
  5
4C4
100
AcDbEntity
  8
M0
 62
   114
100
AcDbLine
 10
312.34001
 20
713.685052
 11
313.43606
 21
712.589002
  0
LINE
  5
4C5
100
AcDbEntity
  8
M0
 62
   114
100
AcDbLine
 10
310.536853
 20
715.488209
 11
311.632903
 21
714.392159
  0
LINE
  5
4C6
100
AcDbEntity
  8
M0
 62
   114
100
AcDbLine
 10
313.43606
 20
712.589002
 11
314.143166
 21
713.296109
  0
LINE
  5
4C7
100
AcDbEntity
  8
M0
 62
   114
100
AcDbLine
 10
311.24396
 20
716.195316
 11
310.536853
 21
715.488209
  0
ARC
  5
4C8
100
AcDbEntity
  8
M0
 62
   114
100
AcDbCircle
 10
312.34001
 20
714.392159
 40
4.0
100
AcDbArc
 50
221.409836
 51
498.590164
  0
ARC
  5
4C9
100
AcDbEntity
  8
M0
 62
   114
100
AcDbCircle
 10
312.34001
 20
714.392159
 40
3.5
100
AcDbArc
 50
211.003032
 51
508.996968
  0
LINE
  5
4CA
100
AcDbEntity
  8
M0
 62
   114
100
AcDbLine
 10
340.547126
 20
714.192147
 11
342.643059
 21
716.288079
  0
LINE
  5
4CB
100
AcDbEntity
  8
M0
 62
   114
100
AcDbLine
 10
337.744076
 20
711.389097
 11
339.840019
 21
713.48504
  0
LINE
  5
4CC
100
AcDbEntity
  8
M0
 62
   114
100
AcDbLine
 10
339.132913
 20
714.192147
 11
337.036969
 21
712.096204
  0
LINE
  5
4CD
100
AcDbEntity
  8
M0
 62
   114
100
AcDbLine
 10
341.935952
 20
716.995186
 11
339.840019
 21
714.899254
  0
LINE
  5
4CE
100
AcDbEntity
  8
M0
 62
   114
100
AcDbLine
 10
339.840019
 20
714.899254
 11
338.743969
 21
715.995304
  0
LINE
  5
4CF
100
AcDbEntity
  8
M0
 62
   114
100
AcDbLine
 10
341.643176
 20
713.096097
 11
340.547126
 21
714.192147
  0
LINE
  5
4D0
100
AcDbEntity
  8
M0
 62
   114
100
AcDbLine
 10
339.840019
 20
713.48504
 11
340.936069
 21
712.38899
  0
LINE
  5
4D1
100
AcDbEntity
  8
M0
 62
   114
100
AcDbLine
 10
338.036863
 20
715.288197
 11
339.132913
 21
714.192147
  0
CIRCLE
  5
4D2
100
AcDbEntity
  8
M0
 62
   114
100
AcDbCircle
 10
339.840019
 20
714.192147
 40
3.5
  0
LINE
  5
4D3
100
AcDbEntity
  8
M0
 62
   114
100
AcDbLine
 10
340.936069
 20
712.38899
 11
341.643176
 21
713.096097
  0
LINE
  5
4D4
100
AcDbEntity
  8
M0
 62
   114
100
AcDbLine
 10
338.743969
 20
715.995304
 11
338.036863
 21
715.288197
  0
LINE
  5
4D5
100
AcDbEntity
  8
M0
 62
   114
100
AcDbLine
 10
340.547146
 20
776.192147
 11
342.643078
 21
778.288079
  0
LINE
  5
4D6
100
AcDbEntity
  8
M0
 62
   114
100
AcDbLine
 10
337.744096
 20
773.389097
 11
339.840039
 21
775.48504
  0
LINE
  5
4D7
100
AcDbEntity
  8
M0
 62
   114
100
AcDbLine
 10
339.132932
 20
776.192147
 11
337.036989
 21
774.096204
  0
LINE
  5
4D8
100
AcDbEntity
  8
M0
 62
   114
100
AcDbLine
 10
341.935971
 20
778.995186
 11
339.840039
 21
776.899254
  0
LINE
  5
4D9
100
AcDbEntity
  8
M0
 62
   114
100
AcDbLine
 10
339.840039
 20
776.899254
 11
338.743989
 21
777.995304
  0
LINE
  5
4DA
100
AcDbEntity
  8
M0
 62
   114
100
AcDbLine
 10
341.643196
 20
775.096097
 11
340.547146
 21
776.192147
  0
LINE
  5
4DB
100
AcDbEntity
  8
M0
 62
   114
100
AcDbLine
 10
339.840039
 20
775.48504
 11
340.936089
 21
774.38899
  0
LINE
  5
4DC
100
AcDbEntity
  8
M0
 62
   114
100
AcDbLine
 10
338.036882
 20
777.288197
 11
339.132932
 21
776.192147
  0
CIRCLE
  5
4DD
100
AcDbEntity
  8
M0
 62
   114
100
AcDbCircle
 10
339.840039
 20
776.192147
 40
3.5
  0
LINE
  5
4DE
100
AcDbEntity
  8
M0
 62
   114
100
AcDbLine
 10
340.936089
 20
774.38899
 11
341.643196
 21
775.096097
  0
LINE
  5
4DF
100
AcDbEntity
  8
M0
 62
   114
100
AcDbLine
 10
338.743989
 20
777.995304
 11
338.036882
 21
777.288197
  0
CIRCLE
  5
4E0
100
AcDbEntity
  8
M0
 62
   114
100
AcDbCircle
 10
333.840019
 20
623.192147
 40
4.5
  0
LINE
  5
4E1
100
AcDbEntity
  8
M0
 62
   114
100
AcDbLine
 10
334.688621
 20
623.192082
 11
337.417903
 21
625.921364
  0
LINE
  5
4E2
100
AcDbEntity
  8
M0
 62
   114
100
AcDbLine
 10
331.110792
 20
619.614253
 11
333.840084
 21
622.343546
  0
LINE
  5
4E3
100
AcDbEntity
  8
M0
 62
   114
100
AcDbLine
 10
332.991601
 20
623.192028
 11
330.262277
 21
620.462704
  0
LINE
  5
4E4
100
AcDbEntity
  8
M0
 62
   114
100
AcDbLine
 10
336.569441
 20
626.76989
 11
333.840138
 21
624.040565
  0
LINE
  5
4E5
100
AcDbEntity
  8
M0
 62
   114
100
AcDbLine
 10
333.840084
 20
622.343546
 11
335.112911
 21
621.070719
  0
LINE
  5
4E6
100
AcDbEntity
  8
M0
 62
   114
100
AcDbLine
 10
331.718764
 20
624.464866
 11
332.991591
 21
623.192039
  0
LINE
  5
4E7
100
AcDbEntity
  8
M0
 62
   114
100
AcDbLine
 10
333.840127
 20
624.040576
 11
332.567301
 21
625.313403
  0
LINE
  5
4E8
100
AcDbEntity
  8
M0
 62
   114
100
AcDbLine
 10
335.961448
 20
621.919256
 11
334.688621
 21
623.192082
  0
LINE
  5
4E9
100
AcDbEntity
  8
M0
 62
   114
100
AcDbLine
 10
335.112911
 20
621.070719
 11
335.961448
 21
621.919256
  0
LINE
  5
4EA
100
AcDbEntity
  8
M0
 62
   114
100
AcDbLine
 10
332.567301
 20
625.313403
 11
331.718764
 21
624.464866
  0
CIRCLE
  5
4EB
100
AcDbEntity
  8
M0
 62
   114
100
AcDbCircle
 10
333.840019
 20
623.192147
 40
5.0
  0
CIRCLE
  5
4EC
100
AcDbEntity
  8
M0
 62
   114
100
AcDbCircle
 10
333.840019
 20
845.192147
 40
4.5
  0
LINE
  5
4ED
100
AcDbEntity
  8
M0
 62
   114
100
AcDbLine
 10
334.688621
 20
845.192082
 11
337.417903
 21
847.921364
  0
LINE
  5
4EE
100
AcDbEntity
  8
M0
 62
   114
100
AcDbLine
 10
331.110792
 20
841.614253
 11
333.840084
 21
844.343546
  0
LINE
  5
4EF
100
AcDbEntity
  8
M0
 62
   114
100
AcDbLine
 10
332.991601
 20
845.192028
 11
330.262277
 21
842.462704
  0
LINE
  5
4F0
100
AcDbEntity
  8
M0
 62
   114
100
AcDbLine
 10
336.569441
 20
848.76989
 11
333.840138
 21
846.040565
  0
LINE
  5
4F1
100
AcDbEntity
  8
M0
 62
   114
100
AcDbLine
 10
333.840084
 20
844.343546
 11
335.112911
 21
843.070719
  0
LINE
  5
4F2
100
AcDbEntity
  8
M0
 62
   114
100
AcDbLine
 10
331.718764
 20
846.464866
 11
332.991591
 21
845.192039
  0
LINE
  5
4F3
100
AcDbEntity
  8
M0
 62
   114
100
AcDbLine
 10
333.840127
 20
846.040576
 11
332.567301
 21
847.313403
  0
LINE
  5
4F4
100
AcDbEntity
  8
M0
 62
   114
100
AcDbLine
 10
335.961448
 20
843.919256
 11
334.688621
 21
845.192082
  0
LINE
  5
4F5
100
AcDbEntity
  8
M0
 62
   114
100
AcDbLine
 10
335.112911
 20
843.070719
 11
335.961448
 21
843.919256
  0
LINE
  5
4F6
100
AcDbEntity
  8
M0
 62
   114
100
AcDbLine
 10
332.567301
 20
847.313403
 11
331.718764
 21
846.464866
  0
CIRCLE
  5
4F7
100
AcDbEntity
  8
M0
 62
   114
100
AcDbCircle
 10
333.840019
 20
845.192147
 40
5.0
  0
CIRCLE
  5
4F8
100
AcDbEntity
  8
M0
 62
   114
100
AcDbCircle
 10
208.740019
 20
816.192147
 40
3.0
  0
LINE
  5
4F9
100
AcDbEntity
  8
M0
 62
   114
100
AcDbLine
 10
206.294806
 20
814.454041
 11
208.103617
 21
816.262851
  0
LINE
  5
4FA
100
AcDbEntity
  8
M0
 62
   114
100
AcDbLine
 10
207.001913
 20
813.746934
 11
208.810724
 21
815.555744
  0
LINE
  5
4FB
100
AcDbEntity
  8
M0
 62
   114
100
AcDbLine
 10
209.80069
 20
814.565778
 11
208.810724
 21
815.555744
  0
LINE
  5
4FC
100
AcDbEntity
  8
M0
 62
   114
100
AcDbLine
 10
210.366378
 20
815.131465
 11
209.376411
 21
816.121432
  0
LINE
  5
4FD
100
AcDbEntity
  8
M0
 62
   114
100
AcDbLine
 10
207.113672
 20
817.252797
 11
207.679359
 21
817.818484
  0
LINE
  5
4FE
100
AcDbEntity
  8
M0
 62
   114
100
AcDbLine
 10
210.366367
 20
815.131476
 11
209.80068
 21
814.565788
  0
LINE
  5
4FF
100
AcDbEntity
  8
M0
 62
   114
100
AcDbLine
 10
209.376411
 20
816.121432
 11
211.185222
 21
817.930243
  0
LINE
  5
500
100
AcDbEntity
  8
M0
 62
   114
100
AcDbLine
 10
208.669304
 20
816.828539
 11
207.679359
 21
817.818484
  0
LINE
  5
501
100
AcDbEntity
  8
M0
 62
   114
100
AcDbLine
 10
208.669304
 20
816.828539
 11
210.478115
 21
818.637349
  0
LINE
  5
502
100
AcDbEntity
  8
M0
 62
   114
100
AcDbLine
 10
208.103617
 20
816.262851
 11
207.113672
 21
817.252797
  0
LINE
  5
503
100
AcDbEntity
  8
M0
  6
DASHDOT
 62
   114
100
AcDbLine
 10
203.607574
 20
816.192147
 11
213.872464
 21
816.192147
  0
LINE
  5
504
100
AcDbEntity
  8
M0
  6
DASHDOT
 62
   114
100
AcDbLine
 10
208.740019
 20
811.059702
 11
208.74002
 21
821.324592
  0
LINE
  5
505
100
AcDbEntity
  8
M0
 62
   114
100
AcDbLine
 10
220.294806
 20
814.454041
 11
222.103617
 21
816.262851
  0
LINE
  5
506
100
AcDbEntity
  8
M0
 62
   114
100
AcDbLine
 10
221.001913
 20
813.746934
 11
222.810724
 21
815.555744
  0
LINE
  5
507
100
AcDbEntity
  8
M0
 62
   114
100
AcDbLine
 10
223.80069
 20
814.565778
 11
222.810724
 21
815.555744
  0
LINE
  5
508
100
AcDbEntity
  8
M0
 62
   114
100
AcDbLine
 10
224.366378
 20
815.131465
 11
223.376411
 21
816.121432
  0
LINE
  5
509
100
AcDbEntity
  8
M0
 62
   114
100
AcDbLine
 10
221.113672
 20
817.252797
 11
221.679359
 21
817.818484
  0
LINE
  5
50A
100
AcDbEntity
  8
M0
 62
   114
100
AcDbLine
 10
224.366367
 20
815.131476
 11
223.80068
 21
814.565788
  0
LINE
  5
50B
100
AcDbEntity
  8
M0
 62
   114
100
AcDbLine
 10
223.376411
 20
816.121432
 11
225.185222
 21
817.930243
  0
LINE
  5
50C
100
AcDbEntity
  8
M0
 62
   114
100
AcDbLine
 10
222.669304
 20
816.828539
 11
221.679359
 21
817.818484
  0
LINE
  5
50D
100
AcDbEntity
  8
M0
 62
   114
100
AcDbLine
 10
222.669304
 20
816.828539
 11
224.478115
 21
818.637349
  0
LINE
  5
50E
100
AcDbEntity
  8
M0
 62
   114
100
AcDbLine
 10
222.103617
 20
816.262851
 11
221.113672
 21
817.252797
  0
LINE
  5
50F
100
AcDbEntity
  8
M0
  6
DASHDOT
 62
   114
100
AcDbLine
 10
217.607574
 20
816.192147
 11
227.872464
 21
816.192147
  0
LINE
  5
510
100
AcDbEntity
  8
M0
  6
DASHDOT
 62
   114
100
AcDbLine
 10
222.740019
 20
811.059702
 11
222.74002
 21
821.324592
  0
ARC
  5
511
100
AcDbEntity
  8
M0
 62
   114
100
AcDbCircle
 10
222.740019
 20
816.192147
 40
3.0
100
AcDbArc
 50
29.926418
 51
330.073654
  0
CIRCLE
  5
512
100
AcDbEntity
  8
M0
 62
   114
100
AcDbCircle
 10
271.740019
 20
816.192147
 40
3.0
  0
LINE
  5
513
100
AcDbEntity
  8
M0
 62
   114
100
AcDbLine
 10
269.294806
 20
814.454041
 11
271.103617
 21
816.262851
  0
LINE
  5
514
100
AcDbEntity
  8
M0
 62
   114
100
AcDbLine
 10
270.001913
 20
813.746934
 11
271.810724
 21
815.555744
  0
LINE
  5
515
100
AcDbEntity
  8
M0
 62
   114
100
AcDbLine
 10
272.80069
 20
814.565778
 11
271.810724
 21
815.555744
  0
LINE
  5
516
100
AcDbEntity
  8
M0
 62
   114
100
AcDbLine
 10
273.366378
 20
815.131465
 11
272.376411
 21
816.121432
  0
LINE
  5
517
100
AcDbEntity
  8
M0
 62
   114
100
AcDbLine
 10
270.113672
 20
817.252797
 11
270.679359
 21
817.818484
  0
LINE
  5
518
100
AcDbEntity
  8
M0
 62
   114
100
AcDbLine
 10
273.366367
 20
815.131476
 11
272.80068
 21
814.565788
  0
LINE
  5
519
100
AcDbEntity
  8
M0
 62
   114
100
AcDbLine
 10
272.376411
 20
816.121432
 11
274.185222
 21
817.930243
  0
LINE
  5
51A
100
AcDbEntity
  8
M0
 62
   114
100
AcDbLine
 10
271.669304
 20
816.828539
 11
270.679359
 21
817.818484
  0
LINE
  5
51B
100
AcDbEntity
  8
M0
 62
   114
100
AcDbLine
 10
271.669304
 20
816.828539
 11
273.478115
 21
818.637349
  0
LINE
  5
51C
100
AcDbEntity
  8
M0
 62
   114
100
AcDbLine
 10
271.103617
 20
816.262851
 11
270.113672
 21
817.252797
  0
LINE
  5
51D
100
AcDbEntity
  8
M0
  6
DASHDOT
 62
   114
100
AcDbLine
 10
266.607574
 20
816.192147
 11
276.872464
 21
816.192147
  0
LINE
  5
51E
100
AcDbEntity
  8
M0
  6
DASHDOT
 62
   114
100
AcDbLine
 10
271.740019
 20
811.059702
 11
271.74002
 21
821.324592
  0
LINE
  5
51F
100
AcDbEntity
  8
M0
 62
     1
100
AcDbLine
 10
566.42731
 20
805.191917
 11
464.22731
 21
805.191917
  0
ARC
  5
520
100
AcDbEntity
  8
M0
 62
     1
100
AcDbCircle
 10
464.22731
 20
803.191917
 40
2.0
100
AcDbArc
 50
90.0
 51
180.0
  0
ARC
  5
521
100
AcDbEntity
  8
M0
 62
     1
100
AcDbCircle
 10
464.22731
 20
807.191917
 40
2.0
100
AcDbArc
 50
90.0
 51
180.0
  0
LINE
  5
522
100
AcDbEntity
  8
M0
 62
     1
100
AcDbLine
 10
558.42731
 20
812.191917
 11
558.42731
 21
809.191917
  0
LINE
  5
523
100
AcDbEntity
  8
M0
 62
     1
100
AcDbLine
 10
522.42731
 20
809.191917
 11
522.42731
 21
811.191917
  0
ARC
  5
524
100
AcDbEntity
  8
M0
 62
     1
100
AcDbCircle
 10
523.42731
 20
811.191917
 40
1.0
100
AcDbArc
 50
90.0
 51
180.0
  0
LINE
  5
525
100
AcDbEntity
  8
M0
 62
     1
100
AcDbLine
 10
523.42731
 20
812.191917
 11
558.42731
 21
812.191917
  0
LINE
  5
526
100
AcDbEntity
  8
M0
 62
     1
100
AcDbLine
 10
464.22731
 20
809.191917
 11
522.42731
 21
809.191917
  0
LINE
  5
527
100
AcDbEntity
  8
M0
 62
     1
100
AcDbLine
 10
558.42731
 20
809.191917
 11
566.42731
 21
809.191917
  0
LINE
  5
528
100
AcDbEntity
  8
M0
 62
     1
100
AcDbLine
 10
566.42731
 20
663.191917
 11
464.22731
 21
663.191917
  0
ARC
  5
529
100
AcDbEntity
  8
M0
 62
     1
100
AcDbCircle
 10
464.22731
 20
665.191917
 40
2.0
100
AcDbArc
 50
180.0
 51
270.0
  0
ARC
  5
52A
100
AcDbEntity
  8
M0
 62
     1
100
AcDbCircle
 10
464.22731
 20
661.191917
 40
2.0
100
AcDbArc
 50
180.0
 51
270.0
  0
LINE
  5
52B
100
AcDbEntity
  8
M0
 62
     1
100
AcDbLine
 10
558.42731
 20
656.191917
 11
558.42731
 21
659.191917
  0
LINE
  5
52C
100
AcDbEntity
  8
M0
 62
     1
100
AcDbLine
 10
522.42731
 20
659.191917
 11
522.42731
 21
657.191917
  0
ARC
  5
52D
100
AcDbEntity
  8
M0
 62
     1
100
AcDbCircle
 10
523.42731
 20
657.191917
 40
1.0
100
AcDbArc
 50
180.0
 51
270.0
  0
LINE
  5
52E
100
AcDbEntity
  8
M0
 62
     1
100
AcDbLine
 10
523.42731
 20
656.191917
 11
558.42731
 21
656.191917
  0
LINE
  5
52F
100
AcDbEntity
  8
M0
 62
     1
100
AcDbLine
 10
464.22731
 20
659.191917
 11
522.42731
 21
659.191917
  0
LINE
  5
530
100
AcDbEntity
  8
M0
 62
     1
100
AcDbLine
 10
558.42731
 20
659.191917
 11
566.42731
 21
659.191917
  0
LINE
  5
531
100
AcDbEntity
  8
M0
 62
     1
100
AcDbLine
 10
462.22731
 20
807.191917
 11
462.22731
 21
661.191917
  0
LINE
  5
532
100
AcDbEntity
  8
M0
 62
     1
100
AcDbLine
 10
566.42731
 20
659.191917
 11
566.42731
 21
713.435473
  0
LINE
  5
533
100
AcDbEntity
  8
M0
 62
     1
100
AcDbLine
 10
566.42731
 20
776.948361
 11
566.42731
 21
809.191917
  0
LINE
  5
534
100
AcDbEntity
  8
M0
  6
DASHDOT
 62
     1
100
AcDbLine
 10
166.340019
 20
734.192147
 11
314.340019
 21
734.192147
  0
LINE
  5
535
100
AcDbEntity
  8
M0
 62
     1
100
AcDbLine
 10
295.340019
 20
800.192147
 11
275.340019
 21
800.192147
  0
LINE
  5
536
100
AcDbEntity
  8
M0
 62
     1
100
AcDbLine
 10
250.340019
 20
800.192147
 11
240.340019
 21
800.192147
  0
ARC
  5
537
100
AcDbEntity
  8
M0
 62
     1
100
AcDbCircle
 10
269.840019
 20
810.192147
 40
2.0
100
AcDbArc
 50
0.0
 51
90.0
  0
LINE
  5
538
100
AcDbEntity
  8
M0
 62
     1
100
AcDbLine
 10
269.840019
 20
812.192147
 11
260.840019
 21
812.192147
  0
ARC
  5
539
100
AcDbEntity
  8
M0
 62
     1
100
AcDbCircle
 10
260.840019
 20
810.192147
 40
2.0
100
AcDbArc
 50
90.0
 51
180.0
  0
ARC
  5
53A
100
AcDbEntity
  8
M0
 62
     1
100
AcDbCircle
 10
304.340019
 20
800.192147
 40
5.0
100
AcDbArc
 50
0.0
 51
90.0
  0
LINE
  5
53B
100
AcDbEntity
  8
M0
 62
     1
100
AcDbLine
 10
250.340019
 20
803.192147
 11
250.340019
 21
800.192147
  0
ARC
  5
53C
100
AcDbEntity
  8
M0
 62
     1
100
AcDbCircle
 10
252.340019
 20
803.192147
 40
2.0
100
AcDbArc
 50
90.0
 51
180.0
  0
LINE
  5
53D
100
AcDbEntity
  8
M0
 62
     1
100
AcDbLine
 10
295.340019
 20
803.192147
 11
295.340019
 21
800.192147
  0
ARC
  5
53E
100
AcDbEntity
  8
M0
 62
     1
100
AcDbCircle
 10
297.340019
 20
803.192147
 40
2.0
100
AcDbArc
 50
90.0
 51
180.0
  0
LINE
  5
53F
100
AcDbEntity
  8
M0
 62
     1
100
AcDbLine
 10
275.340019
 20
803.192147
 11
275.340019
 21
800.192147
  0
ARC
  5
540
100
AcDbEntity
  8
M0
 62
     1
100
AcDbCircle
 10
273.340019
 20
803.192147
 40
2.0
100
AcDbArc
 50
0.0
 51
90.0
  0
LINE
  5
541
100
AcDbEntity
  8
M0
 62
     1
100
AcDbLine
 10
271.840019
 20
810.192147
 11
271.840019
 21
806.192147
  0
LINE
  5
542
100
AcDbEntity
  8
M0
 62
     1
100
AcDbLine
 10
304.340019
 20
805.192147
 11
272.840019
 21
805.192147
  0
ARC
  5
543
100
AcDbEntity
  8
M0
 62
     1
100
AcDbCircle
 10
272.840019
 20
806.192147
 40
1.0
100
AcDbArc
 50
180.0
 51
270.0
  0
LINE
  5
544
100
AcDbEntity
  8
M0
 62
     1
100
AcDbLine
 10
258.840019
 20
810.192147
 11
258.840019
 21
806.192147
  0
ARC
  5
545
100
AcDbEntity
  8
M0
 62
     1
100
AcDbCircle
 10
257.840019
 20
806.192147
 40
1.0
100
AcDbArc
 50
270.0
 51
360.0
  0
ARC
  5
546
100
AcDbEntity
  8
M0
 62
     1
100
AcDbCircle
 10
263.840019
 20
806.192147
 40
1.0
100
AcDbArc
 50
180.0
 51
270.0
  0
LINE
  5
547
100
AcDbEntity
  8
M0
 62
     1
100
AcDbLine
 10
266.840019
 20
805.192147
 11
263.840019
 21
805.192147
  0
ARC
  5
548
100
AcDbEntity
  8
M0
 62
     1
100
AcDbCircle
 10
266.840019
 20
806.192147
 40
1.0
100
AcDbArc
 50
270.0
 51
360.0
  0
ARC
  5
549
100
AcDbEntity
  8
M0
 62
     1
100
AcDbCircle
 10
268.840019
 20
808.192147
 40
1.0
100
AcDbArc
 50
90.0
 51
180.0
  0
ARC
  5
54A
100
AcDbEntity
  8
M0
 62
     1
100
AcDbCircle
 10
261.840019
 20
808.192147
 40
1.0
100
AcDbArc
 50
0.0
 51
90.0
  0
LINE
  5
54B
100
AcDbEntity
  8
M0
 62
     1
100
AcDbLine
 10
270.840019
 20
809.192147
 11
268.840019
 21
809.192147
  0
ARC
  5
54C
100
AcDbEntity
  8
M0
 62
     1
100
AcDbCircle
 10
270.840019
 20
808.192147
 40
1.0
100
AcDbArc
 50
0.0
 51
90.0
  0
LINE
  5
54D
100
AcDbEntity
  8
M0
 62
     1
100
AcDbLine
 10
261.840019
 20
809.192147
 11
259.840019
 21
809.192147
  0
ARC
  5
54E
100
AcDbEntity
  8
M0
 62
     1
100
AcDbCircle
 10
259.840019
 20
808.192147
 40
1.0
100
AcDbArc
 50
90.0
 51
180.0
  0
LINE
  5
54F
100
AcDbEntity
  8
M0
 62
     1
100
AcDbLine
 10
266.340019
 20
812.192147
 11
266.340019
 21
809.192147
  0
LINE
  5
550
100
AcDbEntity
  8
M0
 62
     1
100
AcDbLine
 10
264.340019
 20
812.192147
 11
264.340019
 21
809.192147
  0
LINE
  5
551
100
AcDbEntity
  8
M0
 62
     1
100
AcDbLine
 10
267.840019
 20
808.692147
 11
267.840019
 21
806.192147
  0
LINE
  5
552
100
AcDbEntity
  8
M0
 62
     1
100
AcDbLine
 10
266.340019
 20
809.192147
 11
267.340019
 21
809.192147
  0
ARC
  5
553
100
AcDbEntity
  8
M0
 62
     1
100
AcDbCircle
 10
267.340019
 20
808.692147
 40
0.5
100
AcDbArc
 50
0.0
 51
90.0
  0
LINE
  5
554
100
AcDbEntity
  8
M0
 62
     1
100
AcDbLine
 10
263.340019
 20
809.192147
 11
264.340019
 21
809.192147
  0
LINE
  5
555
100
AcDbEntity
  8
M0
 62
     1
100
AcDbLine
 10
262.840019
 20
808.692147
 11
262.840019
 21
806.192147
  0
ARC
  5
556
100
AcDbEntity
  8
M0
 62
     1
100
AcDbCircle
 10
263.340019
 20
808.692147
 40
0.5
100
AcDbArc
 50
90.0
 51
180.0
  0
LINE
  5
557
100
AcDbEntity
  8
M0
 62
     1
100
AcDbLine
 10
262.840019
 20
806.692147
 11
267.840019
 21
806.692147
  0
LINE
  5
558
100
AcDbEntity
  8
M0
 62
     1
100
AcDbLine
 10
257.840019
 20
805.192147
 11
240.340019
 21
805.192147
  0
LINE
  5
559
100
AcDbEntity
  8
M0
 62
     1
100
AcDbLine
 10
309.340019
 20
734.192147
 11
309.340019
 21
800.192147
  0
LINE
  5
55A
100
AcDbEntity
  8
M0
 62
     1
100
AcDbLine
 10
185.340019
 20
800.192147
 11
205.340019
 21
800.192147
  0
LINE
  5
55B
100
AcDbEntity
  8
M0
 62
     1
100
AcDbLine
 10
230.340019
 20
800.192147
 11
240.340019
 21
800.192147
  0
ARC
  5
55C
100
AcDbEntity
  8
M0
 62
     1
100
AcDbCircle
 10
210.840019
 20
810.192147
 40
2.0
100
AcDbArc
 50
90.0
 51
180.0
  0
LINE
  5
55D
100
AcDbEntity
  8
M0
 62
     1
100
AcDbLine
 10
210.840019
 20
812.192147
 11
219.840019
 21
812.192147
  0
ARC
  5
55E
100
AcDbEntity
  8
M0
 62
     1
100
AcDbCircle
 10
219.840019
 20
810.192147
 40
2.0
100
AcDbArc
 50
0.0
 51
90.0
  0
ARC
  5
55F
100
AcDbEntity
  8
M0
 62
     1
100
AcDbCircle
 10
176.340019
 20
800.192147
 40
5.0
100
AcDbArc
 50
90.0
 51
180.0
  0
LINE
  5
560
100
AcDbEntity
  8
M0
 62
     1
100
AcDbLine
 10
230.340019
 20
803.192147
 11
230.340019
 21
800.192147
  0
ARC
  5
561
100
AcDbEntity
  8
M0
 62
     1
100
AcDbCircle
 10
228.340019
 20
803.192147
 40
2.0
100
AcDbArc
 50
0.0
 51
90.0
  0
LINE
  5
562
100
AcDbEntity
  8
M0
 62
     1
100
AcDbLine
 10
185.340019
 20
803.192147
 11
185.340019
 21
800.192147
  0
ARC
  5
563
100
AcDbEntity
  8
M0
 62
     1
100
AcDbCircle
 10
183.340019
 20
803.192147
 40
2.0
100
AcDbArc
 50
0.0
 51
90.0
  0
LINE
  5
564
100
AcDbEntity
  8
M0
 62
     1
100
AcDbLine
 10
205.340019
 20
803.192147
 11
205.340019
 21
800.192147
  0
ARC
  5
565
100
AcDbEntity
  8
M0
 62
     1
100
AcDbCircle
 10
207.340019
 20
803.192147
 40
2.0
100
AcDbArc
 50
90.0
 51
180.0
  0
LINE
  5
566
100
AcDbEntity
  8
M0
 62
     1
100
AcDbLine
 10
208.840019
 20
810.192147
 11
208.840019
 21
806.192147
  0
LINE
  5
567
100
AcDbEntity
  8
M0
 62
     1
100
AcDbLine
 10
176.340019
 20
805.192147
 11
207.840019
 21
805.192147
  0
ARC
  5
568
100
AcDbEntity
  8
M0
 62
     1
100
AcDbCircle
 10
207.840019
 20
806.192147
 40
1.0
100
AcDbArc
 50
-90.0
 51
0.0
  0
LINE
  5
569
100
AcDbEntity
  8
M0
 62
     1
100
AcDbLine
 10
221.840019
 20
810.192147
 11
221.840019
 21
806.192147
  0
ARC
  5
56A
100
AcDbEntity
  8
M0
 62
     1
100
AcDbCircle
 10
222.840019
 20
806.192147
 40
1.0
100
AcDbArc
 50
180.0
 51
270.0
  0
ARC
  5
56B
100
AcDbEntity
  8
M0
 62
     1
100
AcDbCircle
 10
216.840019
 20
806.192147
 40
1.0
100
AcDbArc
 50
-90.0
 51
0.0
  0
LINE
  5
56C
100
AcDbEntity
  8
M0
 62
     1
100
AcDbLine
 10
213.840019
 20
805.192147
 11
216.840019
 21
805.192147
  0
ARC
  5
56D
100
AcDbEntity
  8
M0
 62
     1
100
AcDbCircle
 10
213.840019
 20
806.192147
 40
1.0
100
AcDbArc
 50
180.0
 51
270.0
  0
ARC
  5
56E
100
AcDbEntity
  8
M0
 62
     1
100
AcDbCircle
 10
211.840019
 20
808.192147
 40
1.0
100
AcDbArc
 50
0.0
 51
90.0
  0
ARC
  5
56F
100
AcDbEntity
  8
M0
 62
     1
100
AcDbCircle
 10
218.840019
 20
808.192147
 40
1.0
100
AcDbArc
 50
90.0
 51
180.0
  0
LINE
  5
570
100
AcDbEntity
  8
M0
 62
     1
100
AcDbLine
 10
209.840019
 20
809.192147
 11
211.840019
 21
809.192147
  0
ARC
  5
571
100
AcDbEntity
  8
M0
 62
     1
100
AcDbCircle
 10
209.840019
 20
808.192147
 40
1.0
100
AcDbArc
 50
90.0
 51
180.0
  0
LINE
  5
572
100
AcDbEntity
  8
M0
 62
     1
100
AcDbLine
 10
218.840019
 20
809.192147
 11
220.840019
 21
809.192147
  0
ARC
  5
573
100
AcDbEntity
  8
M0
 62
     1
100
AcDbCircle
 10
220.840019
 20
808.192147
 40
1.0
100
AcDbArc
 50
0.0
 51
90.0
  0
LINE
  5
574
100
AcDbEntity
  8
M0
 62
     1
100
AcDbLine
 10
214.340019
 20
812.192147
 11
214.340019
 21
809.192147
  0
LINE
  5
575
100
AcDbEntity
  8
M0
 62
     1
100
AcDbLine
 10
216.340019
 20
812.192147
 11
216.340019
 21
809.192147
  0
LINE
  5
576
100
AcDbEntity
  8
M0
 62
     1
100
AcDbLine
 10
212.840019
 20
808.692147
 11
212.840019
 21
806.192147
  0
LINE
  5
577
100
AcDbEntity
  8
M0
 62
     1
100
AcDbLine
 10
214.340019
 20
809.192147
 11
213.340019
 21
809.192147
  0
ARC
  5
578
100
AcDbEntity
  8
M0
 62
     1
100
AcDbCircle
 10
213.340019
 20
808.692147
 40
0.5
100
AcDbArc
 50
90.0
 51
180.0
  0
LINE
  5
579
100
AcDbEntity
  8
M0
 62
     1
100
AcDbLine
 10
217.340019
 20
809.192147
 11
216.340019
 21
809.192147
  0
LINE
  5
57A
100
AcDbEntity
  8
M0
 62
     1
100
AcDbLine
 10
217.840019
 20
808.692147
 11
217.840019
 21
806.192147
  0
ARC
  5
57B
100
AcDbEntity
  8
M0
 62
     1
100
AcDbCircle
 10
217.340019
 20
808.692147
 40
0.5
100
AcDbArc
 50
0.0
 51
90.0
  0
LINE
  5
57C
100
AcDbEntity
  8
M0
 62
     1
100
AcDbLine
 10
217.840019
 20
806.692147
 11
212.840019
 21
806.692147
  0
LINE
  5
57D
100
AcDbEntity
  8
M0
 62
     1
100
AcDbLine
 10
222.840019
 20
805.192147
 11
240.340019
 21
805.192147
  0
LINE
  5
57E
100
AcDbEntity
  8
M0
 62
     1
100
AcDbLine
 10
171.340019
 20
734.192147
 11
171.340019
 21
800.192147
  0
LINE
  5
57F
100
AcDbEntity
  8
M0
 62
     1
100
AcDbLine
 10
295.340019
 20
668.192147
 11
275.340019
 21
668.192147
  0
LINE
  5
580
100
AcDbEntity
  8
M0
 62
     1
100
AcDbLine
 10
250.340019
 20
668.192147
 11
240.340019
 21
668.192147
  0
ARC
  5
581
100
AcDbEntity
  8
M0
 62
     1
100
AcDbCircle
 10
269.840019
 20
658.192147
 40
2.0
100
AcDbArc
 50
-90.0
 51
0.0
  0
LINE
  5
582
100
AcDbEntity
  8
M0
 62
     1
100
AcDbLine
 10
269.840019
 20
656.192147
 11
260.840019
 21
656.192147
  0
ARC
  5
583
100
AcDbEntity
  8
M0
 62
     1
100
AcDbCircle
 10
260.840019
 20
658.192147
 40
2.0
100
AcDbArc
 50
180.0
 51
270.0
  0
ARC
  5
584
100
AcDbEntity
  8
M0
 62
     1
100
AcDbCircle
 10
304.340019
 20
668.192147
 40
5.0
100
AcDbArc
 50
-90.0
 51
0.0
  0
LINE
  5
585
100
AcDbEntity
  8
M0
 62
     1
100
AcDbLine
 10
250.340019
 20
665.192147
 11
250.340019
 21
668.192147
  0
ARC
  5
586
100
AcDbEntity
  8
M0
 62
     1
100
AcDbCircle
 10
252.340019
 20
665.192147
 40
2.0
100
AcDbArc
 50
180.0
 51
270.0
  0
LINE
  5
587
100
AcDbEntity
  8
M0
 62
     1
100
AcDbLine
 10
295.340019
 20
665.192147
 11
295.340019
 21
668.192147
  0
ARC
  5
588
100
AcDbEntity
  8
M0
 62
     1
100
AcDbCircle
 10
297.340019
 20
665.192147
 40
2.0
100
AcDbArc
 50
180.0
 51
270.0
  0
LINE
  5
589
100
AcDbEntity
  8
M0
 62
     1
100
AcDbLine
 10
275.340019
 20
665.192147
 11
275.340019
 21
668.192147
  0
ARC
  5
58A
100
AcDbEntity
  8
M0
 62
     1
100
AcDbCircle
 10
273.340019
 20
665.192147
 40
2.0
100
AcDbArc
 50
-90.0
 51
0.0
  0
LINE
  5
58B
100
AcDbEntity
  8
M0
 62
     1
100
AcDbLine
 10
271.840019
 20
658.192147
 11
271.840019
 21
662.192147
  0
LINE
  5
58C
100
AcDbEntity
  8
M0
 62
     1
100
AcDbLine
 10
304.340019
 20
663.192147
 11
272.840019
 21
663.192147
  0
ARC
  5
58D
100
AcDbEntity
  8
M0
 62
     1
100
AcDbCircle
 10
272.840019
 20
662.192147
 40
1.0
100
AcDbArc
 50
90.0
 51
180.0
  0
LINE
  5
58E
100
AcDbEntity
  8
M0
 62
     1
100
AcDbLine
 10
258.840019
 20
658.192147
 11
258.840019
 21
662.192147
  0
ARC
  5
58F
100
AcDbEntity
  8
M0
 62
     1
100
AcDbCircle
 10
257.840019
 20
662.192147
 40
1.0
100
AcDbArc
 50
0.0
 51
90.0
  0
ARC
  5
590
100
AcDbEntity
  8
M0
 62
     1
100
AcDbCircle
 10
263.840019
 20
662.192147
 40
1.0
100
AcDbArc
 50
90.0
 51
180.0
  0
LINE
  5
591
100
AcDbEntity
  8
M0
 62
     1
100
AcDbLine
 10
266.840019
 20
663.192147
 11
263.840019
 21
663.192147
  0
ARC
  5
592
100
AcDbEntity
  8
M0
 62
     1
100
AcDbCircle
 10
266.840019
 20
662.192147
 40
1.0
100
AcDbArc
 50
0.0
 51
90.0
  0
ARC
  5
593
100
AcDbEntity
  8
M0
 62
     1
100
AcDbCircle
 10
268.840019
 20
660.192147
 40
1.0
100
AcDbArc
 50
180.0
 51
270.0
  0
ARC
  5
594
100
AcDbEntity
  8
M0
 62
     1
100
AcDbCircle
 10
261.840019
 20
660.192147
 40
1.0
100
AcDbArc
 50
-90.0
 51
0.0
  0
LINE
  5
595
100
AcDbEntity
  8
M0
 62
     1
100
AcDbLine
 10
270.840019
 20
659.192147
 11
268.840019
 21
659.192147
  0
ARC
  5
596
100
AcDbEntity
  8
M0
 62
     1
100
AcDbCircle
 10
270.840019
 20
660.192147
 40
1.0
100
AcDbArc
 50
-90.0
 51
0.0
  0
LINE
  5
597
100
AcDbEntity
  8
M0
 62
     1
100
AcDbLine
 10
261.840019
 20
659.192147
 11
259.840019
 21
659.192147
  0
ARC
  5
598
100
AcDbEntity
  8
M0
 62
     1
100
AcDbCircle
 10
259.840019
 20
660.192147
 40
1.0
100
AcDbArc
 50
180.0
 51
270.0
  0
LINE
  5
599
100
AcDbEntity
  8
M0
 62
     1
100
AcDbLine
 10
266.340019
 20
656.192147
 11
266.340019
 21
659.192147
  0
LINE
  5
59A
100
AcDbEntity
  8
M0
 62
     1
100
AcDbLine
 10
264.340019
 20
656.192147
 11
264.340019
 21
659.192147
  0
LINE
  5
59B
100
AcDbEntity
  8
M0
 62
     1
100
AcDbLine
 10
267.840019
 20
659.692147
 11
267.840019
 21
662.192147
  0
LINE
  5
59C
100
AcDbEntity
  8
M0
 62
     1
100
AcDbLine
 10
266.340019
 20
659.192147
 11
267.340019
 21
659.192147
  0
ARC
  5
59D
100
AcDbEntity
  8
M0
 62
     1
100
AcDbCircle
 10
267.340019
 20
659.692147
 40
0.5
100
AcDbArc
 50
-90.0
 51
0.0
  0
LINE
  5
59E
100
AcDbEntity
  8
M0
 62
     1
100
AcDbLine
 10
263.340019
 20
659.192147
 11
264.340019
 21
659.192147
  0
LINE
  5
59F
100
AcDbEntity
  8
M0
 62
     1
100
AcDbLine
 10
262.840019
 20
659.692147
 11
262.840019
 21
662.192147
  0
ARC
  5
5A0
100
AcDbEntity
  8
M0
 62
     1
100
AcDbCircle
 10
263.340019
 20
659.692147
 40
0.5
100
AcDbArc
 50
180.0
 51
270.0
  0
LINE
  5
5A1
100
AcDbEntity
  8
M0
 62
     1
100
AcDbLine
 10
262.840019
 20
661.692147
 11
267.840019
 21
661.692147
  0
LINE
  5
5A2
100
AcDbEntity
  8
M0
 62
     1
100
AcDbLine
 10
257.840019
 20
663.192147
 11
240.340019
 21
663.192147
  0
LINE
  5
5A3
100
AcDbEntity
  8
M0
 62
     1
100
AcDbLine
 10
309.340019
 20
734.192147
 11
309.340019
 21
668.192147
  0
LINE
  5
5A4
100
AcDbEntity
  8
M0
 62
     1
100
AcDbLine
 10
185.340019
 20
668.192147
 11
205.340019
 21
668.192147
  0
LINE
  5
5A5
100
AcDbEntity
  8
M0
 62
     1
100
AcDbLine
 10
230.340019
 20
668.192147
 11
240.340019
 21
668.192147
  0
ARC
  5
5A6
100
AcDbEntity
  8
M0
 62
     1
100
AcDbCircle
 10
210.840019
 20
658.192147
 40
2.0
100
AcDbArc
 50
180.0
 51
270.0
  0
LINE
  5
5A7
100
AcDbEntity
  8
M0
 62
     1
100
AcDbLine
 10
210.840019
 20
656.192147
 11
219.840019
 21
656.192147
  0
ARC
  5
5A8
100
AcDbEntity
  8
M0
 62
     1
100
AcDbCircle
 10
219.840019
 20
658.192147
 40
2.0
100
AcDbArc
 50
270.0
 51
360.0
  0
ARC
  5
5A9
100
AcDbEntity
  8
M0
 62
     1
100
AcDbCircle
 10
176.340019
 20
668.192147
 40
5.0
100
AcDbArc
 50
180.0
 51
270.0
  0
LINE
  5
5AA
100
AcDbEntity
  8
M0
 62
     1
100
AcDbLine
 10
230.340019
 20
665.192147
 11
230.340019
 21
668.192147
  0
ARC
  5
5AB
100
AcDbEntity
  8
M0
 62
     1
100
AcDbCircle
 10
228.340019
 20
665.192147
 40
2.0
100
AcDbArc
 50
270.0
 51
360.0
  0
LINE
  5
5AC
100
AcDbEntity
  8
M0
 62
     1
100
AcDbLine
 10
185.340019
 20
665.192147
 11
185.340019
 21
668.192147
  0
ARC
  5
5AD
100
AcDbEntity
  8
M0
 62
     1
100
AcDbCircle
 10
183.340019
 20
665.192147
 40
2.0
100
AcDbArc
 50
270.0
 51
360.0
  0
LINE
  5
5AE
100
AcDbEntity
  8
M0
 62
     1
100
AcDbLine
 10
205.340019
 20
665.192147
 11
205.340019
 21
668.192147
  0
ARC
  5
5AF
100
AcDbEntity
  8
M0
 62
     1
100
AcDbCircle
 10
207.340019
 20
665.192147
 40
2.0
100
AcDbArc
 50
180.0
 51
270.0
  0
LINE
  5
5B0
100
AcDbEntity
  8
M0
 62
     1
100
AcDbLine
 10
208.840019
 20
658.192147
 11
208.840019
 21
662.192147
  0
LINE
  5
5B1
100
AcDbEntity
  8
M0
 62
     1
100
AcDbLine
 10
176.340019
 20
663.192147
 11
207.840019
 21
663.192147
  0
ARC
  5
5B2
100
AcDbEntity
  8
M0
 62
     1
100
AcDbCircle
 10
207.840019
 20
662.192147
 40
1.0
100
AcDbArc
 50
0.0
 51
90.0
  0
LINE
  5
5B3
100
AcDbEntity
  8
M0
 62
     1
100
AcDbLine
 10
221.840019
 20
658.192147
 11
221.840019
 21
662.192147
  0
ARC
  5
5B4
100
AcDbEntity
  8
M0
 62
     1
100
AcDbCircle
 10
222.840019
 20
662.192147
 40
1.0
100
AcDbArc
 50
90.0
 51
180.0
  0
ARC
  5
5B5
100
AcDbEntity
  8
M0
 62
     1
100
AcDbCircle
 10
216.840019
 20
662.192147
 40
1.0
100
AcDbArc
 50
0.0
 51
90.0
  0
LINE
  5
5B6
100
AcDbEntity
  8
M0
 62
     1
100
AcDbLine
 10
213.840019
 20
663.192147
 11
216.840019
 21
663.192147
  0
ARC
  5
5B7
100
AcDbEntity
  8
M0
 62
     1
100
AcDbCircle
 10
213.840019
 20
662.192147
 40
1.0
100
AcDbArc
 50
90.0
 51
180.0
  0
ARC
  5
5B8
100
AcDbEntity
  8
M0
 62
     1
100
AcDbCircle
 10
211.840019
 20
660.192147
 40
1.0
100
AcDbArc
 50
270.0
 51
360.0
  0
ARC
  5
5B9
100
AcDbEntity
  8
M0
 62
     1
100
AcDbCircle
 10
218.840019
 20
660.192147
 40
1.0
100
AcDbArc
 50
180.0
 51
270.0
  0
LINE
  5
5BA
100
AcDbEntity
  8
M0
 62
     1
100
AcDbLine
 10
209.840019
 20
659.192147
 11
211.840019
 21
659.192147
  0
ARC
  5
5BB
100
AcDbEntity
  8
M0
 62
     1
100
AcDbCircle
 10
209.840019
 20
660.192147
 40
1.0
100
AcDbArc
 50
180.0
 51
270.0
  0
LINE
  5
5BC
100
AcDbEntity
  8
M0
 62
     1
100
AcDbLine
 10
218.840019
 20
659.192147
 11
220.840019
 21
659.192147
  0
ARC
  5
5BD
100
AcDbEntity
  8
M0
 62
     1
100
AcDbCircle
 10
220.840019
 20
660.192147
 40
1.0
100
AcDbArc
 50
270.0
 51
360.0
  0
LINE
  5
5BE
100
AcDbEntity
  8
M0
 62
     1
100
AcDbLine
 10
214.340019
 20
656.192147
 11
214.340019
 21
659.192147
  0
LINE
  5
5BF
100
AcDbEntity
  8
M0
 62
     1
100
AcDbLine
 10
216.340019
 20
656.192147
 11
216.340019
 21
659.192147
  0
LINE
  5
5C0
100
AcDbEntity
  8
M0
 62
     1
100
AcDbLine
 10
212.840019
 20
659.692147
 11
212.840019
 21
662.192147
  0
LINE
  5
5C1
100
AcDbEntity
  8
M0
 62
     1
100
AcDbLine
 10
214.340019
 20
659.192147
 11
213.340019
 21
659.192147
  0
ARC
  5
5C2
100
AcDbEntity
  8
M0
 62
     1
100
AcDbCircle
 10
213.340019
 20
659.692147
 40
0.5
100
AcDbArc
 50
180.0
 51
270.0
  0
LINE
  5
5C3
100
AcDbEntity
  8
M0
 62
     1
100
AcDbLine
 10
217.340019
 20
659.192147
 11
216.340019
 21
659.192147
  0
LINE
  5
5C4
100
AcDbEntity
  8
M0
 62
     1
100
AcDbLine
 10
217.840019
 20
659.692147
 11
217.840019
 21
662.192147
  0
ARC
  5
5C5
100
AcDbEntity
  8
M0
 62
     1
100
AcDbCircle
 10
217.340019
 20
659.692147
 40
0.5
100
AcDbArc
 50
270.0
 51
360.0
  0
LINE
  5
5C6
100
AcDbEntity
  8
M0
 62
     1
100
AcDbLine
 10
217.840019
 20
661.692147
 11
212.840019
 21
661.692147
  0
LINE
  5
5C7
100
AcDbEntity
  8
M0
 62
     1
100
AcDbLine
 10
222.840019
 20
663.192147
 11
240.340019
 21
663.192147
  0
LINE
  5
5C8
100
AcDbEntity
  8
M0
 62
     1
100
AcDbLine
 10
171.340019
 20
734.192147
 11
171.340019
 21
668.192147
  0
LINE
  5
5C9
100
AcDbEntity
  8
M0
 62
     1
100
AcDbLine
 10
229.340019
 20
723.692147
 11
251.340019
 21
723.692147
  0
LINE
  5
5CA
100
AcDbEntity
  8
M0
 62
     1
100
AcDbLine
 10
246.340019
 20
746.492147
 11
246.340019
 21
744.192147
  0
LINE
  5
5CB
100
AcDbEntity
  8
M0
 62
     1
100
AcDbLine
 10
234.340019
 20
746.492147
 11
234.340019
 21
744.192147
  0
LINE
  5
5CC
100
AcDbEntity
  8
M0
 62
     1
100
AcDbLine
 10
251.340019
 20
723.692147
 11
251.340019
 21
741.192147
  0
LINE
  5
5CD
100
AcDbEntity
  8
M0
 62
     1
100
AcDbLine
 10
248.340019
 20
744.192147
 11
246.340019
 21
744.192147
  0
ARC
  5
5CE
100
AcDbEntity
  8
M0
 62
     1
100
AcDbCircle
 10
248.340019
 20
741.192147
 40
3.0
100
AcDbArc
 50
0.0
 51
90.0
  0
LINE
  5
5CF
100
AcDbEntity
  8
M0
 62
     1
100
AcDbLine
 10
234.340019
 20
744.192147
 11
232.340019
 21
744.192147
  0
LINE
  5
5D0
100
AcDbEntity
  8
M0
 62
     1
100
AcDbLine
 10
229.340019
 20
741.192147
 11
229.340019
 21
723.692147
  0
ARC
  5
5D1
100
AcDbEntity
  8
M0
 62
     1
100
AcDbCircle
 10
232.340019
 20
741.192147
 40
3.0
100
AcDbArc
 50
90.0
 51
180.0
  0
LINE
  5
5D2
100
AcDbEntity
  8
M0
 62
     1
100
AcDbLine
 10
237.340019
 20
731.692147
 11
243.340019
 21
731.692147
  0
LINE
  5
5D3
100
AcDbEntity
  8
M0
 62
     1
100
AcDbLine
 10
237.340019
 20
736.692147
 11
243.340019
 21
736.692147
  0
LINE
  5
5D4
100
AcDbEntity
  8
M0
 62
     1
100
AcDbLine
 10
237.340019
 20
731.692147
 11
237.340019
 21
736.692147
  0
LINE
  5
5D5
100
AcDbEntity
  8
M0
 62
     1
100
AcDbLine
 10
243.340019
 20
731.692147
 11
243.340019
 21
736.692147
  0
LINE
  5
5D6
100
AcDbEntity
  8
M0
 62
     1
100
AcDbLine
 10
242.840019
 20
747.692147
 11
242.840019
 21
748.392147
  0
LINE
  5
5D7
100
AcDbEntity
  8
M0
 62
     1
100
AcDbLine
 10
237.840019
 20
747.692147
 11
237.840019
 21
748.392147
  0
LINE
  5
5D8
100
AcDbEntity
  8
M0
 62
     1
100
AcDbLine
 10
246.340019
 20
747.692147
 11
246.340019
 21
746.492147
  0
LINE
  5
5D9
100
AcDbEntity
  8
M0
 62
     1
100
AcDbLine
 10
234.340019
 20
747.692147
 11
234.340019
 21
746.492147
  0
LINE
  5
5DA
100
AcDbEntity
  8
M0
 62
     1
100
AcDbLine
 10
234.340019
 20
747.692147
 11
237.840019
 21
747.692147
  0
LINE
  5
5DB
100
AcDbEntity
  8
M0
 62
     1
100
AcDbLine
 10
242.840019
 20
748.392147
 11
237.840019
 21
748.392147
  0
LINE
  5
5DC
100
AcDbEntity
  8
M0
 62
     1
100
AcDbLine
 10
242.840019
 20
747.692147
 11
246.340019
 21
747.692147
  0
LINE
  5
5DD
100
AcDbEntity
  8
M0
  6
DIVIDE
100
AcDbLine
 10
266.340019
 20
557.192367
 11
264.340019
 21
557.192369
  0
LINE
  5
5DE
100
AcDbEntity
  8
M0
  6
DIVIDE
100
AcDbLine
 10
264.340019
 20
614.192369
 11
264.340019
 21
557.192369
  0
LINE
  5
5DF
100
AcDbEntity
  8
M0
  6
DIVIDE
100
AcDbLine
 10
266.340019
 20
557.192369
 11
266.340019
 21
614.192369
  0
LINE
  5
5E0
100
AcDbEntity
  8
M0
  6
DIVIDE
100
AcDbLine
 10
214.340019
 20
557.192367
 11
216.340019
 21
557.192369
  0
LINE
  5
5E1
100
AcDbEntity
  8
M0
  6
DIVIDE
100
AcDbLine
 10
214.340019
 20
557.192369
 11
214.340019
 21
614.192369
  0
LINE
  5
5E2
100
AcDbEntity
  8
M0
  6
DIVIDE
100
AcDbLine
 10
216.340019
 20
614.192369
 11
216.340019
 21
557.192369
  0
LINE
  5
5E3
100
AcDbEntity
  8
M0
  6
DIVIDE
100
AcDbLine
 10
266.340019
 20
911.191925
 11
266.340019
 21
854.191925
  0
LINE
  5
5E4
100
AcDbEntity
  8
M0
  6
DIVIDE
100
AcDbLine
 10
266.340019
 20
911.191927
 11
264.340019
 21
911.191925
  0
LINE
  5
5E5
100
AcDbEntity
  8
M0
  6
DIVIDE
100
AcDbLine
 10
264.340019
 20
854.191925
 11
264.340019
 21
911.191925
  0
LINE
  5
5E6
100
AcDbEntity
  8
M0
  6
DIVIDE
100
AcDbLine
 10
216.340019
 20
854.191925
 11
216.340019
 21
911.191925
  0
LINE
  5
5E7
100
AcDbEntity
  8
M0
  6
DIVIDE
100
AcDbLine
 10
214.340019
 20
911.191927
 11
216.340019
 21
911.191925
  0
LINE
  5
5E8
100
AcDbEntity
  8
M0
  6
DIVIDE
100
AcDbLine
 10
214.340019
 20
911.191925
 11
214.340019
 21
854.191925
  0
LINE
  5
5E9
100
AcDbEntity
  8
M0
  6
DIVIDE
100
AcDbLine
 10
345.840076
 20
214.732127
 11
345.840076
 21
454.732127
  0
LINE
  5
5EA
100
AcDbEntity
  8
M0
  6
DIVIDE
100
AcDbLine
 10
345.840076
 20
454.732127
 11
158.840076
 21
454.732127
  0
LINE
  5
5EB
100
AcDbEntity
  8
M0
  6
DIVIDE
100
AcDbLine
 10
158.840076
 20
454.732127
 11
158.840076
 21
214.732127
  0
LINE
  5
5EC
100
AcDbEntity
  8
M0
  6
DIVIDE
100
AcDbLine
 10
158.840076
 20
214.732127
 11
345.840076
 21
214.732127
  0
LINE
  5
5ED
100
AcDbEntity
  8
M0
  6
DASHDOT
100
AcDbLine
 10
240.340077
 20
199.337398
 11
240.340076
 21
472.979732
  0
CIRCLE
  5
5EE
100
AcDbEntity
  8
M0
100
AcDbCircle
 10
210.340076
 20
444.732127
 40
4.0
  0
LINE
  5
5EF
100
AcDbEntity
  8
M0
  6
DASHDOT
100
AcDbLine
 10
195.456106
 20
444.732127
 11
229.322727
 21
444.732127
  0
LINE
  5
5F0
100
AcDbEntity
  8
M0
  6
DASHDOT
100
AcDbLine
 10
210.340076
 20
430.698035
 11
210.340076
 21
460.95222
  0
CIRCLE
  5
5F1
100
AcDbEntity
  8
M0
100
AcDbCircle
 10
270.340076
 20
444.732127
 40
4.0
  0
LINE
  5
5F2
100
AcDbEntity
  8
M0
  6
DASHDOT
100
AcDbLine
 10
270.340076
 20
430.698035
 11
270.340076
 21
460.95222
  0
LINE
  5
5F3
100
AcDbEntity
  8
M0
  6
DASHDOT
100
AcDbLine
 10
285.224033
 20
444.732127
 11
251.35741
 21
444.732127
  0
CIRCLE
  5
5F4
100
AcDbEntity
  8
M0
100
AcDbCircle
 10
210.340076
 20
224.732127
 40
4.0
  0
LINE
  5
5F5
100
AcDbEntity
  8
M0
  6
DASHDOT
100
AcDbLine
 10
196.359217
 20
224.732127
 11
229.322727
 21
224.732127
  0
LINE
  5
5F6
100
AcDbEntity
  8
M0
  6
DASHDOT
100
AcDbLine
 10
210.340076
 20
200.856532
 11
210.340076
 21
243.754253
  0
CIRCLE
  5
5F7
100
AcDbEntity
  8
M0
100
AcDbCircle
 10
210.340076
 20
224.732127
 40
3.0
  0
CIRCLE
  5
5F8
100
AcDbEntity
  8
M0
100
AcDbCircle
 10
210.340076
 20
444.732127
 40
3.0
  0
CIRCLE
  5
5F9
100
AcDbEntity
  8
M0
100
AcDbCircle
 10
270.340076
 20
224.732127
 40
4.0
  0
LINE
  5
5FA
100
AcDbEntity
  8
M0
  6
DASHDOT
100
AcDbLine
 10
270.340076
 20
200.856532
 11
270.340076
 21
243.754253
  0
LINE
  5
5FB
100
AcDbEntity
  8
M0
  6
DASHDOT
100
AcDbLine
 10
284.320927
 20
224.732127
 11
251.35741
 21
224.732127
  0
CIRCLE
  5
5FC
100
AcDbEntity
  8
M0
100
AcDbCircle
 10
270.340076
 20
224.732127
 40
3.0
  0
CIRCLE
  5
5FD
100
AcDbEntity
  8
M0
100
AcDbCircle
 10
270.340076
 20
444.732127
 40
3.0
  0
LINE
  5
5FE
100
AcDbEntity
  8
M1
 62
     2
100
AcDbLine
 10
40.0
 20
40.0
 11
40.0
 21
1140.0
  0
LINE
  5
5FF
100
AcDbEntity
  8
M1
 62
     2
100
AcDbLine
 10
40.0
 20
1140.0
 11
800.0
 21
1140.0
  0
LINE
  5
600
100
AcDbEntity
  8
M1
 62
     2
100
AcDbLine
 10
800.0
 20
1140.0
 11
800.0
 21
40.0
  0
LINE
  5
601
100
AcDbEntity
  8
M1
 62
     2
100
AcDbLine
 10
800.0
 20
40.0
 11
40.0
 21
40.0
  0
LINE
  5
602
100
AcDbEntity
  8
M1
 62
     2
100
AcDbLine
 10
800.0
 20
80.0
 11
400.0
 21
80.0
  0
LINE
  5
603
100
AcDbEntity
  8
M1
 62
     2
100
AcDbLine
 10
800.0
 20
120.0
 11
400.0
 21
120.0
  0
LINE
  5
604
100
AcDbEntity
  8
M1
 62
     2
100
AcDbLine
 10
800.0
 20
160.0
 11
400.0
 21
160.0
  0
LINE
  5
605
100
AcDbEntity
  8
M1
 62
     2
100
AcDbLine
 10
400.0
 20
40.0
 11
400.0
 21
160.0
  0
TEXT
  5
606
100
AcDbEntity
  8
M1
 62
     2
100
AcDbText
 10
410.0
 20
50.0
 40
20.0
  1
適　用；
  7
STANDARD
100
AcDbText
  0
TEXT
  5
607
100
AcDbEntity
  8
M1
 62
     2
100
AcDbText
 10
410.0
 20
90.0
 40
20.0
  1
形　式；
  7
STANDARD
100
AcDbText
  0
TEXT
  5
608
100
AcDbEntity
  8
M1
 62
     2
100
AcDbText
 10
506.0
 20
90.0
 40
20.0
  1
Ｈ３００Ｃ，Ｈ３００Ｃ－Ｇ，Ｈ４００Ｃ，Ｈ４００Ｃ－Ｇ
 41
0.25
  7
STANDARD
100
AcDbText
  0
TEXT
  5
609
100
AcDbEntity
  8
M1
 62
     2
100
AcDbText
 10
410.0
 20
130.0
 40
20.0
  1
登録名：
  7
STANDARD
100
AcDbText
  0
TEXT
  5
60A
100
AcDbEntity
  8
M1
 62
     2
100
AcDbText
 10
506.0
 20
130.0
 40
20.0
  1
ＤＭＨ３００ＣＲ００
 41
0.5
  7
STANDARD
100
AcDbText
  0
LINE
  5
60B
100
AcDbEntity
  8
DN0
100
AcDbLine
 10
211.796359
 20
119.689952
 11
284.836377
 21
119.689952
  0
TEXT
  5
60C
100
AcDbEntity
  8
DN0
100
AcDbText
 10
213.816359
 20
121.489952
 40
18.0
  1
せん孔図
 41
0.833333
  7
STANDARD
100
AcDbText
  0
TEXT
  5
60D
100
AcDbEntity
  8
DN0
100
AcDbText
 10
148.162588
 20
1001.933533
 40
12.6
  1
※補助接点４ａ４ｂ付の場合は１９９
 41
0.833333
  7
STANDARD
100
AcDbText
  0
ENDSEC
  0
SECTION
  2
OBJECTS
  0
DICTIONARY
  5
C
100
AcDbDictionary
  3
ACAD_GROUP
350
D
  3
ACAD_MLINESTYLE
350
E
  0
DICTIONARY
  5
D
102
{ACAD_REACTORS
330
C
102
}
100
AcDbDictionary
  0
DICTIONARY
  5
E
102
{ACAD_REACTORS
330
C
102
}
100
AcDbDictionary
  3
STANDARD
350
13
  0
MLINESTYLE
  5
13
102
{ACAD_REACTORS
330
E
102
}
100
AcDbMlineStyle
  2
STANDARD
 70
     0
  3

 62
     0
 51
90.0
 52
90.0
 71
     2
 49
0.5
 62
   256
  6
BYLAYER
 49
-0.5
 62
   256
  6
BYLAYER
  0
ENDSEC
  0
EOF
