  0
SECTION
  2
HEADER
  9
$ACADVER
  1
AC1014
  9
$INSBASE
 10
0.000000
 20
0.000000
 30
0.0
  9
$VIEWCTR
 10
7.531722
 20
4.5
  9
$VIEWSIZE
 40
9.0
  9
$SNAPMODE
 70
     0
  9
$SNAPUNIT
 10
1.0
 20
1.0
  9
$SNAPBASE
 10
0.0
 20
0.0
  9
$SNAPANG
 50
0.0
  9
$SNAPSTYLE
 70
     0
  9
$SNAPISOPAIR
 70
     0
  9
$GRIDMODE
 70
     0
  9
$GRIDUNIT
 10
0.0
 20
0.0
  9
$ORTHOMODE
 70
     0
  9
$REGENMODE
 70
     1
  9
$FILLMODE
 70
     1
  9
$QTEXTMODE
 70
     0
  9
$DRAGMODE
 70
     2
  9
$LTSCALE
  40
     1.000000
  9
$OSMODE
 70
     0
  9
$ATTMODE
 70
     1
  9
$TEXTSIZE
 40
0.2
  9
$TRACEWID
 40
0.05
  9
$TEXTSTYLE
  7
STANDARD
  9
$CELTYPE
  6
BYLAYER
  9
$CECOLOR
 62
   256
  9
$DIMSCALE
 40
1.0
  9
$DIMASZ
 40
0.18
  9
$DIMEXO
 40
0.0625
  9
$DIMDLI
 40
0.38
  9
$DIMRND
 40
0.0
  9
$DIMDLE
 40
0.0
  9
$DIMEXE
 40
0.18
  9
$DIMTP
 40
0.0
  9
$DIMTM
 40
0.0
  9
$DIMTXT
 40
0.18
  9
$DIMCEN
 40
0.09
  9
$DIMTSZ
 40
0.0
  9
$DIMTOL
 70
     0
  9
$DIMLIM
 70
     0
  9
$DIMTIH
 70
     1
  9
$DIMTOH
 70
     1
  9
$DIMSE1
 70
     0
  9
$DIMSE2
 70
     0
  9
$DIMTAD
 70
     0
  9
$DIMZIN
 70
     0
  9
$DIMBLK
  1

  9
$LUNITS
 70
     2
  9
$LUPREC
 70
     4
  9
$AXISMODE
 70
     0
  9
$AXISUNIT
 10
0.0
 20
0.0
  9
$SKETCHINC
 40
0.1
  9
$FILLETRAD
 40
0.0
  9
$AUNITS
 70
     0
  9
$AUPREC
 70
     0
  9
$MENU
  1
ACAD
  9
$ELEVATION
 40
0.0
  9
$THICKNESS
 40
0.0
  9
$VIEWDIR
 10
0.0
 20
0.0
 30
1.0
  9
$LIMCHECK
 70
     0
  9
$BLIPMODE
 70
     1
  9
$CHAMFERA
 40
0.0
  9
$CHAMFERB
 40
0.0
  9
$FASTZOOM
 70
     1
  9
$SKPOLY
 70
     0
  9
$TDCREATE
 40
0000000.0000000000
  9
$TDUPDATE
 40
0000000.0000000000
  9
$TDINDWG
 40
0.0000000000
  9
$TDUSRTIMER
 40
0.0000000000
  9
$USRTIMER
 70
     1
  9
$ANGBASE
 50
0.0
  9
$ANGDIR
 70
     0
  9
$PDMODE
 70
     0
  9
$PDSIZE
 40
0.0
  9
$PLINEWID
 40
0.0
  9
$COORDS
 70
     0
  9
$USERI1
 70
     0
  9
$USERI2
 70
     0
  9
$USERI3
 70
     0
  9
$USERI4
 70
     0
  9
$USERI5
 70
     0
  9
$USERR1
 40
0.0
  9
$USERR2
 40
0.0
  9
$USERR3
 40
0.0
  9
$USERR4
 40
0.0
  9
$USERR5
 40
0.0
  9
$CLAYER
  8
M0
  9
$EXTMIN
 10
40.0
 20
40.0
  9
$EXTMAX
 10
800.0
 20
1140.0
  9
$LIMMIN
 10
0.0
 20
0.0
  9
$LIMMAX
 10
210.0
 20
297.0
  9
$HANDSEED
  5
932
  0
ENDSEC
  0
SECTION
  2
CLASSES
  0
ENDSEC
  0
SECTION
  2
TABLES
  0
TABLE
  2
VPORT
  5
8
100
AcDbSymbolTable
 70
     2
  0
VPORT
  5
14
100
AcDbSymbolTableRecord
100
AcDbViewportTableRecord
  2
*ACTIVE
 70
     0
 10
0.0
 20
0.0
 11
1.0
 21
1.0
 12
484.0
 22
297.0
 13
0.0
 23
0.0
 14
1.0
 24
1.0
 15
0.0
 25
0.0
 16
0.0
 26
0.0
 36
1.0
 17
0.0
 27
0.0
 37
0.0
 40
594.0
 41
2.0
 42
50.0
 43
0.0
 44
0.0
 50
0.0
 51
0.0
 71
     0
 72
   100
 73
     1
 74
     1
 75
     0
 76
     0
 77
     0
 78
     0
  0
ENDTAB
  0
TABLE
  2
LTYPE
  5
5
100
AcDbSymbolTable
 70
     5
  0
LTYPE
  5
15
100
AcDbSymbolTableRecord
100
AcDbLinetypeTableRecord
  2
BYBLOCK
 70
     0
  3

 72
    65
 73
     0
 40
0.0
  0
LTYPE
  5
16
100
AcDbSymbolTableRecord
100
AcDbLinetypeTableRecord
  2
BYLAYER
 70
     0
  3

 72
    65
 73
     0
 40
0.0
  0
LTYPE
  5
17
100
AcDbSymbolTableRecord
100
AcDbLinetypeTableRecord
  2
CONTINUOUS
 70
    64
  3
Solid line
 72
    65
 73
     0
 40
0.0
  0
LTYPE
  5
18
100
AcDbSymbolTableRecord
100
AcDbLinetypeTableRecord
  2
DASHED
 70
    64
  3
__ __ __ __ __ __ __ __ __ __ __ __ __ __ __ __
 72
    65
 73
     2
 40
0.75
 49
0.5
 74
     0
 49
-0.25
 74
     0
  0
LTYPE
  5
19
100
AcDbSymbolTableRecord
100
AcDbLinetypeTableRecord
  2
DASHDOT
 70
    64
  3
__ . __ . __ . __ . __ . __ . __ . __ . __ . __
 72
    65
 73
     4
 40
1.0
 49
0.5
 74
     0
 49
-0.25
 74
     0
 49
0.0
 74
     0
 49
-0.25
 74
     0
  0
LTYPE
  5
1A
100
AcDbSymbolTableRecord
100
AcDbLinetypeTableRecord
  2
DIVIDE
 70
    64
  3
____ . . ____ . . ____ . . ____ . . ____ . . __
 72
    65
 73
     6
 40
1.25
 49
0.5
 74
     0
 49
-0.25
 74
     0
 49
0.0
 74
     0
 49
-0.25
 74
     0
 49
0.0
 74
     0
 49
-0.25
 74
     0
  0
LTYPE
  5
1B
100
AcDbSymbolTableRecord
100
AcDbLinetypeTableRecord
  2
DOT
 70
    64
  3
. . . . . . . . . . . . . . . . . . . . . . . .
 72
    65
 73
     2
 40
0.25
 49
0.0
 74
     0
 49
-0.25
 74
     0
  0
ENDTAB
  0
TABLE
  2
LAYER
  5
2
100
AcDbSymbolTable
 70
   102
  0
LAYER
  5
F
100
AcDbSymbolTableRecord
100
AcDbLayerTableRecord
  2
0
 70
     0
 62
     7
  6
CONTINUOUS
  0
LAYER
  5
1C
100
AcDbSymbolTableRecord
100
AcDbLayerTableRecord
  2
DEFPOINTS
 70
     0
 62
     7
  6
CONTINUOUS
  0
LAYER
  5
1D
100
AcDbSymbolTableRecord
100
AcDbLayerTableRecord
  2
M0
 70
     0
 62
     3
  6
CONTINUOUS
  0
LAYER
  5
1E
100
AcDbSymbolTableRecord
100
AcDbLayerTableRecord
  2
M1
 70
     0
 62
     3
  6
CONTINUOUS
  0
LAYER
  5
1F
100
AcDbSymbolTableRecord
100
AcDbLayerTableRecord
  2
DD0
 70
     0
 62
     4
  6
CONTINUOUS
  0
LAYER
  5
20
100
AcDbSymbolTableRecord
100
AcDbLayerTableRecord
  2
DN0
 70
     0
 62
     2
  6
CONTINUOUS
  0
ENDTAB
  0
TABLE
  2
STYLE
  5
3
100
AcDbSymbolTable
 70
     2
  0
STYLE
  5
10
100
AcDbSymbolTableRecord
100
AcDbTextStyleTableRecord
  2
STANDARD
 70
     0
 40
0.0
 41
1.0
 50
0.0
 71
     0
 42
0.2
  3
txt
  4
BIGFONT
  0
ENDTAB
  0
TABLE
  2
VIEW
  5
6
100
AcDbSymbolTable
 70
     0
  0
ENDTAB
  0
TABLE
  2
UCS
  5
7
100
AcDbSymbolTable
 70
     0
  0
ENDTAB
  0
TABLE
  2
APPID
  5
9
100
AcDbSymbolTable
 70
     1
  0
APPID
  5
11
100
AcDbSymbolTableRecord
100
AcDbRegAppTableRecord
  2
ACAD
 70
     0
  0
ENDTAB
  0
TABLE
  2
DIMSTYLE
  5
A
100
AcDbSymbolTable
 70
     2
  0
DIMSTYLE
105
27
100
AcDbSymbolTableRecord
100
AcDbDimStyleTableRecord
  2
STANDARD
 70
     0
  3

  4

  5

  6
_OPEN
  7
_OPEN
 40
1.0
 41
12.0
 42
1.0
 43
8.0
 44
1.0
 45
0.0
 46
0.0
 47
0.0
 48
0.0
140
12.6
141
0.09
142
0.0
143
0.03937
144
1.0
145
0.0
146
1.0
147
0.6
 71
     0
 72
     0
 73
     1
 74
     1
 75
     0
 76
     0
 77
     3
 78
     8
170
     0
171
     2
172
     0
173
     1
174
     0
175
     0
176
     0
177
     0
178
     0
270
     2
271
     2
272
     4
273
     2
274
     2
340
10
275
     0
280
     0
281
     0
282
     0
283
     1
284
     0
285
     0
286
     0
287
     3
288
     0
  0
DIMSTYLE
105
28
100
AcDbSymbolTableRecord
100
AcDbDimStyleTableRecord
  2
LEADSTYL
 70
     0
  3

  4

  5

  6
_OPEN
  7
_OPEN
 40
1.0
 41
12.0
 42
0.0625
 43
0.38
 44
0.18
 45
0.0
 46
0.0
 47
0.0
 48
0.0
140
12.6
141
0.09
142
0.0
143
25.4
144
1.0
145
0.0
146
1.0
147
0.6
 71
     0
 72
     0
 73
     1
 74
     1
 75
     0
 76
     0
 77
     0
 78
     0
170
     0
171
     2
172
     0
173
     1
174
     0
175
     0
176
     0
177
     0
178
     0
270
     2
271
     4
272
     4
273
     2
274
     2
340
10
275
     0
280
     0
281
     0
282
     0
283
     1
284
     0
285
     0
286
     0
287
     3
288
     0
  0
ENDTAB
  0
TABLE
  2
BLOCK_RECORD
  5
1
100
AcDbSymbolTable
 70
    14
  0
BLOCK_RECORD
  5
21
100
AcDbSymbolTableRecord
100
AcDbBlockTableRecord
  2
*MODEL_SPACE
  0
BLOCK_RECORD
  5
24
100
AcDbSymbolTableRecord
100
AcDbBlockTableRecord
  2
*PAPER_SPACE
  0
BLOCK_RECORD
  5
29
100
AcDbSymbolTableRecord
100
AcDbBlockTableRecord
  2
_NONE
  0
BLOCK_RECORD
  5
2D
100
AcDbSymbolTableRecord
100
AcDbBlockTableRecord
  2
_OPEN
  0
BLOCK_RECORD
  5
33
100
AcDbSymbolTableRecord
100
AcDbBlockTableRecord
  2
_CLOSED
  0
BLOCK_RECORD
  5
3A
100
AcDbSymbolTableRecord
100
AcDbBlockTableRecord
  2
_ORIGIN
  0
BLOCK_RECORD
  5
3F
100
AcDbSymbolTableRecord
100
AcDbBlockTableRecord
  2
_DOT
  0
BLOCK_RECORD
  5
47
100
AcDbSymbolTableRecord
100
AcDbBlockTableRecord
  2
_OBLIQUE
  0
BLOCK_RECORD
  5
4B
100
AcDbSymbolTableRecord
100
AcDbBlockTableRecord
  2
DIMS0
  0
BLOCK_RECORD
  5
57
100
AcDbSymbolTableRecord
100
AcDbBlockTableRecord
  2
DIMS1
  0
BLOCK_RECORD
  5
63
100
AcDbSymbolTableRecord
100
AcDbBlockTableRecord
  2
DIMS2
  0
BLOCK_RECORD
  5
6F
100
AcDbSymbolTableRecord
100
AcDbBlockTableRecord
  2
DIMS3
  0
BLOCK_RECORD
  5
7B
100
AcDbSymbolTableRecord
100
AcDbBlockTableRecord
  2
DIMS4
  0
BLOCK_RECORD
  5
87
100
AcDbSymbolTableRecord
100
AcDbBlockTableRecord
  2
DIMS5
  0
BLOCK_RECORD
  5
93
100
AcDbSymbolTableRecord
100
AcDbBlockTableRecord
  2
DIMS6
  0
BLOCK_RECORD
  5
9F
100
AcDbSymbolTableRecord
100
AcDbBlockTableRecord
  2
DIMS7
  0
ENDTAB
  0
ENDSEC
  0
SECTION
  2
BLOCKS
  0
BLOCK
  5
22
100
AcDbEntity
  8
0
100
AcDbBlockBegin
  2
*MODEL_SPACE
 70
     0
 10
0.0
 20
0.0
 30
0.0
  3
*MODEL_SPACE
  1

  0
ENDBLK
  5
23
100
AcDbEntity
  8
0
100
AcDbBlockEnd
  0
BLOCK
  5
25
100
AcDbEntity
 67
     1
  8
0
100
AcDbBlockBegin
  2
*PAPER_SPACE
 70
     0
 10
0.0
 20
0.0
 30
0.0
  3
*PAPER_SPACE
  1

  0
ENDBLK
  5
26
100
AcDbEntity
 67
     1
  8
0
100
AcDbBlockEnd
  0
BLOCK
  5
2A
100
AcDbEntity
  8
0
100
AcDbBlockBegin
  2
_NONE
 70
     0
 10
0.0
 20
0.0
  0
CIRCLE
  5
2B
100
AcDbEntity
  8
0
 62
     0
100
AcDbCircle
 10
0.0
 20
0.0
 40
0.25
  0
ENDBLK
  5
2C
100
AcDbEntity
  8
0
100
AcDbBlockEnd
  0
BLOCK
  5
2E
100
AcDbEntity
  8
0
100
AcDbBlockBegin
  2
_OPEN
 70
     0
 10
0.0
 20
0.0
  0
LINE
  5
2F
100
AcDbEntity
  8
0
 62
     0
100
AcDbLine
 10
-0.965926
 20
0.258819
 11
0.0
 21
0.0
  0
LINE
  5
30
100
AcDbEntity
  8
0
 62
     0
100
AcDbLine
 10
0.0
 20
0.0
 11
-0.965926
 21
-0.258819
  0
LINE
  5
31
100
AcDbEntity
  8
0
 62
     0
100
AcDbLine
 10
0.0
 20
0.0
 11
-1.0
 21
0.0
  0
ENDBLK
  5
32
100
AcDbEntity
  8
0
100
AcDbBlockEnd
  0
BLOCK
  5
34
100
AcDbEntity
  8
0
100
AcDbBlockBegin
  2
_CLOSED
 70
     0
 10
0.0
 20
0.0
  0
LINE
  5
35
100
AcDbEntity
  8
0
 62
     0
100
AcDbLine
 10
-0.965926
 20
0.258819
 11
0.0
 21
0.0
  0
LINE
  5
36
100
AcDbEntity
  8
0
 62
     0
100
AcDbLine
 10
0.0
 20
0.0
 11
-0.965926
 21
-0.258819
  0
LINE
  5
37
100
AcDbEntity
  8
0
 62
     0
100
AcDbLine
 10
-0.965926
 20
0.258819
 11
-0.965926
 21
-0.258819
  0
LINE
  5
38
100
AcDbEntity
  8
0
 62
     0
100
AcDbLine
 10
0.0
 20
0.0
 11
-1.0
 21
0.0
  0
ENDBLK
  5
39
100
AcDbEntity
  8
0
100
AcDbBlockEnd
  0
BLOCK
  5
3B
100
AcDbEntity
  8
0
100
AcDbBlockBegin
  2
_ORIGIN
 70
     0
 10
0.0
 20
0.0
  0
CIRCLE
  5
3C
100
AcDbEntity
  8
0
 62
     0
100
AcDbCircle
 10
0.0
 20
0.0
 40
0.5
  0
LINE
  5
3D
100
AcDbEntity
  8
0
 62
     0
100
AcDbLine
 10
0.0
 20
0.0
 11
-1.0
 21
0.0
  0
ENDBLK
  5
3E
100
AcDbEntity
  8
0
100
AcDbBlockEnd
  0
BLOCK
  5
40
100
AcDbEntity
  8
0
100
AcDbBlockBegin
  2
_DOT
 70
     0
 10
0.0
 20
0.0
  0
POLYLINE
  5
41
100
AcDbEntity
  8
0
 62
     0
100
AcDb2dPolyline
 66
     1
 70
     1
 40
0.5
 41
0.5
  0
VERTEX
  5
42
100
AcDbEntity
  8
0
 62
     0
100
AcDbVertex
100
AcDb2dVertex
 10
-0.25
 20
0.0
 42
1.0
  0
VERTEX
  5
43
100
AcDbEntity
  8
0
 62
     0
100
AcDbVertex
100
AcDb2dVertex
 10
0.25
 20
0.0
 42
1.0
  0
SEQEND
  5
44
100
AcDbEntity
  8
0
 62
     0
  0
LINE
  5
45
100
AcDbEntity
  8
0
 62
     0
100
AcDbLine
 10
-0.5
 20
0.0
 11
-1.0
 21
0.0
  0
ENDBLK
  5
46
100
AcDbEntity
  8
0
100
AcDbBlockEnd
  0
BLOCK
  5
48
100
AcDbEntity
  8
0
100
AcDbBlockBegin
  2
_OBLIQUE
 70
     0
 10
0.0
 20
0.0
  0
LINE
  5
49
100
AcDbEntity
  8
0
 62
     0
100
AcDbLine
 10
-0.353553
 20
-0.353553
 11
0.353553
 21
0.353553
  0
ENDBLK
  5
4A
100
AcDbEntity
  8
0
100
AcDbBlockEnd
  0
BLOCK
  5
4C
100
AcDbEntity
  8
DD0
100
AcDbBlockBegin
  2
DIMS0
 70
     0
 10
0.0
 20
0.0
  0
LINE
  5
4D
100
AcDbEntity
  8
DD0
100
AcDbLine
 10
339.223907
 20
1002.814148
 11
403.223907
 21
1002.814148
  0
LINE
  5
4E
100
AcDbEntity
  8
DD0
100
AcDbLine
 10
339.223907
 20
662.814148
 11
403.223907
 21
662.814148
  0
LINE
  5
4F
100
AcDbEntity
  8
DD0
100
AcDbLine
 10
402.329736
 20
991.223038
 11
399.223907
 21
1002.814148
  0
LINE
  5
50
100
AcDbEntity
  8
DD0
100
AcDbLine
 10
399.223907
 20
1002.814148
 11
396.118079
 21
991.223038
  0
LINE
  5
51
100
AcDbEntity
  8
DD0
100
AcDbLine
 10
396.118079
 20
674.405258
 11
399.223907
 21
662.814148
  0
LINE
  5
52
100
AcDbEntity
  8
DD0
100
AcDbLine
 10
399.223907
 20
662.814148
 11
402.329736
 21
674.405258
  0
LINE
  5
53
100
AcDbEntity
  8
DD0
100
AcDbLine
 10
399.223907
 20
1002.814148
 11
399.223907
 21
662.814148
  0
TEXT
  5
54
100
AcDbEntity
  8
DD0
100
AcDbText
 10
396.823914
 20
814.944128
 40
12.6
  1
３４０
 50
90.000003
 41
0.833333
  7
STANDARD
100
AcDbText
  0
ENDBLK
  5
55
100
AcDbEntity
  8
DD0
100
AcDbBlockEnd
  0
BLOCK
  5
58
100
AcDbEntity
  8
DD0
100
AcDbBlockBegin
  2
DIMS1
 70
     0
 10
0.0
 20
0.0
  0
LINE
  5
59
100
AcDbEntity
  8
DD0
100
AcDbLine
 10
335.223907
 20
1006.814148
 11
335.223907
 21
1057.753906
  0
LINE
  5
5A
100
AcDbEntity
  8
DD0
100
AcDbLine
 10
165.624054
 20
1006.814148
 11
165.624054
 21
1057.753906
  0
LINE
  5
5B
100
AcDbEntity
  8
DD0
100
AcDbLine
 10
323.632798
 20
1050.648078
 11
335.223907
 21
1053.753906
  0
LINE
  5
5C
100
AcDbEntity
  8
DD0
100
AcDbLine
 10
335.223907
 20
1053.753906
 11
323.632798
 21
1056.859735
  0
LINE
  5
5D
100
AcDbEntity
  8
DD0
100
AcDbLine
 10
177.215164
 20
1056.859735
 11
165.624054
 21
1053.753906
  0
LINE
  5
5E
100
AcDbEntity
  8
DD0
100
AcDbLine
 10
165.624054
 20
1053.753906
 11
177.215164
 21
1050.648078
  0
LINE
  5
5F
100
AcDbEntity
  8
DD0
100
AcDbLine
 10
335.223907
 20
1053.753906
 11
165.624054
 21
1053.753906
  0
TEXT
  5
60
100
AcDbEntity
  8
DD0
100
AcDbText
 10
232.553992
 20
1056.153931
 40
12.6
  1
１７０
 41
0.833333
  7
STANDARD
100
AcDbText
  0
ENDBLK
  5
61
100
AcDbEntity
  8
DD0
100
AcDbBlockEnd
  0
BLOCK
  5
64
100
AcDbEntity
  8
DD0
100
AcDbBlockBegin
  2
DIMS2
 70
     0
 10
0.0
 20
0.0
  0
LINE
  5
65
100
AcDbEntity
  8
DD0
100
AcDbLine
 10
339.223907
 20
545.575745
 11
403.223907
 21
545.575745
  0
LINE
  5
66
100
AcDbEntity
  8
DD0
100
AcDbLine
 10
294.424438
 20
535.575684
 11
403.223907
 21
535.575684
  0
LINE
  5
67
100
AcDbEntity
  8
DD0
100
AcDbLine
 10
396.118079
 20
557.166855
 11
399.223907
 21
545.575745
  0
LINE
  5
68
100
AcDbEntity
  8
DD0
100
AcDbLine
 10
399.223907
 20
545.575745
 11
402.329736
 21
557.166855
  0
LINE
  5
69
100
AcDbEntity
  8
DD0
100
AcDbLine
 10
402.329736
 20
523.984574
 11
399.223907
 21
535.575684
  0
LINE
  5
6A
100
AcDbEntity
  8
DD0
100
AcDbLine
 10
399.223907
 20
535.575684
 11
396.118079
 21
523.984574
  0
LINE
  5
6B
100
AcDbEntity
  8
DD0
100
AcDbLine
 10
399.223907
 20
587.975746
 11
399.223907
 21
522.375684
  0
TEXT
  5
6C
100
AcDbEntity
  8
DD0
100
AcDbText
 10
396.823914
 20
559.805762
 40
12.6
  1
１０
 50
90.000003
 41
0.833333
  7
STANDARD
100
AcDbText
  0
ENDBLK
  5
6D
100
AcDbEntity
  8
DD0
100
AcDbBlockEnd
  0
BLOCK
  5
70
100
AcDbEntity
  8
DD0
100
AcDbBlockBegin
  2
DIMS3
 70
     0
 10
0.0
 20
0.0
  0
LINE
  5
71
100
AcDbEntity
  8
DD0
100
AcDbLine
 10
294.424438
 20
535.575684
 11
403.223907
 21
535.575684
  0
LINE
  5
72
100
AcDbEntity
  8
DD0
100
AcDbLine
 10
294.423859
 20
215.575729
 11
403.223907
 21
215.575729
  0
LINE
  5
73
100
AcDbEntity
  8
DD0
100
AcDbLine
 10
402.329736
 20
523.984574
 11
399.223907
 21
535.575684
  0
LINE
  5
74
100
AcDbEntity
  8
DD0
100
AcDbLine
 10
399.223907
 20
535.575684
 11
396.118079
 21
523.984574
  0
LINE
  5
75
100
AcDbEntity
  8
DD0
100
AcDbLine
 10
396.118079
 20
227.166839
 11
399.223907
 21
215.575729
  0
LINE
  5
76
100
AcDbEntity
  8
DD0
100
AcDbLine
 10
399.223907
 20
215.575729
 11
402.329736
 21
227.166839
  0
LINE
  5
77
100
AcDbEntity
  8
DD0
100
AcDbLine
 10
399.223907
 20
535.575684
 11
399.223907
 21
215.575729
  0
TEXT
  5
78
100
AcDbEntity
  8
DD0
100
AcDbText
 10
396.823914
 20
357.705725
 40
12.6
  1
３２０
 50
90.000003
 41
0.833333
  7
STANDARD
100
AcDbText
  0
ENDBLK
  5
79
100
AcDbEntity
  8
DD0
100
AcDbBlockEnd
  0
BLOCK
  5
7C
100
AcDbEntity
  8
DD0
100
AcDbBlockBegin
  2
DIMS4
 70
     0
 10
0.0
 20
0.0
  0
LINE
  5
7D
100
AcDbEntity
  8
DD0
100
AcDbLine
 10
220.424454
 20
549.575745
 11
220.424454
 21
596.77832
  0
LINE
  5
7E
100
AcDbEntity
  8
DD0
100
AcDbLine
 10
280.424438
 20
549.575684
 11
280.424438
 21
596.77832
  0
LINE
  5
7F
100
AcDbEntity
  8
DD0
100
AcDbLine
 10
232.015564
 20
595.884149
 11
220.424454
 21
592.77832
  0
LINE
  5
80
100
AcDbEntity
  8
DD0
100
AcDbLine
 10
220.424454
 20
592.77832
 11
232.015564
 21
589.672492
  0
LINE
  5
81
100
AcDbEntity
  8
DD0
100
AcDbLine
 10
268.833329
 20
589.672492
 11
280.424438
 21
592.77832
  0
LINE
  5
82
100
AcDbEntity
  8
DD0
100
AcDbLine
 10
280.424438
 20
592.77832
 11
268.833329
 21
595.884149
  0
LINE
  5
83
100
AcDbEntity
  8
DD0
100
AcDbLine
 10
220.424454
 20
592.77832
 11
280.424438
 21
592.77832
  0
TEXT
  5
84
100
AcDbEntity
  8
DD0
100
AcDbText
 10
238.854437
 20
595.178345
 40
12.6
  1
６０
 41
0.833333
  7
STANDARD
100
AcDbText
  0
ENDBLK
  5
85
100
AcDbEntity
  8
DD0
100
AcDbBlockEnd
  0
BLOCK
  5
88
100
AcDbEntity
  8
DD0
100
AcDbBlockBegin
  2
DIMS5
 70
     0
 10
0.0
 20
0.0
  0
LINE
  5
89
100
AcDbEntity
  8
DD0
100
AcDbLine
 10
709.310791
 20
1009.753906
 11
709.310791
 21
1057.166016
  0
LINE
  5
8A
100
AcDbEntity
  8
DD0
100
AcDbLine
 10
481.810852
 20
973.953979
 11
481.810852
 21
1057.166016
  0
LINE
  5
8B
100
AcDbEntity
  8
DD0
100
AcDbLine
 10
697.719681
 20
1050.060187
 11
709.310791
 21
1053.166016
  0
LINE
  5
8C
100
AcDbEntity
  8
DD0
100
AcDbLine
 10
709.310791
 20
1053.166016
 11
697.719681
 21
1056.271844
  0
LINE
  5
8D
100
AcDbEntity
  8
DD0
100
AcDbLine
 10
493.401962
 20
1056.271844
 11
481.810852
 21
1053.166016
  0
LINE
  5
8E
100
AcDbEntity
  8
DD0
100
AcDbLine
 10
481.810852
 20
1053.166016
 11
493.401962
 21
1050.060187
  0
LINE
  5
8F
100
AcDbEntity
  8
DD0
100
AcDbLine
 10
709.310791
 20
1053.166016
 11
481.810852
 21
1053.166016
  0
TEXT
  5
90
100
AcDbEntity
  8
DD0
100
AcDbText
 10
577.690771
 20
1055.56604
 40
12.6
  1
２２７
 41
0.833333
  7
STANDARD
100
AcDbText
  0
ENDBLK
  5
91
100
AcDbEntity
  8
DD0
100
AcDbBlockEnd
  0
BLOCK
  5
94
100
AcDbEntity
  8
DD0
100
AcDbBlockBegin
  2
DIMS6
 70
     0
 10
0.0
 20
0.0
  0
LINE
  5
95
100
AcDbEntity
  8
DD0
100
AcDbLine
 10
703.811035
 20
1009.753906
 11
703.811035
 21
1028.484619
  0
LINE
  5
96
100
AcDbEntity
  8
DD0
100
AcDbLine
 10
709.310791
 20
1009.753906
 11
709.310791
 21
1028.484619
  0
LINE
  5
97
100
AcDbEntity
  8
DD0
100
AcDbLine
 10
692.219925
 20
1021.378791
 11
703.811035
 21
1024.484619
  0
LINE
  5
98
100
AcDbEntity
  8
DD0
100
AcDbLine
 10
703.811035
 20
1024.484619
 11
692.219925
 21
1027.590448
  0
LINE
  5
99
100
AcDbEntity
  8
DD0
100
AcDbLine
 10
720.901901
 20
1027.590448
 11
709.310791
 21
1024.484619
  0
LINE
  5
9A
100
AcDbEntity
  8
DD0
100
AcDbLine
 10
709.310791
 20
1024.484619
 11
720.901901
 21
1021.378791
  0
LINE
  5
9B
100
AcDbEntity
  8
DD0
100
AcDbLine
 10
636.211037
 20
1024.484619
 11
722.510791
 21
1024.484619
  0
TEXT
  5
9C
100
AcDbEntity
  8
DD0
100
AcDbText
 10
639.441016
 20
1026.884644
 40
12.6
  1
ｔ５．５
 41
0.833333
  7
STANDARD
100
AcDbText
  0
ENDBLK
  5
9D
100
AcDbEntity
  8
DD0
100
AcDbBlockEnd
  0
BLOCK
  5
A0
100
AcDbEntity
  8
DD0
100
AcDbBlockBegin
  2
DIMS7
 70
     0
 10
0.0
 20
0.0
  0
TEXT
  5
A1
100
AcDbEntity
  8
DD0
100
AcDbText
 10
70.15412
 20
160.016296
 40
12.6
  1
４－Ｍ８ねし゛穴
 41
0.833333
  7
STANDARD
100
AcDbText
  0
LINE
  5
A2
100
AcDbEntity
  8
DD0
100
AcDbLine
 10
213.472563
 20
201.308507
 11
216.868042
 21
212.8181
  0
LINE
  5
A3
100
AcDbEntity
  8
DD0
100
AcDbLine
 10
216.868042
 20
212.8181
 11
208.172675
 21
204.54824
  0
LINE
  5
A4
100
AcDbEntity
  8
DD0
100
AcDbLine
 10
216.868042
 20
212.8181
 11
183.124115
 21
157.616302
  0
LINE
  5
A5
100
AcDbEntity
  8
DD0
100
AcDbLine
 10
183.124115
 20
157.616302
 11
55.924122
 21
157.616302
  0
ENDBLK
  5
A6
100
AcDbEntity
  8
DD0
100
AcDbBlockEnd
  0
ENDSEC
  0
SECTION
  2
ENTITIES
  0
INSERT
  5
56
100
AcDbEntity
  8
DD0
100
AcDbBlockReference
  2
DIMS0
 10
0.0
 20
0.0
  0
INSERT
  5
62
100
AcDbEntity
  8
DD0
100
AcDbBlockReference
  2
DIMS1
 10
0.0
 20
0.0
  0
INSERT
  5
6E
100
AcDbEntity
  8
DD0
100
AcDbBlockReference
  2
DIMS2
 10
0.0
 20
0.0
  0
INSERT
  5
7A
100
AcDbEntity
  8
DD0
100
AcDbBlockReference
  2
DIMS3
 10
0.0
 20
0.0
  0
INSERT
  5
86
100
AcDbEntity
  8
DD0
100
AcDbBlockReference
  2
DIMS4
 10
0.0
 20
0.0
  0
INSERT
  5
92
100
AcDbEntity
  8
DD0
100
AcDbBlockReference
  2
DIMS5
 10
0.0
 20
0.0
  0
INSERT
  5
9E
100
AcDbEntity
  8
DD0
100
AcDbBlockReference
  2
DIMS6
 10
0.0
 20
0.0
  0
INSERT
  5
A7
100
AcDbEntity
  8
DD0
100
AcDbBlockReference
  2
DIMS7
 10
0.0
 20
0.0
  0
ARC
  5
A8
100
AcDbEntity
  8
M0
100
AcDbCircle
 10
279.924183
 20
958.813967
 40
2.0
100
AcDbArc
 50
0.0
 51
90.0
  0
LINE
  5
A9
100
AcDbEntity
  8
M0
100
AcDbLine
 10
279.924183
 20
960.813967
 11
270.924183
 21
960.813967
  0
ARC
  5
AA
100
AcDbEntity
  8
M0
100
AcDbCircle
 10
270.924183
 20
958.813967
 40
2.0
100
AcDbArc
 50
90.0
 51
180.0
  0
LINE
  5
AB
100
AcDbEntity
  8
M0
100
AcDbLine
 10
276.424183
 20
960.813967
 11
276.424183
 21
957.813967
  0
LINE
  5
AC
100
AcDbEntity
  8
M0
100
AcDbLine
 10
274.424183
 20
960.813967
 11
274.424183
 21
957.813967
  0
ARC
  5
AD
100
AcDbEntity
  8
M0
100
AcDbCircle
 10
269.924183
 20
956.813967
 40
1.0
100
AcDbArc
 50
90.0
 51
180.0
  0
ARC
  5
AE
100
AcDbEntity
  8
M0
100
AcDbCircle
 10
280.924183
 20
956.813967
 40
1.0
100
AcDbArc
 50
0.0
 51
90.0
  0
ARC
  5
AF
100
AcDbEntity
  8
M0
100
AcDbCircle
 10
278.924183
 20
956.813967
 40
1.0
100
AcDbArc
 50
90.0
 51
180.0
  0
ARC
  5
B0
100
AcDbEntity
  8
M0
100
AcDbCircle
 10
271.924183
 20
956.813967
 40
1.0
100
AcDbArc
 50
0.0
 51
90.0
  0
ARC
  5
B1
100
AcDbEntity
  8
M0
100
AcDbCircle
 10
273.924183
 20
956.813967
 40
1.0
100
AcDbArc
 50
90.0
 51
180.0
  0
ARC
  5
B2
100
AcDbEntity
  8
M0
100
AcDbCircle
 10
276.924183
 20
956.813967
 40
1.0
100
AcDbArc
 50
0.0
 51
90.0
  0
LINE
  5
B3
100
AcDbEntity
  8
M0
100
AcDbLine
 10
280.924183
 20
957.813967
 11
278.924183
 21
957.813967
  0
LINE
  5
B4
100
AcDbEntity
  8
M0
100
AcDbLine
 10
271.924183
 20
957.813967
 11
269.924183
 21
957.813967
  0
LINE
  5
B5
100
AcDbEntity
  8
M0
100
AcDbLine
 10
276.924183
 20
957.813967
 11
276.424183
 21
957.813967
  0
LINE
  5
B6
100
AcDbEntity
  8
M0
100
AcDbLine
 10
274.424183
 20
957.813967
 11
273.924183
 21
957.813967
  0
LINE
  5
B7
100
AcDbEntity
  8
M0
100
AcDbLine
 10
272.924183
 20
956.813967
 11
272.924183
 21
954.813967
  0
ARC
  5
B8
100
AcDbEntity
  8
M0
100
AcDbCircle
 10
273.924183
 20
954.813967
 40
1.0
100
AcDbArc
 50
180.0
 51
269.999126
  0
LINE
  5
B9
100
AcDbEntity
  8
M0
100
AcDbLine
 10
277.924183
 20
954.813967
 11
277.924183
 21
956.813967
  0
ARC
  5
BA
100
AcDbEntity
  8
M0
100
AcDbCircle
 10
276.924183
 20
954.813967
 40
1.0
100
AcDbArc
 50
269.999126
 51
360.0
  0
LINE
  5
BB
100
AcDbEntity
  8
M0
100
AcDbLine
 10
260.424183
 20
952.813967
 11
260.424183
 21
948.813967
  0
ARC
  5
BC
100
AcDbEntity
  8
M0
100
AcDbCircle
 10
261.424183
 20
952.813967
 40
1.0
100
AcDbArc
 50
90.0
 51
180.0
  0
LINE
  5
BD
100
AcDbEntity
  8
M0
100
AcDbLine
 10
268.924183
 20
954.813967
 11
268.924183
 21
958.813967
  0
ARC
  5
BE
100
AcDbEntity
  8
M0
100
AcDbCircle
 10
267.924183
 20
954.813967
 40
1.0
100
AcDbArc
 50
269.999126
 51
360.0
  0
LINE
  5
BF
100
AcDbEntity
  8
M0
100
AcDbLine
 10
285.424183
 20
952.813967
 11
285.424183
 21
948.813967
  0
ARC
  5
C0
100
AcDbEntity
  8
M0
100
AcDbCircle
 10
284.424183
 20
952.813967
 40
1.0
100
AcDbArc
 50
0.0
 51
90.0
  0
LINE
  5
C1
100
AcDbEntity
  8
M0
100
AcDbLine
 10
305.424183
 20
952.813967
 11
305.424183
 21
948.813967
  0
ARC
  5
C2
100
AcDbEntity
  8
M0
100
AcDbCircle
 10
306.424183
 20
952.813967
 40
1.0
100
AcDbArc
 50
90.0
 51
180.0
  0
LINE
  5
C3
100
AcDbEntity
  8
M0
100
AcDbLine
 10
305.424183
 20
948.813967
 11
285.424183
 21
948.813967
  0
LINE
  5
C4
100
AcDbEntity
  8
M0
100
AcDbLine
 10
281.924183
 20
953.813967
 11
281.924183
 21
958.813967
  0
LINE
  5
C5
100
AcDbEntity
  8
M0
100
AcDbLine
 10
276.924183
 20
953.813967
 11
273.924183
 21
953.813967
  0
LINE
  5
C6
100
AcDbEntity
  8
M0
100
AcDbLine
 10
314.424183
 20
953.813967
 11
281.924183
 21
953.813967
  0
ARC
  5
C7
100
AcDbEntity
  8
M0
100
AcDbCircle
 10
314.424183
 20
948.813967
 40
5.0
100
AcDbArc
 50
0.0
 51
90.0
  0
ARC
  5
C8
100
AcDbEntity
  8
M0
100
AcDbCircle
 10
220.924183
 20
958.813967
 40
2.0
100
AcDbArc
 50
90.0
 51
180.0
  0
LINE
  5
C9
100
AcDbEntity
  8
M0
100
AcDbLine
 10
220.924183
 20
960.813967
 11
229.924183
 21
960.813967
  0
ARC
  5
CA
100
AcDbEntity
  8
M0
100
AcDbCircle
 10
229.924183
 20
958.813967
 40
2.0
100
AcDbArc
 50
0.0
 51
90.0
  0
LINE
  5
CB
100
AcDbEntity
  8
M0
100
AcDbLine
 10
224.424183
 20
960.813967
 11
224.424183
 21
957.813967
  0
LINE
  5
CC
100
AcDbEntity
  8
M0
100
AcDbLine
 10
226.424183
 20
960.813967
 11
226.424183
 21
957.813967
  0
ARC
  5
CD
100
AcDbEntity
  8
M0
100
AcDbCircle
 10
230.924183
 20
956.813967
 40
1.0
100
AcDbArc
 50
0.0
 51
90.0
  0
ARC
  5
CE
100
AcDbEntity
  8
M0
100
AcDbCircle
 10
219.924183
 20
956.813967
 40
1.0
100
AcDbArc
 50
90.0
 51
180.0
  0
ARC
  5
CF
100
AcDbEntity
  8
M0
100
AcDbCircle
 10
221.924183
 20
956.813967
 40
1.0
100
AcDbArc
 50
0.0
 51
90.0
  0
ARC
  5
D0
100
AcDbEntity
  8
M0
100
AcDbCircle
 10
228.924183
 20
956.813967
 40
1.0
100
AcDbArc
 50
90.0
 51
180.0
  0
ARC
  5
D1
100
AcDbEntity
  8
M0
100
AcDbCircle
 10
226.924183
 20
956.813967
 40
1.0
100
AcDbArc
 50
0.0
 51
90.0
  0
ARC
  5
D2
100
AcDbEntity
  8
M0
100
AcDbCircle
 10
223.924183
 20
956.813967
 40
1.0
100
AcDbArc
 50
90.0
 51
180.0
  0
LINE
  5
D3
100
AcDbEntity
  8
M0
100
AcDbLine
 10
219.924183
 20
957.813967
 11
221.924183
 21
957.813967
  0
LINE
  5
D4
100
AcDbEntity
  8
M0
100
AcDbLine
 10
228.924183
 20
957.813967
 11
230.924183
 21
957.813967
  0
LINE
  5
D5
100
AcDbEntity
  8
M0
100
AcDbLine
 10
223.924183
 20
957.813967
 11
224.424183
 21
957.813967
  0
LINE
  5
D6
100
AcDbEntity
  8
M0
100
AcDbLine
 10
226.424183
 20
957.813967
 11
226.924183
 21
957.813967
  0
LINE
  5
D7
100
AcDbEntity
  8
M0
100
AcDbLine
 10
227.924183
 20
956.813967
 11
227.924183
 21
954.813967
  0
ARC
  5
D8
100
AcDbEntity
  8
M0
100
AcDbCircle
 10
226.924183
 20
954.813967
 40
1.0
100
AcDbArc
 50
-90.000874
 51
0.0
  0
LINE
  5
D9
100
AcDbEntity
  8
M0
100
AcDbLine
 10
222.924183
 20
954.813967
 11
222.924183
 21
956.813967
  0
ARC
  5
DA
100
AcDbEntity
  8
M0
100
AcDbCircle
 10
223.924183
 20
954.813967
 40
1.0
100
AcDbArc
 50
180.0
 51
270.0
  0
LINE
  5
DB
100
AcDbEntity
  8
M0
100
AcDbLine
 10
240.424183
 20
952.813967
 11
240.424183
 21
948.813967
  0
ARC
  5
DC
100
AcDbEntity
  8
M0
100
AcDbCircle
 10
239.424183
 20
952.813967
 40
1.0
100
AcDbArc
 50
0.0
 51
90.0
  0
LINE
  5
DD
100
AcDbEntity
  8
M0
100
AcDbLine
 10
231.924183
 20
954.813967
 11
231.924183
 21
958.813967
  0
LINE
  5
DE
100
AcDbEntity
  8
M0
100
AcDbLine
 10
267.924183
 20
953.813967
 11
232.924183
 21
953.813967
  0
LINE
  5
DF
100
AcDbEntity
  8
M0
100
AcDbLine
 10
260.424183
 20
948.813967
 11
240.424183
 21
948.813967
  0
LINE
  5
E0
100
AcDbEntity
  8
M0
100
AcDbLine
 10
319.424183
 20
816.813967
 11
319.424183
 21
948.813967
  0
ARC
  5
E1
100
AcDbEntity
  8
M0
100
AcDbCircle
 10
232.924183
 20
954.813967
 40
1.0
100
AcDbArc
 50
180.0
 51
269.999126
  0
LINE
  5
E2
100
AcDbEntity
  8
M0
100
AcDbLine
 10
215.424183
 20
952.813967
 11
215.424183
 21
948.813967
  0
ARC
  5
E3
100
AcDbEntity
  8
M0
100
AcDbCircle
 10
216.424183
 20
952.813967
 40
1.0
100
AcDbArc
 50
90.0
 51
180.0
  0
LINE
  5
E4
100
AcDbEntity
  8
M0
100
AcDbLine
 10
195.424183
 20
952.813967
 11
195.424183
 21
948.813967
  0
ARC
  5
E5
100
AcDbEntity
  8
M0
100
AcDbCircle
 10
194.424183
 20
952.813967
 40
1.0
100
AcDbArc
 50
0.0
 51
90.0
  0
LINE
  5
E6
100
AcDbEntity
  8
M0
100
AcDbLine
 10
195.424183
 20
948.813967
 11
215.424183
 21
948.813967
  0
LINE
  5
E7
100
AcDbEntity
  8
M0
100
AcDbLine
 10
218.924183
 20
953.813967
 11
218.924183
 21
958.813967
  0
LINE
  5
E8
100
AcDbEntity
  8
M0
100
AcDbLine
 10
223.924183
 20
953.813967
 11
226.924183
 21
953.813967
  0
LINE
  5
E9
100
AcDbEntity
  8
M0
100
AcDbLine
 10
186.424183
 20
953.813967
 11
218.924183
 21
953.813967
  0
ARC
  5
EA
100
AcDbEntity
  8
M0
100
AcDbCircle
 10
186.424183
 20
948.813967
 40
5.0
100
AcDbArc
 50
89.999825
 51
180.0
  0
ARC
  5
EB
100
AcDbEntity
  8
M0
100
AcDbCircle
 10
279.924183
 20
806.813967
 40
2.0
100
AcDbArc
 50
-90.000437
 51
0.0
  0
LINE
  5
EC
100
AcDbEntity
  8
M0
100
AcDbLine
 10
279.924183
 20
804.813967
 11
270.924183
 21
804.813967
  0
ARC
  5
ED
100
AcDbEntity
  8
M0
100
AcDbCircle
 10
270.924183
 20
806.813967
 40
2.0
100
AcDbArc
 50
180.0
 51
269.999563
  0
LINE
  5
EE
100
AcDbEntity
  8
M0
100
AcDbLine
 10
276.424183
 20
804.813967
 11
276.424183
 21
807.813967
  0
LINE
  5
EF
100
AcDbEntity
  8
M0
100
AcDbLine
 10
274.424183
 20
804.813967
 11
274.424183
 21
807.813967
  0
ARC
  5
F0
100
AcDbEntity
  8
M0
100
AcDbCircle
 10
269.924183
 20
808.813967
 40
1.0
100
AcDbArc
 50
180.0
 51
269.999126
  0
ARC
  5
F1
100
AcDbEntity
  8
M0
100
AcDbCircle
 10
280.924183
 20
808.813967
 40
1.0
100
AcDbArc
 50
-90.000874
 51
0.0
  0
ARC
  5
F2
100
AcDbEntity
  8
M0
100
AcDbCircle
 10
278.924183
 20
808.813967
 40
1.0
100
AcDbArc
 50
180.0
 51
269.999126
  0
ARC
  5
F3
100
AcDbEntity
  8
M0
100
AcDbCircle
 10
271.924183
 20
808.813967
 40
1.0
100
AcDbArc
 50
-90.000874
 51
0.0
  0
ARC
  5
F4
100
AcDbEntity
  8
M0
100
AcDbCircle
 10
273.924183
 20
808.813967
 40
1.0
100
AcDbArc
 50
180.0
 51
269.999126
  0
ARC
  5
F5
100
AcDbEntity
  8
M0
100
AcDbCircle
 10
276.924183
 20
808.813967
 40
1.0
100
AcDbArc
 50
-90.000874
 51
0.0
  0
LINE
  5
F6
100
AcDbEntity
  8
M0
100
AcDbLine
 10
280.924183
 20
807.813967
 11
278.924183
 21
807.813967
  0
LINE
  5
F7
100
AcDbEntity
  8
M0
100
AcDbLine
 10
271.924183
 20
807.813967
 11
269.924183
 21
807.813967
  0
LINE
  5
F8
100
AcDbEntity
  8
M0
100
AcDbLine
 10
276.924183
 20
807.813967
 11
276.424183
 21
807.813967
  0
LINE
  5
F9
100
AcDbEntity
  8
M0
100
AcDbLine
 10
274.424183
 20
807.813967
 11
273.924183
 21
807.813967
  0
LINE
  5
FA
100
AcDbEntity
  8
M0
100
AcDbLine
 10
272.924183
 20
808.813967
 11
272.924183
 21
810.813967
  0
ARC
  5
FB
100
AcDbEntity
  8
M0
100
AcDbCircle
 10
273.924183
 20
810.813967
 40
1.0
100
AcDbArc
 50
90.0
 51
180.0
  0
LINE
  5
FC
100
AcDbEntity
  8
M0
100
AcDbLine
 10
277.924183
 20
810.813967
 11
277.924183
 21
808.813967
  0
ARC
  5
FD
100
AcDbEntity
  8
M0
100
AcDbCircle
 10
276.924183
 20
810.813967
 40
1.0
100
AcDbArc
 50
0.0
 51
90.0
  0
LINE
  5
FE
100
AcDbEntity
  8
M0
100
AcDbLine
 10
260.424183
 20
812.813967
 11
260.424183
 21
816.813967
  0
ARC
  5
FF
100
AcDbEntity
  8
M0
100
AcDbCircle
 10
261.424183
 20
812.813967
 40
1.0
100
AcDbArc
 50
180.0
 51
269.999126
  0
LINE
  5
100
100
AcDbEntity
  8
M0
100
AcDbLine
 10
268.924183
 20
810.813967
 11
268.924183
 21
806.813967
  0
ARC
  5
101
100
AcDbEntity
  8
M0
100
AcDbCircle
 10
267.924183
 20
810.813967
 40
1.0
100
AcDbArc
 50
0.0
 51
90.0
  0
LINE
  5
102
100
AcDbEntity
  8
M0
100
AcDbLine
 10
285.424183
 20
812.813967
 11
285.424183
 21
816.813967
  0
ARC
  5
103
100
AcDbEntity
  8
M0
100
AcDbCircle
 10
284.424183
 20
812.813967
 40
1.0
100
AcDbArc
 50
-90.000874
 51
0.0
  0
LINE
  5
104
100
AcDbEntity
  8
M0
100
AcDbLine
 10
305.424183
 20
812.813967
 11
305.424183
 21
816.813967
  0
ARC
  5
105
100
AcDbEntity
  8
M0
100
AcDbCircle
 10
306.424183
 20
812.813967
 40
1.0
100
AcDbArc
 50
180.0
 51
269.999126
  0
LINE
  5
106
100
AcDbEntity
  8
M0
100
AcDbLine
 10
305.424183
 20
816.813967
 11
285.424183
 21
816.813967
  0
LINE
  5
107
100
AcDbEntity
  8
M0
100
AcDbLine
 10
281.924183
 20
811.813967
 11
281.924183
 21
806.813967
  0
LINE
  5
108
100
AcDbEntity
  8
M0
100
AcDbLine
 10
276.924183
 20
811.813967
 11
273.924183
 21
811.813967
  0
LINE
  5
109
100
AcDbEntity
  8
M0
100
AcDbLine
 10
314.424183
 20
811.813967
 11
281.924183
 21
811.813967
  0
ARC
  5
10A
100
AcDbEntity
  8
M0
100
AcDbCircle
 10
314.424183
 20
816.813967
 40
5.0
100
AcDbArc
 50
-90.000175
 51
0.0
  0
LINE
  5
10B
100
AcDbEntity
  8
M0
100
AcDbLine
 10
267.924183
 20
811.813967
 11
232.924183
 21
811.813967
  0
LINE
  5
10C
100
AcDbEntity
  8
M0
100
AcDbLine
 10
260.424183
 20
816.813967
 11
240.424183
 21
816.813967
  0
ARC
  5
10D
100
AcDbEntity
  8
M0
100
AcDbCircle
 10
220.924183
 20
806.813967
 40
2.0
100
AcDbArc
 50
180.0
 51
270.0
  0
LINE
  5
10E
100
AcDbEntity
  8
M0
100
AcDbLine
 10
220.924183
 20
804.813967
 11
229.924183
 21
804.813967
  0
ARC
  5
10F
100
AcDbEntity
  8
M0
100
AcDbCircle
 10
229.924183
 20
806.813967
 40
2.0
100
AcDbArc
 50
269.999563
 51
360.0
  0
LINE
  5
110
100
AcDbEntity
  8
M0
100
AcDbLine
 10
224.424183
 20
804.813967
 11
224.424183
 21
807.813967
  0
LINE
  5
111
100
AcDbEntity
  8
M0
100
AcDbLine
 10
226.424183
 20
804.813967
 11
226.424183
 21
807.813967
  0
ARC
  5
112
100
AcDbEntity
  8
M0
100
AcDbCircle
 10
230.924183
 20
808.813967
 40
1.0
100
AcDbArc
 50
269.999126
 51
360.0
  0
ARC
  5
113
100
AcDbEntity
  8
M0
100
AcDbCircle
 10
219.924183
 20
808.813967
 40
1.0
100
AcDbArc
 50
180.0
 51
270.0
  0
ARC
  5
114
100
AcDbEntity
  8
M0
100
AcDbCircle
 10
221.924183
 20
808.813967
 40
1.0
100
AcDbArc
 50
270.0
 51
360.0
  0
ARC
  5
115
100
AcDbEntity
  8
M0
100
AcDbCircle
 10
228.924183
 20
808.813967
 40
1.0
100
AcDbArc
 50
180.0
 51
269.999126
  0
ARC
  5
116
100
AcDbEntity
  8
M0
100
AcDbCircle
 10
226.924183
 20
808.813967
 40
1.0
100
AcDbArc
 50
269.999126
 51
360.0
  0
ARC
  5
117
100
AcDbEntity
  8
M0
100
AcDbCircle
 10
223.924183
 20
808.813967
 40
1.0
100
AcDbArc
 50
180.0
 51
270.0
  0
LINE
  5
118
100
AcDbEntity
  8
M0
100
AcDbLine
 10
219.924183
 20
807.813967
 11
221.924183
 21
807.813967
  0
LINE
  5
119
100
AcDbEntity
  8
M0
100
AcDbLine
 10
228.924183
 20
807.813967
 11
230.924183
 21
807.813967
  0
LINE
  5
11A
100
AcDbEntity
  8
M0
100
AcDbLine
 10
181.424198
 20
816.813967
 11
181.424198
 21
948.813967
  0
LINE
  5
11B
100
AcDbEntity
  8
M0
100
AcDbLine
 10
223.924183
 20
807.813967
 11
224.424183
 21
807.813967
  0
LINE
  5
11C
100
AcDbEntity
  8
M0
100
AcDbLine
 10
226.424183
 20
807.813967
 11
226.924183
 21
807.813967
  0
LINE
  5
11D
100
AcDbEntity
  8
M0
100
AcDbLine
 10
227.924183
 20
808.813967
 11
227.924183
 21
810.813967
  0
ARC
  5
11E
100
AcDbEntity
  8
M0
100
AcDbCircle
 10
226.924183
 20
810.813967
 40
1.0
100
AcDbArc
 50
0.0
 51
90.0
  0
LINE
  5
11F
100
AcDbEntity
  8
M0
100
AcDbLine
 10
222.924183
 20
810.813967
 11
222.924183
 21
808.813967
  0
ARC
  5
120
100
AcDbEntity
  8
M0
100
AcDbCircle
 10
223.924183
 20
810.813967
 40
1.0
100
AcDbArc
 50
90.0
 51
180.0
  0
LINE
  5
121
100
AcDbEntity
  8
M0
100
AcDbLine
 10
240.424183
 20
812.813967
 11
240.424183
 21
816.813967
  0
ARC
  5
122
100
AcDbEntity
  8
M0
100
AcDbCircle
 10
239.424183
 20
812.813967
 40
1.0
100
AcDbArc
 50
269.999126
 51
360.0
  0
LINE
  5
123
100
AcDbEntity
  8
M0
100
AcDbLine
 10
231.924183
 20
810.813967
 11
231.924183
 21
806.813967
  0
ARC
  5
124
100
AcDbEntity
  8
M0
100
AcDbCircle
 10
232.924183
 20
810.813967
 40
1.0
100
AcDbArc
 50
90.0
 51
180.0
  0
LINE
  5
125
100
AcDbEntity
  8
M0
100
AcDbLine
 10
215.424183
 20
812.813967
 11
215.424183
 21
816.813967
  0
ARC
  5
126
100
AcDbEntity
  8
M0
100
AcDbCircle
 10
216.424183
 20
812.813967
 40
1.0
100
AcDbArc
 50
180.0
 51
270.0
  0
LINE
  5
127
100
AcDbEntity
  8
M0
100
AcDbLine
 10
195.424183
 20
812.813967
 11
195.424183
 21
816.813967
  0
ARC
  5
128
100
AcDbEntity
  8
M0
100
AcDbCircle
 10
194.424183
 20
812.813967
 40
1.0
100
AcDbArc
 50
270.0
 51
360.0
  0
LINE
  5
129
100
AcDbEntity
  8
M0
100
AcDbLine
 10
195.424183
 20
816.813967
 11
215.424183
 21
816.813967
  0
LINE
  5
12A
100
AcDbEntity
  8
M0
100
AcDbLine
 10
218.924183
 20
811.813967
 11
218.924183
 21
806.813967
  0
LINE
  5
12B
100
AcDbEntity
  8
M0
100
AcDbLine
 10
223.924183
 20
811.813967
 11
226.924183
 21
811.813967
  0
LINE
  5
12C
100
AcDbEntity
  8
M0
100
AcDbLine
 10
186.424183
 20
811.813967
 11
218.924183
 21
811.813967
  0
ARC
  5
12D
100
AcDbEntity
  8
M0
100
AcDbCircle
 10
186.424183
 20
816.813967
 40
5.0
100
AcDbArc
 50
180.0
 51
270.0
  0
TEXT
  5
12E
100
AcDbEntity
  8
M0
100
AcDbText
 10
308.374007
 20
910.247179
 40
7.0
  1
１３
 41
0.595238
  7
STANDARD
100
AcDbText
  0
TEXT
  5
12F
100
AcDbEntity
  8
M0
100
AcDbText
 10
308.374007
 20
898.580508
 40
7.0
  1
２１
 41
0.595238
  7
STANDARD
100
AcDbText
  0
TEXT
  5
130
100
AcDbEntity
  8
M0
100
AcDbText
 10
308.374007
 20
883.880511
 40
7.0
  1
２２
 41
0.595238
  7
STANDARD
100
AcDbText
  0
TEXT
  5
131
100
AcDbEntity
  8
M0
100
AcDbText
 10
308.374007
 20
870.847185
 40
7.0
  1
１４
 41
0.595238
  7
STANDARD
100
AcDbText
  0
TEXT
  5
132
100
AcDbEntity
  8
M0
100
AcDbText
 10
345.774016
 20
870.847185
 40
7.0
  1
５４
 41
0.595238
  7
STANDARD
100
AcDbText
  0
TEXT
  5
133
100
AcDbEntity
  8
M0
100
AcDbText
 10
345.774016
 20
883.880511
 40
7.0
  1
６２
 41
0.595238
  7
STANDARD
100
AcDbText
  0
TEXT
  5
134
100
AcDbEntity
  8
M0
100
AcDbText
 10
345.774016
 20
898.580508
 40
7.0
  1
６１
 41
0.595238
  7
STANDARD
100
AcDbText
  0
TEXT
  5
135
100
AcDbEntity
  8
M0
100
AcDbText
 10
345.774016
 20
910.247835
 40
7.0
  1
５３
 41
0.595238
  7
STANDARD
100
AcDbText
  0
TEXT
  5
136
100
AcDbEntity
  8
M0
100
AcDbText
 10
184.240681
 20
870.847185
 40
7.0
  1
３４
 41
0.595238
  7
STANDARD
100
AcDbText
  0
TEXT
  5
137
100
AcDbEntity
  8
M0
100
AcDbText
 10
184.240681
 20
883.880511
 40
7.0
  1
４２
 41
0.595238
  7
STANDARD
100
AcDbText
  0
TEXT
  5
138
100
AcDbEntity
  8
M0
100
AcDbText
 10
184.240681
 20
898.580508
 40
7.0
  1
４１
 41
0.595238
  7
STANDARD
100
AcDbText
  0
TEXT
  5
139
100
AcDbEntity
  8
M0
100
AcDbText
 10
184.240681
 20
911.913836
 40
7.0
  1
３３
 41
0.595238
  7
STANDARD
100
AcDbText
  0
TEXT
  5
13A
100
AcDbEntity
  8
M0
100
AcDbText
 10
145.640677
 20
911.913836
 40
7.0
  1
７３
 41
0.595238
  7
STANDARD
100
AcDbText
  0
TEXT
  5
13B
100
AcDbEntity
  8
M0
100
AcDbText
 10
145.640677
 20
898.580508
 40
7.0
  1
８１
 41
0.595238
  7
STANDARD
100
AcDbText
  0
TEXT
  5
13C
100
AcDbEntity
  8
M0
100
AcDbText
 10
145.640677
 20
883.880511
 40
7.0
  1
８２
 41
0.595238
  7
STANDARD
100
AcDbText
  0
TEXT
  5
13D
100
AcDbEntity
  8
M0
100
AcDbText
 10
145.640677
 20
870.847185
 40
7.0
  1
７４
 41
0.595238
  7
STANDARD
100
AcDbText
  0
ARC
  5
13E
100
AcDbEntity
  8
M0
 62
     4
100
AcDbCircle
 10
315.424456
 20
999.619593
 40
5.0
100
AcDbArc
 50
359.997148
 51
399.707437
  0
ARC
  5
13F
100
AcDbEntity
  8
M0
 62
     4
100
AcDbCircle
 10
326.674431
 20
972.419631
 40
2.0
100
AcDbArc
 50
359.992952
 51
450.0
  0
ARC
  5
140
100
AcDbEntity
  8
M0
 62
     4
100
AcDbCircle
 10
326.674431
 20
972.419631
 40
5.2
100
AcDbArc
 50
359.997256
 51
450.0
  0
LINE
  5
141
100
AcDbEntity
  8
M0
 62
     4
100
AcDbLine
 10
331.874422
 20
966.619577
 11
323.424425
 21
966.619585
  0
LINE
  5
142
100
AcDbEntity
  8
M0
 62
     4
100
AcDbLine
 10
319.424402
 20
941.61997
 11
331.874399
 21
941.619959
  0
LINE
  5
143
100
AcDbEntity
  8
M0
 62
     4
100
AcDbLine
 10
328.674431
 20
972.419629
 11
328.674425
 21
966.61958
  0
LINE
  5
144
100
AcDbEntity
  8
M0
  6
DASHED
 62
     4
100
AcDbLine
 10
328.674425
 20
966.61958
 11
328.674402
 21
941.619962
  0
LINE
  5
145
100
AcDbEntity
  8
M0
 62
     4
100
AcDbLine
 10
320.424456
 20
999.619588
 11
320.42445
 21
992.813436
  0
LINE
  5
146
100
AcDbEntity
  8
M0
 62
     4
100
AcDbLine
 10
323.424433
 20
974.419634
 11
326.674433
 21
974.419631
  0
LINE
  5
147
100
AcDbEntity
  8
M0
 62
     4
100
AcDbLine
 10
326.674436
 20
977.619582
 11
323.424436
 21
977.619585
  0
LINE
  5
148
100
AcDbEntity
  8
M0
  6
DASHDOT
 62
     4
100
AcDbLine
 10
280.424459
 20
1002.314082
 11
280.424441
 21
983.314082
  0
LINE
  5
149
100
AcDbEntity
  8
M0
  6
DASHDOT
 62
     4
100
AcDbLine
 10
270.92445
 20
992.814091
 11
289.92445
 21
992.814073
  0
LINE
  5
14A
100
AcDbEntity
  8
M0
 62
     4
100
AcDbLine
 10
289.424459
 20
1002.813709
 11
289.42445
 21
992.814139
  0
LINE
  5
14B
100
AcDbEntity
  8
M0
 62
     4
100
AcDbLine
 10
271.424459
 20
1002.813726
 11
271.42445
 21
992.814139
  0
ARC
  5
14C
100
AcDbEntity
  8
M0
 62
     4
100
AcDbCircle
 10
280.42445
 20
992.814082
 40
9.0
100
AcDbArc
 50
179.999946
 51
359.998392
  0
ARC
  5
14D
100
AcDbEntity
  8
M0
 62
     4
100
AcDbCircle
 10
185.424472
 20
999.619715
 40
5.0
100
AcDbArc
 50
140.295836
 51
179.999946
  0
ARC
  5
14E
100
AcDbEntity
  8
M0
 62
     4
100
AcDbCircle
 10
174.07444
 20
972.41953
 40
2.0
100
AcDbArc
 50
89.999509
 51
179.999946
  0
ARC
  5
14F
100
AcDbEntity
  8
M0
 62
     4
100
AcDbCircle
 10
174.07444
 20
972.41953
 40
5.2
100
AcDbArc
 50
89.999778
 51
179.999946
  0
LINE
  5
150
100
AcDbEntity
  8
M0
 62
     4
100
AcDbLine
 10
168.974444
 20
966.619731
 11
177.424441
 21
966.619723
  0
LINE
  5
151
100
AcDbEntity
  8
M0
 62
     4
100
AcDbLine
 10
172.07444
 20
972.419532
 11
172.074434
 21
966.619484
  0
LINE
  5
152
100
AcDbEntity
  8
M0
 62
     4
100
AcDbLine
 10
180.424472
 20
999.61972
 11
180.424465
 21
992.813567
  0
LINE
  5
153
100
AcDbEntity
  8
M0
 62
     4
100
AcDbLine
 10
177.424692
 20
974.419527
 11
174.174692
 21
974.41953
  0
LINE
  5
154
100
AcDbEntity
  8
M0
 62
     4
100
AcDbLine
 10
174.174695
 20
977.619482
 11
177.424695
 21
977.619478
  0
LINE
  5
155
100
AcDbEntity
  8
M0
  6
DASHDOT
 62
     4
100
AcDbLine
 10
220.424459
 20
1002.314139
 11
220.424441
 21
983.314139
  0
LINE
  5
156
100
AcDbEntity
  8
M0
  6
DASHDOT
 62
     4
100
AcDbLine
 10
229.92445
 20
992.81413
 11
210.92445
 21
992.814148
  0
LINE
  5
157
100
AcDbEntity
  8
M0
 62
     4
100
AcDbLine
 10
211.424459
 20
1002.813782
 11
211.42445
 21
992.814139
  0
LINE
  5
158
100
AcDbEntity
  8
M0
 62
     4
100
AcDbLine
 10
229.424459
 20
1002.813765
 11
229.42445
 21
992.814139
  0
ARC
  5
159
100
AcDbEntity
  8
M0
 62
     4
100
AcDbCircle
 10
220.42445
 20
992.814139
 40
9.0
100
AcDbArc
 50
179.999946
 51
359.998392
  0
CIRCLE
  5
15A
100
AcDbEntity
  8
M0
 62
     4
100
AcDbCircle
 10
280.42445
 20
992.814082
 40
4.5
  0
CIRCLE
  5
15B
100
AcDbEntity
  8
M0
 62
     4
100
AcDbCircle
 10
220.42445
 20
992.814139
 40
4.5
  0
LINE
  5
15C
100
AcDbEntity
  8
M0
 62
     2
100
AcDbLine
 10
636.311219
 20
967.753725
 11
636.311219
 21
931.753908
  0
LINE
  5
15D
100
AcDbEntity
  8
M0
 62
     2
100
AcDbLine
 10
600.010926
 20
810.753908
 11
617.311219
 21
810.753908
  0
LINE
  5
15E
100
AcDbEntity
  8
M0
 62
     2
100
AcDbLine
 10
617.311219
 20
803.753908
 11
687.011005
 21
803.753908
  0
ARC
  5
15F
100
AcDbEntity
  8
M0
 62
     2
100
AcDbCircle
 10
615.311219
 20
812.753908
 40
2.0
100
AcDbArc
 50
0.0
 51
90.0
  0
LINE
  5
160
100
AcDbEntity
  8
M0
 62
     2
100
AcDbLine
 10
592.010866
 20
814.753908
 11
615.311219
 21
814.753908
  0
ARC
  5
161
100
AcDbEntity
  8
M0
 62
     2
100
AcDbCircle
 10
615.311219
 20
821.753908
 40
2.0
100
AcDbArc
 50
0.0
 51
90.0
  0
LINE
  5
162
100
AcDbEntity
  8
M0
 62
     2
100
AcDbLine
 10
636.311219
 20
931.953905
 11
609.91121
 21
931.953905
  0
LINE
  5
163
100
AcDbEntity
  8
M0
 62
     2
100
AcDbLine
 10
623.311219
 20
870.753908
 11
623.311219
 21
836.453905
  0
LINE
  5
164
100
AcDbEntity
  8
M0
 62
     2
100
AcDbLine
 10
617.311219
 20
967.753725
 11
636.311219
 21
967.753725
  0
LINE
  5
165
100
AcDbEntity
  8
M0
 62
     2
100
AcDbLine
 10
597.311219
 20
823.753908
 11
597.311219
 21
861.953825
  0
LINE
  5
166
100
AcDbEntity
  8
M0
 62
     2
100
AcDbLine
 10
610.311219
 20
962.753908
 11
617.311219
 21
962.753908
  0
LINE
  5
167
100
AcDbEntity
  8
M0
 62
     2
100
AcDbLine
 10
586.010859
 20
956.753908
 11
615.311219
 21
956.753908
  0
LINE
  5
168
100
AcDbEntity
  8
M0
 62
     2
100
AcDbLine
 10
586.010859
 20
820.753908
 11
617.311219
 21
820.753908
  0
LINE
  5
169
100
AcDbEntity
  8
M0
 62
     2
100
AcDbLine
 10
586.010859
 20
823.753908
 11
615.311219
 21
823.753908
  0
ARC
  5
16A
100
AcDbEntity
  8
M0
 62
     2
100
AcDbCircle
 10
609.91121
 20
928.953905
 40
3.0
100
AcDbArc
 50
90.0
 51
180.0
  0
LINE
  5
16B
100
AcDbEntity
  8
M0
 62
     2
100
AcDbLine
 10
606.91121
 20
928.953905
 11
606.91121
 21
916.953905
  0
LINE
  5
16C
100
AcDbEntity
  8
M0
 62
     2
100
AcDbLine
 10
636.311219
 20
833.453905
 11
626.311219
 21
833.453905
  0
ARC
  5
16D
100
AcDbEntity
  8
M0
 62
     2
100
AcDbCircle
 10
626.311219
 20
836.453905
 40
3.0
100
AcDbArc
 50
180.0
 51
269.999709
  0
LINE
  5
16E
100
AcDbEntity
  8
M0
 62
     2
100
AcDbLine
 10
617.311219
 20
803.753908
 11
617.311219
 21
821.753908
  0
ARC
  5
16F
100
AcDbEntity
  8
M0
 62
     2
100
AcDbCircle
 10
615.311219
 20
949.753908
 40
2.0
100
AcDbArc
 50
269.999563
 51
360.0
  0
LINE
  5
170
100
AcDbEntity
  8
M0
 62
     2
100
AcDbLine
 10
617.311219
 20
967.753725
 11
617.311219
 21
949.753908
  0
LINE
  5
171
100
AcDbEntity
  8
M0
 62
     2
100
AcDbLine
 10
597.311219
 20
947.753908
 11
615.311219
 21
947.753908
  0
LINE
  5
172
100
AcDbEntity
  8
M0
 62
     2
100
AcDbLine
 10
586.010859
 20
933.453905
 11
597.311219
 21
933.453905
  0
LINE
  5
173
100
AcDbEntity
  8
M0
 62
     2
100
AcDbLine
 10
586.010859
 20
960.753908
 11
609.311219
 21
960.753908
  0
ARC
  5
174
100
AcDbEntity
  8
M0
 62
     2
100
AcDbCircle
 10
610.311219
 20
961.753908
 40
1.0
100
AcDbArc
 50
90.0
 51
180.0
  0
LINE
  5
175
100
AcDbEntity
  8
M0
 62
     2
100
AcDbLine
 10
609.311219
 20
961.753908
 11
609.311219
 21
957.753908
  0
ARC
  5
176
100
AcDbEntity
  8
M0
 62
     2
100
AcDbCircle
 10
608.311219
 20
957.753908
 40
1.0
100
AcDbArc
 50
269.999126
 51
360.0
  0
ARC
  5
177
100
AcDbEntity
  8
M0
 62
     2
100
AcDbCircle
 10
615.311219
 20
958.753908
 40
2.0
100
AcDbArc
 50
269.999563
 51
360.0
  0
LINE
  5
178
100
AcDbEntity
  8
M0
 62
     2
100
AcDbLine
 10
586.010859
 20
950.753908
 11
617.311219
 21
950.753908
  0
LINE
  5
179
100
AcDbEntity
  8
M0
 62
     2
100
AcDbLine
 10
597.311219
 20
931.95381
 11
597.311219
 21
947.753908
  0
LINE
  5
17A
100
AcDbEntity
  8
M0
 62
     2
100
AcDbLine
 10
636.311219
 20
859.753908
 11
636.311219
 21
854.753908
  0
LINE
  5
17B
100
AcDbEntity
  8
M0
 62
     2
100
AcDbLine
 10
636.311219
 20
919.253908
 11
636.311219
 21
871.253908
  0
LINE
  5
17C
100
AcDbEntity
  8
M0
 62
     2
100
AcDbLine
 10
636.311219
 20
836.753908
 11
636.311219
 21
803.753908
  0
ARC
  5
17D
100
AcDbEntity
  8
M0
 62
     2
100
AcDbCircle
 10
609.91121
 20
916.953905
 40
3.0
100
AcDbArc
 50
180.0
 51
269.999709
  0
LINE
  5
17E
100
AcDbEntity
  8
M0
 62
     2
100
AcDbLine
 10
219.924122
 20
807.81415
 11
221.924122
 21
807.81415
  0
LINE
  5
17F
100
AcDbEntity
  8
M0
 62
     2
100
AcDbLine
 10
231.924122
 20
808.81415
 11
231.924122
 21
810.81415
  0
LINE
  5
180
100
AcDbEntity
  8
M0
 62
     2
100
AcDbLine
 10
218.924137
 20
808.81415
 11
218.924137
 21
811.81415
  0
LINE
  5
181
100
AcDbEntity
  8
M0
 62
     2
100
AcDbLine
 10
281.924122
 20
808.81415
 11
281.924122
 21
811.81415
  0
LINE
  5
182
100
AcDbEntity
  8
M0
 62
     2
100
AcDbLine
 10
269.924122
 20
807.81415
 11
271.924122
 21
807.81415
  0
LINE
  5
183
100
AcDbEntity
  8
M0
 62
     2
100
AcDbLine
 10
228.924122
 20
807.81415
 11
230.924122
 21
807.81415
  0
LINE
  5
184
100
AcDbEntity
  8
M0
 62
     2
100
AcDbLine
 10
278.924122
 20
807.81415
 11
280.924122
 21
807.81415
  0
ARC
  5
185
100
AcDbEntity
  8
M0
 62
     2
100
AcDbCircle
 10
219.924122
 20
808.81415
 40
1.0
100
AcDbArc
 50
179.999126
 51
270.0
  0
ARC
  5
186
100
AcDbEntity
  8
M0
 62
     2
100
AcDbCircle
 10
221.924122
 20
808.81415
 40
1.0
100
AcDbArc
 50
270.0
 51
360.0
  0
ARC
  5
187
100
AcDbEntity
  8
M0
 62
     2
100
AcDbCircle
 10
228.924122
 20
808.81415
 40
1.0
100
AcDbArc
 50
179.999126
 51
270.0
  0
ARC
  5
188
100
AcDbEntity
  8
M0
 62
     2
100
AcDbCircle
 10
230.924122
 20
808.81415
 40
1.0
100
AcDbArc
 50
270.0
 51
360.0
  0
ARC
  5
189
100
AcDbEntity
  8
M0
 62
     2
100
AcDbCircle
 10
269.924122
 20
808.81415
 40
1.0
100
AcDbArc
 50
179.999126
 51
269.999126
  0
ARC
  5
18A
100
AcDbEntity
  8
M0
 62
     2
100
AcDbCircle
 10
271.924122
 20
808.81415
 40
1.0
100
AcDbArc
 50
269.999126
 51
360.0
  0
ARC
  5
18B
100
AcDbEntity
  8
M0
 62
     2
100
AcDbCircle
 10
278.924122
 20
808.81415
 40
1.0
100
AcDbArc
 50
179.999126
 51
269.999126
  0
ARC
  5
18C
100
AcDbEntity
  8
M0
 62
     2
100
AcDbCircle
 10
280.924122
 20
808.81415
 40
1.0
100
AcDbArc
 50
269.999126
 51
360.0
  0
LINE
  5
18D
100
AcDbEntity
  8
M0
 62
     2
100
AcDbLine
 10
218.924137
 20
956.814135
 11
218.924137
 21
953.814135
  0
ARC
  5
18E
100
AcDbEntity
  8
M0
 62
     2
100
AcDbCircle
 10
219.924122
 20
956.814135
 40
1.0
100
AcDbArc
 50
89.999126
 51
180.0
  0
LINE
  5
18F
100
AcDbEntity
  8
M0
 62
     2
100
AcDbLine
 10
219.924122
 20
957.814135
 11
221.924122
 21
957.814135
  0
LINE
  5
190
100
AcDbEntity
  8
M0
 62
     2
100
AcDbLine
 10
222.924122
 20
953.814135
 11
222.924122
 21
956.814135
  0
ARC
  5
191
100
AcDbEntity
  8
M0
 62
     2
100
AcDbCircle
 10
221.924122
 20
956.814135
 40
1.0
100
AcDbArc
 50
0.0
 51
89.999126
  0
LINE
  5
192
100
AcDbEntity
  8
M0
 62
     2
100
AcDbLine
 10
227.924122
 20
953.814135
 11
227.924122
 21
956.814135
  0
ARC
  5
193
100
AcDbEntity
  8
M0
 62
     2
100
AcDbCircle
 10
228.924122
 20
956.814135
 40
1.0
100
AcDbArc
 50
90.0
 51
180.0
  0
LINE
  5
194
100
AcDbEntity
  8
M0
 62
     2
100
AcDbLine
 10
228.924122
 20
957.814135
 11
230.924122
 21
957.814135
  0
LINE
  5
195
100
AcDbEntity
  8
M0
 62
     2
100
AcDbLine
 10
231.924122
 20
956.814135
 11
231.924122
 21
953.814135
  0
ARC
  5
196
100
AcDbEntity
  8
M0
 62
     2
100
AcDbCircle
 10
230.924122
 20
956.814135
 40
1.0
100
AcDbArc
 50
0.0
 51
90.0
  0
LINE
  5
197
100
AcDbEntity
  8
M0
 62
     2
100
AcDbLine
 10
268.924122
 20
953.814135
 11
268.924122
 21
956.814135
  0
ARC
  5
198
100
AcDbEntity
  8
M0
 62
     2
100
AcDbCircle
 10
269.924122
 20
956.814135
 40
1.0
100
AcDbArc
 50
90.0
 51
180.0
  0
LINE
  5
199
100
AcDbEntity
  8
M0
 62
     2
100
AcDbLine
 10
269.924122
 20
957.814135
 11
271.924122
 21
957.814135
  0
LINE
  5
19A
100
AcDbEntity
  8
M0
 62
     2
100
AcDbLine
 10
272.924122
 20
953.814135
 11
272.924122
 21
956.814135
  0
ARC
  5
19B
100
AcDbEntity
  8
M0
 62
     2
100
AcDbCircle
 10
271.924122
 20
956.814135
 40
1.0
100
AcDbArc
 50
0.0
 51
90.0
  0
LINE
  5
19C
100
AcDbEntity
  8
M0
 62
     2
100
AcDbLine
 10
277.924122
 20
956.814135
 11
277.924122
 21
953.814135
  0
ARC
  5
19D
100
AcDbEntity
  8
M0
 62
     2
100
AcDbCircle
 10
278.924122
 20
956.814135
 40
1.0
100
AcDbArc
 50
90.0
 51
180.0
  0
LINE
  5
19E
100
AcDbEntity
  8
M0
 62
     2
100
AcDbLine
 10
278.924122
 20
957.814135
 11
280.924122
 21
957.814135
  0
LINE
  5
19F
100
AcDbEntity
  8
M0
 62
     2
100
AcDbLine
 10
281.924122
 20
956.814135
 11
281.924122
 21
953.814135
  0
ARC
  5
1A0
100
AcDbEntity
  8
M0
 62
     2
100
AcDbCircle
 10
280.924122
 20
956.814135
 40
1.0
100
AcDbArc
 50
0.0
 51
90.0
  0
LINE
  5
1A1
100
AcDbEntity
  8
M0
  6
DASHDOT
 62
     2
100
AcDbLine
 10
250.424122
 20
638.704394
 11
250.424122
 21
1024.662203
  0
LINE
  5
1A2
100
AcDbEntity
  8
M0
  6
DASHDOT
 62
     2
100
AcDbLine
 10
153.011417
 20
882.814139
 11
350.334217
 21
882.814139
  0
ARC
  5
1A3
100
AcDbEntity
  8
M0
 62
     2
100
AcDbCircle
 10
329.924122
 20
962.814135
 40
2.0
100
AcDbArc
 50
0.0
 51
90.0
  0
LINE
  5
1A4
100
AcDbEntity
  8
M0
 62
     2
100
AcDbLine
 10
329.924122
 20
964.814135
 11
323.424122
 21
964.814135
  0
LINE
  5
1A5
100
AcDbEntity
  8
M0
  6
DASHDOT
 62
     2
100
AcDbLine
 10
311.924122
 20
954.814135
 11
328.924122
 21
954.814135
  0
LINE
  5
1A6
100
AcDbEntity
  8
M0
  6
DASHDOT
 62
     2
100
AcDbLine
 10
320.424122
 20
946.314135
 11
320.424122
 21
963.314135
  0
ARC
  5
1A7
100
AcDbEntity
  8
M0
 62
     2
100
AcDbCircle
 10
170.924137
 20
962.814135
 40
2.0
100
AcDbArc
 50
89.999563
 51
180.0
  0
LINE
  5
1A8
100
AcDbEntity
  8
M0
 62
     2
100
AcDbLine
 10
170.924137
 20
964.814135
 11
179.424137
 21
964.814135
  0
LINE
  5
1A9
100
AcDbEntity
  8
M0
 62
     2
100
AcDbLine
 10
194.424137
 20
953.814135
 11
218.924137
 21
953.814135
  0
LINE
  5
1AA
100
AcDbEntity
  8
M0
 62
     2
100
AcDbLine
 10
288.724048
 20
959.814135
 11
281.924122
 21
959.814135
  0
LINE
  5
1AB
100
AcDbEntity
  8
M0
  6
DASHDOT
 62
     2
100
AcDbLine
 10
188.924137
 20
954.814135
 11
171.924137
 21
954.814135
  0
LINE
  5
1AC
100
AcDbEntity
  8
M0
  6
DASHDOT
 62
     2
100
AcDbLine
 10
180.424137
 20
946.314135
 11
180.424137
 21
963.314135
  0
ARC
  5
1AD
100
AcDbEntity
  8
M0
 62
     2
100
AcDbCircle
 10
329.924122
 20
802.81415
 40
2.0
100
AcDbArc
 50
-90.000437
 51
0.0
  0
LINE
  5
1AE
100
AcDbEntity
  8
M0
 62
     2
100
AcDbLine
 10
329.924122
 20
800.81415
 11
323.424122
 21
800.81415
  0
LINE
  5
1AF
100
AcDbEntity
  8
M0
 62
     2
100
AcDbLine
 10
194.424137
 20
811.81415
 11
218.924137
 21
811.81415
  0
LINE
  5
1B0
100
AcDbEntity
  8
M0
  6
DASHDOT
 62
     2
100
AcDbLine
 10
311.924122
 20
810.81415
 11
328.924122
 21
810.81415
  0
LINE
  5
1B1
100
AcDbEntity
  8
M0
  6
DASHDOT
 62
     2
100
AcDbLine
 10
320.424122
 20
819.31415
 11
320.424122
 21
802.31415
  0
LINE
  5
1B2
100
AcDbEntity
  8
M0
 62
     2
100
AcDbLine
 10
168.924137
 20
802.81415
 11
168.924137
 21
973.13673
  0
ARC
  5
1B3
100
AcDbEntity
  8
M0
 62
     2
100
AcDbCircle
 10
170.924137
 20
802.81415
 40
2.0
100
AcDbArc
 50
179.999563
 51
270.0
  0
LINE
  5
1B4
100
AcDbEntity
  8
M0
 62
     2
100
AcDbLine
 10
170.924137
 20
800.81415
 11
177.424137
 21
800.81415
  0
LINE
  5
1B5
100
AcDbEntity
  8
M0
  6
DASHDOT
 62
     2
100
AcDbLine
 10
188.924137
 20
810.81415
 11
171.924137
 21
810.81415
  0
LINE
  5
1B6
100
AcDbEntity
  8
M0
  6
DASHDOT
 62
     2
100
AcDbLine
 10
180.424137
 20
819.31415
 11
180.424137
 21
802.31415
  0
LINE
  5
1B7
100
AcDbEntity
  8
M0
 62
     2
100
AcDbLine
 10
281.924122
 20
811.81415
 11
306.424122
 21
811.81415
  0
LINE
  5
1B8
100
AcDbEntity
  8
M0
 62
     2
100
AcDbLine
 10
222.924122
 20
953.814135
 11
227.924122
 21
953.814135
  0
LINE
  5
1B9
100
AcDbEntity
  8
M0
 62
     2
100
AcDbLine
 10
231.924122
 20
953.814135
 11
268.924122
 21
953.814135
  0
LINE
  5
1BA
100
AcDbEntity
  8
M0
 62
     2
100
AcDbLine
 10
272.924122
 20
953.814135
 11
277.924122
 21
953.814135
  0
LINE
  5
1BB
100
AcDbEntity
  8
M0
 62
     2
100
AcDbLine
 10
281.924122
 20
953.814135
 11
306.424122
 21
953.814135
  0
LINE
  5
1BC
100
AcDbEntity
  8
M0
 62
     2
100
AcDbLine
 10
218.924137
 20
959.814135
 11
212.12421
 21
959.814135
  0
LINE
  5
1BD
100
AcDbEntity
  8
M0
 62
     2
100
AcDbLine
 10
268.924122
 20
959.814135
 11
264.566944
 21
959.814135
  0
LINE
  5
1BE
100
AcDbEntity
  8
M0
 62
     2
100
AcDbLine
 10
236.281284
 20
959.814135
 11
231.924122
 21
959.814135
  0
LINE
  5
1BF
100
AcDbEntity
  8
M0
 62
     2
100
AcDbLine
 10
331.874268
 20
802.370382
 11
331.874428
 21
972.419626
  0
ARC
  5
1C0
100
AcDbEntity
  8
M0
 62
     4
100
AcDbCircle
 10
549.011352
 20
881.45383
 40
5.0
100
AcDbArc
 50
179.99996
 51
269.999807
  0
LINE
  5
1C1
100
AcDbEntity
  8
M0
 62
     4
100
AcDbLine
 10
549.01135
 20
876.45383
 11
571.56233
 21
876.453823
  0
LINE
  5
1C2
100
AcDbEntity
  8
M0
 62
     4
100
AcDbLine
 10
591.51133
 20
861.953827
 11
591.511333
 21
870.353817
  0
LINE
  5
1C3
100
AcDbEntity
  8
M0
 62
     4
100
AcDbLine
 10
544.011355
 20
893.203831
 11
551.511355
 21
893.203828
  0
LINE
  5
1C4
100
AcDbEntity
  8
M0
 62
     4
100
AcDbLine
 10
544.011355
 20
893.203831
 11
544.011352
 21
881.453832
  0
ARC
  5
1C5
100
AcDbEntity
  8
M0
 62
     4
100
AcDbCircle
 10
546.011352
 20
881.453831
 40
2.0
100
AcDbArc
 50
179.999955
 51
269.999545
  0
LINE
  5
1C6
100
AcDbEntity
  8
M0
 62
     4
100
AcDbLine
 10
546.011351
 20
879.453831
 11
567.011351
 21
879.453824
  0
ARC
  5
1C7
100
AcDbEntity
  8
M0
 62
     4
100
AcDbCircle
 10
567.011351
 20
879.953824
 40
0.5
100
AcDbArc
 50
269.998233
 51
359.999982
  0
LINE
  5
1C8
100
AcDbEntity
  8
M0
 62
     4
100
AcDbLine
 10
567.511351
 20
879.953824
 11
567.511352
 21
881.453824
  0
ARC
  5
1C9
100
AcDbEntity
  8
M0
 62
     4
100
AcDbCircle
 10
568.011352
 20
881.453824
 40
0.5
100
AcDbArc
 50
90.0
 51
179.999873
  0
LINE
  5
1CA
100
AcDbEntity
  8
M0
 62
     4
100
AcDbLine
 10
568.011352
 20
881.953824
 11
571.011352
 21
881.953823
  0
ARC
  5
1CB
100
AcDbEntity
  8
M0
 62
     4
100
AcDbCircle
 10
571.011352
 20
881.453823
 40
0.5
100
AcDbArc
 50
359.999982
 51
450.0
  0
LINE
  5
1CC
100
AcDbEntity
  8
M0
 62
     4
100
AcDbLine
 10
571.511351
 20
879.538298
 11
571.511352
 21
881.453823
  0
ARC
  5
1CD
100
AcDbEntity
  8
M0
 62
     4
100
AcDbCircle
 10
572.011351
 20
879.538297
 40
0.5
100
AcDbArc
 50
179.999873
 51
199.178631
  0
LINE
  5
1CE
100
AcDbEntity
  8
M0
 62
     4
100
AcDbLine
 10
588.45196
 20
868.65883
 11
589.511333
 21
870.353818
  0
ARC
  5
1CF
100
AcDbEntity
  8
M0
 62
     4
100
AcDbCircle
 10
587.179957
 20
869.453829
 40
1.5
100
AcDbArc
 50
269.999399
 51
327.994908
  0
LINE
  5
1D0
100
AcDbEntity
  8
M0
 62
     4
100
AcDbLine
 10
571.539107
 20
879.374038
 11
575.161006
 21
868.96105
  0
LINE
  5
1D1
100
AcDbEntity
  8
M0
 62
     4
100
AcDbLine
 10
576.577754
 20
867.953832
 11
587.179957
 21
867.953829
  0
ARC
  5
1D2
100
AcDbEntity
  8
M0
 62
     4
100
AcDbCircle
 10
576.577754
 20
869.453832
 40
1.5
100
AcDbArc
 50
199.178463
 51
269.999399
  0
LINE
  5
1D3
100
AcDbEntity
  8
M0
 62
     4
100
AcDbLine
 10
591.511333
 20
870.353817
 11
589.511333
 21
870.353818
  0
ARC
  5
1D4
100
AcDbEntity
  8
M0
 62
     4
100
AcDbCircle
 10
571.562329
 20
874.453823
 40
2.0
100
AcDbArc
 50
56.313279
 51
90.0
  0
LINE
  5
1D5
100
AcDbEntity
  8
M0
 62
     4
100
AcDbLine
 10
591.51133
 20
861.953827
 11
597.311211
 21
861.953825
  0
ARC
  5
1D6
100
AcDbEntity
  8
M0
 62
     4
100
AcDbCircle
 10
549.011361
 20
912.453825
 40
5.0
100
AcDbArc
 50
90.0
 51
179.999982
  0
LINE
  5
1D7
100
AcDbEntity
  8
M0
 62
     4
100
AcDbLine
 10
549.011363
 20
917.453825
 11
571.562342
 21
917.453818
  0
LINE
  5
1D8
100
AcDbEntity
  8
M0
 62
     4
100
AcDbLine
 10
591.511352
 20
931.953812
 11
591.511349
 21
923.553803
  0
LINE
  5
1D9
100
AcDbEntity
  8
M0
 62
     4
100
AcDbLine
 10
544.011358
 20
900.703831
 11
551.511358
 21
900.703828
  0
LINE
  5
1DA
100
AcDbEntity
  8
M0
 62
     4
100
AcDbLine
 10
544.011358
 20
900.703831
 11
544.011361
 21
912.453827
  0
ARC
  5
1DB
100
AcDbEntity
  8
M0
 62
     4
100
AcDbCircle
 10
546.011361
 20
912.453826
 40
2.0
100
AcDbArc
 50
90.0
 51
179.999982
  0
LINE
  5
1DC
100
AcDbEntity
  8
M0
 62
     4
100
AcDbLine
 10
546.011362
 20
914.453826
 11
567.011362
 21
914.45382
  0
ARC
  5
1DD
100
AcDbEntity
  8
M0
 62
     4
100
AcDbCircle
 10
567.011362
 20
913.95382
 40
0.5
100
AcDbArc
 50
-0.001767
 51
90.0
  0
LINE
  5
1DE
100
AcDbEntity
  8
M0
 62
     4
100
AcDbLine
 10
567.511362
 20
913.95382
 11
567.511361
 21
912.45382
  0
ARC
  5
1DF
100
AcDbEntity
  8
M0
 62
     4
100
AcDbCircle
 10
568.011361
 20
912.453819
 40
0.5
100
AcDbArc
 50
179.999982
 51
269.998233
  0
LINE
  5
1E0
100
AcDbEntity
  8
M0
 62
     4
100
AcDbLine
 10
568.011361
 20
911.953819
 11
571.011361
 21
911.953818
  0
ARC
  5
1E1
100
AcDbEntity
  8
M0
 62
     4
100
AcDbCircle
 10
571.011361
 20
912.453818
 40
0.5
100
AcDbArc
 50
269.998233
 51
359.998233
  0
LINE
  5
1E2
100
AcDbEntity
  8
M0
 62
     4
100
AcDbLine
 10
571.511362
 20
914.369346
 11
571.511361
 21
912.453818
  0
ARC
  5
1E3
100
AcDbEntity
  8
M0
 62
     4
100
AcDbCircle
 10
572.011362
 20
914.369346
 40
0.5
100
AcDbArc
 50
160.821333
 51
179.999982
  0
LINE
  5
1E4
100
AcDbEntity
  8
M0
 62
     4
100
AcDbLine
 10
588.451978
 20
925.248811
 11
589.511349
 21
923.553804
  0
ARC
  5
1E5
100
AcDbEntity
  8
M0
 62
     4
100
AcDbCircle
 10
587.179975
 20
924.453813
 40
1.5
100
AcDbArc
 50
32.005056
 51
90.0
  0
LINE
  5
1E6
100
AcDbEntity
  8
M0
 62
     4
100
AcDbLine
 10
571.539118
 20
914.533607
 11
575.161023
 21
924.9466
  0
LINE
  5
1E7
100
AcDbEntity
  8
M0
 62
     4
100
AcDbLine
 10
576.577772
 20
925.953817
 11
587.179975
 21
925.953813
  0
ARC
  5
1E8
100
AcDbEntity
  8
M0
 62
     4
100
AcDbCircle
 10
576.577771
 20
924.453817
 40
1.5
100
AcDbArc
 50
90.0
 51
160.82095
  0
LINE
  5
1E9
100
AcDbEntity
  8
M0
 62
     4
100
AcDbLine
 10
591.511349
 20
923.553803
 11
589.511349
 21
923.553804
  0
ARC
  5
1EA
100
AcDbEntity
  8
M0
 62
     4
100
AcDbCircle
 10
571.562343
 20
919.453818
 40
2.0
100
AcDbArc
 50
269.999545
 51
303.686534
  0
LINE
  5
1EB
100
AcDbEntity
  8
M0
 62
     4
100
AcDbLine
 10
591.511352
 20
931.953812
 11
597.311218
 21
931.95381
  0
LINE
  5
1EC
100
AcDbEntity
  8
M0
 62
   234
100
AcDbLine
 10
319.42389
 20
920.514121
 11
319.423873
 21
867.514129
  0
LINE
  5
1ED
100
AcDbEntity
  8
M0
 62
   234
100
AcDbLine
 10
329.423889
 20
920.514118
 11
319.42389
 21
920.514121
  0
LINE
  5
1EE
100
AcDbEntity
  8
M0
 62
   234
100
AcDbLine
 10
329.423872
 20
867.514126
 11
319.423873
 21
867.514129
  0
LINE
  5
1EF
100
AcDbEntity
  8
M0
 62
   234
100
AcDbLine
 10
319.423873
 20
867.514129
 11
329.423872
 21
867.514126
  0
CIRCLE
  5
1F0
100
AcDbEntity
  8
M0
 62
   234
100
AcDbCircle
 10
322.423891
 20
925.01412
 40
2.25
  0
LINE
  5
1F1
100
AcDbEntity
  8
M0
 62
   234
100
AcDbLine
 10
329.92389
 20
923.014118
 11
331.42389
 21
923.014118
  0
ARC
  5
1F2
100
AcDbEntity
  8
M0
 62
   234
100
AcDbCircle
 10
329.92389
 20
922.514118
 40
0.5
100
AcDbArc
 50
90.0
 51
179.999982
  0
LINE
  5
1F3
100
AcDbEntity
  8
M0
 62
   234
100
AcDbLine
 10
326.923889
 20
920.514119
 11
326.923891
 21
925.014119
  0
ARC
  5
1F4
100
AcDbEntity
  8
M0
 62
   234
100
AcDbCircle
 10
322.923891
 20
925.01412
 40
4.0
100
AcDbArc
 50
359.999763
 51
450.0
  0
LINE
  5
1F5
100
AcDbEntity
  8
M0
 62
   234
100
AcDbLine
 10
319.423893
 20
929.014121
 11
322.923893
 21
929.01412
  0
LINE
  5
1F6
100
AcDbEntity
  8
M0
 62
   234
100
AcDbLine
 10
329.423888
 20
917.614109
 11
321.423889
 21
917.614112
  0
LINE
  5
1F7
100
AcDbEntity
  8
M0
 62
   234
100
AcDbLine
 10
321.423886
 20
909.014121
 11
329.423886
 21
909.014118
  0
LINE
  5
1F8
100
AcDbEntity
  8
M0
 62
   234
100
AcDbLine
 10
321.423886
 20
908.014121
 11
329.423885
 21
908.014118
  0
LINE
  5
1F9
100
AcDbEntity
  8
M0
 62
   234
100
AcDbLine
 10
329.423883
 20
899.514118
 11
321.423883
 21
899.514121
  0
LINE
  5
1FA
100
AcDbEntity
  8
M0
 62
   234
100
AcDbLine
 10
319.423881
 20
890.264127
 11
331.42388
 21
890.264123
  0
LINE
  5
1FB
100
AcDbEntity
  8
M0
 62
   234
100
AcDbLine
 10
319.423883
 20
897.764127
 11
331.423882
 21
897.764123
  0
LINE
  5
1FC
100
AcDbEntity
  8
M0
 62
   234
100
AcDbLine
 10
329.42389
 20
922.514118
 11
329.423882
 21
897.764124
  0
LINE
  5
1FD
100
AcDbEntity
  8
M0
 62
   234
100
AcDbLine
 10
321.42389
 20
920.514121
 11
321.423883
 21
897.764126
  0
LINE
  5
1FE
100
AcDbEntity
  8
M0
 62
   234
100
AcDbLine
 10
321.423881
 20
890.264126
 11
321.423873
 21
867.514128
  0
LINE
  5
1FF
100
AcDbEntity
  8
M0
 62
   234
100
AcDbLine
 10
327.423882
 20
897.764125
 11
327.423882
 21
896.764125
  0
LINE
  5
200
100
AcDbEntity
  8
M0
 62
   234
100
AcDbLine
 10
330.423882
 20
896.764124
 11
327.423882
 21
896.764125
  0
LINE
  5
201
100
AcDbEntity
  8
M0
 62
   234
100
AcDbLine
 10
330.423882
 20
897.764124
 11
330.42388
 21
890.264124
  0
LINE
  5
202
100
AcDbEntity
  8
M0
 62
   234
100
AcDbLine
 10
330.42388
 20
891.264124
 11
327.42388
 21
891.264125
  0
LINE
  5
203
100
AcDbEntity
  8
M0
 62
   234
100
AcDbLine
 10
327.42388
 20
891.264125
 11
327.42388
 21
890.264125
  0
LINE
  5
204
100
AcDbEntity
  8
M0
 62
   234
100
AcDbLine
 10
322.923883
 20
896.764126
 11
322.923881
 21
891.264126
  0
LINE
  5
205
100
AcDbEntity
  8
M0
 62
   234
100
AcDbLine
 10
324.423882
 20
897.764125
 11
324.42388
 21
890.264125
  0
LINE
  5
206
100
AcDbEntity
  8
M0
 62
   234
100
AcDbLine
 10
324.42388
 20
891.264125
 11
319.423881
 21
891.264127
  0
LINE
  5
207
100
AcDbEntity
  8
M0
 62
   234
100
AcDbLine
 10
324.423882
 20
896.764125
 11
319.423883
 21
896.764127
  0
LINE
  5
208
100
AcDbEntity
  8
M0
 62
   234
100
AcDbLine
 10
326.923872
 20
867.514127
 11
326.923871
 21
863.014149
  0
ARC
  5
209
100
AcDbEntity
  8
M0
 62
   234
100
AcDbCircle
 10
322.923872
 20
863.014151
 40
4.0
100
AcDbArc
 50
270.0
 51
359.999982
  0
LINE
  5
20A
100
AcDbEntity
  8
M0
 62
   234
100
AcDbLine
 10
319.423871
 20
859.014152
 11
322.923871
 21
859.014151
  0
CIRCLE
  5
20B
100
AcDbEntity
  8
M0
 62
   234
100
AcDbCircle
 10
322.423872
 20
863.014151
 40
2.25
  0
ARC
  5
20C
100
AcDbEntity
  8
M0
 62
   234
100
AcDbCircle
 10
329.923872
 20
865.514149
 40
0.5
100
AcDbArc
 50
179.998233
 51
270.0
  0
LINE
  5
20D
100
AcDbEntity
  8
M0
 62
   234
100
AcDbLine
 10
329.923872
 20
865.014149
 11
331.423872
 21
865.014148
  0
LINE
  5
20E
100
AcDbEntity
  8
M0
 62
   234
100
AcDbLine
 10
329.42388
 20
890.264124
 11
329.423872
 21
865.514149
  0
LINE
  5
20F
100
AcDbEntity
  8
M0
 62
   234
100
AcDbLine
 10
329.423879
 20
888.514124
 11
321.42388
 21
888.514126
  0
LINE
  5
210
100
AcDbEntity
  8
M0
 62
   234
100
AcDbLine
 10
321.423877
 20
880.014128
 11
329.423876
 21
880.014126
  0
LINE
  5
211
100
AcDbEntity
  8
M0
 62
   234
100
AcDbLine
 10
321.423877
 20
879.014128
 11
329.423876
 21
879.014126
  0
LINE
  5
212
100
AcDbEntity
  8
M0
 62
   234
100
AcDbLine
 10
329.423873
 20
870.414126
 11
321.423874
 21
870.414129
  0
LINE
  5
213
100
AcDbEntity
  8
M0
 62
   234
100
AcDbLine
 10
331.42389
 20
923.014118
 11
331.423872
 21
865.014148
  0
LINE
  5
214
100
AcDbEntity
  8
M0
 62
   234
100
AcDbLine
 10
181.42411
 20
920.514141
 11
181.424126
 21
867.514159
  0
LINE
  5
215
100
AcDbEntity
  8
M0
 62
   234
100
AcDbLine
 10
171.42411
 20
920.514137
 11
181.42411
 21
920.514141
  0
LINE
  5
216
100
AcDbEntity
  8
M0
 62
   234
100
AcDbLine
 10
171.424126
 20
867.514156
 11
181.424126
 21
867.514159
  0
LINE
  5
217
100
AcDbEntity
  8
M0
 62
   234
100
AcDbLine
 10
181.424126
 20
867.514159
 11
171.424126
 21
867.514156
  0
CIRCLE
  5
218
100
AcDbEntity
  8
M0
 62
   234
100
AcDbCircle
 10
178.424108
 20
925.01414
 40
2.25
  0
LINE
  5
219
100
AcDbEntity
  8
M0
 62
   234
100
AcDbLine
 10
170.924109
 20
923.014137
 11
169.424109
 21
923.014137
  0
ARC
  5
21A
100
AcDbEntity
  8
M0
 62
   234
100
AcDbCircle
 10
170.924109
 20
922.514137
 40
0.5
100
AcDbArc
 50
-0.001731
 51
90.0
  0
LINE
  5
21B
100
AcDbEntity
  8
M0
 62
   234
100
AcDbLine
 10
173.92411
 20
920.514138
 11
173.924108
 21
925.014138
  0
ARC
  5
21C
100
AcDbEntity
  8
M0
 62
   234
100
AcDbCircle
 10
177.924108
 20
925.01414
 40
4.0
100
AcDbArc
 50
90.0
 51
180.000018
  0
LINE
  5
21D
100
AcDbEntity
  8
M0
 62
   234
100
AcDbLine
 10
181.424107
 20
929.014141
 11
177.924107
 21
929.01414
  0
LINE
  5
21E
100
AcDbEntity
  8
M0
 62
   234
100
AcDbLine
 10
171.424111
 20
917.614128
 11
179.424111
 21
917.614131
  0
LINE
  5
21F
100
AcDbEntity
  8
M0
 62
   234
100
AcDbLine
 10
179.424113
 20
909.01414
 11
171.424113
 21
909.014137
  0
LINE
  5
220
100
AcDbEntity
  8
M0
 62
   234
100
AcDbLine
 10
179.424114
 20
908.01414
 11
171.424114
 21
908.014137
  0
LINE
  5
221
100
AcDbEntity
  8
M0
 62
   234
100
AcDbLine
 10
171.424116
 20
899.514137
 11
179.424116
 21
899.51414
  0
LINE
  5
222
100
AcDbEntity
  8
M0
 62
   234
100
AcDbLine
 10
181.424119
 20
890.264157
 11
169.424119
 21
890.264153
  0
LINE
  5
223
100
AcDbEntity
  8
M0
 62
   234
100
AcDbLine
 10
181.424117
 20
897.764157
 11
169.424117
 21
897.764153
  0
LINE
  5
224
100
AcDbEntity
  8
M0
 62
   234
100
AcDbLine
 10
171.424109
 20
922.514137
 11
171.424117
 21
897.764154
  0
LINE
  5
225
100
AcDbEntity
  8
M0
 62
   234
100
AcDbLine
 10
179.42411
 20
920.51414
 11
179.424117
 21
897.764156
  0
LINE
  5
226
100
AcDbEntity
  8
M0
 62
   234
100
AcDbLine
 10
179.424119
 20
890.264156
 11
179.424126
 21
867.514158
  0
LINE
  5
227
100
AcDbEntity
  8
M0
 62
   234
100
AcDbLine
 10
173.424117
 20
897.764154
 11
173.424117
 21
896.764154
  0
LINE
  5
228
100
AcDbEntity
  8
M0
 62
   234
100
AcDbLine
 10
170.424117
 20
896.764153
 11
173.424117
 21
896.764154
  0
LINE
  5
229
100
AcDbEntity
  8
M0
 62
   234
100
AcDbLine
 10
170.424117
 20
897.764153
 11
170.424119
 21
890.264153
  0
LINE
  5
22A
100
AcDbEntity
  8
M0
 62
   234
100
AcDbLine
 10
170.424119
 20
891.264153
 11
173.424119
 21
891.264154
  0
LINE
  5
22B
100
AcDbEntity
  8
M0
 62
   234
100
AcDbLine
 10
173.424119
 20
891.264154
 11
173.424119
 21
890.264154
  0
LINE
  5
22C
100
AcDbEntity
  8
M0
 62
   234
100
AcDbLine
 10
177.924117
 20
896.764156
 11
177.924119
 21
891.264156
  0
LINE
  5
22D
100
AcDbEntity
  8
M0
 62
   234
100
AcDbLine
 10
176.424117
 20
897.764155
 11
176.424119
 21
890.264155
  0
LINE
  5
22E
100
AcDbEntity
  8
M0
 62
   234
100
AcDbLine
 10
176.424119
 20
891.264155
 11
181.424119
 21
891.264157
  0
LINE
  5
22F
100
AcDbEntity
  8
M0
 62
   234
100
AcDbLine
 10
176.424117
 20
896.764155
 11
181.424117
 21
896.764157
  0
LINE
  5
230
100
AcDbEntity
  8
M0
 62
   234
100
AcDbLine
 10
173.924126
 20
867.514156
 11
173.924128
 21
863.014169
  0
ARC
  5
231
100
AcDbEntity
  8
M0
 62
   234
100
AcDbCircle
 10
177.924128
 20
863.01417
 40
4.0
100
AcDbArc
 50
179.999799
 51
270.0
  0
LINE
  5
232
100
AcDbEntity
  8
M0
 62
   234
100
AcDbLine
 10
181.424129
 20
859.014171
 11
177.924129
 21
859.01417
  0
CIRCLE
  5
233
100
AcDbEntity
  8
M0
 62
   234
100
AcDbCircle
 10
178.424128
 20
863.01417
 40
2.25
  0
ARC
  5
234
100
AcDbEntity
  8
M0
 62
   234
100
AcDbCircle
 10
170.924127
 20
865.514168
 40
0.5
100
AcDbArc
 50
270.0
 51
360.000018
  0
LINE
  5
235
100
AcDbEntity
  8
M0
 62
   234
100
AcDbLine
 10
170.924127
 20
865.014168
 11
169.424127
 21
865.014167
  0
LINE
  5
236
100
AcDbEntity
  8
M0
 62
   234
100
AcDbLine
 10
171.424119
 20
890.264154
 11
171.424127
 21
865.514168
  0
LINE
  5
237
100
AcDbEntity
  8
M0
 62
   234
100
AcDbLine
 10
171.42412
 20
888.514154
 11
179.42412
 21
888.514156
  0
LINE
  5
238
100
AcDbEntity
  8
M0
 62
   234
100
AcDbLine
 10
179.424123
 20
880.014158
 11
171.424123
 21
880.014156
  0
LINE
  5
239
100
AcDbEntity
  8
M0
 62
   234
100
AcDbLine
 10
179.424123
 20
879.014158
 11
171.424123
 21
879.014156
  0
LINE
  5
23A
100
AcDbEntity
  8
M0
 62
   234
100
AcDbLine
 10
171.424126
 20
870.414156
 11
179.424126
 21
870.414159
  0
LINE
  5
23B
100
AcDbEntity
  8
M0
 62
   234
100
AcDbLine
 10
169.424109
 20
923.014137
 11
169.424127
 21
865.014167
  0
LINE
  5
23C
100
AcDbEntity
  8
M0
100
AcDbLine
 10
235.424122
 20
772.813895
 11
265.424122
 21
772.813895
  0
LINE
  5
23D
100
AcDbEntity
  8
M0
100
AcDbLine
 10
237.424122
 20
811.813967
 11
237.424122
 21
809.813891
  0
LINE
  5
23E
100
AcDbEntity
  8
M0
100
AcDbLine
 10
263.424122
 20
809.813891
 11
263.424122
 21
811.813967
  0
LINE
  5
23F
100
AcDbEntity
  8
M0
100
AcDbLine
 10
235.424122
 20
802.813891
 11
237.424122
 21
809.813891
  0
LINE
  5
240
100
AcDbEntity
  8
M0
100
AcDbLine
 10
235.424122
 20
772.813895
 11
235.424122
 21
802.813891
  0
LINE
  5
241
100
AcDbEntity
  8
M0
100
AcDbLine
 10
265.424122
 20
772.813895
 11
265.424122
 21
802.813891
  0
LINE
  5
242
100
AcDbEntity
  8
M0
100
AcDbLine
 10
263.424122
 20
809.813891
 11
265.424122
 21
802.813891
  0
CIRCLE
  5
243
100
AcDbEntity
  8
M0
100
AcDbCircle
 10
250.424122
 20
787.813895
 40
6.0
  0
LINE
  5
244
100
AcDbEntity
  8
M0
100
AcDbLine
 10
293.424122
 20
772.813895
 11
310.424122
 21
772.813895
  0
LINE
  5
245
100
AcDbEntity
  8
M0
100
AcDbLine
 10
323.424122
 20
772.813895
 11
323.424122
 21
802.813891
  0
LINE
  5
246
100
AcDbEntity
  8
M0
100
AcDbLine
 10
293.424122
 20
802.813891
 11
293.424122
 21
772.813895
  0
LINE
  5
247
100
AcDbEntity
  8
M0
100
AcDbLine
 10
293.424122
 20
772.813895
 11
323.424122
 21
772.813895
  0
LINE
  5
248
100
AcDbEntity
  8
M0
100
AcDbLine
 10
293.424122
 20
802.813891
 11
285.324039
 21
811.813967
  0
LINE
  5
249
100
AcDbEntity
  8
M0
100
AcDbLine
 10
323.424122
 20
802.813891
 11
314.757374
 21
811.813967
  0
CIRCLE
  5
24A
100
AcDbEntity
  8
M0
100
AcDbCircle
 10
308.424122
 20
787.813895
 40
6.0
  0
LINE
  5
24B
100
AcDbEntity
  8
M0
 62
     6
100
AcDbLine
 10
308.424122
 20
776.863848
 11
298.941211
 21
782.338854
  0
LINE
  5
24C
100
AcDbEntity
  8
M0
 62
     6
100
AcDbLine
 10
298.941211
 20
782.338854
 11
298.941211
 21
793.288836
  0
LINE
  5
24D
100
AcDbEntity
  8
M0
 62
     6
100
AcDbLine
 10
298.941211
 20
793.288836
 11
308.424122
 21
798.763842
  0
LINE
  5
24E
100
AcDbEntity
  8
M0
 62
     6
100
AcDbLine
 10
308.424122
 20
798.763842
 11
317.907276
 21
793.288836
  0
LINE
  5
24F
100
AcDbEntity
  8
M0
 62
     6
100
AcDbLine
 10
317.907276
 20
793.288836
 11
317.907276
 21
782.338824
  0
LINE
  5
250
100
AcDbEntity
  8
M0
 62
     6
100
AcDbLine
 10
317.907276
 20
782.338824
 11
308.424122
 21
776.863848
  0
CIRCLE
  5
251
100
AcDbEntity
  8
M0
 62
     6
100
AcDbCircle
 10
308.424122
 20
787.81383
 40
6.0
  0
LINE
  5
252
100
AcDbEntity
  8
M0
  6
DASHDOT
 62
     6
100
AcDbLine
 10
322.129444
 20
787.813936
 11
294.719684
 21
787.813936
  0
LINE
  5
253
100
AcDbEntity
  8
M0
  6
DASHDOT
 62
     6
100
AcDbLine
 10
308.424366
 20
801.518862
 11
308.42461
 21
774.109011
  0
LINE
  5
254
100
AcDbEntity
  8
M0
 62
     6
100
AcDbLine
 10
250.424122
 20
776.863848
 11
240.941211
 21
782.338854
  0
LINE
  5
255
100
AcDbEntity
  8
M0
 62
     6
100
AcDbLine
 10
240.941211
 20
782.338854
 11
240.941211
 21
793.288836
  0
LINE
  5
256
100
AcDbEntity
  8
M0
 62
     6
100
AcDbLine
 10
240.941211
 20
793.288836
 11
250.424122
 21
798.763842
  0
LINE
  5
257
100
AcDbEntity
  8
M0
 62
     6
100
AcDbLine
 10
250.424122
 20
798.763842
 11
259.907276
 21
793.288836
  0
LINE
  5
258
100
AcDbEntity
  8
M0
 62
     6
100
AcDbLine
 10
259.907276
 20
793.288836
 11
259.907276
 21
782.338824
  0
LINE
  5
259
100
AcDbEntity
  8
M0
 62
     6
100
AcDbLine
 10
259.907276
 20
782.338824
 11
250.424122
 21
776.863848
  0
CIRCLE
  5
25A
100
AcDbEntity
  8
M0
 62
     6
100
AcDbCircle
 10
250.424122
 20
787.81383
 40
6.0
  0
LINE
  5
25B
100
AcDbEntity
  8
M0
  6
DASHDOT
 62
     6
100
AcDbLine
 10
264.129444
 20
787.813936
 11
236.719684
 21
787.813936
  0
LINE
  5
25C
100
AcDbEntity
  8
M0
  6
DASHDOT
 62
     6
100
AcDbLine
 10
250.424366
 20
801.518862
 11
250.42461
 21
774.109011
  0
LINE
  5
25D
100
AcDbEntity
  8
M0
100
AcDbLine
 10
207.424122
 20
772.813895
 11
190.424122
 21
772.813895
  0
LINE
  5
25E
100
AcDbEntity
  8
M0
100
AcDbLine
 10
177.424122
 20
772.813895
 11
177.424122
 21
802.813891
  0
LINE
  5
25F
100
AcDbEntity
  8
M0
100
AcDbLine
 10
207.424122
 20
802.813891
 11
207.424122
 21
772.813895
  0
LINE
  5
260
100
AcDbEntity
  8
M0
100
AcDbLine
 10
207.424122
 20
772.813895
 11
177.424122
 21
772.813895
  0
LINE
  5
261
100
AcDbEntity
  8
M0
100
AcDbLine
 10
207.424122
 20
802.813891
 11
215.524189
 21
811.813967
  0
LINE
  5
262
100
AcDbEntity
  8
M0
100
AcDbLine
 10
177.424122
 20
802.813891
 11
186.090854
 21
811.813967
  0
CIRCLE
  5
263
100
AcDbEntity
  8
M0
100
AcDbCircle
 10
192.424122
 20
787.813895
 40
6.0
  0
LINE
  5
264
100
AcDbEntity
  8
M0
 62
     6
100
AcDbLine
 10
192.424122
 20
776.863848
 11
201.907032
 21
782.338854
  0
LINE
  5
265
100
AcDbEntity
  8
M0
 62
     6
100
AcDbLine
 10
201.907032
 20
782.338854
 11
201.907032
 21
793.288836
  0
LINE
  5
266
100
AcDbEntity
  8
M0
 62
     6
100
AcDbLine
 10
201.907032
 20
793.288836
 11
192.424122
 21
798.763842
  0
LINE
  5
267
100
AcDbEntity
  8
M0
 62
     6
100
AcDbLine
 10
192.424122
 20
798.763842
 11
182.940967
 21
793.288836
  0
LINE
  5
268
100
AcDbEntity
  8
M0
 62
     6
100
AcDbLine
 10
182.940967
 20
793.288836
 11
182.940967
 21
782.338824
  0
LINE
  5
269
100
AcDbEntity
  8
M0
 62
     6
100
AcDbLine
 10
182.940967
 20
782.338824
 11
192.424122
 21
776.863848
  0
CIRCLE
  5
26A
100
AcDbEntity
  8
M0
 62
     6
100
AcDbCircle
 10
192.424122
 20
787.81383
 40
6.0
  0
LINE
  5
26B
100
AcDbEntity
  8
M0
  6
DASHDOT
 62
     6
100
AcDbLine
 10
178.718799
 20
787.813936
 11
206.128559
 21
787.813936
  0
LINE
  5
26C
100
AcDbEntity
  8
M0
  6
DASHDOT
 62
     6
100
AcDbLine
 10
192.423877
 20
801.518862
 11
192.423633
 21
774.109011
  0
LINE
  5
26D
100
AcDbEntity
  8
M0
100
AcDbLine
 10
207.424105
 20
992.814164
 11
190.424105
 21
992.814153
  0
LINE
  5
26E
100
AcDbEntity
  8
M0
100
AcDbLine
 10
177.424106
 20
992.814145
 11
177.424125
 21
962.81416
  0
LINE
  5
26F
100
AcDbEntity
  8
M0
100
AcDbLine
 10
207.424124
 20
962.814179
 11
207.424105
 21
992.814164
  0
LINE
  5
270
100
AcDbEntity
  8
M0
100
AcDbLine
 10
207.424105
 20
992.814164
 11
177.424106
 21
992.814145
  0
LINE
  5
271
100
AcDbEntity
  8
M0
100
AcDbLine
 10
207.424124
 20
962.814179
 11
215.524197
 21
953.814104
  0
LINE
  5
272
100
AcDbEntity
  8
M0
100
AcDbLine
 10
177.424125
 20
962.81416
 11
186.090863
 21
953.814085
  0
CIRCLE
  5
273
100
AcDbEntity
  8
M0
100
AcDbCircle
 10
192.424115
 20
977.814168
 40
6.0
  0
LINE
  5
274
100
AcDbEntity
  8
M0
100
AcDbLine
 10
235.424106
 20
992.814145
 11
265.424105
 21
992.814164
  0
LINE
  5
275
100
AcDbEntity
  8
M0
100
AcDbLine
 10
237.424131
 20
953.814081
 11
237.42413
 21
955.814161
  0
LINE
  5
276
100
AcDbEntity
  8
M0
100
AcDbLine
 10
263.424129
 20
955.814178
 11
263.42413
 21
953.814097
  0
LINE
  5
277
100
AcDbEntity
  8
M0
100
AcDbLine
 10
235.424125
 20
962.81416
 11
237.42413
 21
955.814161
  0
LINE
  5
278
100
AcDbEntity
  8
M0
100
AcDbLine
 10
235.424106
 20
992.814145
 11
235.424125
 21
962.81416
  0
LINE
  5
279
100
AcDbEntity
  8
M0
100
AcDbLine
 10
265.424105
 20
992.814164
 11
265.424124
 21
962.814179
  0
LINE
  5
27A
100
AcDbEntity
  8
M0
100
AcDbLine
 10
263.424129
 20
955.814178
 11
265.424124
 21
962.814179
  0
CIRCLE
  5
27B
100
AcDbEntity
  8
M0
100
AcDbCircle
 10
250.424115
 20
977.814168
 40
6.0
  0
LINE
  5
27C
100
AcDbEntity
  8
M0
100
AcDbLine
 10
293.424106
 20
992.814145
 11
310.424105
 21
992.814155
  0
LINE
  5
27D
100
AcDbEntity
  8
M0
100
AcDbLine
 10
323.424105
 20
992.814164
 11
323.424124
 21
962.814179
  0
LINE
  5
27E
100
AcDbEntity
  8
M0
100
AcDbLine
 10
293.424125
 20
962.81416
 11
293.424106
 21
992.814145
  0
LINE
  5
27F
100
AcDbEntity
  8
M0
100
AcDbLine
 10
293.424106
 20
992.814145
 11
323.424105
 21
992.814164
  0
LINE
  5
280
100
AcDbEntity
  8
M0
100
AcDbLine
 10
293.424125
 20
962.81416
 11
285.324063
 21
953.814075
  0
LINE
  5
281
100
AcDbEntity
  8
M0
100
AcDbLine
 10
323.424124
 20
962.814179
 11
314.757382
 21
953.814093
  0
CIRCLE
  5
282
100
AcDbEntity
  8
M0
100
AcDbCircle
 10
308.424115
 20
977.814168
 40
6.0
  0
LINE
  5
283
100
AcDbEntity
  8
M0
 62
     6
100
AcDbLine
 10
308.424172
 20
988.764227
 11
298.941266
 21
983.289215
  0
LINE
  5
284
100
AcDbEntity
  8
M0
 62
     6
100
AcDbLine
 10
298.941266
 20
983.289215
 11
298.941273
 21
972.339234
  0
LINE
  5
285
100
AcDbEntity
  8
M0
 62
     6
100
AcDbLine
 10
298.941273
 20
972.339234
 11
308.424185
 21
966.864234
  0
LINE
  5
286
100
AcDbEntity
  8
M0
 62
     6
100
AcDbLine
 10
308.424185
 20
966.864234
 11
317.907336
 21
972.339246
  0
LINE
  5
287
100
AcDbEntity
  8
M0
 62
     6
100
AcDbLine
 10
317.907336
 20
972.339246
 11
317.907329
 21
983.289258
  0
LINE
  5
288
100
AcDbEntity
  8
M0
 62
     6
100
AcDbLine
 10
317.907329
 20
983.289258
 11
308.424172
 21
988.764227
  0
CIRCLE
  5
289
100
AcDbEntity
  8
M0
 62
     6
100
AcDbCircle
 10
308.424178
 20
977.814246
 40
6.0
  0
LINE
  5
28A
100
AcDbEntity
  8
M0
  6
DASHDOT
 62
     6
100
AcDbLine
 10
322.129501
 20
977.814148
 11
294.719742
 21
977.81413
  0
LINE
  5
28B
100
AcDbEntity
  8
M0
  6
DASHDOT
 62
     6
100
AcDbLine
 10
308.424431
 20
964.109213
 11
308.424658
 21
991.519064
  0
LINE
  5
28C
100
AcDbEntity
  8
M0
 62
     6
100
AcDbLine
 10
250.424172
 20
988.764227
 11
240.941266
 21
983.289215
  0
LINE
  5
28D
100
AcDbEntity
  8
M0
 62
     6
100
AcDbLine
 10
240.941266
 20
983.289215
 11
240.941273
 21
972.339234
  0
LINE
  5
28E
100
AcDbEntity
  8
M0
 62
     6
100
AcDbLine
 10
240.941273
 20
972.339234
 11
250.424185
 21
966.864234
  0
LINE
  5
28F
100
AcDbEntity
  8
M0
 62
     6
100
AcDbLine
 10
250.424185
 20
966.864234
 11
259.907336
 21
972.339246
  0
LINE
  5
290
100
AcDbEntity
  8
M0
 62
     6
100
AcDbLine
 10
259.907336
 20
972.339246
 11
259.907329
 21
983.289258
  0
LINE
  5
291
100
AcDbEntity
  8
M0
 62
     6
100
AcDbLine
 10
259.907329
 20
983.289258
 11
250.424172
 21
988.764227
  0
CIRCLE
  5
292
100
AcDbEntity
  8
M0
 62
     6
100
AcDbCircle
 10
250.424178
 20
977.814246
 40
6.0
  0
LINE
  5
293
100
AcDbEntity
  8
M0
  6
DASHDOT
 62
     6
100
AcDbLine
 10
264.129501
 20
977.814148
 11
236.719742
 21
977.81413
  0
LINE
  5
294
100
AcDbEntity
  8
M0
  6
DASHDOT
 62
     6
100
AcDbLine
 10
250.424431
 20
964.109213
 11
250.424658
 21
991.519064
  0
LINE
  5
295
100
AcDbEntity
  8
M0
 62
     6
100
AcDbLine
 10
192.424172
 20
988.764227
 11
201.907085
 21
983.289227
  0
LINE
  5
296
100
AcDbEntity
  8
M0
 62
     6
100
AcDbLine
 10
201.907085
 20
983.289227
 11
201.907092
 21
972.339246
  0
LINE
  5
297
100
AcDbEntity
  8
M0
 62
     6
100
AcDbLine
 10
201.907092
 20
972.339246
 11
192.424185
 21
966.864234
  0
LINE
  5
298
100
AcDbEntity
  8
M0
 62
     6
100
AcDbLine
 10
192.424185
 20
966.864234
 11
182.941029
 21
972.339234
  0
LINE
  5
299
100
AcDbEntity
  8
M0
 62
     6
100
AcDbLine
 10
182.941029
 20
972.339234
 11
182.941022
 21
983.289246
  0
LINE
  5
29A
100
AcDbEntity
  8
M0
 62
     6
100
AcDbLine
 10
182.941022
 20
983.289246
 11
192.424172
 21
988.764227
  0
CIRCLE
  5
29B
100
AcDbEntity
  8
M0
 62
     6
100
AcDbCircle
 10
192.424178
 20
977.814246
 40
6.0
  0
LINE
  5
29C
100
AcDbEntity
  8
M0
  6
DASHDOT
 62
     6
100
AcDbLine
 10
178.718857
 20
977.81413
 11
206.128616
 21
977.814148
  0
LINE
  5
29D
100
AcDbEntity
  8
M0
  6
DASHDOT
 62
     6
100
AcDbLine
 10
192.423943
 20
964.109213
 11
192.423682
 21
991.519064
  0
LINE
  5
29E
100
AcDbEntity
  8
M0
100
AcDbLine
 10
239.924076
 20
872.31412
 11
260.924076
 21
872.31412
  0
LINE
  5
29F
100
AcDbEntity
  8
M0
100
AcDbLine
 10
261.424076
 20
872.814104
 11
261.424076
 21
889.81412
  0
LINE
  5
2A0
100
AcDbEntity
  8
M0
100
AcDbLine
 10
252.924076
 20
896.814104
 11
247.924076
 21
896.814104
  0
LINE
  5
2A1
100
AcDbEntity
  8
M0
100
AcDbLine
 10
239.424076
 20
889.81412
 11
239.424076
 21
872.81412
  0
LINE
  5
2A2
100
AcDbEntity
  8
M0
100
AcDbLine
 10
242.424076
 20
892.81412
 11
244.424076
 21
892.81412
  0
LINE
  5
2A3
100
AcDbEntity
  8
M0
100
AcDbLine
 10
244.424076
 20
895.114107
 11
247.924076
 21
895.114107
  0
LINE
  5
2A4
100
AcDbEntity
  8
M0
100
AcDbLine
 10
247.424076
 20
880.31412
 11
253.424076
 21
880.31412
  0
LINE
  5
2A5
100
AcDbEntity
  8
M0
100
AcDbLine
 10
253.424076
 20
885.31412
 11
253.424076
 21
880.31412
  0
LINE
  5
2A6
100
AcDbEntity
  8
M0
100
AcDbLine
 10
247.424076
 20
885.31412
 11
247.424076
 21
880.31412
  0
LINE
  5
2A7
100
AcDbEntity
  8
M0
100
AcDbLine
 10
247.924076
 20
896.81412
 11
247.924076
 21
895.114107
  0
LINE
  5
2A8
100
AcDbEntity
  8
M0
100
AcDbLine
 10
252.924076
 20
896.81412
 11
252.924076
 21
895.114107
  0
LINE
  5
2A9
100
AcDbEntity
  8
M0
100
AcDbLine
 10
256.424076
 20
895.114107
 11
256.424076
 21
892.81412
  0
LINE
  5
2AA
100
AcDbEntity
  8
M0
100
AcDbLine
 10
244.424076
 20
895.114107
 11
244.424076
 21
892.81412
  0
LINE
  5
2AB
100
AcDbEntity
  8
M0
100
AcDbLine
 10
252.924076
 20
895.114107
 11
256.424076
 21
895.114107
  0
LINE
  5
2AC
100
AcDbEntity
  8
M0
100
AcDbLine
 10
256.424076
 20
892.81412
 11
258.424076
 21
892.81412
  0
ARC
  5
2AD
100
AcDbEntity
  8
M0
100
AcDbCircle
 10
258.424076
 20
889.81412
 40
3.0
100
AcDbArc
 50
0.0
 51
90.0
  0
ARC
  5
2AE
100
AcDbEntity
  8
M0
100
AcDbCircle
 10
242.424076
 20
889.81412
 40
3.0
100
AcDbArc
 50
89.999709
 51
179.999709
  0
ARC
  5
2AF
100
AcDbEntity
  8
M0
100
AcDbCircle
 10
239.924076
 20
872.81412
 40
0.5
100
AcDbArc
 50
179.998251
 51
270.0
  0
ARC
  5
2B0
100
AcDbEntity
  8
M0
100
AcDbCircle
 10
260.924076
 20
872.81412
 40
0.5
100
AcDbArc
 50
270.0
 51
360.0
  0
LINE
  5
2B1
100
AcDbEntity
  8
M0
100
AcDbLine
 10
247.424076
 20
885.31412
 11
253.424076
 21
885.31412
  0
LINE
  5
2B2
100
AcDbEntity
  8
M0
100
AcDbLine
 10
322.943058
 20
880.013907
 11
327.904728
 21
880.013907
  0
LINE
  5
2B3
100
AcDbEntity
  8
M0
100
AcDbLine
 10
327.904728
 20
888.613882
 11
322.943058
 21
888.613866
  0
ARC
  5
2B4
100
AcDbEntity
  8
M0
100
AcDbCircle
 10
322.943058
 20
888.113866
 40
0.5
100
AcDbArc
 50
89.998251
 51
162.872435
  0
ARC
  5
2B5
100
AcDbEntity
  8
M0
100
AcDbCircle
 10
322.943058
 20
880.513907
 40
0.5
100
AcDbArc
 50
197.129027
 51
270.0
  0
ARC
  5
2B6
100
AcDbEntity
  8
M0
100
AcDbCircle
 10
327.904728
 20
880.513907
 40
0.5
100
AcDbArc
 50
270.0
 51
342.861372
  0
ARC
  5
2B7
100
AcDbEntity
  8
M0
100
AcDbCircle
 10
327.904728
 20
888.113866
 40
0.5
100
AcDbArc
 50
17.136546
 51
89.998251
  0
LINE
  5
2B8
100
AcDbEntity
  8
M0
100
AcDbLine
 10
322.943058
 20
870.414053
 11
327.904728
 21
870.414053
  0
LINE
  5
2B9
100
AcDbEntity
  8
M0
100
AcDbLine
 10
327.904728
 20
879.014028
 11
322.943058
 21
879.014013
  0
ARC
  5
2BA
100
AcDbEntity
  8
M0
100
AcDbCircle
 10
322.943058
 20
878.514013
 40
0.5
100
AcDbArc
 50
89.998251
 51
162.872435
  0
ARC
  5
2BB
100
AcDbEntity
  8
M0
100
AcDbCircle
 10
322.943058
 20
870.914053
 40
0.5
100
AcDbArc
 50
197.129027
 51
270.0
  0
ARC
  5
2BC
100
AcDbEntity
  8
M0
100
AcDbCircle
 10
327.904728
 20
870.914053
 40
0.5
100
AcDbArc
 50
270.0
 51
342.861372
  0
ARC
  5
2BD
100
AcDbEntity
  8
M0
100
AcDbCircle
 10
327.904728
 20
878.514013
 40
0.5
100
AcDbArc
 50
17.136546
 51
89.998251
  0
LINE
  5
2BE
100
AcDbEntity
  8
M0
100
AcDbLine
 10
165.624057
 20
1002.814139
 11
335.223896
 21
1002.814139
  0
LINE
  5
2BF
100
AcDbEntity
  8
M0
100
AcDbLine
 10
335.223896
 20
662.814139
 11
165.624057
 21
662.814139
  0
LINE
  5
2C0
100
AcDbEntity
  8
M0
100
AcDbLine
 10
167.924061
 20
1002.814139
 11
167.924061
 21
662.814139
  0
LINE
  5
2C1
100
AcDbEntity
  8
M0
100
AcDbLine
 10
332.923847
 20
1002.814139
 11
332.923847
 21
662.814139
  0
LINE
  5
2C2
100
AcDbEntity
  8
M0
100
AcDbLine
 10
165.624057
 20
1002.814139
 11
165.624057
 21
662.814139
  0
LINE
  5
2C3
100
AcDbEntity
  8
M0
100
AcDbLine
 10
335.223896
 20
1002.814139
 11
335.223896
 21
662.814139
  0
LINE
  5
2C4
100
AcDbEntity
  8
M0
100
AcDbLine
 10
175.424091
 20
800.814028
 11
175.424091
 21
725.164019
  0
LINE
  5
2C5
100
AcDbEntity
  8
M0
100
AcDbLine
 10
325.424091
 20
800.814028
 11
325.424091
 21
725.164019
  0
LINE
  5
2C6
100
AcDbEntity
  8
M0
100
AcDbLine
 10
175.424091
 20
687.814028
 11
325.424091
 21
687.814028
  0
LINE
  5
2C7
100
AcDbEntity
  8
M0
100
AcDbLine
 10
175.424091
 20
721.664019
 11
175.424091
 21
662.814028
  0
LINE
  5
2C8
100
AcDbEntity
  8
M0
100
AcDbLine
 10
325.424091
 20
721.664019
 11
325.424091
 21
662.814028
  0
CIRCLE
  5
2C9
100
AcDbEntity
  8
M0
100
AcDbCircle
 10
280.423847
 20
672.814028
 40
4.5
  0
CIRCLE
  5
2CA
100
AcDbEntity
  8
M0
100
AcDbCircle
 10
220.424091
 20
672.814028
 40
4.5
  0
LINE
  5
2CB
100
AcDbEntity
  8
M0
  6
DASHDOT
100
AcDbLine
 10
265.923847
 20
672.814028
 11
294.923847
 21
672.814028
  0
LINE
  5
2CC
100
AcDbEntity
  8
M0
  6
DASHDOT
100
AcDbLine
 10
280.423847
 20
658.314028
 11
280.423847
 21
687.314028
  0
LINE
  5
2CD
100
AcDbEntity
  8
M0
  6
DASHDOT
100
AcDbLine
 10
205.924091
 20
672.814028
 11
234.924091
 21
672.814028
  0
LINE
  5
2CE
100
AcDbEntity
  8
M0
  6
DASHDOT
100
AcDbLine
 10
220.424091
 20
658.314028
 11
220.424091
 21
687.314028
  0
ARC
  5
2CF
100
AcDbEntity
  8
M0
100
AcDbCircle
 10
273.423847
 20
750.414126
 40
4.0
100
AcDbArc
 50
67.97548
 51
292.024312
  0
LINE
  5
2D0
100
AcDbEntity
  8
M0
 62
     7
100
AcDbLine
 10
220.423862
 20
786.527733
 11
220.423862
 21
740.414126
  0
LINE
  5
2D1
100
AcDbEntity
  8
M0
 62
     7
100
AcDbLine
 10
217.22385
 20
740.414126
 11
217.22385
 21
786.527733
  0
LINE
  5
2D2
100
AcDbEntity
  8
M0
 62
     7
100
AcDbLine
 10
231.923862
 20
740.414126
 11
231.923862
 21
759.914126
  0
LINE
  5
2D3
100
AcDbEntity
  8
M0
 62
     7
100
AcDbLine
 10
217.22385
 20
740.414126
 11
222.72385
 21
740.414126
  0
LINE
  5
2D4
100
AcDbEntity
  8
M0
 62
     7
100
AcDbLine
 10
217.22385
 20
786.414126
 11
231.923862
 21
786.414126
  0
LINE
  5
2D5
100
AcDbEntity
  8
M0
 62
     7
100
AcDbLine
 10
225.923847
 20
772.414127
 11
225.923847
 21
713.414141
  0
LINE
  5
2D6
100
AcDbEntity
  8
M0
 62
     7
100
AcDbLine
 10
274.923847
 20
772.414126
 11
274.923847
 21
713.414141
  0
LINE
  5
2D7
100
AcDbEntity
  8
M0
 62
     7
100
AcDbLine
 10
222.72385
 20
713.414141
 11
222.72385
 21
772.414126
  0
LINE
  5
2D8
100
AcDbEntity
  8
M0
 62
     7
100
AcDbLine
 10
278.123859
 20
713.414141
 11
278.123859
 21
772.414126
  0
LINE
  5
2D9
100
AcDbEntity
  8
M0
 62
     7
100
AcDbLine
 10
226.923847
 20
773.414127
 11
235.423847
 21
773.414126
  0
LINE
  5
2DA
100
AcDbEntity
  8
M0
 62
     7
100
AcDbLine
 10
226.923847
 20
776.614126
 11
235.423847
 21
776.614126
  0
LINE
  5
2DB
100
AcDbEntity
  8
M0
 62
     7
100
AcDbLine
 10
222.72385
 20
713.414141
 11
225.923847
 21
713.414141
  0
LINE
  5
2DC
100
AcDbEntity
  8
M0
 62
     7
100
AcDbLine
 10
265.423847
 20
776.614126
 11
273.923847
 21
776.614126
  0
LINE
  5
2DD
100
AcDbEntity
  8
M0
 62
     7
100
AcDbLine
 10
265.423847
 20
773.414126
 11
273.923847
 21
773.414126
  0
LINE
  5
2DE
100
AcDbEntity
  8
M0
 62
     7
100
AcDbLine
 10
274.923847
 20
713.414141
 11
278.123859
 21
713.414141
  0
LINE
  5
2DF
100
AcDbEntity
  8
M0
 62
     7
100
AcDbLine
 10
225.923847
 20
740.414126
 11
231.923862
 21
740.414126
  0
ARC
  5
2E0
100
AcDbEntity
  8
M0
 62
     7
100
AcDbCircle
 10
273.923847
 20
772.414126
 40
1.0
100
AcDbArc
 50
0.0
 51
89.999126
  0
ARC
  5
2E1
100
AcDbEntity
  8
M0
 62
     7
100
AcDbCircle
 10
226.923847
 20
772.414127
 40
1.0
100
AcDbArc
 50
89.999126
 51
179.999945
  0
ARC
  5
2E2
100
AcDbEntity
  8
M0
 62
     7
100
AcDbCircle
 10
273.923847
 20
772.414126
 40
4.2
100
AcDbArc
 50
0.0
 51
89.999792
  0
ARC
  5
2E3
100
AcDbEntity
  8
M0
 62
     7
100
AcDbCircle
 10
226.923847
 20
772.414126
 40
4.2
100
AcDbArc
 50
89.999792
 51
179.999961
  0
ARC
  5
2E4
100
AcDbEntity
  8
M0
 62
     7
100
AcDbCircle
 10
273.423847
 20
776.414126
 40
4.0
100
AcDbArc
 50
340.186391
 51
537.133961
  0
LINE
  5
2E5
100
AcDbEntity
  8
M0
 62
     7
100
AcDbLine
 10
220.423862
 20
770.914126
 11
222.72385
 21
770.914126
  0
LINE
  5
2E6
100
AcDbEntity
  8
M0
 62
     7
100
AcDbLine
 10
220.423862
 20
755.914126
 11
222.72385
 21
755.914126
  0
LINE
  5
2E7
100
AcDbEntity
  8
M0
 62
     7
100
AcDbLine
 10
278.123859
 20
770.914126
 11
280.423847
 21
770.914126
  0
LINE
  5
2E8
100
AcDbEntity
  8
M0
 62
     7
100
AcDbLine
 10
278.123859
 20
755.914126
 11
280.423847
 21
755.914126
  0
LINE
  5
2E9
100
AcDbEntity
  8
M0
 62
     7
100
AcDbLine
 10
225.923847
 20
766.914126
 11
274.923847
 21
766.914126
  0
LINE
  5
2EA
100
AcDbEntity
  8
M0
 62
     7
100
AcDbLine
 10
225.923847
 20
759.914126
 11
274.923847
 21
759.914126
  0
LINE
  5
2EB
100
AcDbEntity
  8
M0
 62
     7
100
AcDbLine
 10
231.923862
 20
766.914126
 11
231.923862
 21
786.527733
  0
LINE
  5
2EC
100
AcDbEntity
  8
M0
 62
     7
100
AcDbLine
 10
171.923847
 20
721.664141
 11
179.424061
 21
721.664141
  0
LINE
  5
2ED
100
AcDbEntity
  8
M0
 62
     7
100
AcDbLine
 10
172.030399
 20
725.164141
 11
179.424061
 21
725.164141
  0
LINE
  5
2EE
100
AcDbEntity
  8
M0
 62
     7
100
AcDbLine
 10
171.923847
 20
725.164141
 11
171.923847
 21
721.664141
  0
LINE
  5
2EF
100
AcDbEntity
  8
M0
 62
     7
100
AcDbLine
 10
328.923847
 20
725.164141
 11
328.923847
 21
721.664141
  0
LINE
  5
2F0
100
AcDbEntity
  8
M0
 62
     7
100
AcDbLine
 10
225.923847
 20
721.664141
 11
274.923847
 21
721.664141
  0
LINE
  5
2F1
100
AcDbEntity
  8
M0
 62
     7
100
AcDbLine
 10
225.923847
 20
725.164141
 11
274.923847
 21
725.164141
  0
LINE
  5
2F2
100
AcDbEntity
  8
M0
 62
     7
100
AcDbLine
 10
278.123859
 20
725.164141
 11
285.424076
 21
725.164141
  0
LINE
  5
2F3
100
AcDbEntity
  8
M0
 62
     7
100
AcDbLine
 10
278.123859
 20
721.664141
 11
285.424076
 21
721.664141
  0
LINE
  5
2F4
100
AcDbEntity
  8
M0
 62
     7
100
AcDbLine
 10
709.31081
 20
1005.753893
 11
709.31081
 21
665.753908
  0
LINE
  5
2F5
100
AcDbEntity
  8
M0
 62
     7
100
AcDbLine
 10
687.011005
 20
873.553896
 11
687.011005
 21
851.553896
  0
LINE
  5
2F6
100
AcDbEntity
  8
M0
  6
DASHED
 62
     7
100
AcDbLine
 10
703.811005
 20
665.753908
 11
703.811005
 21
1005.753893
  0
LINE
  5
2F7
100
AcDbEntity
  8
M0
 62
     7
100
AcDbLine
 10
687.011005
 20
1005.753893
 11
709.31081
 21
1005.753893
  0
LINE
  5
2F8
100
AcDbEntity
  8
M0
 62
     7
100
AcDbLine
 10
687.011005
 20
665.753908
 11
709.31081
 21
665.753908
  0
LINE
  5
2F9
100
AcDbEntity
  8
M0
 62
     7
100
AcDbLine
 10
215.424061
 20
725.164141
 11
222.72385
 21
725.164141
  0
LINE
  5
2FA
100
AcDbEntity
  8
M0
 62
     7
100
AcDbLine
 10
215.424061
 20
721.664141
 11
222.72385
 21
721.664141
  0
LINE
  5
2FB
100
AcDbEntity
  8
M0
 62
     7
100
AcDbLine
 10
321.424061
 20
721.664141
 11
328.923847
 21
721.664141
  0
LINE
  5
2FC
100
AcDbEntity
  8
M0
 62
     7
100
AcDbLine
 10
321.424061
 20
725.164141
 11
328.923847
 21
725.164141
  0
LINE
  5
2FD
100
AcDbEntity
  8
M0
 62
     7
100
AcDbLine
 10
687.010944
 20
1005.753969
 11
687.010944
 21
665.754076
  0
ARC
  5
2FE
100
AcDbEntity
  8
M0
100
AcDbCircle
 10
227.424091
 20
750.414126
 40
4.0
100
AcDbArc
 50
247.975678
 51
472.02411
  0
ARC
  5
2FF
100
AcDbEntity
  8
M0
100
AcDbCircle
 10
227.424091
 20
776.414126
 40
4.0
100
AcDbArc
 50
2.865964
 51
199.813631
  0
LINE
  5
300
100
AcDbEntity
  8
M0
100
AcDbLine
 10
280.424076
 20
786.527733
 11
280.424076
 21
740.414126
  0
LINE
  5
301
100
AcDbEntity
  8
M0
100
AcDbLine
 10
283.624088
 20
740.414126
 11
283.624088
 21
786.527733
  0
LINE
  5
302
100
AcDbEntity
  8
M0
100
AcDbLine
 10
268.924076
 20
740.414126
 11
268.924076
 21
759.914126
  0
LINE
  5
303
100
AcDbEntity
  8
M0
100
AcDbLine
 10
283.624088
 20
740.414126
 11
278.124088
 21
740.414126
  0
LINE
  5
304
100
AcDbEntity
  8
M0
100
AcDbLine
 10
283.624088
 20
786.414126
 11
268.924076
 21
786.414126
  0
LINE
  5
305
100
AcDbEntity
  8
M0
100
AcDbLine
 10
274.924091
 20
740.414126
 11
268.924076
 21
740.414126
  0
ARC
  5
306
100
AcDbEntity
  8
M0
100
AcDbCircle
 10
227.424091
 20
776.414126
 40
4.0
100
AcDbArc
 50
0.0
 51
199.813631
  0
LINE
  5
307
100
AcDbEntity
  8
M0
100
AcDbLine
 10
268.924076
 20
766.914126
 11
268.924076
 21
786.527733
  0
LINE
  5
308
100
AcDbEntity
  8
M0
 62
     7
100
AcDbLine
 10
179.724125
 20
690.414126
 11
181.174122
 21
690.414126
  0
LINE
  5
309
100
AcDbEntity
  8
M0
 62
     7
100
AcDbLine
 10
215.424123
 20
694.91411
 11
215.424123
 21
722.914126
  0
LINE
  5
30A
100
AcDbEntity
  8
M0
 62
     7
100
AcDbLine
 10
179.424137
 20
722.914126
 11
179.424137
 21
690.714113
  0
LINE
  5
30B
100
AcDbEntity
  8
M0
 62
     7
100
AcDbLine
 10
182.924137
 20
707.914126
 11
190.374134
 21
707.914126
  0
LINE
  5
30C
100
AcDbEntity
  8
M0
 62
     7
100
AcDbLine
 10
183.474125
 20
698.414126
 11
191.374134
 21
698.414126
  0
LINE
  5
30D
100
AcDbEntity
  8
M0
 62
     7
100
AcDbLine
 10
201.374134
 20
706.914126
 11
201.374134
 21
693.414126
  0
LINE
  5
30E
100
AcDbEntity
  8
M0
 62
     7
100
AcDbLine
 10
193.474125
 20
706.914126
 11
193.474125
 21
693.414126
  0
LINE
  5
30F
100
AcDbEntity
  8
M0
 62
     7
100
AcDbLine
 10
211.374119
 20
707.914126
 11
211.374119
 21
697.91411
  0
LINE
  5
310
100
AcDbEntity
  8
M0
 62
     7
100
AcDbLine
 10
203.474125
 20
706.914126
 11
203.474125
 21
693.414126
  0
LINE
  5
311
100
AcDbEntity
  8
M0
 62
     7
100
AcDbLine
 10
191.374134
 20
706.914126
 11
191.374134
 21
693.414126
  0
LINE
  5
312
100
AcDbEntity
  8
M0
 62
     7
100
AcDbLine
 10
183.474125
 20
707.914126
 11
183.474125
 21
697.914126
  0
LINE
  5
313
100
AcDbEntity
  8
M0
 62
     7
100
AcDbLine
 10
212.924123
 20
706.914126
 11
212.924123
 21
695.414126
  0
LINE
  5
314
100
AcDbEntity
  8
M0
 62
     7
100
AcDbLine
 10
181.924137
 20
706.914126
 11
181.924137
 21
693.414126
  0
LINE
  5
315
100
AcDbEntity
  8
M0
 62
     7
100
AcDbLine
 10
179.924137
 20
692.914126
 11
181.424137
 21
692.914126
  0
LINE
  5
316
100
AcDbEntity
  8
M0
 62
     7
100
AcDbLine
 10
213.424123
 20
694.914126
 11
214.924123
 21
694.914126
  0
LINE
  5
317
100
AcDbEntity
  8
M0
 62
     7
100
AcDbLine
 10
203.924137
 20
690.914126
 11
211.424123
 21
690.914126
  0
LINE
  5
318
100
AcDbEntity
  8
M0
 62
     7
100
AcDbLine
 10
181.474125
 20
692.914126
 11
181.474125
 21
690.714113
  0
LINE
  5
319
100
AcDbEntity
  8
M0
 62
     7
100
AcDbLine
 10
189.374134
 20
698.414126
 11
189.374134
 21
690.714113
  0
LINE
  5
31A
100
AcDbEntity
  8
M0
 62
     7
100
AcDbLine
 10
191.874134
 20
692.914126
 11
192.974125
 21
692.914126
  0
LINE
  5
31B
100
AcDbEntity
  8
M0
 62
     7
100
AcDbLine
 10
201.874134
 20
692.914126
 11
202.974125
 21
692.914126
  0
LINE
  5
31C
100
AcDbEntity
  8
M0
 62
     7
100
AcDbLine
 10
193.474125
 20
698.414126
 11
201.374134
 21
698.414126
  0
LINE
  5
31D
100
AcDbEntity
  8
M0
 62
     7
100
AcDbLine
 10
203.474125
 20
698.414126
 11
211.374119
 21
698.414126
  0
LINE
  5
31E
100
AcDbEntity
  8
M0
 62
     7
100
AcDbLine
 10
191.924137
 20
692.914126
 11
191.924137
 21
690.914126
  0
LINE
  5
31F
100
AcDbEntity
  8
M0
 62
     7
100
AcDbLine
 10
189.674122
 20
690.414126
 11
191.424137
 21
690.414126
  0
LINE
  5
320
100
AcDbEntity
  8
M0
 62
     7
100
AcDbLine
 10
203.424137
 20
693.1962
 11
203.424137
 21
691.414126
  0
ARC
  5
321
100
AcDbEntity
  8
M0
 62
     7
100
AcDbCircle
 10
211.424123
 20
694.914126
 40
4.0
100
AcDbArc
 50
270.0
 51
360.0
  0
LINE
  5
322
100
AcDbEntity
  8
M0
 62
     7
100
AcDbLine
 10
193.474125
 20
696.414126
 11
201.374134
 21
696.414126
  0
LINE
  5
323
100
AcDbEntity
  8
M0
 62
     7
100
AcDbLine
 10
182.424137
 20
697.414126
 11
182.974125
 21
697.414126
  0
ARC
  5
324
100
AcDbEntity
  8
M0
 62
     7
100
AcDbCircle
 10
179.924137
 20
693.414126
 40
0.5
100
AcDbArc
 50
180.0
 51
270.0
  0
ARC
  5
325
100
AcDbEntity
  8
M0
 62
     7
100
AcDbCircle
 10
181.424137
 20
693.414126
 40
0.5
100
AcDbArc
 50
270.0
 51
360.0
  0
ARC
  5
326
100
AcDbEntity
  8
M0
 62
     7
100
AcDbCircle
 10
191.424137
 20
690.914126
 40
0.5
100
AcDbArc
 50
270.0
 51
360.0
  0
ARC
  5
327
100
AcDbEntity
  8
M0
 62
     7
100
AcDbCircle
 10
179.724125
 20
690.714113
 40
0.3
100
AcDbArc
 50
179.999966
 51
270.0
  0
ARC
  5
328
100
AcDbEntity
  8
M0
 62
     7
100
AcDbCircle
 10
181.174122
 20
690.714113
 40
0.3
100
AcDbArc
 50
270.0
 51
360.0
  0
ARC
  5
329
100
AcDbEntity
  8
M0
 62
     7
100
AcDbCircle
 10
189.674122
 20
690.714113
 40
0.3
100
AcDbArc
 50
179.999966
 51
270.0
  0
ARC
  5
32A
100
AcDbEntity
  8
M0
 62
     7
100
AcDbCircle
 10
203.924137
 20
691.414126
 40
0.5
100
AcDbArc
 50
180.0
 51
270.0
  0
ARC
  5
32B
100
AcDbEntity
  8
M0
 62
     7
100
AcDbCircle
 10
214.924123
 20
695.414126
 40
0.5
100
AcDbArc
 50
270.0
 51
360.0
  0
ARC
  5
32C
100
AcDbEntity
  8
M0
 62
     7
100
AcDbCircle
 10
213.424123
 20
695.414126
 40
0.5
100
AcDbArc
 50
180.0
 51
270.0
  0
ARC
  5
32D
100
AcDbEntity
  8
M0
 62
     7
100
AcDbCircle
 10
192.974125
 20
693.414126
 40
0.5
100
AcDbArc
 50
270.0
 51
360.0
  0
ARC
  5
32E
100
AcDbEntity
  8
M0
 62
     7
100
AcDbCircle
 10
201.874134
 20
693.414126
 40
0.5
100
AcDbArc
 50
180.0
 51
270.0
  0
ARC
  5
32F
100
AcDbEntity
  8
M0
 62
     7
100
AcDbCircle
 10
202.974125
 20
693.414126
 40
0.5
100
AcDbArc
 50
270.0
 51
360.0
  0
ARC
  5
330
100
AcDbEntity
  8
M0
 62
     7
100
AcDbCircle
 10
191.874134
 20
693.414126
 40
0.5
100
AcDbArc
 50
180.0
 51
270.0
  0
ARC
  5
331
100
AcDbEntity
  8
M0
 62
     7
100
AcDbCircle
 10
182.424137
 20
696.914126
 40
0.5
100
AcDbArc
 50
89.998251
 51
180.0
  0
ARC
  5
332
100
AcDbEntity
  8
M0
 62
     7
100
AcDbCircle
 10
182.974125
 20
697.914126
 40
0.5
100
AcDbArc
 50
270.0
 51
360.0
  0
LINE
  5
333
100
AcDbEntity
  8
M0
 62
     7
100
AcDbLine
 10
194.474125
 20
707.914126
 11
200.374134
 21
707.914126
  0
LINE
  5
334
100
AcDbEntity
  8
M0
 62
     7
100
AcDbLine
 10
204.474125
 20
707.914126
 11
211.924123
 21
707.914126
  0
ARC
  5
335
100
AcDbEntity
  8
M0
 62
     7
100
AcDbCircle
 10
190.374134
 20
706.914126
 40
1.0
100
AcDbArc
 50
0.0
 51
89.999126
  0
ARC
  5
336
100
AcDbEntity
  8
M0
 62
     7
100
AcDbCircle
 10
182.924137
 20
706.914126
 40
1.0
100
AcDbArc
 50
89.999126
 51
180.0
  0
ARC
  5
337
100
AcDbEntity
  8
M0
 62
     7
100
AcDbCircle
 10
200.374134
 20
706.914126
 40
1.0
100
AcDbArc
 50
0.0
 51
89.999126
  0
ARC
  5
338
100
AcDbEntity
  8
M0
 62
     7
100
AcDbCircle
 10
194.474125
 20
706.914126
 40
1.0
100
AcDbArc
 50
89.999126
 51
180.0
  0
ARC
  5
339
100
AcDbEntity
  8
M0
 62
     7
100
AcDbCircle
 10
211.924123
 20
706.914126
 40
1.0
100
AcDbArc
 50
0.0
 51
90.0
  0
ARC
  5
33A
100
AcDbEntity
  8
M0
 62
     7
100
AcDbCircle
 10
204.474125
 20
706.914126
 40
1.0
100
AcDbArc
 50
89.999126
 51
180.0
  0
LINE
  5
33B
100
AcDbEntity
  8
M0
 62
     7
100
AcDbLine
 10
193.474125
 20
694.414126
 11
195.449115
 21
696.414126
  0
ARC
  5
33C
100
AcDbEntity
  8
M0
 62
     7
100
AcDbCircle
 10
212.424123
 20
696.91411
 40
0.5
100
AcDbArc
 50
0.0
 51
90.0
  0
ARC
  5
33D
100
AcDbEntity
  8
M0
 62
     7
100
AcDbCircle
 10
211.874135
 20
697.91411
 40
0.5
100
AcDbArc
 50
180.0
 51
270.0
  0
LINE
  5
33E
100
AcDbEntity
  8
M0
 62
     7
100
AcDbLine
 10
212.424123
 20
697.41411
 11
211.874135
 21
697.41411
  0
LINE
  5
33F
100
AcDbEntity
  8
M0
 62
     7
100
AcDbLine
 10
205.924123
 20
698.41411
 11
205.924123
 21
690.914126
  0
ARC
  5
340
100
AcDbEntity
  8
M0
 62
     7
100
AcDbCircle
 10
210.924123
 20
696.914126
 40
2.25
100
AcDbArc
 50
138.189868
 51
179.999976
  0
LINE
  5
341
100
AcDbEntity
  8
M0
  6
DASHDOT
 62
     7
100
AcDbLine
 10
207.857793
 20
696.914126
 11
213.728322
 21
696.914126
  0
ARC
  5
342
100
AcDbEntity
  8
M0
 62
     7
100
AcDbCircle
 10
210.924123
 20
695.914126
 40
2.25
100
AcDbArc
 50
179.999976
 51
339.100852
  0
LINE
  5
343
100
AcDbEntity
  8
M0
  6
DASHDOT
 62
     7
100
AcDbLine
 10
207.883427
 20
695.914126
 11
213.984669
 21
695.914126
  0
LINE
  5
344
100
AcDbEntity
  8
M0
  6
DASHDOT
 62
     7
100
AcDbLine
 10
210.924123
 20
688.664126
 11
210.924123
 21
703.164126
  0
LINE
  5
345
100
AcDbEntity
  8
M0
 62
     7
100
AcDbLine
 10
208.674123
 20
695.914126
 11
208.674123
 21
696.914126
  0
LINE
  5
346
100
AcDbEntity
  8
M0
 62
     7
100
AcDbLine
 10
215.124104
 20
755.41408
 11
213.674107
 21
755.41408
  0
LINE
  5
347
100
AcDbEntity
  8
M0
 62
     7
100
AcDbLine
 10
179.424137
 20
750.91408
 11
179.424137
 21
722.914095
  0
LINE
  5
348
100
AcDbEntity
  8
M0
 62
     7
100
AcDbLine
 10
215.424107
 20
722.914126
 11
215.424092
 21
755.114107
  0
LINE
  5
349
100
AcDbEntity
  8
M0
 62
     7
100
AcDbLine
 10
211.924092
 20
737.914126
 11
204.474109
 21
737.914126
  0
LINE
  5
34A
100
AcDbEntity
  8
M0
 62
     7
100
AcDbLine
 10
211.374104
 20
747.414095
 11
203.474109
 21
747.41408
  0
LINE
  5
34B
100
AcDbEntity
  8
M0
 62
     7
100
AcDbLine
 10
193.47414
 20
738.914095
 11
193.47414
 21
752.41408
  0
LINE
  5
34C
100
AcDbEntity
  8
M0
 62
     7
100
AcDbLine
 10
201.374118
 20
738.914126
 11
201.374118
 21
752.41408
  0
LINE
  5
34D
100
AcDbEntity
  8
M0
 62
     7
100
AcDbLine
 10
183.47417
 20
737.914126
 11
183.47417
 21
747.414065
  0
LINE
  5
34E
100
AcDbEntity
  8
M0
 62
     7
100
AcDbLine
 10
191.374149
 20
738.914095
 11
191.374149
 21
752.41408
  0
LINE
  5
34F
100
AcDbEntity
  8
M0
 62
     7
100
AcDbLine
 10
203.474109
 20
738.914126
 11
203.474109
 21
752.41408
  0
LINE
  5
350
100
AcDbEntity
  8
M0
 62
     7
100
AcDbLine
 10
211.374104
 20
737.914126
 11
211.374104
 21
747.914095
  0
LINE
  5
351
100
AcDbEntity
  8
M0
 62
     7
100
AcDbLine
 10
181.924137
 20
738.914095
 11
181.924137
 21
750.414065
  0
LINE
  5
352
100
AcDbEntity
  8
M0
 62
     7
100
AcDbLine
 10
212.924092
 20
738.914126
 11
212.924092
 21
752.414095
  0
LINE
  5
353
100
AcDbEntity
  8
M0
 62
     7
100
AcDbLine
 10
214.924092
 20
752.914095
 11
213.424092
 21
752.914095
  0
LINE
  5
354
100
AcDbEntity
  8
M0
 62
     7
100
AcDbLine
 10
181.424137
 20
750.914065
 11
179.924137
 21
750.914065
  0
LINE
  5
355
100
AcDbEntity
  8
M0
 62
     7
100
AcDbLine
 10
190.924137
 20
754.91408
 11
183.424137
 21
754.914065
  0
LINE
  5
356
100
AcDbEntity
  8
M0
 62
     7
100
AcDbLine
 10
213.374104
 20
752.914095
 11
213.374104
 21
755.114092
  0
LINE
  5
357
100
AcDbEntity
  8
M0
 62
     7
100
AcDbLine
 10
205.474095
 20
747.41408
 11
205.474095
 21
755.114092
  0
LINE
  5
358
100
AcDbEntity
  8
M0
 62
     7
100
AcDbLine
 10
202.974109
 20
752.91408
 11
201.874118
 21
752.91408
  0
LINE
  5
359
100
AcDbEntity
  8
M0
 62
     7
100
AcDbLine
 10
192.97414
 20
752.91408
 11
191.874149
 21
752.91408
  0
LINE
  5
35A
100
AcDbEntity
  8
M0
 62
     7
100
AcDbLine
 10
201.374118
 20
747.41408
 11
193.47414
 21
747.41408
  0
LINE
  5
35B
100
AcDbEntity
  8
M0
 62
     7
100
AcDbLine
 10
191.374149
 20
747.41408
 11
181.924137
 21
747.414065
  0
LINE
  5
35C
100
AcDbEntity
  8
M0
 62
     7
100
AcDbLine
 10
202.924106
 20
752.91408
 11
202.924106
 21
754.91408
  0
LINE
  5
35D
100
AcDbEntity
  8
M0
 62
     7
100
AcDbLine
 10
205.174107
 20
755.41408
 11
203.424106
 21
755.41408
  0
LINE
  5
35E
100
AcDbEntity
  8
M0
 62
     7
100
AcDbLine
 10
191.424137
 20
752.632006
 11
191.424137
 21
754.41408
  0
ARC
  5
35F
100
AcDbEntity
  8
M0
 62
     7
100
AcDbCircle
 10
183.424137
 20
750.914065
 40
4.0
100
AcDbArc
 50
89.999781
 51
180.0
  0
LINE
  5
360
100
AcDbEntity
  8
M0
 62
     7
100
AcDbLine
 10
201.374118
 20
749.41408
 11
193.47414
 21
749.41408
  0
LINE
  5
361
100
AcDbEntity
  8
M0
 62
     7
100
AcDbLine
 10
212.424092
 20
748.414095
 11
211.874104
 21
748.414095
  0
ARC
  5
362
100
AcDbEntity
  8
M0
 62
     7
100
AcDbCircle
 10
214.924092
 20
752.414095
 40
0.5
100
AcDbArc
 50
0.0
 51
90.0
  0
ARC
  5
363
100
AcDbEntity
  8
M0
 62
     7
100
AcDbCircle
 10
213.424092
 20
752.414095
 40
0.5
100
AcDbArc
 50
90.0
 51
180.0
  0
ARC
  5
364
100
AcDbEntity
  8
M0
 62
     7
100
AcDbCircle
 10
203.424106
 20
754.91408
 40
0.5
100
AcDbArc
 50
89.998251
 51
180.0
  0
ARC
  5
365
100
AcDbEntity
  8
M0
 62
     7
100
AcDbCircle
 10
215.124104
 20
755.114107
 40
0.3
100
AcDbArc
 50
0.0
 51
90.0
  0
ARC
  5
366
100
AcDbEntity
  8
M0
 62
     7
100
AcDbCircle
 10
213.674107
 20
755.114092
 40
0.3
100
AcDbArc
 50
90.0
 51
180.0
  0
ARC
  5
367
100
AcDbEntity
  8
M0
 62
     7
100
AcDbCircle
 10
205.174107
 20
755.114092
 40
0.3
100
AcDbArc
 50
0.0
 51
90.0
  0
ARC
  5
368
100
AcDbEntity
  8
M0
 62
     7
100
AcDbCircle
 10
190.924137
 20
754.41408
 40
0.5
100
AcDbArc
 50
0.0
 51
89.998251
  0
ARC
  5
369
100
AcDbEntity
  8
M0
 62
     7
100
AcDbCircle
 10
179.924137
 20
750.414065
 40
0.5
100
AcDbArc
 50
89.998251
 51
180.0
  0
ARC
  5
36A
100
AcDbEntity
  8
M0
 62
     7
100
AcDbCircle
 10
181.424137
 20
750.414065
 40
0.5
100
AcDbArc
 50
0.0
 51
89.998251
  0
ARC
  5
36B
100
AcDbEntity
  8
M0
 62
     7
100
AcDbCircle
 10
201.874118
 20
752.41408
 40
0.5
100
AcDbArc
 50
89.998251
 51
180.0
  0
ARC
  5
36C
100
AcDbEntity
  8
M0
 62
     7
100
AcDbCircle
 10
192.97414
 20
752.41408
 40
0.5
100
AcDbArc
 50
0.0
 51
89.998251
  0
ARC
  5
36D
100
AcDbEntity
  8
M0
 62
     7
100
AcDbCircle
 10
191.874149
 20
752.41408
 40
0.5
100
AcDbArc
 50
89.998251
 51
180.0
  0
ARC
  5
36E
100
AcDbEntity
  8
M0
 62
     7
100
AcDbCircle
 10
202.974109
 20
752.41408
 40
0.5
100
AcDbArc
 50
0.0
 51
89.998251
  0
ARC
  5
36F
100
AcDbEntity
  8
M0
 62
     7
100
AcDbCircle
 10
212.424092
 20
748.914095
 40
0.5
100
AcDbArc
 50
270.0
 51
360.0
  0
ARC
  5
370
100
AcDbEntity
  8
M0
 62
     7
100
AcDbCircle
 10
211.874104
 20
747.914095
 40
0.5
100
AcDbArc
 50
90.0
 51
180.0
  0
LINE
  5
371
100
AcDbEntity
  8
M0
 62
     7
100
AcDbLine
 10
200.374118
 20
737.914126
 11
194.47417
 21
737.914095
  0
LINE
  5
372
100
AcDbEntity
  8
M0
 62
     7
100
AcDbLine
 10
190.37418
 20
737.914126
 11
182.924167
 21
737.914095
  0
ARC
  5
373
100
AcDbEntity
  8
M0
 62
     7
100
AcDbCircle
 10
204.474109
 20
738.914126
 40
1.0
100
AcDbArc
 50
180.0
 51
270.0
  0
ARC
  5
374
100
AcDbEntity
  8
M0
 62
     7
100
AcDbCircle
 10
211.924092
 20
738.914126
 40
1.0
100
AcDbArc
 50
270.0
 51
360.0
  0
ARC
  5
375
100
AcDbEntity
  8
M0
 62
     7
100
AcDbCircle
 10
194.47414
 20
738.914095
 40
1.0
100
AcDbArc
 50
180.0
 51
270.0
  0
ARC
  5
376
100
AcDbEntity
  8
M0
 62
     7
100
AcDbCircle
 10
200.374118
 20
738.914126
 40
1.0
100
AcDbArc
 50
270.0
 51
360.0
  0
ARC
  5
377
100
AcDbEntity
  8
M0
 62
     7
100
AcDbCircle
 10
182.924137
 20
738.914095
 40
1.0
100
AcDbArc
 50
180.0
 51
270.0
  0
ARC
  5
378
100
AcDbEntity
  8
M0
 62
     7
100
AcDbCircle
 10
190.374149
 20
738.914126
 40
1.0
100
AcDbArc
 50
270.0
 51
360.0
  0
LINE
  5
379
100
AcDbEntity
  8
M0
 62
     7
100
AcDbLine
 10
201.374118
 20
751.41408
 11
199.399158
 21
749.41408
  0
LINE
  5
37A
100
AcDbEntity
  8
M0
 62
     7
100
AcDbLine
 10
188.924137
 20
747.414095
 11
188.924137
 21
754.914065
  0
ARC
  5
37B
100
AcDbEntity
  8
M0
 62
     7
100
AcDbCircle
 10
183.924137
 20
748.914065
 40
2.25
100
AcDbArc
 50
318.189889
 51
360.0
  0
LINE
  5
37C
100
AcDbEntity
  8
M0
  6
DASHDOT
 62
     7
100
AcDbLine
 10
186.990467
 20
748.914065
 11
181.119938
 21
748.914065
  0
ARC
  5
37D
100
AcDbEntity
  8
M0
 62
     7
100
AcDbCircle
 10
183.924137
 20
749.914065
 40
2.25
100
AcDbArc
 50
0.0
 51
159.100776
  0
LINE
  5
37E
100
AcDbEntity
  8
M0
  6
DASHDOT
 62
     7
100
AcDbLine
 10
186.964832
 20
749.914065
 11
180.86359
 21
749.914065
  0
LINE
  5
37F
100
AcDbEntity
  8
M0
  6
DASHDOT
 62
     7
100
AcDbLine
 10
183.924137
 20
757.164065
 11
183.924137
 21
742.664065
  0
LINE
  5
380
100
AcDbEntity
  8
M0
 62
     7
100
AcDbLine
 10
186.174137
 20
749.91408
 11
186.174137
 21
748.91408
  0
LINE
  5
381
100
AcDbEntity
  8
M0
 62
     7
100
AcDbLine
 10
205.474095
 20
755.114077
 11
213.374104
 21
755.114077
  0
LINE
  5
382
100
AcDbEntity
  8
M0
 62
     7
100
AcDbLine
 10
206.424123
 20
690.91411
 11
211.424123
 21
690.91411
  0
LINE
  5
383
100
AcDbEntity
  8
M0
 62
     7
100
AcDbLine
 10
181.474125
 20
690.714098
 11
189.374134
 21
690.714098
  0
LINE
  5
384
100
AcDbEntity
  8
M0
 62
     7
100
AcDbLine
 10
206.424123
 20
690.91411
 11
206.424123
 21
690.714098
  0
LINE
  5
385
100
AcDbEntity
  8
M0
 62
     7
100
AcDbLine
 10
179.424137
 20
694.714098
 11
179.424137
 21
704.9657
  0
LINE
  5
386
100
AcDbEntity
  8
M0
 62
     7
100
AcDbLine
 10
215.424123
 20
694.914095
 11
215.424123
 21
697.314089
  0
ARC
  5
387
100
AcDbEntity
  8
M0
 62
     7
100
AcDbCircle
 10
211.424123
 20
694.91411
 40
3.999996
100
AcDbArc
 50
270.0
 51
360.0
  0
LINE
  5
388
100
AcDbEntity
  8
M0
 62
     7
100
AcDbLine
 10
189.924137
 20
754.91408
 11
183.424122
 21
754.91408
  0
LINE
  5
389
100
AcDbEntity
  8
M0
 62
     7
100
AcDbLine
 10
179.424137
 20
750.913836
 11
179.424137
 21
749.557162
  0
ARC
  5
38A
100
AcDbEntity
  8
M0
 62
     7
100
AcDbCircle
 10
189.924137
 20
752.913836
 40
2.0
100
AcDbArc
 50
0.0
 51
41.409012
  0
ARC
  5
38B
100
AcDbEntity
  8
M0
 62
     7
100
AcDbCircle
 10
183.424137
 20
750.913836
 40
4.0
100
AcDbArc
 50
89.999781
 51
180.0
  0
LINE
  5
38C
100
AcDbEntity
  8
M0
 62
     7
100
AcDbLine
 10
211.199208
 20
741.413729
 11
211.199208
 21
744.013705
  0
LINE
  5
38D
100
AcDbEntity
  8
M0
 62
     7
100
AcDbLine
 10
203.649219
 20
744.013705
 11
203.649219
 21
741.413729
  0
LINE
  5
38E
100
AcDbEntity
  8
M0
 62
     7
100
AcDbLine
 10
201.199222
 20
741.413729
 11
201.199222
 21
744.013705
  0
LINE
  5
38F
100
AcDbEntity
  8
M0
 62
     7
100
AcDbLine
 10
193.649219
 20
744.013705
 11
193.649219
 21
741.413729
  0
LINE
  5
390
100
AcDbEntity
  8
M0
 62
     7
100
AcDbLine
 10
191.199222
 20
741.413729
 11
191.199222
 21
744.013705
  0
LINE
  5
391
100
AcDbEntity
  8
M0
 62
     7
100
AcDbLine
 10
183.649219
 20
744.013705
 11
183.649219
 21
741.413729
  0
LINE
  5
392
100
AcDbEntity
  8
M0
 62
     7
100
AcDbLine
 10
184.943271
 20
698.413729
 11
189.90514
 21
698.413729
  0
LINE
  5
393
100
AcDbEntity
  8
M0
 62
     7
100
AcDbLine
 10
191.199222
 20
701.413729
 11
191.199222
 21
704.013705
  0
LINE
  5
394
100
AcDbEntity
  8
M0
 62
     7
100
AcDbLine
 10
183.649219
 20
704.013705
 11
183.649219
 21
701.413729
  0
ARC
  5
395
100
AcDbEntity
  8
M0
 62
     7
100
AcDbCircle
 10
184.943271
 20
698.913729
 40
0.5
100
AcDbArc
 50
197.13727
 51
270.0
  0
ARC
  5
396
100
AcDbEntity
  8
M0
 62
     7
100
AcDbCircle
 10
189.90514
 20
698.913729
 40
0.5
100
AcDbArc
 50
270.0
 51
342.861163
  0
LINE
  5
397
100
AcDbEntity
  8
M0
 62
     7
100
AcDbLine
 10
194.943271
 20
698.413729
 11
199.90514
 21
698.413729
  0
LINE
  5
398
100
AcDbEntity
  8
M0
 62
     7
100
AcDbLine
 10
201.199222
 20
701.413729
 11
201.199222
 21
704.013705
  0
LINE
  5
399
100
AcDbEntity
  8
M0
 62
     7
100
AcDbLine
 10
193.649219
 20
704.013705
 11
193.649219
 21
701.413729
  0
LINE
  5
39A
100
AcDbEntity
  8
M0
  6
DASHDOT
 62
     7
100
AcDbLine
 10
197.424228
 20
695.913744
 11
197.424228
 21
709.513705
  0
ARC
  5
39B
100
AcDbEntity
  8
M0
 62
     7
100
AcDbCircle
 10
194.943271
 20
698.913729
 40
0.5
100
AcDbArc
 50
197.13727
 51
270.0
  0
ARC
  5
39C
100
AcDbEntity
  8
M0
 62
     7
100
AcDbCircle
 10
199.90514
 20
698.913729
 40
0.5
100
AcDbArc
 50
270.0
 51
342.861163
  0
LINE
  5
39D
100
AcDbEntity
  8
M0
 62
     7
100
AcDbLine
 10
204.943271
 20
698.413729
 11
209.905125
 21
698.413729
  0
LINE
  5
39E
100
AcDbEntity
  8
M0
 62
     7
100
AcDbLine
 10
211.199208
 20
701.413729
 11
211.199208
 21
704.013705
  0
LINE
  5
39F
100
AcDbEntity
  8
M0
 62
     7
100
AcDbLine
 10
203.649219
 20
704.013705
 11
203.649219
 21
701.413729
  0
ARC
  5
3A0
100
AcDbEntity
  8
M0
 62
     7
100
AcDbCircle
 10
204.943271
 20
698.913729
 40
0.5
100
AcDbArc
 50
197.13727
 51
270.0
  0
ARC
  5
3A1
100
AcDbEntity
  8
M0
 62
     7
100
AcDbCircle
 10
209.905125
 20
698.913729
 40
0.5
100
AcDbArc
 50
270.0
 51
342.861581
  0
ARC
  5
3A2
100
AcDbEntity
  8
M0
 62
     7
100
AcDbCircle
 10
209.424123
 20
750.213656
 40
3.0
100
AcDbArc
 50
291.062643
 51
310.540874
  0
ARC
  5
3A3
100
AcDbEntity
  8
M0
 62
     7
100
AcDbCircle
 10
185.424305
 20
695.613909
 40
3.0
100
AcDbArc
 50
111.027822
 51
130.545903
  0
LINE
  5
3A4
100
AcDbEntity
  8
M0
 62
     7
100
AcDbLine
 10
285.724125
 20
690.414126
 11
287.174122
 21
690.414126
  0
LINE
  5
3A5
100
AcDbEntity
  8
M0
 62
     7
100
AcDbLine
 10
321.424123
 20
694.91411
 11
321.424123
 21
722.914126
  0
LINE
  5
3A6
100
AcDbEntity
  8
M0
 62
     7
100
AcDbLine
 10
285.424137
 20
722.914126
 11
285.424137
 21
690.714113
  0
LINE
  5
3A7
100
AcDbEntity
  8
M0
 62
     7
100
AcDbLine
 10
288.924137
 20
707.914126
 11
296.374134
 21
707.914126
  0
LINE
  5
3A8
100
AcDbEntity
  8
M0
 62
     7
100
AcDbLine
 10
289.474125
 20
698.414126
 11
297.374134
 21
698.414126
  0
LINE
  5
3A9
100
AcDbEntity
  8
M0
 62
     7
100
AcDbLine
 10
307.374134
 20
706.914126
 11
307.374134
 21
693.414126
  0
LINE
  5
3AA
100
AcDbEntity
  8
M0
 62
     7
100
AcDbLine
 10
299.474125
 20
706.914126
 11
299.474125
 21
693.414126
  0
LINE
  5
3AB
100
AcDbEntity
  8
M0
 62
     7
100
AcDbLine
 10
317.374119
 20
707.914126
 11
317.374119
 21
697.91411
  0
LINE
  5
3AC
100
AcDbEntity
  8
M0
 62
     7
100
AcDbLine
 10
309.474125
 20
706.914126
 11
309.474125
 21
693.414126
  0
LINE
  5
3AD
100
AcDbEntity
  8
M0
 62
     7
100
AcDbLine
 10
297.374134
 20
706.914126
 11
297.374134
 21
693.414126
  0
LINE
  5
3AE
100
AcDbEntity
  8
M0
 62
     7
100
AcDbLine
 10
289.474125
 20
707.914126
 11
289.474125
 21
697.914126
  0
LINE
  5
3AF
100
AcDbEntity
  8
M0
 62
     7
100
AcDbLine
 10
318.924123
 20
706.914126
 11
318.924123
 21
695.414126
  0
LINE
  5
3B0
100
AcDbEntity
  8
M0
 62
     7
100
AcDbLine
 10
287.924137
 20
706.914126
 11
287.924137
 21
693.414126
  0
LINE
  5
3B1
100
AcDbEntity
  8
M0
 62
     7
100
AcDbLine
 10
285.924137
 20
692.914126
 11
287.424137
 21
692.914126
  0
LINE
  5
3B2
100
AcDbEntity
  8
M0
 62
     7
100
AcDbLine
 10
319.424123
 20
694.914126
 11
320.924123
 21
694.914126
  0
LINE
  5
3B3
100
AcDbEntity
  8
M0
 62
     7
100
AcDbLine
 10
309.924137
 20
690.914126
 11
317.424123
 21
690.914126
  0
LINE
  5
3B4
100
AcDbEntity
  8
M0
 62
     7
100
AcDbLine
 10
287.474125
 20
692.914126
 11
287.474125
 21
690.714113
  0
LINE
  5
3B5
100
AcDbEntity
  8
M0
 62
     7
100
AcDbLine
 10
295.374134
 20
698.414126
 11
295.374134
 21
690.714113
  0
LINE
  5
3B6
100
AcDbEntity
  8
M0
 62
     7
100
AcDbLine
 10
297.874134
 20
692.914126
 11
298.974125
 21
692.914126
  0
LINE
  5
3B7
100
AcDbEntity
  8
M0
 62
     7
100
AcDbLine
 10
307.874134
 20
692.914126
 11
308.974125
 21
692.914126
  0
LINE
  5
3B8
100
AcDbEntity
  8
M0
 62
     7
100
AcDbLine
 10
299.474125
 20
698.414126
 11
307.374134
 21
698.414126
  0
LINE
  5
3B9
100
AcDbEntity
  8
M0
 62
     7
100
AcDbLine
 10
309.474125
 20
698.414126
 11
317.374119
 21
698.414126
  0
LINE
  5
3BA
100
AcDbEntity
  8
M0
 62
     7
100
AcDbLine
 10
297.924137
 20
692.914126
 11
297.924137
 21
690.914126
  0
LINE
  5
3BB
100
AcDbEntity
  8
M0
 62
     7
100
AcDbLine
 10
295.674122
 20
690.414126
 11
297.424137
 21
690.414126
  0
LINE
  5
3BC
100
AcDbEntity
  8
M0
 62
     7
100
AcDbLine
 10
309.424137
 20
693.1962
 11
309.424137
 21
691.414126
  0
ARC
  5
3BD
100
AcDbEntity
  8
M0
 62
     7
100
AcDbCircle
 10
317.424123
 20
694.914126
 40
4.0
100
AcDbArc
 50
270.0
 51
360.0
  0
LINE
  5
3BE
100
AcDbEntity
  8
M0
 62
     7
100
AcDbLine
 10
299.474125
 20
696.414126
 11
307.374134
 21
696.414126
  0
LINE
  5
3BF
100
AcDbEntity
  8
M0
 62
     7
100
AcDbLine
 10
288.424137
 20
697.414126
 11
288.974125
 21
697.414126
  0
ARC
  5
3C0
100
AcDbEntity
  8
M0
 62
     7
100
AcDbCircle
 10
285.924137
 20
693.414126
 40
0.5
100
AcDbArc
 50
180.0
 51
270.0
  0
ARC
  5
3C1
100
AcDbEntity
  8
M0
 62
     7
100
AcDbCircle
 10
287.424137
 20
693.414126
 40
0.5
100
AcDbArc
 50
270.0
 51
360.0
  0
ARC
  5
3C2
100
AcDbEntity
  8
M0
 62
     7
100
AcDbCircle
 10
297.424137
 20
690.914126
 40
0.5
100
AcDbArc
 50
270.0
 51
360.0
  0
ARC
  5
3C3
100
AcDbEntity
  8
M0
 62
     7
100
AcDbCircle
 10
285.724125
 20
690.714113
 40
0.3
100
AcDbArc
 50
179.999966
 51
270.0
  0
ARC
  5
3C4
100
AcDbEntity
  8
M0
 62
     7
100
AcDbCircle
 10
287.174122
 20
690.714113
 40
0.3
100
AcDbArc
 50
270.0
 51
360.0
  0
ARC
  5
3C5
100
AcDbEntity
  8
M0
 62
     7
100
AcDbCircle
 10
295.674122
 20
690.714113
 40
0.3
100
AcDbArc
 50
179.999966
 51
270.0
  0
ARC
  5
3C6
100
AcDbEntity
  8
M0
 62
     7
100
AcDbCircle
 10
309.924137
 20
691.414126
 40
0.5
100
AcDbArc
 50
180.0
 51
270.0
  0
ARC
  5
3C7
100
AcDbEntity
  8
M0
 62
     7
100
AcDbCircle
 10
320.924123
 20
695.414126
 40
0.5
100
AcDbArc
 50
270.0
 51
360.0
  0
ARC
  5
3C8
100
AcDbEntity
  8
M0
 62
     7
100
AcDbCircle
 10
319.424123
 20
695.414126
 40
0.5
100
AcDbArc
 50
180.0
 51
270.0
  0
ARC
  5
3C9
100
AcDbEntity
  8
M0
 62
     7
100
AcDbCircle
 10
298.974125
 20
693.414126
 40
0.5
100
AcDbArc
 50
270.0
 51
360.0
  0
ARC
  5
3CA
100
AcDbEntity
  8
M0
 62
     7
100
AcDbCircle
 10
307.874134
 20
693.414126
 40
0.5
100
AcDbArc
 50
180.0
 51
270.0
  0
ARC
  5
3CB
100
AcDbEntity
  8
M0
 62
     7
100
AcDbCircle
 10
308.974125
 20
693.414126
 40
0.5
100
AcDbArc
 50
270.0
 51
360.0
  0
ARC
  5
3CC
100
AcDbEntity
  8
M0
 62
     7
100
AcDbCircle
 10
297.874134
 20
693.414126
 40
0.5
100
AcDbArc
 50
180.0
 51
270.0
  0
ARC
  5
3CD
100
AcDbEntity
  8
M0
 62
     7
100
AcDbCircle
 10
288.424137
 20
696.914126
 40
0.5
100
AcDbArc
 50
89.998251
 51
180.0
  0
ARC
  5
3CE
100
AcDbEntity
  8
M0
 62
     7
100
AcDbCircle
 10
288.974125
 20
697.914126
 40
0.5
100
AcDbArc
 50
270.0
 51
360.0
  0
LINE
  5
3CF
100
AcDbEntity
  8
M0
 62
     7
100
AcDbLine
 10
300.474125
 20
707.914126
 11
306.374134
 21
707.914126
  0
LINE
  5
3D0
100
AcDbEntity
  8
M0
 62
     7
100
AcDbLine
 10
310.474125
 20
707.914126
 11
317.924123
 21
707.914126
  0
ARC
  5
3D1
100
AcDbEntity
  8
M0
 62
     7
100
AcDbCircle
 10
296.374134
 20
706.914126
 40
1.0
100
AcDbArc
 50
0.0
 51
89.999126
  0
ARC
  5
3D2
100
AcDbEntity
  8
M0
 62
     7
100
AcDbCircle
 10
288.924137
 20
706.914126
 40
1.0
100
AcDbArc
 50
89.999126
 51
180.0
  0
ARC
  5
3D3
100
AcDbEntity
  8
M0
 62
     7
100
AcDbCircle
 10
306.374134
 20
706.914126
 40
1.0
100
AcDbArc
 50
0.0
 51
89.999126
  0
ARC
  5
3D4
100
AcDbEntity
  8
M0
 62
     7
100
AcDbCircle
 10
300.474125
 20
706.914126
 40
1.0
100
AcDbArc
 50
89.999126
 51
180.0
  0
ARC
  5
3D5
100
AcDbEntity
  8
M0
 62
     7
100
AcDbCircle
 10
317.924123
 20
706.914126
 40
1.0
100
AcDbArc
 50
0.0
 51
90.0
  0
ARC
  5
3D6
100
AcDbEntity
  8
M0
 62
     7
100
AcDbCircle
 10
310.474125
 20
706.914126
 40
1.0
100
AcDbArc
 50
89.999126
 51
180.0
  0
LINE
  5
3D7
100
AcDbEntity
  8
M0
 62
     7
100
AcDbLine
 10
299.474125
 20
694.414126
 11
301.449115
 21
696.414126
  0
ARC
  5
3D8
100
AcDbEntity
  8
M0
 62
     7
100
AcDbCircle
 10
318.424123
 20
696.91411
 40
0.5
100
AcDbArc
 50
0.0
 51
90.0
  0
ARC
  5
3D9
100
AcDbEntity
  8
M0
 62
     7
100
AcDbCircle
 10
317.874135
 20
697.91411
 40
0.5
100
AcDbArc
 50
180.0
 51
270.0
  0
LINE
  5
3DA
100
AcDbEntity
  8
M0
 62
     7
100
AcDbLine
 10
318.424123
 20
697.41411
 11
317.874135
 21
697.41411
  0
LINE
  5
3DB
100
AcDbEntity
  8
M0
 62
     7
100
AcDbLine
 10
311.924123
 20
698.41411
 11
311.924123
 21
690.914126
  0
ARC
  5
3DC
100
AcDbEntity
  8
M0
 62
     7
100
AcDbCircle
 10
316.924123
 20
696.914126
 40
2.25
100
AcDbArc
 50
138.189868
 51
179.999976
  0
LINE
  5
3DD
100
AcDbEntity
  8
M0
  6
DASHDOT
 62
     7
100
AcDbLine
 10
313.857793
 20
696.914126
 11
319.728322
 21
696.914126
  0
ARC
  5
3DE
100
AcDbEntity
  8
M0
 62
     7
100
AcDbCircle
 10
316.924123
 20
695.914126
 40
2.25
100
AcDbArc
 50
179.999976
 51
339.100852
  0
LINE
  5
3DF
100
AcDbEntity
  8
M0
  6
DASHDOT
 62
     7
100
AcDbLine
 10
313.883427
 20
695.914126
 11
319.984669
 21
695.914126
  0
LINE
  5
3E0
100
AcDbEntity
  8
M0
  6
DASHDOT
 62
     7
100
AcDbLine
 10
316.924123
 20
688.664126
 11
316.924123
 21
703.164126
  0
LINE
  5
3E1
100
AcDbEntity
  8
M0
 62
     7
100
AcDbLine
 10
314.674123
 20
695.914126
 11
314.674123
 21
696.914126
  0
LINE
  5
3E2
100
AcDbEntity
  8
M0
 62
     7
100
AcDbLine
 10
321.124104
 20
755.41408
 11
319.674107
 21
755.41408
  0
LINE
  5
3E3
100
AcDbEntity
  8
M0
 62
     7
100
AcDbLine
 10
285.424137
 20
750.91408
 11
285.424137
 21
722.914095
  0
LINE
  5
3E4
100
AcDbEntity
  8
M0
 62
     7
100
AcDbLine
 10
321.424107
 20
722.914126
 11
321.424092
 21
755.114107
  0
LINE
  5
3E5
100
AcDbEntity
  8
M0
 62
     7
100
AcDbLine
 10
317.924092
 20
737.914126
 11
310.474109
 21
737.914126
  0
LINE
  5
3E6
100
AcDbEntity
  8
M0
 62
     7
100
AcDbLine
 10
317.374104
 20
747.414095
 11
309.474109
 21
747.41408
  0
LINE
  5
3E7
100
AcDbEntity
  8
M0
 62
     7
100
AcDbLine
 10
299.47414
 20
738.914095
 11
299.47414
 21
752.41408
  0
LINE
  5
3E8
100
AcDbEntity
  8
M0
 62
     7
100
AcDbLine
 10
307.374118
 20
738.914126
 11
307.374118
 21
752.41408
  0
LINE
  5
3E9
100
AcDbEntity
  8
M0
 62
     7
100
AcDbLine
 10
289.47417
 20
737.914126
 11
289.47417
 21
747.414065
  0
LINE
  5
3EA
100
AcDbEntity
  8
M0
 62
     7
100
AcDbLine
 10
297.374149
 20
738.914095
 11
297.374149
 21
752.41408
  0
LINE
  5
3EB
100
AcDbEntity
  8
M0
 62
     7
100
AcDbLine
 10
309.474109
 20
738.914126
 11
309.474109
 21
752.41408
  0
LINE
  5
3EC
100
AcDbEntity
  8
M0
 62
     7
100
AcDbLine
 10
317.374104
 20
737.914126
 11
317.374104
 21
747.914095
  0
LINE
  5
3ED
100
AcDbEntity
  8
M0
 62
     7
100
AcDbLine
 10
287.924137
 20
738.914095
 11
287.924137
 21
750.414065
  0
LINE
  5
3EE
100
AcDbEntity
  8
M0
 62
     7
100
AcDbLine
 10
318.924092
 20
738.914126
 11
318.924092
 21
752.414095
  0
LINE
  5
3EF
100
AcDbEntity
  8
M0
 62
     7
100
AcDbLine
 10
320.924092
 20
752.914095
 11
319.424092
 21
752.914095
  0
LINE
  5
3F0
100
AcDbEntity
  8
M0
 62
     7
100
AcDbLine
 10
287.424137
 20
750.914065
 11
285.924137
 21
750.914065
  0
LINE
  5
3F1
100
AcDbEntity
  8
M0
 62
     7
100
AcDbLine
 10
296.924137
 20
754.91408
 11
289.424137
 21
754.914065
  0
LINE
  5
3F2
100
AcDbEntity
  8
M0
 62
     7
100
AcDbLine
 10
319.374104
 20
752.914095
 11
319.374104
 21
755.114092
  0
LINE
  5
3F3
100
AcDbEntity
  8
M0
 62
     7
100
AcDbLine
 10
311.474095
 20
747.41408
 11
311.474095
 21
755.114092
  0
LINE
  5
3F4
100
AcDbEntity
  8
M0
 62
     7
100
AcDbLine
 10
308.974109
 20
752.91408
 11
307.874118
 21
752.91408
  0
LINE
  5
3F5
100
AcDbEntity
  8
M0
 62
     7
100
AcDbLine
 10
298.97414
 20
752.91408
 11
297.874149
 21
752.91408
  0
LINE
  5
3F6
100
AcDbEntity
  8
M0
 62
     7
100
AcDbLine
 10
307.374118
 20
747.41408
 11
299.47414
 21
747.41408
  0
LINE
  5
3F7
100
AcDbEntity
  8
M0
 62
     7
100
AcDbLine
 10
297.374149
 20
747.41408
 11
287.924137
 21
747.414065
  0
LINE
  5
3F8
100
AcDbEntity
  8
M0
 62
     7
100
AcDbLine
 10
308.924106
 20
752.91408
 11
308.924106
 21
754.91408
  0
LINE
  5
3F9
100
AcDbEntity
  8
M0
 62
     7
100
AcDbLine
 10
311.174107
 20
755.41408
 11
309.424106
 21
755.41408
  0
LINE
  5
3FA
100
AcDbEntity
  8
M0
 62
     7
100
AcDbLine
 10
297.424137
 20
752.632006
 11
297.424137
 21
754.41408
  0
ARC
  5
3FB
100
AcDbEntity
  8
M0
 62
     7
100
AcDbCircle
 10
289.424137
 20
750.914065
 40
4.0
100
AcDbArc
 50
89.999781
 51
180.0
  0
LINE
  5
3FC
100
AcDbEntity
  8
M0
 62
     7
100
AcDbLine
 10
307.374118
 20
749.41408
 11
299.47414
 21
749.41408
  0
LINE
  5
3FD
100
AcDbEntity
  8
M0
 62
     7
100
AcDbLine
 10
318.424092
 20
748.414095
 11
317.874104
 21
748.414095
  0
ARC
  5
3FE
100
AcDbEntity
  8
M0
 62
     7
100
AcDbCircle
 10
320.924092
 20
752.414095
 40
0.5
100
AcDbArc
 50
0.0
 51
90.0
  0
ARC
  5
3FF
100
AcDbEntity
  8
M0
 62
     7
100
AcDbCircle
 10
319.424092
 20
752.414095
 40
0.5
100
AcDbArc
 50
90.0
 51
180.0
  0
ARC
  5
400
100
AcDbEntity
  8
M0
 62
     7
100
AcDbCircle
 10
309.424106
 20
754.91408
 40
0.5
100
AcDbArc
 50
89.998251
 51
180.0
  0
ARC
  5
401
100
AcDbEntity
  8
M0
 62
     7
100
AcDbCircle
 10
321.124104
 20
755.114107
 40
0.3
100
AcDbArc
 50
0.0
 51
90.0
  0
ARC
  5
402
100
AcDbEntity
  8
M0
 62
     7
100
AcDbCircle
 10
319.674107
 20
755.114092
 40
0.3
100
AcDbArc
 50
90.0
 51
180.0
  0
ARC
  5
403
100
AcDbEntity
  8
M0
 62
     7
100
AcDbCircle
 10
311.174107
 20
755.114092
 40
0.3
100
AcDbArc
 50
0.0
 51
90.0
  0
ARC
  5
404
100
AcDbEntity
  8
M0
 62
     7
100
AcDbCircle
 10
296.924137
 20
754.41408
 40
0.5
100
AcDbArc
 50
0.0
 51
89.998251
  0
ARC
  5
405
100
AcDbEntity
  8
M0
 62
     7
100
AcDbCircle
 10
285.924137
 20
750.414065
 40
0.5
100
AcDbArc
 50
89.998251
 51
180.0
  0
ARC
  5
406
100
AcDbEntity
  8
M0
 62
     7
100
AcDbCircle
 10
287.424137
 20
750.414065
 40
0.5
100
AcDbArc
 50
0.0
 51
89.998251
  0
ARC
  5
407
100
AcDbEntity
  8
M0
 62
     7
100
AcDbCircle
 10
307.874118
 20
752.41408
 40
0.5
100
AcDbArc
 50
89.998251
 51
180.0
  0
ARC
  5
408
100
AcDbEntity
  8
M0
 62
     7
100
AcDbCircle
 10
298.97414
 20
752.41408
 40
0.5
100
AcDbArc
 50
0.0
 51
89.998251
  0
ARC
  5
409
100
AcDbEntity
  8
M0
 62
     7
100
AcDbCircle
 10
297.874149
 20
752.41408
 40
0.5
100
AcDbArc
 50
89.998251
 51
180.0
  0
ARC
  5
40A
100
AcDbEntity
  8
M0
 62
     7
100
AcDbCircle
 10
308.974109
 20
752.41408
 40
0.5
100
AcDbArc
 50
0.0
 51
89.998251
  0
ARC
  5
40B
100
AcDbEntity
  8
M0
 62
     7
100
AcDbCircle
 10
318.424092
 20
748.914095
 40
0.5
100
AcDbArc
 50
270.0
 51
360.0
  0
ARC
  5
40C
100
AcDbEntity
  8
M0
 62
     7
100
AcDbCircle
 10
317.874104
 20
747.914095
 40
0.5
100
AcDbArc
 50
90.0
 51
180.0
  0
LINE
  5
40D
100
AcDbEntity
  8
M0
 62
     7
100
AcDbLine
 10
306.374118
 20
737.914126
 11
300.47417
 21
737.914095
  0
LINE
  5
40E
100
AcDbEntity
  8
M0
 62
     7
100
AcDbLine
 10
296.37418
 20
737.914126
 11
288.924167
 21
737.914095
  0
ARC
  5
40F
100
AcDbEntity
  8
M0
 62
     7
100
AcDbCircle
 10
310.474109
 20
738.914126
 40
1.0
100
AcDbArc
 50
180.0
 51
270.0
  0
ARC
  5
410
100
AcDbEntity
  8
M0
 62
     7
100
AcDbCircle
 10
317.924092
 20
738.914126
 40
1.0
100
AcDbArc
 50
270.0
 51
360.0
  0
ARC
  5
411
100
AcDbEntity
  8
M0
 62
     7
100
AcDbCircle
 10
300.47414
 20
738.914095
 40
1.0
100
AcDbArc
 50
180.0
 51
270.0
  0
ARC
  5
412
100
AcDbEntity
  8
M0
 62
     7
100
AcDbCircle
 10
306.374118
 20
738.914126
 40
1.0
100
AcDbArc
 50
270.0
 51
360.0
  0
ARC
  5
413
100
AcDbEntity
  8
M0
 62
     7
100
AcDbCircle
 10
288.924137
 20
738.914095
 40
1.0
100
AcDbArc
 50
180.0
 51
270.0
  0
ARC
  5
414
100
AcDbEntity
  8
M0
 62
     7
100
AcDbCircle
 10
296.374149
 20
738.914126
 40
1.0
100
AcDbArc
 50
270.0
 51
360.0
  0
LINE
  5
415
100
AcDbEntity
  8
M0
 62
     7
100
AcDbLine
 10
307.374118
 20
751.41408
 11
305.399158
 21
749.41408
  0
LINE
  5
416
100
AcDbEntity
  8
M0
 62
     7
100
AcDbLine
 10
294.924137
 20
747.414095
 11
294.924137
 21
754.914065
  0
ARC
  5
417
100
AcDbEntity
  8
M0
 62
     7
100
AcDbCircle
 10
289.924137
 20
748.914065
 40
2.25
100
AcDbArc
 50
318.189889
 51
360.0
  0
LINE
  5
418
100
AcDbEntity
  8
M0
  6
DASHDOT
 62
     7
100
AcDbLine
 10
292.990467
 20
748.914065
 11
287.119938
 21
748.914065
  0
ARC
  5
419
100
AcDbEntity
  8
M0
 62
     7
100
AcDbCircle
 10
289.924137
 20
749.914065
 40
2.25
100
AcDbArc
 50
0.0
 51
159.100776
  0
LINE
  5
41A
100
AcDbEntity
  8
M0
  6
DASHDOT
 62
     7
100
AcDbLine
 10
292.964832
 20
749.914065
 11
286.86359
 21
749.914065
  0
LINE
  5
41B
100
AcDbEntity
  8
M0
  6
DASHDOT
 62
     7
100
AcDbLine
 10
289.924137
 20
757.164065
 11
289.924137
 21
742.664065
  0
LINE
  5
41C
100
AcDbEntity
  8
M0
 62
     7
100
AcDbLine
 10
292.174137
 20
749.91408
 11
292.174137
 21
748.91408
  0
LINE
  5
41D
100
AcDbEntity
  8
M0
 62
     7
100
AcDbLine
 10
311.474095
 20
755.114077
 11
319.374104
 21
755.114077
  0
LINE
  5
41E
100
AcDbEntity
  8
M0
 62
     7
100
AcDbLine
 10
312.424123
 20
690.91411
 11
317.424123
 21
690.91411
  0
LINE
  5
41F
100
AcDbEntity
  8
M0
 62
     7
100
AcDbLine
 10
287.474125
 20
690.714098
 11
295.374134
 21
690.714098
  0
LINE
  5
420
100
AcDbEntity
  8
M0
 62
     7
100
AcDbLine
 10
312.424123
 20
690.91411
 11
312.424123
 21
690.714098
  0
LINE
  5
421
100
AcDbEntity
  8
M0
 62
     7
100
AcDbLine
 10
285.424137
 20
694.714098
 11
285.424137
 21
704.9657
  0
LINE
  5
422
100
AcDbEntity
  8
M0
 62
     7
100
AcDbLine
 10
321.424123
 20
694.914095
 11
321.424123
 21
697.314089
  0
ARC
  5
423
100
AcDbEntity
  8
M0
 62
     7
100
AcDbCircle
 10
317.424123
 20
694.91411
 40
3.999996
100
AcDbArc
 50
270.0
 51
360.0
  0
LINE
  5
424
100
AcDbEntity
  8
M0
 62
     7
100
AcDbLine
 10
295.924137
 20
754.91408
 11
289.424122
 21
754.91408
  0
LINE
  5
425
100
AcDbEntity
  8
M0
 62
     7
100
AcDbLine
 10
285.424137
 20
750.913836
 11
285.424137
 21
749.557162
  0
ARC
  5
426
100
AcDbEntity
  8
M0
 62
     7
100
AcDbCircle
 10
295.924137
 20
752.913836
 40
2.0
100
AcDbArc
 50
0.0
 51
41.409012
  0
ARC
  5
427
100
AcDbEntity
  8
M0
 62
     7
100
AcDbCircle
 10
289.424137
 20
750.913836
 40
4.0
100
AcDbArc
 50
89.999781
 51
180.0
  0
LINE
  5
428
100
AcDbEntity
  8
M0
 62
     7
100
AcDbLine
 10
317.199208
 20
741.413729
 11
317.199208
 21
744.013705
  0
LINE
  5
429
100
AcDbEntity
  8
M0
 62
     7
100
AcDbLine
 10
309.649219
 20
744.013705
 11
309.649219
 21
741.413729
  0
LINE
  5
42A
100
AcDbEntity
  8
M0
 62
     7
100
AcDbLine
 10
307.199222
 20
741.413729
 11
307.199222
 21
744.013705
  0
LINE
  5
42B
100
AcDbEntity
  8
M0
 62
     7
100
AcDbLine
 10
299.649219
 20
744.013705
 11
299.649219
 21
741.413729
  0
LINE
  5
42C
100
AcDbEntity
  8
M0
 62
     7
100
AcDbLine
 10
297.199222
 20
741.413729
 11
297.199222
 21
744.013705
  0
LINE
  5
42D
100
AcDbEntity
  8
M0
 62
     7
100
AcDbLine
 10
289.649219
 20
744.013705
 11
289.649219
 21
741.413729
  0
LINE
  5
42E
100
AcDbEntity
  8
M0
 62
     7
100
AcDbLine
 10
290.943271
 20
698.413729
 11
295.90514
 21
698.413729
  0
LINE
  5
42F
100
AcDbEntity
  8
M0
 62
     7
100
AcDbLine
 10
297.199222
 20
701.413729
 11
297.199222
 21
704.013705
  0
LINE
  5
430
100
AcDbEntity
  8
M0
 62
     7
100
AcDbLine
 10
289.649219
 20
704.013705
 11
289.649219
 21
701.413729
  0
ARC
  5
431
100
AcDbEntity
  8
M0
 62
     7
100
AcDbCircle
 10
290.943271
 20
698.913729
 40
0.5
100
AcDbArc
 50
197.13727
 51
270.0
  0
ARC
  5
432
100
AcDbEntity
  8
M0
 62
     7
100
AcDbCircle
 10
295.90514
 20
698.913729
 40
0.5
100
AcDbArc
 50
270.0
 51
342.861163
  0
LINE
  5
433
100
AcDbEntity
  8
M0
 62
     7
100
AcDbLine
 10
300.943271
 20
698.413729
 11
305.90514
 21
698.413729
  0
LINE
  5
434
100
AcDbEntity
  8
M0
 62
     7
100
AcDbLine
 10
307.199222
 20
701.413729
 11
307.199222
 21
704.013705
  0
LINE
  5
435
100
AcDbEntity
  8
M0
 62
     7
100
AcDbLine
 10
299.649219
 20
704.013705
 11
299.649219
 21
701.413729
  0
ARC
  5
436
100
AcDbEntity
  8
M0
 62
     7
100
AcDbCircle
 10
300.943271
 20
698.913729
 40
0.5
100
AcDbArc
 50
197.13727
 51
270.0
  0
ARC
  5
437
100
AcDbEntity
  8
M0
 62
     7
100
AcDbCircle
 10
305.90514
 20
698.913729
 40
0.5
100
AcDbArc
 50
270.0
 51
342.861163
  0
LINE
  5
438
100
AcDbEntity
  8
M0
 62
     7
100
AcDbLine
 10
310.943271
 20
698.413729
 11
315.905125
 21
698.413729
  0
LINE
  5
439
100
AcDbEntity
  8
M0
 62
     7
100
AcDbLine
 10
317.199208
 20
701.413729
 11
317.199208
 21
704.013705
  0
LINE
  5
43A
100
AcDbEntity
  8
M0
 62
     7
100
AcDbLine
 10
309.649219
 20
704.013705
 11
309.649219
 21
701.413729
  0
ARC
  5
43B
100
AcDbEntity
  8
M0
 62
     7
100
AcDbCircle
 10
310.943271
 20
698.913729
 40
0.5
100
AcDbArc
 50
197.13727
 51
270.0
  0
ARC
  5
43C
100
AcDbEntity
  8
M0
 62
     7
100
AcDbCircle
 10
315.905125
 20
698.913729
 40
0.5
100
AcDbArc
 50
270.0
 51
342.861581
  0
ARC
  5
43D
100
AcDbEntity
  8
M0
 62
     7
100
AcDbCircle
 10
315.424123
 20
750.213656
 40
3.0
100
AcDbArc
 50
291.062643
 51
310.540874
  0
LINE
  5
43E
100
AcDbEntity
  8
M0
 62
     7
100
AcDbLine
 10
312.465367
 20
754.160998
 11
311.649113
 21
751.513705
  0
LINE
  5
43F
100
AcDbEntity
  8
M0
 62
     7
100
AcDbLine
 10
312.111485
 20
747.41408
 11
311.649113
 21
748.913729
  0
LINE
  5
440
100
AcDbEntity
  8
M0
 62
     7
100
AcDbLine
 10
318.382847
 20
754.161013
 11
318.924092
 21
752.405657
  0
LINE
  5
441
100
AcDbEntity
  8
M0
 62
     7
100
AcDbLine
 10
317.905034
 20
754.513705
 11
312.943165
 21
754.513689
  0
LINE
  5
442
100
AcDbEntity
  8
M0
 62
     7
100
AcDbLine
 10
311.649113
 20
751.513705
 11
311.649113
 21
748.913729
  0
ARC
  5
443
100
AcDbEntity
  8
M0
 62
     7
100
AcDbCircle
 10
312.943165
 20
754.013689
 40
0.5
100
AcDbArc
 50
90.0
 51
162.867254
  0
ARC
  5
444
100
AcDbEntity
  8
M0
 62
     7
100
AcDbCircle
 10
317.905034
 20
754.013689
 40
0.5
100
AcDbArc
 50
17.134546
 51
90.0
  0
ARC
  5
445
100
AcDbEntity
  8
M0
 62
     7
100
AcDbCircle
 10
291.424305
 20
695.613909
 40
3.0
100
AcDbArc
 50
111.027822
 51
130.545903
  0
LINE
  5
446
100
AcDbEntity
  8
M0
 62
     7
100
AcDbLine
 10
288.465549
 20
691.666659
 11
287.924061
 21
693.422838
  0
LINE
  5
447
100
AcDbEntity
  8
M0
 62
     7
100
AcDbLine
 10
294.736728
 20
698.414126
 11
295.199299
 21
696.913958
  0
LINE
  5
448
100
AcDbEntity
  8
M0
 62
     7
100
AcDbLine
 10
294.38303
 20
691.666643
 11
295.199299
 21
694.313982
  0
LINE
  5
449
100
AcDbEntity
  8
M0
 62
     7
100
AcDbLine
 10
288.943348
 20
691.313982
 11
293.905216
 21
691.313982
  0
LINE
  5
44A
100
AcDbEntity
  8
M0
 62
     7
100
AcDbLine
 10
295.199299
 20
694.313982
 11
295.199299
 21
696.913958
  0
ARC
  5
44B
100
AcDbEntity
  8
M0
 62
     7
100
AcDbCircle
 10
288.943348
 20
691.813982
 40
0.5
100
AcDbArc
 50
197.13727
 51
270.0
  0
ARC
  5
44C
100
AcDbEntity
  8
M0
 62
     7
100
AcDbCircle
 10
293.905216
 20
691.813982
 40
0.5
100
AcDbArc
 50
270.0
 51
342.861163
  0
LINE
  5
44D
100
AcDbEntity
  8
M0
 62
     7
100
AcDbLine
 10
663.910999
 20
758.353838
 11
680.410999
 21
758.353838
  0
LINE
  5
44E
100
AcDbEntity
  8
M0
 62
     7
100
AcDbLine
 10
663.910999
 20
693.353884
 11
680.410999
 21
693.353884
  0
LINE
  5
44F
100
AcDbEntity
  8
M0
 62
     7
100
AcDbLine
 10
622.910999
 20
750.853853
 11
622.910999
 21
700.853884
  0
LINE
  5
450
100
AcDbEntity
  8
M0
 62
     7
100
AcDbLine
 10
627.910999
 20
755.853853
 11
659.580875
 21
755.853853
  0
ARC
  5
451
100
AcDbEntity
  8
M0
 62
     7
100
AcDbCircle
 10
627.910999
 20
750.853853
 40
5.0
100
AcDbArc
 50
90.0
 51
180.0
  0
LINE
  5
452
100
AcDbEntity
  8
M0
 62
     7
100
AcDbLine
 10
681.410999
 20
699.603884
 11
681.410999
 21
694.353884
  0
LINE
  5
453
100
AcDbEntity
  8
M0
  6
DASHDOT
 62
     7
100
AcDbLine
 10
619.104114
 20
725.853884
 11
702.919544
 21
725.853884
  0
LINE
  5
454
100
AcDbEntity
  8
M0
 62
     7
100
AcDbLine
 10
682.410999
 20
748.853869
 11
687.01099
 21
748.853869
  0
LINE
  5
455
100
AcDbEntity
  8
M0
 62
     7
100
AcDbLine
 10
681.410999
 20
750.353884
 11
687.01099
 21
750.353884
  0
LINE
  5
456
100
AcDbEntity
  8
M0
 62
     7
100
AcDbLine
 10
687.160984
 20
757.853808
 11
681.410999
 21
752.103823
  0
LINE
  5
457
100
AcDbEntity
  8
M0
 62
     7
100
AcDbLine
 10
650.910999
 20
703.353884
 11
686.660999
 21
703.353884
  0
LINE
  5
458
100
AcDbEntity
  8
M0
 62
     7
100
AcDbLine
 10
650.910999
 20
700.853884
 11
680.160999
 21
700.853884
  0
LINE
  5
459
100
AcDbEntity
  8
M0
 62
     7
100
AcDbLine
 10
687.160953
 20
693.85396
 11
680.160999
 21
700.853884
  0
LINE
  5
45A
100
AcDbEntity
  8
M0
 62
     7
100
AcDbLine
 10
687.160999
 20
702.853884
 11
687.160999
 21
693.853914
  0
ARC
  5
45B
100
AcDbEntity
  8
M0
 62
     7
100
AcDbCircle
 10
680.410999
 20
694.353884
 40
1.0
100
AcDbArc
 50
269.999126
 51
360.0
  0
LINE
  5
45C
100
AcDbEntity
  8
M0
 62
     7
100
AcDbLine
 10
627.910999
 20
695.853884
 11
661.410999
 21
695.853884
  0
LINE
  5
45D
100
AcDbEntity
  8
M0
 62
     7
100
AcDbLine
 10
658.910999
 20
700.853884
 11
658.910999
 21
695.853884
  0
ARC
  5
45E
100
AcDbEntity
  8
M0
 62
     7
100
AcDbCircle
 10
663.910999
 20
698.353884
 40
5.0
100
AcDbArc
 50
209.999864
 51
269.999825
  0
ARC
  5
45F
100
AcDbEntity
  8
M0
 62
     7
100
AcDbCircle
 10
663.910999
 20
753.353838
 40
5.0
100
AcDbArc
 50
90.0
 51
149.999982
  0
LINE
  5
460
100
AcDbEntity
  8
M0
 62
     7
100
AcDbLine
 10
661.410999
 20
700.853884
 11
661.410999
 21
695.853884
  0
LINE
  5
461
100
AcDbEntity
  8
M0
 62
     7
100
AcDbLine
 10
652.910999
 20
699.853884
 11
652.910999
 21
697.853884
  0
ARC
  5
462
100
AcDbEntity
  8
M0
 62
     7
100
AcDbCircle
 10
650.910999
 20
697.853884
 40
2.0
100
AcDbArc
 50
269.999563
 51
360.0
  0
ARC
  5
463
100
AcDbEntity
  8
M0
 62
     7
100
AcDbCircle
 10
653.910999
 20
699.853884
 40
1.0
100
AcDbArc
 50
90.0
 51
180.0
  0
ARC
  5
464
100
AcDbEntity
  8
M0
 62
     7
100
AcDbCircle
 10
627.910999
 20
700.853884
 40
5.0
100
AcDbArc
 50
179.999967
 51
269.999825
  0
LINE
  5
465
100
AcDbEntity
  8
M0
 62
     7
100
AcDbLine
 10
627.910999
 20
697.853884
 11
648.910999
 21
697.853884
  0
LINE
  5
466
100
AcDbEntity
  8
M0
 62
     7
100
AcDbLine
 10
650.910999
 20
705.853884
 11
650.910999
 21
699.853884
  0
ARC
  5
467
100
AcDbEntity
  8
M0
 62
     7
100
AcDbCircle
 10
627.910999
 20
702.853884
 40
5.0
100
AcDbArc
 50
179.999967
 51
269.999825
  0
LINE
  5
468
100
AcDbEntity
  8
M0
 62
     7
100
AcDbLine
 10
653.910999
 20
708.853884
 11
674.360996
 21
708.853884
  0
LINE
  5
469
100
AcDbEntity
  8
M0
 62
     7
100
AcDbLine
 10
676.360996
 20
706.853884
 11
676.360996
 21
703.353884
  0
ARC
  5
46A
100
AcDbEntity
  8
M0
 62
     7
100
AcDbCircle
 10
674.360996
 20
706.853884
 40
2.0
100
AcDbArc
 50
0.0
 51
90.0
  0
ARC
  5
46B
100
AcDbEntity
  8
M0
 62
     7
100
AcDbCircle
 10
653.910999
 20
705.853884
 40
3.0
100
AcDbArc
 50
90.0
 51
179.999982
  0
ARC
  5
46C
100
AcDbEntity
  8
M0
 62
     7
100
AcDbCircle
 10
648.910999
 20
699.853884
 40
2.0
100
AcDbArc
 50
269.999563
 51
360.0
  0
LINE
  5
46D
100
AcDbEntity
  8
M0
 62
     7
100
AcDbLine
 10
681.410999
 20
749.853869
 11
681.410999
 21
757.353823
  0
ARC
  5
46E
100
AcDbEntity
  8
M0
 62
     7
100
AcDbCircle
 10
680.410999
 20
757.353838
 40
1.0
100
AcDbArc
 50
0.0
 51
90.0
  0
ARC
  5
46F
100
AcDbEntity
  8
M0
 62
     7
100
AcDbCircle
 10
682.410999
 20
749.853869
 40
1.0
100
AcDbArc
 50
180.0
 51
269.999126
  0
ARC
  5
470
100
AcDbEntity
  8
M0
 62
     7
100
AcDbCircle
 10
686.660999
 20
702.853884
 40
0.5
100
AcDbArc
 50
0.0
 51
90.0
  0
CIRCLE
  5
471
100
AcDbEntity
  8
M0
100
AcDbCircle
 10
662.411152
 20
725.854067
 40
10.0
  0
LINE
  5
472
100
AcDbEntity
  8
M0
  6
DASHDOT
100
AcDbLine
 10
645.744495
 20
725.854067
 11
679.077808
 21
725.854067
  0
LINE
  5
473
100
AcDbEntity
  8
M0
  6
DASHDOT
100
AcDbLine
 10
662.411152
 20
709.187411
 11
662.411152
 21
742.520724
  0
CIRCLE
  5
474
100
AcDbEntity
  8
M0
100
AcDbCircle
 10
662.411152
 20
725.854067
 40
1.5
  0
LINE
  5
475
100
AcDbEntity
  8
M0
  6
DASHDOT
100
AcDbLine
 10
654.244486
 20
725.854067
 11
670.577818
 21
725.854067
  0
LINE
  5
476
100
AcDbEntity
  8
M0
  6
DASHDOT
100
AcDbLine
 10
662.411152
 20
717.687401
 11
662.411152
 21
734.020733
  0
LINE
  5
477
100
AcDbEntity
  8
M0
100
AcDbLine
 10
657.311152
 20
854.754061
 11
687.011142
 21
854.754061
  0
LINE
  5
478
100
AcDbEntity
  8
M0
100
AcDbLine
 10
662.311152
 20
854.754061
 11
662.311152
 21
851.554064
  0
LINE
  5
479
100
AcDbEntity
  8
M0
100
AcDbLine
 10
657.311152
 20
873.554064
 11
657.311152
 21
851.554064
  0
LINE
  5
47A
100
AcDbEntity
  8
M0
100
AcDbLine
 10
682.311145
 20
854.754061
 11
682.311145
 21
851.554064
  0
LINE
  5
47B
100
AcDbEntity
  8
M0
100
AcDbLine
 10
660.311152
 20
876.554064
 11
684.011142
 21
876.554064
  0
LINE
  5
47C
100
AcDbEntity
  8
M0
100
AcDbLine
 10
684.811145
 20
849.054064
 11
684.511142
 21
849.054064
  0
ARC
  5
47D
100
AcDbEntity
  8
M0
100
AcDbCircle
 10
660.311152
 20
873.554064
 40
3.0
100
AcDbArc
 50
90.0
 51
180.0
  0
ARC
  5
47E
100
AcDbEntity
  8
M0
100
AcDbCircle
 10
659.811152
 20
851.554064
 40
2.5
100
AcDbArc
 50
180.0
 51
270.0
  0
ARC
  5
47F
100
AcDbEntity
  8
M0
100
AcDbCircle
 10
659.811152
 20
851.554064
 40
2.5
100
AcDbArc
 50
270.0
 51
360.0
  0
ARC
  5
480
100
AcDbEntity
  8
M0
100
AcDbCircle
 10
684.811145
 20
851.554064
 40
2.5
100
AcDbArc
 50
180.0
 51
269.99965
  0
ARC
  5
481
100
AcDbEntity
  8
M0
100
AcDbCircle
 10
684.511142
 20
851.554064
 40
2.5
100
AcDbArc
 50
269.99965
 51
360.0
  0
LINE
  5
482
100
AcDbEntity
  8
M0
100
AcDbLine
 10
639.811371
 20
931.754061
 11
612.811371
 21
931.754061
  0
LINE
  5
483
100
AcDbEntity
  8
M0
100
AcDbLine
 10
611.311371
 20
919.754061
 11
634.811371
 21
919.754061
  0
LINE
  5
484
100
AcDbEntity
  8
M0
100
AcDbLine
 10
608.311371
 20
928.017565
 11
608.311371
 21
922.754061
  0
LINE
  5
485
100
AcDbEntity
  8
M0
100
AcDbLine
 10
630.311371
 20
870.754061
 11
634.811371
 21
870.754061
  0
LINE
  5
486
100
AcDbEntity
  8
M0
100
AcDbLine
 10
625.311371
 20
854.754061
 11
639.811371
 21
854.754061
  0
LINE
  5
487
100
AcDbEntity
  8
M0
100
AcDbLine
 10
639.811371
 20
859.754061
 11
627.311371
 21
859.754061
  0
LINE
  5
488
100
AcDbEntity
  8
M0
100
AcDbLine
 10
629.811371
 20
836.754061
 11
639.811371
 21
836.754061
  0
ARC
  5
489
100
AcDbEntity
  8
M0
100
AcDbCircle
 10
611.311371
 20
922.754061
 40
3.0
100
AcDbArc
 50
180.0
 51
270.0
  0
LINE
  5
48A
100
AcDbEntity
  8
M0
100
AcDbLine
 10
627.311371
 20
867.754061
 11
627.311371
 21
859.754061
  0
LINE
  5
48B
100
AcDbEntity
  8
M0
100
AcDbLine
 10
625.311371
 20
854.754061
 11
625.311371
 21
840.690554
  0
LINE
  5
48C
100
AcDbEntity
  8
M0
100
AcDbLine
 10
637.311371
 20
917.254061
 11
637.311371
 21
873.254061
  0
ARC
  5
48D
100
AcDbEntity
  8
M0
100
AcDbCircle
 10
634.811371
 20
917.254061
 40
2.5
100
AcDbArc
 50
0.0
 51
89.99965
  0
ARC
  5
48E
100
AcDbEntity
  8
M0
100
AcDbCircle
 10
634.811371
 20
873.254061
 40
2.5
100
AcDbArc
 50
270.0
 51
360.0
  0
ARC
  5
48F
100
AcDbEntity
  8
M0
100
AcDbCircle
 10
630.311371
 20
867.754061
 40
3.0
100
AcDbArc
 50
89.999709
 51
180.0
  0
ARC
  5
490
100
AcDbEntity
  8
M0
100
AcDbCircle
 10
639.811371
 20
857.254061
 40
2.5
100
AcDbArc
 50
270.0
 51
360.0
  0
ARC
  5
491
100
AcDbEntity
  8
M0
100
AcDbCircle
 10
639.811371
 20
857.254061
 40
2.5
100
AcDbArc
 50
0.0
 51
89.99965
  0
LINE
  5
492
100
AcDbEntity
  8
M0
100
AcDbLine
 10
642.311371
 20
934.254061
 11
642.311371
 21
940.254061
  0
LINE
  5
493
100
AcDbEntity
  8
M0
100
AcDbLine
 10
636.311371
 20
828.754061
 11
639.811371
 21
828.754061
  0
LINE
  5
494
100
AcDbEntity
  8
M0
100
AcDbLine
 10
636.311371
 20
942.754061
 11
639.811371
 21
942.754061
  0
LINE
  5
495
100
AcDbEntity
  8
M0
100
AcDbLine
 10
610.811371
 20
929.754061
 11
610.811371
 21
929.954058
  0
LINE
  5
496
100
AcDbEntity
  8
M0
100
AcDbLine
 10
608.811371
 20
927.954058
 11
608.311371
 21
927.954058
  0
LINE
  5
497
100
AcDbEntity
  8
M0
100
AcDbLine
 10
625.311371
 20
840.754061
 11
625.811371
 21
840.754061
  0
LINE
  5
498
100
AcDbEntity
  8
M0
100
AcDbLine
 10
636.311371
 20
967.754061
 11
639.811371
 21
967.754061
  0
ARC
  5
499
100
AcDbEntity
  8
M0
100
AcDbCircle
 10
639.811371
 20
934.254061
 40
2.5
100
AcDbArc
 50
270.0
 51
360.0
  0
ARC
  5
49A
100
AcDbEntity
  8
M0
100
AcDbCircle
 10
639.811371
 20
940.254061
 40
2.5
100
AcDbArc
 50
0.0
 51
89.99965
  0
LINE
  5
49B
100
AcDbEntity
  8
M0
100
AcDbLine
 10
642.311371
 20
834.254061
 11
642.311371
 21
831.254061
  0
ARC
  5
49C
100
AcDbEntity
  8
M0
100
AcDbCircle
 10
639.811371
 20
831.254061
 40
2.5
100
AcDbArc
 50
270.0
 51
360.0
  0
ARC
  5
49D
100
AcDbEntity
  8
M0
100
AcDbCircle
 10
639.811371
 20
834.254061
 40
2.5
100
AcDbArc
 50
0.0
 51
89.99965
  0
ARC
  5
49E
100
AcDbEntity
  8
M0
100
AcDbCircle
 10
629.811371
 20
838.754061
 40
2.0
100
AcDbArc
 50
180.0
 51
270.0
  0
ARC
  5
49F
100
AcDbEntity
  8
M0
100
AcDbCircle
 10
625.811371
 20
838.754061
 40
2.0
100
AcDbArc
 50
0.0
 51
89.999563
  0
ARC
  5
4A0
100
AcDbEntity
  8
M0
100
AcDbCircle
 10
612.811371
 20
929.754061
 40
2.0
100
AcDbArc
 50
89.999563
 51
180.0
  0
ARC
  5
4A1
100
AcDbEntity
  8
M0
100
AcDbCircle
 10
608.811371
 20
929.954058
 40
2.0
100
AcDbArc
 50
270.0
 51
360.0
  0
LINE
  5
4A2
100
AcDbEntity
  8
M0
100
AcDbLine
 10
597.511506
 20
887.454061
 11
624.311371
 21
887.454061
  0
LINE
  5
4A3
100
AcDbEntity
  8
M0
100
AcDbLine
 10
597.511521
 20
906.454061
 11
624.311371
 21
906.454061
  0
LINE
  5
4A4
100
AcDbEntity
  8
M0
100
AcDbLine
 10
624.311371
 20
906.454061
 11
624.311371
 21
887.454061
  0
LINE
  5
4A5
100
AcDbEntity
  8
M0
100
AcDbLine
 10
641.311371
 20
978.754061
 11
683.311365
 21
978.754061
  0
LINE
  5
4A6
100
AcDbEntity
  8
M0
100
AcDbLine
 10
642.311371
 20
978.754061
 11
642.311371
 21
970.254061
  0
LINE
  5
4A7
100
AcDbEntity
  8
M0
100
AcDbLine
 10
682.311365
 20
971.754061
 11
682.311365
 21
978.754061
  0
LINE
  5
4A8
100
AcDbEntity
  8
M0
100
AcDbLine
 10
686.311356
 20
967.754061
 11
687.010944
 21
967.754061
  0
ARC
  5
4A9
100
AcDbEntity
  8
M0
100
AcDbCircle
 10
686.311356
 20
971.754061
 40
4.0
100
AcDbArc
 50
180.0
 51
269.999781
  0
ARC
  5
4AA
100
AcDbEntity
  8
M0
100
AcDbCircle
 10
639.811371
 20
970.254061
 40
2.5
100
AcDbArc
 50
270.0
 51
360.0
  0
LINE
  5
4AB
100
AcDbEntity
  8
M0
100
AcDbLine
 10
609.911362
 20
913.954058
 11
624.311371
 21
913.954058
  0
LINE
  5
4AC
100
AcDbEntity
  8
M0
100
AcDbLine
 10
626.311371
 20
873.754061
 11
636.311371
 21
873.754061
  0
ARC
  5
4AD
100
AcDbEntity
  8
M0
100
AcDbCircle
 10
626.311371
 20
870.754061
 40
3.0
100
AcDbArc
 50
89.999709
 51
180.0
  0
LINE
  5
4AE
100
AcDbEntity
  8
M0
100
AcDbLine
 10
624.311371
 20
913.954058
 11
636.311371
 21
901.954058
  0
LINE
  5
4AF
100
AcDbEntity
  8
M0
  6
DASHDOT
100
AcDbLine
 10
662.311366
 20
991.634585
 11
662.311366
 21
962.489565
  0
LINE
  5
4B0
100
AcDbEntity
  8
M0
100
AcDbLine
 10
639.311371
 20
967.754061
 11
639.311371
 21
976.754061
  0
LINE
  5
4B1
100
AcDbEntity
  8
M0
100
AcDbLine
 10
685.311356
 20
967.881075
 11
685.311356
 21
976.754061
  0
LINE
  5
4B2
100
AcDbEntity
  8
M0
100
AcDbLine
 10
636.111374
 20
967.753878
 11
636.111374
 21
976.754061
  0
LINE
  5
4B3
100
AcDbEntity
  8
M0
100
AcDbLine
 10
641.311371
 20
981.953921
 11
683.311365
 21
981.953921
  0
ARC
  5
4B4
100
AcDbEntity
  8
M0
100
AcDbCircle
 10
641.311371
 20
976.754061
 40
2.0
100
AcDbArc
 50
89.999563
 51
180.0
  0
ARC
  5
4B5
100
AcDbEntity
  8
M0
100
AcDbCircle
 10
683.311365
 20
976.754061
 40
2.0
100
AcDbArc
 50
0.0
 51
90.0
  0
ARC
  5
4B6
100
AcDbEntity
  8
M0
100
AcDbCircle
 10
683.311365
 20
976.754061
 40
5.2
100
AcDbArc
 50
44.646366
 51
90.0
  0
ARC
  5
4B7
100
AcDbEntity
  8
M0
100
AcDbCircle
 10
641.311371
 20
976.754061
 40
5.2
100
AcDbArc
 50
89.999832
 51
180.0
  0
LINE
  5
4B8
100
AcDbEntity
  8
M0
100
AcDbLine
 10
671.311365
 20
983.554018
 11
671.311365
 21
981.953921
  0
LINE
  5
4B9
100
AcDbEntity
  8
M0
100
AcDbLine
 10
653.311366
 20
983.554018
 11
653.311366
 21
981.953921
  0
LINE
  5
4BA
100
AcDbEntity
  8
M0
100
AcDbLine
 10
653.311366
 20
983.554018
 11
671.311365
 21
983.554018
  0
LINE
  5
4BB
100
AcDbEntity
  8
M0
100
AcDbLine
 10
670.011364
 20
985.554018
 11
670.011364
 21
983.554018
  0
LINE
  5
4BC
100
AcDbEntity
  8
M0
100
AcDbLine
 10
654.611366
 20
985.554018
 11
654.611366
 21
983.554018
  0
LINE
  5
4BD
100
AcDbEntity
  8
M0
100
AcDbLine
 10
654.611366
 20
985.554018
 11
670.011364
 21
985.554018
  0
LINE
  5
4BE
100
AcDbEntity
  8
M0
100
AcDbLine
 10
687.011142
 20
857.954058
 11
657.311152
 21
857.954058
  0
LINE
  5
4BF
100
AcDbEntity
  8
M0
100
AcDbLine
 10
687.011142
 20
865.454058
 11
657.311152
 21
865.454058
  0
LINE
  5
4C0
100
AcDbEntity
  8
M0
100
AcDbLine
 10
687.010944
 20
789.354067
 11
643.911152
 21
789.354067
  0
LINE
  5
4C1
100
AcDbEntity
  8
M0
100
AcDbLine
 10
643.911152
 20
789.354067
 11
643.911152
 21
755.854037
  0
ARC
  5
4C2
100
AcDbEntity
  8
M0
 62
     7
100
AcDbCircle
 10
684.011005
 20
873.553896
 40
3.0
100
AcDbArc
 50
0.0
 51
90.0
  0
LINE
  5
4C3
100
AcDbEntity
  8
M0
 62
   114
100
AcDbLine
 10
612.511414
 20
891.453939
 11
612.511429
 21
902.453939
  0
LINE
  5
4C4
100
AcDbEntity
  8
M0
 62
   114
100
AcDbLine
 10
610.511445
 20
904.453939
 11
604.51146
 21
904.453954
  0
LINE
  5
4C5
100
AcDbEntity
  8
M0
 62
   114
100
AcDbLine
 10
604.511429
 20
889.453954
 11
610.511414
 21
889.453954
  0
ARC
  5
4C6
100
AcDbEntity
  8
M0
 62
   114
100
AcDbCircle
 10
604.511445
 20
902.453954
 40
2.0
100
AcDbArc
 50
90.0
 51
180.0
  0
ARC
  5
4C7
100
AcDbEntity
  8
M0
 62
   114
100
AcDbCircle
 10
604.511429
 20
891.453954
 40
2.0
100
AcDbArc
 50
179.999973
 51
269.999563
  0
ARC
  5
4C8
100
AcDbEntity
  8
M0
 62
   114
100
AcDbCircle
 10
610.511414
 20
891.453954
 40
2.0
100
AcDbArc
 50
269.999563
 51
360.0
  0
ARC
  5
4C9
100
AcDbEntity
  8
M0
 62
   114
100
AcDbCircle
 10
610.511429
 20
902.453939
 40
2.0
100
AcDbArc
 50
0.0
 51
90.0
  0
ARC
  5
4CA
100
AcDbEntity
  8
M0
 62
   114
100
AcDbCircle
 10
594.76146
 20
896.953954
 40
1.25
100
AcDbArc
 50
180.0
 51
269.999301
  0
ARC
  5
4CB
100
AcDbEntity
  8
M0
 62
   114
100
AcDbCircle
 10
601.261445
 20
896.953954
 40
1.25
100
AcDbArc
 50
0.0
 51
90.0
  0
LINE
  5
4CC
100
AcDbEntity
  8
M0
 62
   114
100
AcDbLine
 10
602.511414
 20
891.453954
 11
602.511414
 21
891.853948
  0
LINE
  5
4CD
100
AcDbEntity
  8
M0
 62
   114
100
AcDbLine
 10
602.511429
 20
902.053945
 11
602.511429
 21
902.453954
  0
ARC
  5
4CE
100
AcDbEntity
  8
M0
 62
   114
100
AcDbCircle
 10
600.511414
 20
891.853948
 40
2.0
100
AcDbArc
 50
0.0
 51
90.0
  0
LINE
  5
4CF
100
AcDbEntity
  8
M0
 62
   114
100
AcDbLine
 10
610.011414
 20
894.003942
 11
610.011429
 21
899.903936
  0
LINE
  5
4D0
100
AcDbEntity
  8
M0
 62
   114
100
AcDbLine
 10
607.461457
 20
902.453954
 11
607.561463
 21
902.453954
  0
LINE
  5
4D1
100
AcDbEntity
  8
M0
 62
   114
100
AcDbLine
 10
605.011445
 20
899.903936
 11
605.01146
 21
894.003927
  0
LINE
  5
4D2
100
AcDbEntity
  8
M0
 62
   114
100
AcDbLine
 10
607.561448
 20
891.453954
 11
607.461441
 21
891.453954
  0
LINE
  5
4D3
100
AcDbEntity
  8
M0
  6
DASHDOT
 62
   114
100
AcDbLine
 10
607.511414
 20
886.453954
 11
607.511429
 21
907.453954
  0
ARC
  5
4D4
100
AcDbEntity
  8
M0
 62
   114
100
AcDbCircle
 10
607.561448
 20
899.903951
 40
2.549999
100
AcDbArc
 50
90.0
 51
180.0
  0
ARC
  5
4D5
100
AcDbEntity
  8
M0
 62
   114
100
AcDbCircle
 10
607.561448
 20
894.003942
 40
2.549999
100
AcDbArc
 50
180.0
 51
269.999657
  0
ARC
  5
4D6
100
AcDbEntity
  8
M0
 62
   114
100
AcDbCircle
 10
607.461441
 20
894.003942
 40
2.549999
100
AcDbArc
 50
269.999657
 51
360.0
  0
ARC
  5
4D7
100
AcDbEntity
  8
M0
 62
   114
100
AcDbCircle
 10
607.461441
 20
899.903951
 40
2.549999
100
AcDbArc
 50
0.0
 51
90.0
  0
LINE
  5
4D8
100
AcDbEntity
  8
M0
 62
   114
100
AcDbLine
 10
600.511429
 20
900.053945
 11
592.511445
 21
900.05393
  0
LINE
  5
4D9
100
AcDbEntity
  8
M0
 62
   114
100
AcDbLine
 10
600.511414
 20
893.853948
 11
592.511429
 21
893.853933
  0
LINE
  5
4DA
100
AcDbEntity
  8
M0
 62
   114
100
AcDbLine
 10
601.26146
 20
898.203954
 11
594.76146
 21
898.203954
  0
LINE
  5
4DB
100
AcDbEntity
  8
M0
 62
   114
100
AcDbLine
 10
594.76146
 20
895.703954
 11
601.261445
 21
895.703954
  0
ARC
  5
4DC
100
AcDbEntity
  8
M0
 62
   114
100
AcDbCircle
 10
594.761445
 20
896.953954
 40
1.25
100
AcDbArc
 50
90.0
 51
180.0
  0
ARC
  5
4DD
100
AcDbEntity
  8
M0
 62
   114
100
AcDbCircle
 10
601.261445
 20
896.953954
 40
1.25
100
AcDbArc
 50
269.999301
 51
360.0
  0
ARC
  5
4DE
100
AcDbEntity
  8
M0
 62
   114
100
AcDbCircle
 10
600.511429
 20
902.053945
 40
2.0
100
AcDbArc
 50
269.999563
 51
360.0
  0
LINE
  5
4DF
100
AcDbEntity
  8
M0
 62
   114
100
AcDbLine
 10
546.011445
 20
879.453969
 11
567.011445
 21
879.453969
  0
LINE
  5
4E0
100
AcDbEntity
  8
M0
 62
   114
100
AcDbLine
 10
597.511445
 20
870.453969
 11
597.511445
 21
891.453969
  0
LINE
  5
4E1
100
AcDbEntity
  8
M0
 62
   114
100
AcDbLine
 10
544.011445
 20
912.453939
 11
544.011445
 21
900.703969
  0
LINE
  5
4E2
100
AcDbEntity
  8
M0
 62
   114
100
AcDbLine
 10
576.933304
 20
867.953969
 11
587.162156
 21
867.953969
  0
LINE
  5
4E3
100
AcDbEntity
  8
M0
 62
   114
100
AcDbLine
 10
587.16214
 20
925.953954
 11
576.93332
 21
925.953954
  0
LINE
  5
4E4
100
AcDbEntity
  8
M0
 62
   114
100
AcDbLine
 10
549.011445
 20
917.453969
 11
572.554917
 21
917.453969
  0
LINE
  5
4E5
100
AcDbEntity
  8
M0
 62
   114
100
AcDbLine
 10
549.011445
 20
876.453969
 11
572.554917
 21
876.453969
  0
LINE
  5
4E6
100
AcDbEntity
  8
M0
 62
   114
100
AcDbLine
 10
568.011445
 20
911.953969
 11
571.011445
 21
911.953969
  0
LINE
  5
4E7
100
AcDbEntity
  8
M0
 62
   114
100
AcDbLine
 10
568.011445
 20
881.953969
 11
571.011445
 21
881.953969
  0
LINE
  5
4E8
100
AcDbEntity
  8
M0
 62
   114
100
AcDbLine
 10
589.511445
 20
923.453969
 11
597.311295
 21
923.453969
  0
LINE
  5
4E9
100
AcDbEntity
  8
M0
 62
   114
100
AcDbLine
 10
589.511445
 20
870.453969
 11
597.311295
 21
870.453969
  0
LINE
  5
4EA
100
AcDbEntity
  8
M0
 62
   114
100
AcDbLine
 10
567.511445
 20
879.953954
 11
567.511445
 21
881.453969
  0
LINE
  5
4EB
100
AcDbEntity
  8
M0
 62
   114
100
AcDbLine
 10
571.511445
 20
879.453969
 11
571.511445
 21
881.453954
  0
LINE
  5
4EC
100
AcDbEntity
  8
M0
 62
   114
100
AcDbLine
 10
567.011445
 20
914.453954
 11
546.011445
 21
914.453939
  0
LINE
  5
4ED
100
AcDbEntity
  8
M0
 62
   114
100
AcDbLine
 10
567.511445
 20
912.453969
 11
567.511445
 21
913.953924
  0
LINE
  5
4EE
100
AcDbEntity
  8
M0
 62
   114
100
AcDbLine
 10
571.511445
 20
912.453954
 11
571.511445
 21
914.453969
  0
LINE
  5
4EF
100
AcDbEntity
  8
M0
 62
   114
100
AcDbLine
 10
575.044312
 20
869.296926
 11
571.511445
 21
879.453969
  0
LINE
  5
4F0
100
AcDbEntity
  8
M0
 62
   114
100
AcDbLine
 10
571.511445
 20
914.453954
 11
575.044327
 21
924.610982
  0
ARC
  5
4F1
100
AcDbEntity
  8
M0
 62
   114
100
AcDbCircle
 10
549.011445
 20
912.453969
 40
5.0
100
AcDbArc
 50
90.0
 51
180.0
  0
ARC
  5
4F2
100
AcDbEntity
  8
M0
 62
   114
100
AcDbCircle
 10
546.011445
 20
912.453939
 40
2.0
100
AcDbArc
 50
90.0
 51
180.0
  0
ARC
  5
4F3
100
AcDbEntity
  8
M0
 62
   114
100
AcDbCircle
 10
546.011445
 20
881.453969
 40
2.0
100
AcDbArc
 50
179.999973
 51
270.0
  0
ARC
  5
4F4
100
AcDbEntity
  8
M0
 62
   114
100
AcDbCircle
 10
549.011445
 20
881.453969
 40
5.0
100
AcDbArc
 50
179.999967
 51
270.0
  0
ARC
  5
4F5
100
AcDbEntity
  8
M0
 62
   114
100
AcDbCircle
 10
567.011445
 20
913.953939
 40
0.5
100
AcDbArc
 50
0.0
 51
90.0
  0
ARC
  5
4F6
100
AcDbEntity
  8
M0
 62
   114
100
AcDbCircle
 10
568.011445
 20
912.453969
 40
0.5
100
AcDbArc
 50
180.0
 51
269.998251
  0
ARC
  5
4F7
100
AcDbEntity
  8
M0
 62
   114
100
AcDbCircle
 10
571.011445
 20
912.453969
 40
0.5
100
AcDbArc
 50
269.998251
 51
360.0
  0
ARC
  5
4F8
100
AcDbEntity
  8
M0
 62
   114
100
AcDbCircle
 10
571.011445
 20
881.453969
 40
0.5
100
AcDbArc
 50
0.0
 51
90.0
  0
ARC
  5
4F9
100
AcDbEntity
  8
M0
 62
   114
100
AcDbCircle
 10
568.011445
 20
881.453969
 40
0.5
100
AcDbArc
 50
90.0
 51
180.0
  0
ARC
  5
4FA
100
AcDbEntity
  8
M0
 62
   114
100
AcDbCircle
 10
567.011445
 20
879.953969
 40
0.5
100
AcDbArc
 50
269.998251
 51
360.0
  0
ARC
  5
4FB
100
AcDbEntity
  8
M0
 62
   114
100
AcDbCircle
 10
576.93332
 20
923.953954
 40
2.0
100
AcDbArc
 50
90.0
 51
160.821477
  0
ARC
  5
4FC
100
AcDbEntity
  8
M0
 62
   114
100
AcDbCircle
 10
576.933304
 20
869.953969
 40
2.0
100
AcDbArc
 50
199.178885
 51
269.999563
  0
LINE
  5
4FD
100
AcDbEntity
  8
M0
 62
   114
100
AcDbLine
 10
594.011445
 20
931.953969
 11
597.311295
 21
931.953969
  0
LINE
  5
4FE
100
AcDbEntity
  8
M0
 62
   114
100
AcDbLine
 10
594.011445
 20
861.953969
 11
597.311295
 21
861.953969
  0
LINE
  5
4FF
100
AcDbEntity
  8
M0
 62
   114
100
AcDbLine
 10
593.511445
 20
923.453969
 11
593.511445
 21
931.453969
  0
LINE
  5
500
100
AcDbEntity
  8
M0
 62
   114
100
AcDbLine
 10
593.511445
 20
862.453969
 11
593.511445
 21
870.453969
  0
ARC
  5
501
100
AcDbEntity
  8
M0
 62
   114
100
AcDbCircle
 10
594.011445
 20
931.453969
 40
0.5
100
AcDbArc
 50
90.0
 51
180.0
  0
ARC
  5
502
100
AcDbEntity
  8
M0
 62
   114
100
AcDbCircle
 10
594.011445
 20
862.453969
 40
0.5
100
AcDbArc
 50
179.999891
 51
269.998251
  0
ARC
  5
503
100
AcDbEntity
  8
M0
 62
   114
100
AcDbCircle
 10
587.162156
 20
869.453969
 40
1.5
100
AcDbArc
 50
269.999417
 51
329.0356
  0
LINE
  5
504
100
AcDbEntity
  8
M0
 62
   114
100
AcDbLine
 10
592.511445
 20
892.453969
 11
592.511445
 21
901.453969
  0
LINE
  5
505
100
AcDbEntity
  8
M0
 62
   114
100
AcDbLine
 10
593.511445
 20
902.453969
 11
597.511445
 21
902.453969
  0
LINE
  5
506
100
AcDbEntity
  8
M0
 62
   114
100
AcDbLine
 10
593.511445
 20
891.453969
 11
597.511445
 21
891.453969
  0
LINE
  5
507
100
AcDbEntity
  8
M0
 62
   114
100
AcDbLine
 10
597.511445
 20
902.453969
 11
597.511445
 21
923.453969
  0
ARC
  5
508
100
AcDbEntity
  8
M0
 62
   114
100
AcDbCircle
 10
593.511445
 20
901.453969
 40
1.0
100
AcDbArc
 50
90.0
 51
180.0
  0
ARC
  5
509
100
AcDbEntity
  8
M0
 62
   114
100
AcDbCircle
 10
593.511445
 20
892.453969
 40
1.0
100
AcDbArc
 50
180.0
 51
269.999126
  0
LINE
  5
50A
100
AcDbEntity
  8
M0
  6
DASHDOT
 62
   114
100
AcDbLine
 10
588.629426
 20
927.953969
 11
602.511445
 21
927.953969
  0
LINE
  5
50B
100
AcDbEntity
  8
M0
  6
DASHDOT
 62
   114
100
AcDbLine
 10
588.411515
 20
865.953969
 11
602.511445
 21
865.953969
  0
LINE
  5
50C
100
AcDbEntity
  8
M0
 62
   114
100
AcDbLine
 10
554.011445
 20
900.703969
 11
554.011445
 21
893.203969
  0
LINE
  5
50D
100
AcDbEntity
  8
M0
 62
   114
100
AcDbLine
 10
544.011445
 20
900.703969
 11
554.011445
 21
900.703969
  0
LINE
  5
50E
100
AcDbEntity
  8
M0
 62
   114
100
AcDbLine
 10
544.011445
 20
893.203969
 11
554.011445
 21
893.203969
  0
LINE
  5
50F
100
AcDbEntity
  8
M0
 62
   114
100
AcDbLine
 10
544.011445
 20
893.203969
 11
544.011445
 21
881.453969
  0
LINE
  5
510
100
AcDbEntity
  8
M0
 62
   114
100
AcDbLine
 10
551.511445
 20
900.703969
 11
551.511445
 21
899.703969
  0
LINE
  5
511
100
AcDbEntity
  8
M0
 62
   114
100
AcDbLine
 10
551.511445
 20
899.703969
 11
554.011445
 21
899.703969
  0
LINE
  5
512
100
AcDbEntity
  8
M0
 62
   114
100
AcDbLine
 10
551.511445
 20
894.203969
 11
554.011445
 21
894.203969
  0
LINE
  5
513
100
AcDbEntity
  8
M0
 62
   114
100
AcDbLine
 10
551.511445
 20
894.203969
 11
551.511445
 21
893.203969
  0
LINE
  5
514
100
AcDbEntity
  8
M0
 62
   114
100
AcDbLine
 10
588.448395
 20
925.225698
 11
589.511445
 21
923.453969
  0
LINE
  5
515
100
AcDbEntity
  8
M0
 62
   114
100
AcDbLine
 10
588.448395
 20
868.68221
 11
589.511445
 21
870.453969
  0
ARC
  5
516
100
AcDbEntity
  8
M0
 62
   114
100
AcDbCircle
 10
587.16214
 20
924.453939
 40
1.5
100
AcDbArc
 50
30.964056
 51
90.0
  0
CIRCLE
  5
517
100
AcDbEntity
  8
M0
100
AcDbCircle
 10
653.911152
 20
769.354067
 40
3.0
  0
LINE
  5
518
100
AcDbEntity
  8
M0
  6
DASHDOT
100
AcDbLine
 10
644.244486
 20
769.354067
 11
663.577818
 21
769.354067
  0
LINE
  5
519
100
AcDbEntity
  8
M0
  6
DASHDOT
100
AcDbLine
 10
653.911152
 20
759.687401
 11
653.911152
 21
779.020733
  0
LINE
  5
51A
100
AcDbEntity
  8
M0
100
AcDbLine
 10
658.111151
 20
803.754061
 11
658.111151
 21
789.354067
  0
LINE
  5
51B
100
AcDbEntity
  8
M0
100
AcDbLine
 10
654.911152
 20
803.754061
 11
654.911152
 21
789.354067
  0
LINE
  5
51C
100
AcDbEntity
  8
M0
100
AcDbLine
 10
655.111151
 20
789.354067
 11
655.111151
 21
803.754061
  0
LINE
  5
51D
100
AcDbEntity
  8
M0
100
AcDbLine
 10
661.111151
 20
789.354067
 11
661.111151
 21
803.754061
  0
LINE
  5
51E
100
AcDbEntity
  8
M0
 62
     4
100
AcDbLine
 10
666.311249
 20
985.55402
 11
666.311248
 21
991.05402
  0
LINE
  5
51F
100
AcDbEntity
  8
M0
 62
     4
100
AcDbLine
 10
658.311248
 20
991.054017
 11
658.311249
 21
985.554017
  0
LINE
  5
520
100
AcDbEntity
  8
M0
  6
DASHDOT
 62
     4
100
AcDbLine
 10
662.311246
 20
994.795992
 11
662.311253
 21
973.342455
  0
LINE
  5
521
100
AcDbEntity
  8
M0
 62
     4
100
AcDbLine
 10
654.810242
 20
985.554016
 11
669.812241
 21
985.554021
  0
LINE
  5
522
100
AcDbEntity
  8
M0
 62
     4
100
AcDbLine
 10
669.812241
 20
985.554021
 11
669.812239
 21
991.054021
  0
LINE
  5
523
100
AcDbEntity
  8
M0
 62
     4
100
AcDbLine
 10
669.812239
 20
991.054021
 11
654.81024
 21
991.054016
  0
LINE
  5
524
100
AcDbEntity
  8
M0
 62
     4
100
AcDbLine
 10
654.81024
 20
991.054016
 11
654.810242
 21
985.554016
  0
LINE
  5
525
100
AcDbEntity
  8
M0
100
AcDbLine
 10
619.311371
 20
987.753725
 11
622.111176
 21
987.753725
  0
LINE
  5
526
100
AcDbEntity
  8
M0
100
AcDbLine
 10
636.111176
 20
976.753969
 11
636.111176
 21
992.753725
  0
LINE
  5
527
100
AcDbEntity
  8
M0
100
AcDbLine
 10
622.111176
 20
992.753725
 11
636.111176
 21
992.753725
  0
LINE
  5
528
100
AcDbEntity
  8
M0
100
AcDbLine
 10
622.111176
 20
987.753725
 11
622.111176
 21
992.753725
  0
LINE
  5
529
100
AcDbEntity
  8
M0
100
AcDbLine
 10
614.311371
 20
982.753725
 11
614.311371
 21
962.753908
  0
ARC
  5
52A
100
AcDbEntity
  8
M0
100
AcDbCircle
 10
619.311371
 20
982.753725
 40
5.0
100
AcDbArc
 50
90.0
 51
180.0
  0
CIRCLE
  5
52B
100
AcDbEntity
  8
M0
100
AcDbCircle
 10
280.424015
 20
964.814272
 40
3.0
  0
LINE
  5
52C
100
AcDbEntity
  8
M0
100
AcDbLine
 10
277.46503
 20
968.761614
 11
276.648868
 21
966.114321
  0
LINE
  5
52D
100
AcDbEntity
  8
M0
100
AcDbLine
 10
277.46503
 20
960.867023
 11
276.648868
 21
963.514346
  0
LINE
  5
52E
100
AcDbEntity
  8
M0
100
AcDbLine
 10
283.382511
 20
968.761629
 11
284.198917
 21
966.114321
  0
LINE
  5
52F
100
AcDbEntity
  8
M0
100
AcDbLine
 10
283.382511
 20
960.867007
 11
284.198917
 21
963.514346
  0
LINE
  5
530
100
AcDbEntity
  8
M0
100
AcDbLine
 10
277.943058
 20
960.514346
 11
282.904728
 21
960.514346
  0
LINE
  5
531
100
AcDbEntity
  8
M0
100
AcDbLine
 10
284.198917
 20
963.514346
 11
284.198917
 21
966.114321
  0
LINE
  5
532
100
AcDbEntity
  8
M0
100
AcDbLine
 10
282.904728
 20
969.114321
 11
277.943058
 21
969.114306
  0
LINE
  5
533
100
AcDbEntity
  8
M0
100
AcDbLine
 10
276.648868
 20
966.114321
 11
276.648868
 21
963.514346
  0
ARC
  5
534
100
AcDbEntity
  8
M0
100
AcDbCircle
 10
277.943058
 20
968.614306
 40
0.5
100
AcDbArc
 50
89.998251
 51
162.872435
  0
ARC
  5
535
100
AcDbEntity
  8
M0
100
AcDbCircle
 10
277.943058
 20
961.014346
 40
0.5
100
AcDbArc
 50
197.129027
 51
270.0
  0
ARC
  5
536
100
AcDbEntity
  8
M0
100
AcDbCircle
 10
282.904728
 20
961.014346
 40
0.5
100
AcDbArc
 50
270.0
 51
342.861372
  0
ARC
  5
537
100
AcDbEntity
  8
M0
100
AcDbCircle
 10
282.904728
 20
968.614306
 40
0.5
100
AcDbArc
 50
17.136546
 51
89.998251
  0
CIRCLE
  5
538
100
AcDbEntity
  8
M0
100
AcDbCircle
 10
217.424015
 20
964.814272
 40
3.0
  0
LINE
  5
539
100
AcDbEntity
  8
M0
100
AcDbLine
 10
214.46503
 20
968.761614
 11
213.648868
 21
966.114321
  0
LINE
  5
53A
100
AcDbEntity
  8
M0
100
AcDbLine
 10
214.46503
 20
960.867023
 11
213.648868
 21
963.514346
  0
LINE
  5
53B
100
AcDbEntity
  8
M0
100
AcDbLine
 10
220.382511
 20
968.761629
 11
221.198917
 21
966.114321
  0
LINE
  5
53C
100
AcDbEntity
  8
M0
100
AcDbLine
 10
220.382511
 20
960.867007
 11
221.198917
 21
963.514346
  0
LINE
  5
53D
100
AcDbEntity
  8
M0
100
AcDbLine
 10
214.943058
 20
960.514346
 11
219.904728
 21
960.514346
  0
LINE
  5
53E
100
AcDbEntity
  8
M0
100
AcDbLine
 10
221.198917
 20
963.514346
 11
221.198917
 21
966.114321
  0
LINE
  5
53F
100
AcDbEntity
  8
M0
100
AcDbLine
 10
219.904728
 20
969.114321
 11
214.943058
 21
969.114306
  0
LINE
  5
540
100
AcDbEntity
  8
M0
100
AcDbLine
 10
213.648868
 20
966.114321
 11
213.648868
 21
963.514346
  0
ARC
  5
541
100
AcDbEntity
  8
M0
100
AcDbCircle
 10
214.943058
 20
968.614306
 40
0.5
100
AcDbArc
 50
89.998251
 51
162.872435
  0
ARC
  5
542
100
AcDbEntity
  8
M0
100
AcDbCircle
 10
214.943058
 20
961.014346
 40
0.5
100
AcDbArc
 50
197.129027
 51
270.0
  0
ARC
  5
543
100
AcDbEntity
  8
M0
100
AcDbCircle
 10
219.904728
 20
961.014346
 40
0.5
100
AcDbArc
 50
270.0
 51
342.861372
  0
ARC
  5
544
100
AcDbEntity
  8
M0
100
AcDbCircle
 10
219.904728
 20
968.614306
 40
0.5
100
AcDbArc
 50
17.136546
 51
89.998251
  0
LINE
  5
545
100
AcDbEntity
  8
M0
100
AcDbLine
 10
210.424045
 20
979.814028
 11
231.424045
 21
979.814028
  0
LINE
  5
546
100
AcDbEntity
  8
M0
100
AcDbLine
 10
213.424045
 20
979.814028
 11
213.424045
 21
959.814028
  0
LINE
  5
547
100
AcDbEntity
  8
M0
100
AcDbLine
 10
210.424045
 20
979.814028
 11
210.424045
 21
959.814028
  0
LINE
  5
548
100
AcDbEntity
  8
M0
100
AcDbLine
 10
227.424045
 20
974.814028
 11
227.424045
 21
960.814028
  0
LINE
  5
549
100
AcDbEntity
  8
M0
100
AcDbLine
 10
235.424045
 20
979.814028
 11
235.424045
 21
959.814028
  0
LINE
  5
54A
100
AcDbEntity
  8
M0
100
AcDbLine
 10
221.424045
 20
974.814028
 11
221.424045
 21
960.814028
  0
LINE
  5
54B
100
AcDbEntity
  8
M0
100
AcDbLine
 10
276.424045
 20
974.814028
 11
276.424045
 21
959.814028
  0
LINE
  5
54C
100
AcDbEntity
  8
M0
100
AcDbLine
 10
284.424045
 20
979.814028
 11
284.424045
 21
959.814028
  0
LINE
  5
54D
100
AcDbEntity
  8
M0
100
AcDbLine
 10
288.424045
 20
979.814028
 11
288.424045
 21
959.814028
  0
LINE
  5
54E
100
AcDbEntity
  8
M0
100
AcDbLine
 10
272.424045
 20
974.814028
 11
272.424045
 21
960.814028
  0
LINE
  5
54F
100
AcDbEntity
  8
M0
100
AcDbLine
 10
210.424045
 20
974.814028
 11
213.424045
 21
974.814028
  0
LINE
  5
550
100
AcDbEntity
  8
M0
100
AcDbLine
 10
272.424045
 20
974.814028
 11
276.424045
 21
974.814028
  0
LINE
  5
551
100
AcDbEntity
  8
M0
100
AcDbLine
 10
280.424045
 20
979.814028
 11
288.424045
 21
979.814028
  0
LINE
  5
552
100
AcDbEntity
  8
M0
100
AcDbLine
 10
284.424045
 20
974.814028
 11
288.424045
 21
974.814028
  0
LINE
  5
553
100
AcDbEntity
  8
M0
100
AcDbLine
 10
221.424045
 20
974.814028
 11
227.424045
 21
974.814028
  0
LINE
  5
554
100
AcDbEntity
  8
M0
100
AcDbLine
 10
235.424045
 20
984.814028
 11
235.424045
 21
979.814028
  0
LINE
  5
555
100
AcDbEntity
  8
M0
100
AcDbLine
 10
276.424045
 20
984.814028
 11
276.424045
 21
983.814028
  0
ARC
  5
556
100
AcDbEntity
  8
M0
100
AcDbCircle
 10
231.424045
 20
983.814028
 40
4.0
100
AcDbArc
 50
269.999781
 51
360.0
  0
ARC
  5
557
100
AcDbEntity
  8
M0
100
AcDbCircle
 10
280.424045
 20
983.814028
 40
4.0
100
AcDbArc
 50
180.0
 51
269.999781
  0
LINE
  5
558
100
AcDbEntity
  8
M0
100
AcDbLine
 10
265.424045
 20
984.814028
 11
276.424045
 21
984.814028
  0
LINE
  5
559
100
AcDbEntity
  8
M0
 62
     5
100
AcDbLine
 10
288.943302
 20
691.31386
 11
293.905323
 21
691.31386
  0
LINE
  5
55A
100
AcDbEntity
  8
M0
 62
     5
100
AcDbLine
 10
295.199283
 20
694.313372
 11
295.199283
 21
696.91347
  0
LINE
  5
55B
100
AcDbEntity
  8
M0
 62
     5
100
AcDbLine
 10
287.924137
 20
693.422382
 11
288.465534
 21
691.666399
  0
LINE
  5
55C
100
AcDbEntity
  8
M0
 62
     5
100
AcDbLine
 10
295.199299
 20
694.313616
 11
294.383106
 21
691.666399
  0
LINE
  5
55D
100
AcDbEntity
  8
M0
 62
     5
100
AcDbLine
 10
295.199299
 20
696.91347
 11
294.736563
 21
698.414126
  0
ARC
  5
55E
100
AcDbEntity
  8
M0
 62
     5
100
AcDbCircle
 10
288.943302
 20
691.81386
 40
0.5
100
AcDbArc
 50
197.15252
 51
270.0
  0
ARC
  5
55F
100
AcDbEntity
  8
M0
 62
     5
100
AcDbCircle
 10
293.905323
 20
691.81386
 40
0.5
100
AcDbArc
 50
270.0
 51
342.84793
  0
LINE
  5
560
100
AcDbEntity
  8
M0
 62
     5
100
AcDbLine
 10
288.204258
 20
692.513811
 11
290.02428
 21
692.513811
  0
LINE
  5
561
100
AcDbEntity
  8
M0
 62
     5
100
AcDbLine
 10
287.834293
 20
693.713763
 11
289.102787
 21
693.713763
  0
LINE
  5
562
100
AcDbEntity
  8
M0
 62
     5
100
AcDbLine
 10
293.745807
 20
693.713763
 11
295.014347
 21
693.713763
  0
LINE
  5
563
100
AcDbEntity
  8
M0
 62
     5
100
AcDbLine
 10
293.746219
 20
697.513567
 11
295.014255
 21
697.513567
  0
LINE
  5
564
100
AcDbEntity
  8
M0
 62
     5
100
AcDbLine
 10
292.824283
 20
692.513811
 11
292.824283
 21
692.960589
  0
LINE
  5
565
100
AcDbEntity
  8
M0
 62
     5
100
AcDbLine
 10
290.02428
 20
692.513811
 11
290.02428
 21
692.960589
  0
LINE
  5
566
100
AcDbEntity
  8
M0
 62
     5
100
AcDbLine
 10
290.02428
 20
698.713763
 11
290.02428
 21
698.266985
  0
LINE
  5
567
100
AcDbEntity
  8
M0
 62
     5
100
AcDbLine
 10
292.824283
 20
698.713763
 11
292.824283
 21
698.266985
  0
LINE
  5
568
100
AcDbEntity
  8
M0
 62
     5
100
AcDbLine
 10
292.824283
 20
692.513811
 11
294.644367
 21
692.513811
  0
CIRCLE
  5
569
100
AcDbEntity
  8
M0
 62
     5
100
AcDbCircle
 10
291.424305
 20
695.613909
 40
3.0
  0
LINE
  5
56A
100
AcDbEntity
  8
M0
 62
     5
100
AcDbLine
 10
292.414249
 20
693.916643
 11
293.121357
 21
694.623919
  0
LINE
  5
56B
100
AcDbEntity
  8
M0
 62
     5
100
AcDbLine
 10
293.121357
 20
694.623919
 11
292.131397
 21
695.613665
  0
LINE
  5
56C
100
AcDbEntity
  8
M0
 62
     5
100
AcDbLine
 10
290.434345
 20
697.31093
 11
289.727253
 21
696.603655
  0
LINE
  5
56D
100
AcDbEntity
  8
M0
 62
     5
100
AcDbLine
 10
289.727253
 20
696.603655
 11
290.717197
 21
695.613909
  0
LINE
  5
56E
100
AcDbEntity
  8
M0
 62
     5
100
AcDbLine
 10
288.979084
 20
693.875628
 11
290.717197
 21
695.613909
  0
LINE
  5
56F
100
AcDbEntity
  8
M0
 62
     5
100
AcDbLine
 10
289.686191
 20
693.168596
 11
291.424289
 21
694.906634
  0
LINE
  5
570
100
AcDbEntity
  8
M0
 62
     5
100
AcDbLine
 10
293.869495
 20
697.351946
 11
292.131397
 21
695.613665
  0
LINE
  5
571
100
AcDbEntity
  8
M0
 62
     5
100
AcDbLine
 10
293.162388
 20
698.058977
 11
291.424305
 21
696.32094
  0
LINE
  5
572
100
AcDbEntity
  8
M0
 62
     5
100
AcDbLine
 10
292.414249
 20
693.916643
 11
291.424289
 21
694.906634
  0
LINE
  5
573
100
AcDbEntity
  8
M0
 62
     5
100
AcDbLine
 10
290.434345
 20
697.31093
 11
291.424305
 21
696.32094
  0
LINE
  5
574
100
AcDbEntity
  8
M0
 62
     5
100
AcDbLine
 10
290.943226
 20
698.413607
 11
295.905246
 21
698.413607
  0
LINE
  5
575
100
AcDbEntity
  8
M0
 62
     5
100
AcDbLine
 10
297.199207
 20
701.413119
 11
297.199207
 21
704.013216
  0
LINE
  5
576
100
AcDbEntity
  8
M0
 62
     5
100
AcDbLine
 10
295.905094
 20
707.013216
 11
290.943226
 21
707.013216
  0
LINE
  5
577
100
AcDbEntity
  8
M0
 62
     5
100
AcDbLine
 10
289.649204
 20
704.01346
 11
289.649204
 21
701.413607
  0
LINE
  5
578
100
AcDbEntity
  8
M0
 62
     5
100
AcDbLine
 10
289.649204
 20
701.413607
 11
290.465458
 21
698.766146
  0
LINE
  5
579
100
AcDbEntity
  8
M0
 62
     5
100
AcDbLine
 10
289.649204
 20
704.01346
 11
290.46532
 21
706.660189
  0
LINE
  5
57A
100
AcDbEntity
  8
M0
 62
     5
100
AcDbLine
 10
297.199222
 20
701.413363
 11
296.38303
 21
698.766146
  0
LINE
  5
57B
100
AcDbEntity
  8
M0
 62
     5
100
AcDbLine
 10
297.199222
 20
704.013216
 11
296.383014
 21
706.660189
  0
ARC
  5
57C
100
AcDbEntity
  8
M0
 62
     5
100
AcDbCircle
 10
290.943226
 20
698.913607
 40
0.5
100
AcDbArc
 50
197.15252
 51
270.0
  0
ARC
  5
57D
100
AcDbEntity
  8
M0
 62
     5
100
AcDbCircle
 10
295.905246
 20
698.913607
 40
0.5
100
AcDbArc
 50
270.0
 51
342.84793
  0
ARC
  5
57E
100
AcDbEntity
  8
M0
 62
     5
100
AcDbCircle
 10
295.905094
 20
706.512972
 40
0.5
100
AcDbArc
 50
17.120719
 51
90.0
  0
ARC
  5
57F
100
AcDbEntity
  8
M0
 62
     5
100
AcDbCircle
 10
290.943226
 20
706.512972
 40
0.5
100
AcDbArc
 50
90.0
 51
162.878799
  0
LINE
  5
580
100
AcDbEntity
  8
M0
 62
     5
100
AcDbLine
 10
290.204242
 20
705.813509
 11
292.024204
 21
705.813509
  0
LINE
  5
581
100
AcDbEntity
  8
M0
 62
     5
100
AcDbLine
 10
290.204181
 20
699.613558
 11
292.024204
 21
699.613558
  0
LINE
  5
582
100
AcDbEntity
  8
M0
 62
     5
100
AcDbLine
 10
289.834217
 20
700.813509
 11
291.10271
 21
700.813509
  0
LINE
  5
583
100
AcDbEntity
  8
M0
 62
     5
100
AcDbLine
 10
289.834156
 20
704.613314
 11
291.102298
 21
704.613314
  0
LINE
  5
584
100
AcDbEntity
  8
M0
 62
     5
100
AcDbLine
 10
295.745731
 20
700.813509
 11
297.01427
 21
700.813509
  0
LINE
  5
585
100
AcDbEntity
  8
M0
 62
     5
100
AcDbLine
 10
295.746143
 20
704.613314
 11
297.014179
 21
704.613314
  0
LINE
  5
586
100
AcDbEntity
  8
M0
 62
     5
100
AcDbLine
 10
294.824207
 20
699.613558
 11
294.824207
 21
700.060335
  0
LINE
  5
587
100
AcDbEntity
  8
M0
 62
     5
100
AcDbLine
 10
292.024204
 20
699.613558
 11
292.024204
 21
700.060335
  0
LINE
  5
588
100
AcDbEntity
  8
M0
 62
     5
100
AcDbLine
 10
292.024204
 20
705.813509
 11
292.024204
 21
705.366732
  0
LINE
  5
589
100
AcDbEntity
  8
M0
 62
     5
100
AcDbLine
 10
294.824207
 20
705.813509
 11
294.824207
 21
705.366732
  0
LINE
  5
58A
100
AcDbEntity
  8
M0
 62
     5
100
AcDbLine
 10
294.824207
 20
699.613558
 11
296.644291
 21
699.613558
  0
LINE
  5
58B
100
AcDbEntity
  8
M0
 62
     5
100
AcDbLine
 10
294.824207
 20
705.813509
 11
296.644092
 21
705.813509
  0
CIRCLE
  5
58C
100
AcDbEntity
  8
M0
 62
     5
100
AcDbCircle
 10
293.424228
 20
702.713656
 40
3.0
  0
LINE
  5
58D
100
AcDbEntity
  8
M0
 62
     5
100
AcDbLine
 10
294.414173
 20
701.01639
 11
295.12128
 21
701.723665
  0
LINE
  5
58E
100
AcDbEntity
  8
M0
 62
     5
100
AcDbLine
 10
295.12128
 20
701.723665
 11
294.131321
 21
702.713412
  0
LINE
  5
58F
100
AcDbEntity
  8
M0
 62
     5
100
AcDbLine
 10
292.434269
 20
704.410677
 11
291.727176
 21
703.703402
  0
LINE
  5
590
100
AcDbEntity
  8
M0
 62
     5
100
AcDbLine
 10
291.727176
 20
703.703402
 11
292.717121
 21
702.713656
  0
LINE
  5
591
100
AcDbEntity
  8
M0
 62
     5
100
AcDbLine
 10
290.979007
 20
700.975374
 11
292.717121
 21
702.713656
  0
LINE
  5
592
100
AcDbEntity
  8
M0
 62
     5
100
AcDbLine
 10
291.686115
 20
700.268343
 11
293.424213
 21
702.00638
  0
LINE
  5
593
100
AcDbEntity
  8
M0
 62
     5
100
AcDbLine
 10
295.869419
 20
704.451693
 11
294.131321
 21
702.713412
  0
LINE
  5
594
100
AcDbEntity
  8
M0
 62
     5
100
AcDbLine
 10
295.162311
 20
705.158724
 11
293.424228
 21
703.420687
  0
LINE
  5
595
100
AcDbEntity
  8
M0
 62
     5
100
AcDbLine
 10
294.414173
 20
701.01639
 11
293.424213
 21
702.00638
  0
LINE
  5
596
100
AcDbEntity
  8
M0
 62
     5
100
AcDbLine
 10
292.434269
 20
704.410677
 11
293.424228
 21
703.420687
  0
LINE
  5
597
100
AcDbEntity
  8
M0
 62
     5
100
AcDbLine
 10
300.943226
 20
698.413607
 11
305.905246
 21
698.413607
  0
LINE
  5
598
100
AcDbEntity
  8
M0
 62
     5
100
AcDbLine
 10
307.199207
 20
701.413119
 11
307.199207
 21
704.013216
  0
LINE
  5
599
100
AcDbEntity
  8
M0
 62
     5
100
AcDbLine
 10
305.905094
 20
707.013216
 11
300.943226
 21
707.013216
  0
LINE
  5
59A
100
AcDbEntity
  8
M0
 62
     5
100
AcDbLine
 10
299.649204
 20
704.01346
 11
299.649204
 21
701.413607
  0
LINE
  5
59B
100
AcDbEntity
  8
M0
 62
     5
100
AcDbLine
 10
299.649204
 20
701.413607
 11
300.465458
 21
698.766146
  0
LINE
  5
59C
100
AcDbEntity
  8
M0
 62
     5
100
AcDbLine
 10
299.649204
 20
704.01346
 11
300.46532
 21
706.660189
  0
LINE
  5
59D
100
AcDbEntity
  8
M0
 62
     5
100
AcDbLine
 10
307.199222
 20
701.413363
 11
306.38303
 21
698.766146
  0
LINE
  5
59E
100
AcDbEntity
  8
M0
 62
     5
100
AcDbLine
 10
307.199222
 20
704.013216
 11
306.383014
 21
706.660189
  0
ARC
  5
59F
100
AcDbEntity
  8
M0
 62
     5
100
AcDbCircle
 10
300.943226
 20
698.913607
 40
0.5
100
AcDbArc
 50
197.15252
 51
270.0
  0
ARC
  5
5A0
100
AcDbEntity
  8
M0
 62
     5
100
AcDbCircle
 10
305.905246
 20
698.913607
 40
0.5
100
AcDbArc
 50
270.0
 51
342.84793
  0
ARC
  5
5A1
100
AcDbEntity
  8
M0
 62
     5
100
AcDbCircle
 10
305.905094
 20
706.512972
 40
0.5
100
AcDbArc
 50
17.120719
 51
90.0
  0
ARC
  5
5A2
100
AcDbEntity
  8
M0
 62
     5
100
AcDbCircle
 10
300.943226
 20
706.512972
 40
0.5
100
AcDbArc
 50
90.0
 51
162.878799
  0
LINE
  5
5A3
100
AcDbEntity
  8
M0
 62
     5
100
AcDbLine
 10
300.204242
 20
705.813509
 11
302.024204
 21
705.813509
  0
LINE
  5
5A4
100
AcDbEntity
  8
M0
 62
     5
100
AcDbLine
 10
300.204181
 20
699.613558
 11
302.024204
 21
699.613558
  0
LINE
  5
5A5
100
AcDbEntity
  8
M0
 62
     5
100
AcDbLine
 10
299.834217
 20
700.813509
 11
301.10271
 21
700.813509
  0
LINE
  5
5A6
100
AcDbEntity
  8
M0
 62
     5
100
AcDbLine
 10
299.834156
 20
704.613314
 11
301.102298
 21
704.613314
  0
LINE
  5
5A7
100
AcDbEntity
  8
M0
 62
     5
100
AcDbLine
 10
305.745731
 20
700.813509
 11
307.01427
 21
700.813509
  0
LINE
  5
5A8
100
AcDbEntity
  8
M0
 62
     5
100
AcDbLine
 10
305.746143
 20
704.613314
 11
307.014179
 21
704.613314
  0
LINE
  5
5A9
100
AcDbEntity
  8
M0
 62
     5
100
AcDbLine
 10
304.824207
 20
699.613558
 11
304.824207
 21
700.060335
  0
LINE
  5
5AA
100
AcDbEntity
  8
M0
 62
     5
100
AcDbLine
 10
302.024204
 20
699.613558
 11
302.024204
 21
700.060335
  0
LINE
  5
5AB
100
AcDbEntity
  8
M0
 62
     5
100
AcDbLine
 10
302.024204
 20
705.813509
 11
302.024204
 21
705.366732
  0
LINE
  5
5AC
100
AcDbEntity
  8
M0
 62
     5
100
AcDbLine
 10
304.824207
 20
705.813509
 11
304.824207
 21
705.366732
  0
LINE
  5
5AD
100
AcDbEntity
  8
M0
 62
     5
100
AcDbLine
 10
304.824207
 20
699.613558
 11
306.644291
 21
699.613558
  0
LINE
  5
5AE
100
AcDbEntity
  8
M0
 62
     5
100
AcDbLine
 10
304.824207
 20
705.813509
 11
306.644092
 21
705.813509
  0
CIRCLE
  5
5AF
100
AcDbEntity
  8
M0
 62
     5
100
AcDbCircle
 10
303.424228
 20
702.713656
 40
3.0
  0
LINE
  5
5B0
100
AcDbEntity
  8
M0
 62
     5
100
AcDbLine
 10
304.414173
 20
701.01639
 11
305.12128
 21
701.723665
  0
LINE
  5
5B1
100
AcDbEntity
  8
M0
 62
     5
100
AcDbLine
 10
305.12128
 20
701.723665
 11
304.131321
 21
702.713412
  0
LINE
  5
5B2
100
AcDbEntity
  8
M0
 62
     5
100
AcDbLine
 10
302.434269
 20
704.410677
 11
301.727176
 21
703.703402
  0
LINE
  5
5B3
100
AcDbEntity
  8
M0
 62
     5
100
AcDbLine
 10
301.727176
 20
703.703402
 11
302.717121
 21
702.713656
  0
LINE
  5
5B4
100
AcDbEntity
  8
M0
 62
     5
100
AcDbLine
 10
300.979007
 20
700.975374
 11
302.717121
 21
702.713656
  0
LINE
  5
5B5
100
AcDbEntity
  8
M0
 62
     5
100
AcDbLine
 10
301.686115
 20
700.268343
 11
303.424213
 21
702.00638
  0
LINE
  5
5B6
100
AcDbEntity
  8
M0
 62
     5
100
AcDbLine
 10
305.869419
 20
704.451693
 11
304.131321
 21
702.713412
  0
LINE
  5
5B7
100
AcDbEntity
  8
M0
 62
     5
100
AcDbLine
 10
305.162311
 20
705.158724
 11
303.424228
 21
703.420687
  0
LINE
  5
5B8
100
AcDbEntity
  8
M0
 62
     5
100
AcDbLine
 10
304.414173
 20
701.01639
 11
303.424213
 21
702.00638
  0
LINE
  5
5B9
100
AcDbEntity
  8
M0
 62
     5
100
AcDbLine
 10
302.434269
 20
704.410677
 11
303.424228
 21
703.420687
  0
LINE
  5
5BA
100
AcDbEntity
  8
M0
 62
     5
100
AcDbLine
 10
310.943211
 20
698.413607
 11
315.905232
 21
698.413607
  0
LINE
  5
5BB
100
AcDbEntity
  8
M0
 62
     5
100
AcDbLine
 10
317.199193
 20
701.413119
 11
317.199193
 21
704.013216
  0
LINE
  5
5BC
100
AcDbEntity
  8
M0
 62
     5
100
AcDbLine
 10
315.90508
 20
707.013216
 11
310.943211
 21
707.013216
  0
LINE
  5
5BD
100
AcDbEntity
  8
M0
 62
     5
100
AcDbLine
 10
309.64919
 20
704.01346
 11
309.64919
 21
701.413607
  0
LINE
  5
5BE
100
AcDbEntity
  8
M0
 62
     5
100
AcDbLine
 10
309.64919
 20
701.413607
 11
310.465443
 21
698.766146
  0
LINE
  5
5BF
100
AcDbEntity
  8
M0
 62
     5
100
AcDbLine
 10
309.64919
 20
704.01346
 11
310.465306
 21
706.660189
  0
LINE
  5
5C0
100
AcDbEntity
  8
M0
 62
     5
100
AcDbLine
 10
317.199208
 20
701.413363
 11
316.383015
 21
698.766146
  0
LINE
  5
5C1
100
AcDbEntity
  8
M0
 62
     5
100
AcDbLine
 10
317.199208
 20
704.013216
 11
316.383
 21
706.660189
  0
ARC
  5
5C2
100
AcDbEntity
  8
M0
 62
     5
100
AcDbCircle
 10
310.943211
 20
698.913607
 40
0.5
100
AcDbArc
 50
197.15252
 51
270.0
  0
ARC
  5
5C3
100
AcDbEntity
  8
M0
 62
     5
100
AcDbCircle
 10
315.905232
 20
698.913607
 40
0.5
100
AcDbArc
 50
270.0
 51
342.84793
  0
ARC
  5
5C4
100
AcDbEntity
  8
M0
 62
     5
100
AcDbCircle
 10
315.90508
 20
706.512972
 40
0.5
100
AcDbArc
 50
17.120719
 51
90.0
  0
ARC
  5
5C5
100
AcDbEntity
  8
M0
 62
     5
100
AcDbCircle
 10
310.943211
 20
706.512972
 40
0.5
100
AcDbArc
 50
90.0
 51
162.878799
  0
LINE
  5
5C6
100
AcDbEntity
  8
M0
 62
     5
100
AcDbLine
 10
310.204228
 20
705.813509
 11
312.02419
 21
705.813509
  0
LINE
  5
5C7
100
AcDbEntity
  8
M0
 62
     5
100
AcDbLine
 10
310.204167
 20
699.613558
 11
312.02419
 21
699.613558
  0
LINE
  5
5C8
100
AcDbEntity
  8
M0
 62
     5
100
AcDbLine
 10
309.834202
 20
700.813509
 11
311.102696
 21
700.813509
  0
LINE
  5
5C9
100
AcDbEntity
  8
M0
 62
     5
100
AcDbLine
 10
309.834141
 20
704.613314
 11
311.102284
 21
704.613314
  0
LINE
  5
5CA
100
AcDbEntity
  8
M0
 62
     5
100
AcDbLine
 10
315.745717
 20
700.813509
 11
317.014256
 21
700.813509
  0
LINE
  5
5CB
100
AcDbEntity
  8
M0
 62
     5
100
AcDbLine
 10
315.746129
 20
704.613314
 11
317.014165
 21
704.613314
  0
LINE
  5
5CC
100
AcDbEntity
  8
M0
 62
     5
100
AcDbLine
 10
314.824193
 20
699.613558
 11
314.824193
 21
700.060335
  0
LINE
  5
5CD
100
AcDbEntity
  8
M0
 62
     5
100
AcDbLine
 10
312.02419
 20
699.613558
 11
312.02419
 21
700.060335
  0
LINE
  5
5CE
100
AcDbEntity
  8
M0
 62
     5
100
AcDbLine
 10
312.02419
 20
705.813509
 11
312.02419
 21
705.366732
  0
LINE
  5
5CF
100
AcDbEntity
  8
M0
 62
     5
100
AcDbLine
 10
314.824193
 20
705.813509
 11
314.824193
 21
705.366732
  0
LINE
  5
5D0
100
AcDbEntity
  8
M0
 62
     5
100
AcDbLine
 10
314.824193
 20
699.613558
 11
316.644276
 21
699.613558
  0
LINE
  5
5D1
100
AcDbEntity
  8
M0
 62
     5
100
AcDbLine
 10
314.824193
 20
705.813509
 11
316.644078
 21
705.813509
  0
CIRCLE
  5
5D2
100
AcDbEntity
  8
M0
 62
     5
100
AcDbCircle
 10
313.424214
 20
702.713656
 40
3.0
  0
LINE
  5
5D3
100
AcDbEntity
  8
M0
 62
     5
100
AcDbLine
 10
314.414159
 20
701.01639
 11
315.121266
 21
701.723665
  0
LINE
  5
5D4
100
AcDbEntity
  8
M0
 62
     5
100
AcDbLine
 10
315.121266
 20
701.723665
 11
314.131306
 21
702.713412
  0
LINE
  5
5D5
100
AcDbEntity
  8
M0
 62
     5
100
AcDbLine
 10
312.434254
 20
704.410677
 11
311.727162
 21
703.703402
  0
LINE
  5
5D6
100
AcDbEntity
  8
M0
 62
     5
100
AcDbLine
 10
311.727162
 20
703.703402
 11
312.717107
 21
702.713656
  0
LINE
  5
5D7
100
AcDbEntity
  8
M0
 62
     5
100
AcDbLine
 10
310.978993
 20
700.975374
 11
312.717107
 21
702.713656
  0
LINE
  5
5D8
100
AcDbEntity
  8
M0
 62
     5
100
AcDbLine
 10
311.686101
 20
700.268343
 11
313.424199
 21
702.00638
  0
LINE
  5
5D9
100
AcDbEntity
  8
M0
 62
     5
100
AcDbLine
 10
315.869404
 20
704.451693
 11
314.131306
 21
702.713412
  0
LINE
  5
5DA
100
AcDbEntity
  8
M0
 62
     5
100
AcDbLine
 10
315.162297
 20
705.158724
 11
313.424214
 21
703.420687
  0
LINE
  5
5DB
100
AcDbEntity
  8
M0
 62
     5
100
AcDbLine
 10
314.414159
 20
701.01639
 11
313.424199
 21
702.00638
  0
LINE
  5
5DC
100
AcDbEntity
  8
M0
 62
     5
100
AcDbLine
 10
312.434254
 20
704.410677
 11
313.424214
 21
703.420687
  0
LINE
  5
5DD
100
AcDbEntity
  8
M0
 62
     5
100
AcDbLine
 10
310.943211
 20
738.413607
 11
315.905232
 21
738.413607
  0
LINE
  5
5DE
100
AcDbEntity
  8
M0
 62
     5
100
AcDbLine
 10
317.199193
 20
741.413119
 11
317.199193
 21
744.013216
  0
LINE
  5
5DF
100
AcDbEntity
  8
M0
 62
     5
100
AcDbLine
 10
315.90508
 20
747.013216
 11
310.943211
 21
747.013216
  0
LINE
  5
5E0
100
AcDbEntity
  8
M0
 62
     5
100
AcDbLine
 10
309.64919
 20
744.01346
 11
309.64919
 21
741.413607
  0
LINE
  5
5E1
100
AcDbEntity
  8
M0
 62
     5
100
AcDbLine
 10
309.64919
 20
741.413607
 11
310.465443
 21
738.766146
  0
LINE
  5
5E2
100
AcDbEntity
  8
M0
 62
     5
100
AcDbLine
 10
309.64919
 20
744.01346
 11
310.465306
 21
746.660189
  0
LINE
  5
5E3
100
AcDbEntity
  8
M0
 62
     5
100
AcDbLine
 10
317.199208
 20
741.413363
 11
316.383015
 21
738.766146
  0
LINE
  5
5E4
100
AcDbEntity
  8
M0
 62
     5
100
AcDbLine
 10
317.199208
 20
744.013216
 11
316.383
 21
746.660189
  0
ARC
  5
5E5
100
AcDbEntity
  8
M0
 62
     5
100
AcDbCircle
 10
310.943211
 20
738.913607
 40
0.5
100
AcDbArc
 50
197.15252
 51
270.0
  0
ARC
  5
5E6
100
AcDbEntity
  8
M0
 62
     5
100
AcDbCircle
 10
315.905232
 20
738.913607
 40
0.5
100
AcDbArc
 50
270.0
 51
342.84793
  0
ARC
  5
5E7
100
AcDbEntity
  8
M0
 62
     5
100
AcDbCircle
 10
315.90508
 20
746.512972
 40
0.5
100
AcDbArc
 50
17.120719
 51
90.0
  0
ARC
  5
5E8
100
AcDbEntity
  8
M0
 62
     5
100
AcDbCircle
 10
310.943211
 20
746.512972
 40
0.5
100
AcDbArc
 50
90.0
 51
162.878799
  0
LINE
  5
5E9
100
AcDbEntity
  8
M0
 62
     5
100
AcDbLine
 10
310.204228
 20
745.813509
 11
312.02419
 21
745.813509
  0
LINE
  5
5EA
100
AcDbEntity
  8
M0
 62
     5
100
AcDbLine
 10
310.204167
 20
739.613558
 11
312.02419
 21
739.613558
  0
LINE
  5
5EB
100
AcDbEntity
  8
M0
 62
     5
100
AcDbLine
 10
309.834202
 20
740.813509
 11
311.102696
 21
740.813509
  0
LINE
  5
5EC
100
AcDbEntity
  8
M0
 62
     5
100
AcDbLine
 10
309.834141
 20
744.613314
 11
311.102284
 21
744.613314
  0
LINE
  5
5ED
100
AcDbEntity
  8
M0
 62
     5
100
AcDbLine
 10
315.745717
 20
740.813509
 11
317.014256
 21
740.813509
  0
LINE
  5
5EE
100
AcDbEntity
  8
M0
 62
     5
100
AcDbLine
 10
315.746129
 20
744.613314
 11
317.014165
 21
744.613314
  0
LINE
  5
5EF
100
AcDbEntity
  8
M0
 62
     5
100
AcDbLine
 10
314.824193
 20
739.613558
 11
314.824193
 21
740.060335
  0
LINE
  5
5F0
100
AcDbEntity
  8
M0
 62
     5
100
AcDbLine
 10
312.02419
 20
739.613558
 11
312.02419
 21
740.060335
  0
LINE
  5
5F1
100
AcDbEntity
  8
M0
 62
     5
100
AcDbLine
 10
312.02419
 20
745.813509
 11
312.02419
 21
745.366732
  0
LINE
  5
5F2
100
AcDbEntity
  8
M0
 62
     5
100
AcDbLine
 10
314.824193
 20
745.813509
 11
314.824193
 21
745.366732
  0
LINE
  5
5F3
100
AcDbEntity
  8
M0
 62
     5
100
AcDbLine
 10
314.824193
 20
739.613558
 11
316.644276
 21
739.613558
  0
LINE
  5
5F4
100
AcDbEntity
  8
M0
 62
     5
100
AcDbLine
 10
314.824193
 20
745.813509
 11
316.644078
 21
745.813509
  0
CIRCLE
  5
5F5
100
AcDbEntity
  8
M0
 62
     5
100
AcDbCircle
 10
313.424214
 20
742.713656
 40
3.0
  0
LINE
  5
5F6
100
AcDbEntity
  8
M0
 62
     5
100
AcDbLine
 10
314.414159
 20
741.01639
 11
315.121266
 21
741.723665
  0
LINE
  5
5F7
100
AcDbEntity
  8
M0
 62
     5
100
AcDbLine
 10
315.121266
 20
741.723665
 11
314.131306
 21
742.713412
  0
LINE
  5
5F8
100
AcDbEntity
  8
M0
 62
     5
100
AcDbLine
 10
312.434254
 20
744.410677
 11
311.727162
 21
743.703402
  0
LINE
  5
5F9
100
AcDbEntity
  8
M0
 62
     5
100
AcDbLine
 10
311.727162
 20
743.703402
 11
312.717107
 21
742.713656
  0
LINE
  5
5FA
100
AcDbEntity
  8
M0
 62
     5
100
AcDbLine
 10
310.978993
 20
740.975374
 11
312.717107
 21
742.713656
  0
LINE
  5
5FB
100
AcDbEntity
  8
M0
 62
     5
100
AcDbLine
 10
311.686101
 20
740.268343
 11
313.424199
 21
742.00638
  0
LINE
  5
5FC
100
AcDbEntity
  8
M0
 62
     5
100
AcDbLine
 10
315.869404
 20
744.451693
 11
314.131306
 21
742.713412
  0
LINE
  5
5FD
100
AcDbEntity
  8
M0
 62
     5
100
AcDbLine
 10
315.162297
 20
745.158724
 11
313.424214
 21
743.420687
  0
LINE
  5
5FE
100
AcDbEntity
  8
M0
 62
     5
100
AcDbLine
 10
314.414159
 20
741.01639
 11
313.424199
 21
742.00638
  0
LINE
  5
5FF
100
AcDbEntity
  8
M0
 62
     5
100
AcDbLine
 10
312.434254
 20
744.410677
 11
313.424214
 21
743.420687
  0
LINE
  5
600
100
AcDbEntity
  8
M0
 62
     5
100
AcDbLine
 10
300.943226
 20
738.413607
 11
305.905246
 21
738.413607
  0
LINE
  5
601
100
AcDbEntity
  8
M0
 62
     5
100
AcDbLine
 10
307.199207
 20
741.413119
 11
307.199207
 21
744.013216
  0
LINE
  5
602
100
AcDbEntity
  8
M0
 62
     5
100
AcDbLine
 10
305.905094
 20
747.013216
 11
300.943226
 21
747.013216
  0
LINE
  5
603
100
AcDbEntity
  8
M0
 62
     5
100
AcDbLine
 10
299.649204
 20
744.01346
 11
299.649204
 21
741.413607
  0
LINE
  5
604
100
AcDbEntity
  8
M0
 62
     5
100
AcDbLine
 10
299.649204
 20
741.413607
 11
300.465458
 21
738.766146
  0
LINE
  5
605
100
AcDbEntity
  8
M0
 62
     5
100
AcDbLine
 10
299.649204
 20
744.01346
 11
300.46532
 21
746.660189
  0
LINE
  5
606
100
AcDbEntity
  8
M0
 62
     5
100
AcDbLine
 10
307.199222
 20
741.413363
 11
306.38303
 21
738.766146
  0
LINE
  5
607
100
AcDbEntity
  8
M0
 62
     5
100
AcDbLine
 10
307.199222
 20
744.013216
 11
306.383014
 21
746.660189
  0
ARC
  5
608
100
AcDbEntity
  8
M0
 62
     5
100
AcDbCircle
 10
300.943226
 20
738.913607
 40
0.5
100
AcDbArc
 50
197.15252
 51
270.0
  0
ARC
  5
609
100
AcDbEntity
  8
M0
 62
     5
100
AcDbCircle
 10
305.905246
 20
738.913607
 40
0.5
100
AcDbArc
 50
270.0
 51
342.84793
  0
ARC
  5
60A
100
AcDbEntity
  8
M0
 62
     5
100
AcDbCircle
 10
305.905094
 20
746.512972
 40
0.5
100
AcDbArc
 50
17.120719
 51
90.0
  0
ARC
  5
60B
100
AcDbEntity
  8
M0
 62
     5
100
AcDbCircle
 10
300.943226
 20
746.512972
 40
0.5
100
AcDbArc
 50
90.0
 51
162.878799
  0
LINE
  5
60C
100
AcDbEntity
  8
M0
 62
     5
100
AcDbLine
 10
300.204242
 20
745.813509
 11
302.024204
 21
745.813509
  0
LINE
  5
60D
100
AcDbEntity
  8
M0
 62
     5
100
AcDbLine
 10
300.204181
 20
739.613558
 11
302.024204
 21
739.613558
  0
LINE
  5
60E
100
AcDbEntity
  8
M0
 62
     5
100
AcDbLine
 10
299.834217
 20
740.813509
 11
301.10271
 21
740.813509
  0
LINE
  5
60F
100
AcDbEntity
  8
M0
 62
     5
100
AcDbLine
 10
299.834156
 20
744.613314
 11
301.102298
 21
744.613314
  0
LINE
  5
610
100
AcDbEntity
  8
M0
 62
     5
100
AcDbLine
 10
305.745731
 20
740.813509
 11
307.01427
 21
740.813509
  0
LINE
  5
611
100
AcDbEntity
  8
M0
 62
     5
100
AcDbLine
 10
305.746143
 20
744.613314
 11
307.014179
 21
744.613314
  0
LINE
  5
612
100
AcDbEntity
  8
M0
 62
     5
100
AcDbLine
 10
304.824207
 20
739.613558
 11
304.824207
 21
740.060335
  0
LINE
  5
613
100
AcDbEntity
  8
M0
 62
     5
100
AcDbLine
 10
302.024204
 20
739.613558
 11
302.024204
 21
740.060335
  0
LINE
  5
614
100
AcDbEntity
  8
M0
 62
     5
100
AcDbLine
 10
302.024204
 20
745.813509
 11
302.024204
 21
745.366732
  0
LINE
  5
615
100
AcDbEntity
  8
M0
 62
     5
100
AcDbLine
 10
304.824207
 20
745.813509
 11
304.824207
 21
745.366732
  0
LINE
  5
616
100
AcDbEntity
  8
M0
 62
     5
100
AcDbLine
 10
304.824207
 20
739.613558
 11
306.644291
 21
739.613558
  0
LINE
  5
617
100
AcDbEntity
  8
M0
 62
     5
100
AcDbLine
 10
304.824207
 20
745.813509
 11
306.644092
 21
745.813509
  0
CIRCLE
  5
618
100
AcDbEntity
  8
M0
 62
     5
100
AcDbCircle
 10
303.424228
 20
742.713656
 40
3.0
  0
LINE
  5
619
100
AcDbEntity
  8
M0
 62
     5
100
AcDbLine
 10
304.414173
 20
741.01639
 11
305.12128
 21
741.723665
  0
LINE
  5
61A
100
AcDbEntity
  8
M0
 62
     5
100
AcDbLine
 10
305.12128
 20
741.723665
 11
304.131321
 21
742.713412
  0
LINE
  5
61B
100
AcDbEntity
  8
M0
 62
     5
100
AcDbLine
 10
302.434269
 20
744.410677
 11
301.727176
 21
743.703402
  0
LINE
  5
61C
100
AcDbEntity
  8
M0
 62
     5
100
AcDbLine
 10
301.727176
 20
743.703402
 11
302.717121
 21
742.713656
  0
LINE
  5
61D
100
AcDbEntity
  8
M0
 62
     5
100
AcDbLine
 10
300.979007
 20
740.975374
 11
302.717121
 21
742.713656
  0
LINE
  5
61E
100
AcDbEntity
  8
M0
 62
     5
100
AcDbLine
 10
301.686115
 20
740.268343
 11
303.424213
 21
742.00638
  0
LINE
  5
61F
100
AcDbEntity
  8
M0
 62
     5
100
AcDbLine
 10
305.869419
 20
744.451693
 11
304.131321
 21
742.713412
  0
LINE
  5
620
100
AcDbEntity
  8
M0
 62
     5
100
AcDbLine
 10
305.162311
 20
745.158724
 11
303.424228
 21
743.420687
  0
LINE
  5
621
100
AcDbEntity
  8
M0
 62
     5
100
AcDbLine
 10
304.414173
 20
741.01639
 11
303.424213
 21
742.00638
  0
LINE
  5
622
100
AcDbEntity
  8
M0
 62
     5
100
AcDbLine
 10
302.434269
 20
744.410677
 11
303.424228
 21
743.420687
  0
LINE
  5
623
100
AcDbEntity
  8
M0
 62
     5
100
AcDbLine
 10
290.943226
 20
738.413607
 11
295.905246
 21
738.413607
  0
LINE
  5
624
100
AcDbEntity
  8
M0
 62
     5
100
AcDbLine
 10
297.199207
 20
741.413119
 11
297.199207
 21
744.013216
  0
LINE
  5
625
100
AcDbEntity
  8
M0
 62
     5
100
AcDbLine
 10
295.905094
 20
747.013216
 11
290.943226
 21
747.013216
  0
LINE
  5
626
100
AcDbEntity
  8
M0
 62
     5
100
AcDbLine
 10
289.649204
 20
744.01346
 11
289.649204
 21
741.413607
  0
LINE
  5
627
100
AcDbEntity
  8
M0
 62
     5
100
AcDbLine
 10
289.649204
 20
741.413607
 11
290.465458
 21
738.766146
  0
LINE
  5
628
100
AcDbEntity
  8
M0
 62
     5
100
AcDbLine
 10
289.649204
 20
744.01346
 11
290.46532
 21
746.660189
  0
LINE
  5
629
100
AcDbEntity
  8
M0
 62
     5
100
AcDbLine
 10
297.199222
 20
741.413363
 11
296.38303
 21
738.766146
  0
LINE
  5
62A
100
AcDbEntity
  8
M0
 62
     5
100
AcDbLine
 10
297.199222
 20
744.013216
 11
296.383014
 21
746.660189
  0
ARC
  5
62B
100
AcDbEntity
  8
M0
 62
     5
100
AcDbCircle
 10
290.943226
 20
738.913607
 40
0.5
100
AcDbArc
 50
197.15252
 51
270.0
  0
ARC
  5
62C
100
AcDbEntity
  8
M0
 62
     5
100
AcDbCircle
 10
295.905246
 20
738.913607
 40
0.5
100
AcDbArc
 50
270.0
 51
342.84793
  0
ARC
  5
62D
100
AcDbEntity
  8
M0
 62
     5
100
AcDbCircle
 10
295.905094
 20
746.512972
 40
0.5
100
AcDbArc
 50
17.120719
 51
90.0
  0
ARC
  5
62E
100
AcDbEntity
  8
M0
 62
     5
100
AcDbCircle
 10
290.943226
 20
746.512972
 40
0.5
100
AcDbArc
 50
90.0
 51
162.878799
  0
LINE
  5
62F
100
AcDbEntity
  8
M0
 62
     5
100
AcDbLine
 10
290.204242
 20
745.813509
 11
292.024204
 21
745.813509
  0
LINE
  5
630
100
AcDbEntity
  8
M0
 62
     5
100
AcDbLine
 10
290.204181
 20
739.613558
 11
292.024204
 21
739.613558
  0
LINE
  5
631
100
AcDbEntity
  8
M0
 62
     5
100
AcDbLine
 10
289.834217
 20
740.813509
 11
291.10271
 21
740.813509
  0
LINE
  5
632
100
AcDbEntity
  8
M0
 62
     5
100
AcDbLine
 10
289.834156
 20
744.613314
 11
291.102298
 21
744.613314
  0
LINE
  5
633
100
AcDbEntity
  8
M0
 62
     5
100
AcDbLine
 10
295.745731
 20
740.813509
 11
297.01427
 21
740.813509
  0
LINE
  5
634
100
AcDbEntity
  8
M0
 62
     5
100
AcDbLine
 10
295.746143
 20
744.613314
 11
297.014179
 21
744.613314
  0
LINE
  5
635
100
AcDbEntity
  8
M0
 62
     5
100
AcDbLine
 10
294.824207
 20
739.613558
 11
294.824207
 21
740.060335
  0
LINE
  5
636
100
AcDbEntity
  8
M0
 62
     5
100
AcDbLine
 10
292.024204
 20
739.613558
 11
292.024204
 21
740.060335
  0
LINE
  5
637
100
AcDbEntity
  8
M0
 62
     5
100
AcDbLine
 10
292.024204
 20
745.813509
 11
292.024204
 21
745.366732
  0
LINE
  5
638
100
AcDbEntity
  8
M0
 62
     5
100
AcDbLine
 10
294.824207
 20
745.813509
 11
294.824207
 21
745.366732
  0
LINE
  5
639
100
AcDbEntity
  8
M0
 62
     5
100
AcDbLine
 10
294.824207
 20
739.613558
 11
296.644291
 21
739.613558
  0
LINE
  5
63A
100
AcDbEntity
  8
M0
 62
     5
100
AcDbLine
 10
294.824207
 20
745.813509
 11
296.644092
 21
745.813509
  0
CIRCLE
  5
63B
100
AcDbEntity
  8
M0
 62
     5
100
AcDbCircle
 10
293.424228
 20
742.713656
 40
3.0
  0
LINE
  5
63C
100
AcDbEntity
  8
M0
 62
     5
100
AcDbLine
 10
294.414173
 20
741.01639
 11
295.12128
 21
741.723665
  0
LINE
  5
63D
100
AcDbEntity
  8
M0
 62
     5
100
AcDbLine
 10
295.12128
 20
741.723665
 11
294.131321
 21
742.713412
  0
LINE
  5
63E
100
AcDbEntity
  8
M0
 62
     5
100
AcDbLine
 10
292.434269
 20
744.410677
 11
291.727176
 21
743.703402
  0
LINE
  5
63F
100
AcDbEntity
  8
M0
 62
     5
100
AcDbLine
 10
291.727176
 20
743.703402
 11
292.717121
 21
742.713656
  0
LINE
  5
640
100
AcDbEntity
  8
M0
 62
     5
100
AcDbLine
 10
290.979007
 20
740.975374
 11
292.717121
 21
742.713656
  0
LINE
  5
641
100
AcDbEntity
  8
M0
 62
     5
100
AcDbLine
 10
291.686115
 20
740.268343
 11
293.424213
 21
742.00638
  0
LINE
  5
642
100
AcDbEntity
  8
M0
 62
     5
100
AcDbLine
 10
295.869419
 20
744.451693
 11
294.131321
 21
742.713412
  0
LINE
  5
643
100
AcDbEntity
  8
M0
 62
     5
100
AcDbLine
 10
295.162311
 20
745.158724
 11
293.424228
 21
743.420687
  0
LINE
  5
644
100
AcDbEntity
  8
M0
 62
     5
100
AcDbLine
 10
294.414173
 20
741.01639
 11
293.424213
 21
742.00638
  0
LINE
  5
645
100
AcDbEntity
  8
M0
 62
     5
100
AcDbLine
 10
292.434269
 20
744.410677
 11
293.424228
 21
743.420687
  0
LINE
  5
646
100
AcDbEntity
  8
M0
 62
     5
100
AcDbLine
 10
317.904988
 20
754.513216
 11
312.94312
 21
754.513216
  0
LINE
  5
647
100
AcDbEntity
  8
M0
 62
     5
100
AcDbLine
 10
311.649098
 20
751.51346
 11
311.649098
 21
748.913607
  0
LINE
  5
648
100
AcDbEntity
  8
M0
 62
     5
100
AcDbLine
 10
311.649098
 20
748.913607
 11
312.111424
 21
747.414085
  0
LINE
  5
649
100
AcDbEntity
  8
M0
 62
     5
100
AcDbLine
 10
311.649098
 20
751.51346
 11
312.465214
 21
754.160189
  0
LINE
  5
64A
100
AcDbEntity
  8
M0
 62
     5
100
AcDbLine
 10
318.924092
 20
752.405124
 11
318.382909
 21
754.160189
  0
ARC
  5
64B
100
AcDbEntity
  8
M0
 62
     5
100
AcDbCircle
 10
317.904988
 20
754.012972
 40
0.5
100
AcDbArc
 50
17.120719
 51
90.0
  0
ARC
  5
64C
100
AcDbEntity
  8
M0
 62
     5
100
AcDbCircle
 10
312.94312
 20
754.012972
 40
0.5
100
AcDbArc
 50
90.0
 51
162.878799
  0
LINE
  5
64D
100
AcDbEntity
  8
M0
 62
     5
100
AcDbLine
 10
312.204137
 20
753.313509
 11
314.024098
 21
753.313509
  0
LINE
  5
64E
100
AcDbEntity
  8
M0
 62
     5
100
AcDbLine
 10
311.834111
 20
748.313509
 11
313.102605
 21
748.313509
  0
LINE
  5
64F
100
AcDbEntity
  8
M0
 62
     5
100
AcDbLine
 10
311.83405
 20
752.113314
 11
313.102193
 21
752.113314
  0
LINE
  5
650
100
AcDbEntity
  8
M0
 62
     5
100
AcDbLine
 10
317.746037
 20
752.113314
 11
319.014073
 21
752.113314
  0
LINE
  5
651
100
AcDbEntity
  8
M0
 62
     5
100
AcDbLine
 10
316.824101
 20
747.414094
 11
316.824101
 21
747.560335
  0
LINE
  5
652
100
AcDbEntity
  8
M0
 62
     5
100
AcDbLine
 10
314.024098
 20
747.414089
 11
314.024098
 21
747.560335
  0
LINE
  5
653
100
AcDbEntity
  8
M0
 62
     5
100
AcDbLine
 10
314.024098
 20
753.313509
 11
314.024098
 21
752.866732
  0
LINE
  5
654
100
AcDbEntity
  8
M0
 62
     5
100
AcDbLine
 10
316.824101
 20
753.313509
 11
316.824101
 21
752.866732
  0
LINE
  5
655
100
AcDbEntity
  8
M0
 62
     5
100
AcDbLine
 10
316.824101
 20
753.313509
 11
318.643986
 21
753.313509
  0
CIRCLE
  5
656
100
AcDbEntity
  8
M0
 62
     5
100
AcDbCircle
 10
315.424123
 20
750.213656
 40
3.0
  0
LINE
  5
657
100
AcDbEntity
  8
M0
 62
     5
100
AcDbLine
 10
316.414067
 20
748.51639
 11
317.121175
 21
749.223665
  0
LINE
  5
658
100
AcDbEntity
  8
M0
 62
     5
100
AcDbLine
 10
317.121175
 20
749.223665
 11
316.131215
 21
750.213412
  0
LINE
  5
659
100
AcDbEntity
  8
M0
 62
     5
100
AcDbLine
 10
314.434163
 20
751.910677
 11
313.727071
 21
751.203402
  0
LINE
  5
65A
100
AcDbEntity
  8
M0
 62
     5
100
AcDbLine
 10
313.727071
 20
751.203402
 11
314.717015
 21
750.213656
  0
LINE
  5
65B
100
AcDbEntity
  8
M0
 62
     5
100
AcDbLine
 10
312.978902
 20
748.475374
 11
314.717015
 21
750.213656
  0
LINE
  5
65C
100
AcDbEntity
  8
M0
 62
     5
100
AcDbLine
 10
313.686009
 20
747.768343
 11
315.424107
 21
749.50638
  0
LINE
  5
65D
100
AcDbEntity
  8
M0
 62
     5
100
AcDbLine
 10
317.869313
 20
751.951693
 11
316.131215
 21
750.213412
  0
LINE
  5
65E
100
AcDbEntity
  8
M0
 62
     5
100
AcDbLine
 10
317.162205
 20
752.658724
 11
315.424123
 21
750.920687
  0
LINE
  5
65F
100
AcDbEntity
  8
M0
 62
     5
100
AcDbLine
 10
316.414067
 20
748.51639
 11
315.424107
 21
749.50638
  0
LINE
  5
660
100
AcDbEntity
  8
M0
 62
     5
100
AcDbLine
 10
314.434163
 20
751.910677
 11
315.424123
 21
750.920687
  0
LINE
  5
661
100
AcDbEntity
  8
M0
 62
     5
100
AcDbLine
 10
184.943226
 20
698.413607
 11
189.905246
 21
698.413607
  0
LINE
  5
662
100
AcDbEntity
  8
M0
 62
     5
100
AcDbLine
 10
191.199207
 20
701.413119
 11
191.199207
 21
704.013216
  0
LINE
  5
663
100
AcDbEntity
  8
M0
 62
     5
100
AcDbLine
 10
189.905094
 20
707.013216
 11
184.943226
 21
707.013216
  0
LINE
  5
664
100
AcDbEntity
  8
M0
 62
     5
100
AcDbLine
 10
183.649204
 20
704.01346
 11
183.649204
 21
701.413607
  0
LINE
  5
665
100
AcDbEntity
  8
M0
 62
     5
100
AcDbLine
 10
183.649204
 20
701.413607
 11
184.465458
 21
698.766146
  0
LINE
  5
666
100
AcDbEntity
  8
M0
 62
     5
100
AcDbLine
 10
183.649204
 20
704.01346
 11
184.46532
 21
706.660189
  0
LINE
  5
667
100
AcDbEntity
  8
M0
 62
     5
100
AcDbLine
 10
191.199222
 20
701.413363
 11
190.38303
 21
698.766146
  0
LINE
  5
668
100
AcDbEntity
  8
M0
 62
     5
100
AcDbLine
 10
191.199222
 20
704.013216
 11
190.383014
 21
706.660189
  0
ARC
  5
669
100
AcDbEntity
  8
M0
 62
     5
100
AcDbCircle
 10
184.943226
 20
698.913607
 40
0.5
100
AcDbArc
 50
197.15252
 51
270.0
  0
ARC
  5
66A
100
AcDbEntity
  8
M0
 62
     5
100
AcDbCircle
 10
189.905246
 20
698.913607
 40
0.5
100
AcDbArc
 50
270.0
 51
342.84793
  0
ARC
  5
66B
100
AcDbEntity
  8
M0
 62
     5
100
AcDbCircle
 10
189.905094
 20
706.512972
 40
0.5
100
AcDbArc
 50
17.120719
 51
90.0
  0
ARC
  5
66C
100
AcDbEntity
  8
M0
 62
     5
100
AcDbCircle
 10
184.943226
 20
706.512972
 40
0.5
100
AcDbArc
 50
90.0
 51
162.878799
  0
LINE
  5
66D
100
AcDbEntity
  8
M0
 62
     5
100
AcDbLine
 10
184.204242
 20
705.813509
 11
186.024204
 21
705.813509
  0
LINE
  5
66E
100
AcDbEntity
  8
M0
 62
     5
100
AcDbLine
 10
184.204181
 20
699.613558
 11
186.024204
 21
699.613558
  0
LINE
  5
66F
100
AcDbEntity
  8
M0
 62
     5
100
AcDbLine
 10
183.834217
 20
700.813509
 11
185.10271
 21
700.813509
  0
LINE
  5
670
100
AcDbEntity
  8
M0
 62
     5
100
AcDbLine
 10
183.834156
 20
704.613314
 11
185.102298
 21
704.613314
  0
LINE
  5
671
100
AcDbEntity
  8
M0
 62
     5
100
AcDbLine
 10
189.745731
 20
700.813509
 11
191.01427
 21
700.813509
  0
LINE
  5
672
100
AcDbEntity
  8
M0
 62
     5
100
AcDbLine
 10
189.746143
 20
704.613314
 11
191.014179
 21
704.613314
  0
LINE
  5
673
100
AcDbEntity
  8
M0
 62
     5
100
AcDbLine
 10
188.824207
 20
699.613558
 11
188.824207
 21
700.060335
  0
LINE
  5
674
100
AcDbEntity
  8
M0
 62
     5
100
AcDbLine
 10
186.024204
 20
699.613558
 11
186.024204
 21
700.060335
  0
LINE
  5
675
100
AcDbEntity
  8
M0
 62
     5
100
AcDbLine
 10
186.024204
 20
705.813509
 11
186.024204
 21
705.366732
  0
LINE
  5
676
100
AcDbEntity
  8
M0
 62
     5
100
AcDbLine
 10
188.824207
 20
705.813509
 11
188.824207
 21
705.366732
  0
LINE
  5
677
100
AcDbEntity
  8
M0
 62
     5
100
AcDbLine
 10
188.824207
 20
699.613558
 11
190.644291
 21
699.613558
  0
LINE
  5
678
100
AcDbEntity
  8
M0
 62
     5
100
AcDbLine
 10
188.824207
 20
705.813509
 11
190.644092
 21
705.813509
  0
CIRCLE
  5
679
100
AcDbEntity
  8
M0
 62
     5
100
AcDbCircle
 10
187.424228
 20
702.713656
 40
3.0
  0
LINE
  5
67A
100
AcDbEntity
  8
M0
 62
     5
100
AcDbLine
 10
188.414173
 20
701.01639
 11
189.12128
 21
701.723665
  0
LINE
  5
67B
100
AcDbEntity
  8
M0
 62
     5
100
AcDbLine
 10
189.12128
 20
701.723665
 11
188.131321
 21
702.713412
  0
LINE
  5
67C
100
AcDbEntity
  8
M0
 62
     5
100
AcDbLine
 10
186.434269
 20
704.410677
 11
185.727176
 21
703.703402
  0
LINE
  5
67D
100
AcDbEntity
  8
M0
 62
     5
100
AcDbLine
 10
185.727176
 20
703.703402
 11
186.717121
 21
702.713656
  0
LINE
  5
67E
100
AcDbEntity
  8
M0
 62
     5
100
AcDbLine
 10
184.979007
 20
700.975374
 11
186.717121
 21
702.713656
  0
LINE
  5
67F
100
AcDbEntity
  8
M0
 62
     5
100
AcDbLine
 10
185.686115
 20
700.268343
 11
187.424213
 21
702.00638
  0
LINE
  5
680
100
AcDbEntity
  8
M0
 62
     5
100
AcDbLine
 10
189.869419
 20
704.451693
 11
188.131321
 21
702.713412
  0
LINE
  5
681
100
AcDbEntity
  8
M0
 62
     5
100
AcDbLine
 10
189.162311
 20
705.158724
 11
187.424228
 21
703.420687
  0
LINE
  5
682
100
AcDbEntity
  8
M0
 62
     5
100
AcDbLine
 10
188.414173
 20
701.01639
 11
187.424213
 21
702.00638
  0
LINE
  5
683
100
AcDbEntity
  8
M0
 62
     5
100
AcDbLine
 10
186.434269
 20
704.410677
 11
187.424228
 21
703.420687
  0
LINE
  5
684
100
AcDbEntity
  8
M0
 62
     5
100
AcDbLine
 10
194.943226
 20
698.413607
 11
199.905246
 21
698.413607
  0
LINE
  5
685
100
AcDbEntity
  8
M0
 62
     5
100
AcDbLine
 10
201.199207
 20
701.413119
 11
201.199207
 21
704.013216
  0
LINE
  5
686
100
AcDbEntity
  8
M0
 62
     5
100
AcDbLine
 10
199.905094
 20
707.013216
 11
194.943226
 21
707.013216
  0
LINE
  5
687
100
AcDbEntity
  8
M0
 62
     5
100
AcDbLine
 10
193.649204
 20
704.01346
 11
193.649204
 21
701.413607
  0
LINE
  5
688
100
AcDbEntity
  8
M0
 62
     5
100
AcDbLine
 10
193.649204
 20
701.413607
 11
194.465458
 21
698.766146
  0
LINE
  5
689
100
AcDbEntity
  8
M0
 62
     5
100
AcDbLine
 10
193.649204
 20
704.01346
 11
194.46532
 21
706.660189
  0
LINE
  5
68A
100
AcDbEntity
  8
M0
 62
     5
100
AcDbLine
 10
201.199222
 20
701.413363
 11
200.38303
 21
698.766146
  0
LINE
  5
68B
100
AcDbEntity
  8
M0
 62
     5
100
AcDbLine
 10
201.199222
 20
704.013216
 11
200.383014
 21
706.660189
  0
ARC
  5
68C
100
AcDbEntity
  8
M0
 62
     5
100
AcDbCircle
 10
194.943226
 20
698.913607
 40
0.5
100
AcDbArc
 50
197.15252
 51
270.0
  0
ARC
  5
68D
100
AcDbEntity
  8
M0
 62
     5
100
AcDbCircle
 10
199.905246
 20
698.913607
 40
0.5
100
AcDbArc
 50
270.0
 51
342.84793
  0
ARC
  5
68E
100
AcDbEntity
  8
M0
 62
     5
100
AcDbCircle
 10
199.905094
 20
706.512972
 40
0.5
100
AcDbArc
 50
17.120719
 51
90.0
  0
ARC
  5
68F
100
AcDbEntity
  8
M0
 62
     5
100
AcDbCircle
 10
194.943226
 20
706.512972
 40
0.5
100
AcDbArc
 50
90.0
 51
162.878799
  0
LINE
  5
690
100
AcDbEntity
  8
M0
 62
     5
100
AcDbLine
 10
194.204242
 20
705.813509
 11
196.024204
 21
705.813509
  0
LINE
  5
691
100
AcDbEntity
  8
M0
 62
     5
100
AcDbLine
 10
194.204181
 20
699.613558
 11
196.024204
 21
699.613558
  0
LINE
  5
692
100
AcDbEntity
  8
M0
 62
     5
100
AcDbLine
 10
193.834217
 20
700.813509
 11
195.10271
 21
700.813509
  0
LINE
  5
693
100
AcDbEntity
  8
M0
 62
     5
100
AcDbLine
 10
193.834156
 20
704.613314
 11
195.102298
 21
704.613314
  0
LINE
  5
694
100
AcDbEntity
  8
M0
 62
     5
100
AcDbLine
 10
199.745731
 20
700.813509
 11
201.01427
 21
700.813509
  0
LINE
  5
695
100
AcDbEntity
  8
M0
 62
     5
100
AcDbLine
 10
199.746143
 20
704.613314
 11
201.014179
 21
704.613314
  0
LINE
  5
696
100
AcDbEntity
  8
M0
 62
     5
100
AcDbLine
 10
198.824207
 20
699.613558
 11
198.824207
 21
700.060335
  0
LINE
  5
697
100
AcDbEntity
  8
M0
 62
     5
100
AcDbLine
 10
196.024204
 20
699.613558
 11
196.024204
 21
700.060335
  0
LINE
  5
698
100
AcDbEntity
  8
M0
 62
     5
100
AcDbLine
 10
196.024204
 20
705.813509
 11
196.024204
 21
705.366732
  0
LINE
  5
699
100
AcDbEntity
  8
M0
 62
     5
100
AcDbLine
 10
198.824207
 20
705.813509
 11
198.824207
 21
705.366732
  0
LINE
  5
69A
100
AcDbEntity
  8
M0
 62
     5
100
AcDbLine
 10
198.824207
 20
699.613558
 11
200.644291
 21
699.613558
  0
LINE
  5
69B
100
AcDbEntity
  8
M0
 62
     5
100
AcDbLine
 10
198.824207
 20
705.813509
 11
200.644092
 21
705.813509
  0
CIRCLE
  5
69C
100
AcDbEntity
  8
M0
 62
     5
100
AcDbCircle
 10
197.424228
 20
702.713656
 40
3.0
  0
LINE
  5
69D
100
AcDbEntity
  8
M0
 62
     5
100
AcDbLine
 10
198.414173
 20
701.01639
 11
199.12128
 21
701.723665
  0
LINE
  5
69E
100
AcDbEntity
  8
M0
 62
     5
100
AcDbLine
 10
199.12128
 20
701.723665
 11
198.131321
 21
702.713412
  0
LINE
  5
69F
100
AcDbEntity
  8
M0
 62
     5
100
AcDbLine
 10
196.434269
 20
704.410677
 11
195.727176
 21
703.703402
  0
LINE
  5
6A0
100
AcDbEntity
  8
M0
 62
     5
100
AcDbLine
 10
195.727176
 20
703.703402
 11
196.717121
 21
702.713656
  0
LINE
  5
6A1
100
AcDbEntity
  8
M0
 62
     5
100
AcDbLine
 10
194.979007
 20
700.975374
 11
196.717121
 21
702.713656
  0
LINE
  5
6A2
100
AcDbEntity
  8
M0
 62
     5
100
AcDbLine
 10
195.686115
 20
700.268343
 11
197.424213
 21
702.00638
  0
LINE
  5
6A3
100
AcDbEntity
  8
M0
 62
     5
100
AcDbLine
 10
199.869419
 20
704.451693
 11
198.131321
 21
702.713412
  0
LINE
  5
6A4
100
AcDbEntity
  8
M0
 62
     5
100
AcDbLine
 10
199.162311
 20
705.158724
 11
197.424228
 21
703.420687
  0
LINE
  5
6A5
100
AcDbEntity
  8
M0
 62
     5
100
AcDbLine
 10
198.414173
 20
701.01639
 11
197.424213
 21
702.00638
  0
LINE
  5
6A6
100
AcDbEntity
  8
M0
 62
     5
100
AcDbLine
 10
196.434269
 20
704.410677
 11
197.424228
 21
703.420687
  0
LINE
  5
6A7
100
AcDbEntity
  8
M0
 62
     5
100
AcDbLine
 10
204.943211
 20
698.413607
 11
209.905232
 21
698.413607
  0
LINE
  5
6A8
100
AcDbEntity
  8
M0
 62
     5
100
AcDbLine
 10
211.199193
 20
701.413119
 11
211.199193
 21
704.013216
  0
LINE
  5
6A9
100
AcDbEntity
  8
M0
 62
     5
100
AcDbLine
 10
209.90508
 20
707.013216
 11
204.943211
 21
707.013216
  0
LINE
  5
6AA
100
AcDbEntity
  8
M0
 62
     5
100
AcDbLine
 10
203.64919
 20
704.01346
 11
203.64919
 21
701.413607
  0
LINE
  5
6AB
100
AcDbEntity
  8
M0
 62
     5
100
AcDbLine
 10
203.64919
 20
701.413607
 11
204.465443
 21
698.766146
  0
LINE
  5
6AC
100
AcDbEntity
  8
M0
 62
     5
100
AcDbLine
 10
203.64919
 20
704.01346
 11
204.465306
 21
706.660189
  0
LINE
  5
6AD
100
AcDbEntity
  8
M0
 62
     5
100
AcDbLine
 10
211.199208
 20
701.413363
 11
210.383015
 21
698.766146
  0
LINE
  5
6AE
100
AcDbEntity
  8
M0
 62
     5
100
AcDbLine
 10
211.199208
 20
704.013216
 11
210.383
 21
706.660189
  0
ARC
  5
6AF
100
AcDbEntity
  8
M0
 62
     5
100
AcDbCircle
 10
204.943211
 20
698.913607
 40
0.5
100
AcDbArc
 50
197.15252
 51
270.0
  0
ARC
  5
6B0
100
AcDbEntity
  8
M0
 62
     5
100
AcDbCircle
 10
209.905232
 20
698.913607
 40
0.5
100
AcDbArc
 50
270.0
 51
342.84793
  0
ARC
  5
6B1
100
AcDbEntity
  8
M0
 62
     5
100
AcDbCircle
 10
209.90508
 20
706.512972
 40
0.5
100
AcDbArc
 50
17.120719
 51
90.0
  0
ARC
  5
6B2
100
AcDbEntity
  8
M0
 62
     5
100
AcDbCircle
 10
204.943211
 20
706.512972
 40
0.5
100
AcDbArc
 50
90.0
 51
162.878799
  0
LINE
  5
6B3
100
AcDbEntity
  8
M0
 62
     5
100
AcDbLine
 10
204.204228
 20
705.813509
 11
206.02419
 21
705.813509
  0
LINE
  5
6B4
100
AcDbEntity
  8
M0
 62
     5
100
AcDbLine
 10
204.204167
 20
699.613558
 11
206.02419
 21
699.613558
  0
LINE
  5
6B5
100
AcDbEntity
  8
M0
 62
     5
100
AcDbLine
 10
203.834202
 20
700.813509
 11
205.102696
 21
700.813509
  0
LINE
  5
6B6
100
AcDbEntity
  8
M0
 62
     5
100
AcDbLine
 10
203.834141
 20
704.613314
 11
205.102284
 21
704.613314
  0
LINE
  5
6B7
100
AcDbEntity
  8
M0
 62
     5
100
AcDbLine
 10
209.745717
 20
700.813509
 11
211.014256
 21
700.813509
  0
LINE
  5
6B8
100
AcDbEntity
  8
M0
 62
     5
100
AcDbLine
 10
209.746129
 20
704.613314
 11
211.014165
 21
704.613314
  0
LINE
  5
6B9
100
AcDbEntity
  8
M0
 62
     5
100
AcDbLine
 10
208.824193
 20
699.613558
 11
208.824193
 21
700.060335
  0
LINE
  5
6BA
100
AcDbEntity
  8
M0
 62
     5
100
AcDbLine
 10
206.02419
 20
699.613558
 11
206.02419
 21
700.060335
  0
LINE
  5
6BB
100
AcDbEntity
  8
M0
 62
     5
100
AcDbLine
 10
206.02419
 20
705.813509
 11
206.02419
 21
705.366732
  0
LINE
  5
6BC
100
AcDbEntity
  8
M0
 62
     5
100
AcDbLine
 10
208.824193
 20
705.813509
 11
208.824193
 21
705.366732
  0
LINE
  5
6BD
100
AcDbEntity
  8
M0
 62
     5
100
AcDbLine
 10
208.824193
 20
699.613558
 11
210.644276
 21
699.613558
  0
LINE
  5
6BE
100
AcDbEntity
  8
M0
 62
     5
100
AcDbLine
 10
208.824193
 20
705.813509
 11
210.644078
 21
705.813509
  0
CIRCLE
  5
6BF
100
AcDbEntity
  8
M0
 62
     5
100
AcDbCircle
 10
207.424214
 20
702.713656
 40
3.0
  0
LINE
  5
6C0
100
AcDbEntity
  8
M0
 62
     5
100
AcDbLine
 10
208.414159
 20
701.01639
 11
209.121266
 21
701.723665
  0
LINE
  5
6C1
100
AcDbEntity
  8
M0
 62
     5
100
AcDbLine
 10
209.121266
 20
701.723665
 11
208.131306
 21
702.713412
  0
LINE
  5
6C2
100
AcDbEntity
  8
M0
 62
     5
100
AcDbLine
 10
206.434254
 20
704.410677
 11
205.727162
 21
703.703402
  0
LINE
  5
6C3
100
AcDbEntity
  8
M0
 62
     5
100
AcDbLine
 10
205.727162
 20
703.703402
 11
206.717107
 21
702.713656
  0
LINE
  5
6C4
100
AcDbEntity
  8
M0
 62
     5
100
AcDbLine
 10
204.978993
 20
700.975374
 11
206.717107
 21
702.713656
  0
LINE
  5
6C5
100
AcDbEntity
  8
M0
 62
     5
100
AcDbLine
 10
205.686101
 20
700.268343
 11
207.424199
 21
702.00638
  0
LINE
  5
6C6
100
AcDbEntity
  8
M0
 62
     5
100
AcDbLine
 10
209.869404
 20
704.451693
 11
208.131306
 21
702.713412
  0
LINE
  5
6C7
100
AcDbEntity
  8
M0
 62
     5
100
AcDbLine
 10
209.162297
 20
705.158724
 11
207.424214
 21
703.420687
  0
LINE
  5
6C8
100
AcDbEntity
  8
M0
 62
     5
100
AcDbLine
 10
208.414159
 20
701.01639
 11
207.424199
 21
702.00638
  0
LINE
  5
6C9
100
AcDbEntity
  8
M0
 62
     5
100
AcDbLine
 10
206.434254
 20
704.410677
 11
207.424214
 21
703.420687
  0
LINE
  5
6CA
100
AcDbEntity
  8
M0
 62
     5
100
AcDbLine
 10
182.943302
 20
691.31386
 11
187.905323
 21
691.31386
  0
LINE
  5
6CB
100
AcDbEntity
  8
M0
 62
     5
100
AcDbLine
 10
189.199283
 20
694.313372
 11
189.199283
 21
696.91347
  0
LINE
  5
6CC
100
AcDbEntity
  8
M0
 62
     5
100
AcDbLine
 10
181.924137
 20
693.422382
 11
182.465534
 21
691.666399
  0
LINE
  5
6CD
100
AcDbEntity
  8
M0
 62
     5
100
AcDbLine
 10
189.199299
 20
694.313616
 11
188.383106
 21
691.666399
  0
LINE
  5
6CE
100
AcDbEntity
  8
M0
 62
     5
100
AcDbLine
 10
189.199299
 20
696.91347
 11
188.736563
 21
698.414126
  0
ARC
  5
6CF
100
AcDbEntity
  8
M0
 62
     5
100
AcDbCircle
 10
182.943302
 20
691.81386
 40
0.5
100
AcDbArc
 50
197.15252
 51
270.0
  0
ARC
  5
6D0
100
AcDbEntity
  8
M0
 62
     5
100
AcDbCircle
 10
187.905323
 20
691.81386
 40
0.5
100
AcDbArc
 50
270.0
 51
342.84793
  0
LINE
  5
6D1
100
AcDbEntity
  8
M0
 62
     5
100
AcDbLine
 10
182.204258
 20
692.513811
 11
184.02428
 21
692.513811
  0
LINE
  5
6D2
100
AcDbEntity
  8
M0
 62
     5
100
AcDbLine
 10
181.834293
 20
693.713763
 11
183.102787
 21
693.713763
  0
LINE
  5
6D3
100
AcDbEntity
  8
M0
 62
     5
100
AcDbLine
 10
187.745807
 20
693.713763
 11
189.014347
 21
693.713763
  0
LINE
  5
6D4
100
AcDbEntity
  8
M0
 62
     5
100
AcDbLine
 10
187.746219
 20
697.513567
 11
189.014255
 21
697.513567
  0
LINE
  5
6D5
100
AcDbEntity
  8
M0
 62
     5
100
AcDbLine
 10
186.824283
 20
692.513811
 11
186.824283
 21
692.960589
  0
LINE
  5
6D6
100
AcDbEntity
  8
M0
 62
     5
100
AcDbLine
 10
184.02428
 20
692.513811
 11
184.02428
 21
692.960589
  0
LINE
  5
6D7
100
AcDbEntity
  8
M0
 62
     5
100
AcDbLine
 10
184.02428
 20
698.713763
 11
184.02428
 21
698.266985
  0
LINE
  5
6D8
100
AcDbEntity
  8
M0
 62
     5
100
AcDbLine
 10
186.824283
 20
698.713763
 11
186.824283
 21
698.266985
  0
LINE
  5
6D9
100
AcDbEntity
  8
M0
 62
     5
100
AcDbLine
 10
186.824283
 20
692.513811
 11
188.644367
 21
692.513811
  0
CIRCLE
  5
6DA
100
AcDbEntity
  8
M0
 62
     5
100
AcDbCircle
 10
185.424305
 20
695.613909
 40
3.0
  0
LINE
  5
6DB
100
AcDbEntity
  8
M0
 62
     5
100
AcDbLine
 10
186.414249
 20
693.916643
 11
187.121357
 21
694.623919
  0
LINE
  5
6DC
100
AcDbEntity
  8
M0
 62
     5
100
AcDbLine
 10
187.121357
 20
694.623919
 11
186.131397
 21
695.613665
  0
LINE
  5
6DD
100
AcDbEntity
  8
M0
 62
     5
100
AcDbLine
 10
184.434345
 20
697.31093
 11
183.727253
 21
696.603655
  0
LINE
  5
6DE
100
AcDbEntity
  8
M0
 62
     5
100
AcDbLine
 10
183.727253
 20
696.603655
 11
184.717197
 21
695.613909
  0
LINE
  5
6DF
100
AcDbEntity
  8
M0
 62
     5
100
AcDbLine
 10
182.979084
 20
693.875628
 11
184.717197
 21
695.613909
  0
LINE
  5
6E0
100
AcDbEntity
  8
M0
 62
     5
100
AcDbLine
 10
183.686191
 20
693.168596
 11
185.424289
 21
694.906634
  0
LINE
  5
6E1
100
AcDbEntity
  8
M0
 62
     5
100
AcDbLine
 10
187.869495
 20
697.351946
 11
186.131397
 21
695.613665
  0
LINE
  5
6E2
100
AcDbEntity
  8
M0
 62
     5
100
AcDbLine
 10
187.162388
 20
698.058977
 11
185.424305
 21
696.32094
  0
LINE
  5
6E3
100
AcDbEntity
  8
M0
 62
     5
100
AcDbLine
 10
186.414249
 20
693.916643
 11
185.424289
 21
694.906634
  0
LINE
  5
6E4
100
AcDbEntity
  8
M0
 62
     5
100
AcDbLine
 10
184.434345
 20
697.31093
 11
185.424305
 21
696.32094
  0
LINE
  5
6E5
100
AcDbEntity
  8
M0
 62
     5
100
AcDbLine
 10
184.943226
 20
738.413607
 11
189.905246
 21
738.413607
  0
LINE
  5
6E6
100
AcDbEntity
  8
M0
 62
     5
100
AcDbLine
 10
191.199207
 20
741.413119
 11
191.199207
 21
744.013216
  0
LINE
  5
6E7
100
AcDbEntity
  8
M0
 62
     5
100
AcDbLine
 10
189.905094
 20
747.013216
 11
184.943226
 21
747.013216
  0
LINE
  5
6E8
100
AcDbEntity
  8
M0
 62
     5
100
AcDbLine
 10
183.649204
 20
744.01346
 11
183.649204
 21
741.413607
  0
LINE
  5
6E9
100
AcDbEntity
  8
M0
 62
     5
100
AcDbLine
 10
183.649204
 20
741.413607
 11
184.465458
 21
738.766146
  0
LINE
  5
6EA
100
AcDbEntity
  8
M0
 62
     5
100
AcDbLine
 10
183.649204
 20
744.01346
 11
184.46532
 21
746.660189
  0
LINE
  5
6EB
100
AcDbEntity
  8
M0
 62
     5
100
AcDbLine
 10
191.199222
 20
741.413363
 11
190.38303
 21
738.766146
  0
LINE
  5
6EC
100
AcDbEntity
  8
M0
 62
     5
100
AcDbLine
 10
191.199222
 20
744.013216
 11
190.383014
 21
746.660189
  0
ARC
  5
6ED
100
AcDbEntity
  8
M0
 62
     5
100
AcDbCircle
 10
184.943226
 20
738.913607
 40
0.5
100
AcDbArc
 50
197.15252
 51
270.0
  0
ARC
  5
6EE
100
AcDbEntity
  8
M0
 62
     5
100
AcDbCircle
 10
189.905246
 20
738.913607
 40
0.5
100
AcDbArc
 50
270.0
 51
342.84793
  0
ARC
  5
6EF
100
AcDbEntity
  8
M0
 62
     5
100
AcDbCircle
 10
189.905094
 20
746.512972
 40
0.5
100
AcDbArc
 50
17.120719
 51
90.0
  0
ARC
  5
6F0
100
AcDbEntity
  8
M0
 62
     5
100
AcDbCircle
 10
184.943226
 20
746.512972
 40
0.5
100
AcDbArc
 50
90.0
 51
162.878799
  0
LINE
  5
6F1
100
AcDbEntity
  8
M0
 62
     5
100
AcDbLine
 10
184.204242
 20
745.813509
 11
186.024204
 21
745.813509
  0
LINE
  5
6F2
100
AcDbEntity
  8
M0
 62
     5
100
AcDbLine
 10
184.204181
 20
739.613558
 11
186.024204
 21
739.613558
  0
LINE
  5
6F3
100
AcDbEntity
  8
M0
 62
     5
100
AcDbLine
 10
183.834217
 20
740.813509
 11
185.10271
 21
740.813509
  0
LINE
  5
6F4
100
AcDbEntity
  8
M0
 62
     5
100
AcDbLine
 10
183.834156
 20
744.613314
 11
185.102298
 21
744.613314
  0
LINE
  5
6F5
100
AcDbEntity
  8
M0
 62
     5
100
AcDbLine
 10
189.745731
 20
740.813509
 11
191.01427
 21
740.813509
  0
LINE
  5
6F6
100
AcDbEntity
  8
M0
 62
     5
100
AcDbLine
 10
189.746143
 20
744.613314
 11
191.014179
 21
744.613314
  0
LINE
  5
6F7
100
AcDbEntity
  8
M0
 62
     5
100
AcDbLine
 10
188.824207
 20
739.613558
 11
188.824207
 21
740.060335
  0
LINE
  5
6F8
100
AcDbEntity
  8
M0
 62
     5
100
AcDbLine
 10
186.024204
 20
739.613558
 11
186.024204
 21
740.060335
  0
LINE
  5
6F9
100
AcDbEntity
  8
M0
 62
     5
100
AcDbLine
 10
186.024204
 20
745.813509
 11
186.024204
 21
745.366732
  0
LINE
  5
6FA
100
AcDbEntity
  8
M0
 62
     5
100
AcDbLine
 10
188.824207
 20
745.813509
 11
188.824207
 21
745.366732
  0
LINE
  5
6FB
100
AcDbEntity
  8
M0
 62
     5
100
AcDbLine
 10
188.824207
 20
739.613558
 11
190.644291
 21
739.613558
  0
LINE
  5
6FC
100
AcDbEntity
  8
M0
 62
     5
100
AcDbLine
 10
188.824207
 20
745.813509
 11
190.644092
 21
745.813509
  0
CIRCLE
  5
6FD
100
AcDbEntity
  8
M0
 62
     5
100
AcDbCircle
 10
187.424228
 20
742.713656
 40
3.0
  0
LINE
  5
6FE
100
AcDbEntity
  8
M0
 62
     5
100
AcDbLine
 10
188.414173
 20
741.01639
 11
189.12128
 21
741.723665
  0
LINE
  5
6FF
100
AcDbEntity
  8
M0
 62
     5
100
AcDbLine
 10
189.12128
 20
741.723665
 11
188.131321
 21
742.713412
  0
LINE
  5
700
100
AcDbEntity
  8
M0
 62
     5
100
AcDbLine
 10
186.434269
 20
744.410677
 11
185.727176
 21
743.703402
  0
LINE
  5
701
100
AcDbEntity
  8
M0
 62
     5
100
AcDbLine
 10
185.727176
 20
743.703402
 11
186.717121
 21
742.713656
  0
LINE
  5
702
100
AcDbEntity
  8
M0
 62
     5
100
AcDbLine
 10
184.979007
 20
740.975374
 11
186.717121
 21
742.713656
  0
LINE
  5
703
100
AcDbEntity
  8
M0
 62
     5
100
AcDbLine
 10
185.686115
 20
740.268343
 11
187.424213
 21
742.00638
  0
LINE
  5
704
100
AcDbEntity
  8
M0
 62
     5
100
AcDbLine
 10
189.869419
 20
744.451693
 11
188.131321
 21
742.713412
  0
LINE
  5
705
100
AcDbEntity
  8
M0
 62
     5
100
AcDbLine
 10
189.162311
 20
745.158724
 11
187.424228
 21
743.420687
  0
LINE
  5
706
100
AcDbEntity
  8
M0
 62
     5
100
AcDbLine
 10
188.414173
 20
741.01639
 11
187.424213
 21
742.00638
  0
LINE
  5
707
100
AcDbEntity
  8
M0
 62
     5
100
AcDbLine
 10
186.434269
 20
744.410677
 11
187.424228
 21
743.420687
  0
LINE
  5
708
100
AcDbEntity
  8
M0
 62
     5
100
AcDbLine
 10
194.943226
 20
738.413607
 11
199.905246
 21
738.413607
  0
LINE
  5
709
100
AcDbEntity
  8
M0
 62
     5
100
AcDbLine
 10
201.199207
 20
741.413119
 11
201.199207
 21
744.013216
  0
LINE
  5
70A
100
AcDbEntity
  8
M0
 62
     5
100
AcDbLine
 10
199.905094
 20
747.013216
 11
194.943226
 21
747.013216
  0
LINE
  5
70B
100
AcDbEntity
  8
M0
 62
     5
100
AcDbLine
 10
193.649204
 20
744.01346
 11
193.649204
 21
741.413607
  0
LINE
  5
70C
100
AcDbEntity
  8
M0
 62
     5
100
AcDbLine
 10
193.649204
 20
741.413607
 11
194.465458
 21
738.766146
  0
LINE
  5
70D
100
AcDbEntity
  8
M0
 62
     5
100
AcDbLine
 10
193.649204
 20
744.01346
 11
194.46532
 21
746.660189
  0
LINE
  5
70E
100
AcDbEntity
  8
M0
 62
     5
100
AcDbLine
 10
201.199222
 20
741.413363
 11
200.38303
 21
738.766146
  0
LINE
  5
70F
100
AcDbEntity
  8
M0
 62
     5
100
AcDbLine
 10
201.199222
 20
744.013216
 11
200.383014
 21
746.660189
  0
ARC
  5
710
100
AcDbEntity
  8
M0
 62
     5
100
AcDbCircle
 10
194.943226
 20
738.913607
 40
0.5
100
AcDbArc
 50
197.15252
 51
270.0
  0
ARC
  5
711
100
AcDbEntity
  8
M0
 62
     5
100
AcDbCircle
 10
199.905246
 20
738.913607
 40
0.5
100
AcDbArc
 50
270.0
 51
342.84793
  0
ARC
  5
712
100
AcDbEntity
  8
M0
 62
     5
100
AcDbCircle
 10
199.905094
 20
746.512972
 40
0.5
100
AcDbArc
 50
17.120719
 51
90.0
  0
ARC
  5
713
100
AcDbEntity
  8
M0
 62
     5
100
AcDbCircle
 10
194.943226
 20
746.512972
 40
0.5
100
AcDbArc
 50
90.0
 51
162.878799
  0
LINE
  5
714
100
AcDbEntity
  8
M0
 62
     5
100
AcDbLine
 10
194.204242
 20
745.813509
 11
196.024204
 21
745.813509
  0
LINE
  5
715
100
AcDbEntity
  8
M0
 62
     5
100
AcDbLine
 10
194.204181
 20
739.613558
 11
196.024204
 21
739.613558
  0
LINE
  5
716
100
AcDbEntity
  8
M0
 62
     5
100
AcDbLine
 10
193.834217
 20
740.813509
 11
195.10271
 21
740.813509
  0
LINE
  5
717
100
AcDbEntity
  8
M0
 62
     5
100
AcDbLine
 10
193.834156
 20
744.613314
 11
195.102298
 21
744.613314
  0
LINE
  5
718
100
AcDbEntity
  8
M0
 62
     5
100
AcDbLine
 10
199.745731
 20
740.813509
 11
201.01427
 21
740.813509
  0
LINE
  5
719
100
AcDbEntity
  8
M0
 62
     5
100
AcDbLine
 10
199.746143
 20
744.613314
 11
201.014179
 21
744.613314
  0
LINE
  5
71A
100
AcDbEntity
  8
M0
 62
     5
100
AcDbLine
 10
198.824207
 20
739.613558
 11
198.824207
 21
740.060335
  0
LINE
  5
71B
100
AcDbEntity
  8
M0
 62
     5
100
AcDbLine
 10
196.024204
 20
739.613558
 11
196.024204
 21
740.060335
  0
LINE
  5
71C
100
AcDbEntity
  8
M0
 62
     5
100
AcDbLine
 10
196.024204
 20
745.813509
 11
196.024204
 21
745.366732
  0
LINE
  5
71D
100
AcDbEntity
  8
M0
 62
     5
100
AcDbLine
 10
198.824207
 20
745.813509
 11
198.824207
 21
745.366732
  0
LINE
  5
71E
100
AcDbEntity
  8
M0
 62
     5
100
AcDbLine
 10
198.824207
 20
739.613558
 11
200.644291
 21
739.613558
  0
LINE
  5
71F
100
AcDbEntity
  8
M0
 62
     5
100
AcDbLine
 10
198.824207
 20
745.813509
 11
200.644092
 21
745.813509
  0
CIRCLE
  5
720
100
AcDbEntity
  8
M0
 62
     5
100
AcDbCircle
 10
197.424228
 20
742.713656
 40
3.0
  0
LINE
  5
721
100
AcDbEntity
  8
M0
 62
     5
100
AcDbLine
 10
198.414173
 20
741.01639
 11
199.12128
 21
741.723665
  0
LINE
  5
722
100
AcDbEntity
  8
M0
 62
     5
100
AcDbLine
 10
199.12128
 20
741.723665
 11
198.131321
 21
742.713412
  0
LINE
  5
723
100
AcDbEntity
  8
M0
 62
     5
100
AcDbLine
 10
196.434269
 20
744.410677
 11
195.727176
 21
743.703402
  0
LINE
  5
724
100
AcDbEntity
  8
M0
 62
     5
100
AcDbLine
 10
195.727176
 20
743.703402
 11
196.717121
 21
742.713656
  0
LINE
  5
725
100
AcDbEntity
  8
M0
 62
     5
100
AcDbLine
 10
194.979007
 20
740.975374
 11
196.717121
 21
742.713656
  0
LINE
  5
726
100
AcDbEntity
  8
M0
 62
     5
100
AcDbLine
 10
195.686115
 20
740.268343
 11
197.424213
 21
742.00638
  0
LINE
  5
727
100
AcDbEntity
  8
M0
 62
     5
100
AcDbLine
 10
199.869419
 20
744.451693
 11
198.131321
 21
742.713412
  0
LINE
  5
728
100
AcDbEntity
  8
M0
 62
     5
100
AcDbLine
 10
199.162311
 20
745.158724
 11
197.424228
 21
743.420687
  0
LINE
  5
729
100
AcDbEntity
  8
M0
 62
     5
100
AcDbLine
 10
198.414173
 20
741.01639
 11
197.424213
 21
742.00638
  0
LINE
  5
72A
100
AcDbEntity
  8
M0
 62
     5
100
AcDbLine
 10
196.434269
 20
744.410677
 11
197.424228
 21
743.420687
  0
LINE
  5
72B
100
AcDbEntity
  8
M0
 62
     5
100
AcDbLine
 10
204.943211
 20
738.413607
 11
209.905232
 21
738.413607
  0
LINE
  5
72C
100
AcDbEntity
  8
M0
 62
     5
100
AcDbLine
 10
211.199193
 20
741.413119
 11
211.199193
 21
744.013216
  0
LINE
  5
72D
100
AcDbEntity
  8
M0
 62
     5
100
AcDbLine
 10
209.90508
 20
747.013216
 11
204.943211
 21
747.013216
  0
LINE
  5
72E
100
AcDbEntity
  8
M0
 62
     5
100
AcDbLine
 10
203.64919
 20
744.01346
 11
203.64919
 21
741.413607
  0
LINE
  5
72F
100
AcDbEntity
  8
M0
 62
     5
100
AcDbLine
 10
203.64919
 20
741.413607
 11
204.465443
 21
738.766146
  0
LINE
  5
730
100
AcDbEntity
  8
M0
 62
     5
100
AcDbLine
 10
203.64919
 20
744.01346
 11
204.465306
 21
746.660189
  0
LINE
  5
731
100
AcDbEntity
  8
M0
 62
     5
100
AcDbLine
 10
211.199208
 20
741.413363
 11
210.383015
 21
738.766146
  0
LINE
  5
732
100
AcDbEntity
  8
M0
 62
     5
100
AcDbLine
 10
211.199208
 20
744.013216
 11
210.383
 21
746.660189
  0
ARC
  5
733
100
AcDbEntity
  8
M0
 62
     5
100
AcDbCircle
 10
204.943211
 20
738.913607
 40
0.5
100
AcDbArc
 50
197.15252
 51
270.0
  0
ARC
  5
734
100
AcDbEntity
  8
M0
 62
     5
100
AcDbCircle
 10
209.905232
 20
738.913607
 40
0.5
100
AcDbArc
 50
270.0
 51
342.84793
  0
ARC
  5
735
100
AcDbEntity
  8
M0
 62
     5
100
AcDbCircle
 10
209.90508
 20
746.512972
 40
0.5
100
AcDbArc
 50
17.120719
 51
90.0
  0
ARC
  5
736
100
AcDbEntity
  8
M0
 62
     5
100
AcDbCircle
 10
204.943211
 20
746.512972
 40
0.5
100
AcDbArc
 50
90.0
 51
162.878799
  0
LINE
  5
737
100
AcDbEntity
  8
M0
 62
     5
100
AcDbLine
 10
204.204228
 20
745.813509
 11
206.02419
 21
745.813509
  0
LINE
  5
738
100
AcDbEntity
  8
M0
 62
     5
100
AcDbLine
 10
204.204167
 20
739.613558
 11
206.02419
 21
739.613558
  0
LINE
  5
739
100
AcDbEntity
  8
M0
 62
     5
100
AcDbLine
 10
203.834202
 20
740.813509
 11
205.102696
 21
740.813509
  0
LINE
  5
73A
100
AcDbEntity
  8
M0
 62
     5
100
AcDbLine
 10
203.834141
 20
744.613314
 11
205.102284
 21
744.613314
  0
LINE
  5
73B
100
AcDbEntity
  8
M0
 62
     5
100
AcDbLine
 10
209.745717
 20
740.813509
 11
211.014256
 21
740.813509
  0
LINE
  5
73C
100
AcDbEntity
  8
M0
 62
     5
100
AcDbLine
 10
209.746129
 20
744.613314
 11
211.014165
 21
744.613314
  0
LINE
  5
73D
100
AcDbEntity
  8
M0
 62
     5
100
AcDbLine
 10
208.824193
 20
739.613558
 11
208.824193
 21
740.060335
  0
LINE
  5
73E
100
AcDbEntity
  8
M0
 62
     5
100
AcDbLine
 10
206.02419
 20
739.613558
 11
206.02419
 21
740.060335
  0
LINE
  5
73F
100
AcDbEntity
  8
M0
 62
     5
100
AcDbLine
 10
206.02419
 20
745.813509
 11
206.02419
 21
745.366732
  0
LINE
  5
740
100
AcDbEntity
  8
M0
 62
     5
100
AcDbLine
 10
208.824193
 20
745.813509
 11
208.824193
 21
745.366732
  0
LINE
  5
741
100
AcDbEntity
  8
M0
 62
     5
100
AcDbLine
 10
208.824193
 20
739.613558
 11
210.644276
 21
739.613558
  0
LINE
  5
742
100
AcDbEntity
  8
M0
 62
     5
100
AcDbLine
 10
208.824193
 20
745.813509
 11
210.644078
 21
745.813509
  0
CIRCLE
  5
743
100
AcDbEntity
  8
M0
 62
     5
100
AcDbCircle
 10
207.424214
 20
742.713656
 40
3.0
  0
LINE
  5
744
100
AcDbEntity
  8
M0
 62
     5
100
AcDbLine
 10
208.414159
 20
741.01639
 11
209.121266
 21
741.723665
  0
LINE
  5
745
100
AcDbEntity
  8
M0
 62
     5
100
AcDbLine
 10
209.121266
 20
741.723665
 11
208.131306
 21
742.713412
  0
LINE
  5
746
100
AcDbEntity
  8
M0
 62
     5
100
AcDbLine
 10
206.434254
 20
744.410677
 11
205.727162
 21
743.703402
  0
LINE
  5
747
100
AcDbEntity
  8
M0
 62
     5
100
AcDbLine
 10
205.727162
 20
743.703402
 11
206.717107
 21
742.713656
  0
LINE
  5
748
100
AcDbEntity
  8
M0
 62
     5
100
AcDbLine
 10
204.978993
 20
740.975374
 11
206.717107
 21
742.713656
  0
LINE
  5
749
100
AcDbEntity
  8
M0
 62
     5
100
AcDbLine
 10
205.686101
 20
740.268343
 11
207.424199
 21
742.00638
  0
LINE
  5
74A
100
AcDbEntity
  8
M0
 62
     5
100
AcDbLine
 10
209.869404
 20
744.451693
 11
208.131306
 21
742.713412
  0
LINE
  5
74B
100
AcDbEntity
  8
M0
 62
     5
100
AcDbLine
 10
209.162297
 20
745.158724
 11
207.424214
 21
743.420687
  0
LINE
  5
74C
100
AcDbEntity
  8
M0
 62
     5
100
AcDbLine
 10
208.414159
 20
741.01639
 11
207.424199
 21
742.00638
  0
LINE
  5
74D
100
AcDbEntity
  8
M0
 62
     5
100
AcDbLine
 10
206.434254
 20
744.410677
 11
207.424214
 21
743.420687
  0
LINE
  5
74E
100
AcDbEntity
  8
M0
 62
     5
100
AcDbLine
 10
211.904988
 20
754.513216
 11
206.94312
 21
754.513216
  0
LINE
  5
74F
100
AcDbEntity
  8
M0
 62
     5
100
AcDbLine
 10
205.649098
 20
751.51346
 11
205.649098
 21
748.913607
  0
LINE
  5
750
100
AcDbEntity
  8
M0
 62
     5
100
AcDbLine
 10
205.649098
 20
748.913607
 11
206.111424
 21
747.414085
  0
LINE
  5
751
100
AcDbEntity
  8
M0
 62
     5
100
AcDbLine
 10
205.649098
 20
751.51346
 11
206.465214
 21
754.160189
  0
LINE
  5
752
100
AcDbEntity
  8
M0
 62
     5
100
AcDbLine
 10
212.924092
 20
752.405124
 11
212.382909
 21
754.160189
  0
ARC
  5
753
100
AcDbEntity
  8
M0
 62
     5
100
AcDbCircle
 10
211.904988
 20
754.012972
 40
0.5
100
AcDbArc
 50
17.120719
 51
90.0
  0
ARC
  5
754
100
AcDbEntity
  8
M0
 62
     5
100
AcDbCircle
 10
206.94312
 20
754.012972
 40
0.5
100
AcDbArc
 50
90.0
 51
162.878799
  0
LINE
  5
755
100
AcDbEntity
  8
M0
 62
     5
100
AcDbLine
 10
206.204137
 20
753.313509
 11
208.024098
 21
753.313509
  0
LINE
  5
756
100
AcDbEntity
  8
M0
 62
     5
100
AcDbLine
 10
205.834111
 20
748.313509
 11
207.102605
 21
748.313509
  0
LINE
  5
757
100
AcDbEntity
  8
M0
 62
     5
100
AcDbLine
 10
205.83405
 20
752.113314
 11
207.102193
 21
752.113314
  0
LINE
  5
758
100
AcDbEntity
  8
M0
 62
     5
100
AcDbLine
 10
211.746037
 20
752.113314
 11
213.014073
 21
752.113314
  0
LINE
  5
759
100
AcDbEntity
  8
M0
 62
     5
100
AcDbLine
 10
210.824101
 20
747.414094
 11
210.824101
 21
747.560335
  0
LINE
  5
75A
100
AcDbEntity
  8
M0
 62
     5
100
AcDbLine
 10
208.024098
 20
747.414089
 11
208.024098
 21
747.560335
  0
LINE
  5
75B
100
AcDbEntity
  8
M0
 62
     5
100
AcDbLine
 10
208.024098
 20
753.313509
 11
208.024098
 21
752.866732
  0
LINE
  5
75C
100
AcDbEntity
  8
M0
 62
     5
100
AcDbLine
 10
210.824101
 20
753.313509
 11
210.824101
 21
752.866732
  0
LINE
  5
75D
100
AcDbEntity
  8
M0
 62
     5
100
AcDbLine
 10
210.824101
 20
753.313509
 11
212.643986
 21
753.313509
  0
CIRCLE
  5
75E
100
AcDbEntity
  8
M0
 62
     5
100
AcDbCircle
 10
209.424123
 20
750.213656
 40
3.0
  0
LINE
  5
75F
100
AcDbEntity
  8
M0
 62
     5
100
AcDbLine
 10
210.414067
 20
748.51639
 11
211.121175
 21
749.223665
  0
LINE
  5
760
100
AcDbEntity
  8
M0
 62
     5
100
AcDbLine
 10
211.121175
 20
749.223665
 11
210.131215
 21
750.213412
  0
LINE
  5
761
100
AcDbEntity
  8
M0
 62
     5
100
AcDbLine
 10
208.434163
 20
751.910677
 11
207.727071
 21
751.203402
  0
LINE
  5
762
100
AcDbEntity
  8
M0
 62
     5
100
AcDbLine
 10
207.727071
 20
751.203402
 11
208.717015
 21
750.213656
  0
LINE
  5
763
100
AcDbEntity
  8
M0
 62
     5
100
AcDbLine
 10
206.978902
 20
748.475374
 11
208.717015
 21
750.213656
  0
LINE
  5
764
100
AcDbEntity
  8
M0
 62
     5
100
AcDbLine
 10
207.686009
 20
747.768343
 11
209.424107
 21
749.50638
  0
LINE
  5
765
100
AcDbEntity
  8
M0
 62
     5
100
AcDbLine
 10
211.869313
 20
751.951693
 11
210.131215
 21
750.213412
  0
LINE
  5
766
100
AcDbEntity
  8
M0
 62
     5
100
AcDbLine
 10
211.162205
 20
752.658724
 11
209.424123
 21
750.920687
  0
LINE
  5
767
100
AcDbEntity
  8
M0
 62
     5
100
AcDbLine
 10
210.414067
 20
748.51639
 11
209.424107
 21
749.50638
  0
LINE
  5
768
100
AcDbEntity
  8
M0
 62
     5
100
AcDbLine
 10
208.434163
 20
751.910677
 11
209.424123
 21
750.920687
  0
LINE
  5
769
100
AcDbEntity
  8
M0
 62
     5
100
AcDbLine
 10
322.943012
 20
870.41393
 11
327.905033
 21
870.41393
  0
LINE
  5
76A
100
AcDbEntity
  8
M0
 62
     5
100
AcDbLine
 10
329.198993
 20
873.413442
 11
329.198993
 21
876.01354
  0
LINE
  5
76B
100
AcDbEntity
  8
M0
 62
     5
100
AcDbLine
 10
327.90488
 20
879.01354
 11
322.943012
 21
879.01354
  0
LINE
  5
76C
100
AcDbEntity
  8
M0
 62
     5
100
AcDbLine
 10
321.64899
 20
876.013784
 11
321.64899
 21
873.41393
  0
LINE
  5
76D
100
AcDbEntity
  8
M0
 62
     5
100
AcDbLine
 10
321.64899
 20
873.41393
 11
322.465244
 21
870.766469
  0
LINE
  5
76E
100
AcDbEntity
  8
M0
 62
     5
100
AcDbLine
 10
321.64899
 20
876.013784
 11
322.465107
 21
878.660512
  0
LINE
  5
76F
100
AcDbEntity
  8
M0
 62
     5
100
AcDbLine
 10
329.199009
 20
873.413686
 11
328.382816
 21
870.766469
  0
LINE
  5
770
100
AcDbEntity
  8
M0
 62
     5
100
AcDbLine
 10
329.199009
 20
876.01354
 11
328.382801
 21
878.660512
  0
ARC
  5
771
100
AcDbEntity
  8
M0
 62
     5
100
AcDbCircle
 10
322.943012
 20
870.91393
 40
0.5
100
AcDbArc
 50
197.15252
 51
270.0
  0
ARC
  5
772
100
AcDbEntity
  8
M0
 62
     5
100
AcDbCircle
 10
327.905033
 20
870.91393
 40
0.5
100
AcDbArc
 50
270.0
 51
342.84793
  0
ARC
  5
773
100
AcDbEntity
  8
M0
 62
     5
100
AcDbCircle
 10
327.90488
 20
878.513296
 40
0.5
100
AcDbArc
 50
17.120719
 51
90.0
  0
ARC
  5
774
100
AcDbEntity
  8
M0
 62
     5
100
AcDbCircle
 10
322.943012
 20
878.513296
 40
0.5
100
AcDbArc
 50
90.0
 51
162.878799
  0
CIRCLE
  5
775
100
AcDbEntity
  8
M0
 62
     5
100
AcDbCircle
 10
325.424015
 20
874.713979
 40
3.0
  0
LINE
  5
776
100
AcDbEntity
  8
M0
 62
     5
100
AcDbLine
 10
326.413959
 20
873.016714
 11
327.121067
 21
873.723989
  0
LINE
  5
777
100
AcDbEntity
  8
M0
 62
     5
100
AcDbLine
 10
327.121067
 20
873.723989
 11
326.131107
 21
874.713735
  0
LINE
  5
778
100
AcDbEntity
  8
M0
 62
     5
100
AcDbLine
 10
324.434055
 20
876.411001
 11
323.726963
 21
875.703725
  0
LINE
  5
779
100
AcDbEntity
  8
M0
 62
     5
100
AcDbLine
 10
323.726963
 20
875.703725
 11
324.716907
 21
874.713979
  0
LINE
  5
77A
100
AcDbEntity
  8
M0
 62
     5
100
AcDbLine
 10
322.978794
 20
872.975698
 11
324.716907
 21
874.713979
  0
LINE
  5
77B
100
AcDbEntity
  8
M0
 62
     5
100
AcDbLine
 10
323.685901
 20
872.268667
 11
325.423999
 21
874.006704
  0
LINE
  5
77C
100
AcDbEntity
  8
M0
 62
     5
100
AcDbLine
 10
327.869205
 20
876.452016
 11
326.131107
 21
874.713735
  0
LINE
  5
77D
100
AcDbEntity
  8
M0
 62
     5
100
AcDbLine
 10
327.162098
 20
877.159048
 11
325.424015
 21
875.42101
  0
LINE
  5
77E
100
AcDbEntity
  8
M0
 62
     5
100
AcDbLine
 10
326.413959
 20
873.016714
 11
325.423999
 21
874.006704
  0
LINE
  5
77F
100
AcDbEntity
  8
M0
 62
     5
100
AcDbLine
 10
324.434055
 20
876.411001
 11
325.424015
 21
875.42101
  0
LINE
  5
780
100
AcDbEntity
  8
M0
 62
     5
100
AcDbLine
 10
322.943012
 20
880.013784
 11
327.905033
 21
880.013784
  0
LINE
  5
781
100
AcDbEntity
  8
M0
 62
     5
100
AcDbLine
 10
329.198993
 20
883.013296
 11
329.198993
 21
885.613393
  0
LINE
  5
782
100
AcDbEntity
  8
M0
 62
     5
100
AcDbLine
 10
327.90488
 20
888.613393
 11
322.943012
 21
888.613393
  0
LINE
  5
783
100
AcDbEntity
  8
M0
 62
     5
100
AcDbLine
 10
321.64899
 20
885.613637
 11
321.64899
 21
883.013784
  0
LINE
  5
784
100
AcDbEntity
  8
M0
 62
     5
100
AcDbLine
 10
321.64899
 20
883.013784
 11
322.465244
 21
880.366323
  0
LINE
  5
785
100
AcDbEntity
  8
M0
 62
     5
100
AcDbLine
 10
321.64899
 20
885.613637
 11
322.465107
 21
888.260366
  0
LINE
  5
786
100
AcDbEntity
  8
M0
 62
     5
100
AcDbLine
 10
329.199009
 20
883.01354
 11
328.382816
 21
880.366323
  0
LINE
  5
787
100
AcDbEntity
  8
M0
 62
     5
100
AcDbLine
 10
329.199009
 20
885.613393
 11
328.382801
 21
888.260366
  0
ARC
  5
788
100
AcDbEntity
  8
M0
 62
     5
100
AcDbCircle
 10
322.943012
 20
880.513784
 40
0.5
100
AcDbArc
 50
197.15252
 51
270.0
  0
ARC
  5
789
100
AcDbEntity
  8
M0
 62
     5
100
AcDbCircle
 10
327.905033
 20
880.513784
 40
0.5
100
AcDbArc
 50
270.0
 51
342.84793
  0
ARC
  5
78A
100
AcDbEntity
  8
M0
 62
     5
100
AcDbCircle
 10
327.90488
 20
888.113149
 40
0.5
100
AcDbArc
 50
17.120719
 51
90.0
  0
ARC
  5
78B
100
AcDbEntity
  8
M0
 62
     5
100
AcDbCircle
 10
322.943012
 20
888.113149
 40
0.5
100
AcDbArc
 50
90.0
 51
162.878799
  0
LINE
  5
78C
100
AcDbEntity
  8
M0
 62
     5
100
AcDbLine
 10
322.203968
 20
881.213735
 11
324.02399
 21
881.213735
  0
LINE
  5
78D
100
AcDbEntity
  8
M0
 62
     5
100
AcDbLine
 10
321.834003
 20
882.413686
 11
323.102497
 21
882.413686
  0
LINE
  5
78E
100
AcDbEntity
  8
M0
 62
     5
100
AcDbLine
 10
327.745517
 20
882.413686
 11
329.014057
 21
882.413686
  0
LINE
  5
78F
100
AcDbEntity
  8
M0
 62
     5
100
AcDbLine
 10
326.823993
 20
881.213735
 11
326.823993
 21
881.660512
  0
LINE
  5
790
100
AcDbEntity
  8
M0
 62
     5
100
AcDbLine
 10
324.02399
 20
881.213735
 11
324.02399
 21
881.660512
  0
LINE
  5
791
100
AcDbEntity
  8
M0
 62
     5
100
AcDbLine
 10
326.823993
 20
881.213735
 11
328.644077
 21
881.213735
  0
CIRCLE
  5
792
100
AcDbEntity
  8
M0
 62
     5
100
AcDbCircle
 10
325.424015
 20
884.313833
 40
3.0
  0
LINE
  5
793
100
AcDbEntity
  8
M0
 62
     5
100
AcDbLine
 10
326.413959
 20
882.616567
 11
327.121067
 21
883.323842
  0
LINE
  5
794
100
AcDbEntity
  8
M0
 62
     5
100
AcDbLine
 10
327.121067
 20
883.323842
 11
326.131107
 21
884.313589
  0
LINE
  5
795
100
AcDbEntity
  8
M0
 62
     5
100
AcDbLine
 10
324.434055
 20
886.010854
 11
323.726963
 21
885.303579
  0
LINE
  5
796
100
AcDbEntity
  8
M0
 62
     5
100
AcDbLine
 10
323.726963
 20
885.303579
 11
324.716907
 21
884.313833
  0
LINE
  5
797
100
AcDbEntity
  8
M0
 62
     5
100
AcDbLine
 10
322.978794
 20
882.575551
 11
324.716907
 21
884.313833
  0
LINE
  5
798
100
AcDbEntity
  8
M0
 62
     5
100
AcDbLine
 10
323.685901
 20
881.86852
 11
325.423999
 21
883.606557
  0
LINE
  5
799
100
AcDbEntity
  8
M0
 62
     5
100
AcDbLine
 10
327.869205
 20
886.05187
 11
326.131107
 21
884.313589
  0
LINE
  5
79A
100
AcDbEntity
  8
M0
 62
     5
100
AcDbLine
 10
327.162098
 20
886.758901
 11
325.424015
 21
885.020864
  0
LINE
  5
79B
100
AcDbEntity
  8
M0
 62
     5
100
AcDbLine
 10
326.413959
 20
882.616567
 11
325.423999
 21
883.606557
  0
LINE
  5
79C
100
AcDbEntity
  8
M0
 62
     5
100
AcDbLine
 10
324.434055
 20
886.010854
 11
325.424015
 21
885.020864
  0
LINE
  5
79D
100
AcDbEntity
  8
M0
 62
     5
100
AcDbLine
 10
322.943012
 20
899.513784
 11
327.905033
 21
899.513784
  0
LINE
  5
79E
100
AcDbEntity
  8
M0
 62
     5
100
AcDbLine
 10
329.198993
 20
902.513296
 11
329.198993
 21
905.113393
  0
LINE
  5
79F
100
AcDbEntity
  8
M0
 62
     5
100
AcDbLine
 10
327.90488
 20
908.113393
 11
322.943012
 21
908.113393
  0
LINE
  5
7A0
100
AcDbEntity
  8
M0
 62
     5
100
AcDbLine
 10
321.64899
 20
905.113637
 11
321.64899
 21
902.513784
  0
LINE
  5
7A1
100
AcDbEntity
  8
M0
 62
     5
100
AcDbLine
 10
321.64899
 20
902.513784
 11
322.465244
 21
899.866323
  0
LINE
  5
7A2
100
AcDbEntity
  8
M0
 62
     5
100
AcDbLine
 10
321.64899
 20
905.113637
 11
322.465107
 21
907.760366
  0
LINE
  5
7A3
100
AcDbEntity
  8
M0
 62
     5
100
AcDbLine
 10
329.199009
 20
902.51354
 11
328.382816
 21
899.866323
  0
LINE
  5
7A4
100
AcDbEntity
  8
M0
 62
     5
100
AcDbLine
 10
329.199009
 20
905.113393
 11
328.382801
 21
907.760366
  0
ARC
  5
7A5
100
AcDbEntity
  8
M0
 62
     5
100
AcDbCircle
 10
322.943012
 20
900.013784
 40
0.5
100
AcDbArc
 50
197.15252
 51
270.0
  0
ARC
  5
7A6
100
AcDbEntity
  8
M0
 62
     5
100
AcDbCircle
 10
327.905033
 20
900.013784
 40
0.5
100
AcDbArc
 50
270.0
 51
342.84793
  0
ARC
  5
7A7
100
AcDbEntity
  8
M0
 62
     5
100
AcDbCircle
 10
327.90488
 20
907.613149
 40
0.5
100
AcDbArc
 50
17.120719
 51
90.0
  0
ARC
  5
7A8
100
AcDbEntity
  8
M0
 62
     5
100
AcDbCircle
 10
322.943012
 20
907.613149
 40
0.5
100
AcDbArc
 50
90.0
 51
162.878799
  0
CIRCLE
  5
7A9
100
AcDbEntity
  8
M0
 62
     5
100
AcDbCircle
 10
325.424015
 20
903.813833
 40
3.0
  0
LINE
  5
7AA
100
AcDbEntity
  8
M0
 62
     5
100
AcDbLine
 10
326.413959
 20
902.116567
 11
327.121067
 21
902.823842
  0
LINE
  5
7AB
100
AcDbEntity
  8
M0
 62
     5
100
AcDbLine
 10
327.121067
 20
902.823842
 11
326.131107
 21
903.813589
  0
LINE
  5
7AC
100
AcDbEntity
  8
M0
 62
     5
100
AcDbLine
 10
324.434055
 20
905.510854
 11
323.726963
 21
904.803579
  0
LINE
  5
7AD
100
AcDbEntity
  8
M0
 62
     5
100
AcDbLine
 10
323.726963
 20
904.803579
 11
324.716907
 21
903.813833
  0
LINE
  5
7AE
100
AcDbEntity
  8
M0
 62
     5
100
AcDbLine
 10
322.978794
 20
902.075551
 11
324.716907
 21
903.813833
  0
LINE
  5
7AF
100
AcDbEntity
  8
M0
 62
     5
100
AcDbLine
 10
323.685901
 20
901.36852
 11
325.423999
 21
903.106557
  0
LINE
  5
7B0
100
AcDbEntity
  8
M0
 62
     5
100
AcDbLine
 10
327.869205
 20
905.55187
 11
326.131107
 21
903.813589
  0
LINE
  5
7B1
100
AcDbEntity
  8
M0
 62
     5
100
AcDbLine
 10
327.162098
 20
906.258901
 11
325.424015
 21
904.520864
  0
LINE
  5
7B2
100
AcDbEntity
  8
M0
 62
     5
100
AcDbLine
 10
326.413959
 20
902.116567
 11
325.423999
 21
903.106557
  0
LINE
  5
7B3
100
AcDbEntity
  8
M0
 62
     5
100
AcDbLine
 10
324.434055
 20
905.510854
 11
325.424015
 21
904.520864
  0
LINE
  5
7B4
100
AcDbEntity
  8
M0
 62
     5
100
AcDbLine
 10
322.943012
 20
909.013784
 11
327.905033
 21
909.013784
  0
LINE
  5
7B5
100
AcDbEntity
  8
M0
 62
     5
100
AcDbLine
 10
329.198993
 20
912.013296
 11
329.198993
 21
914.613393
  0
LINE
  5
7B6
100
AcDbEntity
  8
M0
 62
     5
100
AcDbLine
 10
327.90488
 20
917.613393
 11
322.943012
 21
917.613393
  0
LINE
  5
7B7
100
AcDbEntity
  8
M0
 62
     5
100
AcDbLine
 10
321.64899
 20
914.613637
 11
321.64899
 21
912.013784
  0
LINE
  5
7B8
100
AcDbEntity
  8
M0
 62
     5
100
AcDbLine
 10
321.64899
 20
912.013784
 11
322.465244
 21
909.366323
  0
LINE
  5
7B9
100
AcDbEntity
  8
M0
 62
     5
100
AcDbLine
 10
321.64899
 20
914.613637
 11
322.465107
 21
917.260366
  0
LINE
  5
7BA
100
AcDbEntity
  8
M0
 62
     5
100
AcDbLine
 10
329.199009
 20
912.01354
 11
328.382816
 21
909.366323
  0
LINE
  5
7BB
100
AcDbEntity
  8
M0
 62
     5
100
AcDbLine
 10
329.199009
 20
914.613393
 11
328.382801
 21
917.260366
  0
ARC
  5
7BC
100
AcDbEntity
  8
M0
 62
     5
100
AcDbCircle
 10
322.943012
 20
909.513784
 40
0.5
100
AcDbArc
 50
197.15252
 51
270.0
  0
ARC
  5
7BD
100
AcDbEntity
  8
M0
 62
     5
100
AcDbCircle
 10
327.905033
 20
909.513784
 40
0.5
100
AcDbArc
 50
270.0
 51
342.84793
  0
ARC
  5
7BE
100
AcDbEntity
  8
M0
 62
     5
100
AcDbCircle
 10
327.90488
 20
917.113149
 40
0.5
100
AcDbArc
 50
17.120719
 51
90.0
  0
ARC
  5
7BF
100
AcDbEntity
  8
M0
 62
     5
100
AcDbCircle
 10
322.943012
 20
917.113149
 40
0.5
100
AcDbArc
 50
90.0
 51
162.878799
  0
CIRCLE
  5
7C0
100
AcDbEntity
  8
M0
 62
     5
100
AcDbCircle
 10
325.424015
 20
913.313833
 40
3.0
  0
LINE
  5
7C1
100
AcDbEntity
  8
M0
 62
     5
100
AcDbLine
 10
326.413959
 20
911.616567
 11
327.121067
 21
912.323842
  0
LINE
  5
7C2
100
AcDbEntity
  8
M0
 62
     5
100
AcDbLine
 10
327.121067
 20
912.323842
 11
326.131107
 21
913.313589
  0
LINE
  5
7C3
100
AcDbEntity
  8
M0
 62
     5
100
AcDbLine
 10
324.434055
 20
915.010854
 11
323.726963
 21
914.303579
  0
LINE
  5
7C4
100
AcDbEntity
  8
M0
 62
     5
100
AcDbLine
 10
323.726963
 20
914.303579
 11
324.716907
 21
913.313833
  0
LINE
  5
7C5
100
AcDbEntity
  8
M0
 62
     5
100
AcDbLine
 10
322.978794
 20
911.575551
 11
324.716907
 21
913.313833
  0
LINE
  5
7C6
100
AcDbEntity
  8
M0
 62
     5
100
AcDbLine
 10
323.685901
 20
910.86852
 11
325.423999
 21
912.606557
  0
LINE
  5
7C7
100
AcDbEntity
  8
M0
 62
     5
100
AcDbLine
 10
327.869205
 20
915.05187
 11
326.131107
 21
913.313589
  0
LINE
  5
7C8
100
AcDbEntity
  8
M0
 62
     5
100
AcDbLine
 10
327.162098
 20
915.758901
 11
325.424015
 21
914.020864
  0
LINE
  5
7C9
100
AcDbEntity
  8
M0
 62
     5
100
AcDbLine
 10
326.413959
 20
911.616567
 11
325.423999
 21
912.606557
  0
LINE
  5
7CA
100
AcDbEntity
  8
M0
 62
     5
100
AcDbLine
 10
324.434055
 20
915.010854
 11
325.424015
 21
914.020864
  0
LINE
  5
7CB
100
AcDbEntity
  8
M0
 62
     5
100
AcDbLine
 10
172.943012
 20
870.41393
 11
177.905033
 21
870.41393
  0
LINE
  5
7CC
100
AcDbEntity
  8
M0
 62
     5
100
AcDbLine
 10
179.198993
 20
873.413442
 11
179.198993
 21
876.01354
  0
LINE
  5
7CD
100
AcDbEntity
  8
M0
 62
     5
100
AcDbLine
 10
177.90488
 20
879.01354
 11
172.943012
 21
879.01354
  0
LINE
  5
7CE
100
AcDbEntity
  8
M0
 62
     5
100
AcDbLine
 10
171.64899
 20
876.013784
 11
171.64899
 21
873.41393
  0
LINE
  5
7CF
100
AcDbEntity
  8
M0
 62
     5
100
AcDbLine
 10
171.64899
 20
873.41393
 11
172.465244
 21
870.766469
  0
LINE
  5
7D0
100
AcDbEntity
  8
M0
 62
     5
100
AcDbLine
 10
171.64899
 20
876.013784
 11
172.465107
 21
878.660512
  0
LINE
  5
7D1
100
AcDbEntity
  8
M0
 62
     5
100
AcDbLine
 10
179.199009
 20
873.413686
 11
178.382816
 21
870.766469
  0
LINE
  5
7D2
100
AcDbEntity
  8
M0
 62
     5
100
AcDbLine
 10
179.199009
 20
876.01354
 11
178.382801
 21
878.660512
  0
ARC
  5
7D3
100
AcDbEntity
  8
M0
 62
     5
100
AcDbCircle
 10
172.943012
 20
870.91393
 40
0.5
100
AcDbArc
 50
197.15252
 51
270.0
  0
ARC
  5
7D4
100
AcDbEntity
  8
M0
 62
     5
100
AcDbCircle
 10
177.905033
 20
870.91393
 40
0.5
100
AcDbArc
 50
270.0
 51
342.84793
  0
ARC
  5
7D5
100
AcDbEntity
  8
M0
 62
     5
100
AcDbCircle
 10
177.90488
 20
878.513296
 40
0.5
100
AcDbArc
 50
17.120719
 51
90.0
  0
ARC
  5
7D6
100
AcDbEntity
  8
M0
 62
     5
100
AcDbCircle
 10
172.943012
 20
878.513296
 40
0.5
100
AcDbArc
 50
90.0
 51
162.878799
  0
CIRCLE
  5
7D7
100
AcDbEntity
  8
M0
 62
     5
100
AcDbCircle
 10
175.424015
 20
874.713979
 40
3.0
  0
LINE
  5
7D8
100
AcDbEntity
  8
M0
 62
     5
100
AcDbLine
 10
176.413959
 20
873.016714
 11
177.121067
 21
873.723989
  0
LINE
  5
7D9
100
AcDbEntity
  8
M0
 62
     5
100
AcDbLine
 10
177.121067
 20
873.723989
 11
176.131107
 21
874.713735
  0
LINE
  5
7DA
100
AcDbEntity
  8
M0
 62
     5
100
AcDbLine
 10
174.434055
 20
876.411001
 11
173.726963
 21
875.703725
  0
LINE
  5
7DB
100
AcDbEntity
  8
M0
 62
     5
100
AcDbLine
 10
173.726963
 20
875.703725
 11
174.716907
 21
874.713979
  0
LINE
  5
7DC
100
AcDbEntity
  8
M0
 62
     5
100
AcDbLine
 10
172.978794
 20
872.975698
 11
174.716907
 21
874.713979
  0
LINE
  5
7DD
100
AcDbEntity
  8
M0
 62
     5
100
AcDbLine
 10
173.685901
 20
872.268667
 11
175.423999
 21
874.006704
  0
LINE
  5
7DE
100
AcDbEntity
  8
M0
 62
     5
100
AcDbLine
 10
177.869205
 20
876.452016
 11
176.131107
 21
874.713735
  0
LINE
  5
7DF
100
AcDbEntity
  8
M0
 62
     5
100
AcDbLine
 10
177.162098
 20
877.159048
 11
175.424015
 21
875.42101
  0
LINE
  5
7E0
100
AcDbEntity
  8
M0
 62
     5
100
AcDbLine
 10
176.413959
 20
873.016714
 11
175.423999
 21
874.006704
  0
LINE
  5
7E1
100
AcDbEntity
  8
M0
 62
     5
100
AcDbLine
 10
174.434055
 20
876.411001
 11
175.424015
 21
875.42101
  0
LINE
  5
7E2
100
AcDbEntity
  8
M0
 62
     5
100
AcDbLine
 10
172.943012
 20
880.013784
 11
177.905033
 21
880.013784
  0
LINE
  5
7E3
100
AcDbEntity
  8
M0
 62
     5
100
AcDbLine
 10
179.198993
 20
883.013296
 11
179.198993
 21
885.613393
  0
LINE
  5
7E4
100
AcDbEntity
  8
M0
 62
     5
100
AcDbLine
 10
177.90488
 20
888.613393
 11
172.943012
 21
888.613393
  0
LINE
  5
7E5
100
AcDbEntity
  8
M0
 62
     5
100
AcDbLine
 10
171.64899
 20
885.613637
 11
171.64899
 21
883.013784
  0
LINE
  5
7E6
100
AcDbEntity
  8
M0
 62
     5
100
AcDbLine
 10
171.64899
 20
883.013784
 11
172.465244
 21
880.366323
  0
LINE
  5
7E7
100
AcDbEntity
  8
M0
 62
     5
100
AcDbLine
 10
171.64899
 20
885.613637
 11
172.465107
 21
888.260366
  0
LINE
  5
7E8
100
AcDbEntity
  8
M0
 62
     5
100
AcDbLine
 10
179.199009
 20
883.01354
 11
178.382816
 21
880.366323
  0
LINE
  5
7E9
100
AcDbEntity
  8
M0
 62
     5
100
AcDbLine
 10
179.199009
 20
885.613393
 11
178.382801
 21
888.260366
  0
ARC
  5
7EA
100
AcDbEntity
  8
M0
 62
     5
100
AcDbCircle
 10
172.943012
 20
880.513784
 40
0.5
100
AcDbArc
 50
197.15252
 51
270.0
  0
ARC
  5
7EB
100
AcDbEntity
  8
M0
 62
     5
100
AcDbCircle
 10
177.905033
 20
880.513784
 40
0.5
100
AcDbArc
 50
270.0
 51
342.84793
  0
ARC
  5
7EC
100
AcDbEntity
  8
M0
 62
     5
100
AcDbCircle
 10
177.90488
 20
888.113149
 40
0.5
100
AcDbArc
 50
17.120719
 51
90.0
  0
ARC
  5
7ED
100
AcDbEntity
  8
M0
 62
     5
100
AcDbCircle
 10
172.943012
 20
888.113149
 40
0.5
100
AcDbArc
 50
90.0
 51
162.878799
  0
CIRCLE
  5
7EE
100
AcDbEntity
  8
M0
 62
     5
100
AcDbCircle
 10
175.424015
 20
884.313833
 40
3.0
  0
LINE
  5
7EF
100
AcDbEntity
  8
M0
 62
     5
100
AcDbLine
 10
176.413959
 20
882.616567
 11
177.121067
 21
883.323842
  0
LINE
  5
7F0
100
AcDbEntity
  8
M0
 62
     5
100
AcDbLine
 10
177.121067
 20
883.323842
 11
176.131107
 21
884.313589
  0
LINE
  5
7F1
100
AcDbEntity
  8
M0
 62
     5
100
AcDbLine
 10
174.434055
 20
886.010854
 11
173.726963
 21
885.303579
  0
LINE
  5
7F2
100
AcDbEntity
  8
M0
 62
     5
100
AcDbLine
 10
173.726963
 20
885.303579
 11
174.716907
 21
884.313833
  0
LINE
  5
7F3
100
AcDbEntity
  8
M0
 62
     5
100
AcDbLine
 10
172.978794
 20
882.575551
 11
174.716907
 21
884.313833
  0
LINE
  5
7F4
100
AcDbEntity
  8
M0
 62
     5
100
AcDbLine
 10
173.685901
 20
881.86852
 11
175.423999
 21
883.606557
  0
LINE
  5
7F5
100
AcDbEntity
  8
M0
 62
     5
100
AcDbLine
 10
177.869205
 20
886.05187
 11
176.131107
 21
884.313589
  0
LINE
  5
7F6
100
AcDbEntity
  8
M0
 62
     5
100
AcDbLine
 10
177.162098
 20
886.758901
 11
175.424015
 21
885.020864
  0
LINE
  5
7F7
100
AcDbEntity
  8
M0
 62
     5
100
AcDbLine
 10
176.413959
 20
882.616567
 11
175.423999
 21
883.606557
  0
LINE
  5
7F8
100
AcDbEntity
  8
M0
 62
     5
100
AcDbLine
 10
174.434055
 20
886.010854
 11
175.424015
 21
885.020864
  0
LINE
  5
7F9
100
AcDbEntity
  8
M0
 62
     5
100
AcDbLine
 10
172.943012
 20
899.513784
 11
177.905033
 21
899.513784
  0
LINE
  5
7FA
100
AcDbEntity
  8
M0
 62
     5
100
AcDbLine
 10
179.198993
 20
902.513296
 11
179.198993
 21
905.113393
  0
LINE
  5
7FB
100
AcDbEntity
  8
M0
 62
     5
100
AcDbLine
 10
177.90488
 20
908.113393
 11
172.943012
 21
908.113393
  0
LINE
  5
7FC
100
AcDbEntity
  8
M0
 62
     5
100
AcDbLine
 10
171.64899
 20
905.113637
 11
171.64899
 21
902.513784
  0
LINE
  5
7FD
100
AcDbEntity
  8
M0
 62
     5
100
AcDbLine
 10
171.64899
 20
902.513784
 11
172.465244
 21
899.866323
  0
LINE
  5
7FE
100
AcDbEntity
  8
M0
 62
     5
100
AcDbLine
 10
171.64899
 20
905.113637
 11
172.465107
 21
907.760366
  0
LINE
  5
7FF
100
AcDbEntity
  8
M0
 62
     5
100
AcDbLine
 10
179.199009
 20
902.51354
 11
178.382816
 21
899.866323
  0
LINE
  5
800
100
AcDbEntity
  8
M0
 62
     5
100
AcDbLine
 10
179.199009
 20
905.113393
 11
178.382801
 21
907.760366
  0
ARC
  5
801
100
AcDbEntity
  8
M0
 62
     5
100
AcDbCircle
 10
172.943012
 20
900.013784
 40
0.5
100
AcDbArc
 50
197.15252
 51
270.0
  0
ARC
  5
802
100
AcDbEntity
  8
M0
 62
     5
100
AcDbCircle
 10
177.905033
 20
900.013784
 40
0.5
100
AcDbArc
 50
270.0
 51
342.84793
  0
ARC
  5
803
100
AcDbEntity
  8
M0
 62
     5
100
AcDbCircle
 10
177.90488
 20
907.613149
 40
0.5
100
AcDbArc
 50
17.120719
 51
90.0
  0
ARC
  5
804
100
AcDbEntity
  8
M0
 62
     5
100
AcDbCircle
 10
172.943012
 20
907.613149
 40
0.5
100
AcDbArc
 50
90.0
 51
162.878799
  0
CIRCLE
  5
805
100
AcDbEntity
  8
M0
 62
     5
100
AcDbCircle
 10
175.424015
 20
903.813833
 40
3.0
  0
LINE
  5
806
100
AcDbEntity
  8
M0
 62
     5
100
AcDbLine
 10
176.413959
 20
902.116567
 11
177.121067
 21
902.823842
  0
LINE
  5
807
100
AcDbEntity
  8
M0
 62
     5
100
AcDbLine
 10
177.121067
 20
902.823842
 11
176.131107
 21
903.813589
  0
LINE
  5
808
100
AcDbEntity
  8
M0
 62
     5
100
AcDbLine
 10
174.434055
 20
905.510854
 11
173.726963
 21
904.803579
  0
LINE
  5
809
100
AcDbEntity
  8
M0
 62
     5
100
AcDbLine
 10
173.726963
 20
904.803579
 11
174.716907
 21
903.813833
  0
LINE
  5
80A
100
AcDbEntity
  8
M0
 62
     5
100
AcDbLine
 10
172.978794
 20
902.075551
 11
174.716907
 21
903.813833
  0
LINE
  5
80B
100
AcDbEntity
  8
M0
 62
     5
100
AcDbLine
 10
173.685901
 20
901.36852
 11
175.423999
 21
903.106557
  0
LINE
  5
80C
100
AcDbEntity
  8
M0
 62
     5
100
AcDbLine
 10
177.869205
 20
905.55187
 11
176.131107
 21
903.813589
  0
LINE
  5
80D
100
AcDbEntity
  8
M0
 62
     5
100
AcDbLine
 10
177.162098
 20
906.258901
 11
175.424015
 21
904.520864
  0
LINE
  5
80E
100
AcDbEntity
  8
M0
 62
     5
100
AcDbLine
 10
176.413959
 20
902.116567
 11
175.423999
 21
903.106557
  0
LINE
  5
80F
100
AcDbEntity
  8
M0
 62
     5
100
AcDbLine
 10
174.434055
 20
905.510854
 11
175.424015
 21
904.520864
  0
LINE
  5
810
100
AcDbEntity
  8
M0
 62
     5
100
AcDbLine
 10
172.943012
 20
909.013784
 11
177.905033
 21
909.013784
  0
LINE
  5
811
100
AcDbEntity
  8
M0
 62
     5
100
AcDbLine
 10
179.198993
 20
912.013296
 11
179.198993
 21
914.613393
  0
LINE
  5
812
100
AcDbEntity
  8
M0
 62
     5
100
AcDbLine
 10
177.90488
 20
917.613393
 11
172.943012
 21
917.613393
  0
LINE
  5
813
100
AcDbEntity
  8
M0
 62
     5
100
AcDbLine
 10
171.64899
 20
914.613637
 11
171.64899
 21
912.013784
  0
LINE
  5
814
100
AcDbEntity
  8
M0
 62
     5
100
AcDbLine
 10
171.64899
 20
912.013784
 11
172.465244
 21
909.366323
  0
LINE
  5
815
100
AcDbEntity
  8
M0
 62
     5
100
AcDbLine
 10
171.64899
 20
914.613637
 11
172.465107
 21
917.260366
  0
LINE
  5
816
100
AcDbEntity
  8
M0
 62
     5
100
AcDbLine
 10
179.199009
 20
912.01354
 11
178.382816
 21
909.366323
  0
LINE
  5
817
100
AcDbEntity
  8
M0
 62
     5
100
AcDbLine
 10
179.199009
 20
914.613393
 11
178.382801
 21
917.260366
  0
ARC
  5
818
100
AcDbEntity
  8
M0
 62
     5
100
AcDbCircle
 10
172.943012
 20
909.513784
 40
0.5
100
AcDbArc
 50
197.15252
 51
270.0
  0
ARC
  5
819
100
AcDbEntity
  8
M0
 62
     5
100
AcDbCircle
 10
177.905033
 20
909.513784
 40
0.5
100
AcDbArc
 50
270.0
 51
342.84793
  0
ARC
  5
81A
100
AcDbEntity
  8
M0
 62
     5
100
AcDbCircle
 10
177.90488
 20
917.113149
 40
0.5
100
AcDbArc
 50
17.120719
 51
90.0
  0
ARC
  5
81B
100
AcDbEntity
  8
M0
 62
     5
100
AcDbCircle
 10
172.943012
 20
917.113149
 40
0.5
100
AcDbArc
 50
90.0
 51
162.878799
  0
CIRCLE
  5
81C
100
AcDbEntity
  8
M0
 62
     5
100
AcDbCircle
 10
175.424015
 20
913.313833
 40
3.0
  0
LINE
  5
81D
100
AcDbEntity
  8
M0
 62
     5
100
AcDbLine
 10
176.413959
 20
911.616567
 11
177.121067
 21
912.323842
  0
LINE
  5
81E
100
AcDbEntity
  8
M0
 62
     5
100
AcDbLine
 10
177.121067
 20
912.323842
 11
176.131107
 21
913.313589
  0
LINE
  5
81F
100
AcDbEntity
  8
M0
 62
     5
100
AcDbLine
 10
174.434055
 20
915.010854
 11
173.726963
 21
914.303579
  0
LINE
  5
820
100
AcDbEntity
  8
M0
 62
     5
100
AcDbLine
 10
173.726963
 20
914.303579
 11
174.716907
 21
913.313833
  0
LINE
  5
821
100
AcDbEntity
  8
M0
 62
     5
100
AcDbLine
 10
172.978794
 20
911.575551
 11
174.716907
 21
913.313833
  0
LINE
  5
822
100
AcDbEntity
  8
M0
 62
     5
100
AcDbLine
 10
173.685901
 20
910.86852
 11
175.423999
 21
912.606557
  0
LINE
  5
823
100
AcDbEntity
  8
M0
 62
     5
100
AcDbLine
 10
177.869205
 20
915.05187
 11
176.131107
 21
913.313589
  0
LINE
  5
824
100
AcDbEntity
  8
M0
 62
     5
100
AcDbLine
 10
177.162098
 20
915.758901
 11
175.424015
 21
914.020864
  0
LINE
  5
825
100
AcDbEntity
  8
M0
 62
     5
100
AcDbLine
 10
176.413959
 20
911.616567
 11
175.423999
 21
912.606557
  0
LINE
  5
826
100
AcDbEntity
  8
M0
 62
     5
100
AcDbLine
 10
174.434055
 20
915.010854
 11
175.424015
 21
914.020864
  0
LINE
  5
827
100
AcDbEntity
  8
M0
 62
     5
100
AcDbLine
 10
214.943012
 20
960.514223
 11
219.905033
 21
960.514223
  0
LINE
  5
828
100
AcDbEntity
  8
M0
 62
     5
100
AcDbLine
 10
221.198993
 20
963.513735
 11
221.198993
 21
966.113833
  0
LINE
  5
829
100
AcDbEntity
  8
M0
 62
     5
100
AcDbLine
 10
219.90488
 20
969.113833
 11
214.943012
 21
969.113833
  0
LINE
  5
82A
100
AcDbEntity
  8
M0
 62
     5
100
AcDbLine
 10
213.64899
 20
966.114077
 11
213.64899
 21
963.514223
  0
LINE
  5
82B
100
AcDbEntity
  8
M0
 62
     5
100
AcDbLine
 10
213.64899
 20
963.514223
 11
214.465244
 21
960.866762
  0
LINE
  5
82C
100
AcDbEntity
  8
M0
 62
     5
100
AcDbLine
 10
213.64899
 20
966.114077
 11
214.465107
 21
968.760805
  0
LINE
  5
82D
100
AcDbEntity
  8
M0
 62
     5
100
AcDbLine
 10
221.199009
 20
963.513979
 11
220.382816
 21
960.866762
  0
LINE
  5
82E
100
AcDbEntity
  8
M0
 62
     5
100
AcDbLine
 10
221.199009
 20
966.113833
 11
220.382801
 21
968.760805
  0
ARC
  5
82F
100
AcDbEntity
  8
M0
 62
     5
100
AcDbCircle
 10
214.943012
 20
961.014223
 40
0.5
100
AcDbArc
 50
197.15252
 51
270.0
  0
ARC
  5
830
100
AcDbEntity
  8
M0
 62
     5
100
AcDbCircle
 10
219.905033
 20
961.014223
 40
0.5
100
AcDbArc
 50
270.0
 51
342.84793
  0
ARC
  5
831
100
AcDbEntity
  8
M0
 62
     5
100
AcDbCircle
 10
219.90488
 20
968.613589
 40
0.5
100
AcDbArc
 50
17.120719
 51
90.0
  0
ARC
  5
832
100
AcDbEntity
  8
M0
 62
     5
100
AcDbCircle
 10
214.943012
 20
968.613589
 40
0.5
100
AcDbArc
 50
90.0
 51
162.878799
  0
LINE
  5
833
100
AcDbEntity
  8
M0
 62
     5
100
AcDbLine
 10
214.204029
 20
967.914126
 11
216.02399
 21
967.914126
  0
LINE
  5
834
100
AcDbEntity
  8
M0
 62
     5
100
AcDbLine
 10
214.203968
 20
961.714175
 11
216.02399
 21
961.714175
  0
LINE
  5
835
100
AcDbEntity
  8
M0
 62
     5
100
AcDbLine
 10
213.834003
 20
962.914126
 11
215.102497
 21
962.914126
  0
LINE
  5
836
100
AcDbEntity
  8
M0
 62
     5
100
AcDbLine
 10
213.833942
 20
966.71393
 11
215.102085
 21
966.71393
  0
LINE
  5
837
100
AcDbEntity
  8
M0
 62
     5
100
AcDbLine
 10
219.745517
 20
962.914126
 11
221.014057
 21
962.914126
  0
LINE
  5
838
100
AcDbEntity
  8
M0
 62
     5
100
AcDbLine
 10
219.745929
 20
966.71393
 11
221.013965
 21
966.71393
  0
LINE
  5
839
100
AcDbEntity
  8
M0
 62
     5
100
AcDbLine
 10
218.823993
 20
961.714175
 11
218.823993
 21
962.160952
  0
LINE
  5
83A
100
AcDbEntity
  8
M0
 62
     5
100
AcDbLine
 10
216.02399
 20
961.714175
 11
216.02399
 21
962.160952
  0
LINE
  5
83B
100
AcDbEntity
  8
M0
 62
     5
100
AcDbLine
 10
216.02399
 20
967.914126
 11
216.02399
 21
967.467348
  0
LINE
  5
83C
100
AcDbEntity
  8
M0
 62
     5
100
AcDbLine
 10
218.823993
 20
967.914126
 11
218.823993
 21
967.467348
  0
LINE
  5
83D
100
AcDbEntity
  8
M0
 62
     5
100
AcDbLine
 10
218.823993
 20
961.714175
 11
220.644077
 21
961.714175
  0
LINE
  5
83E
100
AcDbEntity
  8
M0
 62
     5
100
AcDbLine
 10
218.823993
 20
967.914126
 11
220.643879
 21
967.914126
  0
CIRCLE
  5
83F
100
AcDbEntity
  8
M0
 62
     5
100
AcDbCircle
 10
217.424015
 20
964.814272
 40
3.0
  0
LINE
  5
840
100
AcDbEntity
  8
M0
 62
     5
100
AcDbLine
 10
218.413959
 20
963.117007
 11
219.121067
 21
963.824282
  0
LINE
  5
841
100
AcDbEntity
  8
M0
 62
     5
100
AcDbLine
 10
219.121067
 20
963.824282
 11
218.131107
 21
964.814028
  0
LINE
  5
842
100
AcDbEntity
  8
M0
 62
     5
100
AcDbLine
 10
216.434055
 20
966.511294
 11
215.726963
 21
965.804018
  0
LINE
  5
843
100
AcDbEntity
  8
M0
 62
     5
100
AcDbLine
 10
215.726963
 20
965.804018
 11
216.716907
 21
964.814272
  0
LINE
  5
844
100
AcDbEntity
  8
M0
 62
     5
100
AcDbLine
 10
214.978794
 20
963.075991
 11
216.716907
 21
964.814272
  0
LINE
  5
845
100
AcDbEntity
  8
M0
 62
     5
100
AcDbLine
 10
215.685901
 20
962.36896
 11
217.423999
 21
964.106997
  0
LINE
  5
846
100
AcDbEntity
  8
M0
 62
     5
100
AcDbLine
 10
219.869205
 20
966.552309
 11
218.131107
 21
964.814028
  0
LINE
  5
847
100
AcDbEntity
  8
M0
 62
     5
100
AcDbLine
 10
219.162098
 20
967.259341
 11
217.424015
 21
965.521303
  0
LINE
  5
848
100
AcDbEntity
  8
M0
 62
     5
100
AcDbLine
 10
218.413959
 20
963.117007
 11
217.423999
 21
964.106997
  0
LINE
  5
849
100
AcDbEntity
  8
M0
 62
     5
100
AcDbLine
 10
216.434055
 20
966.511294
 11
217.424015
 21
965.521303
  0
LINE
  5
84A
100
AcDbEntity
  8
M0
 62
     5
100
AcDbLine
 10
277.943012
 20
960.514223
 11
282.905033
 21
960.514223
  0
LINE
  5
84B
100
AcDbEntity
  8
M0
 62
     5
100
AcDbLine
 10
284.198993
 20
963.513735
 11
284.198993
 21
966.113833
  0
LINE
  5
84C
100
AcDbEntity
  8
M0
 62
     5
100
AcDbLine
 10
282.90488
 20
969.113833
 11
277.943012
 21
969.113833
  0
LINE
  5
84D
100
AcDbEntity
  8
M0
 62
     5
100
AcDbLine
 10
276.64899
 20
966.114077
 11
276.64899
 21
963.514223
  0
LINE
  5
84E
100
AcDbEntity
  8
M0
 62
     5
100
AcDbLine
 10
276.64899
 20
963.514223
 11
277.465244
 21
960.866762
  0
LINE
  5
84F
100
AcDbEntity
  8
M0
 62
     5
100
AcDbLine
 10
276.64899
 20
966.114077
 11
277.465107
 21
968.760805
  0
LINE
  5
850
100
AcDbEntity
  8
M0
 62
     5
100
AcDbLine
 10
284.199009
 20
963.513979
 11
283.382816
 21
960.866762
  0
LINE
  5
851
100
AcDbEntity
  8
M0
 62
     5
100
AcDbLine
 10
284.199009
 20
966.113833
 11
283.382801
 21
968.760805
  0
ARC
  5
852
100
AcDbEntity
  8
M0
 62
     5
100
AcDbCircle
 10
277.943012
 20
961.014223
 40
0.5
100
AcDbArc
 50
197.15252
 51
270.0
  0
ARC
  5
853
100
AcDbEntity
  8
M0
 62
     5
100
AcDbCircle
 10
282.905033
 20
961.014223
 40
0.5
100
AcDbArc
 50
270.0
 51
342.84793
  0
ARC
  5
854
100
AcDbEntity
  8
M0
 62
     5
100
AcDbCircle
 10
282.90488
 20
968.613589
 40
0.5
100
AcDbArc
 50
17.120719
 51
90.0
  0
ARC
  5
855
100
AcDbEntity
  8
M0
 62
     5
100
AcDbCircle
 10
277.943012
 20
968.613589
 40
0.5
100
AcDbArc
 50
90.0
 51
162.878799
  0
LINE
  5
856
100
AcDbEntity
  8
M0
 62
     5
100
AcDbLine
 10
277.204029
 20
967.914126
 11
279.02399
 21
967.914126
  0
LINE
  5
857
100
AcDbEntity
  8
M0
 62
     5
100
AcDbLine
 10
277.203968
 20
961.714175
 11
279.02399
 21
961.714175
  0
LINE
  5
858
100
AcDbEntity
  8
M0
 62
     5
100
AcDbLine
 10
276.834003
 20
962.914126
 11
278.102497
 21
962.914126
  0
LINE
  5
859
100
AcDbEntity
  8
M0
 62
     5
100
AcDbLine
 10
276.833942
 20
966.71393
 11
278.102085
 21
966.71393
  0
LINE
  5
85A
100
AcDbEntity
  8
M0
 62
     5
100
AcDbLine
 10
282.745517
 20
962.914126
 11
284.014057
 21
962.914126
  0
LINE
  5
85B
100
AcDbEntity
  8
M0
 62
     5
100
AcDbLine
 10
282.745929
 20
966.71393
 11
284.013965
 21
966.71393
  0
LINE
  5
85C
100
AcDbEntity
  8
M0
 62
     5
100
AcDbLine
 10
281.823993
 20
961.714175
 11
281.823993
 21
962.160952
  0
LINE
  5
85D
100
AcDbEntity
  8
M0
 62
     5
100
AcDbLine
 10
279.02399
 20
961.714175
 11
279.02399
 21
962.160952
  0
LINE
  5
85E
100
AcDbEntity
  8
M0
 62
     5
100
AcDbLine
 10
279.02399
 20
967.914126
 11
279.02399
 21
967.467348
  0
LINE
  5
85F
100
AcDbEntity
  8
M0
 62
     5
100
AcDbLine
 10
281.823993
 20
967.914126
 11
281.823993
 21
967.467348
  0
LINE
  5
860
100
AcDbEntity
  8
M0
 62
     5
100
AcDbLine
 10
281.823993
 20
961.714175
 11
283.644077
 21
961.714175
  0
LINE
  5
861
100
AcDbEntity
  8
M0
 62
     5
100
AcDbLine
 10
281.823993
 20
967.914126
 11
283.643879
 21
967.914126
  0
CIRCLE
  5
862
100
AcDbEntity
  8
M0
 62
     5
100
AcDbCircle
 10
280.424015
 20
964.814272
 40
3.0
  0
LINE
  5
863
100
AcDbEntity
  8
M0
 62
     5
100
AcDbLine
 10
281.413959
 20
963.117007
 11
282.121067
 21
963.824282
  0
LINE
  5
864
100
AcDbEntity
  8
M0
 62
     5
100
AcDbLine
 10
282.121067
 20
963.824282
 11
281.131107
 21
964.814028
  0
LINE
  5
865
100
AcDbEntity
  8
M0
 62
     5
100
AcDbLine
 10
279.434055
 20
966.511294
 11
278.726963
 21
965.804018
  0
LINE
  5
866
100
AcDbEntity
  8
M0
 62
     5
100
AcDbLine
 10
278.726963
 20
965.804018
 11
279.716907
 21
964.814272
  0
LINE
  5
867
100
AcDbEntity
  8
M0
 62
     5
100
AcDbLine
 10
277.978794
 20
963.075991
 11
279.716907
 21
964.814272
  0
LINE
  5
868
100
AcDbEntity
  8
M0
 62
     5
100
AcDbLine
 10
278.685901
 20
962.36896
 11
280.423999
 21
964.106997
  0
LINE
  5
869
100
AcDbEntity
  8
M0
 62
     5
100
AcDbLine
 10
282.869205
 20
966.552309
 11
281.131107
 21
964.814028
  0
LINE
  5
86A
100
AcDbEntity
  8
M0
 62
     5
100
AcDbLine
 10
282.162098
 20
967.259341
 11
280.424015
 21
965.521303
  0
LINE
  5
86B
100
AcDbEntity
  8
M0
 62
     5
100
AcDbLine
 10
281.413959
 20
963.117007
 11
280.423999
 21
964.106997
  0
LINE
  5
86C
100
AcDbEntity
  8
M0
 62
     5
100
AcDbLine
 10
279.434055
 20
966.511294
 11
280.424015
 21
965.521303
  0
LINE
  5
86D
100
AcDbEntity
  8
M0
  6
DIVIDE
 62
   253
100
AcDbLine
 10
331.423891
 20
920.51412
 11
331.423891
 21
867.514128
  0
LINE
  5
86E
100
AcDbEntity
  8
M0
  6
DIVIDE
 62
   253
100
AcDbLine
 10
341.423891
 20
920.51412
 11
338.923891
 21
920.51412
  0
LINE
  5
86F
100
AcDbEntity
  8
M0
  6
DIVIDE
 62
   253
100
AcDbLine
 10
341.423891
 20
867.514128
 11
338.923891
 21
867.514128
  0
LINE
  5
870
100
AcDbEntity
  8
M0
  6
DIVIDE
 62
   253
100
AcDbLine
 10
338.923891
 20
867.514128
 11
341.423891
 21
867.514128
  0
LINE
  5
871
100
AcDbEntity
  8
M0
  6
DIVIDE
 62
   253
100
AcDbLine
 10
341.923891
 20
923.01412
 11
343.423891
 21
923.01412
  0
ARC
  5
872
100
AcDbEntity
  8
M0
  6
DIVIDE
 62
   253
100
AcDbCircle
 10
341.923891
 20
922.51412
 40
0.5
100
AcDbArc
 50
90.0
 51
180.0
  0
LINE
  5
873
100
AcDbEntity
  8
M0
  6
DIVIDE
 62
   253
100
AcDbLine
 10
338.923891
 20
920.51412
 11
338.923891
 21
925.01412
  0
ARC
  5
874
100
AcDbEntity
  8
M0
  6
DIVIDE
 62
   253
100
AcDbCircle
 10
334.923891
 20
925.01412
 40
4.0
100
AcDbArc
 50
359.999781
 51
445.698717
  0
LINE
  5
875
100
AcDbEntity
  8
M0
  6
DIVIDE
 62
   253
100
AcDbLine
 10
341.423891
 20
922.51412
 11
341.423891
 21
920.51412
  0
LINE
  5
876
100
AcDbEntity
  8
M0
  6
DIVIDE
 62
   253
100
AcDbLine
 10
338.923891
 20
867.514128
 11
338.923891
 21
863.014151
  0
ARC
  5
877
100
AcDbEntity
  8
M0
  6
DIVIDE
 62
   253
100
AcDbCircle
 10
334.923891
 20
863.014151
 40
4.0
100
AcDbArc
 50
-85.698717
 51
0.0
  0
ARC
  5
878
100
AcDbEntity
  8
M0
  6
DIVIDE
 62
   253
100
AcDbCircle
 10
341.923891
 20
865.514151
 40
0.5
100
AcDbArc
 50
179.998251
 51
270.0
  0
LINE
  5
879
100
AcDbEntity
  8
M0
  6
DIVIDE
 62
   253
100
AcDbLine
 10
341.923891
 20
865.014151
 11
343.423891
 21
865.014151
  0
LINE
  5
87A
100
AcDbEntity
  8
M0
  6
DIVIDE
 62
   253
100
AcDbLine
 10
341.423891
 20
867.514128
 11
341.423891
 21
865.514151
  0
LINE
  5
87B
100
AcDbEntity
  8
M0
  6
DIVIDE
 62
   253
100
AcDbLine
 10
343.423891
 20
923.01412
 11
343.423891
 21
865.014151
  0
ARC
  5
87C
100
AcDbEntity
  8
M0
  6
DIVIDE
 62
   253
100
AcDbCircle
 10
334.423891
 20
863.014151
 40
2.25
100
AcDbArc
 50
290.827612
 51
429.172388
  0
ARC
  5
87D
100
AcDbEntity
  8
M0
  6
DIVIDE
 62
   253
100
AcDbCircle
 10
334.423891
 20
925.01412
 40
2.25
100
AcDbArc
 50
290.827612
 51
429.172388
  0
LINE
  5
87E
100
AcDbEntity
  8
M0
  6
DIVIDE
 62
   253
100
AcDbLine
 10
169.424352
 20
920.51412
 11
169.424352
 21
867.514128
  0
LINE
  5
87F
100
AcDbEntity
  8
M0
  6
DIVIDE
 62
   253
100
AcDbLine
 10
159.424352
 20
920.51412
 11
161.924352
 21
920.51412
  0
LINE
  5
880
100
AcDbEntity
  8
M0
  6
DIVIDE
 62
   253
100
AcDbLine
 10
159.424352
 20
867.514128
 11
161.924352
 21
867.514128
  0
LINE
  5
881
100
AcDbEntity
  8
M0
  6
DIVIDE
 62
   253
100
AcDbLine
 10
161.924352
 20
867.514128
 11
159.424352
 21
867.514128
  0
LINE
  5
882
100
AcDbEntity
  8
M0
  6
DIVIDE
 62
   253
100
AcDbLine
 10
158.924352
 20
923.01412
 11
157.424352
 21
923.01412
  0
ARC
  5
883
100
AcDbEntity
  8
M0
  6
DIVIDE
 62
   253
100
AcDbCircle
 10
158.924352
 20
922.51412
 40
0.5
100
AcDbArc
 50
0.0
 51
90.0
  0
LINE
  5
884
100
AcDbEntity
  8
M0
  6
DIVIDE
 62
   253
100
AcDbLine
 10
161.924352
 20
920.51412
 11
161.924352
 21
925.01412
  0
ARC
  5
885
100
AcDbEntity
  8
M0
  6
DIVIDE
 62
   253
100
AcDbCircle
 10
165.924352
 20
925.01412
 40
4.0
100
AcDbArc
 50
94.301283
 51
180.000219
  0
LINE
  5
886
100
AcDbEntity
  8
M0
  6
DIVIDE
 62
   253
100
AcDbLine
 10
159.424352
 20
922.51412
 11
159.424352
 21
920.51412
  0
LINE
  5
887
100
AcDbEntity
  8
M0
  6
DIVIDE
 62
   253
100
AcDbLine
 10
161.924352
 20
867.514128
 11
161.924352
 21
863.014151
  0
ARC
  5
888
100
AcDbEntity
  8
M0
  6
DIVIDE
 62
   253
100
AcDbCircle
 10
165.924352
 20
863.014151
 40
4.0
100
AcDbArc
 50
180.0
 51
265.698717
  0
ARC
  5
889
100
AcDbEntity
  8
M0
  6
DIVIDE
 62
   253
100
AcDbCircle
 10
158.924352
 20
865.514151
 40
0.5
100
AcDbArc
 50
270.0
 51
360.001749
  0
LINE
  5
88A
100
AcDbEntity
  8
M0
  6
DIVIDE
 62
   253
100
AcDbLine
 10
158.924352
 20
865.014151
 11
157.424352
 21
865.014151
  0
LINE
  5
88B
100
AcDbEntity
  8
M0
  6
DIVIDE
 62
   253
100
AcDbLine
 10
159.424352
 20
867.514128
 11
159.424352
 21
865.514151
  0
LINE
  5
88C
100
AcDbEntity
  8
M0
  6
DIVIDE
 62
   253
100
AcDbLine
 10
157.424352
 20
923.01412
 11
157.424352
 21
865.014151
  0
ARC
  5
88D
100
AcDbEntity
  8
M0
  6
DIVIDE
 62
   253
100
AcDbCircle
 10
166.424352
 20
863.014151
 40
2.25
100
AcDbArc
 50
110.827612
 51
249.172388
  0
ARC
  5
88E
100
AcDbEntity
  8
M0
  6
DIVIDE
 62
   253
100
AcDbCircle
 10
166.424352
 20
925.01412
 40
2.25
100
AcDbArc
 50
110.827612
 51
249.172388
  0
LINE
  5
88F
100
AcDbEntity
  8
M0
 62
   114
100
AcDbLine
 10
321.272712
 20
810.814075
 11
324.536424
 21
814.077786
  0
LINE
  5
890
100
AcDbEntity
  8
M0
 62
   114
100
AcDbLine
 10
318.444092
 20
807.985455
 11
320.424186
 21
809.965549
  0
LINE
  5
891
100
AcDbEntity
  8
M0
 62
   114
100
AcDbLine
 10
319.575703
 20
810.814031
 11
317.611618
 21
808.849946
  0
LINE
  5
892
100
AcDbEntity
  8
M0
 62
   114
100
AcDbLine
 10
323.687952
 20
814.926301
 11
320.424229
 21
811.662557
  0
LINE
  5
893
100
AcDbEntity
  8
M0
 62
   114
100
AcDbLine
 10
320.424219
 20
811.662568
 11
318.656452
 21
813.430335
  0
LINE
  5
894
100
AcDbEntity
  8
M0
 62
   114
100
AcDbLine
 10
323.040479
 20
809.046308
 11
321.272712
 21
810.814075
  0
LINE
  5
895
100
AcDbEntity
  8
M0
 62
   114
100
AcDbLine
 10
320.424186
 20
809.965549
 11
322.191953
 21
808.197782
  0
LINE
  5
896
100
AcDbEntity
  8
M0
 62
   114
100
AcDbLine
 10
317.807926
 20
812.581809
 11
319.575693
 21
810.814042
  0
LINE
  5
897
100
AcDbEntity
  8
M0
 62
   114
100
AcDbLine
 10
322.191953
 20
808.197782
 11
323.040479
 21
809.046308
  0
LINE
  5
898
100
AcDbEntity
  8
M0
 62
   114
100
AcDbLine
 10
318.656452
 20
813.430335
 11
317.807926
 21
812.581809
  0
ARC
  5
899
100
AcDbEntity
  8
M0
 62
   114
100
AcDbCircle
 10
320.424122
 20
810.81415
 40
5.75
100
AcDbArc
 50
277.813215
 51
460.131563
  0
ARC
  5
89A
100
AcDbEntity
  8
M0
 62
   114
100
AcDbCircle
 10
320.424122
 20
810.81415
 40
5.25
100
AcDbArc
 50
273.723338
 51
461.811378
  0
LINE
  5
89B
100
AcDbEntity
  8
M0
 62
   114
100
AcDbLine
 10
321.272712
 20
954.814059
 11
324.536424
 21
958.077771
  0
LINE
  5
89C
100
AcDbEntity
  8
M0
 62
   114
100
AcDbLine
 10
318.358392
 20
951.89974
 11
320.424186
 21
953.965533
  0
LINE
  5
89D
100
AcDbEntity
  8
M0
 62
   114
100
AcDbLine
 10
319.575703
 20
954.814016
 11
317.509904
 21
952.748217
  0
LINE
  5
89E
100
AcDbEntity
  8
M0
 62
   114
100
AcDbLine
 10
323.687952
 20
958.926286
 11
320.424229
 21
955.662542
  0
LINE
  5
89F
100
AcDbEntity
  8
M0
 62
   114
100
AcDbLine
 10
320.424219
 20
955.662553
 11
318.656452
 21
957.43032
  0
LINE
  5
8A0
100
AcDbEntity
  8
M0
 62
   114
100
AcDbLine
 10
323.040479
 20
953.046292
 11
321.272712
 21
954.814059
  0
LINE
  5
8A1
100
AcDbEntity
  8
M0
 62
   114
100
AcDbLine
 10
320.424186
 20
953.965533
 11
322.191953
 21
952.197766
  0
LINE
  5
8A2
100
AcDbEntity
  8
M0
 62
   114
100
AcDbLine
 10
317.807926
 20
956.581794
 11
319.575693
 21
954.814027
  0
LINE
  5
8A3
100
AcDbEntity
  8
M0
 62
   114
100
AcDbLine
 10
322.191953
 20
952.197766
 11
323.040479
 21
953.046292
  0
LINE
  5
8A4
100
AcDbEntity
  8
M0
 62
   114
100
AcDbLine
 10
318.656452
 20
957.43032
 11
317.807926
 21
956.581794
  0
ARC
  5
8A5
100
AcDbEntity
  8
M0
 62
   114
100
AcDbCircle
 10
320.424122
 20
954.814135
 40
5.75
100
AcDbArc
 50
259.868193
 51
442.184886
  0
ARC
  5
8A6
100
AcDbEntity
  8
M0
 62
   114
100
AcDbCircle
 10
320.424122
 20
954.814135
 40
5.25
100
AcDbArc
 50
258.187912
 51
446.274454
  0
LINE
  5
8A7
100
AcDbEntity
  8
M0
 62
   114
100
AcDbLine
 10
181.27302
 20
954.814059
 11
183.23684
 21
956.777879
  0
LINE
  5
8A8
100
AcDbEntity
  8
M0
 62
   114
100
AcDbLine
 10
177.160782
 20
950.701822
 11
180.424494
 21
953.965533
  0
LINE
  5
8A9
100
AcDbEntity
  8
M0
 62
   114
100
AcDbLine
 10
179.576011
 20
954.814016
 11
176.312278
 21
951.550283
  0
LINE
  5
8AA
100
AcDbEntity
  8
M0
 62
   114
100
AcDbLine
 10
182.40436
 20
957.642377
 11
180.424537
 21
955.662542
  0
LINE
  5
8AB
100
AcDbEntity
  8
M0
 62
   114
100
AcDbLine
 10
180.424527
 20
955.662553
 11
178.65676
 21
957.43032
  0
LINE
  5
8AC
100
AcDbEntity
  8
M0
 62
   114
100
AcDbLine
 10
183.040787
 20
953.046292
 11
181.27302
 21
954.814059
  0
LINE
  5
8AD
100
AcDbEntity
  8
M0
 62
   114
100
AcDbLine
 10
180.424494
 20
953.965533
 11
182.192261
 21
952.197766
  0
LINE
  5
8AE
100
AcDbEntity
  8
M0
 62
   114
100
AcDbLine
 10
177.808234
 20
956.581794
 11
179.576001
 21
954.814027
  0
LINE
  5
8AF
100
AcDbEntity
  8
M0
 62
   114
100
AcDbLine
 10
182.192261
 20
952.197766
 11
183.040787
 21
953.046292
  0
LINE
  5
8B0
100
AcDbEntity
  8
M0
 62
   114
100
AcDbLine
 10
178.65676
 20
957.43032
 11
177.808234
 21
956.581794
  0
ARC
  5
8B1
100
AcDbEntity
  8
M0
 62
   114
100
AcDbCircle
 10
180.424429
 20
954.814135
 40
5.75
100
AcDbArc
 50
97.817943
 51
280.129903
  0
ARC
  5
8B2
100
AcDbEntity
  8
M0
 62
   114
100
AcDbCircle
 10
180.424429
 20
954.814135
 40
5.25
100
AcDbArc
 50
93.72882
 51
281.809937
  0
LINE
  5
8B3
100
AcDbEntity
  8
M0
 62
   114
100
AcDbLine
 10
181.272728
 20
810.814075
 11
183.33841
 21
812.879757
  0
LINE
  5
8B4
100
AcDbEntity
  8
M0
 62
   114
100
AcDbLine
 10
177.16049
 20
806.701837
 11
180.424202
 21
809.965549
  0
LINE
  5
8B5
100
AcDbEntity
  8
M0
 62
   114
100
AcDbLine
 10
179.575719
 20
810.814031
 11
176.311985
 21
807.550298
  0
LINE
  5
8B6
100
AcDbEntity
  8
M0
 62
   114
100
AcDbLine
 10
182.489927
 20
813.728253
 11
180.424245
 21
811.662557
  0
LINE
  5
8B7
100
AcDbEntity
  8
M0
 62
   114
100
AcDbLine
 10
180.424234
 20
811.662568
 11
178.656467
 21
813.430335
  0
LINE
  5
8B8
100
AcDbEntity
  8
M0
 62
   114
100
AcDbLine
 10
183.040494
 20
809.046308
 11
181.272728
 21
810.814075
  0
LINE
  5
8B9
100
AcDbEntity
  8
M0
 62
   114
100
AcDbLine
 10
180.424202
 20
809.965549
 11
182.191968
 21
808.197782
  0
LINE
  5
8BA
100
AcDbEntity
  8
M0
 62
   114
100
AcDbLine
 10
177.807941
 20
812.581809
 11
179.575708
 21
810.814042
  0
LINE
  5
8BB
100
AcDbEntity
  8
M0
 62
   114
100
AcDbLine
 10
182.191968
 20
808.197782
 11
183.040494
 21
809.046308
  0
LINE
  5
8BC
100
AcDbEntity
  8
M0
 62
   114
100
AcDbLine
 10
178.656467
 20
813.430335
 11
177.807941
 21
812.581809
  0
ARC
  5
8BD
100
AcDbEntity
  8
M0
 62
   114
100
AcDbCircle
 10
180.424137
 20
810.81415
 40
5.75
100
AcDbArc
 50
79.867343
 51
262.186614
  0
ARC
  5
8BE
100
AcDbEntity
  8
M0
 62
   114
100
AcDbCircle
 10
180.424137
 20
810.81415
 40
5.25
100
AcDbArc
 50
78.187386
 51
266.276456
  0
LINE
  5
8BF
100
AcDbEntity
  8
M0
100
AcDbLine
 10
592.010745
 20
971.953969
 11
614.311371
 21
971.953969
  0
LINE
  5
8C0
100
AcDbEntity
  8
M0
 62
     1
100
AcDbLine
 10
586.010859
 20
967.953969
 11
483.810859
 21
967.953969
  0
ARC
  5
8C1
100
AcDbEntity
  8
M0
 62
     1
100
AcDbCircle
 10
483.810859
 20
965.953969
 40
2.0
100
AcDbArc
 50
90.0
 51
180.0
  0
ARC
  5
8C2
100
AcDbEntity
  8
M0
 62
     1
100
AcDbCircle
 10
483.810859
 20
969.953969
 40
2.0
100
AcDbArc
 50
90.0
 51
180.0
  0
LINE
  5
8C3
100
AcDbEntity
  8
M0
 62
     1
100
AcDbLine
 10
578.010859
 20
974.953969
 11
578.010859
 21
971.953969
  0
LINE
  5
8C4
100
AcDbEntity
  8
M0
 62
     1
100
AcDbLine
 10
542.010859
 20
971.953969
 11
542.010859
 21
973.953969
  0
ARC
  5
8C5
100
AcDbEntity
  8
M0
 62
     1
100
AcDbCircle
 10
543.010859
 20
973.953969
 40
1.0
100
AcDbArc
 50
90.0
 51
180.0
  0
LINE
  5
8C6
100
AcDbEntity
  8
M0
 62
     1
100
AcDbLine
 10
543.010859
 20
974.953969
 11
578.010859
 21
974.953969
  0
LINE
  5
8C7
100
AcDbEntity
  8
M0
 62
     1
100
AcDbLine
 10
483.810859
 20
971.953969
 11
542.010859
 21
971.953969
  0
LINE
  5
8C8
100
AcDbEntity
  8
M0
 62
     1
100
AcDbLine
 10
578.010859
 20
971.953969
 11
586.010859
 21
971.953969
  0
LINE
  5
8C9
100
AcDbEntity
  8
M0
 62
     1
100
AcDbLine
 10
586.010859
 20
825.953969
 11
483.810859
 21
825.953969
  0
ARC
  5
8CA
100
AcDbEntity
  8
M0
 62
     1
100
AcDbCircle
 10
483.810859
 20
827.953969
 40
2.0
100
AcDbArc
 50
180.0
 51
270.0
  0
ARC
  5
8CB
100
AcDbEntity
  8
M0
 62
     1
100
AcDbCircle
 10
483.810859
 20
823.953969
 40
2.0
100
AcDbArc
 50
180.0
 51
270.0
  0
LINE
  5
8CC
100
AcDbEntity
  8
M0
 62
     1
100
AcDbLine
 10
578.010859
 20
818.953969
 11
578.010859
 21
821.953969
  0
LINE
  5
8CD
100
AcDbEntity
  8
M0
 62
     1
100
AcDbLine
 10
542.010859
 20
821.953969
 11
542.010859
 21
819.953969
  0
ARC
  5
8CE
100
AcDbEntity
  8
M0
 62
     1
100
AcDbCircle
 10
543.010859
 20
819.953969
 40
1.0
100
AcDbArc
 50
180.0
 51
270.0
  0
LINE
  5
8CF
100
AcDbEntity
  8
M0
 62
     1
100
AcDbLine
 10
543.010859
 20
818.953969
 11
578.010859
 21
818.953969
  0
LINE
  5
8D0
100
AcDbEntity
  8
M0
 62
     1
100
AcDbLine
 10
483.810859
 20
821.953969
 11
542.010859
 21
821.953969
  0
LINE
  5
8D1
100
AcDbEntity
  8
M0
 62
     1
100
AcDbLine
 10
578.010859
 20
821.953969
 11
586.010859
 21
821.953969
  0
LINE
  5
8D2
100
AcDbEntity
  8
M0
 62
     1
100
AcDbLine
 10
481.810859
 20
969.953969
 11
481.810859
 21
823.953969
  0
LINE
  5
8D3
100
AcDbEntity
  8
M0
 62
     1
100
AcDbLine
 10
586.010859
 20
821.953969
 11
586.010859
 21
867.953829
  0
LINE
  5
8D4
100
AcDbEntity
  8
M0
 62
     1
100
AcDbLine
 10
586.010859
 20
925.953814
 11
586.010859
 21
971.953969
  0
LINE
  5
8D5
100
AcDbEntity
  8
M0
  6
DASHDOT
100
AcDbLine
 10
471.810859
 20
896.953969
 11
719.31081
 21
896.953969
  0
LINE
  5
8D6
100
AcDbEntity
  8
M0
 62
     4
100
AcDbLine
 10
556.010837
 20
997.953952
 11
570.710752
 21
997.953952
  0
LINE
  5
8D7
100
AcDbEntity
  8
M0
 62
     4
100
AcDbLine
 10
600.010837
 20
985.953952
 11
592.010837
 21
985.953952
  0
LINE
  5
8D8
100
AcDbEntity
  8
M0
  6
DASHDOT
 62
     4
100
AcDbLine
 10
605.010837
 20
991.953952
 11
551.626987
 21
991.953952
  0
LINE
  5
8D9
100
AcDbEntity
  8
M0
 62
     4
100
AcDbLine
 10
592.010837
 20
980.990939
 11
592.010837
 21
1002.916949
  0
LINE
  5
8DA
100
AcDbEntity
  8
M0
 62
     4
100
AcDbLine
 10
592.010837
 20
1002.916949
 11
600.010837
 21
1002.916949
  0
LINE
  5
8DB
100
AcDbEntity
  8
M0
 62
     4
100
AcDbLine
 10
600.010837
 20
1002.916949
 11
600.010837
 21
980.990939
  0
LINE
  5
8DC
100
AcDbEntity
  8
M0
 62
     4
100
AcDbLine
 10
600.010837
 20
980.990939
 11
592.010837
 21
980.990939
  0
LINE
  5
8DD
100
AcDbEntity
  8
M0
 62
     4
100
AcDbLine
 10
556.010837
 20
997.953952
 11
556.010837
 21
985.953952
  0
LINE
  5
8DE
100
AcDbEntity
  8
M0
 62
     4
100
AcDbLine
 10
570.710759
 20
985.953952
 11
556.010837
 21
985.953952
  0
LINE
  5
8DF
100
AcDbEntity
  8
M0
 62
     4
100
AcDbLine
 10
592.010837
 20
997.953952
 11
600.010837
 21
997.953952
  0
LINE
  5
8E0
100
AcDbEntity
  8
M0
 62
     4
100
AcDbLine
 10
556.010936
 20
795.954825
 11
570.710788
 21
795.954826
  0
LINE
  5
8E1
100
AcDbEntity
  8
M0
 62
     4
100
AcDbLine
 10
600.010928
 20
807.954843
 11
592.010928
 21
807.954838
  0
LINE
  5
8E2
100
AcDbEntity
  8
M0
  6
DASHDOT
 62
     4
100
AcDbLine
 10
605.010932
 20
801.954846
 11
551.627082
 21
801.954822
  0
LINE
  5
8E3
100
AcDbEntity
  8
M0
 62
     4
100
AcDbLine
 10
592.010925
 20
812.91785
 11
592.010939
 21
790.99184
  0
LINE
  5
8E4
100
AcDbEntity
  8
M0
 62
     4
100
AcDbLine
 10
592.010939
 20
790.99184
 11
600.010939
 21
790.991845
  0
LINE
  5
8E5
100
AcDbEntity
  8
M0
 62
     4
100
AcDbLine
 10
600.010939
 20
790.991845
 11
600.010925
 21
812.917855
  0
LINE
  5
8E6
100
AcDbEntity
  8
M0
 62
     4
100
AcDbLine
 10
600.010925
 20
812.917855
 11
592.010925
 21
812.91785
  0
LINE
  5
8E7
100
AcDbEntity
  8
M0
 62
     4
100
AcDbLine
 10
556.010936
 20
795.954825
 11
556.010928
 21
807.954825
  0
LINE
  5
8E8
100
AcDbEntity
  8
M0
 62
     4
100
AcDbLine
 10
570.710788
 20
807.954826
 11
556.010928
 21
807.954825
  0
LINE
  5
8E9
100
AcDbEntity
  8
M0
 62
     4
100
AcDbLine
 10
592.010936
 20
795.954838
 11
600.010936
 21
795.954843
  0
LINE
  5
8EA
100
AcDbEntity
  8
M0
100
AcDbLine
 10
586.010745
 20
1006.954272
 11
592.010745
 21
1006.954272
  0
LINE
  5
8EB
100
AcDbEntity
  8
M0
100
AcDbLine
 10
586.010745
 20
1006.954272
 11
586.010745
 21
967.953969
  0
LINE
  5
8EC
100
AcDbEntity
  8
M0
100
AcDbLine
 10
592.010745
 20
960.753908
 11
592.010745
 21
1006.954272
  0
LINE
  5
8ED
100
AcDbEntity
  8
M0
100
AcDbLine
 10
586.010883
 20
786.9549
 11
592.010883
 21
786.954904
  0
LINE
  5
8EE
100
AcDbEntity
  8
M0
100
AcDbLine
 10
586.010883
 20
786.9549
 11
586.010859
 21
825.953969
  0
LINE
  5
8EF
100
AcDbEntity
  8
M0
100
AcDbLine
 10
592.010862
 20
820.753908
 11
592.010883
 21
786.954904
  0
LINE
  5
8F0
100
AcDbEntity
  8
M0
 62
     6
100
AcDbLine
 10
570.710504
 20
1002.903991
 11
580.710504
 21
1002.903998
  0
LINE
  5
8F1
100
AcDbEntity
  8
M0
 62
     6
100
AcDbLine
 10
580.710749
 20
1002.903982
 11
580.710762
 21
981.003988
  0
LINE
  5
8F2
100
AcDbEntity
  8
M0
 62
     6
100
AcDbLine
 10
570.710762
 20
981.004028
 11
570.710749
 21
1002.904007
  0
LINE
  5
8F3
100
AcDbEntity
  8
M0
 62
     6
100
AcDbLine
 10
580.710508
 20
997.429022
 11
570.710508
 21
997.429016
  0
LINE
  5
8F4
100
AcDbEntity
  8
M0
 62
     6
100
AcDbLine
 10
570.710274
 20
981.003997
 11
580.710518
 21
981.004004
  0
LINE
  5
8F5
100
AcDbEntity
  8
M0
 62
     6
100
AcDbLine
 10
580.710515
 20
986.47901
 11
570.710271
 21
986.479003
  0
LINE
  5
8F6
100
AcDbEntity
  8
M0
 62
     7
100
AcDbLine
 10
580.710698
 20
1002.704115
 11
583.710698
 21
1002.704115
  0
LINE
  5
8F7
100
AcDbEntity
  8
M0
 62
     7
100
AcDbLine
 10
583.710698
 20
1002.704115
 11
583.710698
 21
981.204115
  0
LINE
  5
8F8
100
AcDbEntity
  8
M0
 62
     7
100
AcDbLine
 10
583.710698
 20
981.204115
 11
580.710698
 21
981.204115
  0
LINE
  5
8F9
100
AcDbEntity
  8
M0
 62
     7
100
AcDbLine
 10
580.710698
 20
981.204115
 11
580.710698
 21
1002.704115
  0
LINE
  5
8FA
100
AcDbEntity
  8
M0
 62
     7
100
AcDbLine
 10
580.710698
 20
991.954099
 11
583.710698
 21
993.68614
  0
LINE
  5
8FB
100
AcDbEntity
  8
M0
 62
     7
100
AcDbLine
 10
580.710698
 20
990.222074
 11
583.710698
 21
991.954115
  0
LINE
  5
8FC
100
AcDbEntity
  8
M0
 62
     6
100
AcDbLine
 10
583.710793
 20
1004.953999
 11
586.010796
 21
1004.954001
  0
LINE
  5
8FD
100
AcDbEntity
  8
M0
 62
     6
100
AcDbLine
 10
586.010796
 20
1004.954001
 11
586.010813
 21
978.954001
  0
LINE
  5
8FE
100
AcDbEntity
  8
M0
 62
     6
100
AcDbLine
 10
586.010813
 20
978.954001
 11
583.710809
 21
978.953999
  0
LINE
  5
8FF
100
AcDbEntity
  8
M0
 62
     6
100
AcDbLine
 10
583.710809
 20
978.953999
 11
583.710793
 21
1004.953999
  0
LINE
  5
900
100
AcDbEntity
  8
M0
 62
     6
100
AcDbLine
 10
570.710544
 20
791.004792
 11
580.710544
 21
791.004792
  0
LINE
  5
901
100
AcDbEntity
  8
M0
 62
     6
100
AcDbLine
 10
580.710788
 20
791.004807
 11
580.710788
 21
812.904801
  0
LINE
  5
902
100
AcDbEntity
  8
M0
 62
     6
100
AcDbLine
 10
570.710788
 20
812.904755
 11
570.710788
 21
791.004777
  0
LINE
  5
903
100
AcDbEntity
  8
M0
 62
     6
100
AcDbLine
 10
580.710544
 20
796.479767
 11
570.710544
 21
796.479767
  0
LINE
  5
904
100
AcDbEntity
  8
M0
 62
     6
100
AcDbLine
 10
570.7103
 20
812.904786
 11
580.710544
 21
812.904786
  0
LINE
  5
905
100
AcDbEntity
  8
M0
 62
     6
100
AcDbLine
 10
580.710544
 20
807.42978
 11
570.7103
 21
807.42978
  0
LINE
  5
906
100
AcDbEntity
  8
M0
 62
     7
100
AcDbLine
 10
580.710793
 20
812.704987
 11
583.710793
 21
812.704987
  0
LINE
  5
907
100
AcDbEntity
  8
M0
 62
     7
100
AcDbLine
 10
583.710793
 20
812.704987
 11
583.710793
 21
791.204987
  0
LINE
  5
908
100
AcDbEntity
  8
M0
 62
     7
100
AcDbLine
 10
583.710793
 20
791.204987
 11
580.710793
 21
791.204987
  0
LINE
  5
909
100
AcDbEntity
  8
M0
 62
     7
100
AcDbLine
 10
580.710793
 20
791.204987
 11
580.710793
 21
812.704987
  0
LINE
  5
90A
100
AcDbEntity
  8
M0
 62
     7
100
AcDbLine
 10
580.710793
 20
801.954972
 11
583.710793
 21
803.687012
  0
LINE
  5
90B
100
AcDbEntity
  8
M0
 62
     7
100
AcDbLine
 10
580.710793
 20
800.222947
 11
583.710793
 21
801.954987
  0
LINE
  5
90C
100
AcDbEntity
  8
M0
 62
     6
100
AcDbLine
 10
583.710888
 20
814.954872
 11
586.010891
 21
814.954873
  0
LINE
  5
90D
100
AcDbEntity
  8
M0
 62
     6
100
AcDbLine
 10
586.010891
 20
814.954873
 11
586.010907
 21
788.954873
  0
LINE
  5
90E
100
AcDbEntity
  8
M0
 62
     6
100
AcDbLine
 10
586.010907
 20
788.954873
 11
583.710904
 21
788.954872
  0
LINE
  5
90F
100
AcDbEntity
  8
M0
 62
     6
100
AcDbLine
 10
583.710904
 20
788.954872
 11
583.710888
 21
814.954872
  0
LINE
  5
910
100
AcDbEntity
  8
M0
  6
DIVIDE
100
AcDbLine
 10
165.624057
 20
545.57573
 11
335.223896
 21
545.57573
  0
LINE
  5
911
100
AcDbEntity
  8
M0
  6
DIVIDE
100
AcDbLine
 10
335.223896
 20
205.57573
 11
165.624057
 21
205.57573
  0
LINE
  5
912
100
AcDbEntity
  8
M0
  6
DIVIDE
100
AcDbLine
 10
165.624057
 20
545.57573
 11
165.624057
 21
205.57573
  0
LINE
  5
913
100
AcDbEntity
  8
M0
  6
DIVIDE
100
AcDbLine
 10
335.223896
 20
545.57573
 11
335.223896
 21
205.57573
  0
CIRCLE
  5
914
100
AcDbEntity
  8
M0
100
AcDbCircle
 10
280.423847
 20
215.57573
 40
4.5
  0
CIRCLE
  5
915
100
AcDbEntity
  8
M0
100
AcDbCircle
 10
220.424091
 20
215.57573
 40
4.5
  0
LINE
  5
916
100
AcDbEntity
  8
M0
  6
DASHDOT
100
AcDbLine
 10
250.424122
 20
181.466096
 11
250.424122
 21
567.423905
  0
CIRCLE
  5
917
100
AcDbEntity
  8
M0
100
AcDbCircle
 10
280.424452
 20
535.575674
 40
4.5
  0
CIRCLE
  5
918
100
AcDbEntity
  8
M0
100
AcDbCircle
 10
220.424452
 20
535.57573
 40
4.5
  0
LINE
  5
919
100
AcDbEntity
  8
M0
  6
DASHDOT
100
AcDbLine
 10
270.424452
 20
535.575674
 11
290.424452
 21
535.575674
  0
LINE
  5
91A
100
AcDbEntity
  8
M0
  6
DASHDOT
100
AcDbLine
 10
280.424452
 20
525.575674
 11
280.424452
 21
545.575674
  0
LINE
  5
91B
100
AcDbEntity
  8
M0
  6
DASHDOT
100
AcDbLine
 10
210.424452
 20
535.57573
 11
230.424452
 21
535.57573
  0
LINE
  5
91C
100
AcDbEntity
  8
M0
  6
DASHDOT
100
AcDbLine
 10
220.424452
 20
525.57573
 11
220.424452
 21
545.57573
  0
LINE
  5
91D
100
AcDbEntity
  8
M0
  6
DASHDOT
100
AcDbLine
 10
270.423847
 20
215.57573
 11
290.423847
 21
215.57573
  0
LINE
  5
91E
100
AcDbEntity
  8
M0
  6
DASHDOT
100
AcDbLine
 10
280.423847
 20
205.57573
 11
280.423847
 21
225.57573
  0
LINE
  5
91F
100
AcDbEntity
  8
M0
  6
DASHDOT
100
AcDbLine
 10
210.424091
 20
215.57573
 11
230.424091
 21
215.57573
  0
LINE
  5
920
100
AcDbEntity
  8
M0
  6
DASHDOT
100
AcDbLine
 10
220.424091
 20
205.57573
 11
220.424091
 21
225.57573
  0
LINE
  5
921
100
AcDbEntity
  8
M1
 62
     2
100
AcDbLine
 10
40.0
 20
40.0
 11
40.0
 21
1140.0
  0
LINE
  5
922
100
AcDbEntity
  8
M1
 62
     2
100
AcDbLine
 10
40.0
 20
1140.0
 11
800.0
 21
1140.0
  0
LINE
  5
923
100
AcDbEntity
  8
M1
 62
     2
100
AcDbLine
 10
800.0
 20
1140.0
 11
800.0
 21
40.0
  0
LINE
  5
924
100
AcDbEntity
  8
M1
 62
     2
100
AcDbLine
 10
800.0
 20
40.0
 11
40.0
 21
40.0
  0
LINE
  5
925
100
AcDbEntity
  8
M1
 62
     2
100
AcDbLine
 10
800.0
 20
80.0
 11
400.0
 21
80.0
  0
LINE
  5
926
100
AcDbEntity
  8
M1
 62
     2
100
AcDbLine
 10
800.0
 20
120.0
 11
400.0
 21
120.0
  0
LINE
  5
927
100
AcDbEntity
  8
M1
 62
     2
100
AcDbLine
 10
800.0
 20
160.0
 11
400.0
 21
160.0
  0
LINE
  5
928
100
AcDbEntity
  8
M1
 62
     2
100
AcDbLine
 10
400.0
 20
40.0
 11
400.0
 21
160.0
  0
TEXT
  5
929
100
AcDbEntity
  8
M1
 62
     2
100
AcDbText
 10
410.0
 20
50.0
 40
20.0
  1
適　用；
  7
STANDARD
100
AcDbText
  0
TEXT
  5
92A
100
AcDbEntity
  8
M1
 62
     2
100
AcDbText
 10
410.0
 20
130.0
 40
20.0
  1
登録名：
  7
STANDARD
100
AcDbText
  0
TEXT
  5
92B
100
AcDbEntity
  8
M1
 62
     2
100
AcDbText
 10
506.0
 20
130.0
 40
20.0
  1
ＤＭＨ３００ＣＬＲ００
 41
0.5
  7
STANDARD
100
AcDbText
  0
TEXT
  5
92C
100
AcDbEntity
  8
M1
 62
     2
100
AcDbText
 10
410.0
 20
90.0
 40
20.0
  1
形　式；
  7
STANDARD
100
AcDbText
  0
TEXT
  5
92D
100
AcDbEntity
  8
M1
 62
     2
100
AcDbText
 10
506.0
 20
90.0
 40
20.0
  1
Ｈ３００Ｃ－Ｌ，Ｈ４００Ｃ－Ｌ，Ｈ３００Ｃ－ＬＧ，Ｈ４００Ｃ－ＬＧ
 41
0.25
  7
STANDARD
100
AcDbText
  0
LINE
  5
92E
100
AcDbEntity
  8
DN0
100
AcDbLine
 10
219.476825
 20
122.889819
 11
292.516827
 21
122.889819
  0
TEXT
  5
92F
100
AcDbEntity
  8
DN0
100
AcDbText
 10
221.496825
 20
124.689819
 40
18.0
  1
せん孔図
 41
0.833333
  7
STANDARD
100
AcDbText
  0
TEXT
  5
930
100
AcDbEntity
  8
DN0
100
AcDbText
 10
176.872991
 20
1086.338867
 40
12.6
  1
※補助３ａ４ｂ付の場合は１８７
 41
0.666667
  7
STANDARD
100
AcDbText
  0
ENDSEC
  0
SECTION
  2
OBJECTS
  0
DICTIONARY
  5
C
100
AcDbDictionary
  3
ACAD_GROUP
350
D
  3
ACAD_MLINESTYLE
350
E
  0
DICTIONARY
  5
D
102
{ACAD_REACTORS
330
C
102
}
100
AcDbDictionary
  0
DICTIONARY
  5
E
102
{ACAD_REACTORS
330
C
102
}
100
AcDbDictionary
  3
STANDARD
350
13
  0
MLINESTYLE
  5
13
102
{ACAD_REACTORS
330
E
102
}
100
AcDbMlineStyle
  2
STANDARD
 70
     0
  3

 62
     0
 51
90.0
 52
90.0
 71
     2
 49
0.5
 62
   256
  6
BYLAYER
 49
-0.5
 62
   256
  6
BYLAYER
  0
ENDSEC
  0
EOF
