  0
SECTION
  2
HEADER
  9
$ACADVER
  1
AC1014
  9
$INSBASE
 10
0.000000
 20
0.000000
 30
0.0
  9
$VIEWCTR
 10
7.531722
 20
4.5
  9
$VIEWSIZE
 40
9.0
  9
$SNAPMODE
 70
     0
  9
$SNAPUNIT
 10
1.0
 20
1.0
  9
$SNAPBASE
 10
0.0
 20
0.0
  9
$SNAPANG
 50
0.0
  9
$SNAPSTYLE
 70
     0
  9
$SNAPISOPAIR
 70
     0
  9
$GRIDMODE
 70
     0
  9
$GRIDUNIT
 10
0.0
 20
0.0
  9
$ORTHOMODE
 70
     0
  9
$REGENMODE
 70
     1
  9
$FILLMODE
 70
     1
  9
$QTEXTMODE
 70
     0
  9
$DRAGMODE
 70
     2
  9
$LTSCALE
  40
     1.000000
  9
$OSMODE
 70
     0
  9
$ATTMODE
 70
     1
  9
$TEXTSIZE
 40
0.2
  9
$TRACEWID
 40
0.05
  9
$TEXTSTYLE
  7
STANDARD
  9
$CELTYPE
  6
BYLAYER
  9
$CECOLOR
 62
   256
  9
$DIMSCALE
 40
1.0
  9
$DIMASZ
 40
0.18
  9
$DIMEXO
 40
0.0625
  9
$DIMDLI
 40
0.38
  9
$DIMRND
 40
0.0
  9
$DIMDLE
 40
0.0
  9
$DIMEXE
 40
0.18
  9
$DIMTP
 40
0.0
  9
$DIMTM
 40
0.0
  9
$DIMTXT
 40
0.18
  9
$DIMCEN
 40
0.09
  9
$DIMTSZ
 40
0.0
  9
$DIMTOL
 70
     0
  9
$DIMLIM
 70
     0
  9
$DIMTIH
 70
     1
  9
$DIMTOH
 70
     1
  9
$DIMSE1
 70
     0
  9
$DIMSE2
 70
     0
  9
$DIMTAD
 70
     0
  9
$DIMZIN
 70
     0
  9
$DIMBLK
  1

  9
$LUNITS
 70
     2
  9
$LUPREC
 70
     4
  9
$AXISMODE
 70
     0
  9
$AXISUNIT
 10
0.0
 20
0.0
  9
$SKETCHINC
 40
0.1
  9
$FILLETRAD
 40
0.0
  9
$AUNITS
 70
     0
  9
$AUPREC
 70
     0
  9
$MENU
  1
ACAD
  9
$ELEVATION
 40
0.0
  9
$THICKNESS
 40
0.0
  9
$VIEWDIR
 10
0.0
 20
0.0
 30
1.0
  9
$LIMCHECK
 70
     0
  9
$BLIPMODE
 70
     1
  9
$CHAMFERA
 40
0.0
  9
$CHAMFERB
 40
0.0
  9
$FASTZOOM
 70
     1
  9
$SKPOLY
 70
     0
  9
$TDCREATE
 40
0000000.0000000000
  9
$TDUPDATE
 40
0000000.0000000000
  9
$TDINDWG
 40
0.0000000000
  9
$TDUSRTIMER
 40
0.0000000000
  9
$USRTIMER
 70
     1
  9
$ANGBASE
 50
0.0
  9
$ANGDIR
 70
     0
  9
$PDMODE
 70
     0
  9
$PDSIZE
 40
0.0
  9
$PLINEWID
 40
0.0
  9
$COORDS
 70
     0
  9
$USERI1
 70
     0
  9
$USERI2
 70
     0
  9
$USERI3
 70
     0
  9
$USERI4
 70
     0
  9
$USERI5
 70
     0
  9
$USERR1
 40
0.0
  9
$USERR2
 40
0.0
  9
$USERR3
 40
0.0
  9
$USERR4
 40
0.0
  9
$USERR5
 40
0.0
  9
$CLAYER
  8
M0
  9
$EXTMIN
 10
49.999999
 20
49.999999
  9
$EXTMAX
 10
999.999985
 20
1424.999979
  9
$LIMMIN
 10
0.0
 20
0.0
  9
$LIMMAX
 10
210.0
 20
297.0
  9
$HANDSEED
  5
A1E
  0
ENDSEC
  0
SECTION
  2
CLASSES
  0
ENDSEC
  0
SECTION
  2
TABLES
  0
TABLE
  2
VPORT
  5
8
100
AcDbSymbolTable
 70
     2
  0
VPORT
  5
14
100
AcDbSymbolTableRecord
100
AcDbViewportTableRecord
  2
*ACTIVE
 70
     0
 10
0.0
 20
0.0
 11
1.0
 21
1.0
 12
484.0
 22
297.0
 13
0.0
 23
0.0
 14
1.0
 24
1.0
 15
0.0
 25
0.0
 16
0.0
 26
0.0
 36
1.0
 17
0.0
 27
0.0
 37
0.0
 40
594.0
 41
2.0
 42
50.0
 43
0.0
 44
0.0
 50
0.0
 51
0.0
 71
     0
 72
   100
 73
     1
 74
     1
 75
     0
 76
     0
 77
     0
 78
     0
  0
ENDTAB
  0
TABLE
  2
LTYPE
  5
5
100
AcDbSymbolTable
 70
     5
  0
LTYPE
  5
15
100
AcDbSymbolTableRecord
100
AcDbLinetypeTableRecord
  2
BYBLOCK
 70
     0
  3

 72
    65
 73
     0
 40
0.0
  0
LTYPE
  5
16
100
AcDbSymbolTableRecord
100
AcDbLinetypeTableRecord
  2
BYLAYER
 70
     0
  3

 72
    65
 73
     0
 40
0.0
  0
LTYPE
  5
17
100
AcDbSymbolTableRecord
100
AcDbLinetypeTableRecord
  2
CONTINUOUS
 70
    64
  3
Solid line
 72
    65
 73
     0
 40
0.0
  0
LTYPE
  5
18
100
AcDbSymbolTableRecord
100
AcDbLinetypeTableRecord
  2
DASHED
 70
    64
  3
__ __ __ __ __ __ __ __ __ __ __ __ __ __ __ __
 72
    65
 73
     2
 40
0.75
 49
0.5
 74
     0
 49
-0.25
 74
     0
  0
LTYPE
  5
19
100
AcDbSymbolTableRecord
100
AcDbLinetypeTableRecord
  2
DASHDOT
 70
    64
  3
__ . __ . __ . __ . __ . __ . __ . __ . __ . __
 72
    65
 73
     4
 40
1.0
 49
0.5
 74
     0
 49
-0.25
 74
     0
 49
0.0
 74
     0
 49
-0.25
 74
     0
  0
LTYPE
  5
1A
100
AcDbSymbolTableRecord
100
AcDbLinetypeTableRecord
  2
DIVIDE
 70
    64
  3
____ . . ____ . . ____ . . ____ . . ____ . . __
 72
    65
 73
     6
 40
1.25
 49
0.5
 74
     0
 49
-0.25
 74
     0
 49
0.0
 74
     0
 49
-0.25
 74
     0
 49
0.0
 74
     0
 49
-0.25
 74
     0
  0
LTYPE
  5
1B
100
AcDbSymbolTableRecord
100
AcDbLinetypeTableRecord
  2
DOT
 70
    64
  3
. . . . . . . . . . . . . . . . . . . . . . . .
 72
    65
 73
     2
 40
0.25
 49
0.0
 74
     0
 49
-0.25
 74
     0
  0
ENDTAB
  0
TABLE
  2
LAYER
  5
2
100
AcDbSymbolTable
 70
   102
  0
LAYER
  5
F
100
AcDbSymbolTableRecord
100
AcDbLayerTableRecord
  2
0
 70
     0
 62
     7
  6
CONTINUOUS
  0
LAYER
  5
1C
100
AcDbSymbolTableRecord
100
AcDbLayerTableRecord
  2
DEFPOINTS
 70
     0
 62
     7
  6
CONTINUOUS
  0
LAYER
  5
1D
100
AcDbSymbolTableRecord
100
AcDbLayerTableRecord
  2
M0
 70
     0
 62
     3
  6
CONTINUOUS
  0
LAYER
  5
1E
100
AcDbSymbolTableRecord
100
AcDbLayerTableRecord
  2
M1
 70
     0
 62
     3
  6
CONTINUOUS
  0
LAYER
  5
1F
100
AcDbSymbolTableRecord
100
AcDbLayerTableRecord
  2
DD0
 70
     0
 62
     4
  6
CONTINUOUS
  0
LAYER
  5
20
100
AcDbSymbolTableRecord
100
AcDbLayerTableRecord
  2
DN0
 70
     0
 62
     2
  6
CONTINUOUS
  0
ENDTAB
  0
TABLE
  2
STYLE
  5
3
100
AcDbSymbolTable
 70
     2
  0
STYLE
  5
10
100
AcDbSymbolTableRecord
100
AcDbTextStyleTableRecord
  2
STANDARD
 70
     0
 40
0.0
 41
1.0
 50
0.0
 71
     0
 42
0.2
  3
txt
  4
BIGFONT
  0
ENDTAB
  0
TABLE
  2
VIEW
  5
6
100
AcDbSymbolTable
 70
     0
  0
ENDTAB
  0
TABLE
  2
UCS
  5
7
100
AcDbSymbolTable
 70
     0
  0
ENDTAB
  0
TABLE
  2
APPID
  5
9
100
AcDbSymbolTable
 70
     1
  0
APPID
  5
11
100
AcDbSymbolTableRecord
100
AcDbRegAppTableRecord
  2
ACAD
 70
     0
  0
ENDTAB
  0
TABLE
  2
DIMSTYLE
  5
A
100
AcDbSymbolTable
 70
     2
  0
DIMSTYLE
105
27
100
AcDbSymbolTableRecord
100
AcDbDimStyleTableRecord
  2
STANDARD
 70
     0
  3

  4

  5

  6
_OPEN
  7
_OPEN
 40
1.0
 41
15.0
 42
1.0
 43
8.0
 44
1.0
 45
0.0
 46
0.0
 47
0.0
 48
0.0
140
15.75
141
0.09
142
0.0
143
0.03937
144
1.0
145
0.0
146
1.0
147
0.6
 71
     0
 72
     0
 73
     1
 74
     1
 75
     0
 76
     0
 77
     3
 78
     8
170
     0
171
     2
172
     0
173
     1
174
     0
175
     0
176
     0
177
     0
178
     0
270
     2
271
     2
272
     4
273
     2
274
     2
340
10
275
     0
280
     0
281
     0
282
     0
283
     1
284
     0
285
     0
286
     0
287
     3
288
     0
  0
DIMSTYLE
105
28
100
AcDbSymbolTableRecord
100
AcDbDimStyleTableRecord
  2
LEADSTYL
 70
     0
  3

  4

  5

  6
_OPEN
  7
_OPEN
 40
1.0
 41
15.0
 42
0.0625
 43
0.38
 44
0.18
 45
0.0
 46
0.0
 47
0.0
 48
0.0
140
15.75
141
0.09
142
0.0
143
25.4
144
1.0
145
0.0
146
1.0
147
0.6
 71
     0
 72
     0
 73
     1
 74
     1
 75
     0
 76
     0
 77
     0
 78
     0
170
     0
171
     2
172
     0
173
     1
174
     0
175
     0
176
     0
177
     0
178
     0
270
     2
271
     4
272
     4
273
     2
274
     2
340
10
275
     0
280
     0
281
     0
282
     0
283
     1
284
     0
285
     0
286
     0
287
     3
288
     0
  0
ENDTAB
  0
TABLE
  2
BLOCK_RECORD
  5
1
100
AcDbSymbolTable
 70
    17
  0
BLOCK_RECORD
  5
21
100
AcDbSymbolTableRecord
100
AcDbBlockTableRecord
  2
*MODEL_SPACE
  0
BLOCK_RECORD
  5
24
100
AcDbSymbolTableRecord
100
AcDbBlockTableRecord
  2
*PAPER_SPACE
  0
BLOCK_RECORD
  5
29
100
AcDbSymbolTableRecord
100
AcDbBlockTableRecord
  2
_NONE
  0
BLOCK_RECORD
  5
2D
100
AcDbSymbolTableRecord
100
AcDbBlockTableRecord
  2
_OPEN
  0
BLOCK_RECORD
  5
33
100
AcDbSymbolTableRecord
100
AcDbBlockTableRecord
  2
_CLOSED
  0
BLOCK_RECORD
  5
3A
100
AcDbSymbolTableRecord
100
AcDbBlockTableRecord
  2
_ORIGIN
  0
BLOCK_RECORD
  5
3F
100
AcDbSymbolTableRecord
100
AcDbBlockTableRecord
  2
_DOT
  0
BLOCK_RECORD
  5
47
100
AcDbSymbolTableRecord
100
AcDbBlockTableRecord
  2
_OBLIQUE
  0
BLOCK_RECORD
  5
4B
100
AcDbSymbolTableRecord
100
AcDbBlockTableRecord
  2
DIMS0
  0
BLOCK_RECORD
  5
57
100
AcDbSymbolTableRecord
100
AcDbBlockTableRecord
  2
DIMS1
  0
BLOCK_RECORD
  5
63
100
AcDbSymbolTableRecord
100
AcDbBlockTableRecord
  2
DIMS2
  0
BLOCK_RECORD
  5
6F
100
AcDbSymbolTableRecord
100
AcDbBlockTableRecord
  2
DIMS3
  0
BLOCK_RECORD
  5
7B
100
AcDbSymbolTableRecord
100
AcDbBlockTableRecord
  2
DIMS4
  0
BLOCK_RECORD
  5
84
100
AcDbSymbolTableRecord
100
AcDbBlockTableRecord
  2
DIMS5
  0
BLOCK_RECORD
  5
90
100
AcDbSymbolTableRecord
100
AcDbBlockTableRecord
  2
DIMS6
  0
BLOCK_RECORD
  5
9A
100
AcDbSymbolTableRecord
100
AcDbBlockTableRecord
  2
DIMS7
  0
BLOCK_RECORD
  5
A6
100
AcDbSymbolTableRecord
100
AcDbBlockTableRecord
  2
DIMS8
  0
BLOCK_RECORD
  5
B2
100
AcDbSymbolTableRecord
100
AcDbBlockTableRecord
  2
DIMS9
  0
BLOCK_RECORD
  5
BE
100
AcDbSymbolTableRecord
100
AcDbBlockTableRecord
  2
DIMS10
  0
ENDTAB
  0
ENDSEC
  0
SECTION
  2
BLOCKS
  0
BLOCK
  5
22
100
AcDbEntity
  8
0
100
AcDbBlockBegin
  2
*MODEL_SPACE
 70
     0
 10
0.0
 20
0.0
 30
0.0
  3
*MODEL_SPACE
  1

  0
ENDBLK
  5
23
100
AcDbEntity
  8
0
100
AcDbBlockEnd
  0
BLOCK
  5
25
100
AcDbEntity
 67
     1
  8
0
100
AcDbBlockBegin
  2
*PAPER_SPACE
 70
     0
 10
0.0
 20
0.0
 30
0.0
  3
*PAPER_SPACE
  1

  0
ENDBLK
  5
26
100
AcDbEntity
 67
     1
  8
0
100
AcDbBlockEnd
  0
BLOCK
  5
2A
100
AcDbEntity
  8
0
100
AcDbBlockBegin
  2
_NONE
 70
     0
 10
0.0
 20
0.0
  0
CIRCLE
  5
2B
100
AcDbEntity
  8
0
 62
     0
100
AcDbCircle
 10
0.0
 20
0.0
 40
0.25
  0
ENDBLK
  5
2C
100
AcDbEntity
  8
0
100
AcDbBlockEnd
  0
BLOCK
  5
2E
100
AcDbEntity
  8
0
100
AcDbBlockBegin
  2
_OPEN
 70
     0
 10
0.0
 20
0.0
  0
LINE
  5
2F
100
AcDbEntity
  8
0
 62
     0
100
AcDbLine
 10
-0.965926
 20
0.258819
 11
0.0
 21
0.0
  0
LINE
  5
30
100
AcDbEntity
  8
0
 62
     0
100
AcDbLine
 10
0.0
 20
0.0
 11
-0.965926
 21
-0.258819
  0
LINE
  5
31
100
AcDbEntity
  8
0
 62
     0
100
AcDbLine
 10
0.0
 20
0.0
 11
-1.0
 21
0.0
  0
ENDBLK
  5
32
100
AcDbEntity
  8
0
100
AcDbBlockEnd
  0
BLOCK
  5
34
100
AcDbEntity
  8
0
100
AcDbBlockBegin
  2
_CLOSED
 70
     0
 10
0.0
 20
0.0
  0
LINE
  5
35
100
AcDbEntity
  8
0
 62
     0
100
AcDbLine
 10
-0.965926
 20
0.258819
 11
0.0
 21
0.0
  0
LINE
  5
36
100
AcDbEntity
  8
0
 62
     0
100
AcDbLine
 10
0.0
 20
0.0
 11
-0.965926
 21
-0.258819
  0
LINE
  5
37
100
AcDbEntity
  8
0
 62
     0
100
AcDbLine
 10
-0.965926
 20
0.258819
 11
-0.965926
 21
-0.258819
  0
LINE
  5
38
100
AcDbEntity
  8
0
 62
     0
100
AcDbLine
 10
0.0
 20
0.0
 11
-1.0
 21
0.0
  0
ENDBLK
  5
39
100
AcDbEntity
  8
0
100
AcDbBlockEnd
  0
BLOCK
  5
3B
100
AcDbEntity
  8
0
100
AcDbBlockBegin
  2
_ORIGIN
 70
     0
 10
0.0
 20
0.0
  0
CIRCLE
  5
3C
100
AcDbEntity
  8
0
 62
     0
100
AcDbCircle
 10
0.0
 20
0.0
 40
0.5
  0
LINE
  5
3D
100
AcDbEntity
  8
0
 62
     0
100
AcDbLine
 10
0.0
 20
0.0
 11
-1.0
 21
0.0
  0
ENDBLK
  5
3E
100
AcDbEntity
  8
0
100
AcDbBlockEnd
  0
BLOCK
  5
40
100
AcDbEntity
  8
0
100
AcDbBlockBegin
  2
_DOT
 70
     0
 10
0.0
 20
0.0
  0
POLYLINE
  5
41
100
AcDbEntity
  8
0
 62
     0
100
AcDb2dPolyline
 66
     1
 70
     1
 40
0.5
 41
0.5
  0
VERTEX
  5
42
100
AcDbEntity
  8
0
 62
     0
100
AcDbVertex
100
AcDb2dVertex
 10
-0.25
 20
0.0
 42
1.0
  0
VERTEX
  5
43
100
AcDbEntity
  8
0
 62
     0
100
AcDbVertex
100
AcDb2dVertex
 10
0.25
 20
0.0
 42
1.0
  0
SEQEND
  5
44
100
AcDbEntity
  8
0
 62
     0
  0
LINE
  5
45
100
AcDbEntity
  8
0
 62
     0
100
AcDbLine
 10
-0.5
 20
0.0
 11
-1.0
 21
0.0
  0
ENDBLK
  5
46
100
AcDbEntity
  8
0
100
AcDbBlockEnd
  0
BLOCK
  5
48
100
AcDbEntity
  8
0
100
AcDbBlockBegin
  2
_OBLIQUE
 70
     0
 10
0.0
 20
0.0
  0
LINE
  5
49
100
AcDbEntity
  8
0
 62
     0
100
AcDbLine
 10
-0.353553
 20
-0.353553
 11
0.353553
 21
0.353553
  0
ENDBLK
  5
4A
100
AcDbEntity
  8
0
100
AcDbBlockEnd
  0
BLOCK
  5
4C
100
AcDbEntity
  8
DD0
100
AcDbBlockBegin
  2
DIMS0
 70
     0
 10
0.0
 20
0.0
  0
LINE
  5
4D
100
AcDbEntity
  8
DD0
100
AcDbLine
 10
532.226783
 20
1259.375897
 11
587.209769
 21
1259.375897
  0
LINE
  5
4E
100
AcDbEntity
  8
DD0
100
AcDbLine
 10
532.226783
 20
959.375901
 11
587.209769
 21
959.375901
  0
LINE
  5
4F
100
AcDbEntity
  8
DD0
100
AcDbLine
 10
586.092055
 20
1244.88701
 11
582.209769
 21
1259.375897
  0
LINE
  5
50
100
AcDbEntity
  8
DD0
100
AcDbLine
 10
582.209769
 20
1259.375897
 11
578.327483
 21
1244.88701
  0
LINE
  5
51
100
AcDbEntity
  8
DD0
100
AcDbLine
 10
578.327483
 20
973.864788
 11
582.209769
 21
959.375901
  0
LINE
  5
52
100
AcDbEntity
  8
DD0
100
AcDbLine
 10
582.209769
 20
959.375901
 11
586.092055
 21
973.864788
  0
LINE
  5
53
100
AcDbEntity
  8
DD0
100
AcDbLine
 10
582.209769
 20
1259.375897
 11
582.209769
 21
959.375901
  0
TEXT
  5
54
100
AcDbEntity
  8
DD0
100
AcDbText
 10
579.209777
 20
1087.038375
 40
15.75
  1
３００
 50
90.000003
 41
0.833333
  7
STANDARD
100
AcDbText
  0
ENDBLK
  5
55
100
AcDbEntity
  8
DD0
100
AcDbBlockEnd
  0
BLOCK
  5
58
100
AcDbEntity
  8
DD0
100
AcDbBlockBegin
  2
DIMS1
 70
     0
 10
0.0
 20
0.0
  0
LINE
  5
59
100
AcDbEntity
  8
DD0
 60
     1
100
AcDbLine
 10
532.226783
 20
1259.375897
 11
587.209769
 21
1259.375897
  0
LINE
  5
5A
100
AcDbEntity
  8
DD0
100
AcDbLine
 10
472.226784
 20
1297.375469
 11
587.209769
 21
1297.375469
  0
LINE
  5
5B
100
AcDbEntity
  8
DD0
100
AcDbLine
 10
586.092055
 20
1244.88701
 11
582.209769
 21
1259.375897
  0
LINE
  5
5C
100
AcDbEntity
  8
DD0
100
AcDbLine
 10
582.209769
 20
1259.375897
 11
578.327483
 21
1244.88701
  0
LINE
  5
5D
100
AcDbEntity
  8
DD0
100
AcDbLine
 10
578.327483
 20
1311.864356
 11
582.209769
 21
1297.375469
  0
LINE
  5
5E
100
AcDbEntity
  8
DD0
100
AcDbLine
 10
582.209769
 20
1297.375469
 11
586.092055
 21
1311.864356
  0
LINE
  5
5F
100
AcDbEntity
  8
DD0
100
AcDbLine
 10
582.209769
 20
1242.875897
 11
582.209769
 21
1313.875468
  0
TEXT
  5
60
100
AcDbEntity
  8
DD0
100
AcDbText
 10
579.209777
 20
1263.91322
 40
15.75
  1
３８
 50
90.000003
 41
0.833333
  7
STANDARD
100
AcDbText
  0
ENDBLK
  5
61
100
AcDbEntity
  8
DD0
100
AcDbBlockEnd
  0
BLOCK
  5
64
100
AcDbEntity
  8
DD0
100
AcDbBlockBegin
  2
DIMS2
 70
     0
 10
0.0
 20
0.0
  0
LINE
  5
65
100
AcDbEntity
  8
DD0
100
AcDbLine
 10
532.226783
 20
959.375901
 11
587.209769
 21
959.375901
  0
LINE
  5
66
100
AcDbEntity
  8
DD0
100
AcDbLine
 10
472.226784
 20
921.375871
 11
587.209769
 21
921.375871
  0
LINE
  5
67
100
AcDbEntity
  8
DD0
100
AcDbLine
 10
578.327483
 20
973.864788
 11
582.209769
 21
959.375901
  0
LINE
  5
68
100
AcDbEntity
  8
DD0
100
AcDbLine
 10
582.209769
 20
959.375901
 11
586.092055
 21
973.864788
  0
LINE
  5
69
100
AcDbEntity
  8
DD0
100
AcDbLine
 10
586.092055
 20
906.886984
 11
582.209769
 21
921.375871
  0
LINE
  5
6A
100
AcDbEntity
  8
DD0
100
AcDbLine
 10
582.209769
 20
921.375871
 11
578.327483
 21
906.886984
  0
LINE
  5
6B
100
AcDbEntity
  8
DD0
100
AcDbLine
 10
582.209769
 20
975.875901
 11
582.209769
 21
904.875872
  0
TEXT
  5
6C
100
AcDbEntity
  8
DD0
100
AcDbText
 10
579.209777
 20
925.913423
 40
15.75
  1
３８
 50
90.000003
 41
0.833333
  7
STANDARD
100
AcDbText
  0
ENDBLK
  5
6D
100
AcDbEntity
  8
DD0
100
AcDbBlockEnd
  0
BLOCK
  5
70
100
AcDbEntity
  8
DD0
100
AcDbBlockBegin
  2
DIMS3
 70
     0
 10
0.0
 20
0.0
  0
LINE
  5
71
100
AcDbEntity
  8
DD0
100
AcDbLine
 10
162.22677
 20
1259.375897
 11
162.22677
 21
1348.417643
  0
LINE
  5
72
100
AcDbEntity
  8
DD0
100
AcDbLine
 10
546.22676
 20
1233.375684
 11
546.22676
 21
1348.417643
  0
LINE
  5
73
100
AcDbEntity
  8
DD0
100
AcDbLine
 10
176.715657
 20
1347.299929
 11
162.22677
 21
1343.417644
  0
LINE
  5
74
100
AcDbEntity
  8
DD0
100
AcDbLine
 10
162.22677
 20
1343.417644
 11
176.715657
 21
1339.535358
  0
LINE
  5
75
100
AcDbEntity
  8
DD0
100
AcDbLine
 10
531.737873
 20
1339.535358
 11
546.22676
 21
1343.417644
  0
LINE
  5
76
100
AcDbEntity
  8
DD0
100
AcDbLine
 10
546.22676
 20
1343.417644
 11
531.737873
 21
1347.299929
  0
LINE
  5
77
100
AcDbEntity
  8
DD0
100
AcDbLine
 10
162.22677
 20
1343.417644
 11
546.22676
 21
1343.417644
  0
TEXT
  5
78
100
AcDbEntity
  8
DD0
100
AcDbText
 10
331.88927
 20
1346.417674
 40
15.75
  1
３８５
 41
0.833333
  7
STANDARD
100
AcDbText
  0
ENDBLK
  5
79
100
AcDbEntity
  8
DD0
100
AcDbBlockEnd
  0
BLOCK
  5
7C
100
AcDbEntity
  8
DD0
100
AcDbBlockBegin
  2
DIMS4
 70
     0
 10
0.0
 20
0.0
  0
TEXT
  5
7D
100
AcDbEntity
  8
DD0
100
AcDbText
 10
381.332399
 20
440.424951
 40
15.75
  1
３－Ｍ８ねじ穴
 41
0.833333
  7
STANDARD
100
AcDbText
  0
LINE
  5
7E
100
AcDbEntity
  8
DD0
100
AcDbLine
 10
359.733975
 20
487.010406
 11
350.8221
 21
499.075997
  0
LINE
  5
7F
100
AcDbEntity
  8
DD0
100
AcDbLine
 10
350.8221
 20
499.075997
 11
352.507215
 21
484.170951
  0
LINE
  5
80
100
AcDbEntity
  8
DD0
100
AcDbLine
 10
350.8221
 20
499.075997
 11
375.04516
 21
437.42534
  0
LINE
  5
81
100
AcDbEntity
  8
DD0
100
AcDbLine
 10
375.045199
 20
437.425264
 11
495.295021
 21
437.42534
  0
ENDBLK
  5
82
100
AcDbEntity
  8
DD0
100
AcDbBlockEnd
  0
BLOCK
  5
85
100
AcDbEntity
  8
DD0
100
AcDbBlockBegin
  2
DIMS5
 70
     0
 10
0.0
 20
0.0
  0
LINE
  5
86
100
AcDbEntity
  8
DD0
100
AcDbLine
 10
536.726791
 20
788.461063
 11
587.209769
 21
788.461063
  0
LINE
  5
87
100
AcDbEntity
  8
DD0
100
AcDbLine
 10
551.948959
 20
773.460758
 11
587.209769
 21
773.460758
  0
LINE
  5
88
100
AcDbEntity
  8
DD0
100
AcDbLine
 10
578.327483
 20
802.94995
 11
582.209769
 21
788.461063
  0
LINE
  5
89
100
AcDbEntity
  8
DD0
100
AcDbLine
 10
582.209769
 20
788.461063
 11
586.092055
 21
802.94995
  0
LINE
  5
8A
100
AcDbEntity
  8
DD0
100
AcDbLine
 10
586.092055
 20
758.971871
 11
582.209769
 21
773.460758
  0
LINE
  5
8B
100
AcDbEntity
  8
DD0
100
AcDbLine
 10
582.209769
 20
773.460758
 11
578.327483
 21
758.971871
  0
LINE
  5
8C
100
AcDbEntity
  8
DD0
100
AcDbLine
 10
582.209769
 20
841.461064
 11
582.209769
 21
756.960759
  0
TEXT
  5
8D
100
AcDbEntity
  8
DD0
100
AcDbText
 10
579.209777
 20
806.248584
 40
15.75
  1
１５
 50
90.000003
 41
0.833333
  7
STANDARD
100
AcDbText
  0
ENDBLK
  5
8E
100
AcDbEntity
  8
DD0
100
AcDbBlockEnd
  0
BLOCK
  5
91
100
AcDbEntity
  8
DD0
100
AcDbBlockBegin
  2
DIMS6
 70
     0
 10
0.0
 20
0.0
  0
LINE
  5
92
100
AcDbEntity
  8
DD0
 60
     1
100
AcDbLine
 10
551.948959
 20
773.460758
 11
587.209769
 21
773.460758
  0
LINE
  5
93
100
AcDbEntity
  8
DD0
100
AcDbLine
 10
376.948961
 20
503.460991
 11
587.209769
 21
503.460991
  0
LINE
  5
94
100
AcDbEntity
  8
DD0
100
AcDbLine
 10
578.327483
 20
517.949878
 11
582.209769
 21
503.460991
  0
LINE
  5
95
100
AcDbEntity
  8
DD0
100
AcDbLine
 10
582.209769
 20
503.460991
 11
586.092055
 21
517.949878
  0
LINE
  5
96
100
AcDbEntity
  8
DD0
100
AcDbLine
 10
582.209769
 20
773.460758
 11
582.209769
 21
503.460991
  0
TEXT
  5
97
100
AcDbEntity
  8
DD0
100
AcDbText
 10
579.209777
 20
616.123389
 40
15.75
  1
２７０
 50
90.000003
 41
0.833333
  7
STANDARD
100
AcDbText
  0
ENDBLK
  5
98
100
AcDbEntity
  8
DD0
100
AcDbBlockEnd
  0
BLOCK
  5
9B
100
AcDbEntity
  8
DD0
100
AcDbBlockBegin
  2
DIMS7
 70
     0
 10
0.0
 20
0.0
  0
LINE
  5
9C
100
AcDbEntity
  8
DD0
100
AcDbLine
 10
161.726758
 20
793.461063
 11
161.726758
 21
856.119448
  0
LINE
  5
9D
100
AcDbEntity
  8
DD0
100
AcDbLine
 10
346.726756
 20
810.6832
 11
346.726756
 21
856.119448
  0
LINE
  5
9E
100
AcDbEntity
  8
DD0
100
AcDbLine
 10
176.215646
 20
855.001734
 11
161.726758
 21
851.119448
  0
LINE
  5
9F
100
AcDbEntity
  8
DD0
100
AcDbLine
 10
161.726758
 20
851.119448
 11
176.215646
 21
847.237163
  0
LINE
  5
A0
100
AcDbEntity
  8
DD0
100
AcDbLine
 10
332.237869
 20
847.237163
 11
346.726756
 21
851.119448
  0
LINE
  5
A1
100
AcDbEntity
  8
DD0
100
AcDbLine
 10
346.726756
 20
851.119448
 11
332.237869
 21
855.001734
  0
LINE
  5
A2
100
AcDbEntity
  8
DD0
100
AcDbLine
 10
161.726758
 20
851.119448
 11
346.726756
 21
851.119448
  0
TEXT
  5
A3
100
AcDbEntity
  8
DD0
100
AcDbText
 10
231.889271
 20
854.119479
 40
15.75
  1
１８５
 41
0.833333
  7
STANDARD
100
AcDbText
  0
ENDBLK
  5
A4
100
AcDbEntity
  8
DD0
100
AcDbBlockEnd
  0
BLOCK
  5
A7
100
AcDbEntity
  8
DD0
100
AcDbBlockBegin
  2
DIMS8
 70
     0
 10
0.0
 20
0.0
  0
LINE
  5
A8
100
AcDbEntity
  8
DD0
100
AcDbLine
 10
176.726758
 20
803.682926
 11
176.726758
 21
818.161838
  0
LINE
  5
A9
100
AcDbEntity
  8
DD0
100
AcDbLine
 10
516.726791
 20
803.682926
 11
516.726791
 21
818.161838
  0
LINE
  5
AA
100
AcDbEntity
  8
DD0
100
AcDbLine
 10
191.215645
 20
817.044124
 11
176.726758
 21
813.161838
  0
LINE
  5
AB
100
AcDbEntity
  8
DD0
100
AcDbLine
 10
176.726758
 20
813.161838
 11
191.215645
 21
809.279552
  0
LINE
  5
AC
100
AcDbEntity
  8
DD0
100
AcDbLine
 10
502.237904
 20
809.279552
 11
516.726791
 21
813.161838
  0
LINE
  5
AD
100
AcDbEntity
  8
DD0
100
AcDbLine
 10
516.726791
 20
813.161838
 11
502.237904
 21
817.044124
  0
LINE
  5
AE
100
AcDbEntity
  8
DD0
100
AcDbLine
 10
176.726758
 20
813.161838
 11
516.726791
 21
813.161838
  0
TEXT
  5
AF
100
AcDbEntity
  8
DD0
100
AcDbText
 10
336.896937
 20
816.161792
 40
15.75
  1
３４０
 41
0.833333
  7
STANDARD
100
AcDbText
  0
ENDBLK
  5
B0
100
AcDbEntity
  8
DD0
100
AcDbBlockEnd
  0
BLOCK
  5
B3
100
AcDbEntity
  8
DD0
100
AcDbBlockBegin
  2
DIMS9
 70
     0
 10
0.0
 20
0.0
  0
LINE
  5
B4
100
AcDbEntity
  8
DD0
100
AcDbLine
 10
889.226748
 20
1264.375897
 11
889.226748
 21
1348.417643
  0
LINE
  5
B5
100
AcDbEntity
  8
DD0
100
AcDbLine
 10
645.026846
 20
1187.375623
 11
645.026846
 21
1348.417643
  0
LINE
  5
B6
100
AcDbEntity
  8
DD0
100
AcDbLine
 10
874.73786
 20
1339.535358
 11
889.226748
 21
1343.417644
  0
LINE
  5
B7
100
AcDbEntity
  8
DD0
100
AcDbLine
 10
889.226748
 20
1343.417644
 11
874.73786
 21
1347.299929
  0
LINE
  5
B8
100
AcDbEntity
  8
DD0
100
AcDbLine
 10
659.515733
 20
1347.299929
 11
645.026846
 21
1343.417644
  0
LINE
  5
B9
100
AcDbEntity
  8
DD0
100
AcDbLine
 10
645.026846
 20
1343.417644
 11
659.515733
 21
1339.535358
  0
LINE
  5
BA
100
AcDbEntity
  8
DD0
100
AcDbLine
 10
889.226748
 20
1343.417644
 11
645.026846
 21
1343.417644
  0
TEXT
  5
BB
100
AcDbEntity
  8
DD0
100
AcDbText
 10
744.789234
 20
1346.417674
 40
15.75
  1
２４４
 41
0.833333
  7
STANDARD
100
AcDbText
  0
ENDBLK
  5
BC
100
AcDbEntity
  8
DD0
100
AcDbBlockEnd
  0
BLOCK
  5
BF
100
AcDbEntity
  8
DD0
100
AcDbBlockBegin
  2
DIMS10
 70
     0
 10
0.0
 20
0.0
  0
LINE
  5
C0
100
AcDbEntity
  8
DD0
100
AcDbLine
 10
889.226748
 20
1237.183896
 11
889.226748
 21
1302.375469
  0
LINE
  5
C1
100
AcDbEntity
  8
DD0
100
AcDbLine
 10
886.026751
 20
1264.375897
 11
886.026751
 21
1302.375469
  0
LINE
  5
C2
100
AcDbEntity
  8
DD0
100
AcDbLine
 10
903.715635
 20
1301.257755
 11
889.226748
 21
1297.375469
  0
LINE
  5
C3
100
AcDbEntity
  8
DD0
100
AcDbLine
 10
889.226748
 20
1297.375469
 11
903.715635
 21
1293.493183
  0
LINE
  5
C4
100
AcDbEntity
  8
DD0
100
AcDbLine
 10
871.537864
 20
1293.493183
 11
886.026751
 21
1297.375469
  0
LINE
  5
C5
100
AcDbEntity
  8
DD0
100
AcDbLine
 10
886.026751
 20
1297.375469
 11
871.537864
 21
1301.257755
  0
LINE
  5
C6
100
AcDbEntity
  8
DD0
100
AcDbLine
 10
957.976751
 20
1297.375469
 11
869.526751
 21
1297.375469
  0
TEXT
  5
C7
100
AcDbEntity
  8
DD0
100
AcDbText
 10
907.014269
 20
1300.375499
 40
15.75
  1
３．２
 41
0.833333
  7
STANDARD
100
AcDbText
  0
ENDBLK
  5
C8
100
AcDbEntity
  8
DD0
100
AcDbBlockEnd
  0
ENDSEC
  0
SECTION
  2
ENTITIES
  0
INSERT
  5
56
100
AcDbEntity
  8
DD0
100
AcDbBlockReference
  2
DIMS0
 10
0.0
 20
0.0
  0
INSERT
  5
62
100
AcDbEntity
  8
DD0
100
AcDbBlockReference
  2
DIMS1
 10
0.0
 20
0.0
  0
INSERT
  5
6E
100
AcDbEntity
  8
DD0
100
AcDbBlockReference
  2
DIMS2
 10
0.0
 20
0.0
  0
INSERT
  5
7A
100
AcDbEntity
  8
DD0
100
AcDbBlockReference
  2
DIMS3
 10
0.0
 20
0.0
  0
INSERT
  5
83
100
AcDbEntity
  8
DD0
100
AcDbBlockReference
  2
DIMS4
 10
0.0
 20
0.0
  0
INSERT
  5
8F
100
AcDbEntity
  8
DD0
100
AcDbBlockReference
  2
DIMS5
 10
0.0
 20
0.0
  0
INSERT
  5
99
100
AcDbEntity
  8
DD0
100
AcDbBlockReference
  2
DIMS6
 10
0.0
 20
0.0
  0
INSERT
  5
A5
100
AcDbEntity
  8
DD0
100
AcDbBlockReference
  2
DIMS7
 10
0.0
 20
0.0
  0
INSERT
  5
B1
100
AcDbEntity
  8
DD0
100
AcDbBlockReference
  2
DIMS8
 10
0.0
 20
0.0
  0
INSERT
  5
BD
100
AcDbEntity
  8
DD0
100
AcDbBlockReference
  2
DIMS9
 10
0.0
 20
0.0
  0
INSERT
  5
C9
100
AcDbEntity
  8
DD0
100
AcDbBlockReference
  2
DIMS10
 10
0.0
 20
0.0
  0
LINE
  5
CA
100
AcDbEntity
  8
M0
  6
DASHDOT
100
AcDbLine
 10
347.226774
 20
942.709201
 11
347.226774
 21
1287.042533
  0
CIRCLE
  5
CB
100
AcDbEntity
  8
M0
100
AcDbCircle
 10
517.226774
 20
1244.375867
 40
4.5
  0
CIRCLE
  5
CC
100
AcDbEntity
  8
M0
100
AcDbCircle
 10
177.226774
 20
1244.375867
 40
4.5
  0
LINE
  5
CD
100
AcDbEntity
  8
M0
100
AcDbLine
 10
532.226774
 20
1254.375867
 11
527.226774
 21
1259.375867
  0
LINE
  5
CE
100
AcDbEntity
  8
M0
100
AcDbLine
 10
527.226774
 20
1259.375867
 11
167.226774
 21
1259.375867
  0
LINE
  5
CF
100
AcDbEntity
  8
M0
100
AcDbLine
 10
167.226774
 20
1259.375867
 11
162.226774
 21
1254.375867
  0
LINE
  5
D0
100
AcDbEntity
  8
M0
100
AcDbLine
 10
162.226774
 20
1254.375867
 11
162.226774
 21
964.375867
  0
LINE
  5
D1
100
AcDbEntity
  8
M0
100
AcDbLine
 10
162.226774
 20
964.375867
 11
167.226774
 21
959.375867
  0
LINE
  5
D2
100
AcDbEntity
  8
M0
100
AcDbLine
 10
167.226774
 20
959.375867
 11
527.226774
 21
959.375867
  0
LINE
  5
D3
100
AcDbEntity
  8
M0
100
AcDbLine
 10
532.226774
 20
964.375867
 11
532.226774
 21
990.375651
  0
LINE
  5
D4
100
AcDbEntity
  8
M0
100
AcDbLine
 10
527.226774
 20
959.375867
 11
532.226774
 21
964.375867
  0
LINE
  5
D5
100
AcDbEntity
  8
M0
100
AcDbLine
 10
362.226774
 20
959.375867
 11
362.226774
 21
974.375867
  0
LINE
  5
D6
100
AcDbEntity
  8
M0
100
AcDbLine
 10
332.226774
 20
959.375867
 11
332.226774
 21
974.375867
  0
ARC
  5
D7
100
AcDbEntity
  8
M0
100
AcDbCircle
 10
347.226774
 20
974.375867
 40
15.0
100
AcDbArc
 50
0.0
 51
180.0
  0
LINE
  5
D8
100
AcDbEntity
  8
M0
100
AcDbLine
 10
532.226774
 20
989.375867
 11
522.226774
 21
989.375867
  0
LINE
  5
D9
100
AcDbEntity
  8
M0
100
AcDbLine
 10
512.226774
 20
979.375867
 11
512.226774
 21
959.375867
  0
ARC
  5
DA
100
AcDbEntity
  8
M0
100
AcDbCircle
 10
522.226774
 20
979.375867
 40
10.0
100
AcDbArc
 50
90.0
 51
180.0
  0
LINE
  5
DB
100
AcDbEntity
  8
M0
100
AcDbLine
 10
162.226774
 20
989.375867
 11
172.226774
 21
989.375867
  0
LINE
  5
DC
100
AcDbEntity
  8
M0
100
AcDbLine
 10
182.226774
 20
979.375867
 11
182.226774
 21
959.375867
  0
ARC
  5
DD
100
AcDbEntity
  8
M0
100
AcDbCircle
 10
172.226774
 20
979.375867
 40
10.0
100
AcDbArc
 50
0.0
 51
90.0
  0
LINE
  5
DE
100
AcDbEntity
  8
M0
100
AcDbLine
 10
532.226774
 20
1228.375651
 11
532.226774
 21
1254.375867
  0
LINE
  5
DF
100
AcDbEntity
  8
M0
  6
DASHDOT
100
AcDbLine
 10
502.726774
 20
1244.375867
 11
531.726774
 21
1244.375867
  0
LINE
  5
E0
100
AcDbEntity
  8
M0
  6
DASHDOT
100
AcDbLine
 10
517.226774
 20
1229.875867
 11
517.226774
 21
1258.875867
  0
LINE
  5
E1
100
AcDbEntity
  8
M0
  6
DASHDOT
100
AcDbLine
 10
162.726774
 20
1244.375867
 11
191.726774
 21
1244.375867
  0
LINE
  5
E2
100
AcDbEntity
  8
M0
  6
DASHDOT
100
AcDbLine
 10
177.226774
 20
1229.875867
 11
177.226774
 21
1258.875867
  0
LINE
  5
E3
100
AcDbEntity
  8
M0
  6
DASHDOT
100
AcDbLine
 10
332.726774
 20
974.375867
 11
361.726774
 21
974.375867
  0
LINE
  5
E4
100
AcDbEntity
  8
M0
100
AcDbLine
 10
532.226774
 20
1231.375867
 11
162.226774
 21
1231.375867
  0
CIRCLE
  5
E5
100
AcDbEntity
  8
M0
100
AcDbCircle
 10
347.226774
 20
974.375867
 40
4.5
  0
LINE
  5
E6
100
AcDbEntity
  8
M0
100
AcDbLine
 10
886.026774
 20
1259.375867
 11
889.226774
 21
1259.375867
  0
LINE
  5
E7
100
AcDbEntity
  8
M0
100
AcDbLine
 10
886.026774
 20
1259.375867
 11
886.026774
 21
1232.375867
  0
ARC
  5
E8
100
AcDbEntity
  8
M0
100
AcDbCircle
 10
886.426774
 20
1227.175867
 40
1.0
100
AcDbArc
 50
105.618498
 51
180.0
  0
LINE
  5
E9
100
AcDbEntity
  8
M0
100
AcDbLine
 10
889.226774
 20
1259.375867
 11
889.226774
 21
1232.183861
  0
ARC
  5
EA
100
AcDbEntity
  8
M0
100
AcDbCircle
 10
885.026774
 20
1232.183861
 40
4.2
100
AcDbArc
 50
285.618498
 51
360.0
  0
ARC
  5
EB
100
AcDbEntity
  8
M0
100
AcDbCircle
 10
885.026774
 20
1232.375867
 40
1.0
100
AcDbArc
 50
285.618498
 51
360.0
  0
ARC
  5
EC
100
AcDbEntity
  8
M0
100
AcDbCircle
 10
886.426774
 20
1227.367873
 40
4.2
100
AcDbArc
 50
105.618498
 51
180.0
  0
LINE
  5
ED
100
AcDbEntity
  8
M0
100
AcDbLine
 10
882.226774
 20
1227.367873
 11
882.226774
 21
1109.375867
  0
LINE
  5
EE
100
AcDbEntity
  8
M0
100
AcDbLine
 10
885.426774
 20
1109.375867
 11
885.426774
 21
1227.175867
  0
LINE
  5
EF
100
AcDbEntity
  8
M0
100
AcDbLine
 10
886.026774
 20
959.375867
 11
886.026774
 21
988.375867
  0
ARC
  5
F0
100
AcDbEntity
  8
M0
100
AcDbCircle
 10
886.426774
 20
993.575867
 40
1.0
100
AcDbArc
 50
180.0
 51
254.381502
  0
LINE
  5
F1
100
AcDbEntity
  8
M0
100
AcDbLine
 10
889.226774
 20
959.375867
 11
889.226774
 21
988.567873
  0
ARC
  5
F2
100
AcDbEntity
  8
M0
100
AcDbCircle
 10
885.026774
 20
988.567873
 40
4.2
100
AcDbArc
 50
0.0
 51
74.381502
  0
ARC
  5
F3
100
AcDbEntity
  8
M0
100
AcDbCircle
 10
885.026774
 20
988.375867
 40
1.0
100
AcDbArc
 50
0.0
 51
74.381502
  0
ARC
  5
F4
100
AcDbEntity
  8
M0
100
AcDbCircle
 10
886.426774
 20
993.383861
 40
4.2
100
AcDbArc
 50
180.0
 51
254.381502
  0
LINE
  5
F5
100
AcDbEntity
  8
M0
100
AcDbLine
 10
885.426774
 20
1109.375867
 11
885.426774
 21
993.575867
  0
LINE
  5
F6
100
AcDbEntity
  8
M0
100
AcDbLine
 10
882.226774
 20
959.375867
 11
882.226774
 21
1109.375867
  0
LINE
  5
F7
100
AcDbEntity
  8
M0
100
AcDbLine
 10
882.226774
 20
959.375867
 11
889.226774
 21
959.375867
  0
LINE
  5
F8
100
AcDbEntity
  8
M0
100
AcDbLine
 10
870.226774
 20
1229.375867
 11
882.226774
 21
1229.375867
  0
LINE
  5
F9
100
AcDbEntity
  8
M0
100
AcDbLine
 10
870.226774
 20
1209.375867
 11
882.226774
 21
1209.375867
  0
LINE
  5
FA
100
AcDbEntity
  8
M0
100
AcDbLine
 10
870.226774
 20
1229.375867
 11
870.226774
 21
1209.375867
  0
LINE
  5
FB
100
AcDbEntity
  8
M0
100
AcDbLine
 10
882.226774
 20
1229.375867
 11
882.226774
 21
1209.375867
  0
LINE
  5
FC
100
AcDbEntity
  8
M0
100
AcDbLine
 10
870.226774
 20
1009.375867
 11
882.226774
 21
1009.375867
  0
LINE
  5
FD
100
AcDbEntity
  8
M0
100
AcDbLine
 10
870.226774
 20
989.375867
 11
882.226774
 21
989.375867
  0
LINE
  5
FE
100
AcDbEntity
  8
M0
100
AcDbLine
 10
870.226774
 20
1009.375867
 11
870.226774
 21
989.375867
  0
LINE
  5
FF
100
AcDbEntity
  8
M0
100
AcDbLine
 10
882.226774
 20
1009.375867
 11
882.226774
 21
989.375867
  0
LINE
  5
100
100
AcDbEntity
  8
M0
100
AcDbLine
 10
749.22671
 20
1219.375954
 11
749.22671
 21
1180.375651
  0
LINE
  5
101
100
AcDbEntity
  8
M0
100
AcDbLine
 10
749.22671
 20
1219.375954
 11
755.22671
 21
1219.375954
  0
LINE
  5
102
100
AcDbEntity
  8
M0
100
AcDbLine
 10
755.22671
 20
1180.375651
 11
755.22671
 21
1219.375954
  0
LINE
  5
103
100
AcDbEntity
  8
M0
  6
DIVIDE
100
AcDbLine
 10
415.226774
 20
1297.375431
 11
417.226774
 21
1297.375429
  0
LINE
  5
104
100
AcDbEntity
  8
M0
  6
DIVIDE
100
AcDbLine
 10
415.226774
 20
1297.375429
 11
415.226774
 21
1229.375429
  0
LINE
  5
105
100
AcDbEntity
  8
M0
  6
DIVIDE
100
AcDbLine
 10
417.226774
 20
1229.375429
 11
417.226774
 21
1297.375429
  0
LINE
  5
106
100
AcDbEntity
  8
M0
  6
DIVIDE
100
AcDbLine
 10
467.226774
 20
1297.375431
 11
465.226774
 21
1297.375429
  0
LINE
  5
107
100
AcDbEntity
  8
M0
  6
DIVIDE
100
AcDbLine
 10
465.226774
 20
1229.375429
 11
465.226774
 21
1297.375429
  0
LINE
  5
108
100
AcDbEntity
  8
M0
  6
DIVIDE
100
AcDbLine
 10
467.226774
 20
1297.375429
 11
467.226774
 21
1229.375429
  0
LINE
  5
109
100
AcDbEntity
  8
M0
  6
DIVIDE
100
AcDbLine
 10
227.226774
 20
1297.375431
 11
229.226774
 21
1297.375429
  0
LINE
  5
10A
100
AcDbEntity
  8
M0
  6
DIVIDE
100
AcDbLine
 10
227.226774
 20
1297.375429
 11
227.226774
 21
1229.375429
  0
LINE
  5
10B
100
AcDbEntity
  8
M0
  6
DIVIDE
100
AcDbLine
 10
229.226774
 20
1229.375429
 11
229.226774
 21
1297.375429
  0
LINE
  5
10C
100
AcDbEntity
  8
M0
  6
DIVIDE
100
AcDbLine
 10
279.226774
 20
1297.375431
 11
277.226774
 21
1297.375429
  0
LINE
  5
10D
100
AcDbEntity
  8
M0
  6
DIVIDE
100
AcDbLine
 10
277.226774
 20
1229.375429
 11
277.226774
 21
1297.375429
  0
LINE
  5
10E
100
AcDbEntity
  8
M0
  6
DIVIDE
100
AcDbLine
 10
279.226774
 20
1297.375429
 11
279.226774
 21
1229.375429
  0
LINE
  5
10F
100
AcDbEntity
  8
M0
  6
DIVIDE
100
AcDbLine
 10
415.226774
 20
921.375873
 11
415.226774
 21
989.375873
  0
LINE
  5
110
100
AcDbEntity
  8
M0
  6
DIVIDE
100
AcDbLine
 10
417.226774
 20
989.375873
 11
417.226774
 21
921.375873
  0
LINE
  5
111
100
AcDbEntity
  8
M0
  6
DIVIDE
100
AcDbLine
 10
415.226774
 20
921.375871
 11
417.226774
 21
921.375873
  0
LINE
  5
112
100
AcDbEntity
  8
M0
  6
DIVIDE
100
AcDbLine
 10
465.226774
 20
989.375873
 11
465.226774
 21
921.375873
  0
LINE
  5
113
100
AcDbEntity
  8
M0
  6
DIVIDE
100
AcDbLine
 10
467.226774
 20
921.375873
 11
467.226774
 21
989.375873
  0
LINE
  5
114
100
AcDbEntity
  8
M0
  6
DIVIDE
100
AcDbLine
 10
467.226774
 20
921.375871
 11
465.226774
 21
921.375873
  0
LINE
  5
115
100
AcDbEntity
  8
M0
  6
DIVIDE
100
AcDbLine
 10
227.226774
 20
921.375873
 11
227.226774
 21
989.375873
  0
LINE
  5
116
100
AcDbEntity
  8
M0
  6
DIVIDE
100
AcDbLine
 10
229.226774
 20
989.375873
 11
229.226774
 21
921.375873
  0
LINE
  5
117
100
AcDbEntity
  8
M0
  6
DIVIDE
100
AcDbLine
 10
227.226774
 20
921.375871
 11
229.226774
 21
921.375873
  0
LINE
  5
118
100
AcDbEntity
  8
M0
  6
DIVIDE
100
AcDbLine
 10
277.226774
 20
989.375873
 11
277.226774
 21
921.375873
  0
LINE
  5
119
100
AcDbEntity
  8
M0
  6
DIVIDE
100
AcDbLine
 10
279.226774
 20
921.375873
 11
279.226774
 21
989.375873
  0
LINE
  5
11A
100
AcDbEntity
  8
M0
  6
DIVIDE
100
AcDbLine
 10
279.226774
 20
921.375871
 11
277.226774
 21
921.375873
  0
LINE
  5
11B
100
AcDbEntity
  8
M0
100
AcDbLine
 10
870.226736
 20
989.375867
 11
870.226812
 21
1229.375867
  0
LINE
  5
11C
100
AcDbEntity
  8
M0
 62
     4
100
AcDbLine
 10
719.226801
 20
1210.375633
 11
733.926716
 21
1210.375633
  0
LINE
  5
11D
100
AcDbEntity
  8
M0
 62
     4
100
AcDbLine
 10
763.226801
 20
1198.375633
 11
755.226801
 21
1198.375633
  0
LINE
  5
11E
100
AcDbEntity
  8
M0
  6
DASHDOT
 62
     4
100
AcDbLine
 10
768.226801
 20
1204.375633
 11
714.842951
 21
1204.375633
  0
LINE
  5
11F
100
AcDbEntity
  8
M0
 62
     4
100
AcDbLine
 10
755.226801
 20
1193.41262
 11
755.226801
 21
1215.338631
  0
LINE
  5
120
100
AcDbEntity
  8
M0
 62
     4
100
AcDbLine
 10
755.226801
 20
1215.338631
 11
763.226801
 21
1215.338631
  0
LINE
  5
121
100
AcDbEntity
  8
M0
 62
     4
100
AcDbLine
 10
763.226801
 20
1215.338631
 11
763.226801
 21
1193.41262
  0
LINE
  5
122
100
AcDbEntity
  8
M0
 62
     4
100
AcDbLine
 10
763.226801
 20
1193.41262
 11
755.226801
 21
1193.41262
  0
LINE
  5
123
100
AcDbEntity
  8
M0
 62
     4
100
AcDbLine
 10
719.226801
 20
1210.375633
 11
719.226801
 21
1198.375633
  0
LINE
  5
124
100
AcDbEntity
  8
M0
 62
     4
100
AcDbLine
 10
733.926724
 20
1198.375633
 11
719.226801
 21
1198.375633
  0
LINE
  5
125
100
AcDbEntity
  8
M0
 62
     4
100
AcDbLine
 10
755.226801
 20
1210.375633
 11
763.226801
 21
1210.375633
  0
LINE
  5
126
100
AcDbEntity
  8
M0
 62
     6
100
AcDbLine
 10
733.926469
 20
1215.325673
 11
743.926469
 21
1215.325679
  0
LINE
  5
127
100
AcDbEntity
  8
M0
 62
     6
100
AcDbLine
 10
743.926713
 20
1215.325664
 11
743.926727
 21
1193.42567
  0
LINE
  5
128
100
AcDbEntity
  8
M0
 62
     6
100
AcDbLine
 10
733.926727
 20
1193.425709
 11
733.926713
 21
1215.325688
  0
LINE
  5
129
100
AcDbEntity
  8
M0
 62
     6
100
AcDbLine
 10
743.926472
 20
1209.850703
 11
733.926472
 21
1209.850697
  0
LINE
  5
12A
100
AcDbEntity
  8
M0
 62
     6
100
AcDbLine
 10
733.926238
 20
1193.425679
 11
743.926482
 21
1193.425685
  0
LINE
  5
12B
100
AcDbEntity
  8
M0
 62
     6
100
AcDbLine
 10
743.926479
 20
1198.900691
 11
733.926235
 21
1198.900685
  0
LINE
  5
12C
100
AcDbEntity
  8
M0
 62
     6
100
AcDbLine
 10
746.926757
 20
1217.375681
 11
749.22676
 21
1217.375682
  0
LINE
  5
12D
100
AcDbEntity
  8
M0
 62
     6
100
AcDbLine
 10
749.22676
 20
1217.375682
 11
749.226777
 21
1191.375682
  0
LINE
  5
12E
100
AcDbEntity
  8
M0
 62
     6
100
AcDbLine
 10
749.226777
 20
1191.375682
 11
746.926774
 21
1191.375681
  0
LINE
  5
12F
100
AcDbEntity
  8
M0
 62
     6
100
AcDbLine
 10
746.926774
 20
1191.375681
 11
746.926757
 21
1217.375681
  0
LINE
  5
130
100
AcDbEntity
  8
M0
 62
     6
100
AcDbLine
 10
733.926508
 20
1003.426473
 11
743.926508
 21
1003.426473
  0
LINE
  5
131
100
AcDbEntity
  8
M0
 62
     6
100
AcDbLine
 10
743.926752
 20
1003.426488
 11
743.926752
 21
1025.326482
  0
LINE
  5
132
100
AcDbEntity
  8
M0
 62
     6
100
AcDbLine
 10
733.926752
 20
1025.326437
 11
733.926752
 21
1003.426458
  0
LINE
  5
133
100
AcDbEntity
  8
M0
 62
     6
100
AcDbLine
 10
743.926508
 20
1008.901449
 11
733.926508
 21
1008.901449
  0
LINE
  5
134
100
AcDbEntity
  8
M0
 62
     6
100
AcDbLine
 10
733.926264
 20
1025.326467
 11
743.926508
 21
1025.326467
  0
LINE
  5
135
100
AcDbEntity
  8
M0
 62
     6
100
AcDbLine
 10
743.926508
 20
1019.851461
 11
733.926264
 21
1019.851461
  0
LINE
  5
136
100
AcDbEntity
  8
M0
100
AcDbLine
 10
749.226848
 20
999.376581
 11
755.226848
 21
999.376585
  0
LINE
  5
137
100
AcDbEntity
  8
M0
100
AcDbLine
 10
749.226848
 20
999.376581
 11
749.226823
 21
1038.375651
  0
LINE
  5
138
100
AcDbEntity
  8
M0
100
AcDbLine
 10
755.226823
 20
1038.375651
 11
755.226848
 21
999.376585
  0
LINE
  5
139
100
AcDbEntity
  8
M0
 62
     4
100
AcDbLine
 10
719.2269
 20
1008.376506
 11
733.926752
 21
1008.376507
  0
LINE
  5
13A
100
AcDbEntity
  8
M0
 62
     4
100
AcDbLine
 10
763.226892
 20
1020.376524
 11
755.226892
 21
1020.376519
  0
LINE
  5
13B
100
AcDbEntity
  8
M0
  6
DASHDOT
 62
     4
100
AcDbLine
 10
768.226896
 20
1014.376527
 11
714.843046
 21
1014.376504
  0
LINE
  5
13C
100
AcDbEntity
  8
M0
 62
     4
100
AcDbLine
 10
755.226889
 20
1025.339532
 11
755.226903
 21
1003.413522
  0
LINE
  5
13D
100
AcDbEntity
  8
M0
 62
     4
100
AcDbLine
 10
755.226903
 20
1003.413522
 11
763.226903
 21
1003.413527
  0
LINE
  5
13E
100
AcDbEntity
  8
M0
 62
     4
100
AcDbLine
 10
763.226903
 20
1003.413527
 11
763.226889
 21
1025.339537
  0
LINE
  5
13F
100
AcDbEntity
  8
M0
 62
     4
100
AcDbLine
 10
763.226889
 20
1025.339537
 11
755.226889
 21
1025.339532
  0
LINE
  5
140
100
AcDbEntity
  8
M0
 62
     4
100
AcDbLine
 10
719.2269
 20
1008.376506
 11
719.226892
 21
1020.376506
  0
LINE
  5
141
100
AcDbEntity
  8
M0
 62
     4
100
AcDbLine
 10
733.926752
 20
1020.376507
 11
719.226892
 21
1020.376506
  0
LINE
  5
142
100
AcDbEntity
  8
M0
 62
     4
100
AcDbLine
 10
755.2269
 20
1008.376519
 11
763.2269
 21
1008.376524
  0
LINE
  5
143
100
AcDbEntity
  8
M0
 62
   234
100
AcDbLine
 10
806.526691
 20
1218.375651
 11
816.526691
 21
1228.375651
  0
LINE
  5
144
100
AcDbEntity
  8
M0
 62
   234
100
AcDbLine
 10
786.526691
 20
1074.375651
 11
774.526691
 21
1074.375651
  0
LINE
  5
145
100
AcDbEntity
  8
M0
 62
   234
100
AcDbLine
 10
786.526691
 20
1082.375651
 11
774.526691
 21
1082.375651
  0
LINE
  5
146
100
AcDbEntity
  8
M0
 62
   234
100
AcDbLine
 10
774.526691
 20
1144.375651
 11
786.526691
 21
1144.375651
  0
LINE
  5
147
100
AcDbEntity
  8
M0
 62
   234
100
AcDbLine
 10
774.526691
 20
1136.375651
 11
786.526691
 21
1136.375651
  0
LINE
  5
148
100
AcDbEntity
  8
M0
 62
   234
100
AcDbLine
 10
774.526691
 20
1093.375651
 11
786.526691
 21
1093.375651
  0
LINE
  5
149
100
AcDbEntity
  8
M0
 62
   234
100
AcDbLine
 10
774.526691
 20
1085.375651
 11
786.526691
 21
1085.375651
  0
LINE
  5
14A
100
AcDbEntity
  8
M0
 62
   234
100
AcDbLine
 10
774.526691
 20
1147.375651
 11
786.526691
 21
1147.375651
  0
LINE
  5
14B
100
AcDbEntity
  8
M0
 62
   234
100
AcDbLine
 10
774.526691
 20
1155.375651
 11
774.526691
 21
1147.375651
  0
LINE
  5
14C
100
AcDbEntity
  8
M0
 62
   234
100
AcDbLine
 10
774.526691
 20
1144.375651
 11
774.526691
 21
1136.375651
  0
LINE
  5
14D
100
AcDbEntity
  8
M0
 62
   234
100
AcDbLine
 10
774.526691
 20
1093.375651
 11
774.526691
 21
1085.375651
  0
LINE
  5
14E
100
AcDbEntity
  8
M0
 62
   234
100
AcDbLine
 10
774.526691
 20
1082.375651
 11
774.526691
 21
1074.375651
  0
LINE
  5
14F
100
AcDbEntity
  8
M0
 62
   234
100
AcDbLine
 10
774.526691
 20
1155.375651
 11
786.526691
 21
1155.375651
  0
LINE
  5
150
100
AcDbEntity
  8
M0
 62
   234
100
AcDbLine
 10
776.526691
 20
1187.375651
 11
786.526691
 21
1187.375651
  0
LINE
  5
151
100
AcDbEntity
  8
M0
 62
   234
100
AcDbLine
 10
786.526691
 20
1185.375651
 11
776.526691
 21
1185.375651
  0
LINE
  5
152
100
AcDbEntity
  8
M0
 62
   234
100
AcDbLine
 10
786.526691
 20
1183.375651
 11
776.526691
 21
1183.375651
  0
LINE
  5
153
100
AcDbEntity
  8
M0
 62
   234
100
AcDbLine
 10
797.526691
 20
1218.375651
 11
806.526691
 21
1218.375651
  0
ARC
  5
154
100
AcDbEntity
  8
M0
 62
   234
100
AcDbCircle
 10
797.526691
 20
1207.375651
 40
11.0
100
AcDbArc
 50
90.0
 51
180.0
  0
ARC
  5
155
100
AcDbEntity
  8
M0
 62
   234
100
AcDbCircle
 10
781.526691
 20
1203.375651
 40
5.0
100
AcDbArc
 50
90.0
 51
180.0
  0
LINE
  5
156
100
AcDbEntity
  8
M0
 62
   234
100
AcDbLine
 10
781.526691
 20
1208.375651
 11
786.57224
 21
1208.375651
  0
LINE
  5
157
100
AcDbEntity
  8
M0
 62
   234
100
AcDbLine
 10
776.526691
 20
1203.375651
 11
776.526691
 21
1187.375651
  0
LINE
  5
158
100
AcDbEntity
  8
M0
 62
   234
100
AcDbLine
 10
776.526691
 20
1185.375651
 11
776.526691
 21
1183.375651
  0
LINE
  5
159
100
AcDbEntity
  8
M0
 62
   234
100
AcDbLine
 10
786.526691
 20
1207.375651
 11
786.526691
 21
1008.275651
  0
LINE
  5
15A
100
AcDbEntity
  8
M0
 62
   234
100
AcDbLine
 10
851.526691
 20
990.375651
 11
833.626691
 21
1008.275651
  0
LINE
  5
15B
100
AcDbEntity
  8
M0
 62
   234
100
AcDbLine
 10
781.526691
 20
1008.275651
 11
833.626691
 21
1008.275651
  0
ARC
  5
15C
100
AcDbEntity
  8
M0
 62
   234
100
AcDbCircle
 10
781.526691
 20
1013.275651
 40
5.0
100
AcDbArc
 50
180.0
 51
270.0
  0
LINE
  5
15D
100
AcDbEntity
  8
M0
 62
   234
100
AcDbLine
 10
778.526691
 20
1023.275651
 11
786.526691
 21
1023.275651
  0
LINE
  5
15E
100
AcDbEntity
  8
M0
 62
   234
100
AcDbLine
 10
776.526691
 20
1013.275651
 11
776.526691
 21
1021.275651
  0
ARC
  5
15F
100
AcDbEntity
  8
M0
 62
   234
100
AcDbCircle
 10
778.526691
 20
1021.275651
 40
2.0
100
AcDbArc
 50
90.0
 51
180.0
  0
LINE
  5
160
100
AcDbEntity
  8
M0
 62
   234
100
AcDbLine
 10
863.026691
 20
1228.375651
 11
863.026691
 21
990.375651
  0
LINE
  5
161
100
AcDbEntity
  8
M0
 62
   234
100
AcDbLine
 10
867.026691
 20
1228.375651
 11
816.526691
 21
1228.375651
  0
LINE
  5
162
100
AcDbEntity
  8
M0
 62
   234
100
AcDbLine
 10
851.526691
 20
990.375651
 11
867.026691
 21
990.375651
  0
LINE
  5
163
100
AcDbEntity
  8
M0
  6
DASHED
 62
   234
100
AcDbLine
 10
786.726691
 20
1189.375651
 11
786.726691
 21
1197.875651
  0
LINE
  5
164
100
AcDbEntity
  8
M0
 62
   234
100
AcDbLine
 10
856.326691
 20
1228.375651
 11
856.326691
 21
990.375651
  0
LINE
  5
165
100
AcDbEntity
  8
M0
  6
DASHDOT
 62
     1
100
AcDbLine
 10
640.026823
 20
1109.375651
 11
919.226774
 21
1109.375651
  0
LINE
  5
166
100
AcDbEntity
  8
M0
 62
   154
100
AcDbLine
 10
735.526691
 20
1126.875651
 11
747.526691
 21
1126.875651
  0
LINE
  5
167
100
AcDbEntity
  8
M0
 62
   154
100
AcDbLine
 10
735.526691
 20
1113.875651
 11
747.526691
 21
1113.875651
  0
LINE
  5
168
100
AcDbEntity
  8
M0
 62
   154
100
AcDbLine
 10
774.526691
 20
1107.875651
 11
786.326691
 21
1107.875651
  0
LINE
  5
169
100
AcDbEntity
  8
M0
 62
   154
100
AcDbLine
 10
774.526691
 20
1132.875651
 11
786.326691
 21
1132.875651
  0
LINE
  5
16A
100
AcDbEntity
  8
M0
 62
   154
100
AcDbLine
 10
774.526691
 20
1077.375651
 11
774.526691
 21
1107.875651
  0
LINE
  5
16B
100
AcDbEntity
  8
M0
 62
   154
100
AcDbLine
 10
774.526691
 20
1132.875651
 11
774.526691
 21
1163.375651
  0
ARC
  5
16C
100
AcDbEntity
  8
M0
 62
   154
100
AcDbCircle
 10
756.526691
 20
1156.375651
 40
3.0
100
AcDbArc
 50
270.0
 51
360.0
  0
ARC
  5
16D
100
AcDbEntity
  8
M0
 62
   154
100
AcDbCircle
 10
756.526691
 20
1084.375651
 40
3.0
100
AcDbArc
 50
0.0
 51
90.0
  0
LINE
  5
16E
100
AcDbEntity
  8
M0
 62
   154
100
AcDbLine
 10
752.526691
 20
1153.375651
 11
756.526691
 21
1153.375651
  0
LINE
  5
16F
100
AcDbEntity
  8
M0
 62
   154
100
AcDbLine
 10
747.526691
 20
1148.375651
 11
747.526691
 21
1126.875651
  0
ARC
  5
170
100
AcDbEntity
  8
M0
 62
   154
100
AcDbCircle
 10
752.526691
 20
1148.375651
 40
5.0
100
AcDbArc
 50
90.0
 51
180.0
  0
LINE
  5
171
100
AcDbEntity
  8
M0
 62
   154
100
AcDbLine
 10
747.526691
 20
1113.875651
 11
747.526691
 21
1092.375651
  0
LINE
  5
172
100
AcDbEntity
  8
M0
 62
   154
100
AcDbLine
 10
752.526691
 20
1087.375651
 11
756.526691
 21
1087.375651
  0
ARC
  5
173
100
AcDbEntity
  8
M0
 62
   154
100
AcDbCircle
 10
752.526691
 20
1092.375651
 40
5.0
100
AcDbArc
 50
180.0
 51
270.0
  0
LINE
  5
174
100
AcDbEntity
  8
M0
 62
   154
100
AcDbLine
 10
759.526691
 20
1084.375651
 11
759.526691
 21
1082.375651
  0
LINE
  5
175
100
AcDbEntity
  8
M0
 62
   154
100
AcDbLine
 10
764.526691
 20
1077.375651
 11
774.526691
 21
1077.375651
  0
ARC
  5
176
100
AcDbEntity
  8
M0
 62
   154
100
AcDbCircle
 10
764.526691
 20
1082.375651
 40
5.0
100
AcDbArc
 50
180.0
 51
270.0
  0
LINE
  5
177
100
AcDbEntity
  8
M0
 62
   154
100
AcDbLine
 10
774.526691
 20
1163.375651
 11
764.526691
 21
1163.375651
  0
LINE
  5
178
100
AcDbEntity
  8
M0
 62
   154
100
AcDbLine
 10
759.526691
 20
1158.375651
 11
759.526691
 21
1156.375651
  0
ARC
  5
179
100
AcDbEntity
  8
M0
 62
   154
100
AcDbCircle
 10
764.526691
 20
1158.375651
 40
5.0
100
AcDbArc
 50
90.0
 51
180.0
  0
LINE
  5
17A
100
AcDbEntity
  8
M0
 62
   154
100
AcDbLine
 10
735.526691
 20
1126.875651
 11
735.526691
 21
1113.875651
  0
LINE
  5
17B
100
AcDbEntity
  8
M0
 62
   154
100
AcDbLine
 10
786.326691
 20
1132.875651
 11
786.326691
 21
1107.875651
  0
LINE
  5
17C
100
AcDbEntity
  8
M0
100
AcDbLine
 10
760.326691
 20
1171.375651
 11
760.326691
 21
1161.088583
  0
LINE
  5
17D
100
AcDbEntity
  8
M0
100
AcDbLine
 10
780.326691
 20
1038.375651
 11
749.226691
 21
1038.375651
  0
LINE
  5
17E
100
AcDbEntity
  8
M0
100
AcDbLine
 10
780.326691
 20
1180.375651
 11
749.226691
 21
1180.375651
  0
LINE
  5
17F
100
AcDbEntity
  8
M0
100
AcDbLine
 10
780.326691
 20
1171.375651
 11
760.326691
 21
1171.375651
  0
LINE
  5
180
100
AcDbEntity
  8
M0
100
AcDbLine
 10
780.326691
 20
1047.375651
 11
760.326691
 21
1047.375651
  0
LINE
  5
181
100
AcDbEntity
  8
M0
100
AcDbLine
 10
780.326691
 20
1174.375651
 11
749.226691
 21
1174.375651
  0
LINE
  5
182
100
AcDbEntity
  8
M0
100
AcDbLine
 10
780.326691
 20
1044.375651
 11
749.226691
 21
1044.375651
  0
LINE
  5
183
100
AcDbEntity
  8
M0
100
AcDbLine
 10
780.326691
 20
1027.375651
 11
786.526691
 21
1027.375651
  0
LINE
  5
184
100
AcDbEntity
  8
M0
100
AcDbLine
 10
749.226691
 20
1180.375651
 11
749.226691
 21
1152.131979
  0
LINE
  5
185
100
AcDbEntity
  8
M0
100
AcDbLine
 10
780.326691
 20
1027.375651
 11
780.326691
 21
1047.375651
  0
LINE
  5
186
100
AcDbEntity
  8
M0
100
AcDbLine
 10
780.326691
 20
1171.375651
 11
780.326691
 21
1183.375651
  0
LINE
  5
187
100
AcDbEntity
  8
M0
100
AcDbLine
 10
760.326691
 20
1079.662719
 11
760.326691
 21
1047.375651
  0
LINE
  5
188
100
AcDbEntity
  8
M0
100
AcDbLine
 10
749.226691
 20
1088.619323
 11
749.226691
 21
1038.375651
  0
LINE
  5
189
100
AcDbEntity
  8
M0
100
AcDbLine
 10
755.22671
 20
1184.375651
 11
776.526691
 21
1184.375651
  0
LINE
  5
18A
100
AcDbEntity
  8
M0
100
AcDbLine
 10
755.226828
 20
1034.375651
 11
780.326691
 21
1034.375651
  0
LINE
  5
18B
100
AcDbEntity
  8
M0
100
AcDbLine
 10
870.226812
 20
1229.375651
 11
867.026691
 21
1229.375651
  0
LINE
  5
18C
100
AcDbEntity
  8
M0
100
AcDbLine
 10
867.026691
 20
989.375651
 11
870.226736
 21
989.375651
  0
LINE
  5
18D
100
AcDbEntity
  8
M0
100
AcDbLine
 10
867.026691
 20
1229.375651
 11
867.026691
 21
1228.375651
  0
LINE
  5
18E
100
AcDbEntity
  8
M0
100
AcDbLine
 10
867.026691
 20
990.375651
 11
867.026691
 21
989.375651
  0
LINE
  5
18F
100
AcDbEntity
  8
M0
 62
   114
100
AcDbLine
 10
730.326691
 20
1135.375651
 11
730.326691
 21
1137.875651
  0
LINE
  5
190
100
AcDbEntity
  8
M0
 62
   114
100
AcDbLine
 10
734.326691
 20
1137.875651
 11
734.326691
 21
1135.375651
  0
LINE
  5
191
100
AcDbEntity
  8
M0
 62
   114
100
AcDbLine
 10
730.326691
 20
1135.375651
 11
734.326691
 21
1135.375651
  0
LINE
  5
192
100
AcDbEntity
  8
M0
 62
   114
100
AcDbLine
 10
708.826691
 20
1137.875651
 11
730.326691
 21
1137.875651
  0
ARC
  5
193
100
AcDbEntity
  8
M0
 62
   114
100
AcDbCircle
 10
708.826691
 20
1135.875651
 40
2.0
100
AcDbArc
 50
90.0
 51
180.0
  0
ARC
  5
194
100
AcDbEntity
  8
M0
 62
   114
100
AcDbCircle
 10
711.826691
 20
1135.875651
 40
5.0
100
AcDbArc
 50
90.0
 51
180.0
  0
LINE
  5
195
100
AcDbEntity
  8
M0
 62
   114
100
AcDbLine
 10
711.826691
 20
1140.875651
 11
735.37017
 21
1140.875651
  0
LINE
  5
196
100
AcDbEntity
  8
M0
 62
   114
100
AcDbLine
 10
734.326691
 20
1137.875651
 11
737.859575
 21
1148.032692
  0
ARC
  5
197
100
AcDbEntity
  8
M0
 62
   114
100
AcDbCircle
 10
739.748569
 20
1147.375651
 40
2.0
100
AcDbArc
 50
90.0
 51
160.820992
  0
LINE
  5
198
100
AcDbEntity
  8
M0
 62
   114
100
AcDbLine
 10
747.627712
 20
1149.375651
 11
739.748569
 21
1149.375651
  0
LINE
  5
199
100
AcDbEntity
  8
M0
 62
   114
100
AcDbLine
 10
717.326691
 20
1120.375651
 11
717.326691
 21
1124.125651
  0
LINE
  5
19A
100
AcDbEntity
  8
M0
 62
   114
100
AcDbLine
 10
706.826691
 20
1124.125651
 11
717.326691
 21
1124.125651
  0
LINE
  5
19B
100
AcDbEntity
  8
M0
 62
   114
100
AcDbLine
 10
706.826691
 20
1135.875651
 11
706.826691
 21
1124.125651
  0
LINE
  5
19C
100
AcDbEntity
  8
M0
 62
   114
100
AcDbLine
 10
754.326691
 20
1153.375651
 11
754.326691
 21
1155.375651
  0
LINE
  5
19D
100
AcDbEntity
  8
M0
 62
   114
100
AcDbLine
 10
759.355118
 20
1155.375651
 11
754.326691
 21
1155.375651
  0
LINE
  5
19E
100
AcDbEntity
  8
M0
 62
   114
100
AcDbLine
 10
730.326691
 20
1105.375651
 11
730.326691
 21
1102.875651
  0
LINE
  5
19F
100
AcDbEntity
  8
M0
 62
   114
100
AcDbLine
 10
734.326691
 20
1102.875651
 11
734.326691
 21
1105.375651
  0
LINE
  5
1A0
100
AcDbEntity
  8
M0
 62
   114
100
AcDbLine
 10
730.326691
 20
1105.375651
 11
734.326691
 21
1105.375651
  0
LINE
  5
1A1
100
AcDbEntity
  8
M0
 62
   114
100
AcDbLine
 10
708.826691
 20
1102.875651
 11
730.326691
 21
1102.875651
  0
ARC
  5
1A2
100
AcDbEntity
  8
M0
 62
   114
100
AcDbCircle
 10
708.826691
 20
1104.875651
 40
2.0
100
AcDbArc
 50
180.0
 51
270.0
  0
ARC
  5
1A3
100
AcDbEntity
  8
M0
 62
   114
100
AcDbCircle
 10
711.826691
 20
1104.875651
 40
5.0
100
AcDbArc
 50
180.0
 51
270.0
  0
LINE
  5
1A4
100
AcDbEntity
  8
M0
 62
   114
100
AcDbLine
 10
711.826691
 20
1099.875651
 11
735.37017
 21
1099.875651
  0
LINE
  5
1A5
100
AcDbEntity
  8
M0
 62
   114
100
AcDbLine
 10
734.326691
 20
1102.875651
 11
737.859575
 21
1092.71861
  0
ARC
  5
1A6
100
AcDbEntity
  8
M0
 62
   114
100
AcDbCircle
 10
739.748569
 20
1093.375651
 40
2.0
100
AcDbArc
 50
199.179008
 51
270.0
  0
LINE
  5
1A7
100
AcDbEntity
  8
M0
 62
   114
100
AcDbLine
 10
747.627712
 20
1091.375651
 11
739.748569
 21
1091.375651
  0
LINE
  5
1A8
100
AcDbEntity
  8
M0
 62
   114
100
AcDbLine
 10
717.326691
 20
1120.375651
 11
717.326691
 21
1116.625651
  0
LINE
  5
1A9
100
AcDbEntity
  8
M0
 62
   114
100
AcDbLine
 10
706.826691
 20
1116.625651
 11
717.326691
 21
1116.625651
  0
LINE
  5
1AA
100
AcDbEntity
  8
M0
 62
   114
100
AcDbLine
 10
706.826691
 20
1104.875651
 11
706.826691
 21
1116.625651
  0
LINE
  5
1AB
100
AcDbEntity
  8
M0
  6
DASHED
 62
   114
100
AcDbLine
 10
718.226691
 20
1104.875651
 11
718.226691
 21
1114.375651
  0
LINE
  5
1AC
100
AcDbEntity
  8
M0
  6
DASHED
 62
   114
100
AcDbLine
 10
747.226691
 20
1095.875651
 11
747.226691
 21
1105.375651
  0
LINE
  5
1AD
100
AcDbEntity
  8
M0
 62
   114
100
AcDbLine
 10
754.326691
 20
1087.375651
 11
754.326691
 21
1085.375651
  0
LINE
  5
1AE
100
AcDbEntity
  8
M0
 62
   114
100
AcDbLine
 10
759.355118
 20
1085.375651
 11
754.326691
 21
1085.375651
  0
LINE
  5
1AF
100
AcDbEntity
  8
M0
 62
   114
100
AcDbLine
 10
715.326691
 20
1123.125651
 11
715.326691
 21
1124.125651
  0
LINE
  5
1B0
100
AcDbEntity
  8
M0
 62
   114
100
AcDbLine
 10
715.326691
 20
1123.125651
 11
717.326691
 21
1123.125651
  0
LINE
  5
1B1
100
AcDbEntity
  8
M0
 62
   114
100
AcDbLine
 10
715.326691
 20
1116.625651
 11
715.326691
 21
1117.625651
  0
LINE
  5
1B2
100
AcDbEntity
  8
M0
 62
   114
100
AcDbLine
 10
715.326691
 20
1117.625651
 11
717.326691
 21
1117.625651
  0
LINE
  5
1B3
100
AcDbEntity
  8
M0
 62
     7
100
AcDbLine
 10
743.926757
 20
1025.126669
 11
746.926757
 21
1025.126669
  0
LINE
  5
1B4
100
AcDbEntity
  8
M0
 62
     7
100
AcDbLine
 10
746.926757
 20
1025.126669
 11
746.926757
 21
1003.626669
  0
LINE
  5
1B5
100
AcDbEntity
  8
M0
 62
     7
100
AcDbLine
 10
746.926757
 20
1003.626669
 11
743.926757
 21
1003.626669
  0
LINE
  5
1B6
100
AcDbEntity
  8
M0
 62
     7
100
AcDbLine
 10
743.926757
 20
1003.626669
 11
743.926757
 21
1025.126669
  0
LINE
  5
1B7
100
AcDbEntity
  8
M0
 62
     7
100
AcDbLine
 10
743.926757
 20
1014.376653
 11
746.926757
 21
1016.108694
  0
LINE
  5
1B8
100
AcDbEntity
  8
M0
 62
     7
100
AcDbLine
 10
743.926757
 20
1012.644628
 11
746.926757
 21
1014.376669
  0
LINE
  5
1B9
100
AcDbEntity
  8
M0
 62
     7
100
AcDbLine
 10
743.926663
 20
1215.125796
 11
746.926663
 21
1215.125796
  0
LINE
  5
1BA
100
AcDbEntity
  8
M0
 62
     7
100
AcDbLine
 10
746.926663
 20
1215.125796
 11
746.926663
 21
1193.625796
  0
LINE
  5
1BB
100
AcDbEntity
  8
M0
 62
     7
100
AcDbLine
 10
746.926663
 20
1193.625796
 11
743.926663
 21
1193.625796
  0
LINE
  5
1BC
100
AcDbEntity
  8
M0
 62
     7
100
AcDbLine
 10
743.926663
 20
1193.625796
 11
743.926663
 21
1215.125796
  0
LINE
  5
1BD
100
AcDbEntity
  8
M0
 62
     7
100
AcDbLine
 10
743.926663
 20
1204.375781
 11
746.926663
 21
1206.107821
  0
LINE
  5
1BE
100
AcDbEntity
  8
M0
 62
     7
100
AcDbLine
 10
743.926663
 20
1202.643756
 11
746.926663
 21
1204.375796
  0
LINE
  5
1BF
100
AcDbEntity
  8
M0
 62
     6
100
AcDbLine
 10
746.926852
 20
1027.376553
 11
749.226855
 21
1027.376554
  0
LINE
  5
1C0
100
AcDbEntity
  8
M0
 62
     6
100
AcDbLine
 10
749.226855
 20
1027.376554
 11
749.226872
 21
1001.376554
  0
LINE
  5
1C1
100
AcDbEntity
  8
M0
 62
     6
100
AcDbLine
 10
749.226872
 20
1001.376554
 11
746.926869
 21
1001.376553
  0
LINE
  5
1C2
100
AcDbEntity
  8
M0
 62
     6
100
AcDbLine
 10
746.926869
 20
1001.376553
 11
746.926852
 21
1027.376553
  0
LINE
  5
1C3
100
AcDbEntity
  8
M0
 62
     1
100
AcDbLine
 10
749.226823
 20
1180.375651
 11
647.026823
 21
1180.375651
  0
ARC
  5
1C4
100
AcDbEntity
  8
M0
 62
     1
100
AcDbCircle
 10
647.026823
 20
1178.375651
 40
2.0
100
AcDbArc
 50
90.0
 51
180.0
  0
ARC
  5
1C5
100
AcDbEntity
  8
M0
 62
     1
100
AcDbCircle
 10
647.026823
 20
1182.375651
 40
2.0
100
AcDbArc
 50
90.0
 51
180.0
  0
LINE
  5
1C6
100
AcDbEntity
  8
M0
 62
     1
100
AcDbLine
 10
741.226823
 20
1187.375651
 11
741.226823
 21
1184.375651
  0
LINE
  5
1C7
100
AcDbEntity
  8
M0
 62
     1
100
AcDbLine
 10
705.226823
 20
1184.375651
 11
705.226823
 21
1186.375651
  0
ARC
  5
1C8
100
AcDbEntity
  8
M0
 62
     1
100
AcDbCircle
 10
706.226823
 20
1186.375651
 40
1.0
100
AcDbArc
 50
90.0
 51
180.0
  0
LINE
  5
1C9
100
AcDbEntity
  8
M0
 62
     1
100
AcDbLine
 10
706.226823
 20
1187.375651
 11
741.226823
 21
1187.375651
  0
LINE
  5
1CA
100
AcDbEntity
  8
M0
 62
     1
100
AcDbLine
 10
647.026823
 20
1184.375651
 11
705.226823
 21
1184.375651
  0
LINE
  5
1CB
100
AcDbEntity
  8
M0
 62
     1
100
AcDbLine
 10
741.226823
 20
1184.375651
 11
749.226823
 21
1184.375651
  0
LINE
  5
1CC
100
AcDbEntity
  8
M0
 62
     1
100
AcDbLine
 10
749.226823
 20
1038.375651
 11
647.026823
 21
1038.375651
  0
ARC
  5
1CD
100
AcDbEntity
  8
M0
 62
     1
100
AcDbCircle
 10
647.026823
 20
1040.375651
 40
2.0
100
AcDbArc
 50
180.0
 51
270.0
  0
ARC
  5
1CE
100
AcDbEntity
  8
M0
 62
     1
100
AcDbCircle
 10
647.026823
 20
1036.375651
 40
2.0
100
AcDbArc
 50
180.0
 51
270.0
  0
LINE
  5
1CF
100
AcDbEntity
  8
M0
 62
     1
100
AcDbLine
 10
741.226823
 20
1031.375651
 11
741.226823
 21
1034.375651
  0
LINE
  5
1D0
100
AcDbEntity
  8
M0
 62
     1
100
AcDbLine
 10
705.226823
 20
1034.375651
 11
705.226823
 21
1032.375651
  0
ARC
  5
1D1
100
AcDbEntity
  8
M0
 62
     1
100
AcDbCircle
 10
706.226823
 20
1032.375651
 40
1.0
100
AcDbArc
 50
180.0
 51
270.0
  0
LINE
  5
1D2
100
AcDbEntity
  8
M0
 62
     1
100
AcDbLine
 10
706.226823
 20
1031.375651
 11
741.226823
 21
1031.375651
  0
LINE
  5
1D3
100
AcDbEntity
  8
M0
 62
     1
100
AcDbLine
 10
647.026823
 20
1034.375651
 11
705.226823
 21
1034.375651
  0
LINE
  5
1D4
100
AcDbEntity
  8
M0
 62
     1
100
AcDbLine
 10
741.226823
 20
1034.375651
 11
749.226823
 21
1034.375651
  0
LINE
  5
1D5
100
AcDbEntity
  8
M0
 62
     1
100
AcDbLine
 10
645.026823
 20
1182.375651
 11
645.026823
 21
1036.375651
  0
LINE
  5
1D6
100
AcDbEntity
  8
M0
 62
     1
100
AcDbLine
 10
749.226823
 20
1034.375651
 11
749.226823
 21
1088.619207
  0
LINE
  5
1D7
100
AcDbEntity
  8
M0
 62
     1
100
AcDbLine
 10
749.226823
 20
1152.132095
 11
749.226823
 21
1184.375651
  0
ARC
  5
1D8
100
AcDbEntity
  8
M0
 62
     4
100
AcDbCircle
 10
506.227048
 20
1224.375651
 40
5.0
100
AcDbArc
 50
53.130102
 51
90.0
  0
ARC
  5
1D9
100
AcDbEntity
  8
M0
 62
     4
100
AcDbCircle
 10
506.226831
 20
994.375834
 40
5.0
100
AcDbArc
 50
270.0
 51
306.8664
  0
LINE
  5
1DA
100
AcDbEntity
  8
M0
 62
     4
100
AcDbLine
 10
522.676859
 20
1027.375818
 11
522.676902
 21
1083.769987
  0
ARC
  5
1DB
100
AcDbEntity
  8
M0
 62
     4
100
AcDbCircle
 10
517.477022
 20
1197.175689
 40
5.2
100
AcDbArc
 50
359.997256
 51
384.018534
  0
LINE
  5
1DC
100
AcDbEntity
  8
M0
 62
     4
100
AcDbLine
 10
522.677014
 20
1191.375635
 11
514.227017
 21
1191.375643
  0
LINE
  5
1DD
100
AcDbEntity
  8
M0
 62
     4
100
AcDbLine
 10
519.477018
 20
1192.37554
 11
519.477017
 21
1191.375638
  0
LINE
  5
1DE
100
AcDbEntity
  8
M0
 62
     4
100
AcDbLine
 10
506.227053
 20
1229.375651
 11
376.227056
 21
1229.375773
  0
LINE
  5
1DF
100
AcDbEntity
  8
M0
 62
     4
100
AcDbLine
 10
376.22683
 20
989.375956
 11
506.226827
 21
989.375834
  0
LINE
  5
1E0
100
AcDbEntity
  8
M0
 62
     4
100
AcDbLine
 10
480.227053
 20
1229.375675
 11
480.227043
 21
1219.375675
  0
LINE
  5
1E1
100
AcDbEntity
  8
M0
 62
     4
100
AcDbLine
 10
462.227053
 20
1229.375692
 11
462.227043
 21
1219.375692
  0
ARC
  5
1E2
100
AcDbEntity
  8
M0
 62
     4
100
AcDbCircle
 10
471.227043
 20
1219.375684
 40
9.0
100
AcDbArc
 50
179.999946
 51
242.734414
  0
LINE
  5
1E3
100
AcDbEntity
  8
M0
 62
     4
100
AcDbLine
 10
484.226774
 20
1008.375855
 11
471.226844
 21
1008.375867
  0
LINE
  5
1E4
100
AcDbEntity
  8
M0
 62
     4
100
AcDbLine
 10
462.226836
 20
999.375875
 11
462.226827
 21
989.375875
  0
ARC
  5
1E5
100
AcDbEntity
  8
M0
 62
     4
100
AcDbCircle
 10
471.226836
 20
999.375867
 40
9.0
100
AcDbArc
 50
90.0
 51
179.999946
  0
ARC
  5
1E6
100
AcDbEntity
  8
M0
 62
     4
100
AcDbCircle
 10
376.227052
 20
1224.375773
 40
5.0
100
AcDbArc
 50
90.0
 51
179.999946
  0
ARC
  5
1E7
100
AcDbEntity
  8
M0
 62
     4
100
AcDbCircle
 10
376.226835
 20
994.375956
 40
5.0
100
AcDbArc
 50
179.999946
 51
270.0
  0
LINE
  5
1E8
100
AcDbEntity
  8
M0
 62
     4
100
AcDbLine
 10
359.676866
 20
1027.375957
 11
359.677026
 21
1197.175594
  0
ARC
  5
1E9
100
AcDbEntity
  8
M0
 62
     4
100
AcDbCircle
 10
364.877026
 20
1197.175589
 40
5.2
100
AcDbArc
 50
153.415994
 51
179.999946
  0
LINE
  5
1EA
100
AcDbEntity
  8
M0
 62
     4
100
AcDbLine
 10
359.777021
 20
1191.375789
 11
368.227021
 21
1191.375781
  0
LINE
  5
1EB
100
AcDbEntity
  8
M0
 62
     4
100
AcDbLine
 10
362.877021
 20
1192.37554
 11
362.87702
 21
1191.375542
  0
LINE
  5
1EC
100
AcDbEntity
  8
M0
 62
     4
100
AcDbLine
 10
371.227052
 20
1224.375778
 11
371.227047
 21
1219.375669
  0
LINE
  5
1ED
100
AcDbEntity
  8
M0
 62
     4
100
AcDbLine
 10
371.22684
 20
999.375408
 11
371.226835
 21
994.375961
  0
LINE
  5
1EE
100
AcDbEntity
  8
M0
 62
     4
100
AcDbLine
 10
402.227053
 20
1229.375749
 11
402.227043
 21
1219.375749
  0
LINE
  5
1EF
100
AcDbEntity
  8
M0
 62
     4
100
AcDbLine
 10
420.227053
 20
1229.375732
 11
420.227043
 21
1219.375732
  0
ARC
  5
1F0
100
AcDbEntity
  8
M0
 62
     4
100
AcDbCircle
 10
411.227043
 20
1219.37574
 40
9.0
100
AcDbArc
 50
179.999946
 51
359.998392
  0
LINE
  5
1F1
100
AcDbEntity
  8
M0
 62
     4
100
AcDbLine
 10
398.226774
 20
1008.375936
 11
411.226844
 21
1008.375923
  0
LINE
  5
1F2
100
AcDbEntity
  8
M0
 62
     4
100
AcDbLine
 10
420.226836
 20
999.375915
 11
420.226827
 21
989.375915
  0
ARC
  5
1F3
100
AcDbEntity
  8
M0
 62
     4
100
AcDbCircle
 10
411.226836
 20
999.375923
 40
9.0
100
AcDbArc
 50
-0.000151
 51
90.0
  0
ARC
  5
1F4
100
AcDbEntity
  8
M0
 62
     4
100
AcDbCircle
 10
381.226836
 20
999.375952
 40
4.5
100
AcDbArc
 50
180.006927
 51
359.993073
  0
LINE
  5
1F5
100
AcDbEntity
  8
M0
 62
     4
100
AcDbLine
 10
522.67697
 20
1155.575648
 11
522.677019
 21
1197.175684
  0
ARC
  5
1F6
100
AcDbEntity
  8
M0
 62
     4
100
AcDbCircle
 10
494.726774
 20
1225.375651
 40
3.0
100
AcDbArc
 50
90.0
 51
180.0
  0
LINE
  5
1F7
100
AcDbEntity
  8
M0
 62
     4
100
AcDbLine
 10
491.726774
 20
1225.375651
 11
491.726774
 21
1219.375672
  0
LINE
  5
1F8
100
AcDbEntity
  8
M0
  6
DASHDOT
 62
     4
100
AcDbLine
 10
499.226767
 20
1184.709014
 11
499.226767
 21
1224.042346
  0
LINE
  5
1F9
100
AcDbEntity
  8
M0
 62
     4
100
AcDbLine
 10
523.226774
 20
1228.375651
 11
494.726774
 21
1228.375651
  0
LINE
  5
1FA
100
AcDbEntity
  8
M0
 62
     4
100
AcDbLine
 10
523.226774
 20
990.375651
 11
494.726774
 21
990.375651
  0
ARC
  5
1FB
100
AcDbEntity
  8
M0
 62
     4
100
AcDbCircle
 10
494.726774
 20
993.375651
 40
3.0
100
AcDbArc
 50
180.0
 51
270.0
  0
LINE
  5
1FC
100
AcDbEntity
  8
M0
 62
     4
100
AcDbLine
 10
491.726774
 20
999.375408
 11
491.726774
 21
993.375651
  0
LINE
  5
1FD
100
AcDbEntity
  8
M0
 62
     4
100
AcDbLine
 10
522.676786
 20
1024.375651
 11
514.226774
 21
1024.375651
  0
ARC
  5
1FE
100
AcDbEntity
  8
M0
 62
     4
100
AcDbCircle
 10
471.227043
 20
1219.375684
 40
9.0
100
AcDbArc
 50
249.850289
 51
359.998392
  0
CIRCLE
  5
1FF
100
AcDbEntity
  8
M0
 62
     4
100
AcDbCircle
 10
479.226774
 20
1024.375651
 40
3.0
  0
CIRCLE
  5
200
100
AcDbEntity
  8
M0
 62
     4
100
AcDbCircle
 10
403.226774
 20
1024.375651
 40
3.0
  0
LINE
  5
201
100
AcDbEntity
  8
M0
 62
     2
100
AcDbLine
 10
410.726774
 20
1034.375662
 11
412.726774
 21
1034.375662
  0
LINE
  5
202
100
AcDbEntity
  8
M0
 62
     2
100
AcDbLine
 10
422.726774
 20
1035.375662
 11
422.726774
 21
1037.375662
  0
LINE
  5
203
100
AcDbEntity
  8
M0
 62
     2
100
AcDbLine
 10
409.726777
 20
1035.375662
 11
409.726777
 21
1038.375662
  0
LINE
  5
204
100
AcDbEntity
  8
M0
 62
     2
100
AcDbLine
 10
472.726774
 20
1035.375662
 11
472.726774
 21
1038.375662
  0
LINE
  5
205
100
AcDbEntity
  8
M0
 62
     2
100
AcDbLine
 10
460.726774
 20
1034.375662
 11
462.726774
 21
1034.375662
  0
LINE
  5
206
100
AcDbEntity
  8
M0
 62
     2
100
AcDbLine
 10
419.726774
 20
1034.375662
 11
421.726774
 21
1034.375662
  0
LINE
  5
207
100
AcDbEntity
  8
M0
 62
     2
100
AcDbLine
 10
469.726774
 20
1034.375662
 11
471.726774
 21
1034.375662
  0
ARC
  5
208
100
AcDbEntity
  8
M0
 62
     2
100
AcDbCircle
 10
410.726774
 20
1035.375662
 40
1.0
100
AcDbArc
 50
179.999126
 51
269.999126
  0
ARC
  5
209
100
AcDbEntity
  8
M0
 62
     2
100
AcDbCircle
 10
412.726774
 20
1035.375662
 40
1.0
100
AcDbArc
 50
269.999126
 51
360.0
  0
ARC
  5
20A
100
AcDbEntity
  8
M0
 62
     2
100
AcDbCircle
 10
419.726774
 20
1035.375662
 40
1.0
100
AcDbArc
 50
179.999126
 51
269.999126
  0
ARC
  5
20B
100
AcDbEntity
  8
M0
 62
     2
100
AcDbCircle
 10
421.726774
 20
1035.375662
 40
1.0
100
AcDbArc
 50
269.999126
 51
360.0
  0
ARC
  5
20C
100
AcDbEntity
  8
M0
 62
     2
100
AcDbCircle
 10
460.726774
 20
1035.375662
 40
1.0
100
AcDbArc
 50
179.999126
 51
269.999126
  0
ARC
  5
20D
100
AcDbEntity
  8
M0
 62
     2
100
AcDbCircle
 10
462.726774
 20
1035.375662
 40
1.0
100
AcDbArc
 50
269.999126
 51
360.0
  0
ARC
  5
20E
100
AcDbEntity
  8
M0
 62
     2
100
AcDbCircle
 10
469.726774
 20
1035.375662
 40
1.0
100
AcDbArc
 50
179.999126
 51
269.999126
  0
ARC
  5
20F
100
AcDbEntity
  8
M0
 62
     2
100
AcDbCircle
 10
471.726774
 20
1035.375662
 40
1.0
100
AcDbArc
 50
269.999126
 51
360.0
  0
LINE
  5
210
100
AcDbEntity
  8
M0
 62
     2
100
AcDbLine
 10
409.726777
 20
1183.375647
 11
409.726777
 21
1180.375647
  0
ARC
  5
211
100
AcDbEntity
  8
M0
 62
     2
100
AcDbCircle
 10
410.726774
 20
1183.375647
 40
1.0
100
AcDbArc
 50
90.0
 51
180.0
  0
LINE
  5
212
100
AcDbEntity
  8
M0
 62
     2
100
AcDbLine
 10
410.726774
 20
1184.375647
 11
412.726774
 21
1184.375647
  0
LINE
  5
213
100
AcDbEntity
  8
M0
 62
     2
100
AcDbLine
 10
413.726774
 20
1180.375647
 11
413.726774
 21
1183.375647
  0
ARC
  5
214
100
AcDbEntity
  8
M0
 62
     2
100
AcDbCircle
 10
412.726774
 20
1183.375647
 40
1.0
100
AcDbArc
 50
0.0
 51
90.0
  0
LINE
  5
215
100
AcDbEntity
  8
M0
 62
     2
100
AcDbLine
 10
418.726774
 20
1180.375647
 11
418.726774
 21
1183.375647
  0
ARC
  5
216
100
AcDbEntity
  8
M0
 62
     2
100
AcDbCircle
 10
419.726774
 20
1183.375647
 40
1.0
100
AcDbArc
 50
90.0
 51
180.0
  0
LINE
  5
217
100
AcDbEntity
  8
M0
 62
     2
100
AcDbLine
 10
419.726774
 20
1184.375647
 11
421.726774
 21
1184.375647
  0
LINE
  5
218
100
AcDbEntity
  8
M0
 62
     2
100
AcDbLine
 10
422.726774
 20
1183.375647
 11
422.726774
 21
1180.375647
  0
ARC
  5
219
100
AcDbEntity
  8
M0
 62
     2
100
AcDbCircle
 10
421.726774
 20
1183.375647
 40
1.0
100
AcDbArc
 50
0.0
 51
90.0
  0
LINE
  5
21A
100
AcDbEntity
  8
M0
 62
     2
100
AcDbLine
 10
459.726774
 20
1180.375647
 11
459.726774
 21
1183.375647
  0
ARC
  5
21B
100
AcDbEntity
  8
M0
 62
     2
100
AcDbCircle
 10
460.726774
 20
1183.375647
 40
1.0
100
AcDbArc
 50
90.0
 51
180.0
  0
LINE
  5
21C
100
AcDbEntity
  8
M0
 62
     2
100
AcDbLine
 10
460.726774
 20
1184.375647
 11
462.726774
 21
1184.375647
  0
LINE
  5
21D
100
AcDbEntity
  8
M0
 62
     2
100
AcDbLine
 10
463.726774
 20
1180.375647
 11
463.726774
 21
1183.375647
  0
ARC
  5
21E
100
AcDbEntity
  8
M0
 62
     2
100
AcDbCircle
 10
462.726774
 20
1183.375647
 40
1.0
100
AcDbArc
 50
0.0
 51
90.0
  0
LINE
  5
21F
100
AcDbEntity
  8
M0
 62
     2
100
AcDbLine
 10
468.726774
 20
1183.375647
 11
468.726774
 21
1180.375647
  0
ARC
  5
220
100
AcDbEntity
  8
M0
 62
     2
100
AcDbCircle
 10
469.726774
 20
1183.375647
 40
1.0
100
AcDbArc
 50
90.0
 51
180.0
  0
LINE
  5
221
100
AcDbEntity
  8
M0
 62
     2
100
AcDbLine
 10
469.726774
 20
1184.375647
 11
471.726774
 21
1184.375647
  0
LINE
  5
222
100
AcDbEntity
  8
M0
 62
     2
100
AcDbLine
 10
472.726774
 20
1183.375647
 11
472.726774
 21
1180.375647
  0
ARC
  5
223
100
AcDbEntity
  8
M0
 62
     2
100
AcDbCircle
 10
471.726774
 20
1183.375647
 40
1.0
100
AcDbArc
 50
0.0
 51
90.0
  0
ARC
  5
224
100
AcDbEntity
  8
M0
 62
     2
100
AcDbCircle
 10
520.726774
 20
1189.375647
 40
2.0
100
AcDbArc
 50
0.0
 51
90.0
  0
LINE
  5
225
100
AcDbEntity
  8
M0
 62
     2
100
AcDbLine
 10
520.726774
 20
1191.375647
 11
514.226774
 21
1191.375647
  0
ARC
  5
226
100
AcDbEntity
  8
M0
 62
     2
100
AcDbCircle
 10
361.726789
 20
1189.375647
 40
2.0
100
AcDbArc
 50
89.999563
 51
180.0
  0
LINE
  5
227
100
AcDbEntity
  8
M0
 62
     2
100
AcDbLine
 10
361.726789
 20
1191.375647
 11
368.226777
 21
1191.375647
  0
LINE
  5
228
100
AcDbEntity
  8
M0
 62
     2
100
AcDbLine
 10
385.226778
 20
1180.375647
 11
409.726777
 21
1180.375647
  0
LINE
  5
229
100
AcDbEntity
  8
M0
 62
     2
100
AcDbLine
 10
481.526755
 20
1186.375647
 11
472.458827
 21
1186.375647
  0
LINE
  5
22A
100
AcDbEntity
  8
M0
 62
     2
100
AcDbLine
 10
522.726774
 20
1029.375662
 11
522.726774
 21
1085.575662
  0
ARC
  5
22B
100
AcDbEntity
  8
M0
 62
     2
100
AcDbCircle
 10
520.726774
 20
1029.375662
 40
2.0
100
AcDbArc
 50
-90.000437
 51
0.0
  0
LINE
  5
22C
100
AcDbEntity
  8
M0
 62
     2
100
AcDbLine
 10
520.726774
 20
1027.375662
 11
514.226774
 21
1027.375662
  0
LINE
  5
22D
100
AcDbEntity
  8
M0
 62
     2
100
AcDbLine
 10
385.226778
 20
1038.375662
 11
409.726777
 21
1038.375662
  0
LINE
  5
22E
100
AcDbEntity
  8
M0
 62
     2
100
AcDbLine
 10
359.726789
 20
1029.375662
 11
359.726789
 21
1189.375647
  0
ARC
  5
22F
100
AcDbEntity
  8
M0
 62
     2
100
AcDbCircle
 10
361.726789
 20
1029.375662
 40
2.0
100
AcDbArc
 50
179.999563
 51
270.0
  0
LINE
  5
230
100
AcDbEntity
  8
M0
 62
     2
100
AcDbLine
 10
361.726789
 20
1027.375662
 11
368.226789
 21
1027.375662
  0
LINE
  5
231
100
AcDbEntity
  8
M0
 62
     2
100
AcDbLine
 10
472.726774
 20
1038.375662
 11
497.226774
 21
1038.375662
  0
LINE
  5
232
100
AcDbEntity
  8
M0
 62
     2
100
AcDbLine
 10
413.726774
 20
1180.375647
 11
418.726774
 21
1180.375647
  0
LINE
  5
233
100
AcDbEntity
  8
M0
 62
     2
100
AcDbLine
 10
422.726774
 20
1180.375647
 11
459.726774
 21
1180.375647
  0
LINE
  5
234
100
AcDbEntity
  8
M0
 62
     2
100
AcDbLine
 10
463.726774
 20
1180.375647
 11
468.726774
 21
1180.375647
  0
LINE
  5
235
100
AcDbEntity
  8
M0
 62
     2
100
AcDbLine
 10
472.726774
 20
1180.375647
 11
497.226774
 21
1180.375647
  0
ARC
  5
236
100
AcDbEntity
  8
M0
 62
     2
100
AcDbCircle
 10
371.226789
 20
1037.375662
 40
7.0
100
AcDbArc
 50
81.786915
 51
255.03109
  0
ARC
  5
237
100
AcDbEntity
  8
M0
 62
     2
100
AcDbCircle
 10
511.226774
 20
1181.375647
 40
7.0
100
AcDbArc
 50
261.786789
 51
435.029774
  0
LINE
  5
238
100
AcDbEntity
  8
M0
 62
     2
100
AcDbLine
 10
427.083936
 20
1186.375647
 11
422.458827
 21
1186.375647
  0
ARC
  5
239
100
AcDbEntity
  8
M0
 62
     2
100
AcDbCircle
 10
511.226774
 20
1037.375662
 40
7.0
100
AcDbArc
 50
284.968793
 51
458.213211
  0
ARC
  5
23A
100
AcDbEntity
  8
M0
 62
     2
100
AcDbCircle
 10
371.226789
 20
1181.375647
 40
7.0
100
AcDbArc
 50
104.970409
 51
279.462186
  0
LINE
  5
23B
100
AcDbEntity
  8
M0
 62
     2
100
AcDbLine
 10
522.726774
 20
1155.575632
 11
522.726774
 21
1189.375647
  0
LINE
  5
23C
100
AcDbEntity
  8
M0
 62
     2
100
AcDbLine
 10
359.676885
 20
1047.375651
 11
372.226774
 21
1047.375651
  0
LINE
  5
23D
100
AcDbEntity
  8
M0
 62
     2
100
AcDbLine
 10
359.677002
 20
1171.375651
 11
372.226774
 21
1171.375651
  0
LINE
  5
23E
100
AcDbEntity
  8
M0
 62
     2
100
AcDbLine
 10
510.226774
 20
1171.375651
 11
522.676968
 21
1171.375651
  0
LINE
  5
23F
100
AcDbEntity
  8
M0
 62
     2
100
AcDbLine
 10
510.226774
 20
1047.375651
 11
522.676874
 21
1047.375651
  0
LINE
  5
240
100
AcDbEntity
  8
M0
 62
     2
100
AcDbLine
 10
459.994721
 20
1186.375647
 11
455.369623
 21
1186.375647
  0
LINE
  5
241
100
AcDbEntity
  8
M0
 62
     2
100
AcDbLine
 10
409.994721
 20
1186.375647
 11
400.926817
 21
1186.375647
  0
LINE
  5
242
100
AcDbEntity
  8
M0
 62
   234
100
AcDbLine
 10
372.226766
 20
1147.075648
 11
372.226782
 21
1094.075653
  0
LINE
  5
243
100
AcDbEntity
  8
M0
 62
   234
100
AcDbLine
 10
362.226766
 20
1147.075645
 11
372.226766
 21
1147.075648
  0
LINE
  5
244
100
AcDbEntity
  8
M0
 62
   234
100
AcDbLine
 10
362.226782
 20
1094.07565
 11
372.226782
 21
1094.075653
  0
LINE
  5
245
100
AcDbEntity
  8
M0
 62
   234
100
AcDbLine
 10
372.226782
 20
1094.075653
 11
362.226782
 21
1094.07565
  0
LINE
  5
246
100
AcDbEntity
  8
M0
 62
   234
100
AcDbLine
 10
360.226783
 20
1091.57566
 11
360.226765
 21
1149.575644
  0
CIRCLE
  5
247
100
AcDbEntity
  8
M0
 62
   234
100
AcDbCircle
 10
369.226764
 20
1151.575647
 40
2.25
  0
LINE
  5
248
100
AcDbEntity
  8
M0
 62
   234
100
AcDbLine
 10
361.726765
 20
1149.575645
 11
360.226765
 21
1149.575644
  0
ARC
  5
249
100
AcDbEntity
  8
M0
 62
   234
100
AcDbCircle
 10
361.726765
 20
1149.075645
 40
0.5
100
AcDbArc
 50
-0.001731
 51
90.0
  0
LINE
  5
24A
100
AcDbEntity
  8
M0
 62
   234
100
AcDbLine
 10
364.726766
 20
1147.075646
 11
364.726764
 21
1151.575646
  0
ARC
  5
24B
100
AcDbEntity
  8
M0
 62
   234
100
AcDbCircle
 10
368.726764
 20
1151.575647
 40
4.0
100
AcDbArc
 50
90.0
 51
180.000018
  0
LINE
  5
24C
100
AcDbEntity
  8
M0
 62
   234
100
AcDbLine
 10
372.226763
 20
1155.575648
 11
368.726763
 21
1155.575647
  0
LINE
  5
24D
100
AcDbEntity
  8
M0
 62
   234
100
AcDbLine
 10
362.226772
 20
1126.075645
 11
370.226772
 21
1126.075647
  0
LINE
  5
24E
100
AcDbEntity
  8
M0
 62
   234
100
AcDbLine
 10
372.226775
 20
1116.825652
 11
360.226775
 21
1116.825648
  0
LINE
  5
24F
100
AcDbEntity
  8
M0
 62
   234
100
AcDbLine
 10
372.226773
 20
1124.325652
 11
360.226773
 21
1124.325648
  0
LINE
  5
250
100
AcDbEntity
  8
M0
 62
   234
100
AcDbLine
 10
362.226765
 20
1149.075645
 11
362.226772
 21
1126.075645
  0
LINE
  5
251
100
AcDbEntity
  8
M0
 62
   234
100
AcDbLine
 10
370.226766
 20
1147.075647
 11
370.226772
 21
1126.075647
  0
LINE
  5
252
100
AcDbEntity
  8
M0
 62
   234
100
AcDbLine
 10
370.226776
 20
1115.075651
 11
370.226782
 21
1094.075652
  0
LINE
  5
253
100
AcDbEntity
  8
M0
 62
   234
100
AcDbLine
 10
364.226773
 20
1124.325649
 11
364.226773
 21
1123.325649
  0
LINE
  5
254
100
AcDbEntity
  8
M0
 62
   234
100
AcDbLine
 10
361.226773
 20
1123.325648
 11
364.226773
 21
1123.325649
  0
LINE
  5
255
100
AcDbEntity
  8
M0
 62
   234
100
AcDbLine
 10
361.226773
 20
1124.325648
 11
361.226775
 21
1116.825648
  0
LINE
  5
256
100
AcDbEntity
  8
M0
 62
   234
100
AcDbLine
 10
361.226775
 20
1117.825648
 11
364.226775
 21
1117.825649
  0
LINE
  5
257
100
AcDbEntity
  8
M0
 62
   234
100
AcDbLine
 10
364.226775
 20
1117.825649
 11
364.226775
 21
1116.825649
  0
LINE
  5
258
100
AcDbEntity
  8
M0
 62
   234
100
AcDbLine
 10
368.726773
 20
1123.325651
 11
368.726775
 21
1117.825651
  0
LINE
  5
259
100
AcDbEntity
  8
M0
 62
   234
100
AcDbLine
 10
367.226773
 20
1124.32565
 11
367.226775
 21
1116.82565
  0
LINE
  5
25A
100
AcDbEntity
  8
M0
 62
   234
100
AcDbLine
 10
367.226775
 20
1117.82565
 11
372.226775
 21
1117.825652
  0
LINE
  5
25B
100
AcDbEntity
  8
M0
 62
   234
100
AcDbLine
 10
367.226773
 20
1123.32565
 11
372.226773
 21
1123.325652
  0
LINE
  5
25C
100
AcDbEntity
  8
M0
 62
   234
100
AcDbLine
 10
364.726782
 20
1094.075651
 11
364.726784
 21
1089.575661
  0
ARC
  5
25D
100
AcDbEntity
  8
M0
 62
   234
100
AcDbCircle
 10
368.726784
 20
1089.575662
 40
4.0
100
AcDbArc
 50
179.999799
 51
270.0
  0
LINE
  5
25E
100
AcDbEntity
  8
M0
 62
   234
100
AcDbLine
 10
372.226785
 20
1085.575663
 11
368.726785
 21
1085.575662
  0
ARC
  5
25F
100
AcDbEntity
  8
M0
 62
   234
100
AcDbCircle
 10
361.726783
 20
1092.07566
 40
0.5
100
AcDbArc
 50
270.0
 51
360.000018
  0
LINE
  5
260
100
AcDbEntity
  8
M0
 62
   234
100
AcDbLine
 10
361.726783
 20
1091.57566
 11
360.226783
 21
1091.57566
  0
LINE
  5
261
100
AcDbEntity
  8
M0
 62
   234
100
AcDbLine
 10
362.226776
 20
1115.075649
 11
362.226783
 21
1092.07566
  0
LINE
  5
262
100
AcDbEntity
  8
M0
 62
   234
100
AcDbLine
 10
362.226776
 20
1115.075649
 11
370.226776
 21
1115.075651
  0
LINE
  5
263
100
AcDbEntity
  8
M0
100
AcDbLine
 10
426.226774
 20
999.375408
 11
456.226774
 21
999.375408
  0
LINE
  5
264
100
AcDbEntity
  8
M0
100
AcDbLine
 10
428.226774
 20
1038.375479
 11
428.226774
 21
1036.375403
  0
LINE
  5
265
100
AcDbEntity
  8
M0
100
AcDbLine
 10
454.226774
 20
1036.375403
 11
454.226774
 21
1038.375479
  0
LINE
  5
266
100
AcDbEntity
  8
M0
100
AcDbLine
 10
426.226774
 20
1029.375403
 11
428.226774
 21
1036.375403
  0
LINE
  5
267
100
AcDbEntity
  8
M0
100
AcDbLine
 10
426.226774
 20
999.375408
 11
426.226774
 21
1029.375403
  0
LINE
  5
268
100
AcDbEntity
  8
M0
100
AcDbLine
 10
456.226774
 20
999.375408
 11
456.226774
 21
1029.375403
  0
LINE
  5
269
100
AcDbEntity
  8
M0
100
AcDbLine
 10
454.226774
 20
1036.375403
 11
456.226774
 21
1029.375403
  0
CIRCLE
  5
26A
100
AcDbEntity
  8
M0
100
AcDbCircle
 10
441.226774
 20
1014.375407
 40
6.0
  0
LINE
  5
26B
100
AcDbEntity
  8
M0
  6
DASHDOT
100
AcDbLine
 10
421.560108
 20
1014.375407
 11
460.89344
 21
1014.375407
  0
LINE
  5
26C
100
AcDbEntity
  8
M0
100
AcDbLine
 10
484.226774
 20
999.375408
 11
501.226774
 21
999.375408
  0
LINE
  5
26D
100
AcDbEntity
  8
M0
100
AcDbLine
 10
514.226774
 20
999.375408
 11
514.226774
 21
1029.375403
  0
LINE
  5
26E
100
AcDbEntity
  8
M0
100
AcDbLine
 10
484.226774
 20
1029.375403
 11
484.226774
 21
999.375408
  0
LINE
  5
26F
100
AcDbEntity
  8
M0
100
AcDbLine
 10
484.226774
 20
999.375408
 11
514.226774
 21
999.375408
  0
LINE
  5
270
100
AcDbEntity
  8
M0
100
AcDbLine
 10
484.226774
 20
1029.375403
 11
476.126692
 21
1038.375479
  0
LINE
  5
271
100
AcDbEntity
  8
M0
100
AcDbLine
 10
514.226774
 20
1029.375403
 11
505.560026
 21
1038.375479
  0
CIRCLE
  5
272
100
AcDbEntity
  8
M0
100
AcDbCircle
 10
499.226774
 20
1014.375407
 40
6.0
  0
LINE
  5
273
100
AcDbEntity
  8
M0
  6
DASHDOT
100
AcDbLine
 10
479.560108
 20
1014.375407
 11
518.89344
 21
1014.375407
  0
LINE
  5
274
100
AcDbEntity
  8
M0
  6
DASHDOT
100
AcDbLine
 10
499.226774
 20
994.70874
 11
499.226774
 21
1034.042073
  0
LINE
  5
275
100
AcDbEntity
  8
M0
 62
     6
100
AcDbLine
 10
499.226774
 20
1003.42536
 11
489.743864
 21
1008.900366
  0
LINE
  5
276
100
AcDbEntity
  8
M0
 62
     6
100
AcDbLine
 10
489.743864
 20
1008.900366
 11
489.743864
 21
1019.850348
  0
LINE
  5
277
100
AcDbEntity
  8
M0
 62
     6
100
AcDbLine
 10
489.743864
 20
1019.850348
 11
499.226774
 21
1025.325354
  0
LINE
  5
278
100
AcDbEntity
  8
M0
 62
     6
100
AcDbLine
 10
499.226774
 20
1025.325354
 11
508.709928
 21
1019.850348
  0
LINE
  5
279
100
AcDbEntity
  8
M0
 62
     6
100
AcDbLine
 10
508.709928
 20
1019.850348
 11
508.709928
 21
1008.900336
  0
LINE
  5
27A
100
AcDbEntity
  8
M0
 62
     6
100
AcDbLine
 10
508.709928
 20
1008.900336
 11
499.226774
 21
1003.42536
  0
CIRCLE
  5
27B
100
AcDbEntity
  8
M0
 62
     6
100
AcDbCircle
 10
499.226774
 20
1014.375342
 40
6.0
  0
LINE
  5
27C
100
AcDbEntity
  8
M0
 62
     6
100
AcDbLine
 10
441.226774
 20
1003.42536
 11
431.743864
 21
1008.900366
  0
LINE
  5
27D
100
AcDbEntity
  8
M0
 62
     6
100
AcDbLine
 10
431.743864
 20
1008.900366
 11
431.743864
 21
1019.850348
  0
LINE
  5
27E
100
AcDbEntity
  8
M0
 62
     6
100
AcDbLine
 10
431.743864
 20
1019.850348
 11
441.226774
 21
1025.325354
  0
LINE
  5
27F
100
AcDbEntity
  8
M0
 62
     6
100
AcDbLine
 10
441.226774
 20
1025.325354
 11
450.709928
 21
1019.850348
  0
LINE
  5
280
100
AcDbEntity
  8
M0
 62
     6
100
AcDbLine
 10
450.709928
 20
1019.850348
 11
450.709928
 21
1008.900336
  0
LINE
  5
281
100
AcDbEntity
  8
M0
 62
     6
100
AcDbLine
 10
450.709928
 20
1008.900336
 11
441.226774
 21
1003.42536
  0
CIRCLE
  5
282
100
AcDbEntity
  8
M0
 62
     6
100
AcDbCircle
 10
441.226774
 20
1014.375342
 40
6.0
  0
LINE
  5
283
100
AcDbEntity
  8
M0
100
AcDbLine
 10
398.226774
 20
999.375408
 11
381.226774
 21
999.375408
  0
LINE
  5
284
100
AcDbEntity
  8
M0
100
AcDbLine
 10
368.226774
 20
999.375408
 11
368.226774
 21
1029.375403
  0
LINE
  5
285
100
AcDbEntity
  8
M0
100
AcDbLine
 10
398.226774
 20
1029.375403
 11
398.226774
 21
999.375408
  0
LINE
  5
286
100
AcDbEntity
  8
M0
100
AcDbLine
 10
398.226774
 20
999.375408
 11
368.226774
 21
999.375408
  0
LINE
  5
287
100
AcDbEntity
  8
M0
100
AcDbLine
 10
398.226774
 20
1029.375403
 11
406.326841
 21
1038.375479
  0
LINE
  5
288
100
AcDbEntity
  8
M0
100
AcDbLine
 10
368.226774
 20
1029.375403
 11
376.893507
 21
1038.375479
  0
CIRCLE
  5
289
100
AcDbEntity
  8
M0
100
AcDbCircle
 10
383.226774
 20
1014.375407
 40
6.0
  0
LINE
  5
28A
100
AcDbEntity
  8
M0
  6
DASHDOT
100
AcDbLine
 10
363.560108
 20
1014.375407
 11
402.89344
 21
1014.375407
  0
LINE
  5
28B
100
AcDbEntity
  8
M0
  6
DASHDOT
100
AcDbLine
 10
383.226774
 20
994.70874
 11
383.226774
 21
1034.042073
  0
LINE
  5
28C
100
AcDbEntity
  8
M0
 62
     6
100
AcDbLine
 10
383.226774
 20
1003.42536
 11
392.709684
 21
1008.900366
  0
LINE
  5
28D
100
AcDbEntity
  8
M0
 62
     6
100
AcDbLine
 10
392.709684
 20
1008.900366
 11
392.709684
 21
1019.850348
  0
LINE
  5
28E
100
AcDbEntity
  8
M0
 62
     6
100
AcDbLine
 10
392.709684
 20
1019.850348
 11
383.226774
 21
1025.325354
  0
LINE
  5
28F
100
AcDbEntity
  8
M0
 62
     6
100
AcDbLine
 10
383.226774
 20
1025.325354
 11
373.74362
 21
1019.850348
  0
LINE
  5
290
100
AcDbEntity
  8
M0
 62
     6
100
AcDbLine
 10
373.74362
 20
1019.850348
 11
373.74362
 21
1008.900336
  0
LINE
  5
291
100
AcDbEntity
  8
M0
 62
     6
100
AcDbLine
 10
373.74362
 20
1008.900336
 11
383.226774
 21
1003.42536
  0
CIRCLE
  5
292
100
AcDbEntity
  8
M0
 62
     6
100
AcDbCircle
 10
383.226774
 20
1014.375342
 40
6.0
  0
LINE
  5
293
100
AcDbEntity
  8
M0
100
AcDbLine
 10
398.226758
 20
1219.375686
 11
381.226758
 21
1219.375675
  0
LINE
  5
294
100
AcDbEntity
  8
M0
100
AcDbLine
 10
368.226758
 20
1219.375667
 11
368.226777
 21
1189.375672
  0
LINE
  5
295
100
AcDbEntity
  8
M0
100
AcDbLine
 10
398.226777
 20
1189.37569
 11
398.226758
 21
1219.375686
  0
LINE
  5
296
100
AcDbEntity
  8
M0
100
AcDbLine
 10
398.226758
 20
1219.375686
 11
368.226758
 21
1219.375667
  0
LINE
  5
297
100
AcDbEntity
  8
M0
100
AcDbLine
 10
398.226777
 20
1189.37569
 11
406.326849
 21
1180.375615
  0
LINE
  5
298
100
AcDbEntity
  8
M0
100
AcDbLine
 10
368.226777
 20
1189.375672
 11
376.893515
 21
1180.375597
  0
CIRCLE
  5
299
100
AcDbEntity
  8
M0
100
AcDbCircle
 10
383.226767
 20
1204.37568
 40
6.0
  0
LINE
  5
29A
100
AcDbEntity
  8
M0
  6
DASHDOT
100
AcDbLine
 10
363.560101
 20
1204.37568
 11
402.893434
 21
1204.37568
  0
LINE
  5
29B
100
AcDbEntity
  8
M0
  6
DASHDOT
100
AcDbLine
 10
383.226767
 20
1184.709014
 11
383.226767
 21
1224.042346
  0
LINE
  5
29C
100
AcDbEntity
  8
M0
100
AcDbLine
 10
426.226758
 20
1219.375667
 11
456.226758
 21
1219.375686
  0
LINE
  5
29D
100
AcDbEntity
  8
M0
100
AcDbLine
 10
428.226782
 20
1180.375593
 11
428.226781
 21
1182.375673
  0
LINE
  5
29E
100
AcDbEntity
  8
M0
100
AcDbLine
 10
454.226781
 20
1182.375689
 11
454.226782
 21
1180.375609
  0
LINE
  5
29F
100
AcDbEntity
  8
M0
100
AcDbLine
 10
426.226777
 20
1189.375672
 11
428.226781
 21
1182.375673
  0
LINE
  5
2A0
100
AcDbEntity
  8
M0
100
AcDbLine
 10
426.226758
 20
1219.375667
 11
426.226777
 21
1189.375672
  0
LINE
  5
2A1
100
AcDbEntity
  8
M0
100
AcDbLine
 10
456.226758
 20
1219.375686
 11
456.226777
 21
1189.37569
  0
LINE
  5
2A2
100
AcDbEntity
  8
M0
100
AcDbLine
 10
454.226781
 20
1182.375689
 11
456.226777
 21
1189.37569
  0
CIRCLE
  5
2A3
100
AcDbEntity
  8
M0
100
AcDbCircle
 10
441.226767
 20
1204.37568
 40
6.0
  0
LINE
  5
2A4
100
AcDbEntity
  8
M0
  6
DASHDOT
100
AcDbLine
 10
441.226774
 20
972.463767
 11
441.226774
 21
1251.223715
  0
LINE
  5
2A5
100
AcDbEntity
  8
M0
  6
DASHDOT
100
AcDbLine
 10
421.560165
 20
1204.375753
 11
460.893497
 21
1204.375753
  0
LINE
  5
2A6
100
AcDbEntity
  8
M0
  6
DASHDOT
100
AcDbLine
 10
441.226831
 20
1184.709086
 11
441.226831
 21
1224.042419
  0
LINE
  5
2A7
100
AcDbEntity
  8
M0
100
AcDbLine
 10
484.226758
 20
1219.375667
 11
501.226758
 21
1219.375677
  0
LINE
  5
2A8
100
AcDbEntity
  8
M0
100
AcDbLine
 10
514.226758
 20
1219.375686
 11
514.226777
 21
1189.37569
  0
LINE
  5
2A9
100
AcDbEntity
  8
M0
100
AcDbLine
 10
484.226777
 20
1189.375672
 11
484.226758
 21
1219.375667
  0
LINE
  5
2AA
100
AcDbEntity
  8
M0
100
AcDbLine
 10
484.226758
 20
1219.375667
 11
514.226758
 21
1219.375686
  0
LINE
  5
2AB
100
AcDbEntity
  8
M0
100
AcDbLine
 10
484.226777
 20
1189.375672
 11
476.1267
 21
1180.375586
  0
LINE
  5
2AC
100
AcDbEntity
  8
M0
100
AcDbLine
 10
514.226777
 20
1189.37569
 11
505.560034
 21
1180.375605
  0
CIRCLE
  5
2AD
100
AcDbEntity
  8
M0
100
AcDbCircle
 10
499.226767
 20
1204.37568
 40
6.0
  0
LINE
  5
2AE
100
AcDbEntity
  8
M0
  6
DASHDOT
100
AcDbLine
 10
479.560101
 20
1204.37568
 11
518.893434
 21
1204.37568
  0
LINE
  5
2AF
100
AcDbEntity
  8
M0
 62
     6
100
AcDbLine
 10
499.226824
 20
1215.325734
 11
489.743917
 21
1209.850722
  0
LINE
  5
2B0
100
AcDbEntity
  8
M0
 62
     6
100
AcDbLine
 10
489.743917
 20
1209.850722
 11
489.743924
 21
1198.90074
  0
LINE
  5
2B1
100
AcDbEntity
  8
M0
 62
     6
100
AcDbLine
 10
489.743924
 20
1198.90074
 11
499.226838
 21
1193.42574
  0
LINE
  5
2B2
100
AcDbEntity
  8
M0
 62
     6
100
AcDbLine
 10
499.226838
 20
1193.42574
 11
508.709989
 21
1198.900752
  0
LINE
  5
2B3
100
AcDbEntity
  8
M0
 62
     6
100
AcDbLine
 10
508.709989
 20
1198.900752
 11
508.709982
 21
1209.850765
  0
LINE
  5
2B4
100
AcDbEntity
  8
M0
 62
     6
100
AcDbLine
 10
508.709982
 20
1209.850765
 11
499.226824
 21
1215.325734
  0
CIRCLE
  5
2B5
100
AcDbEntity
  8
M0
 62
     6
100
AcDbCircle
 10
499.226831
 20
1204.375753
 40
6.0
  0
LINE
  5
2B6
100
AcDbEntity
  8
M0
 62
     6
100
AcDbLine
 10
441.226824
 20
1215.325734
 11
431.743917
 21
1209.850722
  0
LINE
  5
2B7
100
AcDbEntity
  8
M0
 62
     6
100
AcDbLine
 10
431.743917
 20
1209.850722
 11
431.743924
 21
1198.90074
  0
LINE
  5
2B8
100
AcDbEntity
  8
M0
 62
     6
100
AcDbLine
 10
431.743924
 20
1198.90074
 11
441.226838
 21
1193.42574
  0
LINE
  5
2B9
100
AcDbEntity
  8
M0
 62
     6
100
AcDbLine
 10
441.226838
 20
1193.42574
 11
450.709989
 21
1198.900752
  0
LINE
  5
2BA
100
AcDbEntity
  8
M0
 62
     6
100
AcDbLine
 10
450.709989
 20
1198.900752
 11
450.709982
 21
1209.850765
  0
LINE
  5
2BB
100
AcDbEntity
  8
M0
 62
     6
100
AcDbLine
 10
450.709982
 20
1209.850765
 11
441.226824
 21
1215.325734
  0
CIRCLE
  5
2BC
100
AcDbEntity
  8
M0
 62
     6
100
AcDbCircle
 10
441.226831
 20
1204.375753
 40
6.0
  0
LINE
  5
2BD
100
AcDbEntity
  8
M0
 62
     6
100
AcDbLine
 10
383.226824
 20
1215.325734
 11
392.709738
 21
1209.850734
  0
LINE
  5
2BE
100
AcDbEntity
  8
M0
 62
     6
100
AcDbLine
 10
392.709738
 20
1209.850734
 11
392.709745
 21
1198.900752
  0
LINE
  5
2BF
100
AcDbEntity
  8
M0
 62
     6
100
AcDbLine
 10
392.709745
 20
1198.900752
 11
383.226838
 21
1193.42574
  0
LINE
  5
2C0
100
AcDbEntity
  8
M0
 62
     6
100
AcDbLine
 10
383.226838
 20
1193.42574
 11
373.74368
 21
1198.90074
  0
LINE
  5
2C1
100
AcDbEntity
  8
M0
 62
     6
100
AcDbLine
 10
373.74368
 20
1198.90074
 11
373.743673
 21
1209.850753
  0
LINE
  5
2C2
100
AcDbEntity
  8
M0
 62
     6
100
AcDbLine
 10
373.743673
 20
1209.850753
 11
383.226824
 21
1215.325734
  0
CIRCLE
  5
2C3
100
AcDbEntity
  8
M0
 62
     6
100
AcDbCircle
 10
383.226831
 20
1204.375753
 40
6.0
  0
LINE
  5
2C4
100
AcDbEntity
  8
M0
 62
    74
100
AcDbLine
 10
536.226797
 20
1163.375652
 11
536.226793
 21
1148.375652
  0
LINE
  5
2C5
100
AcDbEntity
  8
M0
 62
    74
100
AcDbLine
 10
545.226797
 20
1163.375649
 11
545.226793
 21
1148.375649
  0
LINE
  5
2C6
100
AcDbEntity
  8
M0
 62
    74
100
AcDbLine
 10
536.726793
 20
1148.375652
 11
536.726786
 21
1126.875652
  0
LINE
  5
2C7
100
AcDbEntity
  8
M0
 62
    74
100
AcDbLine
 10
544.726793
 20
1148.37565
 11
544.726786
 21
1126.87565
  0
LINE
  5
2C8
100
AcDbEntity
  8
M0
 62
    74
100
AcDbLine
 10
534.726797
 20
1163.375653
 11
546.726797
 21
1163.375649
  0
LINE
  5
2C9
100
AcDbEntity
  8
M0
 62
    74
100
AcDbLine
 10
534.726794
 20
1153.375653
 11
536.226794
 21
1153.375652
  0
LINE
  5
2CA
100
AcDbEntity
  8
M0
 62
    74
100
AcDbLine
 10
545.226794
 20
1153.375649
 11
546.726794
 21
1153.375649
  0
LINE
  5
2CB
100
AcDbEntity
  8
M0
 62
    74
100
AcDbLine
 10
536.226793
 20
1148.375652
 11
536.726793
 21
1148.375652
  0
LINE
  5
2CC
100
AcDbEntity
  8
M0
 62
    74
100
AcDbLine
 10
544.726793
 20
1148.37565
 11
545.226793
 21
1148.375649
  0
LINE
  5
2CD
100
AcDbEntity
  8
M0
 62
    74
100
AcDbLine
 10
546.726787
 20
1129.375649
 11
546.726797
 21
1163.375649
  0
LINE
  5
2CE
100
AcDbEntity
  8
M0
 62
    74
100
AcDbLine
 10
546.726787
 20
1129.375649
 11
546.52679
 21
1129.375649
  0
LINE
  5
2CF
100
AcDbEntity
  8
M0
 62
    74
100
AcDbLine
 10
534.726786
 20
1126.875653
 11
546.526789
 21
1126.875649
  0
LINE
  5
2D0
100
AcDbEntity
  8
M0
 62
    74
100
AcDbLine
 10
545.526787
 20
1120.375649
 11
545.526788
 21
1123.375649
  0
LINE
  5
2D1
100
AcDbEntity
  8
M0
 62
    74
100
AcDbLine
 10
546.526788
 20
1123.375649
 11
545.526788
 21
1123.375649
  0
LINE
  5
2D2
100
AcDbEntity
  8
M0
 62
    74
100
AcDbLine
 10
546.526787
 20
1122.125649
 11
545.526787
 21
1122.125649
  0
LINE
  5
2D3
100
AcDbEntity
  8
M0
 62
    74
100
AcDbLine
 10
546.52679
 20
1129.375649
 11
546.526787
 21
1122.125649
  0
LINE
  5
2D4
100
AcDbEntity
  8
M0
 62
    74
100
AcDbLine
 10
534.726784
 20
1120.375653
 11
534.726797
 21
1163.375653
  0
LINE
  5
2D5
100
AcDbEntity
  8
M0
 62
    74
100
AcDbLine
 10
536.226795
 20
1156.375652
 11
545.226795
 21
1156.375649
  0
LINE
  5
2D6
100
AcDbEntity
  8
M0
 62
    74
100
AcDbLine
 10
536.726787
 20
1131.375652
 11
544.726787
 21
1131.37565
  0
LINE
  5
2D7
100
AcDbEntity
  8
M0
 62
    74
100
AcDbLine
 10
536.22677
 20
1077.375652
 11
536.226775
 21
1092.375652
  0
LINE
  5
2D8
100
AcDbEntity
  8
M0
 62
    74
100
AcDbLine
 10
545.22677
 20
1077.375649
 11
545.226775
 21
1092.375649
  0
LINE
  5
2D9
100
AcDbEntity
  8
M0
 62
    74
100
AcDbLine
 10
536.726775
 20
1092.375652
 11
536.726782
 21
1113.875652
  0
LINE
  5
2DA
100
AcDbEntity
  8
M0
 62
    74
100
AcDbLine
 10
544.726775
 20
1092.37565
 11
544.726782
 21
1113.87565
  0
LINE
  5
2DB
100
AcDbEntity
  8
M0
 62
    74
100
AcDbLine
 10
534.72677
 20
1077.375653
 11
546.72677
 21
1077.375649
  0
LINE
  5
2DC
100
AcDbEntity
  8
M0
 62
    74
100
AcDbLine
 10
534.726773
 20
1087.375653
 11
536.226773
 21
1087.375652
  0
LINE
  5
2DD
100
AcDbEntity
  8
M0
 62
    74
100
AcDbLine
 10
545.226773
 20
1087.375649
 11
546.726773
 21
1087.375649
  0
LINE
  5
2DE
100
AcDbEntity
  8
M0
 62
    74
100
AcDbLine
 10
536.226775
 20
1092.375652
 11
536.726775
 21
1092.375652
  0
LINE
  5
2DF
100
AcDbEntity
  8
M0
 62
    74
100
AcDbLine
 10
544.726775
 20
1092.37565
 11
545.226775
 21
1092.375649
  0
LINE
  5
2E0
100
AcDbEntity
  8
M0
 62
    74
100
AcDbLine
 10
546.726781
 20
1111.375649
 11
546.72677
 21
1077.375649
  0
LINE
  5
2E1
100
AcDbEntity
  8
M0
 62
    74
100
AcDbLine
 10
546.726781
 20
1111.375649
 11
546.526784
 21
1111.375649
  0
LINE
  5
2E2
100
AcDbEntity
  8
M0
 62
    74
100
AcDbLine
 10
534.726782
 20
1113.875653
 11
546.526785
 21
1113.875649
  0
LINE
  5
2E3
100
AcDbEntity
  8
M0
 62
    74
100
AcDbLine
 10
545.526787
 20
1120.375649
 11
545.526786
 21
1117.375649
  0
LINE
  5
2E4
100
AcDbEntity
  8
M0
 62
    74
100
AcDbLine
 10
546.526786
 20
1117.375649
 11
545.526786
 21
1117.375649
  0
LINE
  5
2E5
100
AcDbEntity
  8
M0
 62
    74
100
AcDbLine
 10
546.526786
 20
1118.625649
 11
545.526786
 21
1118.625649
  0
LINE
  5
2E6
100
AcDbEntity
  8
M0
 62
    74
100
AcDbLine
 10
546.526784
 20
1111.375649
 11
546.526786
 21
1118.625649
  0
LINE
  5
2E7
100
AcDbEntity
  8
M0
 62
    74
100
AcDbLine
 10
534.726784
 20
1120.375653
 11
534.72677
 21
1077.375653
  0
LINE
  5
2E8
100
AcDbEntity
  8
M0
 62
    74
100
AcDbLine
 10
536.226772
 20
1084.375652
 11
545.226772
 21
1084.375649
  0
LINE
  5
2E9
100
AcDbEntity
  8
M0
 62
    74
100
AcDbLine
 10
536.72678
 20
1109.375652
 11
544.72678
 21
1109.37565
  0
LINE
  5
2EA
100
AcDbEntity
  8
M0
 62
    74
100
AcDbLine
 10
536.726776
 20
1094.875652
 11
544.726776
 21
1094.87565
  0
LINE
  5
2EB
100
AcDbEntity
  8
M0
 62
    74
100
AcDbLine
 10
536.726792
 20
1145.875652
 11
544.726792
 21
1145.87565
  0
LINE
  5
2EC
100
AcDbEntity
  8
M0
 62
   234
100
AcDbLine
 10
522.226783
 20
1147.075648
 11
522.226766
 21
1094.075653
  0
LINE
  5
2ED
100
AcDbEntity
  8
M0
 62
   234
100
AcDbLine
 10
532.226783
 20
1147.075645
 11
522.226783
 21
1147.075648
  0
LINE
  5
2EE
100
AcDbEntity
  8
M0
 62
   234
100
AcDbLine
 10
532.226766
 20
1094.07565
 11
522.226766
 21
1094.075653
  0
LINE
  5
2EF
100
AcDbEntity
  8
M0
 62
   234
100
AcDbLine
 10
522.226766
 20
1094.075653
 11
532.226766
 21
1094.07565
  0
LINE
  5
2F0
100
AcDbEntity
  8
M0
 62
   234
100
AcDbLine
 10
534.226766
 20
1091.57566
 11
534.226784
 21
1149.575644
  0
CIRCLE
  5
2F1
100
AcDbEntity
  8
M0
 62
   234
100
AcDbCircle
 10
525.226784
 20
1151.575647
 40
2.25
  0
LINE
  5
2F2
100
AcDbEntity
  8
M0
 62
   234
100
AcDbLine
 10
532.726784
 20
1149.575645
 11
534.226784
 21
1149.575644
  0
ARC
  5
2F3
100
AcDbEntity
  8
M0
 62
   234
100
AcDbCircle
 10
532.726784
 20
1149.075645
 40
0.5
100
AcDbArc
 50
90.0
 51
179.999982
  0
LINE
  5
2F4
100
AcDbEntity
  8
M0
 62
   234
100
AcDbLine
 10
529.726783
 20
1147.075646
 11
529.726784
 21
1151.575646
  0
ARC
  5
2F5
100
AcDbEntity
  8
M0
 62
   234
100
AcDbCircle
 10
525.726784
 20
1151.575647
 40
4.0
100
AcDbArc
 50
359.999763
 51
450.0
  0
LINE
  5
2F6
100
AcDbEntity
  8
M0
 62
   234
100
AcDbLine
 10
517.726786
 20
1155.57565
 11
525.726786
 21
1155.575647
  0
LINE
  5
2F7
100
AcDbEntity
  8
M0
 62
   234
100
AcDbLine
 10
532.226776
 20
1126.075645
 11
524.226776
 21
1126.075647
  0
LINE
  5
2F8
100
AcDbEntity
  8
M0
 62
   234
100
AcDbLine
 10
522.226774
 20
1116.825652
 11
534.226774
 21
1116.825648
  0
LINE
  5
2F9
100
AcDbEntity
  8
M0
 62
   234
100
AcDbLine
 10
522.226776
 20
1124.325652
 11
534.226776
 21
1124.325648
  0
LINE
  5
2FA
100
AcDbEntity
  8
M0
 62
   234
100
AcDbLine
 10
532.226784
 20
1149.075645
 11
532.226776
 21
1126.075645
  0
LINE
  5
2FB
100
AcDbEntity
  8
M0
 62
   234
100
AcDbLine
 10
524.226783
 20
1147.075647
 11
524.226776
 21
1126.075647
  0
LINE
  5
2FC
100
AcDbEntity
  8
M0
 62
   234
100
AcDbLine
 10
524.226773
 20
1115.075651
 11
524.226766
 21
1094.075652
  0
LINE
  5
2FD
100
AcDbEntity
  8
M0
 62
   234
100
AcDbLine
 10
530.226776
 20
1124.325649
 11
530.226776
 21
1123.325649
  0
LINE
  5
2FE
100
AcDbEntity
  8
M0
 62
   234
100
AcDbLine
 10
533.226776
 20
1123.325648
 11
530.226776
 21
1123.325649
  0
LINE
  5
2FF
100
AcDbEntity
  8
M0
 62
   234
100
AcDbLine
 10
533.226776
 20
1124.325648
 11
533.226774
 21
1116.825648
  0
LINE
  5
300
100
AcDbEntity
  8
M0
 62
   234
100
AcDbLine
 10
533.226774
 20
1117.825648
 11
530.226774
 21
1117.825649
  0
LINE
  5
301
100
AcDbEntity
  8
M0
 62
   234
100
AcDbLine
 10
530.226774
 20
1117.825649
 11
530.226774
 21
1116.825649
  0
LINE
  5
302
100
AcDbEntity
  8
M0
 62
   234
100
AcDbLine
 10
525.726776
 20
1123.325651
 11
525.726774
 21
1117.825651
  0
LINE
  5
303
100
AcDbEntity
  8
M0
 62
   234
100
AcDbLine
 10
527.226776
 20
1124.32565
 11
527.226774
 21
1116.82565
  0
LINE
  5
304
100
AcDbEntity
  8
M0
 62
   234
100
AcDbLine
 10
527.226774
 20
1117.82565
 11
522.226774
 21
1117.825652
  0
LINE
  5
305
100
AcDbEntity
  8
M0
 62
   234
100
AcDbLine
 10
527.226776
 20
1123.32565
 11
522.226776
 21
1123.325652
  0
LINE
  5
306
100
AcDbEntity
  8
M0
 62
   234
100
AcDbLine
 10
529.726766
 20
1094.075651
 11
529.726765
 21
1089.575661
  0
ARC
  5
307
100
AcDbEntity
  8
M0
 62
   234
100
AcDbCircle
 10
525.726765
 20
1089.575662
 40
4.0
100
AcDbArc
 50
269.999763
 51
359.999982
  0
LINE
  5
308
100
AcDbEntity
  8
M0
 62
   234
100
AcDbLine
 10
517.726786
 20
1085.575682
 11
525.726764
 21
1085.575662
  0
CIRCLE
  5
309
100
AcDbEntity
  8
M0
 62
   234
100
AcDbCircle
 10
525.226765
 20
1089.575662
 40
2.25
  0
ARC
  5
30A
100
AcDbEntity
  8
M0
 62
   234
100
AcDbCircle
 10
532.726766
 20
1092.07566
 40
0.5
100
AcDbArc
 50
179.998233
 51
269.998233
  0
LINE
  5
30B
100
AcDbEntity
  8
M0
 62
   234
100
AcDbLine
 10
532.726766
 20
1091.57566
 11
534.226766
 21
1091.57566
  0
LINE
  5
30C
100
AcDbEntity
  8
M0
 62
   234
100
AcDbLine
 10
532.226773
 20
1115.075649
 11
532.226766
 21
1092.07566
  0
LINE
  5
30D
100
AcDbEntity
  8
M0
 62
   234
100
AcDbLine
 10
532.226773
 20
1115.075649
 11
524.226773
 21
1115.075651
  0
LINE
  5
30E
100
AcDbEntity
  8
M0
 62
   234
100
AcDbLine
 10
517.726786
 20
1155.57565
 11
517.726783
 21
1147.075646
  0
LINE
  5
30F
100
AcDbEntity
  8
M0
 62
   234
100
AcDbLine
 10
517.726786
 20
1085.575652
 11
517.726783
 21
1094.075656
  0
LINE
  5
310
100
AcDbEntity
  8
M0
 62
   114
100
AcDbLine
 10
512.075365
 20
1037.375587
 11
515.339077
 21
1040.639298
  0
LINE
  5
311
100
AcDbEntity
  8
M0
 62
   114
100
AcDbLine
 10
509.246745
 20
1034.546967
 11
511.226839
 21
1036.527061
  0
LINE
  5
312
100
AcDbEntity
  8
M0
 62
   114
100
AcDbLine
 10
510.378356
 20
1037.375544
 11
508.414271
 21
1035.411459
  0
LINE
  5
313
100
AcDbEntity
  8
M0
 62
   114
100
AcDbLine
 10
514.490605
 20
1041.487814
 11
511.226882
 21
1038.22407
  0
LINE
  5
314
100
AcDbEntity
  8
M0
 62
   114
100
AcDbLine
 10
511.226871
 20
1038.22408
 11
509.459104
 21
1039.991847
  0
LINE
  5
315
100
AcDbEntity
  8
M0
 62
   114
100
AcDbLine
 10
513.843132
 20
1035.60782
 11
512.075365
 21
1037.375587
  0
LINE
  5
316
100
AcDbEntity
  8
M0
 62
   114
100
AcDbLine
 10
511.226839
 20
1036.527061
 11
512.994606
 21
1034.759294
  0
LINE
  5
317
100
AcDbEntity
  8
M0
 62
   114
100
AcDbLine
 10
508.610578
 20
1039.143321
 11
510.378345
 21
1037.375554
  0
LINE
  5
318
100
AcDbEntity
  8
M0
 62
   114
100
AcDbLine
 10
512.994606
 20
1034.759294
 11
513.843132
 21
1035.60782
  0
LINE
  5
319
100
AcDbEntity
  8
M0
 62
   114
100
AcDbLine
 10
509.459104
 20
1039.991847
 11
508.610578
 21
1039.143321
  0
ARC
  5
31A
100
AcDbEntity
  8
M0
 62
   114
100
AcDbCircle
 10
511.226774
 20
1037.375662
 40
5.75
100
AcDbArc
 50
277.813215
 51
460.132308
  0
ARC
  5
31B
100
AcDbEntity
  8
M0
 62
   114
100
AcDbCircle
 10
511.226774
 20
1037.375662
 40
5.25
100
AcDbArc
 50
273.723338
 51
461.812432
  0
LINE
  5
31C
100
AcDbEntity
  8
M0
 62
   114
100
AcDbLine
 10
512.075365
 20
1181.375571
 11
515.339077
 21
1184.639283
  0
LINE
  5
31D
100
AcDbEntity
  8
M0
 62
   114
100
AcDbLine
 10
509.161086
 20
1178.461293
 11
511.226839
 21
1180.527046
  0
LINE
  5
31E
100
AcDbEntity
  8
M0
 62
   114
100
AcDbLine
 10
510.378356
 20
1181.375528
 11
508.312626
 21
1179.309799
  0
LINE
  5
31F
100
AcDbEntity
  8
M0
 62
   114
100
AcDbLine
 10
514.490605
 20
1185.487798
 11
511.226882
 21
1182.224054
  0
LINE
  5
320
100
AcDbEntity
  8
M0
 62
   114
100
AcDbLine
 10
511.226871
 20
1182.224065
 11
509.459104
 21
1183.991832
  0
LINE
  5
321
100
AcDbEntity
  8
M0
 62
   114
100
AcDbLine
 10
513.843132
 20
1179.607804
 11
512.075365
 21
1181.375571
  0
LINE
  5
322
100
AcDbEntity
  8
M0
 62
   114
100
AcDbLine
 10
511.226839
 20
1180.527046
 11
512.994606
 21
1178.759278
  0
LINE
  5
323
100
AcDbEntity
  8
M0
 62
   114
100
AcDbLine
 10
508.610578
 20
1183.143306
 11
510.378345
 21
1181.375539
  0
LINE
  5
324
100
AcDbEntity
  8
M0
 62
   114
100
AcDbLine
 10
512.994606
 20
1178.759278
 11
513.843132
 21
1179.607804
  0
LINE
  5
325
100
AcDbEntity
  8
M0
 62
   114
100
AcDbLine
 10
509.459104
 20
1183.991832
 11
508.610578
 21
1183.143306
  0
ARC
  5
326
100
AcDbEntity
  8
M0
 62
   114
100
AcDbCircle
 10
511.226774
 20
1181.375647
 40
5.25
100
AcDbArc
 50
258.187553
 51
446.274448
  0
ARC
  5
327
100
AcDbEntity
  8
M0
 62
   114
100
AcDbCircle
 10
511.226774
 20
1181.375647
 40
5.75
100
AcDbArc
 50
259.867687
 51
442.18488
  0
LINE
  5
328
100
AcDbEntity
  8
M0
 62
   114
100
AcDbLine
 10
372.07538
 20
1181.375571
 11
374.039348
 21
1183.33954
  0
LINE
  5
329
100
AcDbEntity
  8
M0
 62
   114
100
AcDbLine
 10
367.963142
 20
1177.263334
 11
371.226854
 21
1180.527046
  0
LINE
  5
32A
100
AcDbEntity
  8
M0
 62
   114
100
AcDbLine
 10
370.378371
 20
1181.375528
 11
367.114638
 21
1178.111795
  0
LINE
  5
32B
100
AcDbEntity
  8
M0
 62
   114
100
AcDbLine
 10
373.206868
 20
1184.204038
 11
371.226897
 21
1182.224054
  0
LINE
  5
32C
100
AcDbEntity
  8
M0
 62
   114
100
AcDbLine
 10
371.226886
 20
1182.224065
 11
369.45912
 21
1183.991832
  0
LINE
  5
32D
100
AcDbEntity
  8
M0
 62
   114
100
AcDbLine
 10
373.843147
 20
1179.607804
 11
372.07538
 21
1181.375571
  0
LINE
  5
32E
100
AcDbEntity
  8
M0
 62
   114
100
AcDbLine
 10
371.226854
 20
1180.527046
 11
372.994621
 21
1178.759278
  0
LINE
  5
32F
100
AcDbEntity
  8
M0
 62
   114
100
AcDbLine
 10
368.610594
 20
1183.143306
 11
370.37836
 21
1181.375539
  0
LINE
  5
330
100
AcDbEntity
  8
M0
 62
   114
100
AcDbLine
 10
372.994621
 20
1178.759278
 11
373.843147
 21
1179.607804
  0
LINE
  5
331
100
AcDbEntity
  8
M0
 62
   114
100
AcDbLine
 10
369.45912
 20
1183.991832
 11
368.610594
 21
1183.143306
  0
ARC
  5
332
100
AcDbEntity
  8
M0
 62
   114
100
AcDbCircle
 10
371.226789
 20
1181.375647
 40
5.75
100
AcDbArc
 50
97.815355
 51
280.132157
  0
ARC
  5
333
100
AcDbEntity
  8
M0
 62
   114
100
AcDbCircle
 10
371.226789
 20
1181.375647
 40
5.25
100
AcDbArc
 50
93.725821
 51
281.812271
  0
LINE
  5
334
100
AcDbEntity
  8
M0
 62
   114
100
AcDbLine
 10
372.07538
 20
1037.375587
 11
374.141132
 21
1039.441339
  0
LINE
  5
335
100
AcDbEntity
  8
M0
 62
   114
100
AcDbLine
 10
367.963142
 20
1033.263349
 11
371.226854
 21
1036.527061
  0
LINE
  5
336
100
AcDbEntity
  8
M0
 62
   114
100
AcDbLine
 10
370.378371
 20
1037.375544
 11
367.114638
 21
1034.11181
  0
LINE
  5
337
100
AcDbEntity
  8
M0
 62
   114
100
AcDbLine
 10
373.292621
 20
1040.289806
 11
371.226897
 21
1038.22407
  0
LINE
  5
338
100
AcDbEntity
  8
M0
 62
   114
100
AcDbLine
 10
371.226886
 20
1038.22408
 11
369.45912
 21
1039.991847
  0
LINE
  5
339
100
AcDbEntity
  8
M0
 62
   114
100
AcDbLine
 10
373.843147
 20
1035.60782
 11
372.07538
 21
1037.375587
  0
LINE
  5
33A
100
AcDbEntity
  8
M0
 62
   114
100
AcDbLine
 10
371.226854
 20
1036.527061
 11
372.994621
 21
1034.759294
  0
LINE
  5
33B
100
AcDbEntity
  8
M0
 62
   114
100
AcDbLine
 10
368.610594
 20
1039.143321
 11
370.37836
 21
1037.375554
  0
LINE
  5
33C
100
AcDbEntity
  8
M0
 62
   114
100
AcDbLine
 10
372.994621
 20
1034.759294
 11
373.843147
 21
1035.60782
  0
LINE
  5
33D
100
AcDbEntity
  8
M0
 62
   114
100
AcDbLine
 10
369.45912
 20
1039.991847
 11
368.610594
 21
1039.143321
  0
ARC
  5
33E
100
AcDbEntity
  8
M0
 62
   114
100
AcDbCircle
 10
371.226789
 20
1037.375662
 40
5.75
100
AcDbArc
 50
79.867849
 51
262.186614
  0
ARC
  5
33F
100
AcDbEntity
  8
M0
 62
   114
100
AcDbCircle
 10
371.226789
 20
1037.375662
 40
5.25
100
AcDbArc
 50
78.187745
 51
266.276456
  0
CIRCLE
  5
340
100
AcDbEntity
  8
M0
 62
     2
100
AcDbCircle
 10
441.226831
 20
1204.375753
 40
13.0
  0
CIRCLE
  5
341
100
AcDbEntity
  8
M0
 62
     7
100
AcDbCircle
 10
441.226831
 20
1204.375753
 40
10.75
  0
CIRCLE
  5
342
100
AcDbEntity
  8
M0
 62
     2
100
AcDbCircle
 10
383.226767
 20
1204.37568
 40
13.0
  0
CIRCLE
  5
343
100
AcDbEntity
  8
M0
 62
     7
100
AcDbCircle
 10
383.226767
 20
1204.37568
 40
10.75
  0
CIRCLE
  5
344
100
AcDbEntity
  8
M0
 62
     2
100
AcDbCircle
 10
499.226767
 20
1204.37568
 40
13.0
  0
CIRCLE
  5
345
100
AcDbEntity
  8
M0
 62
     7
100
AcDbCircle
 10
499.226767
 20
1204.37568
 40
10.75
  0
CIRCLE
  5
346
100
AcDbEntity
  8
M0
 62
     2
100
AcDbCircle
 10
499.226774
 20
1014.375407
 40
13.0
  0
CIRCLE
  5
347
100
AcDbEntity
  8
M0
 62
     7
100
AcDbCircle
 10
499.226774
 20
1014.375407
 40
10.75
  0
CIRCLE
  5
348
100
AcDbEntity
  8
M0
 62
     2
100
AcDbCircle
 10
441.226774
 20
1014.375407
 40
13.0
  0
CIRCLE
  5
349
100
AcDbEntity
  8
M0
 62
     7
100
AcDbCircle
 10
441.226774
 20
1014.375407
 40
10.75
  0
CIRCLE
  5
34A
100
AcDbEntity
  8
M0
 62
     2
100
AcDbCircle
 10
383.226774
 20
1014.375407
 40
13.0
  0
CIRCLE
  5
34B
100
AcDbEntity
  8
M0
 62
     7
100
AcDbCircle
 10
383.226774
 20
1014.375407
 40
10.75
  0
CIRCLE
  5
34C
100
AcDbEntity
  8
M0
100
AcDbCircle
 10
366.226767
 20
1131.075651
 40
3.0
  0
LINE
  5
34D
100
AcDbEntity
  8
M0
100
AcDbLine
 10
369.185752
 20
1135.022993
 11
370.001914
 21
1132.3757
  0
LINE
  5
34E
100
AcDbEntity
  8
M0
100
AcDbLine
 10
369.185752
 20
1127.128401
 11
370.001914
 21
1129.775725
  0
LINE
  5
34F
100
AcDbEntity
  8
M0
100
AcDbLine
 10
363.268271
 20
1135.023008
 11
362.451865
 21
1132.3757
  0
LINE
  5
350
100
AcDbEntity
  8
M0
100
AcDbLine
 10
363.268271
 20
1127.128386
 11
362.451865
 21
1129.775725
  0
LINE
  5
351
100
AcDbEntity
  8
M0
100
AcDbLine
 10
368.707724
 20
1126.775725
 11
363.746054
 21
1126.775725
  0
LINE
  5
352
100
AcDbEntity
  8
M0
100
AcDbLine
 10
362.451865
 20
1129.775725
 11
362.451865
 21
1132.3757
  0
LINE
  5
353
100
AcDbEntity
  8
M0
100
AcDbLine
 10
363.746054
 20
1135.3757
 11
368.707724
 21
1135.375684
  0
LINE
  5
354
100
AcDbEntity
  8
M0
100
AcDbLine
 10
370.001914
 20
1132.3757
 11
370.001914
 21
1129.775725
  0
ARC
  5
355
100
AcDbEntity
  8
M0
100
AcDbCircle
 10
368.707724
 20
1134.875684
 40
0.5
100
AcDbArc
 50
17.127146
 51
90.0
  0
ARC
  5
356
100
AcDbEntity
  8
M0
100
AcDbCircle
 10
368.707724
 20
1127.275725
 40
0.5
100
AcDbArc
 50
270.0
 51
342.871263
  0
ARC
  5
357
100
AcDbEntity
  8
M0
100
AcDbCircle
 10
363.746054
 20
1127.275725
 40
0.5
100
AcDbArc
 50
197.138555
 51
270.0
  0
ARC
  5
358
100
AcDbEntity
  8
M0
100
AcDbCircle
 10
363.746054
 20
1134.875684
 40
0.5
100
AcDbArc
 50
90.0
 51
162.862931
  0
CIRCLE
  5
359
100
AcDbEntity
  8
M0
100
AcDbCircle
 10
366.226764
 20
1140.575651
 40
3.0
  0
LINE
  5
35A
100
AcDbEntity
  8
M0
100
AcDbLine
 10
369.185749
 20
1144.522993
 11
370.001911
 21
1141.8757
  0
LINE
  5
35B
100
AcDbEntity
  8
M0
100
AcDbLine
 10
369.185749
 20
1136.628401
 11
370.001911
 21
1139.275725
  0
LINE
  5
35C
100
AcDbEntity
  8
M0
100
AcDbLine
 10
363.268268
 20
1144.523008
 11
362.451862
 21
1141.8757
  0
LINE
  5
35D
100
AcDbEntity
  8
M0
100
AcDbLine
 10
363.268268
 20
1136.628386
 11
362.451862
 21
1139.275725
  0
LINE
  5
35E
100
AcDbEntity
  8
M0
100
AcDbLine
 10
368.707721
 20
1136.275725
 11
363.746051
 21
1136.275725
  0
LINE
  5
35F
100
AcDbEntity
  8
M0
100
AcDbLine
 10
362.451862
 20
1139.275725
 11
362.451862
 21
1141.8757
  0
LINE
  5
360
100
AcDbEntity
  8
M0
100
AcDbLine
 10
363.746051
 20
1144.8757
 11
368.707721
 21
1144.875684
  0
LINE
  5
361
100
AcDbEntity
  8
M0
100
AcDbLine
 10
370.001911
 20
1141.8757
 11
370.001911
 21
1139.275725
  0
ARC
  5
362
100
AcDbEntity
  8
M0
100
AcDbCircle
 10
368.707721
 20
1144.375684
 40
0.5
100
AcDbArc
 50
17.127146
 51
90.0
  0
ARC
  5
363
100
AcDbEntity
  8
M0
100
AcDbCircle
 10
368.707721
 20
1136.775725
 40
0.5
100
AcDbArc
 50
270.0
 51
342.871263
  0
ARC
  5
364
100
AcDbEntity
  8
M0
100
AcDbCircle
 10
363.746051
 20
1136.775725
 40
0.5
100
AcDbArc
 50
197.138555
 51
270.0
  0
ARC
  5
365
100
AcDbEntity
  8
M0
100
AcDbCircle
 10
363.746051
 20
1144.375684
 40
0.5
100
AcDbArc
 50
90.0
 51
162.862931
  0
CIRCLE
  5
366
100
AcDbEntity
  8
M0
100
AcDbCircle
 10
366.226767
 20
1110.075651
 40
3.0
  0
LINE
  5
367
100
AcDbEntity
  8
M0
100
AcDbLine
 10
369.185752
 20
1106.128309
 11
370.001914
 21
1108.775602
  0
LINE
  5
368
100
AcDbEntity
  8
M0
100
AcDbLine
 10
369.185752
 20
1114.0229
 11
370.001914
 21
1111.375577
  0
LINE
  5
369
100
AcDbEntity
  8
M0
100
AcDbLine
 10
363.268271
 20
1106.128294
 11
362.451865
 21
1108.775602
  0
LINE
  5
36A
100
AcDbEntity
  8
M0
100
AcDbLine
 10
363.268271
 20
1114.022916
 11
362.451865
 21
1111.375577
  0
LINE
  5
36B
100
AcDbEntity
  8
M0
100
AcDbLine
 10
368.707724
 20
1114.375577
 11
363.746054
 21
1114.375577
  0
LINE
  5
36C
100
AcDbEntity
  8
M0
100
AcDbLine
 10
362.451865
 20
1111.375577
 11
362.451865
 21
1108.775602
  0
LINE
  5
36D
100
AcDbEntity
  8
M0
100
AcDbLine
 10
363.746054
 20
1105.775602
 11
368.707724
 21
1105.775617
  0
LINE
  5
36E
100
AcDbEntity
  8
M0
100
AcDbLine
 10
370.001914
 20
1108.775602
 11
370.001914
 21
1111.375577
  0
ARC
  5
36F
100
AcDbEntity
  8
M0
100
AcDbCircle
 10
368.707724
 20
1106.275617
 40
0.5
100
AcDbArc
 50
270.0
 51
342.872854
  0
ARC
  5
370
100
AcDbEntity
  8
M0
100
AcDbCircle
 10
368.707724
 20
1113.875577
 40
0.5
100
AcDbArc
 50
17.128737
 51
90.0
  0
ARC
  5
371
100
AcDbEntity
  8
M0
100
AcDbCircle
 10
363.746054
 20
1113.875577
 40
0.5
100
AcDbArc
 50
90.0
 51
162.861445
  0
ARC
  5
372
100
AcDbEntity
  8
M0
100
AcDbCircle
 10
363.746054
 20
1106.275617
 40
0.5
100
AcDbArc
 50
197.137069
 51
270.0
  0
CIRCLE
  5
373
100
AcDbEntity
  8
M0
100
AcDbCircle
 10
366.226764
 20
1100.575651
 40
3.0
  0
LINE
  5
374
100
AcDbEntity
  8
M0
100
AcDbLine
 10
369.185749
 20
1096.628309
 11
370.001911
 21
1099.275602
  0
LINE
  5
375
100
AcDbEntity
  8
M0
100
AcDbLine
 10
369.185749
 20
1104.5229
 11
370.001911
 21
1101.875577
  0
LINE
  5
376
100
AcDbEntity
  8
M0
100
AcDbLine
 10
363.268268
 20
1096.628294
 11
362.451862
 21
1099.275602
  0
LINE
  5
377
100
AcDbEntity
  8
M0
100
AcDbLine
 10
363.268268
 20
1104.522916
 11
362.451862
 21
1101.875577
  0
LINE
  5
378
100
AcDbEntity
  8
M0
100
AcDbLine
 10
368.707721
 20
1104.875577
 11
363.746051
 21
1104.875577
  0
LINE
  5
379
100
AcDbEntity
  8
M0
100
AcDbLine
 10
362.451862
 20
1101.875577
 11
362.451862
 21
1099.275602
  0
LINE
  5
37A
100
AcDbEntity
  8
M0
100
AcDbLine
 10
363.746051
 20
1096.275602
 11
368.707721
 21
1096.275617
  0
LINE
  5
37B
100
AcDbEntity
  8
M0
100
AcDbLine
 10
370.001911
 20
1099.275602
 11
370.001911
 21
1101.875577
  0
ARC
  5
37C
100
AcDbEntity
  8
M0
100
AcDbCircle
 10
368.707721
 20
1096.775617
 40
0.5
100
AcDbArc
 50
270.0
 51
342.872854
  0
ARC
  5
37D
100
AcDbEntity
  8
M0
100
AcDbCircle
 10
368.707721
 20
1104.375577
 40
0.5
100
AcDbArc
 50
17.128737
 51
90.0
  0
ARC
  5
37E
100
AcDbEntity
  8
M0
100
AcDbCircle
 10
363.746051
 20
1104.375577
 40
0.5
100
AcDbArc
 50
90.0
 51
162.861445
  0
ARC
  5
37F
100
AcDbEntity
  8
M0
100
AcDbCircle
 10
363.746051
 20
1096.775617
 40
0.5
100
AcDbArc
 50
197.137069
 51
270.0
  0
LINE
  5
380
100
AcDbEntity
  8
M0
 62
   234
100
AcDbLine
 10
510.226782
 20
1147.075648
 11
510.226766
 21
1094.075653
  0
LINE
  5
381
100
AcDbEntity
  8
M0
 62
   234
100
AcDbLine
 10
520.226782
 20
1147.075645
 11
510.226782
 21
1147.075648
  0
LINE
  5
382
100
AcDbEntity
  8
M0
 62
   234
100
AcDbLine
 10
520.226766
 20
1094.07565
 11
510.226766
 21
1094.075653
  0
LINE
  5
383
100
AcDbEntity
  8
M0
 62
   234
100
AcDbLine
 10
510.226766
 20
1094.075653
 11
520.226766
 21
1094.07565
  0
LINE
  5
384
100
AcDbEntity
  8
M0
 62
   234
100
AcDbLine
 10
522.226765
 20
1091.57566
 11
522.226783
 21
1149.575644
  0
CIRCLE
  5
385
100
AcDbEntity
  8
M0
 62
   234
100
AcDbCircle
 10
513.226784
 20
1151.575647
 40
2.25
  0
LINE
  5
386
100
AcDbEntity
  8
M0
 62
   234
100
AcDbLine
 10
520.726783
 20
1149.575645
 11
522.226783
 21
1149.575644
  0
ARC
  5
387
100
AcDbEntity
  8
M0
 62
   234
100
AcDbCircle
 10
520.726783
 20
1149.075645
 40
0.5
100
AcDbArc
 50
90.0
 51
180.001731
  0
LINE
  5
388
100
AcDbEntity
  8
M0
 62
   234
100
AcDbLine
 10
517.726782
 20
1147.075646
 11
517.726784
 21
1151.575646
  0
ARC
  5
389
100
AcDbEntity
  8
M0
 62
   234
100
AcDbCircle
 10
513.726784
 20
1151.575647
 40
4.0
100
AcDbArc
 50
359.999982
 51
450.0
  0
LINE
  5
38A
100
AcDbEntity
  8
M0
 62
   234
100
AcDbLine
 10
510.226785
 20
1155.575648
 11
513.726785
 21
1155.575647
  0
LINE
  5
38B
100
AcDbEntity
  8
M0
 62
   234
100
AcDbLine
 10
520.226776
 20
1126.075645
 11
512.226776
 21
1126.075647
  0
LINE
  5
38C
100
AcDbEntity
  8
M0
 62
   234
100
AcDbLine
 10
510.226773
 20
1116.825652
 11
522.226773
 21
1116.825648
  0
LINE
  5
38D
100
AcDbEntity
  8
M0
 62
   234
100
AcDbLine
 10
510.226775
 20
1124.325652
 11
522.226775
 21
1124.325648
  0
LINE
  5
38E
100
AcDbEntity
  8
M0
 62
   234
100
AcDbLine
 10
520.226783
 20
1149.075645
 11
520.226776
 21
1126.075645
  0
LINE
  5
38F
100
AcDbEntity
  8
M0
 62
   234
100
AcDbLine
 10
512.226782
 20
1147.075647
 11
512.226776
 21
1126.075647
  0
LINE
  5
390
100
AcDbEntity
  8
M0
 62
   234
100
AcDbLine
 10
512.226772
 20
1115.075651
 11
512.226766
 21
1094.075652
  0
LINE
  5
391
100
AcDbEntity
  8
M0
 62
   234
100
AcDbLine
 10
518.226775
 20
1124.325649
 11
518.226775
 21
1123.325649
  0
LINE
  5
392
100
AcDbEntity
  8
M0
 62
   234
100
AcDbLine
 10
521.226775
 20
1123.325648
 11
518.226775
 21
1123.325649
  0
LINE
  5
393
100
AcDbEntity
  8
M0
 62
   234
100
AcDbLine
 10
521.226775
 20
1124.325648
 11
521.226773
 21
1116.825648
  0
LINE
  5
394
100
AcDbEntity
  8
M0
 62
   234
100
AcDbLine
 10
521.226773
 20
1117.825648
 11
518.226773
 21
1117.825649
  0
LINE
  5
395
100
AcDbEntity
  8
M0
 62
   234
100
AcDbLine
 10
518.226773
 20
1117.825649
 11
518.226773
 21
1116.825649
  0
LINE
  5
396
100
AcDbEntity
  8
M0
 62
   234
100
AcDbLine
 10
513.726775
 20
1123.325651
 11
513.726773
 21
1117.825651
  0
LINE
  5
397
100
AcDbEntity
  8
M0
 62
   234
100
AcDbLine
 10
515.226775
 20
1124.32565
 11
515.226773
 21
1116.82565
  0
LINE
  5
398
100
AcDbEntity
  8
M0
 62
   234
100
AcDbLine
 10
515.226773
 20
1117.82565
 11
510.226773
 21
1117.825652
  0
LINE
  5
399
100
AcDbEntity
  8
M0
 62
   234
100
AcDbLine
 10
515.226775
 20
1123.32565
 11
510.226775
 21
1123.325652
  0
LINE
  5
39A
100
AcDbEntity
  8
M0
 62
   234
100
AcDbLine
 10
517.726766
 20
1094.075651
 11
517.726764
 21
1089.575661
  0
ARC
  5
39B
100
AcDbEntity
  8
M0
 62
   234
100
AcDbCircle
 10
513.726764
 20
1089.575662
 40
4.0
100
AcDbArc
 50
-90.0
 51
0.000201
  0
LINE
  5
39C
100
AcDbEntity
  8
M0
 62
   234
100
AcDbLine
 10
510.226763
 20
1085.575663
 11
513.726763
 21
1085.575662
  0
ARC
  5
39D
100
AcDbEntity
  8
M0
 62
   234
100
AcDbCircle
 10
520.726765
 20
1092.07566
 40
0.5
100
AcDbArc
 50
179.999982
 51
270.0
  0
LINE
  5
39E
100
AcDbEntity
  8
M0
 62
   234
100
AcDbLine
 10
520.726765
 20
1091.57566
 11
522.226765
 21
1091.57566
  0
LINE
  5
39F
100
AcDbEntity
  8
M0
 62
   234
100
AcDbLine
 10
520.226772
 20
1115.075649
 11
520.226765
 21
1092.07566
  0
LINE
  5
3A0
100
AcDbEntity
  8
M0
 62
   234
100
AcDbLine
 10
520.226772
 20
1115.075649
 11
512.226772
 21
1115.075651
  0
CIRCLE
  5
3A1
100
AcDbEntity
  8
M0
100
AcDbCircle
 10
516.226784
 20
1100.575651
 40
3.0
  0
LINE
  5
3A2
100
AcDbEntity
  8
M0
100
AcDbLine
 10
513.267799
 20
1096.628309
 11
512.451637
 21
1099.275602
  0
LINE
  5
3A3
100
AcDbEntity
  8
M0
100
AcDbLine
 10
513.267799
 20
1104.5229
 11
512.451637
 21
1101.875577
  0
LINE
  5
3A4
100
AcDbEntity
  8
M0
100
AcDbLine
 10
519.18528
 20
1096.628294
 11
520.001686
 21
1099.275602
  0
LINE
  5
3A5
100
AcDbEntity
  8
M0
100
AcDbLine
 10
519.18528
 20
1104.522916
 11
520.001686
 21
1101.875577
  0
LINE
  5
3A6
100
AcDbEntity
  8
M0
100
AcDbLine
 10
513.745827
 20
1104.875577
 11
518.707497
 21
1104.875577
  0
LINE
  5
3A7
100
AcDbEntity
  8
M0
100
AcDbLine
 10
520.001686
 20
1101.875577
 11
520.001686
 21
1099.275602
  0
LINE
  5
3A8
100
AcDbEntity
  8
M0
100
AcDbLine
 10
518.707497
 20
1096.275602
 11
513.745827
 21
1096.275617
  0
LINE
  5
3A9
100
AcDbEntity
  8
M0
100
AcDbLine
 10
512.451637
 20
1099.275602
 11
512.451637
 21
1101.875577
  0
ARC
  5
3AA
100
AcDbEntity
  8
M0
100
AcDbCircle
 10
513.745827
 20
1096.775617
 40
0.5
100
AcDbArc
 50
197.127146
 51
270.0
  0
ARC
  5
3AB
100
AcDbEntity
  8
M0
100
AcDbCircle
 10
513.745827
 20
1104.375577
 40
0.5
100
AcDbArc
 50
90.0
 51
162.871263
  0
ARC
  5
3AC
100
AcDbEntity
  8
M0
100
AcDbCircle
 10
518.707497
 20
1104.375577
 40
0.5
100
AcDbArc
 50
17.138555
 51
90.0
  0
ARC
  5
3AD
100
AcDbEntity
  8
M0
100
AcDbCircle
 10
518.707497
 20
1096.775617
 40
0.5
100
AcDbArc
 50
270.0
 51
342.862931
  0
CIRCLE
  5
3AE
100
AcDbEntity
  8
M0
100
AcDbCircle
 10
516.226781
 20
1110.075651
 40
3.0
  0
LINE
  5
3AF
100
AcDbEntity
  8
M0
100
AcDbLine
 10
513.267796
 20
1106.128309
 11
512.451634
 21
1108.775602
  0
LINE
  5
3B0
100
AcDbEntity
  8
M0
100
AcDbLine
 10
513.267796
 20
1114.0229
 11
512.451634
 21
1111.375577
  0
LINE
  5
3B1
100
AcDbEntity
  8
M0
100
AcDbLine
 10
519.185277
 20
1106.128294
 11
520.001683
 21
1108.775602
  0
LINE
  5
3B2
100
AcDbEntity
  8
M0
100
AcDbLine
 10
519.185277
 20
1114.022916
 11
520.001683
 21
1111.375577
  0
LINE
  5
3B3
100
AcDbEntity
  8
M0
100
AcDbLine
 10
513.745824
 20
1114.375577
 11
518.707494
 21
1114.375577
  0
LINE
  5
3B4
100
AcDbEntity
  8
M0
100
AcDbLine
 10
520.001683
 20
1111.375577
 11
520.001683
 21
1108.775602
  0
LINE
  5
3B5
100
AcDbEntity
  8
M0
100
AcDbLine
 10
518.707494
 20
1105.775602
 11
513.745824
 21
1105.775617
  0
LINE
  5
3B6
100
AcDbEntity
  8
M0
100
AcDbLine
 10
512.451634
 20
1108.775602
 11
512.451634
 21
1111.375577
  0
ARC
  5
3B7
100
AcDbEntity
  8
M0
100
AcDbCircle
 10
513.745824
 20
1106.275617
 40
0.5
100
AcDbArc
 50
197.127146
 51
270.0
  0
ARC
  5
3B8
100
AcDbEntity
  8
M0
100
AcDbCircle
 10
513.745824
 20
1113.875577
 40
0.5
100
AcDbArc
 50
90.0
 51
162.871263
  0
ARC
  5
3B9
100
AcDbEntity
  8
M0
100
AcDbCircle
 10
518.707494
 20
1113.875577
 40
0.5
100
AcDbArc
 50
17.138555
 51
90.0
  0
ARC
  5
3BA
100
AcDbEntity
  8
M0
100
AcDbCircle
 10
518.707494
 20
1106.275617
 40
0.5
100
AcDbArc
 50
270.0
 51
342.862931
  0
CIRCLE
  5
3BB
100
AcDbEntity
  8
M0
100
AcDbCircle
 10
516.226781
 20
1131.075651
 40
3.0
  0
LINE
  5
3BC
100
AcDbEntity
  8
M0
100
AcDbLine
 10
513.267796
 20
1135.022993
 11
512.451634
 21
1132.3757
  0
LINE
  5
3BD
100
AcDbEntity
  8
M0
100
AcDbLine
 10
513.267796
 20
1127.128401
 11
512.451634
 21
1129.775725
  0
LINE
  5
3BE
100
AcDbEntity
  8
M0
100
AcDbLine
 10
519.185277
 20
1135.023008
 11
520.001683
 21
1132.3757
  0
LINE
  5
3BF
100
AcDbEntity
  8
M0
100
AcDbLine
 10
519.185277
 20
1127.128386
 11
520.001683
 21
1129.775725
  0
LINE
  5
3C0
100
AcDbEntity
  8
M0
100
AcDbLine
 10
513.745824
 20
1126.775725
 11
518.707494
 21
1126.775725
  0
LINE
  5
3C1
100
AcDbEntity
  8
M0
100
AcDbLine
 10
520.001683
 20
1129.775725
 11
520.001683
 21
1132.3757
  0
LINE
  5
3C2
100
AcDbEntity
  8
M0
100
AcDbLine
 10
518.707494
 20
1135.3757
 11
513.745824
 21
1135.375684
  0
LINE
  5
3C3
100
AcDbEntity
  8
M0
100
AcDbLine
 10
512.451634
 20
1132.3757
 11
512.451634
 21
1129.775725
  0
ARC
  5
3C4
100
AcDbEntity
  8
M0
100
AcDbCircle
 10
513.745824
 20
1134.875684
 40
0.5
100
AcDbArc
 50
90.0
 51
162.872854
  0
ARC
  5
3C5
100
AcDbEntity
  8
M0
100
AcDbCircle
 10
513.745824
 20
1127.275725
 40
0.5
100
AcDbArc
 50
197.128737
 51
270.0
  0
ARC
  5
3C6
100
AcDbEntity
  8
M0
100
AcDbCircle
 10
518.707494
 20
1127.275725
 40
0.5
100
AcDbArc
 50
270.0
 51
342.861445
  0
ARC
  5
3C7
100
AcDbEntity
  8
M0
100
AcDbCircle
 10
518.707494
 20
1134.875684
 40
0.5
100
AcDbArc
 50
17.137069
 51
90.0
  0
CIRCLE
  5
3C8
100
AcDbEntity
  8
M0
100
AcDbCircle
 10
516.226784
 20
1140.575651
 40
3.0
  0
LINE
  5
3C9
100
AcDbEntity
  8
M0
100
AcDbLine
 10
513.267799
 20
1144.522993
 11
512.451637
 21
1141.8757
  0
LINE
  5
3CA
100
AcDbEntity
  8
M0
100
AcDbLine
 10
513.267799
 20
1136.628401
 11
512.451637
 21
1139.275725
  0
LINE
  5
3CB
100
AcDbEntity
  8
M0
100
AcDbLine
 10
519.18528
 20
1144.523008
 11
520.001686
 21
1141.8757
  0
LINE
  5
3CC
100
AcDbEntity
  8
M0
100
AcDbLine
 10
519.18528
 20
1136.628386
 11
520.001686
 21
1139.275725
  0
LINE
  5
3CD
100
AcDbEntity
  8
M0
100
AcDbLine
 10
513.745827
 20
1136.275725
 11
518.707497
 21
1136.275725
  0
LINE
  5
3CE
100
AcDbEntity
  8
M0
100
AcDbLine
 10
520.001686
 20
1139.275725
 11
520.001686
 21
1141.8757
  0
LINE
  5
3CF
100
AcDbEntity
  8
M0
100
AcDbLine
 10
518.707497
 20
1144.8757
 11
513.745827
 21
1144.875684
  0
LINE
  5
3D0
100
AcDbEntity
  8
M0
100
AcDbLine
 10
512.451637
 20
1141.8757
 11
512.451637
 21
1139.275725
  0
ARC
  5
3D1
100
AcDbEntity
  8
M0
100
AcDbCircle
 10
513.745827
 20
1144.375684
 40
0.5
100
AcDbArc
 50
90.0
 51
162.872854
  0
ARC
  5
3D2
100
AcDbEntity
  8
M0
100
AcDbCircle
 10
513.745827
 20
1136.775725
 40
0.5
100
AcDbArc
 50
197.128737
 51
270.0
  0
ARC
  5
3D3
100
AcDbEntity
  8
M0
100
AcDbCircle
 10
518.707497
 20
1136.775725
 40
0.5
100
AcDbArc
 50
270.0
 51
342.861445
  0
ARC
  5
3D4
100
AcDbEntity
  8
M0
100
AcDbCircle
 10
518.707497
 20
1144.375684
 40
0.5
100
AcDbArc
 50
17.137069
 51
90.0
  0
CIRCLE
  5
3D5
100
AcDbEntity
  8
M0
100
AcDbCircle
 10
528.226784
 20
1140.575651
 40
3.0
  0
LINE
  5
3D6
100
AcDbEntity
  8
M0
100
AcDbLine
 10
525.2678
 20
1144.522993
 11
524.451638
 21
1141.8757
  0
LINE
  5
3D7
100
AcDbEntity
  8
M0
100
AcDbLine
 10
525.2678
 20
1136.628401
 11
524.451638
 21
1139.275725
  0
LINE
  5
3D8
100
AcDbEntity
  8
M0
100
AcDbLine
 10
531.185281
 20
1144.523008
 11
532.001687
 21
1141.8757
  0
LINE
  5
3D9
100
AcDbEntity
  8
M0
100
AcDbLine
 10
531.185281
 20
1136.628386
 11
532.001687
 21
1139.275725
  0
LINE
  5
3DA
100
AcDbEntity
  8
M0
100
AcDbLine
 10
525.745827
 20
1136.275725
 11
530.707497
 21
1136.275725
  0
LINE
  5
3DB
100
AcDbEntity
  8
M0
100
AcDbLine
 10
532.001687
 20
1139.275725
 11
532.001687
 21
1141.8757
  0
LINE
  5
3DC
100
AcDbEntity
  8
M0
100
AcDbLine
 10
530.707497
 20
1144.8757
 11
525.745827
 21
1144.875684
  0
LINE
  5
3DD
100
AcDbEntity
  8
M0
100
AcDbLine
 10
524.451638
 20
1141.8757
 11
524.451638
 21
1139.275725
  0
ARC
  5
3DE
100
AcDbEntity
  8
M0
100
AcDbCircle
 10
525.745827
 20
1144.375684
 40
0.5
100
AcDbArc
 50
90.0
 51
162.872854
  0
ARC
  5
3DF
100
AcDbEntity
  8
M0
100
AcDbCircle
 10
525.745827
 20
1136.775725
 40
0.5
100
AcDbArc
 50
197.128737
 51
270.0
  0
ARC
  5
3E0
100
AcDbEntity
  8
M0
100
AcDbCircle
 10
530.707497
 20
1136.775725
 40
0.5
100
AcDbArc
 50
270.0
 51
342.861445
  0
ARC
  5
3E1
100
AcDbEntity
  8
M0
100
AcDbCircle
 10
530.707497
 20
1144.375684
 40
0.5
100
AcDbArc
 50
17.137069
 51
90.0
  0
CIRCLE
  5
3E2
100
AcDbEntity
  8
M0
100
AcDbCircle
 10
528.226781
 20
1131.075651
 40
3.0
  0
LINE
  5
3E3
100
AcDbEntity
  8
M0
100
AcDbLine
 10
525.267797
 20
1135.022993
 11
524.451635
 21
1132.3757
  0
LINE
  5
3E4
100
AcDbEntity
  8
M0
100
AcDbLine
 10
525.267797
 20
1127.128401
 11
524.451635
 21
1129.775725
  0
LINE
  5
3E5
100
AcDbEntity
  8
M0
100
AcDbLine
 10
531.185278
 20
1135.023008
 11
532.001684
 21
1132.3757
  0
LINE
  5
3E6
100
AcDbEntity
  8
M0
100
AcDbLine
 10
531.185278
 20
1127.128386
 11
532.001684
 21
1129.775725
  0
LINE
  5
3E7
100
AcDbEntity
  8
M0
100
AcDbLine
 10
525.745824
 20
1126.775725
 11
530.707494
 21
1126.775725
  0
LINE
  5
3E8
100
AcDbEntity
  8
M0
100
AcDbLine
 10
532.001684
 20
1129.775725
 11
532.001684
 21
1132.3757
  0
LINE
  5
3E9
100
AcDbEntity
  8
M0
100
AcDbLine
 10
530.707494
 20
1135.3757
 11
525.745824
 21
1135.375684
  0
LINE
  5
3EA
100
AcDbEntity
  8
M0
100
AcDbLine
 10
524.451635
 20
1132.3757
 11
524.451635
 21
1129.775725
  0
ARC
  5
3EB
100
AcDbEntity
  8
M0
100
AcDbCircle
 10
525.745824
 20
1134.875684
 40
0.5
100
AcDbArc
 50
90.0
 51
162.872854
  0
ARC
  5
3EC
100
AcDbEntity
  8
M0
100
AcDbCircle
 10
525.745824
 20
1127.275725
 40
0.5
100
AcDbArc
 50
197.128737
 51
270.0
  0
ARC
  5
3ED
100
AcDbEntity
  8
M0
100
AcDbCircle
 10
530.707494
 20
1127.275725
 40
0.5
100
AcDbArc
 50
270.0
 51
342.861445
  0
ARC
  5
3EE
100
AcDbEntity
  8
M0
100
AcDbCircle
 10
530.707494
 20
1134.875684
 40
0.5
100
AcDbArc
 50
17.137069
 51
90.0
  0
CIRCLE
  5
3EF
100
AcDbEntity
  8
M0
100
AcDbCircle
 10
528.226781
 20
1110.075651
 40
3.0
  0
LINE
  5
3F0
100
AcDbEntity
  8
M0
100
AcDbLine
 10
525.267797
 20
1106.128309
 11
524.451635
 21
1108.775602
  0
LINE
  5
3F1
100
AcDbEntity
  8
M0
100
AcDbLine
 10
525.267797
 20
1114.0229
 11
524.451635
 21
1111.375577
  0
LINE
  5
3F2
100
AcDbEntity
  8
M0
100
AcDbLine
 10
531.185278
 20
1106.128294
 11
532.001684
 21
1108.775602
  0
LINE
  5
3F3
100
AcDbEntity
  8
M0
100
AcDbLine
 10
531.185278
 20
1114.022916
 11
532.001684
 21
1111.375577
  0
LINE
  5
3F4
100
AcDbEntity
  8
M0
100
AcDbLine
 10
525.745824
 20
1114.375577
 11
530.707494
 21
1114.375577
  0
LINE
  5
3F5
100
AcDbEntity
  8
M0
100
AcDbLine
 10
532.001684
 20
1111.375577
 11
532.001684
 21
1108.775602
  0
LINE
  5
3F6
100
AcDbEntity
  8
M0
100
AcDbLine
 10
530.707494
 20
1105.775602
 11
525.745824
 21
1105.775617
  0
LINE
  5
3F7
100
AcDbEntity
  8
M0
100
AcDbLine
 10
524.451635
 20
1108.775602
 11
524.451635
 21
1111.375577
  0
ARC
  5
3F8
100
AcDbEntity
  8
M0
100
AcDbCircle
 10
525.745824
 20
1106.275617
 40
0.5
100
AcDbArc
 50
197.127146
 51
270.0
  0
ARC
  5
3F9
100
AcDbEntity
  8
M0
100
AcDbCircle
 10
525.745824
 20
1113.875577
 40
0.5
100
AcDbArc
 50
90.0
 51
162.871263
  0
ARC
  5
3FA
100
AcDbEntity
  8
M0
100
AcDbCircle
 10
530.707494
 20
1113.875577
 40
0.5
100
AcDbArc
 50
17.138555
 51
90.0
  0
ARC
  5
3FB
100
AcDbEntity
  8
M0
100
AcDbCircle
 10
530.707494
 20
1106.275617
 40
0.5
100
AcDbArc
 50
270.0
 51
342.862931
  0
CIRCLE
  5
3FC
100
AcDbEntity
  8
M0
100
AcDbCircle
 10
528.226784
 20
1100.575651
 40
3.0
  0
LINE
  5
3FD
100
AcDbEntity
  8
M0
100
AcDbLine
 10
525.2678
 20
1096.628309
 11
524.451638
 21
1099.275602
  0
LINE
  5
3FE
100
AcDbEntity
  8
M0
100
AcDbLine
 10
525.2678
 20
1104.5229
 11
524.451638
 21
1101.875577
  0
LINE
  5
3FF
100
AcDbEntity
  8
M0
100
AcDbLine
 10
531.185281
 20
1096.628294
 11
532.001687
 21
1099.275602
  0
LINE
  5
400
100
AcDbEntity
  8
M0
100
AcDbLine
 10
531.185281
 20
1104.522916
 11
532.001687
 21
1101.875577
  0
LINE
  5
401
100
AcDbEntity
  8
M0
100
AcDbLine
 10
525.745827
 20
1104.875577
 11
530.707497
 21
1104.875577
  0
LINE
  5
402
100
AcDbEntity
  8
M0
100
AcDbLine
 10
532.001687
 20
1101.875577
 11
532.001687
 21
1099.275602
  0
LINE
  5
403
100
AcDbEntity
  8
M0
100
AcDbLine
 10
530.707497
 20
1096.275602
 11
525.745827
 21
1096.275617
  0
LINE
  5
404
100
AcDbEntity
  8
M0
100
AcDbLine
 10
524.451638
 20
1099.275602
 11
524.451638
 21
1101.875577
  0
ARC
  5
405
100
AcDbEntity
  8
M0
100
AcDbCircle
 10
525.745827
 20
1096.775617
 40
0.5
100
AcDbArc
 50
197.127146
 51
270.0
  0
ARC
  5
406
100
AcDbEntity
  8
M0
100
AcDbCircle
 10
525.745827
 20
1104.375577
 40
0.5
100
AcDbArc
 50
90.0
 51
162.871263
  0
ARC
  5
407
100
AcDbEntity
  8
M0
100
AcDbCircle
 10
530.707497
 20
1104.375577
 40
0.5
100
AcDbArc
 50
17.138555
 51
90.0
  0
ARC
  5
408
100
AcDbEntity
  8
M0
100
AcDbCircle
 10
530.707497
 20
1096.775617
 40
0.5
100
AcDbArc
 50
270.0
 51
342.862931
  0
CIRCLE
  5
409
100
AcDbEntity
  8
M0
100
AcDbCircle
 10
540.726777
 20
1100.375651
 40
3.0
  0
LINE
  5
40A
100
AcDbEntity
  8
M0
100
AcDbLine
 10
537.767793
 20
1096.428309
 11
536.951631
 21
1099.075602
  0
LINE
  5
40B
100
AcDbEntity
  8
M0
100
AcDbLine
 10
537.767793
 20
1104.3229
 11
536.951631
 21
1101.675577
  0
LINE
  5
40C
100
AcDbEntity
  8
M0
100
AcDbLine
 10
543.685274
 20
1096.428294
 11
544.50168
 21
1099.075602
  0
LINE
  5
40D
100
AcDbEntity
  8
M0
100
AcDbLine
 10
543.685274
 20
1104.322916
 11
544.50168
 21
1101.675577
  0
LINE
  5
40E
100
AcDbEntity
  8
M0
100
AcDbLine
 10
538.24582
 20
1104.675577
 11
543.20749
 21
1104.675577
  0
LINE
  5
40F
100
AcDbEntity
  8
M0
100
AcDbLine
 10
544.50168
 20
1101.675577
 11
544.50168
 21
1099.075602
  0
LINE
  5
410
100
AcDbEntity
  8
M0
100
AcDbLine
 10
543.20749
 20
1096.075602
 11
538.24582
 21
1096.075617
  0
LINE
  5
411
100
AcDbEntity
  8
M0
100
AcDbLine
 10
536.951631
 20
1099.075602
 11
536.951631
 21
1101.675577
  0
ARC
  5
412
100
AcDbEntity
  8
M0
100
AcDbCircle
 10
538.24582
 20
1096.575617
 40
0.5
100
AcDbArc
 50
197.127146
 51
270.0
  0
ARC
  5
413
100
AcDbEntity
  8
M0
100
AcDbCircle
 10
538.24582
 20
1104.175577
 40
0.5
100
AcDbArc
 50
90.0
 51
162.871263
  0
ARC
  5
414
100
AcDbEntity
  8
M0
100
AcDbCircle
 10
543.20749
 20
1104.175577
 40
0.5
100
AcDbArc
 50
17.138555
 51
90.0
  0
ARC
  5
415
100
AcDbEntity
  8
M0
100
AcDbCircle
 10
543.20749
 20
1096.575617
 40
0.5
100
AcDbArc
 50
270.0
 51
342.862931
  0
CIRCLE
  5
416
100
AcDbEntity
  8
M0
100
AcDbCircle
 10
540.72679
 20
1140.375651
 40
3.0
  0
LINE
  5
417
100
AcDbEntity
  8
M0
100
AcDbLine
 10
537.767806
 20
1136.428309
 11
536.951644
 21
1139.075602
  0
LINE
  5
418
100
AcDbEntity
  8
M0
100
AcDbLine
 10
537.767806
 20
1144.3229
 11
536.951644
 21
1141.675577
  0
LINE
  5
419
100
AcDbEntity
  8
M0
100
AcDbLine
 10
543.685286
 20
1136.428294
 11
544.501692
 21
1139.075602
  0
LINE
  5
41A
100
AcDbEntity
  8
M0
100
AcDbLine
 10
543.685286
 20
1144.322916
 11
544.501692
 21
1141.675577
  0
LINE
  5
41B
100
AcDbEntity
  8
M0
100
AcDbLine
 10
538.245833
 20
1144.675577
 11
543.207503
 21
1144.675577
  0
LINE
  5
41C
100
AcDbEntity
  8
M0
100
AcDbLine
 10
544.501692
 20
1141.675577
 11
544.501692
 21
1139.075602
  0
LINE
  5
41D
100
AcDbEntity
  8
M0
100
AcDbLine
 10
543.207503
 20
1136.075602
 11
538.245833
 21
1136.075617
  0
LINE
  5
41E
100
AcDbEntity
  8
M0
100
AcDbLine
 10
536.951644
 20
1139.075602
 11
536.951644
 21
1141.675577
  0
ARC
  5
41F
100
AcDbEntity
  8
M0
100
AcDbCircle
 10
538.245833
 20
1136.575617
 40
0.5
100
AcDbArc
 50
197.127146
 51
270.0
  0
ARC
  5
420
100
AcDbEntity
  8
M0
100
AcDbCircle
 10
538.245833
 20
1144.175577
 40
0.5
100
AcDbArc
 50
90.0
 51
162.871263
  0
ARC
  5
421
100
AcDbEntity
  8
M0
100
AcDbCircle
 10
543.207503
 20
1144.175577
 40
0.5
100
AcDbArc
 50
17.138555
 51
90.0
  0
ARC
  5
422
100
AcDbEntity
  8
M0
100
AcDbCircle
 10
543.207503
 20
1136.575617
 40
0.5
100
AcDbArc
 50
270.0
 51
342.862931
  0
LINE
  5
423
100
AcDbEntity
  8
M0
 62
     6
100
AcDbLine
 10
540.726774
 20
1183.375651
 11
528.726774
 21
1183.375651
  0
LINE
  5
424
100
AcDbEntity
  8
M0
 62
     6
100
AcDbLine
 10
540.726774
 20
1185.375651
 11
528.726774
 21
1185.375651
  0
LINE
  5
425
100
AcDbEntity
  8
M0
 62
     6
100
AcDbLine
 10
535.726774
 20
1187.375651
 11
524.326774
 21
1187.375651
  0
LINE
  5
426
100
AcDbEntity
  8
M0
 62
     6
100
AcDbLine
 10
531.026774
 20
1216.375651
 11
531.026774
 21
1214.875651
  0
LINE
  5
427
100
AcDbEntity
  8
M0
 62
     6
100
AcDbLine
 10
530.026774
 20
1216.375651
 11
530.026774
 21
1214.875651
  0
LINE
  5
428
100
AcDbEntity
  8
M0
 62
     6
100
AcDbLine
 10
530.026774
 20
1216.375651
 11
531.026774
 21
1216.375651
  0
LINE
  5
429
100
AcDbEntity
  8
M0
 62
     6
100
AcDbLine
 10
535.026774
 20
1214.875651
 11
526.026774
 21
1214.875651
  0
LINE
  5
42A
100
AcDbEntity
  8
M0
 62
     6
100
AcDbLine
 10
535.026774
 20
1199.375651
 11
535.026774
 21
1214.875651
  0
LINE
  5
42B
100
AcDbEntity
  8
M0
 62
     6
100
AcDbLine
 10
543.726774
 20
1212.375651
 11
535.026774
 21
1212.375651
  0
LINE
  5
42C
100
AcDbEntity
  8
M0
 62
     6
100
AcDbLine
 10
524.326774
 20
1199.375651
 11
545.126774
 21
1199.375651
  0
LINE
  5
42D
100
AcDbEntity
  8
M0
 62
     6
100
AcDbLine
 10
525.726774
 20
1189.375651
 11
533.726774
 21
1189.375651
  0
LINE
  5
42E
100
AcDbEntity
  8
M0
 62
     6
100
AcDbLine
 10
525.726774
 20
1199.375651
 11
525.726774
 21
1189.375651
  0
LINE
  5
42F
100
AcDbEntity
  8
M0
 62
     6
100
AcDbLine
 10
533.726774
 20
1199.375651
 11
533.726774
 21
1189.375651
  0
LINE
  5
430
100
AcDbEntity
  8
M0
 62
     6
100
AcDbLine
 10
543.726774
 20
1212.375651
 11
543.726774
 21
1199.375651
  0
LINE
  5
431
100
AcDbEntity
  8
M0
 62
     6
100
AcDbLine
 10
535.726774
 20
1212.375651
 11
535.726774
 21
1199.375651
  0
LINE
  5
432
100
AcDbEntity
  8
M0
 62
     6
100
AcDbLine
 10
533.726774
 20
1198.875651
 11
525.726774
 21
1198.875651
  0
LINE
  5
433
100
AcDbEntity
  8
M0
 62
     6
100
AcDbLine
 10
543.726774
 20
1208.875651
 11
535.726774
 21
1208.875651
  0
LINE
  5
434
100
AcDbEntity
  8
M0
 62
     6
100
AcDbLine
 10
539.726774
 20
1189.875651
 11
535.726774
 21
1189.875651
  0
LINE
  5
435
100
AcDbEntity
  8
M0
 62
     6
100
AcDbLine
 10
534.726774
 20
1155.375651
 11
526.975772
 21
1155.375651
  0
LINE
  5
436
100
AcDbEntity
  8
M0
 62
     6
100
AcDbLine
 10
534.726774
 20
1153.375651
 11
529.298897
 21
1153.375651
  0
LINE
  5
437
100
AcDbEntity
  8
M0
 62
     6
100
AcDbLine
 10
540.776774
 20
1023.275651
 11
542.726774
 21
1023.275651
  0
LINE
  5
438
100
AcDbEntity
  8
M0
 62
     6
100
AcDbLine
 10
538.676774
 20
1023.275651
 11
538.676774
 21
1008.275651
  0
LINE
  5
439
100
AcDbEntity
  8
M0
 62
     6
100
AcDbLine
 10
540.776774
 20
1023.275651
 11
540.776774
 21
1008.275651
  0
LINE
  5
43A
100
AcDbEntity
  8
M0
 62
     6
100
AcDbLine
 10
542.726774
 20
1008.275651
 11
542.726774
 21
1023.275651
  0
LINE
  5
43B
100
AcDbEntity
  8
M0
 62
     6
100
AcDbLine
 10
536.726774
 20
1023.275651
 11
536.726774
 21
1008.275651
  0
LINE
  5
43C
100
AcDbEntity
  8
M0
 62
     6
100
AcDbLine
 10
536.726774
 20
1023.275651
 11
538.676774
 21
1023.275651
  0
LINE
  5
43D
100
AcDbEntity
  8
M0
 62
     6
100
AcDbLine
 10
545.126774
 20
1199.375651
 11
545.126774
 21
1163.375649
  0
LINE
  5
43E
100
AcDbEntity
  8
M0
 62
     6
100
AcDbLine
 10
543.426774
 20
1008.275651
 11
543.426774
 21
990.375651
  0
LINE
  5
43F
100
AcDbEntity
  8
M0
 62
     6
100
AcDbLine
 10
524.326774
 20
1199.375651
 11
524.326774
 21
1155.575647
  0
LINE
  5
440
100
AcDbEntity
  8
M0
 62
     6
100
AcDbLine
 10
526.026774
 20
1008.275651
 11
526.026774
 21
990.375651
  0
LINE
  5
441
100
AcDbEntity
  8
M0
 62
     6
100
AcDbLine
 10
524.326774
 20
1008.275651
 11
545.126774
 21
1008.275651
  0
CIRCLE
  5
442
100
AcDbEntity
  8
M0
 62
     6
100
AcDbCircle
 10
528.726774
 20
1078.375651
 40
4.0
  0
LINE
  5
443
100
AcDbEntity
  8
M0
 62
     6
100
AcDbLine
 10
526.026774
 20
1228.375651
 11
526.026774
 21
1199.375651
  0
LINE
  5
444
100
AcDbEntity
  8
M0
 62
     6
100
AcDbLine
 10
543.426774
 20
1228.375651
 11
543.426774
 21
1212.375651
  0
LINE
  5
445
100
AcDbEntity
  8
M0
  6
DASHDOT
 62
     6
100
AcDbLine
 10
534.726774
 20
980.375651
 11
534.726774
 21
1238.375651
  0
LINE
  5
446
100
AcDbEntity
  8
M0
  6
DASHDOT
 62
     6
100
AcDbLine
 10
513.226774
 20
1109.375651
 11
556.226774
 21
1109.375651
  0
LINE
  5
447
100
AcDbEntity
  8
M0
 62
     6
100
AcDbLine
 10
523.226774
 20
990.375651
 11
546.226774
 21
990.375651
  0
LINE
  5
448
100
AcDbEntity
  8
M0
 62
     6
100
AcDbLine
 10
523.226774
 20
1228.375651
 11
523.226774
 21
1155.575648
  0
LINE
  5
449
100
AcDbEntity
  8
M0
 62
     6
100
AcDbLine
 10
546.226774
 20
1228.375651
 11
523.226774
 21
1228.375651
  0
LINE
  5
44A
100
AcDbEntity
  8
M0
 62
     6
100
AcDbLine
 10
546.226774
 20
990.375651
 11
546.226774
 21
1077.375649
  0
ARC
  5
44B
100
AcDbEntity
  8
M0
 62
     6
100
AcDbCircle
 10
536.726774
 20
1007.275651
 40
3.0
100
AcDbArc
 50
270.0
 51
360.0
  0
ARC
  5
44C
100
AcDbEntity
  8
M0
 62
     6
100
AcDbCircle
 10
532.726774
 20
1007.275651
 40
3.0
100
AcDbArc
 50
180.0
 51
270.0
  0
LINE
  5
44D
100
AcDbEntity
  8
M0
 62
     6
100
AcDbLine
 10
536.726774
 20
1004.275651
 11
532.726774
 21
1004.275651
  0
LINE
  5
44E
100
AcDbEntity
  8
M0
 62
     6
100
AcDbLine
 10
539.726774
 20
1007.275651
 11
539.726774
 21
1008.275651
  0
LINE
  5
44F
100
AcDbEntity
  8
M0
 62
     6
100
AcDbLine
 10
529.726774
 20
1007.275651
 11
529.726774
 21
1008.275651
  0
LINE
  5
450
100
AcDbEntity
  8
M0
 62
     6
100
AcDbLine
 10
539.726774
 20
1199.375651
 11
539.726774
 21
1189.875651
  0
LINE
  5
451
100
AcDbEntity
  8
M0
 62
     6
100
AcDbLine
 10
535.726774
 20
1187.375651
 11
535.726774
 21
1189.875651
  0
ARC
  5
452
100
AcDbEntity
  8
M0
 62
     6
100
AcDbCircle
 10
540.726774
 20
1184.375651
 40
1.0
100
AcDbArc
 50
0.0
 51
90.0
  0
ARC
  5
453
100
AcDbEntity
  8
M0
 62
     6
100
AcDbCircle
 10
540.726774
 20
1184.375651
 40
1.0
100
AcDbArc
 50
270.0
 51
360.0
  0
ARC
  5
454
100
AcDbEntity
  8
M0
 62
     6
100
AcDbCircle
 10
528.726774
 20
1184.375651
 40
1.0
100
AcDbArc
 50
180.0
 51
270.0
  0
ARC
  5
455
100
AcDbEntity
  8
M0
 62
     6
100
AcDbCircle
 10
528.726774
 20
1184.375651
 40
1.0
100
AcDbArc
 50
90.0
 51
180.0
  0
CIRCLE
  5
456
100
AcDbEntity
  8
M0
 62
     6
100
AcDbCircle
 10
528.726774
 20
1078.375651
 40
1.75
  0
ARC
  5
457
100
AcDbEntity
  8
M0
 62
     6
100
AcDbCircle
 10
540.726774
 20
1078.375651
 40
4.0
100
AcDbArc
 50
194.477494
 51
345.52247
  0
ARC
  5
458
100
AcDbEntity
  8
M0
 62
     6
100
AcDbCircle
 10
540.726774
 20
1078.375651
 40
1.75
100
AcDbArc
 50
214.849887
 51
325.150077
  0
LINE
  5
459
100
AcDbEntity
  8
M0
 62
     6
100
AcDbLine
 10
546.226774
 20
1163.375649
 11
546.226774
 21
1228.375651
  0
LINE
  5
45A
100
AcDbEntity
  8
M0
 62
     6
100
AcDbLine
 10
545.126774
 20
1077.375649
 11
545.126774
 21
1008.275651
  0
LINE
  5
45B
100
AcDbEntity
  8
M0
 62
     6
100
AcDbLine
 10
523.226774
 20
1085.575669
 11
523.226774
 21
990.375651
  0
LINE
  5
45C
100
AcDbEntity
  8
M0
 62
     6
100
AcDbLine
 10
524.326774
 20
1085.575666
 11
524.326774
 21
1008.275651
  0
CIRCLE
  5
45D
100
AcDbEntity
  8
M0
100
AcDbCircle
 10
539.726774
 20
1203.875651
 40
3.0
  0
LINE
  5
45E
100
AcDbEntity
  8
M0
100
AcDbLine
 10
536.76779
 20
1199.928309
 11
535.951628
 21
1202.575602
  0
LINE
  5
45F
100
AcDbEntity
  8
M0
100
AcDbLine
 10
536.76779
 20
1207.8229
 11
535.951628
 21
1205.175577
  0
LINE
  5
460
100
AcDbEntity
  8
M0
100
AcDbLine
 10
542.68527
 20
1199.928294
 11
543.501676
 21
1202.575602
  0
LINE
  5
461
100
AcDbEntity
  8
M0
100
AcDbLine
 10
542.68527
 20
1207.822916
 11
543.501676
 21
1205.175577
  0
LINE
  5
462
100
AcDbEntity
  8
M0
100
AcDbLine
 10
537.245817
 20
1208.175577
 11
542.207487
 21
1208.175577
  0
LINE
  5
463
100
AcDbEntity
  8
M0
100
AcDbLine
 10
543.501676
 20
1205.175577
 11
543.501676
 21
1202.575602
  0
LINE
  5
464
100
AcDbEntity
  8
M0
100
AcDbLine
 10
542.207487
 20
1199.575602
 11
537.245817
 21
1199.575617
  0
LINE
  5
465
100
AcDbEntity
  8
M0
100
AcDbLine
 10
535.951628
 20
1202.575602
 11
535.951628
 21
1205.175577
  0
ARC
  5
466
100
AcDbEntity
  8
M0
100
AcDbCircle
 10
537.245817
 20
1200.075617
 40
0.5
100
AcDbArc
 50
197.127146
 51
270.0
  0
ARC
  5
467
100
AcDbEntity
  8
M0
100
AcDbCircle
 10
537.245817
 20
1207.675577
 40
0.5
100
AcDbArc
 50
90.0
 51
162.871263
  0
ARC
  5
468
100
AcDbEntity
  8
M0
100
AcDbCircle
 10
542.207487
 20
1207.675577
 40
0.5
100
AcDbArc
 50
17.138555
 51
90.0
  0
ARC
  5
469
100
AcDbEntity
  8
M0
100
AcDbCircle
 10
542.207487
 20
1200.075617
 40
0.5
100
AcDbArc
 50
270.0
 51
342.862931
  0
CIRCLE
  5
46A
100
AcDbEntity
  8
M0
100
AcDbCircle
 10
529.726774
 20
1193.875651
 40
3.0
  0
LINE
  5
46B
100
AcDbEntity
  8
M0
100
AcDbLine
 10
526.76779
 20
1189.928309
 11
525.951628
 21
1192.575602
  0
LINE
  5
46C
100
AcDbEntity
  8
M0
100
AcDbLine
 10
526.76779
 20
1197.8229
 11
525.951628
 21
1195.175577
  0
LINE
  5
46D
100
AcDbEntity
  8
M0
100
AcDbLine
 10
532.68527
 20
1189.928294
 11
533.501676
 21
1192.575602
  0
LINE
  5
46E
100
AcDbEntity
  8
M0
100
AcDbLine
 10
532.68527
 20
1197.822916
 11
533.501676
 21
1195.175577
  0
LINE
  5
46F
100
AcDbEntity
  8
M0
100
AcDbLine
 10
527.245817
 20
1198.175577
 11
532.207487
 21
1198.175577
  0
LINE
  5
470
100
AcDbEntity
  8
M0
100
AcDbLine
 10
533.501676
 20
1195.175577
 11
533.501676
 21
1192.575602
  0
LINE
  5
471
100
AcDbEntity
  8
M0
100
AcDbLine
 10
532.207487
 20
1189.575602
 11
527.245817
 21
1189.575617
  0
LINE
  5
472
100
AcDbEntity
  8
M0
100
AcDbLine
 10
525.951628
 20
1192.575602
 11
525.951628
 21
1195.175577
  0
ARC
  5
473
100
AcDbEntity
  8
M0
100
AcDbCircle
 10
527.245817
 20
1190.075617
 40
0.5
100
AcDbArc
 50
197.127146
 51
270.0
  0
ARC
  5
474
100
AcDbEntity
  8
M0
100
AcDbCircle
 10
527.245817
 20
1197.675577
 40
0.5
100
AcDbArc
 50
90.0
 51
162.871263
  0
ARC
  5
475
100
AcDbEntity
  8
M0
100
AcDbCircle
 10
532.207487
 20
1197.675577
 40
0.5
100
AcDbArc
 50
17.138555
 51
90.0
  0
ARC
  5
476
100
AcDbEntity
  8
M0
100
AcDbCircle
 10
532.207487
 20
1190.075617
 40
0.5
100
AcDbArc
 50
270.0
 51
342.862931
  0
LINE
  5
477
100
AcDbEntity
  8
M0
100
AcDbLine
 10
522.226774
 20
1205.57554
 11
514.226766
 21
1205.57554
  0
LINE
  5
478
100
AcDbEntity
  8
M0
100
AcDbLine
 10
360.226774
 20
1192.37554
 11
368.226775
 21
1192.37554
  0
LINE
  5
479
100
AcDbEntity
  8
M0
  6
DASHDOT
100
AcDbLine
 10
441.226774
 20
1182.37554
 11
441.226774
 21
1215.57554
  0
LINE
  5
47A
100
AcDbEntity
  8
M0
100
AcDbLine
 10
522.226774
 20
1208.77554
 11
514.226764
 21
1208.77554
  0
LINE
  5
47B
100
AcDbEntity
  8
M0
100
AcDbLine
 10
522.226774
 20
1192.37554
 11
522.226774
 21
1208.77554
  0
LINE
  5
47C
100
AcDbEntity
  8
M0
100
AcDbLine
 10
360.226774
 20
1208.77554
 11
360.226774
 21
1192.37554
  0
LINE
  5
47D
100
AcDbEntity
  8
M0
100
AcDbLine
 10
398.226775
 20
1192.37554
 11
403.126774
 21
1192.37554
  0
LINE
  5
47E
100
AcDbEntity
  8
M0
100
AcDbLine
 10
368.226766
 20
1205.57554
 11
360.226774
 21
1205.57554
  0
LINE
  5
47F
100
AcDbEntity
  8
M0
100
AcDbLine
 10
368.226764
 20
1208.77554
 11
360.226774
 21
1208.77554
  0
LINE
  5
480
100
AcDbEntity
  8
M0
100
AcDbLine
 10
482.126774
 20
1192.37554
 11
484.226775
 21
1192.37554
  0
LINE
  5
481
100
AcDbEntity
  8
M0
100
AcDbLine
 10
403.126774
 20
1205.57554
 11
398.226766
 21
1205.57554
  0
LINE
  5
482
100
AcDbEntity
  8
M0
100
AcDbLine
 10
426.226764
 20
1208.77554
 11
398.226764
 21
1208.77554
  0
LINE
  5
483
100
AcDbEntity
  8
M0
100
AcDbLine
 10
514.226775
 20
1192.37554
 11
522.226774
 21
1192.37554
  0
LINE
  5
484
100
AcDbEntity
  8
M0
100
AcDbLine
 10
484.226766
 20
1205.57554
 11
482.126774
 21
1205.57554
  0
LINE
  5
485
100
AcDbEntity
  8
M0
100
AcDbLine
 10
484.226764
 20
1208.77554
 11
468.126774
 21
1208.77554
  0
LINE
  5
486
100
AcDbEntity
  8
M0
 62
     4
100
AcDbLine
 10
403.126774
 20
1206.375651
 11
403.126774
 21
1186.375647
  0
LINE
  5
487
100
AcDbEntity
  8
M0
 62
     4
100
AcDbLine
 10
482.126774
 20
1187.042335
 11
482.126774
 21
1206.375651
  0
LINE
  5
488
100
AcDbEntity
  8
M0
 62
     4
100
AcDbLine
 10
476.626774
 20
1201.375651
 11
476.626774
 21
1186.375647
  0
LINE
  5
489
100
AcDbEntity
  8
M0
 62
     4
100
AcDbLine
 10
468.626774
 20
1201.375651
 11
468.626774
 21
1187.375651
  0
LINE
  5
48A
100
AcDbEntity
  8
M0
 62
     4
100
AcDbLine
 10
419.626774
 20
1201.375651
 11
419.626774
 21
1187.375651
  0
LINE
  5
48B
100
AcDbEntity
  8
M0
 62
     4
100
AcDbLine
 10
413.626774
 20
1201.375651
 11
413.626774
 21
1187.375651
  0
LINE
  5
48C
100
AcDbEntity
  8
M0
 62
     4
100
AcDbLine
 10
405.626774
 20
1201.375651
 11
405.626774
 21
1186.375647
  0
LINE
  5
48D
100
AcDbEntity
  8
M0
 62
     4
100
AcDbLine
 10
403.126774
 20
1206.375651
 11
424.126774
 21
1206.375651
  0
ARC
  5
48E
100
AcDbEntity
  8
M0
 62
     4
100
AcDbCircle
 10
424.126774
 20
1210.375651
 40
4.0
100
AcDbArc
 50
270.0
 51
301.668102
  0
LINE
  5
48F
100
AcDbEntity
  8
M0
 62
     4
100
AcDbLine
 10
468.126774
 20
1201.375651
 11
468.126774
 21
1211.375651
  0
LINE
  5
490
100
AcDbEntity
  8
M0
 62
     4
100
AcDbLine
 10
472.126774
 20
1206.375651
 11
482.126774
 21
1206.375651
  0
ARC
  5
491
100
AcDbEntity
  8
M0
 62
     4
100
AcDbCircle
 10
472.126774
 20
1210.375651
 40
4.0
100
AcDbArc
 50
180.0
 51
270.0
  0
LINE
  5
492
100
AcDbEntity
  8
M0
 62
     4
100
AcDbLine
 10
468.126774
 20
1211.375651
 11
456.226763
 21
1211.375651
  0
LINE
  5
493
100
AcDbEntity
  8
M0
 62
     4
100
AcDbLine
 10
405.626774
 20
1201.375651
 11
403.126774
 21
1201.375651
  0
LINE
  5
494
100
AcDbEntity
  8
M0
 62
     4
100
AcDbLine
 10
419.626774
 20
1201.375651
 11
413.626774
 21
1201.375651
  0
LINE
  5
495
100
AcDbEntity
  8
M0
 62
     4
100
AcDbLine
 10
482.126774
 20
1201.375651
 11
476.626774
 21
1201.375651
  0
LINE
  5
496
100
AcDbEntity
  8
M0
 62
     4
100
AcDbLine
 10
464.626774
 20
1187.375651
 11
464.626774
 21
1201.375651
  0
LINE
  5
497
100
AcDbEntity
  8
M0
 62
     4
100
AcDbLine
 10
468.626774
 20
1201.375651
 11
464.626774
 21
1201.375651
  0
LINE
  5
498
100
AcDbEntity
  8
M0
 62
     4
100
AcDbLine
 10
468.626774
 20
1196.375651
 11
476.626774
 21
1196.375651
  0
LINE
  5
499
100
AcDbEntity
  8
M0
 62
     4
100
AcDbLine
 10
419.626774
 20
1196.375651
 11
426.226772
 21
1196.375651
  0
LINE
  5
49A
100
AcDbEntity
  8
M0
 62
     4
100
AcDbLine
 10
405.626774
 20
1196.375651
 11
413.626774
 21
1196.375651
  0
LINE
  5
49B
100
AcDbEntity
  8
M0
 62
   114
100
AcDbLine
 10
502.075365
 20
1220.375575
 11
505.339077
 21
1223.639287
  0
LINE
  5
49C
100
AcDbEntity
  8
M0
 62
   114
100
AcDbLine
 10
501.075467
 20
1219.375677
 11
501.226839
 21
1219.527049
  0
LINE
  5
49D
100
AcDbEntity
  8
M0
 62
   114
100
AcDbLine
 10
500.378356
 20
1220.375532
 11
499.3785
 21
1219.375676
  0
LINE
  5
49E
100
AcDbEntity
  8
M0
 62
   114
100
AcDbLine
 10
504.490605
 20
1224.487802
 11
501.226882
 21
1221.224058
  0
LINE
  5
49F
100
AcDbEntity
  8
M0
 62
   114
100
AcDbLine
 10
501.226871
 20
1221.224069
 11
499.459104
 21
1222.991836
  0
LINE
  5
4A0
100
AcDbEntity
  8
M0
 62
   114
100
AcDbLine
 10
503.075261
 20
1219.375679
 11
502.075365
 21
1220.375575
  0
LINE
  5
4A1
100
AcDbEntity
  8
M0
 62
   114
100
AcDbLine
 10
501.226839
 20
1219.527049
 11
501.37821
 21
1219.375678
  0
LINE
  5
4A2
100
AcDbEntity
  8
M0
 62
   114
100
AcDbLine
 10
498.610578
 20
1222.14331
 11
500.378345
 21
1220.375543
  0
LINE
  5
4A3
100
AcDbEntity
  8
M0
 62
   114
100
AcDbLine
 10
499.459104
 20
1222.991836
 11
498.610578
 21
1222.14331
  0
ARC
  5
4A4
100
AcDbEntity
  8
M0
 62
   114
100
AcDbCircle
 10
501.226774
 20
1220.375651
 40
5.75
100
AcDbArc
 50
349.984895
 51
550.015177
  0
ARC
  5
4A5
100
AcDbEntity
  8
M0
 62
   114
100
AcDbCircle
 10
501.226774
 20
1220.375651
 40
5.25
100
AcDbArc
 50
349.019757
 51
550.980315
  0
LINE
  5
4A6
100
AcDbEntity
  8
M0
 62
   114
100
AcDbLine
 10
369.933891
 20
1089.575662
 11
372.029823
 21
1091.671595
  0
LINE
  5
4A7
100
AcDbEntity
  8
M0
 62
   114
100
AcDbLine
 10
367.130841
 20
1086.772613
 11
369.226784
 21
1088.868556
  0
LINE
  5
4A8
100
AcDbEntity
  8
M0
 62
   114
100
AcDbLine
 10
368.519677
 20
1089.575662
 11
366.423734
 21
1087.479719
  0
LINE
  5
4A9
100
AcDbEntity
  8
M0
 62
   114
100
AcDbLine
 10
371.322716
 20
1092.378702
 11
369.226784
 21
1090.282769
  0
LINE
  5
4AA
100
AcDbEntity
  8
M0
 62
   114
100
AcDbLine
 10
369.226784
 20
1090.282769
 11
368.130734
 21
1091.378819
  0
LINE
  5
4AB
100
AcDbEntity
  8
M0
 62
   114
100
AcDbLine
 10
371.029941
 20
1088.479612
 11
369.933891
 21
1089.575662
  0
LINE
  5
4AC
100
AcDbEntity
  8
M0
 62
   114
100
AcDbLine
 10
369.226784
 20
1088.868556
 11
370.322834
 21
1087.772506
  0
LINE
  5
4AD
100
AcDbEntity
  8
M0
 62
   114
100
AcDbLine
 10
367.423627
 20
1090.671713
 11
368.519677
 21
1089.575662
  0
LINE
  5
4AE
100
AcDbEntity
  8
M0
 62
   114
100
AcDbLine
 10
370.322834
 20
1087.772506
 11
371.029941
 21
1088.479612
  0
LINE
  5
4AF
100
AcDbEntity
  8
M0
 62
   114
100
AcDbLine
 10
368.130734
 20
1091.378819
 11
367.423627
 21
1090.671713
  0
ARC
  5
4B0
100
AcDbEntity
  8
M0
 62
   114
100
AcDbCircle
 10
369.226784
 20
1089.575662
 40
4.0
100
AcDbArc
 50
41.409836
 51
318.590164
  0
ARC
  5
4B1
100
AcDbEntity
  8
M0
 62
   114
100
AcDbCircle
 10
369.226784
 20
1089.575662
 40
3.5
100
AcDbArc
 50
31.003032
 51
328.996968
  0
LINE
  5
4B2
100
AcDbEntity
  8
M0
 62
   114
100
AcDbLine
 10
513.933871
 20
1089.575662
 11
516.029803
 21
1091.671595
  0
LINE
  5
4B3
100
AcDbEntity
  8
M0
 62
   114
100
AcDbLine
 10
511.130821
 20
1086.772613
 11
513.226764
 21
1088.868556
  0
LINE
  5
4B4
100
AcDbEntity
  8
M0
 62
   114
100
AcDbLine
 10
512.519657
 20
1089.575662
 11
510.423714
 21
1087.479719
  0
LINE
  5
4B5
100
AcDbEntity
  8
M0
 62
   114
100
AcDbLine
 10
515.322697
 20
1092.378702
 11
513.226764
 21
1090.282769
  0
LINE
  5
4B6
100
AcDbEntity
  8
M0
 62
   114
100
AcDbLine
 10
513.226764
 20
1090.282769
 11
512.130714
 21
1091.378819
  0
LINE
  5
4B7
100
AcDbEntity
  8
M0
 62
   114
100
AcDbLine
 10
515.029921
 20
1088.479612
 11
513.933871
 21
1089.575662
  0
LINE
  5
4B8
100
AcDbEntity
  8
M0
 62
   114
100
AcDbLine
 10
513.226764
 20
1088.868556
 11
514.322814
 21
1087.772506
  0
LINE
  5
4B9
100
AcDbEntity
  8
M0
 62
   114
100
AcDbLine
 10
511.423607
 20
1090.671713
 11
512.519657
 21
1089.575662
  0
LINE
  5
4BA
100
AcDbEntity
  8
M0
 62
   114
100
AcDbLine
 10
514.322814
 20
1087.772506
 11
515.029921
 21
1088.479612
  0
LINE
  5
4BB
100
AcDbEntity
  8
M0
 62
   114
100
AcDbLine
 10
512.130714
 20
1091.378819
 11
511.423607
 21
1090.671713
  0
ARC
  5
4BC
100
AcDbEntity
  8
M0
 62
   114
100
AcDbCircle
 10
513.226764
 20
1089.575662
 40
4.0
100
AcDbArc
 50
221.409836
 51
498.590164
  0
ARC
  5
4BD
100
AcDbEntity
  8
M0
 62
   114
100
AcDbCircle
 10
513.226764
 20
1089.575662
 40
3.5
100
AcDbArc
 50
211.003032
 51
508.996968
  0
LINE
  5
4BE
100
AcDbEntity
  8
M0
 62
   114
100
AcDbLine
 10
541.433881
 20
1089.375651
 11
543.529813
 21
1091.471583
  0
LINE
  5
4BF
100
AcDbEntity
  8
M0
 62
   114
100
AcDbLine
 10
538.630831
 20
1086.572601
 11
540.726774
 21
1088.668544
  0
LINE
  5
4C0
100
AcDbEntity
  8
M0
 62
   114
100
AcDbLine
 10
540.019667
 20
1089.375651
 11
537.923724
 21
1087.279708
  0
LINE
  5
4C1
100
AcDbEntity
  8
M0
 62
   114
100
AcDbLine
 10
542.822707
 20
1092.17869
 11
540.726774
 21
1090.082758
  0
LINE
  5
4C2
100
AcDbEntity
  8
M0
 62
   114
100
AcDbLine
 10
540.726774
 20
1090.082758
 11
539.630724
 21
1091.178808
  0
LINE
  5
4C3
100
AcDbEntity
  8
M0
 62
   114
100
AcDbLine
 10
542.529931
 20
1088.279601
 11
541.433881
 21
1089.375651
  0
LINE
  5
4C4
100
AcDbEntity
  8
M0
 62
   114
100
AcDbLine
 10
540.726774
 20
1088.668544
 11
541.822824
 21
1087.572494
  0
LINE
  5
4C5
100
AcDbEntity
  8
M0
 62
   114
100
AcDbLine
 10
538.923617
 20
1090.471701
 11
540.019667
 21
1089.375651
  0
CIRCLE
  5
4C6
100
AcDbEntity
  8
M0
 62
   114
100
AcDbCircle
 10
540.726774
 20
1089.375651
 40
3.5
  0
LINE
  5
4C7
100
AcDbEntity
  8
M0
 62
   114
100
AcDbLine
 10
541.822824
 20
1087.572494
 11
542.529931
 21
1088.279601
  0
LINE
  5
4C8
100
AcDbEntity
  8
M0
 62
   114
100
AcDbLine
 10
539.630724
 20
1091.178808
 11
538.923617
 21
1090.471701
  0
LINE
  5
4C9
100
AcDbEntity
  8
M0
 62
   114
100
AcDbLine
 10
541.4339
 20
1151.375651
 11
543.529833
 21
1153.471583
  0
LINE
  5
4CA
100
AcDbEntity
  8
M0
 62
   114
100
AcDbLine
 10
538.63085
 20
1148.572601
 11
540.726793
 21
1150.668544
  0
LINE
  5
4CB
100
AcDbEntity
  8
M0
 62
   114
100
AcDbLine
 10
540.019687
 20
1151.375651
 11
537.923743
 21
1149.279708
  0
LINE
  5
4CC
100
AcDbEntity
  8
M0
 62
   114
100
AcDbLine
 10
542.822726
 20
1154.17869
 11
540.726794
 21
1152.082758
  0
LINE
  5
4CD
100
AcDbEntity
  8
M0
 62
   114
100
AcDbLine
 10
540.726794
 20
1152.082758
 11
539.630744
 21
1153.178808
  0
LINE
  5
4CE
100
AcDbEntity
  8
M0
 62
   114
100
AcDbLine
 10
542.52995
 20
1150.279601
 11
541.4339
 21
1151.375651
  0
LINE
  5
4CF
100
AcDbEntity
  8
M0
 62
   114
100
AcDbLine
 10
540.726793
 20
1150.668544
 11
541.822843
 21
1149.572494
  0
LINE
  5
4D0
100
AcDbEntity
  8
M0
 62
   114
100
AcDbLine
 10
538.923637
 20
1152.471701
 11
540.019687
 21
1151.375651
  0
CIRCLE
  5
4D1
100
AcDbEntity
  8
M0
 62
   114
100
AcDbCircle
 10
540.726793
 20
1151.375651
 40
3.5
  0
LINE
  5
4D2
100
AcDbEntity
  8
M0
 62
   114
100
AcDbLine
 10
541.822843
 20
1149.572494
 11
542.52995
 21
1150.279601
  0
LINE
  5
4D3
100
AcDbEntity
  8
M0
 62
   114
100
AcDbLine
 10
539.630744
 20
1153.178808
 11
538.923637
 21
1152.471701
  0
CIRCLE
  5
4D4
100
AcDbEntity
  8
M0
 62
   114
100
AcDbCircle
 10
534.726774
 20
998.375651
 40
4.5
  0
LINE
  5
4D5
100
AcDbEntity
  8
M0
 62
   114
100
AcDbLine
 10
535.575376
 20
998.375586
 11
538.304657
 21
1001.104868
  0
LINE
  5
4D6
100
AcDbEntity
  8
M0
 62
   114
100
AcDbLine
 10
531.997546
 20
994.797757
 11
534.726839
 21
997.527049
  0
LINE
  5
4D7
100
AcDbEntity
  8
M0
 62
   114
100
AcDbLine
 10
533.878356
 20
998.375532
 11
531.149031
 21
995.646208
  0
LINE
  5
4D8
100
AcDbEntity
  8
M0
 62
   114
100
AcDbLine
 10
537.456196
 20
1001.953394
 11
534.726893
 21
999.224069
  0
LINE
  5
4D9
100
AcDbEntity
  8
M0
 62
   114
100
AcDbLine
 10
534.726839
 20
997.527049
 11
535.999665
 21
996.254223
  0
LINE
  5
4DA
100
AcDbEntity
  8
M0
 62
   114
100
AcDbLine
 10
532.605518
 20
999.64837
 11
533.878345
 21
998.375543
  0
LINE
  5
4DB
100
AcDbEntity
  8
M0
 62
   114
100
AcDbLine
 10
534.726882
 20
999.22408
 11
533.454055
 21
1000.496906
  0
LINE
  5
4DC
100
AcDbEntity
  8
M0
 62
   114
100
AcDbLine
 10
536.848202
 20
997.102759
 11
535.575376
 21
998.375586
  0
LINE
  5
4DD
100
AcDbEntity
  8
M0
 62
   114
100
AcDbLine
 10
535.999665
 20
996.254223
 11
536.848202
 21
997.102759
  0
LINE
  5
4DE
100
AcDbEntity
  8
M0
 62
   114
100
AcDbLine
 10
533.454055
 20
1000.496906
 11
532.605518
 21
999.64837
  0
CIRCLE
  5
4DF
100
AcDbEntity
  8
M0
 62
   114
100
AcDbCircle
 10
534.726774
 20
998.375651
 40
5.0
  0
CIRCLE
  5
4E0
100
AcDbEntity
  8
M0
 62
   114
100
AcDbCircle
 10
534.726774
 20
1220.375651
 40
4.5
  0
LINE
  5
4E1
100
AcDbEntity
  8
M0
 62
   114
100
AcDbLine
 10
535.575376
 20
1220.375586
 11
538.304657
 21
1223.104868
  0
LINE
  5
4E2
100
AcDbEntity
  8
M0
 62
   114
100
AcDbLine
 10
531.997546
 20
1216.797757
 11
534.726839
 21
1219.527049
  0
LINE
  5
4E3
100
AcDbEntity
  8
M0
 62
   114
100
AcDbLine
 10
533.878356
 20
1220.375532
 11
531.149031
 21
1217.646208
  0
LINE
  5
4E4
100
AcDbEntity
  8
M0
 62
   114
100
AcDbLine
 10
537.456196
 20
1223.953394
 11
534.726893
 21
1221.224069
  0
LINE
  5
4E5
100
AcDbEntity
  8
M0
 62
   114
100
AcDbLine
 10
534.726839
 20
1219.527049
 11
535.999665
 21
1218.254223
  0
LINE
  5
4E6
100
AcDbEntity
  8
M0
 62
   114
100
AcDbLine
 10
532.605518
 20
1221.64837
 11
533.878345
 21
1220.375543
  0
LINE
  5
4E7
100
AcDbEntity
  8
M0
 62
   114
100
AcDbLine
 10
534.726882
 20
1221.22408
 11
533.454055
 21
1222.496906
  0
LINE
  5
4E8
100
AcDbEntity
  8
M0
 62
   114
100
AcDbLine
 10
536.848202
 20
1219.102759
 11
535.575376
 21
1220.375586
  0
LINE
  5
4E9
100
AcDbEntity
  8
M0
 62
   114
100
AcDbLine
 10
535.999665
 20
1218.254223
 11
536.848202
 21
1219.102759
  0
LINE
  5
4EA
100
AcDbEntity
  8
M0
 62
   114
100
AcDbLine
 10
533.454055
 20
1222.496906
 11
532.605518
 21
1221.64837
  0
CIRCLE
  5
4EB
100
AcDbEntity
  8
M0
 62
   114
100
AcDbCircle
 10
534.726774
 20
1220.375651
 40
5.0
  0
CIRCLE
  5
4EC
100
AcDbEntity
  8
M0
 62
   114
100
AcDbCircle
 10
409.626774
 20
1191.375651
 40
3.0
  0
LINE
  5
4ED
100
AcDbEntity
  8
M0
 62
   114
100
AcDbLine
 10
407.181561
 20
1189.637545
 11
408.990371
 21
1191.446355
  0
LINE
  5
4EE
100
AcDbEntity
  8
M0
 62
   114
100
AcDbLine
 10
407.888668
 20
1188.930438
 11
409.697478
 21
1190.739248
  0
LINE
  5
4EF
100
AcDbEntity
  8
M0
 62
   114
100
AcDbLine
 10
410.687445
 20
1189.749281
 11
409.697478
 21
1190.739248
  0
LINE
  5
4F0
100
AcDbEntity
  8
M0
 62
   114
100
AcDbLine
 10
411.253133
 20
1190.314969
 11
410.263166
 21
1191.304936
  0
LINE
  5
4F1
100
AcDbEntity
  8
M0
 62
   114
100
AcDbLine
 10
408.000426
 20
1192.4363
 11
408.566114
 21
1193.001988
  0
LINE
  5
4F2
100
AcDbEntity
  8
M0
 62
   114
100
AcDbLine
 10
411.253122
 20
1190.31498
 11
410.687434
 21
1189.749292
  0
LINE
  5
4F3
100
AcDbEntity
  8
M0
 62
   114
100
AcDbLine
 10
410.263166
 20
1191.304936
 11
412.071976
 21
1193.113746
  0
LINE
  5
4F4
100
AcDbEntity
  8
M0
 62
   114
100
AcDbLine
 10
409.556059
 20
1192.012043
 11
408.566114
 21
1193.001988
  0
LINE
  5
4F5
100
AcDbEntity
  8
M0
 62
   114
100
AcDbLine
 10
409.556059
 20
1192.012043
 11
411.36487
 21
1193.820853
  0
LINE
  5
4F6
100
AcDbEntity
  8
M0
 62
   114
100
AcDbLine
 10
408.990371
 20
1191.446355
 11
408.000426
 21
1192.4363
  0
LINE
  5
4F7
100
AcDbEntity
  8
M0
  6
DASHDOT
 62
   114
100
AcDbLine
 10
404.494329
 20
1191.375651
 11
414.759219
 21
1191.375651
  0
LINE
  5
4F8
100
AcDbEntity
  8
M0
  6
DASHDOT
 62
   114
100
AcDbLine
 10
409.626774
 20
1186.243206
 11
409.626774
 21
1196.508096
  0
LINE
  5
4F9
100
AcDbEntity
  8
M0
 62
   114
100
AcDbLine
 10
421.181561
 20
1189.637545
 11
422.990371
 21
1191.446355
  0
LINE
  5
4FA
100
AcDbEntity
  8
M0
 62
   114
100
AcDbLine
 10
421.888668
 20
1188.930438
 11
423.697478
 21
1190.739248
  0
LINE
  5
4FB
100
AcDbEntity
  8
M0
 62
   114
100
AcDbLine
 10
424.687445
 20
1189.749281
 11
423.697478
 21
1190.739248
  0
LINE
  5
4FC
100
AcDbEntity
  8
M0
 62
   114
100
AcDbLine
 10
425.253133
 20
1190.314969
 11
424.263166
 21
1191.304936
  0
LINE
  5
4FD
100
AcDbEntity
  8
M0
 62
   114
100
AcDbLine
 10
422.000426
 20
1192.4363
 11
422.566114
 21
1193.001988
  0
LINE
  5
4FE
100
AcDbEntity
  8
M0
 62
   114
100
AcDbLine
 10
425.253122
 20
1190.31498
 11
424.687434
 21
1189.749292
  0
LINE
  5
4FF
100
AcDbEntity
  8
M0
 62
   114
100
AcDbLine
 10
424.263166
 20
1191.304936
 11
426.071976
 21
1193.113746
  0
LINE
  5
500
100
AcDbEntity
  8
M0
 62
   114
100
AcDbLine
 10
423.556059
 20
1192.012043
 11
422.566114
 21
1193.001988
  0
LINE
  5
501
100
AcDbEntity
  8
M0
 62
   114
100
AcDbLine
 10
423.556059
 20
1192.012043
 11
425.36487
 21
1193.820853
  0
LINE
  5
502
100
AcDbEntity
  8
M0
 62
   114
100
AcDbLine
 10
422.990371
 20
1191.446355
 11
422.000426
 21
1192.4363
  0
LINE
  5
503
100
AcDbEntity
  8
M0
  6
DASHDOT
 62
   114
100
AcDbLine
 10
418.494329
 20
1191.375651
 11
428.759219
 21
1191.375651
  0
LINE
  5
504
100
AcDbEntity
  8
M0
  6
DASHDOT
 62
   114
100
AcDbLine
 10
423.626774
 20
1186.243206
 11
423.626774
 21
1196.508096
  0
ARC
  5
505
100
AcDbEntity
  8
M0
 62
   114
100
AcDbCircle
 10
423.626774
 20
1191.375651
 40
3.0
100
AcDbArc
 50
29.926418
 51
330.073654
  0
CIRCLE
  5
506
100
AcDbEntity
  8
M0
 62
   114
100
AcDbCircle
 10
472.626774
 20
1191.375651
 40
3.0
  0
LINE
  5
507
100
AcDbEntity
  8
M0
 62
   114
100
AcDbLine
 10
470.181561
 20
1189.637545
 11
471.990371
 21
1191.446355
  0
LINE
  5
508
100
AcDbEntity
  8
M0
 62
   114
100
AcDbLine
 10
470.888668
 20
1188.930438
 11
472.697478
 21
1190.739248
  0
LINE
  5
509
100
AcDbEntity
  8
M0
 62
   114
100
AcDbLine
 10
473.687445
 20
1189.749281
 11
472.697478
 21
1190.739248
  0
LINE
  5
50A
100
AcDbEntity
  8
M0
 62
   114
100
AcDbLine
 10
474.253133
 20
1190.314969
 11
473.263166
 21
1191.304936
  0
LINE
  5
50B
100
AcDbEntity
  8
M0
 62
   114
100
AcDbLine
 10
471.000426
 20
1192.4363
 11
471.566114
 21
1193.001988
  0
LINE
  5
50C
100
AcDbEntity
  8
M0
 62
   114
100
AcDbLine
 10
474.253122
 20
1190.31498
 11
473.687434
 21
1189.749292
  0
LINE
  5
50D
100
AcDbEntity
  8
M0
 62
   114
100
AcDbLine
 10
473.263166
 20
1191.304936
 11
475.071976
 21
1193.113746
  0
LINE
  5
50E
100
AcDbEntity
  8
M0
 62
   114
100
AcDbLine
 10
472.556059
 20
1192.012043
 11
471.566114
 21
1193.001988
  0
LINE
  5
50F
100
AcDbEntity
  8
M0
 62
   114
100
AcDbLine
 10
472.556059
 20
1192.012043
 11
474.36487
 21
1193.820853
  0
LINE
  5
510
100
AcDbEntity
  8
M0
 62
   114
100
AcDbLine
 10
471.990371
 20
1191.446355
 11
471.000426
 21
1192.4363
  0
LINE
  5
511
100
AcDbEntity
  8
M0
  6
DASHDOT
 62
   114
100
AcDbLine
 10
467.494329
 20
1191.375651
 11
477.759219
 21
1191.375651
  0
LINE
  5
512
100
AcDbEntity
  8
M0
  6
DASHDOT
 62
   114
100
AcDbLine
 10
472.626774
 20
1186.243206
 11
472.626774
 21
1196.508096
  0
LINE
  5
513
100
AcDbEntity
  8
M0
  6
DASHDOT
 62
     1
100
AcDbLine
 10
367.226774
 20
1109.375651
 11
515.226774
 21
1109.375651
  0
LINE
  5
514
100
AcDbEntity
  8
M0
 62
     1
100
AcDbLine
 10
496.226774
 20
1175.375651
 11
476.226774
 21
1175.375651
  0
LINE
  5
515
100
AcDbEntity
  8
M0
 62
     1
100
AcDbLine
 10
451.226774
 20
1175.375651
 11
441.226774
 21
1175.375651
  0
ARC
  5
516
100
AcDbEntity
  8
M0
 62
     1
100
AcDbCircle
 10
470.726774
 20
1185.375651
 40
2.0
100
AcDbArc
 50
0.0
 51
90.0
  0
LINE
  5
517
100
AcDbEntity
  8
M0
 62
     1
100
AcDbLine
 10
470.726774
 20
1187.375651
 11
461.726774
 21
1187.375651
  0
ARC
  5
518
100
AcDbEntity
  8
M0
 62
     1
100
AcDbCircle
 10
461.726774
 20
1185.375651
 40
2.0
100
AcDbArc
 50
90.0
 51
180.0
  0
ARC
  5
519
100
AcDbEntity
  8
M0
 62
     1
100
AcDbCircle
 10
505.226774
 20
1175.375651
 40
5.0
100
AcDbArc
 50
0.0
 51
90.0
  0
LINE
  5
51A
100
AcDbEntity
  8
M0
 62
     1
100
AcDbLine
 10
451.226774
 20
1178.375651
 11
451.226774
 21
1175.375651
  0
ARC
  5
51B
100
AcDbEntity
  8
M0
 62
     1
100
AcDbCircle
 10
453.226774
 20
1178.375651
 40
2.0
100
AcDbArc
 50
90.0
 51
180.0
  0
LINE
  5
51C
100
AcDbEntity
  8
M0
 62
     1
100
AcDbLine
 10
496.226774
 20
1178.375651
 11
496.226774
 21
1175.375651
  0
ARC
  5
51D
100
AcDbEntity
  8
M0
 62
     1
100
AcDbCircle
 10
498.226774
 20
1178.375651
 40
2.0
100
AcDbArc
 50
90.0
 51
180.0
  0
LINE
  5
51E
100
AcDbEntity
  8
M0
 62
     1
100
AcDbLine
 10
476.226774
 20
1178.375651
 11
476.226774
 21
1175.375651
  0
ARC
  5
51F
100
AcDbEntity
  8
M0
 62
     1
100
AcDbCircle
 10
474.226774
 20
1178.375651
 40
2.0
100
AcDbArc
 50
0.0
 51
90.0
  0
LINE
  5
520
100
AcDbEntity
  8
M0
 62
     1
100
AcDbLine
 10
472.726774
 20
1185.375651
 11
472.726774
 21
1181.375651
  0
LINE
  5
521
100
AcDbEntity
  8
M0
 62
     1
100
AcDbLine
 10
505.226774
 20
1180.375651
 11
473.726774
 21
1180.375651
  0
ARC
  5
522
100
AcDbEntity
  8
M0
 62
     1
100
AcDbCircle
 10
473.726774
 20
1181.375651
 40
1.0
100
AcDbArc
 50
180.0
 51
270.0
  0
LINE
  5
523
100
AcDbEntity
  8
M0
 62
     1
100
AcDbLine
 10
459.726774
 20
1185.375651
 11
459.726774
 21
1181.375651
  0
ARC
  5
524
100
AcDbEntity
  8
M0
 62
     1
100
AcDbCircle
 10
458.726774
 20
1181.375651
 40
1.0
100
AcDbArc
 50
270.0
 51
360.0
  0
ARC
  5
525
100
AcDbEntity
  8
M0
 62
     1
100
AcDbCircle
 10
464.726774
 20
1181.375651
 40
1.0
100
AcDbArc
 50
180.0
 51
270.0
  0
LINE
  5
526
100
AcDbEntity
  8
M0
 62
     1
100
AcDbLine
 10
467.726774
 20
1180.375651
 11
464.726774
 21
1180.375651
  0
ARC
  5
527
100
AcDbEntity
  8
M0
 62
     1
100
AcDbCircle
 10
467.726774
 20
1181.375651
 40
1.0
100
AcDbArc
 50
270.0
 51
360.0
  0
ARC
  5
528
100
AcDbEntity
  8
M0
 62
     1
100
AcDbCircle
 10
469.726774
 20
1183.375651
 40
1.0
100
AcDbArc
 50
90.0
 51
180.0
  0
ARC
  5
529
100
AcDbEntity
  8
M0
 62
     1
100
AcDbCircle
 10
462.726774
 20
1183.375651
 40
1.0
100
AcDbArc
 50
0.0
 51
90.0
  0
LINE
  5
52A
100
AcDbEntity
  8
M0
 62
     1
100
AcDbLine
 10
471.726774
 20
1184.375651
 11
469.726774
 21
1184.375651
  0
ARC
  5
52B
100
AcDbEntity
  8
M0
 62
     1
100
AcDbCircle
 10
471.726774
 20
1183.375651
 40
1.0
100
AcDbArc
 50
0.0
 51
90.0
  0
LINE
  5
52C
100
AcDbEntity
  8
M0
 62
     1
100
AcDbLine
 10
462.726774
 20
1184.375651
 11
460.726774
 21
1184.375651
  0
ARC
  5
52D
100
AcDbEntity
  8
M0
 62
     1
100
AcDbCircle
 10
460.726774
 20
1183.375651
 40
1.0
100
AcDbArc
 50
90.0
 51
180.0
  0
LINE
  5
52E
100
AcDbEntity
  8
M0
 62
     1
100
AcDbLine
 10
467.226774
 20
1187.375651
 11
467.226774
 21
1184.375651
  0
LINE
  5
52F
100
AcDbEntity
  8
M0
 62
     1
100
AcDbLine
 10
465.226774
 20
1187.375651
 11
465.226774
 21
1184.375651
  0
LINE
  5
530
100
AcDbEntity
  8
M0
 62
     1
100
AcDbLine
 10
468.726774
 20
1183.875651
 11
468.726774
 21
1181.375651
  0
LINE
  5
531
100
AcDbEntity
  8
M0
 62
     1
100
AcDbLine
 10
467.226774
 20
1184.375651
 11
468.226774
 21
1184.375651
  0
ARC
  5
532
100
AcDbEntity
  8
M0
 62
     1
100
AcDbCircle
 10
468.226774
 20
1183.875651
 40
0.5
100
AcDbArc
 50
0.0
 51
90.0
  0
LINE
  5
533
100
AcDbEntity
  8
M0
 62
     1
100
AcDbLine
 10
464.226774
 20
1184.375651
 11
465.226774
 21
1184.375651
  0
LINE
  5
534
100
AcDbEntity
  8
M0
 62
     1
100
AcDbLine
 10
463.726774
 20
1183.875651
 11
463.726774
 21
1181.375651
  0
ARC
  5
535
100
AcDbEntity
  8
M0
 62
     1
100
AcDbCircle
 10
464.226774
 20
1183.875651
 40
0.5
100
AcDbArc
 50
90.0
 51
180.0
  0
LINE
  5
536
100
AcDbEntity
  8
M0
 62
     1
100
AcDbLine
 10
463.726774
 20
1181.875651
 11
468.726774
 21
1181.875651
  0
LINE
  5
537
100
AcDbEntity
  8
M0
 62
     1
100
AcDbLine
 10
458.726774
 20
1180.375651
 11
441.226774
 21
1180.375651
  0
LINE
  5
538
100
AcDbEntity
  8
M0
 62
     1
100
AcDbLine
 10
510.226774
 20
1109.375651
 11
510.226774
 21
1175.375651
  0
LINE
  5
539
100
AcDbEntity
  8
M0
 62
     1
100
AcDbLine
 10
386.226774
 20
1175.375651
 11
406.226774
 21
1175.375651
  0
LINE
  5
53A
100
AcDbEntity
  8
M0
 62
     1
100
AcDbLine
 10
431.226774
 20
1175.375651
 11
441.226774
 21
1175.375651
  0
ARC
  5
53B
100
AcDbEntity
  8
M0
 62
     1
100
AcDbCircle
 10
411.726774
 20
1185.375651
 40
2.0
100
AcDbArc
 50
90.0
 51
180.0
  0
LINE
  5
53C
100
AcDbEntity
  8
M0
 62
     1
100
AcDbLine
 10
411.726774
 20
1187.375651
 11
420.726774
 21
1187.375651
  0
ARC
  5
53D
100
AcDbEntity
  8
M0
 62
     1
100
AcDbCircle
 10
420.726774
 20
1185.375651
 40
2.0
100
AcDbArc
 50
0.0
 51
90.0
  0
ARC
  5
53E
100
AcDbEntity
  8
M0
 62
     1
100
AcDbCircle
 10
377.226774
 20
1175.375651
 40
5.0
100
AcDbArc
 50
90.0
 51
180.0
  0
LINE
  5
53F
100
AcDbEntity
  8
M0
 62
     1
100
AcDbLine
 10
431.226774
 20
1178.375651
 11
431.226774
 21
1175.375651
  0
ARC
  5
540
100
AcDbEntity
  8
M0
 62
     1
100
AcDbCircle
 10
429.226774
 20
1178.375651
 40
2.0
100
AcDbArc
 50
0.0
 51
90.0
  0
LINE
  5
541
100
AcDbEntity
  8
M0
 62
     1
100
AcDbLine
 10
386.226774
 20
1178.375651
 11
386.226774
 21
1175.375651
  0
ARC
  5
542
100
AcDbEntity
  8
M0
 62
     1
100
AcDbCircle
 10
384.226774
 20
1178.375651
 40
2.0
100
AcDbArc
 50
0.0
 51
90.0
  0
LINE
  5
543
100
AcDbEntity
  8
M0
 62
     1
100
AcDbLine
 10
406.226774
 20
1178.375651
 11
406.226774
 21
1175.375651
  0
ARC
  5
544
100
AcDbEntity
  8
M0
 62
     1
100
AcDbCircle
 10
408.226774
 20
1178.375651
 40
2.0
100
AcDbArc
 50
90.0
 51
180.0
  0
LINE
  5
545
100
AcDbEntity
  8
M0
 62
     1
100
AcDbLine
 10
409.726774
 20
1185.375651
 11
409.726774
 21
1181.375651
  0
LINE
  5
546
100
AcDbEntity
  8
M0
 62
     1
100
AcDbLine
 10
377.226774
 20
1180.375651
 11
408.726774
 21
1180.375651
  0
ARC
  5
547
100
AcDbEntity
  8
M0
 62
     1
100
AcDbCircle
 10
408.726774
 20
1181.375651
 40
1.0
100
AcDbArc
 50
-90.0
 51
0.0
  0
LINE
  5
548
100
AcDbEntity
  8
M0
 62
     1
100
AcDbLine
 10
422.726774
 20
1185.375651
 11
422.726774
 21
1181.375651
  0
ARC
  5
549
100
AcDbEntity
  8
M0
 62
     1
100
AcDbCircle
 10
423.726774
 20
1181.375651
 40
1.0
100
AcDbArc
 50
180.0
 51
270.0
  0
ARC
  5
54A
100
AcDbEntity
  8
M0
 62
     1
100
AcDbCircle
 10
417.726774
 20
1181.375651
 40
1.0
100
AcDbArc
 50
-90.0
 51
0.0
  0
LINE
  5
54B
100
AcDbEntity
  8
M0
 62
     1
100
AcDbLine
 10
414.726774
 20
1180.375651
 11
417.726774
 21
1180.375651
  0
ARC
  5
54C
100
AcDbEntity
  8
M0
 62
     1
100
AcDbCircle
 10
414.726774
 20
1181.375651
 40
1.0
100
AcDbArc
 50
180.0
 51
270.0
  0
ARC
  5
54D
100
AcDbEntity
  8
M0
 62
     1
100
AcDbCircle
 10
412.726774
 20
1183.375651
 40
1.0
100
AcDbArc
 50
0.0
 51
90.0
  0
ARC
  5
54E
100
AcDbEntity
  8
M0
 62
     1
100
AcDbCircle
 10
419.726774
 20
1183.375651
 40
1.0
100
AcDbArc
 50
90.0
 51
180.0
  0
LINE
  5
54F
100
AcDbEntity
  8
M0
 62
     1
100
AcDbLine
 10
410.726774
 20
1184.375651
 11
412.726774
 21
1184.375651
  0
ARC
  5
550
100
AcDbEntity
  8
M0
 62
     1
100
AcDbCircle
 10
410.726774
 20
1183.375651
 40
1.0
100
AcDbArc
 50
90.0
 51
180.0
  0
LINE
  5
551
100
AcDbEntity
  8
M0
 62
     1
100
AcDbLine
 10
419.726774
 20
1184.375651
 11
421.726774
 21
1184.375651
  0
ARC
  5
552
100
AcDbEntity
  8
M0
 62
     1
100
AcDbCircle
 10
421.726774
 20
1183.375651
 40
1.0
100
AcDbArc
 50
0.0
 51
90.0
  0
LINE
  5
553
100
AcDbEntity
  8
M0
 62
     1
100
AcDbLine
 10
415.226774
 20
1187.375651
 11
415.226774
 21
1184.375651
  0
LINE
  5
554
100
AcDbEntity
  8
M0
 62
     1
100
AcDbLine
 10
417.226774
 20
1187.375651
 11
417.226774
 21
1184.375651
  0
LINE
  5
555
100
AcDbEntity
  8
M0
 62
     1
100
AcDbLine
 10
413.726774
 20
1183.875651
 11
413.726774
 21
1181.375651
  0
LINE
  5
556
100
AcDbEntity
  8
M0
 62
     1
100
AcDbLine
 10
415.226774
 20
1184.375651
 11
414.226774
 21
1184.375651
  0
ARC
  5
557
100
AcDbEntity
  8
M0
 62
     1
100
AcDbCircle
 10
414.226774
 20
1183.875651
 40
0.5
100
AcDbArc
 50
90.0
 51
180.0
  0
LINE
  5
558
100
AcDbEntity
  8
M0
 62
     1
100
AcDbLine
 10
418.226774
 20
1184.375651
 11
417.226774
 21
1184.375651
  0
LINE
  5
559
100
AcDbEntity
  8
M0
 62
     1
100
AcDbLine
 10
418.726774
 20
1183.875651
 11
418.726774
 21
1181.375651
  0
ARC
  5
55A
100
AcDbEntity
  8
M0
 62
     1
100
AcDbCircle
 10
418.226774
 20
1183.875651
 40
0.5
100
AcDbArc
 50
0.0
 51
90.0
  0
LINE
  5
55B
100
AcDbEntity
  8
M0
 62
     1
100
AcDbLine
 10
418.726774
 20
1181.875651
 11
413.726774
 21
1181.875651
  0
LINE
  5
55C
100
AcDbEntity
  8
M0
 62
     1
100
AcDbLine
 10
423.726774
 20
1180.375651
 11
441.226774
 21
1180.375651
  0
LINE
  5
55D
100
AcDbEntity
  8
M0
 62
     1
100
AcDbLine
 10
372.226774
 20
1109.375651
 11
372.226774
 21
1175.375651
  0
LINE
  5
55E
100
AcDbEntity
  8
M0
 62
     1
100
AcDbLine
 10
496.226774
 20
1043.375651
 11
476.226774
 21
1043.375651
  0
LINE
  5
55F
100
AcDbEntity
  8
M0
 62
     1
100
AcDbLine
 10
451.226774
 20
1043.375651
 11
441.226774
 21
1043.375651
  0
ARC
  5
560
100
AcDbEntity
  8
M0
 62
     1
100
AcDbCircle
 10
470.726774
 20
1033.375651
 40
2.0
100
AcDbArc
 50
-90.0
 51
0.0
  0
LINE
  5
561
100
AcDbEntity
  8
M0
 62
     1
100
AcDbLine
 10
470.726774
 20
1031.375651
 11
461.726774
 21
1031.375651
  0
ARC
  5
562
100
AcDbEntity
  8
M0
 62
     1
100
AcDbCircle
 10
461.726774
 20
1033.375651
 40
2.0
100
AcDbArc
 50
180.0
 51
270.0
  0
ARC
  5
563
100
AcDbEntity
  8
M0
 62
     1
100
AcDbCircle
 10
505.226774
 20
1043.375651
 40
5.0
100
AcDbArc
 50
-90.0
 51
0.0
  0
LINE
  5
564
100
AcDbEntity
  8
M0
 62
     1
100
AcDbLine
 10
451.226774
 20
1040.375651
 11
451.226774
 21
1043.375651
  0
ARC
  5
565
100
AcDbEntity
  8
M0
 62
     1
100
AcDbCircle
 10
453.226774
 20
1040.375651
 40
2.0
100
AcDbArc
 50
180.0
 51
270.0
  0
LINE
  5
566
100
AcDbEntity
  8
M0
 62
     1
100
AcDbLine
 10
496.226774
 20
1040.375651
 11
496.226774
 21
1043.375651
  0
ARC
  5
567
100
AcDbEntity
  8
M0
 62
     1
100
AcDbCircle
 10
498.226774
 20
1040.375651
 40
2.0
100
AcDbArc
 50
180.0
 51
270.0
  0
LINE
  5
568
100
AcDbEntity
  8
M0
 62
     1
100
AcDbLine
 10
476.226774
 20
1040.375651
 11
476.226774
 21
1043.375651
  0
ARC
  5
569
100
AcDbEntity
  8
M0
 62
     1
100
AcDbCircle
 10
474.226774
 20
1040.375651
 40
2.0
100
AcDbArc
 50
-90.0
 51
0.0
  0
LINE
  5
56A
100
AcDbEntity
  8
M0
 62
     1
100
AcDbLine
 10
472.726774
 20
1033.375651
 11
472.726774
 21
1037.375651
  0
LINE
  5
56B
100
AcDbEntity
  8
M0
 62
     1
100
AcDbLine
 10
505.226774
 20
1038.375651
 11
473.726774
 21
1038.375651
  0
ARC
  5
56C
100
AcDbEntity
  8
M0
 62
     1
100
AcDbCircle
 10
473.726774
 20
1037.375651
 40
1.0
100
AcDbArc
 50
90.0
 51
180.0
  0
LINE
  5
56D
100
AcDbEntity
  8
M0
 62
     1
100
AcDbLine
 10
459.726774
 20
1033.375651
 11
459.726774
 21
1037.375651
  0
ARC
  5
56E
100
AcDbEntity
  8
M0
 62
     1
100
AcDbCircle
 10
458.726774
 20
1037.375651
 40
1.0
100
AcDbArc
 50
0.0
 51
90.0
  0
ARC
  5
56F
100
AcDbEntity
  8
M0
 62
     1
100
AcDbCircle
 10
464.726774
 20
1037.375651
 40
1.0
100
AcDbArc
 50
90.0
 51
180.0
  0
LINE
  5
570
100
AcDbEntity
  8
M0
 62
     1
100
AcDbLine
 10
467.726774
 20
1038.375651
 11
464.726774
 21
1038.375651
  0
ARC
  5
571
100
AcDbEntity
  8
M0
 62
     1
100
AcDbCircle
 10
467.726774
 20
1037.375651
 40
1.0
100
AcDbArc
 50
0.0
 51
90.0
  0
ARC
  5
572
100
AcDbEntity
  8
M0
 62
     1
100
AcDbCircle
 10
469.726774
 20
1035.375651
 40
1.0
100
AcDbArc
 50
180.0
 51
270.0
  0
ARC
  5
573
100
AcDbEntity
  8
M0
 62
     1
100
AcDbCircle
 10
462.726774
 20
1035.375651
 40
1.0
100
AcDbArc
 50
-90.0
 51
0.0
  0
LINE
  5
574
100
AcDbEntity
  8
M0
 62
     1
100
AcDbLine
 10
471.726774
 20
1034.375651
 11
469.726774
 21
1034.375651
  0
ARC
  5
575
100
AcDbEntity
  8
M0
 62
     1
100
AcDbCircle
 10
471.726774
 20
1035.375651
 40
1.0
100
AcDbArc
 50
-90.0
 51
0.0
  0
LINE
  5
576
100
AcDbEntity
  8
M0
 62
     1
100
AcDbLine
 10
462.726774
 20
1034.375651
 11
460.726774
 21
1034.375651
  0
ARC
  5
577
100
AcDbEntity
  8
M0
 62
     1
100
AcDbCircle
 10
460.726774
 20
1035.375651
 40
1.0
100
AcDbArc
 50
180.0
 51
270.0
  0
LINE
  5
578
100
AcDbEntity
  8
M0
 62
     1
100
AcDbLine
 10
467.226774
 20
1031.375651
 11
467.226774
 21
1034.375651
  0
LINE
  5
579
100
AcDbEntity
  8
M0
 62
     1
100
AcDbLine
 10
465.226774
 20
1031.375651
 11
465.226774
 21
1034.375651
  0
LINE
  5
57A
100
AcDbEntity
  8
M0
 62
     1
100
AcDbLine
 10
468.726774
 20
1034.875651
 11
468.726774
 21
1037.375651
  0
LINE
  5
57B
100
AcDbEntity
  8
M0
 62
     1
100
AcDbLine
 10
467.226774
 20
1034.375651
 11
468.226774
 21
1034.375651
  0
ARC
  5
57C
100
AcDbEntity
  8
M0
 62
     1
100
AcDbCircle
 10
468.226774
 20
1034.875651
 40
0.5
100
AcDbArc
 50
-90.0
 51
0.0
  0
LINE
  5
57D
100
AcDbEntity
  8
M0
 62
     1
100
AcDbLine
 10
464.226774
 20
1034.375651
 11
465.226774
 21
1034.375651
  0
LINE
  5
57E
100
AcDbEntity
  8
M0
 62
     1
100
AcDbLine
 10
463.726774
 20
1034.875651
 11
463.726774
 21
1037.375651
  0
ARC
  5
57F
100
AcDbEntity
  8
M0
 62
     1
100
AcDbCircle
 10
464.226774
 20
1034.875651
 40
0.5
100
AcDbArc
 50
180.0
 51
270.0
  0
LINE
  5
580
100
AcDbEntity
  8
M0
 62
     1
100
AcDbLine
 10
463.726774
 20
1036.875651
 11
468.726774
 21
1036.875651
  0
LINE
  5
581
100
AcDbEntity
  8
M0
 62
     1
100
AcDbLine
 10
458.726774
 20
1038.375651
 11
441.226774
 21
1038.375651
  0
LINE
  5
582
100
AcDbEntity
  8
M0
 62
     1
100
AcDbLine
 10
510.226774
 20
1109.375651
 11
510.226774
 21
1043.375651
  0
LINE
  5
583
100
AcDbEntity
  8
M0
 62
     1
100
AcDbLine
 10
386.226774
 20
1043.375651
 11
406.226774
 21
1043.375651
  0
LINE
  5
584
100
AcDbEntity
  8
M0
 62
     1
100
AcDbLine
 10
431.226774
 20
1043.375651
 11
441.226774
 21
1043.375651
  0
ARC
  5
585
100
AcDbEntity
  8
M0
 62
     1
100
AcDbCircle
 10
411.726774
 20
1033.375651
 40
2.0
100
AcDbArc
 50
180.0
 51
270.0
  0
LINE
  5
586
100
AcDbEntity
  8
M0
 62
     1
100
AcDbLine
 10
411.726774
 20
1031.375651
 11
420.726774
 21
1031.375651
  0
ARC
  5
587
100
AcDbEntity
  8
M0
 62
     1
100
AcDbCircle
 10
420.726774
 20
1033.375651
 40
2.0
100
AcDbArc
 50
270.0
 51
360.0
  0
ARC
  5
588
100
AcDbEntity
  8
M0
 62
     1
100
AcDbCircle
 10
377.226774
 20
1043.375651
 40
5.0
100
AcDbArc
 50
180.0
 51
270.0
  0
LINE
  5
589
100
AcDbEntity
  8
M0
 62
     1
100
AcDbLine
 10
431.226774
 20
1040.375651
 11
431.226774
 21
1043.375651
  0
ARC
  5
58A
100
AcDbEntity
  8
M0
 62
     1
100
AcDbCircle
 10
429.226774
 20
1040.375651
 40
2.0
100
AcDbArc
 50
270.0
 51
360.0
  0
LINE
  5
58B
100
AcDbEntity
  8
M0
 62
     1
100
AcDbLine
 10
386.226774
 20
1040.375651
 11
386.226774
 21
1043.375651
  0
ARC
  5
58C
100
AcDbEntity
  8
M0
 62
     1
100
AcDbCircle
 10
384.226774
 20
1040.375651
 40
2.0
100
AcDbArc
 50
270.0
 51
360.0
  0
LINE
  5
58D
100
AcDbEntity
  8
M0
 62
     1
100
AcDbLine
 10
406.226774
 20
1040.375651
 11
406.226774
 21
1043.375651
  0
ARC
  5
58E
100
AcDbEntity
  8
M0
 62
     1
100
AcDbCircle
 10
408.226774
 20
1040.375651
 40
2.0
100
AcDbArc
 50
180.0
 51
270.0
  0
LINE
  5
58F
100
AcDbEntity
  8
M0
 62
     1
100
AcDbLine
 10
409.726774
 20
1033.375651
 11
409.726774
 21
1037.375651
  0
LINE
  5
590
100
AcDbEntity
  8
M0
 62
     1
100
AcDbLine
 10
377.226774
 20
1038.375651
 11
408.726774
 21
1038.375651
  0
ARC
  5
591
100
AcDbEntity
  8
M0
 62
     1
100
AcDbCircle
 10
408.726774
 20
1037.375651
 40
1.0
100
AcDbArc
 50
0.0
 51
90.0
  0
LINE
  5
592
100
AcDbEntity
  8
M0
 62
     1
100
AcDbLine
 10
422.726774
 20
1033.375651
 11
422.726774
 21
1037.375651
  0
ARC
  5
593
100
AcDbEntity
  8
M0
 62
     1
100
AcDbCircle
 10
423.726774
 20
1037.375651
 40
1.0
100
AcDbArc
 50
90.0
 51
180.0
  0
ARC
  5
594
100
AcDbEntity
  8
M0
 62
     1
100
AcDbCircle
 10
417.726774
 20
1037.375651
 40
1.0
100
AcDbArc
 50
0.0
 51
90.0
  0
LINE
  5
595
100
AcDbEntity
  8
M0
 62
     1
100
AcDbLine
 10
414.726774
 20
1038.375651
 11
417.726774
 21
1038.375651
  0
ARC
  5
596
100
AcDbEntity
  8
M0
 62
     1
100
AcDbCircle
 10
414.726774
 20
1037.375651
 40
1.0
100
AcDbArc
 50
90.0
 51
180.0
  0
ARC
  5
597
100
AcDbEntity
  8
M0
 62
     1
100
AcDbCircle
 10
412.726774
 20
1035.375651
 40
1.0
100
AcDbArc
 50
270.0
 51
360.0
  0
ARC
  5
598
100
AcDbEntity
  8
M0
 62
     1
100
AcDbCircle
 10
419.726774
 20
1035.375651
 40
1.0
100
AcDbArc
 50
180.0
 51
270.0
  0
LINE
  5
599
100
AcDbEntity
  8
M0
 62
     1
100
AcDbLine
 10
410.726774
 20
1034.375651
 11
412.726774
 21
1034.375651
  0
ARC
  5
59A
100
AcDbEntity
  8
M0
 62
     1
100
AcDbCircle
 10
410.726774
 20
1035.375651
 40
1.0
100
AcDbArc
 50
180.0
 51
270.0
  0
LINE
  5
59B
100
AcDbEntity
  8
M0
 62
     1
100
AcDbLine
 10
419.726774
 20
1034.375651
 11
421.726774
 21
1034.375651
  0
ARC
  5
59C
100
AcDbEntity
  8
M0
 62
     1
100
AcDbCircle
 10
421.726774
 20
1035.375651
 40
1.0
100
AcDbArc
 50
270.0
 51
360.0
  0
LINE
  5
59D
100
AcDbEntity
  8
M0
 62
     1
100
AcDbLine
 10
415.226774
 20
1031.375651
 11
415.226774
 21
1034.375651
  0
LINE
  5
59E
100
AcDbEntity
  8
M0
 62
     1
100
AcDbLine
 10
417.226774
 20
1031.375651
 11
417.226774
 21
1034.375651
  0
LINE
  5
59F
100
AcDbEntity
  8
M0
 62
     1
100
AcDbLine
 10
413.726774
 20
1034.875651
 11
413.726774
 21
1037.375651
  0
LINE
  5
5A0
100
AcDbEntity
  8
M0
 62
     1
100
AcDbLine
 10
415.226774
 20
1034.375651
 11
414.226774
 21
1034.375651
  0
ARC
  5
5A1
100
AcDbEntity
  8
M0
 62
     1
100
AcDbCircle
 10
414.226774
 20
1034.875651
 40
0.5
100
AcDbArc
 50
180.0
 51
270.0
  0
LINE
  5
5A2
100
AcDbEntity
  8
M0
 62
     1
100
AcDbLine
 10
418.226774
 20
1034.375651
 11
417.226774
 21
1034.375651
  0
LINE
  5
5A3
100
AcDbEntity
  8
M0
 62
     1
100
AcDbLine
 10
418.726774
 20
1034.875651
 11
418.726774
 21
1037.375651
  0
ARC
  5
5A4
100
AcDbEntity
  8
M0
 62
     1
100
AcDbCircle
 10
418.226774
 20
1034.875651
 40
0.5
100
AcDbArc
 50
270.0
 51
360.0
  0
LINE
  5
5A5
100
AcDbEntity
  8
M0
 62
     1
100
AcDbLine
 10
418.726774
 20
1036.875651
 11
413.726774
 21
1036.875651
  0
LINE
  5
5A6
100
AcDbEntity
  8
M0
 62
     1
100
AcDbLine
 10
423.726774
 20
1038.375651
 11
441.226774
 21
1038.375651
  0
LINE
  5
5A7
100
AcDbEntity
  8
M0
 62
     1
100
AcDbLine
 10
372.226774
 20
1109.375651
 11
372.226774
 21
1043.375651
  0
LINE
  5
5A8
100
AcDbEntity
  8
M0
 62
     1
100
AcDbLine
 10
430.226774
 20
1098.875651
 11
452.226774
 21
1098.875651
  0
LINE
  5
5A9
100
AcDbEntity
  8
M0
 62
     1
100
AcDbLine
 10
447.226774
 20
1121.675651
 11
447.226774
 21
1119.375651
  0
LINE
  5
5AA
100
AcDbEntity
  8
M0
 62
     1
100
AcDbLine
 10
435.226774
 20
1121.675651
 11
435.226774
 21
1119.375651
  0
LINE
  5
5AB
100
AcDbEntity
  8
M0
 62
     1
100
AcDbLine
 10
452.226774
 20
1098.875651
 11
452.226774
 21
1116.375651
  0
LINE
  5
5AC
100
AcDbEntity
  8
M0
 62
     1
100
AcDbLine
 10
449.226774
 20
1119.375651
 11
447.226774
 21
1119.375651
  0
ARC
  5
5AD
100
AcDbEntity
  8
M0
 62
     1
100
AcDbCircle
 10
449.226774
 20
1116.375651
 40
3.0
100
AcDbArc
 50
0.0
 51
90.0
  0
LINE
  5
5AE
100
AcDbEntity
  8
M0
 62
     1
100
AcDbLine
 10
435.226774
 20
1119.375651
 11
433.226774
 21
1119.375651
  0
LINE
  5
5AF
100
AcDbEntity
  8
M0
 62
     1
100
AcDbLine
 10
430.226774
 20
1116.375651
 11
430.226774
 21
1098.875651
  0
ARC
  5
5B0
100
AcDbEntity
  8
M0
 62
     1
100
AcDbCircle
 10
433.226774
 20
1116.375651
 40
3.0
100
AcDbArc
 50
90.0
 51
180.0
  0
LINE
  5
5B1
100
AcDbEntity
  8
M0
 62
     1
100
AcDbLine
 10
438.226774
 20
1106.875651
 11
444.226774
 21
1106.875651
  0
LINE
  5
5B2
100
AcDbEntity
  8
M0
 62
     1
100
AcDbLine
 10
438.226774
 20
1111.875651
 11
444.226774
 21
1111.875651
  0
LINE
  5
5B3
100
AcDbEntity
  8
M0
 62
     1
100
AcDbLine
 10
438.226774
 20
1106.875651
 11
438.226774
 21
1111.875651
  0
LINE
  5
5B4
100
AcDbEntity
  8
M0
 62
     1
100
AcDbLine
 10
444.226774
 20
1106.875651
 11
444.226774
 21
1111.875651
  0
LINE
  5
5B5
100
AcDbEntity
  8
M0
 62
     1
100
AcDbLine
 10
443.726774
 20
1122.875651
 11
443.726774
 21
1123.575651
  0
LINE
  5
5B6
100
AcDbEntity
  8
M0
 62
     1
100
AcDbLine
 10
438.726774
 20
1122.875651
 11
438.726774
 21
1123.575651
  0
LINE
  5
5B7
100
AcDbEntity
  8
M0
 62
     1
100
AcDbLine
 10
447.226774
 20
1122.875651
 11
447.226774
 21
1121.675651
  0
LINE
  5
5B8
100
AcDbEntity
  8
M0
 62
     1
100
AcDbLine
 10
435.226774
 20
1122.875651
 11
435.226774
 21
1121.675651
  0
LINE
  5
5B9
100
AcDbEntity
  8
M0
 62
     1
100
AcDbLine
 10
435.226774
 20
1122.875651
 11
438.726774
 21
1122.875651
  0
LINE
  5
5BA
100
AcDbEntity
  8
M0
 62
     1
100
AcDbLine
 10
443.726774
 20
1123.575651
 11
438.726774
 21
1123.575651
  0
LINE
  5
5BB
100
AcDbEntity
  8
M0
 62
     1
100
AcDbLine
 10
443.726774
 20
1122.875651
 11
447.226774
 21
1122.875651
  0
ARC
  5
5BC
100
AcDbEntity
  8
M0
 62
     4
100
AcDbCircle
 10
318.227048
 20
1224.375651
 40
5.0
100
AcDbArc
 50
53.130102
 51
90.0
  0
ARC
  5
5BD
100
AcDbEntity
  8
M0
 62
     4
100
AcDbCircle
 10
318.226831
 20
994.375834
 40
5.0
100
AcDbArc
 50
270.0
 51
306.8664
  0
LINE
  5
5BE
100
AcDbEntity
  8
M0
 62
     4
100
AcDbLine
 10
334.676859
 20
1027.375818
 11
334.676902
 21
1083.769987
  0
ARC
  5
5BF
100
AcDbEntity
  8
M0
 62
     4
100
AcDbCircle
 10
329.477022
 20
1197.175689
 40
5.2
100
AcDbArc
 50
359.997256
 51
384.018534
  0
LINE
  5
5C0
100
AcDbEntity
  8
M0
 62
     4
100
AcDbLine
 10
334.677014
 20
1191.375635
 11
326.227017
 21
1191.375643
  0
LINE
  5
5C1
100
AcDbEntity
  8
M0
 62
     4
100
AcDbLine
 10
331.477018
 20
1192.37554
 11
331.477017
 21
1191.375638
  0
LINE
  5
5C2
100
AcDbEntity
  8
M0
 62
     4
100
AcDbLine
 10
318.227053
 20
1229.375651
 11
188.227056
 21
1229.375773
  0
LINE
  5
5C3
100
AcDbEntity
  8
M0
 62
     4
100
AcDbLine
 10
188.22683
 20
989.375956
 11
318.226827
 21
989.375834
  0
LINE
  5
5C4
100
AcDbEntity
  8
M0
 62
     4
100
AcDbLine
 10
292.227053
 20
1229.375675
 11
292.227043
 21
1219.375675
  0
LINE
  5
5C5
100
AcDbEntity
  8
M0
 62
     4
100
AcDbLine
 10
274.227053
 20
1229.375692
 11
274.227043
 21
1219.375692
  0
ARC
  5
5C6
100
AcDbEntity
  8
M0
 62
     4
100
AcDbCircle
 10
283.227043
 20
1219.375684
 40
9.0
100
AcDbArc
 50
179.999946
 51
242.734414
  0
LINE
  5
5C7
100
AcDbEntity
  8
M0
 62
     4
100
AcDbLine
 10
296.226774
 20
1008.375855
 11
283.226844
 21
1008.375867
  0
LINE
  5
5C8
100
AcDbEntity
  8
M0
 62
     4
100
AcDbLine
 10
274.226836
 20
999.375875
 11
274.226827
 21
989.375875
  0
ARC
  5
5C9
100
AcDbEntity
  8
M0
 62
     4
100
AcDbCircle
 10
283.226836
 20
999.375867
 40
9.0
100
AcDbArc
 50
90.0
 51
179.999946
  0
ARC
  5
5CA
100
AcDbEntity
  8
M0
 62
     4
100
AcDbCircle
 10
188.227052
 20
1224.375773
 40
5.0
100
AcDbArc
 50
90.0
 51
179.999946
  0
ARC
  5
5CB
100
AcDbEntity
  8
M0
 62
     4
100
AcDbCircle
 10
188.226835
 20
994.375956
 40
5.0
100
AcDbArc
 50
179.999946
 51
270.0
  0
LINE
  5
5CC
100
AcDbEntity
  8
M0
 62
     4
100
AcDbLine
 10
171.676866
 20
1027.375957
 11
171.677026
 21
1197.175594
  0
ARC
  5
5CD
100
AcDbEntity
  8
M0
 62
     4
100
AcDbCircle
 10
176.877026
 20
1197.175589
 40
5.2
100
AcDbArc
 50
153.415994
 51
179.999946
  0
LINE
  5
5CE
100
AcDbEntity
  8
M0
 62
     4
100
AcDbLine
 10
171.777021
 20
1191.375789
 11
180.227021
 21
1191.375781
  0
LINE
  5
5CF
100
AcDbEntity
  8
M0
 62
     4
100
AcDbLine
 10
174.877021
 20
1192.37554
 11
174.87702
 21
1191.375542
  0
LINE
  5
5D0
100
AcDbEntity
  8
M0
 62
     4
100
AcDbLine
 10
183.227052
 20
1224.375778
 11
183.227047
 21
1219.375669
  0
LINE
  5
5D1
100
AcDbEntity
  8
M0
 62
     4
100
AcDbLine
 10
183.22684
 20
999.375408
 11
183.226835
 21
994.375961
  0
LINE
  5
5D2
100
AcDbEntity
  8
M0
 62
     4
100
AcDbLine
 10
214.227053
 20
1229.375749
 11
214.227043
 21
1219.375749
  0
LINE
  5
5D3
100
AcDbEntity
  8
M0
 62
     4
100
AcDbLine
 10
232.227053
 20
1229.375732
 11
232.227043
 21
1219.375732
  0
ARC
  5
5D4
100
AcDbEntity
  8
M0
 62
     4
100
AcDbCircle
 10
223.227043
 20
1219.37574
 40
9.0
100
AcDbArc
 50
179.999946
 51
359.998392
  0
LINE
  5
5D5
100
AcDbEntity
  8
M0
 62
     4
100
AcDbLine
 10
210.226774
 20
1008.375936
 11
223.226844
 21
1008.375923
  0
LINE
  5
5D6
100
AcDbEntity
  8
M0
 62
     4
100
AcDbLine
 10
232.226836
 20
999.375915
 11
232.226827
 21
989.375915
  0
ARC
  5
5D7
100
AcDbEntity
  8
M0
 62
     4
100
AcDbCircle
 10
223.226836
 20
999.375923
 40
9.0
100
AcDbArc
 50
-0.000151
 51
90.0
  0
ARC
  5
5D8
100
AcDbEntity
  8
M0
 62
     4
100
AcDbCircle
 10
193.226836
 20
999.375952
 40
4.5
100
AcDbArc
 50
180.006927
 51
359.993073
  0
LINE
  5
5D9
100
AcDbEntity
  8
M0
 62
     4
100
AcDbLine
 10
334.67697
 20
1155.575648
 11
334.677019
 21
1197.175684
  0
ARC
  5
5DA
100
AcDbEntity
  8
M0
 62
     4
100
AcDbCircle
 10
306.726774
 20
1225.375651
 40
3.0
100
AcDbArc
 50
90.0
 51
180.0
  0
LINE
  5
5DB
100
AcDbEntity
  8
M0
 62
     4
100
AcDbLine
 10
303.726774
 20
1225.375651
 11
303.726774
 21
1219.375672
  0
LINE
  5
5DC
100
AcDbEntity
  8
M0
  6
DASHDOT
 62
     4
100
AcDbLine
 10
311.226767
 20
1184.709014
 11
311.226767
 21
1224.042346
  0
LINE
  5
5DD
100
AcDbEntity
  8
M0
 62
     4
100
AcDbLine
 10
335.226774
 20
1228.375651
 11
306.726774
 21
1228.375651
  0
LINE
  5
5DE
100
AcDbEntity
  8
M0
 62
     4
100
AcDbLine
 10
335.226774
 20
990.375651
 11
306.726774
 21
990.375651
  0
ARC
  5
5DF
100
AcDbEntity
  8
M0
 62
     4
100
AcDbCircle
 10
306.726774
 20
993.375651
 40
3.0
100
AcDbArc
 50
180.0
 51
270.0
  0
LINE
  5
5E0
100
AcDbEntity
  8
M0
 62
     4
100
AcDbLine
 10
303.726774
 20
999.375408
 11
303.726774
 21
993.375651
  0
LINE
  5
5E1
100
AcDbEntity
  8
M0
 62
     4
100
AcDbLine
 10
334.676786
 20
1024.375651
 11
326.226774
 21
1024.375651
  0
ARC
  5
5E2
100
AcDbEntity
  8
M0
 62
     4
100
AcDbCircle
 10
283.227043
 20
1219.375684
 40
9.0
100
AcDbArc
 50
249.850289
 51
359.998392
  0
CIRCLE
  5
5E3
100
AcDbEntity
  8
M0
 62
     4
100
AcDbCircle
 10
291.226774
 20
1024.375651
 40
3.0
  0
CIRCLE
  5
5E4
100
AcDbEntity
  8
M0
 62
     4
100
AcDbCircle
 10
215.226774
 20
1024.375651
 40
3.0
  0
LINE
  5
5E5
100
AcDbEntity
  8
M0
 62
     2
100
AcDbLine
 10
222.726774
 20
1034.375662
 11
224.726774
 21
1034.375662
  0
LINE
  5
5E6
100
AcDbEntity
  8
M0
 62
     2
100
AcDbLine
 10
234.726774
 20
1035.375662
 11
234.726774
 21
1037.375662
  0
LINE
  5
5E7
100
AcDbEntity
  8
M0
 62
     2
100
AcDbLine
 10
221.726777
 20
1035.375662
 11
221.726777
 21
1038.375662
  0
LINE
  5
5E8
100
AcDbEntity
  8
M0
 62
     2
100
AcDbLine
 10
284.726774
 20
1035.375662
 11
284.726774
 21
1038.375662
  0
LINE
  5
5E9
100
AcDbEntity
  8
M0
 62
     2
100
AcDbLine
 10
272.726774
 20
1034.375662
 11
274.726774
 21
1034.375662
  0
LINE
  5
5EA
100
AcDbEntity
  8
M0
 62
     2
100
AcDbLine
 10
231.726774
 20
1034.375662
 11
233.726774
 21
1034.375662
  0
LINE
  5
5EB
100
AcDbEntity
  8
M0
 62
     2
100
AcDbLine
 10
281.726774
 20
1034.375662
 11
283.726774
 21
1034.375662
  0
ARC
  5
5EC
100
AcDbEntity
  8
M0
 62
     2
100
AcDbCircle
 10
222.726774
 20
1035.375662
 40
1.0
100
AcDbArc
 50
179.999126
 51
269.999126
  0
ARC
  5
5ED
100
AcDbEntity
  8
M0
 62
     2
100
AcDbCircle
 10
224.726774
 20
1035.375662
 40
1.0
100
AcDbArc
 50
269.999126
 51
360.0
  0
ARC
  5
5EE
100
AcDbEntity
  8
M0
 62
     2
100
AcDbCircle
 10
231.726774
 20
1035.375662
 40
1.0
100
AcDbArc
 50
179.999126
 51
269.999126
  0
ARC
  5
5EF
100
AcDbEntity
  8
M0
 62
     2
100
AcDbCircle
 10
233.726774
 20
1035.375662
 40
1.0
100
AcDbArc
 50
269.999126
 51
360.0
  0
ARC
  5
5F0
100
AcDbEntity
  8
M0
 62
     2
100
AcDbCircle
 10
272.726774
 20
1035.375662
 40
1.0
100
AcDbArc
 50
179.999126
 51
269.999126
  0
ARC
  5
5F1
100
AcDbEntity
  8
M0
 62
     2
100
AcDbCircle
 10
274.726774
 20
1035.375662
 40
1.0
100
AcDbArc
 50
269.999126
 51
360.0
  0
ARC
  5
5F2
100
AcDbEntity
  8
M0
 62
     2
100
AcDbCircle
 10
281.726774
 20
1035.375662
 40
1.0
100
AcDbArc
 50
179.999126
 51
269.999126
  0
ARC
  5
5F3
100
AcDbEntity
  8
M0
 62
     2
100
AcDbCircle
 10
283.726774
 20
1035.375662
 40
1.0
100
AcDbArc
 50
269.999126
 51
360.0
  0
LINE
  5
5F4
100
AcDbEntity
  8
M0
 62
     2
100
AcDbLine
 10
221.726777
 20
1183.375647
 11
221.726777
 21
1180.375647
  0
ARC
  5
5F5
100
AcDbEntity
  8
M0
 62
     2
100
AcDbCircle
 10
222.726774
 20
1183.375647
 40
1.0
100
AcDbArc
 50
90.0
 51
180.0
  0
LINE
  5
5F6
100
AcDbEntity
  8
M0
 62
     2
100
AcDbLine
 10
222.726774
 20
1184.375647
 11
224.726774
 21
1184.375647
  0
LINE
  5
5F7
100
AcDbEntity
  8
M0
 62
     2
100
AcDbLine
 10
225.726774
 20
1180.375647
 11
225.726774
 21
1183.375647
  0
ARC
  5
5F8
100
AcDbEntity
  8
M0
 62
     2
100
AcDbCircle
 10
224.726774
 20
1183.375647
 40
1.0
100
AcDbArc
 50
0.0
 51
90.0
  0
LINE
  5
5F9
100
AcDbEntity
  8
M0
 62
     2
100
AcDbLine
 10
230.726774
 20
1180.375647
 11
230.726774
 21
1183.375647
  0
ARC
  5
5FA
100
AcDbEntity
  8
M0
 62
     2
100
AcDbCircle
 10
231.726774
 20
1183.375647
 40
1.0
100
AcDbArc
 50
90.0
 51
180.0
  0
LINE
  5
5FB
100
AcDbEntity
  8
M0
 62
     2
100
AcDbLine
 10
231.726774
 20
1184.375647
 11
233.726774
 21
1184.375647
  0
LINE
  5
5FC
100
AcDbEntity
  8
M0
 62
     2
100
AcDbLine
 10
234.726774
 20
1183.375647
 11
234.726774
 21
1180.375647
  0
ARC
  5
5FD
100
AcDbEntity
  8
M0
 62
     2
100
AcDbCircle
 10
233.726774
 20
1183.375647
 40
1.0
100
AcDbArc
 50
0.0
 51
90.0
  0
LINE
  5
5FE
100
AcDbEntity
  8
M0
 62
     2
100
AcDbLine
 10
271.726774
 20
1180.375647
 11
271.726774
 21
1183.375647
  0
ARC
  5
5FF
100
AcDbEntity
  8
M0
 62
     2
100
AcDbCircle
 10
272.726774
 20
1183.375647
 40
1.0
100
AcDbArc
 50
90.0
 51
180.0
  0
LINE
  5
600
100
AcDbEntity
  8
M0
 62
     2
100
AcDbLine
 10
272.726774
 20
1184.375647
 11
274.726774
 21
1184.375647
  0
LINE
  5
601
100
AcDbEntity
  8
M0
 62
     2
100
AcDbLine
 10
275.726774
 20
1180.375647
 11
275.726774
 21
1183.375647
  0
ARC
  5
602
100
AcDbEntity
  8
M0
 62
     2
100
AcDbCircle
 10
274.726774
 20
1183.375647
 40
1.0
100
AcDbArc
 50
0.0
 51
90.0
  0
LINE
  5
603
100
AcDbEntity
  8
M0
 62
     2
100
AcDbLine
 10
280.726774
 20
1183.375647
 11
280.726774
 21
1180.375647
  0
ARC
  5
604
100
AcDbEntity
  8
M0
 62
     2
100
AcDbCircle
 10
281.726774
 20
1183.375647
 40
1.0
100
AcDbArc
 50
90.0
 51
180.0
  0
LINE
  5
605
100
AcDbEntity
  8
M0
 62
     2
100
AcDbLine
 10
281.726774
 20
1184.375647
 11
283.726774
 21
1184.375647
  0
LINE
  5
606
100
AcDbEntity
  8
M0
 62
     2
100
AcDbLine
 10
284.726774
 20
1183.375647
 11
284.726774
 21
1180.375647
  0
ARC
  5
607
100
AcDbEntity
  8
M0
 62
     2
100
AcDbCircle
 10
283.726774
 20
1183.375647
 40
1.0
100
AcDbArc
 50
0.0
 51
90.0
  0
ARC
  5
608
100
AcDbEntity
  8
M0
 62
     2
100
AcDbCircle
 10
332.726774
 20
1189.375647
 40
2.0
100
AcDbArc
 50
0.0
 51
90.0
  0
LINE
  5
609
100
AcDbEntity
  8
M0
 62
     2
100
AcDbLine
 10
332.726774
 20
1191.375647
 11
326.226774
 21
1191.375647
  0
ARC
  5
60A
100
AcDbEntity
  8
M0
 62
     2
100
AcDbCircle
 10
173.726789
 20
1189.375647
 40
2.0
100
AcDbArc
 50
89.999563
 51
180.0
  0
LINE
  5
60B
100
AcDbEntity
  8
M0
 62
     2
100
AcDbLine
 10
173.726789
 20
1191.375647
 11
180.226777
 21
1191.375647
  0
LINE
  5
60C
100
AcDbEntity
  8
M0
 62
     2
100
AcDbLine
 10
197.226778
 20
1180.375647
 11
221.726777
 21
1180.375647
  0
LINE
  5
60D
100
AcDbEntity
  8
M0
 62
     2
100
AcDbLine
 10
293.526755
 20
1186.375647
 11
284.458827
 21
1186.375647
  0
LINE
  5
60E
100
AcDbEntity
  8
M0
 62
     2
100
AcDbLine
 10
334.726774
 20
1029.375662
 11
334.726774
 21
1085.575662
  0
ARC
  5
60F
100
AcDbEntity
  8
M0
 62
     2
100
AcDbCircle
 10
332.726774
 20
1029.375662
 40
2.0
100
AcDbArc
 50
-90.000437
 51
0.0
  0
LINE
  5
610
100
AcDbEntity
  8
M0
 62
     2
100
AcDbLine
 10
332.726774
 20
1027.375662
 11
326.226774
 21
1027.375662
  0
LINE
  5
611
100
AcDbEntity
  8
M0
 62
     2
100
AcDbLine
 10
197.226778
 20
1038.375662
 11
221.726777
 21
1038.375662
  0
LINE
  5
612
100
AcDbEntity
  8
M0
 62
     2
100
AcDbLine
 10
171.726789
 20
1029.375662
 11
171.726789
 21
1189.375647
  0
ARC
  5
613
100
AcDbEntity
  8
M0
 62
     2
100
AcDbCircle
 10
173.726789
 20
1029.375662
 40
2.0
100
AcDbArc
 50
179.999563
 51
270.0
  0
LINE
  5
614
100
AcDbEntity
  8
M0
 62
     2
100
AcDbLine
 10
173.726789
 20
1027.375662
 11
180.226789
 21
1027.375662
  0
LINE
  5
615
100
AcDbEntity
  8
M0
 62
     2
100
AcDbLine
 10
284.726774
 20
1038.375662
 11
309.226774
 21
1038.375662
  0
LINE
  5
616
100
AcDbEntity
  8
M0
 62
     2
100
AcDbLine
 10
225.726774
 20
1180.375647
 11
230.726774
 21
1180.375647
  0
LINE
  5
617
100
AcDbEntity
  8
M0
 62
     2
100
AcDbLine
 10
234.726774
 20
1180.375647
 11
271.726774
 21
1180.375647
  0
LINE
  5
618
100
AcDbEntity
  8
M0
 62
     2
100
AcDbLine
 10
275.726774
 20
1180.375647
 11
280.726774
 21
1180.375647
  0
LINE
  5
619
100
AcDbEntity
  8
M0
 62
     2
100
AcDbLine
 10
284.726774
 20
1180.375647
 11
309.226774
 21
1180.375647
  0
ARC
  5
61A
100
AcDbEntity
  8
M0
 62
     2
100
AcDbCircle
 10
183.226789
 20
1037.375662
 40
7.0
100
AcDbArc
 50
81.786915
 51
255.03109
  0
ARC
  5
61B
100
AcDbEntity
  8
M0
 62
     2
100
AcDbCircle
 10
323.226774
 20
1181.375647
 40
7.0
100
AcDbArc
 50
261.786789
 51
435.029774
  0
LINE
  5
61C
100
AcDbEntity
  8
M0
 62
     2
100
AcDbLine
 10
239.083936
 20
1186.375647
 11
234.458827
 21
1186.375647
  0
ARC
  5
61D
100
AcDbEntity
  8
M0
 62
     2
100
AcDbCircle
 10
323.226774
 20
1037.375662
 40
7.0
100
AcDbArc
 50
284.968793
 51
458.213211
  0
ARC
  5
61E
100
AcDbEntity
  8
M0
 62
     2
100
AcDbCircle
 10
183.226789
 20
1181.375647
 40
7.0
100
AcDbArc
 50
104.970409
 51
279.462186
  0
LINE
  5
61F
100
AcDbEntity
  8
M0
 62
     2
100
AcDbLine
 10
334.726774
 20
1155.575632
 11
334.726774
 21
1189.375647
  0
LINE
  5
620
100
AcDbEntity
  8
M0
 62
     2
100
AcDbLine
 10
171.676885
 20
1047.375651
 11
184.226774
 21
1047.375651
  0
LINE
  5
621
100
AcDbEntity
  8
M0
 62
     2
100
AcDbLine
 10
171.677002
 20
1171.375651
 11
184.226774
 21
1171.375651
  0
LINE
  5
622
100
AcDbEntity
  8
M0
 62
     2
100
AcDbLine
 10
322.226774
 20
1171.375651
 11
334.676968
 21
1171.375651
  0
LINE
  5
623
100
AcDbEntity
  8
M0
 62
     2
100
AcDbLine
 10
322.226774
 20
1047.375651
 11
334.676874
 21
1047.375651
  0
LINE
  5
624
100
AcDbEntity
  8
M0
 62
     2
100
AcDbLine
 10
271.994721
 20
1186.375647
 11
267.369623
 21
1186.375647
  0
LINE
  5
625
100
AcDbEntity
  8
M0
 62
     2
100
AcDbLine
 10
221.994721
 20
1186.375647
 11
212.926817
 21
1186.375647
  0
LINE
  5
626
100
AcDbEntity
  8
M0
 62
   234
100
AcDbLine
 10
184.226766
 20
1147.075648
 11
184.226782
 21
1094.075653
  0
LINE
  5
627
100
AcDbEntity
  8
M0
 62
   234
100
AcDbLine
 10
174.226766
 20
1147.075645
 11
184.226766
 21
1147.075648
  0
LINE
  5
628
100
AcDbEntity
  8
M0
 62
   234
100
AcDbLine
 10
174.226782
 20
1094.07565
 11
184.226782
 21
1094.075653
  0
LINE
  5
629
100
AcDbEntity
  8
M0
 62
   234
100
AcDbLine
 10
184.226782
 20
1094.075653
 11
174.226782
 21
1094.07565
  0
LINE
  5
62A
100
AcDbEntity
  8
M0
 62
   234
100
AcDbLine
 10
172.226783
 20
1091.57566
 11
172.226765
 21
1149.575644
  0
CIRCLE
  5
62B
100
AcDbEntity
  8
M0
 62
   234
100
AcDbCircle
 10
181.226764
 20
1151.575647
 40
2.25
  0
LINE
  5
62C
100
AcDbEntity
  8
M0
 62
   234
100
AcDbLine
 10
173.726765
 20
1149.575645
 11
172.226765
 21
1149.575644
  0
ARC
  5
62D
100
AcDbEntity
  8
M0
 62
   234
100
AcDbCircle
 10
173.726765
 20
1149.075645
 40
0.5
100
AcDbArc
 50
-0.001731
 51
90.0
  0
LINE
  5
62E
100
AcDbEntity
  8
M0
 62
   234
100
AcDbLine
 10
176.726766
 20
1147.075646
 11
176.726764
 21
1151.575646
  0
ARC
  5
62F
100
AcDbEntity
  8
M0
 62
   234
100
AcDbCircle
 10
180.726764
 20
1151.575647
 40
4.0
100
AcDbArc
 50
90.0
 51
180.000018
  0
LINE
  5
630
100
AcDbEntity
  8
M0
 62
   234
100
AcDbLine
 10
184.226763
 20
1155.575648
 11
180.726763
 21
1155.575647
  0
LINE
  5
631
100
AcDbEntity
  8
M0
 62
   234
100
AcDbLine
 10
174.226772
 20
1126.075645
 11
182.226772
 21
1126.075647
  0
LINE
  5
632
100
AcDbEntity
  8
M0
 62
   234
100
AcDbLine
 10
184.226775
 20
1116.825652
 11
172.226775
 21
1116.825648
  0
LINE
  5
633
100
AcDbEntity
  8
M0
 62
   234
100
AcDbLine
 10
184.226773
 20
1124.325652
 11
172.226773
 21
1124.325648
  0
LINE
  5
634
100
AcDbEntity
  8
M0
 62
   234
100
AcDbLine
 10
174.226765
 20
1149.075645
 11
174.226772
 21
1126.075645
  0
LINE
  5
635
100
AcDbEntity
  8
M0
 62
   234
100
AcDbLine
 10
182.226766
 20
1147.075647
 11
182.226772
 21
1126.075647
  0
LINE
  5
636
100
AcDbEntity
  8
M0
 62
   234
100
AcDbLine
 10
182.226776
 20
1115.075651
 11
182.226782
 21
1094.075652
  0
LINE
  5
637
100
AcDbEntity
  8
M0
 62
   234
100
AcDbLine
 10
176.226773
 20
1124.325649
 11
176.226773
 21
1123.325649
  0
LINE
  5
638
100
AcDbEntity
  8
M0
 62
   234
100
AcDbLine
 10
173.226773
 20
1123.325648
 11
176.226773
 21
1123.325649
  0
LINE
  5
639
100
AcDbEntity
  8
M0
 62
   234
100
AcDbLine
 10
173.226773
 20
1124.325648
 11
173.226775
 21
1116.825648
  0
LINE
  5
63A
100
AcDbEntity
  8
M0
 62
   234
100
AcDbLine
 10
173.226775
 20
1117.825648
 11
176.226775
 21
1117.825649
  0
LINE
  5
63B
100
AcDbEntity
  8
M0
 62
   234
100
AcDbLine
 10
176.226775
 20
1117.825649
 11
176.226775
 21
1116.825649
  0
LINE
  5
63C
100
AcDbEntity
  8
M0
 62
   234
100
AcDbLine
 10
180.726773
 20
1123.325651
 11
180.726775
 21
1117.825651
  0
LINE
  5
63D
100
AcDbEntity
  8
M0
 62
   234
100
AcDbLine
 10
179.226773
 20
1124.32565
 11
179.226775
 21
1116.82565
  0
LINE
  5
63E
100
AcDbEntity
  8
M0
 62
   234
100
AcDbLine
 10
179.226775
 20
1117.82565
 11
184.226775
 21
1117.825652
  0
LINE
  5
63F
100
AcDbEntity
  8
M0
 62
   234
100
AcDbLine
 10
179.226773
 20
1123.32565
 11
184.226773
 21
1123.325652
  0
LINE
  5
640
100
AcDbEntity
  8
M0
 62
   234
100
AcDbLine
 10
176.726782
 20
1094.075651
 11
176.726784
 21
1089.575661
  0
ARC
  5
641
100
AcDbEntity
  8
M0
 62
   234
100
AcDbCircle
 10
180.726784
 20
1089.575662
 40
4.0
100
AcDbArc
 50
179.999799
 51
270.0
  0
LINE
  5
642
100
AcDbEntity
  8
M0
 62
   234
100
AcDbLine
 10
184.226785
 20
1085.575663
 11
180.726785
 21
1085.575662
  0
ARC
  5
643
100
AcDbEntity
  8
M0
 62
   234
100
AcDbCircle
 10
173.726783
 20
1092.07566
 40
0.5
100
AcDbArc
 50
270.0
 51
360.000018
  0
LINE
  5
644
100
AcDbEntity
  8
M0
 62
   234
100
AcDbLine
 10
173.726783
 20
1091.57566
 11
172.226783
 21
1091.57566
  0
LINE
  5
645
100
AcDbEntity
  8
M0
 62
   234
100
AcDbLine
 10
174.226776
 20
1115.075649
 11
174.226783
 21
1092.07566
  0
LINE
  5
646
100
AcDbEntity
  8
M0
 62
   234
100
AcDbLine
 10
174.226776
 20
1115.075649
 11
182.226776
 21
1115.075651
  0
LINE
  5
647
100
AcDbEntity
  8
M0
100
AcDbLine
 10
238.226774
 20
999.375408
 11
268.226774
 21
999.375408
  0
LINE
  5
648
100
AcDbEntity
  8
M0
100
AcDbLine
 10
240.226774
 20
1038.375479
 11
240.226774
 21
1036.375403
  0
LINE
  5
649
100
AcDbEntity
  8
M0
100
AcDbLine
 10
266.226774
 20
1036.375403
 11
266.226774
 21
1038.375479
  0
LINE
  5
64A
100
AcDbEntity
  8
M0
100
AcDbLine
 10
238.226774
 20
1029.375403
 11
240.226774
 21
1036.375403
  0
LINE
  5
64B
100
AcDbEntity
  8
M0
100
AcDbLine
 10
238.226774
 20
999.375408
 11
238.226774
 21
1029.375403
  0
LINE
  5
64C
100
AcDbEntity
  8
M0
100
AcDbLine
 10
268.226774
 20
999.375408
 11
268.226774
 21
1029.375403
  0
LINE
  5
64D
100
AcDbEntity
  8
M0
100
AcDbLine
 10
266.226774
 20
1036.375403
 11
268.226774
 21
1029.375403
  0
CIRCLE
  5
64E
100
AcDbEntity
  8
M0
100
AcDbCircle
 10
253.226774
 20
1014.375407
 40
6.0
  0
LINE
  5
64F
100
AcDbEntity
  8
M0
  6
DASHDOT
100
AcDbLine
 10
233.560108
 20
1014.375407
 11
272.89344
 21
1014.375407
  0
LINE
  5
650
100
AcDbEntity
  8
M0
100
AcDbLine
 10
296.226774
 20
999.375408
 11
313.226774
 21
999.375408
  0
LINE
  5
651
100
AcDbEntity
  8
M0
100
AcDbLine
 10
326.226774
 20
999.375408
 11
326.226774
 21
1029.375403
  0
LINE
  5
652
100
AcDbEntity
  8
M0
100
AcDbLine
 10
296.226774
 20
1029.375403
 11
296.226774
 21
999.375408
  0
LINE
  5
653
100
AcDbEntity
  8
M0
100
AcDbLine
 10
296.226774
 20
999.375408
 11
326.226774
 21
999.375408
  0
LINE
  5
654
100
AcDbEntity
  8
M0
100
AcDbLine
 10
296.226774
 20
1029.375403
 11
288.126692
 21
1038.375479
  0
LINE
  5
655
100
AcDbEntity
  8
M0
100
AcDbLine
 10
326.226774
 20
1029.375403
 11
317.560026
 21
1038.375479
  0
CIRCLE
  5
656
100
AcDbEntity
  8
M0
100
AcDbCircle
 10
311.226774
 20
1014.375407
 40
6.0
  0
LINE
  5
657
100
AcDbEntity
  8
M0
  6
DASHDOT
100
AcDbLine
 10
291.560108
 20
1014.375407
 11
330.89344
 21
1014.375407
  0
LINE
  5
658
100
AcDbEntity
  8
M0
  6
DASHDOT
100
AcDbLine
 10
311.226774
 20
994.70874
 11
311.226774
 21
1034.042073
  0
LINE
  5
659
100
AcDbEntity
  8
M0
 62
     6
100
AcDbLine
 10
311.226774
 20
1003.42536
 11
301.743864
 21
1008.900366
  0
LINE
  5
65A
100
AcDbEntity
  8
M0
 62
     6
100
AcDbLine
 10
301.743864
 20
1008.900366
 11
301.743864
 21
1019.850348
  0
LINE
  5
65B
100
AcDbEntity
  8
M0
 62
     6
100
AcDbLine
 10
301.743864
 20
1019.850348
 11
311.226774
 21
1025.325354
  0
LINE
  5
65C
100
AcDbEntity
  8
M0
 62
     6
100
AcDbLine
 10
311.226774
 20
1025.325354
 11
320.709928
 21
1019.850348
  0
LINE
  5
65D
100
AcDbEntity
  8
M0
 62
     6
100
AcDbLine
 10
320.709928
 20
1019.850348
 11
320.709928
 21
1008.900336
  0
LINE
  5
65E
100
AcDbEntity
  8
M0
 62
     6
100
AcDbLine
 10
320.709928
 20
1008.900336
 11
311.226774
 21
1003.42536
  0
CIRCLE
  5
65F
100
AcDbEntity
  8
M0
 62
     6
100
AcDbCircle
 10
311.226774
 20
1014.375342
 40
6.0
  0
LINE
  5
660
100
AcDbEntity
  8
M0
 62
     6
100
AcDbLine
 10
253.226774
 20
1003.42536
 11
243.743864
 21
1008.900366
  0
LINE
  5
661
100
AcDbEntity
  8
M0
 62
     6
100
AcDbLine
 10
243.743864
 20
1008.900366
 11
243.743864
 21
1019.850348
  0
LINE
  5
662
100
AcDbEntity
  8
M0
 62
     6
100
AcDbLine
 10
243.743864
 20
1019.850348
 11
253.226774
 21
1025.325354
  0
LINE
  5
663
100
AcDbEntity
  8
M0
 62
     6
100
AcDbLine
 10
253.226774
 20
1025.325354
 11
262.709928
 21
1019.850348
  0
LINE
  5
664
100
AcDbEntity
  8
M0
 62
     6
100
AcDbLine
 10
262.709928
 20
1019.850348
 11
262.709928
 21
1008.900336
  0
LINE
  5
665
100
AcDbEntity
  8
M0
 62
     6
100
AcDbLine
 10
262.709928
 20
1008.900336
 11
253.226774
 21
1003.42536
  0
CIRCLE
  5
666
100
AcDbEntity
  8
M0
 62
     6
100
AcDbCircle
 10
253.226774
 20
1014.375342
 40
6.0
  0
LINE
  5
667
100
AcDbEntity
  8
M0
100
AcDbLine
 10
210.226774
 20
999.375408
 11
193.226774
 21
999.375408
  0
LINE
  5
668
100
AcDbEntity
  8
M0
100
AcDbLine
 10
180.226774
 20
999.375408
 11
180.226774
 21
1029.375403
  0
LINE
  5
669
100
AcDbEntity
  8
M0
100
AcDbLine
 10
210.226774
 20
1029.375403
 11
210.226774
 21
999.375408
  0
LINE
  5
66A
100
AcDbEntity
  8
M0
100
AcDbLine
 10
210.226774
 20
999.375408
 11
180.226774
 21
999.375408
  0
LINE
  5
66B
100
AcDbEntity
  8
M0
100
AcDbLine
 10
210.226774
 20
1029.375403
 11
218.326841
 21
1038.375479
  0
LINE
  5
66C
100
AcDbEntity
  8
M0
100
AcDbLine
 10
180.226774
 20
1029.375403
 11
188.893507
 21
1038.375479
  0
CIRCLE
  5
66D
100
AcDbEntity
  8
M0
100
AcDbCircle
 10
195.226774
 20
1014.375407
 40
6.0
  0
LINE
  5
66E
100
AcDbEntity
  8
M0
  6
DASHDOT
100
AcDbLine
 10
175.560108
 20
1014.375407
 11
214.89344
 21
1014.375407
  0
LINE
  5
66F
100
AcDbEntity
  8
M0
  6
DASHDOT
100
AcDbLine
 10
195.226774
 20
994.70874
 11
195.226774
 21
1034.042073
  0
LINE
  5
670
100
AcDbEntity
  8
M0
 62
     6
100
AcDbLine
 10
195.226774
 20
1003.42536
 11
204.709684
 21
1008.900366
  0
LINE
  5
671
100
AcDbEntity
  8
M0
 62
     6
100
AcDbLine
 10
204.709684
 20
1008.900366
 11
204.709684
 21
1019.850348
  0
LINE
  5
672
100
AcDbEntity
  8
M0
 62
     6
100
AcDbLine
 10
204.709684
 20
1019.850348
 11
195.226774
 21
1025.325354
  0
LINE
  5
673
100
AcDbEntity
  8
M0
 62
     6
100
AcDbLine
 10
195.226774
 20
1025.325354
 11
185.74362
 21
1019.850348
  0
LINE
  5
674
100
AcDbEntity
  8
M0
 62
     6
100
AcDbLine
 10
185.74362
 20
1019.850348
 11
185.74362
 21
1008.900336
  0
LINE
  5
675
100
AcDbEntity
  8
M0
 62
     6
100
AcDbLine
 10
185.74362
 20
1008.900336
 11
195.226774
 21
1003.42536
  0
CIRCLE
  5
676
100
AcDbEntity
  8
M0
 62
     6
100
AcDbCircle
 10
195.226774
 20
1014.375342
 40
6.0
  0
LINE
  5
677
100
AcDbEntity
  8
M0
100
AcDbLine
 10
210.226758
 20
1219.375686
 11
193.226758
 21
1219.375675
  0
LINE
  5
678
100
AcDbEntity
  8
M0
100
AcDbLine
 10
180.226758
 20
1219.375667
 11
180.226777
 21
1189.375672
  0
LINE
  5
679
100
AcDbEntity
  8
M0
100
AcDbLine
 10
210.226777
 20
1189.37569
 11
210.226758
 21
1219.375686
  0
LINE
  5
67A
100
AcDbEntity
  8
M0
100
AcDbLine
 10
210.226758
 20
1219.375686
 11
180.226758
 21
1219.375667
  0
LINE
  5
67B
100
AcDbEntity
  8
M0
100
AcDbLine
 10
210.226777
 20
1189.37569
 11
218.326849
 21
1180.375615
  0
LINE
  5
67C
100
AcDbEntity
  8
M0
100
AcDbLine
 10
180.226777
 20
1189.375672
 11
188.893515
 21
1180.375597
  0
CIRCLE
  5
67D
100
AcDbEntity
  8
M0
100
AcDbCircle
 10
195.226767
 20
1204.37568
 40
6.0
  0
LINE
  5
67E
100
AcDbEntity
  8
M0
  6
DASHDOT
100
AcDbLine
 10
175.560101
 20
1204.37568
 11
214.893434
 21
1204.37568
  0
LINE
  5
67F
100
AcDbEntity
  8
M0
  6
DASHDOT
100
AcDbLine
 10
195.226767
 20
1184.709014
 11
195.226767
 21
1224.042346
  0
LINE
  5
680
100
AcDbEntity
  8
M0
100
AcDbLine
 10
238.226758
 20
1219.375667
 11
268.226758
 21
1219.375686
  0
LINE
  5
681
100
AcDbEntity
  8
M0
100
AcDbLine
 10
240.226782
 20
1180.375593
 11
240.226781
 21
1182.375673
  0
LINE
  5
682
100
AcDbEntity
  8
M0
100
AcDbLine
 10
266.226781
 20
1182.375689
 11
266.226782
 21
1180.375609
  0
LINE
  5
683
100
AcDbEntity
  8
M0
100
AcDbLine
 10
238.226777
 20
1189.375672
 11
240.226781
 21
1182.375673
  0
LINE
  5
684
100
AcDbEntity
  8
M0
100
AcDbLine
 10
238.226758
 20
1219.375667
 11
238.226777
 21
1189.375672
  0
LINE
  5
685
100
AcDbEntity
  8
M0
100
AcDbLine
 10
268.226758
 20
1219.375686
 11
268.226777
 21
1189.37569
  0
LINE
  5
686
100
AcDbEntity
  8
M0
100
AcDbLine
 10
266.226781
 20
1182.375689
 11
268.226777
 21
1189.37569
  0
CIRCLE
  5
687
100
AcDbEntity
  8
M0
100
AcDbCircle
 10
253.226767
 20
1204.37568
 40
6.0
  0
LINE
  5
688
100
AcDbEntity
  8
M0
  6
DASHDOT
100
AcDbLine
 10
253.226774
 20
972.463767
 11
253.226774
 21
1251.223715
  0
LINE
  5
689
100
AcDbEntity
  8
M0
  6
DASHDOT
100
AcDbLine
 10
233.560165
 20
1204.375753
 11
272.893497
 21
1204.375753
  0
LINE
  5
68A
100
AcDbEntity
  8
M0
  6
DASHDOT
100
AcDbLine
 10
253.226831
 20
1184.709086
 11
253.226831
 21
1224.042419
  0
LINE
  5
68B
100
AcDbEntity
  8
M0
100
AcDbLine
 10
296.226758
 20
1219.375667
 11
313.226758
 21
1219.375677
  0
LINE
  5
68C
100
AcDbEntity
  8
M0
100
AcDbLine
 10
326.226758
 20
1219.375686
 11
326.226777
 21
1189.37569
  0
LINE
  5
68D
100
AcDbEntity
  8
M0
100
AcDbLine
 10
296.226777
 20
1189.375672
 11
296.226758
 21
1219.375667
  0
LINE
  5
68E
100
AcDbEntity
  8
M0
100
AcDbLine
 10
296.226758
 20
1219.375667
 11
326.226758
 21
1219.375686
  0
LINE
  5
68F
100
AcDbEntity
  8
M0
100
AcDbLine
 10
296.226777
 20
1189.375672
 11
288.1267
 21
1180.375586
  0
LINE
  5
690
100
AcDbEntity
  8
M0
100
AcDbLine
 10
326.226777
 20
1189.37569
 11
317.560034
 21
1180.375605
  0
CIRCLE
  5
691
100
AcDbEntity
  8
M0
100
AcDbCircle
 10
311.226767
 20
1204.37568
 40
6.0
  0
LINE
  5
692
100
AcDbEntity
  8
M0
  6
DASHDOT
100
AcDbLine
 10
291.560101
 20
1204.37568
 11
330.893434
 21
1204.37568
  0
LINE
  5
693
100
AcDbEntity
  8
M0
 62
     6
100
AcDbLine
 10
311.226824
 20
1215.325734
 11
301.743917
 21
1209.850722
  0
LINE
  5
694
100
AcDbEntity
  8
M0
 62
     6
100
AcDbLine
 10
301.743917
 20
1209.850722
 11
301.743924
 21
1198.90074
  0
LINE
  5
695
100
AcDbEntity
  8
M0
 62
     6
100
AcDbLine
 10
301.743924
 20
1198.90074
 11
311.226838
 21
1193.42574
  0
LINE
  5
696
100
AcDbEntity
  8
M0
 62
     6
100
AcDbLine
 10
311.226838
 20
1193.42574
 11
320.709989
 21
1198.900752
  0
LINE
  5
697
100
AcDbEntity
  8
M0
 62
     6
100
AcDbLine
 10
320.709989
 20
1198.900752
 11
320.709982
 21
1209.850765
  0
LINE
  5
698
100
AcDbEntity
  8
M0
 62
     6
100
AcDbLine
 10
320.709982
 20
1209.850765
 11
311.226824
 21
1215.325734
  0
CIRCLE
  5
699
100
AcDbEntity
  8
M0
 62
     6
100
AcDbCircle
 10
311.226831
 20
1204.375753
 40
6.0
  0
LINE
  5
69A
100
AcDbEntity
  8
M0
 62
     6
100
AcDbLine
 10
253.226824
 20
1215.325734
 11
243.743917
 21
1209.850722
  0
LINE
  5
69B
100
AcDbEntity
  8
M0
 62
     6
100
AcDbLine
 10
243.743917
 20
1209.850722
 11
243.743924
 21
1198.90074
  0
LINE
  5
69C
100
AcDbEntity
  8
M0
 62
     6
100
AcDbLine
 10
243.743924
 20
1198.90074
 11
253.226838
 21
1193.42574
  0
LINE
  5
69D
100
AcDbEntity
  8
M0
 62
     6
100
AcDbLine
 10
253.226838
 20
1193.42574
 11
262.709989
 21
1198.900752
  0
LINE
  5
69E
100
AcDbEntity
  8
M0
 62
     6
100
AcDbLine
 10
262.709989
 20
1198.900752
 11
262.709982
 21
1209.850765
  0
LINE
  5
69F
100
AcDbEntity
  8
M0
 62
     6
100
AcDbLine
 10
262.709982
 20
1209.850765
 11
253.226824
 21
1215.325734
  0
CIRCLE
  5
6A0
100
AcDbEntity
  8
M0
 62
     6
100
AcDbCircle
 10
253.226831
 20
1204.375753
 40
6.0
  0
LINE
  5
6A1
100
AcDbEntity
  8
M0
 62
     6
100
AcDbLine
 10
195.226824
 20
1215.325734
 11
204.709738
 21
1209.850734
  0
LINE
  5
6A2
100
AcDbEntity
  8
M0
 62
     6
100
AcDbLine
 10
204.709738
 20
1209.850734
 11
204.709745
 21
1198.900752
  0
LINE
  5
6A3
100
AcDbEntity
  8
M0
 62
     6
100
AcDbLine
 10
204.709745
 20
1198.900752
 11
195.226838
 21
1193.42574
  0
LINE
  5
6A4
100
AcDbEntity
  8
M0
 62
     6
100
AcDbLine
 10
195.226838
 20
1193.42574
 11
185.74368
 21
1198.90074
  0
LINE
  5
6A5
100
AcDbEntity
  8
M0
 62
     6
100
AcDbLine
 10
185.74368
 20
1198.90074
 11
185.743673
 21
1209.850753
  0
LINE
  5
6A6
100
AcDbEntity
  8
M0
 62
     6
100
AcDbLine
 10
185.743673
 20
1209.850753
 11
195.226824
 21
1215.325734
  0
CIRCLE
  5
6A7
100
AcDbEntity
  8
M0
 62
     6
100
AcDbCircle
 10
195.226831
 20
1204.375753
 40
6.0
  0
LINE
  5
6A8
100
AcDbEntity
  8
M0
 62
    74
100
AcDbLine
 10
348.226797
 20
1163.375652
 11
348.226793
 21
1148.375652
  0
LINE
  5
6A9
100
AcDbEntity
  8
M0
 62
    74
100
AcDbLine
 10
357.226797
 20
1163.375649
 11
357.226793
 21
1148.375649
  0
LINE
  5
6AA
100
AcDbEntity
  8
M0
 62
    74
100
AcDbLine
 10
348.726793
 20
1148.375652
 11
348.726786
 21
1126.875652
  0
LINE
  5
6AB
100
AcDbEntity
  8
M0
 62
    74
100
AcDbLine
 10
356.726793
 20
1148.37565
 11
356.726786
 21
1126.87565
  0
LINE
  5
6AC
100
AcDbEntity
  8
M0
 62
    74
100
AcDbLine
 10
346.726797
 20
1163.375653
 11
358.726797
 21
1163.375649
  0
LINE
  5
6AD
100
AcDbEntity
  8
M0
 62
    74
100
AcDbLine
 10
346.726794
 20
1153.375653
 11
348.226794
 21
1153.375652
  0
LINE
  5
6AE
100
AcDbEntity
  8
M0
 62
    74
100
AcDbLine
 10
357.226794
 20
1153.375649
 11
358.726794
 21
1153.375649
  0
LINE
  5
6AF
100
AcDbEntity
  8
M0
 62
    74
100
AcDbLine
 10
348.226793
 20
1148.375652
 11
348.726793
 21
1148.375652
  0
LINE
  5
6B0
100
AcDbEntity
  8
M0
 62
    74
100
AcDbLine
 10
356.726793
 20
1148.37565
 11
357.226793
 21
1148.375649
  0
LINE
  5
6B1
100
AcDbEntity
  8
M0
 62
    74
100
AcDbLine
 10
358.726787
 20
1129.375649
 11
358.726797
 21
1163.375649
  0
LINE
  5
6B2
100
AcDbEntity
  8
M0
 62
    74
100
AcDbLine
 10
358.726787
 20
1129.375649
 11
358.52679
 21
1129.375649
  0
LINE
  5
6B3
100
AcDbEntity
  8
M0
 62
    74
100
AcDbLine
 10
346.726786
 20
1126.875653
 11
358.526789
 21
1126.875649
  0
LINE
  5
6B4
100
AcDbEntity
  8
M0
 62
    74
100
AcDbLine
 10
357.526787
 20
1120.375649
 11
357.526788
 21
1123.375649
  0
LINE
  5
6B5
100
AcDbEntity
  8
M0
 62
    74
100
AcDbLine
 10
358.526788
 20
1123.375649
 11
357.526788
 21
1123.375649
  0
LINE
  5
6B6
100
AcDbEntity
  8
M0
 62
    74
100
AcDbLine
 10
358.526787
 20
1122.125649
 11
357.526787
 21
1122.125649
  0
LINE
  5
6B7
100
AcDbEntity
  8
M0
 62
    74
100
AcDbLine
 10
358.52679
 20
1129.375649
 11
358.526787
 21
1122.125649
  0
LINE
  5
6B8
100
AcDbEntity
  8
M0
 62
    74
100
AcDbLine
 10
346.726784
 20
1120.375653
 11
346.726797
 21
1163.375653
  0
LINE
  5
6B9
100
AcDbEntity
  8
M0
 62
    74
100
AcDbLine
 10
348.226795
 20
1156.375652
 11
357.226795
 21
1156.375649
  0
LINE
  5
6BA
100
AcDbEntity
  8
M0
 62
    74
100
AcDbLine
 10
348.726787
 20
1131.375652
 11
356.726787
 21
1131.37565
  0
LINE
  5
6BB
100
AcDbEntity
  8
M0
 62
    74
100
AcDbLine
 10
348.22677
 20
1077.375652
 11
348.226775
 21
1092.375652
  0
LINE
  5
6BC
100
AcDbEntity
  8
M0
 62
    74
100
AcDbLine
 10
357.22677
 20
1077.375649
 11
357.226775
 21
1092.375649
  0
LINE
  5
6BD
100
AcDbEntity
  8
M0
 62
    74
100
AcDbLine
 10
348.726775
 20
1092.375652
 11
348.726782
 21
1113.875652
  0
LINE
  5
6BE
100
AcDbEntity
  8
M0
 62
    74
100
AcDbLine
 10
356.726775
 20
1092.37565
 11
356.726782
 21
1113.87565
  0
LINE
  5
6BF
100
AcDbEntity
  8
M0
 62
    74
100
AcDbLine
 10
346.72677
 20
1077.375653
 11
358.72677
 21
1077.375649
  0
LINE
  5
6C0
100
AcDbEntity
  8
M0
 62
    74
100
AcDbLine
 10
346.726773
 20
1087.375653
 11
348.226773
 21
1087.375652
  0
LINE
  5
6C1
100
AcDbEntity
  8
M0
 62
    74
100
AcDbLine
 10
357.226773
 20
1087.375649
 11
358.726773
 21
1087.375649
  0
LINE
  5
6C2
100
AcDbEntity
  8
M0
 62
    74
100
AcDbLine
 10
348.226775
 20
1092.375652
 11
348.726775
 21
1092.375652
  0
LINE
  5
6C3
100
AcDbEntity
  8
M0
 62
    74
100
AcDbLine
 10
356.726775
 20
1092.37565
 11
357.226775
 21
1092.375649
  0
LINE
  5
6C4
100
AcDbEntity
  8
M0
 62
    74
100
AcDbLine
 10
358.726781
 20
1111.375649
 11
358.72677
 21
1077.375649
  0
LINE
  5
6C5
100
AcDbEntity
  8
M0
 62
    74
100
AcDbLine
 10
358.726781
 20
1111.375649
 11
358.526784
 21
1111.375649
  0
LINE
  5
6C6
100
AcDbEntity
  8
M0
 62
    74
100
AcDbLine
 10
346.726782
 20
1113.875653
 11
358.526785
 21
1113.875649
  0
LINE
  5
6C7
100
AcDbEntity
  8
M0
 62
    74
100
AcDbLine
 10
357.526787
 20
1120.375649
 11
357.526786
 21
1117.375649
  0
LINE
  5
6C8
100
AcDbEntity
  8
M0
 62
    74
100
AcDbLine
 10
358.526786
 20
1117.375649
 11
357.526786
 21
1117.375649
  0
LINE
  5
6C9
100
AcDbEntity
  8
M0
 62
    74
100
AcDbLine
 10
358.526786
 20
1118.625649
 11
357.526786
 21
1118.625649
  0
LINE
  5
6CA
100
AcDbEntity
  8
M0
 62
    74
100
AcDbLine
 10
358.526784
 20
1111.375649
 11
358.526786
 21
1118.625649
  0
LINE
  5
6CB
100
AcDbEntity
  8
M0
 62
    74
100
AcDbLine
 10
346.726784
 20
1120.375653
 11
346.72677
 21
1077.375653
  0
LINE
  5
6CC
100
AcDbEntity
  8
M0
 62
    74
100
AcDbLine
 10
348.226772
 20
1084.375652
 11
357.226772
 21
1084.375649
  0
LINE
  5
6CD
100
AcDbEntity
  8
M0
 62
    74
100
AcDbLine
 10
348.72678
 20
1109.375652
 11
356.72678
 21
1109.37565
  0
LINE
  5
6CE
100
AcDbEntity
  8
M0
 62
    74
100
AcDbLine
 10
348.726776
 20
1094.875652
 11
356.726776
 21
1094.87565
  0
LINE
  5
6CF
100
AcDbEntity
  8
M0
 62
    74
100
AcDbLine
 10
348.726792
 20
1145.875652
 11
356.726792
 21
1145.87565
  0
LINE
  5
6D0
100
AcDbEntity
  8
M0
 62
   234
100
AcDbLine
 10
334.226783
 20
1147.075648
 11
334.226766
 21
1094.075653
  0
LINE
  5
6D1
100
AcDbEntity
  8
M0
 62
   234
100
AcDbLine
 10
344.226783
 20
1147.075645
 11
334.226783
 21
1147.075648
  0
LINE
  5
6D2
100
AcDbEntity
  8
M0
 62
   234
100
AcDbLine
 10
344.226766
 20
1094.07565
 11
334.226766
 21
1094.075653
  0
LINE
  5
6D3
100
AcDbEntity
  8
M0
 62
   234
100
AcDbLine
 10
334.226766
 20
1094.075653
 11
344.226766
 21
1094.07565
  0
LINE
  5
6D4
100
AcDbEntity
  8
M0
 62
   234
100
AcDbLine
 10
346.226766
 20
1091.57566
 11
346.226784
 21
1149.575644
  0
CIRCLE
  5
6D5
100
AcDbEntity
  8
M0
 62
   234
100
AcDbCircle
 10
337.226784
 20
1151.575647
 40
2.25
  0
LINE
  5
6D6
100
AcDbEntity
  8
M0
 62
   234
100
AcDbLine
 10
344.726784
 20
1149.575645
 11
346.226784
 21
1149.575644
  0
ARC
  5
6D7
100
AcDbEntity
  8
M0
 62
   234
100
AcDbCircle
 10
344.726784
 20
1149.075645
 40
0.5
100
AcDbArc
 50
90.0
 51
179.999982
  0
LINE
  5
6D8
100
AcDbEntity
  8
M0
 62
   234
100
AcDbLine
 10
341.726783
 20
1147.075646
 11
341.726784
 21
1151.575646
  0
ARC
  5
6D9
100
AcDbEntity
  8
M0
 62
   234
100
AcDbCircle
 10
337.726784
 20
1151.575647
 40
4.0
100
AcDbArc
 50
359.999763
 51
450.0
  0
LINE
  5
6DA
100
AcDbEntity
  8
M0
 62
   234
100
AcDbLine
 10
329.726786
 20
1155.57565
 11
337.726786
 21
1155.575647
  0
LINE
  5
6DB
100
AcDbEntity
  8
M0
 62
   234
100
AcDbLine
 10
344.226776
 20
1126.075645
 11
336.226776
 21
1126.075647
  0
LINE
  5
6DC
100
AcDbEntity
  8
M0
 62
   234
100
AcDbLine
 10
334.226774
 20
1116.825652
 11
346.226774
 21
1116.825648
  0
LINE
  5
6DD
100
AcDbEntity
  8
M0
 62
   234
100
AcDbLine
 10
334.226776
 20
1124.325652
 11
346.226776
 21
1124.325648
  0
LINE
  5
6DE
100
AcDbEntity
  8
M0
 62
   234
100
AcDbLine
 10
344.226784
 20
1149.075645
 11
344.226776
 21
1126.075645
  0
LINE
  5
6DF
100
AcDbEntity
  8
M0
 62
   234
100
AcDbLine
 10
336.226783
 20
1147.075647
 11
336.226776
 21
1126.075647
  0
LINE
  5
6E0
100
AcDbEntity
  8
M0
 62
   234
100
AcDbLine
 10
336.226773
 20
1115.075651
 11
336.226766
 21
1094.075652
  0
LINE
  5
6E1
100
AcDbEntity
  8
M0
 62
   234
100
AcDbLine
 10
342.226776
 20
1124.325649
 11
342.226776
 21
1123.325649
  0
LINE
  5
6E2
100
AcDbEntity
  8
M0
 62
   234
100
AcDbLine
 10
345.226776
 20
1123.325648
 11
342.226776
 21
1123.325649
  0
LINE
  5
6E3
100
AcDbEntity
  8
M0
 62
   234
100
AcDbLine
 10
345.226776
 20
1124.325648
 11
345.226774
 21
1116.825648
  0
LINE
  5
6E4
100
AcDbEntity
  8
M0
 62
   234
100
AcDbLine
 10
345.226774
 20
1117.825648
 11
342.226774
 21
1117.825649
  0
LINE
  5
6E5
100
AcDbEntity
  8
M0
 62
   234
100
AcDbLine
 10
342.226774
 20
1117.825649
 11
342.226774
 21
1116.825649
  0
LINE
  5
6E6
100
AcDbEntity
  8
M0
 62
   234
100
AcDbLine
 10
337.726776
 20
1123.325651
 11
337.726774
 21
1117.825651
  0
LINE
  5
6E7
100
AcDbEntity
  8
M0
 62
   234
100
AcDbLine
 10
339.226776
 20
1124.32565
 11
339.226774
 21
1116.82565
  0
LINE
  5
6E8
100
AcDbEntity
  8
M0
 62
   234
100
AcDbLine
 10
339.226774
 20
1117.82565
 11
334.226774
 21
1117.825652
  0
LINE
  5
6E9
100
AcDbEntity
  8
M0
 62
   234
100
AcDbLine
 10
339.226776
 20
1123.32565
 11
334.226776
 21
1123.325652
  0
LINE
  5
6EA
100
AcDbEntity
  8
M0
 62
   234
100
AcDbLine
 10
341.726766
 20
1094.075651
 11
341.726765
 21
1089.575661
  0
ARC
  5
6EB
100
AcDbEntity
  8
M0
 62
   234
100
AcDbCircle
 10
337.726765
 20
1089.575662
 40
4.0
100
AcDbArc
 50
269.999763
 51
359.999982
  0
LINE
  5
6EC
100
AcDbEntity
  8
M0
 62
   234
100
AcDbLine
 10
329.726786
 20
1085.575682
 11
337.726764
 21
1085.575662
  0
CIRCLE
  5
6ED
100
AcDbEntity
  8
M0
 62
   234
100
AcDbCircle
 10
337.226765
 20
1089.575662
 40
2.25
  0
ARC
  5
6EE
100
AcDbEntity
  8
M0
 62
   234
100
AcDbCircle
 10
344.726766
 20
1092.07566
 40
0.5
100
AcDbArc
 50
179.998233
 51
269.998233
  0
LINE
  5
6EF
100
AcDbEntity
  8
M0
 62
   234
100
AcDbLine
 10
344.726766
 20
1091.57566
 11
346.226766
 21
1091.57566
  0
LINE
  5
6F0
100
AcDbEntity
  8
M0
 62
   234
100
AcDbLine
 10
344.226773
 20
1115.075649
 11
344.226766
 21
1092.07566
  0
LINE
  5
6F1
100
AcDbEntity
  8
M0
 62
   234
100
AcDbLine
 10
344.226773
 20
1115.075649
 11
336.226773
 21
1115.075651
  0
LINE
  5
6F2
100
AcDbEntity
  8
M0
 62
   234
100
AcDbLine
 10
329.726786
 20
1155.57565
 11
329.726783
 21
1147.075646
  0
LINE
  5
6F3
100
AcDbEntity
  8
M0
 62
   234
100
AcDbLine
 10
329.726786
 20
1085.575652
 11
329.726783
 21
1094.075656
  0
LINE
  5
6F4
100
AcDbEntity
  8
M0
 62
   114
100
AcDbLine
 10
324.075365
 20
1037.375587
 11
327.339077
 21
1040.639298
  0
LINE
  5
6F5
100
AcDbEntity
  8
M0
 62
   114
100
AcDbLine
 10
321.246745
 20
1034.546967
 11
323.226839
 21
1036.527061
  0
LINE
  5
6F6
100
AcDbEntity
  8
M0
 62
   114
100
AcDbLine
 10
322.378356
 20
1037.375544
 11
320.414271
 21
1035.411459
  0
LINE
  5
6F7
100
AcDbEntity
  8
M0
 62
   114
100
AcDbLine
 10
326.490605
 20
1041.487814
 11
323.226882
 21
1038.22407
  0
LINE
  5
6F8
100
AcDbEntity
  8
M0
 62
   114
100
AcDbLine
 10
323.226871
 20
1038.22408
 11
321.459104
 21
1039.991847
  0
LINE
  5
6F9
100
AcDbEntity
  8
M0
 62
   114
100
AcDbLine
 10
325.843132
 20
1035.60782
 11
324.075365
 21
1037.375587
  0
LINE
  5
6FA
100
AcDbEntity
  8
M0
 62
   114
100
AcDbLine
 10
323.226839
 20
1036.527061
 11
324.994606
 21
1034.759294
  0
LINE
  5
6FB
100
AcDbEntity
  8
M0
 62
   114
100
AcDbLine
 10
320.610578
 20
1039.143321
 11
322.378345
 21
1037.375554
  0
LINE
  5
6FC
100
AcDbEntity
  8
M0
 62
   114
100
AcDbLine
 10
324.994606
 20
1034.759294
 11
325.843132
 21
1035.60782
  0
LINE
  5
6FD
100
AcDbEntity
  8
M0
 62
   114
100
AcDbLine
 10
321.459104
 20
1039.991847
 11
320.610578
 21
1039.143321
  0
ARC
  5
6FE
100
AcDbEntity
  8
M0
 62
   114
100
AcDbCircle
 10
323.226774
 20
1037.375662
 40
5.75
100
AcDbArc
 50
277.813215
 51
460.132308
  0
ARC
  5
6FF
100
AcDbEntity
  8
M0
 62
   114
100
AcDbCircle
 10
323.226774
 20
1037.375662
 40
5.25
100
AcDbArc
 50
273.723338
 51
461.812432
  0
LINE
  5
700
100
AcDbEntity
  8
M0
 62
   114
100
AcDbLine
 10
324.075365
 20
1181.375571
 11
327.339077
 21
1184.639283
  0
LINE
  5
701
100
AcDbEntity
  8
M0
 62
   114
100
AcDbLine
 10
321.161086
 20
1178.461293
 11
323.226839
 21
1180.527046
  0
LINE
  5
702
100
AcDbEntity
  8
M0
 62
   114
100
AcDbLine
 10
322.378356
 20
1181.375528
 11
320.312626
 21
1179.309799
  0
LINE
  5
703
100
AcDbEntity
  8
M0
 62
   114
100
AcDbLine
 10
326.490605
 20
1185.487798
 11
323.226882
 21
1182.224054
  0
LINE
  5
704
100
AcDbEntity
  8
M0
 62
   114
100
AcDbLine
 10
323.226871
 20
1182.224065
 11
321.459104
 21
1183.991832
  0
LINE
  5
705
100
AcDbEntity
  8
M0
 62
   114
100
AcDbLine
 10
325.843132
 20
1179.607804
 11
324.075365
 21
1181.375571
  0
LINE
  5
706
100
AcDbEntity
  8
M0
 62
   114
100
AcDbLine
 10
323.226839
 20
1180.527046
 11
324.994606
 21
1178.759278
  0
LINE
  5
707
100
AcDbEntity
  8
M0
 62
   114
100
AcDbLine
 10
320.610578
 20
1183.143306
 11
322.378345
 21
1181.375539
  0
LINE
  5
708
100
AcDbEntity
  8
M0
 62
   114
100
AcDbLine
 10
324.994606
 20
1178.759278
 11
325.843132
 21
1179.607804
  0
LINE
  5
709
100
AcDbEntity
  8
M0
 62
   114
100
AcDbLine
 10
321.459104
 20
1183.991832
 11
320.610578
 21
1183.143306
  0
ARC
  5
70A
100
AcDbEntity
  8
M0
 62
   114
100
AcDbCircle
 10
323.226774
 20
1181.375647
 40
5.25
100
AcDbArc
 50
258.187553
 51
446.274448
  0
ARC
  5
70B
100
AcDbEntity
  8
M0
 62
   114
100
AcDbCircle
 10
323.226774
 20
1181.375647
 40
5.75
100
AcDbArc
 50
259.867687
 51
442.18488
  0
LINE
  5
70C
100
AcDbEntity
  8
M0
 62
   114
100
AcDbLine
 10
184.07538
 20
1181.375571
 11
186.039348
 21
1183.33954
  0
LINE
  5
70D
100
AcDbEntity
  8
M0
 62
   114
100
AcDbLine
 10
179.963142
 20
1177.263334
 11
183.226854
 21
1180.527046
  0
LINE
  5
70E
100
AcDbEntity
  8
M0
 62
   114
100
AcDbLine
 10
182.378371
 20
1181.375528
 11
179.114638
 21
1178.111795
  0
LINE
  5
70F
100
AcDbEntity
  8
M0
 62
   114
100
AcDbLine
 10
185.206868
 20
1184.204038
 11
183.226897
 21
1182.224054
  0
LINE
  5
710
100
AcDbEntity
  8
M0
 62
   114
100
AcDbLine
 10
183.226886
 20
1182.224065
 11
181.45912
 21
1183.991832
  0
LINE
  5
711
100
AcDbEntity
  8
M0
 62
   114
100
AcDbLine
 10
185.843147
 20
1179.607804
 11
184.07538
 21
1181.375571
  0
LINE
  5
712
100
AcDbEntity
  8
M0
 62
   114
100
AcDbLine
 10
183.226854
 20
1180.527046
 11
184.994621
 21
1178.759278
  0
LINE
  5
713
100
AcDbEntity
  8
M0
 62
   114
100
AcDbLine
 10
180.610594
 20
1183.143306
 11
182.37836
 21
1181.375539
  0
LINE
  5
714
100
AcDbEntity
  8
M0
 62
   114
100
AcDbLine
 10
184.994621
 20
1178.759278
 11
185.843147
 21
1179.607804
  0
LINE
  5
715
100
AcDbEntity
  8
M0
 62
   114
100
AcDbLine
 10
181.45912
 20
1183.991832
 11
180.610594
 21
1183.143306
  0
ARC
  5
716
100
AcDbEntity
  8
M0
 62
   114
100
AcDbCircle
 10
183.226789
 20
1181.375647
 40
5.75
100
AcDbArc
 50
97.815355
 51
280.132157
  0
ARC
  5
717
100
AcDbEntity
  8
M0
 62
   114
100
AcDbCircle
 10
183.226789
 20
1181.375647
 40
5.25
100
AcDbArc
 50
93.725821
 51
281.812271
  0
LINE
  5
718
100
AcDbEntity
  8
M0
 62
   114
100
AcDbLine
 10
184.07538
 20
1037.375587
 11
186.141132
 21
1039.441339
  0
LINE
  5
719
100
AcDbEntity
  8
M0
 62
   114
100
AcDbLine
 10
179.963142
 20
1033.263349
 11
183.226854
 21
1036.527061
  0
LINE
  5
71A
100
AcDbEntity
  8
M0
 62
   114
100
AcDbLine
 10
182.378371
 20
1037.375544
 11
179.114638
 21
1034.11181
  0
LINE
  5
71B
100
AcDbEntity
  8
M0
 62
   114
100
AcDbLine
 10
185.292621
 20
1040.289806
 11
183.226897
 21
1038.22407
  0
LINE
  5
71C
100
AcDbEntity
  8
M0
 62
   114
100
AcDbLine
 10
183.226886
 20
1038.22408
 11
181.45912
 21
1039.991847
  0
LINE
  5
71D
100
AcDbEntity
  8
M0
 62
   114
100
AcDbLine
 10
185.843147
 20
1035.60782
 11
184.07538
 21
1037.375587
  0
LINE
  5
71E
100
AcDbEntity
  8
M0
 62
   114
100
AcDbLine
 10
183.226854
 20
1036.527061
 11
184.994621
 21
1034.759294
  0
LINE
  5
71F
100
AcDbEntity
  8
M0
 62
   114
100
AcDbLine
 10
180.610594
 20
1039.143321
 11
182.37836
 21
1037.375554
  0
LINE
  5
720
100
AcDbEntity
  8
M0
 62
   114
100
AcDbLine
 10
184.994621
 20
1034.759294
 11
185.843147
 21
1035.60782
  0
LINE
  5
721
100
AcDbEntity
  8
M0
 62
   114
100
AcDbLine
 10
181.45912
 20
1039.991847
 11
180.610594
 21
1039.143321
  0
ARC
  5
722
100
AcDbEntity
  8
M0
 62
   114
100
AcDbCircle
 10
183.226789
 20
1037.375662
 40
5.75
100
AcDbArc
 50
79.867849
 51
262.186614
  0
ARC
  5
723
100
AcDbEntity
  8
M0
 62
   114
100
AcDbCircle
 10
183.226789
 20
1037.375662
 40
5.25
100
AcDbArc
 50
78.187745
 51
266.276456
  0
CIRCLE
  5
724
100
AcDbEntity
  8
M0
 62
     2
100
AcDbCircle
 10
253.226831
 20
1204.375753
 40
13.0
  0
CIRCLE
  5
725
100
AcDbEntity
  8
M0
 62
     7
100
AcDbCircle
 10
253.226831
 20
1204.375753
 40
10.75
  0
CIRCLE
  5
726
100
AcDbEntity
  8
M0
 62
     2
100
AcDbCircle
 10
195.226767
 20
1204.37568
 40
13.0
  0
CIRCLE
  5
727
100
AcDbEntity
  8
M0
 62
     7
100
AcDbCircle
 10
195.226767
 20
1204.37568
 40
10.75
  0
CIRCLE
  5
728
100
AcDbEntity
  8
M0
 62
     2
100
AcDbCircle
 10
311.226767
 20
1204.37568
 40
13.0
  0
CIRCLE
  5
729
100
AcDbEntity
  8
M0
 62
     7
100
AcDbCircle
 10
311.226767
 20
1204.37568
 40
10.75
  0
CIRCLE
  5
72A
100
AcDbEntity
  8
M0
 62
     2
100
AcDbCircle
 10
311.226774
 20
1014.375407
 40
13.0
  0
CIRCLE
  5
72B
100
AcDbEntity
  8
M0
 62
     7
100
AcDbCircle
 10
311.226774
 20
1014.375407
 40
10.75
  0
CIRCLE
  5
72C
100
AcDbEntity
  8
M0
 62
     2
100
AcDbCircle
 10
253.226774
 20
1014.375407
 40
13.0
  0
CIRCLE
  5
72D
100
AcDbEntity
  8
M0
 62
     7
100
AcDbCircle
 10
253.226774
 20
1014.375407
 40
10.75
  0
CIRCLE
  5
72E
100
AcDbEntity
  8
M0
 62
     2
100
AcDbCircle
 10
195.226774
 20
1014.375407
 40
13.0
  0
CIRCLE
  5
72F
100
AcDbEntity
  8
M0
 62
     7
100
AcDbCircle
 10
195.226774
 20
1014.375407
 40
10.75
  0
CIRCLE
  5
730
100
AcDbEntity
  8
M0
100
AcDbCircle
 10
178.226767
 20
1131.075651
 40
3.0
  0
LINE
  5
731
100
AcDbEntity
  8
M0
100
AcDbLine
 10
181.185752
 20
1135.022993
 11
182.001914
 21
1132.3757
  0
LINE
  5
732
100
AcDbEntity
  8
M0
100
AcDbLine
 10
181.185752
 20
1127.128401
 11
182.001914
 21
1129.775725
  0
LINE
  5
733
100
AcDbEntity
  8
M0
100
AcDbLine
 10
175.268271
 20
1135.023008
 11
174.451865
 21
1132.3757
  0
LINE
  5
734
100
AcDbEntity
  8
M0
100
AcDbLine
 10
175.268271
 20
1127.128386
 11
174.451865
 21
1129.775725
  0
LINE
  5
735
100
AcDbEntity
  8
M0
100
AcDbLine
 10
180.707724
 20
1126.775725
 11
175.746054
 21
1126.775725
  0
LINE
  5
736
100
AcDbEntity
  8
M0
100
AcDbLine
 10
174.451865
 20
1129.775725
 11
174.451865
 21
1132.3757
  0
LINE
  5
737
100
AcDbEntity
  8
M0
100
AcDbLine
 10
175.746054
 20
1135.3757
 11
180.707724
 21
1135.375684
  0
LINE
  5
738
100
AcDbEntity
  8
M0
100
AcDbLine
 10
182.001914
 20
1132.3757
 11
182.001914
 21
1129.775725
  0
ARC
  5
739
100
AcDbEntity
  8
M0
100
AcDbCircle
 10
180.707724
 20
1134.875684
 40
0.5
100
AcDbArc
 50
17.127146
 51
90.0
  0
ARC
  5
73A
100
AcDbEntity
  8
M0
100
AcDbCircle
 10
180.707724
 20
1127.275725
 40
0.5
100
AcDbArc
 50
270.0
 51
342.871263
  0
ARC
  5
73B
100
AcDbEntity
  8
M0
100
AcDbCircle
 10
175.746054
 20
1127.275725
 40
0.5
100
AcDbArc
 50
197.138555
 51
270.0
  0
ARC
  5
73C
100
AcDbEntity
  8
M0
100
AcDbCircle
 10
175.746054
 20
1134.875684
 40
0.5
100
AcDbArc
 50
90.0
 51
162.862931
  0
CIRCLE
  5
73D
100
AcDbEntity
  8
M0
100
AcDbCircle
 10
178.226764
 20
1140.575651
 40
3.0
  0
LINE
  5
73E
100
AcDbEntity
  8
M0
100
AcDbLine
 10
181.185749
 20
1144.522993
 11
182.001911
 21
1141.8757
  0
LINE
  5
73F
100
AcDbEntity
  8
M0
100
AcDbLine
 10
181.185749
 20
1136.628401
 11
182.001911
 21
1139.275725
  0
LINE
  5
740
100
AcDbEntity
  8
M0
100
AcDbLine
 10
175.268268
 20
1144.523008
 11
174.451862
 21
1141.8757
  0
LINE
  5
741
100
AcDbEntity
  8
M0
100
AcDbLine
 10
175.268268
 20
1136.628386
 11
174.451862
 21
1139.275725
  0
LINE
  5
742
100
AcDbEntity
  8
M0
100
AcDbLine
 10
180.707721
 20
1136.275725
 11
175.746051
 21
1136.275725
  0
LINE
  5
743
100
AcDbEntity
  8
M0
100
AcDbLine
 10
174.451862
 20
1139.275725
 11
174.451862
 21
1141.8757
  0
LINE
  5
744
100
AcDbEntity
  8
M0
100
AcDbLine
 10
175.746051
 20
1144.8757
 11
180.707721
 21
1144.875684
  0
LINE
  5
745
100
AcDbEntity
  8
M0
100
AcDbLine
 10
182.001911
 20
1141.8757
 11
182.001911
 21
1139.275725
  0
ARC
  5
746
100
AcDbEntity
  8
M0
100
AcDbCircle
 10
180.707721
 20
1144.375684
 40
0.5
100
AcDbArc
 50
17.127146
 51
90.0
  0
ARC
  5
747
100
AcDbEntity
  8
M0
100
AcDbCircle
 10
180.707721
 20
1136.775725
 40
0.5
100
AcDbArc
 50
270.0
 51
342.871263
  0
ARC
  5
748
100
AcDbEntity
  8
M0
100
AcDbCircle
 10
175.746051
 20
1136.775725
 40
0.5
100
AcDbArc
 50
197.138555
 51
270.0
  0
ARC
  5
749
100
AcDbEntity
  8
M0
100
AcDbCircle
 10
175.746051
 20
1144.375684
 40
0.5
100
AcDbArc
 50
90.0
 51
162.862931
  0
CIRCLE
  5
74A
100
AcDbEntity
  8
M0
100
AcDbCircle
 10
178.226767
 20
1110.075651
 40
3.0
  0
LINE
  5
74B
100
AcDbEntity
  8
M0
100
AcDbLine
 10
181.185752
 20
1106.128309
 11
182.001914
 21
1108.775602
  0
LINE
  5
74C
100
AcDbEntity
  8
M0
100
AcDbLine
 10
181.185752
 20
1114.0229
 11
182.001914
 21
1111.375577
  0
LINE
  5
74D
100
AcDbEntity
  8
M0
100
AcDbLine
 10
175.268271
 20
1106.128294
 11
174.451865
 21
1108.775602
  0
LINE
  5
74E
100
AcDbEntity
  8
M0
100
AcDbLine
 10
175.268271
 20
1114.022916
 11
174.451865
 21
1111.375577
  0
LINE
  5
74F
100
AcDbEntity
  8
M0
100
AcDbLine
 10
180.707724
 20
1114.375577
 11
175.746054
 21
1114.375577
  0
LINE
  5
750
100
AcDbEntity
  8
M0
100
AcDbLine
 10
174.451865
 20
1111.375577
 11
174.451865
 21
1108.775602
  0
LINE
  5
751
100
AcDbEntity
  8
M0
100
AcDbLine
 10
175.746054
 20
1105.775602
 11
180.707724
 21
1105.775617
  0
LINE
  5
752
100
AcDbEntity
  8
M0
100
AcDbLine
 10
182.001914
 20
1108.775602
 11
182.001914
 21
1111.375577
  0
ARC
  5
753
100
AcDbEntity
  8
M0
100
AcDbCircle
 10
180.707724
 20
1106.275617
 40
0.5
100
AcDbArc
 50
270.0
 51
342.872854
  0
ARC
  5
754
100
AcDbEntity
  8
M0
100
AcDbCircle
 10
180.707724
 20
1113.875577
 40
0.5
100
AcDbArc
 50
17.128737
 51
90.0
  0
ARC
  5
755
100
AcDbEntity
  8
M0
100
AcDbCircle
 10
175.746054
 20
1113.875577
 40
0.5
100
AcDbArc
 50
90.0
 51
162.861445
  0
ARC
  5
756
100
AcDbEntity
  8
M0
100
AcDbCircle
 10
175.746054
 20
1106.275617
 40
0.5
100
AcDbArc
 50
197.137069
 51
270.0
  0
CIRCLE
  5
757
100
AcDbEntity
  8
M0
100
AcDbCircle
 10
178.226764
 20
1100.575651
 40
3.0
  0
LINE
  5
758
100
AcDbEntity
  8
M0
100
AcDbLine
 10
181.185749
 20
1096.628309
 11
182.001911
 21
1099.275602
  0
LINE
  5
759
100
AcDbEntity
  8
M0
100
AcDbLine
 10
181.185749
 20
1104.5229
 11
182.001911
 21
1101.875577
  0
LINE
  5
75A
100
AcDbEntity
  8
M0
100
AcDbLine
 10
175.268268
 20
1096.628294
 11
174.451862
 21
1099.275602
  0
LINE
  5
75B
100
AcDbEntity
  8
M0
100
AcDbLine
 10
175.268268
 20
1104.522916
 11
174.451862
 21
1101.875577
  0
LINE
  5
75C
100
AcDbEntity
  8
M0
100
AcDbLine
 10
180.707721
 20
1104.875577
 11
175.746051
 21
1104.875577
  0
LINE
  5
75D
100
AcDbEntity
  8
M0
100
AcDbLine
 10
174.451862
 20
1101.875577
 11
174.451862
 21
1099.275602
  0
LINE
  5
75E
100
AcDbEntity
  8
M0
100
AcDbLine
 10
175.746051
 20
1096.275602
 11
180.707721
 21
1096.275617
  0
LINE
  5
75F
100
AcDbEntity
  8
M0
100
AcDbLine
 10
182.001911
 20
1099.275602
 11
182.001911
 21
1101.875577
  0
ARC
  5
760
100
AcDbEntity
  8
M0
100
AcDbCircle
 10
180.707721
 20
1096.775617
 40
0.5
100
AcDbArc
 50
270.0
 51
342.872854
  0
ARC
  5
761
100
AcDbEntity
  8
M0
100
AcDbCircle
 10
180.707721
 20
1104.375577
 40
0.5
100
AcDbArc
 50
17.128737
 51
90.0
  0
ARC
  5
762
100
AcDbEntity
  8
M0
100
AcDbCircle
 10
175.746051
 20
1104.375577
 40
0.5
100
AcDbArc
 50
90.0
 51
162.861445
  0
ARC
  5
763
100
AcDbEntity
  8
M0
100
AcDbCircle
 10
175.746051
 20
1096.775617
 40
0.5
100
AcDbArc
 50
197.137069
 51
270.0
  0
LINE
  5
764
100
AcDbEntity
  8
M0
 62
   234
100
AcDbLine
 10
322.226782
 20
1147.075648
 11
322.226766
 21
1094.075653
  0
LINE
  5
765
100
AcDbEntity
  8
M0
 62
   234
100
AcDbLine
 10
332.226782
 20
1147.075645
 11
322.226782
 21
1147.075648
  0
LINE
  5
766
100
AcDbEntity
  8
M0
 62
   234
100
AcDbLine
 10
332.226766
 20
1094.07565
 11
322.226766
 21
1094.075653
  0
LINE
  5
767
100
AcDbEntity
  8
M0
 62
   234
100
AcDbLine
 10
322.226766
 20
1094.075653
 11
332.226766
 21
1094.07565
  0
LINE
  5
768
100
AcDbEntity
  8
M0
 62
   234
100
AcDbLine
 10
334.226765
 20
1091.57566
 11
334.226783
 21
1149.575644
  0
CIRCLE
  5
769
100
AcDbEntity
  8
M0
 62
   234
100
AcDbCircle
 10
325.226784
 20
1151.575647
 40
2.25
  0
LINE
  5
76A
100
AcDbEntity
  8
M0
 62
   234
100
AcDbLine
 10
332.726783
 20
1149.575645
 11
334.226783
 21
1149.575644
  0
ARC
  5
76B
100
AcDbEntity
  8
M0
 62
   234
100
AcDbCircle
 10
332.726783
 20
1149.075645
 40
0.5
100
AcDbArc
 50
90.0
 51
180.001731
  0
LINE
  5
76C
100
AcDbEntity
  8
M0
 62
   234
100
AcDbLine
 10
329.726782
 20
1147.075646
 11
329.726784
 21
1151.575646
  0
ARC
  5
76D
100
AcDbEntity
  8
M0
 62
   234
100
AcDbCircle
 10
325.726784
 20
1151.575647
 40
4.0
100
AcDbArc
 50
359.999982
 51
450.0
  0
LINE
  5
76E
100
AcDbEntity
  8
M0
 62
   234
100
AcDbLine
 10
322.226785
 20
1155.575648
 11
325.726785
 21
1155.575647
  0
LINE
  5
76F
100
AcDbEntity
  8
M0
 62
   234
100
AcDbLine
 10
332.226776
 20
1126.075645
 11
324.226776
 21
1126.075647
  0
LINE
  5
770
100
AcDbEntity
  8
M0
 62
   234
100
AcDbLine
 10
322.226773
 20
1116.825652
 11
334.226773
 21
1116.825648
  0
LINE
  5
771
100
AcDbEntity
  8
M0
 62
   234
100
AcDbLine
 10
322.226775
 20
1124.325652
 11
334.226775
 21
1124.325648
  0
LINE
  5
772
100
AcDbEntity
  8
M0
 62
   234
100
AcDbLine
 10
332.226783
 20
1149.075645
 11
332.226776
 21
1126.075645
  0
LINE
  5
773
100
AcDbEntity
  8
M0
 62
   234
100
AcDbLine
 10
324.226782
 20
1147.075647
 11
324.226776
 21
1126.075647
  0
LINE
  5
774
100
AcDbEntity
  8
M0
 62
   234
100
AcDbLine
 10
324.226772
 20
1115.075651
 11
324.226766
 21
1094.075652
  0
LINE
  5
775
100
AcDbEntity
  8
M0
 62
   234
100
AcDbLine
 10
330.226775
 20
1124.325649
 11
330.226775
 21
1123.325649
  0
LINE
  5
776
100
AcDbEntity
  8
M0
 62
   234
100
AcDbLine
 10
333.226775
 20
1123.325648
 11
330.226775
 21
1123.325649
  0
LINE
  5
777
100
AcDbEntity
  8
M0
 62
   234
100
AcDbLine
 10
333.226775
 20
1124.325648
 11
333.226773
 21
1116.825648
  0
LINE
  5
778
100
AcDbEntity
  8
M0
 62
   234
100
AcDbLine
 10
333.226773
 20
1117.825648
 11
330.226773
 21
1117.825649
  0
LINE
  5
779
100
AcDbEntity
  8
M0
 62
   234
100
AcDbLine
 10
330.226773
 20
1117.825649
 11
330.226773
 21
1116.825649
  0
LINE
  5
77A
100
AcDbEntity
  8
M0
 62
   234
100
AcDbLine
 10
325.726775
 20
1123.325651
 11
325.726773
 21
1117.825651
  0
LINE
  5
77B
100
AcDbEntity
  8
M0
 62
   234
100
AcDbLine
 10
327.226775
 20
1124.32565
 11
327.226773
 21
1116.82565
  0
LINE
  5
77C
100
AcDbEntity
  8
M0
 62
   234
100
AcDbLine
 10
327.226773
 20
1117.82565
 11
322.226773
 21
1117.825652
  0
LINE
  5
77D
100
AcDbEntity
  8
M0
 62
   234
100
AcDbLine
 10
327.226775
 20
1123.32565
 11
322.226775
 21
1123.325652
  0
LINE
  5
77E
100
AcDbEntity
  8
M0
 62
   234
100
AcDbLine
 10
329.726766
 20
1094.075651
 11
329.726764
 21
1089.575661
  0
ARC
  5
77F
100
AcDbEntity
  8
M0
 62
   234
100
AcDbCircle
 10
325.726764
 20
1089.575662
 40
4.0
100
AcDbArc
 50
-90.0
 51
0.000201
  0
LINE
  5
780
100
AcDbEntity
  8
M0
 62
   234
100
AcDbLine
 10
322.226763
 20
1085.575663
 11
325.726763
 21
1085.575662
  0
ARC
  5
781
100
AcDbEntity
  8
M0
 62
   234
100
AcDbCircle
 10
332.726765
 20
1092.07566
 40
0.5
100
AcDbArc
 50
179.999982
 51
270.0
  0
LINE
  5
782
100
AcDbEntity
  8
M0
 62
   234
100
AcDbLine
 10
332.726765
 20
1091.57566
 11
334.226765
 21
1091.57566
  0
LINE
  5
783
100
AcDbEntity
  8
M0
 62
   234
100
AcDbLine
 10
332.226772
 20
1115.075649
 11
332.226765
 21
1092.07566
  0
LINE
  5
784
100
AcDbEntity
  8
M0
 62
   234
100
AcDbLine
 10
332.226772
 20
1115.075649
 11
324.226772
 21
1115.075651
  0
CIRCLE
  5
785
100
AcDbEntity
  8
M0
100
AcDbCircle
 10
328.226784
 20
1100.575651
 40
3.0
  0
LINE
  5
786
100
AcDbEntity
  8
M0
100
AcDbLine
 10
325.267799
 20
1096.628309
 11
324.451637
 21
1099.275602
  0
LINE
  5
787
100
AcDbEntity
  8
M0
100
AcDbLine
 10
325.267799
 20
1104.5229
 11
324.451637
 21
1101.875577
  0
LINE
  5
788
100
AcDbEntity
  8
M0
100
AcDbLine
 10
331.18528
 20
1096.628294
 11
332.001686
 21
1099.275602
  0
LINE
  5
789
100
AcDbEntity
  8
M0
100
AcDbLine
 10
331.18528
 20
1104.522916
 11
332.001686
 21
1101.875577
  0
LINE
  5
78A
100
AcDbEntity
  8
M0
100
AcDbLine
 10
325.745827
 20
1104.875577
 11
330.707497
 21
1104.875577
  0
LINE
  5
78B
100
AcDbEntity
  8
M0
100
AcDbLine
 10
332.001686
 20
1101.875577
 11
332.001686
 21
1099.275602
  0
LINE
  5
78C
100
AcDbEntity
  8
M0
100
AcDbLine
 10
330.707497
 20
1096.275602
 11
325.745827
 21
1096.275617
  0
LINE
  5
78D
100
AcDbEntity
  8
M0
100
AcDbLine
 10
324.451637
 20
1099.275602
 11
324.451637
 21
1101.875577
  0
ARC
  5
78E
100
AcDbEntity
  8
M0
100
AcDbCircle
 10
325.745827
 20
1096.775617
 40
0.5
100
AcDbArc
 50
197.127146
 51
270.0
  0
ARC
  5
78F
100
AcDbEntity
  8
M0
100
AcDbCircle
 10
325.745827
 20
1104.375577
 40
0.5
100
AcDbArc
 50
90.0
 51
162.871263
  0
ARC
  5
790
100
AcDbEntity
  8
M0
100
AcDbCircle
 10
330.707497
 20
1104.375577
 40
0.5
100
AcDbArc
 50
17.138555
 51
90.0
  0
ARC
  5
791
100
AcDbEntity
  8
M0
100
AcDbCircle
 10
330.707497
 20
1096.775617
 40
0.5
100
AcDbArc
 50
270.0
 51
342.862931
  0
CIRCLE
  5
792
100
AcDbEntity
  8
M0
100
AcDbCircle
 10
328.226781
 20
1110.075651
 40
3.0
  0
LINE
  5
793
100
AcDbEntity
  8
M0
100
AcDbLine
 10
325.267796
 20
1106.128309
 11
324.451634
 21
1108.775602
  0
LINE
  5
794
100
AcDbEntity
  8
M0
100
AcDbLine
 10
325.267796
 20
1114.0229
 11
324.451634
 21
1111.375577
  0
LINE
  5
795
100
AcDbEntity
  8
M0
100
AcDbLine
 10
331.185277
 20
1106.128294
 11
332.001683
 21
1108.775602
  0
LINE
  5
796
100
AcDbEntity
  8
M0
100
AcDbLine
 10
331.185277
 20
1114.022916
 11
332.001683
 21
1111.375577
  0
LINE
  5
797
100
AcDbEntity
  8
M0
100
AcDbLine
 10
325.745824
 20
1114.375577
 11
330.707494
 21
1114.375577
  0
LINE
  5
798
100
AcDbEntity
  8
M0
100
AcDbLine
 10
332.001683
 20
1111.375577
 11
332.001683
 21
1108.775602
  0
LINE
  5
799
100
AcDbEntity
  8
M0
100
AcDbLine
 10
330.707494
 20
1105.775602
 11
325.745824
 21
1105.775617
  0
LINE
  5
79A
100
AcDbEntity
  8
M0
100
AcDbLine
 10
324.451634
 20
1108.775602
 11
324.451634
 21
1111.375577
  0
ARC
  5
79B
100
AcDbEntity
  8
M0
100
AcDbCircle
 10
325.745824
 20
1106.275617
 40
0.5
100
AcDbArc
 50
197.127146
 51
270.0
  0
ARC
  5
79C
100
AcDbEntity
  8
M0
100
AcDbCircle
 10
325.745824
 20
1113.875577
 40
0.5
100
AcDbArc
 50
90.0
 51
162.871263
  0
ARC
  5
79D
100
AcDbEntity
  8
M0
100
AcDbCircle
 10
330.707494
 20
1113.875577
 40
0.5
100
AcDbArc
 50
17.138555
 51
90.0
  0
ARC
  5
79E
100
AcDbEntity
  8
M0
100
AcDbCircle
 10
330.707494
 20
1106.275617
 40
0.5
100
AcDbArc
 50
270.0
 51
342.862931
  0
CIRCLE
  5
79F
100
AcDbEntity
  8
M0
100
AcDbCircle
 10
328.226781
 20
1131.075651
 40
3.0
  0
LINE
  5
7A0
100
AcDbEntity
  8
M0
100
AcDbLine
 10
325.267796
 20
1135.022993
 11
324.451634
 21
1132.3757
  0
LINE
  5
7A1
100
AcDbEntity
  8
M0
100
AcDbLine
 10
325.267796
 20
1127.128401
 11
324.451634
 21
1129.775725
  0
LINE
  5
7A2
100
AcDbEntity
  8
M0
100
AcDbLine
 10
331.185277
 20
1135.023008
 11
332.001683
 21
1132.3757
  0
LINE
  5
7A3
100
AcDbEntity
  8
M0
100
AcDbLine
 10
331.185277
 20
1127.128386
 11
332.001683
 21
1129.775725
  0
LINE
  5
7A4
100
AcDbEntity
  8
M0
100
AcDbLine
 10
325.745824
 20
1126.775725
 11
330.707494
 21
1126.775725
  0
LINE
  5
7A5
100
AcDbEntity
  8
M0
100
AcDbLine
 10
332.001683
 20
1129.775725
 11
332.001683
 21
1132.3757
  0
LINE
  5
7A6
100
AcDbEntity
  8
M0
100
AcDbLine
 10
330.707494
 20
1135.3757
 11
325.745824
 21
1135.375684
  0
LINE
  5
7A7
100
AcDbEntity
  8
M0
100
AcDbLine
 10
324.451634
 20
1132.3757
 11
324.451634
 21
1129.775725
  0
ARC
  5
7A8
100
AcDbEntity
  8
M0
100
AcDbCircle
 10
325.745824
 20
1134.875684
 40
0.5
100
AcDbArc
 50
90.0
 51
162.872854
  0
ARC
  5
7A9
100
AcDbEntity
  8
M0
100
AcDbCircle
 10
325.745824
 20
1127.275725
 40
0.5
100
AcDbArc
 50
197.128737
 51
270.0
  0
ARC
  5
7AA
100
AcDbEntity
  8
M0
100
AcDbCircle
 10
330.707494
 20
1127.275725
 40
0.5
100
AcDbArc
 50
270.0
 51
342.861445
  0
ARC
  5
7AB
100
AcDbEntity
  8
M0
100
AcDbCircle
 10
330.707494
 20
1134.875684
 40
0.5
100
AcDbArc
 50
17.137069
 51
90.0
  0
CIRCLE
  5
7AC
100
AcDbEntity
  8
M0
100
AcDbCircle
 10
328.226784
 20
1140.575651
 40
3.0
  0
LINE
  5
7AD
100
AcDbEntity
  8
M0
100
AcDbLine
 10
325.267799
 20
1144.522993
 11
324.451637
 21
1141.8757
  0
LINE
  5
7AE
100
AcDbEntity
  8
M0
100
AcDbLine
 10
325.267799
 20
1136.628401
 11
324.451637
 21
1139.275725
  0
LINE
  5
7AF
100
AcDbEntity
  8
M0
100
AcDbLine
 10
331.18528
 20
1144.523008
 11
332.001686
 21
1141.8757
  0
LINE
  5
7B0
100
AcDbEntity
  8
M0
100
AcDbLine
 10
331.18528
 20
1136.628386
 11
332.001686
 21
1139.275725
  0
LINE
  5
7B1
100
AcDbEntity
  8
M0
100
AcDbLine
 10
325.745827
 20
1136.275725
 11
330.707497
 21
1136.275725
  0
LINE
  5
7B2
100
AcDbEntity
  8
M0
100
AcDbLine
 10
332.001686
 20
1139.275725
 11
332.001686
 21
1141.8757
  0
LINE
  5
7B3
100
AcDbEntity
  8
M0
100
AcDbLine
 10
330.707497
 20
1144.8757
 11
325.745827
 21
1144.875684
  0
LINE
  5
7B4
100
AcDbEntity
  8
M0
100
AcDbLine
 10
324.451637
 20
1141.8757
 11
324.451637
 21
1139.275725
  0
ARC
  5
7B5
100
AcDbEntity
  8
M0
100
AcDbCircle
 10
325.745827
 20
1144.375684
 40
0.5
100
AcDbArc
 50
90.0
 51
162.872854
  0
ARC
  5
7B6
100
AcDbEntity
  8
M0
100
AcDbCircle
 10
325.745827
 20
1136.775725
 40
0.5
100
AcDbArc
 50
197.128737
 51
270.0
  0
ARC
  5
7B7
100
AcDbEntity
  8
M0
100
AcDbCircle
 10
330.707497
 20
1136.775725
 40
0.5
100
AcDbArc
 50
270.0
 51
342.861445
  0
ARC
  5
7B8
100
AcDbEntity
  8
M0
100
AcDbCircle
 10
330.707497
 20
1144.375684
 40
0.5
100
AcDbArc
 50
17.137069
 51
90.0
  0
CIRCLE
  5
7B9
100
AcDbEntity
  8
M0
100
AcDbCircle
 10
340.226784
 20
1140.575651
 40
3.0
  0
LINE
  5
7BA
100
AcDbEntity
  8
M0
100
AcDbLine
 10
337.2678
 20
1144.522993
 11
336.451638
 21
1141.8757
  0
LINE
  5
7BB
100
AcDbEntity
  8
M0
100
AcDbLine
 10
337.2678
 20
1136.628401
 11
336.451638
 21
1139.275725
  0
LINE
  5
7BC
100
AcDbEntity
  8
M0
100
AcDbLine
 10
343.185281
 20
1144.523008
 11
344.001687
 21
1141.8757
  0
LINE
  5
7BD
100
AcDbEntity
  8
M0
100
AcDbLine
 10
343.185281
 20
1136.628386
 11
344.001687
 21
1139.275725
  0
LINE
  5
7BE
100
AcDbEntity
  8
M0
100
AcDbLine
 10
337.745827
 20
1136.275725
 11
342.707497
 21
1136.275725
  0
LINE
  5
7BF
100
AcDbEntity
  8
M0
100
AcDbLine
 10
344.001687
 20
1139.275725
 11
344.001687
 21
1141.8757
  0
LINE
  5
7C0
100
AcDbEntity
  8
M0
100
AcDbLine
 10
342.707497
 20
1144.8757
 11
337.745827
 21
1144.875684
  0
LINE
  5
7C1
100
AcDbEntity
  8
M0
100
AcDbLine
 10
336.451638
 20
1141.8757
 11
336.451638
 21
1139.275725
  0
ARC
  5
7C2
100
AcDbEntity
  8
M0
100
AcDbCircle
 10
337.745827
 20
1144.375684
 40
0.5
100
AcDbArc
 50
90.0
 51
162.872854
  0
ARC
  5
7C3
100
AcDbEntity
  8
M0
100
AcDbCircle
 10
337.745827
 20
1136.775725
 40
0.5
100
AcDbArc
 50
197.128737
 51
270.0
  0
ARC
  5
7C4
100
AcDbEntity
  8
M0
100
AcDbCircle
 10
342.707497
 20
1136.775725
 40
0.5
100
AcDbArc
 50
270.0
 51
342.861445
  0
ARC
  5
7C5
100
AcDbEntity
  8
M0
100
AcDbCircle
 10
342.707497
 20
1144.375684
 40
0.5
100
AcDbArc
 50
17.137069
 51
90.0
  0
CIRCLE
  5
7C6
100
AcDbEntity
  8
M0
100
AcDbCircle
 10
340.226781
 20
1131.075651
 40
3.0
  0
LINE
  5
7C7
100
AcDbEntity
  8
M0
100
AcDbLine
 10
337.267797
 20
1135.022993
 11
336.451635
 21
1132.3757
  0
LINE
  5
7C8
100
AcDbEntity
  8
M0
100
AcDbLine
 10
337.267797
 20
1127.128401
 11
336.451635
 21
1129.775725
  0
LINE
  5
7C9
100
AcDbEntity
  8
M0
100
AcDbLine
 10
343.185278
 20
1135.023008
 11
344.001684
 21
1132.3757
  0
LINE
  5
7CA
100
AcDbEntity
  8
M0
100
AcDbLine
 10
343.185278
 20
1127.128386
 11
344.001684
 21
1129.775725
  0
LINE
  5
7CB
100
AcDbEntity
  8
M0
100
AcDbLine
 10
337.745824
 20
1126.775725
 11
342.707494
 21
1126.775725
  0
LINE
  5
7CC
100
AcDbEntity
  8
M0
100
AcDbLine
 10
344.001684
 20
1129.775725
 11
344.001684
 21
1132.3757
  0
LINE
  5
7CD
100
AcDbEntity
  8
M0
100
AcDbLine
 10
342.707494
 20
1135.3757
 11
337.745824
 21
1135.375684
  0
LINE
  5
7CE
100
AcDbEntity
  8
M0
100
AcDbLine
 10
336.451635
 20
1132.3757
 11
336.451635
 21
1129.775725
  0
ARC
  5
7CF
100
AcDbEntity
  8
M0
100
AcDbCircle
 10
337.745824
 20
1134.875684
 40
0.5
100
AcDbArc
 50
90.0
 51
162.872854
  0
ARC
  5
7D0
100
AcDbEntity
  8
M0
100
AcDbCircle
 10
337.745824
 20
1127.275725
 40
0.5
100
AcDbArc
 50
197.128737
 51
270.0
  0
ARC
  5
7D1
100
AcDbEntity
  8
M0
100
AcDbCircle
 10
342.707494
 20
1127.275725
 40
0.5
100
AcDbArc
 50
270.0
 51
342.861445
  0
ARC
  5
7D2
100
AcDbEntity
  8
M0
100
AcDbCircle
 10
342.707494
 20
1134.875684
 40
0.5
100
AcDbArc
 50
17.137069
 51
90.0
  0
CIRCLE
  5
7D3
100
AcDbEntity
  8
M0
100
AcDbCircle
 10
340.226781
 20
1110.075651
 40
3.0
  0
LINE
  5
7D4
100
AcDbEntity
  8
M0
100
AcDbLine
 10
337.267797
 20
1106.128309
 11
336.451635
 21
1108.775602
  0
LINE
  5
7D5
100
AcDbEntity
  8
M0
100
AcDbLine
 10
337.267797
 20
1114.0229
 11
336.451635
 21
1111.375577
  0
LINE
  5
7D6
100
AcDbEntity
  8
M0
100
AcDbLine
 10
343.185278
 20
1106.128294
 11
344.001684
 21
1108.775602
  0
LINE
  5
7D7
100
AcDbEntity
  8
M0
100
AcDbLine
 10
343.185278
 20
1114.022916
 11
344.001684
 21
1111.375577
  0
LINE
  5
7D8
100
AcDbEntity
  8
M0
100
AcDbLine
 10
337.745824
 20
1114.375577
 11
342.707494
 21
1114.375577
  0
LINE
  5
7D9
100
AcDbEntity
  8
M0
100
AcDbLine
 10
344.001684
 20
1111.375577
 11
344.001684
 21
1108.775602
  0
LINE
  5
7DA
100
AcDbEntity
  8
M0
100
AcDbLine
 10
342.707494
 20
1105.775602
 11
337.745824
 21
1105.775617
  0
LINE
  5
7DB
100
AcDbEntity
  8
M0
100
AcDbLine
 10
336.451635
 20
1108.775602
 11
336.451635
 21
1111.375577
  0
ARC
  5
7DC
100
AcDbEntity
  8
M0
100
AcDbCircle
 10
337.745824
 20
1106.275617
 40
0.5
100
AcDbArc
 50
197.127146
 51
270.0
  0
ARC
  5
7DD
100
AcDbEntity
  8
M0
100
AcDbCircle
 10
337.745824
 20
1113.875577
 40
0.5
100
AcDbArc
 50
90.0
 51
162.871263
  0
ARC
  5
7DE
100
AcDbEntity
  8
M0
100
AcDbCircle
 10
342.707494
 20
1113.875577
 40
0.5
100
AcDbArc
 50
17.138555
 51
90.0
  0
ARC
  5
7DF
100
AcDbEntity
  8
M0
100
AcDbCircle
 10
342.707494
 20
1106.275617
 40
0.5
100
AcDbArc
 50
270.0
 51
342.862931
  0
CIRCLE
  5
7E0
100
AcDbEntity
  8
M0
100
AcDbCircle
 10
340.226784
 20
1100.575651
 40
3.0
  0
LINE
  5
7E1
100
AcDbEntity
  8
M0
100
AcDbLine
 10
337.2678
 20
1096.628309
 11
336.451638
 21
1099.275602
  0
LINE
  5
7E2
100
AcDbEntity
  8
M0
100
AcDbLine
 10
337.2678
 20
1104.5229
 11
336.451638
 21
1101.875577
  0
LINE
  5
7E3
100
AcDbEntity
  8
M0
100
AcDbLine
 10
343.185281
 20
1096.628294
 11
344.001687
 21
1099.275602
  0
LINE
  5
7E4
100
AcDbEntity
  8
M0
100
AcDbLine
 10
343.185281
 20
1104.522916
 11
344.001687
 21
1101.875577
  0
LINE
  5
7E5
100
AcDbEntity
  8
M0
100
AcDbLine
 10
337.745827
 20
1104.875577
 11
342.707497
 21
1104.875577
  0
LINE
  5
7E6
100
AcDbEntity
  8
M0
100
AcDbLine
 10
344.001687
 20
1101.875577
 11
344.001687
 21
1099.275602
  0
LINE
  5
7E7
100
AcDbEntity
  8
M0
100
AcDbLine
 10
342.707497
 20
1096.275602
 11
337.745827
 21
1096.275617
  0
LINE
  5
7E8
100
AcDbEntity
  8
M0
100
AcDbLine
 10
336.451638
 20
1099.275602
 11
336.451638
 21
1101.875577
  0
ARC
  5
7E9
100
AcDbEntity
  8
M0
100
AcDbCircle
 10
337.745827
 20
1096.775617
 40
0.5
100
AcDbArc
 50
197.127146
 51
270.0
  0
ARC
  5
7EA
100
AcDbEntity
  8
M0
100
AcDbCircle
 10
337.745827
 20
1104.375577
 40
0.5
100
AcDbArc
 50
90.0
 51
162.871263
  0
ARC
  5
7EB
100
AcDbEntity
  8
M0
100
AcDbCircle
 10
342.707497
 20
1104.375577
 40
0.5
100
AcDbArc
 50
17.138555
 51
90.0
  0
ARC
  5
7EC
100
AcDbEntity
  8
M0
100
AcDbCircle
 10
342.707497
 20
1096.775617
 40
0.5
100
AcDbArc
 50
270.0
 51
342.862931
  0
CIRCLE
  5
7ED
100
AcDbEntity
  8
M0
100
AcDbCircle
 10
352.726777
 20
1100.375651
 40
3.0
  0
LINE
  5
7EE
100
AcDbEntity
  8
M0
100
AcDbLine
 10
349.767793
 20
1096.428309
 11
348.951631
 21
1099.075602
  0
LINE
  5
7EF
100
AcDbEntity
  8
M0
100
AcDbLine
 10
349.767793
 20
1104.3229
 11
348.951631
 21
1101.675577
  0
LINE
  5
7F0
100
AcDbEntity
  8
M0
100
AcDbLine
 10
355.685274
 20
1096.428294
 11
356.50168
 21
1099.075602
  0
LINE
  5
7F1
100
AcDbEntity
  8
M0
100
AcDbLine
 10
355.685274
 20
1104.322916
 11
356.50168
 21
1101.675577
  0
LINE
  5
7F2
100
AcDbEntity
  8
M0
100
AcDbLine
 10
350.24582
 20
1104.675577
 11
355.20749
 21
1104.675577
  0
LINE
  5
7F3
100
AcDbEntity
  8
M0
100
AcDbLine
 10
356.50168
 20
1101.675577
 11
356.50168
 21
1099.075602
  0
LINE
  5
7F4
100
AcDbEntity
  8
M0
100
AcDbLine
 10
355.20749
 20
1096.075602
 11
350.24582
 21
1096.075617
  0
LINE
  5
7F5
100
AcDbEntity
  8
M0
100
AcDbLine
 10
348.951631
 20
1099.075602
 11
348.951631
 21
1101.675577
  0
ARC
  5
7F6
100
AcDbEntity
  8
M0
100
AcDbCircle
 10
350.24582
 20
1096.575617
 40
0.5
100
AcDbArc
 50
197.127146
 51
270.0
  0
ARC
  5
7F7
100
AcDbEntity
  8
M0
100
AcDbCircle
 10
350.24582
 20
1104.175577
 40
0.5
100
AcDbArc
 50
90.0
 51
162.871263
  0
ARC
  5
7F8
100
AcDbEntity
  8
M0
100
AcDbCircle
 10
355.20749
 20
1104.175577
 40
0.5
100
AcDbArc
 50
17.138555
 51
90.0
  0
ARC
  5
7F9
100
AcDbEntity
  8
M0
100
AcDbCircle
 10
355.20749
 20
1096.575617
 40
0.5
100
AcDbArc
 50
270.0
 51
342.862931
  0
CIRCLE
  5
7FA
100
AcDbEntity
  8
M0
100
AcDbCircle
 10
352.72679
 20
1140.375651
 40
3.0
  0
LINE
  5
7FB
100
AcDbEntity
  8
M0
100
AcDbLine
 10
349.767806
 20
1136.428309
 11
348.951644
 21
1139.075602
  0
LINE
  5
7FC
100
AcDbEntity
  8
M0
100
AcDbLine
 10
349.767806
 20
1144.3229
 11
348.951644
 21
1141.675577
  0
LINE
  5
7FD
100
AcDbEntity
  8
M0
100
AcDbLine
 10
355.685286
 20
1136.428294
 11
356.501692
 21
1139.075602
  0
LINE
  5
7FE
100
AcDbEntity
  8
M0
100
AcDbLine
 10
355.685286
 20
1144.322916
 11
356.501692
 21
1141.675577
  0
LINE
  5
7FF
100
AcDbEntity
  8
M0
100
AcDbLine
 10
350.245833
 20
1144.675577
 11
355.207503
 21
1144.675577
  0
LINE
  5
800
100
AcDbEntity
  8
M0
100
AcDbLine
 10
356.501692
 20
1141.675577
 11
356.501692
 21
1139.075602
  0
LINE
  5
801
100
AcDbEntity
  8
M0
100
AcDbLine
 10
355.207503
 20
1136.075602
 11
350.245833
 21
1136.075617
  0
LINE
  5
802
100
AcDbEntity
  8
M0
100
AcDbLine
 10
348.951644
 20
1139.075602
 11
348.951644
 21
1141.675577
  0
ARC
  5
803
100
AcDbEntity
  8
M0
100
AcDbCircle
 10
350.245833
 20
1136.575617
 40
0.5
100
AcDbArc
 50
197.127146
 51
270.0
  0
ARC
  5
804
100
AcDbEntity
  8
M0
100
AcDbCircle
 10
350.245833
 20
1144.175577
 40
0.5
100
AcDbArc
 50
90.0
 51
162.871263
  0
ARC
  5
805
100
AcDbEntity
  8
M0
100
AcDbCircle
 10
355.207503
 20
1144.175577
 40
0.5
100
AcDbArc
 50
17.138555
 51
90.0
  0
ARC
  5
806
100
AcDbEntity
  8
M0
100
AcDbCircle
 10
355.207503
 20
1136.575617
 40
0.5
100
AcDbArc
 50
270.0
 51
342.862931
  0
LINE
  5
807
100
AcDbEntity
  8
M0
 62
     6
100
AcDbLine
 10
352.726774
 20
1183.375651
 11
340.726774
 21
1183.375651
  0
LINE
  5
808
100
AcDbEntity
  8
M0
 62
     6
100
AcDbLine
 10
352.726774
 20
1185.375651
 11
340.726774
 21
1185.375651
  0
LINE
  5
809
100
AcDbEntity
  8
M0
 62
     6
100
AcDbLine
 10
347.726774
 20
1187.375651
 11
336.326774
 21
1187.375651
  0
LINE
  5
80A
100
AcDbEntity
  8
M0
 62
     6
100
AcDbLine
 10
343.026774
 20
1216.375651
 11
343.026774
 21
1214.875651
  0
LINE
  5
80B
100
AcDbEntity
  8
M0
 62
     6
100
AcDbLine
 10
342.026774
 20
1216.375651
 11
342.026774
 21
1214.875651
  0
LINE
  5
80C
100
AcDbEntity
  8
M0
 62
     6
100
AcDbLine
 10
342.026774
 20
1216.375651
 11
343.026774
 21
1216.375651
  0
LINE
  5
80D
100
AcDbEntity
  8
M0
 62
     6
100
AcDbLine
 10
347.026774
 20
1214.875651
 11
338.026774
 21
1214.875651
  0
LINE
  5
80E
100
AcDbEntity
  8
M0
 62
     6
100
AcDbLine
 10
347.026774
 20
1199.375651
 11
347.026774
 21
1214.875651
  0
LINE
  5
80F
100
AcDbEntity
  8
M0
 62
     6
100
AcDbLine
 10
355.726774
 20
1212.375651
 11
347.026774
 21
1212.375651
  0
LINE
  5
810
100
AcDbEntity
  8
M0
 62
     6
100
AcDbLine
 10
336.326774
 20
1199.375651
 11
357.126774
 21
1199.375651
  0
LINE
  5
811
100
AcDbEntity
  8
M0
 62
     6
100
AcDbLine
 10
337.726774
 20
1189.375651
 11
345.726774
 21
1189.375651
  0
LINE
  5
812
100
AcDbEntity
  8
M0
 62
     6
100
AcDbLine
 10
337.726774
 20
1199.375651
 11
337.726774
 21
1189.375651
  0
LINE
  5
813
100
AcDbEntity
  8
M0
 62
     6
100
AcDbLine
 10
345.726774
 20
1199.375651
 11
345.726774
 21
1189.375651
  0
LINE
  5
814
100
AcDbEntity
  8
M0
 62
     6
100
AcDbLine
 10
355.726774
 20
1212.375651
 11
355.726774
 21
1199.375651
  0
LINE
  5
815
100
AcDbEntity
  8
M0
 62
     6
100
AcDbLine
 10
347.726774
 20
1212.375651
 11
347.726774
 21
1199.375651
  0
LINE
  5
816
100
AcDbEntity
  8
M0
 62
     6
100
AcDbLine
 10
345.726774
 20
1198.875651
 11
337.726774
 21
1198.875651
  0
LINE
  5
817
100
AcDbEntity
  8
M0
 62
     6
100
AcDbLine
 10
355.726774
 20
1208.875651
 11
347.726774
 21
1208.875651
  0
LINE
  5
818
100
AcDbEntity
  8
M0
 62
     6
100
AcDbLine
 10
351.726774
 20
1189.875651
 11
347.726774
 21
1189.875651
  0
LINE
  5
819
100
AcDbEntity
  8
M0
 62
     6
100
AcDbLine
 10
346.726774
 20
1155.375651
 11
338.975772
 21
1155.375651
  0
LINE
  5
81A
100
AcDbEntity
  8
M0
 62
     6
100
AcDbLine
 10
346.726774
 20
1153.375651
 11
341.298897
 21
1153.375651
  0
LINE
  5
81B
100
AcDbEntity
  8
M0
 62
     6
100
AcDbLine
 10
352.776774
 20
1023.275651
 11
354.726774
 21
1023.275651
  0
LINE
  5
81C
100
AcDbEntity
  8
M0
 62
     6
100
AcDbLine
 10
350.676774
 20
1023.275651
 11
350.676774
 21
1008.275651
  0
LINE
  5
81D
100
AcDbEntity
  8
M0
 62
     6
100
AcDbLine
 10
352.776774
 20
1023.275651
 11
352.776774
 21
1008.275651
  0
LINE
  5
81E
100
AcDbEntity
  8
M0
 62
     6
100
AcDbLine
 10
354.726774
 20
1008.275651
 11
354.726774
 21
1023.275651
  0
LINE
  5
81F
100
AcDbEntity
  8
M0
 62
     6
100
AcDbLine
 10
348.726774
 20
1023.275651
 11
348.726774
 21
1008.275651
  0
LINE
  5
820
100
AcDbEntity
  8
M0
 62
     6
100
AcDbLine
 10
348.726774
 20
1023.275651
 11
350.676774
 21
1023.275651
  0
LINE
  5
821
100
AcDbEntity
  8
M0
 62
     6
100
AcDbLine
 10
357.126774
 20
1199.375651
 11
357.126774
 21
1163.375649
  0
LINE
  5
822
100
AcDbEntity
  8
M0
 62
     6
100
AcDbLine
 10
355.426774
 20
1008.275651
 11
355.426774
 21
990.375651
  0
LINE
  5
823
100
AcDbEntity
  8
M0
 62
     6
100
AcDbLine
 10
336.326774
 20
1199.375651
 11
336.326774
 21
1155.575647
  0
LINE
  5
824
100
AcDbEntity
  8
M0
 62
     6
100
AcDbLine
 10
338.026774
 20
1008.275651
 11
338.026774
 21
990.375651
  0
LINE
  5
825
100
AcDbEntity
  8
M0
 62
     6
100
AcDbLine
 10
336.326774
 20
1008.275651
 11
357.126774
 21
1008.275651
  0
CIRCLE
  5
826
100
AcDbEntity
  8
M0
 62
     6
100
AcDbCircle
 10
340.726774
 20
1078.375651
 40
4.0
  0
LINE
  5
827
100
AcDbEntity
  8
M0
 62
     6
100
AcDbLine
 10
338.026774
 20
1228.375651
 11
338.026774
 21
1199.375651
  0
LINE
  5
828
100
AcDbEntity
  8
M0
 62
     6
100
AcDbLine
 10
355.426774
 20
1228.375651
 11
355.426774
 21
1212.375651
  0
LINE
  5
829
100
AcDbEntity
  8
M0
  6
DASHDOT
 62
     6
100
AcDbLine
 10
346.726774
 20
980.375651
 11
346.726774
 21
1238.375651
  0
LINE
  5
82A
100
AcDbEntity
  8
M0
  6
DASHDOT
 62
     6
100
AcDbLine
 10
325.226774
 20
1109.375651
 11
368.226774
 21
1109.375651
  0
LINE
  5
82B
100
AcDbEntity
  8
M0
 62
     6
100
AcDbLine
 10
335.226774
 20
990.375651
 11
358.226774
 21
990.375651
  0
LINE
  5
82C
100
AcDbEntity
  8
M0
 62
     6
100
AcDbLine
 10
335.226774
 20
1228.375651
 11
335.226774
 21
1155.575648
  0
LINE
  5
82D
100
AcDbEntity
  8
M0
 62
     6
100
AcDbLine
 10
358.226774
 20
1228.375651
 11
335.226774
 21
1228.375651
  0
LINE
  5
82E
100
AcDbEntity
  8
M0
 62
     6
100
AcDbLine
 10
358.226774
 20
990.375651
 11
358.226774
 21
1077.375649
  0
ARC
  5
82F
100
AcDbEntity
  8
M0
 62
     6
100
AcDbCircle
 10
348.726774
 20
1007.275651
 40
3.0
100
AcDbArc
 50
270.0
 51
360.0
  0
ARC
  5
830
100
AcDbEntity
  8
M0
 62
     6
100
AcDbCircle
 10
344.726774
 20
1007.275651
 40
3.0
100
AcDbArc
 50
180.0
 51
270.0
  0
LINE
  5
831
100
AcDbEntity
  8
M0
 62
     6
100
AcDbLine
 10
348.726774
 20
1004.275651
 11
344.726774
 21
1004.275651
  0
LINE
  5
832
100
AcDbEntity
  8
M0
 62
     6
100
AcDbLine
 10
351.726774
 20
1007.275651
 11
351.726774
 21
1008.275651
  0
LINE
  5
833
100
AcDbEntity
  8
M0
 62
     6
100
AcDbLine
 10
341.726774
 20
1007.275651
 11
341.726774
 21
1008.275651
  0
LINE
  5
834
100
AcDbEntity
  8
M0
 62
     6
100
AcDbLine
 10
351.726774
 20
1199.375651
 11
351.726774
 21
1189.875651
  0
LINE
  5
835
100
AcDbEntity
  8
M0
 62
     6
100
AcDbLine
 10
347.726774
 20
1187.375651
 11
347.726774
 21
1189.875651
  0
ARC
  5
836
100
AcDbEntity
  8
M0
 62
     6
100
AcDbCircle
 10
352.726774
 20
1184.375651
 40
1.0
100
AcDbArc
 50
0.0
 51
90.0
  0
ARC
  5
837
100
AcDbEntity
  8
M0
 62
     6
100
AcDbCircle
 10
352.726774
 20
1184.375651
 40
1.0
100
AcDbArc
 50
270.0
 51
360.0
  0
ARC
  5
838
100
AcDbEntity
  8
M0
 62
     6
100
AcDbCircle
 10
340.726774
 20
1184.375651
 40
1.0
100
AcDbArc
 50
180.0
 51
270.0
  0
ARC
  5
839
100
AcDbEntity
  8
M0
 62
     6
100
AcDbCircle
 10
340.726774
 20
1184.375651
 40
1.0
100
AcDbArc
 50
90.0
 51
180.0
  0
CIRCLE
  5
83A
100
AcDbEntity
  8
M0
 62
     6
100
AcDbCircle
 10
340.726774
 20
1078.375651
 40
1.75
  0
ARC
  5
83B
100
AcDbEntity
  8
M0
 62
     6
100
AcDbCircle
 10
352.726774
 20
1078.375651
 40
4.0
100
AcDbArc
 50
194.477494
 51
345.52247
  0
ARC
  5
83C
100
AcDbEntity
  8
M0
 62
     6
100
AcDbCircle
 10
352.726774
 20
1078.375651
 40
1.75
100
AcDbArc
 50
214.849887
 51
325.150077
  0
LINE
  5
83D
100
AcDbEntity
  8
M0
 62
     6
100
AcDbLine
 10
358.226774
 20
1163.375649
 11
358.226774
 21
1228.375651
  0
LINE
  5
83E
100
AcDbEntity
  8
M0
 62
     6
100
AcDbLine
 10
357.126774
 20
1077.375649
 11
357.126774
 21
1008.275651
  0
LINE
  5
83F
100
AcDbEntity
  8
M0
 62
     6
100
AcDbLine
 10
335.226774
 20
1085.575669
 11
335.226774
 21
990.375651
  0
LINE
  5
840
100
AcDbEntity
  8
M0
 62
     6
100
AcDbLine
 10
336.326774
 20
1085.575666
 11
336.326774
 21
1008.275651
  0
CIRCLE
  5
841
100
AcDbEntity
  8
M0
100
AcDbCircle
 10
351.726774
 20
1203.875651
 40
3.0
  0
LINE
  5
842
100
AcDbEntity
  8
M0
100
AcDbLine
 10
348.76779
 20
1199.928309
 11
347.951628
 21
1202.575602
  0
LINE
  5
843
100
AcDbEntity
  8
M0
100
AcDbLine
 10
348.76779
 20
1207.8229
 11
347.951628
 21
1205.175577
  0
LINE
  5
844
100
AcDbEntity
  8
M0
100
AcDbLine
 10
354.68527
 20
1199.928294
 11
355.501676
 21
1202.575602
  0
LINE
  5
845
100
AcDbEntity
  8
M0
100
AcDbLine
 10
354.68527
 20
1207.822916
 11
355.501676
 21
1205.175577
  0
LINE
  5
846
100
AcDbEntity
  8
M0
100
AcDbLine
 10
349.245817
 20
1208.175577
 11
354.207487
 21
1208.175577
  0
LINE
  5
847
100
AcDbEntity
  8
M0
100
AcDbLine
 10
355.501676
 20
1205.175577
 11
355.501676
 21
1202.575602
  0
LINE
  5
848
100
AcDbEntity
  8
M0
100
AcDbLine
 10
354.207487
 20
1199.575602
 11
349.245817
 21
1199.575617
  0
LINE
  5
849
100
AcDbEntity
  8
M0
100
AcDbLine
 10
347.951628
 20
1202.575602
 11
347.951628
 21
1205.175577
  0
ARC
  5
84A
100
AcDbEntity
  8
M0
100
AcDbCircle
 10
349.245817
 20
1200.075617
 40
0.5
100
AcDbArc
 50
197.127146
 51
270.0
  0
ARC
  5
84B
100
AcDbEntity
  8
M0
100
AcDbCircle
 10
349.245817
 20
1207.675577
 40
0.5
100
AcDbArc
 50
90.0
 51
162.871263
  0
ARC
  5
84C
100
AcDbEntity
  8
M0
100
AcDbCircle
 10
354.207487
 20
1207.675577
 40
0.5
100
AcDbArc
 50
17.138555
 51
90.0
  0
ARC
  5
84D
100
AcDbEntity
  8
M0
100
AcDbCircle
 10
354.207487
 20
1200.075617
 40
0.5
100
AcDbArc
 50
270.0
 51
342.862931
  0
CIRCLE
  5
84E
100
AcDbEntity
  8
M0
100
AcDbCircle
 10
341.726774
 20
1193.875651
 40
3.0
  0
LINE
  5
84F
100
AcDbEntity
  8
M0
100
AcDbLine
 10
338.76779
 20
1189.928309
 11
337.951628
 21
1192.575602
  0
LINE
  5
850
100
AcDbEntity
  8
M0
100
AcDbLine
 10
338.76779
 20
1197.8229
 11
337.951628
 21
1195.175577
  0
LINE
  5
851
100
AcDbEntity
  8
M0
100
AcDbLine
 10
344.68527
 20
1189.928294
 11
345.501676
 21
1192.575602
  0
LINE
  5
852
100
AcDbEntity
  8
M0
100
AcDbLine
 10
344.68527
 20
1197.822916
 11
345.501676
 21
1195.175577
  0
LINE
  5
853
100
AcDbEntity
  8
M0
100
AcDbLine
 10
339.245817
 20
1198.175577
 11
344.207487
 21
1198.175577
  0
LINE
  5
854
100
AcDbEntity
  8
M0
100
AcDbLine
 10
345.501676
 20
1195.175577
 11
345.501676
 21
1192.575602
  0
LINE
  5
855
100
AcDbEntity
  8
M0
100
AcDbLine
 10
344.207487
 20
1189.575602
 11
339.245817
 21
1189.575617
  0
LINE
  5
856
100
AcDbEntity
  8
M0
100
AcDbLine
 10
337.951628
 20
1192.575602
 11
337.951628
 21
1195.175577
  0
ARC
  5
857
100
AcDbEntity
  8
M0
100
AcDbCircle
 10
339.245817
 20
1190.075617
 40
0.5
100
AcDbArc
 50
197.127146
 51
270.0
  0
ARC
  5
858
100
AcDbEntity
  8
M0
100
AcDbCircle
 10
339.245817
 20
1197.675577
 40
0.5
100
AcDbArc
 50
90.0
 51
162.871263
  0
ARC
  5
859
100
AcDbEntity
  8
M0
100
AcDbCircle
 10
344.207487
 20
1197.675577
 40
0.5
100
AcDbArc
 50
17.138555
 51
90.0
  0
ARC
  5
85A
100
AcDbEntity
  8
M0
100
AcDbCircle
 10
344.207487
 20
1190.075617
 40
0.5
100
AcDbArc
 50
270.0
 51
342.862931
  0
LINE
  5
85B
100
AcDbEntity
  8
M0
100
AcDbLine
 10
334.226774
 20
1205.57554
 11
326.226766
 21
1205.57554
  0
LINE
  5
85C
100
AcDbEntity
  8
M0
100
AcDbLine
 10
172.226774
 20
1192.37554
 11
180.226775
 21
1192.37554
  0
LINE
  5
85D
100
AcDbEntity
  8
M0
  6
DASHDOT
100
AcDbLine
 10
253.226774
 20
1182.37554
 11
253.226774
 21
1215.57554
  0
LINE
  5
85E
100
AcDbEntity
  8
M0
100
AcDbLine
 10
334.226774
 20
1208.77554
 11
326.226764
 21
1208.77554
  0
LINE
  5
85F
100
AcDbEntity
  8
M0
100
AcDbLine
 10
334.226774
 20
1192.37554
 11
334.226774
 21
1208.77554
  0
LINE
  5
860
100
AcDbEntity
  8
M0
100
AcDbLine
 10
172.226774
 20
1208.77554
 11
172.226774
 21
1192.37554
  0
LINE
  5
861
100
AcDbEntity
  8
M0
100
AcDbLine
 10
210.226775
 20
1192.37554
 11
215.126774
 21
1192.37554
  0
LINE
  5
862
100
AcDbEntity
  8
M0
100
AcDbLine
 10
180.226766
 20
1205.57554
 11
172.226774
 21
1205.57554
  0
LINE
  5
863
100
AcDbEntity
  8
M0
100
AcDbLine
 10
180.226764
 20
1208.77554
 11
172.226774
 21
1208.77554
  0
LINE
  5
864
100
AcDbEntity
  8
M0
100
AcDbLine
 10
294.126774
 20
1192.37554
 11
296.226775
 21
1192.37554
  0
LINE
  5
865
100
AcDbEntity
  8
M0
100
AcDbLine
 10
215.126774
 20
1205.57554
 11
210.226766
 21
1205.57554
  0
LINE
  5
866
100
AcDbEntity
  8
M0
100
AcDbLine
 10
238.226764
 20
1208.77554
 11
210.226764
 21
1208.77554
  0
LINE
  5
867
100
AcDbEntity
  8
M0
100
AcDbLine
 10
326.226775
 20
1192.37554
 11
334.226774
 21
1192.37554
  0
LINE
  5
868
100
AcDbEntity
  8
M0
100
AcDbLine
 10
296.226766
 20
1205.57554
 11
294.126774
 21
1205.57554
  0
LINE
  5
869
100
AcDbEntity
  8
M0
100
AcDbLine
 10
296.226764
 20
1208.77554
 11
280.126774
 21
1208.77554
  0
LINE
  5
86A
100
AcDbEntity
  8
M0
 62
     4
100
AcDbLine
 10
215.126774
 20
1206.375651
 11
215.126774
 21
1186.375647
  0
LINE
  5
86B
100
AcDbEntity
  8
M0
 62
     4
100
AcDbLine
 10
294.126774
 20
1187.042335
 11
294.126774
 21
1206.375651
  0
LINE
  5
86C
100
AcDbEntity
  8
M0
 62
     4
100
AcDbLine
 10
288.626774
 20
1201.375651
 11
288.626774
 21
1186.375647
  0
LINE
  5
86D
100
AcDbEntity
  8
M0
 62
     4
100
AcDbLine
 10
280.626774
 20
1201.375651
 11
280.626774
 21
1187.375651
  0
LINE
  5
86E
100
AcDbEntity
  8
M0
 62
     4
100
AcDbLine
 10
231.626774
 20
1201.375651
 11
231.626774
 21
1187.375651
  0
LINE
  5
86F
100
AcDbEntity
  8
M0
 62
     4
100
AcDbLine
 10
225.626774
 20
1201.375651
 11
225.626774
 21
1187.375651
  0
LINE
  5
870
100
AcDbEntity
  8
M0
 62
     4
100
AcDbLine
 10
217.626774
 20
1201.375651
 11
217.626774
 21
1186.375647
  0
LINE
  5
871
100
AcDbEntity
  8
M0
 62
     4
100
AcDbLine
 10
215.126774
 20
1206.375651
 11
236.126774
 21
1206.375651
  0
ARC
  5
872
100
AcDbEntity
  8
M0
 62
     4
100
AcDbCircle
 10
236.126774
 20
1210.375651
 40
4.0
100
AcDbArc
 50
270.0
 51
301.668102
  0
LINE
  5
873
100
AcDbEntity
  8
M0
 62
     4
100
AcDbLine
 10
280.126774
 20
1201.375651
 11
280.126774
 21
1211.375651
  0
LINE
  5
874
100
AcDbEntity
  8
M0
 62
     4
100
AcDbLine
 10
284.126774
 20
1206.375651
 11
294.126774
 21
1206.375651
  0
ARC
  5
875
100
AcDbEntity
  8
M0
 62
     4
100
AcDbCircle
 10
284.126774
 20
1210.375651
 40
4.0
100
AcDbArc
 50
180.0
 51
270.0
  0
LINE
  5
876
100
AcDbEntity
  8
M0
 62
     4
100
AcDbLine
 10
280.126774
 20
1211.375651
 11
268.226763
 21
1211.375651
  0
LINE
  5
877
100
AcDbEntity
  8
M0
 62
     4
100
AcDbLine
 10
217.626774
 20
1201.375651
 11
215.126774
 21
1201.375651
  0
LINE
  5
878
100
AcDbEntity
  8
M0
 62
     4
100
AcDbLine
 10
231.626774
 20
1201.375651
 11
225.626774
 21
1201.375651
  0
LINE
  5
879
100
AcDbEntity
  8
M0
 62
     4
100
AcDbLine
 10
294.126774
 20
1201.375651
 11
288.626774
 21
1201.375651
  0
LINE
  5
87A
100
AcDbEntity
  8
M0
 62
     4
100
AcDbLine
 10
276.626774
 20
1187.375651
 11
276.626774
 21
1201.375651
  0
LINE
  5
87B
100
AcDbEntity
  8
M0
 62
     4
100
AcDbLine
 10
280.626774
 20
1201.375651
 11
276.626774
 21
1201.375651
  0
LINE
  5
87C
100
AcDbEntity
  8
M0
 62
     4
100
AcDbLine
 10
280.626774
 20
1196.375651
 11
288.626774
 21
1196.375651
  0
LINE
  5
87D
100
AcDbEntity
  8
M0
 62
     4
100
AcDbLine
 10
231.626774
 20
1196.375651
 11
238.226772
 21
1196.375651
  0
LINE
  5
87E
100
AcDbEntity
  8
M0
 62
     4
100
AcDbLine
 10
217.626774
 20
1196.375651
 11
225.626774
 21
1196.375651
  0
LINE
  5
87F
100
AcDbEntity
  8
M0
 62
   114
100
AcDbLine
 10
314.075365
 20
1220.375575
 11
317.339077
 21
1223.639287
  0
LINE
  5
880
100
AcDbEntity
  8
M0
 62
   114
100
AcDbLine
 10
313.075467
 20
1219.375677
 11
313.226839
 21
1219.527049
  0
LINE
  5
881
100
AcDbEntity
  8
M0
 62
   114
100
AcDbLine
 10
312.378356
 20
1220.375532
 11
311.3785
 21
1219.375676
  0
LINE
  5
882
100
AcDbEntity
  8
M0
 62
   114
100
AcDbLine
 10
316.490605
 20
1224.487802
 11
313.226882
 21
1221.224058
  0
LINE
  5
883
100
AcDbEntity
  8
M0
 62
   114
100
AcDbLine
 10
313.226871
 20
1221.224069
 11
311.459104
 21
1222.991836
  0
LINE
  5
884
100
AcDbEntity
  8
M0
 62
   114
100
AcDbLine
 10
315.075261
 20
1219.375679
 11
314.075365
 21
1220.375575
  0
LINE
  5
885
100
AcDbEntity
  8
M0
 62
   114
100
AcDbLine
 10
313.226839
 20
1219.527049
 11
313.37821
 21
1219.375678
  0
LINE
  5
886
100
AcDbEntity
  8
M0
 62
   114
100
AcDbLine
 10
310.610578
 20
1222.14331
 11
312.378345
 21
1220.375543
  0
LINE
  5
887
100
AcDbEntity
  8
M0
 62
   114
100
AcDbLine
 10
311.459104
 20
1222.991836
 11
310.610578
 21
1222.14331
  0
ARC
  5
888
100
AcDbEntity
  8
M0
 62
   114
100
AcDbCircle
 10
313.226774
 20
1220.375651
 40
5.75
100
AcDbArc
 50
349.984895
 51
550.015177
  0
ARC
  5
889
100
AcDbEntity
  8
M0
 62
   114
100
AcDbCircle
 10
313.226774
 20
1220.375651
 40
5.25
100
AcDbArc
 50
349.019757
 51
550.980315
  0
LINE
  5
88A
100
AcDbEntity
  8
M0
 62
   114
100
AcDbLine
 10
181.933891
 20
1089.575662
 11
184.029823
 21
1091.671595
  0
LINE
  5
88B
100
AcDbEntity
  8
M0
 62
   114
100
AcDbLine
 10
179.130841
 20
1086.772613
 11
181.226784
 21
1088.868556
  0
LINE
  5
88C
100
AcDbEntity
  8
M0
 62
   114
100
AcDbLine
 10
180.519677
 20
1089.575662
 11
178.423734
 21
1087.479719
  0
LINE
  5
88D
100
AcDbEntity
  8
M0
 62
   114
100
AcDbLine
 10
183.322716
 20
1092.378702
 11
181.226784
 21
1090.282769
  0
LINE
  5
88E
100
AcDbEntity
  8
M0
 62
   114
100
AcDbLine
 10
181.226784
 20
1090.282769
 11
180.130734
 21
1091.378819
  0
LINE
  5
88F
100
AcDbEntity
  8
M0
 62
   114
100
AcDbLine
 10
183.029941
 20
1088.479612
 11
181.933891
 21
1089.575662
  0
LINE
  5
890
100
AcDbEntity
  8
M0
 62
   114
100
AcDbLine
 10
181.226784
 20
1088.868556
 11
182.322834
 21
1087.772506
  0
LINE
  5
891
100
AcDbEntity
  8
M0
 62
   114
100
AcDbLine
 10
179.423627
 20
1090.671713
 11
180.519677
 21
1089.575662
  0
LINE
  5
892
100
AcDbEntity
  8
M0
 62
   114
100
AcDbLine
 10
182.322834
 20
1087.772506
 11
183.029941
 21
1088.479612
  0
LINE
  5
893
100
AcDbEntity
  8
M0
 62
   114
100
AcDbLine
 10
180.130734
 20
1091.378819
 11
179.423627
 21
1090.671713
  0
ARC
  5
894
100
AcDbEntity
  8
M0
 62
   114
100
AcDbCircle
 10
181.226784
 20
1089.575662
 40
4.0
100
AcDbArc
 50
41.409836
 51
318.590164
  0
ARC
  5
895
100
AcDbEntity
  8
M0
 62
   114
100
AcDbCircle
 10
181.226784
 20
1089.575662
 40
3.5
100
AcDbArc
 50
31.003032
 51
328.996968
  0
LINE
  5
896
100
AcDbEntity
  8
M0
 62
   114
100
AcDbLine
 10
325.933871
 20
1089.575662
 11
328.029803
 21
1091.671595
  0
LINE
  5
897
100
AcDbEntity
  8
M0
 62
   114
100
AcDbLine
 10
323.130821
 20
1086.772613
 11
325.226764
 21
1088.868556
  0
LINE
  5
898
100
AcDbEntity
  8
M0
 62
   114
100
AcDbLine
 10
324.519657
 20
1089.575662
 11
322.423714
 21
1087.479719
  0
LINE
  5
899
100
AcDbEntity
  8
M0
 62
   114
100
AcDbLine
 10
327.322697
 20
1092.378702
 11
325.226764
 21
1090.282769
  0
LINE
  5
89A
100
AcDbEntity
  8
M0
 62
   114
100
AcDbLine
 10
325.226764
 20
1090.282769
 11
324.130714
 21
1091.378819
  0
LINE
  5
89B
100
AcDbEntity
  8
M0
 62
   114
100
AcDbLine
 10
327.029921
 20
1088.479612
 11
325.933871
 21
1089.575662
  0
LINE
  5
89C
100
AcDbEntity
  8
M0
 62
   114
100
AcDbLine
 10
325.226764
 20
1088.868556
 11
326.322814
 21
1087.772506
  0
LINE
  5
89D
100
AcDbEntity
  8
M0
 62
   114
100
AcDbLine
 10
323.423607
 20
1090.671713
 11
324.519657
 21
1089.575662
  0
LINE
  5
89E
100
AcDbEntity
  8
M0
 62
   114
100
AcDbLine
 10
326.322814
 20
1087.772506
 11
327.029921
 21
1088.479612
  0
LINE
  5
89F
100
AcDbEntity
  8
M0
 62
   114
100
AcDbLine
 10
324.130714
 20
1091.378819
 11
323.423607
 21
1090.671713
  0
ARC
  5
8A0
100
AcDbEntity
  8
M0
 62
   114
100
AcDbCircle
 10
325.226764
 20
1089.575662
 40
4.0
100
AcDbArc
 50
221.409836
 51
498.590164
  0
ARC
  5
8A1
100
AcDbEntity
  8
M0
 62
   114
100
AcDbCircle
 10
325.226764
 20
1089.575662
 40
3.5
100
AcDbArc
 50
211.003032
 51
508.996968
  0
LINE
  5
8A2
100
AcDbEntity
  8
M0
 62
   114
100
AcDbLine
 10
353.433881
 20
1089.375651
 11
355.529813
 21
1091.471583
  0
LINE
  5
8A3
100
AcDbEntity
  8
M0
 62
   114
100
AcDbLine
 10
350.630831
 20
1086.572601
 11
352.726774
 21
1088.668544
  0
LINE
  5
8A4
100
AcDbEntity
  8
M0
 62
   114
100
AcDbLine
 10
352.019667
 20
1089.375651
 11
349.923724
 21
1087.279708
  0
LINE
  5
8A5
100
AcDbEntity
  8
M0
 62
   114
100
AcDbLine
 10
354.822707
 20
1092.17869
 11
352.726774
 21
1090.082758
  0
LINE
  5
8A6
100
AcDbEntity
  8
M0
 62
   114
100
AcDbLine
 10
352.726774
 20
1090.082758
 11
351.630724
 21
1091.178808
  0
LINE
  5
8A7
100
AcDbEntity
  8
M0
 62
   114
100
AcDbLine
 10
354.529931
 20
1088.279601
 11
353.433881
 21
1089.375651
  0
LINE
  5
8A8
100
AcDbEntity
  8
M0
 62
   114
100
AcDbLine
 10
352.726774
 20
1088.668544
 11
353.822824
 21
1087.572494
  0
LINE
  5
8A9
100
AcDbEntity
  8
M0
 62
   114
100
AcDbLine
 10
350.923617
 20
1090.471701
 11
352.019667
 21
1089.375651
  0
CIRCLE
  5
8AA
100
AcDbEntity
  8
M0
 62
   114
100
AcDbCircle
 10
352.726774
 20
1089.375651
 40
3.5
  0
LINE
  5
8AB
100
AcDbEntity
  8
M0
 62
   114
100
AcDbLine
 10
353.822824
 20
1087.572494
 11
354.529931
 21
1088.279601
  0
LINE
  5
8AC
100
AcDbEntity
  8
M0
 62
   114
100
AcDbLine
 10
351.630724
 20
1091.178808
 11
350.923617
 21
1090.471701
  0
LINE
  5
8AD
100
AcDbEntity
  8
M0
 62
   114
100
AcDbLine
 10
353.4339
 20
1151.375651
 11
355.529833
 21
1153.471583
  0
LINE
  5
8AE
100
AcDbEntity
  8
M0
 62
   114
100
AcDbLine
 10
350.63085
 20
1148.572601
 11
352.726793
 21
1150.668544
  0
LINE
  5
8AF
100
AcDbEntity
  8
M0
 62
   114
100
AcDbLine
 10
352.019687
 20
1151.375651
 11
349.923743
 21
1149.279708
  0
LINE
  5
8B0
100
AcDbEntity
  8
M0
 62
   114
100
AcDbLine
 10
354.822726
 20
1154.17869
 11
352.726794
 21
1152.082758
  0
LINE
  5
8B1
100
AcDbEntity
  8
M0
 62
   114
100
AcDbLine
 10
352.726794
 20
1152.082758
 11
351.630744
 21
1153.178808
  0
LINE
  5
8B2
100
AcDbEntity
  8
M0
 62
   114
100
AcDbLine
 10
354.52995
 20
1150.279601
 11
353.4339
 21
1151.375651
  0
LINE
  5
8B3
100
AcDbEntity
  8
M0
 62
   114
100
AcDbLine
 10
352.726793
 20
1150.668544
 11
353.822843
 21
1149.572494
  0
LINE
  5
8B4
100
AcDbEntity
  8
M0
 62
   114
100
AcDbLine
 10
350.923637
 20
1152.471701
 11
352.019687
 21
1151.375651
  0
CIRCLE
  5
8B5
100
AcDbEntity
  8
M0
 62
   114
100
AcDbCircle
 10
352.726793
 20
1151.375651
 40
3.5
  0
LINE
  5
8B6
100
AcDbEntity
  8
M0
 62
   114
100
AcDbLine
 10
353.822843
 20
1149.572494
 11
354.52995
 21
1150.279601
  0
LINE
  5
8B7
100
AcDbEntity
  8
M0
 62
   114
100
AcDbLine
 10
351.630744
 20
1153.178808
 11
350.923637
 21
1152.471701
  0
CIRCLE
  5
8B8
100
AcDbEntity
  8
M0
 62
   114
100
AcDbCircle
 10
346.726774
 20
998.375651
 40
4.5
  0
LINE
  5
8B9
100
AcDbEntity
  8
M0
 62
   114
100
AcDbLine
 10
347.575376
 20
998.375586
 11
350.304657
 21
1001.104868
  0
LINE
  5
8BA
100
AcDbEntity
  8
M0
 62
   114
100
AcDbLine
 10
343.997546
 20
994.797757
 11
346.726839
 21
997.527049
  0
LINE
  5
8BB
100
AcDbEntity
  8
M0
 62
   114
100
AcDbLine
 10
345.878356
 20
998.375532
 11
343.149031
 21
995.646208
  0
LINE
  5
8BC
100
AcDbEntity
  8
M0
 62
   114
100
AcDbLine
 10
349.456196
 20
1001.953394
 11
346.726893
 21
999.224069
  0
LINE
  5
8BD
100
AcDbEntity
  8
M0
 62
   114
100
AcDbLine
 10
346.726839
 20
997.527049
 11
347.999665
 21
996.254223
  0
LINE
  5
8BE
100
AcDbEntity
  8
M0
 62
   114
100
AcDbLine
 10
344.605518
 20
999.64837
 11
345.878345
 21
998.375543
  0
LINE
  5
8BF
100
AcDbEntity
  8
M0
 62
   114
100
AcDbLine
 10
346.726882
 20
999.22408
 11
345.454055
 21
1000.496906
  0
LINE
  5
8C0
100
AcDbEntity
  8
M0
 62
   114
100
AcDbLine
 10
348.848202
 20
997.102759
 11
347.575376
 21
998.375586
  0
LINE
  5
8C1
100
AcDbEntity
  8
M0
 62
   114
100
AcDbLine
 10
347.999665
 20
996.254223
 11
348.848202
 21
997.102759
  0
LINE
  5
8C2
100
AcDbEntity
  8
M0
 62
   114
100
AcDbLine
 10
345.454055
 20
1000.496906
 11
344.605518
 21
999.64837
  0
CIRCLE
  5
8C3
100
AcDbEntity
  8
M0
 62
   114
100
AcDbCircle
 10
346.726774
 20
998.375651
 40
5.0
  0
CIRCLE
  5
8C4
100
AcDbEntity
  8
M0
 62
   114
100
AcDbCircle
 10
346.726774
 20
1220.375651
 40
4.5
  0
LINE
  5
8C5
100
AcDbEntity
  8
M0
 62
   114
100
AcDbLine
 10
347.575376
 20
1220.375586
 11
350.304657
 21
1223.104868
  0
LINE
  5
8C6
100
AcDbEntity
  8
M0
 62
   114
100
AcDbLine
 10
343.997546
 20
1216.797757
 11
346.726839
 21
1219.527049
  0
LINE
  5
8C7
100
AcDbEntity
  8
M0
 62
   114
100
AcDbLine
 10
345.878356
 20
1220.375532
 11
343.149031
 21
1217.646208
  0
LINE
  5
8C8
100
AcDbEntity
  8
M0
 62
   114
100
AcDbLine
 10
349.456196
 20
1223.953394
 11
346.726893
 21
1221.224069
  0
LINE
  5
8C9
100
AcDbEntity
  8
M0
 62
   114
100
AcDbLine
 10
346.726839
 20
1219.527049
 11
347.999665
 21
1218.254223
  0
LINE
  5
8CA
100
AcDbEntity
  8
M0
 62
   114
100
AcDbLine
 10
344.605518
 20
1221.64837
 11
345.878345
 21
1220.375543
  0
LINE
  5
8CB
100
AcDbEntity
  8
M0
 62
   114
100
AcDbLine
 10
346.726882
 20
1221.22408
 11
345.454055
 21
1222.496906
  0
LINE
  5
8CC
100
AcDbEntity
  8
M0
 62
   114
100
AcDbLine
 10
348.848202
 20
1219.102759
 11
347.575376
 21
1220.375586
  0
LINE
  5
8CD
100
AcDbEntity
  8
M0
 62
   114
100
AcDbLine
 10
347.999665
 20
1218.254223
 11
348.848202
 21
1219.102759
  0
LINE
  5
8CE
100
AcDbEntity
  8
M0
 62
   114
100
AcDbLine
 10
345.454055
 20
1222.496906
 11
344.605518
 21
1221.64837
  0
CIRCLE
  5
8CF
100
AcDbEntity
  8
M0
 62
   114
100
AcDbCircle
 10
346.726774
 20
1220.375651
 40
5.0
  0
CIRCLE
  5
8D0
100
AcDbEntity
  8
M0
 62
   114
100
AcDbCircle
 10
221.626774
 20
1191.375651
 40
3.0
  0
LINE
  5
8D1
100
AcDbEntity
  8
M0
 62
   114
100
AcDbLine
 10
219.181561
 20
1189.637545
 11
220.990371
 21
1191.446355
  0
LINE
  5
8D2
100
AcDbEntity
  8
M0
 62
   114
100
AcDbLine
 10
219.888668
 20
1188.930438
 11
221.697478
 21
1190.739248
  0
LINE
  5
8D3
100
AcDbEntity
  8
M0
 62
   114
100
AcDbLine
 10
222.687445
 20
1189.749281
 11
221.697478
 21
1190.739248
  0
LINE
  5
8D4
100
AcDbEntity
  8
M0
 62
   114
100
AcDbLine
 10
223.253133
 20
1190.314969
 11
222.263166
 21
1191.304936
  0
LINE
  5
8D5
100
AcDbEntity
  8
M0
 62
   114
100
AcDbLine
 10
220.000426
 20
1192.4363
 11
220.566114
 21
1193.001988
  0
LINE
  5
8D6
100
AcDbEntity
  8
M0
 62
   114
100
AcDbLine
 10
223.253122
 20
1190.31498
 11
222.687434
 21
1189.749292
  0
LINE
  5
8D7
100
AcDbEntity
  8
M0
 62
   114
100
AcDbLine
 10
222.263166
 20
1191.304936
 11
224.071976
 21
1193.113746
  0
LINE
  5
8D8
100
AcDbEntity
  8
M0
 62
   114
100
AcDbLine
 10
221.556059
 20
1192.012043
 11
220.566114
 21
1193.001988
  0
LINE
  5
8D9
100
AcDbEntity
  8
M0
 62
   114
100
AcDbLine
 10
221.556059
 20
1192.012043
 11
223.36487
 21
1193.820853
  0
LINE
  5
8DA
100
AcDbEntity
  8
M0
 62
   114
100
AcDbLine
 10
220.990371
 20
1191.446355
 11
220.000426
 21
1192.4363
  0
LINE
  5
8DB
100
AcDbEntity
  8
M0
  6
DASHDOT
 62
   114
100
AcDbLine
 10
216.494329
 20
1191.375651
 11
226.759219
 21
1191.375651
  0
LINE
  5
8DC
100
AcDbEntity
  8
M0
  6
DASHDOT
 62
   114
100
AcDbLine
 10
221.626774
 20
1186.243206
 11
221.626774
 21
1196.508096
  0
LINE
  5
8DD
100
AcDbEntity
  8
M0
 62
   114
100
AcDbLine
 10
233.181561
 20
1189.637545
 11
234.990371
 21
1191.446355
  0
LINE
  5
8DE
100
AcDbEntity
  8
M0
 62
   114
100
AcDbLine
 10
233.888668
 20
1188.930438
 11
235.697478
 21
1190.739248
  0
LINE
  5
8DF
100
AcDbEntity
  8
M0
 62
   114
100
AcDbLine
 10
236.687445
 20
1189.749281
 11
235.697478
 21
1190.739248
  0
LINE
  5
8E0
100
AcDbEntity
  8
M0
 62
   114
100
AcDbLine
 10
237.253133
 20
1190.314969
 11
236.263166
 21
1191.304936
  0
LINE
  5
8E1
100
AcDbEntity
  8
M0
 62
   114
100
AcDbLine
 10
234.000426
 20
1192.4363
 11
234.566114
 21
1193.001988
  0
LINE
  5
8E2
100
AcDbEntity
  8
M0
 62
   114
100
AcDbLine
 10
237.253122
 20
1190.31498
 11
236.687434
 21
1189.749292
  0
LINE
  5
8E3
100
AcDbEntity
  8
M0
 62
   114
100
AcDbLine
 10
236.263166
 20
1191.304936
 11
238.071976
 21
1193.113746
  0
LINE
  5
8E4
100
AcDbEntity
  8
M0
 62
   114
100
AcDbLine
 10
235.556059
 20
1192.012043
 11
234.566114
 21
1193.001988
  0
LINE
  5
8E5
100
AcDbEntity
  8
M0
 62
   114
100
AcDbLine
 10
235.556059
 20
1192.012043
 11
237.36487
 21
1193.820853
  0
LINE
  5
8E6
100
AcDbEntity
  8
M0
 62
   114
100
AcDbLine
 10
234.990371
 20
1191.446355
 11
234.000426
 21
1192.4363
  0
LINE
  5
8E7
100
AcDbEntity
  8
M0
  6
DASHDOT
 62
   114
100
AcDbLine
 10
230.494329
 20
1191.375651
 11
240.759219
 21
1191.375651
  0
LINE
  5
8E8
100
AcDbEntity
  8
M0
  6
DASHDOT
 62
   114
100
AcDbLine
 10
235.626774
 20
1186.243206
 11
235.626774
 21
1196.508096
  0
ARC
  5
8E9
100
AcDbEntity
  8
M0
 62
   114
100
AcDbCircle
 10
235.626774
 20
1191.375651
 40
3.0
100
AcDbArc
 50
29.926418
 51
330.073654
  0
CIRCLE
  5
8EA
100
AcDbEntity
  8
M0
 62
   114
100
AcDbCircle
 10
284.626774
 20
1191.375651
 40
3.0
  0
LINE
  5
8EB
100
AcDbEntity
  8
M0
 62
   114
100
AcDbLine
 10
282.181561
 20
1189.637545
 11
283.990371
 21
1191.446355
  0
LINE
  5
8EC
100
AcDbEntity
  8
M0
 62
   114
100
AcDbLine
 10
282.888668
 20
1188.930438
 11
284.697478
 21
1190.739248
  0
LINE
  5
8ED
100
AcDbEntity
  8
M0
 62
   114
100
AcDbLine
 10
285.687445
 20
1189.749281
 11
284.697478
 21
1190.739248
  0
LINE
  5
8EE
100
AcDbEntity
  8
M0
 62
   114
100
AcDbLine
 10
286.253133
 20
1190.314969
 11
285.263166
 21
1191.304936
  0
LINE
  5
8EF
100
AcDbEntity
  8
M0
 62
   114
100
AcDbLine
 10
283.000426
 20
1192.4363
 11
283.566114
 21
1193.001988
  0
LINE
  5
8F0
100
AcDbEntity
  8
M0
 62
   114
100
AcDbLine
 10
286.253122
 20
1190.31498
 11
285.687434
 21
1189.749292
  0
LINE
  5
8F1
100
AcDbEntity
  8
M0
 62
   114
100
AcDbLine
 10
285.263166
 20
1191.304936
 11
287.071976
 21
1193.113746
  0
LINE
  5
8F2
100
AcDbEntity
  8
M0
 62
   114
100
AcDbLine
 10
284.556059
 20
1192.012043
 11
283.566114
 21
1193.001988
  0
LINE
  5
8F3
100
AcDbEntity
  8
M0
 62
   114
100
AcDbLine
 10
284.556059
 20
1192.012043
 11
286.36487
 21
1193.820853
  0
LINE
  5
8F4
100
AcDbEntity
  8
M0
 62
   114
100
AcDbLine
 10
283.990371
 20
1191.446355
 11
283.000426
 21
1192.4363
  0
LINE
  5
8F5
100
AcDbEntity
  8
M0
  6
DASHDOT
 62
   114
100
AcDbLine
 10
279.494329
 20
1191.375651
 11
289.759219
 21
1191.375651
  0
LINE
  5
8F6
100
AcDbEntity
  8
M0
  6
DASHDOT
 62
   114
100
AcDbLine
 10
284.626774
 20
1186.243206
 11
284.626774
 21
1196.508096
  0
LINE
  5
8F7
100
AcDbEntity
  8
M0
  6
DASHDOT
 62
     1
100
AcDbLine
 10
179.226774
 20
1109.375651
 11
327.226774
 21
1109.375651
  0
LINE
  5
8F8
100
AcDbEntity
  8
M0
 62
     1
100
AcDbLine
 10
308.226774
 20
1175.375651
 11
288.226774
 21
1175.375651
  0
LINE
  5
8F9
100
AcDbEntity
  8
M0
 62
     1
100
AcDbLine
 10
263.226774
 20
1175.375651
 11
253.226774
 21
1175.375651
  0
ARC
  5
8FA
100
AcDbEntity
  8
M0
 62
     1
100
AcDbCircle
 10
282.726774
 20
1185.375651
 40
2.0
100
AcDbArc
 50
0.0
 51
90.0
  0
LINE
  5
8FB
100
AcDbEntity
  8
M0
 62
     1
100
AcDbLine
 10
282.726774
 20
1187.375651
 11
273.726774
 21
1187.375651
  0
ARC
  5
8FC
100
AcDbEntity
  8
M0
 62
     1
100
AcDbCircle
 10
273.726774
 20
1185.375651
 40
2.0
100
AcDbArc
 50
90.0
 51
180.0
  0
ARC
  5
8FD
100
AcDbEntity
  8
M0
 62
     1
100
AcDbCircle
 10
317.226774
 20
1175.375651
 40
5.0
100
AcDbArc
 50
0.0
 51
90.0
  0
LINE
  5
8FE
100
AcDbEntity
  8
M0
 62
     1
100
AcDbLine
 10
263.226774
 20
1178.375651
 11
263.226774
 21
1175.375651
  0
ARC
  5
8FF
100
AcDbEntity
  8
M0
 62
     1
100
AcDbCircle
 10
265.226774
 20
1178.375651
 40
2.0
100
AcDbArc
 50
90.0
 51
180.0
  0
LINE
  5
900
100
AcDbEntity
  8
M0
 62
     1
100
AcDbLine
 10
308.226774
 20
1178.375651
 11
308.226774
 21
1175.375651
  0
ARC
  5
901
100
AcDbEntity
  8
M0
 62
     1
100
AcDbCircle
 10
310.226774
 20
1178.375651
 40
2.0
100
AcDbArc
 50
90.0
 51
180.0
  0
LINE
  5
902
100
AcDbEntity
  8
M0
 62
     1
100
AcDbLine
 10
288.226774
 20
1178.375651
 11
288.226774
 21
1175.375651
  0
ARC
  5
903
100
AcDbEntity
  8
M0
 62
     1
100
AcDbCircle
 10
286.226774
 20
1178.375651
 40
2.0
100
AcDbArc
 50
0.0
 51
90.0
  0
LINE
  5
904
100
AcDbEntity
  8
M0
 62
     1
100
AcDbLine
 10
284.726774
 20
1185.375651
 11
284.726774
 21
1181.375651
  0
LINE
  5
905
100
AcDbEntity
  8
M0
 62
     1
100
AcDbLine
 10
317.226774
 20
1180.375651
 11
285.726774
 21
1180.375651
  0
ARC
  5
906
100
AcDbEntity
  8
M0
 62
     1
100
AcDbCircle
 10
285.726774
 20
1181.375651
 40
1.0
100
AcDbArc
 50
180.0
 51
270.0
  0
LINE
  5
907
100
AcDbEntity
  8
M0
 62
     1
100
AcDbLine
 10
271.726774
 20
1185.375651
 11
271.726774
 21
1181.375651
  0
ARC
  5
908
100
AcDbEntity
  8
M0
 62
     1
100
AcDbCircle
 10
270.726774
 20
1181.375651
 40
1.0
100
AcDbArc
 50
270.0
 51
360.0
  0
ARC
  5
909
100
AcDbEntity
  8
M0
 62
     1
100
AcDbCircle
 10
276.726774
 20
1181.375651
 40
1.0
100
AcDbArc
 50
180.0
 51
270.0
  0
LINE
  5
90A
100
AcDbEntity
  8
M0
 62
     1
100
AcDbLine
 10
279.726774
 20
1180.375651
 11
276.726774
 21
1180.375651
  0
ARC
  5
90B
100
AcDbEntity
  8
M0
 62
     1
100
AcDbCircle
 10
279.726774
 20
1181.375651
 40
1.0
100
AcDbArc
 50
270.0
 51
360.0
  0
ARC
  5
90C
100
AcDbEntity
  8
M0
 62
     1
100
AcDbCircle
 10
281.726774
 20
1183.375651
 40
1.0
100
AcDbArc
 50
90.0
 51
180.0
  0
ARC
  5
90D
100
AcDbEntity
  8
M0
 62
     1
100
AcDbCircle
 10
274.726774
 20
1183.375651
 40
1.0
100
AcDbArc
 50
0.0
 51
90.0
  0
LINE
  5
90E
100
AcDbEntity
  8
M0
 62
     1
100
AcDbLine
 10
283.726774
 20
1184.375651
 11
281.726774
 21
1184.375651
  0
ARC
  5
90F
100
AcDbEntity
  8
M0
 62
     1
100
AcDbCircle
 10
283.726774
 20
1183.375651
 40
1.0
100
AcDbArc
 50
0.0
 51
90.0
  0
LINE
  5
910
100
AcDbEntity
  8
M0
 62
     1
100
AcDbLine
 10
274.726774
 20
1184.375651
 11
272.726774
 21
1184.375651
  0
ARC
  5
911
100
AcDbEntity
  8
M0
 62
     1
100
AcDbCircle
 10
272.726774
 20
1183.375651
 40
1.0
100
AcDbArc
 50
90.0
 51
180.0
  0
LINE
  5
912
100
AcDbEntity
  8
M0
 62
     1
100
AcDbLine
 10
279.226774
 20
1187.375651
 11
279.226774
 21
1184.375651
  0
LINE
  5
913
100
AcDbEntity
  8
M0
 62
     1
100
AcDbLine
 10
277.226774
 20
1187.375651
 11
277.226774
 21
1184.375651
  0
LINE
  5
914
100
AcDbEntity
  8
M0
 62
     1
100
AcDbLine
 10
280.726774
 20
1183.875651
 11
280.726774
 21
1181.375651
  0
LINE
  5
915
100
AcDbEntity
  8
M0
 62
     1
100
AcDbLine
 10
279.226774
 20
1184.375651
 11
280.226774
 21
1184.375651
  0
ARC
  5
916
100
AcDbEntity
  8
M0
 62
     1
100
AcDbCircle
 10
280.226774
 20
1183.875651
 40
0.5
100
AcDbArc
 50
0.0
 51
90.0
  0
LINE
  5
917
100
AcDbEntity
  8
M0
 62
     1
100
AcDbLine
 10
276.226774
 20
1184.375651
 11
277.226774
 21
1184.375651
  0
LINE
  5
918
100
AcDbEntity
  8
M0
 62
     1
100
AcDbLine
 10
275.726774
 20
1183.875651
 11
275.726774
 21
1181.375651
  0
ARC
  5
919
100
AcDbEntity
  8
M0
 62
     1
100
AcDbCircle
 10
276.226774
 20
1183.875651
 40
0.5
100
AcDbArc
 50
90.0
 51
180.0
  0
LINE
  5
91A
100
AcDbEntity
  8
M0
 62
     1
100
AcDbLine
 10
275.726774
 20
1181.875651
 11
280.726774
 21
1181.875651
  0
LINE
  5
91B
100
AcDbEntity
  8
M0
 62
     1
100
AcDbLine
 10
270.726774
 20
1180.375651
 11
253.226774
 21
1180.375651
  0
LINE
  5
91C
100
AcDbEntity
  8
M0
 62
     1
100
AcDbLine
 10
322.226774
 20
1109.375651
 11
322.226774
 21
1175.375651
  0
LINE
  5
91D
100
AcDbEntity
  8
M0
 62
     1
100
AcDbLine
 10
198.226774
 20
1175.375651
 11
218.226774
 21
1175.375651
  0
LINE
  5
91E
100
AcDbEntity
  8
M0
 62
     1
100
AcDbLine
 10
243.226774
 20
1175.375651
 11
253.226774
 21
1175.375651
  0
ARC
  5
91F
100
AcDbEntity
  8
M0
 62
     1
100
AcDbCircle
 10
223.726774
 20
1185.375651
 40
2.0
100
AcDbArc
 50
90.0
 51
180.0
  0
LINE
  5
920
100
AcDbEntity
  8
M0
 62
     1
100
AcDbLine
 10
223.726774
 20
1187.375651
 11
232.726774
 21
1187.375651
  0
ARC
  5
921
100
AcDbEntity
  8
M0
 62
     1
100
AcDbCircle
 10
232.726774
 20
1185.375651
 40
2.0
100
AcDbArc
 50
0.0
 51
90.0
  0
ARC
  5
922
100
AcDbEntity
  8
M0
 62
     1
100
AcDbCircle
 10
189.226774
 20
1175.375651
 40
5.0
100
AcDbArc
 50
90.0
 51
180.0
  0
LINE
  5
923
100
AcDbEntity
  8
M0
 62
     1
100
AcDbLine
 10
243.226774
 20
1178.375651
 11
243.226774
 21
1175.375651
  0
ARC
  5
924
100
AcDbEntity
  8
M0
 62
     1
100
AcDbCircle
 10
241.226774
 20
1178.375651
 40
2.0
100
AcDbArc
 50
0.0
 51
90.0
  0
LINE
  5
925
100
AcDbEntity
  8
M0
 62
     1
100
AcDbLine
 10
198.226774
 20
1178.375651
 11
198.226774
 21
1175.375651
  0
ARC
  5
926
100
AcDbEntity
  8
M0
 62
     1
100
AcDbCircle
 10
196.226774
 20
1178.375651
 40
2.0
100
AcDbArc
 50
0.0
 51
90.0
  0
LINE
  5
927
100
AcDbEntity
  8
M0
 62
     1
100
AcDbLine
 10
218.226774
 20
1178.375651
 11
218.226774
 21
1175.375651
  0
ARC
  5
928
100
AcDbEntity
  8
M0
 62
     1
100
AcDbCircle
 10
220.226774
 20
1178.375651
 40
2.0
100
AcDbArc
 50
90.0
 51
180.0
  0
LINE
  5
929
100
AcDbEntity
  8
M0
 62
     1
100
AcDbLine
 10
221.726774
 20
1185.375651
 11
221.726774
 21
1181.375651
  0
LINE
  5
92A
100
AcDbEntity
  8
M0
 62
     1
100
AcDbLine
 10
189.226774
 20
1180.375651
 11
220.726774
 21
1180.375651
  0
ARC
  5
92B
100
AcDbEntity
  8
M0
 62
     1
100
AcDbCircle
 10
220.726774
 20
1181.375651
 40
1.0
100
AcDbArc
 50
-90.0
 51
0.0
  0
LINE
  5
92C
100
AcDbEntity
  8
M0
 62
     1
100
AcDbLine
 10
234.726774
 20
1185.375651
 11
234.726774
 21
1181.375651
  0
ARC
  5
92D
100
AcDbEntity
  8
M0
 62
     1
100
AcDbCircle
 10
235.726774
 20
1181.375651
 40
1.0
100
AcDbArc
 50
180.0
 51
270.0
  0
ARC
  5
92E
100
AcDbEntity
  8
M0
 62
     1
100
AcDbCircle
 10
229.726774
 20
1181.375651
 40
1.0
100
AcDbArc
 50
-90.0
 51
0.0
  0
LINE
  5
92F
100
AcDbEntity
  8
M0
 62
     1
100
AcDbLine
 10
226.726774
 20
1180.375651
 11
229.726774
 21
1180.375651
  0
ARC
  5
930
100
AcDbEntity
  8
M0
 62
     1
100
AcDbCircle
 10
226.726774
 20
1181.375651
 40
1.0
100
AcDbArc
 50
180.0
 51
270.0
  0
ARC
  5
931
100
AcDbEntity
  8
M0
 62
     1
100
AcDbCircle
 10
224.726774
 20
1183.375651
 40
1.0
100
AcDbArc
 50
0.0
 51
90.0
  0
ARC
  5
932
100
AcDbEntity
  8
M0
 62
     1
100
AcDbCircle
 10
231.726774
 20
1183.375651
 40
1.0
100
AcDbArc
 50
90.0
 51
180.0
  0
LINE
  5
933
100
AcDbEntity
  8
M0
 62
     1
100
AcDbLine
 10
222.726774
 20
1184.375651
 11
224.726774
 21
1184.375651
  0
ARC
  5
934
100
AcDbEntity
  8
M0
 62
     1
100
AcDbCircle
 10
222.726774
 20
1183.375651
 40
1.0
100
AcDbArc
 50
90.0
 51
180.0
  0
LINE
  5
935
100
AcDbEntity
  8
M0
 62
     1
100
AcDbLine
 10
231.726774
 20
1184.375651
 11
233.726774
 21
1184.375651
  0
ARC
  5
936
100
AcDbEntity
  8
M0
 62
     1
100
AcDbCircle
 10
233.726774
 20
1183.375651
 40
1.0
100
AcDbArc
 50
0.0
 51
90.0
  0
LINE
  5
937
100
AcDbEntity
  8
M0
 62
     1
100
AcDbLine
 10
227.226774
 20
1187.375651
 11
227.226774
 21
1184.375651
  0
LINE
  5
938
100
AcDbEntity
  8
M0
 62
     1
100
AcDbLine
 10
229.226774
 20
1187.375651
 11
229.226774
 21
1184.375651
  0
LINE
  5
939
100
AcDbEntity
  8
M0
 62
     1
100
AcDbLine
 10
225.726774
 20
1183.875651
 11
225.726774
 21
1181.375651
  0
LINE
  5
93A
100
AcDbEntity
  8
M0
 62
     1
100
AcDbLine
 10
227.226774
 20
1184.375651
 11
226.226774
 21
1184.375651
  0
ARC
  5
93B
100
AcDbEntity
  8
M0
 62
     1
100
AcDbCircle
 10
226.226774
 20
1183.875651
 40
0.5
100
AcDbArc
 50
90.0
 51
180.0
  0
LINE
  5
93C
100
AcDbEntity
  8
M0
 62
     1
100
AcDbLine
 10
230.226774
 20
1184.375651
 11
229.226774
 21
1184.375651
  0
LINE
  5
93D
100
AcDbEntity
  8
M0
 62
     1
100
AcDbLine
 10
230.726774
 20
1183.875651
 11
230.726774
 21
1181.375651
  0
ARC
  5
93E
100
AcDbEntity
  8
M0
 62
     1
100
AcDbCircle
 10
230.226774
 20
1183.875651
 40
0.5
100
AcDbArc
 50
0.0
 51
90.0
  0
LINE
  5
93F
100
AcDbEntity
  8
M0
 62
     1
100
AcDbLine
 10
230.726774
 20
1181.875651
 11
225.726774
 21
1181.875651
  0
LINE
  5
940
100
AcDbEntity
  8
M0
 62
     1
100
AcDbLine
 10
235.726774
 20
1180.375651
 11
253.226774
 21
1180.375651
  0
LINE
  5
941
100
AcDbEntity
  8
M0
 62
     1
100
AcDbLine
 10
184.226774
 20
1109.375651
 11
184.226774
 21
1175.375651
  0
LINE
  5
942
100
AcDbEntity
  8
M0
 62
     1
100
AcDbLine
 10
308.226774
 20
1043.375651
 11
288.226774
 21
1043.375651
  0
LINE
  5
943
100
AcDbEntity
  8
M0
 62
     1
100
AcDbLine
 10
263.226774
 20
1043.375651
 11
253.226774
 21
1043.375651
  0
ARC
  5
944
100
AcDbEntity
  8
M0
 62
     1
100
AcDbCircle
 10
282.726774
 20
1033.375651
 40
2.0
100
AcDbArc
 50
-90.0
 51
0.0
  0
LINE
  5
945
100
AcDbEntity
  8
M0
 62
     1
100
AcDbLine
 10
282.726774
 20
1031.375651
 11
273.726774
 21
1031.375651
  0
ARC
  5
946
100
AcDbEntity
  8
M0
 62
     1
100
AcDbCircle
 10
273.726774
 20
1033.375651
 40
2.0
100
AcDbArc
 50
180.0
 51
270.0
  0
ARC
  5
947
100
AcDbEntity
  8
M0
 62
     1
100
AcDbCircle
 10
317.226774
 20
1043.375651
 40
5.0
100
AcDbArc
 50
-90.0
 51
0.0
  0
LINE
  5
948
100
AcDbEntity
  8
M0
 62
     1
100
AcDbLine
 10
263.226774
 20
1040.375651
 11
263.226774
 21
1043.375651
  0
ARC
  5
949
100
AcDbEntity
  8
M0
 62
     1
100
AcDbCircle
 10
265.226774
 20
1040.375651
 40
2.0
100
AcDbArc
 50
180.0
 51
270.0
  0
LINE
  5
94A
100
AcDbEntity
  8
M0
 62
     1
100
AcDbLine
 10
308.226774
 20
1040.375651
 11
308.226774
 21
1043.375651
  0
ARC
  5
94B
100
AcDbEntity
  8
M0
 62
     1
100
AcDbCircle
 10
310.226774
 20
1040.375651
 40
2.0
100
AcDbArc
 50
180.0
 51
270.0
  0
LINE
  5
94C
100
AcDbEntity
  8
M0
 62
     1
100
AcDbLine
 10
288.226774
 20
1040.375651
 11
288.226774
 21
1043.375651
  0
ARC
  5
94D
100
AcDbEntity
  8
M0
 62
     1
100
AcDbCircle
 10
286.226774
 20
1040.375651
 40
2.0
100
AcDbArc
 50
-90.0
 51
0.0
  0
LINE
  5
94E
100
AcDbEntity
  8
M0
 62
     1
100
AcDbLine
 10
284.726774
 20
1033.375651
 11
284.726774
 21
1037.375651
  0
LINE
  5
94F
100
AcDbEntity
  8
M0
 62
     1
100
AcDbLine
 10
317.226774
 20
1038.375651
 11
285.726774
 21
1038.375651
  0
ARC
  5
950
100
AcDbEntity
  8
M0
 62
     1
100
AcDbCircle
 10
285.726774
 20
1037.375651
 40
1.0
100
AcDbArc
 50
90.0
 51
180.0
  0
LINE
  5
951
100
AcDbEntity
  8
M0
 62
     1
100
AcDbLine
 10
271.726774
 20
1033.375651
 11
271.726774
 21
1037.375651
  0
ARC
  5
952
100
AcDbEntity
  8
M0
 62
     1
100
AcDbCircle
 10
270.726774
 20
1037.375651
 40
1.0
100
AcDbArc
 50
0.0
 51
90.0
  0
ARC
  5
953
100
AcDbEntity
  8
M0
 62
     1
100
AcDbCircle
 10
276.726774
 20
1037.375651
 40
1.0
100
AcDbArc
 50
90.0
 51
180.0
  0
LINE
  5
954
100
AcDbEntity
  8
M0
 62
     1
100
AcDbLine
 10
279.726774
 20
1038.375651
 11
276.726774
 21
1038.375651
  0
ARC
  5
955
100
AcDbEntity
  8
M0
 62
     1
100
AcDbCircle
 10
279.726774
 20
1037.375651
 40
1.0
100
AcDbArc
 50
0.0
 51
90.0
  0
ARC
  5
956
100
AcDbEntity
  8
M0
 62
     1
100
AcDbCircle
 10
281.726774
 20
1035.375651
 40
1.0
100
AcDbArc
 50
180.0
 51
270.0
  0
ARC
  5
957
100
AcDbEntity
  8
M0
 62
     1
100
AcDbCircle
 10
274.726774
 20
1035.375651
 40
1.0
100
AcDbArc
 50
-90.0
 51
0.0
  0
LINE
  5
958
100
AcDbEntity
  8
M0
 62
     1
100
AcDbLine
 10
283.726774
 20
1034.375651
 11
281.726774
 21
1034.375651
  0
ARC
  5
959
100
AcDbEntity
  8
M0
 62
     1
100
AcDbCircle
 10
283.726774
 20
1035.375651
 40
1.0
100
AcDbArc
 50
-90.0
 51
0.0
  0
LINE
  5
95A
100
AcDbEntity
  8
M0
 62
     1
100
AcDbLine
 10
274.726774
 20
1034.375651
 11
272.726774
 21
1034.375651
  0
ARC
  5
95B
100
AcDbEntity
  8
M0
 62
     1
100
AcDbCircle
 10
272.726774
 20
1035.375651
 40
1.0
100
AcDbArc
 50
180.0
 51
270.0
  0
LINE
  5
95C
100
AcDbEntity
  8
M0
 62
     1
100
AcDbLine
 10
279.226774
 20
1031.375651
 11
279.226774
 21
1034.375651
  0
LINE
  5
95D
100
AcDbEntity
  8
M0
 62
     1
100
AcDbLine
 10
277.226774
 20
1031.375651
 11
277.226774
 21
1034.375651
  0
LINE
  5
95E
100
AcDbEntity
  8
M0
 62
     1
100
AcDbLine
 10
280.726774
 20
1034.875651
 11
280.726774
 21
1037.375651
  0
LINE
  5
95F
100
AcDbEntity
  8
M0
 62
     1
100
AcDbLine
 10
279.226774
 20
1034.375651
 11
280.226774
 21
1034.375651
  0
ARC
  5
960
100
AcDbEntity
  8
M0
 62
     1
100
AcDbCircle
 10
280.226774
 20
1034.875651
 40
0.5
100
AcDbArc
 50
-90.0
 51
0.0
  0
LINE
  5
961
100
AcDbEntity
  8
M0
 62
     1
100
AcDbLine
 10
276.226774
 20
1034.375651
 11
277.226774
 21
1034.375651
  0
LINE
  5
962
100
AcDbEntity
  8
M0
 62
     1
100
AcDbLine
 10
275.726774
 20
1034.875651
 11
275.726774
 21
1037.375651
  0
ARC
  5
963
100
AcDbEntity
  8
M0
 62
     1
100
AcDbCircle
 10
276.226774
 20
1034.875651
 40
0.5
100
AcDbArc
 50
180.0
 51
270.0
  0
LINE
  5
964
100
AcDbEntity
  8
M0
 62
     1
100
AcDbLine
 10
275.726774
 20
1036.875651
 11
280.726774
 21
1036.875651
  0
LINE
  5
965
100
AcDbEntity
  8
M0
 62
     1
100
AcDbLine
 10
270.726774
 20
1038.375651
 11
253.226774
 21
1038.375651
  0
LINE
  5
966
100
AcDbEntity
  8
M0
 62
     1
100
AcDbLine
 10
322.226774
 20
1109.375651
 11
322.226774
 21
1043.375651
  0
LINE
  5
967
100
AcDbEntity
  8
M0
 62
     1
100
AcDbLine
 10
198.226774
 20
1043.375651
 11
218.226774
 21
1043.375651
  0
LINE
  5
968
100
AcDbEntity
  8
M0
 62
     1
100
AcDbLine
 10
243.226774
 20
1043.375651
 11
253.226774
 21
1043.375651
  0
ARC
  5
969
100
AcDbEntity
  8
M0
 62
     1
100
AcDbCircle
 10
223.726774
 20
1033.375651
 40
2.0
100
AcDbArc
 50
180.0
 51
270.0
  0
LINE
  5
96A
100
AcDbEntity
  8
M0
 62
     1
100
AcDbLine
 10
223.726774
 20
1031.375651
 11
232.726774
 21
1031.375651
  0
ARC
  5
96B
100
AcDbEntity
  8
M0
 62
     1
100
AcDbCircle
 10
232.726774
 20
1033.375651
 40
2.0
100
AcDbArc
 50
270.0
 51
360.0
  0
ARC
  5
96C
100
AcDbEntity
  8
M0
 62
     1
100
AcDbCircle
 10
189.226774
 20
1043.375651
 40
5.0
100
AcDbArc
 50
180.0
 51
270.0
  0
LINE
  5
96D
100
AcDbEntity
  8
M0
 62
     1
100
AcDbLine
 10
243.226774
 20
1040.375651
 11
243.226774
 21
1043.375651
  0
ARC
  5
96E
100
AcDbEntity
  8
M0
 62
     1
100
AcDbCircle
 10
241.226774
 20
1040.375651
 40
2.0
100
AcDbArc
 50
270.0
 51
360.0
  0
LINE
  5
96F
100
AcDbEntity
  8
M0
 62
     1
100
AcDbLine
 10
198.226774
 20
1040.375651
 11
198.226774
 21
1043.375651
  0
ARC
  5
970
100
AcDbEntity
  8
M0
 62
     1
100
AcDbCircle
 10
196.226774
 20
1040.375651
 40
2.0
100
AcDbArc
 50
270.0
 51
360.0
  0
LINE
  5
971
100
AcDbEntity
  8
M0
 62
     1
100
AcDbLine
 10
218.226774
 20
1040.375651
 11
218.226774
 21
1043.375651
  0
ARC
  5
972
100
AcDbEntity
  8
M0
 62
     1
100
AcDbCircle
 10
220.226774
 20
1040.375651
 40
2.0
100
AcDbArc
 50
180.0
 51
270.0
  0
LINE
  5
973
100
AcDbEntity
  8
M0
 62
     1
100
AcDbLine
 10
221.726774
 20
1033.375651
 11
221.726774
 21
1037.375651
  0
LINE
  5
974
100
AcDbEntity
  8
M0
 62
     1
100
AcDbLine
 10
189.226774
 20
1038.375651
 11
220.726774
 21
1038.375651
  0
ARC
  5
975
100
AcDbEntity
  8
M0
 62
     1
100
AcDbCircle
 10
220.726774
 20
1037.375651
 40
1.0
100
AcDbArc
 50
0.0
 51
90.0
  0
LINE
  5
976
100
AcDbEntity
  8
M0
 62
     1
100
AcDbLine
 10
234.726774
 20
1033.375651
 11
234.726774
 21
1037.375651
  0
ARC
  5
977
100
AcDbEntity
  8
M0
 62
     1
100
AcDbCircle
 10
235.726774
 20
1037.375651
 40
1.0
100
AcDbArc
 50
90.0
 51
180.0
  0
ARC
  5
978
100
AcDbEntity
  8
M0
 62
     1
100
AcDbCircle
 10
229.726774
 20
1037.375651
 40
1.0
100
AcDbArc
 50
0.0
 51
90.0
  0
LINE
  5
979
100
AcDbEntity
  8
M0
 62
     1
100
AcDbLine
 10
226.726774
 20
1038.375651
 11
229.726774
 21
1038.375651
  0
ARC
  5
97A
100
AcDbEntity
  8
M0
 62
     1
100
AcDbCircle
 10
226.726774
 20
1037.375651
 40
1.0
100
AcDbArc
 50
90.0
 51
180.0
  0
ARC
  5
97B
100
AcDbEntity
  8
M0
 62
     1
100
AcDbCircle
 10
224.726774
 20
1035.375651
 40
1.0
100
AcDbArc
 50
270.0
 51
360.0
  0
ARC
  5
97C
100
AcDbEntity
  8
M0
 62
     1
100
AcDbCircle
 10
231.726774
 20
1035.375651
 40
1.0
100
AcDbArc
 50
180.0
 51
270.0
  0
LINE
  5
97D
100
AcDbEntity
  8
M0
 62
     1
100
AcDbLine
 10
222.726774
 20
1034.375651
 11
224.726774
 21
1034.375651
  0
ARC
  5
97E
100
AcDbEntity
  8
M0
 62
     1
100
AcDbCircle
 10
222.726774
 20
1035.375651
 40
1.0
100
AcDbArc
 50
180.0
 51
270.0
  0
LINE
  5
97F
100
AcDbEntity
  8
M0
 62
     1
100
AcDbLine
 10
231.726774
 20
1034.375651
 11
233.726774
 21
1034.375651
  0
ARC
  5
980
100
AcDbEntity
  8
M0
 62
     1
100
AcDbCircle
 10
233.726774
 20
1035.375651
 40
1.0
100
AcDbArc
 50
270.0
 51
360.0
  0
LINE
  5
981
100
AcDbEntity
  8
M0
 62
     1
100
AcDbLine
 10
227.226774
 20
1031.375651
 11
227.226774
 21
1034.375651
  0
LINE
  5
982
100
AcDbEntity
  8
M0
 62
     1
100
AcDbLine
 10
229.226774
 20
1031.375651
 11
229.226774
 21
1034.375651
  0
LINE
  5
983
100
AcDbEntity
  8
M0
 62
     1
100
AcDbLine
 10
225.726774
 20
1034.875651
 11
225.726774
 21
1037.375651
  0
LINE
  5
984
100
AcDbEntity
  8
M0
 62
     1
100
AcDbLine
 10
227.226774
 20
1034.375651
 11
226.226774
 21
1034.375651
  0
ARC
  5
985
100
AcDbEntity
  8
M0
 62
     1
100
AcDbCircle
 10
226.226774
 20
1034.875651
 40
0.5
100
AcDbArc
 50
180.0
 51
270.0
  0
LINE
  5
986
100
AcDbEntity
  8
M0
 62
     1
100
AcDbLine
 10
230.226774
 20
1034.375651
 11
229.226774
 21
1034.375651
  0
LINE
  5
987
100
AcDbEntity
  8
M0
 62
     1
100
AcDbLine
 10
230.726774
 20
1034.875651
 11
230.726774
 21
1037.375651
  0
ARC
  5
988
100
AcDbEntity
  8
M0
 62
     1
100
AcDbCircle
 10
230.226774
 20
1034.875651
 40
0.5
100
AcDbArc
 50
270.0
 51
360.0
  0
LINE
  5
989
100
AcDbEntity
  8
M0
 62
     1
100
AcDbLine
 10
230.726774
 20
1036.875651
 11
225.726774
 21
1036.875651
  0
LINE
  5
98A
100
AcDbEntity
  8
M0
 62
     1
100
AcDbLine
 10
235.726774
 20
1038.375651
 11
253.226774
 21
1038.375651
  0
LINE
  5
98B
100
AcDbEntity
  8
M0
 62
     1
100
AcDbLine
 10
184.226774
 20
1109.375651
 11
184.226774
 21
1043.375651
  0
LINE
  5
98C
100
AcDbEntity
  8
M0
 62
     1
100
AcDbLine
 10
242.226774
 20
1098.875651
 11
264.226774
 21
1098.875651
  0
LINE
  5
98D
100
AcDbEntity
  8
M0
 62
     1
100
AcDbLine
 10
259.226774
 20
1121.675651
 11
259.226774
 21
1119.375651
  0
LINE
  5
98E
100
AcDbEntity
  8
M0
 62
     1
100
AcDbLine
 10
247.226774
 20
1121.675651
 11
247.226774
 21
1119.375651
  0
LINE
  5
98F
100
AcDbEntity
  8
M0
 62
     1
100
AcDbLine
 10
264.226774
 20
1098.875651
 11
264.226774
 21
1116.375651
  0
LINE
  5
990
100
AcDbEntity
  8
M0
 62
     1
100
AcDbLine
 10
261.226774
 20
1119.375651
 11
259.226774
 21
1119.375651
  0
ARC
  5
991
100
AcDbEntity
  8
M0
 62
     1
100
AcDbCircle
 10
261.226774
 20
1116.375651
 40
3.0
100
AcDbArc
 50
0.0
 51
90.0
  0
LINE
  5
992
100
AcDbEntity
  8
M0
 62
     1
100
AcDbLine
 10
247.226774
 20
1119.375651
 11
245.226774
 21
1119.375651
  0
LINE
  5
993
100
AcDbEntity
  8
M0
 62
     1
100
AcDbLine
 10
242.226774
 20
1116.375651
 11
242.226774
 21
1098.875651
  0
ARC
  5
994
100
AcDbEntity
  8
M0
 62
     1
100
AcDbCircle
 10
245.226774
 20
1116.375651
 40
3.0
100
AcDbArc
 50
90.0
 51
180.0
  0
LINE
  5
995
100
AcDbEntity
  8
M0
 62
     1
100
AcDbLine
 10
250.226774
 20
1106.875651
 11
256.226774
 21
1106.875651
  0
LINE
  5
996
100
AcDbEntity
  8
M0
 62
     1
100
AcDbLine
 10
250.226774
 20
1111.875651
 11
256.226774
 21
1111.875651
  0
LINE
  5
997
100
AcDbEntity
  8
M0
 62
     1
100
AcDbLine
 10
250.226774
 20
1106.875651
 11
250.226774
 21
1111.875651
  0
LINE
  5
998
100
AcDbEntity
  8
M0
 62
     1
100
AcDbLine
 10
256.226774
 20
1106.875651
 11
256.226774
 21
1111.875651
  0
LINE
  5
999
100
AcDbEntity
  8
M0
 62
     1
100
AcDbLine
 10
255.726774
 20
1122.875651
 11
255.726774
 21
1123.575651
  0
LINE
  5
99A
100
AcDbEntity
  8
M0
 62
     1
100
AcDbLine
 10
250.726774
 20
1122.875651
 11
250.726774
 21
1123.575651
  0
LINE
  5
99B
100
AcDbEntity
  8
M0
 62
     1
100
AcDbLine
 10
259.226774
 20
1122.875651
 11
259.226774
 21
1121.675651
  0
LINE
  5
99C
100
AcDbEntity
  8
M0
 62
     1
100
AcDbLine
 10
247.226774
 20
1122.875651
 11
247.226774
 21
1121.675651
  0
LINE
  5
99D
100
AcDbEntity
  8
M0
 62
     1
100
AcDbLine
 10
247.226774
 20
1122.875651
 11
250.726774
 21
1122.875651
  0
LINE
  5
99E
100
AcDbEntity
  8
M0
 62
     1
100
AcDbLine
 10
255.726774
 20
1123.575651
 11
250.726774
 21
1123.575651
  0
LINE
  5
99F
100
AcDbEntity
  8
M0
 62
     1
100
AcDbLine
 10
255.726774
 20
1122.875651
 11
259.226774
 21
1122.875651
  0
LINE
  5
9A0
100
AcDbEntity
  8
M0
100
AcDbLine
 10
879.926932
 20
1172.375483
 11
879.926932
 21
1155.675486
  0
LINE
  5
9A1
100
AcDbEntity
  8
M0
100
AcDbLine
 10
873.526932
 20
1153.375483
 11
873.526932
 21
1109.375483
  0
LINE
  5
9A2
100
AcDbEntity
  8
M0
100
AcDbLine
 10
882.226927
 20
1172.375483
 11
879.926932
 21
1172.375483
  0
LINE
  5
9A3
100
AcDbEntity
  8
M0
100
AcDbLine
 10
873.526932
 20
1153.375483
 11
879.926932
 21
1153.375483
  0
LINE
  5
9A4
100
AcDbEntity
  8
M0
100
AcDbLine
 10
882.226927
 20
1155.675486
 11
882.226927
 21
1172.375483
  0
ARC
  5
9A5
100
AcDbEntity
  8
M0
100
AcDbCircle
 10
879.926932
 20
1155.675486
 40
2.299999
100
AcDbArc
 50
270.0
 51
360.0
  0
LINE
  5
9A6
100
AcDbEntity
  8
M0
100
AcDbLine
 10
879.926932
 20
1155.675486
 11
873.526932
 21
1155.675486
  0
LINE
  5
9A7
100
AcDbEntity
  8
M0
100
AcDbLine
 10
871.226932
 20
1153.375483
 11
871.226932
 21
1109.375483
  0
ARC
  5
9A8
100
AcDbEntity
  8
M0
100
AcDbCircle
 10
873.526932
 20
1153.375483
 40
2.299999
100
AcDbArc
 50
90.0
 51
180.0
  0
LINE
  5
9A9
100
AcDbEntity
  8
M0
100
AcDbLine
 10
879.926932
 20
1046.375498
 11
879.926932
 21
1063.075498
  0
LINE
  5
9AA
100
AcDbEntity
  8
M0
100
AcDbLine
 10
873.526932
 20
1065.375498
 11
873.526932
 21
1109.375483
  0
LINE
  5
9AB
100
AcDbEntity
  8
M0
100
AcDbLine
 10
882.226927
 20
1046.375498
 11
879.926932
 21
1046.375498
  0
LINE
  5
9AC
100
AcDbEntity
  8
M0
100
AcDbLine
 10
873.526932
 20
1065.375498
 11
879.926932
 21
1065.375498
  0
LINE
  5
9AD
100
AcDbEntity
  8
M0
100
AcDbLine
 10
882.226927
 20
1063.075498
 11
882.226927
 21
1046.375498
  0
ARC
  5
9AE
100
AcDbEntity
  8
M0
100
AcDbCircle
 10
879.926932
 20
1063.075498
 40
2.299999
100
AcDbArc
 50
0.0
 51
90.0
  0
LINE
  5
9AF
100
AcDbEntity
  8
M0
100
AcDbLine
 10
879.926932
 20
1063.075498
 11
873.526932
 21
1063.075498
  0
LINE
  5
9B0
100
AcDbEntity
  8
M0
100
AcDbLine
 10
871.226932
 20
1065.375498
 11
871.226932
 21
1109.375483
  0
ARC
  5
9B1
100
AcDbEntity
  8
M0
100
AcDbCircle
 10
873.526932
 20
1065.375498
 40
2.299999
100
AcDbArc
 50
179.999952
 51
270.0
  0
LINE
  5
9B2
100
AcDbEntity
  8
M0
 62
   114
100
AcDbLine
 10
223.226836
 20
1006.881462
 11
216.726836
 21
1003.128685
  0
LINE
  5
9B3
100
AcDbEntity
  8
M0
 62
   114
100
AcDbLine
 10
216.726836
 20
1003.128685
 11
216.726836
 21
995.623146
  0
LINE
  5
9B4
100
AcDbEntity
  8
M0
 62
   114
100
AcDbLine
 10
216.726836
 20
995.623146
 11
223.226821
 21
991.870369
  0
LINE
  5
9B5
100
AcDbEntity
  8
M0
 62
   114
100
AcDbLine
 10
223.226821
 20
991.870369
 11
229.726821
 21
995.623146
  0
LINE
  5
9B6
100
AcDbEntity
  8
M0
 62
   114
100
AcDbLine
 10
229.726821
 20
995.623146
 11
229.726836
 21
1003.128685
  0
LINE
  5
9B7
100
AcDbEntity
  8
M0
 62
   114
100
AcDbLine
 10
229.726836
 20
1003.128685
 11
223.226836
 21
1006.881462
  0
CIRCLE
  5
9B8
100
AcDbEntity
  8
M0
 62
   114
100
AcDbCircle
 10
223.226836
 20
999.375923
 40
6.5
  0
CIRCLE
  5
9B9
100
AcDbEntity
  8
M0
 62
     7
100
AcDbCircle
 10
223.226836
 20
999.375923
 40
7.700005
  0
CIRCLE
  5
9BA
100
AcDbEntity
  8
M0
 62
     2
100
AcDbCircle
 10
223.226836
 20
999.375923
 40
9.0
  0
CIRCLE
  5
9BB
100
AcDbEntity
  8
M0
 62
     2
100
AcDbCircle
 10
283.226836
 20
999.375867
 40
9.0
  0
CIRCLE
  5
9BC
100
AcDbEntity
  8
M0
 62
     7
100
AcDbCircle
 10
283.226836
 20
999.375867
 40
7.700005
  0
LINE
  5
9BD
100
AcDbEntity
  8
M0
 62
   114
100
AcDbLine
 10
283.226836
 20
1006.881406
 11
276.726836
 21
1003.128629
  0
LINE
  5
9BE
100
AcDbEntity
  8
M0
 62
   114
100
AcDbLine
 10
276.726836
 20
1003.128629
 11
276.726836
 21
995.62309
  0
LINE
  5
9BF
100
AcDbEntity
  8
M0
 62
   114
100
AcDbLine
 10
276.726836
 20
995.62309
 11
283.226821
 21
991.870313
  0
LINE
  5
9C0
100
AcDbEntity
  8
M0
 62
   114
100
AcDbLine
 10
283.226821
 20
991.870313
 11
289.726821
 21
995.62309
  0
LINE
  5
9C1
100
AcDbEntity
  8
M0
 62
   114
100
AcDbLine
 10
289.726821
 20
995.62309
 11
289.726836
 21
1003.128629
  0
LINE
  5
9C2
100
AcDbEntity
  8
M0
 62
   114
100
AcDbLine
 10
289.726836
 20
1003.128629
 11
283.226836
 21
1006.881406
  0
CIRCLE
  5
9C3
100
AcDbEntity
  8
M0
 62
   114
100
AcDbCircle
 10
283.226836
 20
999.375867
 40
6.5
  0
LINE
  5
9C4
100
AcDbEntity
  8
M0
 62
   114
100
AcDbLine
 10
471.227043
 20
1226.881223
 11
464.727043
 21
1223.128446
  0
LINE
  5
9C5
100
AcDbEntity
  8
M0
 62
   114
100
AcDbLine
 10
464.727043
 20
1223.128446
 11
464.727043
 21
1215.622907
  0
LINE
  5
9C6
100
AcDbEntity
  8
M0
 62
   114
100
AcDbLine
 10
464.727043
 20
1215.622907
 11
471.227028
 21
1211.87013
  0
LINE
  5
9C7
100
AcDbEntity
  8
M0
 62
   114
100
AcDbLine
 10
471.227028
 20
1211.87013
 11
477.727028
 21
1215.622907
  0
LINE
  5
9C8
100
AcDbEntity
  8
M0
 62
   114
100
AcDbLine
 10
477.727028
 20
1215.622907
 11
477.727043
 21
1223.128446
  0
LINE
  5
9C9
100
AcDbEntity
  8
M0
 62
   114
100
AcDbLine
 10
477.727043
 20
1223.128446
 11
471.227043
 21
1226.881223
  0
CIRCLE
  5
9CA
100
AcDbEntity
  8
M0
 62
   114
100
AcDbCircle
 10
471.227043
 20
1219.375684
 40
6.5
  0
CIRCLE
  5
9CB
100
AcDbEntity
  8
M0
 62
     7
100
AcDbCircle
 10
471.227043
 20
1219.375684
 40
7.700005
  0
CIRCLE
  5
9CC
100
AcDbEntity
  8
M0
 62
     2
100
AcDbCircle
 10
471.227043
 20
1219.375684
 40
9.0
  0
CIRCLE
  5
9CD
100
AcDbEntity
  8
M0
 62
     2
100
AcDbCircle
 10
411.227043
 20
1219.37574
 40
9.0
  0
CIRCLE
  5
9CE
100
AcDbEntity
  8
M0
 62
     7
100
AcDbCircle
 10
411.227043
 20
1219.37574
 40
7.700005
  0
LINE
  5
9CF
100
AcDbEntity
  8
M0
 62
   114
100
AcDbLine
 10
411.227043
 20
1226.881279
 11
404.727043
 21
1223.128502
  0
LINE
  5
9D0
100
AcDbEntity
  8
M0
 62
   114
100
AcDbLine
 10
404.727043
 20
1223.128502
 11
404.727043
 21
1215.622963
  0
LINE
  5
9D1
100
AcDbEntity
  8
M0
 62
   114
100
AcDbLine
 10
404.727043
 20
1215.622963
 11
411.227028
 21
1211.870186
  0
LINE
  5
9D2
100
AcDbEntity
  8
M0
 62
   114
100
AcDbLine
 10
411.227028
 20
1211.870186
 11
417.727028
 21
1215.622963
  0
LINE
  5
9D3
100
AcDbEntity
  8
M0
 62
   114
100
AcDbLine
 10
417.727028
 20
1215.622963
 11
417.727043
 21
1223.128502
  0
LINE
  5
9D4
100
AcDbEntity
  8
M0
 62
   114
100
AcDbLine
 10
417.727043
 20
1223.128502
 11
411.227043
 21
1226.881279
  0
CIRCLE
  5
9D5
100
AcDbEntity
  8
M0
 62
   114
100
AcDbCircle
 10
411.227043
 20
1219.37574
 40
6.5
  0
CIRCLE
  5
9D6
100
AcDbEntity
  8
M0
 62
     2
100
AcDbCircle
 10
283.227043
 20
1219.375684
 40
9.0
  0
CIRCLE
  5
9D7
100
AcDbEntity
  8
M0
 62
     7
100
AcDbCircle
 10
283.227043
 20
1219.375684
 40
7.700005
  0
LINE
  5
9D8
100
AcDbEntity
  8
M0
 62
   114
100
AcDbLine
 10
283.227043
 20
1226.881223
 11
276.727043
 21
1223.128446
  0
LINE
  5
9D9
100
AcDbEntity
  8
M0
 62
   114
100
AcDbLine
 10
276.727043
 20
1223.128446
 11
276.727043
 21
1215.622907
  0
LINE
  5
9DA
100
AcDbEntity
  8
M0
 62
   114
100
AcDbLine
 10
276.727043
 20
1215.622907
 11
283.227028
 21
1211.87013
  0
LINE
  5
9DB
100
AcDbEntity
  8
M0
 62
   114
100
AcDbLine
 10
283.227028
 20
1211.87013
 11
289.727028
 21
1215.622907
  0
LINE
  5
9DC
100
AcDbEntity
  8
M0
 62
   114
100
AcDbLine
 10
289.727028
 20
1215.622907
 11
289.727043
 21
1223.128446
  0
LINE
  5
9DD
100
AcDbEntity
  8
M0
 62
   114
100
AcDbLine
 10
289.727043
 20
1223.128446
 11
283.227043
 21
1226.881223
  0
CIRCLE
  5
9DE
100
AcDbEntity
  8
M0
 62
   114
100
AcDbCircle
 10
283.227043
 20
1219.375684
 40
6.5
  0
CIRCLE
  5
9DF
100
AcDbEntity
  8
M0
 62
     2
100
AcDbCircle
 10
223.227043
 20
1219.37574
 40
9.0
  0
CIRCLE
  5
9E0
100
AcDbEntity
  8
M0
 62
     7
100
AcDbCircle
 10
223.227043
 20
1219.37574
 40
7.700005
  0
LINE
  5
9E1
100
AcDbEntity
  8
M0
 62
   114
100
AcDbLine
 10
223.227043
 20
1226.881279
 11
216.727043
 21
1223.128502
  0
LINE
  5
9E2
100
AcDbEntity
  8
M0
 62
   114
100
AcDbLine
 10
216.727043
 20
1223.128502
 11
216.727043
 21
1215.622963
  0
LINE
  5
9E3
100
AcDbEntity
  8
M0
 62
   114
100
AcDbLine
 10
216.727043
 20
1215.622963
 11
223.227028
 21
1211.870186
  0
LINE
  5
9E4
100
AcDbEntity
  8
M0
 62
   114
100
AcDbLine
 10
223.227028
 20
1211.870186
 11
229.727028
 21
1215.622963
  0
LINE
  5
9E5
100
AcDbEntity
  8
M0
 62
   114
100
AcDbLine
 10
229.727028
 20
1215.622963
 11
229.727043
 21
1223.128502
  0
LINE
  5
9E6
100
AcDbEntity
  8
M0
 62
   114
100
AcDbLine
 10
229.727043
 20
1223.128502
 11
223.227043
 21
1226.881279
  0
CIRCLE
  5
9E7
100
AcDbEntity
  8
M0
 62
   114
100
AcDbCircle
 10
223.227043
 20
1219.37574
 40
6.5
  0
CIRCLE
  5
9E8
100
AcDbEntity
  8
M0
 62
     2
100
AcDbCircle
 10
471.226836
 20
999.375867
 40
9.0
  0
CIRCLE
  5
9E9
100
AcDbEntity
  8
M0
 62
     7
100
AcDbCircle
 10
471.226836
 20
999.375867
 40
7.700005
  0
LINE
  5
9EA
100
AcDbEntity
  8
M0
 62
   114
100
AcDbLine
 10
471.226836
 20
1006.881406
 11
464.726836
 21
1003.128629
  0
LINE
  5
9EB
100
AcDbEntity
  8
M0
 62
   114
100
AcDbLine
 10
464.726836
 20
1003.128629
 11
464.726836
 21
995.62309
  0
LINE
  5
9EC
100
AcDbEntity
  8
M0
 62
   114
100
AcDbLine
 10
464.726836
 20
995.62309
 11
471.226821
 21
991.870313
  0
LINE
  5
9ED
100
AcDbEntity
  8
M0
 62
   114
100
AcDbLine
 10
471.226821
 20
991.870313
 11
477.726821
 21
995.62309
  0
LINE
  5
9EE
100
AcDbEntity
  8
M0
 62
   114
100
AcDbLine
 10
477.726821
 20
995.62309
 11
477.726836
 21
1003.128629
  0
LINE
  5
9EF
100
AcDbEntity
  8
M0
 62
   114
100
AcDbLine
 10
477.726836
 20
1003.128629
 11
471.226836
 21
1006.881406
  0
CIRCLE
  5
9F0
100
AcDbEntity
  8
M0
 62
   114
100
AcDbCircle
 10
471.226836
 20
999.375867
 40
6.5
  0
LINE
  5
9F1
100
AcDbEntity
  8
M0
 62
   114
100
AcDbLine
 10
411.226836
 20
1006.881462
 11
404.726836
 21
1003.128685
  0
LINE
  5
9F2
100
AcDbEntity
  8
M0
 62
   114
100
AcDbLine
 10
404.726836
 20
1003.128685
 11
404.726836
 21
995.623146
  0
LINE
  5
9F3
100
AcDbEntity
  8
M0
 62
   114
100
AcDbLine
 10
404.726836
 20
995.623146
 11
411.226821
 21
991.870369
  0
LINE
  5
9F4
100
AcDbEntity
  8
M0
 62
   114
100
AcDbLine
 10
411.226821
 20
991.870369
 11
417.726821
 21
995.623146
  0
LINE
  5
9F5
100
AcDbEntity
  8
M0
 62
   114
100
AcDbLine
 10
417.726821
 20
995.623146
 11
417.726836
 21
1003.128685
  0
LINE
  5
9F6
100
AcDbEntity
  8
M0
 62
   114
100
AcDbLine
 10
417.726836
 20
1003.128685
 11
411.226836
 21
1006.881462
  0
CIRCLE
  5
9F7
100
AcDbEntity
  8
M0
 62
   114
100
AcDbCircle
 10
411.226836
 20
999.375923
 40
6.5
  0
CIRCLE
  5
9F8
100
AcDbEntity
  8
M0
 62
     7
100
AcDbCircle
 10
411.226836
 20
999.375923
 40
7.700005
  0
CIRCLE
  5
9F9
100
AcDbEntity
  8
M0
 62
     2
100
AcDbCircle
 10
411.226836
 20
999.375923
 40
9.0
  0
CIRCLE
  5
9FA
100
AcDbEntity
  8
M0
 62
     4
100
AcDbCircle
 10
176.726761
 20
773.460785
 40
6.0
  0
CIRCLE
  5
9FB
100
AcDbEntity
  8
M0
 62
     4
100
AcDbCircle
 10
516.726787
 20
773.460785
 40
6.0
  0
CIRCLE
  5
9FC
100
AcDbEntity
  8
M0
 62
     4
100
AcDbCircle
 10
346.726774
 20
503.461009
 40
6.0
  0
LINE
  5
9FD
100
AcDbEntity
  8
M0
  6
DIVIDE
 62
     4
100
AcDbLine
 10
161.72676
 20
488.461008
 11
531.726788
 21
488.461008
  0
LINE
  5
9FE
100
AcDbEntity
  8
M0
  6
DIVIDE
 62
     4
100
AcDbLine
 10
531.726788
 20
488.461008
 11
531.726788
 21
534.86102
  0
LINE
  5
9FF
100
AcDbEntity
  8
M0
  6
DIVIDE
 62
     4
100
AcDbLine
 10
531.726788
 20
788.46103
 11
161.72676
 21
788.46103
  0
LINE
  5
A00
100
AcDbEntity
  8
M0
  6
DIVIDE
 62
     4
100
AcDbLine
 10
161.72676
 20
788.46103
 11
161.72676
 21
488.461008
  0
LINE
  5
A01
100
AcDbEntity
  8
M0
  6
DASHDOT
 62
     4
100
AcDbLine
 10
346.726774
 20
471.238594
 11
346.726774
 21
805.683199
  0
CIRCLE
  5
A02
100
AcDbEntity
  8
M0
 62
     4
100
AcDbCircle
 10
176.726761
 20
773.460785
 40
3.0
  0
LINE
  5
A03
100
AcDbEntity
  8
M0
  6
DASHDOT
 62
     4
100
AcDbLine
 10
146.50453
 20
773.460785
 11
201.948992
 21
773.460785
  0
LINE
  5
A04
100
AcDbEntity
  8
M0
  6
DASHDOT
 62
     4
100
AcDbLine
 10
176.726761
 20
748.238371
 11
176.726761
 21
798.682955
  0
CIRCLE
  5
A05
100
AcDbEntity
  8
M0
 62
     4
100
AcDbCircle
 10
516.726787
 20
773.460785
 40
3.0
  0
LINE
  5
A06
100
AcDbEntity
  8
M0
  6
DASHDOT
 62
     4
100
AcDbLine
 10
491.504373
 20
773.460785
 11
546.948957
 21
773.460785
  0
LINE
  5
A07
100
AcDbEntity
  8
M0
  6
DASHDOT
 62
     4
100
AcDbLine
 10
516.726787
 20
748.238371
 11
516.726787
 21
798.682955
  0
CIRCLE
  5
A08
100
AcDbEntity
  8
M0
 62
     4
100
AcDbCircle
 10
346.726774
 20
503.461009
 40
3.0
  0
LINE
  5
A09
100
AcDbEntity
  8
M0
  6
DASHDOT
 62
     4
100
AcDbLine
 10
321.50436
 20
503.461009
 11
371.948944
 21
503.461009
  0
LINE
  5
A0A
100
AcDbEntity
  8
M0
  6
DIVIDE
 62
     4
100
AcDbLine
 10
531.726788
 20
735.981015
 11
531.726788
 21
788.46103
  0
LINE
  5
A0B
100
AcDbEntity
  8
M0
  6
DIVIDE
 62
     4
100
AcDbLine
 10
531.726788
 20
735.981015
 11
546.726789
 21
735.981015
  0
LINE
  5
A0C
100
AcDbEntity
  8
M0
  6
DIVIDE
 62
     4
100
AcDbLine
 10
546.726789
 20
534.86102
 11
546.726789
 21
735.981015
  0
LINE
  5
A0D
100
AcDbEntity
  8
M0
  6
DIVIDE
 62
     4
100
AcDbLine
 10
531.726788
 20
534.86102
 11
546.726789
 21
534.86102
  0
LINE
  5
A0E
100
AcDbEntity
  8
M1
 62
     2
100
AcDbLine
 10
49.999999
 20
49.999999
 11
49.999999
 21
1424.999979
  0
LINE
  5
A0F
100
AcDbEntity
  8
M1
 62
     2
100
AcDbLine
 10
49.999999
 20
1424.999979
 11
999.999985
 21
1424.999979
  0
LINE
  5
A10
100
AcDbEntity
  8
M1
 62
     2
100
AcDbLine
 10
999.999985
 20
1424.999979
 11
999.999985
 21
49.999999
  0
LINE
  5
A11
100
AcDbEntity
  8
M1
 62
     2
100
AcDbLine
 10
999.999985
 20
49.999999
 11
49.999999
 21
49.999999
  0
LINE
  5
A12
100
AcDbEntity
  8
M1
 62
     2
100
AcDbLine
 10
999.999985
 20
99.999999
 11
499.999993
 21
99.999999
  0
LINE
  5
A13
100
AcDbEntity
  8
M1
 62
     2
100
AcDbLine
 10
999.999985
 20
149.999998
 11
499.999993
 21
149.999998
  0
LINE
  5
A14
100
AcDbEntity
  8
M1
 62
     2
100
AcDbLine
 10
999.999985
 20
199.999997
 11
499.999993
 21
199.999997
  0
LINE
  5
A15
100
AcDbEntity
  8
M1
 62
     2
100
AcDbLine
 10
499.999993
 20
49.999999
 11
499.999993
 21
199.999997
  0
TEXT
  5
A16
100
AcDbEntity
  8
M1
 62
     2
100
AcDbText
 10
512.499992
 20
62.499999
 40
25.0
  1
適　用；
  7
STANDARD
100
AcDbText
  0
TEXT
  5
A17
100
AcDbEntity
  8
M1
 62
     2
100
AcDbText
 10
512.499992
 20
162.499998
 40
25.0
  1
登録名：
  7
STANDARD
100
AcDbText
  0
TEXT
  5
A18
100
AcDbEntity
  8
M1
 62
     2
100
AcDbText
 10
632.499991
 20
162.499998
 40
25.0
  1
ＤＭＨ３００ＣＲＲ００
 41
0.5
  7
STANDARD
100
AcDbText
  0
TEXT
  5
A19
100
AcDbEntity
  8
M1
 62
     2
100
AcDbText
 10
512.499992
 20
112.499998
 40
25.0
  1
形　式；
  7
STANDARD
100
AcDbText
  0
TEXT
  5
A1A
100
AcDbEntity
  8
M1
 62
     2
100
AcDbText
 10
632.499991
 20
112.499998
 40
25.0
  1
Ｈ３００Ｃ－Ｒ，Ｈ３００Ｃ－ＲＧ，Ｈ４００Ｃ－Ｒ，Ｈ４００Ｃ－ＲＧ
 41
0.25
  7
STANDARD
100
AcDbText
  0
LINE
  5
A1B
100
AcDbEntity
  8
DN0
100
AcDbLine
 10
313.033466
 20
365.790308
 11
404.333467
 21
365.790308
  0
TEXT
  5
A1C
100
AcDbEntity
  8
DN0
100
AcDbText
 10
315.558465
 20
368.040308
 40
22.5
  1
せん孔図
 41
0.833333
  7
STANDARD
100
AcDbText
  0
ENDSEC
  0
SECTION
  2
OBJECTS
  0
DICTIONARY
  5
C
100
AcDbDictionary
  3
ACAD_GROUP
350
D
  3
ACAD_MLINESTYLE
350
E
  0
DICTIONARY
  5
D
102
{ACAD_REACTORS
330
C
102
}
100
AcDbDictionary
  0
DICTIONARY
  5
E
102
{ACAD_REACTORS
330
C
102
}
100
AcDbDictionary
  3
STANDARD
350
13
  0
MLINESTYLE
  5
13
102
{ACAD_REACTORS
330
E
102
}
100
AcDbMlineStyle
  2
STANDARD
 70
     0
  3

 62
     0
 51
90.0
 52
90.0
 71
     2
 49
0.5
 62
   256
  6
BYLAYER
 49
-0.5
 62
   256
  6
BYLAYER
  0
ENDSEC
  0
EOF
