  0
SECTION
  2
HEADER
  9
$ACADVER
  1
AC1014
  9
$INSBASE
 10
0.000000
 20
0.000000
 30
0.0
  9
$VIEWCTR
 10
7.531722
 20
4.5
  9
$VIEWSIZE
 40
9.0
  9
$SNAPMODE
 70
     0
  9
$SNAPUNIT
 10
1.0
 20
1.0
  9
$SNAPBASE
 10
0.0
 20
0.0
  9
$SNAPANG
 50
0.0
  9
$SNAPSTYLE
 70
     0
  9
$SNAPISOPAIR
 70
     0
  9
$GRIDMODE
 70
     0
  9
$GRIDUNIT
 10
0.0
 20
0.0
  9
$ORTHOMODE
 70
     0
  9
$REGENMODE
 70
     1
  9
$FILLMODE
 70
     1
  9
$QTEXTMODE
 70
     0
  9
$DRAGMODE
 70
     2
  9
$LTSCALE
  40
     1.000000
  9
$OSMODE
 70
     0
  9
$ATTMODE
 70
     1
  9
$TEXTSIZE
 40
0.2
  9
$TRACEWID
 40
0.05
  9
$TEXTSTYLE
  7
STANDARD
  9
$CELTYPE
  6
BYLAYER
  9
$CECOLOR
 62
   256
  9
$DIMSCALE
 40
1.0
  9
$DIMASZ
 40
0.18
  9
$DIMEXO
 40
0.0625
  9
$DIMDLI
 40
0.38
  9
$DIMRND
 40
0.0
  9
$DIMDLE
 40
0.0
  9
$DIMEXE
 40
0.18
  9
$DIMTP
 40
0.0
  9
$DIMTM
 40
0.0
  9
$DIMTXT
 40
0.18
  9
$DIMCEN
 40
0.09
  9
$DIMTSZ
 40
0.0
  9
$DIMTOL
 70
     0
  9
$DIMLIM
 70
     0
  9
$DIMTIH
 70
     1
  9
$DIMTOH
 70
     1
  9
$DIMSE1
 70
     0
  9
$DIMSE2
 70
     0
  9
$DIMTAD
 70
     0
  9
$DIMZIN
 70
     0
  9
$DIMBLK
  1

  9
$LUNITS
 70
     2
  9
$LUPREC
 70
     4
  9
$AXISMODE
 70
     0
  9
$AXISUNIT
 10
0.0
 20
0.0
  9
$SKETCHINC
 40
0.1
  9
$FILLETRAD
 40
0.0
  9
$AUNITS
 70
     0
  9
$AUPREC
 70
     0
  9
$MENU
  1
ACAD
  9
$ELEVATION
 40
0.0
  9
$THICKNESS
 40
0.0
  9
$VIEWDIR
 10
0.0
 20
0.0
 30
1.0
  9
$LIMCHECK
 70
     0
  9
$BLIPMODE
 70
     1
  9
$CHAMFERA
 40
0.0
  9
$CHAMFERB
 40
0.0
  9
$FASTZOOM
 70
     1
  9
$SKPOLY
 70
     0
  9
$TDCREATE
 40
0000000.0000000000
  9
$TDUPDATE
 40
0000000.0000000000
  9
$TDINDWG
 40
0.0000000000
  9
$TDUSRTIMER
 40
0.0000000000
  9
$USRTIMER
 70
     1
  9
$ANGBASE
 50
0.0
  9
$ANGDIR
 70
     0
  9
$PDMODE
 70
     0
  9
$PDSIZE
 40
0.0
  9
$PLINEWID
 40
0.0
  9
$COORDS
 70
     0
  9
$USERI1
 70
     0
  9
$USERI2
 70
     0
  9
$USERI3
 70
     0
  9
$USERI4
 70
     0
  9
$USERI5
 70
     0
  9
$USERR1
 40
0.0
  9
$USERR2
 40
0.0
  9
$USERR3
 40
0.0
  9
$USERR4
 40
0.0
  9
$USERR5
 40
0.0
  9
$CLAYER
  8
M0
  9
$EXTMIN
 10
40.0
 20
40.0
  9
$EXTMAX
 10
800.0
 20
1140.0
  9
$LIMMIN
 10
0.0
 20
0.0
  9
$LIMMAX
 10
210.0
 20
297.0
  9
$HANDSEED
  5
9B7
  0
ENDSEC
  0
SECTION
  2
CLASSES
  0
ENDSEC
  0
SECTION
  2
TABLES
  0
TABLE
  2
VPORT
  5
8
100
AcDbSymbolTable
 70
     2
  0
VPORT
  5
14
100
AcDbSymbolTableRecord
100
AcDbViewportTableRecord
  2
*ACTIVE
 70
     0
 10
0.0
 20
0.0
 11
1.0
 21
1.0
 12
484.0
 22
297.0
 13
0.0
 23
0.0
 14
1.0
 24
1.0
 15
0.0
 25
0.0
 16
0.0
 26
0.0
 36
1.0
 17
0.0
 27
0.0
 37
0.0
 40
594.0
 41
2.0
 42
50.0
 43
0.0
 44
0.0
 50
0.0
 51
0.0
 71
     0
 72
   100
 73
     1
 74
     1
 75
     0
 76
     0
 77
     0
 78
     0
  0
ENDTAB
  0
TABLE
  2
LTYPE
  5
5
100
AcDbSymbolTable
 70
     5
  0
LTYPE
  5
15
100
AcDbSymbolTableRecord
100
AcDbLinetypeTableRecord
  2
BYBLOCK
 70
     0
  3

 72
    65
 73
     0
 40
0.0
  0
LTYPE
  5
16
100
AcDbSymbolTableRecord
100
AcDbLinetypeTableRecord
  2
BYLAYER
 70
     0
  3

 72
    65
 73
     0
 40
0.0
  0
LTYPE
  5
17
100
AcDbSymbolTableRecord
100
AcDbLinetypeTableRecord
  2
CONTINUOUS
 70
    64
  3
Solid line
 72
    65
 73
     0
 40
0.0
  0
LTYPE
  5
18
100
AcDbSymbolTableRecord
100
AcDbLinetypeTableRecord
  2
DASHED
 70
    64
  3
__ __ __ __ __ __ __ __ __ __ __ __ __ __ __ __
 72
    65
 73
     2
 40
0.75
 49
0.5
 74
     0
 49
-0.25
 74
     0
  0
LTYPE
  5
19
100
AcDbSymbolTableRecord
100
AcDbLinetypeTableRecord
  2
DASHDOT
 70
    64
  3
__ . __ . __ . __ . __ . __ . __ . __ . __ . __
 72
    65
 73
     4
 40
1.0
 49
0.5
 74
     0
 49
-0.25
 74
     0
 49
0.0
 74
     0
 49
-0.25
 74
     0
  0
LTYPE
  5
1A
100
AcDbSymbolTableRecord
100
AcDbLinetypeTableRecord
  2
DIVIDE
 70
    64
  3
____ . . ____ . . ____ . . ____ . . ____ . . __
 72
    65
 73
     6
 40
1.25
 49
0.5
 74
     0
 49
-0.25
 74
     0
 49
0.0
 74
     0
 49
-0.25
 74
     0
 49
0.0
 74
     0
 49
-0.25
 74
     0
  0
LTYPE
  5
1B
100
AcDbSymbolTableRecord
100
AcDbLinetypeTableRecord
  2
DOT
 70
    64
  3
. . . . . . . . . . . . . . . . . . . . . . . .
 72
    65
 73
     2
 40
0.25
 49
0.0
 74
     0
 49
-0.25
 74
     0
  0
ENDTAB
  0
TABLE
  2
LAYER
  5
2
100
AcDbSymbolTable
 70
   102
  0
LAYER
  5
F
100
AcDbSymbolTableRecord
100
AcDbLayerTableRecord
  2
0
 70
     0
 62
     7
  6
CONTINUOUS
  0
LAYER
  5
1C
100
AcDbSymbolTableRecord
100
AcDbLayerTableRecord
  2
DEFPOINTS
 70
     0
 62
     7
  6
CONTINUOUS
  0
LAYER
  5
1D
100
AcDbSymbolTableRecord
100
AcDbLayerTableRecord
  2
M0
 70
     0
 62
     3
  6
CONTINUOUS
  0
LAYER
  5
1E
100
AcDbSymbolTableRecord
100
AcDbLayerTableRecord
  2
M1
 70
     0
 62
     3
  6
CONTINUOUS
  0
LAYER
  5
1F
100
AcDbSymbolTableRecord
100
AcDbLayerTableRecord
  2
DD0
 70
     0
 62
     4
  6
CONTINUOUS
  0
LAYER
  5
20
100
AcDbSymbolTableRecord
100
AcDbLayerTableRecord
  2
DN0
 70
     0
 62
     2
  6
CONTINUOUS
  0
ENDTAB
  0
TABLE
  2
STYLE
  5
3
100
AcDbSymbolTable
 70
     2
  0
STYLE
  5
10
100
AcDbSymbolTableRecord
100
AcDbTextStyleTableRecord
  2
STANDARD
 70
     0
 40
0.0
 41
1.0
 50
0.0
 71
     0
 42
0.2
  3
txt
  4
BIGFONT
  0
ENDTAB
  0
TABLE
  2
VIEW
  5
6
100
AcDbSymbolTable
 70
     0
  0
ENDTAB
  0
TABLE
  2
UCS
  5
7
100
AcDbSymbolTable
 70
     0
  0
ENDTAB
  0
TABLE
  2
APPID
  5
9
100
AcDbSymbolTable
 70
     1
  0
APPID
  5
11
100
AcDbSymbolTableRecord
100
AcDbRegAppTableRecord
  2
ACAD
 70
     0
  0
ENDTAB
  0
TABLE
  2
DIMSTYLE
  5
A
100
AcDbSymbolTable
 70
     2
  0
DIMSTYLE
105
27
100
AcDbSymbolTableRecord
100
AcDbDimStyleTableRecord
  2
STANDARD
 70
     0
  3

  4

  5

  6
_OPEN
  7
_OPEN
 40
1.0
 41
12.0
 42
1.0
 43
8.0
 44
1.0
 45
0.0
 46
0.0
 47
0.0
 48
0.0
140
12.6
141
0.09
142
0.0
143
0.03937
144
1.0
145
0.0
146
1.0
147
0.6
 71
     0
 72
     0
 73
     1
 74
     1
 75
     0
 76
     0
 77
     3
 78
     8
170
     0
171
     2
172
     0
173
     1
174
     0
175
     0
176
     0
177
     0
178
     0
270
     2
271
     2
272
     4
273
     2
274
     2
340
10
275
     0
280
     0
281
     0
282
     0
283
     1
284
     0
285
     0
286
     0
287
     3
288
     0
  0
DIMSTYLE
105
28
100
AcDbSymbolTableRecord
100
AcDbDimStyleTableRecord
  2
LEADSTYL
 70
     0
  3

  4

  5

  6
_OPEN
  7
_OPEN
 40
1.0
 41
12.0
 42
0.0625
 43
0.38
 44
0.18
 45
0.0
 46
0.0
 47
0.0
 48
0.0
140
12.6
141
0.09
142
0.0
143
25.4
144
1.0
145
0.0
146
1.0
147
0.6
 71
     0
 72
     0
 73
     1
 74
     1
 75
     0
 76
     0
 77
     0
 78
     0
170
     0
171
     2
172
     0
173
     1
174
     0
175
     0
176
     0
177
     0
178
     0
270
     2
271
     4
272
     4
273
     2
274
     2
340
10
275
     0
280
     0
281
     0
282
     0
283
     1
284
     0
285
     0
286
     0
287
     3
288
     0
  0
ENDTAB
  0
TABLE
  2
BLOCK_RECORD
  5
1
100
AcDbSymbolTable
 70
    16
  0
BLOCK_RECORD
  5
21
100
AcDbSymbolTableRecord
100
AcDbBlockTableRecord
  2
*MODEL_SPACE
  0
BLOCK_RECORD
  5
24
100
AcDbSymbolTableRecord
100
AcDbBlockTableRecord
  2
*PAPER_SPACE
  0
BLOCK_RECORD
  5
29
100
AcDbSymbolTableRecord
100
AcDbBlockTableRecord
  2
_NONE
  0
BLOCK_RECORD
  5
2D
100
AcDbSymbolTableRecord
100
AcDbBlockTableRecord
  2
_OPEN
  0
BLOCK_RECORD
  5
33
100
AcDbSymbolTableRecord
100
AcDbBlockTableRecord
  2
_CLOSED
  0
BLOCK_RECORD
  5
3A
100
AcDbSymbolTableRecord
100
AcDbBlockTableRecord
  2
_ORIGIN
  0
BLOCK_RECORD
  5
3F
100
AcDbSymbolTableRecord
100
AcDbBlockTableRecord
  2
_DOT
  0
BLOCK_RECORD
  5
47
100
AcDbSymbolTableRecord
100
AcDbBlockTableRecord
  2
_OBLIQUE
  0
BLOCK_RECORD
  5
4B
100
AcDbSymbolTableRecord
100
AcDbBlockTableRecord
  2
DIMS0
  0
BLOCK_RECORD
  5
57
100
AcDbSymbolTableRecord
100
AcDbBlockTableRecord
  2
DIMS1
  0
BLOCK_RECORD
  5
63
100
AcDbSymbolTableRecord
100
AcDbBlockTableRecord
  2
DIMS2
  0
BLOCK_RECORD
  5
6F
100
AcDbSymbolTableRecord
100
AcDbBlockTableRecord
  2
DIMS3
  0
BLOCK_RECORD
  5
7B
100
AcDbSymbolTableRecord
100
AcDbBlockTableRecord
  2
DIMS4
  0
BLOCK_RECORD
  5
87
100
AcDbSymbolTableRecord
100
AcDbBlockTableRecord
  2
DIMS5
  0
BLOCK_RECORD
  5
93
100
AcDbSymbolTableRecord
100
AcDbBlockTableRecord
  2
DIMS6
  0
BLOCK_RECORD
  5
9F
100
AcDbSymbolTableRecord
100
AcDbBlockTableRecord
  2
DIMS7
  0
BLOCK_RECORD
  5
AB
100
AcDbSymbolTableRecord
100
AcDbBlockTableRecord
  2
DIMS8
  0
BLOCK_RECORD
  5
B4
100
AcDbSymbolTableRecord
100
AcDbBlockTableRecord
  2
DIMS9
  0
ENDTAB
  0
ENDSEC
  0
SECTION
  2
BLOCKS
  0
BLOCK
  5
22
100
AcDbEntity
  8
0
100
AcDbBlockBegin
  2
*MODEL_SPACE
 70
     0
 10
0.0
 20
0.0
 30
0.0
  3
*MODEL_SPACE
  1

  0
ENDBLK
  5
23
100
AcDbEntity
  8
0
100
AcDbBlockEnd
  0
BLOCK
  5
25
100
AcDbEntity
 67
     1
  8
0
100
AcDbBlockBegin
  2
*PAPER_SPACE
 70
     0
 10
0.0
 20
0.0
 30
0.0
  3
*PAPER_SPACE
  1

  0
ENDBLK
  5
26
100
AcDbEntity
 67
     1
  8
0
100
AcDbBlockEnd
  0
BLOCK
  5
2A
100
AcDbEntity
  8
0
100
AcDbBlockBegin
  2
_NONE
 70
     0
 10
0.0
 20
0.0
  0
CIRCLE
  5
2B
100
AcDbEntity
  8
0
 62
     0
100
AcDbCircle
 10
0.0
 20
0.0
 40
0.25
  0
ENDBLK
  5
2C
100
AcDbEntity
  8
0
100
AcDbBlockEnd
  0
BLOCK
  5
2E
100
AcDbEntity
  8
0
100
AcDbBlockBegin
  2
_OPEN
 70
     0
 10
0.0
 20
0.0
  0
LINE
  5
2F
100
AcDbEntity
  8
0
 62
     0
100
AcDbLine
 10
-0.965926
 20
0.258819
 11
0.0
 21
0.0
  0
LINE
  5
30
100
AcDbEntity
  8
0
 62
     0
100
AcDbLine
 10
0.0
 20
0.0
 11
-0.965926
 21
-0.258819
  0
LINE
  5
31
100
AcDbEntity
  8
0
 62
     0
100
AcDbLine
 10
0.0
 20
0.0
 11
-1.0
 21
0.0
  0
ENDBLK
  5
32
100
AcDbEntity
  8
0
100
AcDbBlockEnd
  0
BLOCK
  5
34
100
AcDbEntity
  8
0
100
AcDbBlockBegin
  2
_CLOSED
 70
     0
 10
0.0
 20
0.0
  0
LINE
  5
35
100
AcDbEntity
  8
0
 62
     0
100
AcDbLine
 10
-0.965926
 20
0.258819
 11
0.0
 21
0.0
  0
LINE
  5
36
100
AcDbEntity
  8
0
 62
     0
100
AcDbLine
 10
0.0
 20
0.0
 11
-0.965926
 21
-0.258819
  0
LINE
  5
37
100
AcDbEntity
  8
0
 62
     0
100
AcDbLine
 10
-0.965926
 20
0.258819
 11
-0.965926
 21
-0.258819
  0
LINE
  5
38
100
AcDbEntity
  8
0
 62
     0
100
AcDbLine
 10
0.0
 20
0.0
 11
-1.0
 21
0.0
  0
ENDBLK
  5
39
100
AcDbEntity
  8
0
100
AcDbBlockEnd
  0
BLOCK
  5
3B
100
AcDbEntity
  8
0
100
AcDbBlockBegin
  2
_ORIGIN
 70
     0
 10
0.0
 20
0.0
  0
CIRCLE
  5
3C
100
AcDbEntity
  8
0
 62
     0
100
AcDbCircle
 10
0.0
 20
0.0
 40
0.5
  0
LINE
  5
3D
100
AcDbEntity
  8
0
 62
     0
100
AcDbLine
 10
0.0
 20
0.0
 11
-1.0
 21
0.0
  0
ENDBLK
  5
3E
100
AcDbEntity
  8
0
100
AcDbBlockEnd
  0
BLOCK
  5
40
100
AcDbEntity
  8
0
100
AcDbBlockBegin
  2
_DOT
 70
     0
 10
0.0
 20
0.0
  0
POLYLINE
  5
41
100
AcDbEntity
  8
0
 62
     0
100
AcDb2dPolyline
 66
     1
 70
     1
 40
0.5
 41
0.5
  0
VERTEX
  5
42
100
AcDbEntity
  8
0
 62
     0
100
AcDbVertex
100
AcDb2dVertex
 10
-0.25
 20
0.0
 42
1.0
  0
VERTEX
  5
43
100
AcDbEntity
  8
0
 62
     0
100
AcDbVertex
100
AcDb2dVertex
 10
0.25
 20
0.0
 42
1.0
  0
SEQEND
  5
44
100
AcDbEntity
  8
0
 62
     0
  0
LINE
  5
45
100
AcDbEntity
  8
0
 62
     0
100
AcDbLine
 10
-0.5
 20
0.0
 11
-1.0
 21
0.0
  0
ENDBLK
  5
46
100
AcDbEntity
  8
0
100
AcDbBlockEnd
  0
BLOCK
  5
48
100
AcDbEntity
  8
0
100
AcDbBlockBegin
  2
_OBLIQUE
 70
     0
 10
0.0
 20
0.0
  0
LINE
  5
49
100
AcDbEntity
  8
0
 62
     0
100
AcDbLine
 10
-0.353553
 20
-0.353553
 11
0.353553
 21
0.353553
  0
ENDBLK
  5
4A
100
AcDbEntity
  8
0
100
AcDbBlockEnd
  0
BLOCK
  5
4C
100
AcDbEntity
  8
DD0
100
AcDbBlockBegin
  2
DIMS0
 70
     0
 10
0.0
 20
0.0
  0
LINE
  5
4D
100
AcDbEntity
  8
DD0
 60
     1
100
AcDbLine
 10
707.598206
 20
973.155212
 11
707.598206
 21
995.257751
  0
LINE
  5
4E
100
AcDbEntity
  8
DD0
100
AcDbLine
 10
704.398132
 20
973.155212
 11
704.398132
 21
995.257751
  0
LINE
  5
4F
100
AcDbEntity
  8
DD0
100
AcDbLine
 10
719.189315
 20
994.36358
 11
707.598206
 21
991.257751
  0
LINE
  5
50
100
AcDbEntity
  8
DD0
100
AcDbLine
 10
707.598206
 20
991.257751
 11
719.189315
 21
988.151923
  0
LINE
  5
51
100
AcDbEntity
  8
DD0
100
AcDbLine
 10
692.807022
 20
988.151923
 11
704.398132
 21
991.257751
  0
LINE
  5
52
100
AcDbEntity
  8
DD0
100
AcDbLine
 10
704.398132
 20
991.257751
 11
692.807022
 21
994.36358
  0
LINE
  5
53
100
AcDbEntity
  8
DD0
100
AcDbLine
 10
762.598209
 20
991.257751
 11
691.198133
 21
991.257751
  0
TEXT
  5
54
100
AcDbEntity
  8
DD0
100
AcDbText
 10
721.828223
 20
993.657776
 40
12.6
  1
３．２
 41
0.833333
  7
STANDARD
100
AcDbText
  0
ENDBLK
  5
55
100
AcDbEntity
  8
DD0
100
AcDbBlockEnd
  0
BLOCK
  5
58
100
AcDbEntity
  8
DD0
100
AcDbBlockBegin
  2
DIMS1
 70
     0
 10
0.0
 20
0.0
  0
LINE
  5
59
100
AcDbEntity
  8
DD0
100
AcDbLine
 10
707.598206
 20
973.155212
 11
707.598206
 21
1022.126648
  0
LINE
  5
5A
100
AcDbEntity
  8
DD0
100
AcDbLine
 10
482.398132
 20
926.155212
 11
482.398132
 21
1022.126648
  0
LINE
  5
5B
100
AcDbEntity
  8
DD0
100
AcDbLine
 10
696.007096
 20
1015.020819
 11
707.598206
 21
1018.126648
  0
LINE
  5
5C
100
AcDbEntity
  8
DD0
100
AcDbLine
 10
707.598206
 20
1018.126648
 11
696.007096
 21
1021.232477
  0
LINE
  5
5D
100
AcDbEntity
  8
DD0
100
AcDbLine
 10
493.989242
 20
1021.232477
 11
482.398132
 21
1018.126648
  0
LINE
  5
5E
100
AcDbEntity
  8
DD0
100
AcDbLine
 10
482.398132
 20
1018.126648
 11
493.989242
 21
1015.020819
  0
LINE
  5
5F
100
AcDbEntity
  8
DD0
100
AcDbLine
 10
707.598206
 20
1018.126648
 11
482.398132
 21
1018.126648
  0
TEXT
  5
60
100
AcDbEntity
  8
DD0
100
AcDbText
 10
577.128149
 20
1020.526672
 40
12.6
  1
２２５
 41
0.833333
  7
STANDARD
100
AcDbText
  0
ENDBLK
  5
61
100
AcDbEntity
  8
DD0
100
AcDbBlockEnd
  0
BLOCK
  5
64
100
AcDbEntity
  8
DD0
100
AcDbBlockBegin
  2
DIMS2
 70
     0
 10
0.0
 20
0.0
  0
LINE
  5
65
100
AcDbEntity
  8
DD0
100
AcDbLine
 10
333.311432
 20
969.155212
 11
408.927917
 21
969.155212
  0
LINE
  5
66
100
AcDbEntity
  8
DD0
100
AcDbLine
 10
345.311157
 20
639.155212
 11
408.927917
 21
639.155212
  0
LINE
  5
67
100
AcDbEntity
  8
DD0
100
AcDbLine
 10
408.033746
 20
957.564103
 11
404.927917
 21
969.155212
  0
LINE
  5
68
100
AcDbEntity
  8
DD0
100
AcDbLine
 10
404.927917
 20
969.155212
 11
401.822089
 21
957.564103
  0
LINE
  5
69
100
AcDbEntity
  8
DD0
100
AcDbLine
 10
401.822089
 20
650.746322
 11
404.927917
 21
639.155212
  0
LINE
  5
6A
100
AcDbEntity
  8
DD0
100
AcDbLine
 10
404.927917
 20
639.155212
 11
408.033746
 21
650.746322
  0
LINE
  5
6B
100
AcDbEntity
  8
DD0
100
AcDbLine
 10
404.927917
 20
969.155212
 11
404.927917
 21
639.155212
  0
TEXT
  5
6C
100
AcDbEntity
  8
DD0
100
AcDbText
 10
402.527924
 20
786.285193
 40
12.6
  1
３３０
 50
90.000003
 41
0.833333
  7
STANDARD
100
AcDbText
  0
ENDBLK
  5
6D
100
AcDbEntity
  8
DD0
100
AcDbBlockEnd
  0
BLOCK
  5
70
100
AcDbEntity
  8
DD0
100
AcDbBlockBegin
  2
DIMS3
 70
     0
 10
0.0
 20
0.0
  0
LINE
  5
71
100
AcDbEntity
  8
DD0
100
AcDbLine
 10
182.761398
 20
940.955139
 11
182.761398
 21
1022.126648
  0
LINE
  5
72
100
AcDbEntity
  8
DD0
100
AcDbLine
 10
369.811157
 20
907.155212
 11
369.811157
 21
1022.126648
  0
LINE
  5
73
100
AcDbEntity
  8
DD0
100
AcDbLine
 10
194.352508
 20
1021.232477
 11
182.761398
 21
1018.126648
  0
LINE
  5
74
100
AcDbEntity
  8
DD0
100
AcDbLine
 10
182.761398
 20
1018.126648
 11
194.352508
 21
1015.020819
  0
LINE
  5
75
100
AcDbEntity
  8
DD0
100
AcDbLine
 10
358.220047
 20
1015.020819
 11
369.811157
 21
1018.126648
  0
LINE
  5
76
100
AcDbEntity
  8
DD0
100
AcDbLine
 10
369.811157
 20
1018.126648
 11
358.220047
 21
1021.232477
  0
LINE
  5
77
100
AcDbEntity
  8
DD0
100
AcDbLine
 10
182.761398
 20
1018.126648
 11
369.811157
 21
1018.126648
  0
TEXT
  5
78
100
AcDbEntity
  8
DD0
100
AcDbText
 10
258.416296
 20
1020.526672
 40
12.6
  1
１８７
 41
0.833333
  7
STANDARD
100
AcDbText
  0
ENDBLK
  5
79
100
AcDbEntity
  8
DD0
100
AcDbBlockEnd
  0
BLOCK
  5
7C
100
AcDbEntity
  8
DD0
100
AcDbBlockBegin
  2
DIMS4
 70
     0
 10
0.0
 20
0.0
  0
LINE
  5
7D
100
AcDbEntity
  8
DD0
100
AcDbLine
 10
369.811157
 20
907.155212
 11
369.811157
 21
1056.973755
  0
LINE
  5
7E
100
AcDbEntity
  8
DD0
100
AcDbLine
 10
171.311142
 20
893.355225
 11
171.311142
 21
1056.973755
  0
LINE
  5
7F
100
AcDbEntity
  8
DD0
100
AcDbLine
 10
358.220047
 20
1049.867926
 11
369.811157
 21
1052.973755
  0
LINE
  5
80
100
AcDbEntity
  8
DD0
100
AcDbLine
 10
369.811157
 20
1052.973755
 11
358.220047
 21
1056.079584
  0
LINE
  5
81
100
AcDbEntity
  8
DD0
100
AcDbLine
 10
182.902252
 20
1056.079584
 11
171.311142
 21
1052.973755
  0
LINE
  5
82
100
AcDbEntity
  8
DD0
100
AcDbLine
 10
171.311142
 20
1052.973755
 11
182.902252
 21
1049.867926
  0
LINE
  5
83
100
AcDbEntity
  8
DD0
100
AcDbLine
 10
369.811157
 20
1052.973755
 11
171.311142
 21
1052.973755
  0
TEXT
  5
84
100
AcDbEntity
  8
DD0
100
AcDbText
 10
167.090338
 20
1063.160156
 40
12.6
  1
１９９　補助接点４ａ４ｂ付の場合
 41
0.833333
  7
STANDARD
100
AcDbText
  0
ENDBLK
  5
85
100
AcDbEntity
  8
DD0
100
AcDbBlockEnd
  0
BLOCK
  5
88
100
AcDbEntity
  8
DD0
100
AcDbBlockBegin
  2
DIMS5
 70
     0
 10
0.0
 20
0.0
  0
LINE
  5
89
100
AcDbEntity
  8
DD0
100
AcDbLine
 10
373.810791
 20
528.15387
 11
408.927917
 21
528.15387
  0
LINE
  5
8A
100
AcDbEntity
  8
DD0
100
AcDbLine
 10
352.310974
 20
518.15387
 11
408.927917
 21
518.15387
  0
LINE
  5
8B
100
AcDbEntity
  8
DD0
100
AcDbLine
 10
401.822089
 20
539.74498
 11
404.927917
 21
528.15387
  0
LINE
  5
8C
100
AcDbEntity
  8
DD0
100
AcDbLine
 10
404.927917
 20
528.15387
 11
408.033746
 21
539.74498
  0
LINE
  5
8D
100
AcDbEntity
  8
DD0
100
AcDbLine
 10
408.033746
 20
506.56276
 11
404.927917
 21
518.15387
  0
LINE
  5
8E
100
AcDbEntity
  8
DD0
100
AcDbLine
 10
404.927917
 20
518.15387
 11
401.822089
 21
506.56276
  0
LINE
  5
8F
100
AcDbEntity
  8
DD0
100
AcDbLine
 10
404.927917
 20
570.553871
 11
404.927917
 21
504.95387
  0
TEXT
  5
90
100
AcDbEntity
  8
DD0
100
AcDbText
 10
402.527924
 20
542.383887
 40
12.6
  1
１０
 50
90.000003
 41
0.833333
  7
STANDARD
100
AcDbText
  0
ENDBLK
  5
91
100
AcDbEntity
  8
DD0
100
AcDbBlockEnd
  0
BLOCK
  5
94
100
AcDbEntity
  8
DD0
100
AcDbBlockBegin
  2
DIMS6
 70
     0
 10
0.0
 20
0.0
  0
LINE
  5
95
100
AcDbEntity
  8
DD0
 60
     1
100
AcDbLine
 10
352.310974
 20
518.15387
 11
408.927917
 21
518.15387
  0
LINE
  5
96
100
AcDbEntity
  8
DD0
100
AcDbLine
 10
352.310974
 20
298.15387
 11
408.927917
 21
298.15387
  0
LINE
  5
97
100
AcDbEntity
  8
DD0
100
AcDbLine
 10
408.033746
 20
506.56276
 11
404.927917
 21
518.15387
  0
LINE
  5
98
100
AcDbEntity
  8
DD0
100
AcDbLine
 10
404.927917
 20
518.15387
 11
401.822089
 21
506.56276
  0
LINE
  5
99
100
AcDbEntity
  8
DD0
100
AcDbLine
 10
401.822089
 20
309.74498
 11
404.927917
 21
298.15387
  0
LINE
  5
9A
100
AcDbEntity
  8
DD0
100
AcDbLine
 10
404.927917
 20
298.15387
 11
408.033746
 21
309.74498
  0
LINE
  5
9B
100
AcDbEntity
  8
DD0
100
AcDbLine
 10
404.927917
 20
518.15387
 11
404.927917
 21
298.15387
  0
TEXT
  5
9C
100
AcDbEntity
  8
DD0
100
AcDbText
 10
402.527924
 20
390.283881
 40
12.6
  1
２２０
 50
90.000003
 41
0.833333
  7
STANDARD
100
AcDbText
  0
ENDBLK
  5
9D
100
AcDbEntity
  8
DD0
100
AcDbBlockEnd
  0
BLOCK
  5
A0
100
AcDbEntity
  8
DD0
100
AcDbBlockBegin
  2
DIMS7
 70
     0
 10
0.0
 20
0.0
  0
LINE
  5
A1
100
AcDbEntity
  8
DD0
100
AcDbLine
 10
234.310974
 20
561.865234
 11
234.310974
 21
584.982422
  0
LINE
  5
A2
100
AcDbEntity
  8
DD0
100
AcDbLine
 10
294.310974
 20
558.239014
 11
294.310974
 21
584.982422
  0
LINE
  5
A3
100
AcDbEntity
  8
DD0
100
AcDbLine
 10
245.902084
 20
584.088251
 11
234.310974
 21
580.982422
  0
LINE
  5
A4
100
AcDbEntity
  8
DD0
100
AcDbLine
 10
234.310974
 20
580.982422
 11
245.902084
 21
577.876593
  0
LINE
  5
A5
100
AcDbEntity
  8
DD0
100
AcDbLine
 10
282.719864
 20
577.876593
 11
294.310974
 21
580.982422
  0
LINE
  5
A6
100
AcDbEntity
  8
DD0
100
AcDbLine
 10
294.310974
 20
580.982422
 11
282.719864
 21
584.088251
  0
LINE
  5
A7
100
AcDbEntity
  8
DD0
100
AcDbLine
 10
234.310974
 20
580.982422
 11
294.310974
 21
580.982422
  0
TEXT
  5
A8
100
AcDbEntity
  8
DD0
100
AcDbText
 10
252.740973
 20
583.382446
 40
12.6
  1
６０
 41
0.833333
  7
STANDARD
100
AcDbText
  0
ENDBLK
  5
A9
100
AcDbEntity
  8
DD0
100
AcDbBlockEnd
  0
BLOCK
  5
AC
100
AcDbEntity
  8
DD0
100
AcDbBlockBegin
  2
DIMS8
 70
     0
 10
0.0
 20
0.0
  0
LINE
  5
AD
100
AcDbEntity
  8
DD0
100
AcDbLine
 10
224.016122
 20
286.04005
 11
231.175095
 21
295.670685
  0
LINE
  5
AE
100
AcDbEntity
  8
DD0
100
AcDbLine
 10
231.175095
 20
295.670685
 11
220.159926
 21
290.909797
  0
LINE
  5
AF
100
AcDbEntity
  8
DD0
100
AcDbLine
 10
231.175095
 20
295.670685
 11
160.711929
 21
239.873154
  0
LINE
  5
B0
100
AcDbEntity
  8
DD0
100
AcDbLine
 10
160.711929
 20
239.873154
 11
64.311928
 21
239.873154
  0
TEXT
  5
B1
100
AcDbEntity
  8
DD0
100
AcDbText
 10
87.545264
 20
242.27327
 40
10.0
  1
４－Ｍ８ねじ穴
 41
0.833333
  7
STANDARD
100
AcDbText
  0
ENDBLK
  5
B2
100
AcDbEntity
  8
DD0
100
AcDbBlockEnd
  0
BLOCK
  5
B5
100
AcDbEntity
  8
DD0
100
AcDbBlockBegin
  2
DIMS9
 70
     0
 10
0.0
 20
0.0
  0
LINE
  5
B6
100
AcDbEntity
  8
DD0
100
AcDbLine
 10
264.310974
 20
176.133987
 11
264.310974
 21
156.189789
  0
LINE
  5
B7
100
AcDbEntity
  8
DD0
100
AcDbLine
 10
182.810974
 20
194.153885
 11
182.810974
 21
156.189789
  0
LINE
  5
B8
100
AcDbEntity
  8
DD0
100
AcDbLine
 10
252.719864
 20
157.08396
 11
264.310974
 21
160.189789
  0
LINE
  5
B9
100
AcDbEntity
  8
DD0
100
AcDbLine
 10
264.310974
 20
160.189789
 11
252.719864
 21
163.295617
  0
LINE
  5
BA
100
AcDbEntity
  8
DD0
100
AcDbLine
 10
194.402084
 20
163.295617
 11
182.810974
 21
160.189789
  0
LINE
  5
BB
100
AcDbEntity
  8
DD0
100
AcDbLine
 10
182.810974
 20
160.189789
 11
194.402084
 21
157.08396
  0
LINE
  5
BC
100
AcDbEntity
  8
DD0
100
AcDbLine
 10
264.310974
 20
160.189789
 11
115.210976
 21
160.189789
  0
TEXT
  5
BD
100
AcDbEntity
  8
DD0
100
AcDbText
 10
118.440977
 20
162.589783
 40
12.6
  1
８１．５
 41
0.833333
  7
STANDARD
100
AcDbText
  0
ENDBLK
  5
BE
100
AcDbEntity
  8
DD0
100
AcDbBlockEnd
  0
ENDSEC
  0
SECTION
  2
ENTITIES
  0
INSERT
  5
56
100
AcDbEntity
  8
DD0
100
AcDbBlockReference
  2
DIMS0
 10
0.0
 20
0.0
  0
INSERT
  5
62
100
AcDbEntity
  8
DD0
100
AcDbBlockReference
  2
DIMS1
 10
0.0
 20
0.0
  0
INSERT
  5
6E
100
AcDbEntity
  8
DD0
100
AcDbBlockReference
  2
DIMS2
 10
0.0
 20
0.0
  0
INSERT
  5
7A
100
AcDbEntity
  8
DD0
100
AcDbBlockReference
  2
DIMS3
 10
0.0
 20
0.0
  0
INSERT
  5
86
100
AcDbEntity
  8
DD0
100
AcDbBlockReference
  2
DIMS4
 10
0.0
 20
0.0
  0
INSERT
  5
92
100
AcDbEntity
  8
DD0
100
AcDbBlockReference
  2
DIMS5
 10
0.0
 20
0.0
  0
INSERT
  5
9E
100
AcDbEntity
  8
DD0
100
AcDbBlockReference
  2
DIMS6
 10
0.0
 20
0.0
  0
INSERT
  5
AA
100
AcDbEntity
  8
DD0
100
AcDbBlockReference
  2
DIMS7
 10
0.0
 20
0.0
  0
INSERT
  5
B3
100
AcDbEntity
  8
DD0
100
AcDbBlockReference
  2
DIMS8
 10
0.0
 20
0.0
  0
INSERT
  5
BF
100
AcDbEntity
  8
DD0
100
AcDbBlockReference
  2
DIMS9
 10
0.0
 20
0.0
  0
LINE
  5
C0
100
AcDbEntity
  8
M0
100
AcDbLine
 10
707.598208
 20
639.155224
 11
707.598208
 21
969.155224
  0
LINE
  5
C1
100
AcDbEntity
  8
M0
  6
DASHDOT
 62
     1
100
AcDbLine
 10
472.398126
 20
849.155224
 11
717.598292
 21
849.155224
  0
ARC
  5
C2
100
AcDbEntity
  8
M0
 62
     4
100
AcDbCircle
 10
329.311422
 20
964.155224
 40
5.0
100
AcDbArc
 50
53.130102
 51
90.0
  0
LINE
  5
C3
100
AcDbEntity
  8
M0
 62
     4
100
AcDbLine
 10
345.761234
 20
767.155391
 11
345.761276
 21
823.54956
  0
ARC
  5
C4
100
AcDbEntity
  8
M0
 62
     4
100
AcDbCircle
 10
340.561397
 20
936.955262
 40
5.2
100
AcDbArc
 50
359.997256
 51
384.018534
  0
LINE
  5
C5
100
AcDbEntity
  8
M0
 62
     4
100
AcDbLine
 10
345.761388
 20
931.155208
 11
337.311391
 21
931.155216
  0
LINE
  5
C6
100
AcDbEntity
  8
M0
 62
     4
100
AcDbLine
 10
342.561392
 20
932.155113
 11
342.561391
 21
931.155211
  0
LINE
  5
C7
100
AcDbEntity
  8
M0
 62
     4
100
AcDbLine
 10
329.311427
 20
969.155224
 11
199.311431
 21
969.155346
  0
CIRCLE
  5
C8
100
AcDbEntity
  8
M0
 62
     4
100
AcDbCircle
 10
294.311418
 20
959.155257
 40
4.5
  0
LINE
  5
C9
100
AcDbEntity
  8
M0
  6
DASHDOT
 62
     4
100
AcDbLine
 10
294.311427
 20
968.655257
 11
294.311409
 21
949.655257
  0
LINE
  5
CA
100
AcDbEntity
  8
M0
  6
DASHDOT
 62
     4
100
AcDbLine
 10
284.811418
 20
959.155266
 11
303.811418
 21
959.155248
  0
CIRCLE
  5
CB
100
AcDbEntity
  8
M0
 62
     4
100
AcDbCircle
 10
294.31121
 20
739.15544
 40
4.5
  0
LINE
  5
CC
100
AcDbEntity
  8
M0
  6
DASHDOT
 62
     4
100
AcDbLine
 10
294.311219
 20
748.65544
 11
294.311202
 21
729.65544
  0
LINE
  5
CD
100
AcDbEntity
  8
M0
  6
DASHDOT
 62
     4
100
AcDbLine
 10
284.81121
 20
739.155449
 11
303.81121
 21
739.155431
  0
LINE
  5
CE
100
AcDbEntity
  8
M0
 62
     4
100
AcDbLine
 10
303.311427
 20
969.155248
 11
303.311418
 21
959.155248
  0
LINE
  5
CF
100
AcDbEntity
  8
M0
 62
     4
100
AcDbLine
 10
285.311427
 20
969.155265
 11
285.311418
 21
959.155265
  0
ARC
  5
D0
100
AcDbEntity
  8
M0
 62
     4
100
AcDbCircle
 10
294.311418
 20
959.155257
 40
9.0
100
AcDbArc
 50
179.999946
 51
242.734414
  0
ARC
  5
D1
100
AcDbEntity
  8
M0
 62
     4
100
AcDbCircle
 10
199.311426
 20
964.155346
 40
5.0
100
AcDbArc
 50
90.0
 51
179.999946
  0
LINE
  5
D2
100
AcDbEntity
  8
M0
 62
     4
100
AcDbLine
 10
182.761241
 20
767.15553
 11
182.761401
 21
936.955167
  0
ARC
  5
D3
100
AcDbEntity
  8
M0
 62
     4
100
AcDbCircle
 10
187.9614
 20
936.955162
 40
5.2
100
AcDbArc
 50
153.415994
 51
179.999946
  0
LINE
  5
D4
100
AcDbEntity
  8
M0
 62
     4
100
AcDbLine
 10
182.861395
 20
931.155362
 11
191.311395
 21
931.155354
  0
LINE
  5
D5
100
AcDbEntity
  8
M0
 62
     4
100
AcDbLine
 10
185.961396
 20
932.155113
 11
185.961395
 21
931.155115
  0
LINE
  5
D6
100
AcDbEntity
  8
M0
 62
     4
100
AcDbLine
 10
194.311426
 20
964.155351
 11
194.311421
 21
959.155242
  0
CIRCLE
  5
D7
100
AcDbEntity
  8
M0
 62
     4
100
AcDbCircle
 10
234.311418
 20
959.155313
 40
4.5
  0
LINE
  5
D8
100
AcDbEntity
  8
M0
  6
DASHDOT
 62
     4
100
AcDbLine
 10
234.311427
 20
968.655313
 11
234.311409
 21
949.655313
  0
LINE
  5
D9
100
AcDbEntity
  8
M0
  6
DASHDOT
 62
     4
100
AcDbLine
 10
243.811418
 20
959.155304
 11
224.811418
 21
959.155322
  0
CIRCLE
  5
DA
100
AcDbEntity
  8
M0
 62
     4
100
AcDbCircle
 10
234.31121
 20
739.155496
 40
4.5
  0
LINE
  5
DB
100
AcDbEntity
  8
M0
  6
DASHDOT
 62
     4
100
AcDbLine
 10
234.311219
 20
748.655496
 11
234.311202
 21
729.655496
  0
LINE
  5
DC
100
AcDbEntity
  8
M0
  6
DASHDOT
 62
     4
100
AcDbLine
 10
243.81121
 20
739.155487
 11
224.81121
 21
739.155505
  0
LINE
  5
DD
100
AcDbEntity
  8
M0
 62
     4
100
AcDbLine
 10
225.311427
 20
969.155322
 11
225.311418
 21
959.155322
  0
LINE
  5
DE
100
AcDbEntity
  8
M0
 62
     4
100
AcDbLine
 10
243.311427
 20
969.155305
 11
243.311418
 21
959.155305
  0
ARC
  5
DF
100
AcDbEntity
  8
M0
 62
     4
100
AcDbCircle
 10
234.311418
 20
959.155313
 40
9.0
100
AcDbArc
 50
179.999946
 51
359.998392
  0
LINE
  5
E0
100
AcDbEntity
  8
M0
 62
     4
100
AcDbLine
 10
345.761342
 20
893.549544
 11
345.761394
 21
936.955257
  0
ARC
  5
E1
100
AcDbEntity
  8
M0
 62
     4
100
AcDbCircle
 10
317.811149
 20
965.155224
 40
3.0
100
AcDbArc
 50
90.0
 51
180.0
  0
LINE
  5
E2
100
AcDbEntity
  8
M0
 62
     4
100
AcDbLine
 10
314.811149
 20
965.155224
 11
314.811149
 21
959.155244
  0
LINE
  5
E3
100
AcDbEntity
  8
M0
  6
DASHDOT
 62
     4
100
AcDbLine
 10
322.311142
 20
924.488587
 11
322.311142
 21
963.821919
  0
LINE
  5
E4
100
AcDbEntity
  8
M0
 62
     4
100
AcDbLine
 10
346.311149
 20
968.155224
 11
317.811149
 21
968.155224
  0
LINE
  5
E5
100
AcDbEntity
  8
M0
 62
     4
100
AcDbLine
 10
346.311149
 20
730.155224
 11
335.811149
 21
730.155224
  0
LINE
  5
E6
100
AcDbEntity
  8
M0
 62
     4
100
AcDbLine
 10
345.761161
 20
764.155224
 11
337.311149
 21
764.155224
  0
ARC
  5
E7
100
AcDbEntity
  8
M0
 62
     4
100
AcDbCircle
 10
294.311418
 20
959.155257
 40
9.0
100
AcDbArc
 50
249.850289
 51
359.998392
  0
LINE
  5
E8
100
AcDbEntity
  8
M0
 62
     2
100
AcDbLine
 10
233.811149
 20
774.155235
 11
235.811149
 21
774.155235
  0
LINE
  5
E9
100
AcDbEntity
  8
M0
 62
     2
100
AcDbLine
 10
245.811149
 20
775.155235
 11
245.811149
 21
777.155235
  0
LINE
  5
EA
100
AcDbEntity
  8
M0
 62
     2
100
AcDbLine
 10
232.811151
 20
775.155235
 11
232.811151
 21
778.155235
  0
LINE
  5
EB
100
AcDbEntity
  8
M0
 62
     2
100
AcDbLine
 10
295.811149
 20
775.155235
 11
295.811149
 21
778.155235
  0
LINE
  5
EC
100
AcDbEntity
  8
M0
 62
     2
100
AcDbLine
 10
283.811149
 20
774.155235
 11
285.811149
 21
774.155235
  0
LINE
  5
ED
100
AcDbEntity
  8
M0
 62
     2
100
AcDbLine
 10
242.811149
 20
774.155235
 11
244.811149
 21
774.155235
  0
LINE
  5
EE
100
AcDbEntity
  8
M0
 62
     2
100
AcDbLine
 10
292.811149
 20
774.155235
 11
294.811149
 21
774.155235
  0
ARC
  5
EF
100
AcDbEntity
  8
M0
 62
     2
100
AcDbCircle
 10
233.811149
 20
775.155235
 40
1.0
100
AcDbArc
 50
179.999126
 51
269.999126
  0
ARC
  5
F0
100
AcDbEntity
  8
M0
 62
     2
100
AcDbCircle
 10
235.811149
 20
775.155235
 40
1.0
100
AcDbArc
 50
269.999126
 51
360.0
  0
ARC
  5
F1
100
AcDbEntity
  8
M0
 62
     2
100
AcDbCircle
 10
242.811149
 20
775.155235
 40
1.0
100
AcDbArc
 50
179.999126
 51
269.999126
  0
ARC
  5
F2
100
AcDbEntity
  8
M0
 62
     2
100
AcDbCircle
 10
244.811149
 20
775.155235
 40
1.0
100
AcDbArc
 50
269.999126
 51
360.0
  0
ARC
  5
F3
100
AcDbEntity
  8
M0
 62
     2
100
AcDbCircle
 10
283.811149
 20
775.155235
 40
1.0
100
AcDbArc
 50
179.999126
 51
269.999126
  0
ARC
  5
F4
100
AcDbEntity
  8
M0
 62
     2
100
AcDbCircle
 10
285.811149
 20
775.155235
 40
1.0
100
AcDbArc
 50
269.999126
 51
360.0
  0
ARC
  5
F5
100
AcDbEntity
  8
M0
 62
     2
100
AcDbCircle
 10
292.811149
 20
775.155235
 40
1.0
100
AcDbArc
 50
179.999126
 51
269.999126
  0
ARC
  5
F6
100
AcDbEntity
  8
M0
 62
     2
100
AcDbCircle
 10
294.811149
 20
775.155235
 40
1.0
100
AcDbArc
 50
269.999126
 51
360.0
  0
LINE
  5
F7
100
AcDbEntity
  8
M0
 62
     2
100
AcDbLine
 10
232.811151
 20
923.15522
 11
232.811151
 21
920.15522
  0
ARC
  5
F8
100
AcDbEntity
  8
M0
 62
     2
100
AcDbCircle
 10
233.811149
 20
923.15522
 40
1.0
100
AcDbArc
 50
90.0
 51
180.0
  0
LINE
  5
F9
100
AcDbEntity
  8
M0
 62
     2
100
AcDbLine
 10
233.811149
 20
924.15522
 11
235.811149
 21
924.15522
  0
LINE
  5
FA
100
AcDbEntity
  8
M0
 62
     2
100
AcDbLine
 10
236.811149
 20
920.15522
 11
236.811149
 21
923.15522
  0
ARC
  5
FB
100
AcDbEntity
  8
M0
 62
     2
100
AcDbCircle
 10
235.811149
 20
923.15522
 40
1.0
100
AcDbArc
 50
0.0
 51
90.0
  0
LINE
  5
FC
100
AcDbEntity
  8
M0
 62
     2
100
AcDbLine
 10
241.811149
 20
920.15522
 11
241.811149
 21
923.15522
  0
ARC
  5
FD
100
AcDbEntity
  8
M0
 62
     2
100
AcDbCircle
 10
242.811149
 20
923.15522
 40
1.0
100
AcDbArc
 50
90.0
 51
180.0
  0
LINE
  5
FE
100
AcDbEntity
  8
M0
 62
     2
100
AcDbLine
 10
242.811149
 20
924.15522
 11
244.811149
 21
924.15522
  0
LINE
  5
FF
100
AcDbEntity
  8
M0
 62
     2
100
AcDbLine
 10
245.811149
 20
923.15522
 11
245.811149
 21
920.15522
  0
ARC
  5
100
100
AcDbEntity
  8
M0
 62
     2
100
AcDbCircle
 10
244.811149
 20
923.15522
 40
1.0
100
AcDbArc
 50
0.0
 51
90.0
  0
LINE
  5
101
100
AcDbEntity
  8
M0
 62
     2
100
AcDbLine
 10
282.811149
 20
920.15522
 11
282.811149
 21
923.15522
  0
ARC
  5
102
100
AcDbEntity
  8
M0
 62
     2
100
AcDbCircle
 10
283.811149
 20
923.15522
 40
1.0
100
AcDbArc
 50
90.0
 51
180.0
  0
LINE
  5
103
100
AcDbEntity
  8
M0
 62
     2
100
AcDbLine
 10
283.811149
 20
924.15522
 11
285.811149
 21
924.15522
  0
LINE
  5
104
100
AcDbEntity
  8
M0
 62
     2
100
AcDbLine
 10
286.811149
 20
920.15522
 11
286.811149
 21
923.15522
  0
ARC
  5
105
100
AcDbEntity
  8
M0
 62
     2
100
AcDbCircle
 10
285.811149
 20
923.15522
 40
1.0
100
AcDbArc
 50
0.0
 51
90.0
  0
LINE
  5
106
100
AcDbEntity
  8
M0
 62
     2
100
AcDbLine
 10
291.811149
 20
923.15522
 11
291.811149
 21
920.15522
  0
ARC
  5
107
100
AcDbEntity
  8
M0
 62
     2
100
AcDbCircle
 10
292.811149
 20
923.15522
 40
1.0
100
AcDbArc
 50
90.0
 51
180.0
  0
LINE
  5
108
100
AcDbEntity
  8
M0
 62
     2
100
AcDbLine
 10
292.811149
 20
924.15522
 11
294.811149
 21
924.15522
  0
LINE
  5
109
100
AcDbEntity
  8
M0
 62
     2
100
AcDbLine
 10
295.811149
 20
923.15522
 11
295.811149
 21
920.15522
  0
ARC
  5
10A
100
AcDbEntity
  8
M0
 62
     2
100
AcDbCircle
 10
294.811149
 20
923.15522
 40
1.0
100
AcDbArc
 50
0.0
 51
90.0
  0
LINE
  5
10B
100
AcDbEntity
  8
M0
  6
DASHDOT
 62
     2
100
AcDbLine
 10
166.898444
 20
849.155224
 11
364.221244
 21
849.155224
  0
ARC
  5
10C
100
AcDbEntity
  8
M0
 62
     2
100
AcDbCircle
 10
343.811149
 20
929.15522
 40
2.0
100
AcDbArc
 50
0.0
 51
90.0
  0
LINE
  5
10D
100
AcDbEntity
  8
M0
 62
     2
100
AcDbLine
 10
343.811149
 20
931.15522
 11
337.311149
 21
931.15522
  0
ARC
  5
10E
100
AcDbEntity
  8
M0
 62
     2
100
AcDbCircle
 10
184.811164
 20
929.15522
 40
2.0
100
AcDbArc
 50
89.999563
 51
180.0
  0
LINE
  5
10F
100
AcDbEntity
  8
M0
 62
     2
100
AcDbLine
 10
184.811164
 20
931.15522
 11
191.311151
 21
931.15522
  0
LINE
  5
110
100
AcDbEntity
  8
M0
 62
     2
100
AcDbLine
 10
208.311152
 20
920.15522
 11
232.811151
 21
920.15522
  0
LINE
  5
111
100
AcDbEntity
  8
M0
 62
     2
100
AcDbLine
 10
304.611129
 20
926.15522
 11
295.543202
 21
926.15522
  0
LINE
  5
112
100
AcDbEntity
  8
M0
 62
     2
100
AcDbLine
 10
345.811149
 20
769.155235
 11
345.811149
 21
825.355235
  0
ARC
  5
113
100
AcDbEntity
  8
M0
 62
     2
100
AcDbCircle
 10
343.811149
 20
769.155235
 40
2.0
100
AcDbArc
 50
-90.000437
 51
0.0
  0
LINE
  5
114
100
AcDbEntity
  8
M0
 62
     2
100
AcDbLine
 10
343.811149
 20
767.155235
 11
337.311149
 21
767.155235
  0
LINE
  5
115
100
AcDbEntity
  8
M0
 62
     2
100
AcDbLine
 10
208.311152
 20
778.155235
 11
232.811151
 21
778.155235
  0
LINE
  5
116
100
AcDbEntity
  8
M0
 62
     2
100
AcDbLine
 10
182.811164
 20
769.155235
 11
182.811164
 21
929.15522
  0
ARC
  5
117
100
AcDbEntity
  8
M0
 62
     2
100
AcDbCircle
 10
184.811164
 20
769.155235
 40
2.0
100
AcDbArc
 50
179.999563
 51
270.0
  0
LINE
  5
118
100
AcDbEntity
  8
M0
 62
     2
100
AcDbLine
 10
184.811164
 20
767.155235
 11
191.311164
 21
767.155235
  0
LINE
  5
119
100
AcDbEntity
  8
M0
 62
     2
100
AcDbLine
 10
295.811149
 20
778.155235
 11
320.311149
 21
778.155235
  0
LINE
  5
11A
100
AcDbEntity
  8
M0
 62
     2
100
AcDbLine
 10
236.811149
 20
920.15522
 11
241.811149
 21
920.15522
  0
LINE
  5
11B
100
AcDbEntity
  8
M0
 62
     2
100
AcDbLine
 10
245.811149
 20
920.15522
 11
282.811149
 21
920.15522
  0
LINE
  5
11C
100
AcDbEntity
  8
M0
 62
     2
100
AcDbLine
 10
286.811149
 20
920.15522
 11
291.811149
 21
920.15522
  0
LINE
  5
11D
100
AcDbEntity
  8
M0
 62
     2
100
AcDbLine
 10
295.811149
 20
920.15522
 11
320.311149
 21
920.15522
  0
ARC
  5
11E
100
AcDbEntity
  8
M0
 62
     2
100
AcDbCircle
 10
194.311164
 20
777.155235
 40
7.0
100
AcDbArc
 50
81.786915
 51
255.03109
  0
ARC
  5
11F
100
AcDbEntity
  8
M0
 62
     2
100
AcDbCircle
 10
334.311149
 20
921.15522
 40
7.0
100
AcDbArc
 50
261.786789
 51
435.029774
  0
LINE
  5
120
100
AcDbEntity
  8
M0
 62
     2
100
AcDbLine
 10
250.168311
 20
926.15522
 11
245.543202
 21
926.15522
  0
ARC
  5
121
100
AcDbEntity
  8
M0
 62
     2
100
AcDbCircle
 10
334.311149
 20
777.155235
 40
7.0
100
AcDbArc
 50
284.968793
 51
458.213211
  0
ARC
  5
122
100
AcDbEntity
  8
M0
 62
     2
100
AcDbCircle
 10
194.311164
 20
921.15522
 40
7.0
100
AcDbArc
 50
104.970409
 51
279.462186
  0
LINE
  5
123
100
AcDbEntity
  8
M0
 62
     2
100
AcDbLine
 10
345.811149
 20
895.355205
 11
345.811149
 21
929.15522
  0
LINE
  5
124
100
AcDbEntity
  8
M0
 62
     2
100
AcDbLine
 10
182.76126
 20
787.155224
 11
195.311149
 21
787.155224
  0
LINE
  5
125
100
AcDbEntity
  8
M0
 62
     2
100
AcDbLine
 10
182.761377
 20
911.155224
 11
195.311149
 21
911.155224
  0
LINE
  5
126
100
AcDbEntity
  8
M0
 62
     2
100
AcDbLine
 10
333.311149
 20
911.155224
 11
345.761342
 21
911.155224
  0
LINE
  5
127
100
AcDbEntity
  8
M0
 62
     2
100
AcDbLine
 10
333.311149
 20
787.155224
 11
345.761249
 21
787.155224
  0
LINE
  5
128
100
AcDbEntity
  8
M0
 62
     2
100
AcDbLine
 10
283.079096
 20
926.15522
 11
278.453998
 21
926.15522
  0
LINE
  5
129
100
AcDbEntity
  8
M0
 62
     2
100
AcDbLine
 10
233.079096
 20
926.15522
 11
224.011192
 21
926.15522
  0
LINE
  5
12A
100
AcDbEntity
  8
M0
 62
   234
100
AcDbLine
 10
195.31114
 20
886.855221
 11
195.311157
 21
833.855226
  0
LINE
  5
12B
100
AcDbEntity
  8
M0
 62
   234
100
AcDbLine
 10
185.31114
 20
886.855218
 11
195.31114
 21
886.855221
  0
LINE
  5
12C
100
AcDbEntity
  8
M0
 62
   234
100
AcDbLine
 10
185.311157
 20
833.855223
 11
195.311157
 21
833.855226
  0
LINE
  5
12D
100
AcDbEntity
  8
M0
 62
   234
100
AcDbLine
 10
195.311157
 20
833.855226
 11
185.311157
 21
833.855223
  0
LINE
  5
12E
100
AcDbEntity
  8
M0
 62
   234
100
AcDbLine
 10
183.311158
 20
831.355233
 11
183.31114
 21
889.355217
  0
CIRCLE
  5
12F
100
AcDbEntity
  8
M0
 62
   234
100
AcDbCircle
 10
192.311139
 20
891.35522
 40
2.25
  0
LINE
  5
130
100
AcDbEntity
  8
M0
 62
   234
100
AcDbLine
 10
184.81114
 20
889.355218
 11
183.31114
 21
889.355217
  0
ARC
  5
131
100
AcDbEntity
  8
M0
 62
   234
100
AcDbCircle
 10
184.81114
 20
888.855218
 40
0.5
100
AcDbArc
 50
-0.001731
 51
90.0
  0
LINE
  5
132
100
AcDbEntity
  8
M0
 62
   234
100
AcDbLine
 10
187.81114
 20
886.855219
 11
187.811139
 21
891.355219
  0
ARC
  5
133
100
AcDbEntity
  8
M0
 62
   234
100
AcDbCircle
 10
191.811139
 20
891.35522
 40
4.0
100
AcDbArc
 50
90.0
 51
180.000018
  0
LINE
  5
134
100
AcDbEntity
  8
M0
 62
   234
100
AcDbLine
 10
195.311138
 20
895.355221
 11
191.811138
 21
895.35522
  0
LINE
  5
135
100
AcDbEntity
  8
M0
 62
   234
100
AcDbLine
 10
185.311147
 20
865.855218
 11
193.311147
 21
865.85522
  0
LINE
  5
136
100
AcDbEntity
  8
M0
 62
   234
100
AcDbLine
 10
195.31115
 20
856.605225
 11
183.31115
 21
856.605221
  0
LINE
  5
137
100
AcDbEntity
  8
M0
 62
   234
100
AcDbLine
 10
195.311147
 20
864.105225
 11
183.311147
 21
864.105221
  0
LINE
  5
138
100
AcDbEntity
  8
M0
 62
   234
100
AcDbLine
 10
185.31114
 20
888.855218
 11
185.311147
 21
865.855218
  0
LINE
  5
139
100
AcDbEntity
  8
M0
 62
   234
100
AcDbLine
 10
193.31114
 20
886.85522
 11
193.311147
 21
865.85522
  0
LINE
  5
13A
100
AcDbEntity
  8
M0
 62
   234
100
AcDbLine
 10
193.31115
 20
854.855224
 11
193.311157
 21
833.855225
  0
LINE
  5
13B
100
AcDbEntity
  8
M0
 62
   234
100
AcDbLine
 10
187.311147
 20
864.105222
 11
187.311148
 21
863.105222
  0
LINE
  5
13C
100
AcDbEntity
  8
M0
 62
   234
100
AcDbLine
 10
184.311148
 20
863.105221
 11
187.311148
 21
863.105222
  0
LINE
  5
13D
100
AcDbEntity
  8
M0
 62
   234
100
AcDbLine
 10
184.311147
 20
864.105221
 11
184.31115
 21
856.605221
  0
LINE
  5
13E
100
AcDbEntity
  8
M0
 62
   234
100
AcDbLine
 10
184.31115
 20
857.605221
 11
187.31115
 21
857.605222
  0
LINE
  5
13F
100
AcDbEntity
  8
M0
 62
   234
100
AcDbLine
 10
187.31115
 20
857.605222
 11
187.31115
 21
856.605222
  0
LINE
  5
140
100
AcDbEntity
  8
M0
 62
   234
100
AcDbLine
 10
191.811148
 20
863.105224
 11
191.81115
 21
857.605224
  0
LINE
  5
141
100
AcDbEntity
  8
M0
 62
   234
100
AcDbLine
 10
190.311147
 20
864.105223
 11
190.31115
 21
856.605223
  0
LINE
  5
142
100
AcDbEntity
  8
M0
 62
   234
100
AcDbLine
 10
190.31115
 20
857.605223
 11
195.31115
 21
857.605225
  0
LINE
  5
143
100
AcDbEntity
  8
M0
 62
   234
100
AcDbLine
 10
190.311148
 20
863.105223
 11
195.311148
 21
863.105225
  0
LINE
  5
144
100
AcDbEntity
  8
M0
 62
   234
100
AcDbLine
 10
187.811157
 20
833.855223
 11
187.811158
 21
829.355234
  0
ARC
  5
145
100
AcDbEntity
  8
M0
 62
   234
100
AcDbCircle
 10
191.811158
 20
829.355235
 40
4.0
100
AcDbArc
 50
179.999799
 51
270.0
  0
LINE
  5
146
100
AcDbEntity
  8
M0
 62
   234
100
AcDbLine
 10
195.31116
 20
825.355236
 11
191.81116
 21
825.355235
  0
ARC
  5
147
100
AcDbEntity
  8
M0
 62
   234
100
AcDbCircle
 10
184.811158
 20
831.855233
 40
0.5
100
AcDbArc
 50
270.0
 51
360.000018
  0
LINE
  5
148
100
AcDbEntity
  8
M0
 62
   234
100
AcDbLine
 10
184.811158
 20
831.355233
 11
183.311158
 21
831.355233
  0
LINE
  5
149
100
AcDbEntity
  8
M0
 62
   234
100
AcDbLine
 10
185.31115
 20
854.855222
 11
185.311158
 21
831.855233
  0
LINE
  5
14A
100
AcDbEntity
  8
M0
 62
   234
100
AcDbLine
 10
185.31115
 20
854.855222
 11
193.31115
 21
854.855224
  0
LINE
  5
14B
100
AcDbEntity
  8
M0
100
AcDbLine
 10
249.311149
 20
739.154981
 11
251.811149
 21
739.154981
  0
LINE
  5
14C
100
AcDbEntity
  8
M0
100
AcDbLine
 10
251.311149
 20
778.155052
 11
251.311149
 21
776.154976
  0
LINE
  5
14D
100
AcDbEntity
  8
M0
100
AcDbLine
 10
277.311149
 20
776.154976
 11
277.311149
 21
778.155052
  0
LINE
  5
14E
100
AcDbEntity
  8
M0
100
AcDbLine
 10
249.311149
 20
769.154976
 11
251.311149
 21
776.154976
  0
LINE
  5
14F
100
AcDbEntity
  8
M0
100
AcDbLine
 10
249.311149
 20
739.154981
 11
249.311149
 21
769.154976
  0
LINE
  5
150
100
AcDbEntity
  8
M0
100
AcDbLine
 10
279.311149
 20
739.154981
 11
279.311149
 21
769.154976
  0
LINE
  5
151
100
AcDbEntity
  8
M0
100
AcDbLine
 10
277.311149
 20
776.154976
 11
279.311149
 21
769.154976
  0
CIRCLE
  5
152
100
AcDbEntity
  8
M0
100
AcDbCircle
 10
264.311149
 20
754.15498
 40
6.0
  0
LINE
  5
153
100
AcDbEntity
  8
M0
  6
DASHDOT
100
AcDbLine
 10
244.644482
 20
754.15498
 11
283.977815
 21
754.15498
  0
LINE
  5
154
100
AcDbEntity
  8
M0
100
AcDbLine
 10
276.811149
 20
739.154981
 11
279.311149
 21
739.154981
  0
LINE
  5
155
100
AcDbEntity
  8
M0
100
AcDbLine
 10
337.311149
 20
739.154981
 11
337.311149
 21
769.154976
  0
LINE
  5
156
100
AcDbEntity
  8
M0
100
AcDbLine
 10
307.311149
 20
769.154976
 11
307.311149
 21
739.154981
  0
LINE
  5
157
100
AcDbEntity
  8
M0
100
AcDbLine
 10
307.311149
 20
739.154981
 11
309.811149
 21
739.154981
  0
LINE
  5
158
100
AcDbEntity
  8
M0
100
AcDbLine
 10
307.311149
 20
769.154976
 11
299.211066
 21
778.155052
  0
LINE
  5
159
100
AcDbEntity
  8
M0
100
AcDbLine
 10
337.311149
 20
769.154976
 11
328.644401
 21
778.155052
  0
CIRCLE
  5
15A
100
AcDbEntity
  8
M0
100
AcDbCircle
 10
322.311149
 20
754.15498
 40
6.0
  0
LINE
  5
15B
100
AcDbEntity
  8
M0
  6
DASHDOT
100
AcDbLine
 10
302.644482
 20
754.15498
 11
341.977815
 21
754.15498
  0
LINE
  5
15C
100
AcDbEntity
  8
M0
  6
DASHDOT
100
AcDbLine
 10
322.311149
 20
734.488313
 11
322.311149
 21
773.821646
  0
LINE
  5
15D
100
AcDbEntity
  8
M0
100
AcDbLine
 10
334.811149
 20
739.154981
 11
337.311149
 21
739.154981
  0
LINE
  5
15E
100
AcDbEntity
  8
M0
 62
     6
100
AcDbLine
 10
322.311149
 20
743.204933
 11
312.828238
 21
748.679939
  0
LINE
  5
15F
100
AcDbEntity
  8
M0
 62
     6
100
AcDbLine
 10
312.828238
 20
748.679939
 11
312.828238
 21
759.629921
  0
LINE
  5
160
100
AcDbEntity
  8
M0
 62
     6
100
AcDbLine
 10
312.828238
 20
759.629921
 11
322.311149
 21
765.104927
  0
LINE
  5
161
100
AcDbEntity
  8
M0
 62
     6
100
AcDbLine
 10
322.311149
 20
765.104927
 11
331.794303
 21
759.629921
  0
LINE
  5
162
100
AcDbEntity
  8
M0
 62
     6
100
AcDbLine
 10
331.794303
 20
759.629921
 11
331.794303
 21
748.679909
  0
LINE
  5
163
100
AcDbEntity
  8
M0
 62
     6
100
AcDbLine
 10
331.794303
 20
748.679909
 11
322.311149
 21
743.204933
  0
CIRCLE
  5
164
100
AcDbEntity
  8
M0
 62
     6
100
AcDbCircle
 10
322.311149
 20
754.154915
 40
6.0
  0
LINE
  5
165
100
AcDbEntity
  8
M0
 62
     6
100
AcDbLine
 10
264.311149
 20
743.204933
 11
254.828238
 21
748.679939
  0
LINE
  5
166
100
AcDbEntity
  8
M0
 62
     6
100
AcDbLine
 10
254.828238
 20
748.679939
 11
254.828238
 21
759.629921
  0
LINE
  5
167
100
AcDbEntity
  8
M0
 62
     6
100
AcDbLine
 10
254.828238
 20
759.629921
 11
264.311149
 21
765.104927
  0
LINE
  5
168
100
AcDbEntity
  8
M0
 62
     6
100
AcDbLine
 10
264.311149
 20
765.104927
 11
273.794303
 21
759.629921
  0
LINE
  5
169
100
AcDbEntity
  8
M0
 62
     6
100
AcDbLine
 10
273.794303
 20
759.629921
 11
273.794303
 21
748.679909
  0
LINE
  5
16A
100
AcDbEntity
  8
M0
 62
     6
100
AcDbLine
 10
273.794303
 20
748.679909
 11
264.311149
 21
743.204933
  0
CIRCLE
  5
16B
100
AcDbEntity
  8
M0
 62
     6
100
AcDbCircle
 10
264.311149
 20
754.154915
 40
6.0
  0
LINE
  5
16C
100
AcDbEntity
  8
M0
100
AcDbLine
 10
221.311149
 20
739.154981
 11
218.811149
 21
739.154981
  0
LINE
  5
16D
100
AcDbEntity
  8
M0
100
AcDbLine
 10
191.311149
 20
739.154981
 11
191.311149
 21
769.154976
  0
LINE
  5
16E
100
AcDbEntity
  8
M0
100
AcDbLine
 10
221.311149
 20
769.154976
 11
221.311149
 21
739.154981
  0
LINE
  5
16F
100
AcDbEntity
  8
M0
100
AcDbLine
 10
193.811149
 20
739.154981
 11
191.311149
 21
739.154981
  0
LINE
  5
170
100
AcDbEntity
  8
M0
100
AcDbLine
 10
221.311149
 20
769.154976
 11
229.411216
 21
778.155052
  0
LINE
  5
171
100
AcDbEntity
  8
M0
100
AcDbLine
 10
191.311149
 20
769.154976
 11
199.977881
 21
778.155052
  0
CIRCLE
  5
172
100
AcDbEntity
  8
M0
100
AcDbCircle
 10
206.311149
 20
754.15498
 40
6.0
  0
LINE
  5
173
100
AcDbEntity
  8
M0
  6
DASHDOT
100
AcDbLine
 10
186.644482
 20
754.15498
 11
225.977815
 21
754.15498
  0
LINE
  5
174
100
AcDbEntity
  8
M0
  6
DASHDOT
100
AcDbLine
 10
206.311149
 20
734.488313
 11
206.311149
 21
773.821646
  0
LINE
  5
175
100
AcDbEntity
  8
M0
 62
     6
100
AcDbLine
 10
206.311149
 20
743.204933
 11
215.794059
 21
748.679939
  0
LINE
  5
176
100
AcDbEntity
  8
M0
 62
     6
100
AcDbLine
 10
215.794059
 20
748.679939
 11
215.794059
 21
759.629921
  0
LINE
  5
177
100
AcDbEntity
  8
M0
 62
     6
100
AcDbLine
 10
215.794059
 20
759.629921
 11
206.311149
 21
765.104927
  0
LINE
  5
178
100
AcDbEntity
  8
M0
 62
     6
100
AcDbLine
 10
206.311149
 20
765.104927
 11
196.827994
 21
759.629921
  0
LINE
  5
179
100
AcDbEntity
  8
M0
 62
     6
100
AcDbLine
 10
196.827994
 20
759.629921
 11
196.827994
 21
748.679909
  0
LINE
  5
17A
100
AcDbEntity
  8
M0
 62
     6
100
AcDbLine
 10
196.827994
 20
748.679909
 11
206.311149
 21
743.204933
  0
CIRCLE
  5
17B
100
AcDbEntity
  8
M0
 62
     6
100
AcDbCircle
 10
206.311149
 20
754.154915
 40
6.0
  0
LINE
  5
17C
100
AcDbEntity
  8
M0
100
AcDbLine
 10
221.311132
 20
959.155259
 11
204.311132
 21
959.155248
  0
LINE
  5
17D
100
AcDbEntity
  8
M0
100
AcDbLine
 10
191.311132
 20
959.15524
 11
191.311151
 21
929.155245
  0
LINE
  5
17E
100
AcDbEntity
  8
M0
100
AcDbLine
 10
221.311151
 20
929.155263
 11
221.311132
 21
959.155259
  0
LINE
  5
17F
100
AcDbEntity
  8
M0
100
AcDbLine
 10
221.311132
 20
959.155259
 11
191.311132
 21
959.15524
  0
LINE
  5
180
100
AcDbEntity
  8
M0
100
AcDbLine
 10
221.311151
 20
929.155263
 11
229.411224
 21
920.155188
  0
LINE
  5
181
100
AcDbEntity
  8
M0
100
AcDbLine
 10
191.311151
 20
929.155245
 11
199.97789
 21
920.15517
  0
CIRCLE
  5
182
100
AcDbEntity
  8
M0
100
AcDbCircle
 10
206.311142
 20
944.155253
 40
6.0
  0
LINE
  5
183
100
AcDbEntity
  8
M0
  6
DASHDOT
100
AcDbLine
 10
186.644475
 20
944.155253
 11
225.977808
 21
944.155253
  0
LINE
  5
184
100
AcDbEntity
  8
M0
  6
DASHDOT
100
AcDbLine
 10
206.311142
 20
924.488587
 11
206.311142
 21
963.821919
  0
LINE
  5
185
100
AcDbEntity
  8
M0
100
AcDbLine
 10
307.311132
 20
959.15524
 11
324.311132
 21
959.15525
  0
LINE
  5
186
100
AcDbEntity
  8
M0
100
AcDbLine
 10
337.311132
 20
959.155259
 11
337.311151
 21
929.155263
  0
LINE
  5
187
100
AcDbEntity
  8
M0
100
AcDbLine
 10
307.311151
 20
929.155245
 11
307.311132
 21
959.15524
  0
LINE
  5
188
100
AcDbEntity
  8
M0
100
AcDbLine
 10
307.311132
 20
959.15524
 11
337.311132
 21
959.155259
  0
LINE
  5
189
100
AcDbEntity
  8
M0
100
AcDbLine
 10
307.311151
 20
929.155245
 11
299.211074
 21
920.155159
  0
LINE
  5
18A
100
AcDbEntity
  8
M0
100
AcDbLine
 10
337.311151
 20
929.155263
 11
328.644409
 21
920.155178
  0
CIRCLE
  5
18B
100
AcDbEntity
  8
M0
100
AcDbCircle
 10
322.311142
 20
944.155253
 40
6.0
  0
LINE
  5
18C
100
AcDbEntity
  8
M0
  6
DASHDOT
100
AcDbLine
 10
302.644475
 20
944.155253
 11
341.977808
 21
944.155253
  0
LINE
  5
18D
100
AcDbEntity
  8
M0
 62
     6
100
AcDbLine
 10
322.311199
 20
955.105307
 11
312.828292
 21
949.630295
  0
LINE
  5
18E
100
AcDbEntity
  8
M0
 62
     6
100
AcDbLine
 10
312.828292
 20
949.630295
 11
312.828299
 21
938.680313
  0
LINE
  5
18F
100
AcDbEntity
  8
M0
 62
     6
100
AcDbLine
 10
312.828299
 20
938.680313
 11
322.311212
 21
933.205313
  0
LINE
  5
190
100
AcDbEntity
  8
M0
 62
     6
100
AcDbLine
 10
322.311212
 20
933.205313
 11
331.794363
 21
938.680325
  0
LINE
  5
191
100
AcDbEntity
  8
M0
 62
     6
100
AcDbLine
 10
331.794363
 20
938.680325
 11
331.794356
 21
949.630338
  0
LINE
  5
192
100
AcDbEntity
  8
M0
 62
     6
100
AcDbLine
 10
331.794356
 20
949.630338
 11
322.311199
 21
955.105307
  0
CIRCLE
  5
193
100
AcDbEntity
  8
M0
 62
     6
100
AcDbCircle
 10
322.311205
 20
944.155325
 40
6.0
  0
LINE
  5
194
100
AcDbEntity
  8
M0
 62
     6
100
AcDbLine
 10
264.311199
 20
955.105307
 11
254.828292
 21
949.630295
  0
LINE
  5
195
100
AcDbEntity
  8
M0
 62
     6
100
AcDbLine
 10
254.828292
 20
949.630295
 11
254.828299
 21
938.680313
  0
LINE
  5
196
100
AcDbEntity
  8
M0
 62
     6
100
AcDbLine
 10
254.828299
 20
938.680313
 11
264.311212
 21
933.205313
  0
LINE
  5
197
100
AcDbEntity
  8
M0
 62
     6
100
AcDbLine
 10
264.311212
 20
933.205313
 11
273.794363
 21
938.680325
  0
LINE
  5
198
100
AcDbEntity
  8
M0
 62
     6
100
AcDbLine
 10
273.794363
 20
938.680325
 11
273.794356
 21
949.630338
  0
LINE
  5
199
100
AcDbEntity
  8
M0
 62
     6
100
AcDbLine
 10
273.794356
 20
949.630338
 11
264.311199
 21
955.105307
  0
CIRCLE
  5
19A
100
AcDbEntity
  8
M0
 62
     6
100
AcDbCircle
 10
264.311205
 20
944.155325
 40
6.0
  0
LINE
  5
19B
100
AcDbEntity
  8
M0
 62
     6
100
AcDbLine
 10
206.311199
 20
955.105307
 11
215.794112
 21
949.630307
  0
LINE
  5
19C
100
AcDbEntity
  8
M0
 62
     6
100
AcDbLine
 10
215.794112
 20
949.630307
 11
215.794119
 21
938.680325
  0
LINE
  5
19D
100
AcDbEntity
  8
M0
 62
     6
100
AcDbLine
 10
215.794119
 20
938.680325
 11
206.311212
 21
933.205313
  0
LINE
  5
19E
100
AcDbEntity
  8
M0
 62
     6
100
AcDbLine
 10
206.311212
 20
933.205313
 11
196.828055
 21
938.680313
  0
LINE
  5
19F
100
AcDbEntity
  8
M0
 62
     6
100
AcDbLine
 10
196.828055
 20
938.680313
 11
196.828048
 21
949.630326
  0
LINE
  5
1A0
100
AcDbEntity
  8
M0
 62
     6
100
AcDbLine
 10
196.828048
 20
949.630326
 11
206.311199
 21
955.105307
  0
CIRCLE
  5
1A1
100
AcDbEntity
  8
M0
 62
     6
100
AcDbCircle
 10
206.311205
 20
944.155325
 40
6.0
  0
LINE
  5
1A2
100
AcDbEntity
  8
M0
 62
    74
100
AcDbLine
 10
359.311172
 20
903.155225
 11
359.311167
 21
888.155225
  0
LINE
  5
1A3
100
AcDbEntity
  8
M0
 62
    74
100
AcDbLine
 10
368.311172
 20
903.155222
 11
368.311167
 21
888.155222
  0
LINE
  5
1A4
100
AcDbEntity
  8
M0
 62
    74
100
AcDbLine
 10
359.811167
 20
888.155225
 11
359.81116
 21
866.655225
  0
LINE
  5
1A5
100
AcDbEntity
  8
M0
 62
    74
100
AcDbLine
 10
367.811167
 20
888.155223
 11
367.81116
 21
866.655223
  0
LINE
  5
1A6
100
AcDbEntity
  8
M0
 62
    74
100
AcDbLine
 10
357.811172
 20
903.155226
 11
369.811172
 21
903.155222
  0
LINE
  5
1A7
100
AcDbEntity
  8
M0
 62
    74
100
AcDbLine
 10
357.811169
 20
893.155226
 11
359.311169
 21
893.155225
  0
LINE
  5
1A8
100
AcDbEntity
  8
M0
 62
    74
100
AcDbLine
 10
368.311169
 20
893.155222
 11
369.811169
 21
893.155222
  0
LINE
  5
1A9
100
AcDbEntity
  8
M0
 62
    74
100
AcDbLine
 10
359.311167
 20
888.155225
 11
359.811167
 21
888.155225
  0
LINE
  5
1AA
100
AcDbEntity
  8
M0
 62
    74
100
AcDbLine
 10
367.811167
 20
888.155223
 11
368.311167
 21
888.155222
  0
LINE
  5
1AB
100
AcDbEntity
  8
M0
 62
    74
100
AcDbLine
 10
369.811161
 20
869.155222
 11
369.811172
 21
903.155222
  0
LINE
  5
1AC
100
AcDbEntity
  8
M0
 62
    74
100
AcDbLine
 10
369.811161
 20
869.155222
 11
369.611164
 21
869.155222
  0
LINE
  5
1AD
100
AcDbEntity
  8
M0
 62
    74
100
AcDbLine
 10
357.81116
 20
866.655226
 11
369.611163
 21
866.655222
  0
LINE
  5
1AE
100
AcDbEntity
  8
M0
 62
    74
100
AcDbLine
 10
368.611161
 20
860.155222
 11
368.611162
 21
863.155222
  0
LINE
  5
1AF
100
AcDbEntity
  8
M0
 62
    74
100
AcDbLine
 10
369.611162
 20
863.155222
 11
368.611162
 21
863.155222
  0
LINE
  5
1B0
100
AcDbEntity
  8
M0
 62
    74
100
AcDbLine
 10
369.611162
 20
861.905222
 11
368.611162
 21
861.905222
  0
LINE
  5
1B1
100
AcDbEntity
  8
M0
 62
    74
100
AcDbLine
 10
369.611164
 20
869.155222
 11
369.611162
 21
861.905222
  0
LINE
  5
1B2
100
AcDbEntity
  8
M0
 62
    74
100
AcDbLine
 10
357.811158
 20
860.155226
 11
357.811172
 21
903.155226
  0
LINE
  5
1B3
100
AcDbEntity
  8
M0
 62
    74
100
AcDbLine
 10
359.31117
 20
896.155225
 11
368.31117
 21
896.155222
  0
LINE
  5
1B4
100
AcDbEntity
  8
M0
 62
    74
100
AcDbLine
 10
359.811162
 20
871.155225
 11
367.811162
 21
871.155223
  0
LINE
  5
1B5
100
AcDbEntity
  8
M0
 62
    74
100
AcDbLine
 10
359.311145
 20
817.155225
 11
359.311149
 21
832.155225
  0
LINE
  5
1B6
100
AcDbEntity
  8
M0
 62
    74
100
AcDbLine
 10
368.311145
 20
817.155222
 11
368.311149
 21
832.155222
  0
LINE
  5
1B7
100
AcDbEntity
  8
M0
 62
    74
100
AcDbLine
 10
359.811149
 20
832.155225
 11
359.811156
 21
853.655225
  0
LINE
  5
1B8
100
AcDbEntity
  8
M0
 62
    74
100
AcDbLine
 10
367.811149
 20
832.155223
 11
367.811156
 21
853.655223
  0
LINE
  5
1B9
100
AcDbEntity
  8
M0
 62
    74
100
AcDbLine
 10
357.811145
 20
817.155226
 11
369.811145
 21
817.155222
  0
LINE
  5
1BA
100
AcDbEntity
  8
M0
 62
    74
100
AcDbLine
 10
357.811148
 20
827.155226
 11
359.311148
 21
827.155225
  0
LINE
  5
1BB
100
AcDbEntity
  8
M0
 62
    74
100
AcDbLine
 10
368.311148
 20
827.155222
 11
369.811148
 21
827.155222
  0
LINE
  5
1BC
100
AcDbEntity
  8
M0
 62
    74
100
AcDbLine
 10
359.311149
 20
832.155225
 11
359.811149
 21
832.155225
  0
LINE
  5
1BD
100
AcDbEntity
  8
M0
 62
    74
100
AcDbLine
 10
367.811149
 20
832.155223
 11
368.311149
 21
832.155222
  0
LINE
  5
1BE
100
AcDbEntity
  8
M0
 62
    74
100
AcDbLine
 10
369.811155
 20
851.155222
 11
369.811145
 21
817.155222
  0
LINE
  5
1BF
100
AcDbEntity
  8
M0
 62
    74
100
AcDbLine
 10
369.811155
 20
851.155222
 11
369.611159
 21
851.155222
  0
LINE
  5
1C0
100
AcDbEntity
  8
M0
 62
    74
100
AcDbLine
 10
357.811156
 20
853.655226
 11
369.611159
 21
853.655222
  0
LINE
  5
1C1
100
AcDbEntity
  8
M0
 62
    74
100
AcDbLine
 10
368.611161
 20
860.155222
 11
368.61116
 21
857.155222
  0
LINE
  5
1C2
100
AcDbEntity
  8
M0
 62
    74
100
AcDbLine
 10
369.61116
 20
857.155222
 11
368.61116
 21
857.155222
  0
LINE
  5
1C3
100
AcDbEntity
  8
M0
 62
    74
100
AcDbLine
 10
369.611161
 20
858.405222
 11
368.611161
 21
858.405222
  0
LINE
  5
1C4
100
AcDbEntity
  8
M0
 62
    74
100
AcDbLine
 10
369.611159
 20
851.155222
 11
369.611161
 21
858.405222
  0
LINE
  5
1C5
100
AcDbEntity
  8
M0
 62
    74
100
AcDbLine
 10
357.811158
 20
860.155226
 11
357.811145
 21
817.155226
  0
LINE
  5
1C6
100
AcDbEntity
  8
M0
 62
    74
100
AcDbLine
 10
359.311147
 20
824.155225
 11
368.311147
 21
824.155222
  0
LINE
  5
1C7
100
AcDbEntity
  8
M0
 62
    74
100
AcDbLine
 10
359.811155
 20
849.155225
 11
367.811155
 21
849.155223
  0
LINE
  5
1C8
100
AcDbEntity
  8
M0
 62
    74
100
AcDbLine
 10
359.81115
 20
834.655225
 11
367.81115
 21
834.655223
  0
LINE
  5
1C9
100
AcDbEntity
  8
M0
 62
    74
100
AcDbLine
 10
359.811166
 20
885.655225
 11
367.811166
 21
885.655223
  0
LINE
  5
1CA
100
AcDbEntity
  8
M0
 62
   234
100
AcDbLine
 10
345.311158
 20
886.855221
 11
345.311141
 21
833.855226
  0
LINE
  5
1CB
100
AcDbEntity
  8
M0
 62
   234
100
AcDbLine
 10
355.311158
 20
886.855218
 11
345.311158
 21
886.855221
  0
LINE
  5
1CC
100
AcDbEntity
  8
M0
 62
   234
100
AcDbLine
 10
355.311141
 20
833.855223
 11
345.311141
 21
833.855226
  0
LINE
  5
1CD
100
AcDbEntity
  8
M0
 62
   234
100
AcDbLine
 10
345.311141
 20
833.855226
 11
355.311141
 21
833.855223
  0
LINE
  5
1CE
100
AcDbEntity
  8
M0
 62
   234
100
AcDbLine
 10
357.31114
 20
831.355233
 11
357.311158
 21
889.355217
  0
CIRCLE
  5
1CF
100
AcDbEntity
  8
M0
 62
   234
100
AcDbCircle
 10
348.311159
 20
891.35522
 40
2.25
  0
LINE
  5
1D0
100
AcDbEntity
  8
M0
 62
   234
100
AcDbLine
 10
355.811158
 20
889.355218
 11
357.311158
 21
889.355217
  0
ARC
  5
1D1
100
AcDbEntity
  8
M0
 62
   234
100
AcDbCircle
 10
355.811158
 20
888.855218
 40
0.5
100
AcDbArc
 50
90.0
 51
179.999982
  0
LINE
  5
1D2
100
AcDbEntity
  8
M0
 62
   234
100
AcDbLine
 10
352.811158
 20
886.855219
 11
352.811159
 21
891.355219
  0
ARC
  5
1D3
100
AcDbEntity
  8
M0
 62
   234
100
AcDbCircle
 10
348.811159
 20
891.35522
 40
4.0
100
AcDbArc
 50
359.999763
 51
450.0
  0
LINE
  5
1D4
100
AcDbEntity
  8
M0
 62
   234
100
AcDbLine
 10
340.81116
 20
895.355222
 11
348.81116
 21
895.35522
  0
LINE
  5
1D5
100
AcDbEntity
  8
M0
 62
   234
100
AcDbLine
 10
355.311151
 20
865.855218
 11
347.311151
 21
865.85522
  0
LINE
  5
1D6
100
AcDbEntity
  8
M0
 62
   234
100
AcDbLine
 10
345.311148
 20
856.605225
 11
357.311148
 21
856.605221
  0
LINE
  5
1D7
100
AcDbEntity
  8
M0
 62
   234
100
AcDbLine
 10
345.31115
 20
864.105225
 11
357.31115
 21
864.105221
  0
LINE
  5
1D8
100
AcDbEntity
  8
M0
 62
   234
100
AcDbLine
 10
355.311158
 20
888.855218
 11
355.311151
 21
865.855218
  0
LINE
  5
1D9
100
AcDbEntity
  8
M0
 62
   234
100
AcDbLine
 10
347.311158
 20
886.85522
 11
347.311151
 21
865.85522
  0
LINE
  5
1DA
100
AcDbEntity
  8
M0
 62
   234
100
AcDbLine
 10
347.311147
 20
854.855224
 11
347.311141
 21
833.855225
  0
LINE
  5
1DB
100
AcDbEntity
  8
M0
 62
   234
100
AcDbLine
 10
353.31115
 20
864.105222
 11
353.31115
 21
863.105222
  0
LINE
  5
1DC
100
AcDbEntity
  8
M0
 62
   234
100
AcDbLine
 10
356.31115
 20
863.105221
 11
353.31115
 21
863.105222
  0
LINE
  5
1DD
100
AcDbEntity
  8
M0
 62
   234
100
AcDbLine
 10
356.31115
 20
864.105221
 11
356.311148
 21
856.605221
  0
LINE
  5
1DE
100
AcDbEntity
  8
M0
 62
   234
100
AcDbLine
 10
356.311148
 20
857.605221
 11
353.311148
 21
857.605222
  0
LINE
  5
1DF
100
AcDbEntity
  8
M0
 62
   234
100
AcDbLine
 10
353.311148
 20
857.605222
 11
353.311148
 21
856.605222
  0
LINE
  5
1E0
100
AcDbEntity
  8
M0
 62
   234
100
AcDbLine
 10
348.81115
 20
863.105224
 11
348.811148
 21
857.605224
  0
LINE
  5
1E1
100
AcDbEntity
  8
M0
 62
   234
100
AcDbLine
 10
350.31115
 20
864.105223
 11
350.311148
 21
856.605223
  0
LINE
  5
1E2
100
AcDbEntity
  8
M0
 62
   234
100
AcDbLine
 10
350.311148
 20
857.605223
 11
345.311148
 21
857.605225
  0
LINE
  5
1E3
100
AcDbEntity
  8
M0
 62
   234
100
AcDbLine
 10
350.31115
 20
863.105223
 11
345.31115
 21
863.105225
  0
LINE
  5
1E4
100
AcDbEntity
  8
M0
 62
   234
100
AcDbLine
 10
352.811141
 20
833.855223
 11
352.811139
 21
829.355234
  0
ARC
  5
1E5
100
AcDbEntity
  8
M0
 62
   234
100
AcDbCircle
 10
348.811139
 20
829.355235
 40
4.0
100
AcDbArc
 50
269.999763
 51
359.999982
  0
LINE
  5
1E6
100
AcDbEntity
  8
M0
 62
   234
100
AcDbLine
 10
340.81116
 20
825.355255
 11
348.811138
 21
825.355235
  0
CIRCLE
  5
1E7
100
AcDbEntity
  8
M0
 62
   234
100
AcDbCircle
 10
348.311139
 20
829.355235
 40
2.25
  0
ARC
  5
1E8
100
AcDbEntity
  8
M0
 62
   234
100
AcDbCircle
 10
355.81114
 20
831.855233
 40
0.5
100
AcDbArc
 50
179.998233
 51
269.998233
  0
LINE
  5
1E9
100
AcDbEntity
  8
M0
 62
   234
100
AcDbLine
 10
355.81114
 20
831.355233
 11
357.31114
 21
831.355233
  0
LINE
  5
1EA
100
AcDbEntity
  8
M0
 62
   234
100
AcDbLine
 10
355.311147
 20
854.855222
 11
355.31114
 21
831.855233
  0
LINE
  5
1EB
100
AcDbEntity
  8
M0
 62
   234
100
AcDbLine
 10
355.311147
 20
854.855222
 11
347.311147
 21
854.855224
  0
LINE
  5
1EC
100
AcDbEntity
  8
M0
 62
   234
100
AcDbLine
 10
340.81116
 20
895.355222
 11
340.811158
 21
886.855219
  0
LINE
  5
1ED
100
AcDbEntity
  8
M0
 62
   234
100
AcDbLine
 10
340.81116
 20
825.355225
 11
340.811158
 21
833.855229
  0
LINE
  5
1EE
100
AcDbEntity
  8
M0
 62
   114
100
AcDbLine
 10
335.159739
 20
777.15516
 11
338.423451
 21
780.418871
  0
LINE
  5
1EF
100
AcDbEntity
  8
M0
 62
   114
100
AcDbLine
 10
332.331119
 20
774.32654
 11
334.311213
 21
776.306634
  0
LINE
  5
1F0
100
AcDbEntity
  8
M0
 62
   114
100
AcDbLine
 10
333.46273
 20
777.155117
 11
331.498645
 21
775.191031
  0
LINE
  5
1F1
100
AcDbEntity
  8
M0
 62
   114
100
AcDbLine
 10
337.574979
 20
781.267386
 11
334.311256
 21
778.003643
  0
LINE
  5
1F2
100
AcDbEntity
  8
M0
 62
   114
100
AcDbLine
 10
334.311246
 20
778.003653
 11
332.543479
 21
779.77142
  0
LINE
  5
1F3
100
AcDbEntity
  8
M0
 62
   114
100
AcDbLine
 10
336.927506
 20
775.387393
 11
335.159739
 21
777.15516
  0
LINE
  5
1F4
100
AcDbEntity
  8
M0
 62
   114
100
AcDbLine
 10
334.311213
 20
776.306634
 11
336.07898
 21
774.538867
  0
LINE
  5
1F5
100
AcDbEntity
  8
M0
 62
   114
100
AcDbLine
 10
331.694953
 20
778.922894
 11
333.46272
 21
777.155127
  0
LINE
  5
1F6
100
AcDbEntity
  8
M0
 62
   114
100
AcDbLine
 10
336.07898
 20
774.538867
 11
336.927506
 21
775.387393
  0
LINE
  5
1F7
100
AcDbEntity
  8
M0
 62
   114
100
AcDbLine
 10
332.543479
 20
779.77142
 11
331.694953
 21
778.922894
  0
ARC
  5
1F8
100
AcDbEntity
  8
M0
 62
   114
100
AcDbCircle
 10
334.311149
 20
777.155235
 40
5.75
100
AcDbArc
 50
277.813215
 51
460.132308
  0
ARC
  5
1F9
100
AcDbEntity
  8
M0
 62
   114
100
AcDbCircle
 10
334.311149
 20
777.155235
 40
5.25
100
AcDbArc
 50
273.723338
 51
461.812432
  0
LINE
  5
1FA
100
AcDbEntity
  8
M0
 62
   114
100
AcDbLine
 10
335.159739
 20
921.155144
 11
338.423451
 21
924.418856
  0
LINE
  5
1FB
100
AcDbEntity
  8
M0
 62
   114
100
AcDbLine
 10
332.245461
 20
918.240866
 11
334.311213
 21
920.306618
  0
LINE
  5
1FC
100
AcDbEntity
  8
M0
 62
   114
100
AcDbLine
 10
333.46273
 20
921.155101
 11
331.397
 21
919.089371
  0
LINE
  5
1FD
100
AcDbEntity
  8
M0
 62
   114
100
AcDbLine
 10
337.574979
 20
925.267371
 11
334.311256
 21
922.003627
  0
LINE
  5
1FE
100
AcDbEntity
  8
M0
 62
   114
100
AcDbLine
 10
334.311246
 20
922.003638
 11
332.543479
 21
923.771405
  0
LINE
  5
1FF
100
AcDbEntity
  8
M0
 62
   114
100
AcDbLine
 10
336.927506
 20
919.387377
 11
335.159739
 21
921.155144
  0
LINE
  5
200
100
AcDbEntity
  8
M0
 62
   114
100
AcDbLine
 10
334.311213
 20
920.306618
 11
336.07898
 21
918.538851
  0
LINE
  5
201
100
AcDbEntity
  8
M0
 62
   114
100
AcDbLine
 10
331.694953
 20
922.922879
 11
333.46272
 21
921.155112
  0
LINE
  5
202
100
AcDbEntity
  8
M0
 62
   114
100
AcDbLine
 10
336.07898
 20
918.538851
 11
336.927506
 21
919.387377
  0
LINE
  5
203
100
AcDbEntity
  8
M0
 62
   114
100
AcDbLine
 10
332.543479
 20
923.771405
 11
331.694953
 21
922.922879
  0
ARC
  5
204
100
AcDbEntity
  8
M0
 62
   114
100
AcDbCircle
 10
334.311149
 20
921.15522
 40
5.25
100
AcDbArc
 50
258.187553
 51
446.274448
  0
ARC
  5
205
100
AcDbEntity
  8
M0
 62
   114
100
AcDbCircle
 10
334.311149
 20
921.15522
 40
5.75
100
AcDbArc
 50
259.867687
 51
442.18488
  0
LINE
  5
206
100
AcDbEntity
  8
M0
 62
   114
100
AcDbLine
 10
195.159755
 20
921.155144
 11
197.123723
 21
923.119112
  0
LINE
  5
207
100
AcDbEntity
  8
M0
 62
   114
100
AcDbLine
 10
191.047517
 20
917.042907
 11
194.311229
 21
920.306618
  0
LINE
  5
208
100
AcDbEntity
  8
M0
 62
   114
100
AcDbLine
 10
193.462746
 20
921.155101
 11
190.199012
 21
917.891368
  0
LINE
  5
209
100
AcDbEntity
  8
M0
 62
   114
100
AcDbLine
 10
196.291243
 20
923.983611
 11
194.311272
 21
922.003627
  0
LINE
  5
20A
100
AcDbEntity
  8
M0
 62
   114
100
AcDbLine
 10
194.311261
 20
922.003638
 11
192.543494
 21
923.771405
  0
LINE
  5
20B
100
AcDbEntity
  8
M0
 62
   114
100
AcDbLine
 10
196.927521
 20
919.387377
 11
195.159755
 21
921.155144
  0
LINE
  5
20C
100
AcDbEntity
  8
M0
 62
   114
100
AcDbLine
 10
194.311229
 20
920.306618
 11
196.078995
 21
918.538851
  0
LINE
  5
20D
100
AcDbEntity
  8
M0
 62
   114
100
AcDbLine
 10
191.694968
 20
922.922879
 11
193.462735
 21
921.155112
  0
LINE
  5
20E
100
AcDbEntity
  8
M0
 62
   114
100
AcDbLine
 10
196.078995
 20
918.538851
 11
196.927521
 21
919.387377
  0
LINE
  5
20F
100
AcDbEntity
  8
M0
 62
   114
100
AcDbLine
 10
192.543494
 20
923.771405
 11
191.694968
 21
922.922879
  0
ARC
  5
210
100
AcDbEntity
  8
M0
 62
   114
100
AcDbCircle
 10
194.311164
 20
921.15522
 40
5.75
100
AcDbArc
 50
97.815355
 51
280.132157
  0
ARC
  5
211
100
AcDbEntity
  8
M0
 62
   114
100
AcDbCircle
 10
194.311164
 20
921.15522
 40
5.25
100
AcDbArc
 50
93.725821
 51
281.812271
  0
LINE
  5
212
100
AcDbEntity
  8
M0
 62
   114
100
AcDbLine
 10
195.159755
 20
777.15516
 11
197.225507
 21
779.220912
  0
LINE
  5
213
100
AcDbEntity
  8
M0
 62
   114
100
AcDbLine
 10
191.047517
 20
773.042922
 11
194.311229
 21
776.306634
  0
LINE
  5
214
100
AcDbEntity
  8
M0
 62
   114
100
AcDbLine
 10
193.462746
 20
777.155117
 11
190.199012
 21
773.891383
  0
LINE
  5
215
100
AcDbEntity
  8
M0
 62
   114
100
AcDbLine
 10
196.376995
 20
780.069379
 11
194.311272
 21
778.003643
  0
LINE
  5
216
100
AcDbEntity
  8
M0
 62
   114
100
AcDbLine
 10
194.311261
 20
778.003653
 11
192.543494
 21
779.77142
  0
LINE
  5
217
100
AcDbEntity
  8
M0
 62
   114
100
AcDbLine
 10
196.927521
 20
775.387393
 11
195.159755
 21
777.15516
  0
LINE
  5
218
100
AcDbEntity
  8
M0
 62
   114
100
AcDbLine
 10
194.311229
 20
776.306634
 11
196.078995
 21
774.538867
  0
LINE
  5
219
100
AcDbEntity
  8
M0
 62
   114
100
AcDbLine
 10
191.694968
 20
778.922894
 11
193.462735
 21
777.155127
  0
LINE
  5
21A
100
AcDbEntity
  8
M0
 62
   114
100
AcDbLine
 10
196.078995
 20
774.538867
 11
196.927521
 21
775.387393
  0
LINE
  5
21B
100
AcDbEntity
  8
M0
 62
   114
100
AcDbLine
 10
192.543494
 20
779.77142
 11
191.694968
 21
778.922894
  0
ARC
  5
21C
100
AcDbEntity
  8
M0
 62
   114
100
AcDbCircle
 10
194.311164
 20
777.155235
 40
5.75
100
AcDbArc
 50
79.867849
 51
262.186614
  0
ARC
  5
21D
100
AcDbEntity
  8
M0
 62
   114
100
AcDbCircle
 10
194.311164
 20
777.155235
 40
5.25
100
AcDbArc
 50
78.187745
 51
266.276456
  0
CIRCLE
  5
21E
100
AcDbEntity
  8
M0
 62
     2
100
AcDbCircle
 10
264.311205
 20
944.155325
 40
13.0
  0
CIRCLE
  5
21F
100
AcDbEntity
  8
M0
 62
     7
100
AcDbCircle
 10
264.311205
 20
944.155325
 40
10.75
  0
CIRCLE
  5
220
100
AcDbEntity
  8
M0
 62
     2
100
AcDbCircle
 10
206.311142
 20
944.155253
 40
13.0
  0
CIRCLE
  5
221
100
AcDbEntity
  8
M0
 62
     7
100
AcDbCircle
 10
206.311142
 20
944.155253
 40
10.75
  0
CIRCLE
  5
222
100
AcDbEntity
  8
M0
 62
     2
100
AcDbCircle
 10
322.311142
 20
944.155253
 40
13.0
  0
CIRCLE
  5
223
100
AcDbEntity
  8
M0
 62
     7
100
AcDbCircle
 10
322.311142
 20
944.155253
 40
10.75
  0
CIRCLE
  5
224
100
AcDbEntity
  8
M0
 62
     2
100
AcDbCircle
 10
322.311149
 20
754.15498
 40
13.0
  0
CIRCLE
  5
225
100
AcDbEntity
  8
M0
 62
     7
100
AcDbCircle
 10
322.311149
 20
754.15498
 40
10.75
  0
CIRCLE
  5
226
100
AcDbEntity
  8
M0
 62
     2
100
AcDbCircle
 10
264.311149
 20
754.15498
 40
13.0
  0
CIRCLE
  5
227
100
AcDbEntity
  8
M0
 62
     7
100
AcDbCircle
 10
264.311149
 20
754.15498
 40
10.75
  0
CIRCLE
  5
228
100
AcDbEntity
  8
M0
 62
     2
100
AcDbCircle
 10
206.311149
 20
754.15498
 40
13.0
  0
CIRCLE
  5
229
100
AcDbEntity
  8
M0
 62
     7
100
AcDbCircle
 10
206.311149
 20
754.15498
 40
10.75
  0
CIRCLE
  5
22A
100
AcDbEntity
  8
M0
100
AcDbCircle
 10
189.311142
 20
870.855224
 40
3.0
  0
LINE
  5
22B
100
AcDbEntity
  8
M0
100
AcDbLine
 10
192.270126
 20
874.802566
 11
193.086288
 21
872.155273
  0
LINE
  5
22C
100
AcDbEntity
  8
M0
100
AcDbLine
 10
192.270126
 20
866.907974
 11
193.086288
 21
869.555298
  0
LINE
  5
22D
100
AcDbEntity
  8
M0
100
AcDbLine
 10
186.352646
 20
874.802581
 11
185.53624
 21
872.155273
  0
LINE
  5
22E
100
AcDbEntity
  8
M0
100
AcDbLine
 10
186.352646
 20
866.907959
 11
185.53624
 21
869.555298
  0
LINE
  5
22F
100
AcDbEntity
  8
M0
100
AcDbLine
 10
191.792099
 20
866.555298
 11
186.830429
 21
866.555298
  0
LINE
  5
230
100
AcDbEntity
  8
M0
100
AcDbLine
 10
185.53624
 20
869.555298
 11
185.53624
 21
872.155273
  0
LINE
  5
231
100
AcDbEntity
  8
M0
100
AcDbLine
 10
186.830429
 20
875.155273
 11
191.792099
 21
875.155257
  0
LINE
  5
232
100
AcDbEntity
  8
M0
100
AcDbLine
 10
193.086288
 20
872.155273
 11
193.086288
 21
869.555298
  0
LINE
  5
233
100
AcDbEntity
  8
M0
  6
DASHDOT
100
AcDbLine
 10
195.586287
 20
870.855224
 11
183.03624
 21
870.855224
  0
LINE
  5
234
100
AcDbEntity
  8
M0
100
AcDbLine
 10
187.720566
 20
869.264404
 11
190.902206
 21
872.446166
  0
LINE
  5
235
100
AcDbEntity
  8
M0
100
AcDbLine
 10
188.95787
 20
872.269408
 11
190.725449
 21
870.501708
  0
LINE
  5
236
100
AcDbEntity
  8
M0
100
AcDbLine
 10
187.897324
 20
871.208739
 11
189.664902
 21
869.441162
  0
ARC
  5
237
100
AcDbEntity
  8
M0
100
AcDbCircle
 10
191.792099
 20
874.655257
 40
0.5
100
AcDbArc
 50
17.127146
 51
90.0
  0
ARC
  5
238
100
AcDbEntity
  8
M0
100
AcDbCircle
 10
191.792099
 20
867.055298
 40
0.5
100
AcDbArc
 50
270.0
 51
342.871263
  0
ARC
  5
239
100
AcDbEntity
  8
M0
100
AcDbCircle
 10
186.830429
 20
867.055298
 40
0.5
100
AcDbArc
 50
197.138555
 51
270.0
  0
ARC
  5
23A
100
AcDbEntity
  8
M0
100
AcDbCircle
 10
186.830429
 20
874.655257
 40
0.5
100
AcDbArc
 50
90.0
 51
162.862931
  0
LINE
  5
23B
100
AcDbEntity
  8
M0
  6
DASHDOT
100
AcDbLine
 10
189.311142
 20
864.055313
 11
189.311142
 21
878.230621
  0
CIRCLE
  5
23C
100
AcDbEntity
  8
M0
100
AcDbCircle
 10
189.311139
 20
880.355224
 40
3.0
  0
LINE
  5
23D
100
AcDbEntity
  8
M0
100
AcDbLine
 10
192.270123
 20
884.302566
 11
193.086285
 21
881.655273
  0
LINE
  5
23E
100
AcDbEntity
  8
M0
100
AcDbLine
 10
192.270123
 20
876.407974
 11
193.086285
 21
879.055298
  0
LINE
  5
23F
100
AcDbEntity
  8
M0
100
AcDbLine
 10
186.352643
 20
884.302581
 11
185.536237
 21
881.655273
  0
LINE
  5
240
100
AcDbEntity
  8
M0
100
AcDbLine
 10
186.352643
 20
876.407959
 11
185.536237
 21
879.055298
  0
LINE
  5
241
100
AcDbEntity
  8
M0
100
AcDbLine
 10
191.792096
 20
876.055298
 11
186.830426
 21
876.055298
  0
LINE
  5
242
100
AcDbEntity
  8
M0
100
AcDbLine
 10
185.536237
 20
879.055298
 11
185.536237
 21
881.655273
  0
LINE
  5
243
100
AcDbEntity
  8
M0
100
AcDbLine
 10
186.830426
 20
884.655273
 11
191.792096
 21
884.655257
  0
LINE
  5
244
100
AcDbEntity
  8
M0
100
AcDbLine
 10
193.086285
 20
881.655273
 11
193.086285
 21
879.055298
  0
LINE
  5
245
100
AcDbEntity
  8
M0
  6
DASHDOT
100
AcDbLine
 10
195.586284
 20
880.355224
 11
183.036237
 21
880.355224
  0
LINE
  5
246
100
AcDbEntity
  8
M0
100
AcDbLine
 10
187.720563
 20
878.764404
 11
190.902203
 21
881.946166
  0
LINE
  5
247
100
AcDbEntity
  8
M0
100
AcDbLine
 10
188.957867
 20
881.769408
 11
190.725446
 21
880.001708
  0
LINE
  5
248
100
AcDbEntity
  8
M0
100
AcDbLine
 10
187.897321
 20
880.708739
 11
189.664899
 21
878.941162
  0
ARC
  5
249
100
AcDbEntity
  8
M0
100
AcDbCircle
 10
191.792096
 20
884.155257
 40
0.5
100
AcDbArc
 50
17.127146
 51
90.0
  0
ARC
  5
24A
100
AcDbEntity
  8
M0
100
AcDbCircle
 10
191.792096
 20
876.555298
 40
0.5
100
AcDbArc
 50
270.0
 51
342.871263
  0
ARC
  5
24B
100
AcDbEntity
  8
M0
100
AcDbCircle
 10
186.830426
 20
876.555298
 40
0.5
100
AcDbArc
 50
197.138555
 51
270.0
  0
ARC
  5
24C
100
AcDbEntity
  8
M0
100
AcDbCircle
 10
186.830426
 20
884.155257
 40
0.5
100
AcDbArc
 50
90.0
 51
162.862931
  0
LINE
  5
24D
100
AcDbEntity
  8
M0
  6
DASHDOT
100
AcDbLine
 10
189.311139
 20
873.555313
 11
189.311139
 21
887.730621
  0
CIRCLE
  5
24E
100
AcDbEntity
  8
M0
100
AcDbCircle
 10
189.311142
 20
849.855224
 40
3.0
  0
LINE
  5
24F
100
AcDbEntity
  8
M0
100
AcDbLine
 10
192.270126
 20
845.907882
 11
193.086288
 21
848.555175
  0
LINE
  5
250
100
AcDbEntity
  8
M0
100
AcDbLine
 10
192.270126
 20
853.802473
 11
193.086288
 21
851.15515
  0
LINE
  5
251
100
AcDbEntity
  8
M0
100
AcDbLine
 10
186.352646
 20
845.907867
 11
185.53624
 21
848.555175
  0
LINE
  5
252
100
AcDbEntity
  8
M0
100
AcDbLine
 10
186.352646
 20
853.802488
 11
185.53624
 21
851.15515
  0
LINE
  5
253
100
AcDbEntity
  8
M0
100
AcDbLine
 10
191.792099
 20
854.15515
 11
186.830429
 21
854.15515
  0
LINE
  5
254
100
AcDbEntity
  8
M0
100
AcDbLine
 10
185.53624
 20
851.15515
 11
185.53624
 21
848.555175
  0
LINE
  5
255
100
AcDbEntity
  8
M0
100
AcDbLine
 10
186.830429
 20
845.555175
 11
191.792099
 21
845.55519
  0
LINE
  5
256
100
AcDbEntity
  8
M0
100
AcDbLine
 10
193.086288
 20
848.555175
 11
193.086288
 21
851.15515
  0
LINE
  5
257
100
AcDbEntity
  8
M0
  6
DASHDOT
100
AcDbLine
 10
195.586287
 20
849.855224
 11
183.03624
 21
849.855224
  0
LINE
  5
258
100
AcDbEntity
  8
M0
100
AcDbLine
 10
187.720566
 20
851.446043
 11
190.902206
 21
848.264281
  0
LINE
  5
259
100
AcDbEntity
  8
M0
100
AcDbLine
 10
188.95787
 20
848.441039
 11
190.725449
 21
850.208739
  0
LINE
  5
25A
100
AcDbEntity
  8
M0
100
AcDbLine
 10
187.897324
 20
849.501708
 11
189.664902
 21
851.269285
  0
ARC
  5
25B
100
AcDbEntity
  8
M0
100
AcDbCircle
 10
191.792099
 20
846.05519
 40
0.5
100
AcDbArc
 50
270.0
 51
342.872854
  0
ARC
  5
25C
100
AcDbEntity
  8
M0
100
AcDbCircle
 10
191.792099
 20
853.65515
 40
0.5
100
AcDbArc
 50
17.128737
 51
90.0
  0
ARC
  5
25D
100
AcDbEntity
  8
M0
100
AcDbCircle
 10
186.830429
 20
853.65515
 40
0.5
100
AcDbArc
 50
90.0
 51
162.861445
  0
ARC
  5
25E
100
AcDbEntity
  8
M0
100
AcDbCircle
 10
186.830429
 20
846.05519
 40
0.5
100
AcDbArc
 50
197.137069
 51
270.0
  0
LINE
  5
25F
100
AcDbEntity
  8
M0
  6
DASHDOT
100
AcDbLine
 10
189.311142
 20
856.655134
 11
189.311142
 21
842.479826
  0
CIRCLE
  5
260
100
AcDbEntity
  8
M0
100
AcDbCircle
 10
189.311139
 20
840.355224
 40
3.0
  0
LINE
  5
261
100
AcDbEntity
  8
M0
100
AcDbLine
 10
192.270123
 20
836.407882
 11
193.086285
 21
839.055175
  0
LINE
  5
262
100
AcDbEntity
  8
M0
100
AcDbLine
 10
192.270123
 20
844.302473
 11
193.086285
 21
841.65515
  0
LINE
  5
263
100
AcDbEntity
  8
M0
100
AcDbLine
 10
186.352643
 20
836.407867
 11
185.536237
 21
839.055175
  0
LINE
  5
264
100
AcDbEntity
  8
M0
100
AcDbLine
 10
186.352643
 20
844.302488
 11
185.536237
 21
841.65515
  0
LINE
  5
265
100
AcDbEntity
  8
M0
100
AcDbLine
 10
191.792096
 20
844.65515
 11
186.830426
 21
844.65515
  0
LINE
  5
266
100
AcDbEntity
  8
M0
100
AcDbLine
 10
185.536237
 20
841.65515
 11
185.536237
 21
839.055175
  0
LINE
  5
267
100
AcDbEntity
  8
M0
100
AcDbLine
 10
186.830426
 20
836.055175
 11
191.792096
 21
836.05519
  0
LINE
  5
268
100
AcDbEntity
  8
M0
100
AcDbLine
 10
193.086285
 20
839.055175
 11
193.086285
 21
841.65515
  0
LINE
  5
269
100
AcDbEntity
  8
M0
  6
DASHDOT
100
AcDbLine
 10
195.586284
 20
840.355224
 11
183.036237
 21
840.355224
  0
LINE
  5
26A
100
AcDbEntity
  8
M0
100
AcDbLine
 10
187.720563
 20
841.946043
 11
190.902203
 21
838.764281
  0
LINE
  5
26B
100
AcDbEntity
  8
M0
100
AcDbLine
 10
188.957867
 20
838.941039
 11
190.725446
 21
840.708739
  0
LINE
  5
26C
100
AcDbEntity
  8
M0
100
AcDbLine
 10
187.897321
 20
840.001708
 11
189.664899
 21
841.769285
  0
ARC
  5
26D
100
AcDbEntity
  8
M0
100
AcDbCircle
 10
191.792096
 20
836.55519
 40
0.5
100
AcDbArc
 50
270.0
 51
342.872854
  0
ARC
  5
26E
100
AcDbEntity
  8
M0
100
AcDbCircle
 10
191.792096
 20
844.15515
 40
0.5
100
AcDbArc
 50
17.128737
 51
90.0
  0
ARC
  5
26F
100
AcDbEntity
  8
M0
100
AcDbCircle
 10
186.830426
 20
844.15515
 40
0.5
100
AcDbArc
 50
90.0
 51
162.861445
  0
ARC
  5
270
100
AcDbEntity
  8
M0
100
AcDbCircle
 10
186.830426
 20
836.55519
 40
0.5
100
AcDbArc
 50
197.137069
 51
270.0
  0
LINE
  5
271
100
AcDbEntity
  8
M0
  6
DASHDOT
100
AcDbLine
 10
189.311139
 20
847.155134
 11
189.311139
 21
832.979826
  0
LINE
  5
272
100
AcDbEntity
  8
M0
 62
   234
100
AcDbLine
 10
333.311157
 20
886.855221
 11
333.31114
 21
833.855226
  0
LINE
  5
273
100
AcDbEntity
  8
M0
 62
   234
100
AcDbLine
 10
343.311157
 20
886.855218
 11
333.311157
 21
886.855221
  0
LINE
  5
274
100
AcDbEntity
  8
M0
 62
   234
100
AcDbLine
 10
343.31114
 20
833.855223
 11
333.31114
 21
833.855226
  0
LINE
  5
275
100
AcDbEntity
  8
M0
 62
   234
100
AcDbLine
 10
333.31114
 20
833.855226
 11
343.31114
 21
833.855223
  0
LINE
  5
276
100
AcDbEntity
  8
M0
 62
   234
100
AcDbLine
 10
345.311139
 20
831.355233
 11
345.311158
 21
889.355217
  0
CIRCLE
  5
277
100
AcDbEntity
  8
M0
 62
   234
100
AcDbCircle
 10
336.311158
 20
891.35522
 40
2.25
  0
LINE
  5
278
100
AcDbEntity
  8
M0
 62
   234
100
AcDbLine
 10
343.811158
 20
889.355218
 11
345.311158
 21
889.355217
  0
ARC
  5
279
100
AcDbEntity
  8
M0
 62
   234
100
AcDbCircle
 10
343.811157
 20
888.855218
 40
0.5
100
AcDbArc
 50
90.0
 51
180.001731
  0
LINE
  5
27A
100
AcDbEntity
  8
M0
 62
   234
100
AcDbLine
 10
340.811157
 20
886.855219
 11
340.811158
 21
891.355219
  0
ARC
  5
27B
100
AcDbEntity
  8
M0
 62
   234
100
AcDbCircle
 10
336.811158
 20
891.35522
 40
4.0
100
AcDbArc
 50
359.999982
 51
450.0
  0
LINE
  5
27C
100
AcDbEntity
  8
M0
 62
   234
100
AcDbLine
 10
333.311159
 20
895.355221
 11
336.811159
 21
895.35522
  0
LINE
  5
27D
100
AcDbEntity
  8
M0
 62
   234
100
AcDbLine
 10
343.31115
 20
865.855218
 11
335.31115
 21
865.85522
  0
LINE
  5
27E
100
AcDbEntity
  8
M0
 62
   234
100
AcDbLine
 10
333.311147
 20
856.605225
 11
345.311147
 21
856.605221
  0
LINE
  5
27F
100
AcDbEntity
  8
M0
 62
   234
100
AcDbLine
 10
333.31115
 20
864.105225
 11
345.31115
 21
864.105221
  0
LINE
  5
280
100
AcDbEntity
  8
M0
 62
   234
100
AcDbLine
 10
343.311157
 20
888.855218
 11
343.31115
 21
865.855218
  0
LINE
  5
281
100
AcDbEntity
  8
M0
 62
   234
100
AcDbLine
 10
335.311157
 20
886.85522
 11
335.31115
 21
865.85522
  0
LINE
  5
282
100
AcDbEntity
  8
M0
 62
   234
100
AcDbLine
 10
335.311147
 20
854.855224
 11
335.31114
 21
833.855225
  0
LINE
  5
283
100
AcDbEntity
  8
M0
 62
   234
100
AcDbLine
 10
341.31115
 20
864.105222
 11
341.311149
 21
863.105222
  0
LINE
  5
284
100
AcDbEntity
  8
M0
 62
   234
100
AcDbLine
 10
344.311149
 20
863.105221
 11
341.311149
 21
863.105222
  0
LINE
  5
285
100
AcDbEntity
  8
M0
 62
   234
100
AcDbLine
 10
344.31115
 20
864.105221
 11
344.311147
 21
856.605221
  0
LINE
  5
286
100
AcDbEntity
  8
M0
 62
   234
100
AcDbLine
 10
344.311148
 20
857.605221
 11
341.311148
 21
857.605222
  0
LINE
  5
287
100
AcDbEntity
  8
M0
 62
   234
100
AcDbLine
 10
341.311148
 20
857.605222
 11
341.311147
 21
856.605222
  0
LINE
  5
288
100
AcDbEntity
  8
M0
 62
   234
100
AcDbLine
 10
336.811149
 20
863.105224
 11
336.811148
 21
857.605224
  0
LINE
  5
289
100
AcDbEntity
  8
M0
 62
   234
100
AcDbLine
 10
338.31115
 20
864.105223
 11
338.311147
 21
856.605223
  0
LINE
  5
28A
100
AcDbEntity
  8
M0
 62
   234
100
AcDbLine
 10
338.311148
 20
857.605223
 11
333.311148
 21
857.605225
  0
LINE
  5
28B
100
AcDbEntity
  8
M0
 62
   234
100
AcDbLine
 10
338.311149
 20
863.105223
 11
333.311149
 21
863.105225
  0
LINE
  5
28C
100
AcDbEntity
  8
M0
 62
   234
100
AcDbLine
 10
340.81114
 20
833.855223
 11
340.811139
 21
829.355234
  0
ARC
  5
28D
100
AcDbEntity
  8
M0
 62
   234
100
AcDbCircle
 10
336.811139
 20
829.355235
 40
4.0
100
AcDbArc
 50
-90.0
 51
0.000201
  0
LINE
  5
28E
100
AcDbEntity
  8
M0
 62
   234
100
AcDbLine
 10
333.311137
 20
825.355236
 11
336.811137
 21
825.355235
  0
ARC
  5
28F
100
AcDbEntity
  8
M0
 62
   234
100
AcDbCircle
 10
343.811139
 20
831.855233
 40
0.5
100
AcDbArc
 50
179.999982
 51
270.0
  0
LINE
  5
290
100
AcDbEntity
  8
M0
 62
   234
100
AcDbLine
 10
343.811139
 20
831.355233
 11
345.311139
 21
831.355233
  0
LINE
  5
291
100
AcDbEntity
  8
M0
 62
   234
100
AcDbLine
 10
343.311147
 20
854.855222
 11
343.311139
 21
831.855233
  0
LINE
  5
292
100
AcDbEntity
  8
M0
 62
   234
100
AcDbLine
 10
343.311147
 20
854.855222
 11
335.311147
 21
854.855224
  0
CIRCLE
  5
293
100
AcDbEntity
  8
M0
100
AcDbCircle
 10
339.311158
 20
840.355224
 40
3.0
  0
LINE
  5
294
100
AcDbEntity
  8
M0
100
AcDbLine
 10
336.352174
 20
836.407882
 11
335.536012
 21
839.055175
  0
LINE
  5
295
100
AcDbEntity
  8
M0
100
AcDbLine
 10
336.352174
 20
844.302473
 11
335.536012
 21
841.65515
  0
LINE
  5
296
100
AcDbEntity
  8
M0
100
AcDbLine
 10
342.269654
 20
836.407867
 11
343.086061
 21
839.055175
  0
LINE
  5
297
100
AcDbEntity
  8
M0
100
AcDbLine
 10
342.269654
 20
844.302488
 11
343.086061
 21
841.65515
  0
LINE
  5
298
100
AcDbEntity
  8
M0
100
AcDbLine
 10
336.830201
 20
844.65515
 11
341.791871
 21
844.65515
  0
LINE
  5
299
100
AcDbEntity
  8
M0
100
AcDbLine
 10
343.086061
 20
841.65515
 11
343.086061
 21
839.055175
  0
LINE
  5
29A
100
AcDbEntity
  8
M0
100
AcDbLine
 10
341.791871
 20
836.055175
 11
336.830201
 21
836.05519
  0
LINE
  5
29B
100
AcDbEntity
  8
M0
100
AcDbLine
 10
335.536012
 20
839.055175
 11
335.536012
 21
841.65515
  0
LINE
  5
29C
100
AcDbEntity
  8
M0
  6
DASHDOT
100
AcDbLine
 10
333.036013
 20
840.355224
 11
345.586061
 21
840.355224
  0
LINE
  5
29D
100
AcDbEntity
  8
M0
100
AcDbLine
 10
340.901734
 20
841.946043
 11
337.720094
 21
838.764281
  0
LINE
  5
29E
100
AcDbEntity
  8
M0
100
AcDbLine
 10
339.66443
 20
838.941039
 11
337.896852
 21
840.708739
  0
LINE
  5
29F
100
AcDbEntity
  8
M0
100
AcDbLine
 10
340.724977
 20
840.001708
 11
338.957398
 21
841.769285
  0
ARC
  5
2A0
100
AcDbEntity
  8
M0
100
AcDbCircle
 10
336.830201
 20
836.55519
 40
0.5
100
AcDbArc
 50
197.127146
 51
270.0
  0
ARC
  5
2A1
100
AcDbEntity
  8
M0
100
AcDbCircle
 10
336.830201
 20
844.15515
 40
0.5
100
AcDbArc
 50
90.0
 51
162.871263
  0
ARC
  5
2A2
100
AcDbEntity
  8
M0
100
AcDbCircle
 10
341.791871
 20
844.15515
 40
0.5
100
AcDbArc
 50
17.138555
 51
90.0
  0
ARC
  5
2A3
100
AcDbEntity
  8
M0
100
AcDbCircle
 10
341.791871
 20
836.55519
 40
0.5
100
AcDbArc
 50
270.0
 51
342.862931
  0
LINE
  5
2A4
100
AcDbEntity
  8
M0
  6
DASHDOT
100
AcDbLine
 10
339.311158
 20
847.155134
 11
339.311158
 21
832.979826
  0
CIRCLE
  5
2A5
100
AcDbEntity
  8
M0
100
AcDbCircle
 10
339.311155
 20
849.855224
 40
3.0
  0
LINE
  5
2A6
100
AcDbEntity
  8
M0
100
AcDbLine
 10
336.352171
 20
845.907882
 11
335.536009
 21
848.555175
  0
LINE
  5
2A7
100
AcDbEntity
  8
M0
100
AcDbLine
 10
336.352171
 20
853.802473
 11
335.536009
 21
851.15515
  0
LINE
  5
2A8
100
AcDbEntity
  8
M0
100
AcDbLine
 10
342.269651
 20
845.907867
 11
343.086058
 21
848.555175
  0
LINE
  5
2A9
100
AcDbEntity
  8
M0
100
AcDbLine
 10
342.269651
 20
853.802488
 11
343.086058
 21
851.15515
  0
LINE
  5
2AA
100
AcDbEntity
  8
M0
100
AcDbLine
 10
336.830198
 20
854.15515
 11
341.791868
 21
854.15515
  0
LINE
  5
2AB
100
AcDbEntity
  8
M0
100
AcDbLine
 10
343.086058
 20
851.15515
 11
343.086058
 21
848.555175
  0
LINE
  5
2AC
100
AcDbEntity
  8
M0
100
AcDbLine
 10
341.791868
 20
845.555175
 11
336.830198
 21
845.55519
  0
LINE
  5
2AD
100
AcDbEntity
  8
M0
100
AcDbLine
 10
335.536009
 20
848.555175
 11
335.536009
 21
851.15515
  0
LINE
  5
2AE
100
AcDbEntity
  8
M0
  6
DASHDOT
100
AcDbLine
 10
333.03601
 20
849.855224
 11
345.586058
 21
849.855224
  0
LINE
  5
2AF
100
AcDbEntity
  8
M0
100
AcDbLine
 10
340.901731
 20
851.446043
 11
337.720091
 21
848.264281
  0
LINE
  5
2B0
100
AcDbEntity
  8
M0
100
AcDbLine
 10
339.664427
 20
848.441039
 11
337.896849
 21
850.208739
  0
LINE
  5
2B1
100
AcDbEntity
  8
M0
100
AcDbLine
 10
340.724974
 20
849.501708
 11
338.957395
 21
851.269285
  0
ARC
  5
2B2
100
AcDbEntity
  8
M0
100
AcDbCircle
 10
336.830198
 20
846.05519
 40
0.5
100
AcDbArc
 50
197.127146
 51
270.0
  0
ARC
  5
2B3
100
AcDbEntity
  8
M0
100
AcDbCircle
 10
336.830198
 20
853.65515
 40
0.5
100
AcDbArc
 50
90.0
 51
162.871263
  0
ARC
  5
2B4
100
AcDbEntity
  8
M0
100
AcDbCircle
 10
341.791868
 20
853.65515
 40
0.5
100
AcDbArc
 50
17.138555
 51
90.0
  0
ARC
  5
2B5
100
AcDbEntity
  8
M0
100
AcDbCircle
 10
341.791868
 20
846.05519
 40
0.5
100
AcDbArc
 50
270.0
 51
342.862931
  0
LINE
  5
2B6
100
AcDbEntity
  8
M0
  6
DASHDOT
100
AcDbLine
 10
339.311155
 20
856.655134
 11
339.311155
 21
842.479826
  0
CIRCLE
  5
2B7
100
AcDbEntity
  8
M0
100
AcDbCircle
 10
339.311155
 20
870.855224
 40
3.0
  0
LINE
  5
2B8
100
AcDbEntity
  8
M0
100
AcDbLine
 10
336.352171
 20
874.802566
 11
335.536009
 21
872.155273
  0
LINE
  5
2B9
100
AcDbEntity
  8
M0
100
AcDbLine
 10
336.352171
 20
866.907974
 11
335.536009
 21
869.555298
  0
LINE
  5
2BA
100
AcDbEntity
  8
M0
100
AcDbLine
 10
342.269651
 20
874.802581
 11
343.086058
 21
872.155273
  0
LINE
  5
2BB
100
AcDbEntity
  8
M0
100
AcDbLine
 10
342.269651
 20
866.907959
 11
343.086058
 21
869.555298
  0
LINE
  5
2BC
100
AcDbEntity
  8
M0
100
AcDbLine
 10
336.830198
 20
866.555298
 11
341.791868
 21
866.555298
  0
LINE
  5
2BD
100
AcDbEntity
  8
M0
100
AcDbLine
 10
343.086058
 20
869.555298
 11
343.086058
 21
872.155273
  0
LINE
  5
2BE
100
AcDbEntity
  8
M0
100
AcDbLine
 10
341.791868
 20
875.155273
 11
336.830198
 21
875.155257
  0
LINE
  5
2BF
100
AcDbEntity
  8
M0
100
AcDbLine
 10
335.536009
 20
872.155273
 11
335.536009
 21
869.555298
  0
LINE
  5
2C0
100
AcDbEntity
  8
M0
  6
DASHDOT
100
AcDbLine
 10
333.03601
 20
870.855224
 11
345.586058
 21
870.855224
  0
LINE
  5
2C1
100
AcDbEntity
  8
M0
100
AcDbLine
 10
340.901731
 20
869.264404
 11
337.720091
 21
872.446166
  0
LINE
  5
2C2
100
AcDbEntity
  8
M0
100
AcDbLine
 10
339.664427
 20
872.269408
 11
337.896849
 21
870.501708
  0
LINE
  5
2C3
100
AcDbEntity
  8
M0
100
AcDbLine
 10
340.724974
 20
871.208739
 11
338.957395
 21
869.441162
  0
ARC
  5
2C4
100
AcDbEntity
  8
M0
100
AcDbCircle
 10
336.830198
 20
874.655257
 40
0.5
100
AcDbArc
 50
90.0
 51
162.872854
  0
ARC
  5
2C5
100
AcDbEntity
  8
M0
100
AcDbCircle
 10
336.830198
 20
867.055298
 40
0.5
100
AcDbArc
 50
197.128737
 51
270.0
  0
ARC
  5
2C6
100
AcDbEntity
  8
M0
100
AcDbCircle
 10
341.791868
 20
867.055298
 40
0.5
100
AcDbArc
 50
270.0
 51
342.861445
  0
ARC
  5
2C7
100
AcDbEntity
  8
M0
100
AcDbCircle
 10
341.791868
 20
874.655257
 40
0.5
100
AcDbArc
 50
17.137069
 51
90.0
  0
LINE
  5
2C8
100
AcDbEntity
  8
M0
  6
DASHDOT
100
AcDbLine
 10
339.311155
 20
864.055313
 11
339.311155
 21
878.230621
  0
CIRCLE
  5
2C9
100
AcDbEntity
  8
M0
100
AcDbCircle
 10
339.311158
 20
880.355224
 40
3.0
  0
LINE
  5
2CA
100
AcDbEntity
  8
M0
100
AcDbLine
 10
336.352174
 20
884.302566
 11
335.536012
 21
881.655273
  0
LINE
  5
2CB
100
AcDbEntity
  8
M0
100
AcDbLine
 10
336.352174
 20
876.407974
 11
335.536012
 21
879.055298
  0
LINE
  5
2CC
100
AcDbEntity
  8
M0
100
AcDbLine
 10
342.269654
 20
884.302581
 11
343.086061
 21
881.655273
  0
LINE
  5
2CD
100
AcDbEntity
  8
M0
100
AcDbLine
 10
342.269654
 20
876.407959
 11
343.086061
 21
879.055298
  0
LINE
  5
2CE
100
AcDbEntity
  8
M0
100
AcDbLine
 10
336.830201
 20
876.055298
 11
341.791871
 21
876.055298
  0
LINE
  5
2CF
100
AcDbEntity
  8
M0
100
AcDbLine
 10
343.086061
 20
879.055298
 11
343.086061
 21
881.655273
  0
LINE
  5
2D0
100
AcDbEntity
  8
M0
100
AcDbLine
 10
341.791871
 20
884.655273
 11
336.830201
 21
884.655257
  0
LINE
  5
2D1
100
AcDbEntity
  8
M0
100
AcDbLine
 10
335.536012
 20
881.655273
 11
335.536012
 21
879.055298
  0
LINE
  5
2D2
100
AcDbEntity
  8
M0
  6
DASHDOT
100
AcDbLine
 10
333.036013
 20
880.355224
 11
345.586061
 21
880.355224
  0
LINE
  5
2D3
100
AcDbEntity
  8
M0
100
AcDbLine
 10
340.901734
 20
878.764404
 11
337.720094
 21
881.946166
  0
LINE
  5
2D4
100
AcDbEntity
  8
M0
100
AcDbLine
 10
339.66443
 20
881.769408
 11
337.896852
 21
880.001708
  0
LINE
  5
2D5
100
AcDbEntity
  8
M0
100
AcDbLine
 10
340.724977
 20
880.708739
 11
338.957398
 21
878.941162
  0
ARC
  5
2D6
100
AcDbEntity
  8
M0
100
AcDbCircle
 10
336.830201
 20
884.155257
 40
0.5
100
AcDbArc
 50
90.0
 51
162.872854
  0
ARC
  5
2D7
100
AcDbEntity
  8
M0
100
AcDbCircle
 10
336.830201
 20
876.555298
 40
0.5
100
AcDbArc
 50
197.128737
 51
270.0
  0
ARC
  5
2D8
100
AcDbEntity
  8
M0
100
AcDbCircle
 10
341.791871
 20
876.555298
 40
0.5
100
AcDbArc
 50
270.0
 51
342.861445
  0
ARC
  5
2D9
100
AcDbEntity
  8
M0
100
AcDbCircle
 10
341.791871
 20
884.155257
 40
0.5
100
AcDbArc
 50
17.137069
 51
90.0
  0
LINE
  5
2DA
100
AcDbEntity
  8
M0
  6
DASHDOT
100
AcDbLine
 10
339.311158
 20
873.555313
 11
339.311158
 21
887.730621
  0
CIRCLE
  5
2DB
100
AcDbEntity
  8
M0
100
AcDbCircle
 10
351.311159
 20
880.355224
 40
3.0
  0
LINE
  5
2DC
100
AcDbEntity
  8
M0
100
AcDbLine
 10
348.352175
 20
884.302566
 11
347.536013
 21
881.655273
  0
LINE
  5
2DD
100
AcDbEntity
  8
M0
100
AcDbLine
 10
348.352175
 20
876.407974
 11
347.536013
 21
879.055298
  0
LINE
  5
2DE
100
AcDbEntity
  8
M0
100
AcDbLine
 10
354.269655
 20
884.302581
 11
355.086061
 21
881.655273
  0
LINE
  5
2DF
100
AcDbEntity
  8
M0
100
AcDbLine
 10
354.269655
 20
876.407959
 11
355.086061
 21
879.055298
  0
LINE
  5
2E0
100
AcDbEntity
  8
M0
100
AcDbLine
 10
348.830202
 20
876.055298
 11
353.791872
 21
876.055298
  0
LINE
  5
2E1
100
AcDbEntity
  8
M0
100
AcDbLine
 10
355.086061
 20
879.055298
 11
355.086061
 21
881.655273
  0
LINE
  5
2E2
100
AcDbEntity
  8
M0
100
AcDbLine
 10
353.791872
 20
884.655273
 11
348.830202
 21
884.655257
  0
LINE
  5
2E3
100
AcDbEntity
  8
M0
100
AcDbLine
 10
347.536013
 20
881.655273
 11
347.536013
 21
879.055298
  0
LINE
  5
2E4
100
AcDbEntity
  8
M0
  6
DASHDOT
100
AcDbLine
 10
345.036013
 20
880.355224
 11
357.586061
 21
880.355224
  0
LINE
  5
2E5
100
AcDbEntity
  8
M0
100
AcDbLine
 10
352.901735
 20
878.764404
 11
349.720095
 21
881.946166
  0
LINE
  5
2E6
100
AcDbEntity
  8
M0
100
AcDbLine
 10
351.66443
 20
881.769408
 11
349.896852
 21
880.001708
  0
LINE
  5
2E7
100
AcDbEntity
  8
M0
100
AcDbLine
 10
352.724977
 20
880.708739
 11
350.957399
 21
878.941162
  0
ARC
  5
2E8
100
AcDbEntity
  8
M0
100
AcDbCircle
 10
348.830202
 20
884.155257
 40
0.5
100
AcDbArc
 50
90.0
 51
162.872854
  0
ARC
  5
2E9
100
AcDbEntity
  8
M0
100
AcDbCircle
 10
348.830202
 20
876.555298
 40
0.5
100
AcDbArc
 50
197.128737
 51
270.0
  0
ARC
  5
2EA
100
AcDbEntity
  8
M0
100
AcDbCircle
 10
353.791872
 20
876.555298
 40
0.5
100
AcDbArc
 50
270.0
 51
342.861445
  0
ARC
  5
2EB
100
AcDbEntity
  8
M0
100
AcDbCircle
 10
353.791872
 20
884.155257
 40
0.5
100
AcDbArc
 50
17.137069
 51
90.0
  0
LINE
  5
2EC
100
AcDbEntity
  8
M0
  6
DASHDOT
100
AcDbLine
 10
351.311159
 20
873.555313
 11
351.311159
 21
887.730621
  0
CIRCLE
  5
2ED
100
AcDbEntity
  8
M0
100
AcDbCircle
 10
351.311156
 20
870.855224
 40
3.0
  0
LINE
  5
2EE
100
AcDbEntity
  8
M0
100
AcDbLine
 10
348.352172
 20
874.802566
 11
347.53601
 21
872.155273
  0
LINE
  5
2EF
100
AcDbEntity
  8
M0
100
AcDbLine
 10
348.352172
 20
866.907974
 11
347.53601
 21
869.555298
  0
LINE
  5
2F0
100
AcDbEntity
  8
M0
100
AcDbLine
 10
354.269652
 20
874.802581
 11
355.086058
 21
872.155273
  0
LINE
  5
2F1
100
AcDbEntity
  8
M0
100
AcDbLine
 10
354.269652
 20
866.907959
 11
355.086058
 21
869.555298
  0
LINE
  5
2F2
100
AcDbEntity
  8
M0
100
AcDbLine
 10
348.830199
 20
866.555298
 11
353.791869
 21
866.555298
  0
LINE
  5
2F3
100
AcDbEntity
  8
M0
100
AcDbLine
 10
355.086058
 20
869.555298
 11
355.086058
 21
872.155273
  0
LINE
  5
2F4
100
AcDbEntity
  8
M0
100
AcDbLine
 10
353.791869
 20
875.155273
 11
348.830199
 21
875.155257
  0
LINE
  5
2F5
100
AcDbEntity
  8
M0
100
AcDbLine
 10
347.53601
 20
872.155273
 11
347.53601
 21
869.555298
  0
LINE
  5
2F6
100
AcDbEntity
  8
M0
  6
DASHDOT
100
AcDbLine
 10
345.03601
 20
870.855224
 11
357.586058
 21
870.855224
  0
LINE
  5
2F7
100
AcDbEntity
  8
M0
100
AcDbLine
 10
352.901732
 20
869.264404
 11
349.720092
 21
872.446166
  0
LINE
  5
2F8
100
AcDbEntity
  8
M0
100
AcDbLine
 10
351.664428
 20
872.269408
 11
349.896849
 21
870.501708
  0
LINE
  5
2F9
100
AcDbEntity
  8
M0
100
AcDbLine
 10
352.724974
 20
871.208739
 11
350.957396
 21
869.441162
  0
ARC
  5
2FA
100
AcDbEntity
  8
M0
100
AcDbCircle
 10
348.830199
 20
874.655257
 40
0.5
100
AcDbArc
 50
90.0
 51
162.872854
  0
ARC
  5
2FB
100
AcDbEntity
  8
M0
100
AcDbCircle
 10
348.830199
 20
867.055298
 40
0.5
100
AcDbArc
 50
197.128737
 51
270.0
  0
ARC
  5
2FC
100
AcDbEntity
  8
M0
100
AcDbCircle
 10
353.791869
 20
867.055298
 40
0.5
100
AcDbArc
 50
270.0
 51
342.861445
  0
ARC
  5
2FD
100
AcDbEntity
  8
M0
100
AcDbCircle
 10
353.791869
 20
874.655257
 40
0.5
100
AcDbArc
 50
17.137069
 51
90.0
  0
LINE
  5
2FE
100
AcDbEntity
  8
M0
  6
DASHDOT
100
AcDbLine
 10
351.311156
 20
864.055313
 11
351.311156
 21
878.230621
  0
CIRCLE
  5
2FF
100
AcDbEntity
  8
M0
100
AcDbCircle
 10
351.311156
 20
849.855224
 40
3.0
  0
LINE
  5
300
100
AcDbEntity
  8
M0
100
AcDbLine
 10
348.352172
 20
845.907882
 11
347.53601
 21
848.555175
  0
LINE
  5
301
100
AcDbEntity
  8
M0
100
AcDbLine
 10
348.352172
 20
853.802473
 11
347.53601
 21
851.15515
  0
LINE
  5
302
100
AcDbEntity
  8
M0
100
AcDbLine
 10
354.269652
 20
845.907867
 11
355.086058
 21
848.555175
  0
LINE
  5
303
100
AcDbEntity
  8
M0
100
AcDbLine
 10
354.269652
 20
853.802488
 11
355.086058
 21
851.15515
  0
LINE
  5
304
100
AcDbEntity
  8
M0
100
AcDbLine
 10
348.830199
 20
854.15515
 11
353.791869
 21
854.15515
  0
LINE
  5
305
100
AcDbEntity
  8
M0
100
AcDbLine
 10
355.086058
 20
851.15515
 11
355.086058
 21
848.555175
  0
LINE
  5
306
100
AcDbEntity
  8
M0
100
AcDbLine
 10
353.791869
 20
845.555175
 11
348.830199
 21
845.55519
  0
LINE
  5
307
100
AcDbEntity
  8
M0
100
AcDbLine
 10
347.53601
 20
848.555175
 11
347.53601
 21
851.15515
  0
LINE
  5
308
100
AcDbEntity
  8
M0
  6
DASHDOT
100
AcDbLine
 10
345.03601
 20
849.855224
 11
357.586058
 21
849.855224
  0
LINE
  5
309
100
AcDbEntity
  8
M0
100
AcDbLine
 10
352.901732
 20
851.446043
 11
349.720092
 21
848.264281
  0
LINE
  5
30A
100
AcDbEntity
  8
M0
100
AcDbLine
 10
351.664428
 20
848.441039
 11
349.896849
 21
850.208739
  0
LINE
  5
30B
100
AcDbEntity
  8
M0
100
AcDbLine
 10
352.724974
 20
849.501708
 11
350.957396
 21
851.269285
  0
ARC
  5
30C
100
AcDbEntity
  8
M0
100
AcDbCircle
 10
348.830199
 20
846.05519
 40
0.5
100
AcDbArc
 50
197.127146
 51
270.0
  0
ARC
  5
30D
100
AcDbEntity
  8
M0
100
AcDbCircle
 10
348.830199
 20
853.65515
 40
0.5
100
AcDbArc
 50
90.0
 51
162.871263
  0
ARC
  5
30E
100
AcDbEntity
  8
M0
100
AcDbCircle
 10
353.791869
 20
853.65515
 40
0.5
100
AcDbArc
 50
17.138555
 51
90.0
  0
ARC
  5
30F
100
AcDbEntity
  8
M0
100
AcDbCircle
 10
353.791869
 20
846.05519
 40
0.5
100
AcDbArc
 50
270.0
 51
342.862931
  0
LINE
  5
310
100
AcDbEntity
  8
M0
  6
DASHDOT
100
AcDbLine
 10
351.311156
 20
856.655134
 11
351.311156
 21
842.479826
  0
CIRCLE
  5
311
100
AcDbEntity
  8
M0
100
AcDbCircle
 10
351.311159
 20
840.355224
 40
3.0
  0
LINE
  5
312
100
AcDbEntity
  8
M0
100
AcDbLine
 10
348.352175
 20
836.407882
 11
347.536013
 21
839.055175
  0
LINE
  5
313
100
AcDbEntity
  8
M0
100
AcDbLine
 10
348.352175
 20
844.302473
 11
347.536013
 21
841.65515
  0
LINE
  5
314
100
AcDbEntity
  8
M0
100
AcDbLine
 10
354.269655
 20
836.407867
 11
355.086061
 21
839.055175
  0
LINE
  5
315
100
AcDbEntity
  8
M0
100
AcDbLine
 10
354.269655
 20
844.302488
 11
355.086061
 21
841.65515
  0
LINE
  5
316
100
AcDbEntity
  8
M0
100
AcDbLine
 10
348.830202
 20
844.65515
 11
353.791872
 21
844.65515
  0
LINE
  5
317
100
AcDbEntity
  8
M0
100
AcDbLine
 10
355.086061
 20
841.65515
 11
355.086061
 21
839.055175
  0
LINE
  5
318
100
AcDbEntity
  8
M0
100
AcDbLine
 10
353.791872
 20
836.055175
 11
348.830202
 21
836.05519
  0
LINE
  5
319
100
AcDbEntity
  8
M0
100
AcDbLine
 10
347.536013
 20
839.055175
 11
347.536013
 21
841.65515
  0
LINE
  5
31A
100
AcDbEntity
  8
M0
  6
DASHDOT
100
AcDbLine
 10
345.036013
 20
840.355224
 11
357.586061
 21
840.355224
  0
LINE
  5
31B
100
AcDbEntity
  8
M0
100
AcDbLine
 10
352.901735
 20
841.946043
 11
349.720095
 21
838.764281
  0
LINE
  5
31C
100
AcDbEntity
  8
M0
100
AcDbLine
 10
351.66443
 20
838.941039
 11
349.896852
 21
840.708739
  0
LINE
  5
31D
100
AcDbEntity
  8
M0
100
AcDbLine
 10
352.724977
 20
840.001708
 11
350.957399
 21
841.769285
  0
ARC
  5
31E
100
AcDbEntity
  8
M0
100
AcDbCircle
 10
348.830202
 20
836.55519
 40
0.5
100
AcDbArc
 50
197.127146
 51
270.0
  0
ARC
  5
31F
100
AcDbEntity
  8
M0
100
AcDbCircle
 10
348.830202
 20
844.15515
 40
0.5
100
AcDbArc
 50
90.0
 51
162.871263
  0
ARC
  5
320
100
AcDbEntity
  8
M0
100
AcDbCircle
 10
353.791872
 20
844.15515
 40
0.5
100
AcDbArc
 50
17.138555
 51
90.0
  0
ARC
  5
321
100
AcDbEntity
  8
M0
100
AcDbCircle
 10
353.791872
 20
836.55519
 40
0.5
100
AcDbArc
 50
270.0
 51
342.862931
  0
LINE
  5
322
100
AcDbEntity
  8
M0
  6
DASHDOT
100
AcDbLine
 10
351.311159
 20
847.155134
 11
351.311159
 21
832.979826
  0
CIRCLE
  5
323
100
AcDbEntity
  8
M0
100
AcDbCircle
 10
363.811152
 20
840.155224
 40
3.0
  0
LINE
  5
324
100
AcDbEntity
  8
M0
100
AcDbLine
 10
360.852168
 20
836.207882
 11
360.036006
 21
838.855175
  0
LINE
  5
325
100
AcDbEntity
  8
M0
100
AcDbLine
 10
360.852168
 20
844.102473
 11
360.036006
 21
841.45515
  0
LINE
  5
326
100
AcDbEntity
  8
M0
100
AcDbLine
 10
366.769648
 20
836.207867
 11
367.586054
 21
838.855175
  0
LINE
  5
327
100
AcDbEntity
  8
M0
100
AcDbLine
 10
366.769648
 20
844.102488
 11
367.586054
 21
841.45515
  0
LINE
  5
328
100
AcDbEntity
  8
M0
100
AcDbLine
 10
361.330195
 20
844.45515
 11
366.291865
 21
844.45515
  0
LINE
  5
329
100
AcDbEntity
  8
M0
100
AcDbLine
 10
367.586054
 20
841.45515
 11
367.586054
 21
838.855175
  0
LINE
  5
32A
100
AcDbEntity
  8
M0
100
AcDbLine
 10
366.291865
 20
835.855175
 11
361.330195
 21
835.85519
  0
LINE
  5
32B
100
AcDbEntity
  8
M0
100
AcDbLine
 10
360.036006
 20
838.855175
 11
360.036006
 21
841.45515
  0
LINE
  5
32C
100
AcDbEntity
  8
M0
  6
DASHDOT
100
AcDbLine
 10
357.536006
 20
840.155224
 11
370.086054
 21
840.155224
  0
LINE
  5
32D
100
AcDbEntity
  8
M0
100
AcDbLine
 10
365.401728
 20
841.746043
 11
362.220088
 21
838.564281
  0
LINE
  5
32E
100
AcDbEntity
  8
M0
100
AcDbLine
 10
364.164423
 20
838.741039
 11
362.396845
 21
840.508739
  0
LINE
  5
32F
100
AcDbEntity
  8
M0
100
AcDbLine
 10
365.22497
 20
839.801708
 11
363.457392
 21
841.569285
  0
ARC
  5
330
100
AcDbEntity
  8
M0
100
AcDbCircle
 10
361.330195
 20
836.35519
 40
0.5
100
AcDbArc
 50
197.127146
 51
270.0
  0
ARC
  5
331
100
AcDbEntity
  8
M0
100
AcDbCircle
 10
361.330195
 20
843.95515
 40
0.5
100
AcDbArc
 50
90.0
 51
162.871263
  0
ARC
  5
332
100
AcDbEntity
  8
M0
100
AcDbCircle
 10
366.291865
 20
843.95515
 40
0.5
100
AcDbArc
 50
17.138555
 51
90.0
  0
ARC
  5
333
100
AcDbEntity
  8
M0
100
AcDbCircle
 10
366.291865
 20
836.35519
 40
0.5
100
AcDbArc
 50
270.0
 51
342.862931
  0
LINE
  5
334
100
AcDbEntity
  8
M0
  6
DASHDOT
100
AcDbLine
 10
363.811152
 20
846.955134
 11
363.811152
 21
832.779826
  0
CIRCLE
  5
335
100
AcDbEntity
  8
M0
100
AcDbCircle
 10
363.811165
 20
880.155224
 40
3.0
  0
LINE
  5
336
100
AcDbEntity
  8
M0
100
AcDbLine
 10
360.85218
 20
876.207882
 11
360.036018
 21
878.855175
  0
LINE
  5
337
100
AcDbEntity
  8
M0
100
AcDbLine
 10
360.85218
 20
884.102473
 11
360.036018
 21
881.45515
  0
LINE
  5
338
100
AcDbEntity
  8
M0
100
AcDbLine
 10
366.769661
 20
876.207867
 11
367.586067
 21
878.855175
  0
LINE
  5
339
100
AcDbEntity
  8
M0
100
AcDbLine
 10
366.769661
 20
884.102488
 11
367.586067
 21
881.45515
  0
LINE
  5
33A
100
AcDbEntity
  8
M0
100
AcDbLine
 10
361.330208
 20
884.45515
 11
366.291877
 21
884.45515
  0
LINE
  5
33B
100
AcDbEntity
  8
M0
100
AcDbLine
 10
367.586067
 20
881.45515
 11
367.586067
 21
878.855175
  0
LINE
  5
33C
100
AcDbEntity
  8
M0
100
AcDbLine
 10
366.291877
 20
875.855175
 11
361.330208
 21
875.85519
  0
LINE
  5
33D
100
AcDbEntity
  8
M0
100
AcDbLine
 10
360.036018
 20
878.855175
 11
360.036018
 21
881.45515
  0
LINE
  5
33E
100
AcDbEntity
  8
M0
  6
DASHDOT
100
AcDbLine
 10
357.536019
 20
880.155224
 11
370.086067
 21
880.155224
  0
LINE
  5
33F
100
AcDbEntity
  8
M0
100
AcDbLine
 10
365.401741
 20
881.746043
 11
362.2201
 21
878.564281
  0
LINE
  5
340
100
AcDbEntity
  8
M0
100
AcDbLine
 10
364.164436
 20
878.741039
 11
362.396858
 21
880.508739
  0
LINE
  5
341
100
AcDbEntity
  8
M0
100
AcDbLine
 10
365.224983
 20
879.801708
 11
363.457405
 21
881.569285
  0
ARC
  5
342
100
AcDbEntity
  8
M0
100
AcDbCircle
 10
361.330208
 20
876.35519
 40
0.5
100
AcDbArc
 50
197.127146
 51
270.0
  0
ARC
  5
343
100
AcDbEntity
  8
M0
100
AcDbCircle
 10
361.330208
 20
883.95515
 40
0.5
100
AcDbArc
 50
90.0
 51
162.871263
  0
ARC
  5
344
100
AcDbEntity
  8
M0
100
AcDbCircle
 10
366.291877
 20
883.95515
 40
0.5
100
AcDbArc
 50
17.138555
 51
90.0
  0
ARC
  5
345
100
AcDbEntity
  8
M0
100
AcDbCircle
 10
366.291877
 20
876.35519
 40
0.5
100
AcDbArc
 50
270.0
 51
342.862931
  0
LINE
  5
346
100
AcDbEntity
  8
M0
  6
DASHDOT
100
AcDbLine
 10
363.811165
 20
886.955134
 11
363.811165
 21
872.779826
  0
LINE
  5
347
100
AcDbEntity
  8
M0
 62
     6
100
AcDbLine
 10
363.811149
 20
923.155224
 11
351.811149
 21
923.155224
  0
LINE
  5
348
100
AcDbEntity
  8
M0
 62
     6
100
AcDbLine
 10
363.811149
 20
925.155224
 11
351.811149
 21
925.155224
  0
LINE
  5
349
100
AcDbEntity
  8
M0
 62
     6
100
AcDbLine
 10
358.811149
 20
927.155224
 11
347.411149
 21
927.155224
  0
LINE
  5
34A
100
AcDbEntity
  8
M0
 62
     6
100
AcDbLine
 10
354.111149
 20
956.155224
 11
354.111149
 21
954.655224
  0
LINE
  5
34B
100
AcDbEntity
  8
M0
 62
     6
100
AcDbLine
 10
353.111149
 20
956.155224
 11
353.111149
 21
954.655224
  0
LINE
  5
34C
100
AcDbEntity
  8
M0
 62
     6
100
AcDbLine
 10
353.111149
 20
956.155224
 11
354.111149
 21
956.155224
  0
LINE
  5
34D
100
AcDbEntity
  8
M0
 62
     6
100
AcDbLine
 10
358.111149
 20
954.655224
 11
349.111149
 21
954.655224
  0
LINE
  5
34E
100
AcDbEntity
  8
M0
 62
     6
100
AcDbLine
 10
358.111149
 20
939.155224
 11
358.111149
 21
954.655224
  0
LINE
  5
34F
100
AcDbEntity
  8
M0
 62
     6
100
AcDbLine
 10
366.811149
 20
952.155224
 11
358.111149
 21
952.155224
  0
LINE
  5
350
100
AcDbEntity
  8
M0
 62
     6
100
AcDbLine
 10
347.411149
 20
939.155224
 11
368.211149
 21
939.155224
  0
LINE
  5
351
100
AcDbEntity
  8
M0
 62
     6
100
AcDbLine
 10
348.811149
 20
929.155224
 11
356.811149
 21
929.155224
  0
LINE
  5
352
100
AcDbEntity
  8
M0
 62
     6
100
AcDbLine
 10
348.811149
 20
939.155224
 11
348.811149
 21
929.155224
  0
LINE
  5
353
100
AcDbEntity
  8
M0
 62
     6
100
AcDbLine
 10
356.811149
 20
939.155224
 11
356.811149
 21
929.155224
  0
LINE
  5
354
100
AcDbEntity
  8
M0
 62
     6
100
AcDbLine
 10
366.811149
 20
952.155224
 11
366.811149
 21
939.155224
  0
LINE
  5
355
100
AcDbEntity
  8
M0
 62
     6
100
AcDbLine
 10
358.811149
 20
952.155224
 11
358.811149
 21
939.155224
  0
LINE
  5
356
100
AcDbEntity
  8
M0
 62
     6
100
AcDbLine
 10
356.811149
 20
938.655224
 11
348.811149
 21
938.655224
  0
LINE
  5
357
100
AcDbEntity
  8
M0
 62
     6
100
AcDbLine
 10
366.811149
 20
948.655224
 11
358.811149
 21
948.655224
  0
LINE
  5
358
100
AcDbEntity
  8
M0
 62
     6
100
AcDbLine
 10
362.811149
 20
929.655224
 11
358.811149
 21
929.655224
  0
LINE
  5
359
100
AcDbEntity
  8
M0
 62
     6
100
AcDbLine
 10
357.811149
 20
895.155224
 11
350.060147
 21
895.155224
  0
LINE
  5
35A
100
AcDbEntity
  8
M0
 62
     6
100
AcDbLine
 10
357.811149
 20
893.155224
 11
352.383271
 21
893.155224
  0
LINE
  5
35B
100
AcDbEntity
  8
M0
 62
     6
100
AcDbLine
 10
363.861149
 20
763.055224
 11
365.811149
 21
763.055224
  0
LINE
  5
35C
100
AcDbEntity
  8
M0
 62
     6
100
AcDbLine
 10
361.761149
 20
763.055224
 11
361.761149
 21
748.055224
  0
LINE
  5
35D
100
AcDbEntity
  8
M0
 62
     6
100
AcDbLine
 10
363.861149
 20
763.055224
 11
363.861149
 21
748.055224
  0
LINE
  5
35E
100
AcDbEntity
  8
M0
 62
     6
100
AcDbLine
 10
365.811149
 20
748.055224
 11
365.811149
 21
763.055224
  0
LINE
  5
35F
100
AcDbEntity
  8
M0
 62
     6
100
AcDbLine
 10
359.811149
 20
763.055224
 11
359.811149
 21
748.055224
  0
LINE
  5
360
100
AcDbEntity
  8
M0
 62
     6
100
AcDbLine
 10
359.811149
 20
763.055224
 11
361.761149
 21
763.055224
  0
LINE
  5
361
100
AcDbEntity
  8
M0
 62
     6
100
AcDbLine
 10
368.211149
 20
939.155224
 11
368.211149
 21
903.155222
  0
LINE
  5
362
100
AcDbEntity
  8
M0
 62
     6
100
AcDbLine
 10
366.511149
 20
748.055224
 11
366.511149
 21
730.155224
  0
LINE
  5
363
100
AcDbEntity
  8
M0
 62
     6
100
AcDbLine
 10
347.411149
 20
939.155224
 11
347.411149
 21
895.35522
  0
LINE
  5
364
100
AcDbEntity
  8
M0
 62
     6
100
AcDbLine
 10
349.111149
 20
748.055224
 11
349.111149
 21
730.155224
  0
LINE
  5
365
100
AcDbEntity
  8
M0
 62
     6
100
AcDbLine
 10
347.411149
 20
748.055224
 11
368.211149
 21
748.055224
  0
CIRCLE
  5
366
100
AcDbEntity
  8
M0
 62
     6
100
AcDbCircle
 10
351.811149
 20
880.155224
 40
4.0
  0
CIRCLE
  5
367
100
AcDbEntity
  8
M0
 62
     6
100
AcDbCircle
 10
351.811149
 20
818.155224
 40
4.0
  0
LINE
  5
368
100
AcDbEntity
  8
M0
 62
     6
100
AcDbLine
 10
349.111149
 20
968.155224
 11
349.111149
 21
939.155224
  0
LINE
  5
369
100
AcDbEntity
  8
M0
 62
     6
100
AcDbLine
 10
366.511149
 20
968.155224
 11
366.511149
 21
952.155224
  0
LINE
  5
36A
100
AcDbEntity
  8
M0
  6
DASHDOT
 62
     6
100
AcDbLine
 10
357.811149
 20
720.155224
 11
357.811149
 21
978.155224
  0
LINE
  5
36B
100
AcDbEntity
  8
M0
  6
DASHDOT
 62
     6
100
AcDbLine
 10
336.311149
 20
849.155224
 11
379.311149
 21
849.155224
  0
LINE
  5
36C
100
AcDbEntity
  8
M0
 62
     6
100
AcDbLine
 10
346.311149
 20
730.155224
 11
369.311149
 21
730.155224
  0
LINE
  5
36D
100
AcDbEntity
  8
M0
 62
     6
100
AcDbLine
 10
346.311149
 20
968.155224
 11
346.311149
 21
895.355221
  0
LINE
  5
36E
100
AcDbEntity
  8
M0
 62
     6
100
AcDbLine
 10
369.311149
 20
968.155224
 11
346.311149
 21
968.155224
  0
LINE
  5
36F
100
AcDbEntity
  8
M0
 62
     6
100
AcDbLine
 10
369.311149
 20
730.155224
 11
369.311149
 21
817.155222
  0
ARC
  5
370
100
AcDbEntity
  8
M0
 62
     6
100
AcDbCircle
 10
359.811149
 20
747.055224
 40
3.0
100
AcDbArc
 50
270.0
 51
360.0
  0
ARC
  5
371
100
AcDbEntity
  8
M0
 62
     6
100
AcDbCircle
 10
355.811149
 20
747.055224
 40
3.0
100
AcDbArc
 50
180.0
 51
270.0
  0
LINE
  5
372
100
AcDbEntity
  8
M0
 62
     6
100
AcDbLine
 10
359.811149
 20
744.055224
 11
355.811149
 21
744.055224
  0
LINE
  5
373
100
AcDbEntity
  8
M0
 62
     6
100
AcDbLine
 10
362.811149
 20
747.055224
 11
362.811149
 21
748.055224
  0
LINE
  5
374
100
AcDbEntity
  8
M0
 62
     6
100
AcDbLine
 10
352.811149
 20
747.055224
 11
352.811149
 21
748.055224
  0
LINE
  5
375
100
AcDbEntity
  8
M0
 62
     6
100
AcDbLine
 10
362.811149
 20
939.155224
 11
362.811149
 21
929.655224
  0
LINE
  5
376
100
AcDbEntity
  8
M0
 62
     6
100
AcDbLine
 10
358.811149
 20
927.155224
 11
358.811149
 21
929.655224
  0
ARC
  5
377
100
AcDbEntity
  8
M0
 62
     6
100
AcDbCircle
 10
363.811149
 20
924.155224
 40
1.0
100
AcDbArc
 50
0.0
 51
90.0
  0
ARC
  5
378
100
AcDbEntity
  8
M0
 62
     6
100
AcDbCircle
 10
363.811149
 20
924.155224
 40
1.0
100
AcDbArc
 50
270.0
 51
360.0
  0
ARC
  5
379
100
AcDbEntity
  8
M0
 62
     6
100
AcDbCircle
 10
351.811149
 20
924.155224
 40
1.0
100
AcDbArc
 50
180.0
 51
270.0
  0
ARC
  5
37A
100
AcDbEntity
  8
M0
 62
     6
100
AcDbCircle
 10
351.811149
 20
924.155224
 40
1.0
100
AcDbArc
 50
90.0
 51
180.0
  0
CIRCLE
  5
37B
100
AcDbEntity
  8
M0
 62
     6
100
AcDbCircle
 10
351.811149
 20
818.155224
 40
1.75
  0
ARC
  5
37C
100
AcDbEntity
  8
M0
 62
     6
100
AcDbCircle
 10
363.811149
 20
818.155224
 40
4.0
100
AcDbArc
 50
194.477494
 51
345.52247
  0
ARC
  5
37D
100
AcDbEntity
  8
M0
 62
     6
100
AcDbCircle
 10
363.811149
 20
818.155224
 40
1.75
100
AcDbArc
 50
214.849887
 51
325.150077
  0
LINE
  5
37E
100
AcDbEntity
  8
M0
 62
     6
100
AcDbLine
 10
369.311149
 20
903.155222
 11
369.311149
 21
968.155224
  0
LINE
  5
37F
100
AcDbEntity
  8
M0
 62
     6
100
AcDbLine
 10
368.211149
 20
817.155222
 11
368.211149
 21
748.055224
  0
LINE
  5
380
100
AcDbEntity
  8
M0
 62
     6
100
AcDbLine
 10
346.311149
 20
825.355242
 11
346.311149
 21
730.155224
  0
LINE
  5
381
100
AcDbEntity
  8
M0
 62
     6
100
AcDbLine
 10
347.411149
 20
825.355239
 11
347.411149
 21
748.055224
  0
CIRCLE
  5
382
100
AcDbEntity
  8
M0
100
AcDbCircle
 10
362.811149
 20
943.655224
 40
3.0
  0
LINE
  5
383
100
AcDbEntity
  8
M0
100
AcDbLine
 10
359.852164
 20
939.707882
 11
359.036002
 21
942.355175
  0
LINE
  5
384
100
AcDbEntity
  8
M0
100
AcDbLine
 10
359.852164
 20
947.602473
 11
359.036002
 21
944.95515
  0
LINE
  5
385
100
AcDbEntity
  8
M0
100
AcDbLine
 10
365.769645
 20
939.707867
 11
366.586051
 21
942.355175
  0
LINE
  5
386
100
AcDbEntity
  8
M0
100
AcDbLine
 10
365.769645
 20
947.602488
 11
366.586051
 21
944.95515
  0
LINE
  5
387
100
AcDbEntity
  8
M0
100
AcDbLine
 10
360.330192
 20
947.95515
 11
365.291861
 21
947.95515
  0
LINE
  5
388
100
AcDbEntity
  8
M0
100
AcDbLine
 10
366.586051
 20
944.95515
 11
366.586051
 21
942.355175
  0
LINE
  5
389
100
AcDbEntity
  8
M0
100
AcDbLine
 10
365.291861
 20
939.355175
 11
360.330192
 21
939.35519
  0
LINE
  5
38A
100
AcDbEntity
  8
M0
100
AcDbLine
 10
359.036002
 20
942.355175
 11
359.036002
 21
944.95515
  0
LINE
  5
38B
100
AcDbEntity
  8
M0
  6
DASHDOT
100
AcDbLine
 10
356.536003
 20
943.655224
 11
369.086051
 21
943.655224
  0
LINE
  5
38C
100
AcDbEntity
  8
M0
100
AcDbLine
 10
364.401725
 20
945.246043
 11
361.220084
 21
942.064281
  0
LINE
  5
38D
100
AcDbEntity
  8
M0
100
AcDbLine
 10
363.16442
 20
942.241039
 11
361.396842
 21
944.008739
  0
LINE
  5
38E
100
AcDbEntity
  8
M0
100
AcDbLine
 10
364.224967
 20
943.301708
 11
362.457389
 21
945.069285
  0
ARC
  5
38F
100
AcDbEntity
  8
M0
100
AcDbCircle
 10
360.330192
 20
939.85519
 40
0.5
100
AcDbArc
 50
197.127146
 51
270.0
  0
ARC
  5
390
100
AcDbEntity
  8
M0
100
AcDbCircle
 10
360.330192
 20
947.45515
 40
0.5
100
AcDbArc
 50
90.0
 51
162.871263
  0
ARC
  5
391
100
AcDbEntity
  8
M0
100
AcDbCircle
 10
365.291861
 20
947.45515
 40
0.5
100
AcDbArc
 50
17.138555
 51
90.0
  0
ARC
  5
392
100
AcDbEntity
  8
M0
100
AcDbCircle
 10
365.291861
 20
939.85519
 40
0.5
100
AcDbArc
 50
270.0
 51
342.862931
  0
LINE
  5
393
100
AcDbEntity
  8
M0
  6
DASHDOT
100
AcDbLine
 10
362.811149
 20
950.455134
 11
362.811149
 21
936.279826
  0
CIRCLE
  5
394
100
AcDbEntity
  8
M0
100
AcDbCircle
 10
352.811149
 20
933.655224
 40
3.0
  0
LINE
  5
395
100
AcDbEntity
  8
M0
100
AcDbLine
 10
349.852164
 20
929.707882
 11
349.036002
 21
932.355175
  0
LINE
  5
396
100
AcDbEntity
  8
M0
100
AcDbLine
 10
349.852164
 20
937.602473
 11
349.036002
 21
934.95515
  0
LINE
  5
397
100
AcDbEntity
  8
M0
100
AcDbLine
 10
355.769645
 20
929.707867
 11
356.586051
 21
932.355175
  0
LINE
  5
398
100
AcDbEntity
  8
M0
100
AcDbLine
 10
355.769645
 20
937.602488
 11
356.586051
 21
934.95515
  0
LINE
  5
399
100
AcDbEntity
  8
M0
100
AcDbLine
 10
350.330192
 20
937.95515
 11
355.291861
 21
937.95515
  0
LINE
  5
39A
100
AcDbEntity
  8
M0
100
AcDbLine
 10
356.586051
 20
934.95515
 11
356.586051
 21
932.355175
  0
LINE
  5
39B
100
AcDbEntity
  8
M0
100
AcDbLine
 10
355.291861
 20
929.355175
 11
350.330192
 21
929.35519
  0
LINE
  5
39C
100
AcDbEntity
  8
M0
100
AcDbLine
 10
349.036002
 20
932.355175
 11
349.036002
 21
934.95515
  0
LINE
  5
39D
100
AcDbEntity
  8
M0
  6
DASHDOT
100
AcDbLine
 10
346.536003
 20
933.655224
 11
359.086051
 21
933.655224
  0
LINE
  5
39E
100
AcDbEntity
  8
M0
100
AcDbLine
 10
354.401725
 20
935.246043
 11
351.220084
 21
932.064281
  0
LINE
  5
39F
100
AcDbEntity
  8
M0
100
AcDbLine
 10
353.16442
 20
932.241039
 11
351.396842
 21
934.008739
  0
LINE
  5
3A0
100
AcDbEntity
  8
M0
100
AcDbLine
 10
354.224967
 20
933.301708
 11
352.457389
 21
935.069285
  0
ARC
  5
3A1
100
AcDbEntity
  8
M0
100
AcDbCircle
 10
350.330192
 20
929.85519
 40
0.5
100
AcDbArc
 50
197.127146
 51
270.0
  0
ARC
  5
3A2
100
AcDbEntity
  8
M0
100
AcDbCircle
 10
350.330192
 20
937.45515
 40
0.5
100
AcDbArc
 50
90.0
 51
162.871263
  0
ARC
  5
3A3
100
AcDbEntity
  8
M0
100
AcDbCircle
 10
355.291861
 20
937.45515
 40
0.5
100
AcDbArc
 50
17.138555
 51
90.0
  0
ARC
  5
3A4
100
AcDbEntity
  8
M0
100
AcDbCircle
 10
355.291861
 20
929.85519
 40
0.5
100
AcDbArc
 50
270.0
 51
342.862931
  0
LINE
  5
3A5
100
AcDbEntity
  8
M0
  6
DASHDOT
100
AcDbLine
 10
352.811149
 20
940.455134
 11
352.811149
 21
926.279826
  0
LINE
  5
3A6
100
AcDbEntity
  8
M0
100
AcDbLine
 10
345.311149
 20
945.355113
 11
337.311141
 21
945.355113
  0
LINE
  5
3A7
100
AcDbEntity
  8
M0
100
AcDbLine
 10
183.311149
 20
932.155113
 11
191.311149
 21
932.155113
  0
LINE
  5
3A8
100
AcDbEntity
  8
M0
  6
DASHDOT
100
AcDbLine
 10
264.311149
 20
922.155113
 11
264.311149
 21
955.355113
  0
LINE
  5
3A9
100
AcDbEntity
  8
M0
100
AcDbLine
 10
345.311149
 20
948.555113
 11
337.311139
 21
948.555113
  0
LINE
  5
3AA
100
AcDbEntity
  8
M0
100
AcDbLine
 10
345.311149
 20
932.155113
 11
345.311149
 21
948.555113
  0
LINE
  5
3AB
100
AcDbEntity
  8
M0
100
AcDbLine
 10
183.311149
 20
948.555113
 11
183.311149
 21
932.155113
  0
LINE
  5
3AC
100
AcDbEntity
  8
M0
100
AcDbLine
 10
221.311149
 20
932.155113
 11
226.211149
 21
932.155113
  0
LINE
  5
3AD
100
AcDbEntity
  8
M0
100
AcDbLine
 10
191.311141
 20
945.355113
 11
183.311149
 21
945.355113
  0
LINE
  5
3AE
100
AcDbEntity
  8
M0
100
AcDbLine
 10
191.311139
 20
948.555113
 11
183.311149
 21
948.555113
  0
LINE
  5
3AF
100
AcDbEntity
  8
M0
100
AcDbLine
 10
305.211149
 20
932.155113
 11
307.311149
 21
932.155113
  0
LINE
  5
3B0
100
AcDbEntity
  8
M0
100
AcDbLine
 10
226.211149
 20
945.355113
 11
221.311141
 21
945.355113
  0
LINE
  5
3B1
100
AcDbEntity
  8
M0
100
AcDbLine
 10
249.311139
 20
948.555113
 11
221.311139
 21
948.555113
  0
LINE
  5
3B2
100
AcDbEntity
  8
M0
100
AcDbLine
 10
337.311149
 20
932.155113
 11
345.311149
 21
932.155113
  0
LINE
  5
3B3
100
AcDbEntity
  8
M0
100
AcDbLine
 10
307.311141
 20
945.355113
 11
305.211149
 21
945.355113
  0
LINE
  5
3B4
100
AcDbEntity
  8
M0
100
AcDbLine
 10
307.311139
 20
948.555113
 11
291.211149
 21
948.555113
  0
LINE
  5
3B5
100
AcDbEntity
  8
M0
 62
     4
100
AcDbLine
 10
226.211149
 20
946.155224
 11
226.211149
 21
926.15522
  0
LINE
  5
3B6
100
AcDbEntity
  8
M0
 62
     4
100
AcDbLine
 10
305.211149
 20
926.821908
 11
305.211149
 21
946.155224
  0
LINE
  5
3B7
100
AcDbEntity
  8
M0
 62
     4
100
AcDbLine
 10
299.711149
 20
941.155224
 11
299.711149
 21
926.15522
  0
LINE
  5
3B8
100
AcDbEntity
  8
M0
 62
     4
100
AcDbLine
 10
291.711149
 20
941.155224
 11
291.711149
 21
927.155224
  0
LINE
  5
3B9
100
AcDbEntity
  8
M0
 62
     4
100
AcDbLine
 10
242.711149
 20
941.155224
 11
242.711149
 21
927.155224
  0
LINE
  5
3BA
100
AcDbEntity
  8
M0
 62
     4
100
AcDbLine
 10
236.711149
 20
941.155224
 11
236.711149
 21
927.155224
  0
LINE
  5
3BB
100
AcDbEntity
  8
M0
 62
     4
100
AcDbLine
 10
228.711149
 20
941.155224
 11
228.711149
 21
926.15522
  0
LINE
  5
3BC
100
AcDbEntity
  8
M0
 62
     4
100
AcDbLine
 10
226.211149
 20
946.155224
 11
247.211149
 21
946.155224
  0
ARC
  5
3BD
100
AcDbEntity
  8
M0
 62
     4
100
AcDbCircle
 10
247.211149
 20
950.155224
 40
4.0
100
AcDbArc
 50
270.0
 51
301.668102
  0
LINE
  5
3BE
100
AcDbEntity
  8
M0
 62
     4
100
AcDbLine
 10
291.211149
 20
941.155224
 11
291.211149
 21
951.155224
  0
LINE
  5
3BF
100
AcDbEntity
  8
M0
 62
     4
100
AcDbLine
 10
295.211149
 20
946.155224
 11
305.211149
 21
946.155224
  0
ARC
  5
3C0
100
AcDbEntity
  8
M0
 62
     4
100
AcDbCircle
 10
295.211149
 20
950.155224
 40
4.0
100
AcDbArc
 50
180.0
 51
270.0
  0
LINE
  5
3C1
100
AcDbEntity
  8
M0
 62
     4
100
AcDbLine
 10
291.211149
 20
951.155224
 11
279.311137
 21
951.155224
  0
LINE
  5
3C2
100
AcDbEntity
  8
M0
 62
     4
100
AcDbLine
 10
228.711149
 20
941.155224
 11
226.211149
 21
941.155224
  0
LINE
  5
3C3
100
AcDbEntity
  8
M0
 62
     4
100
AcDbLine
 10
242.711149
 20
941.155224
 11
236.711149
 21
941.155224
  0
LINE
  5
3C4
100
AcDbEntity
  8
M0
 62
     4
100
AcDbLine
 10
305.211149
 20
941.155224
 11
299.711149
 21
941.155224
  0
LINE
  5
3C5
100
AcDbEntity
  8
M0
 62
     4
100
AcDbLine
 10
287.711149
 20
927.155224
 11
287.711149
 21
941.155224
  0
LINE
  5
3C6
100
AcDbEntity
  8
M0
 62
     4
100
AcDbLine
 10
291.711149
 20
941.155224
 11
287.711149
 21
941.155224
  0
LINE
  5
3C7
100
AcDbEntity
  8
M0
 62
     4
100
AcDbLine
 10
291.711149
 20
936.155224
 11
299.711149
 21
936.155224
  0
LINE
  5
3C8
100
AcDbEntity
  8
M0
 62
     4
100
AcDbLine
 10
242.711149
 20
936.155224
 11
249.311147
 21
936.155224
  0
LINE
  5
3C9
100
AcDbEntity
  8
M0
 62
     4
100
AcDbLine
 10
228.711149
 20
936.155224
 11
236.711149
 21
936.155224
  0
LINE
  5
3CA
100
AcDbEntity
  8
M0
 62
   114
100
AcDbLine
 10
325.159739
 20
960.155148
 11
328.423451
 21
963.41886
  0
LINE
  5
3CB
100
AcDbEntity
  8
M0
 62
   114
100
AcDbLine
 10
324.159841
 20
959.15525
 11
324.311213
 21
959.306622
  0
LINE
  5
3CC
100
AcDbEntity
  8
M0
 62
   114
100
AcDbLine
 10
323.46273
 20
960.155105
 11
322.462875
 21
959.155249
  0
LINE
  5
3CD
100
AcDbEntity
  8
M0
 62
   114
100
AcDbLine
 10
327.574979
 20
964.267375
 11
324.311256
 21
961.003631
  0
LINE
  5
3CE
100
AcDbEntity
  8
M0
 62
   114
100
AcDbLine
 10
324.311246
 20
961.003642
 11
322.543479
 21
962.771409
  0
LINE
  5
3CF
100
AcDbEntity
  8
M0
 62
   114
100
AcDbLine
 10
326.159636
 20
959.155252
 11
325.159739
 21
960.155148
  0
LINE
  5
3D0
100
AcDbEntity
  8
M0
 62
   114
100
AcDbLine
 10
324.311213
 20
959.306622
 11
324.462585
 21
959.155251
  0
LINE
  5
3D1
100
AcDbEntity
  8
M0
 62
   114
100
AcDbLine
 10
321.694953
 20
961.922883
 11
323.46272
 21
960.155116
  0
LINE
  5
3D2
100
AcDbEntity
  8
M0
 62
   114
100
AcDbLine
 10
322.543479
 20
962.771409
 11
321.694953
 21
961.922883
  0
ARC
  5
3D3
100
AcDbEntity
  8
M0
 62
   114
100
AcDbCircle
 10
324.311149
 20
960.155224
 40
5.75
100
AcDbArc
 50
349.984895
 51
550.015177
  0
ARC
  5
3D4
100
AcDbEntity
  8
M0
 62
   114
100
AcDbCircle
 10
324.311149
 20
960.155224
 40
5.25
100
AcDbArc
 50
349.019757
 51
550.980315
  0
LINE
  5
3D5
100
AcDbEntity
  8
M0
 62
   114
100
AcDbLine
 10
193.018265
 20
829.355235
 11
195.114198
 21
831.451168
  0
LINE
  5
3D6
100
AcDbEntity
  8
M0
 62
   114
100
AcDbLine
 10
190.215215
 20
826.552185
 11
192.311158
 21
828.648129
  0
LINE
  5
3D7
100
AcDbEntity
  8
M0
 62
   114
100
AcDbLine
 10
191.604052
 20
829.355235
 11
189.508108
 21
827.259292
  0
LINE
  5
3D8
100
AcDbEntity
  8
M0
 62
   114
100
AcDbLine
 10
194.407091
 20
832.158275
 11
192.311158
 21
830.062342
  0
LINE
  5
3D9
100
AcDbEntity
  8
M0
 62
   114
100
AcDbLine
 10
192.311158
 20
830.062342
 11
191.215108
 21
831.158392
  0
LINE
  5
3DA
100
AcDbEntity
  8
M0
 62
   114
100
AcDbLine
 10
194.114315
 20
828.259185
 11
193.018265
 21
829.355235
  0
LINE
  5
3DB
100
AcDbEntity
  8
M0
 62
   114
100
AcDbLine
 10
192.311158
 20
828.648129
 11
193.407208
 21
827.552079
  0
LINE
  5
3DC
100
AcDbEntity
  8
M0
 62
   114
100
AcDbLine
 10
190.508002
 20
830.451286
 11
191.604052
 21
829.355235
  0
LINE
  5
3DD
100
AcDbEntity
  8
M0
 62
   114
100
AcDbLine
 10
193.407208
 20
827.552079
 11
194.114315
 21
828.259185
  0
LINE
  5
3DE
100
AcDbEntity
  8
M0
 62
   114
100
AcDbLine
 10
191.215108
 20
831.158392
 11
190.508002
 21
830.451286
  0
ARC
  5
3DF
100
AcDbEntity
  8
M0
 62
   114
100
AcDbCircle
 10
192.311158
 20
829.355235
 40
4.0
100
AcDbArc
 50
41.409836
 51
318.590164
  0
ARC
  5
3E0
100
AcDbEntity
  8
M0
 62
   114
100
AcDbCircle
 10
192.311158
 20
829.355235
 40
3.5
100
AcDbArc
 50
31.003032
 51
328.996968
  0
LINE
  5
3E1
100
AcDbEntity
  8
M0
 62
   114
100
AcDbLine
 10
337.018245
 20
829.355235
 11
339.114178
 21
831.451168
  0
LINE
  5
3E2
100
AcDbEntity
  8
M0
 62
   114
100
AcDbLine
 10
334.215195
 20
826.552185
 11
336.311139
 21
828.648129
  0
LINE
  5
3E3
100
AcDbEntity
  8
M0
 62
   114
100
AcDbLine
 10
335.604032
 20
829.355235
 11
333.508089
 21
827.259292
  0
LINE
  5
3E4
100
AcDbEntity
  8
M0
 62
   114
100
AcDbLine
 10
338.407071
 20
832.158275
 11
336.311139
 21
830.062342
  0
LINE
  5
3E5
100
AcDbEntity
  8
M0
 62
   114
100
AcDbLine
 10
336.311139
 20
830.062342
 11
335.215089
 21
831.158392
  0
LINE
  5
3E6
100
AcDbEntity
  8
M0
 62
   114
100
AcDbLine
 10
338.114295
 20
828.259185
 11
337.018245
 21
829.355235
  0
LINE
  5
3E7
100
AcDbEntity
  8
M0
 62
   114
100
AcDbLine
 10
336.311139
 20
828.648129
 11
337.407189
 21
827.552079
  0
LINE
  5
3E8
100
AcDbEntity
  8
M0
 62
   114
100
AcDbLine
 10
334.507982
 20
830.451286
 11
335.604032
 21
829.355235
  0
LINE
  5
3E9
100
AcDbEntity
  8
M0
 62
   114
100
AcDbLine
 10
337.407189
 20
827.552079
 11
338.114295
 21
828.259185
  0
LINE
  5
3EA
100
AcDbEntity
  8
M0
 62
   114
100
AcDbLine
 10
335.215089
 20
831.158392
 11
334.507982
 21
830.451286
  0
ARC
  5
3EB
100
AcDbEntity
  8
M0
 62
   114
100
AcDbCircle
 10
336.311139
 20
829.355235
 40
4.0
100
AcDbArc
 50
221.409836
 51
498.590164
  0
ARC
  5
3EC
100
AcDbEntity
  8
M0
 62
   114
100
AcDbCircle
 10
336.311139
 20
829.355235
 40
3.5
100
AcDbArc
 50
211.003032
 51
508.996968
  0
LINE
  5
3ED
100
AcDbEntity
  8
M0
 62
   114
100
AcDbLine
 10
364.518255
 20
829.155224
 11
366.614188
 21
831.251156
  0
LINE
  5
3EE
100
AcDbEntity
  8
M0
 62
   114
100
AcDbLine
 10
361.715205
 20
826.352174
 11
363.811149
 21
828.448117
  0
LINE
  5
3EF
100
AcDbEntity
  8
M0
 62
   114
100
AcDbLine
 10
363.104042
 20
829.155224
 11
361.008098
 21
827.059281
  0
LINE
  5
3F0
100
AcDbEntity
  8
M0
 62
   114
100
AcDbLine
 10
365.907081
 20
831.958263
 11
363.811149
 21
829.862331
  0
LINE
  5
3F1
100
AcDbEntity
  8
M0
 62
   114
100
AcDbLine
 10
363.811149
 20
829.862331
 11
362.715099
 21
830.958381
  0
LINE
  5
3F2
100
AcDbEntity
  8
M0
 62
   114
100
AcDbLine
 10
365.614305
 20
828.059174
 11
364.518255
 21
829.155224
  0
LINE
  5
3F3
100
AcDbEntity
  8
M0
 62
   114
100
AcDbLine
 10
363.811149
 20
828.448117
 11
364.907199
 21
827.352067
  0
LINE
  5
3F4
100
AcDbEntity
  8
M0
 62
   114
100
AcDbLine
 10
362.007992
 20
830.251274
 11
363.104042
 21
829.155224
  0
CIRCLE
  5
3F5
100
AcDbEntity
  8
M0
 62
   114
100
AcDbCircle
 10
363.811149
 20
829.155224
 40
3.5
  0
LINE
  5
3F6
100
AcDbEntity
  8
M0
 62
   114
100
AcDbLine
 10
364.907199
 20
827.352067
 11
365.614305
 21
828.059174
  0
LINE
  5
3F7
100
AcDbEntity
  8
M0
 62
   114
100
AcDbLine
 10
362.715099
 20
830.958381
 11
362.007992
 21
830.251274
  0
LINE
  5
3F8
100
AcDbEntity
  8
M0
 62
   114
100
AcDbLine
 10
364.518275
 20
891.155224
 11
366.614207
 21
893.251156
  0
LINE
  5
3F9
100
AcDbEntity
  8
M0
 62
   114
100
AcDbLine
 10
361.715225
 20
888.352174
 11
363.811168
 21
890.448117
  0
LINE
  5
3FA
100
AcDbEntity
  8
M0
 62
   114
100
AcDbLine
 10
363.104061
 20
891.155224
 11
361.008118
 21
889.059281
  0
LINE
  5
3FB
100
AcDbEntity
  8
M0
 62
   114
100
AcDbLine
 10
365.907101
 20
893.958263
 11
363.811168
 21
891.862331
  0
LINE
  5
3FC
100
AcDbEntity
  8
M0
 62
   114
100
AcDbLine
 10
363.811168
 20
891.862331
 11
362.715118
 21
892.958381
  0
LINE
  5
3FD
100
AcDbEntity
  8
M0
 62
   114
100
AcDbLine
 10
365.614325
 20
890.059174
 11
364.518275
 21
891.155224
  0
LINE
  5
3FE
100
AcDbEntity
  8
M0
 62
   114
100
AcDbLine
 10
363.811168
 20
890.448117
 11
364.907218
 21
889.352067
  0
LINE
  5
3FF
100
AcDbEntity
  8
M0
 62
   114
100
AcDbLine
 10
362.008011
 20
892.251274
 11
363.104061
 21
891.155224
  0
CIRCLE
  5
400
100
AcDbEntity
  8
M0
 62
   114
100
AcDbCircle
 10
363.811168
 20
891.155224
 40
3.5
  0
LINE
  5
401
100
AcDbEntity
  8
M0
 62
   114
100
AcDbLine
 10
364.907218
 20
889.352067
 11
365.614325
 21
890.059174
  0
LINE
  5
402
100
AcDbEntity
  8
M0
 62
   114
100
AcDbLine
 10
362.715118
 20
892.958381
 11
362.008011
 21
892.251274
  0
CIRCLE
  5
403
100
AcDbEntity
  8
M0
 62
   114
100
AcDbCircle
 10
357.811149
 20
738.155224
 40
4.5
  0
LINE
  5
404
100
AcDbEntity
  8
M0
 62
   114
100
AcDbLine
 10
358.65975
 20
738.155159
 11
361.389032
 21
740.88444
  0
LINE
  5
405
100
AcDbEntity
  8
M0
 62
   114
100
AcDbLine
 10
355.081921
 20
734.57733
 11
357.811213
 21
737.306622
  0
LINE
  5
406
100
AcDbEntity
  8
M0
 62
   114
100
AcDbLine
 10
356.96273
 20
738.155105
 11
354.233406
 21
735.425781
  0
LINE
  5
407
100
AcDbEntity
  8
M0
 62
   114
100
AcDbLine
 10
360.54057
 20
741.732966
 11
357.811267
 21
739.003642
  0
LINE
  5
408
100
AcDbEntity
  8
M0
 62
   114
100
AcDbLine
 10
357.811213
 20
737.306622
 11
359.08404
 21
736.033796
  0
LINE
  5
409
100
AcDbEntity
  8
M0
 62
   114
100
AcDbLine
 10
355.689893
 20
739.427943
 11
356.96272
 21
738.155116
  0
LINE
  5
40A
100
AcDbEntity
  8
M0
 62
   114
100
AcDbLine
 10
357.811256
 20
739.003653
 11
356.53843
 21
740.276479
  0
LINE
  5
40B
100
AcDbEntity
  8
M0
 62
   114
100
AcDbLine
 10
359.932577
 20
736.882332
 11
358.65975
 21
738.155159
  0
LINE
  5
40C
100
AcDbEntity
  8
M0
 62
   114
100
AcDbLine
 10
359.08404
 20
736.033796
 11
359.932577
 21
736.882332
  0
LINE
  5
40D
100
AcDbEntity
  8
M0
 62
   114
100
AcDbLine
 10
356.53843
 20
740.276479
 11
355.689893
 21
739.427943
  0
CIRCLE
  5
40E
100
AcDbEntity
  8
M0
 62
   114
100
AcDbCircle
 10
357.811149
 20
738.155224
 40
5.0
  0
CIRCLE
  5
40F
100
AcDbEntity
  8
M0
 62
   114
100
AcDbCircle
 10
357.811149
 20
960.155224
 40
4.5
  0
LINE
  5
410
100
AcDbEntity
  8
M0
 62
   114
100
AcDbLine
 10
358.65975
 20
960.155159
 11
361.389032
 21
962.88444
  0
LINE
  5
411
100
AcDbEntity
  8
M0
 62
   114
100
AcDbLine
 10
355.081921
 20
956.57733
 11
357.811213
 21
959.306622
  0
LINE
  5
412
100
AcDbEntity
  8
M0
 62
   114
100
AcDbLine
 10
356.96273
 20
960.155105
 11
354.233406
 21
957.425781
  0
LINE
  5
413
100
AcDbEntity
  8
M0
 62
   114
100
AcDbLine
 10
360.54057
 20
963.732966
 11
357.811267
 21
961.003642
  0
LINE
  5
414
100
AcDbEntity
  8
M0
 62
   114
100
AcDbLine
 10
357.811213
 20
959.306622
 11
359.08404
 21
958.033796
  0
LINE
  5
415
100
AcDbEntity
  8
M0
 62
   114
100
AcDbLine
 10
355.689893
 20
961.427943
 11
356.96272
 21
960.155116
  0
LINE
  5
416
100
AcDbEntity
  8
M0
 62
   114
100
AcDbLine
 10
357.811256
 20
961.003653
 11
356.53843
 21
962.276479
  0
LINE
  5
417
100
AcDbEntity
  8
M0
 62
   114
100
AcDbLine
 10
359.932577
 20
958.882332
 11
358.65975
 21
960.155159
  0
LINE
  5
418
100
AcDbEntity
  8
M0
 62
   114
100
AcDbLine
 10
359.08404
 20
958.033796
 11
359.932577
 21
958.882332
  0
LINE
  5
419
100
AcDbEntity
  8
M0
 62
   114
100
AcDbLine
 10
356.53843
 20
962.276479
 11
355.689893
 21
961.427943
  0
CIRCLE
  5
41A
100
AcDbEntity
  8
M0
 62
   114
100
AcDbCircle
 10
357.811149
 20
960.155224
 40
5.0
  0
CIRCLE
  5
41B
100
AcDbEntity
  8
M0
 62
   114
100
AcDbCircle
 10
232.711149
 20
931.155224
 40
3.0
  0
LINE
  5
41C
100
AcDbEntity
  8
M0
 62
   114
100
AcDbLine
 10
230.265935
 20
929.417118
 11
232.074746
 21
931.225928
  0
LINE
  5
41D
100
AcDbEntity
  8
M0
 62
   114
100
AcDbLine
 10
230.973042
 20
928.710011
 11
232.781853
 21
930.518821
  0
LINE
  5
41E
100
AcDbEntity
  8
M0
 62
   114
100
AcDbLine
 10
233.771819
 20
929.528854
 11
232.781853
 21
930.518821
  0
LINE
  5
41F
100
AcDbEntity
  8
M0
 62
   114
100
AcDbLine
 10
234.337507
 20
930.094542
 11
233.34754
 21
931.084509
  0
LINE
  5
420
100
AcDbEntity
  8
M0
 62
   114
100
AcDbLine
 10
231.084801
 20
932.215873
 11
231.650488
 21
932.781561
  0
LINE
  5
421
100
AcDbEntity
  8
M0
 62
   114
100
AcDbLine
 10
234.337496
 20
930.094553
 11
233.771809
 21
929.528865
  0
LINE
  5
422
100
AcDbEntity
  8
M0
 62
   114
100
AcDbLine
 10
233.34754
 20
931.084509
 11
235.156351
 21
932.893319
  0
LINE
  5
423
100
AcDbEntity
  8
M0
 62
   114
100
AcDbLine
 10
232.640434
 20
931.791616
 11
231.650488
 21
932.781561
  0
LINE
  5
424
100
AcDbEntity
  8
M0
 62
   114
100
AcDbLine
 10
232.640434
 20
931.791616
 11
234.449244
 21
933.600426
  0
LINE
  5
425
100
AcDbEntity
  8
M0
 62
   114
100
AcDbLine
 10
232.074746
 20
931.225928
 11
231.084801
 21
932.215873
  0
LINE
  5
426
100
AcDbEntity
  8
M0
  6
DASHDOT
 62
   114
100
AcDbLine
 10
227.578704
 20
931.155224
 11
237.843594
 21
931.155224
  0
LINE
  5
427
100
AcDbEntity
  8
M0
  6
DASHDOT
 62
   114
100
AcDbLine
 10
232.711148
 20
926.022779
 11
232.711149
 21
936.287669
  0
LINE
  5
428
100
AcDbEntity
  8
M0
 62
   114
100
AcDbLine
 10
244.265935
 20
929.417118
 11
246.074746
 21
931.225928
  0
LINE
  5
429
100
AcDbEntity
  8
M0
 62
   114
100
AcDbLine
 10
244.973042
 20
928.710011
 11
246.781853
 21
930.518821
  0
LINE
  5
42A
100
AcDbEntity
  8
M0
 62
   114
100
AcDbLine
 10
247.771819
 20
929.528854
 11
246.781853
 21
930.518821
  0
LINE
  5
42B
100
AcDbEntity
  8
M0
 62
   114
100
AcDbLine
 10
248.337507
 20
930.094542
 11
247.34754
 21
931.084509
  0
LINE
  5
42C
100
AcDbEntity
  8
M0
 62
   114
100
AcDbLine
 10
245.084801
 20
932.215873
 11
245.650488
 21
932.781561
  0
LINE
  5
42D
100
AcDbEntity
  8
M0
 62
   114
100
AcDbLine
 10
248.337496
 20
930.094553
 11
247.771809
 21
929.528865
  0
LINE
  5
42E
100
AcDbEntity
  8
M0
 62
   114
100
AcDbLine
 10
247.34754
 20
931.084509
 11
249.156351
 21
932.893319
  0
LINE
  5
42F
100
AcDbEntity
  8
M0
 62
   114
100
AcDbLine
 10
246.640434
 20
931.791616
 11
245.650488
 21
932.781561
  0
LINE
  5
430
100
AcDbEntity
  8
M0
 62
   114
100
AcDbLine
 10
246.640434
 20
931.791616
 11
248.449244
 21
933.600426
  0
LINE
  5
431
100
AcDbEntity
  8
M0
 62
   114
100
AcDbLine
 10
246.074746
 20
931.225928
 11
245.084801
 21
932.215873
  0
LINE
  5
432
100
AcDbEntity
  8
M0
  6
DASHDOT
 62
   114
100
AcDbLine
 10
241.578704
 20
931.155224
 11
251.843594
 21
931.155224
  0
LINE
  5
433
100
AcDbEntity
  8
M0
  6
DASHDOT
 62
   114
100
AcDbLine
 10
246.711148
 20
926.022779
 11
246.711149
 21
936.287669
  0
ARC
  5
434
100
AcDbEntity
  8
M0
 62
   114
100
AcDbCircle
 10
246.711149
 20
931.155224
 40
3.0
100
AcDbArc
 50
29.926418
 51
330.073654
  0
CIRCLE
  5
435
100
AcDbEntity
  8
M0
 62
   114
100
AcDbCircle
 10
295.711149
 20
931.155224
 40
3.0
  0
LINE
  5
436
100
AcDbEntity
  8
M0
 62
   114
100
AcDbLine
 10
293.265935
 20
929.417118
 11
295.074746
 21
931.225928
  0
LINE
  5
437
100
AcDbEntity
  8
M0
 62
   114
100
AcDbLine
 10
293.973042
 20
928.710011
 11
295.781853
 21
930.518821
  0
LINE
  5
438
100
AcDbEntity
  8
M0
 62
   114
100
AcDbLine
 10
296.771819
 20
929.528854
 11
295.781853
 21
930.518821
  0
LINE
  5
439
100
AcDbEntity
  8
M0
 62
   114
100
AcDbLine
 10
297.337507
 20
930.094542
 11
296.34754
 21
931.084509
  0
LINE
  5
43A
100
AcDbEntity
  8
M0
 62
   114
100
AcDbLine
 10
294.084801
 20
932.215873
 11
294.650488
 21
932.781561
  0
LINE
  5
43B
100
AcDbEntity
  8
M0
 62
   114
100
AcDbLine
 10
297.337496
 20
930.094553
 11
296.771809
 21
929.528865
  0
LINE
  5
43C
100
AcDbEntity
  8
M0
 62
   114
100
AcDbLine
 10
296.34754
 20
931.084509
 11
298.156351
 21
932.893319
  0
LINE
  5
43D
100
AcDbEntity
  8
M0
 62
   114
100
AcDbLine
 10
295.640434
 20
931.791616
 11
294.650488
 21
932.781561
  0
LINE
  5
43E
100
AcDbEntity
  8
M0
 62
   114
100
AcDbLine
 10
295.640434
 20
931.791616
 11
297.449244
 21
933.600426
  0
LINE
  5
43F
100
AcDbEntity
  8
M0
 62
   114
100
AcDbLine
 10
295.074746
 20
931.225928
 11
294.084801
 21
932.215873
  0
LINE
  5
440
100
AcDbEntity
  8
M0
  6
DASHDOT
 62
   114
100
AcDbLine
 10
290.578704
 20
931.155224
 11
300.843594
 21
931.155224
  0
LINE
  5
441
100
AcDbEntity
  8
M0
  6
DASHDOT
 62
   114
100
AcDbLine
 10
295.711148
 20
926.022779
 11
295.711149
 21
936.287669
  0
LINE
  5
442
100
AcDbEntity
  8
M0
100
AcDbLine
 10
586.598144
 20
959.155527
 11
592.598144
 21
959.155527
  0
LINE
  5
443
100
AcDbEntity
  8
M0
100
AcDbLine
 10
586.598144
 20
959.155527
 11
586.598144
 21
920.155224
  0
LINE
  5
444
100
AcDbEntity
  8
M0
100
AcDbLine
 10
592.598144
 20
920.155224
 11
592.598144
 21
959.155527
  0
LINE
  5
445
100
AcDbEntity
  8
M0
 62
     4
100
AcDbLine
 10
556.598235
 20
950.155206
 11
571.29815
 21
950.155206
  0
LINE
  5
446
100
AcDbEntity
  8
M0
 62
     4
100
AcDbLine
 10
600.598235
 20
938.155206
 11
592.598235
 21
938.155206
  0
LINE
  5
447
100
AcDbEntity
  8
M0
  6
DASHDOT
 62
     4
100
AcDbLine
 10
605.598235
 20
944.155206
 11
552.214385
 21
944.155206
  0
LINE
  5
448
100
AcDbEntity
  8
M0
 62
     4
100
AcDbLine
 10
592.598235
 20
933.192193
 11
592.598235
 21
955.118204
  0
LINE
  5
449
100
AcDbEntity
  8
M0
 62
     4
100
AcDbLine
 10
592.598235
 20
955.118204
 11
600.598235
 21
955.118204
  0
LINE
  5
44A
100
AcDbEntity
  8
M0
 62
     4
100
AcDbLine
 10
600.598235
 20
955.118204
 11
600.598235
 21
933.192193
  0
LINE
  5
44B
100
AcDbEntity
  8
M0
 62
     4
100
AcDbLine
 10
600.598235
 20
933.192193
 11
592.598235
 21
933.192193
  0
LINE
  5
44C
100
AcDbEntity
  8
M0
 62
     4
100
AcDbLine
 10
556.598235
 20
950.155206
 11
556.598235
 21
938.155206
  0
LINE
  5
44D
100
AcDbEntity
  8
M0
 62
     4
100
AcDbLine
 10
571.298158
 20
938.155206
 11
556.598235
 21
938.155206
  0
LINE
  5
44E
100
AcDbEntity
  8
M0
 62
     4
100
AcDbLine
 10
592.598235
 20
950.155206
 11
600.598235
 21
950.155206
  0
LINE
  5
44F
100
AcDbEntity
  8
M0
 62
     6
100
AcDbLine
 10
571.297903
 20
955.105246
 11
581.297903
 21
955.105252
  0
LINE
  5
450
100
AcDbEntity
  8
M0
 62
     6
100
AcDbLine
 10
581.298147
 20
955.105237
 11
581.298161
 21
933.205243
  0
LINE
  5
451
100
AcDbEntity
  8
M0
 62
     6
100
AcDbLine
 10
571.298161
 20
933.205282
 11
571.298147
 21
955.105261
  0
LINE
  5
452
100
AcDbEntity
  8
M0
 62
     6
100
AcDbLine
 10
581.297906
 20
949.630276
 11
571.297906
 21
949.63027
  0
LINE
  5
453
100
AcDbEntity
  8
M0
 62
     6
100
AcDbLine
 10
571.297673
 20
933.205252
 11
581.297917
 21
933.205258
  0
LINE
  5
454
100
AcDbEntity
  8
M0
 62
     6
100
AcDbLine
 10
581.297913
 20
938.680264
 11
571.297669
 21
938.680258
  0
LINE
  5
455
100
AcDbEntity
  8
M0
 62
     6
100
AcDbLine
 10
584.298192
 20
957.155254
 11
586.598195
 21
957.155255
  0
LINE
  5
456
100
AcDbEntity
  8
M0
 62
     6
100
AcDbLine
 10
586.598195
 20
957.155255
 11
586.598211
 21
931.155255
  0
LINE
  5
457
100
AcDbEntity
  8
M0
 62
     6
100
AcDbLine
 10
586.598211
 20
931.155255
 11
584.298208
 21
931.155254
  0
LINE
  5
458
100
AcDbEntity
  8
M0
 62
     6
100
AcDbLine
 10
584.298208
 20
931.155254
 11
584.298192
 21
957.155254
  0
LINE
  5
459
100
AcDbEntity
  8
M0
 62
     6
100
AcDbLine
 10
566.597961
 20
743.206046
 11
576.597961
 21
743.206046
  0
LINE
  5
45A
100
AcDbEntity
  8
M0
 62
     6
100
AcDbLine
 10
576.598205
 20
743.206061
 11
576.598205
 21
765.106055
  0
LINE
  5
45B
100
AcDbEntity
  8
M0
 62
     6
100
AcDbLine
 10
566.598205
 20
765.10601
 11
566.598205
 21
743.206031
  0
LINE
  5
45C
100
AcDbEntity
  8
M0
 62
     6
100
AcDbLine
 10
576.597961
 20
748.681022
 11
566.597961
 21
748.681022
  0
LINE
  5
45D
100
AcDbEntity
  8
M0
 62
     6
100
AcDbLine
 10
566.597717
 20
765.10604
 11
576.597961
 21
765.10604
  0
LINE
  5
45E
100
AcDbEntity
  8
M0
 62
     6
100
AcDbLine
 10
576.597961
 20
759.631034
 11
566.597717
 21
759.631034
  0
LINE
  5
45F
100
AcDbEntity
  8
M0
100
AcDbLine
 10
586.598282
 20
739.156154
 11
592.598282
 21
739.156158
  0
LINE
  5
460
100
AcDbEntity
  8
M0
100
AcDbLine
 10
586.598282
 20
739.156154
 11
586.598258
 21
778.155224
  0
LINE
  5
461
100
AcDbEntity
  8
M0
100
AcDbLine
 10
592.598258
 20
778.155224
 11
592.598282
 21
739.156158
  0
LINE
  5
462
100
AcDbEntity
  8
M0
 62
     4
100
AcDbLine
 10
556.598334
 20
748.156079
 11
566.598205
 21
748.15608
  0
LINE
  5
463
100
AcDbEntity
  8
M0
 62
     4
100
AcDbLine
 10
600.598327
 20
760.156097
 11
592.598327
 21
760.156092
  0
LINE
  5
464
100
AcDbEntity
  8
M0
  6
DASHDOT
 62
     4
100
AcDbLine
 10
605.59833
 20
754.1561
 11
552.21448
 21
754.156077
  0
LINE
  5
465
100
AcDbEntity
  8
M0
 62
     4
100
AcDbLine
 10
592.598323
 20
765.119105
 11
592.598337
 21
743.193095
  0
LINE
  5
466
100
AcDbEntity
  8
M0
 62
     4
100
AcDbLine
 10
592.598337
 20
743.193095
 11
600.598337
 21
743.1931
  0
LINE
  5
467
100
AcDbEntity
  8
M0
 62
     4
100
AcDbLine
 10
600.598337
 20
743.1931
 11
600.598323
 21
765.11911
  0
LINE
  5
468
100
AcDbEntity
  8
M0
 62
     4
100
AcDbLine
 10
600.598323
 20
765.11911
 11
592.598323
 21
765.119105
  0
LINE
  5
469
100
AcDbEntity
  8
M0
 62
     4
100
AcDbLine
 10
556.598334
 20
748.156079
 11
556.598327
 21
760.156079
  0
LINE
  5
46A
100
AcDbEntity
  8
M0
 62
     4
100
AcDbLine
 10
566.598205
 20
760.15608
 11
556.598327
 21
760.156079
  0
LINE
  5
46B
100
AcDbEntity
  8
M0
 62
     4
100
AcDbLine
 10
592.598334
 20
748.156092
 11
600.598334
 21
748.156097
  0
LINE
  5
46C
100
AcDbEntity
  8
M0
 62
   234
100
AcDbLine
 10
643.898126
 20
958.155224
 11
653.898126
 21
968.155224
  0
LINE
  5
46D
100
AcDbEntity
  8
M0
 62
   234
100
AcDbLine
 10
623.898126
 20
814.155224
 11
611.898126
 21
814.155224
  0
LINE
  5
46E
100
AcDbEntity
  8
M0
 62
   234
100
AcDbLine
 10
623.898126
 20
822.155224
 11
611.898126
 21
822.155224
  0
LINE
  5
46F
100
AcDbEntity
  8
M0
 62
   234
100
AcDbLine
 10
611.898126
 20
884.155224
 11
623.898126
 21
884.155224
  0
LINE
  5
470
100
AcDbEntity
  8
M0
 62
   234
100
AcDbLine
 10
611.898126
 20
876.155224
 11
623.898126
 21
876.155224
  0
LINE
  5
471
100
AcDbEntity
  8
M0
 62
   234
100
AcDbLine
 10
611.898126
 20
833.155224
 11
623.898126
 21
833.155224
  0
LINE
  5
472
100
AcDbEntity
  8
M0
 62
   234
100
AcDbLine
 10
611.898126
 20
825.155224
 11
623.898126
 21
825.155224
  0
LINE
  5
473
100
AcDbEntity
  8
M0
 62
   234
100
AcDbLine
 10
611.898126
 20
887.155224
 11
623.898126
 21
887.155224
  0
LINE
  5
474
100
AcDbEntity
  8
M0
 62
   234
100
AcDbLine
 10
611.898126
 20
895.155224
 11
611.898126
 21
887.155224
  0
LINE
  5
475
100
AcDbEntity
  8
M0
 62
   234
100
AcDbLine
 10
611.898126
 20
884.155224
 11
611.898126
 21
876.155224
  0
LINE
  5
476
100
AcDbEntity
  8
M0
 62
   234
100
AcDbLine
 10
611.898126
 20
833.155224
 11
611.898126
 21
825.155224
  0
LINE
  5
477
100
AcDbEntity
  8
M0
 62
   234
100
AcDbLine
 10
611.898126
 20
822.155224
 11
611.898126
 21
814.155224
  0
LINE
  5
478
100
AcDbEntity
  8
M0
 62
   234
100
AcDbLine
 10
611.898126
 20
895.155224
 11
623.898126
 21
895.155224
  0
LINE
  5
479
100
AcDbEntity
  8
M0
 62
   234
100
AcDbLine
 10
613.898126
 20
927.155224
 11
623.898126
 21
927.155224
  0
LINE
  5
47A
100
AcDbEntity
  8
M0
 62
   234
100
AcDbLine
 10
623.898126
 20
925.155224
 11
613.898126
 21
925.155224
  0
LINE
  5
47B
100
AcDbEntity
  8
M0
 62
   234
100
AcDbLine
 10
623.898126
 20
923.155224
 11
613.898126
 21
923.155224
  0
LINE
  5
47C
100
AcDbEntity
  8
M0
 62
   234
100
AcDbLine
 10
634.898126
 20
958.155224
 11
643.898126
 21
958.155224
  0
ARC
  5
47D
100
AcDbEntity
  8
M0
 62
   234
100
AcDbCircle
 10
634.898126
 20
947.155224
 40
11.0
100
AcDbArc
 50
90.0
 51
180.0
  0
ARC
  5
47E
100
AcDbEntity
  8
M0
 62
   234
100
AcDbCircle
 10
618.898126
 20
943.155224
 40
5.0
100
AcDbArc
 50
90.0
 51
180.0
  0
LINE
  5
47F
100
AcDbEntity
  8
M0
 62
   234
100
AcDbLine
 10
618.898126
 20
948.155224
 11
623.943674
 21
948.155224
  0
LINE
  5
480
100
AcDbEntity
  8
M0
 62
   234
100
AcDbLine
 10
613.898126
 20
943.155224
 11
613.898126
 21
927.155224
  0
LINE
  5
481
100
AcDbEntity
  8
M0
 62
   234
100
AcDbLine
 10
613.898126
 20
925.155224
 11
613.898126
 21
923.155224
  0
LINE
  5
482
100
AcDbEntity
  8
M0
 62
   234
100
AcDbLine
 10
623.898126
 20
947.155224
 11
623.898126
 21
748.055224
  0
LINE
  5
483
100
AcDbEntity
  8
M0
 62
   234
100
AcDbLine
 10
688.898126
 20
730.155224
 11
670.998126
 21
748.055224
  0
LINE
  5
484
100
AcDbEntity
  8
M0
 62
   234
100
AcDbLine
 10
618.898126
 20
748.055224
 11
670.998126
 21
748.055224
  0
ARC
  5
485
100
AcDbEntity
  8
M0
 62
   234
100
AcDbCircle
 10
618.898126
 20
753.055224
 40
5.0
100
AcDbArc
 50
180.0
 51
270.0
  0
LINE
  5
486
100
AcDbEntity
  8
M0
 62
   234
100
AcDbLine
 10
615.898126
 20
763.055224
 11
623.898126
 21
763.055224
  0
LINE
  5
487
100
AcDbEntity
  8
M0
 62
   234
100
AcDbLine
 10
613.898126
 20
753.055224
 11
613.898126
 21
761.055224
  0
ARC
  5
488
100
AcDbEntity
  8
M0
 62
   234
100
AcDbCircle
 10
615.898126
 20
761.055224
 40
2.0
100
AcDbArc
 50
90.0
 51
180.0
  0
LINE
  5
489
100
AcDbEntity
  8
M0
 62
   234
100
AcDbLine
 10
700.398126
 20
968.155224
 11
700.398126
 21
730.155224
  0
LINE
  5
48A
100
AcDbEntity
  8
M0
 62
   234
100
AcDbLine
 10
704.398126
 20
968.155224
 11
653.898126
 21
968.155224
  0
LINE
  5
48B
100
AcDbEntity
  8
M0
 62
   234
100
AcDbLine
 10
688.898126
 20
730.155224
 11
704.398126
 21
730.155224
  0
LINE
  5
48C
100
AcDbEntity
  8
M0
  6
DASHED
 62
   234
100
AcDbLine
 10
624.098126
 20
929.155224
 11
624.098126
 21
937.655224
  0
LINE
  5
48D
100
AcDbEntity
  8
M0
 62
   234
100
AcDbLine
 10
693.698126
 20
968.155224
 11
693.698126
 21
730.155224
  0
LINE
  5
48E
100
AcDbEntity
  8
M0
 62
   154
100
AcDbLine
 10
572.898126
 20
866.655224
 11
584.898126
 21
866.655224
  0
LINE
  5
48F
100
AcDbEntity
  8
M0
 62
   154
100
AcDbLine
 10
572.898126
 20
853.655224
 11
584.898126
 21
853.655224
  0
LINE
  5
490
100
AcDbEntity
  8
M0
 62
   154
100
AcDbLine
 10
611.898126
 20
847.655224
 11
623.698126
 21
847.655224
  0
LINE
  5
491
100
AcDbEntity
  8
M0
 62
   154
100
AcDbLine
 10
611.898126
 20
872.655224
 11
623.698126
 21
872.655224
  0
LINE
  5
492
100
AcDbEntity
  8
M0
 62
   154
100
AcDbLine
 10
611.898126
 20
817.155224
 11
611.898126
 21
847.655224
  0
LINE
  5
493
100
AcDbEntity
  8
M0
 62
   154
100
AcDbLine
 10
611.898126
 20
872.655224
 11
611.898126
 21
903.155224
  0
ARC
  5
494
100
AcDbEntity
  8
M0
 62
   154
100
AcDbCircle
 10
593.898126
 20
896.155224
 40
3.0
100
AcDbArc
 50
270.0
 51
360.0
  0
ARC
  5
495
100
AcDbEntity
  8
M0
 62
   154
100
AcDbCircle
 10
593.898126
 20
824.155224
 40
3.0
100
AcDbArc
 50
0.0
 51
90.0
  0
LINE
  5
496
100
AcDbEntity
  8
M0
 62
   154
100
AcDbLine
 10
589.898126
 20
893.155224
 11
593.898126
 21
893.155224
  0
LINE
  5
497
100
AcDbEntity
  8
M0
 62
   154
100
AcDbLine
 10
584.898126
 20
888.155224
 11
584.898126
 21
866.655224
  0
ARC
  5
498
100
AcDbEntity
  8
M0
 62
   154
100
AcDbCircle
 10
589.898126
 20
888.155224
 40
5.0
100
AcDbArc
 50
90.0
 51
180.0
  0
LINE
  5
499
100
AcDbEntity
  8
M0
 62
   154
100
AcDbLine
 10
584.898126
 20
853.655224
 11
584.898126
 21
832.155224
  0
LINE
  5
49A
100
AcDbEntity
  8
M0
 62
   154
100
AcDbLine
 10
589.898126
 20
827.155224
 11
593.898126
 21
827.155224
  0
ARC
  5
49B
100
AcDbEntity
  8
M0
 62
   154
100
AcDbCircle
 10
589.898126
 20
832.155224
 40
5.0
100
AcDbArc
 50
180.0
 51
270.0
  0
LINE
  5
49C
100
AcDbEntity
  8
M0
 62
   154
100
AcDbLine
 10
596.898126
 20
824.155224
 11
596.898126
 21
822.155224
  0
LINE
  5
49D
100
AcDbEntity
  8
M0
 62
   154
100
AcDbLine
 10
601.898126
 20
817.155224
 11
611.898126
 21
817.155224
  0
ARC
  5
49E
100
AcDbEntity
  8
M0
 62
   154
100
AcDbCircle
 10
601.898126
 20
822.155224
 40
5.0
100
AcDbArc
 50
180.0
 51
270.0
  0
LINE
  5
49F
100
AcDbEntity
  8
M0
 62
   154
100
AcDbLine
 10
611.898126
 20
903.155224
 11
601.898126
 21
903.155224
  0
LINE
  5
4A0
100
AcDbEntity
  8
M0
 62
   154
100
AcDbLine
 10
596.898126
 20
898.155224
 11
596.898126
 21
896.155224
  0
ARC
  5
4A1
100
AcDbEntity
  8
M0
 62
   154
100
AcDbCircle
 10
601.898126
 20
898.155224
 40
5.0
100
AcDbArc
 50
90.0
 51
180.0
  0
LINE
  5
4A2
100
AcDbEntity
  8
M0
 62
   154
100
AcDbLine
 10
572.898126
 20
866.655224
 11
572.898126
 21
853.655224
  0
LINE
  5
4A3
100
AcDbEntity
  8
M0
 62
   154
100
AcDbLine
 10
623.698126
 20
872.655224
 11
623.698126
 21
847.655224
  0
LINE
  5
4A4
100
AcDbEntity
  8
M0
100
AcDbLine
 10
597.698126
 20
911.155224
 11
597.698126
 21
900.868156
  0
LINE
  5
4A5
100
AcDbEntity
  8
M0
100
AcDbLine
 10
617.698126
 20
778.155224
 11
586.598126
 21
778.155224
  0
LINE
  5
4A6
100
AcDbEntity
  8
M0
100
AcDbLine
 10
617.698126
 20
920.155224
 11
586.598126
 21
920.155224
  0
LINE
  5
4A7
100
AcDbEntity
  8
M0
100
AcDbLine
 10
617.698126
 20
911.155224
 11
597.698126
 21
911.155224
  0
LINE
  5
4A8
100
AcDbEntity
  8
M0
100
AcDbLine
 10
617.698126
 20
787.155224
 11
597.698126
 21
787.155224
  0
LINE
  5
4A9
100
AcDbEntity
  8
M0
100
AcDbLine
 10
617.698126
 20
914.155224
 11
586.598126
 21
914.155224
  0
LINE
  5
4AA
100
AcDbEntity
  8
M0
100
AcDbLine
 10
617.698126
 20
784.155224
 11
586.598126
 21
784.155224
  0
LINE
  5
4AB
100
AcDbEntity
  8
M0
100
AcDbLine
 10
617.698126
 20
767.155224
 11
623.898126
 21
767.155224
  0
LINE
  5
4AC
100
AcDbEntity
  8
M0
100
AcDbLine
 10
586.598126
 20
920.155224
 11
586.598126
 21
891.911552
  0
LINE
  5
4AD
100
AcDbEntity
  8
M0
100
AcDbLine
 10
617.698126
 20
767.155224
 11
617.698126
 21
787.155224
  0
LINE
  5
4AE
100
AcDbEntity
  8
M0
100
AcDbLine
 10
617.698126
 20
911.155224
 11
617.698126
 21
923.155224
  0
LINE
  5
4AF
100
AcDbEntity
  8
M0
100
AcDbLine
 10
597.698126
 20
819.442292
 11
597.698126
 21
787.155224
  0
LINE
  5
4B0
100
AcDbEntity
  8
M0
100
AcDbLine
 10
586.598126
 20
828.398896
 11
586.598126
 21
778.155224
  0
LINE
  5
4B1
100
AcDbEntity
  8
M0
100
AcDbLine
 10
592.598144
 20
924.155224
 11
613.898126
 21
924.155224
  0
LINE
  5
4B2
100
AcDbEntity
  8
M0
100
AcDbLine
 10
592.598262
 20
774.155224
 11
617.698126
 21
774.155224
  0
LINE
  5
4B3
100
AcDbEntity
  8
M0
100
AcDbLine
 10
707.598246
 20
969.155224
 11
704.398126
 21
969.155224
  0
LINE
  5
4B4
100
AcDbEntity
  8
M0
100
AcDbLine
 10
704.398126
 20
729.155224
 11
707.598171
 21
729.155224
  0
LINE
  5
4B5
100
AcDbEntity
  8
M0
  6
DOT
100
AcDbLine
 10
704.398126
 20
969.155224
 11
704.398126
 21
729.155224
  0
LINE
  5
4B6
100
AcDbEntity
  8
M0
 62
   114
100
AcDbLine
 10
567.698126
 20
875.155224
 11
567.698126
 21
877.655224
  0
LINE
  5
4B7
100
AcDbEntity
  8
M0
 62
   114
100
AcDbLine
 10
571.698126
 20
877.655224
 11
571.698126
 21
875.155224
  0
LINE
  5
4B8
100
AcDbEntity
  8
M0
 62
   114
100
AcDbLine
 10
567.698126
 20
875.155224
 11
571.698126
 21
875.155224
  0
LINE
  5
4B9
100
AcDbEntity
  8
M0
 62
   114
100
AcDbLine
 10
546.198126
 20
877.655224
 11
567.698126
 21
877.655224
  0
ARC
  5
4BA
100
AcDbEntity
  8
M0
 62
   114
100
AcDbCircle
 10
546.198126
 20
875.655224
 40
2.0
100
AcDbArc
 50
90.0
 51
180.0
  0
ARC
  5
4BB
100
AcDbEntity
  8
M0
 62
   114
100
AcDbCircle
 10
549.198126
 20
875.655224
 40
5.0
100
AcDbArc
 50
90.0
 51
180.0
  0
LINE
  5
4BC
100
AcDbEntity
  8
M0
 62
   114
100
AcDbLine
 10
549.198126
 20
880.655224
 11
572.741604
 21
880.655224
  0
LINE
  5
4BD
100
AcDbEntity
  8
M0
 62
   114
100
AcDbLine
 10
571.698126
 20
877.655224
 11
575.23101
 21
887.812265
  0
ARC
  5
4BE
100
AcDbEntity
  8
M0
 62
   114
100
AcDbCircle
 10
577.120003
 20
887.155224
 40
2.0
100
AcDbArc
 50
90.0
 51
160.820992
  0
LINE
  5
4BF
100
AcDbEntity
  8
M0
 62
   114
100
AcDbLine
 10
584.999146
 20
889.155224
 11
577.120003
 21
889.155224
  0
LINE
  5
4C0
100
AcDbEntity
  8
M0
 62
   114
100
AcDbLine
 10
554.698126
 20
860.155224
 11
554.698126
 21
863.905224
  0
LINE
  5
4C1
100
AcDbEntity
  8
M0
 62
   114
100
AcDbLine
 10
544.198126
 20
863.905224
 11
554.698126
 21
863.905224
  0
LINE
  5
4C2
100
AcDbEntity
  8
M0
 62
   114
100
AcDbLine
 10
544.198126
 20
875.655224
 11
544.198126
 21
863.905224
  0
LINE
  5
4C3
100
AcDbEntity
  8
M0
 62
   114
100
AcDbLine
 10
591.698126
 20
893.155224
 11
591.698126
 21
895.155224
  0
LINE
  5
4C4
100
AcDbEntity
  8
M0
 62
   114
100
AcDbLine
 10
596.726553
 20
895.155224
 11
591.698126
 21
895.155224
  0
LINE
  5
4C5
100
AcDbEntity
  8
M0
 62
   114
100
AcDbLine
 10
567.698126
 20
845.155224
 11
567.698126
 21
842.655224
  0
LINE
  5
4C6
100
AcDbEntity
  8
M0
 62
   114
100
AcDbLine
 10
571.698126
 20
842.655224
 11
571.698126
 21
845.155224
  0
LINE
  5
4C7
100
AcDbEntity
  8
M0
 62
   114
100
AcDbLine
 10
567.698126
 20
845.155224
 11
571.698126
 21
845.155224
  0
LINE
  5
4C8
100
AcDbEntity
  8
M0
 62
   114
100
AcDbLine
 10
546.198126
 20
842.655224
 11
567.698126
 21
842.655224
  0
ARC
  5
4C9
100
AcDbEntity
  8
M0
 62
   114
100
AcDbCircle
 10
546.198126
 20
844.655224
 40
2.0
100
AcDbArc
 50
180.0
 51
270.0
  0
ARC
  5
4CA
100
AcDbEntity
  8
M0
 62
   114
100
AcDbCircle
 10
549.198126
 20
844.655224
 40
5.0
100
AcDbArc
 50
180.0
 51
270.0
  0
LINE
  5
4CB
100
AcDbEntity
  8
M0
 62
   114
100
AcDbLine
 10
549.198126
 20
839.655224
 11
572.741604
 21
839.655224
  0
LINE
  5
4CC
100
AcDbEntity
  8
M0
 62
   114
100
AcDbLine
 10
571.698126
 20
842.655224
 11
575.23101
 21
832.498183
  0
ARC
  5
4CD
100
AcDbEntity
  8
M0
 62
   114
100
AcDbCircle
 10
577.120003
 20
833.155224
 40
2.0
100
AcDbArc
 50
199.179008
 51
270.0
  0
LINE
  5
4CE
100
AcDbEntity
  8
M0
 62
   114
100
AcDbLine
 10
584.999146
 20
831.155224
 11
577.120003
 21
831.155224
  0
LINE
  5
4CF
100
AcDbEntity
  8
M0
 62
   114
100
AcDbLine
 10
554.698126
 20
860.155224
 11
554.698126
 21
856.405224
  0
LINE
  5
4D0
100
AcDbEntity
  8
M0
 62
   114
100
AcDbLine
 10
544.198126
 20
856.405224
 11
554.698126
 21
856.405224
  0
LINE
  5
4D1
100
AcDbEntity
  8
M0
 62
   114
100
AcDbLine
 10
544.198126
 20
844.655224
 11
544.198126
 21
856.405224
  0
LINE
  5
4D2
100
AcDbEntity
  8
M0
 62
   114
100
AcDbLine
 10
591.698126
 20
827.155224
 11
591.698126
 21
825.155224
  0
LINE
  5
4D3
100
AcDbEntity
  8
M0
 62
   114
100
AcDbLine
 10
596.726553
 20
825.155224
 11
591.698126
 21
825.155224
  0
LINE
  5
4D4
100
AcDbEntity
  8
M0
 62
   114
100
AcDbLine
 10
552.698126
 20
862.905224
 11
552.698126
 21
863.905224
  0
LINE
  5
4D5
100
AcDbEntity
  8
M0
 62
   114
100
AcDbLine
 10
552.698126
 20
862.905224
 11
554.698126
 21
862.905224
  0
LINE
  5
4D6
100
AcDbEntity
  8
M0
 62
   114
100
AcDbLine
 10
552.698126
 20
856.405224
 11
552.698126
 21
857.405224
  0
LINE
  5
4D7
100
AcDbEntity
  8
M0
 62
   114
100
AcDbLine
 10
552.698126
 20
857.405224
 11
554.698126
 21
857.405224
  0
LINE
  5
4D8
100
AcDbEntity
  8
M0
 62
     7
100
AcDbLine
 10
576.598205
 20
764.906242
 11
579.598205
 21
764.906242
  0
LINE
  5
4D9
100
AcDbEntity
  8
M0
 62
     7
100
AcDbLine
 10
579.598205
 20
764.906242
 11
579.598205
 21
743.406242
  0
LINE
  5
4DA
100
AcDbEntity
  8
M0
 62
     7
100
AcDbLine
 10
579.598205
 20
743.406242
 11
576.598205
 21
743.406242
  0
LINE
  5
4DB
100
AcDbEntity
  8
M0
 62
     7
100
AcDbLine
 10
576.598205
 20
743.406242
 11
576.598205
 21
764.906242
  0
LINE
  5
4DC
100
AcDbEntity
  8
M0
 62
     7
100
AcDbLine
 10
576.598205
 20
754.156226
 11
579.598205
 21
755.888267
  0
LINE
  5
4DD
100
AcDbEntity
  8
M0
 62
     7
100
AcDbLine
 10
576.598205
 20
752.424201
 11
579.598205
 21
754.156242
  0
LINE
  5
4DE
100
AcDbEntity
  8
M0
 62
     7
100
AcDbLine
 10
581.298097
 20
954.905369
 11
584.298097
 21
954.905369
  0
LINE
  5
4DF
100
AcDbEntity
  8
M0
 62
     7
100
AcDbLine
 10
584.298097
 20
954.905369
 11
584.298097
 21
933.405369
  0
LINE
  5
4E0
100
AcDbEntity
  8
M0
 62
     7
100
AcDbLine
 10
584.298097
 20
933.405369
 11
581.298097
 21
933.405369
  0
LINE
  5
4E1
100
AcDbEntity
  8
M0
 62
     7
100
AcDbLine
 10
581.298097
 20
933.405369
 11
581.298097
 21
954.905369
  0
LINE
  5
4E2
100
AcDbEntity
  8
M0
 62
     7
100
AcDbLine
 10
581.298097
 20
944.155354
 11
584.298097
 21
945.887394
  0
LINE
  5
4E3
100
AcDbEntity
  8
M0
 62
     7
100
AcDbLine
 10
581.298097
 20
942.423329
 11
584.298097
 21
944.155369
  0
LINE
  5
4E4
100
AcDbEntity
  8
M0
 62
     6
100
AcDbLine
 10
579.598205
 20
767.156126
 11
581.898208
 21
767.156127
  0
LINE
  5
4E5
100
AcDbEntity
  8
M0
 62
     6
100
AcDbLine
 10
581.898208
 20
767.156127
 11
581.898225
 21
741.156127
  0
LINE
  5
4E6
100
AcDbEntity
  8
M0
 62
     6
100
AcDbLine
 10
581.898225
 20
741.156127
 11
579.598222
 21
741.156126
  0
LINE
  5
4E7
100
AcDbEntity
  8
M0
 62
     6
100
AcDbLine
 10
579.598222
 20
741.156126
 11
579.598205
 21
767.156126
  0
LINE
  5
4E8
100
AcDbEntity
  8
M0
100
AcDbLine
 10
276.811149
 20
639.155224
 11
276.811149
 21
672.655206
  0
LINE
  5
4E9
100
AcDbEntity
  8
M0
100
AcDbLine
 10
276.811149
 20
769.155224
 11
251.811149
 21
769.155224
  0
LINE
  5
4EA
100
AcDbEntity
  8
M0
100
AcDbLine
 10
251.811149
 20
769.155224
 11
251.811149
 21
707.95496
  0
LINE
  5
4EB
100
AcDbEntity
  8
M0
100
AcDbLine
 10
251.811149
 20
639.155224
 11
276.811149
 21
639.155224
  0
LINE
  5
4EC
100
AcDbEntity
  8
M0
100
AcDbLine
 10
276.811149
 20
730.155224
 11
251.811149
 21
730.155224
  0
CIRCLE
  5
4ED
100
AcDbEntity
  8
M0
100
AcDbCircle
 10
264.311149
 20
754.155224
 40
6.5
  0
CIRCLE
  5
4EE
100
AcDbEntity
  8
M0
100
AcDbCircle
 10
264.311149
 20
654.155224
 40
6.0
  0
LINE
  5
4EF
100
AcDbEntity
  8
M0
  6
DASHDOT
100
AcDbLine
 10
250.311149
 20
654.155224
 11
278.311149
 21
654.155224
  0
LINE
  5
4F0
100
AcDbEntity
  8
M0
100
AcDbLine
 10
251.811149
 20
672.655247
 11
251.811149
 21
639.155224
  0
LINE
  5
4F1
100
AcDbEntity
  8
M0
100
AcDbLine
 10
276.811149
 20
707.655212
 11
276.811149
 21
769.155224
  0
LINE
  5
4F2
100
AcDbEntity
  8
M0
 62
   253
100
AcDbLine
 10
240.311149
 20
694.155224
 11
242.311161
 21
694.155224
  0
ARC
  5
4F3
100
AcDbEntity
  8
M0
 62
   253
100
AcDbCircle
 10
251.311149
 20
693.155224
 40
1.0
100
AcDbArc
 50
60.0
 51
90.0
  0
LINE
  5
4F4
100
AcDbEntity
  8
M0
 62
   253
100
AcDbLine
 10
279.811149
 20
683.155224
 11
279.811149
 21
685.032725
  0
LINE
  5
4F5
100
AcDbEntity
  8
M0
 62
   253
100
AcDbLine
 10
240.311149
 20
706.155224
 11
240.311149
 21
684.155224
  0
LINE
  5
4F6
100
AcDbEntity
  8
M0
 62
   253
100
AcDbLine
 10
242.311147
 20
683.155224
 11
241.311149
 21
683.155224
  0
ARC
  5
4F7
100
AcDbEntity
  8
M0
 62
   253
100
AcDbCircle
 10
241.311149
 20
684.155224
 40
1.0
100
AcDbArc
 50
180.0
 51
270.0
  0
LINE
  5
4F8
100
AcDbEntity
  8
M0
 62
   253
100
AcDbLine
 10
242.311177
 20
706.155224
 11
240.311149
 21
706.155224
  0
LINE
  5
4F9
100
AcDbEntity
  8
M0
 62
   253
100
AcDbLine
 10
346.311149
 20
706.155224
 11
335.811149
 21
706.155224
  0
LINE
  5
4FA
100
AcDbEntity
  8
M0
 62
   253
100
AcDbLine
 10
346.311149
 20
694.155224
 11
335.811149
 21
694.155224
  0
LINE
  5
4FB
100
AcDbEntity
  8
M0
 62
   253
100
AcDbLine
 10
304.811139
 20
694.155224
 11
308.811149
 21
694.155224
  0
LINE
  5
4FC
100
AcDbEntity
  8
M0
 62
   253
100
AcDbLine
 10
337.811149
 20
683.155224
 11
337.811149
 21
685.032725
  0
LINE
  5
4FD
100
AcDbEntity
  8
M0
 62
   253
100
AcDbLine
 10
342.811149
 20
683.155224
 11
342.811149
 21
685.032725
  0
LINE
  5
4FE
100
AcDbEntity
  8
M0
 62
   253
100
AcDbLine
 10
306.811149
 20
683.155224
 11
306.811149
 21
685.032725
  0
LINE
  5
4FF
100
AcDbEntity
  8
M0
 62
   253
100
AcDbLine
 10
309.811149
 20
683.155224
 11
304.811122
 21
683.155224
  0
LINE
  5
500
100
AcDbEntity
  8
M0
 62
   253
100
AcDbLine
 10
345.311149
 20
683.155224
 11
334.811149
 21
683.155224
  0
LINE
  5
501
100
AcDbEntity
  8
M0
 62
   253
100
AcDbLine
 10
346.311149
 20
684.155224
 11
346.311149
 21
706.155224
  0
ARC
  5
502
100
AcDbEntity
  8
M0
 62
   253
100
AcDbCircle
 10
345.311149
 20
684.155224
 40
1.0
100
AcDbArc
 50
270.0
 51
360.0
  0
LINE
  5
503
100
AcDbEntity
  8
M0
 62
   253
100
AcDbLine
 10
308.811149
 20
706.155224
 11
304.811158
 21
706.155224
  0
LINE
  5
504
100
AcDbEntity
  8
M0
100
AcDbLine
 10
334.811149
 20
639.155224
 11
334.811149
 21
692.155224
  0
LINE
  5
505
100
AcDbEntity
  8
M0
100
AcDbLine
 10
334.811149
 20
769.155224
 11
309.811149
 21
769.155224
  0
LINE
  5
506
100
AcDbEntity
  8
M0
100
AcDbLine
 10
309.811149
 20
769.155224
 11
309.811149
 21
730.155224
  0
LINE
  5
507
100
AcDbEntity
  8
M0
100
AcDbLine
 10
309.811149
 20
639.155224
 11
334.811149
 21
639.155224
  0
LINE
  5
508
100
AcDbEntity
  8
M0
  6
DASHDOT
100
AcDbLine
 10
322.311149
 20
629.155224
 11
322.311149
 21
779.155224
  0
LINE
  5
509
100
AcDbEntity
  8
M0
100
AcDbLine
 10
334.811149
 20
730.155224
 11
309.811149
 21
730.155224
  0
CIRCLE
  5
50A
100
AcDbEntity
  8
M0
100
AcDbCircle
 10
322.311149
 20
754.155224
 40
6.5
  0
CIRCLE
  5
50B
100
AcDbEntity
  8
M0
100
AcDbCircle
 10
322.311149
 20
654.155224
 40
6.0
  0
LINE
  5
50C
100
AcDbEntity
  8
M0
100
AcDbLine
 10
309.811149
 20
692.155224
 11
309.811149
 21
639.155224
  0
LINE
  5
50D
100
AcDbEntity
  8
M0
100
AcDbLine
 10
334.811149
 20
730.155224
 11
334.811149
 21
769.155224
  0
LINE
  5
50E
100
AcDbEntity
  8
M0
100
AcDbLine
 10
308.811149
 20
729.155224
 11
335.811149
 21
729.155224
  0
LINE
  5
50F
100
AcDbEntity
  8
M0
100
AcDbLine
 10
335.811149
 20
736.155224
 11
335.811149
 21
723.655224
  0
LINE
  5
510
100
AcDbEntity
  8
M0
100
AcDbLine
 10
334.811149
 20
736.155224
 11
335.811149
 21
736.155224
  0
LINE
  5
511
100
AcDbEntity
  8
M0
100
AcDbLine
 10
308.811149
 20
736.155224
 11
308.811149
 21
723.655224
  0
LINE
  5
512
100
AcDbEntity
  8
M0
100
AcDbLine
 10
308.811149
 20
736.155224
 11
309.811149
 21
736.155224
  0
LINE
  5
513
100
AcDbEntity
  8
M0
100
AcDbLine
 10
308.811149
 20
692.155224
 11
335.811149
 21
692.155224
  0
LINE
  5
514
100
AcDbEntity
  8
M0
100
AcDbLine
 10
335.811149
 20
706.155224
 11
335.811149
 21
692.155224
  0
LINE
  5
515
100
AcDbEntity
  8
M0
100
AcDbLine
 10
308.811149
 20
706.155224
 11
308.811149
 21
692.155224
  0
LINE
  5
516
100
AcDbEntity
  8
M0
  6
DASHDOT
100
AcDbLine
 10
308.311149
 20
654.155224
 11
336.311149
 21
654.155224
  0
LINE
  5
517
100
AcDbEntity
  8
M0
 62
     7
100
AcDbLine
 10
346.311149
 20
644.155224
 11
346.311149
 21
721.155224
  0
LINE
  5
518
100
AcDbEntity
  8
M0
 62
     7
100
AcDbLine
 10
302.810918
 20
774.155224
 11
295.811149
 21
774.155224
  0
LINE
  5
519
100
AcDbEntity
  8
M0
 62
     7
100
AcDbLine
 10
182.311149
 20
721.155224
 11
182.311149
 21
644.155224
  0
LINE
  5
51A
100
AcDbEntity
  8
M0
 62
     7
100
AcDbLine
 10
187.311149
 20
639.155224
 11
341.311149
 21
639.155224
  0
LINE
  5
51B
100
AcDbEntity
  8
M0
  6
DASHDOT
 62
     7
100
AcDbLine
 10
264.311149
 20
629.155224
 11
264.311149
 21
784.155224
  0
LINE
  5
51C
100
AcDbEntity
  8
M0
 62
     7
100
AcDbLine
 10
346.311149
 20
669.155224
 11
334.811149
 21
669.155224
  0
CIRCLE
  5
51D
100
AcDbEntity
  8
M0
 62
     7
100
AcDbCircle
 10
294.311149
 20
739.155224
 40
4.65
  0
CIRCLE
  5
51E
100
AcDbEntity
  8
M0
 62
     7
100
AcDbCircle
 10
234.311149
 20
739.155224
 40
4.65
  0
CIRCLE
  5
51F
100
AcDbEntity
  8
M0
 62
     7
100
AcDbCircle
 10
294.311149
 20
649.155224
 40
4.65
  0
CIRCLE
  5
520
100
AcDbEntity
  8
M0
 62
     7
100
AcDbCircle
 10
234.311149
 20
649.155224
 40
4.65
  0
LINE
  5
521
100
AcDbEntity
  8
M0
 62
     7
100
AcDbLine
 10
340.649775
 20
726.155224
 11
335.811149
 21
726.155224
  0
LINE
  5
522
100
AcDbEntity
  8
M0
 62
     7
100
AcDbLine
 10
192.811149
 20
726.155224
 11
187.972711
 21
726.155224
  0
LINE
  5
523
100
AcDbEntity
  8
M0
 62
     7
100
AcDbLine
 10
341.311149
 20
639.155224
 11
346.311149
 21
644.155224
  0
LINE
  5
524
100
AcDbEntity
  8
M0
 62
     7
100
AcDbLine
 10
182.311149
 20
644.155224
 11
187.311149
 21
639.155224
  0
CIRCLE
  5
525
100
AcDbEntity
  8
M0
 62
     7
100
AcDbCircle
 10
294.311149
 20
739.155224
 40
9.0
  0
CIRCLE
  5
526
100
AcDbEntity
  8
M0
 62
     7
100
AcDbCircle
 10
234.311149
 20
739.155224
 40
9.0
  0
LINE
  5
527
100
AcDbEntity
  8
M0
 62
     7
100
AcDbLine
 10
309.811149
 20
669.155224
 11
304.8111
 21
669.155224
  0
LINE
  5
528
100
AcDbEntity
  8
M0
 62
     7
100
AcDbLine
 10
251.811149
 20
669.155224
 11
218.811149
 21
669.155224
  0
LINE
  5
529
100
AcDbEntity
  8
M0
 62
     7
100
AcDbLine
 10
193.811149
 20
669.155224
 11
182.311149
 21
669.155224
  0
LINE
  5
52A
100
AcDbEntity
  8
M0
 62
     7
100
AcDbLine
 10
301.8111
 20
669.155224
 11
293.8111
 21
669.155224
  0
LINE
  5
52B
100
AcDbEntity
  8
M0
 62
     7
100
AcDbLine
 10
291.8111
 20
669.155224
 11
283.811133
 21
669.155224
  0
LINE
  5
52C
100
AcDbEntity
  8
M0
 62
     7
100
AcDbLine
 10
280.811142
 20
669.155224
 11
276.811149
 21
669.155224
  0
LINE
  5
52D
100
AcDbEntity
  8
M0
  6
DASHDOT
 62
     7
100
AcDbLine
 10
226.811149
 20
649.155224
 11
241.811149
 21
649.155224
  0
LINE
  5
52E
100
AcDbEntity
  8
M0
  6
DASHDOT
 62
     7
100
AcDbLine
 10
234.311149
 20
641.655224
 11
234.311149
 21
656.655224
  0
LINE
  5
52F
100
AcDbEntity
  8
M0
  6
DASHDOT
 62
     7
100
AcDbLine
 10
286.811149
 20
649.155224
 11
301.811149
 21
649.155224
  0
LINE
  5
530
100
AcDbEntity
  8
M0
  6
DASHDOT
 62
     7
100
AcDbLine
 10
294.311149
 20
641.655224
 11
294.311149
 21
656.655224
  0
LINE
  5
531
100
AcDbEntity
  8
M0
 62
     7
100
AcDbLine
 10
250.739791
 20
774.155224
 11
245.811149
 21
774.155224
  0
LINE
  5
532
100
AcDbEntity
  8
M0
 62
     7
100
AcDbLine
 10
282.811149
 20
774.155224
 11
277.882506
 21
774.155224
  0
LINE
  5
533
100
AcDbEntity
  8
M0
 62
     7
100
AcDbLine
 10
232.811149
 20
774.155224
 11
225.811371
 21
774.155224
  0
LINE
  5
534
100
AcDbEntity
  8
M0
100
AcDbLine
 10
346.311149
 20
706.155224
 11
346.311149
 21
723.655224
  0
LINE
  5
535
100
AcDbEntity
  8
M0
100
AcDbLine
 10
346.311149
 20
723.655224
 11
298.311149
 21
723.655224
  0
LINE
  5
536
100
AcDbEntity
  8
M0
100
AcDbLine
 10
298.311149
 20
723.655224
 11
298.311149
 21
709.655165
  0
LINE
  5
537
100
AcDbEntity
  8
M0
100
AcDbLine
 10
304.811158
 20
706.155224
 11
346.311149
 21
706.155224
  0
LINE
  5
538
100
AcDbEntity
  8
M0
100
AcDbLine
 10
345.06153
 20
724.355162
 11
345.06153
 21
723.655211
  0
LINE
  5
539
100
AcDbEntity
  8
M0
100
AcDbLine
 10
345.061286
 20
724.355269
 11
339.561286
 21
724.355269
  0
LINE
  5
53A
100
AcDbEntity
  8
M0
100
AcDbLine
 10
345.061041
 20
724.355284
 11
344.987067
 21
725.20259
  0
ARC
  5
53B
100
AcDbEntity
  8
M0
100
AcDbCircle
 10
343.990729
 20
725.115447
 40
1.0
100
AcDbArc
 50
4.998445
 51
73.738886
  0
ARC
  5
53C
100
AcDbEntity
  8
M0
100
AcDbCircle
 10
342.311286
 20
719.355269
 40
7.0
100
AcDbArc
 50
73.744411
 51
107.014908
  0
ARC
  5
53D
100
AcDbEntity
  8
M0
100
AcDbCircle
 10
340.632086
 20
725.115447
 40
1.0
100
AcDbArc
 50
106.248385
 51
175.001631
  0
LINE
  5
53E
100
AcDbEntity
  8
M0
100
AcDbLine
 10
339.56153
 20
724.355162
 11
339.56153
 21
723.655211
  0
LINE
  5
53F
100
AcDbEntity
  8
M0
100
AcDbLine
 10
339.56153
 20
724.355269
 11
339.635749
 21
725.20259
  0
LINE
  5
540
100
AcDbEntity
  8
M0
100
AcDbLine
 10
342.311286
 20
724.355269
 11
341.811286
 21
723.655211
  0
LINE
  5
541
100
AcDbEntity
  8
M0
100
AcDbLine
 10
342.311286
 20
723.655211
 11
342.811286
 21
724.355269
  0
LINE
  5
542
100
AcDbEntity
  8
M0
100
AcDbLine
 10
304.811155
 20
704.355811
 11
305.5111
 21
704.355811
  0
LINE
  5
543
100
AcDbEntity
  8
M0
100
AcDbLine
 10
305.5111
 20
704.355811
 11
305.5111
 21
706.155225
  0
LINE
  5
544
100
AcDbEntity
  8
M0
100
AcDbLine
 10
305.5111
 20
706.155225
 11
304.811158
 21
706.155225
  0
LINE
  5
545
100
AcDbEntity
  8
M0
100
AcDbLine
 10
305.060904
 20
724.355175
 11
305.060904
 21
723.655224
  0
LINE
  5
546
100
AcDbEntity
  8
M0
100
AcDbLine
 10
299.561149
 20
724.355282
 11
305.061149
 21
724.355282
  0
LINE
  5
547
100
AcDbEntity
  8
M0
100
AcDbLine
 10
305.060904
 20
724.355282
 11
304.986686
 21
725.202602
  0
ARC
  5
548
100
AcDbEntity
  8
M0
100
AcDbCircle
 10
302.311149
 20
719.355282
 40
7.0
100
AcDbArc
 50
72.985025
 51
106.255566
  0
ARC
  5
549
100
AcDbEntity
  8
M0
100
AcDbCircle
 10
303.990348
 20
725.115459
 40
1.0
100
AcDbArc
 50
4.998384
 51
73.752035
  0
ARC
  5
54A
100
AcDbEntity
  8
M0
100
AcDbCircle
 10
300.631705
 20
725.115459
 40
1.0
100
AcDbArc
 50
106.261219
 51
175.001555
  0
LINE
  5
54B
100
AcDbEntity
  8
M0
100
AcDbLine
 10
299.561393
 20
724.355297
 11
299.635367
 21
725.202602
  0
LINE
  5
54C
100
AcDbEntity
  8
M0
100
AcDbLine
 10
299.560904
 20
724.355175
 11
299.560904
 21
723.655224
  0
LINE
  5
54D
100
AcDbEntity
  8
M0
100
AcDbLine
 10
302.311149
 20
723.655224
 11
301.811149
 21
724.355282
  0
LINE
  5
54E
100
AcDbEntity
  8
M0
100
AcDbLine
 10
302.311149
 20
724.355282
 11
302.811149
 21
723.655224
  0
LINE
  5
54F
100
AcDbEntity
  8
M0
100
AcDbLine
 10
305.060904
 20
723.655224
 11
299.560904
 21
723.655224
  0
LINE
  5
550
100
AcDbEntity
  8
M0
100
AcDbLine
 10
299.560767
 20
724.355162
 11
299.560767
 21
723.655211
  0
LINE
  5
551
100
AcDbEntity
  8
M0
100
AcDbLine
 10
299.561011
 20
724.355269
 11
305.061011
 21
724.355269
  0
LINE
  5
552
100
AcDbEntity
  8
M0
100
AcDbLine
 10
299.561256
 20
724.355284
 11
299.63523
 21
725.20259
  0
ARC
  5
553
100
AcDbEntity
  8
M0
100
AcDbCircle
 10
300.631568
 20
725.115447
 40
1.0
100
AcDbArc
 50
106.261114
 51
175.001555
  0
ARC
  5
554
100
AcDbEntity
  8
M0
100
AcDbCircle
 10
302.311011
 20
719.355269
 40
7.0
100
AcDbArc
 50
72.985092
 51
106.255589
  0
ARC
  5
555
100
AcDbEntity
  8
M0
100
AcDbCircle
 10
303.990211
 20
725.115447
 40
1.0
100
AcDbArc
 50
4.998369
 51
73.751615
  0
LINE
  5
556
100
AcDbEntity
  8
M0
100
AcDbLine
 10
305.060767
 20
724.355162
 11
305.060767
 21
723.655211
  0
LINE
  5
557
100
AcDbEntity
  8
M0
100
AcDbLine
 10
305.060767
 20
724.355269
 11
304.986549
 21
725.20259
  0
LINE
  5
558
100
AcDbEntity
  8
M0
100
AcDbLine
 10
302.311011
 20
724.355269
 11
302.811011
 21
723.655211
  0
LINE
  5
559
100
AcDbEntity
  8
M0
100
AcDbLine
 10
302.311011
 20
723.655211
 11
301.811011
 21
724.355269
  0
LINE
  5
55A
100
AcDbEntity
  8
M0
100
AcDbLine
 10
343.811148
 20
700.355282
 11
340.811148
 21
700.355282
  0
LINE
  5
55B
100
AcDbEntity
  8
M0
100
AcDbLine
 10
343.811148
 20
704.355801
 11
343.811148
 21
700.355282
  0
LINE
  5
55C
100
AcDbEntity
  8
M0
100
AcDbLine
 10
340.811148
 20
700.355282
 11
340.811148
 21
704.355801
  0
LINE
  5
55D
100
AcDbEntity
  8
M0
100
AcDbLine
 10
345.511344
 20
706.155223
 11
345.511343
 21
704.355809
  0
LINE
  5
55E
100
AcDbEntity
  8
M0
100
AcDbLine
 10
345.511343
 20
704.355809
 11
339.111197
 21
704.355811
  0
LINE
  5
55F
100
AcDbEntity
  8
M0
100
AcDbLine
 10
339.111197
 20
704.355811
 11
339.111197
 21
706.155225
  0
LINE
  5
560
100
AcDbEntity
  8
M0
100
AcDbLine
 10
340.711539
 20
704.355811
 11
340.711539
 21
706.155224
  0
LINE
  5
561
100
AcDbEntity
  8
M0
100
AcDbLine
 10
343.91149
 20
704.35581
 11
343.91149
 21
706.155223
  0
LINE
  5
562
100
AcDbEntity
  8
M0
100
AcDbLine
 10
339.111197
 20
706.155225
 11
345.511344
 21
706.155223
  0
LINE
  5
563
100
AcDbEntity
  8
M0
100
AcDbLine
 10
339.561393
 20
724.355175
 11
339.561393
 21
723.655224
  0
LINE
  5
564
100
AcDbEntity
  8
M0
100
AcDbLine
 10
345.061149
 20
724.355282
 11
339.561149
 21
724.355282
  0
LINE
  5
565
100
AcDbEntity
  8
M0
100
AcDbLine
 10
339.561393
 20
724.355282
 11
339.635611
 21
725.202602
  0
ARC
  5
566
100
AcDbEntity
  8
M0
100
AcDbCircle
 10
342.311149
 20
719.355282
 40
7.0
100
AcDbArc
 50
73.744434
 51
107.014975
  0
ARC
  5
567
100
AcDbEntity
  8
M0
100
AcDbCircle
 10
340.631949
 20
725.115459
 40
1.0
100
AcDbArc
 50
106.247965
 51
175.001616
  0
ARC
  5
568
100
AcDbEntity
  8
M0
100
AcDbCircle
 10
343.990592
 20
725.115459
 40
1.0
100
AcDbArc
 50
4.998445
 51
73.738781
  0
LINE
  5
569
100
AcDbEntity
  8
M0
100
AcDbLine
 10
345.060904
 20
724.355297
 11
344.98693
 21
725.202602
  0
LINE
  5
56A
100
AcDbEntity
  8
M0
100
AcDbLine
 10
345.061393
 20
724.355175
 11
345.061393
 21
723.655224
  0
LINE
  5
56B
100
AcDbEntity
  8
M0
100
AcDbLine
 10
342.311149
 20
723.655224
 11
342.811149
 21
724.355282
  0
LINE
  5
56C
100
AcDbEntity
  8
M0
100
AcDbLine
 10
342.311149
 20
724.355282
 11
341.811149
 21
723.655224
  0
LINE
  5
56D
100
AcDbEntity
  8
M0
100
AcDbLine
 10
339.561393
 20
723.655224
 11
345.061393
 21
723.655224
  0
CIRCLE
  5
56E
100
AcDbEntity
  8
M0
 62
   114
100
AcDbCircle
 10
322.311149
 20
682.155224
 40
5.25
  0
LINE
  5
56F
100
AcDbEntity
  8
M0
 62
   114
100
AcDbLine
 10
323.159739
 20
682.155148
 11
326.423451
 21
685.41886
  0
LINE
  5
570
100
AcDbEntity
  8
M0
 62
   114
100
AcDbLine
 10
319.047501
 20
678.042911
 11
322.311213
 21
681.306622
  0
LINE
  5
571
100
AcDbEntity
  8
M0
 62
   114
100
AcDbLine
 10
321.46273
 20
682.155105
 11
318.198997
 21
678.891372
  0
LINE
  5
572
100
AcDbEntity
  8
M0
 62
   114
100
AcDbLine
 10
325.574979
 20
686.267375
 11
322.311256
 21
683.003631
  0
LINE
  5
573
100
AcDbEntity
  8
M0
 62
   114
100
AcDbLine
 10
322.311246
 20
683.003642
 11
320.543479
 21
684.771409
  0
LINE
  5
574
100
AcDbEntity
  8
M0
 62
   114
100
AcDbLine
 10
324.927506
 20
680.387381
 11
323.159739
 21
682.155148
  0
LINE
  5
575
100
AcDbEntity
  8
M0
 62
   114
100
AcDbLine
 10
322.311213
 20
681.306622
 11
324.07898
 21
679.538855
  0
LINE
  5
576
100
AcDbEntity
  8
M0
 62
   114
100
AcDbLine
 10
319.694953
 20
683.922883
 11
321.46272
 21
682.155116
  0
LINE
  5
577
100
AcDbEntity
  8
M0
 62
   114
100
AcDbLine
 10
324.07898
 20
679.538855
 11
324.927506
 21
680.387381
  0
LINE
  5
578
100
AcDbEntity
  8
M0
 62
   114
100
AcDbLine
 10
320.543479
 20
684.771409
 11
319.694953
 21
683.922883
  0
CIRCLE
  5
579
100
AcDbEntity
  8
M0
 62
   114
100
AcDbCircle
 10
322.311149
 20
682.155224
 40
5.75
  0
LINE
  5
57A
100
AcDbEntity
  8
M0
 62
   114
100
AcDbLine
 10
341.018255
 20
688.155224
 11
343.114188
 21
690.251156
  0
LINE
  5
57B
100
AcDbEntity
  8
M0
 62
   114
100
AcDbLine
 10
338.215205
 20
685.352174
 11
340.311149
 21
687.448117
  0
LINE
  5
57C
100
AcDbEntity
  8
M0
 62
   114
100
AcDbLine
 10
339.604042
 20
688.155224
 11
337.508098
 21
686.059281
  0
LINE
  5
57D
100
AcDbEntity
  8
M0
 62
   114
100
AcDbLine
 10
342.407081
 20
690.958263
 11
340.311149
 21
688.862331
  0
LINE
  5
57E
100
AcDbEntity
  8
M0
 62
   114
100
AcDbLine
 10
340.311149
 20
688.862331
 11
339.215099
 21
689.958381
  0
LINE
  5
57F
100
AcDbEntity
  8
M0
 62
   114
100
AcDbLine
 10
342.114305
 20
687.059174
 11
341.018255
 21
688.155224
  0
LINE
  5
580
100
AcDbEntity
  8
M0
 62
   114
100
AcDbLine
 10
340.311149
 20
687.448117
 11
341.407199
 21
686.352067
  0
LINE
  5
581
100
AcDbEntity
  8
M0
 62
   114
100
AcDbLine
 10
338.507992
 20
689.251274
 11
339.604042
 21
688.155224
  0
CIRCLE
  5
582
100
AcDbEntity
  8
M0
 62
   114
100
AcDbCircle
 10
340.311149
 20
688.155224
 40
3.5
  0
LINE
  5
583
100
AcDbEntity
  8
M0
 62
   114
100
AcDbLine
 10
341.407199
 20
686.352067
 11
342.114305
 21
687.059174
  0
LINE
  5
584
100
AcDbEntity
  8
M0
 62
   114
100
AcDbLine
 10
339.215099
 20
689.958381
 11
338.507992
 21
689.251274
  0
CIRCLE
  5
585
100
AcDbEntity
  8
M0
 62
   114
100
AcDbCircle
 10
340.311149
 20
688.155224
 40
4.0
  0
LINE
  5
586
100
AcDbEntity
  8
M0
 62
   114
100
AcDbLine
 10
305.018255
 20
688.155224
 11
307.114188
 21
690.251156
  0
LINE
  5
587
100
AcDbEntity
  8
M0
 62
   114
100
AcDbLine
 10
306.407081
 20
690.958263
 11
304.811132
 21
689.362314
  0
LINE
  5
588
100
AcDbEntity
  8
M0
 62
   114
100
AcDbLine
 10
306.114305
 20
687.059174
 11
305.018255
 21
688.155224
  0
LINE
  5
589
100
AcDbEntity
  8
M0
 62
   114
100
AcDbLine
 10
304.811128
 20
686.948138
 11
305.407199
 21
686.352067
  0
LINE
  5
58A
100
AcDbEntity
  8
M0
 62
   114
100
AcDbLine
 10
305.407199
 20
686.352067
 11
306.114305
 21
687.059174
  0
ARC
  5
58B
100
AcDbEntity
  8
M0
 62
   114
100
AcDbCircle
 10
304.311149
 20
688.155224
 40
4.0
100
AcDbArc
 50
277.180395
 51
442.819424
  0
ARC
  5
58C
100
AcDbEntity
  8
M0
 62
   114
100
AcDbCircle
 10
304.311149
 20
688.155224
 40
3.5
100
AcDbArc
 50
278.21281
 51
441.787009
  0
LINE
  5
58D
100
AcDbEntity
  8
M0
100
AcDbLine
 10
193.811149
 20
639.155224
 11
193.811149
 21
692.155224
  0
LINE
  5
58E
100
AcDbEntity
  8
M0
100
AcDbLine
 10
193.811149
 20
769.155224
 11
218.811149
 21
769.155224
  0
LINE
  5
58F
100
AcDbEntity
  8
M0
100
AcDbLine
 10
218.811149
 20
769.155224
 11
218.811149
 21
730.155224
  0
LINE
  5
590
100
AcDbEntity
  8
M0
100
AcDbLine
 10
218.811149
 20
639.155224
 11
193.811149
 21
639.155224
  0
LINE
  5
591
100
AcDbEntity
  8
M0
  6
DASHDOT
100
AcDbLine
 10
206.311149
 20
629.155224
 11
206.311149
 21
779.155224
  0
LINE
  5
592
100
AcDbEntity
  8
M0
100
AcDbLine
 10
193.811149
 20
730.155224
 11
218.811149
 21
730.155224
  0
CIRCLE
  5
593
100
AcDbEntity
  8
M0
100
AcDbCircle
 10
206.311149
 20
754.155224
 40
6.5
  0
CIRCLE
  5
594
100
AcDbEntity
  8
M0
100
AcDbCircle
 10
206.311149
 20
654.155224
 40
6.0
  0
LINE
  5
595
100
AcDbEntity
  8
M0
100
AcDbLine
 10
218.811149
 20
692.155224
 11
218.811149
 21
639.155224
  0
LINE
  5
596
100
AcDbEntity
  8
M0
100
AcDbLine
 10
193.811149
 20
730.155224
 11
193.811149
 21
769.155224
  0
LINE
  5
597
100
AcDbEntity
  8
M0
100
AcDbLine
 10
219.811149
 20
729.155224
 11
192.811149
 21
729.155224
  0
LINE
  5
598
100
AcDbEntity
  8
M0
100
AcDbLine
 10
192.811149
 20
736.155224
 11
192.811149
 21
723.655224
  0
LINE
  5
599
100
AcDbEntity
  8
M0
100
AcDbLine
 10
193.811149
 20
736.155224
 11
192.811149
 21
736.155224
  0
LINE
  5
59A
100
AcDbEntity
  8
M0
100
AcDbLine
 10
219.811149
 20
736.155224
 11
219.811149
 21
723.655224
  0
LINE
  5
59B
100
AcDbEntity
  8
M0
100
AcDbLine
 10
219.811149
 20
736.155224
 11
218.811149
 21
736.155224
  0
LINE
  5
59C
100
AcDbEntity
  8
M0
100
AcDbLine
 10
219.811149
 20
692.155224
 11
192.811149
 21
692.155224
  0
LINE
  5
59D
100
AcDbEntity
  8
M0
100
AcDbLine
 10
192.811149
 20
706.155224
 11
192.811149
 21
692.155224
  0
LINE
  5
59E
100
AcDbEntity
  8
M0
100
AcDbLine
 10
219.811149
 20
706.155224
 11
219.811149
 21
692.155224
  0
LINE
  5
59F
100
AcDbEntity
  8
M0
  6
DASHDOT
100
AcDbLine
 10
192.311149
 20
654.155224
 11
220.311149
 21
654.155224
  0
LINE
  5
5A0
100
AcDbEntity
  8
M0
100
AcDbLine
 10
229.06153
 20
724.355162
 11
229.06153
 21
723.655211
  0
LINE
  5
5A1
100
AcDbEntity
  8
M0
100
AcDbLine
 10
229.061286
 20
724.355269
 11
223.561286
 21
724.355269
  0
LINE
  5
5A2
100
AcDbEntity
  8
M0
100
AcDbLine
 10
229.061041
 20
724.355284
 11
228.987067
 21
725.20259
  0
ARC
  5
5A3
100
AcDbEntity
  8
M0
100
AcDbCircle
 10
227.990729
 20
725.115447
 40
1.0
100
AcDbArc
 50
4.998445
 51
73.738886
  0
ARC
  5
5A4
100
AcDbEntity
  8
M0
100
AcDbCircle
 10
226.311286
 20
719.355269
 40
7.0
100
AcDbArc
 50
73.744411
 51
107.014908
  0
ARC
  5
5A5
100
AcDbEntity
  8
M0
100
AcDbCircle
 10
224.632086
 20
725.115447
 40
1.0
100
AcDbArc
 50
106.248385
 51
175.001631
  0
LINE
  5
5A6
100
AcDbEntity
  8
M0
100
AcDbLine
 10
223.56153
 20
724.355162
 11
223.56153
 21
723.655211
  0
LINE
  5
5A7
100
AcDbEntity
  8
M0
100
AcDbLine
 10
223.56153
 20
724.355269
 11
223.635749
 21
725.20259
  0
LINE
  5
5A8
100
AcDbEntity
  8
M0
100
AcDbLine
 10
226.311286
 20
724.355269
 11
225.811286
 21
723.655211
  0
LINE
  5
5A9
100
AcDbEntity
  8
M0
100
AcDbLine
 10
226.311286
 20
723.655211
 11
226.811286
 21
724.355269
  0
LINE
  5
5AA
100
AcDbEntity
  8
M0
100
AcDbLine
 10
184.81115
 20
700.355282
 11
187.81115
 21
700.355282
  0
LINE
  5
5AB
100
AcDbEntity
  8
M0
100
AcDbLine
 10
184.81115
 20
704.355801
 11
184.81115
 21
700.355282
  0
LINE
  5
5AC
100
AcDbEntity
  8
M0
100
AcDbLine
 10
187.81115
 20
700.355282
 11
187.81115
 21
704.355801
  0
LINE
  5
5AD
100
AcDbEntity
  8
M0
100
AcDbLine
 10
183.110953
 20
706.155223
 11
183.110954
 21
704.355809
  0
LINE
  5
5AE
100
AcDbEntity
  8
M0
100
AcDbLine
 10
183.110954
 20
704.355809
 11
189.5111
 21
704.355811
  0
LINE
  5
5AF
100
AcDbEntity
  8
M0
100
AcDbLine
 10
189.5111
 20
704.355811
 11
189.5111
 21
706.155225
  0
LINE
  5
5B0
100
AcDbEntity
  8
M0
100
AcDbLine
 10
187.910758
 20
704.355811
 11
187.910758
 21
706.155224
  0
LINE
  5
5B1
100
AcDbEntity
  8
M0
100
AcDbLine
 10
184.710807
 20
704.35581
 11
184.710807
 21
706.155223
  0
LINE
  5
5B2
100
AcDbEntity
  8
M0
100
AcDbLine
 10
189.5111
 20
706.155225
 11
183.110953
 21
706.155223
  0
LINE
  5
5B3
100
AcDbEntity
  8
M0
100
AcDbLine
 10
189.060904
 20
724.355175
 11
189.060904
 21
723.655224
  0
LINE
  5
5B4
100
AcDbEntity
  8
M0
100
AcDbLine
 10
183.561149
 20
724.355282
 11
189.061149
 21
724.355282
  0
LINE
  5
5B5
100
AcDbEntity
  8
M0
100
AcDbLine
 10
189.060904
 20
724.355282
 11
188.986686
 21
725.202602
  0
ARC
  5
5B6
100
AcDbEntity
  8
M0
100
AcDbCircle
 10
186.311149
 20
719.355282
 40
7.0
100
AcDbArc
 50
72.985025
 51
106.255566
  0
ARC
  5
5B7
100
AcDbEntity
  8
M0
100
AcDbCircle
 10
187.990348
 20
725.115459
 40
1.0
100
AcDbArc
 50
4.998384
 51
73.752035
  0
ARC
  5
5B8
100
AcDbEntity
  8
M0
100
AcDbCircle
 10
184.631705
 20
725.115459
 40
1.0
100
AcDbArc
 50
106.261219
 51
175.001555
  0
LINE
  5
5B9
100
AcDbEntity
  8
M0
100
AcDbLine
 10
183.561393
 20
724.355297
 11
183.635367
 21
725.202602
  0
LINE
  5
5BA
100
AcDbEntity
  8
M0
100
AcDbLine
 10
183.560904
 20
724.355175
 11
183.560904
 21
723.655224
  0
LINE
  5
5BB
100
AcDbEntity
  8
M0
100
AcDbLine
 10
186.311149
 20
723.655224
 11
185.811149
 21
724.355282
  0
LINE
  5
5BC
100
AcDbEntity
  8
M0
100
AcDbLine
 10
186.311149
 20
724.355282
 11
186.811149
 21
723.655224
  0
LINE
  5
5BD
100
AcDbEntity
  8
M0
100
AcDbLine
 10
189.060904
 20
723.655224
 11
183.560904
 21
723.655224
  0
LINE
  5
5BE
100
AcDbEntity
  8
M0
100
AcDbLine
 10
182.311149
 20
706.155224
 11
182.311149
 21
723.655224
  0
LINE
  5
5BF
100
AcDbEntity
  8
M0
100
AcDbLine
 10
182.311149
 20
723.655224
 11
230.311149
 21
723.655224
  0
LINE
  5
5C0
100
AcDbEntity
  8
M0
100
AcDbLine
 10
230.311149
 20
723.655224
 11
230.311149
 21
706.155224
  0
LINE
  5
5C1
100
AcDbEntity
  8
M0
100
AcDbLine
 10
230.311149
 20
706.155224
 11
182.311149
 21
706.155224
  0
LINE
  5
5C2
100
AcDbEntity
  8
M0
100
AcDbLine
 10
183.560767
 20
724.355162
 11
183.560767
 21
723.655211
  0
LINE
  5
5C3
100
AcDbEntity
  8
M0
100
AcDbLine
 10
183.561011
 20
724.355269
 11
189.061011
 21
724.355269
  0
LINE
  5
5C4
100
AcDbEntity
  8
M0
100
AcDbLine
 10
183.561256
 20
724.355284
 11
183.63523
 21
725.20259
  0
ARC
  5
5C5
100
AcDbEntity
  8
M0
100
AcDbCircle
 10
184.631568
 20
725.115447
 40
1.0
100
AcDbArc
 50
106.261114
 51
175.001555
  0
ARC
  5
5C6
100
AcDbEntity
  8
M0
100
AcDbCircle
 10
186.311011
 20
719.355269
 40
7.0
100
AcDbArc
 50
72.985092
 51
106.255589
  0
ARC
  5
5C7
100
AcDbEntity
  8
M0
100
AcDbCircle
 10
187.990211
 20
725.115447
 40
1.0
100
AcDbArc
 50
4.998369
 51
73.751615
  0
LINE
  5
5C8
100
AcDbEntity
  8
M0
100
AcDbLine
 10
189.060767
 20
724.355162
 11
189.060767
 21
723.655211
  0
LINE
  5
5C9
100
AcDbEntity
  8
M0
100
AcDbLine
 10
189.060767
 20
724.355269
 11
188.986549
 21
725.20259
  0
LINE
  5
5CA
100
AcDbEntity
  8
M0
100
AcDbLine
 10
186.311011
 20
724.355269
 11
186.811011
 21
723.655211
  0
LINE
  5
5CB
100
AcDbEntity
  8
M0
100
AcDbLine
 10
186.311011
 20
723.655211
 11
185.811011
 21
724.355269
  0
LINE
  5
5CC
100
AcDbEntity
  8
M0
100
AcDbLine
 10
227.811148
 20
700.355282
 11
224.811148
 21
700.355282
  0
LINE
  5
5CD
100
AcDbEntity
  8
M0
100
AcDbLine
 10
227.811148
 20
704.355801
 11
227.811148
 21
700.355282
  0
LINE
  5
5CE
100
AcDbEntity
  8
M0
100
AcDbLine
 10
224.811148
 20
700.355282
 11
224.811148
 21
704.355801
  0
LINE
  5
5CF
100
AcDbEntity
  8
M0
100
AcDbLine
 10
229.511344
 20
706.155223
 11
229.511343
 21
704.355809
  0
LINE
  5
5D0
100
AcDbEntity
  8
M0
100
AcDbLine
 10
229.511343
 20
704.355809
 11
223.111197
 21
704.355811
  0
LINE
  5
5D1
100
AcDbEntity
  8
M0
100
AcDbLine
 10
223.111197
 20
704.355811
 11
223.111197
 21
706.155225
  0
LINE
  5
5D2
100
AcDbEntity
  8
M0
100
AcDbLine
 10
224.711539
 20
704.355811
 11
224.711539
 21
706.155224
  0
LINE
  5
5D3
100
AcDbEntity
  8
M0
100
AcDbLine
 10
227.91149
 20
704.35581
 11
227.91149
 21
706.155223
  0
LINE
  5
5D4
100
AcDbEntity
  8
M0
100
AcDbLine
 10
223.111197
 20
706.155225
 11
229.511344
 21
706.155223
  0
LINE
  5
5D5
100
AcDbEntity
  8
M0
100
AcDbLine
 10
223.561393
 20
724.355175
 11
223.561393
 21
723.655224
  0
LINE
  5
5D6
100
AcDbEntity
  8
M0
100
AcDbLine
 10
229.061149
 20
724.355282
 11
223.561149
 21
724.355282
  0
LINE
  5
5D7
100
AcDbEntity
  8
M0
100
AcDbLine
 10
223.561393
 20
724.355282
 11
223.635611
 21
725.202602
  0
ARC
  5
5D8
100
AcDbEntity
  8
M0
100
AcDbCircle
 10
226.311149
 20
719.355282
 40
7.0
100
AcDbArc
 50
73.744434
 51
107.014975
  0
ARC
  5
5D9
100
AcDbEntity
  8
M0
100
AcDbCircle
 10
224.631949
 20
725.115459
 40
1.0
100
AcDbArc
 50
106.247965
 51
175.001616
  0
ARC
  5
5DA
100
AcDbEntity
  8
M0
100
AcDbCircle
 10
227.990592
 20
725.115459
 40
1.0
100
AcDbArc
 50
4.998445
 51
73.738781
  0
LINE
  5
5DB
100
AcDbEntity
  8
M0
100
AcDbLine
 10
229.060904
 20
724.355297
 11
228.98693
 21
725.202602
  0
LINE
  5
5DC
100
AcDbEntity
  8
M0
100
AcDbLine
 10
229.061393
 20
724.355175
 11
229.061393
 21
723.655224
  0
LINE
  5
5DD
100
AcDbEntity
  8
M0
100
AcDbLine
 10
226.311149
 20
723.655224
 11
226.811149
 21
724.355282
  0
LINE
  5
5DE
100
AcDbEntity
  8
M0
100
AcDbLine
 10
226.311149
 20
724.355282
 11
225.811149
 21
723.655224
  0
LINE
  5
5DF
100
AcDbEntity
  8
M0
100
AcDbLine
 10
223.561393
 20
723.655224
 11
229.061393
 21
723.655224
  0
LINE
  5
5E0
100
AcDbEntity
  8
M0
 62
   253
100
AcDbLine
 10
182.311149
 20
706.155224
 11
192.811149
 21
706.155224
  0
LINE
  5
5E1
100
AcDbEntity
  8
M0
 62
   253
100
AcDbLine
 10
182.311149
 20
694.155224
 11
192.811149
 21
694.155224
  0
LINE
  5
5E2
100
AcDbEntity
  8
M0
 62
   253
100
AcDbLine
 10
230.311149
 20
694.155224
 11
219.811149
 21
694.155224
  0
LINE
  5
5E3
100
AcDbEntity
  8
M0
 62
   253
100
AcDbLine
 10
190.811149
 20
683.155224
 11
190.811149
 21
685.032725
  0
LINE
  5
5E4
100
AcDbEntity
  8
M0
 62
   253
100
AcDbLine
 10
185.811149
 20
683.155224
 11
185.811149
 21
685.032725
  0
LINE
  5
5E5
100
AcDbEntity
  8
M0
 62
   253
100
AcDbLine
 10
226.811149
 20
683.155224
 11
226.811149
 21
685.032725
  0
LINE
  5
5E6
100
AcDbEntity
  8
M0
 62
   253
100
AcDbLine
 10
221.811149
 20
683.155224
 11
221.811149
 21
685.032725
  0
LINE
  5
5E7
100
AcDbEntity
  8
M0
 62
   253
100
AcDbLine
 10
230.311149
 20
706.155224
 11
230.311149
 21
684.155224
  0
LINE
  5
5E8
100
AcDbEntity
  8
M0
 62
   253
100
AcDbLine
 10
218.811149
 20
683.155224
 11
229.311149
 21
683.155224
  0
ARC
  5
5E9
100
AcDbEntity
  8
M0
 62
   253
100
AcDbCircle
 10
229.311149
 20
684.155224
 40
1.0
100
AcDbArc
 50
-90.0
 51
0.0
  0
LINE
  5
5EA
100
AcDbEntity
  8
M0
 62
   253
100
AcDbLine
 10
183.311149
 20
683.155224
 11
193.811149
 21
683.155224
  0
LINE
  5
5EB
100
AcDbEntity
  8
M0
 62
   253
100
AcDbLine
 10
182.311149
 20
684.155224
 11
182.311149
 21
706.155224
  0
ARC
  5
5EC
100
AcDbEntity
  8
M0
 62
   253
100
AcDbCircle
 10
183.311149
 20
684.155224
 40
1.0
100
AcDbArc
 50
180.0
 51
270.0
  0
LINE
  5
5ED
100
AcDbEntity
  8
M0
 62
   253
100
AcDbLine
 10
219.811149
 20
706.155224
 11
230.311149
 21
706.155224
  0
LINE
  5
5EE
100
AcDbEntity
  8
M0
 62
   114
100
AcDbLine
 10
223.604042
 20
688.155224
 11
221.508109
 21
690.251156
  0
LINE
  5
5EF
100
AcDbEntity
  8
M0
 62
   114
100
AcDbLine
 10
226.407092
 20
685.352174
 11
224.311149
 21
687.448117
  0
LINE
  5
5F0
100
AcDbEntity
  8
M0
 62
   114
100
AcDbLine
 10
225.018255
 20
688.155224
 11
227.114199
 21
686.059281
  0
LINE
  5
5F1
100
AcDbEntity
  8
M0
 62
   114
100
AcDbLine
 10
222.215216
 20
690.958263
 11
224.311149
 21
688.862331
  0
LINE
  5
5F2
100
AcDbEntity
  8
M0
 62
   114
100
AcDbLine
 10
224.311149
 20
688.862331
 11
225.407199
 21
689.958381
  0
LINE
  5
5F3
100
AcDbEntity
  8
M0
 62
   114
100
AcDbLine
 10
222.507992
 20
687.059174
 11
223.604042
 21
688.155224
  0
LINE
  5
5F4
100
AcDbEntity
  8
M0
 62
   114
100
AcDbLine
 10
224.311149
 20
687.448117
 11
223.215099
 21
686.352067
  0
LINE
  5
5F5
100
AcDbEntity
  8
M0
 62
   114
100
AcDbLine
 10
226.114305
 20
689.251274
 11
225.018255
 21
688.155224
  0
CIRCLE
  5
5F6
100
AcDbEntity
  8
M0
 62
   114
100
AcDbCircle
 10
224.311149
 20
688.155224
 40
3.5
  0
LINE
  5
5F7
100
AcDbEntity
  8
M0
 62
   114
100
AcDbLine
 10
223.215099
 20
686.352067
 11
222.507992
 21
687.059174
  0
LINE
  5
5F8
100
AcDbEntity
  8
M0
 62
   114
100
AcDbLine
 10
225.407199
 20
689.958381
 11
226.114305
 21
689.251274
  0
CIRCLE
  5
5F9
100
AcDbEntity
  8
M0
 62
   114
100
AcDbCircle
 10
224.311149
 20
688.155224
 40
4.0
  0
CIRCLE
  5
5FA
100
AcDbEntity
  8
M0
 62
   114
100
AcDbCircle
 10
206.311149
 20
682.155224
 40
5.25
  0
LINE
  5
5FB
100
AcDbEntity
  8
M0
 62
   114
100
AcDbLine
 10
205.462558
 20
682.155148
 11
202.198846
 21
685.41886
  0
LINE
  5
5FC
100
AcDbEntity
  8
M0
 62
   114
100
AcDbLine
 10
209.574796
 20
678.042911
 11
206.311084
 21
681.306622
  0
LINE
  5
5FD
100
AcDbEntity
  8
M0
 62
   114
100
AcDbLine
 10
207.159567
 20
682.155105
 11
210.4233
 21
678.891372
  0
LINE
  5
5FE
100
AcDbEntity
  8
M0
 62
   114
100
AcDbLine
 10
203.047318
 20
686.267375
 11
206.311041
 21
683.003631
  0
LINE
  5
5FF
100
AcDbEntity
  8
M0
 62
   114
100
AcDbLine
 10
206.311051
 20
683.003642
 11
208.078818
 21
684.771409
  0
LINE
  5
600
100
AcDbEntity
  8
M0
 62
   114
100
AcDbLine
 10
203.694791
 20
680.387381
 11
205.462558
 21
682.155148
  0
LINE
  5
601
100
AcDbEntity
  8
M0
 62
   114
100
AcDbLine
 10
206.311084
 20
681.306622
 11
204.543317
 21
679.538855
  0
LINE
  5
602
100
AcDbEntity
  8
M0
 62
   114
100
AcDbLine
 10
208.927344
 20
683.922883
 11
207.159577
 21
682.155116
  0
LINE
  5
603
100
AcDbEntity
  8
M0
 62
   114
100
AcDbLine
 10
204.543317
 20
679.538855
 11
203.694791
 21
680.387381
  0
LINE
  5
604
100
AcDbEntity
  8
M0
 62
   114
100
AcDbLine
 10
208.078818
 20
684.771409
 11
208.927344
 21
683.922883
  0
CIRCLE
  5
605
100
AcDbEntity
  8
M0
 62
   114
100
AcDbCircle
 10
206.311149
 20
682.155224
 40
5.75
  0
LINE
  5
606
100
AcDbEntity
  8
M0
 62
   114
100
AcDbLine
 10
187.604042
 20
688.155224
 11
185.508109
 21
690.251156
  0
LINE
  5
607
100
AcDbEntity
  8
M0
 62
   114
100
AcDbLine
 10
190.407092
 20
685.352174
 11
188.311149
 21
687.448117
  0
LINE
  5
608
100
AcDbEntity
  8
M0
 62
   114
100
AcDbLine
 10
189.018255
 20
688.155224
 11
191.114199
 21
686.059281
  0
LINE
  5
609
100
AcDbEntity
  8
M0
 62
   114
100
AcDbLine
 10
186.215216
 20
690.958263
 11
188.311149
 21
688.862331
  0
LINE
  5
60A
100
AcDbEntity
  8
M0
 62
   114
100
AcDbLine
 10
188.311149
 20
688.862331
 11
189.407199
 21
689.958381
  0
LINE
  5
60B
100
AcDbEntity
  8
M0
 62
   114
100
AcDbLine
 10
186.507992
 20
687.059174
 11
187.604042
 21
688.155224
  0
LINE
  5
60C
100
AcDbEntity
  8
M0
 62
   114
100
AcDbLine
 10
188.311149
 20
687.448117
 11
187.215099
 21
686.352067
  0
LINE
  5
60D
100
AcDbEntity
  8
M0
 62
   114
100
AcDbLine
 10
190.114305
 20
689.251274
 11
189.018255
 21
688.155224
  0
CIRCLE
  5
60E
100
AcDbEntity
  8
M0
 62
   114
100
AcDbCircle
 10
188.311149
 20
688.155224
 40
3.5
  0
LINE
  5
60F
100
AcDbEntity
  8
M0
 62
   114
100
AcDbLine
 10
187.215099
 20
686.352067
 11
186.507992
 21
687.059174
  0
LINE
  5
610
100
AcDbEntity
  8
M0
 62
   114
100
AcDbLine
 10
189.407199
 20
689.958381
 11
190.114305
 21
689.251274
  0
CIRCLE
  5
611
100
AcDbEntity
  8
M0
 62
   114
100
AcDbCircle
 10
188.311149
 20
688.155224
 40
4.0
  0
CIRCLE
  5
612
100
AcDbEntity
  8
M0
 62
     2
100
AcDbCircle
 10
322.311149
 20
654.155224
 40
13.0
  0
LINE
  5
613
100
AcDbEntity
  8
M0
 62
     6
100
AcDbLine
 10
322.311149
 20
643.205177
 11
312.828238
 21
648.680183
  0
LINE
  5
614
100
AcDbEntity
  8
M0
 62
     6
100
AcDbLine
 10
312.828238
 20
648.680183
 11
312.828238
 21
659.630165
  0
LINE
  5
615
100
AcDbEntity
  8
M0
 62
     6
100
AcDbLine
 10
312.828238
 20
659.630165
 11
322.311149
 21
665.105171
  0
LINE
  5
616
100
AcDbEntity
  8
M0
 62
     6
100
AcDbLine
 10
322.311149
 20
665.105171
 11
331.794303
 21
659.630165
  0
LINE
  5
617
100
AcDbEntity
  8
M0
 62
     6
100
AcDbLine
 10
331.794303
 20
659.630165
 11
331.794303
 21
648.680153
  0
LINE
  5
618
100
AcDbEntity
  8
M0
 62
     6
100
AcDbLine
 10
331.794303
 20
648.680153
 11
322.311149
 21
643.205177
  0
CIRCLE
  5
619
100
AcDbEntity
  8
M0
 62
     6
100
AcDbCircle
 10
322.311149
 20
654.155159
 40
6.0
  0
CIRCLE
  5
61A
100
AcDbEntity
  8
M0
 62
     7
100
AcDbCircle
 10
322.311149
 20
654.155224
 40
10.75
  0
LINE
  5
61B
100
AcDbEntity
  8
M0
 62
     6
100
AcDbLine
 10
264.311149
 20
643.205177
 11
254.828238
 21
648.680183
  0
LINE
  5
61C
100
AcDbEntity
  8
M0
 62
     6
100
AcDbLine
 10
254.828238
 20
648.680183
 11
254.828238
 21
659.630165
  0
LINE
  5
61D
100
AcDbEntity
  8
M0
 62
     6
100
AcDbLine
 10
254.828238
 20
659.630165
 11
264.311149
 21
665.105171
  0
LINE
  5
61E
100
AcDbEntity
  8
M0
 62
     6
100
AcDbLine
 10
264.311149
 20
665.105171
 11
273.794303
 21
659.630165
  0
LINE
  5
61F
100
AcDbEntity
  8
M0
 62
     6
100
AcDbLine
 10
273.794303
 20
659.630165
 11
273.794303
 21
648.680153
  0
LINE
  5
620
100
AcDbEntity
  8
M0
 62
     6
100
AcDbLine
 10
273.794303
 20
648.680153
 11
264.311149
 21
643.205177
  0
CIRCLE
  5
621
100
AcDbEntity
  8
M0
 62
     6
100
AcDbCircle
 10
264.311149
 20
654.155159
 40
6.0
  0
CIRCLE
  5
622
100
AcDbEntity
  8
M0
 62
     7
100
AcDbCircle
 10
264.311149
 20
654.155224
 40
10.75
  0
CIRCLE
  5
623
100
AcDbEntity
  8
M0
 62
     2
100
AcDbCircle
 10
264.311149
 20
654.155224
 40
13.0
  0
LINE
  5
624
100
AcDbEntity
  8
M0
 62
     6
100
AcDbLine
 10
206.311149
 20
643.205177
 11
196.828238
 21
648.680183
  0
LINE
  5
625
100
AcDbEntity
  8
M0
 62
     6
100
AcDbLine
 10
196.828238
 20
648.680183
 11
196.828238
 21
659.630165
  0
LINE
  5
626
100
AcDbEntity
  8
M0
 62
     6
100
AcDbLine
 10
196.828238
 20
659.630165
 11
206.311149
 21
665.105171
  0
LINE
  5
627
100
AcDbEntity
  8
M0
 62
     6
100
AcDbLine
 10
206.311149
 20
665.105171
 11
215.794303
 21
659.630165
  0
LINE
  5
628
100
AcDbEntity
  8
M0
 62
     6
100
AcDbLine
 10
215.794303
 20
659.630165
 11
215.794303
 21
648.680153
  0
LINE
  5
629
100
AcDbEntity
  8
M0
 62
     6
100
AcDbLine
 10
215.794303
 20
648.680153
 11
206.311149
 21
643.205177
  0
CIRCLE
  5
62A
100
AcDbEntity
  8
M0
 62
     6
100
AcDbCircle
 10
206.311149
 20
654.155159
 40
6.0
  0
CIRCLE
  5
62B
100
AcDbEntity
  8
M0
 62
     7
100
AcDbCircle
 10
206.311149
 20
654.155224
 40
10.75
  0
CIRCLE
  5
62C
100
AcDbEntity
  8
M0
 62
     2
100
AcDbCircle
 10
206.311149
 20
654.155224
 40
13.0
  0
ARC
  5
62D
100
AcDbEntity
  8
M0
 62
     1
100
AcDbCircle
 10
292.811095
 20
666.155185
 40
1.0
100
AcDbArc
 50
179.999126
 51
270.0
  0
ARC
  5
62E
100
AcDbEntity
  8
M0
 62
     1
100
AcDbCircle
 10
292.811095
 20
666.155185
 40
1.0
100
AcDbArc
 50
270.0
 51
360.0
  0
LINE
  5
62F
100
AcDbEntity
  8
M0
 62
     1
100
AcDbLine
 10
283.811133
 20
666.1552
 11
280.811133
 21
666.1552
  0
LINE
  5
630
100
AcDbEntity
  8
M0
 62
     1
100
AcDbLine
 10
262.061179
 20
707.654929
 11
262.061179
 21
708.455222
  0
ARC
  5
631
100
AcDbEntity
  8
M0
 62
     1
100
AcDbCircle
 10
261.061179
 20
708.455224
 40
1.0
100
AcDbArc
 50
0.0
 51
89.999126
  0
LINE
  5
632
100
AcDbEntity
  8
M0
 62
     1
100
AcDbLine
 10
304.811144
 20
706.655155
 11
272.811194
 21
706.654962
  0
LINE
  5
633
100
AcDbEntity
  8
M0
 62
     1
100
AcDbLine
 10
242.311179
 20
707.95496
 11
242.311133
 21
672.65517
  0
LINE
  5
634
100
AcDbEntity
  8
M0
 62
     1
100
AcDbLine
 10
283.811118
 20
670.1552
 11
284.868415
 21
670.1552
  0
LINE
  5
635
100
AcDbEntity
  8
M0
 62
     1
100
AcDbLine
 10
304.811097
 20
667.65517
 11
304.811164
 21
709.655154
  0
LINE
  5
636
100
AcDbEntity
  8
M0
 62
     1
100
AcDbLine
 10
300.956157
 20
702.155161
 11
289.161158
 21
702.155179
  0
LINE
  5
637
100
AcDbEntity
  8
M0
 62
     1
100
AcDbLine
 10
267.811149
 20
675.155216
 11
267.811194
 21
708.655213
  0
LINE
  5
638
100
AcDbEntity
  8
M0
 62
     1
100
AcDbLine
 10
270.311149
 20
675.155216
 11
270.311194
 21
708.655209
  0
LINE
  5
639
100
AcDbEntity
  8
M0
 62
     1
100
AcDbLine
 10
257.811149
 20
675.155231
 11
257.811194
 21
708.655229
  0
LINE
  5
63A
100
AcDbEntity
  8
M0
 62
     1
100
AcDbLine
 10
255.311149
 20
675.155246
 11
255.311194
 21
708.655233
  0
LINE
  5
63B
100
AcDbEntity
  8
M0
 62
     1
100
AcDbLine
 10
269.31121
 20
709.655211
 11
268.81121
 21
709.655211
  0
ARC
  5
63C
100
AcDbEntity
  8
M0
 62
     1
100
AcDbCircle
 10
269.311194
 20
708.655211
 40
1.0
100
AcDbArc
 50
0.0
 51
89.999126
  0
LINE
  5
63D
100
AcDbEntity
  8
M0
 62
     1
100
AcDbLine
 10
261.061179
 20
709.455224
 11
257.411124
 21
709.455203
  0
ARC
  5
63E
100
AcDbEntity
  8
M0
 62
     1
100
AcDbCircle
 10
268.811194
 20
708.655211
 40
1.0
100
AcDbArc
 50
89.999126
 51
179.999962
  0
LINE
  5
63F
100
AcDbEntity
  8
M0
 62
     1
100
AcDbLine
 10
278.811164
 20
689.1552
 11
271.811164
 21
689.155216
  0
LINE
  5
640
100
AcDbEntity
  8
M0
 62
     1
100
AcDbLine
 10
278.811179
 20
693.655196
 11
271.811179
 21
693.655207
  0
LINE
  5
641
100
AcDbEntity
  8
M0
 62
     1
100
AcDbLine
 10
278.811179
 20
691.6552
 11
271.811179
 21
691.655216
  0
LINE
  5
642
100
AcDbEntity
  8
M0
 62
     1
100
AcDbLine
 10
272.311179
 20
693.655206
 11
272.311179
 21
693.855157
  0
LINE
  5
643
100
AcDbEntity
  8
M0
 62
     1
100
AcDbLine
 10
278.311179
 20
693.655196
 11
278.311179
 21
693.855148
  0
LINE
  5
644
100
AcDbEntity
  8
M0
 62
     1
100
AcDbLine
 10
277.811194
 20
703.455002
 11
277.811194
 21
706.655197
  0
LINE
  5
645
100
AcDbEntity
  8
M0
 62
     1
100
AcDbLine
 10
272.811194
 20
703.455011
 11
272.811194
 21
706.655206
  0
LINE
  5
646
100
AcDbEntity
  8
M0
 62
     1
100
AcDbLine
 10
265.311194
 20
703.455266
 11
265.311194
 21
706.655217
  0
LINE
  5
647
100
AcDbEntity
  8
M0
 62
     1
100
AcDbLine
 10
260.311194
 20
703.455274
 11
260.311194
 21
706.655225
  0
LINE
  5
648
100
AcDbEntity
  8
M0
 62
     1
100
AcDbLine
 10
247.811194
 20
703.455294
 11
247.811194
 21
706.655245
  0
LINE
  5
649
100
AcDbEntity
  8
M0
 62
     1
100
AcDbLine
 10
252.811194
 20
703.455286
 11
252.811194
 21
706.655237
  0
LINE
  5
64A
100
AcDbEntity
  8
M0
 62
     1
100
AcDbLine
 10
259.811179
 20
693.655226
 11
259.811179
 21
693.855421
  0
LINE
  5
64B
100
AcDbEntity
  8
M0
 62
     1
100
AcDbLine
 10
265.811179
 20
693.655216
 11
265.811179
 21
693.855412
  0
LINE
  5
64C
100
AcDbEntity
  8
M0
 62
     1
100
AcDbLine
 10
247.311179
 20
693.655246
 11
247.311179
 21
693.855441
  0
LINE
  5
64D
100
AcDbEntity
  8
M0
 62
     1
100
AcDbLine
 10
253.311179
 20
693.655236
 11
253.311179
 21
693.855432
  0
LINE
  5
64E
100
AcDbEntity
  8
M0
 62
     1
100
AcDbLine
 10
272.811194
 20
706.655206
 11
270.311194
 21
706.65521
  0
LINE
  5
64F
100
AcDbEntity
  8
M0
 62
     1
100
AcDbLine
 10
260.311194
 20
706.655225
 11
257.811194
 21
706.655229
  0
LINE
  5
650
100
AcDbEntity
  8
M0
 62
     1
100
AcDbLine
 10
247.811194
 20
706.655245
 11
245.311194
 21
706.655249
  0
LINE
  5
651
100
AcDbEntity
  8
M0
 62
     1
100
AcDbLine
 10
266.311179
 20
693.655216
 11
259.311179
 21
693.655227
  0
LINE
  5
652
100
AcDbEntity
  8
M0
 62
     1
100
AcDbLine
 10
253.811179
 20
693.655236
 11
246.811179
 21
693.655247
  0
LINE
  5
653
100
AcDbEntity
  8
M0
 62
     1
100
AcDbLine
 10
279.811179
 20
694.655195
 11
279.811194
 21
705.655195
  0
LINE
  5
654
100
AcDbEntity
  8
M0
 62
     1
100
AcDbLine
 10
270.811179
 20
694.655209
 11
270.811194
 21
705.655209
  0
LINE
  5
655
100
AcDbEntity
  8
M0
 62
     1
100
AcDbLine
 10
267.311179
 20
694.655215
 11
267.311194
 21
705.655215
  0
LINE
  5
656
100
AcDbEntity
  8
M0
 62
     1
100
AcDbLine
 10
258.311179
 20
694.655229
 11
258.311194
 21
705.655229
  0
LINE
  5
657
100
AcDbEntity
  8
M0
 62
     1
100
AcDbLine
 10
254.811179
 20
694.655234
 11
254.811194
 21
705.655234
  0
LINE
  5
658
100
AcDbEntity
  8
M0
 62
     1
100
AcDbLine
 10
245.811179
 20
694.655248
 11
245.811194
 21
705.655248
  0
LINE
  5
659
100
AcDbEntity
  8
M0
 62
     1
100
AcDbLine
 10
267.811194
 20
706.655214
 11
260.311194
 21
706.654981
  0
LINE
  5
65A
100
AcDbEntity
  8
M0
 62
     1
100
AcDbLine
 10
255.311194
 20
706.655234
 11
247.811194
 21
706.655001
  0
LINE
  5
65B
100
AcDbEntity
  8
M0
 62
     1
100
AcDbLine
 10
280.311149
 20
671.6552
 11
280.311164
 21
690.1552
  0
ARC
  5
65C
100
AcDbEntity
  8
M0
 62
     1
100
AcDbCircle
 10
280.811194
 20
705.655193
 40
1.0
100
AcDbArc
 50
119.999201
 51
179.999945
  0
ARC
  5
65D
100
AcDbEntity
  8
M0
 62
     1
100
AcDbCircle
 10
268.311194
 20
705.655213
 40
1.0
100
AcDbArc
 50
119.999201
 51
179.999945
  0
ARC
  5
65E
100
AcDbEntity
  8
M0
 62
     1
100
AcDbCircle
 10
255.811194
 20
705.655233
 40
1.0
100
AcDbArc
 50
119.999201
 51
179.999945
  0
ARC
  5
65F
100
AcDbEntity
  8
M0
 62
     1
100
AcDbCircle
 10
269.811194
 20
705.655211
 40
1.0
100
AcDbArc
 50
0.0
 51
59.999258
  0
ARC
  5
660
100
AcDbEntity
  8
M0
 62
     1
100
AcDbCircle
 10
257.311194
 20
705.65523
 40
1.0
100
AcDbArc
 50
0.0
 51
59.999258
  0
LINE
  5
661
100
AcDbEntity
  8
M0
 62
     1
100
AcDbLine
 10
245.311179
 20
694.655249
 11
245.311194
 21
706.655249
  0
ARC
  5
662
100
AcDbEntity
  8
M0
 62
     1
100
AcDbCircle
 10
244.811194
 20
705.65525
 40
1.0
100
AcDbArc
 50
0.0
 51
59.999258
  0
LINE
  5
663
100
AcDbEntity
  8
M0
 62
     1
100
AcDbLine
 10
252.56121
 20
707.973792
 11
252.56121
 21
708.455238
  0
ARC
  5
664
100
AcDbEntity
  8
M0
 62
     1
100
AcDbCircle
 10
253.56121
 20
708.455236
 40
1.0
100
AcDbArc
 50
89.999126
 51
179.999945
  0
ARC
  5
665
100
AcDbEntity
  8
M0
 62
     1
100
AcDbCircle
 10
256.811194
 20
708.65523
 40
1.0
100
AcDbArc
 50
0.0
 51
89.999126
  0
ARC
  5
666
100
AcDbEntity
  8
M0
 62
     1
100
AcDbCircle
 10
256.311194
 20
708.655231
 40
1.0
100
AcDbArc
 50
89.999126
 51
179.999962
  0
LINE
  5
667
100
AcDbEntity
  8
M0
 62
     1
100
AcDbLine
 10
255.31121
 20
707.95496
 11
242.311179
 21
707.95496
  0
LINE
  5
668
100
AcDbEntity
  8
M0
 62
     1
100
AcDbLine
 10
253.811179
 20
691.655246
 11
242.311149
 21
691.655261
  0
LINE
  5
669
100
AcDbEntity
  8
M0
 62
     1
100
AcDbLine
 10
266.311179
 20
691.655216
 11
259.311179
 21
691.655231
  0
ARC
  5
66A
100
AcDbEntity
  8
M0
 62
     1
100
AcDbCircle
 10
266.311179
 20
695.155216
 40
1.499996
100
AcDbArc
 50
270.0
 51
360.0
  0
ARC
  5
66B
100
AcDbEntity
  8
M0
 62
     1
100
AcDbCircle
 10
253.811179
 20
695.155236
 40
1.499996
100
AcDbArc
 50
270.0
 51
360.0
  0
ARC
  5
66C
100
AcDbEntity
  8
M0
 62
     1
100
AcDbCircle
 10
253.811179
 20
694.655236
 40
1.0
100
AcDbArc
 50
270.0
 51
360.0
  0
ARC
  5
66D
100
AcDbEntity
  8
M0
 62
     1
100
AcDbCircle
 10
266.311179
 20
694.655216
 40
1.0
100
AcDbArc
 50
270.0
 51
360.0
  0
ARC
  5
66E
100
AcDbEntity
  8
M0
 62
     1
100
AcDbCircle
 10
278.811179
 20
695.155196
 40
1.499996
100
AcDbArc
 50
270.0
 51
360.0
  0
ARC
  5
66F
100
AcDbEntity
  8
M0
 62
     1
100
AcDbCircle
 10
278.811179
 20
694.655196
 40
1.0
100
AcDbArc
 50
270.0
 51
360.0
  0
ARC
  5
670
100
AcDbEntity
  8
M0
 62
     1
100
AcDbCircle
 10
271.811179
 20
695.155207
 40
1.499996
100
AcDbArc
 50
179.999964
 51
270.0
  0
ARC
  5
671
100
AcDbEntity
  8
M0
 62
     1
100
AcDbCircle
 10
259.311179
 20
695.155227
 40
1.499996
100
AcDbArc
 50
179.999964
 51
270.0
  0
ARC
  5
672
100
AcDbEntity
  8
M0
 62
     1
100
AcDbCircle
 10
271.811179
 20
694.655207
 40
1.0
100
AcDbArc
 50
179.999945
 51
270.0
  0
ARC
  5
673
100
AcDbEntity
  8
M0
 62
     1
100
AcDbCircle
 10
259.311179
 20
694.655227
 40
1.0
100
AcDbArc
 50
179.999945
 51
270.0
  0
ARC
  5
674
100
AcDbEntity
  8
M0
 62
     1
100
AcDbCircle
 10
246.811179
 20
694.655247
 40
1.0
100
AcDbArc
 50
179.999945
 51
270.0
  0
ARC
  5
675
100
AcDbEntity
  8
M0
 62
     1
100
AcDbCircle
 10
246.811179
 20
695.155247
 40
1.499996
100
AcDbArc
 50
179.999964
 51
270.0
  0
ARC
  5
676
100
AcDbEntity
  8
M0
 62
     1
100
AcDbCircle
 10
244.311179
 20
694.655251
 40
1.0
100
AcDbArc
 50
270.0
 51
360.0
  0
LINE
  5
677
100
AcDbEntity
  8
M0
 62
     1
100
AcDbLine
 10
244.311179
 20
693.655251
 11
242.311149
 21
693.655254
  0
LINE
  5
678
100
AcDbEntity
  8
M0
 62
     1
100
AcDbLine
 10
280.311149
 20
679.1552
 11
270.311149
 21
679.155216
  0
LINE
  5
679
100
AcDbEntity
  8
M0
 62
     1
100
AcDbLine
 10
280.311179
 20
695.155194
 11
280.311194
 21
706.655194
  0
ARC
  5
67A
100
AcDbEntity
  8
M0
 62
     1
100
AcDbCircle
 10
271.811164
 20
690.155216
 40
1.499996
100
AcDbArc
 50
89.999417
 51
179.999417
  0
ARC
  5
67B
100
AcDbEntity
  8
M0
 62
     1
100
AcDbCircle
 10
278.811164
 20
690.1552
 40
1.499996
100
AcDbArc
 50
0.0
 51
89.999417
  0
ARC
  5
67C
100
AcDbEntity
  8
M0
 62
     1
100
AcDbCircle
 10
266.311164
 20
690.155216
 40
1.499996
100
AcDbArc
 50
0.0
 51
89.999417
  0
ARC
  5
67D
100
AcDbEntity
  8
M0
 62
     1
100
AcDbCircle
 10
259.311164
 20
690.155231
 40
1.499996
100
AcDbArc
 50
89.999417
 51
179.999417
  0
ARC
  5
67E
100
AcDbEntity
  8
M0
 62
     1
100
AcDbCircle
 10
253.811164
 20
690.155246
 40
1.499996
100
AcDbArc
 50
0.0
 51
89.999417
  0
LINE
  5
67F
100
AcDbEntity
  8
M0
 62
     1
100
AcDbLine
 10
245.311149
 20
678.655261
 11
245.311179
 21
690.655261
  0
ARC
  5
680
100
AcDbEntity
  8
M0
 62
     1
100
AcDbCircle
 10
246.811164
 20
690.155261
 40
1.499996
100
AcDbArc
 50
89.999417
 51
179.999417
  0
ARC
  5
681
100
AcDbEntity
  8
M0
 62
     1
100
AcDbCircle
 10
244.311179
 20
690.655261
 40
1.0
100
AcDbArc
 50
0.0
 51
89.999126
  0
LINE
  5
682
100
AcDbEntity
  8
M0
 62
     1
100
AcDbLine
 10
267.811149
 20
679.155216
 11
257.811149
 21
679.155231
  0
LINE
  5
683
100
AcDbEntity
  8
M0
 62
     1
100
AcDbLine
 10
255.311149
 20
679.155246
 11
245.311149
 21
679.155261
  0
ARC
  5
684
100
AcDbEntity
  8
M0
 62
     1
100
AcDbCircle
 10
278.811164
 20
687.6552
 40
1.499996
100
AcDbArc
 50
0.0
 51
89.999417
  0
LINE
  5
685
100
AcDbEntity
  8
M0
 62
     1
100
AcDbLine
 10
266.311164
 20
689.155216
 11
259.311164
 21
689.155231
  0
LINE
  5
686
100
AcDbEntity
  8
M0
 62
     1
100
AcDbLine
 10
253.811164
 20
689.155246
 11
246.811164
 21
689.155261
  0
ARC
  5
687
100
AcDbEntity
  8
M0
 62
     1
100
AcDbCircle
 10
271.811164
 20
687.655216
 40
1.499996
100
AcDbArc
 50
89.999417
 51
179.999417
  0
ARC
  5
688
100
AcDbEntity
  8
M0
 62
     1
100
AcDbCircle
 10
259.311164
 20
687.655231
 40
1.499996
100
AcDbArc
 50
89.999417
 51
179.999417
  0
ARC
  5
689
100
AcDbEntity
  8
M0
 62
     1
100
AcDbCircle
 10
246.811164
 20
687.655261
 40
1.499996
100
AcDbArc
 50
89.999417
 51
179.999417
  0
ARC
  5
68A
100
AcDbEntity
  8
M0
 62
     1
100
AcDbCircle
 10
266.311164
 20
687.655216
 40
1.499996
100
AcDbArc
 50
0.0
 51
89.999417
  0
ARC
  5
68B
100
AcDbEntity
  8
M0
 62
     1
100
AcDbCircle
 10
253.811164
 20
687.655246
 40
1.499996
100
AcDbArc
 50
0.0
 51
89.999417
  0
LINE
  5
68C
100
AcDbEntity
  8
M0
 62
     1
100
AcDbLine
 10
279.811149
 20
680.1552
 11
279.811164
 21
688.1552
  0
LINE
  5
68D
100
AcDbEntity
  8
M0
 62
     1
100
AcDbLine
 10
270.811149
 20
680.155216
 11
270.811164
 21
688.155216
  0
LINE
  5
68E
100
AcDbEntity
  8
M0
 62
     1
100
AcDbLine
 10
267.311149
 20
680.155216
 11
267.311164
 21
688.155216
  0
LINE
  5
68F
100
AcDbEntity
  8
M0
 62
     1
100
AcDbLine
 10
258.311149
 20
680.155231
 11
258.311164
 21
688.155231
  0
LINE
  5
690
100
AcDbEntity
  8
M0
 62
     1
100
AcDbLine
 10
254.811149
 20
680.155246
 11
254.811164
 21
688.155246
  0
LINE
  5
691
100
AcDbEntity
  8
M0
 62
     1
100
AcDbLine
 10
245.811149
 20
680.155261
 11
245.811164
 21
688.155261
  0
ARC
  5
692
100
AcDbEntity
  8
M0
 62
     1
100
AcDbCircle
 10
278.811164
 20
688.1552
 40
1.0
100
AcDbArc
 50
0.0
 51
89.999126
  0
ARC
  5
693
100
AcDbEntity
  8
M0
 62
     1
100
AcDbCircle
 10
266.311164
 20
688.155216
 40
1.0
100
AcDbArc
 50
0.0
 51
89.999126
  0
ARC
  5
694
100
AcDbEntity
  8
M0
 62
     1
100
AcDbCircle
 10
253.811164
 20
688.155246
 40
1.0
100
AcDbArc
 50
0.0
 51
89.999126
  0
ARC
  5
695
100
AcDbEntity
  8
M0
 62
     1
100
AcDbCircle
 10
271.811164
 20
688.155216
 40
1.0
100
AcDbArc
 50
89.999126
 51
179.999126
  0
ARC
  5
696
100
AcDbEntity
  8
M0
 62
     1
100
AcDbCircle
 10
259.311164
 20
688.155231
 40
1.0
100
AcDbArc
 50
89.999126
 51
179.999126
  0
ARC
  5
697
100
AcDbEntity
  8
M0
 62
     1
100
AcDbCircle
 10
246.811164
 20
688.155261
 40
1.0
100
AcDbArc
 50
89.999126
 51
179.999126
  0
ARC
  5
698
100
AcDbEntity
  8
M0
 62
     1
100
AcDbCircle
 10
280.811149
 20
680.1552
 40
1.0
100
AcDbArc
 50
179.999126
 51
239.999632
  0
ARC
  5
699
100
AcDbEntity
  8
M0
 62
     1
100
AcDbCircle
 10
268.311149
 20
680.155216
 40
1.0
100
AcDbArc
 50
179.999126
 51
239.999632
  0
ARC
  5
69A
100
AcDbEntity
  8
M0
 62
     1
100
AcDbCircle
 10
255.811149
 20
680.155246
 40
1.0
100
AcDbArc
 50
179.999126
 51
239.999632
  0
ARC
  5
69B
100
AcDbEntity
  8
M0
 62
     1
100
AcDbCircle
 10
244.811149
 20
680.155261
 40
1.0
100
AcDbArc
 50
300.001125
 51
360.0
  0
ARC
  5
69C
100
AcDbEntity
  8
M0
 62
     1
100
AcDbCircle
 10
257.311149
 20
680.155231
 40
1.0
100
AcDbArc
 50
300.001125
 51
360.0
  0
ARC
  5
69D
100
AcDbEntity
  8
M0
 62
     1
100
AcDbCircle
 10
269.811149
 20
680.155216
 40
1.0
100
AcDbArc
 50
300.001125
 51
360.0
  0
LINE
  5
69E
100
AcDbEntity
  8
M0
 62
     1
100
AcDbLine
 10
269.311149
 20
674.155216
 11
268.811149
 21
674.155216
  0
LINE
  5
69F
100
AcDbEntity
  8
M0
 62
     1
100
AcDbLine
 10
256.811149
 20
674.155231
 11
256.311149
 21
674.155246
  0
ARC
  5
6A0
100
AcDbEntity
  8
M0
 62
     1
100
AcDbCircle
 10
256.311149
 20
675.155246
 40
1.0
100
AcDbArc
 50
179.999126
 51
270.0
  0
ARC
  5
6A1
100
AcDbEntity
  8
M0
 62
     1
100
AcDbCircle
 10
256.811149
 20
675.155231
 40
1.0
100
AcDbArc
 50
270.0
 51
360.0
  0
ARC
  5
6A2
100
AcDbEntity
  8
M0
 62
     1
100
AcDbCircle
 10
268.811149
 20
675.155216
 40
1.0
100
AcDbArc
 50
179.999126
 51
270.0
  0
ARC
  5
6A3
100
AcDbEntity
  8
M0
 62
     1
100
AcDbCircle
 10
269.311149
 20
675.155216
 40
1.0
100
AcDbArc
 50
270.0
 51
360.0
  0
LINE
  5
6A4
100
AcDbEntity
  8
M0
 62
     1
100
AcDbLine
 10
280.311149
 20
672.6552
 11
270.561149
 21
672.655216
  0
LINE
  5
6A5
100
AcDbEntity
  8
M0
 62
     1
100
AcDbLine
 10
249.561149
 20
672.655246
 11
249.561149
 21
679.155246
  0
LINE
  5
6A6
100
AcDbEntity
  8
M0
 62
     1
100
AcDbLine
 10
254.061149
 20
672.655246
 11
254.061149
 21
679.155246
  0
LINE
  5
6A7
100
AcDbEntity
  8
M0
 62
     1
100
AcDbLine
 10
274.561149
 20
672.655216
 11
274.561149
 21
679.155216
  0
LINE
  5
6A8
100
AcDbEntity
  8
M0
 62
     1
100
AcDbLine
 10
279.061149
 20
672.6552
 11
279.061149
 21
679.1552
  0
LINE
  5
6A9
100
AcDbEntity
  8
M0
 62
     1
100
AcDbLine
 10
244.311149
 20
677.655261
 11
242.311118
 21
677.655261
  0
ARC
  5
6AA
100
AcDbEntity
  8
M0
 62
     1
100
AcDbCircle
 10
244.311149
 20
678.655261
 40
1.0
100
AcDbArc
 50
270.0
 51
360.0
  0
LINE
  5
6AB
100
AcDbEntity
  8
M0
 62
     1
100
AcDbLine
 10
301.811099
 20
668.15517
 11
301.811124
 21
684.255206
  0
LINE
  5
6AC
100
AcDbEntity
  8
M0
 62
     1
100
AcDbLine
 10
304.311096
 20
676.15517
 11
302.811096
 21
676.15517
  0
ARC
  5
6AD
100
AcDbEntity
  8
M0
 62
     1
100
AcDbCircle
 10
304.311096
 20
676.65517
 40
0.5
100
AcDbArc
 50
270.0
 51
360.0
  0
ARC
  5
6AE
100
AcDbEntity
  8
M0
 62
     1
100
AcDbCircle
 10
302.811098
 20
677.15517
 40
1.0
100
AcDbArc
 50
179.999126
 51
270.0
  0
LINE
  5
6AF
100
AcDbEntity
  8
M0
 62
     1
100
AcDbLine
 10
304.3111
 20
669.15517
 11
302.8111
 21
669.15517
  0
LINE
  5
6B0
100
AcDbEntity
  8
M0
 62
     1
100
AcDbLine
 10
304.311097
 20
667.15517
 11
302.811097
 21
667.15517
  0
ARC
  5
6B1
100
AcDbEntity
  8
M0
 62
     1
100
AcDbCircle
 10
304.311097
 20
667.65517
 40
0.5
100
AcDbArc
 50
270.0
 51
360.0
  0
ARC
  5
6B2
100
AcDbEntity
  8
M0
 62
     1
100
AcDbCircle
 10
302.811099
 20
668.15517
 40
1.0
100
AcDbArc
 50
179.999126
 51
270.0
  0
ARC
  5
6B3
100
AcDbEntity
  8
M0
 62
     1
100
AcDbCircle
 10
304.311101
 20
669.65517
 40
0.5
100
AcDbArc
 50
270.0
 51
360.0
  0
ARC
  5
6B4
100
AcDbEntity
  8
M0
 62
     1
100
AcDbCircle
 10
302.811102
 20
670.15517
 40
1.0
100
AcDbArc
 50
179.999126
 51
270.0
  0
LINE
  5
6B5
100
AcDbEntity
  8
M0
 62
     1
100
AcDbLine
 10
304.311108
 20
674.15517
 11
302.811108
 21
674.15517
  0
ARC
  5
6B6
100
AcDbEntity
  8
M0
 62
     1
100
AcDbCircle
 10
302.811109
 20
675.15517
 40
1.0
100
AcDbArc
 50
179.999126
 51
270.0
  0
ARC
  5
6B7
100
AcDbEntity
  8
M0
 62
     1
100
AcDbCircle
 10
304.311108
 20
674.65517
 40
0.5
100
AcDbArc
 50
270.0
 51
360.0
  0
LINE
  5
6B8
100
AcDbEntity
  8
M0
 62
     1
100
AcDbLine
 10
293.811095
 20
666.155185
 11
293.811122
 21
682.955203
  0
LINE
  5
6B9
100
AcDbEntity
  8
M0
 62
     1
100
AcDbLine
 10
300.753363
 20
670.15517
 11
301.811071
 21
670.15517
  0
LINE
  5
6BA
100
AcDbEntity
  8
M0
 62
     1
100
AcDbLine
 10
301.811083
 20
677.15517
 11
301.061769
 21
677.154926
  0
LINE
  5
6BB
100
AcDbEntity
  8
M0
 62
     1
100
AcDbLine
 10
294.560152
 20
677.154941
 11
293.811083
 21
677.155185
  0
LINE
  5
6BC
100
AcDbEntity
  8
M0
 62
     1
100
AcDbLine
 10
290.811076
 20
673.155185
 11
290.811106
 21
682.955203
  0
LINE
  5
6BD
100
AcDbEntity
  8
M0
 62
     1
100
AcDbLine
 10
292.811105
 20
672.155185
 11
291.811105
 21
672.155185
  0
ARC
  5
6BE
100
AcDbEntity
  8
M0
 62
     1
100
AcDbCircle
 10
292.811107
 20
673.155185
 40
1.0
100
AcDbArc
 50
270.0
 51
360.0
  0
ARC
  5
6BF
100
AcDbEntity
  8
M0
 62
     1
100
AcDbCircle
 10
291.811107
 20
673.155185
 40
1.0
100
AcDbArc
 50
179.999126
 51
270.0
  0
LINE
  5
6C0
100
AcDbEntity
  8
M0
 62
     1
100
AcDbLine
 10
282.811149
 20
674.655216
 11
282.811164
 21
685.6552
  0
LINE
  5
6C1
100
AcDbEntity
  8
M0
 62
     1
100
AcDbLine
 10
289.752169
 20
677.155185
 11
290.811113
 21
677.155185
  0
LINE
  5
6C2
100
AcDbEntity
  8
M0
 62
     1
100
AcDbLine
 10
284.811118
 20
670.1552
 11
284.811118
 21
670.340991
  0
LINE
  5
6C3
100
AcDbEntity
  8
M0
 62
     1
100
AcDbLine
 10
283.811133
 20
666.1552
 11
283.811133
 21
677.337085
  0
LINE
  5
6C4
100
AcDbEntity
  8
M0
 62
     1
100
AcDbLine
 10
291.811095
 20
666.155185
 11
291.811105
 21
672.155185
  0
LINE
  5
6C5
100
AcDbEntity
  8
M0
 62
     1
100
AcDbLine
 10
293.811071
 20
670.155185
 11
294.868399
 21
670.155185
  0
LINE
  5
6C6
100
AcDbEntity
  8
M0
 62
     1
100
AcDbLine
 10
283.811149
 20
671.6552
 11
280.311149
 21
671.6552
  0
LINE
  5
6C7
100
AcDbEntity
  8
M0
 62
     1
100
AcDbLine
 10
283.811149
 20
673.6552
 11
280.311149
 21
673.6552
  0
LINE
  5
6C8
100
AcDbEntity
  8
M0
 62
     1
100
AcDbLine
 10
282.811149
 20
675.1552
 11
282.811164
 21
685.6552
  0
ARC
  5
6C9
100
AcDbEntity
  8
M0
 62
     1
100
AcDbCircle
 10
281.311149
 20
674.6552
 40
1.0
100
AcDbArc
 50
179.999126
 51
270.0
  0
ARC
  5
6CA
100
AcDbEntity
  8
M0
 62
     1
100
AcDbCircle
 10
281.811149
 20
674.6552
 40
1.0
100
AcDbArc
 50
270.0
 51
360.0
  0
LINE
  5
6CB
100
AcDbEntity
  8
M0
 62
     1
100
AcDbLine
 10
280.811133
 20
666.1552
 11
280.811149
 21
671.6552
  0
ARC
  5
6CC
100
AcDbEntity
  8
M0
 62
     1
100
AcDbCircle
 10
284.311164
 20
684.1552
 40
1.499996
100
AcDbArc
 50
89.999417
 51
119.925542
  0
LINE
  5
6CD
100
AcDbEntity
  8
M0
 62
     1
100
AcDbLine
 10
282.661155
 20
693.1552
 11
281.161155
 21
691.655216
  0
LINE
  5
6CE
100
AcDbEntity
  8
M0
 62
     1
100
AcDbLine
 10
282.661155
 20
693.1552
 11
281.161155
 21
694.655193
  0
LINE
  5
6CF
100
AcDbEntity
  8
M0
 62
     1
100
AcDbLine
 10
280.311179
 20
691.6552
 11
280.311179
 21
695.155194
  0
LINE
  5
6D0
100
AcDbEntity
  8
M0
 62
     1
100
AcDbLine
 10
289.161158
 20
702.155179
 11
289.161166
 21
706.655179
  0
LINE
  5
6D1
100
AcDbEntity
  8
M0
 62
     1
100
AcDbLine
 10
300.956157
 20
702.155161
 11
300.956164
 21
706.655161
  0
LINE
  5
6D2
100
AcDbEntity
  8
M0
 62
     1
100
AcDbLine
 10
282.661185
 20
706.655155
 11
282.661185
 21
691.654926
  0
LINE
  5
6D3
100
AcDbEntity
  8
M0
 62
     1
100
AcDbLine
 10
281.161155
 20
691.654926
 11
280.311194
 21
691.65517
  0
LINE
  5
6D4
100
AcDbEntity
  8
M0
 62
     1
100
AcDbLine
 10
281.16117
 20
694.654911
 11
280.311194
 21
694.655155
  0
LINE
  5
6D5
100
AcDbEntity
  8
M0
 62
     1
100
AcDbLine
 10
282.661139
 20
689.9052
 11
280.311164
 21
689.9052
  0
LINE
  5
6D6
100
AcDbEntity
  8
M0
 62
     1
100
AcDbLine
 10
282.661155
 20
696.40519
 11
280.311179
 21
696.405194
  0
LINE
  5
6D7
100
AcDbEntity
  8
M0
 62
     1
100
AcDbLine
 10
266.811179
 20
691.569431
 11
266.811179
 21
693.741016
  0
LINE
  5
6D8
100
AcDbEntity
  8
M0
 62
     1
100
AcDbLine
 10
271.311179
 20
691.569431
 11
271.311179
 21
693.741008
  0
LINE
  5
6D9
100
AcDbEntity
  8
M0
 62
     1
100
AcDbLine
 10
277.311179
 20
691.6552
 11
277.311179
 21
693.655198
  0
ARC
  5
6DA
100
AcDbEntity
  8
M0
 62
     1
100
AcDbCircle
 10
251.811149
 20
677.155246
 40
2.249995
100
AcDbArc
 50
179.999611
 51
360.0
  0
LINE
  5
6DB
100
AcDbEntity
  8
M0
 62
     1
100
AcDbLine
 10
264.311149
 20
673.655231
 11
264.311149
 21
676.155231
  0
ARC
  5
6DC
100
AcDbEntity
  8
M0
 62
     1
100
AcDbCircle
 10
276.811149
 20
677.1552
 40
2.249995
100
AcDbArc
 50
179.999611
 51
360.0
  0
LINE
  5
6DD
100
AcDbEntity
  8
M0
 62
     1
100
AcDbLine
 10
267.311164
 20
687.655216
 11
266.909964
 21
687.654971
  0
LINE
  5
6DE
100
AcDbEntity
  8
M0
 62
     1
100
AcDbLine
 10
254.811164
 20
687.655246
 11
254.409964
 21
687.655002
  0
ARC
  5
6DF
100
AcDbEntity
  8
M0
 62
     1
100
AcDbCircle
 10
245.261176
 20
686.155261
 40
1.499996
100
AcDbArc
 50
50.758901
 51
68.48984
  0
ARC
  5
6E0
100
AcDbEntity
  8
M0
 62
     1
100
AcDbCircle
 10
255.361152
 20
686.155246
 40
1.499996
100
AcDbArc
 50
111.509618
 51
129.359081
  0
ARC
  5
6E1
100
AcDbEntity
  8
M0
 62
     1
100
AcDbCircle
 10
257.761207
 20
686.155231
 40
1.499996
100
AcDbArc
 50
50.759721
 51
68.48984
  0
ARC
  5
6E2
100
AcDbEntity
  8
M0
 62
     1
100
AcDbCircle
 10
280.361152
 20
686.1552
 40
1.499996
100
AcDbArc
 50
111.509618
 51
129.359901
  0
ARC
  5
6E3
100
AcDbEntity
  8
M0
 62
     1
100
AcDbCircle
 10
270.261176
 20
686.155216
 40
1.499996
100
AcDbArc
 50
50.759721
 51
68.48984
  0
LINE
  5
6E4
100
AcDbEntity
  8
M0
 62
     1
100
AcDbLine
 10
279.811164
 20
687.6552
 11
279.409934
 21
687.654956
  0
LINE
  5
6E5
100
AcDbEntity
  8
M0
 62
     1
100
AcDbLine
 10
290.753378
 20
670.155185
 11
291.811071
 21
670.155185
  0
LINE
  5
6E6
100
AcDbEntity
  8
M0
 62
     1
100
AcDbLine
 10
270.561149
 20
672.655216
 11
270.561149
 21
677.155216
  0
LINE
  5
6E7
100
AcDbEntity
  8
M0
 62
     1
100
AcDbLine
 10
263.311149
 20
672.655231
 11
242.311118
 21
672.655261
  0
LINE
  5
6E8
100
AcDbEntity
  8
M0
 62
     1
100
AcDbLine
 10
267.811149
 20
678.155216
 11
266.311149
 21
678.155216
  0
ARC
  5
6E9
100
AcDbEntity
  8
M0
 62
     1
100
AcDbCircle
 10
266.311149
 20
676.155216
 40
1.999995
100
AcDbArc
 50
89.999563
 51
179.999563
  0
ARC
  5
6EA
100
AcDbEntity
  8
M0
 62
     1
100
AcDbCircle
 10
263.311149
 20
673.655231
 40
1.0
100
AcDbArc
 50
270.0
 51
360.0
  0
ARC
  5
6EB
100
AcDbEntity
  8
M0
 62
     1
100
AcDbCircle
 10
269.561149
 20
677.155216
 40
1.0
100
AcDbArc
 50
0.0
 51
41.409629
  0
LINE
  5
6EC
100
AcDbEntity
  8
M0
 62
     1
100
AcDbLine
 10
244.311194
 20
707.655251
 11
242.311164
 21
707.655254
  0
ARC
  5
6ED
100
AcDbEntity
  8
M0
 62
     1
100
AcDbCircle
 10
244.311194
 20
706.655251
 40
1.0
100
AcDbArc
 50
0.0
 51
89.999126
  0
LINE
  5
6EE
100
AcDbEntity
  8
M0
 62
     1
100
AcDbLine
 10
304.811164
 20
709.655154
 11
296.311165
 21
709.655168
  0
LINE
  5
6EF
100
AcDbEntity
  8
M0
 62
     1
100
AcDbLine
 10
295.311162
 20
707.855182
 11
295.311163
 21
708.65517
  0
LINE
  5
6F0
100
AcDbEntity
  8
M0
 62
     1
100
AcDbLine
 10
295.311162
 20
707.655182
 11
270.31121
 21
707.655222
  0
ARC
  5
6F1
100
AcDbEntity
  8
M0
 62
     1
100
AcDbCircle
 10
296.311163
 20
708.655168
 40
1.0
100
AcDbArc
 50
90.0
 51
179.999962
  0
LINE
  5
6F2
100
AcDbEntity
  8
M0
 62
     1
100
AcDbLine
 10
267.81121
 20
707.655165
 11
257.811194
 21
707.654936
  0
LINE
  5
6F3
100
AcDbEntity
  8
M0
 62
     1
100
AcDbLine
 10
281.811133
 20
669.1552
 11
281.811149
 21
671.6552
  0
LINE
  5
6F4
100
AcDbEntity
  8
M0
 62
     1
100
AcDbLine
 10
283.811149
 20
668.1552
 11
280.811133
 21
668.1552
  0
ARC
  5
6F5
100
AcDbEntity
  8
M0
 62
     1
100
AcDbCircle
 10
282.811133
 20
669.1552
 40
1.0
100
AcDbArc
 50
179.999126
 51
270.0
  0
ARC
  5
6F6
100
AcDbEntity
  8
M0
 62
     1
100
AcDbCircle
 10
282.811133
 20
669.1552
 40
1.0
100
AcDbArc
 50
270.0
 51
360.0
  0
TEXT
  5
6F7
100
AcDbEntity
  8
M0
 62
     1
100
AcDbText
 10
249.661391
 20
689.005618
 40
2.800003
  1
２
 50
359.999928
 41
0.535719
  7
STANDARD
100
AcDbText
  0
TEXT
  5
6F8
100
AcDbEntity
  8
M0
 62
     1
100
AcDbText
 10
262.161391
 20
689.005603
 40
2.800003
  1
４
 50
359.999928
 41
0.535719
  7
STANDARD
100
AcDbText
  0
TEXT
  5
6F9
100
AcDbEntity
  8
M0
 62
     1
100
AcDbText
 10
274.661223
 20
689.005588
 40
2.800003
  1
６
 50
359.999928
 41
0.535719
  7
STANDARD
100
AcDbText
  0
LINE
  5
6FA
100
AcDbEntity
  8
M0
 62
     1
100
AcDbLine
 10
246.209968
 20
687.655017
 11
245.811164
 21
687.655261
  0
LINE
  5
6FB
100
AcDbEntity
  8
M0
 62
     1
100
AcDbLine
 10
258.709968
 20
687.654987
 11
258.311164
 21
687.655231
  0
LINE
  5
6FC
100
AcDbEntity
  8
M0
 62
     1
100
AcDbLine
 10
271.209937
 20
687.654971
 11
270.811164
 21
687.655216
  0
ARC
  5
6FD
100
AcDbEntity
  8
M0
 62
     1
100
AcDbCircle
 10
267.85868
 20
686.154971
 40
1.499994
100
AcDbArc
 50
111.509618
 51
129.239827
  0
LINE
  5
6FE
100
AcDbEntity
  8
M0
 62
     1
100
AcDbLine
 10
285.31153
 20
709.650498
 11
281.31153
 21
709.650504
  0
ARC
  5
6FF
100
AcDbEntity
  8
M0
 62
     1
100
AcDbCircle
 10
281.31153
 20
708.650504
 40
1.0
100
AcDbArc
 50
89.999126
 51
179.999945
  0
ARC
  5
700
100
AcDbEntity
  8
M0
 62
     1
100
AcDbCircle
 10
285.31153
 20
708.650499
 40
1.0
100
AcDbArc
 50
0.0
 51
89.999126
  0
LINE
  5
701
100
AcDbEntity
  8
M0
 62
     1
100
AcDbLine
 10
280.31153
 20
708.650506
 11
280.31153
 21
707.650506
  0
LINE
  5
702
100
AcDbEntity
  8
M0
 62
     1
100
AcDbLine
 10
286.31153
 20
708.650497
 11
286.31153
 21
707.650497
  0
LINE
  5
703
100
AcDbEntity
  8
M0
 62
     1
100
AcDbLine
 10
256.31121
 20
709.655154
 11
256.81121
 21
709.655154
  0
LINE
  5
704
100
AcDbEntity
  8
M0
 62
     1
100
AcDbLine
 10
255.711249
 20
709.455203
 11
253.56121
 21
709.455236
  0
LINE
  5
705
100
AcDbEntity
  8
M0
 62
     1
100
AcDbLine
 10
282.661185
 20
691.654926
 11
282.661139
 21
685.6552
  0
LINE
  5
706
100
AcDbEntity
  8
M0
 62
     1
100
AcDbLine
 10
285.311179
 20
685.6552
 11
280.311164
 21
685.6552
  0
CIRCLE
  5
707
100
AcDbEntity
  8
M0
 62
     1
100
AcDbCircle
 10
292.660107
 20
693.155414
 40
8.299999
  0
LINE
  5
708
100
AcDbEntity
  8
M0
 62
     1
100
AcDbLine
 10
283.111182
 20
688.15517
 11
283.111182
 21
703.755142
  0
LINE
  5
709
100
AcDbEntity
  8
M0
 62
     1
100
AcDbLine
 10
279.811179
 20
707.655139
 11
279.811179
 21
706.455139
  0
LINE
  5
70A
100
AcDbEntity
  8
M0
 62
     1
100
AcDbLine
 10
279.811179
 20
685.455142
 11
279.811179
 21
684.255145
  0
LINE
  5
70B
100
AcDbEntity
  8
M0
 62
     1
100
AcDbLine
 10
279.811179
 20
685.455142
 11
285.311179
 21
685.455158
  0
LINE
  5
70C
100
AcDbEntity
  8
M0
 62
     1
100
AcDbLine
 10
279.811179
 20
706.455139
 11
285.311179
 21
706.455143
  0
LINE
  5
70D
100
AcDbEntity
  8
M0
 62
     1
100
AcDbLine
 10
290.61118
 20
682.955158
 11
294.61118
 21
682.955158
  0
LINE
  5
70E
100
AcDbEntity
  8
M0
 62
     1
100
AcDbLine
 10
296.811179
 20
684.255161
 11
294.61118
 21
682.955158
  0
LINE
  5
70F
100
AcDbEntity
  8
M0
 62
     1
100
AcDbLine
 10
290.61118
 20
682.955158
 11
287.811179
 21
684.255161
  0
LINE
  5
710
100
AcDbEntity
  8
M0
 62
     1
100
AcDbLine
 10
287.811179
 20
684.255161
 11
279.811179
 21
684.255145
  0
LINE
  5
711
100
AcDbEntity
  8
M0
 62
     1
100
AcDbLine
 10
304.311179
 20
684.255176
 11
296.811179
 21
684.255161
  0
ARC
  5
712
100
AcDbEntity
  8
M0
 62
     1
100
AcDbCircle
 10
304.311178
 20
684.755176
 40
0.5
100
AcDbArc
 50
270.0
 51
360.0
  0
LINE
  5
713
100
AcDbEntity
  8
M0
 62
     1
100
AcDbLine
 10
293.160076
 20
703.005403
 11
297.160076
 21
703.005403
  0
LINE
  5
714
100
AcDbEntity
  8
M0
 62
     1
100
AcDbLine
 10
297.160076
 20
703.005403
 11
297.160076
 21
705.805402
  0
LINE
  5
715
100
AcDbEntity
  8
M0
 62
     1
100
AcDbLine
 10
297.160076
 20
705.805402
 11
293.160076
 21
705.805402
  0
LINE
  5
716
100
AcDbEntity
  8
M0
 62
     1
100
AcDbLine
 10
293.160076
 20
705.805402
 11
293.160076
 21
703.005403
  0
LINE
  5
717
100
AcDbEntity
  8
M0
 62
     1
100
AcDbLine
 10
304.811178
 20
684.755176
 11
304.811164
 21
707.155155
  0
LINE
  5
718
100
AcDbEntity
  8
M0
 62
     1
100
AcDbLine
 10
304.311164
 20
707.655155
 11
279.811179
 21
707.655139
  0
ARC
  5
719
100
AcDbEntity
  8
M0
 62
     1
100
AcDbCircle
 10
304.311164
 20
707.155155
 40
0.5
100
AcDbArc
 50
0.0
 51
90.0
  0
LINE
  5
71A
100
AcDbEntity
  8
M0
 62
     1
100
AcDbLine
 10
285.311179
 20
685.455158
 11
285.311179
 21
687.15517
  0
LINE
  5
71B
100
AcDbEntity
  8
M0
 62
     1
100
AcDbLine
 10
283.111182
 20
688.15517
 11
284.311179
 21
688.15517
  0
ARC
  5
71C
100
AcDbEntity
  8
M0
 62
     1
100
AcDbCircle
 10
284.311179
 20
687.15517
 40
1.0
100
AcDbArc
 50
0.0
 51
89.999126
  0
LINE
  5
71D
100
AcDbEntity
  8
M0
 62
     1
100
AcDbLine
 10
283.111182
 20
703.755142
 11
284.311179
 21
703.755142
  0
LINE
  5
71E
100
AcDbEntity
  8
M0
 62
     1
100
AcDbLine
 10
285.311179
 20
704.755143
 11
285.311179
 21
706.455143
  0
ARC
  5
71F
100
AcDbEntity
  8
M0
 62
     1
100
AcDbCircle
 10
284.311179
 20
704.755142
 40
1.0
100
AcDbArc
 50
270.0
 51
360.0
  0
CIRCLE
  5
720
100
AcDbEntity
  8
M0
 62
     1
100
AcDbCircle
 10
292.611174
 20
692.955158
 40
4.25
  0
CIRCLE
  5
721
100
AcDbEntity
  8
M0
 62
     1
100
AcDbCircle
 10
297.809994
 20
681.15517
 40
2.999997
  0
LINE
  5
722
100
AcDbEntity
  8
M0
 62
     1
100
AcDbLine
 10
294.851009
 20
677.207919
 11
294.034847
 21
679.855243
  0
LINE
  5
723
100
AcDbEntity
  8
M0
 62
     1
100
AcDbLine
 10
301.029798
 20
684.255191
 11
301.584896
 21
682.455219
  0
LINE
  5
724
100
AcDbEntity
  8
M0
 62
     1
100
AcDbLine
 10
300.76849
 20
677.207904
 11
301.584896
 21
679.855243
  0
LINE
  5
725
100
AcDbEntity
  8
M0
 62
     1
100
AcDbLine
 10
295.329037
 20
676.855243
 11
300.290707
 21
676.855243
  0
LINE
  5
726
100
AcDbEntity
  8
M0
 62
     1
100
AcDbLine
 10
301.584896
 20
679.855243
 11
301.584896
 21
682.455219
  0
LINE
  5
727
100
AcDbEntity
  8
M0
 62
     1
100
AcDbLine
 10
294.034847
 20
682.955188
 11
294.034847
 21
679.855243
  0
LINE
  5
728
100
AcDbEntity
  8
M0
 62
     1
100
AcDbLine
 10
299.40057
 20
679.564349
 11
296.218929
 21
682.746112
  0
LINE
  5
729
100
AcDbEntity
  8
M0
 62
     1
100
AcDbLine
 10
298.163265
 20
682.569354
 11
296.395687
 21
680.801654
  0
LINE
  5
72A
100
AcDbEntity
  8
M0
 62
     1
100
AcDbLine
 10
299.223812
 20
681.508685
 11
297.456234
 21
679.741107
  0
ARC
  5
72B
100
AcDbEntity
  8
M0
 62
     1
100
AcDbCircle
 10
295.329037
 20
677.355243
 40
0.5
100
AcDbArc
 50
197.127379
 51
270.0
  0
ARC
  5
72C
100
AcDbEntity
  8
M0
 62
     1
100
AcDbCircle
 10
300.290707
 20
677.355243
 40
0.5
100
AcDbArc
 50
270.0
 51
342.861758
  0
ARC
  5
72D
100
AcDbEntity
  8
M0
 62
     1
100
AcDbCircle
 10
297.811199
 20
674.15517
 40
2.999997
100
AcDbArc
 50
115.844027
 51
424.15628
  0
LINE
  5
72E
100
AcDbEntity
  8
M0
 62
     1
100
AcDbLine
 10
294.713711
 20
677.652972
 11
294.036053
 21
675.455219
  0
LINE
  5
72F
100
AcDbEntity
  8
M0
 62
     1
100
AcDbLine
 10
294.852215
 20
670.207919
 11
294.036053
 21
672.855243
  0
LINE
  5
730
100
AcDbEntity
  8
M0
 62
     1
100
AcDbLine
 10
300.907024
 20
677.657123
 11
301.586101
 21
675.455219
  0
LINE
  5
731
100
AcDbEntity
  8
M0
 62
     1
100
AcDbLine
 10
300.769695
 20
670.207904
 11
301.586101
 21
672.855243
  0
LINE
  5
732
100
AcDbEntity
  8
M0
 62
     1
100
AcDbLine
 10
295.330242
 20
669.855243
 11
300.291912
 21
669.855243
  0
LINE
  5
733
100
AcDbEntity
  8
M0
 62
     1
100
AcDbLine
 10
301.586101
 20
672.855243
 11
301.586101
 21
675.455219
  0
LINE
  5
734
100
AcDbEntity
  8
M0
 62
     1
100
AcDbLine
 10
294.036053
 20
675.455219
 11
294.036053
 21
672.855243
  0
LINE
  5
735
100
AcDbEntity
  8
M0
 62
     1
100
AcDbLine
 10
299.401775
 20
672.564349
 11
296.220135
 21
675.746112
  0
LINE
  5
736
100
AcDbEntity
  8
M0
 62
     1
100
AcDbLine
 10
298.164471
 20
675.569354
 11
296.396892
 21
673.801654
  0
LINE
  5
737
100
AcDbEntity
  8
M0
 62
     1
100
AcDbLine
 10
299.225017
 20
674.508685
 11
297.457439
 21
672.741107
  0
ARC
  5
738
100
AcDbEntity
  8
M0
 62
     1
100
AcDbCircle
 10
295.330242
 20
670.355243
 40
0.5
100
AcDbArc
 50
197.127379
 51
270.0
  0
ARC
  5
739
100
AcDbEntity
  8
M0
 62
     1
100
AcDbCircle
 10
300.291912
 20
670.355243
 40
0.5
100
AcDbArc
 50
270.0
 51
342.861758
  0
ARC
  5
73A
100
AcDbEntity
  8
M0
 62
     1
100
AcDbCircle
 10
287.811225
 20
674.15517
 40
2.999997
100
AcDbArc
 50
115.843797
 51
424.156412
  0
LINE
  5
73B
100
AcDbEntity
  8
M0
 62
     1
100
AcDbLine
 10
284.467704
 20
676.855121
 11
284.036078
 21
675.455219
  0
LINE
  5
73C
100
AcDbEntity
  8
M0
 62
     1
100
AcDbLine
 10
284.85224
 20
670.207919
 11
284.036078
 21
672.855243
  0
LINE
  5
73D
100
AcDbEntity
  8
M0
 62
     1
100
AcDbLine
 10
290.76971
 20
670.207904
 11
291.397884
 21
672.244769
  0
LINE
  5
73E
100
AcDbEntity
  8
M0
 62
     1
100
AcDbLine
 10
285.330268
 20
669.855243
 11
290.291927
 21
669.855243
  0
LINE
  5
73F
100
AcDbEntity
  8
M0
 62
     1
100
AcDbLine
 10
284.036078
 20
675.455219
 11
284.036078
 21
672.855243
  0
LINE
  5
740
100
AcDbEntity
  8
M0
 62
     1
100
AcDbLine
 10
289.401791
 20
672.564349
 11
286.22016
 21
675.746112
  0
LINE
  5
741
100
AcDbEntity
  8
M0
 62
     1
100
AcDbLine
 10
288.164496
 20
675.569354
 11
286.396918
 21
673.801654
  0
LINE
  5
742
100
AcDbEntity
  8
M0
 62
     1
100
AcDbLine
 10
289.225033
 20
674.508685
 11
287.457465
 21
672.741107
  0
ARC
  5
743
100
AcDbEntity
  8
M0
 62
     1
100
AcDbCircle
 10
285.330268
 20
670.355243
 40
0.5
100
AcDbArc
 50
197.127669
 51
270.0
  0
ARC
  5
744
100
AcDbEntity
  8
M0
 62
     1
100
AcDbCircle
 10
290.291927
 20
670.355243
 40
0.5
100
AcDbArc
 50
270.0
 51
342.861758
  0
CIRCLE
  5
745
100
AcDbEntity
  8
M0
 62
     1
100
AcDbCircle
 10
286.810004
 20
681.15517
 40
2.999997
  0
LINE
  5
746
100
AcDbEntity
  8
M0
 62
     1
100
AcDbLine
 10
283.589789
 20
684.255191
 11
283.034858
 21
682.455219
  0
LINE
  5
747
100
AcDbEntity
  8
M0
 62
     1
100
AcDbLine
 10
283.85102
 20
677.207919
 11
283.034858
 21
679.855243
  0
LINE
  5
748
100
AcDbEntity
  8
M0
 62
     1
100
AcDbLine
 10
289.76849
 20
677.207904
 11
290.584896
 21
679.855243
  0
LINE
  5
749
100
AcDbEntity
  8
M0
 62
     1
100
AcDbLine
 10
284.329047
 20
676.855243
 11
289.290707
 21
676.855243
  0
LINE
  5
74A
100
AcDbEntity
  8
M0
 62
     1
100
AcDbLine
 10
290.584896
 20
679.855243
 11
290.584896
 21
682.955188
  0
LINE
  5
74B
100
AcDbEntity
  8
M0
 62
     1
100
AcDbLine
 10
283.034858
 20
682.455219
 11
283.034858
 21
679.855243
  0
LINE
  5
74C
100
AcDbEntity
  8
M0
 62
     1
100
AcDbLine
 10
288.40058
 20
679.564349
 11
285.21894
 21
682.746112
  0
LINE
  5
74D
100
AcDbEntity
  8
M0
 62
     1
100
AcDbLine
 10
287.163276
 20
682.569354
 11
285.395697
 21
680.801654
  0
LINE
  5
74E
100
AcDbEntity
  8
M0
 62
     1
100
AcDbLine
 10
288.223822
 20
681.508685
 11
286.456244
 21
679.741107
  0
ARC
  5
74F
100
AcDbEntity
  8
M0
 62
     1
100
AcDbCircle
 10
284.329047
 20
677.355243
 40
0.5
100
AcDbArc
 50
197.127669
 51
270.0
  0
ARC
  5
750
100
AcDbEntity
  8
M0
 62
     1
100
AcDbCircle
 10
289.290707
 20
677.355243
 40
0.5
100
AcDbArc
 50
270.0
 51
342.861758
  0
LINE
  5
751
100
AcDbEntity
  8
M0
 62
     1
100
AcDbLine
 10
274.349112
 20
685.11626
 11
276.193961
 21
683.271426
  0
LINE
  5
752
100
AcDbEntity
  8
M0
 62
     1
100
AcDbLine
 10
276.320838
 20
685.87337
 11
273.745765
 21
683.298297
  0
LINE
  5
753
100
AcDbEntity
  8
M0
 62
     1
100
AcDbLine
 10
277.027945
 20
685.166263
 11
274.452872
 21
682.59119
  0
LINE
  5
754
100
AcDbEntity
  8
M0
 62
     1
100
AcDbLine
 10
272.209983
 20
679.355411
 11
278.40998
 21
679.355411
  0
LINE
  5
755
100
AcDbEntity
  8
M0
 62
     1
100
AcDbLine
 10
279.40998
 20
680.355396
 11
279.40998
 21
687.955371
  0
LINE
  5
756
100
AcDbEntity
  8
M0
 62
     1
100
AcDbLine
 10
271.209983
 20
687.955386
 11
271.209983
 21
680.355411
  0
CIRCLE
  5
757
100
AcDbEntity
  8
M0
 62
     1
100
AcDbCircle
 10
275.309989
 20
684.155414
 40
3.499993
  0
ARC
  5
758
100
AcDbEntity
  8
M0
 62
     1
100
AcDbCircle
 10
278.40998
 20
680.355411
 40
1.0
100
AcDbArc
 50
270.0
 51
360.0
  0
ARC
  5
759
100
AcDbEntity
  8
M0
 62
     1
100
AcDbCircle
 10
278.40998
 20
687.955219
 40
1.0
100
AcDbArc
 50
0.0
 51
89.999126
  0
ARC
  5
75A
100
AcDbEntity
  8
M0
 62
     1
100
AcDbCircle
 10
272.209983
 20
687.955219
 40
1.0
100
AcDbArc
 50
89.999126
 51
179.999126
  0
ARC
  5
75B
100
AcDbEntity
  8
M0
 62
     1
100
AcDbCircle
 10
272.209983
 20
680.355411
 40
1.0
100
AcDbArc
 50
179.999126
 51
270.0
  0
LINE
  5
75C
100
AcDbEntity
  8
M0
 62
     1
100
AcDbLine
 10
272.209983
 20
688.955402
 11
278.40998
 21
688.955402
  0
LINE
  5
75D
100
AcDbEntity
  8
M0
 62
     1
100
AcDbLine
 10
261.849143
 20
685.11626
 11
263.693992
 21
683.271426
  0
LINE
  5
75E
100
AcDbEntity
  8
M0
 62
     1
100
AcDbLine
 10
263.820868
 20
685.87337
 11
261.245795
 21
683.298297
  0
LINE
  5
75F
100
AcDbEntity
  8
M0
 62
     1
100
AcDbLine
 10
264.527976
 20
685.166263
 11
261.952903
 21
682.59119
  0
LINE
  5
760
100
AcDbEntity
  8
M0
 62
     1
100
AcDbLine
 10
259.710013
 20
679.355411
 11
265.91001
 21
679.355411
  0
LINE
  5
761
100
AcDbEntity
  8
M0
 62
     1
100
AcDbLine
 10
266.91001
 20
680.355396
 11
266.91001
 21
687.955371
  0
LINE
  5
762
100
AcDbEntity
  8
M0
 62
     1
100
AcDbLine
 10
258.710013
 20
687.955386
 11
258.710013
 21
680.355411
  0
CIRCLE
  5
763
100
AcDbEntity
  8
M0
 62
     1
100
AcDbCircle
 10
262.810019
 20
684.155414
 40
3.499993
  0
ARC
  5
764
100
AcDbEntity
  8
M0
 62
     1
100
AcDbCircle
 10
265.91001
 20
680.355411
 40
1.0
100
AcDbArc
 50
270.0
 51
360.0
  0
ARC
  5
765
100
AcDbEntity
  8
M0
 62
     1
100
AcDbCircle
 10
265.91001
 20
687.955219
 40
1.0
100
AcDbArc
 50
0.0
 51
89.999126
  0
ARC
  5
766
100
AcDbEntity
  8
M0
 62
     1
100
AcDbCircle
 10
259.710013
 20
687.955219
 40
1.0
100
AcDbArc
 50
89.999126
 51
179.999126
  0
ARC
  5
767
100
AcDbEntity
  8
M0
 62
     1
100
AcDbCircle
 10
259.710013
 20
680.355411
 40
1.0
100
AcDbArc
 50
179.999126
 51
270.0
  0
LINE
  5
768
100
AcDbEntity
  8
M0
 62
     1
100
AcDbLine
 10
259.710013
 20
688.955402
 11
265.91001
 21
688.955402
  0
ARC
  5
769
100
AcDbEntity
  8
M0
 62
     1
100
AcDbCircle
 10
259.710013
 20
694.855552
 40
1.0
100
AcDbArc
 50
179.999945
 51
270.0
  0
LINE
  5
76A
100
AcDbEntity
  8
M0
 62
     1
100
AcDbLine
 10
258.710013
 20
694.855384
 11
258.710013
 21
702.45536
  0
ARC
  5
76B
100
AcDbEntity
  8
M0
 62
     1
100
AcDbCircle
 10
259.710013
 20
702.45536
 40
1.0
100
AcDbArc
 50
89.999126
 51
179.999945
  0
LINE
  5
76C
100
AcDbEntity
  8
M0
 62
     1
100
AcDbLine
 10
259.710013
 20
703.45536
 11
265.91001
 21
703.45536
  0
ARC
  5
76D
100
AcDbEntity
  8
M0
 62
     1
100
AcDbCircle
 10
265.91001
 20
702.45536
 40
1.0
100
AcDbArc
 50
0.0
 51
89.999126
  0
LINE
  5
76E
100
AcDbEntity
  8
M0
 62
     1
100
AcDbLine
 10
266.91001
 20
702.455375
 11
266.91001
 21
694.855399
  0
ARC
  5
76F
100
AcDbEntity
  8
M0
 62
     1
100
AcDbCircle
 10
265.91001
 20
694.855552
 40
1.0
100
AcDbArc
 50
-90.0
 51
0.0
  0
LINE
  5
770
100
AcDbEntity
  8
M0
 62
     1
100
AcDbLine
 10
259.710013
 20
693.855369
 11
265.91001
 21
693.855369
  0
LINE
  5
771
100
AcDbEntity
  8
M0
 62
     1
100
AcDbLine
 10
249.349143
 20
685.11626
 11
251.193992
 21
683.271426
  0
LINE
  5
772
100
AcDbEntity
  8
M0
 62
     1
100
AcDbLine
 10
251.320868
 20
685.87337
 11
248.745795
 21
683.298297
  0
LINE
  5
773
100
AcDbEntity
  8
M0
 62
     1
100
AcDbLine
 10
252.027976
 20
685.166263
 11
249.452903
 21
682.59119
  0
LINE
  5
774
100
AcDbEntity
  8
M0
 62
     1
100
AcDbLine
 10
254.41001
 20
680.355396
 11
254.41001
 21
687.955371
  0
LINE
  5
775
100
AcDbEntity
  8
M0
 62
     1
100
AcDbLine
 10
246.210013
 20
687.955386
 11
246.210013
 21
680.355411
  0
CIRCLE
  5
776
100
AcDbEntity
  8
M0
 62
     1
100
AcDbCircle
 10
250.310019
 20
684.155414
 40
3.499993
  0
ARC
  5
777
100
AcDbEntity
  8
M0
 62
     1
100
AcDbCircle
 10
253.41001
 20
680.355411
 40
1.0
100
AcDbArc
 50
270.0
 51
360.0
  0
ARC
  5
778
100
AcDbEntity
  8
M0
 62
     1
100
AcDbCircle
 10
253.41001
 20
687.955219
 40
1.0
100
AcDbArc
 50
0.0
 51
89.999126
  0
ARC
  5
779
100
AcDbEntity
  8
M0
 62
     1
100
AcDbCircle
 10
247.210013
 20
687.955219
 40
1.0
100
AcDbArc
 50
89.999126
 51
179.999126
  0
ARC
  5
77A
100
AcDbEntity
  8
M0
 62
     1
100
AcDbCircle
 10
247.210013
 20
680.355411
 40
1.0
100
AcDbArc
 50
179.999126
 51
270.0
  0
LINE
  5
77B
100
AcDbEntity
  8
M0
 62
     1
100
AcDbLine
 10
247.210013
 20
688.955402
 11
253.41001
 21
688.955402
  0
ARC
  5
77C
100
AcDbEntity
  8
M0
 62
     1
100
AcDbCircle
 10
247.210013
 20
694.855552
 40
1.0
100
AcDbArc
 50
179.999945
 51
270.0
  0
LINE
  5
77D
100
AcDbEntity
  8
M0
 62
     1
100
AcDbLine
 10
246.210013
 20
694.855384
 11
246.210013
 21
702.45536
  0
ARC
  5
77E
100
AcDbEntity
  8
M0
 62
     1
100
AcDbCircle
 10
247.210013
 20
702.45536
 40
1.0
100
AcDbArc
 50
89.999126
 51
179.999945
  0
LINE
  5
77F
100
AcDbEntity
  8
M0
 62
     1
100
AcDbLine
 10
247.210013
 20
703.45536
 11
253.41001
 21
703.45536
  0
ARC
  5
780
100
AcDbEntity
  8
M0
 62
     1
100
AcDbCircle
 10
253.41001
 20
702.45536
 40
1.0
100
AcDbArc
 50
0.0
 51
89.999126
  0
LINE
  5
781
100
AcDbEntity
  8
M0
 62
     1
100
AcDbLine
 10
254.41001
 20
702.455375
 11
254.41001
 21
694.855399
  0
ARC
  5
782
100
AcDbEntity
  8
M0
 62
     1
100
AcDbCircle
 10
253.41001
 20
694.855552
 40
1.0
100
AcDbArc
 50
-90.0
 51
0.0
  0
LINE
  5
783
100
AcDbEntity
  8
M0
 62
     1
100
AcDbLine
 10
247.210013
 20
693.855369
 11
253.41001
 21
693.855369
  0
ARC
  5
784
100
AcDbEntity
  8
M0
 62
     1
100
AcDbCircle
 10
278.409934
 20
702.455344
 40
1.0
100
AcDbArc
 50
0.0
 51
89.999126
  0
LINE
  5
785
100
AcDbEntity
  8
M0
 62
     1
100
AcDbLine
 10
279.409934
 20
694.855354
 11
279.409934
 21
702.455329
  0
ARC
  5
786
100
AcDbEntity
  8
M0
 62
     1
100
AcDbCircle
 10
278.409934
 20
694.855537
 40
1.0
100
AcDbArc
 50
270.0
 51
360.0
  0
LINE
  5
787
100
AcDbEntity
  8
M0
 62
     1
100
AcDbLine
 10
278.409934
 20
693.855354
 11
272.209937
 21
693.855354
  0
ARC
  5
788
100
AcDbEntity
  8
M0
 62
     1
100
AcDbCircle
 10
272.209937
 20
694.855537
 40
1.0
100
AcDbArc
 50
179.999945
 51
270.0
  0
LINE
  5
789
100
AcDbEntity
  8
M0
 62
     1
100
AcDbLine
 10
271.209937
 20
702.45536
 11
271.209937
 21
694.855384
  0
ARC
  5
78A
100
AcDbEntity
  8
M0
 62
     1
100
AcDbCircle
 10
272.209937
 20
702.455344
 40
1.0
100
AcDbArc
 50
89.999126
 51
179.999945
  0
LINE
  5
78B
100
AcDbEntity
  8
M0
 62
     1
100
AcDbLine
 10
278.409934
 20
703.455344
 11
272.209937
 21
703.455344
  0
LINE
  5
78C
100
AcDbEntity
  8
M0
 62
     1
100
AcDbLine
 10
249.349143
 20
699.616248
 11
251.193992
 21
697.771415
  0
LINE
  5
78D
100
AcDbEntity
  8
M0
 62
     1
100
AcDbLine
 10
251.320868
 20
700.373359
 11
248.745795
 21
697.798286
  0
LINE
  5
78E
100
AcDbEntity
  8
M0
 62
     1
100
AcDbLine
 10
252.027976
 20
699.666251
 11
249.452903
 21
697.091178
  0
CIRCLE
  5
78F
100
AcDbEntity
  8
M0
 62
     1
100
AcDbCircle
 10
250.310019
 20
698.655402
 40
3.499993
  0
LINE
  5
790
100
AcDbEntity
  8
M0
 62
     1
100
AcDbLine
 10
261.849128
 20
699.616248
 11
263.693976
 21
697.771415
  0
LINE
  5
791
100
AcDbEntity
  8
M0
 62
     1
100
AcDbLine
 10
263.820853
 20
700.373359
 11
261.24578
 21
697.798286
  0
LINE
  5
792
100
AcDbEntity
  8
M0
 62
     1
100
AcDbLine
 10
264.527961
 20
699.666251
 11
261.952887
 21
697.091178
  0
CIRCLE
  5
793
100
AcDbEntity
  8
M0
 62
     1
100
AcDbCircle
 10
262.810004
 20
698.655402
 40
3.499993
  0
LINE
  5
794
100
AcDbEntity
  8
M0
 62
     1
100
AcDbLine
 10
274.349097
 20
699.616248
 11
276.193946
 21
697.771415
  0
LINE
  5
795
100
AcDbEntity
  8
M0
 62
     1
100
AcDbLine
 10
276.320823
 20
700.373359
 11
273.745749
 21
697.798286
  0
LINE
  5
796
100
AcDbEntity
  8
M0
 62
     1
100
AcDbLine
 10
277.02793
 20
699.666251
 11
274.452857
 21
697.091178
  0
CIRCLE
  5
797
100
AcDbEntity
  8
M0
 62
     1
100
AcDbCircle
 10
275.309974
 20
698.655402
 40
3.499993
  0
LINE
  5
798
100
AcDbEntity
  8
M0
 62
     1
100
AcDbLine
 10
293.568974
 20
690.850495
 11
293.568974
 21
695.460089
  0
LINE
  5
799
100
AcDbEntity
  8
M0
 62
     1
100
AcDbLine
 10
293.56899
 20
695.460333
 11
291.866246
 21
695.460333
  0
LINE
  5
79A
100
AcDbEntity
  8
M0
 62
     1
100
AcDbLine
 10
291.866246
 20
695.460089
 11
291.866246
 21
690.850495
  0
LINE
  5
79B
100
AcDbEntity
  8
M0
  6
DASHDOT
 62
     1
100
AcDbLine
 10
283.385886
 20
693.155414
 11
301.934337
 21
693.155414
  0
LINE
  5
79C
100
AcDbEntity
  8
M0
  6
DASHDOT
 62
     1
100
AcDbLine
 10
292.660107
 20
683.881183
 11
292.660107
 21
702.429632
  0
LINE
  5
79D
100
AcDbEntity
  8
M0
 62
     1
100
AcDbLine
 10
293.56899
 20
690.850495
 11
291.866246
 21
690.850495
  0
LINE
  5
79E
100
AcDbEntity
  8
M0
100
AcDbLine
 10
581.898208
 20
769.155224
 11
586.898208
 21
769.155224
  0
LINE
  5
79F
100
AcDbEntity
  8
M0
100
AcDbLine
 10
633.198208
 20
639.155224
 11
638.198208
 21
639.155224
  0
LINE
  5
7A0
100
AcDbEntity
  8
M0
100
AcDbLine
 10
586.898208
 20
769.155224
 11
586.898208
 21
738.155224
  0
ARC
  5
7A1
100
AcDbEntity
  8
M0
100
AcDbCircle
 10
589.898208
 20
738.155224
 40
3.0
100
AcDbArc
 50
180.0
 51
270.0
  0
LINE
  5
7A2
100
AcDbEntity
  8
M0
100
AcDbLine
 10
633.198208
 20
639.155224
 11
633.198208
 21
692.155224
  0
LINE
  5
7A3
100
AcDbEntity
  8
M0
100
AcDbLine
 10
581.898208
 20
769.155224
 11
581.898208
 21
738.155224
  0
LINE
  5
7A4
100
AcDbEntity
  8
M0
100
AcDbLine
 10
589.898208
 20
730.155224
 11
607.198208
 21
730.155224
  0
ARC
  5
7A5
100
AcDbEntity
  8
M0
100
AcDbCircle
 10
589.898208
 20
738.155224
 40
8.0
100
AcDbArc
 50
180.0
 51
270.0
  0
LINE
  5
7A6
100
AcDbEntity
  8
M0
100
AcDbLine
 10
638.198208
 20
639.155224
 11
638.198208
 21
692.155224
  0
LINE
  5
7A7
100
AcDbEntity
  8
M0
100
AcDbLine
 10
589.898208
 20
735.155224
 11
607.198208
 21
735.155224
  0
ARC
  5
7A8
100
AcDbEntity
  8
M0
100
AcDbCircle
 10
630.198208
 20
727.155224
 40
2.0
100
AcDbArc
 50
0.0
 51
90.0
  0
LINE
  5
7A9
100
AcDbEntity
  8
M0
100
AcDbLine
 10
632.198208
 20
692.155224
 11
632.198208
 21
706.155224
  0
LINE
  5
7AA
100
AcDbEntity
  8
M0
100
AcDbLine
 10
639.198208
 20
692.155224
 11
639.198208
 21
706.155224
  0
LINE
  5
7AB
100
AcDbEntity
  8
M0
100
AcDbLine
 10
632.198208
 20
692.155224
 11
639.198208
 21
692.155224
  0
LINE
  5
7AC
100
AcDbEntity
  8
M0
100
AcDbLine
 10
607.198208
 20
729.155224
 11
630.198208
 21
729.155224
  0
LINE
  5
7AD
100
AcDbEntity
  8
M0
100
AcDbLine
 10
607.198208
 20
736.155224
 11
630.198208
 21
736.155224
  0
LINE
  5
7AE
100
AcDbEntity
  8
M0
100
AcDbLine
 10
607.198208
 20
736.155224
 11
607.198208
 21
729.155224
  0
ARC
  5
7AF
100
AcDbEntity
  8
M0
100
AcDbCircle
 10
630.198208
 20
727.155224
 40
9.0
100
AcDbArc
 50
0.0
 51
90.0
  0
LINE
  5
7B0
100
AcDbEntity
  8
M0
100
AcDbLine
 10
632.198208
 20
723.655224
 11
632.198208
 21
727.155224
  0
LINE
  5
7B1
100
AcDbEntity
  8
M0
100
AcDbLine
 10
639.198208
 20
723.655224
 11
639.198208
 21
727.155224
  0
LINE
  5
7B2
100
AcDbEntity
  8
M0
 62
   253
100
AcDbLine
 10
638.198208
 20
690.155224
 11
639.698208
 21
690.155224
  0
LINE
  5
7B3
100
AcDbEntity
  8
M0
 62
   253
100
AcDbLine
 10
639.698208
 20
706.155224
 11
699.198208
 21
706.155224
  0
LINE
  5
7B4
100
AcDbEntity
  8
M0
 62
   253
100
AcDbLine
 10
699.198208
 20
676.155224
 11
699.198208
 21
706.155224
  0
LINE
  5
7B5
100
AcDbEntity
  8
M0
 62
   253
100
AcDbLine
 10
650.198208
 20
671.155224
 11
638.198208
 21
671.155224
  0
LINE
  5
7B6
100
AcDbEntity
  8
M0
 62
   253
100
AcDbLine
 10
638.198208
 20
690.155224
 11
638.198208
 21
671.155224
  0
LINE
  5
7B7
100
AcDbEntity
  8
M0
 62
   253
100
AcDbLine
 10
699.198208
 20
676.155224
 11
653.198208
 21
676.155224
  0
LINE
  5
7B8
100
AcDbEntity
  8
M0
 62
   253
100
AcDbLine
 10
650.198208
 20
673.155224
 11
650.198208
 21
671.155224
  0
ARC
  5
7B9
100
AcDbEntity
  8
M0
 62
   253
100
AcDbCircle
 10
653.198208
 20
673.155224
 40
3.0
100
AcDbArc
 50
90.0
 51
180.0
  0
ARC
  5
7BA
100
AcDbEntity
  8
M0
 62
   253
100
AcDbCircle
 10
685.198208
 20
692.155224
 40
2.0
100
AcDbArc
 50
0.0
 51
90.0
  0
LINE
  5
7BB
100
AcDbEntity
  8
M0
 62
   253
100
AcDbLine
 10
687.198208
 20
692.155224
 11
687.198208
 21
684.155224
  0
ARC
  5
7BC
100
AcDbEntity
  8
M0
 62
   253
100
AcDbCircle
 10
688.198208
 20
684.155224
 40
1.0
100
AcDbArc
 50
180.0
 51
270.0
  0
LINE
  5
7BD
100
AcDbEntity
  8
M0
 62
   253
100
AcDbLine
 10
678.198208
 20
682.155224
 11
678.198208
 21
676.155224
  0
ARC
  5
7BE
100
AcDbEntity
  8
M0
 62
   253
100
AcDbCircle
 10
679.198208
 20
682.155224
 40
1.0
100
AcDbArc
 50
90.0
 51
180.0
  0
LINE
  5
7BF
100
AcDbEntity
  8
M0
 62
   253
100
AcDbLine
 10
699.198208
 20
683.155224
 11
664.198208
 21
683.155224
  0
LINE
  5
7C0
100
AcDbEntity
  8
M0
 62
   253
100
AcDbLine
 10
663.198208
 20
676.155224
 11
663.198208
 21
682.155224
  0
ARC
  5
7C1
100
AcDbEntity
  8
M0
 62
   253
100
AcDbCircle
 10
664.198208
 20
682.155224
 40
1.0
100
AcDbArc
 50
90.0
 51
180.0
  0
LINE
  5
7C2
100
AcDbEntity
  8
M0
 62
   253
100
AcDbLine
 10
639.698208
 20
690.155224
 11
639.698208
 21
706.155224
  0
LINE
  5
7C3
100
AcDbEntity
  8
M0
 62
   253
100
AcDbLine
 10
685.198208
 20
694.155224
 11
639.698208
 21
694.155224
  0
LINE
  5
7C4
100
AcDbEntity
  8
M0
 62
     7
100
AcDbLine
 10
702.398208
 20
730.155224
 11
702.398208
 21
673.355224
  0
ARC
  5
7C5
100
AcDbEntity
  8
M0
 62
     7
100
AcDbCircle
 10
703.398208
 20
673.355224
 40
1.0
100
AcDbArc
 50
180.0
 51
270.0
  0
LINE
  5
7C6
100
AcDbEntity
  8
M0
 62
     7
100
AcDbLine
 10
704.398208
 20
639.155224
 11
704.398208
 21
668.155224
  0
ARC
  5
7C7
100
AcDbEntity
  8
M0
 62
     7
100
AcDbCircle
 10
703.398208
 20
668.155224
 40
1.0
100
AcDbArc
 50
0.0
 51
90.0
  0
LINE
  5
7C8
100
AcDbEntity
  8
M0
 62
     7
100
AcDbLine
 10
707.598208
 20
639.155224
 11
707.598208
 21
668.155224
  0
ARC
  5
7C9
100
AcDbEntity
  8
M0
 62
     7
100
AcDbCircle
 10
703.398208
 20
668.155224
 40
4.2
100
AcDbArc
 50
0.0
 51
90.0
  0
LINE
  5
7CA
100
AcDbEntity
  8
M0
 62
     7
100
AcDbLine
 10
699.198208
 20
730.155224
 11
699.198208
 21
673.355224
  0
ARC
  5
7CB
100
AcDbEntity
  8
M0
 62
     7
100
AcDbCircle
 10
703.398208
 20
673.355224
 40
4.2
100
AcDbArc
 50
180.0
 51
270.0
  0
LINE
  5
7CC
100
AcDbEntity
  8
M0
 62
     7
100
AcDbLine
 10
704.398208
 20
639.155224
 11
707.598208
 21
639.155224
  0
ARC
  5
7CD
100
AcDbEntity
  8
M0
100
AcDbCircle
 10
667.948208
 20
729.405224
 40
3.0
100
AcDbArc
 50
0.0
 51
90.0
  0
LINE
  5
7CE
100
AcDbEntity
  8
M0
100
AcDbLine
 10
667.948208
 20
732.405224
 11
648.448208
 21
732.405224
  0
ARC
  5
7CF
100
AcDbEntity
  8
M0
100
AcDbCircle
 10
648.448208
 20
729.405224
 40
3.0
100
AcDbArc
 50
90.0
 51
180.0
  0
LINE
  5
7D0
100
AcDbEntity
  8
M0
100
AcDbLine
 10
645.448208
 20
729.405224
 11
645.448208
 21
723.655224
  0
LINE
  5
7D1
100
AcDbEntity
  8
M0
100
AcDbLine
 10
670.948208
 20
706.155224
 11
670.948208
 21
729.405224
  0
LINE
  5
7D2
100
AcDbEntity
  8
M0
100
AcDbLine
 10
664.198208
 20
706.155224
 11
664.198208
 21
725.105224
  0
LINE
  5
7D3
100
AcDbEntity
  8
M0
100
AcDbLine
 10
664.198208
 20
725.105224
 11
661.882627
 21
725.105224
  0
LINE
  5
7D4
100
AcDbEntity
  8
M0
100
AcDbLine
 10
652.198208
 20
723.655224
 11
652.198208
 21
725.105224
  0
LINE
  5
7D5
100
AcDbEntity
  8
M0
100
AcDbLine
 10
656.51428
 20
725.105224
 11
652.198208
 21
725.105224
  0
LINE
  5
7D6
100
AcDbEntity
  8
M0
100
AcDbLine
 10
661.94859
 20
724.355162
 11
661.94859
 21
723.655211
  0
LINE
  5
7D7
100
AcDbEntity
  8
M0
100
AcDbLine
 10
661.948345
 20
724.355269
 11
656.448345
 21
724.355269
  0
LINE
  5
7D8
100
AcDbEntity
  8
M0
100
AcDbLine
 10
661.948101
 20
724.355284
 11
661.874127
 21
725.20259
  0
ARC
  5
7D9
100
AcDbEntity
  8
M0
100
AcDbCircle
 10
660.877789
 20
725.115447
 40
1.0
100
AcDbArc
 50
4.998445
 51
73.738886
  0
ARC
  5
7DA
100
AcDbEntity
  8
M0
100
AcDbCircle
 10
659.198345
 20
719.355269
 40
7.0
100
AcDbArc
 50
73.744411
 51
107.014908
  0
ARC
  5
7DB
100
AcDbEntity
  8
M0
100
AcDbCircle
 10
657.519146
 20
725.115447
 40
1.0
100
AcDbArc
 50
106.248385
 51
175.001631
  0
LINE
  5
7DC
100
AcDbEntity
  8
M0
100
AcDbLine
 10
656.44859
 20
724.355162
 11
656.44859
 21
723.655211
  0
LINE
  5
7DD
100
AcDbEntity
  8
M0
100
AcDbLine
 10
656.44859
 20
724.355269
 11
656.522808
 21
725.20259
  0
LINE
  5
7DE
100
AcDbEntity
  8
M0
100
AcDbLine
 10
659.198345
 20
724.355269
 11
658.698345
 21
723.655211
  0
LINE
  5
7DF
100
AcDbEntity
  8
M0
100
AcDbLine
 10
659.198345
 20
723.655211
 11
659.698345
 21
724.355269
  0
LINE
  5
7E0
100
AcDbEntity
  8
M0
100
AcDbLine
 10
617.698209
 20
700.355282
 11
620.698209
 21
700.355282
  0
LINE
  5
7E1
100
AcDbEntity
  8
M0
100
AcDbLine
 10
617.698209
 20
704.355801
 11
617.698209
 21
700.355282
  0
LINE
  5
7E2
100
AcDbEntity
  8
M0
100
AcDbLine
 10
620.698209
 20
700.355282
 11
620.698209
 21
704.355801
  0
LINE
  5
7E3
100
AcDbEntity
  8
M0
100
AcDbLine
 10
615.998013
 20
706.155223
 11
615.998014
 21
704.355809
  0
LINE
  5
7E4
100
AcDbEntity
  8
M0
100
AcDbLine
 10
615.998014
 20
704.355809
 11
622.39816
 21
704.355811
  0
LINE
  5
7E5
100
AcDbEntity
  8
M0
100
AcDbLine
 10
622.39816
 20
704.355811
 11
622.39816
 21
706.155225
  0
LINE
  5
7E6
100
AcDbEntity
  8
M0
100
AcDbLine
 10
620.797818
 20
704.355811
 11
620.797818
 21
706.155224
  0
LINE
  5
7E7
100
AcDbEntity
  8
M0
100
AcDbLine
 10
617.597867
 20
704.35581
 11
617.597867
 21
706.155223
  0
LINE
  5
7E8
100
AcDbEntity
  8
M0
100
AcDbLine
 10
622.39816
 20
706.155225
 11
615.998013
 21
706.155223
  0
LINE
  5
7E9
100
AcDbEntity
  8
M0
100
AcDbLine
 10
621.947964
 20
724.355175
 11
621.947964
 21
723.655224
  0
LINE
  5
7EA
100
AcDbEntity
  8
M0
100
AcDbLine
 10
616.448208
 20
724.355282
 11
621.948208
 21
724.355282
  0
LINE
  5
7EB
100
AcDbEntity
  8
M0
100
AcDbLine
 10
621.947964
 20
724.355282
 11
621.873745
 21
725.202602
  0
ARC
  5
7EC
100
AcDbEntity
  8
M0
100
AcDbCircle
 10
619.198208
 20
719.355282
 40
7.0
100
AcDbArc
 50
72.985025
 51
106.255566
  0
ARC
  5
7ED
100
AcDbEntity
  8
M0
100
AcDbCircle
 10
620.877408
 20
725.115459
 40
1.0
100
AcDbArc
 50
4.998384
 51
73.752035
  0
ARC
  5
7EE
100
AcDbEntity
  8
M0
100
AcDbCircle
 10
617.518765
 20
725.115459
 40
1.0
100
AcDbArc
 50
106.261219
 51
175.001555
  0
LINE
  5
7EF
100
AcDbEntity
  8
M0
100
AcDbLine
 10
616.448452
 20
724.355297
 11
616.522427
 21
725.202602
  0
LINE
  5
7F0
100
AcDbEntity
  8
M0
100
AcDbLine
 10
616.447964
 20
724.355175
 11
616.447964
 21
723.655224
  0
LINE
  5
7F1
100
AcDbEntity
  8
M0
100
AcDbLine
 10
619.198208
 20
723.655224
 11
618.698208
 21
724.355282
  0
LINE
  5
7F2
100
AcDbEntity
  8
M0
100
AcDbLine
 10
619.198208
 20
724.355282
 11
619.698208
 21
723.655224
  0
LINE
  5
7F3
100
AcDbEntity
  8
M0
100
AcDbLine
 10
621.947964
 20
723.655224
 11
616.447964
 21
723.655224
  0
LINE
  5
7F4
100
AcDbEntity
  8
M0
100
AcDbLine
 10
663.198208
 20
706.155224
 11
663.198208
 21
723.655224
  0
LINE
  5
7F5
100
AcDbEntity
  8
M0
100
AcDbLine
 10
663.198208
 20
723.655224
 11
615.198208
 21
723.655224
  0
LINE
  5
7F6
100
AcDbEntity
  8
M0
100
AcDbLine
 10
615.198208
 20
723.655224
 11
615.198208
 21
706.155224
  0
LINE
  5
7F7
100
AcDbEntity
  8
M0
100
AcDbLine
 10
615.198208
 20
706.155224
 11
663.198208
 21
706.155224
  0
LINE
  5
7F8
100
AcDbEntity
  8
M0
 62
   114
100
AcDbLine
 10
633.198208
 20
676.405224
 11
633.198208
 21
687.905224
  0
LINE
  5
7F9
100
AcDbEntity
  8
M0
 62
   114
100
AcDbLine
 10
632.398221
 20
676.405224
 11
633.198208
 21
676.405224
  0
LINE
  5
7FA
100
AcDbEntity
  8
M0
 62
   114
100
AcDbLine
 10
632.398221
 20
687.905224
 11
633.198208
 21
687.905224
  0
LINE
  5
7FB
100
AcDbEntity
  8
M0
 62
   114
100
AcDbLine
 10
632.398221
 20
676.405224
 11
632.398221
 21
687.905224
  0
LINE
  5
7FC
100
AcDbEntity
  8
M0
 62
   114
100
AcDbLine
 10
630.898221
 20
687.655224
 11
632.398221
 21
687.655224
  0
LINE
  5
7FD
100
AcDbEntity
  8
M0
 62
   114
100
AcDbLine
 10
630.898221
 20
676.655224
 11
632.398221
 21
676.655224
  0
ARC
  5
7FE
100
AcDbEntity
  8
M0
 62
   114
100
AcDbCircle
 10
640.998211
 20
682.155224
 40
14.0
100
AcDbArc
 50
182.455608
 51
196.072546
  0
ARC
  5
7FF
100
AcDbEntity
  8
M0
 62
   114
100
AcDbCircle
 10
640.998211
 20
682.155224
 40
14.0
100
AcDbArc
 50
163.926345
 51
177.543282
  0
LINE
  5
800
100
AcDbEntity
  8
M0
 62
   114
100
AcDbLine
 10
629.111081
 20
681.55537
 11
627.011075
 21
681.55537
  0
LINE
  5
801
100
AcDbEntity
  8
M0
 62
   114
100
AcDbLine
 10
629.111081
 20
682.755321
 11
629.111081
 21
681.55537
  0
LINE
  5
802
100
AcDbEntity
  8
M0
 62
   114
100
AcDbLine
 10
627.011075
 20
682.755321
 11
629.111081
 21
682.755321
  0
ARC
  5
803
100
AcDbEntity
  8
M0
 62
   114
100
AcDbCircle
 10
629.371197
 20
678.80537
 40
1.9
100
AcDbArc
 50
196.075393
 51
270.0
  0
LINE
  5
804
100
AcDbEntity
  8
M0
 62
   114
100
AcDbLine
 10
629.371197
 20
676.905224
 11
630.898221
 21
676.905224
  0
ARC
  5
805
100
AcDbEntity
  8
M0
 62
   114
100
AcDbCircle
 10
629.371197
 20
685.505321
 40
1.9
100
AcDbArc
 50
90.0
 51
163.924489
  0
LINE
  5
806
100
AcDbEntity
  8
M0
 62
   114
100
AcDbLine
 10
630.898221
 20
687.405224
 11
629.371197
 21
687.405224
  0
LINE
  5
807
100
AcDbEntity
  8
M0
 62
   114
100
AcDbLine
 10
630.898221
 20
687.655224
 11
630.898221
 21
676.655224
  0
LINE
  5
808
100
AcDbEntity
  8
M0
 62
   114
100
AcDbLine
 10
632.398221
 20
682.155224
 11
630.898221
 21
681.155224
  0
LINE
  5
809
100
AcDbEntity
  8
M0
 62
   114
100
AcDbLine
 10
630.898221
 20
682.155224
 11
632.398221
 21
683.155224
  0
LINE
  5
80A
100
AcDbEntity
  8
M0
 62
   114
100
AcDbLine
 10
686.698208
 20
684.155102
 11
686.698208
 21
692.155102
  0
LINE
  5
80B
100
AcDbEntity
  8
M0
 62
   114
100
AcDbLine
 10
687.198208
 20
684.155102
 11
687.198208
 21
692.155102
  0
LINE
  5
80C
100
AcDbEntity
  8
M0
 62
   114
100
AcDbLine
 10
685.698208
 20
691.655102
 11
686.698208
 21
691.655102
  0
LINE
  5
80D
100
AcDbEntity
  8
M0
 62
   114
100
AcDbLine
 10
685.698208
 20
684.655102
 11
686.698208
 21
684.655102
  0
LINE
  5
80E
100
AcDbEntity
  8
M0
 62
   114
100
AcDbLine
 10
686.698208
 20
692.155102
 11
687.198208
 21
692.155102
  0
LINE
  5
80F
100
AcDbEntity
  8
M0
 62
   114
100
AcDbLine
 10
686.698208
 20
684.155102
 11
687.198208
 21
684.155102
  0
LINE
  5
810
100
AcDbEntity
  8
M0
 62
   114
100
AcDbLine
 10
685.698208
 20
684.655224
 11
685.698208
 21
691.655224
  0
LINE
  5
811
100
AcDbEntity
  8
M0
 62
   114
100
AcDbLine
 10
703.698208
 20
686.155224
 11
703.698208
 21
690.155224
  0
LINE
  5
812
100
AcDbEntity
  8
M0
 62
   114
100
AcDbLine
 10
703.698208
 20
690.155224
 11
702.398208
 21
690.155224
  0
LINE
  5
813
100
AcDbEntity
  8
M0
 62
   114
100
AcDbLine
 10
685.698208
 20
690.155224
 11
685.698208
 21
686.155224
  0
LINE
  5
814
100
AcDbEntity
  8
M0
 62
   114
100
AcDbLine
 10
702.398208
 20
686.155224
 11
703.698208
 21
686.155224
  0
LINE
  5
815
100
AcDbEntity
  8
M0
 62
   114
100
AcDbLine
 10
685.698208
 20
691.655224
 11
684.719189
 21
691.655224
  0
ARC
  5
816
100
AcDbEntity
  8
M0
 62
   114
100
AcDbCircle
 10
684.719189
 20
690.355221
 40
1.299999
100
AcDbArc
 50
90.0
 51
163.398526
  0
LINE
  5
817
100
AcDbEntity
  8
M0
 62
   114
100
AcDbLine
 10
684.719189
 20
684.655224
 11
685.698208
 21
684.655224
  0
ARC
  5
818
100
AcDbEntity
  8
M0
 62
   114
100
AcDbCircle
 10
684.719189
 20
685.955227
 40
1.299999
100
AcDbArc
 50
196.601342
 51
270.0
  0
LINE
  5
819
100
AcDbEntity
  8
M0
 62
   114
100
AcDbLine
 10
702.398208
 20
689.855221
 11
703.698208
 21
689.855221
  0
LINE
  5
81A
100
AcDbEntity
  8
M0
 62
   114
100
AcDbLine
 10
702.398208
 20
686.455227
 11
703.698208
 21
686.455227
  0
LINE
  5
81B
100
AcDbEntity
  8
M0
 62
   114
100
AcDbLine
 10
683.112103
 20
688.655224
 11
684.512112
 21
688.655224
  0
LINE
  5
81C
100
AcDbEntity
  8
M0
 62
   114
100
AcDbLine
 10
684.512112
 20
688.655224
 11
684.512112
 21
687.655224
  0
LINE
  5
81D
100
AcDbEntity
  8
M0
 62
   114
100
AcDbLine
 10
684.512112
 20
687.655224
 11
683.112103
 21
687.655224
  0
ARC
  5
81E
100
AcDbEntity
  8
M0
 62
   114
100
AcDbCircle
 10
692.098202
 20
688.155224
 40
9.0
100
AcDbArc
 50
163.398401
 51
176.815183
  0
ARC
  5
81F
100
AcDbEntity
  8
M0
 62
   114
100
AcDbCircle
 10
692.098202
 20
688.155224
 40
9.0
100
AcDbArc
 50
183.18469
 51
196.601474
  0
LINE
  5
820
100
AcDbEntity
  8
M0
 62
   114
100
AcDbLine
 10
686.698208
 20
688.155224
 11
685.698208
 21
687.655224
  0
LINE
  5
821
100
AcDbEntity
  8
M0
 62
   114
100
AcDbLine
 10
685.698208
 20
688.155224
 11
686.698208
 21
688.655209
  0
LINE
  5
822
100
AcDbEntity
  8
M0
 62
     4
100
AcDbLine
 10
602.19827
 20
648.155209
 11
617.898205
 21
648.15521
  0
LINE
  5
823
100
AcDbEntity
  8
M0
 62
     4
100
AcDbLine
 10
646.198262
 20
660.155226
 11
638.198262
 21
660.155221
  0
LINE
  5
824
100
AcDbEntity
  8
M0
  6
DASHDOT
 62
     4
100
AcDbLine
 10
651.198266
 20
654.15523
 11
597.814416
 21
654.155206
  0
LINE
  5
825
100
AcDbEntity
  8
M0
 62
     4
100
AcDbLine
 10
638.198259
 20
665.118234
 11
638.198273
 21
643.192224
  0
LINE
  5
826
100
AcDbEntity
  8
M0
 62
     4
100
AcDbLine
 10
638.198273
 20
643.192224
 11
646.198273
 21
643.192229
  0
LINE
  5
827
100
AcDbEntity
  8
M0
 62
     4
100
AcDbLine
 10
646.198273
 20
643.192229
 11
646.198259
 21
665.118239
  0
LINE
  5
828
100
AcDbEntity
  8
M0
 62
     4
100
AcDbLine
 10
646.198259
 20
665.118239
 11
638.198259
 21
665.118234
  0
LINE
  5
829
100
AcDbEntity
  8
M0
 62
     4
100
AcDbLine
 10
602.19827
 20
648.155209
 11
602.198262
 21
660.155209
  0
LINE
  5
82A
100
AcDbEntity
  8
M0
 62
     4
100
AcDbLine
 10
617.898205
 20
660.15521
 11
602.198262
 21
660.155209
  0
LINE
  5
82B
100
AcDbEntity
  8
M0
 62
     4
100
AcDbLine
 10
638.19827
 20
648.155221
 11
646.19827
 21
648.155226
  0
LINE
  5
82C
100
AcDbEntity
  8
M0
 62
     6
100
AcDbLine
 10
617.897961
 20
643.205176
 11
627.897961
 21
643.205176
  0
LINE
  5
82D
100
AcDbEntity
  8
M0
 62
     6
100
AcDbLine
 10
627.898205
 20
643.205191
 11
627.898205
 21
665.105185
  0
LINE
  5
82E
100
AcDbEntity
  8
M0
 62
     6
100
AcDbLine
 10
617.898205
 20
665.105139
 11
617.898205
 21
643.20516
  0
LINE
  5
82F
100
AcDbEntity
  8
M0
 62
     6
100
AcDbLine
 10
627.897961
 20
648.680151
 11
617.897961
 21
648.680151
  0
LINE
  5
830
100
AcDbEntity
  8
M0
 62
     6
100
AcDbLine
 10
617.897717
 20
665.105169
 11
627.897961
 21
665.105169
  0
LINE
  5
831
100
AcDbEntity
  8
M0
 62
     6
100
AcDbLine
 10
627.897961
 20
659.630163
 11
617.897717
 21
659.630163
  0
LINE
  5
832
100
AcDbEntity
  8
M0
 62
     6
100
AcDbLine
 10
630.898205
 20
667.155255
 11
633.198208
 21
667.155257
  0
LINE
  5
833
100
AcDbEntity
  8
M0
 62
     6
100
AcDbLine
 10
633.198208
 20
667.155257
 11
633.198225
 21
641.155257
  0
LINE
  5
834
100
AcDbEntity
  8
M0
 62
     6
100
AcDbLine
 10
633.198225
 20
641.155257
 11
630.898222
 21
641.155255
  0
LINE
  5
835
100
AcDbEntity
  8
M0
 62
     6
100
AcDbLine
 10
630.898222
 20
641.155255
 11
630.898205
 21
667.155255
  0
LINE
  5
836
100
AcDbEntity
  8
M0
 62
     7
100
AcDbLine
 10
627.898205
 20
664.905371
 11
630.898205
 21
664.905371
  0
LINE
  5
837
100
AcDbEntity
  8
M0
 62
     7
100
AcDbLine
 10
630.898205
 20
664.905371
 11
630.898205
 21
643.405371
  0
LINE
  5
838
100
AcDbEntity
  8
M0
 62
     7
100
AcDbLine
 10
630.898205
 20
643.405371
 11
627.898205
 21
643.405371
  0
LINE
  5
839
100
AcDbEntity
  8
M0
 62
     7
100
AcDbLine
 10
627.898205
 20
643.405371
 11
627.898205
 21
664.905371
  0
LINE
  5
83A
100
AcDbEntity
  8
M0
 62
     7
100
AcDbLine
 10
627.898205
 20
654.155356
 11
630.898205
 21
655.887396
  0
LINE
  5
83B
100
AcDbEntity
  8
M0
 62
     7
100
AcDbLine
 10
627.898205
 20
652.42333
 11
630.898205
 21
654.155371
  0
LINE
  5
83C
100
AcDbEntity
  8
M0
 62
   234
100
AcDbLine
 10
633.198208
 20
676.655224
 11
633.198208
 21
692.155224
  0
LINE
  5
83D
100
AcDbEntity
  8
M0
 62
   234
100
AcDbLine
 10
623.698208
 20
676.655224
 11
630.898221
 21
676.655224
  0
LINE
  5
83E
100
AcDbEntity
  8
M0
 62
   234
100
AcDbLine
 10
613.198208
 20
673.155224
 11
620.198208
 21
673.155224
  0
LINE
  5
83F
100
AcDbEntity
  8
M0
 62
   234
100
AcDbLine
 10
620.198208
 20
673.155224
 11
623.698208
 21
676.655224
  0
LINE
  5
840
100
AcDbEntity
  8
M0
 62
   234
100
AcDbLine
 10
615.198208
 20
714.155224
 11
610.198208
 21
714.155224
  0
LINE
  5
841
100
AcDbEntity
  8
M0
 62
   234
100
AcDbLine
 10
610.198208
 20
714.155224
 11
610.198208
 21
708.655224
  0
LINE
  5
842
100
AcDbEntity
  8
M0
 62
   234
100
AcDbLine
 10
613.198208
 20
703.655224
 11
613.198208
 21
673.155224
  0
LINE
  5
843
100
AcDbEntity
  8
M0
 62
   234
100
AcDbLine
 10
616.998208
 20
703.655224
 11
613.198208
 21
703.655224
  0
ARC
  5
844
100
AcDbEntity
  8
M0
 62
   234
100
AcDbCircle
 10
616.998208
 20
706.155224
 40
2.5
100
AcDbArc
 50
270.0
 51
286.2601
  0
LINE
  5
845
100
AcDbEntity
  8
M0
 62
   234
100
AcDbLine
 10
613.198679
 20
708.655224
 11
615.198208
 21
708.655224
  0
LINE
  5
846
100
AcDbEntity
  8
M0
 62
   234
100
AcDbLine
 10
615.498208
 20
703.655224
 11
615.498208
 21
673.155224
  0
LINE
  5
847
100
AcDbEntity
  8
M0
 62
   234
100
AcDbLine
 10
613.198208
 20
679.155224
 11
615.498208
 21
679.155224
  0
LINE
  5
848
100
AcDbEntity
  8
M0
 62
     1
100
AcDbLine
 10
539.698932
 20
684.455179
 11
539.698932
 21
685.655176
  0
LINE
  5
849
100
AcDbEntity
  8
M0
 62
     1
100
AcDbLine
 10
539.698932
 20
706.655155
 11
539.698932
 21
707.855152
  0
LINE
  5
84A
100
AcDbEntity
  8
M0
 62
     1
100
AcDbLine
 10
555.198916
 20
684.455179
 11
539.698932
 21
684.455179
  0
LINE
  5
84B
100
AcDbEntity
  8
M0
 62
     1
100
AcDbLine
 10
555.198916
 20
707.855152
 11
539.698932
 21
707.855152
  0
LINE
  5
84C
100
AcDbEntity
  8
M0
 62
     1
100
AcDbLine
 10
555.198916
 20
685.655176
 11
551.398913
 21
685.655176
  0
LINE
  5
84D
100
AcDbEntity
  8
M0
 62
     1
100
AcDbLine
 10
555.198916
 20
685.655176
 11
555.198916
 21
684.455179
  0
LINE
  5
84E
100
AcDbEntity
  8
M0
 62
     1
100
AcDbLine
 10
542.698916
 20
686.355173
 11
546.84891
 21
686.355173
  0
LINE
  5
84F
100
AcDbEntity
  8
M0
 62
     1
100
AcDbLine
 10
542.698916
 20
705.955158
 11
546.84891
 21
705.955158
  0
LINE
  5
850
100
AcDbEntity
  8
M0
 62
     1
100
AcDbLine
 10
542.698916
 20
705.955158
 11
542.698916
 21
686.355173
  0
LINE
  5
851
100
AcDbEntity
  8
M0
 62
     1
100
AcDbLine
 10
551.398913
 20
708.655155
 11
551.398913
 21
684.455179
  0
LINE
  5
852
100
AcDbEntity
  8
M0
 62
     1
100
AcDbLine
 10
555.198916
 20
707.855152
 11
555.198916
 21
706.655155
  0
LINE
  5
853
100
AcDbEntity
  8
M0
 62
     1
100
AcDbLine
 10
542.398913
 20
707.855152
 11
542.398913
 21
709.155155
  0
LINE
  5
854
100
AcDbEntity
  8
M0
 62
     1
100
AcDbLine
 10
542.398913
 20
709.155155
 11
550.898913
 21
709.155155
  0
LINE
  5
855
100
AcDbEntity
  8
M0
 62
     1
100
AcDbLine
 10
613.198208
 20
706.655155
 11
551.398913
 21
706.655155
  0
LINE
  5
856
100
AcDbEntity
  8
M0
 62
     1
100
AcDbLine
 10
546.84891
 20
685.655176
 11
539.698932
 21
685.655176
  0
LINE
  5
857
100
AcDbEntity
  8
M0
 62
     1
100
AcDbLine
 10
546.84891
 20
706.655155
 11
539.698932
 21
706.655155
  0
ARC
  5
858
100
AcDbEntity
  8
M0
 62
     1
100
AcDbCircle
 10
546.84891
 20
706.305165
 40
0.35
100
AcDbArc
 50
270.0
 51
360.0
  0
ARC
  5
859
100
AcDbEntity
  8
M0
 62
     1
100
AcDbCircle
 10
546.84891
 20
706.305165
 40
0.35
100
AcDbArc
 50
0.0
 51
89.997502
  0
ARC
  5
85A
100
AcDbEntity
  8
M0
 62
     1
100
AcDbCircle
 10
546.84891
 20
686.005167
 40
0.35
100
AcDbArc
 50
270.0
 51
360.0
  0
ARC
  5
85B
100
AcDbEntity
  8
M0
 62
     1
100
AcDbCircle
 10
546.84891
 20
686.005167
 40
0.35
100
AcDbArc
 50
0.0
 51
89.997502
  0
ARC
  5
85C
100
AcDbEntity
  8
M0
 62
     1
100
AcDbCircle
 10
550.898913
 20
708.655155
 40
0.5
100
AcDbArc
 50
0.0
 51
89.998251
  0
LINE
  5
85D
100
AcDbEntity
  8
M0
 62
     1
100
AcDbLine
 10
541.202273
 20
689.90571
 11
542.698916
 21
689.90571
  0
LINE
  5
85E
100
AcDbEntity
  8
M0
 62
     1
100
AcDbLine
 10
542.698794
 20
696.405705
 11
541.202273
 21
696.405705
  0
LINE
  5
85F
100
AcDbEntity
  8
M0
 62
     1
100
AcDbLine
 10
540.702273
 20
695.90546
 11
540.702273
 21
690.40571
  0
ARC
  5
860
100
AcDbEntity
  8
M0
 62
     1
100
AcDbCircle
 10
541.202289
 20
695.90546
 40
0.5
100
AcDbArc
 50
89.998251
 51
179.999891
  0
ARC
  5
861
100
AcDbEntity
  8
M0
 62
     1
100
AcDbCircle
 10
541.202289
 20
690.40571
 40
0.5
100
AcDbArc
 50
179.998251
 51
270.0
  0
LINE
  5
862
100
AcDbEntity
  8
M0
 62
     1
100
AcDbLine
 10
613.198208
 20
671.655588
 11
613.198691
 21
709.655155
  0
LINE
  5
863
100
AcDbEntity
  8
M0
 62
     1
100
AcDbLine
 10
613.198821
 20
706.655579
 11
611.69775
 21
706.655201
  0
LINE
  5
864
100
AcDbEntity
  8
M0
 62
     1
100
AcDbLine
 10
538.198855
 20
707.656512
 11
538.198672
 21
691.656443
  0
LINE
  5
865
100
AcDbEntity
  8
M0
 62
     1
100
AcDbLine
 10
557.617679
 20
672.15629
 11
581.234302
 21
672.155985
  0
ARC
  5
866
100
AcDbEntity
  8
M0
 62
     1
100
AcDbCircle
 10
540.198871
 20
707.656487
 40
2.0
100
AcDbArc
 50
89.999563
 51
179.999962
  0
LINE
  5
867
100
AcDbEntity
  8
M0
 62
     1
100
AcDbLine
 10
542.698642
 20
685.656489
 11
542.698672
 21
688.906489
  0
LINE
  5
868
100
AcDbEntity
  8
M0
 62
     1
100
AcDbLine
 10
564.498889
 20
709.656197
 11
540.141284
 21
709.656506
  0
LINE
  5
869
100
AcDbEntity
  8
M0
 62
     1
100
AcDbLine
 10
555.019626
 20
673.656321
 11
549.715869
 21
673.656397
  0
LINE
  5
86A
100
AcDbEntity
  8
M0
 62
     1
100
AcDbLine
 10
544.520511
 20
684.45521
 11
546.818118
 21
675.879969
  0
ARC
  5
86B
100
AcDbEntity
  8
M0
 62
     1
100
AcDbCircle
 10
549.715899
 20
676.656397
 40
3.0
100
AcDbArc
 50
194.999447
 51
270.0
  0
LINE
  5
86C
100
AcDbEntity
  8
M0
 62
     1
100
AcDbLine
 10
552.020419
 20
684.45521
 11
554.719913
 21
674.379877
  0
ARC
  5
86D
100
AcDbEntity
  8
M0
 62
     1
100
AcDbCircle
 10
557.617709
 20
675.15629
 40
3.0
100
AcDbArc
 50
194.998884
 51
270.0
  0
LINE
  5
86E
100
AcDbEntity
  8
M0
 62
     1
100
AcDbLine
 10
542.698794
 20
697.406474
 11
542.698886
 21
705.656474
  0
ARC
  5
86F
100
AcDbEntity
  8
M0
 62
     1
100
AcDbCircle
 10
543.698886
 20
705.656462
 40
1.0
100
AcDbArc
 50
89.999126
 51
179.999945
  0
LINE
  5
870
100
AcDbEntity
  8
M0
 62
     1
100
AcDbLine
 10
538.198703
 20
693.656242
 11
540.702334
 21
693.65621
  0
LINE
  5
871
100
AcDbEntity
  8
M0
 62
     1
100
AcDbLine
 10
538.198672
 20
691.65626
 11
540.702334
 21
691.656214
  0
LINE
  5
872
100
AcDbEntity
  8
M0
 62
     1
100
AcDbLine
 10
556.545947
 20
676.156306
 11
566.198459
 21
676.156183
  0
ARC
  5
873
100
AcDbEntity
  8
M0
 62
     1
100
AcDbCircle
 10
556.545978
 20
679.156306
 40
3.0
100
AcDbArc
 50
194.999447
 51
270.0
  0
LINE
  5
874
100
AcDbEntity
  8
M0
 62
     1
100
AcDbLine
 10
569.198443
 20
674.156138
 11
580.698413
 21
674.156
  0
LINE
  5
875
100
AcDbEntity
  8
M0
 62
     1
100
AcDbLine
 10
583.572757
 20
669.15597
 11
587.398349
 21
669.155909
  0
LINE
  5
876
100
AcDbEntity
  8
M0
 62
     1
100
AcDbLine
 10
584.474658
 20
665.155955
 11
600.792166
 21
665.155741
  0
ARC
  5
877
100
AcDbEntity
  8
M0
 62
     1
100
AcDbCircle
 10
564.498858
 20
707.656121
 40
2.0
100
AcDbArc
 50
359.972343
 51
449.999563
  0
LINE
  5
878
100
AcDbEntity
  8
M0
 62
     1
100
AcDbLine
 10
602.524211
 20
666.155726
 11
605.699726
 21
671.65568
  0
ARC
  5
879
100
AcDbEntity
  8
M0
 62
     1
100
AcDbCircle
 10
600.792183
 20
667.155741
 40
2.0
100
AcDbArc
 50
270.0
 51
329.999445
  0
ARC
  5
87A
100
AcDbEntity
  8
M0
 62
     1
100
AcDbCircle
 10
583.572787
 20
671.15597
 40
2.0
100
AcDbArc
 50
194.999701
 51
270.0
  0
LINE
  5
87B
100
AcDbEntity
  8
M0
 62
     1
100
AcDbLine
 10
590.398318
 20
667.155878
 11
601.9469
 21
667.155726
  0
ARC
  5
87C
100
AcDbEntity
  8
M0
 62
     1
100
AcDbCircle
 10
601.946918
 20
669.155726
 40
2.0
100
AcDbArc
 50
270.0
 51
329.999445
  0
LINE
  5
87D
100
AcDbEntity
  8
M0
 62
     1
100
AcDbLine
 10
581.198428
 20
671.655985
 11
569.198398
 21
671.656138
  0
LINE
  5
87E
100
AcDbEntity
  8
M0
 62
     1
100
AcDbLine
 10
568.448413
 20
672.156153
 11
569.198398
 21
671.656138
  0
LINE
  5
87F
100
AcDbEntity
  8
M0
 62
     1
100
AcDbLine
 10
566.198459
 20
676.156183
 11
569.198443
 21
674.156138
  0
LINE
  5
880
100
AcDbEntity
  8
M0
 62
     1
100
AcDbLine
 10
605.699735
 20
671.65568
 11
613.198376
 21
671.655588
  0
LINE
  5
881
100
AcDbEntity
  8
M0
 62
     1
100
AcDbLine
 10
602.524235
 20
666.155726
 11
608.198307
 21
666.155649
  0
LINE
  5
882
100
AcDbEntity
  8
M0
 62
     1
100
AcDbLine
 10
610.198332
 20
668.155619
 11
610.198377
 21
671.655619
  0
ARC
  5
883
100
AcDbEntity
  8
M0
 62
     1
100
AcDbCircle
 10
608.198332
 20
668.155649
 40
2.0
100
AcDbArc
 50
270.0
 51
360.0
  0
LINE
  5
884
100
AcDbEntity
  8
M0
 62
     1
100
AcDbLine
 10
587.398349
 20
669.155909
 11
590.398318
 21
667.155878
  0
LINE
  5
885
100
AcDbEntity
  8
M0
 62
     1
100
AcDbLine
 10
548.057559
 20
674.156412
 11
545.179477
 21
674.156458
  0
LINE
  5
886
100
AcDbEntity
  8
M0
 62
     1
100
AcDbLine
 10
538.198657
 20
691.656458
 11
539.806598
 21
685.655207
  0
ARC
  5
887
100
AcDbEntity
  8
M0
 62
     1
100
AcDbCircle
 10
545.189517
 20
677.156428
 40
3.0
100
AcDbArc
 50
194.998884
 51
270.0
  0
LINE
  5
888
100
AcDbEntity
  8
M0
 62
     1
100
AcDbLine
 10
581.198398
 20
671.656046
 11
582.542819
 21
666.638331
  0
LINE
  5
889
100
AcDbEntity
  8
M0
 62
     1
100
AcDbLine
 10
580.698428
 20
674.156
 11
581.640933
 21
670.638346
  0
ARC
  5
88A
100
AcDbEntity
  8
M0
 62
     1
100
AcDbCircle
 10
584.474673
 20
667.155955
 40
2.0
100
AcDbArc
 50
194.999166
 51
270.0
  0
LINE
  5
88B
100
AcDbEntity
  8
M0
 62
     1
100
AcDbLine
 10
555.698154
 20
706.655211
 11
543.698901
 21
706.656462
  0
LINE
  5
88C
100
AcDbEntity
  8
M0
 62
     1
100
AcDbLine
 10
540.128131
 20
684.45521
 11
542.291736
 21
676.380015
  0
LINE
  5
88D
100
AcDbEntity
  8
M0
 62
     1
100
AcDbLine
 10
610.198666
 20
707.655155
 11
555.198916
 21
707.655155
  0
LINE
  5
88E
100
AcDbEntity
  8
M0
 62
     1
100
AcDbLine
 10
610.198691
 20
709.655155
 11
610.198653
 21
706.655155
  0
LINE
  5
88F
100
AcDbEntity
  8
M0
 62
     1
100
AcDbLine
 10
613.198208
 20
709.655155
 11
610.198691
 21
709.655155
  0
LINE
  5
890
100
AcDbEntity
  8
M0
100
AcDbLine
 10
249.311132
 20
959.15524
 11
279.311132
 21
959.155259
  0
LINE
  5
891
100
AcDbEntity
  8
M0
100
AcDbLine
 10
251.311157
 20
920.155166
 11
251.311156
 21
922.155246
  0
LINE
  5
892
100
AcDbEntity
  8
M0
100
AcDbLine
 10
277.311156
 20
922.155262
 11
277.311157
 21
920.155182
  0
LINE
  5
893
100
AcDbEntity
  8
M0
100
AcDbLine
 10
249.311151
 20
929.155245
 11
251.311156
 21
922.155246
  0
LINE
  5
894
100
AcDbEntity
  8
M0
100
AcDbLine
 10
249.311132
 20
959.15524
 11
249.311151
 21
929.155245
  0
LINE
  5
895
100
AcDbEntity
  8
M0
100
AcDbLine
 10
279.311132
 20
959.155259
 11
279.311151
 21
929.155263
  0
LINE
  5
896
100
AcDbEntity
  8
M0
100
AcDbLine
 10
277.311156
 20
922.155262
 11
279.311151
 21
929.155263
  0
CIRCLE
  5
897
100
AcDbEntity
  8
M0
100
AcDbCircle
 10
264.311142
 20
944.155253
 40
6.0
  0
LINE
  5
898
100
AcDbEntity
  8
M0
  6
DASHDOT
100
AcDbLine
 10
264.311149
 20
712.243339
 11
264.311149
 21
991.003288
  0
LINE
  5
899
100
AcDbEntity
  8
M0
  6
DASHDOT
100
AcDbLine
 10
244.644539
 20
944.155325
 11
283.977872
 21
944.155325
  0
LINE
  5
89A
100
AcDbEntity
  8
M0
  6
DASHDOT
100
AcDbLine
 10
264.311205
 20
924.488659
 11
264.311205
 21
963.821992
  0
LINE
  5
89B
100
AcDbEntity
  8
M0
 62
   234
100
AcDbLine
 10
272.861149
 20
714.155224
 11
255.761149
 21
714.155224
  0
LINE
  5
89C
100
AcDbEntity
  8
M0
 62
   234
100
AcDbLine
 10
255.761149
 20
709.655224
 11
258.061149
 21
709.655224
  0
LINE
  5
89D
100
AcDbEntity
  8
M0
 62
   234
100
AcDbLine
 10
270.561149
 20
708.655224
 11
272.861149
 21
708.655224
  0
LINE
  5
89E
100
AcDbEntity
  8
M0
 62
   234
100
AcDbLine
 10
270.561149
 20
714.155224
 11
270.561149
 21
707.655222
  0
LINE
  5
89F
100
AcDbEntity
  8
M0
 62
   234
100
AcDbLine
 10
272.861149
 20
714.155224
 11
272.861149
 21
707.655218
  0
LINE
  5
8A0
100
AcDbEntity
  8
M0
 62
   234
100
AcDbLine
 10
258.061149
 20
714.155224
 11
258.061149
 21
709.455207
  0
LINE
  5
8A1
100
AcDbEntity
  8
M0
 62
   234
100
AcDbLine
 10
255.761149
 20
714.155224
 11
255.761149
 21
709.455194
  0
LINE
  5
8A2
100
AcDbEntity
  8
M0
 62
   114
100
AcDbLine
 10
265.15975
 20
709.855159
 11
267.889032
 21
712.58444
  0
LINE
  5
8A3
100
AcDbEntity
  8
M0
 62
   114
100
AcDbLine
 10
262.959645
 20
707.655054
 11
264.311213
 21
709.006622
  0
LINE
  5
8A4
100
AcDbEntity
  8
M0
 62
   114
100
AcDbLine
 10
263.46273
 20
709.855105
 11
262.061179
 21
708.453554
  0
LINE
  5
8A5
100
AcDbEntity
  8
M0
 62
   114
100
AcDbLine
 10
267.04057
 20
713.432966
 11
264.311267
 21
710.703642
  0
LINE
  5
8A6
100
AcDbEntity
  8
M0
 62
   114
100
AcDbLine
 10
264.311213
 20
709.006622
 11
265.58404
 21
707.733796
  0
LINE
  5
8A7
100
AcDbEntity
  8
M0
 62
   114
100
AcDbLine
 10
262.189893
 20
711.127943
 11
263.46272
 21
709.855116
  0
LINE
  5
8A8
100
AcDbEntity
  8
M0
 62
   114
100
AcDbLine
 10
264.311256
 20
710.703653
 11
263.03843
 21
711.976479
  0
LINE
  5
8A9
100
AcDbEntity
  8
M0
 62
   114
100
AcDbLine
 10
266.432577
 20
708.582332
 11
265.15975
 21
709.855159
  0
LINE
  5
8AA
100
AcDbEntity
  8
M0
 62
   114
100
AcDbLine
 10
265.58404
 20
707.733796
 11
266.432577
 21
708.582332
  0
LINE
  5
8AB
100
AcDbEntity
  8
M0
 62
   114
100
AcDbLine
 10
263.03843
 20
711.976479
 11
262.189893
 21
711.127943
  0
ARC
  5
8AC
100
AcDbEntity
  8
M0
 62
   114
100
AcDbCircle
 10
264.311149
 20
709.855224
 40
4.5
100
AcDbArc
 50
357.452396
 51
545.099777
  0
LINE
  5
8AD
100
AcDbEntity
  8
M0
 62
   114
100
AcDbLine
 10
301.462558
 20
764.155299
 11
298.198846
 21
760.891588
  0
LINE
  5
8AE
100
AcDbEntity
  8
M0
 62
   114
100
AcDbLine
 10
305.574795
 20
768.267536
 11
302.311084
 21
765.003825
  0
LINE
  5
8AF
100
AcDbEntity
  8
M0
 62
   114
100
AcDbLine
 10
303.159567
 20
764.155342
 11
306.423299
 21
767.419074
  0
LINE
  5
8B0
100
AcDbEntity
  8
M0
 62
   114
100
AcDbLine
 10
299.047318
 20
760.043073
 11
302.311041
 21
763.306817
  0
LINE
  5
8B1
100
AcDbEntity
  8
M0
 62
   114
100
AcDbLine
 10
302.311051
 20
763.306806
 11
304.078818
 21
761.539039
  0
LINE
  5
8B2
100
AcDbEntity
  8
M0
 62
   114
100
AcDbLine
 10
299.694791
 20
765.923066
 11
301.462558
 21
764.155299
  0
LINE
  5
8B3
100
AcDbEntity
  8
M0
 62
   114
100
AcDbLine
 10
302.311084
 20
765.003825
 11
300.543317
 21
766.771592
  0
LINE
  5
8B4
100
AcDbEntity
  8
M0
 62
   114
100
AcDbLine
 10
304.927344
 20
762.387565
 11
303.159577
 21
764.155332
  0
LINE
  5
8B5
100
AcDbEntity
  8
M0
 62
   114
100
AcDbLine
 10
300.543317
 20
766.771592
 11
299.694791
 21
765.923066
  0
LINE
  5
8B6
100
AcDbEntity
  8
M0
 62
   114
100
AcDbLine
 10
304.078818
 20
761.539039
 11
304.927344
 21
762.387565
  0
ARC
  5
8B7
100
AcDbEntity
  8
M0
 62
   114
100
AcDbCircle
 10
302.311149
 20
764.155224
 40
5.25
100
AcDbArc
 50
17.75279
 51
342.24721
  0
LINE
  5
8B8
100
AcDbEntity
  8
M0
 62
   114
100
AcDbLine
 10
227.159739
 20
764.155148
 11
230.423451
 21
767.41886
  0
LINE
  5
8B9
100
AcDbEntity
  8
M0
 62
   114
100
AcDbLine
 10
223.047502
 20
760.042911
 11
226.311213
 21
763.306622
  0
LINE
  5
8BA
100
AcDbEntity
  8
M0
 62
   114
100
AcDbLine
 10
225.46273
 20
764.155105
 11
222.198998
 21
760.891373
  0
LINE
  5
8BB
100
AcDbEntity
  8
M0
 62
   114
100
AcDbLine
 10
229.574979
 20
768.267375
 11
226.311256
 21
765.003631
  0
LINE
  5
8BC
100
AcDbEntity
  8
M0
 62
   114
100
AcDbLine
 10
226.311246
 20
765.003642
 11
224.543479
 21
766.771409
  0
LINE
  5
8BD
100
AcDbEntity
  8
M0
 62
   114
100
AcDbLine
 10
228.927506
 20
762.387381
 11
227.159739
 21
764.155148
  0
LINE
  5
8BE
100
AcDbEntity
  8
M0
 62
   114
100
AcDbLine
 10
226.311213
 20
763.306622
 11
228.07898
 21
761.538855
  0
LINE
  5
8BF
100
AcDbEntity
  8
M0
 62
   114
100
AcDbLine
 10
223.694953
 20
765.922883
 11
225.46272
 21
764.155116
  0
LINE
  5
8C0
100
AcDbEntity
  8
M0
 62
   114
100
AcDbLine
 10
228.07898
 20
761.538855
 11
228.927506
 21
762.387381
  0
LINE
  5
8C1
100
AcDbEntity
  8
M0
 62
   114
100
AcDbLine
 10
224.543479
 20
766.771409
 11
223.694953
 21
765.922883
  0
ARC
  5
8C2
100
AcDbEntity
  8
M0
 62
   114
100
AcDbCircle
 10
226.311149
 20
764.155224
 40
5.25
100
AcDbArc
 50
197.75279
 51
522.24721
  0
LINE
  5
8C3
100
AcDbEntity
  8
M0
 62
     1
100
AcDbLine
 10
586.598126
 20
920.155224
 11
484.398126
 21
920.155224
  0
ARC
  5
8C4
100
AcDbEntity
  8
M0
 62
     1
100
AcDbCircle
 10
484.398126
 20
918.155224
 40
2.0
100
AcDbArc
 50
90.0
 51
180.0
  0
ARC
  5
8C5
100
AcDbEntity
  8
M0
 62
     1
100
AcDbCircle
 10
484.398126
 20
922.155224
 40
2.0
100
AcDbArc
 50
90.0
 51
180.0
  0
LINE
  5
8C6
100
AcDbEntity
  8
M0
 62
     1
100
AcDbLine
 10
578.598126
 20
927.155224
 11
578.598126
 21
924.155224
  0
LINE
  5
8C7
100
AcDbEntity
  8
M0
 62
     1
100
AcDbLine
 10
542.598126
 20
924.155224
 11
542.598126
 21
926.155224
  0
ARC
  5
8C8
100
AcDbEntity
  8
M0
 62
     1
100
AcDbCircle
 10
543.598126
 20
926.155224
 40
1.0
100
AcDbArc
 50
90.0
 51
180.0
  0
LINE
  5
8C9
100
AcDbEntity
  8
M0
 62
     1
100
AcDbLine
 10
543.598126
 20
927.155224
 11
578.598126
 21
927.155224
  0
LINE
  5
8CA
100
AcDbEntity
  8
M0
 62
     1
100
AcDbLine
 10
484.398126
 20
924.155224
 11
542.598126
 21
924.155224
  0
LINE
  5
8CB
100
AcDbEntity
  8
M0
 62
     1
100
AcDbLine
 10
578.598126
 20
924.155224
 11
586.598126
 21
924.155224
  0
LINE
  5
8CC
100
AcDbEntity
  8
M0
 62
     1
100
AcDbLine
 10
586.598126
 20
778.155224
 11
484.398126
 21
778.155224
  0
ARC
  5
8CD
100
AcDbEntity
  8
M0
 62
     1
100
AcDbCircle
 10
484.398126
 20
780.155224
 40
2.0
100
AcDbArc
 50
180.0
 51
270.0
  0
ARC
  5
8CE
100
AcDbEntity
  8
M0
 62
     1
100
AcDbCircle
 10
484.398126
 20
776.155224
 40
2.0
100
AcDbArc
 50
180.0
 51
270.0
  0
LINE
  5
8CF
100
AcDbEntity
  8
M0
 62
     1
100
AcDbLine
 10
578.598126
 20
771.155224
 11
578.598126
 21
774.155224
  0
LINE
  5
8D0
100
AcDbEntity
  8
M0
 62
     1
100
AcDbLine
 10
542.598126
 20
774.155224
 11
542.598126
 21
772.155224
  0
ARC
  5
8D1
100
AcDbEntity
  8
M0
 62
     1
100
AcDbCircle
 10
543.598126
 20
772.155224
 40
1.0
100
AcDbArc
 50
180.0
 51
270.0
  0
LINE
  5
8D2
100
AcDbEntity
  8
M0
 62
     1
100
AcDbLine
 10
543.598126
 20
771.155224
 11
578.598126
 21
771.155224
  0
LINE
  5
8D3
100
AcDbEntity
  8
M0
 62
     1
100
AcDbLine
 10
484.398126
 20
774.155224
 11
542.598126
 21
774.155224
  0
LINE
  5
8D4
100
AcDbEntity
  8
M0
 62
     1
100
AcDbLine
 10
578.598126
 20
774.155224
 11
586.598126
 21
774.155224
  0
LINE
  5
8D5
100
AcDbEntity
  8
M0
 62
     1
100
AcDbLine
 10
482.398126
 20
922.155224
 11
482.398126
 21
776.155224
  0
LINE
  5
8D6
100
AcDbEntity
  8
M0
 62
     1
100
AcDbLine
 10
586.598126
 20
774.155224
 11
586.598126
 21
828.39878
  0
LINE
  5
8D7
100
AcDbEntity
  8
M0
 62
     1
100
AcDbLine
 10
586.598126
 20
891.911668
 11
586.598126
 21
924.155224
  0
LINE
  5
8D8
100
AcDbEntity
  8
M0
 62
     1
100
AcDbLine
 10
319.311149
 20
915.155224
 11
299.311149
 21
915.155224
  0
LINE
  5
8D9
100
AcDbEntity
  8
M0
 62
     1
100
AcDbLine
 10
274.311149
 20
915.155224
 11
264.311149
 21
915.155224
  0
ARC
  5
8DA
100
AcDbEntity
  8
M0
 62
     1
100
AcDbCircle
 10
293.811149
 20
925.155224
 40
2.0
100
AcDbArc
 50
0.0
 51
90.0
  0
LINE
  5
8DB
100
AcDbEntity
  8
M0
 62
     1
100
AcDbLine
 10
293.811149
 20
927.155224
 11
284.811149
 21
927.155224
  0
ARC
  5
8DC
100
AcDbEntity
  8
M0
 62
     1
100
AcDbCircle
 10
284.811149
 20
925.155224
 40
2.0
100
AcDbArc
 50
90.0
 51
180.0
  0
ARC
  5
8DD
100
AcDbEntity
  8
M0
 62
     1
100
AcDbCircle
 10
328.311149
 20
915.155224
 40
5.0
100
AcDbArc
 50
0.0
 51
90.0
  0
LINE
  5
8DE
100
AcDbEntity
  8
M0
 62
     1
100
AcDbLine
 10
274.311149
 20
918.155224
 11
274.311149
 21
915.155224
  0
ARC
  5
8DF
100
AcDbEntity
  8
M0
 62
     1
100
AcDbCircle
 10
276.311149
 20
918.155224
 40
2.0
100
AcDbArc
 50
90.0
 51
180.0
  0
LINE
  5
8E0
100
AcDbEntity
  8
M0
 62
     1
100
AcDbLine
 10
319.311149
 20
918.155224
 11
319.311149
 21
915.155224
  0
ARC
  5
8E1
100
AcDbEntity
  8
M0
 62
     1
100
AcDbCircle
 10
321.311149
 20
918.155224
 40
2.0
100
AcDbArc
 50
90.0
 51
180.0
  0
LINE
  5
8E2
100
AcDbEntity
  8
M0
 62
     1
100
AcDbLine
 10
299.311149
 20
918.155224
 11
299.311149
 21
915.155224
  0
ARC
  5
8E3
100
AcDbEntity
  8
M0
 62
     1
100
AcDbCircle
 10
297.311149
 20
918.155224
 40
2.0
100
AcDbArc
 50
0.0
 51
90.0
  0
LINE
  5
8E4
100
AcDbEntity
  8
M0
 62
     1
100
AcDbLine
 10
295.811149
 20
925.155224
 11
295.811149
 21
921.155224
  0
LINE
  5
8E5
100
AcDbEntity
  8
M0
 62
     1
100
AcDbLine
 10
328.311149
 20
920.155224
 11
296.811149
 21
920.155224
  0
ARC
  5
8E6
100
AcDbEntity
  8
M0
 62
     1
100
AcDbCircle
 10
296.811149
 20
921.155224
 40
1.0
100
AcDbArc
 50
180.0
 51
270.0
  0
LINE
  5
8E7
100
AcDbEntity
  8
M0
 62
     1
100
AcDbLine
 10
282.811149
 20
925.155224
 11
282.811149
 21
921.155224
  0
ARC
  5
8E8
100
AcDbEntity
  8
M0
 62
     1
100
AcDbCircle
 10
281.811149
 20
921.155224
 40
1.0
100
AcDbArc
 50
270.0
 51
360.0
  0
ARC
  5
8E9
100
AcDbEntity
  8
M0
 62
     1
100
AcDbCircle
 10
287.811149
 20
921.155224
 40
1.0
100
AcDbArc
 50
180.0
 51
270.0
  0
LINE
  5
8EA
100
AcDbEntity
  8
M0
 62
     1
100
AcDbLine
 10
290.811149
 20
920.155224
 11
287.811149
 21
920.155224
  0
ARC
  5
8EB
100
AcDbEntity
  8
M0
 62
     1
100
AcDbCircle
 10
290.811149
 20
921.155224
 40
1.0
100
AcDbArc
 50
270.0
 51
360.0
  0
ARC
  5
8EC
100
AcDbEntity
  8
M0
 62
     1
100
AcDbCircle
 10
292.811149
 20
923.155224
 40
1.0
100
AcDbArc
 50
90.0
 51
180.0
  0
ARC
  5
8ED
100
AcDbEntity
  8
M0
 62
     1
100
AcDbCircle
 10
285.811149
 20
923.155224
 40
1.0
100
AcDbArc
 50
0.0
 51
90.0
  0
LINE
  5
8EE
100
AcDbEntity
  8
M0
 62
     1
100
AcDbLine
 10
294.811149
 20
924.155224
 11
292.811149
 21
924.155224
  0
ARC
  5
8EF
100
AcDbEntity
  8
M0
 62
     1
100
AcDbCircle
 10
294.811149
 20
923.155224
 40
1.0
100
AcDbArc
 50
0.0
 51
90.0
  0
LINE
  5
8F0
100
AcDbEntity
  8
M0
 62
     1
100
AcDbLine
 10
285.811149
 20
924.155224
 11
283.811149
 21
924.155224
  0
ARC
  5
8F1
100
AcDbEntity
  8
M0
 62
     1
100
AcDbCircle
 10
283.811149
 20
923.155224
 40
1.0
100
AcDbArc
 50
90.0
 51
180.0
  0
LINE
  5
8F2
100
AcDbEntity
  8
M0
 62
     1
100
AcDbLine
 10
290.311149
 20
927.155224
 11
290.311149
 21
924.155224
  0
LINE
  5
8F3
100
AcDbEntity
  8
M0
 62
     1
100
AcDbLine
 10
288.311149
 20
927.155224
 11
288.311149
 21
924.155224
  0
LINE
  5
8F4
100
AcDbEntity
  8
M0
 62
     1
100
AcDbLine
 10
291.811149
 20
923.655224
 11
291.811149
 21
921.155224
  0
LINE
  5
8F5
100
AcDbEntity
  8
M0
 62
     1
100
AcDbLine
 10
290.311149
 20
924.155224
 11
291.311149
 21
924.155224
  0
ARC
  5
8F6
100
AcDbEntity
  8
M0
 62
     1
100
AcDbCircle
 10
291.311149
 20
923.655224
 40
0.5
100
AcDbArc
 50
0.0
 51
90.0
  0
LINE
  5
8F7
100
AcDbEntity
  8
M0
 62
     1
100
AcDbLine
 10
287.311149
 20
924.155224
 11
288.311149
 21
924.155224
  0
LINE
  5
8F8
100
AcDbEntity
  8
M0
 62
     1
100
AcDbLine
 10
286.811149
 20
923.655224
 11
286.811149
 21
921.155224
  0
ARC
  5
8F9
100
AcDbEntity
  8
M0
 62
     1
100
AcDbCircle
 10
287.311149
 20
923.655224
 40
0.5
100
AcDbArc
 50
90.0
 51
180.0
  0
LINE
  5
8FA
100
AcDbEntity
  8
M0
 62
     1
100
AcDbLine
 10
286.811149
 20
921.655224
 11
291.811149
 21
921.655224
  0
LINE
  5
8FB
100
AcDbEntity
  8
M0
 62
     1
100
AcDbLine
 10
281.811149
 20
920.155224
 11
264.311149
 21
920.155224
  0
LINE
  5
8FC
100
AcDbEntity
  8
M0
 62
     1
100
AcDbLine
 10
333.311149
 20
849.155224
 11
333.311149
 21
915.155224
  0
LINE
  5
8FD
100
AcDbEntity
  8
M0
 62
     1
100
AcDbLine
 10
209.311149
 20
915.155224
 11
229.311149
 21
915.155224
  0
LINE
  5
8FE
100
AcDbEntity
  8
M0
 62
     1
100
AcDbLine
 10
254.311149
 20
915.155224
 11
264.311149
 21
915.155224
  0
ARC
  5
8FF
100
AcDbEntity
  8
M0
 62
     1
100
AcDbCircle
 10
234.811149
 20
925.155224
 40
2.0
100
AcDbArc
 50
90.0
 51
180.0
  0
LINE
  5
900
100
AcDbEntity
  8
M0
 62
     1
100
AcDbLine
 10
234.811149
 20
927.155224
 11
243.811149
 21
927.155224
  0
ARC
  5
901
100
AcDbEntity
  8
M0
 62
     1
100
AcDbCircle
 10
243.811149
 20
925.155224
 40
2.0
100
AcDbArc
 50
0.0
 51
90.0
  0
ARC
  5
902
100
AcDbEntity
  8
M0
 62
     1
100
AcDbCircle
 10
200.311149
 20
915.155224
 40
5.0
100
AcDbArc
 50
90.0
 51
180.0
  0
LINE
  5
903
100
AcDbEntity
  8
M0
 62
     1
100
AcDbLine
 10
254.311149
 20
918.155224
 11
254.311149
 21
915.155224
  0
ARC
  5
904
100
AcDbEntity
  8
M0
 62
     1
100
AcDbCircle
 10
252.311149
 20
918.155224
 40
2.0
100
AcDbArc
 50
0.0
 51
90.0
  0
LINE
  5
905
100
AcDbEntity
  8
M0
 62
     1
100
AcDbLine
 10
209.311149
 20
918.155224
 11
209.311149
 21
915.155224
  0
ARC
  5
906
100
AcDbEntity
  8
M0
 62
     1
100
AcDbCircle
 10
207.311149
 20
918.155224
 40
2.0
100
AcDbArc
 50
0.0
 51
90.0
  0
LINE
  5
907
100
AcDbEntity
  8
M0
 62
     1
100
AcDbLine
 10
229.311149
 20
918.155224
 11
229.311149
 21
915.155224
  0
ARC
  5
908
100
AcDbEntity
  8
M0
 62
     1
100
AcDbCircle
 10
231.311149
 20
918.155224
 40
2.0
100
AcDbArc
 50
90.0
 51
180.0
  0
LINE
  5
909
100
AcDbEntity
  8
M0
 62
     1
100
AcDbLine
 10
232.811149
 20
925.155224
 11
232.811149
 21
921.155224
  0
LINE
  5
90A
100
AcDbEntity
  8
M0
 62
     1
100
AcDbLine
 10
200.311149
 20
920.155224
 11
231.811149
 21
920.155224
  0
ARC
  5
90B
100
AcDbEntity
  8
M0
 62
     1
100
AcDbCircle
 10
231.811149
 20
921.155224
 40
1.0
100
AcDbArc
 50
-90.0
 51
0.0
  0
LINE
  5
90C
100
AcDbEntity
  8
M0
 62
     1
100
AcDbLine
 10
245.811149
 20
925.155224
 11
245.811149
 21
921.155224
  0
ARC
  5
90D
100
AcDbEntity
  8
M0
 62
     1
100
AcDbCircle
 10
246.811149
 20
921.155224
 40
1.0
100
AcDbArc
 50
180.0
 51
270.0
  0
ARC
  5
90E
100
AcDbEntity
  8
M0
 62
     1
100
AcDbCircle
 10
240.811149
 20
921.155224
 40
1.0
100
AcDbArc
 50
-90.0
 51
0.0
  0
LINE
  5
90F
100
AcDbEntity
  8
M0
 62
     1
100
AcDbLine
 10
237.811149
 20
920.155224
 11
240.811149
 21
920.155224
  0
ARC
  5
910
100
AcDbEntity
  8
M0
 62
     1
100
AcDbCircle
 10
237.811149
 20
921.155224
 40
1.0
100
AcDbArc
 50
180.0
 51
270.0
  0
ARC
  5
911
100
AcDbEntity
  8
M0
 62
     1
100
AcDbCircle
 10
235.811149
 20
923.155224
 40
1.0
100
AcDbArc
 50
0.0
 51
90.0
  0
ARC
  5
912
100
AcDbEntity
  8
M0
 62
     1
100
AcDbCircle
 10
242.811149
 20
923.155224
 40
1.0
100
AcDbArc
 50
90.0
 51
180.0
  0
LINE
  5
913
100
AcDbEntity
  8
M0
 62
     1
100
AcDbLine
 10
233.811149
 20
924.155224
 11
235.811149
 21
924.155224
  0
ARC
  5
914
100
AcDbEntity
  8
M0
 62
     1
100
AcDbCircle
 10
233.811149
 20
923.155224
 40
1.0
100
AcDbArc
 50
90.0
 51
180.0
  0
LINE
  5
915
100
AcDbEntity
  8
M0
 62
     1
100
AcDbLine
 10
242.811149
 20
924.155224
 11
244.811149
 21
924.155224
  0
ARC
  5
916
100
AcDbEntity
  8
M0
 62
     1
100
AcDbCircle
 10
244.811149
 20
923.155224
 40
1.0
100
AcDbArc
 50
0.0
 51
90.0
  0
LINE
  5
917
100
AcDbEntity
  8
M0
 62
     1
100
AcDbLine
 10
238.311149
 20
927.155224
 11
238.311149
 21
924.155224
  0
LINE
  5
918
100
AcDbEntity
  8
M0
 62
     1
100
AcDbLine
 10
240.311149
 20
927.155224
 11
240.311149
 21
924.155224
  0
LINE
  5
919
100
AcDbEntity
  8
M0
 62
     1
100
AcDbLine
 10
236.811149
 20
923.655224
 11
236.811149
 21
921.155224
  0
LINE
  5
91A
100
AcDbEntity
  8
M0
 62
     1
100
AcDbLine
 10
238.311149
 20
924.155224
 11
237.311149
 21
924.155224
  0
ARC
  5
91B
100
AcDbEntity
  8
M0
 62
     1
100
AcDbCircle
 10
237.311149
 20
923.655224
 40
0.5
100
AcDbArc
 50
90.0
 51
180.0
  0
LINE
  5
91C
100
AcDbEntity
  8
M0
 62
     1
100
AcDbLine
 10
241.311149
 20
924.155224
 11
240.311149
 21
924.155224
  0
LINE
  5
91D
100
AcDbEntity
  8
M0
 62
     1
100
AcDbLine
 10
241.811149
 20
923.655224
 11
241.811149
 21
921.155224
  0
ARC
  5
91E
100
AcDbEntity
  8
M0
 62
     1
100
AcDbCircle
 10
241.311149
 20
923.655224
 40
0.5
100
AcDbArc
 50
0.0
 51
90.0
  0
LINE
  5
91F
100
AcDbEntity
  8
M0
 62
     1
100
AcDbLine
 10
241.811149
 20
921.655224
 11
236.811149
 21
921.655224
  0
LINE
  5
920
100
AcDbEntity
  8
M0
 62
     1
100
AcDbLine
 10
246.811149
 20
920.155224
 11
264.311149
 21
920.155224
  0
LINE
  5
921
100
AcDbEntity
  8
M0
 62
     1
100
AcDbLine
 10
195.311149
 20
849.155224
 11
195.311149
 21
915.155224
  0
LINE
  5
922
100
AcDbEntity
  8
M0
 62
     1
100
AcDbLine
 10
319.311149
 20
783.155224
 11
299.311149
 21
783.155224
  0
LINE
  5
923
100
AcDbEntity
  8
M0
 62
     1
100
AcDbLine
 10
274.311149
 20
783.155224
 11
264.311149
 21
783.155224
  0
ARC
  5
924
100
AcDbEntity
  8
M0
 62
     1
100
AcDbCircle
 10
293.811149
 20
773.155224
 40
2.0
100
AcDbArc
 50
-90.0
 51
0.0
  0
LINE
  5
925
100
AcDbEntity
  8
M0
 62
     1
100
AcDbLine
 10
293.811149
 20
771.155224
 11
284.811149
 21
771.155224
  0
ARC
  5
926
100
AcDbEntity
  8
M0
 62
     1
100
AcDbCircle
 10
284.811149
 20
773.155224
 40
2.0
100
AcDbArc
 50
180.0
 51
270.0
  0
ARC
  5
927
100
AcDbEntity
  8
M0
 62
     1
100
AcDbCircle
 10
328.311149
 20
783.155224
 40
5.0
100
AcDbArc
 50
-90.0
 51
0.0
  0
LINE
  5
928
100
AcDbEntity
  8
M0
 62
     1
100
AcDbLine
 10
274.311149
 20
780.155224
 11
274.311149
 21
783.155224
  0
ARC
  5
929
100
AcDbEntity
  8
M0
 62
     1
100
AcDbCircle
 10
276.311149
 20
780.155224
 40
2.0
100
AcDbArc
 50
180.0
 51
270.0
  0
LINE
  5
92A
100
AcDbEntity
  8
M0
 62
     1
100
AcDbLine
 10
319.311149
 20
780.155224
 11
319.311149
 21
783.155224
  0
ARC
  5
92B
100
AcDbEntity
  8
M0
 62
     1
100
AcDbCircle
 10
321.311149
 20
780.155224
 40
2.0
100
AcDbArc
 50
180.0
 51
270.0
  0
LINE
  5
92C
100
AcDbEntity
  8
M0
 62
     1
100
AcDbLine
 10
299.311149
 20
780.155224
 11
299.311149
 21
783.155224
  0
ARC
  5
92D
100
AcDbEntity
  8
M0
 62
     1
100
AcDbCircle
 10
297.311149
 20
780.155224
 40
2.0
100
AcDbArc
 50
-90.0
 51
0.0
  0
LINE
  5
92E
100
AcDbEntity
  8
M0
 62
     1
100
AcDbLine
 10
295.811149
 20
773.155224
 11
295.811149
 21
777.155224
  0
LINE
  5
92F
100
AcDbEntity
  8
M0
 62
     1
100
AcDbLine
 10
328.311149
 20
778.155224
 11
296.811149
 21
778.155224
  0
ARC
  5
930
100
AcDbEntity
  8
M0
 62
     1
100
AcDbCircle
 10
296.811149
 20
777.155224
 40
1.0
100
AcDbArc
 50
90.0
 51
180.0
  0
LINE
  5
931
100
AcDbEntity
  8
M0
 62
     1
100
AcDbLine
 10
282.811149
 20
773.155224
 11
282.811149
 21
777.155224
  0
ARC
  5
932
100
AcDbEntity
  8
M0
 62
     1
100
AcDbCircle
 10
281.811149
 20
777.155224
 40
1.0
100
AcDbArc
 50
0.0
 51
90.0
  0
ARC
  5
933
100
AcDbEntity
  8
M0
 62
     1
100
AcDbCircle
 10
287.811149
 20
777.155224
 40
1.0
100
AcDbArc
 50
90.0
 51
180.0
  0
LINE
  5
934
100
AcDbEntity
  8
M0
 62
     1
100
AcDbLine
 10
290.811149
 20
778.155224
 11
287.811149
 21
778.155224
  0
ARC
  5
935
100
AcDbEntity
  8
M0
 62
     1
100
AcDbCircle
 10
290.811149
 20
777.155224
 40
1.0
100
AcDbArc
 50
0.0
 51
90.0
  0
ARC
  5
936
100
AcDbEntity
  8
M0
 62
     1
100
AcDbCircle
 10
292.811149
 20
775.155224
 40
1.0
100
AcDbArc
 50
180.0
 51
270.0
  0
ARC
  5
937
100
AcDbEntity
  8
M0
 62
     1
100
AcDbCircle
 10
285.811149
 20
775.155224
 40
1.0
100
AcDbArc
 50
-90.0
 51
0.0
  0
LINE
  5
938
100
AcDbEntity
  8
M0
 62
     1
100
AcDbLine
 10
294.811149
 20
774.155224
 11
292.811149
 21
774.155224
  0
ARC
  5
939
100
AcDbEntity
  8
M0
 62
     1
100
AcDbCircle
 10
294.811149
 20
775.155224
 40
1.0
100
AcDbArc
 50
-90.0
 51
0.0
  0
LINE
  5
93A
100
AcDbEntity
  8
M0
 62
     1
100
AcDbLine
 10
285.811149
 20
774.155224
 11
283.811149
 21
774.155224
  0
ARC
  5
93B
100
AcDbEntity
  8
M0
 62
     1
100
AcDbCircle
 10
283.811149
 20
775.155224
 40
1.0
100
AcDbArc
 50
180.0
 51
270.0
  0
LINE
  5
93C
100
AcDbEntity
  8
M0
 62
     1
100
AcDbLine
 10
290.311149
 20
771.155224
 11
290.311149
 21
774.155224
  0
LINE
  5
93D
100
AcDbEntity
  8
M0
 62
     1
100
AcDbLine
 10
288.311149
 20
771.155224
 11
288.311149
 21
774.155224
  0
LINE
  5
93E
100
AcDbEntity
  8
M0
 62
     1
100
AcDbLine
 10
291.811149
 20
774.655224
 11
291.811149
 21
777.155224
  0
LINE
  5
93F
100
AcDbEntity
  8
M0
 62
     1
100
AcDbLine
 10
290.311149
 20
774.155224
 11
291.311149
 21
774.155224
  0
ARC
  5
940
100
AcDbEntity
  8
M0
 62
     1
100
AcDbCircle
 10
291.311149
 20
774.655224
 40
0.5
100
AcDbArc
 50
-90.0
 51
0.0
  0
LINE
  5
941
100
AcDbEntity
  8
M0
 62
     1
100
AcDbLine
 10
287.311149
 20
774.155224
 11
288.311149
 21
774.155224
  0
LINE
  5
942
100
AcDbEntity
  8
M0
 62
     1
100
AcDbLine
 10
286.811149
 20
774.655224
 11
286.811149
 21
777.155224
  0
ARC
  5
943
100
AcDbEntity
  8
M0
 62
     1
100
AcDbCircle
 10
287.311149
 20
774.655224
 40
0.5
100
AcDbArc
 50
180.0
 51
270.0
  0
LINE
  5
944
100
AcDbEntity
  8
M0
 62
     1
100
AcDbLine
 10
286.811149
 20
776.655224
 11
291.811149
 21
776.655224
  0
LINE
  5
945
100
AcDbEntity
  8
M0
 62
     1
100
AcDbLine
 10
281.811149
 20
778.155224
 11
264.311149
 21
778.155224
  0
LINE
  5
946
100
AcDbEntity
  8
M0
 62
     1
100
AcDbLine
 10
333.311149
 20
849.155224
 11
333.311149
 21
783.155224
  0
LINE
  5
947
100
AcDbEntity
  8
M0
 62
     1
100
AcDbLine
 10
209.311149
 20
783.155224
 11
229.311149
 21
783.155224
  0
LINE
  5
948
100
AcDbEntity
  8
M0
 62
     1
100
AcDbLine
 10
254.311149
 20
783.155224
 11
264.311149
 21
783.155224
  0
ARC
  5
949
100
AcDbEntity
  8
M0
 62
     1
100
AcDbCircle
 10
234.811149
 20
773.155224
 40
2.0
100
AcDbArc
 50
180.0
 51
270.0
  0
LINE
  5
94A
100
AcDbEntity
  8
M0
 62
     1
100
AcDbLine
 10
234.811149
 20
771.155224
 11
243.811149
 21
771.155224
  0
ARC
  5
94B
100
AcDbEntity
  8
M0
 62
     1
100
AcDbCircle
 10
243.811149
 20
773.155224
 40
2.0
100
AcDbArc
 50
270.0
 51
360.0
  0
ARC
  5
94C
100
AcDbEntity
  8
M0
 62
     1
100
AcDbCircle
 10
200.311149
 20
783.155224
 40
5.0
100
AcDbArc
 50
180.0
 51
270.0
  0
LINE
  5
94D
100
AcDbEntity
  8
M0
 62
     1
100
AcDbLine
 10
254.311149
 20
780.155224
 11
254.311149
 21
783.155224
  0
ARC
  5
94E
100
AcDbEntity
  8
M0
 62
     1
100
AcDbCircle
 10
252.311149
 20
780.155224
 40
2.0
100
AcDbArc
 50
270.0
 51
360.0
  0
LINE
  5
94F
100
AcDbEntity
  8
M0
 62
     1
100
AcDbLine
 10
209.311149
 20
780.155224
 11
209.311149
 21
783.155224
  0
ARC
  5
950
100
AcDbEntity
  8
M0
 62
     1
100
AcDbCircle
 10
207.311149
 20
780.155224
 40
2.0
100
AcDbArc
 50
270.0
 51
360.0
  0
LINE
  5
951
100
AcDbEntity
  8
M0
 62
     1
100
AcDbLine
 10
229.311149
 20
780.155224
 11
229.311149
 21
783.155224
  0
ARC
  5
952
100
AcDbEntity
  8
M0
 62
     1
100
AcDbCircle
 10
231.311149
 20
780.155224
 40
2.0
100
AcDbArc
 50
180.0
 51
270.0
  0
LINE
  5
953
100
AcDbEntity
  8
M0
 62
     1
100
AcDbLine
 10
232.811149
 20
773.155224
 11
232.811149
 21
777.155224
  0
LINE
  5
954
100
AcDbEntity
  8
M0
 62
     1
100
AcDbLine
 10
200.311149
 20
778.155224
 11
231.811149
 21
778.155224
  0
ARC
  5
955
100
AcDbEntity
  8
M0
 62
     1
100
AcDbCircle
 10
231.811149
 20
777.155224
 40
1.0
100
AcDbArc
 50
0.0
 51
90.0
  0
LINE
  5
956
100
AcDbEntity
  8
M0
 62
     1
100
AcDbLine
 10
245.811149
 20
773.155224
 11
245.811149
 21
777.155224
  0
ARC
  5
957
100
AcDbEntity
  8
M0
 62
     1
100
AcDbCircle
 10
246.811149
 20
777.155224
 40
1.0
100
AcDbArc
 50
90.0
 51
180.0
  0
ARC
  5
958
100
AcDbEntity
  8
M0
 62
     1
100
AcDbCircle
 10
240.811149
 20
777.155224
 40
1.0
100
AcDbArc
 50
0.0
 51
90.0
  0
LINE
  5
959
100
AcDbEntity
  8
M0
 62
     1
100
AcDbLine
 10
237.811149
 20
778.155224
 11
240.811149
 21
778.155224
  0
ARC
  5
95A
100
AcDbEntity
  8
M0
 62
     1
100
AcDbCircle
 10
237.811149
 20
777.155224
 40
1.0
100
AcDbArc
 50
90.0
 51
180.0
  0
ARC
  5
95B
100
AcDbEntity
  8
M0
 62
     1
100
AcDbCircle
 10
235.811149
 20
775.155224
 40
1.0
100
AcDbArc
 50
270.0
 51
360.0
  0
ARC
  5
95C
100
AcDbEntity
  8
M0
 62
     1
100
AcDbCircle
 10
242.811149
 20
775.155224
 40
1.0
100
AcDbArc
 50
180.0
 51
270.0
  0
LINE
  5
95D
100
AcDbEntity
  8
M0
 62
     1
100
AcDbLine
 10
233.811149
 20
774.155224
 11
235.811149
 21
774.155224
  0
ARC
  5
95E
100
AcDbEntity
  8
M0
 62
     1
100
AcDbCircle
 10
233.811149
 20
775.155224
 40
1.0
100
AcDbArc
 50
180.0
 51
270.0
  0
LINE
  5
95F
100
AcDbEntity
  8
M0
 62
     1
100
AcDbLine
 10
242.811149
 20
774.155224
 11
244.811149
 21
774.155224
  0
ARC
  5
960
100
AcDbEntity
  8
M0
 62
     1
100
AcDbCircle
 10
244.811149
 20
775.155224
 40
1.0
100
AcDbArc
 50
270.0
 51
360.0
  0
LINE
  5
961
100
AcDbEntity
  8
M0
 62
     1
100
AcDbLine
 10
238.311149
 20
771.155224
 11
238.311149
 21
774.155224
  0
LINE
  5
962
100
AcDbEntity
  8
M0
 62
     1
100
AcDbLine
 10
240.311149
 20
771.155224
 11
240.311149
 21
774.155224
  0
LINE
  5
963
100
AcDbEntity
  8
M0
 62
     1
100
AcDbLine
 10
236.811149
 20
774.655224
 11
236.811149
 21
777.155224
  0
LINE
  5
964
100
AcDbEntity
  8
M0
 62
     1
100
AcDbLine
 10
238.311149
 20
774.155224
 11
237.311149
 21
774.155224
  0
ARC
  5
965
100
AcDbEntity
  8
M0
 62
     1
100
AcDbCircle
 10
237.311149
 20
774.655224
 40
0.5
100
AcDbArc
 50
180.0
 51
270.0
  0
LINE
  5
966
100
AcDbEntity
  8
M0
 62
     1
100
AcDbLine
 10
241.311149
 20
774.155224
 11
240.311149
 21
774.155224
  0
LINE
  5
967
100
AcDbEntity
  8
M0
 62
     1
100
AcDbLine
 10
241.811149
 20
774.655224
 11
241.811149
 21
777.155224
  0
ARC
  5
968
100
AcDbEntity
  8
M0
 62
     1
100
AcDbCircle
 10
241.311149
 20
774.655224
 40
0.5
100
AcDbArc
 50
270.0
 51
360.0
  0
LINE
  5
969
100
AcDbEntity
  8
M0
 62
     1
100
AcDbLine
 10
241.811149
 20
776.655224
 11
236.811149
 21
776.655224
  0
LINE
  5
96A
100
AcDbEntity
  8
M0
 62
     1
100
AcDbLine
 10
246.811149
 20
778.155224
 11
264.311149
 21
778.155224
  0
LINE
  5
96B
100
AcDbEntity
  8
M0
 62
     1
100
AcDbLine
 10
195.311149
 20
849.155224
 11
195.311149
 21
783.155224
  0
LINE
  5
96C
100
AcDbEntity
  8
M0
 62
     1
100
AcDbLine
 10
253.311149
 20
838.655224
 11
275.311149
 21
838.655224
  0
LINE
  5
96D
100
AcDbEntity
  8
M0
 62
     1
100
AcDbLine
 10
270.311149
 20
861.455224
 11
270.311149
 21
859.155224
  0
LINE
  5
96E
100
AcDbEntity
  8
M0
 62
     1
100
AcDbLine
 10
258.311149
 20
861.455224
 11
258.311149
 21
859.155224
  0
LINE
  5
96F
100
AcDbEntity
  8
M0
 62
     1
100
AcDbLine
 10
275.311149
 20
838.655224
 11
275.311149
 21
856.155224
  0
LINE
  5
970
100
AcDbEntity
  8
M0
 62
     1
100
AcDbLine
 10
272.311149
 20
859.155224
 11
270.311149
 21
859.155224
  0
ARC
  5
971
100
AcDbEntity
  8
M0
 62
     1
100
AcDbCircle
 10
272.311149
 20
856.155224
 40
3.0
100
AcDbArc
 50
0.0
 51
90.0
  0
LINE
  5
972
100
AcDbEntity
  8
M0
 62
     1
100
AcDbLine
 10
258.311149
 20
859.155224
 11
256.311149
 21
859.155224
  0
LINE
  5
973
100
AcDbEntity
  8
M0
 62
     1
100
AcDbLine
 10
253.311149
 20
856.155224
 11
253.311149
 21
838.655224
  0
ARC
  5
974
100
AcDbEntity
  8
M0
 62
     1
100
AcDbCircle
 10
256.311149
 20
856.155224
 40
3.0
100
AcDbArc
 50
90.0
 51
180.0
  0
LINE
  5
975
100
AcDbEntity
  8
M0
 62
     1
100
AcDbLine
 10
261.311149
 20
846.655224
 11
267.311149
 21
846.655224
  0
LINE
  5
976
100
AcDbEntity
  8
M0
 62
     1
100
AcDbLine
 10
261.311149
 20
851.655224
 11
267.311149
 21
851.655224
  0
LINE
  5
977
100
AcDbEntity
  8
M0
 62
     1
100
AcDbLine
 10
261.311149
 20
846.655224
 11
261.311149
 21
851.655224
  0
LINE
  5
978
100
AcDbEntity
  8
M0
 62
     1
100
AcDbLine
 10
267.311149
 20
846.655224
 11
267.311149
 21
851.655224
  0
LINE
  5
979
100
AcDbEntity
  8
M0
 62
     1
100
AcDbLine
 10
266.811149
 20
862.655224
 11
266.811149
 21
863.355224
  0
LINE
  5
97A
100
AcDbEntity
  8
M0
 62
     1
100
AcDbLine
 10
261.811149
 20
862.655224
 11
261.811149
 21
863.355224
  0
LINE
  5
97B
100
AcDbEntity
  8
M0
 62
     1
100
AcDbLine
 10
270.311149
 20
862.655224
 11
270.311149
 21
861.455224
  0
LINE
  5
97C
100
AcDbEntity
  8
M0
 62
     1
100
AcDbLine
 10
258.311149
 20
862.655224
 11
258.311149
 21
861.455224
  0
LINE
  5
97D
100
AcDbEntity
  8
M0
 62
     1
100
AcDbLine
 10
258.311149
 20
862.655224
 11
261.811149
 21
862.655224
  0
LINE
  5
97E
100
AcDbEntity
  8
M0
 62
     1
100
AcDbLine
 10
266.811149
 20
863.355224
 11
261.811149
 21
863.355224
  0
LINE
  5
97F
100
AcDbEntity
  8
M0
 62
     1
100
AcDbLine
 10
266.811149
 20
862.655224
 11
270.311149
 21
862.655224
  0
LINE
  5
980
100
AcDbEntity
  8
M0
  6
DIVIDE
 62
   234
100
AcDbLine
 10
173.31114
 20
886.855218
 11
175.81114
 21
886.855219
  0
LINE
  5
981
100
AcDbEntity
  8
M0
  6
DIVIDE
 62
   234
100
AcDbLine
 10
173.311157
 20
833.855223
 11
175.811157
 21
833.855223
  0
LINE
  5
982
100
AcDbEntity
  8
M0
  6
DIVIDE
 62
   234
100
AcDbLine
 10
175.811157
 20
833.855223
 11
173.311157
 21
833.855223
  0
LINE
  5
983
100
AcDbEntity
  8
M0
  6
DIVIDE
 62
   234
100
AcDbLine
 10
171.311158
 20
831.355233
 11
171.31114
 21
889.355217
  0
LINE
  5
984
100
AcDbEntity
  8
M0
  6
DIVIDE
 62
   234
100
AcDbLine
 10
172.81114
 20
889.355218
 11
171.31114
 21
889.355217
  0
ARC
  5
985
100
AcDbEntity
  8
M0
  6
DIVIDE
 62
   234
100
AcDbCircle
 10
172.81114
 20
888.855218
 40
0.5
100
AcDbArc
 50
-0.001731
 51
90.0
  0
LINE
  5
986
100
AcDbEntity
  8
M0
  6
DIVIDE
 62
   234
100
AcDbLine
 10
175.81114
 20
886.855219
 11
175.811139
 21
891.355219
  0
ARC
  5
987
100
AcDbEntity
  8
M0
  6
DIVIDE
 62
   234
100
AcDbCircle
 10
179.811139
 20
891.35522
 40
4.0
100
AcDbArc
 50
90.0
 51
180.000018
  0
LINE
  5
988
100
AcDbEntity
  8
M0
  6
DIVIDE
 62
   234
100
AcDbLine
 10
182.761362
 20
895.355221
 11
179.811138
 21
895.35522
  0
LINE
  5
989
100
AcDbEntity
  8
M0
  6
DIVIDE
 62
   234
100
AcDbLine
 10
173.31114
 20
888.855218
 11
173.31114
 21
886.855218
  0
LINE
  5
98A
100
AcDbEntity
  8
M0
  6
DIVIDE
 62
   234
100
AcDbLine
 10
175.811157
 20
833.855223
 11
175.811158
 21
829.355234
  0
ARC
  5
98B
100
AcDbEntity
  8
M0
  6
DIVIDE
 62
   234
100
AcDbCircle
 10
179.811158
 20
829.355235
 40
4.0
100
AcDbArc
 50
179.999799
 51
270.0
  0
LINE
  5
98C
100
AcDbEntity
  8
M0
  6
DIVIDE
 62
   234
100
AcDbLine
 10
182.761296
 20
825.355236
 11
179.81116
 21
825.355235
  0
ARC
  5
98D
100
AcDbEntity
  8
M0
  6
DIVIDE
 62
   234
100
AcDbCircle
 10
172.811158
 20
831.855233
 40
0.5
100
AcDbArc
 50
270.0
 51
360.000018
  0
LINE
  5
98E
100
AcDbEntity
  8
M0
  6
DIVIDE
 62
   234
100
AcDbLine
 10
172.811158
 20
831.355233
 11
171.311158
 21
831.355233
  0
LINE
  5
98F
100
AcDbEntity
  8
M0
  6
DIVIDE
 62
   234
100
AcDbLine
 10
173.311157
 20
833.855223
 11
173.311158
 21
831.855233
  0
LINE
  5
990
100
AcDbEntity
  8
M0
  6
DASHDOT
100
AcDbLine
 10
369.810778
 20
289.153878
 11
369.810778
 21
528.153878
  0
LINE
  5
991
100
AcDbEntity
  8
M0
  6
DASHDOT
100
AcDbLine
 10
369.810778
 20
528.153878
 11
182.810976
 21
528.153878
  0
LINE
  5
992
100
AcDbEntity
  8
M0
  6
DASHDOT
100
AcDbLine
 10
182.810976
 20
528.153878
 11
182.810976
 21
198.153878
  0
LINE
  5
993
100
AcDbEntity
  8
M0
  6
DASHDOT
100
AcDbLine
 10
182.810976
 20
198.153878
 11
346.810976
 21
198.153878
  0
LINE
  5
994
100
AcDbEntity
  8
M0
  6
DASHDOT
100
AcDbLine
 10
264.310976
 20
180.133992
 11
264.310976
 21
546.986585
  0
LINE
  5
995
100
AcDbEntity
  8
M0
  6
DASHDOT
100
AcDbLine
 10
346.810976
 20
198.153878
 11
346.810976
 21
289.153878
  0
LINE
  5
996
100
AcDbEntity
  8
M0
  6
DASHDOT
100
AcDbLine
 10
346.810976
 20
289.153878
 11
369.810778
 21
289.153878
  0
CIRCLE
  5
997
100
AcDbEntity
  8
M0
100
AcDbCircle
 10
294.310976
 20
518.153878
 40
4.0
  0
LINE
  5
998
100
AcDbEntity
  8
M0
  6
DASHDOT
100
AcDbLine
 10
240.310991
 20
518.153878
 11
348.310976
 21
518.153878
  0
LINE
  5
999
100
AcDbEntity
  8
M0
  6
DASHDOT
100
AcDbLine
 10
294.310976
 20
464.153893
 11
294.310976
 21
554.239025
  0
CIRCLE
  5
99A
100
AcDbEntity
  8
M0
100
AcDbCircle
 10
234.310976
 20
518.153878
 40
4.0
  0
LINE
  5
99B
100
AcDbEntity
  8
M0
  6
DASHDOT
100
AcDbLine
 10
288.310976
 20
518.153878
 11
192.310991
 21
518.153878
  0
LINE
  5
99C
100
AcDbEntity
  8
M0
  6
DASHDOT
100
AcDbLine
 10
234.310976
 20
464.153893
 11
234.310976
 21
557.865245
  0
CIRCLE
  5
99D
100
AcDbEntity
  8
M0
100
AcDbCircle
 10
294.310976
 20
298.153878
 40
4.0
  0
LINE
  5
99E
100
AcDbEntity
  8
M0
  6
DASHDOT
100
AcDbLine
 10
240.310991
 20
298.153878
 11
348.310976
 21
298.153878
  0
LINE
  5
99F
100
AcDbEntity
  8
M0
  6
DASHDOT
100
AcDbLine
 10
294.310976
 20
244.153893
 11
294.310976
 21
352.153863
  0
CIRCLE
  5
9A0
100
AcDbEntity
  8
M0
100
AcDbCircle
 10
294.310976
 20
518.153878
 40
3.0
  0
CIRCLE
  5
9A1
100
AcDbEntity
  8
M0
100
AcDbCircle
 10
294.310976
 20
298.153878
 40
3.0
  0
CIRCLE
  5
9A2
100
AcDbEntity
  8
M0
100
AcDbCircle
 10
234.310976
 20
298.153878
 40
4.0
  0
LINE
  5
9A3
100
AcDbEntity
  8
M0
  6
DASHDOT
100
AcDbLine
 10
288.310976
 20
298.153878
 11
192.310991
 21
298.153878
  0
LINE
  5
9A4
100
AcDbEntity
  8
M0
  6
DASHDOT
100
AcDbLine
 10
234.310976
 20
244.153893
 11
234.310976
 21
352.153863
  0
CIRCLE
  5
9A5
100
AcDbEntity
  8
M0
100
AcDbCircle
 10
234.310976
 20
518.153878
 40
3.0
  0
CIRCLE
  5
9A6
100
AcDbEntity
  8
M0
100
AcDbCircle
 10
234.310976
 20
298.153878
 40
3.0
  0
LINE
  5
9A7
100
AcDbEntity
  8
M1
 62
     2
100
AcDbLine
 10
40.0
 20
40.0
 11
40.0
 21
1140.0
  0
LINE
  5
9A8
100
AcDbEntity
  8
M1
 62
     2
100
AcDbLine
 10
40.0
 20
1140.0
 11
800.0
 21
1140.0
  0
LINE
  5
9A9
100
AcDbEntity
  8
M1
 62
     2
100
AcDbLine
 10
800.0
 20
1140.0
 11
800.0
 21
40.0
  0
LINE
  5
9AA
100
AcDbEntity
  8
M1
 62
     2
100
AcDbLine
 10
800.0
 20
40.0
 11
40.0
 21
40.0
  0
LINE
  5
9AB
100
AcDbEntity
  8
M1
 62
     2
100
AcDbLine
 10
800.0
 20
80.0
 11
400.0
 21
80.0
  0
LINE
  5
9AC
100
AcDbEntity
  8
M1
 62
     2
100
AcDbLine
 10
800.0
 20
120.0
 11
400.0
 21
120.0
  0
LINE
  5
9AD
100
AcDbEntity
  8
M1
 62
     2
100
AcDbLine
 10
800.0
 20
160.0
 11
400.0
 21
160.0
  0
LINE
  5
9AE
100
AcDbEntity
  8
M1
 62
     2
100
AcDbLine
 10
400.0
 20
40.0
 11
400.0
 21
160.0
  0
TEXT
  5
9AF
100
AcDbEntity
  8
M1
 62
     2
100
AcDbText
 10
410.0
 20
50.0
 40
20.0
  1
適　用；
  7
STANDARD
100
AcDbText
  0
TEXT
  5
9B0
100
AcDbEntity
  8
M1
 62
     2
100
AcDbText
 10
410.0
 20
130.0
 40
20.0
  1
登録名：
  7
STANDARD
100
AcDbText
  0
TEXT
  5
9B1
100
AcDbEntity
  8
M1
 62
     2
100
AcDbText
 10
506.0
 20
130.0
 40
20.0
  1
ＤＭＨ３００ＣＴＲ００
 41
0.5
  7
STANDARD
100
AcDbText
  0
TEXT
  5
9B2
100
AcDbEntity
  8
M1
 62
     2
100
AcDbText
 10
410.0
 20
90.0
 40
20.0
  1
形　式；
  7
STANDARD
100
AcDbText
  0
TEXT
  5
9B3
100
AcDbEntity
  8
M1
 62
     2
100
AcDbText
 10
506.0
 20
90.0
 40
20.0
  1
Ｈ３００Ｃ－Ｔ，Ｈ３００Ｃ－ＴＫ，Ｈ４００Ｃ－Ｔ，Ｈ４００Ｃ－ＴＫ
 41
0.25
  7
STANDARD
100
AcDbText
  0
LINE
  5
9B4
100
AcDbEntity
  8
DN0
100
AcDbLine
 10
235.467639
 20
126.231845
 11
308.507642
 21
126.231845
  0
TEXT
  5
9B5
100
AcDbEntity
  8
DN0
100
AcDbText
 10
237.487639
 20
128.031845
 40
18.0
  1
せん孔図
 41
0.833333
  7
STANDARD
100
AcDbText
  0
ENDSEC
  0
SECTION
  2
OBJECTS
  0
DICTIONARY
  5
C
100
AcDbDictionary
  3
ACAD_GROUP
350
D
  3
ACAD_MLINESTYLE
350
E
  0
DICTIONARY
  5
D
102
{ACAD_REACTORS
330
C
102
}
100
AcDbDictionary
  0
DICTIONARY
  5
E
102
{ACAD_REACTORS
330
C
102
}
100
AcDbDictionary
  3
STANDARD
350
13
  0
MLINESTYLE
  5
13
102
{ACAD_REACTORS
330
E
102
}
100
AcDbMlineStyle
  2
STANDARD
 70
     0
  3

 62
     0
 51
90.0
 52
90.0
 71
     2
 49
0.5
 62
   256
  6
BYLAYER
 49
-0.5
 62
   256
  6
BYLAYER
  0
ENDSEC
  0
EOF
