  0
SECTION
  2
HEADER
  9
$ACADVER
  1
AC1014
  9
$INSBASE
 10
0.000000
 20
0.000000
 30
0.0
  9
$VIEWCTR
 10
7.531722
 20
4.5
  9
$VIEWSIZE
 40
9.0
  9
$SNAPMODE
 70
     0
  9
$SNAPUNIT
 10
1.0
 20
1.0
  9
$SNAPBASE
 10
0.0
 20
0.0
  9
$SNAPANG
 50
0.0
  9
$SNAPSTYLE
 70
     0
  9
$SNAPISOPAIR
 70
     0
  9
$GRIDMODE
 70
     0
  9
$GRIDUNIT
 10
0.0
 20
0.0
  9
$ORTHOMODE
 70
     0
  9
$REGENMODE
 70
     1
  9
$FILLMODE
 70
     1
  9
$QTEXTMODE
 70
     0
  9
$DRAGMODE
 70
     2
  9
$LTSCALE
  40
     1.000000
  9
$OSMODE
 70
     0
  9
$ATTMODE
 70
     1
  9
$TEXTSIZE
 40
0.2
  9
$TRACEWID
 40
0.05
  9
$TEXTSTYLE
  7
STANDARD
  9
$CELTYPE
  6
BYLAYER
  9
$CECOLOR
 62
   256
  9
$DIMSCALE
 40
1.0
  9
$DIMASZ
 40
0.18
  9
$DIMEXO
 40
0.0625
  9
$DIMDLI
 40
0.38
  9
$DIMRND
 40
0.0
  9
$DIMDLE
 40
0.0
  9
$DIMEXE
 40
0.18
  9
$DIMTP
 40
0.0
  9
$DIMTM
 40
0.0
  9
$DIMTXT
 40
0.18
  9
$DIMCEN
 40
0.09
  9
$DIMTSZ
 40
0.0
  9
$DIMTOL
 70
     0
  9
$DIMLIM
 70
     0
  9
$DIMTIH
 70
     1
  9
$DIMTOH
 70
     1
  9
$DIMSE1
 70
     0
  9
$DIMSE2
 70
     0
  9
$DIMTAD
 70
     0
  9
$DIMZIN
 70
     0
  9
$DIMBLK
  1

  9
$LUNITS
 70
     2
  9
$LUPREC
 70
     4
  9
$AXISMODE
 70
     0
  9
$AXISUNIT
 10
0.0
 20
0.0
  9
$SKETCHINC
 40
0.1
  9
$FILLETRAD
 40
0.0
  9
$AUNITS
 70
     0
  9
$AUPREC
 70
     0
  9
$MENU
  1
ACAD
  9
$ELEVATION
 40
0.0
  9
$THICKNESS
 40
0.0
  9
$VIEWDIR
 10
0.0
 20
0.0
 30
1.0
  9
$LIMCHECK
 70
     0
  9
$BLIPMODE
 70
     1
  9
$CHAMFERA
 40
0.0
  9
$CHAMFERB
 40
0.0
  9
$FASTZOOM
 70
     1
  9
$SKPOLY
 70
     0
  9
$TDCREATE
 40
0000000.0000000000
  9
$TDUPDATE
 40
0000000.0000000000
  9
$TDINDWG
 40
0.0000000000
  9
$TDUSRTIMER
 40
0.0000000000
  9
$USRTIMER
 70
     1
  9
$ANGBASE
 50
0.0
  9
$ANGDIR
 70
     0
  9
$PDMODE
 70
     0
  9
$PDSIZE
 40
0.0
  9
$PLINEWID
 40
0.0
  9
$COORDS
 70
     0
  9
$USERI1
 70
     0
  9
$USERI2
 70
     0
  9
$USERI3
 70
     0
  9
$USERI4
 70
     0
  9
$USERI5
 70
     0
  9
$USERR1
 40
0.0
  9
$USERR2
 40
0.0
  9
$USERR3
 40
0.0
  9
$USERR4
 40
0.0
  9
$USERR5
 40
0.0
  9
$CLAYER
  8
M0
  9
$EXTMIN
 10
49.999999
 20
49.999999
  9
$EXTMAX
 10
999.999985
 20
1424.999979
  9
$LIMMIN
 10
0.0
 20
0.0
  9
$LIMMAX
 10
210.0
 20
297.0
  9
$HANDSEED
  5
660
  0
ENDSEC
  0
SECTION
  2
CLASSES
  0
ENDSEC
  0
SECTION
  2
TABLES
  0
TABLE
  2
VPORT
  5
8
100
AcDbSymbolTable
 70
     2
  0
VPORT
  5
14
100
AcDbSymbolTableRecord
100
AcDbViewportTableRecord
  2
*ACTIVE
 70
     0
 10
0.0
 20
0.0
 11
1.0
 21
1.0
 12
484.0
 22
297.0
 13
0.0
 23
0.0
 14
1.0
 24
1.0
 15
0.0
 25
0.0
 16
0.0
 26
0.0
 36
1.0
 17
0.0
 27
0.0
 37
0.0
 40
594.0
 41
2.0
 42
50.0
 43
0.0
 44
0.0
 50
0.0
 51
0.0
 71
     0
 72
   100
 73
     1
 74
     1
 75
     0
 76
     0
 77
     0
 78
     0
  0
ENDTAB
  0
TABLE
  2
LTYPE
  5
5
100
AcDbSymbolTable
 70
     5
  0
LTYPE
  5
15
100
AcDbSymbolTableRecord
100
AcDbLinetypeTableRecord
  2
BYBLOCK
 70
     0
  3

 72
    65
 73
     0
 40
0.0
  0
LTYPE
  5
16
100
AcDbSymbolTableRecord
100
AcDbLinetypeTableRecord
  2
BYLAYER
 70
     0
  3

 72
    65
 73
     0
 40
0.0
  0
LTYPE
  5
17
100
AcDbSymbolTableRecord
100
AcDbLinetypeTableRecord
  2
CONTINUOUS
 70
    64
  3
Solid line
 72
    65
 73
     0
 40
0.0
  0
LTYPE
  5
18
100
AcDbSymbolTableRecord
100
AcDbLinetypeTableRecord
  2
DASHED
 70
    64
  3
__ __ __ __ __ __ __ __ __ __ __ __ __ __ __ __
 72
    65
 73
     2
 40
0.75
 49
0.5
 74
     0
 49
-0.25
 74
     0
  0
LTYPE
  5
19
100
AcDbSymbolTableRecord
100
AcDbLinetypeTableRecord
  2
DASHDOT
 70
    64
  3
__ . __ . __ . __ . __ . __ . __ . __ . __ . __
 72
    65
 73
     4
 40
1.0
 49
0.5
 74
     0
 49
-0.25
 74
     0
 49
0.0
 74
     0
 49
-0.25
 74
     0
  0
LTYPE
  5
1A
100
AcDbSymbolTableRecord
100
AcDbLinetypeTableRecord
  2
DIVIDE
 70
    64
  3
____ . . ____ . . ____ . . ____ . . ____ . . __
 72
    65
 73
     6
 40
1.25
 49
0.5
 74
     0
 49
-0.25
 74
     0
 49
0.0
 74
     0
 49
-0.25
 74
     0
 49
0.0
 74
     0
 49
-0.25
 74
     0
  0
LTYPE
  5
1B
100
AcDbSymbolTableRecord
100
AcDbLinetypeTableRecord
  2
DOT
 70
    64
  3
. . . . . . . . . . . . . . . . . . . . . . . .
 72
    65
 73
     2
 40
0.25
 49
0.0
 74
     0
 49
-0.25
 74
     0
  0
ENDTAB
  0
TABLE
  2
LAYER
  5
2
100
AcDbSymbolTable
 70
   102
  0
LAYER
  5
F
100
AcDbSymbolTableRecord
100
AcDbLayerTableRecord
  2
0
 70
     0
 62
     7
  6
CONTINUOUS
  0
LAYER
  5
1C
100
AcDbSymbolTableRecord
100
AcDbLayerTableRecord
  2
DEFPOINTS
 70
     0
 62
     7
  6
CONTINUOUS
  0
LAYER
  5
1D
100
AcDbSymbolTableRecord
100
AcDbLayerTableRecord
  2
M0
 70
     0
 62
     3
  6
CONTINUOUS
  0
LAYER
  5
1E
100
AcDbSymbolTableRecord
100
AcDbLayerTableRecord
  2
M1
 70
     0
 62
     3
  6
CONTINUOUS
  0
LAYER
  5
1F
100
AcDbSymbolTableRecord
100
AcDbLayerTableRecord
  2
DD0
 70
     0
 62
     4
  6
CONTINUOUS
  0
LAYER
  5
20
100
AcDbSymbolTableRecord
100
AcDbLayerTableRecord
  2
DN0
 70
     0
 62
     2
  6
CONTINUOUS
  0
ENDTAB
  0
TABLE
  2
STYLE
  5
3
100
AcDbSymbolTable
 70
     2
  0
STYLE
  5
10
100
AcDbSymbolTableRecord
100
AcDbTextStyleTableRecord
  2
STANDARD
 70
     0
 40
0.0
 41
1.0
 50
0.0
 71
     0
 42
0.2
  3
txt
  4
BIGFONT
  0
ENDTAB
  0
TABLE
  2
VIEW
  5
6
100
AcDbSymbolTable
 70
     0
  0
ENDTAB
  0
TABLE
  2
UCS
  5
7
100
AcDbSymbolTable
 70
     0
  0
ENDTAB
  0
TABLE
  2
APPID
  5
9
100
AcDbSymbolTable
 70
     1
  0
APPID
  5
11
100
AcDbSymbolTableRecord
100
AcDbRegAppTableRecord
  2
ACAD
 70
     0
  0
ENDTAB
  0
TABLE
  2
DIMSTYLE
  5
A
100
AcDbSymbolTable
 70
     2
  0
DIMSTYLE
105
27
100
AcDbSymbolTableRecord
100
AcDbDimStyleTableRecord
  2
STANDARD
 70
     0
  3

  4

  5

  6
_OPEN
  7
_OPEN
 40
1.0
 41
15.0
 42
1.0
 43
8.0
 44
1.0
 45
0.0
 46
0.0
 47
0.0
 48
0.0
140
15.75
141
0.09
142
0.0
143
0.03937
144
1.0
145
0.0
146
1.0
147
0.6
 71
     0
 72
     0
 73
     1
 74
     1
 75
     0
 76
     0
 77
     3
 78
     8
170
     0
171
     2
172
     0
173
     1
174
     0
175
     0
176
     0
177
     0
178
     0
270
     2
271
     2
272
     4
273
     2
274
     2
340
10
275
     0
280
     0
281
     0
282
     0
283
     1
284
     0
285
     0
286
     0
287
     3
288
     0
  0
DIMSTYLE
105
28
100
AcDbSymbolTableRecord
100
AcDbDimStyleTableRecord
  2
LEADSTYL
 70
     0
  3

  4

  5

  6
_OPEN
  7
_OPEN
 40
1.0
 41
15.0
 42
0.0625
 43
0.38
 44
0.18
 45
0.0
 46
0.0
 47
0.0
 48
0.0
140
15.75
141
0.09
142
0.0
143
25.4
144
1.0
145
0.0
146
1.0
147
0.6
 71
     0
 72
     0
 73
     1
 74
     1
 75
     0
 76
     0
 77
     0
 78
     0
170
     0
171
     2
172
     0
173
     1
174
     0
175
     0
176
     0
177
     0
178
     0
270
     2
271
     4
272
     4
273
     2
274
     2
340
10
275
     0
280
     0
281
     0
282
     0
283
     1
284
     0
285
     0
286
     0
287
     3
288
     0
  0
ENDTAB
  0
TABLE
  2
BLOCK_RECORD
  5
1
100
AcDbSymbolTable
 70
    17
  0
BLOCK_RECORD
  5
21
100
AcDbSymbolTableRecord
100
AcDbBlockTableRecord
  2
*MODEL_SPACE
  0
BLOCK_RECORD
  5
24
100
AcDbSymbolTableRecord
100
AcDbBlockTableRecord
  2
*PAPER_SPACE
  0
BLOCK_RECORD
  5
29
100
AcDbSymbolTableRecord
100
AcDbBlockTableRecord
  2
_NONE
  0
BLOCK_RECORD
  5
2D
100
AcDbSymbolTableRecord
100
AcDbBlockTableRecord
  2
_OPEN
  0
BLOCK_RECORD
  5
33
100
AcDbSymbolTableRecord
100
AcDbBlockTableRecord
  2
_CLOSED
  0
BLOCK_RECORD
  5
3A
100
AcDbSymbolTableRecord
100
AcDbBlockTableRecord
  2
_ORIGIN
  0
BLOCK_RECORD
  5
3F
100
AcDbSymbolTableRecord
100
AcDbBlockTableRecord
  2
_DOT
  0
BLOCK_RECORD
  5
47
100
AcDbSymbolTableRecord
100
AcDbBlockTableRecord
  2
_OBLIQUE
  0
BLOCK_RECORD
  5
4B
100
AcDbSymbolTableRecord
100
AcDbBlockTableRecord
  2
DIMS0
  0
BLOCK_RECORD
  5
57
100
AcDbSymbolTableRecord
100
AcDbBlockTableRecord
  2
DIMS1
  0
BLOCK_RECORD
  5
63
100
AcDbSymbolTableRecord
100
AcDbBlockTableRecord
  2
DIMS2
  0
BLOCK_RECORD
  5
6F
100
AcDbSymbolTableRecord
100
AcDbBlockTableRecord
  2
DIMS3
  0
BLOCK_RECORD
  5
78
100
AcDbSymbolTableRecord
100
AcDbBlockTableRecord
  2
DIMS4
  0
BLOCK_RECORD
  5
84
100
AcDbSymbolTableRecord
100
AcDbBlockTableRecord
  2
DIMS5
  0
BLOCK_RECORD
  5
90
100
AcDbSymbolTableRecord
100
AcDbBlockTableRecord
  2
DIMS6
  0
BLOCK_RECORD
  5
9C
100
AcDbSymbolTableRecord
100
AcDbBlockTableRecord
  2
DIMS7
  0
BLOCK_RECORD
  5
A8
100
AcDbSymbolTableRecord
100
AcDbBlockTableRecord
  2
DIMS8
  0
BLOCK_RECORD
  5
B4
100
AcDbSymbolTableRecord
100
AcDbBlockTableRecord
  2
DIMS9
  0
BLOCK_RECORD
  5
C0
100
AcDbSymbolTableRecord
100
AcDbBlockTableRecord
  2
DIMS10
  0
ENDTAB
  0
ENDSEC
  0
SECTION
  2
BLOCKS
  0
BLOCK
  5
22
100
AcDbEntity
  8
0
100
AcDbBlockBegin
  2
*MODEL_SPACE
 70
     0
 10
0.0
 20
0.0
 30
0.0
  3
*MODEL_SPACE
  1

  0
ENDBLK
  5
23
100
AcDbEntity
  8
0
100
AcDbBlockEnd
  0
BLOCK
  5
25
100
AcDbEntity
 67
     1
  8
0
100
AcDbBlockBegin
  2
*PAPER_SPACE
 70
     0
 10
0.0
 20
0.0
 30
0.0
  3
*PAPER_SPACE
  1

  0
ENDBLK
  5
26
100
AcDbEntity
 67
     1
  8
0
100
AcDbBlockEnd
  0
BLOCK
  5
2A
100
AcDbEntity
  8
0
100
AcDbBlockBegin
  2
_NONE
 70
     0
 10
0.0
 20
0.0
  0
CIRCLE
  5
2B
100
AcDbEntity
  8
0
 62
     0
100
AcDbCircle
 10
0.0
 20
0.0
 40
0.25
  0
ENDBLK
  5
2C
100
AcDbEntity
  8
0
100
AcDbBlockEnd
  0
BLOCK
  5
2E
100
AcDbEntity
  8
0
100
AcDbBlockBegin
  2
_OPEN
 70
     0
 10
0.0
 20
0.0
  0
LINE
  5
2F
100
AcDbEntity
  8
0
 62
     0
100
AcDbLine
 10
-0.965926
 20
0.258819
 11
0.0
 21
0.0
  0
LINE
  5
30
100
AcDbEntity
  8
0
 62
     0
100
AcDbLine
 10
0.0
 20
0.0
 11
-0.965926
 21
-0.258819
  0
LINE
  5
31
100
AcDbEntity
  8
0
 62
     0
100
AcDbLine
 10
0.0
 20
0.0
 11
-1.0
 21
0.0
  0
ENDBLK
  5
32
100
AcDbEntity
  8
0
100
AcDbBlockEnd
  0
BLOCK
  5
34
100
AcDbEntity
  8
0
100
AcDbBlockBegin
  2
_CLOSED
 70
     0
 10
0.0
 20
0.0
  0
LINE
  5
35
100
AcDbEntity
  8
0
 62
     0
100
AcDbLine
 10
-0.965926
 20
0.258819
 11
0.0
 21
0.0
  0
LINE
  5
36
100
AcDbEntity
  8
0
 62
     0
100
AcDbLine
 10
0.0
 20
0.0
 11
-0.965926
 21
-0.258819
  0
LINE
  5
37
100
AcDbEntity
  8
0
 62
     0
100
AcDbLine
 10
-0.965926
 20
0.258819
 11
-0.965926
 21
-0.258819
  0
LINE
  5
38
100
AcDbEntity
  8
0
 62
     0
100
AcDbLine
 10
0.0
 20
0.0
 11
-1.0
 21
0.0
  0
ENDBLK
  5
39
100
AcDbEntity
  8
0
100
AcDbBlockEnd
  0
BLOCK
  5
3B
100
AcDbEntity
  8
0
100
AcDbBlockBegin
  2
_ORIGIN
 70
     0
 10
0.0
 20
0.0
  0
CIRCLE
  5
3C
100
AcDbEntity
  8
0
 62
     0
100
AcDbCircle
 10
0.0
 20
0.0
 40
0.5
  0
LINE
  5
3D
100
AcDbEntity
  8
0
 62
     0
100
AcDbLine
 10
0.0
 20
0.0
 11
-1.0
 21
0.0
  0
ENDBLK
  5
3E
100
AcDbEntity
  8
0
100
AcDbBlockEnd
  0
BLOCK
  5
40
100
AcDbEntity
  8
0
100
AcDbBlockBegin
  2
_DOT
 70
     0
 10
0.0
 20
0.0
  0
POLYLINE
  5
41
100
AcDbEntity
  8
0
 62
     0
100
AcDb2dPolyline
 66
     1
 70
     1
 40
0.5
 41
0.5
  0
VERTEX
  5
42
100
AcDbEntity
  8
0
 62
     0
100
AcDbVertex
100
AcDb2dVertex
 10
-0.25
 20
0.0
 42
1.0
  0
VERTEX
  5
43
100
AcDbEntity
  8
0
 62
     0
100
AcDbVertex
100
AcDb2dVertex
 10
0.25
 20
0.0
 42
1.0
  0
SEQEND
  5
44
100
AcDbEntity
  8
0
 62
     0
  0
LINE
  5
45
100
AcDbEntity
  8
0
 62
     0
100
AcDbLine
 10
-0.5
 20
0.0
 11
-1.0
 21
0.0
  0
ENDBLK
  5
46
100
AcDbEntity
  8
0
100
AcDbBlockEnd
  0
BLOCK
  5
48
100
AcDbEntity
  8
0
100
AcDbBlockBegin
  2
_OBLIQUE
 70
     0
 10
0.0
 20
0.0
  0
LINE
  5
49
100
AcDbEntity
  8
0
 62
     0
100
AcDbLine
 10
-0.353553
 20
-0.353553
 11
0.353553
 21
0.353553
  0
ENDBLK
  5
4A
100
AcDbEntity
  8
0
100
AcDbBlockEnd
  0
BLOCK
  5
4C
100
AcDbEntity
  8
DD0
100
AcDbBlockBegin
  2
DIMS0
 70
     0
 10
0.0
 20
0.0
  0
LINE
  5
4D
100
AcDbEntity
  8
DD0
100
AcDbLine
 10
195.066983
 20
1146.835997
 11
195.066983
 21
1324.835948
  0
LINE
  5
4E
100
AcDbEntity
  8
DD0
100
AcDbLine
 10
478.51661
 20
1140.836012
 11
478.51661
 21
1324.835948
  0
LINE
  5
4F
100
AcDbEntity
  8
DD0
100
AcDbLine
 10
209.55587
 20
1323.718234
 11
195.066983
 21
1319.835948
  0
LINE
  5
50
100
AcDbEntity
  8
DD0
100
AcDbLine
 10
195.066983
 20
1319.835948
 11
209.55587
 21
1315.953663
  0
LINE
  5
51
100
AcDbEntity
  8
DD0
100
AcDbLine
 10
464.027723
 20
1315.953663
 11
478.51661
 21
1319.835948
  0
LINE
  5
52
100
AcDbEntity
  8
DD0
100
AcDbLine
 10
478.51661
 20
1319.835948
 11
464.027723
 21
1323.718234
  0
LINE
  5
53
100
AcDbEntity
  8
DD0
100
AcDbLine
 10
195.066983
 20
1319.835948
 11
478.51661
 21
1319.835948
  0
TEXT
  5
54
100
AcDbEntity
  8
DD0
100
AcDbText
 10
314.45431
 20
1322.835979
 40
15.75
  1
２８４
 41
0.833333
  7
STANDARD
100
AcDbText
  0
ENDBLK
  5
55
100
AcDbEntity
  8
DD0
100
AcDbBlockEnd
  0
BLOCK
  5
58
100
AcDbEntity
  8
DD0
100
AcDbBlockBegin
  2
DIMS1
 70
     0
 10
0.0
 20
0.0
  0
LINE
  5
59
100
AcDbEntity
  8
DD0
100
AcDbLine
 10
420.016969
 20
858.83597
 11
555.111228
 21
858.83597
  0
LINE
  5
5A
100
AcDbEntity
  8
DD0
100
AcDbLine
 10
420.016893
 20
1174.836027
 11
555.111228
 21
1174.836027
  0
LINE
  5
5B
100
AcDbEntity
  8
DD0
100
AcDbLine
 10
546.228943
 20
873.324858
 11
550.111228
 21
858.83597
  0
LINE
  5
5C
100
AcDbEntity
  8
DD0
100
AcDbLine
 10
550.111228
 20
858.83597
 11
553.993514
 21
873.324858
  0
LINE
  5
5D
100
AcDbEntity
  8
DD0
100
AcDbLine
 10
553.993514
 20
1160.34714
 11
550.111228
 21
1174.836027
  0
LINE
  5
5E
100
AcDbEntity
  8
DD0
100
AcDbLine
 10
550.111228
 20
1174.836027
 11
546.228943
 21
1160.34714
  0
LINE
  5
5F
100
AcDbEntity
  8
DD0
100
AcDbLine
 10
550.111228
 20
858.83597
 11
550.111228
 21
1174.836027
  0
TEXT
  5
60
100
AcDbEntity
  8
DD0
100
AcDbText
 10
547.111236
 20
994.498474
 40
15.75
  1
３１６
 50
90.000003
 41
0.833333
  7
STANDARD
100
AcDbText
  0
ENDBLK
  5
61
100
AcDbEntity
  8
DD0
100
AcDbBlockEnd
  0
BLOCK
  5
64
100
AcDbEntity
  8
DD0
100
AcDbBlockBegin
  2
DIMS2
 70
     0
 10
0.0
 20
0.0
  0
LINE
  5
65
100
AcDbEntity
  8
DD0
100
AcDbLine
 10
420.016893
 20
1174.836027
 11
555.111228
 21
1174.836027
  0
LINE
  5
66
100
AcDbEntity
  8
DD0
100
AcDbLine
 10
364.016604
 20
1236.835919
 11
555.111228
 21
1236.835919
  0
LINE
  5
67
100
AcDbEntity
  8
DD0
100
AcDbLine
 10
546.228943
 20
1189.324914
 11
550.111228
 21
1174.836027
  0
LINE
  5
68
100
AcDbEntity
  8
DD0
100
AcDbLine
 10
550.111228
 20
1174.836027
 11
553.993514
 21
1189.324914
  0
LINE
  5
69
100
AcDbEntity
  8
DD0
100
AcDbLine
 10
553.993514
 20
1222.347032
 11
550.111228
 21
1236.835919
  0
LINE
  5
6A
100
AcDbEntity
  8
DD0
100
AcDbLine
 10
550.111228
 20
1236.835919
 11
546.228943
 21
1222.347032
  0
LINE
  5
6B
100
AcDbEntity
  8
DD0
100
AcDbLine
 10
550.111228
 20
1174.836027
 11
550.111228
 21
1236.835919
  0
TEXT
  5
6C
100
AcDbEntity
  8
DD0
100
AcDbText
 10
547.111236
 20
1191.373548
 40
15.75
  1
６２
 50
90.000003
 41
0.833333
  7
STANDARD
100
AcDbText
  0
ENDBLK
  5
6D
100
AcDbEntity
  8
DD0
100
AcDbBlockEnd
  0
BLOCK
  5
70
100
AcDbEntity
  8
DD0
100
AcDbBlockBegin
  2
DIMS3
 70
     0
 10
0.0
 20
0.0
  0
TEXT
  5
71
100
AcDbEntity
  8
DD0
100
AcDbText
 10
390.591623
 20
1283.025188
 40
15.75
  1
相間バリア
 41
0.833333
  7
STANDARD
100
AcDbText
  0
LINE
  5
72
100
AcDbEntity
  8
DD0
100
AcDbLine
 10
358.947357
 20
1251.798374
 11
357.886729
 21
1236.835919
  0
LINE
  5
73
100
AcDbEntity
  8
DD0
100
AcDbLine
 10
357.886729
 20
1236.835919
 11
366.286488
 21
1249.263471
  0
LINE
  5
74
100
AcDbEntity
  8
DD0
100
AcDbLine
 10
357.886729
 20
1236.835919
 11
372.804102
 21
1280.025158
  0
LINE
  5
75
100
AcDbEntity
  8
DD0
100
AcDbLine
 10
372.804102
 20
1280.025158
 11
484.554093
 21
1280.025158
  0
ENDBLK
  5
76
100
AcDbEntity
  8
DD0
100
AcDbBlockEnd
  0
BLOCK
  5
79
100
AcDbEntity
  8
DD0
100
AcDbBlockBegin
  2
DIMS4
 70
     0
 10
0.0
 20
0.0
  0
LINE
  5
7A
100
AcDbEntity
  8
DD0
100
AcDbLine
 10
892.512651
 20
1146.83592
 11
892.512651
 21
1288.823986
  0
LINE
  5
7B
100
AcDbEntity
  8
DD0
100
AcDbLine
 10
660.512609
 20
1113.835967
 11
660.512609
 21
1288.823986
  0
LINE
  5
7C
100
AcDbEntity
  8
DD0
100
AcDbLine
 10
878.023764
 20
1279.9417
 11
892.512651
 21
1283.823986
  0
LINE
  5
7D
100
AcDbEntity
  8
DD0
100
AcDbLine
 10
892.512651
 20
1283.823986
 11
878.023764
 21
1287.706272
  0
LINE
  5
7E
100
AcDbEntity
  8
DD0
100
AcDbLine
 10
675.001496
 20
1287.706272
 11
660.512609
 21
1283.823986
  0
LINE
  5
7F
100
AcDbEntity
  8
DD0
100
AcDbLine
 10
660.512609
 20
1283.823986
 11
675.001496
 21
1279.9417
  0
LINE
  5
80
100
AcDbEntity
  8
DD0
100
AcDbLine
 10
892.512651
 20
1283.823986
 11
660.512609
 21
1283.823986
  0
TEXT
  5
81
100
AcDbEntity
  8
DD0
100
AcDbText
 10
754.175068
 20
1286.824016
 40
15.75
  1
２３２
 41
0.833333
  7
STANDARD
100
AcDbText
  0
ENDBLK
  5
82
100
AcDbEntity
  8
DD0
100
AcDbBlockEnd
  0
BLOCK
  5
85
100
AcDbEntity
  8
DD0
100
AcDbBlockBegin
  2
DIMS5
 70
     0
 10
0.0
 20
0.0
  0
LINE
  5
86
100
AcDbEntity
  8
DD0
 60
     1
100
AcDbLine
 10
892.512651
 20
1146.83592
 11
892.512651
 21
1180.425779
  0
LINE
  5
87
100
AcDbEntity
  8
DD0
100
AcDbLine
 10
889.312655
 20
1146.83592
 11
889.312655
 21
1180.425779
  0
LINE
  5
88
100
AcDbEntity
  8
DD0
100
AcDbLine
 10
907.001539
 20
1179.308065
 11
892.512651
 21
1175.425779
  0
LINE
  5
89
100
AcDbEntity
  8
DD0
100
AcDbLine
 10
892.512651
 20
1175.425779
 11
907.001539
 21
1171.543493
  0
LINE
  5
8A
100
AcDbEntity
  8
DD0
100
AcDbLine
 10
874.823767
 20
1171.543493
 11
889.312655
 21
1175.425779
  0
LINE
  5
8B
100
AcDbEntity
  8
DD0
100
AcDbLine
 10
889.312655
 20
1175.425779
 11
874.823767
 21
1179.308065
  0
LINE
  5
8C
100
AcDbEntity
  8
DD0
100
AcDbLine
 10
956.612649
 20
1175.425779
 11
872.812655
 21
1175.425779
  0
TEXT
  5
8D
100
AcDbEntity
  8
DD0
100
AcDbText
 10
910.221034
 20
1178.925764
 40
15.75
  1
３．２
 41
0.751323
  7
STANDARD
100
AcDbText
  0
ENDBLK
  5
8E
100
AcDbEntity
  8
DD0
100
AcDbBlockEnd
  0
BLOCK
  5
91
100
AcDbEntity
  8
DD0
100
AcDbBlockBegin
  2
DIMS6
 70
     0
 10
0.0
 20
0.0
  0
LINE
  5
92
100
AcDbEntity
  8
DD0
100
AcDbLine
 10
484.016983
 20
670.209035
 11
555.111228
 21
670.209035
  0
LINE
  5
93
100
AcDbEntity
  8
DD0
100
AcDbLine
 10
480.516961
 20
624.209013
 11
555.111228
 21
624.209013
  0
LINE
  5
94
100
AcDbEntity
  8
DD0
100
AcDbLine
 10
546.228943
 20
684.697923
 11
550.111228
 21
670.209035
  0
LINE
  5
95
100
AcDbEntity
  8
DD0
100
AcDbLine
 10
550.111228
 20
670.209035
 11
553.993514
 21
684.697923
  0
LINE
  5
96
100
AcDbEntity
  8
DD0
100
AcDbLine
 10
553.993514
 20
609.720126
 11
550.111228
 21
624.209013
  0
LINE
  5
97
100
AcDbEntity
  8
DD0
100
AcDbLine
 10
550.111228
 20
624.209013
 11
546.228943
 21
609.720126
  0
LINE
  5
98
100
AcDbEntity
  8
DD0
100
AcDbLine
 10
550.111228
 20
708.243019
 11
550.111228
 21
607.709014
  0
TEXT
  5
99
100
AcDbEntity
  8
DD0
100
AcDbText
 10
544.560499
 20
673.030507
 40
15.75
  1
４６
 50
90.000365
 41
0.833333
  7
STANDARD
100
AcDbText
  0
ENDBLK
  5
9A
100
AcDbEntity
  8
DD0
100
AcDbBlockEnd
  0
BLOCK
  5
9D
100
AcDbEntity
  8
DD0
100
AcDbBlockBegin
  2
DIMS7
 70
     0
 10
0.0
 20
0.0
  0
LINE
  5
9E
100
AcDbEntity
  8
DD0
 60
     1
100
AcDbLine
 10
480.516961
 20
624.209013
 11
555.111228
 21
624.209013
  0
LINE
  5
9F
100
AcDbEntity
  8
DD0
100
AcDbLine
 10
482.016976
 20
402.208971
 11
555.111228
 21
402.208971
  0
LINE
  5
A0
100
AcDbEntity
  8
DD0
100
AcDbLine
 10
553.993514
 20
609.720126
 11
550.111228
 21
624.209013
  0
LINE
  5
A1
100
AcDbEntity
  8
DD0
100
AcDbLine
 10
550.111228
 20
624.209013
 11
546.228943
 21
609.720126
  0
LINE
  5
A2
100
AcDbEntity
  8
DD0
100
AcDbLine
 10
546.228943
 20
416.697858
 11
550.111228
 21
402.208971
  0
LINE
  5
A3
100
AcDbEntity
  8
DD0
100
AcDbLine
 10
550.111228
 20
402.208971
 11
553.993514
 21
416.697858
  0
LINE
  5
A4
100
AcDbEntity
  8
DD0
100
AcDbLine
 10
550.111228
 20
624.209013
 11
550.111228
 21
402.208971
  0
TEXT
  5
A5
100
AcDbEntity
  8
DD0
100
AcDbText
 10
547.111236
 20
490.871506
 40
15.75
  1
２２２
 50
90.000003
 41
0.833333
  7
STANDARD
100
AcDbText
  0
ENDBLK
  5
A6
100
AcDbEntity
  8
DD0
100
AcDbBlockEnd
  0
BLOCK
  5
A9
100
AcDbEntity
  8
DD0
100
AcDbBlockBegin
  2
DIMS8
 70
     0
 10
0.0
 20
0.0
  0
LINE
  5
AA
100
AcDbEntity
  8
DD0
100
AcDbLine
 10
195.016972
 20
675.209035
 11
195.016972
 21
748.083943
  0
LINE
  5
AB
100
AcDbEntity
  8
DD0
100
AcDbLine
 10
325.016971
 20
725.208958
 11
325.016971
 21
748.083943
  0
LINE
  5
AC
100
AcDbEntity
  8
DD0
100
AcDbLine
 10
209.50586
 20
746.966229
 11
195.016972
 21
743.083943
  0
LINE
  5
AD
100
AcDbEntity
  8
DD0
100
AcDbLine
 10
195.016972
 20
743.083943
 11
209.50586
 21
739.201657
  0
LINE
  5
AE
100
AcDbEntity
  8
DD0
100
AcDbLine
 10
310.528083
 20
739.201657
 11
325.016971
 21
743.083943
  0
LINE
  5
AF
100
AcDbEntity
  8
DD0
100
AcDbLine
 10
325.016971
 20
743.083943
 11
310.528083
 21
746.966229
  0
LINE
  5
B0
100
AcDbEntity
  8
DD0
100
AcDbLine
 10
195.016972
 20
743.083943
 11
325.016971
 21
743.083943
  0
TEXT
  5
B1
100
AcDbEntity
  8
DD0
100
AcDbText
 10
237.679486
 20
746.083973
 40
15.75
  1
１３０
 41
0.833333
  7
STANDARD
100
AcDbText
  0
ENDBLK
  5
B2
100
AcDbEntity
  8
DD0
100
AcDbBlockEnd
  0
BLOCK
  5
B5
100
AcDbEntity
  8
DD0
100
AcDbBlockBegin
  2
DIMS9
 70
     0
 10
0.0
 20
0.0
  0
LINE
  5
B6
100
AcDbEntity
  8
DD0
100
AcDbLine
 10
240.016991
 20
682.708959
 11
240.016991
 21
702.311162
  0
LINE
  5
B7
100
AcDbEntity
  8
DD0
100
AcDbLine
 10
410.016969
 20
682.708959
 11
410.016969
 21
702.311162
  0
LINE
  5
B8
100
AcDbEntity
  8
DD0
100
AcDbLine
 10
254.505878
 20
701.193448
 11
240.016991
 21
697.311162
  0
LINE
  5
B9
100
AcDbEntity
  8
DD0
100
AcDbLine
 10
240.016991
 20
697.311162
 11
254.505878
 21
693.428876
  0
LINE
  5
BA
100
AcDbEntity
  8
DD0
100
AcDbLine
 10
395.528082
 20
693.428876
 11
410.016969
 21
697.311162
  0
LINE
  5
BB
100
AcDbEntity
  8
DD0
100
AcDbLine
 10
410.016969
 20
697.311162
 11
395.528082
 21
701.193448
  0
LINE
  5
BC
100
AcDbEntity
  8
DD0
100
AcDbLine
 10
240.016991
 20
697.311162
 11
410.016969
 21
697.311162
  0
TEXT
  5
BD
100
AcDbEntity
  8
DD0
100
AcDbText
 10
310.507224
 20
703.815907
 40
15.75
  1
１７０
 41
0.833333
  7
STANDARD
100
AcDbText
  0
ENDBLK
  5
BE
100
AcDbEntity
  8
DD0
100
AcDbBlockEnd
  0
BLOCK
  5
C1
100
AcDbEntity
  8
DD0
100
AcDbBlockBegin
  2
DIMS10
 70
     0
 10
0.0
 20
0.0
  0
TEXT
  5
C2
100
AcDbEntity
  8
DD0
100
AcDbText
 10
468.80127
 20
311.601024
 40
15.75
  1
４－Ｍ１０ねじ穴
 41
0.833333
  7
STANDARD
100
AcDbText
  0
LINE
  5
C3
100
AcDbEntity
  8
DD0
100
AcDbLine
 10
420.764539
 20
386.318601
 11
410.016969
 21
396.782335
  0
LINE
  5
C4
100
AcDbEntity
  8
DD0
100
AcDbLine
 10
410.016969
 20
396.782335
 11
414.092771
 21
382.34669
  0
LINE
  5
C5
100
AcDbEntity
  8
DD0
100
AcDbLine
 10
410.016969
 20
396.782335
 11
462.513917
 21
308.601222
  0
LINE
  5
C6
100
AcDbEntity
  8
DD0
100
AcDbLine
 10
462.513917
 20
308.601184
 11
598.513899
 21
308.601108
  0
ENDBLK
  5
C7
100
AcDbEntity
  8
DD0
100
AcDbBlockEnd
  0
ENDSEC
  0
SECTION
  2
ENTITIES
  0
INSERT
  5
56
100
AcDbEntity
  8
DD0
100
AcDbBlockReference
  2
DIMS0
 10
0.0
 20
0.0
  0
INSERT
  5
62
100
AcDbEntity
  8
DD0
100
AcDbBlockReference
  2
DIMS1
 10
0.0
 20
0.0
  0
INSERT
  5
6E
100
AcDbEntity
  8
DD0
100
AcDbBlockReference
  2
DIMS2
 10
0.0
 20
0.0
  0
INSERT
  5
77
100
AcDbEntity
  8
DD0
100
AcDbBlockReference
  2
DIMS3
 10
0.0
 20
0.0
  0
INSERT
  5
83
100
AcDbEntity
  8
DD0
100
AcDbBlockReference
  2
DIMS4
 10
0.0
 20
0.0
  0
INSERT
  5
8F
100
AcDbEntity
  8
DD0
100
AcDbBlockReference
  2
DIMS5
 10
0.0
 20
0.0
  0
INSERT
  5
9B
100
AcDbEntity
  8
DD0
100
AcDbBlockReference
  2
DIMS6
 10
0.0
 20
0.0
  0
INSERT
  5
A7
100
AcDbEntity
  8
DD0
100
AcDbBlockReference
  2
DIMS7
 10
0.0
 20
0.0
  0
INSERT
  5
B3
100
AcDbEntity
  8
DD0
100
AcDbBlockReference
  2
DIMS8
 10
0.0
 20
0.0
  0
INSERT
  5
BF
100
AcDbEntity
  8
DD0
100
AcDbBlockReference
  2
DIMS9
 10
0.0
 20
0.0
  0
INSERT
  5
C8
100
AcDbEntity
  8
DD0
100
AcDbBlockReference
  2
DIMS10
 10
0.0
 20
0.0
  0
LINE
  5
C9
100
AcDbEntity
  8
M0
 62
     4
100
AcDbLine
 10
724.512673
 20
868.835945
 11
740.212597
 21
868.835944
  0
LINE
  5
CA
100
AcDbEntity
  8
M0
 62
     4
100
AcDbLine
 10
773.512681
 20
880.835924
 11
765.512681
 21
880.835929
  0
LINE
  5
CB
100
AcDbEntity
  8
M0
 62
     4
100
AcDbLine
 10
765.512684
 20
885.798942
 11
765.51267
 21
863.872932
  0
LINE
  5
CC
100
AcDbEntity
  8
M0
 62
     4
100
AcDbLine
 10
765.51267
 20
863.872932
 11
773.51267
 21
863.872927
  0
LINE
  5
CD
100
AcDbEntity
  8
M0
 62
     4
100
AcDbLine
 10
773.51267
 20
863.872927
 11
773.512684
 21
885.798937
  0
LINE
  5
CE
100
AcDbEntity
  8
M0
 62
     4
100
AcDbLine
 10
773.512684
 20
885.798937
 11
765.512684
 21
885.798942
  0
LINE
  5
CF
100
AcDbEntity
  8
M0
 62
     4
100
AcDbLine
 10
724.512673
 20
868.835945
 11
724.512681
 21
880.835945
  0
LINE
  5
D0
100
AcDbEntity
  8
M0
 62
     4
100
AcDbLine
 10
740.212589
 20
880.835944
 11
724.512681
 21
880.835945
  0
LINE
  5
D1
100
AcDbEntity
  8
M0
 62
     4
100
AcDbLine
 10
765.512673
 20
868.835929
 11
773.512673
 21
868.835924
  0
LINE
  5
D2
100
AcDbEntity
  8
M0
  6
DASHDOT
 62
     4
100
AcDbLine
 10
778.512614
 20
874.835978
 11
720.128763
 21
874.835978
  0
LINE
  5
D3
100
AcDbEntity
  8
M0
 62
     4
100
AcDbLine
 10
724.512614
 20
1164.835978
 11
740.212589
 21
1164.835978
  0
LINE
  5
D4
100
AcDbEntity
  8
M0
 62
     4
100
AcDbLine
 10
773.512614
 20
1152.835978
 11
765.512614
 21
1152.835978
  0
LINE
  5
D5
100
AcDbEntity
  8
M0
  6
DASHDOT
 62
     4
100
AcDbLine
 10
778.512614
 20
1158.835978
 11
720.128763
 21
1158.835978
  0
LINE
  5
D6
100
AcDbEntity
  8
M0
 62
     4
100
AcDbLine
 10
765.512614
 20
1147.872965
 11
765.512614
 21
1169.798976
  0
LINE
  5
D7
100
AcDbEntity
  8
M0
 62
     4
100
AcDbLine
 10
765.512614
 20
1169.798976
 11
773.512614
 21
1169.798976
  0
LINE
  5
D8
100
AcDbEntity
  8
M0
 62
     4
100
AcDbLine
 10
773.512614
 20
1169.798976
 11
773.512614
 21
1147.872965
  0
LINE
  5
D9
100
AcDbEntity
  8
M0
 62
     4
100
AcDbLine
 10
773.512614
 20
1147.872965
 11
765.512614
 21
1147.872965
  0
LINE
  5
DA
100
AcDbEntity
  8
M0
 62
     4
100
AcDbLine
 10
724.512614
 20
1164.835978
 11
724.512614
 21
1152.835978
  0
LINE
  5
DB
100
AcDbEntity
  8
M0
 62
     4
100
AcDbLine
 10
740.212597
 20
1152.835978
 11
724.512614
 21
1152.835978
  0
LINE
  5
DC
100
AcDbEntity
  8
M0
 62
     4
100
AcDbLine
 10
765.512614
 20
1164.835978
 11
773.512614
 21
1164.835978
  0
ARC
  5
DD
100
AcDbEntity
  8
M0
 62
     7
100
AcDbCircle
 10
422.516978
 20
973.335978
 40
1.5
100
AcDbArc
 50
269.999417
 51
360.0
  0
ARC
  5
DE
100
AcDbEntity
  8
M0
 62
     7
100
AcDbCircle
 10
422.516978
 20
970.335978
 40
1.5
100
AcDbArc
 50
90.0
 51
180.0
  0
ARC
  5
DF
100
AcDbEntity
  8
M0
 62
     7
100
AcDbCircle
 10
420.016978
 20
1107.835978
 40
4.0
100
AcDbArc
 50
0.0
 51
90.0
  0
LINE
  5
E0
100
AcDbEntity
  8
M0
 62
     7
100
AcDbLine
 10
420.016978
 20
1111.835978
 11
415.016978
 21
1111.835978
  0
LINE
  5
E1
100
AcDbEntity
  8
M0
 62
     7
100
AcDbLine
 10
350.396967
 20
1107.995966
 11
350.676966
 21
1108.955973
  0
ARC
  5
E2
100
AcDbEntity
  8
M0
 62
     7
100
AcDbCircle
 10
347.516978
 20
1108.835978
 40
3.0
100
AcDbArc
 50
269.999709
 51
343.738968
  0
LINE
  5
E3
100
AcDbEntity
  8
M0
 62
     7
100
AcDbLine
 10
359.356974
 20
1108.955973
 11
359.636973
 21
1107.995966
  0
ARC
  5
E4
100
AcDbEntity
  8
M0
 62
     7
100
AcDbCircle
 10
362.516978
 20
1108.835978
 40
3.0
100
AcDbArc
 50
196.260391
 51
269.999709
  0
LINE
  5
E5
100
AcDbEntity
  8
M0
 62
     7
100
AcDbLine
 10
410.896967
 20
1107.995966
 11
411.176966
 21
1108.955973
  0
ARC
  5
E6
100
AcDbEntity
  8
M0
 62
     7
100
AcDbCircle
 10
415.016978
 20
1107.835978
 40
4.0
100
AcDbArc
 50
90.0
 51
163.740119
  0
ARC
  5
E7
100
AcDbEntity
  8
M0
 62
     7
100
AcDbCircle
 10
408.016978
 20
1108.835978
 40
3.0
100
AcDbArc
 50
269.999709
 51
343.738968
  0
LINE
  5
E8
100
AcDbEntity
  8
M0
 62
     7
100
AcDbLine
 10
408.016978
 20
1105.835978
 11
362.516978
 21
1105.835978
  0
ARC
  5
E9
100
AcDbEntity
  8
M0
 62
     7
100
AcDbCircle
 10
355.516978
 20
1107.835978
 40
4.0
100
AcDbArc
 50
16.260152
 51
90.0
  0
ARC
  5
EA
100
AcDbEntity
  8
M0
 62
     7
100
AcDbCircle
 10
354.516978
 20
1107.835978
 40
4.0
100
AcDbArc
 50
90.0
 51
163.740119
  0
LINE
  5
EB
100
AcDbEntity
  8
M0
 62
     7
100
AcDbLine
 10
354.516978
 20
1111.835978
 11
355.516978
 21
1111.835978
  0
ARC
  5
EC
100
AcDbEntity
  8
M0
 62
     7
100
AcDbCircle
 10
421.016978
 20
1094.835978
 40
3.0
100
AcDbArc
 50
269.999709
 51
360.0
  0
ARC
  5
ED
100
AcDbEntity
  8
M0
 62
     7
100
AcDbCircle
 10
421.016978
 20
1078.835978
 40
3.0
100
AcDbArc
 50
0.0
 51
90.0
  0
LINE
  5
EE
100
AcDbEntity
  8
M0
 62
     7
100
AcDbLine
 10
421.016978
 20
1091.835978
 11
416.016978
 21
1091.835978
  0
LINE
  5
EF
100
AcDbEntity
  8
M0
 62
     7
100
AcDbLine
 10
421.016978
 20
1081.835978
 11
416.016978
 21
1081.835978
  0
ARC
  5
F0
100
AcDbEntity
  8
M0
 62
     7
100
AcDbCircle
 10
416.016978
 20
1086.835978
 40
5.0
100
AcDbArc
 50
90.0
 51
269.999825
  0
ARC
  5
F1
100
AcDbEntity
  8
M0
 62
     7
100
AcDbCircle
 10
230.016978
 20
1107.835978
 40
4.0
100
AcDbArc
 50
89.999781
 51
180.0
  0
LINE
  5
F2
100
AcDbEntity
  8
M0
 62
     7
100
AcDbLine
 10
230.016978
 20
1111.835978
 11
235.016978
 21
1111.835978
  0
LINE
  5
F3
100
AcDbEntity
  8
M0
 62
     7
100
AcDbLine
 10
299.636988
 20
1107.995966
 11
299.356989
 21
1108.955973
  0
ARC
  5
F4
100
AcDbEntity
  8
M0
 62
     7
100
AcDbCircle
 10
302.516978
 20
1108.835978
 40
3.0
100
AcDbArc
 50
196.260753
 51
270.0
  0
LINE
  5
F5
100
AcDbEntity
  8
M0
 62
     7
100
AcDbLine
 10
290.676981
 20
1108.955973
 11
290.396982
 21
1107.995966
  0
ARC
  5
F6
100
AcDbEntity
  8
M0
 62
     7
100
AcDbCircle
 10
287.516978
 20
1108.835978
 40
3.0
100
AcDbArc
 50
270.0
 51
343.739609
  0
LINE
  5
F7
100
AcDbEntity
  8
M0
 62
     7
100
AcDbLine
 10
239.136988
 20
1107.995966
 11
238.856989
 21
1108.955973
  0
ARC
  5
F8
100
AcDbEntity
  8
M0
 62
     7
100
AcDbCircle
 10
235.016978
 20
1107.835978
 40
4.0
100
AcDbArc
 50
16.259671
 51
89.999781
  0
ARC
  5
F9
100
AcDbEntity
  8
M0
 62
     7
100
AcDbCircle
 10
242.016978
 20
1108.835978
 40
3.0
100
AcDbArc
 50
196.260753
 51
270.0
  0
LINE
  5
FA
100
AcDbEntity
  8
M0
 62
     7
100
AcDbLine
 10
242.016978
 20
1105.835978
 11
287.516978
 21
1105.835978
  0
LINE
  5
FB
100
AcDbEntity
  8
M0
 62
     7
100
AcDbLine
 10
347.516978
 20
1105.835978
 11
302.516978
 21
1105.835978
  0
ARC
  5
FC
100
AcDbEntity
  8
M0
 62
     7
100
AcDbCircle
 10
294.516978
 20
1107.835978
 40
4.0
100
AcDbArc
 50
89.999781
 51
163.739848
  0
ARC
  5
FD
100
AcDbEntity
  8
M0
 62
     7
100
AcDbCircle
 10
295.516978
 20
1107.835978
 40
4.0
100
AcDbArc
 50
16.259671
 51
89.999781
  0
LINE
  5
FE
100
AcDbEntity
  8
M0
 62
     7
100
AcDbLine
 10
295.516978
 20
1111.835978
 11
294.516978
 21
1111.835978
  0
ARC
  5
FF
100
AcDbEntity
  8
M0
 62
     7
100
AcDbCircle
 10
229.016978
 20
1094.835978
 40
3.0
100
AcDbArc
 50
180.0
 51
270.0
  0
ARC
  5
100
100
AcDbEntity
  8
M0
 62
     7
100
AcDbCircle
 10
229.016978
 20
1078.835978
 40
3.0
100
AcDbArc
 50
89.999709
 51
180.0
  0
LINE
  5
101
100
AcDbEntity
  8
M0
 62
     7
100
AcDbLine
 10
229.016978
 20
1091.835978
 11
234.016978
 21
1091.835978
  0
LINE
  5
102
100
AcDbEntity
  8
M0
 62
     7
100
AcDbLine
 10
229.016978
 20
1081.835978
 11
234.016978
 21
1081.835978
  0
ARC
  5
103
100
AcDbEntity
  8
M0
 62
     7
100
AcDbCircle
 10
234.016978
 20
1086.835978
 40
5.0
100
AcDbArc
 50
-90.0
 51
89.999825
  0
LINE
  5
104
100
AcDbEntity
  8
M0
 62
     7
100
AcDbLine
 10
350.396967
 20
925.67598
 11
350.676966
 21
924.71598
  0
ARC
  5
105
100
AcDbEntity
  8
M0
 62
     7
100
AcDbCircle
 10
347.516978
 20
924.83598
 40
3.0
100
AcDbArc
 50
16.260368
 51
90.0
  0
LINE
  5
106
100
AcDbEntity
  8
M0
 62
     7
100
AcDbLine
 10
359.356974
 20
924.71598
 11
359.636973
 21
925.67598
  0
ARC
  5
107
100
AcDbEntity
  8
M0
 62
     7
100
AcDbCircle
 10
362.516978
 20
924.83598
 40
3.0
100
AcDbArc
 50
90.0
 51
163.739819
  0
LINE
  5
108
100
AcDbEntity
  8
M0
 62
     7
100
AcDbLine
 10
347.516978
 20
927.835979
 11
302.516978
 21
927.835979
  0
ARC
  5
109
100
AcDbEntity
  8
M0
 62
     7
100
AcDbCircle
 10
355.516978
 20
925.83598
 40
4.0
100
AcDbArc
 50
269.999781
 51
343.739703
  0
ARC
  5
10A
100
AcDbEntity
  8
M0
 62
     7
100
AcDbCircle
 10
417.016978
 20
925.83598
 40
4.0
100
AcDbArc
 50
-90.000219
 51
0.0
  0
LINE
  5
10B
100
AcDbEntity
  8
M0
 62
     7
100
AcDbLine
 10
229.016978
 20
925.83598
 11
229.016978
 21
970.335978
  0
LINE
  5
10C
100
AcDbEntity
  8
M0
 62
     7
100
AcDbLine
 10
421.016978
 20
925.83598
 11
421.016978
 21
970.335978
  0
LINE
  5
10D
100
AcDbEntity
  8
M0
 62
     7
100
AcDbLine
 10
417.016978
 20
921.83598
 11
415.116968
 21
921.83598
  0
LINE
  5
10E
100
AcDbEntity
  8
M0
 62
     7
100
AcDbLine
 10
410.996973
 20
925.67598
 11
411.276972
 21
924.71598
  0
ARC
  5
10F
100
AcDbEntity
  8
M0
 62
     7
100
AcDbCircle
 10
415.116968
 20
925.83598
 40
4.0
100
AcDbArc
 50
196.260039
 51
269.999781
  0
ARC
  5
110
100
AcDbEntity
  8
M0
 62
     7
100
AcDbCircle
 10
408.116968
 20
924.83598
 40
3.0
100
AcDbArc
 50
16.260298
 51
90.0
  0
LINE
  5
111
100
AcDbEntity
  8
M0
 62
     7
100
AcDbLine
 10
408.116968
 20
927.835979
 11
362.516978
 21
927.835979
  0
ARC
  5
112
100
AcDbEntity
  8
M0
 62
     7
100
AcDbCircle
 10
354.516978
 20
925.83598
 40
4.0
100
AcDbArc
 50
196.260039
 51
269.999781
  0
LINE
  5
113
100
AcDbEntity
  8
M0
 62
     7
100
AcDbLine
 10
354.516978
 20
921.83598
 11
355.516978
 21
921.83598
  0
LINE
  5
114
100
AcDbEntity
  8
M0
 62
     7
100
AcDbLine
 10
299.636988
 20
925.67598
 11
299.356989
 21
924.71598
  0
ARC
  5
115
100
AcDbEntity
  8
M0
 62
     7
100
AcDbCircle
 10
302.516978
 20
924.83598
 40
3.0
100
AcDbArc
 50
89.999709
 51
163.739527
  0
LINE
  5
116
100
AcDbEntity
  8
M0
 62
     7
100
AcDbLine
 10
290.676981
 20
924.71598
 11
290.396982
 21
925.67598
  0
ARC
  5
117
100
AcDbEntity
  8
M0
 62
     7
100
AcDbCircle
 10
287.516978
 20
924.83598
 40
3.0
100
AcDbArc
 50
16.260146
 51
89.999709
  0
ARC
  5
118
100
AcDbEntity
  8
M0
 62
     7
100
AcDbCircle
 10
294.516978
 20
925.83598
 40
4.0
100
AcDbArc
 50
196.260192
 51
270.0
  0
ARC
  5
119
100
AcDbEntity
  8
M0
 62
     7
100
AcDbCircle
 10
295.516978
 20
925.83598
 40
4.0
100
AcDbArc
 50
270.0
 51
343.73987
  0
LINE
  5
11A
100
AcDbEntity
  8
M0
 62
     7
100
AcDbLine
 10
295.516978
 20
921.83598
 11
294.516978
 21
921.83598
  0
ARC
  5
11B
100
AcDbEntity
  8
M0
 62
     7
100
AcDbCircle
 10
233.016978
 20
925.83598
 40
4.0
100
AcDbArc
 50
179.999959
 51
270.0
  0
ARC
  5
11C
100
AcDbEntity
  8
M0
 62
     7
100
AcDbCircle
 10
232.016978
 20
938.835979
 40
3.0
100
AcDbArc
 50
89.999709
 51
179.999982
  0
ARC
  5
11D
100
AcDbEntity
  8
M0
 62
     7
100
AcDbCircle
 10
232.016978
 20
954.835978
 40
3.0
100
AcDbArc
 50
180.0
 51
270.0
  0
LINE
  5
11E
100
AcDbEntity
  8
M0
 62
     7
100
AcDbLine
 10
232.016978
 20
941.835979
 11
237.016978
 21
941.835979
  0
LINE
  5
11F
100
AcDbEntity
  8
M0
 62
     7
100
AcDbLine
 10
232.016978
 20
951.835978
 11
237.016978
 21
951.835978
  0
ARC
  5
120
100
AcDbEntity
  8
M0
 62
     7
100
AcDbCircle
 10
237.016978
 20
946.835978
 40
5.0
100
AcDbArc
 50
270.0
 51
449.999825
  0
ARC
  5
121
100
AcDbEntity
  8
M0
 62
     7
100
AcDbCircle
 10
418.016978
 20
938.835979
 40
3.0
100
AcDbArc
 50
0.0
 51
90.0
  0
ARC
  5
122
100
AcDbEntity
  8
M0
 62
     7
100
AcDbCircle
 10
418.016978
 20
954.835978
 40
3.0
100
AcDbArc
 50
-90.000291
 51
0.0
  0
LINE
  5
123
100
AcDbEntity
  8
M0
 62
     7
100
AcDbLine
 10
418.016978
 20
941.835979
 11
413.016978
 21
941.835979
  0
LINE
  5
124
100
AcDbEntity
  8
M0
 62
     7
100
AcDbLine
 10
418.016978
 20
951.835978
 11
413.016978
 21
951.835978
  0
ARC
  5
125
100
AcDbEntity
  8
M0
 62
     7
100
AcDbCircle
 10
413.016978
 20
946.835978
 40
5.0
100
AcDbArc
 50
90.0
 51
269.999825
  0
LINE
  5
126
100
AcDbEntity
  8
M0
 62
     7
100
AcDbLine
 10
226.016978
 20
973.335978
 11
226.016978
 21
1107.835978
  0
ARC
  5
127
100
AcDbEntity
  8
M0
 62
     7
100
AcDbCircle
 10
227.516978
 20
973.335978
 40
1.5
100
AcDbArc
 50
180.0
 51
270.0
  0
ARC
  5
128
100
AcDbEntity
  8
M0
 62
     7
100
AcDbCircle
 10
227.516978
 20
970.335978
 40
1.5
100
AcDbArc
 50
0.0
 51
89.999417
  0
LINE
  5
129
100
AcDbEntity
  8
M0
 62
     7
100
AcDbLine
 10
424.016978
 20
973.335978
 11
424.016978
 21
1107.835978
  0
LINE
  5
12A
100
AcDbEntity
  8
M0
 62
     7
100
AcDbLine
 10
241.916987
 20
927.835979
 11
287.516978
 21
927.835979
  0
ARC
  5
12B
100
AcDbEntity
  8
M0
 62
     7
100
AcDbCircle
 10
241.916987
 20
924.83598
 40
3.0
100
AcDbArc
 50
89.999709
 51
163.739632
  0
ARC
  5
12C
100
AcDbEntity
  8
M0
 62
     7
100
AcDbCircle
 10
234.916987
 20
925.83598
 40
4.0
100
AcDbArc
 50
270.0
 51
343.73987
  0
LINE
  5
12D
100
AcDbEntity
  8
M0
 62
     7
100
AcDbLine
 10
239.036982
 20
925.67598
 11
238.756983
 21
924.71598
  0
LINE
  5
12E
100
AcDbEntity
  8
M0
 62
     7
100
AcDbLine
 10
233.016978
 20
921.83598
 11
234.916987
 21
921.83598
  0
LINE
  5
12F
100
AcDbEntity
  8
M0
  6
DASHDOT
 62
     7
100
AcDbLine
 10
308.71699
 20
1028.335978
 11
341.316965
 21
1028.335978
  0
ARC
  5
130
100
AcDbEntity
  8
M0
 62
     7
100
AcDbCircle
 10
327.016978
 20
1043.685969
 40
1.0
100
AcDbArc
 50
0.0
 51
90.0
  0
LINE
  5
131
100
AcDbEntity
  8
M0
 62
     7
100
AcDbLine
 10
323.016978
 20
1044.685969
 11
327.016978
 21
1044.685969
  0
ARC
  5
132
100
AcDbEntity
  8
M0
 62
     7
100
AcDbCircle
 10
323.016978
 20
1043.685969
 40
1.0
100
AcDbArc
 50
90.0
 51
180.0
  0
LINE
  5
133
100
AcDbEntity
  8
M0
 62
     7
100
AcDbLine
 10
322.016978
 20
1043.685969
 11
322.016978
 21
1040.685969
  0
LINE
  5
134
100
AcDbEntity
  8
M0
 62
     7
100
AcDbLine
 10
328.016978
 20
1043.685969
 11
328.016978
 21
1040.685969
  0
LINE
  5
135
100
AcDbEntity
  8
M0
 62
     7
100
AcDbLine
 10
318.516978
 20
1041.685969
 11
331.516978
 21
1041.685969
  0
LINE
  5
136
100
AcDbEntity
  8
M0
 62
     7
100
AcDbLine
 10
318.516978
 20
1040.685969
 11
322.016978
 21
1040.685969
  0
LINE
  5
137
100
AcDbEntity
  8
M0
 62
     7
100
AcDbLine
 10
328.016978
 20
1040.685969
 11
331.516978
 21
1040.685969
  0
LINE
  5
138
100
AcDbEntity
  8
M0
 62
     7
100
AcDbLine
 10
318.516978
 20
1041.685969
 11
318.516978
 21
1038.485972
  0
LINE
  5
139
100
AcDbEntity
  8
M0
 62
     7
100
AcDbLine
 10
331.516978
 20
1041.685969
 11
331.516978
 21
1038.485972
  0
LINE
  5
13A
100
AcDbEntity
  8
M0
 62
     7
100
AcDbLine
 10
333.316977
 20
1038.485972
 11
331.516978
 21
1038.485972
  0
ARC
  5
13B
100
AcDbEntity
  8
M0
 62
     7
100
AcDbCircle
 10
333.316977
 20
1035.485972
 40
3.0
100
AcDbArc
 50
0.0
 51
90.0
  0
LINE
  5
13C
100
AcDbEntity
  8
M0
 62
     7
100
AcDbLine
 10
318.516978
 20
1038.485972
 11
316.716978
 21
1038.485972
  0
ARC
  5
13D
100
AcDbEntity
  8
M0
 62
     7
100
AcDbCircle
 10
316.716978
 20
1035.485972
 40
3.0
100
AcDbArc
 50
90.0
 51
180.0
  0
LINE
  5
13E
100
AcDbEntity
  8
M0
 62
     7
100
AcDbLine
 10
334.016978
 20
1032.335978
 11
334.016978
 21
1024.335978
  0
LINE
  5
13F
100
AcDbEntity
  8
M0
 62
     7
100
AcDbLine
 10
316.016978
 20
1032.335978
 11
316.016978
 21
1024.335978
  0
LINE
  5
140
100
AcDbEntity
  8
M0
 62
     7
100
AcDbLine
 10
334.016978
 20
1032.335978
 11
335.316977
 21
1032.335978
  0
ARC
  5
141
100
AcDbEntity
  8
M0
 62
     7
100
AcDbCircle
 10
335.316977
 20
1033.335978
 40
1.0
100
AcDbArc
 50
270.0
 51
360.0
  0
LINE
  5
142
100
AcDbEntity
  8
M0
 62
     7
100
AcDbLine
 10
314.716978
 20
1032.335978
 11
316.016978
 21
1032.335978
  0
ARC
  5
143
100
AcDbEntity
  8
M0
 62
     7
100
AcDbCircle
 10
314.716978
 20
1033.335978
 40
1.0
100
AcDbArc
 50
180.0
 51
270.0
  0
LINE
  5
144
100
AcDbEntity
  8
M0
 62
     7
100
AcDbLine
 10
314.716978
 20
1024.335978
 11
316.016978
 21
1024.335978
  0
ARC
  5
145
100
AcDbEntity
  8
M0
 62
     7
100
AcDbCircle
 10
314.716978
 20
1023.335978
 40
1.0
100
AcDbArc
 50
90.0
 51
180.0
  0
LINE
  5
146
100
AcDbEntity
  8
M0
 62
     7
100
AcDbLine
 10
334.016978
 20
1024.335978
 11
335.316977
 21
1024.335978
  0
ARC
  5
147
100
AcDbEntity
  8
M0
 62
     7
100
AcDbCircle
 10
335.316977
 20
1023.335978
 40
1.0
100
AcDbArc
 50
0.0
 51
90.0
  0
LINE
  5
148
100
AcDbEntity
  8
M0
 62
     7
100
AcDbLine
 10
313.716978
 20
1012.185969
 11
336.316977
 21
1012.185969
  0
LINE
  5
149
100
AcDbEntity
  8
M0
 62
     7
100
AcDbLine
 10
313.716978
 20
1035.485972
 11
313.716978
 21
1012.185969
  0
LINE
  5
14A
100
AcDbEntity
  8
M0
 62
     7
100
AcDbLine
 10
336.316977
 20
1012.185969
 11
336.316977
 21
1035.485972
  0
LINE
  5
14B
100
AcDbEntity
  8
M0
 62
     6
100
AcDbLine
 10
438.916974
 20
1061.835976
 11
424.016975
 21
1061.83598
  0
LINE
  5
14C
100
AcDbEntity
  8
M0
 62
     6
100
AcDbLine
 10
424.016975
 20
1061.83598
 11
424.016947
 21
971.83598
  0
LINE
  5
14D
100
AcDbEntity
  8
M0
 62
     6
100
AcDbLine
 10
424.016947
 20
971.83598
 11
438.916946
 21
971.835976
  0
LINE
  5
14E
100
AcDbEntity
  8
M0
 62
     6
100
AcDbLine
 10
438.916946
 20
971.835976
 11
438.916974
 21
1061.835976
  0
LINE
  5
14F
100
AcDbEntity
  8
M0
 62
     6
100
AcDbLine
 10
425.966955
 20
998.83598
 11
425.966955
 21
1000.33598
  0
LINE
  5
150
100
AcDbEntity
  8
M0
 62
     6
100
AcDbLine
 10
436.966955
 20
998.835976
 11
436.966955
 21
1000.335976
  0
LINE
  5
151
100
AcDbEntity
  8
M0
 62
     6
100
AcDbLine
 10
425.966955
 20
1000.33598
 11
436.966955
 21
1000.335976
  0
LINE
  5
152
100
AcDbEntity
  8
M0
 62
     6
100
AcDbLine
 10
426.966959
 20
1010.43597
 11
426.966955
 21
1000.335979
  0
LINE
  5
153
100
AcDbEntity
  8
M0
 62
     6
100
AcDbLine
 10
426.966955
 20
998.835979
 11
426.966946
 21
971.835979
  0
LINE
  5
154
100
AcDbEntity
  8
M0
 62
     6
100
AcDbLine
 10
435.966959
 20
1010.435968
 11
435.966955
 21
1000.335977
  0
LINE
  5
155
100
AcDbEntity
  8
M0
 62
     6
100
AcDbLine
 10
435.966955
 20
998.835977
 11
435.966946
 21
971.835977
  0
LINE
  5
156
100
AcDbEntity
  8
M0
 62
     6
100
AcDbLine
 10
436.966955
 20
998.835976
 11
435.966955
 21
998.835977
  0
LINE
  5
157
100
AcDbEntity
  8
M0
 62
     6
100
AcDbLine
 10
426.966955
 20
998.835979
 11
425.966955
 21
998.83598
  0
LINE
  5
158
100
AcDbEntity
  8
M0
 62
     6
100
AcDbLine
 10
435.966959
 20
1010.435968
 11
426.966959
 21
1010.43597
  0
LINE
  5
159
100
AcDbEntity
  8
M0
 62
     6
100
AcDbLine
 10
426.966948
 20
977.835979
 11
435.966948
 21
977.835977
  0
LINE
  5
15A
100
AcDbEntity
  8
M0
 62
     6
100
AcDbLine
 10
424.016953
 20
991.83598
 11
426.966953
 21
991.835979
  0
LINE
  5
15B
100
AcDbEntity
  8
M0
 62
     6
100
AcDbLine
 10
435.966953
 20
991.835977
 11
438.916953
 21
991.835976
  0
LINE
  5
15C
100
AcDbEntity
  8
M0
 62
     6
100
AcDbLine
 10
436.966966
 20
1034.835976
 11
436.966966
 21
1033.335976
  0
LINE
  5
15D
100
AcDbEntity
  8
M0
 62
     6
100
AcDbLine
 10
425.966966
 20
1033.33598
 11
436.966966
 21
1033.335976
  0
LINE
  5
15E
100
AcDbEntity
  8
M0
 62
     6
100
AcDbLine
 10
435.966963
 20
1023.235971
 11
435.966966
 21
1033.335977
  0
LINE
  5
15F
100
AcDbEntity
  8
M0
 62
     6
100
AcDbLine
 10
435.966966
 20
1034.835977
 11
435.966975
 21
1061.835977
  0
LINE
  5
160
100
AcDbEntity
  8
M0
 62
     6
100
AcDbLine
 10
436.966966
 20
1034.835976
 11
435.966966
 21
1034.835977
  0
LINE
  5
161
100
AcDbEntity
  8
M0
 62
     6
100
AcDbLine
 10
435.966963
 20
1023.235971
 11
426.966963
 21
1023.235973
  0
LINE
  5
162
100
AcDbEntity
  8
M0
 62
     6
100
AcDbLine
 10
426.966973
 20
1055.835979
 11
435.966973
 21
1055.835977
  0
LINE
  5
163
100
AcDbEntity
  8
M0
 62
     6
100
AcDbLine
 10
435.966968
 20
1041.835977
 11
438.916968
 21
1041.835976
  0
LINE
  5
164
100
AcDbEntity
  8
M0
 62
     6
100
AcDbLine
 10
426.966963
 20
1023.235973
 11
426.966966
 21
1033.335979
  0
LINE
  5
165
100
AcDbEntity
  8
M0
 62
     6
100
AcDbLine
 10
425.966966
 20
1034.83598
 11
425.966966
 21
1033.33598
  0
LINE
  5
166
100
AcDbEntity
  8
M0
 62
     6
100
AcDbLine
 10
426.966966
 20
1034.835979
 11
425.966966
 21
1034.83598
  0
LINE
  5
167
100
AcDbEntity
  8
M0
 62
     6
100
AcDbLine
 10
426.966966
 20
1034.835979
 11
426.966975
 21
1061.835979
  0
LINE
  5
168
100
AcDbEntity
  8
M0
 62
     6
100
AcDbLine
 10
424.016969
 20
1041.83598
 11
426.966968
 21
1041.835979
  0
CIRCLE
  5
169
100
AcDbEntity
  8
M0
 62
     6
100
AcDbCircle
 10
431.466961
 20
1016.835978
 40
2.799999
  0
LINE
  5
16A
100
AcDbEntity
  8
M0
 62
     6
100
AcDbLine
 10
211.11695
 20
1061.835976
 11
226.01695
 21
1061.83598
  0
LINE
  5
16B
100
AcDbEntity
  8
M0
 62
     6
100
AcDbLine
 10
226.01695
 20
1061.83598
 11
226.016978
 21
971.83598
  0
LINE
  5
16C
100
AcDbEntity
  8
M0
 62
     6
100
AcDbLine
 10
226.016978
 20
971.83598
 11
211.116978
 21
971.835976
  0
LINE
  5
16D
100
AcDbEntity
  8
M0
 62
     6
100
AcDbLine
 10
211.116978
 20
971.835976
 11
211.11695
 21
1061.835976
  0
LINE
  5
16E
100
AcDbEntity
  8
M0
 62
     6
100
AcDbLine
 10
224.06697
 20
998.83598
 11
224.066969
 21
1000.33598
  0
LINE
  5
16F
100
AcDbEntity
  8
M0
 62
     6
100
AcDbLine
 10
213.06697
 20
998.835976
 11
213.066969
 21
1000.335976
  0
LINE
  5
170
100
AcDbEntity
  8
M0
 62
     6
100
AcDbLine
 10
224.066969
 20
1000.33598
 11
213.066969
 21
1000.335976
  0
LINE
  5
171
100
AcDbEntity
  8
M0
 62
     6
100
AcDbLine
 10
223.066966
 20
1010.43597
 11
223.066969
 21
1000.335979
  0
LINE
  5
172
100
AcDbEntity
  8
M0
 62
     6
100
AcDbLine
 10
223.06697
 20
998.835979
 11
223.066978
 21
971.835979
  0
LINE
  5
173
100
AcDbEntity
  8
M0
 62
     6
100
AcDbLine
 10
214.066966
 20
1010.435968
 11
214.066969
 21
1000.335977
  0
LINE
  5
174
100
AcDbEntity
  8
M0
 62
     6
100
AcDbLine
 10
214.06697
 20
998.835977
 11
214.066978
 21
971.835977
  0
LINE
  5
175
100
AcDbEntity
  8
M0
 62
     6
100
AcDbLine
 10
213.06697
 20
998.835976
 11
214.06697
 21
998.835977
  0
LINE
  5
176
100
AcDbEntity
  8
M0
 62
     6
100
AcDbLine
 10
223.06697
 20
998.835979
 11
224.06697
 21
998.83598
  0
LINE
  5
177
100
AcDbEntity
  8
M0
 62
     6
100
AcDbLine
 10
214.066966
 20
1010.435968
 11
223.066966
 21
1010.43597
  0
LINE
  5
178
100
AcDbEntity
  8
M0
 62
     6
100
AcDbLine
 10
223.066976
 20
977.835979
 11
214.066976
 21
977.835977
  0
LINE
  5
179
100
AcDbEntity
  8
M0
 62
     6
100
AcDbLine
 10
226.016972
 20
991.83598
 11
223.066972
 21
991.835979
  0
LINE
  5
17A
100
AcDbEntity
  8
M0
 62
     6
100
AcDbLine
 10
214.066972
 20
991.835977
 11
211.116972
 21
991.835976
  0
LINE
  5
17B
100
AcDbEntity
  8
M0
 62
     6
100
AcDbLine
 10
213.066958
 20
1034.835976
 11
213.066959
 21
1033.335976
  0
LINE
  5
17C
100
AcDbEntity
  8
M0
 62
     6
100
AcDbLine
 10
224.066959
 20
1033.33598
 11
213.066959
 21
1033.335976
  0
LINE
  5
17D
100
AcDbEntity
  8
M0
 62
     6
100
AcDbLine
 10
214.066962
 20
1023.235971
 11
214.066959
 21
1033.335977
  0
LINE
  5
17E
100
AcDbEntity
  8
M0
 62
     6
100
AcDbLine
 10
214.066958
 20
1034.835977
 11
214.06695
 21
1061.835977
  0
LINE
  5
17F
100
AcDbEntity
  8
M0
 62
     6
100
AcDbLine
 10
213.066958
 20
1034.835976
 11
214.066958
 21
1034.835977
  0
LINE
  5
180
100
AcDbEntity
  8
M0
 62
     6
100
AcDbLine
 10
214.066962
 20
1023.235971
 11
223.066962
 21
1023.235973
  0
LINE
  5
181
100
AcDbEntity
  8
M0
 62
     6
100
AcDbLine
 10
223.066952
 20
1055.835979
 11
214.066952
 21
1055.835977
  0
LINE
  5
182
100
AcDbEntity
  8
M0
 62
     6
100
AcDbLine
 10
214.066956
 20
1041.835977
 11
211.116956
 21
1041.835976
  0
LINE
  5
183
100
AcDbEntity
  8
M0
 62
     6
100
AcDbLine
 10
223.066962
 20
1023.235973
 11
223.066959
 21
1033.335979
  0
LINE
  5
184
100
AcDbEntity
  8
M0
 62
     6
100
AcDbLine
 10
224.066958
 20
1034.83598
 11
224.066959
 21
1033.33598
  0
LINE
  5
185
100
AcDbEntity
  8
M0
 62
     6
100
AcDbLine
 10
223.066958
 20
1034.835979
 11
224.066958
 21
1034.83598
  0
LINE
  5
186
100
AcDbEntity
  8
M0
 62
     6
100
AcDbLine
 10
223.066958
 20
1034.835979
 11
223.06695
 21
1061.835979
  0
LINE
  5
187
100
AcDbEntity
  8
M0
 62
     6
100
AcDbLine
 10
226.016956
 20
1041.83598
 11
223.066956
 21
1041.835979
  0
CIRCLE
  5
188
100
AcDbEntity
  8
M0
 62
     6
100
AcDbCircle
 10
218.566964
 20
1016.835978
 40
2.799999
  0
LINE
  5
189
100
AcDbEntity
  8
M0
 62
     4
100
AcDbLine
 10
467.016883
 20
1059.83598
 11
455.016883
 21
1059.835976
  0
LINE
  5
18A
100
AcDbEntity
  8
M0
  6
DASHDOT
 62
     4
100
AcDbLine
 10
477.088281
 20
1016.835983
 11
445.854692
 21
1016.835973
  0
LINE
  5
18B
100
AcDbEntity
  8
M0
 62
     4
100
AcDbLine
 10
467.01691
 20
973.83598
 11
467.016883
 21
1059.83598
  0
LINE
  5
18C
100
AcDbEntity
  8
M0
 62
     4
100
AcDbLine
 10
467.01691
 20
973.83598
 11
455.01691
 21
973.835976
  0
LINE
  5
18D
100
AcDbEntity
  8
M0
  6
DASHDOT
 62
     4
100
AcDbLine
 10
477.088281
 20
1016.835983
 11
445.854692
 21
1016.835973
  0
LINE
  5
18E
100
AcDbEntity
  8
M0
 62
     4
100
AcDbLine
 10
455.01691
 20
973.835976
 11
455.016883
 21
1059.83598
  0
LINE
  5
18F
100
AcDbEntity
  8
M0
100
AcDbLine
 10
454.966974
 20
891.835993
 11
454.966974
 21
1141.835978
  0
LINE
  5
190
100
AcDbEntity
  8
M0
100
AcDbLine
 10
454.966974
 20
1141.835978
 11
413.945536
 21
1141.835978
  0
LINE
  5
191
100
AcDbEntity
  8
M0
100
AcDbLine
 10
195.066981
 20
1141.835978
 11
195.066981
 21
891.835993
  0
LINE
  5
192
100
AcDbEntity
  8
M0
100
AcDbLine
 10
195.066981
 20
891.835993
 11
236.088437
 21
891.835993
  0
LINE
  5
193
100
AcDbEntity
  8
M0
  6
DASHDOT
100
AcDbLine
 10
170.066981
 20
1016.835978
 11
480.956965
 21
1016.835978
  0
CIRCLE
  5
194
100
AcDbEntity
  8
M0
100
AcDbCircle
 10
240.016828
 20
906.835978
 40
5.75
  0
CIRCLE
  5
195
100
AcDbEntity
  8
M0
100
AcDbCircle
 10
240.016689
 20
1128.835978
 40
5.75
  0
CIRCLE
  5
196
100
AcDbEntity
  8
M0
100
AcDbCircle
 10
410.016689
 20
1128.835978
 40
5.75
  0
CIRCLE
  5
197
100
AcDbEntity
  8
M0
100
AcDbCircle
 10
410.016828
 20
906.835978
 40
5.75
  0
LINE
  5
198
100
AcDbEntity
  8
M0
100
AcDbLine
 10
454.966974
 20
1111.335978
 11
451.766962
 21
1111.335978
  0
LINE
  5
199
100
AcDbEntity
  8
M0
100
AcDbLine
 10
451.766962
 20
1141.835978
 11
451.766962
 21
1111.335978
  0
LINE
  5
19A
100
AcDbEntity
  8
M0
100
AcDbLine
 10
195.066981
 20
1111.335978
 11
197.837534
 21
1111.335978
  0
LINE
  5
19B
100
AcDbEntity
  8
M0
100
AcDbLine
 10
198.266993
 20
1141.835978
 11
198.266993
 21
1111.335978
  0
LINE
  5
19C
100
AcDbEntity
  8
M0
100
AcDbLine
 10
345.016978
 20
891.835993
 11
375.016978
 21
891.835993
  0
LINE
  5
19D
100
AcDbEntity
  8
M0
100
AcDbLine
 10
413.945536
 20
891.835993
 11
454.966974
 21
891.835993
  0
ARC
  5
19E
100
AcDbEntity
  8
M0
100
AcDbCircle
 10
410.016828
 20
906.835978
 40
11.5
100
AcDbArc
 50
270.882379
 51
349.61912
  0
LINE
  5
19F
100
AcDbEntity
  8
M0
100
AcDbLine
 10
275.016978
 20
891.835993
 11
305.016978
 21
891.835993
  0
ARC
  5
1A0
100
AcDbEntity
  8
M0
100
AcDbCircle
 10
240.016828
 20
906.835978
 40
11.5
100
AcDbArc
 50
29.591783
 51
122.120143
  0
LINE
  5
1A1
100
AcDbEntity
  8
M0
100
AcDbLine
 10
375.016978
 20
1141.835978
 11
344.65983
 21
1141.835978
  0
LINE
  5
1A2
100
AcDbEntity
  8
M0
100
AcDbLine
 10
305.374125
 20
1141.835978
 11
275.374125
 21
1141.835978
  0
LINE
  5
1A3
100
AcDbEntity
  8
M0
100
AcDbLine
 10
236.088419
 20
1141.835978
 11
195.066981
 21
1141.835978
  0
ARC
  5
1A4
100
AcDbEntity
  8
M0
100
AcDbCircle
 10
240.016689
 20
1128.835978
 40
11.5
100
AcDbArc
 50
100.5818
 51
175.011504
  0
ARC
  5
1A5
100
AcDbEntity
  8
M0
100
AcDbCircle
 10
410.016689
 20
1128.835978
 40
11.5
100
AcDbArc
 50
209.591812
 51
290.354715
  0
ARC
  5
1A6
100
AcDbEntity
  8
M0
100
AcDbCircle
 10
410.016828
 20
906.835978
 40
11.5
100
AcDbArc
 50
58.551019
 51
150.4081
  0
ARC
  5
1A7
100
AcDbEntity
  8
M0
100
AcDbCircle
 10
240.016828
 20
906.835978
 40
11.5
100
AcDbArc
 50
190.38088
 51
269.117621
  0
ARC
  5
1A8
100
AcDbEntity
  8
M0
100
AcDbCircle
 10
355.016689
 20
1128.835978
 40
5.75
100
AcDbArc
 50
328.551019
 51
585.916817
  0
ARC
  5
1A9
100
AcDbEntity
  8
M0
100
AcDbCircle
 10
355.016689
 20
1128.835978
 40
11.5
100
AcDbArc
 50
321.497772
 51
609.644094
  0
ARC
  5
1AA
100
AcDbEntity
  8
M0
100
AcDbCircle
 10
355.016828
 20
906.835978
 40
11.5
100
AcDbArc
 50
248.502484
 51
291.497516
  0
ARC
  5
1AB
100
AcDbEntity
  8
M0
100
AcDbCircle
 10
240.016689
 20
1128.835978
 40
11.5
100
AcDbArc
 50
249.645357
 51
330.408018
  0
ARC
  5
1AC
100
AcDbEntity
  8
M0
100
AcDbCircle
 10
410.016689
 20
1128.835978
 40
11.5
100
AcDbArc
 50
4.989102
 51
79.418051
  0
LINE
  5
1AD
100
AcDbEntity
  8
M0
100
AcDbLine
 10
415.016978
 20
858.835978
 11
415.016978
 21
890.835978
  0
LINE
  5
1AE
100
AcDbEntity
  8
M0
100
AcDbLine
 10
375.016978
 20
890.835978
 11
375.016978
 21
858.835978
  0
LINE
  5
1AF
100
AcDbEntity
  8
M0
100
AcDbLine
 10
375.016978
 20
858.835978
 11
415.016978
 21
858.835978
  0
LINE
  5
1B0
100
AcDbEntity
  8
M0
100
AcDbLine
 10
370.016978
 20
927.835978
 11
370.016978
 21
904.835978
  0
LINE
  5
1B1
100
AcDbEntity
  8
M0
100
AcDbLine
 10
375.016978
 20
890.835978
 11
370.016978
 21
904.835978
  0
LINE
  5
1B2
100
AcDbEntity
  8
M0
100
AcDbLine
 10
400.016978
 20
927.835978
 11
400.016978
 21
904.835978
  0
LINE
  5
1B3
100
AcDbEntity
  8
M0
100
AcDbLine
 10
415.016962
 20
890.835978
 11
400.016978
 21
904.835978
  0
CIRCLE
  5
1B4
100
AcDbEntity
  8
M0
100
AcDbCircle
 10
395.016978
 20
874.835978
 40
6.0
  0
LINE
  5
1B5
100
AcDbEntity
  8
M0
  6
DASHDOT
100
AcDbLine
 10
380.016978
 20
874.835978
 11
410.016978
 21
874.835978
  0
LINE
  5
1B6
100
AcDbEntity
  8
M0
  6
DASHDOT
100
AcDbLine
 10
395.016978
 20
859.835978
 11
395.016978
 21
889.835978
  0
LINE
  5
1B7
100
AcDbEntity
  8
M0
100
AcDbLine
 10
305.016978
 20
858.835978
 11
345.016978
 21
858.835978
  0
LINE
  5
1B8
100
AcDbEntity
  8
M0
  6
DASHDOT
100
AcDbLine
 10
325.016978
 20
833.835948
 11
325.016978
 21
1016.835948
  0
LINE
  5
1B9
100
AcDbEntity
  8
M0
100
AcDbLine
 10
305.016978
 20
890.835978
 11
305.016978
 21
858.835978
  0
LINE
  5
1BA
100
AcDbEntity
  8
M0
100
AcDbLine
 10
345.016978
 20
858.835978
 11
345.016978
 21
890.835978
  0
LINE
  5
1BB
100
AcDbEntity
  8
M0
100
AcDbLine
 10
340.016978
 20
927.835978
 11
340.016978
 21
904.835978
  0
LINE
  5
1BC
100
AcDbEntity
  8
M0
100
AcDbLine
 10
340.016978
 20
904.835978
 11
345.016978
 21
890.835978
  0
LINE
  5
1BD
100
AcDbEntity
  8
M0
100
AcDbLine
 10
305.016978
 20
890.835978
 11
310.016978
 21
904.835978
  0
LINE
  5
1BE
100
AcDbEntity
  8
M0
100
AcDbLine
 10
310.016978
 20
927.835978
 11
310.016978
 21
904.835978
  0
CIRCLE
  5
1BF
100
AcDbEntity
  8
M0
100
AcDbCircle
 10
325.016978
 20
874.835978
 40
6.0
  0
LINE
  5
1C0
100
AcDbEntity
  8
M0
  6
DASHDOT
100
AcDbLine
 10
310.016978
 20
874.835978
 11
340.016978
 21
874.835978
  0
LINE
  5
1C1
100
AcDbEntity
  8
M0
100
AcDbLine
 10
235.016978
 20
858.835978
 11
235.016978
 21
890.835978
  0
LINE
  5
1C2
100
AcDbEntity
  8
M0
100
AcDbLine
 10
275.016978
 20
890.835978
 11
275.016978
 21
858.835978
  0
LINE
  5
1C3
100
AcDbEntity
  8
M0
100
AcDbLine
 10
275.016978
 20
858.835978
 11
235.016978
 21
858.835978
  0
LINE
  5
1C4
100
AcDbEntity
  8
M0
100
AcDbLine
 10
280.016978
 20
927.835978
 11
280.016978
 21
904.835978
  0
LINE
  5
1C5
100
AcDbEntity
  8
M0
100
AcDbLine
 10
275.016978
 20
890.835978
 11
280.016978
 21
904.835978
  0
LINE
  5
1C6
100
AcDbEntity
  8
M0
100
AcDbLine
 10
250.016978
 20
927.835978
 11
250.016978
 21
904.835978
  0
LINE
  5
1C7
100
AcDbEntity
  8
M0
100
AcDbLine
 10
235.016993
 20
890.835978
 11
250.016978
 21
904.835978
  0
CIRCLE
  5
1C8
100
AcDbEntity
  8
M0
100
AcDbCircle
 10
255.016978
 20
874.835978
 40
6.0
  0
LINE
  5
1C9
100
AcDbEntity
  8
M0
  6
DASHDOT
100
AcDbLine
 10
240.016978
 20
874.835978
 11
270.016978
 21
874.835978
  0
LINE
  5
1CA
100
AcDbEntity
  8
M0
  6
DASHDOT
100
AcDbLine
 10
255.016978
 20
859.835978
 11
255.016978
 21
889.835978
  0
LINE
  5
1CB
100
AcDbEntity
  8
M0
100
AcDbLine
 10
235.016904
 20
1174.835966
 11
235.016924
 21
1142.835966
  0
LINE
  5
1CC
100
AcDbEntity
  8
M0
100
AcDbLine
 10
275.016924
 20
1142.835991
 11
275.016904
 21
1174.835991
  0
LINE
  5
1CD
100
AcDbEntity
  8
M0
100
AcDbLine
 10
275.016904
 20
1174.835991
 11
235.016904
 21
1174.835966
  0
LINE
  5
1CE
100
AcDbEntity
  8
M0
100
AcDbLine
 10
280.016947
 20
1105.835994
 11
280.016933
 21
1128.835994
  0
LINE
  5
1CF
100
AcDbEntity
  8
M0
100
AcDbLine
 10
275.016924
 20
1142.835991
 11
280.016933
 21
1128.835994
  0
LINE
  5
1D0
100
AcDbEntity
  8
M0
100
AcDbLine
 10
250.016947
 20
1105.835975
 11
250.016933
 21
1128.835975
  0
LINE
  5
1D1
100
AcDbEntity
  8
M0
100
AcDbLine
 10
235.016939
 20
1142.835966
 11
250.016933
 21
1128.835975
  0
CIRCLE
  5
1D2
100
AcDbEntity
  8
M0
100
AcDbCircle
 10
255.016914
 20
1158.835978
 40
6.0
  0
LINE
  5
1D3
100
AcDbEntity
  8
M0
  6
DASHDOT
100
AcDbLine
 10
240.016914
 20
1158.835978
 11
270.016914
 21
1158.835978
  0
LINE
  5
1D4
100
AcDbEntity
  8
M0
  6
DASHDOT
100
AcDbLine
 10
255.016914
 20
1143.835978
 11
255.016914
 21
1173.835978
  0
LINE
  5
1D5
100
AcDbEntity
  8
M0
100
AcDbLine
 10
305.016904
 20
1174.835966
 11
345.016904
 21
1174.835991
  0
LINE
  5
1D6
100
AcDbEntity
  8
M0
  6
DASHDOT
100
AcDbLine
 10
325.016644
 20
1199.835948
 11
325.016759
 21
1016.835948
  0
LINE
  5
1D7
100
AcDbEntity
  8
M0
100
AcDbLine
 10
305.016924
 20
1142.835966
 11
305.016904
 21
1174.835966
  0
LINE
  5
1D8
100
AcDbEntity
  8
M0
100
AcDbLine
 10
345.016904
 20
1174.835991
 11
345.016924
 21
1142.835991
  0
LINE
  5
1D9
100
AcDbEntity
  8
M0
100
AcDbLine
 10
340.016947
 20
1105.835988
 11
340.016933
 21
1128.835988
  0
LINE
  5
1DA
100
AcDbEntity
  8
M0
100
AcDbLine
 10
340.016933
 20
1128.835988
 11
345.016924
 21
1142.835991
  0
LINE
  5
1DB
100
AcDbEntity
  8
M0
100
AcDbLine
 10
305.016924
 20
1142.835966
 11
310.016933
 21
1128.835969
  0
LINE
  5
1DC
100
AcDbEntity
  8
M0
100
AcDbLine
 10
310.016947
 20
1105.835969
 11
310.016933
 21
1128.835969
  0
CIRCLE
  5
1DD
100
AcDbEntity
  8
M0
100
AcDbCircle
 10
325.016914
 20
1158.835978
 40
6.0
  0
LINE
  5
1DE
100
AcDbEntity
  8
M0
  6
DASHDOT
100
AcDbLine
 10
310.016914
 20
1158.835978
 11
340.016914
 21
1158.835978
  0
LINE
  5
1DF
100
AcDbEntity
  8
M0
100
AcDbLine
 10
415.016904
 20
1174.835991
 11
415.016924
 21
1142.835991
  0
LINE
  5
1E0
100
AcDbEntity
  8
M0
100
AcDbLine
 10
375.016924
 20
1142.835966
 11
375.016904
 21
1174.835966
  0
LINE
  5
1E1
100
AcDbEntity
  8
M0
100
AcDbLine
 10
375.016904
 20
1174.835966
 11
415.016904
 21
1174.835991
  0
LINE
  5
1E2
100
AcDbEntity
  8
M0
100
AcDbLine
 10
370.016947
 20
1105.835962
 11
370.016933
 21
1128.835962
  0
LINE
  5
1E3
100
AcDbEntity
  8
M0
100
AcDbLine
 10
375.016924
 20
1142.835966
 11
370.016933
 21
1128.835962
  0
LINE
  5
1E4
100
AcDbEntity
  8
M0
100
AcDbLine
 10
400.016947
 20
1105.835981
 11
400.016933
 21
1128.835981
  0
LINE
  5
1E5
100
AcDbEntity
  8
M0
100
AcDbLine
 10
415.016909
 20
1142.835991
 11
400.016933
 21
1128.835981
  0
CIRCLE
  5
1E6
100
AcDbEntity
  8
M0
100
AcDbCircle
 10
395.016914
 20
1158.835978
 40
6.0
  0
LINE
  5
1E7
100
AcDbEntity
  8
M0
  6
DASHDOT
100
AcDbLine
 10
380.016914
 20
1158.835978
 11
410.016914
 21
1158.835978
  0
LINE
  5
1E8
100
AcDbEntity
  8
M0
  6
DASHDOT
100
AcDbLine
 10
395.016914
 20
1143.835978
 11
395.016914
 21
1173.835978
  0
LINE
  5
1E9
100
AcDbEntity
  8
M0
100
AcDbLine
 10
892.512606
 20
891.835943
 11
892.512685
 21
1141.835943
  0
LINE
  5
1EA
100
AcDbEntity
  8
M0
100
AcDbLine
 10
892.512673
 20
1104.835943
 11
892.512682
 21
1132.835943
  0
LINE
  5
1EB
100
AcDbEntity
  8
M0
100
AcDbLine
 10
755.512583
 20
1174.835948
 11
765.512583
 21
1174.835948
  0
LINE
  5
1EC
100
AcDbEntity
  8
M0
100
AcDbLine
 10
755.512583
 20
858.835948
 11
765.512583
 21
858.835948
  0
LINE
  5
1ED
100
AcDbEntity
  8
M0
100
AcDbLine
 10
755.512583
 20
1174.835948
 11
755.512583
 21
1111.835943
  0
LINE
  5
1EE
100
AcDbEntity
  8
M0
100
AcDbLine
 10
765.512583
 20
1174.835948
 11
765.512583
 21
1117.935943
  0
LINE
  5
1EF
100
AcDbEntity
  8
M0
100
AcDbLine
 10
755.512583
 20
921.835943
 11
755.512583
 21
858.835948
  0
LINE
  5
1F0
100
AcDbEntity
  8
M0
100
AcDbLine
 10
765.512583
 20
917.835943
 11
765.512583
 21
914.345666
  0
LINE
  5
1F1
100
AcDbEntity
  8
M0
100
AcDbLine
 10
765.512583
 20
899.325853
 11
765.512583
 21
858.835948
  0
ARC
  5
1F2
100
AcDbEntity
  8
M0
 62
     2
100
AcDbCircle
 10
200.016978
 20
1106.835978
 40
5.0
100
AcDbArc
 50
89.999825
 51
180.0
  0
LINE
  5
1F3
100
AcDbEntity
  8
M0
 62
     2
100
AcDbLine
 10
235.016978
 20
1111.835978
 11
200.016978
 21
1111.835978
  0
ARC
  5
1F4
100
AcDbEntity
  8
M0
 62
     2
100
AcDbCircle
 10
235.016978
 20
1107.835978
 40
4.0
100
AcDbArc
 50
0.0
 51
89.999781
  0
LINE
  5
1F5
100
AcDbEntity
  8
M0
 62
     2
100
AcDbLine
 10
195.016978
 20
1086.835978
 11
226.016978
 21
1086.835978
  0
LINE
  5
1F6
100
AcDbEntity
  8
M0
 62
     2
100
AcDbLine
 10
195.016978
 20
1106.835978
 11
195.016978
 21
896.835993
  0
ARC
  5
1F7
100
AcDbEntity
  8
M0
 62
     2
100
AcDbCircle
 10
200.016978
 20
896.835993
 40
5.0
100
AcDbArc
 50
179.999825
 51
270.0
  0
ARC
  5
1F8
100
AcDbEntity
  8
M0
 62
     2
100
AcDbCircle
 10
235.016978
 20
925.835979
 40
4.0
100
AcDbArc
 50
270.0
 51
360.0
  0
ARC
  5
1F9
100
AcDbEntity
  8
M0
 62
     2
100
AcDbCircle
 10
233.016978
 20
925.835979
 40
4.0
100
AcDbArc
 50
179.999973
 51
270.0
  0
LINE
  5
1FA
100
AcDbEntity
  8
M0
 62
     2
100
AcDbLine
 10
235.016978
 20
921.835979
 11
228.816978
 21
921.835979
  0
LINE
  5
1FB
100
AcDbEntity
  8
M0
 62
     2
100
AcDbLine
 10
212.016978
 20
921.835979
 11
208.816978
 21
921.835979
  0
LINE
  5
1FC
100
AcDbEntity
  8
M0
 62
     2
100
AcDbLine
 10
200.016978
 20
891.835993
 11
219.754389
 21
891.835993
  0
ARC
  5
1FD
100
AcDbEntity
  8
M0
 62
     2
100
AcDbCircle
 10
219.754389
 20
896.835993
 40
5.0
100
AcDbArc
 50
270.0
 51
336.250608
  0
LINE
  5
1FE
100
AcDbEntity
  8
M0
 62
     2
100
AcDbLine
 10
234.016978
 20
916.835979
 11
234.016978
 21
921.835979
  0
LINE
  5
1FF
100
AcDbEntity
  8
M0
 62
     2
100
AcDbLine
 10
195.016978
 20
971.835978
 11
227.516978
 21
971.835978
  0
LINE
  5
200
100
AcDbEntity
  8
M0
 62
     2
100
AcDbLine
 10
212.016978
 20
971.835978
 11
212.016978
 21
921.835979
  0
LINE
  5
201
100
AcDbEntity
  8
M0
 62
     2
100
AcDbLine
 10
217.016978
 20
921.835979
 11
217.016978
 21
971.835978
  0
LINE
  5
202
100
AcDbEntity
  8
M0
 62
     2
100
AcDbLine
 10
212.016978
 20
934.835978
 11
214.516978
 21
937.835978
  0
LINE
  5
203
100
AcDbEntity
  8
M0
 62
     2
100
AcDbLine
 10
212.016978
 20
921.835979
 11
214.516978
 21
924.835979
  0
LINE
  5
204
100
AcDbEntity
  8
M0
 62
     2
100
AcDbLine
 10
217.016978
 20
934.835978
 11
214.516978
 21
937.835978
  0
LINE
  5
205
100
AcDbEntity
  8
M0
 62
     2
100
AcDbLine
 10
217.016978
 20
921.835979
 11
214.516978
 21
924.835979
  0
LINE
  5
206
100
AcDbEntity
  8
M0
 62
     2
100
AcDbLine
 10
195.016978
 20
934.835978
 11
200.216978
 21
934.835978
  0
LINE
  5
207
100
AcDbEntity
  8
M0
 62
     2
100
AcDbLine
 10
217.016978
 20
934.835978
 11
220.216978
 21
934.835978
  0
LINE
  5
208
100
AcDbEntity
  8
M0
 62
     2
100
AcDbLine
 10
214.516978
 20
971.835978
 11
214.516978
 21
924.835979
  0
LINE
  5
209
100
AcDbEntity
  8
M0
 62
     2
100
AcDbLine
 10
200.016978
 20
934.835978
 11
200.016978
 21
962.335978
  0
LINE
  5
20A
100
AcDbEntity
  8
M0
 62
     2
100
AcDbLine
 10
209.016978
 20
934.835978
 11
209.016978
 21
962.335978
  0
LINE
  5
20B
100
AcDbEntity
  8
M0
 62
     2
100
AcDbLine
 10
220.016978
 20
962.335978
 11
220.016978
 21
934.835978
  0
LINE
  5
20C
100
AcDbEntity
  8
M0
 62
     2
100
AcDbLine
 10
200.016978
 20
964.835978
 11
200.016978
 21
971.835978
  0
ARC
  5
20D
100
AcDbEntity
  8
M0
 62
     2
100
AcDbCircle
 10
202.016978
 20
964.835978
 40
2.0
100
AcDbArc
 50
180.0
 51
270.0
  0
LINE
  5
20E
100
AcDbEntity
  8
M0
 62
     2
100
AcDbLine
 10
209.016978
 20
964.835978
 11
209.016978
 21
971.835978
  0
LINE
  5
20F
100
AcDbEntity
  8
M0
 62
     2
100
AcDbLine
 10
220.016978
 20
971.835978
 11
220.016978
 21
964.835978
  0
ARC
  5
210
100
AcDbEntity
  8
M0
 62
     2
100
AcDbCircle
 10
222.016978
 20
964.835978
 40
2.0
100
AcDbArc
 50
180.0
 51
270.0
  0
LINE
  5
211
100
AcDbEntity
  8
M0
 62
     2
100
AcDbLine
 10
224.330958
 20
894.822291
 11
234.016978
 21
916.835979
  0
LINE
  5
212
100
AcDbEntity
  8
M0
 62
     2
100
AcDbLine
 10
202.016978
 20
962.835978
 11
207.016978
 21
962.835978
  0
ARC
  5
213
100
AcDbEntity
  8
M0
 62
     2
100
AcDbCircle
 10
207.016978
 20
964.835978
 40
2.0
100
AcDbArc
 50
270.0
 51
360.0
  0
LINE
  5
214
100
AcDbEntity
  8
M0
 62
     2
100
AcDbLine
 10
222.016978
 20
962.835978
 11
229.016978
 21
962.835978
  0
LINE
  5
215
100
AcDbEntity
  8
M0
 62
     2
100
AcDbLine
 10
220.016978
 20
962.335978
 11
229.016978
 21
962.335978
  0
LINE
  5
216
100
AcDbEntity
  8
M0
 62
     2
100
AcDbLine
 10
200.016978
 20
962.335978
 11
209.016978
 21
962.335978
  0
ARC
  5
217
100
AcDbEntity
  8
M0
 62
     2
100
AcDbCircle
 10
450.016978
 20
1106.835978
 40
5.0
100
AcDbArc
 50
0.0
 51
90.0
  0
LINE
  5
218
100
AcDbEntity
  8
M0
 62
     2
100
AcDbLine
 10
415.016978
 20
1111.835978
 11
450.016978
 21
1111.835978
  0
ARC
  5
219
100
AcDbEntity
  8
M0
 62
     2
100
AcDbCircle
 10
415.016978
 20
1107.835978
 40
4.0
100
AcDbArc
 50
90.0
 51
180.0
  0
LINE
  5
21A
100
AcDbEntity
  8
M0
 62
     2
100
AcDbLine
 10
455.016978
 20
1086.835978
 11
424.016978
 21
1086.835978
  0
LINE
  5
21B
100
AcDbEntity
  8
M0
 62
     2
100
AcDbLine
 10
455.016978
 20
1106.835978
 11
455.016978
 21
896.835993
  0
ARC
  5
21C
100
AcDbEntity
  8
M0
 62
     2
100
AcDbCircle
 10
450.016978
 20
896.835993
 40
5.0
100
AcDbArc
 50
-90.000175
 51
0.0
  0
ARC
  5
21D
100
AcDbEntity
  8
M0
 62
     2
100
AcDbCircle
 10
415.016978
 20
925.835979
 40
4.0
100
AcDbArc
 50
179.999973
 51
269.999781
  0
ARC
  5
21E
100
AcDbEntity
  8
M0
 62
     2
100
AcDbCircle
 10
417.016978
 20
925.835979
 40
4.0
100
AcDbArc
 50
-90.000219
 51
0.0
  0
LINE
  5
21F
100
AcDbEntity
  8
M0
 62
     2
100
AcDbLine
 10
415.016978
 20
921.835979
 11
421.216978
 21
921.835979
  0
LINE
  5
220
100
AcDbEntity
  8
M0
 62
     2
100
AcDbLine
 10
438.016978
 20
921.835979
 11
455.016978
 21
921.835979
  0
LINE
  5
221
100
AcDbEntity
  8
M0
 62
     2
100
AcDbLine
 10
450.016978
 20
891.835993
 11
430.279566
 21
891.835993
  0
ARC
  5
222
100
AcDbEntity
  8
M0
 62
     2
100
AcDbCircle
 10
430.279566
 20
896.835993
 40
5.0
100
AcDbArc
 50
203.749232
 51
269.999825
  0
LINE
  5
223
100
AcDbEntity
  8
M0
 62
     2
100
AcDbLine
 10
416.016978
 20
916.835979
 11
416.016978
 21
921.835979
  0
LINE
  5
224
100
AcDbEntity
  8
M0
 62
     2
100
AcDbLine
 10
455.016978
 20
971.835978
 11
422.516962
 21
971.835978
  0
LINE
  5
225
100
AcDbEntity
  8
M0
 62
     2
100
AcDbLine
 10
438.016978
 20
971.835978
 11
438.016978
 21
921.835979
  0
LINE
  5
226
100
AcDbEntity
  8
M0
 62
     2
100
AcDbLine
 10
433.016978
 20
921.835979
 11
433.016978
 21
971.835978
  0
LINE
  5
227
100
AcDbEntity
  8
M0
 62
     2
100
AcDbLine
 10
438.016978
 20
934.835978
 11
435.516978
 21
937.835978
  0
LINE
  5
228
100
AcDbEntity
  8
M0
 62
     2
100
AcDbLine
 10
438.016978
 20
921.835979
 11
435.516978
 21
924.835979
  0
LINE
  5
229
100
AcDbEntity
  8
M0
 62
     2
100
AcDbLine
 10
433.016978
 20
934.835978
 11
435.516978
 21
937.835978
  0
LINE
  5
22A
100
AcDbEntity
  8
M0
 62
     2
100
AcDbLine
 10
433.016978
 20
921.835979
 11
435.516978
 21
924.835979
  0
LINE
  5
22B
100
AcDbEntity
  8
M0
 62
     2
100
AcDbLine
 10
455.016978
 20
934.835978
 11
438.016978
 21
934.835978
  0
LINE
  5
22C
100
AcDbEntity
  8
M0
 62
     2
100
AcDbLine
 10
433.016978
 20
934.835978
 11
429.816978
 21
934.835978
  0
LINE
  5
22D
100
AcDbEntity
  8
M0
 62
     2
100
AcDbLine
 10
435.516978
 20
971.835978
 11
435.516978
 21
924.835979
  0
LINE
  5
22E
100
AcDbEntity
  8
M0
 62
     2
100
AcDbLine
 10
450.016978
 20
934.835978
 11
450.016978
 21
962.335978
  0
LINE
  5
22F
100
AcDbEntity
  8
M0
 62
     2
100
AcDbLine
 10
441.016978
 20
934.835978
 11
441.016978
 21
962.335978
  0
LINE
  5
230
100
AcDbEntity
  8
M0
 62
     2
100
AcDbLine
 10
430.016978
 20
962.335978
 11
430.016978
 21
934.835978
  0
LINE
  5
231
100
AcDbEntity
  8
M0
 62
     2
100
AcDbLine
 10
450.016978
 20
964.835978
 11
450.016978
 21
971.835978
  0
ARC
  5
232
100
AcDbEntity
  8
M0
 62
     2
100
AcDbCircle
 10
448.016978
 20
964.835978
 40
2.0
100
AcDbArc
 50
-90.000437
 51
0.0
  0
LINE
  5
233
100
AcDbEntity
  8
M0
 62
     2
100
AcDbLine
 10
441.016978
 20
964.835978
 11
441.016978
 21
971.835978
  0
LINE
  5
234
100
AcDbEntity
  8
M0
 62
     2
100
AcDbLine
 10
430.016978
 20
971.835978
 11
430.016978
 21
964.835978
  0
ARC
  5
235
100
AcDbEntity
  8
M0
 62
     2
100
AcDbCircle
 10
428.016978
 20
964.835978
 40
2.0
100
AcDbArc
 50
-90.000437
 51
0.0
  0
LINE
  5
236
100
AcDbEntity
  8
M0
 62
     2
100
AcDbLine
 10
425.702997
 20
894.822291
 11
416.016978
 21
916.835979
  0
CIRCLE
  5
237
100
AcDbEntity
  8
M0
 62
     2
100
AcDbCircle
 10
445.516978
 20
939.835978
 40
2.099999
  0
CIRCLE
  5
238
100
AcDbEntity
  8
M0
 62
     2
100
AcDbCircle
 10
445.516978
 20
947.835978
 40
2.099999
  0
CIRCLE
  5
239
100
AcDbEntity
  8
M0
 62
     2
100
AcDbCircle
 10
445.516978
 20
955.835978
 40
2.099999
  0
LINE
  5
23A
100
AcDbEntity
  8
M0
 62
     2
100
AcDbLine
 10
448.016978
 20
962.835978
 11
443.016978
 21
962.835978
  0
ARC
  5
23B
100
AcDbEntity
  8
M0
 62
     2
100
AcDbCircle
 10
443.016978
 20
964.835978
 40
2.0
100
AcDbArc
 50
180.0
 51
269.999563
  0
LINE
  5
23C
100
AcDbEntity
  8
M0
 62
     2
100
AcDbLine
 10
428.016978
 20
962.835978
 11
421.016978
 21
962.835978
  0
LINE
  5
23D
100
AcDbEntity
  8
M0
 62
     2
100
AcDbLine
 10
430.016978
 20
962.335978
 11
421.016978
 21
962.335978
  0
LINE
  5
23E
100
AcDbEntity
  8
M0
 62
     2
100
AcDbLine
 10
450.016978
 20
962.335978
 11
441.016978
 21
962.335978
  0
CIRCLE
  5
23F
100
AcDbEntity
  8
M0
 62
     2
100
AcDbCircle
 10
445.516978
 20
939.835978
 40
3.0
  0
CIRCLE
  5
240
100
AcDbEntity
  8
M0
 62
     2
100
AcDbCircle
 10
445.516978
 20
947.835978
 40
3.0
  0
CIRCLE
  5
241
100
AcDbEntity
  8
M0
 62
     2
100
AcDbCircle
 10
445.516978
 20
955.835978
 40
3.0
  0
LINE
  5
242
100
AcDbEntity
  8
M0
 62
     2
100
AcDbLine
 10
440.016985
 20
1108.341319
 11
446.518435
 21
1104.588725
  0
LINE
  5
243
100
AcDbEntity
  8
M0
 62
     2
100
AcDbLine
 10
446.518435
 20
1104.588725
 11
446.518435
 21
1097.083079
  0
LINE
  5
244
100
AcDbEntity
  8
M0
 62
     2
100
AcDbLine
 10
446.518435
 20
1097.083079
 11
440.016985
 21
1093.330332
  0
LINE
  5
245
100
AcDbEntity
  8
M0
 62
     2
100
AcDbLine
 10
440.016985
 20
1093.330332
 11
433.517962
 21
1097.083079
  0
LINE
  5
246
100
AcDbEntity
  8
M0
 62
     2
100
AcDbLine
 10
433.517962
 20
1097.083079
 11
433.517962
 21
1104.588725
  0
LINE
  5
247
100
AcDbEntity
  8
M0
 62
     2
100
AcDbLine
 10
433.517962
 20
1104.588725
 11
440.016985
 21
1108.341319
  0
CIRCLE
  5
248
100
AcDbEntity
  8
M0
 62
     2
100
AcDbCircle
 10
440.016978
 20
1100.835978
 40
8.0
  0
CIRCLE
  5
249
100
AcDbEntity
  8
M0
 62
     2
100
AcDbCircle
 10
440.016978
 20
1100.835978
 40
7.700005
  0
LINE
  5
24A
100
AcDbEntity
  8
M0
 62
     2
100
AcDbLine
 10
440.016985
 20
914.341321
 11
446.518435
 21
910.588727
  0
LINE
  5
24B
100
AcDbEntity
  8
M0
 62
     2
100
AcDbLine
 10
446.518435
 20
910.588727
 11
446.518435
 21
903.083081
  0
LINE
  5
24C
100
AcDbEntity
  8
M0
 62
     2
100
AcDbLine
 10
446.518435
 20
903.083081
 11
440.016985
 21
899.330334
  0
LINE
  5
24D
100
AcDbEntity
  8
M0
 62
     2
100
AcDbLine
 10
440.016985
 20
899.330334
 11
433.517962
 21
903.083081
  0
LINE
  5
24E
100
AcDbEntity
  8
M0
 62
     2
100
AcDbLine
 10
433.517962
 20
903.083081
 11
433.517962
 21
910.588727
  0
LINE
  5
24F
100
AcDbEntity
  8
M0
 62
     2
100
AcDbLine
 10
433.517962
 20
910.588727
 11
440.016985
 21
914.341321
  0
CIRCLE
  5
250
100
AcDbEntity
  8
M0
 62
     2
100
AcDbCircle
 10
440.016978
 20
906.83598
 40
8.0
  0
CIRCLE
  5
251
100
AcDbEntity
  8
M0
 62
     2
100
AcDbCircle
 10
440.016978
 20
906.83598
 40
7.700005
  0
LINE
  5
252
100
AcDbEntity
  8
M0
 62
     2
100
AcDbLine
 10
210.016985
 20
914.341321
 11
216.518435
 21
910.588727
  0
LINE
  5
253
100
AcDbEntity
  8
M0
 62
     2
100
AcDbLine
 10
216.518435
 20
910.588727
 11
216.518435
 21
903.083081
  0
LINE
  5
254
100
AcDbEntity
  8
M0
 62
     2
100
AcDbLine
 10
216.518435
 20
903.083081
 11
210.016985
 21
899.330334
  0
LINE
  5
255
100
AcDbEntity
  8
M0
 62
     2
100
AcDbLine
 10
210.016985
 20
899.330334
 11
203.517962
 21
903.083081
  0
LINE
  5
256
100
AcDbEntity
  8
M0
 62
     2
100
AcDbLine
 10
203.517962
 20
903.083081
 11
203.517962
 21
910.588727
  0
LINE
  5
257
100
AcDbEntity
  8
M0
 62
     2
100
AcDbLine
 10
203.517962
 20
910.588727
 11
210.016985
 21
914.341321
  0
CIRCLE
  5
258
100
AcDbEntity
  8
M0
 62
     2
100
AcDbCircle
 10
210.016978
 20
906.83598
 40
8.0
  0
CIRCLE
  5
259
100
AcDbEntity
  8
M0
 62
     2
100
AcDbCircle
 10
210.016978
 20
906.83598
 40
7.700005
  0
LINE
  5
25A
100
AcDbEntity
  8
M0
 62
     2
100
AcDbLine
 10
210.016985
 20
1108.341319
 11
216.518435
 21
1104.588725
  0
LINE
  5
25B
100
AcDbEntity
  8
M0
 62
     2
100
AcDbLine
 10
216.518435
 20
1104.588725
 11
216.518435
 21
1097.083079
  0
LINE
  5
25C
100
AcDbEntity
  8
M0
 62
     2
100
AcDbLine
 10
216.518435
 20
1097.083079
 11
210.016985
 21
1093.330332
  0
LINE
  5
25D
100
AcDbEntity
  8
M0
 62
     2
100
AcDbLine
 10
210.016985
 20
1093.330332
 11
203.517962
 21
1097.083079
  0
LINE
  5
25E
100
AcDbEntity
  8
M0
 62
     2
100
AcDbLine
 10
203.517962
 20
1097.083079
 11
203.517962
 21
1104.588725
  0
LINE
  5
25F
100
AcDbEntity
  8
M0
 62
     2
100
AcDbLine
 10
203.517962
 20
1104.588725
 11
210.016985
 21
1108.341319
  0
CIRCLE
  5
260
100
AcDbEntity
  8
M0
 62
     2
100
AcDbCircle
 10
210.016978
 20
1100.835978
 40
8.0
  0
CIRCLE
  5
261
100
AcDbEntity
  8
M0
 62
     2
100
AcDbCircle
 10
210.016978
 20
1100.835978
 40
7.700005
  0
LINE
  5
262
100
AcDbEntity
  8
M0
 62
     2
100
AcDbLine
 10
352.016691
 20
1125.835978
 11
363.016691
 21
1125.835978
  0
LINE
  5
263
100
AcDbEntity
  8
M0
 62
     2
100
AcDbLine
 10
364.016691
 20
1124.835979
 11
364.016703
 21
1105.835978
  0
LINE
  5
264
100
AcDbEntity
  8
M0
 62
     2
100
AcDbLine
 10
351.016691
 20
1124.835977
 11
351.0167
 21
1109.771969
  0
ARC
  5
265
100
AcDbEntity
  8
M0
 62
     2
100
AcDbCircle
 10
363.016691
 20
1124.835978
 40
1.0
100
AcDbArc
 50
3.597218E-005
 51
90.0
  0
ARC
  5
266
100
AcDbEntity
  8
M0
 62
     2
100
AcDbCircle
 10
352.016691
 20
1124.835978
 40
1.0
100
AcDbArc
 50
90.0
 51
180.000036
  0
LINE
  5
267
100
AcDbEntity
  8
M0
 62
     2
100
AcDbLine
 10
286.016691
 20
1124.83593
 11
286.016703
 21
1105.835929
  0
LINE
  5
268
100
AcDbEntity
  8
M0
 62
     2
100
AcDbLine
 10
299.016691
 20
1124.835945
 11
299.0167
 21
1109.771936
  0
ARC
  5
269
100
AcDbEntity
  8
M0
 62
     2
100
AcDbCircle
 10
287.016691
 20
1124.83593
 40
1.0
100
AcDbArc
 50
90.0
 51
180.000036
  0
LINE
  5
26A
100
AcDbEntity
  8
M0
 62
     2
100
AcDbLine
 10
298.01669
 20
1125.835944
 11
287.01669
 21
1125.83593
  0
ARC
  5
26B
100
AcDbEntity
  8
M0
 62
     2
100
AcDbCircle
 10
298.016691
 20
1124.835944
 40
1.0
100
AcDbArc
 50
3.597218E-005
 51
90.0
  0
LINE
  5
26C
100
AcDbEntity
  8
M0
 62
     2
100
AcDbLine
 10
351.016691
 20
908.835979
 11
351.0167
 21
923.899987
  0
LINE
  5
26D
100
AcDbEntity
  8
M0
 62
     2
100
AcDbLine
 10
352.016691
 20
907.835978
 11
363.016691
 21
907.835978
  0
ARC
  5
26E
100
AcDbEntity
  8
M0
 62
     2
100
AcDbCircle
 10
352.016691
 20
908.835978
 40
1.0
100
AcDbArc
 50
179.999964
 51
270.0
  0
ARC
  5
26F
100
AcDbEntity
  8
M0
 62
     2
100
AcDbCircle
 10
363.016691
 20
908.835978
 40
1.0
100
AcDbArc
 50
270.0
 51
359.999964
  0
LINE
  5
270
100
AcDbEntity
  8
M0
 62
     2
100
AcDbLine
 10
364.016691
 20
908.835977
 11
364.016703
 21
927.835978
  0
LINE
  5
271
100
AcDbEntity
  8
M0
 62
     2
100
AcDbLine
 10
299.016691
 20
908.836011
 11
299.0167
 21
923.90002
  0
LINE
  5
272
100
AcDbEntity
  8
M0
 62
     2
100
AcDbLine
 10
298.01669
 20
907.836012
 11
287.01669
 21
907.836026
  0
ARC
  5
273
100
AcDbEntity
  8
M0
 62
     2
100
AcDbCircle
 10
298.016691
 20
908.836012
 40
1.0
100
AcDbArc
 50
270.0
 51
359.999964
  0
ARC
  5
274
100
AcDbEntity
  8
M0
 62
     2
100
AcDbCircle
 10
287.016691
 20
908.836026
 40
1.0
100
AcDbArc
 50
179.999964
 51
270.0
  0
LINE
  5
275
100
AcDbEntity
  8
M0
 62
     2
100
AcDbLine
 10
286.016691
 20
908.836026
 11
286.016703
 21
927.836027
  0
LINE
  5
276
100
AcDbEntity
  8
M0
 62
     2
100
AcDbLine
 10
208.816978
 20
934.835978
 11
212.016978
 21
934.835978
  0
LINE
  5
277
100
AcDbEntity
  8
M0
 62
     2
100
AcDbLine
 10
200.216978
 20
921.835979
 11
195.016978
 21
921.835979
  0
LINE
  5
278
100
AcDbEntity
  8
M0
 62
     2
100
AcDbLine
 10
207.016978
 20
921.835979
 11
202.016978
 21
921.835979
  0
LINE
  5
279
100
AcDbEntity
  8
M0
 62
     2
100
AcDbLine
 10
228.816978
 20
934.835978
 11
229.016978
 21
934.835978
  0
LINE
  5
27A
100
AcDbEntity
  8
M0
 62
     2
100
AcDbLine
 10
227.016978
 20
921.835979
 11
222.016978
 21
921.835979
  0
LINE
  5
27B
100
AcDbEntity
  8
M0
 62
     2
100
AcDbLine
 10
220.216978
 20
921.835979
 11
217.016978
 21
921.835979
  0
LINE
  5
27C
100
AcDbEntity
  8
M0
 62
     2
100
AcDbLine
 10
421.216978
 20
934.835978
 11
421.016978
 21
934.835978
  0
LINE
  5
27D
100
AcDbEntity
  8
M0
 62
     2
100
AcDbLine
 10
429.816978
 20
921.835979
 11
433.016978
 21
921.835979
  0
LINE
  5
27E
100
AcDbEntity
  8
M0
 62
     2
100
AcDbLine
 10
423.016978
 20
921.835979
 11
428.016978
 21
921.835979
  0
LINE
  5
27F
100
AcDbEntity
  8
M0
 62
     6
100
AcDbLine
 10
453.816877
 20
1061.835976
 11
438.916877
 21
1061.83598
  0
LINE
  5
280
100
AcDbEntity
  8
M0
 62
     6
100
AcDbLine
 10
438.916877
 20
1061.83598
 11
438.916849
 21
971.83598
  0
LINE
  5
281
100
AcDbEntity
  8
M0
 62
     6
100
AcDbLine
 10
438.916849
 20
971.83598
 11
453.816849
 21
971.835976
  0
LINE
  5
282
100
AcDbEntity
  8
M0
 62
     6
100
AcDbLine
 10
453.816849
 20
971.835976
 11
453.816877
 21
1061.835976
  0
LINE
  5
283
100
AcDbEntity
  8
M0
 62
     6
100
AcDbLine
 10
440.866857
 20
998.83598
 11
440.866858
 21
1000.33598
  0
LINE
  5
284
100
AcDbEntity
  8
M0
 62
     6
100
AcDbLine
 10
451.866857
 20
998.835976
 11
451.866858
 21
1000.335976
  0
LINE
  5
285
100
AcDbEntity
  8
M0
 62
     6
100
AcDbLine
 10
440.866858
 20
1000.33598
 11
451.866858
 21
1000.335976
  0
LINE
  5
286
100
AcDbEntity
  8
M0
 62
     6
100
AcDbLine
 10
441.866861
 20
1010.43597
 11
441.866858
 21
1000.335979
  0
LINE
  5
287
100
AcDbEntity
  8
M0
 62
     6
100
AcDbLine
 10
441.866857
 20
998.835979
 11
441.866849
 21
971.835979
  0
LINE
  5
288
100
AcDbEntity
  8
M0
 62
     6
100
AcDbLine
 10
450.866861
 20
1010.435968
 11
450.866858
 21
1000.335977
  0
LINE
  5
289
100
AcDbEntity
  8
M0
 62
     6
100
AcDbLine
 10
450.866857
 20
998.835977
 11
450.866849
 21
971.835977
  0
LINE
  5
28A
100
AcDbEntity
  8
M0
 62
     6
100
AcDbLine
 10
451.866857
 20
998.835976
 11
450.866857
 21
998.835977
  0
LINE
  5
28B
100
AcDbEntity
  8
M0
 62
     6
100
AcDbLine
 10
441.866857
 20
998.835979
 11
440.866857
 21
998.83598
  0
LINE
  5
28C
100
AcDbEntity
  8
M0
 62
     6
100
AcDbLine
 10
450.866861
 20
1010.435968
 11
441.866861
 21
1010.43597
  0
LINE
  5
28D
100
AcDbEntity
  8
M0
 62
     6
100
AcDbLine
 10
441.866851
 20
977.835979
 11
450.866851
 21
977.835977
  0
LINE
  5
28E
100
AcDbEntity
  8
M0
 62
     6
100
AcDbLine
 10
438.916855
 20
991.83598
 11
441.866855
 21
991.835979
  0
LINE
  5
28F
100
AcDbEntity
  8
M0
 62
     6
100
AcDbLine
 10
450.866855
 20
991.835977
 11
453.816855
 21
991.835976
  0
LINE
  5
290
100
AcDbEntity
  8
M0
 62
     6
100
AcDbLine
 10
451.866869
 20
1034.835976
 11
451.866868
 21
1033.335976
  0
LINE
  5
291
100
AcDbEntity
  8
M0
 62
     6
100
AcDbLine
 10
440.866868
 20
1033.33598
 11
451.866868
 21
1033.335976
  0
LINE
  5
292
100
AcDbEntity
  8
M0
 62
     6
100
AcDbLine
 10
450.866865
 20
1023.235971
 11
450.866868
 21
1033.335977
  0
LINE
  5
293
100
AcDbEntity
  8
M0
 62
     6
100
AcDbLine
 10
450.866869
 20
1034.835977
 11
450.866877
 21
1061.835977
  0
LINE
  5
294
100
AcDbEntity
  8
M0
 62
     6
100
AcDbLine
 10
451.866869
 20
1034.835976
 11
450.866869
 21
1034.835977
  0
LINE
  5
295
100
AcDbEntity
  8
M0
 62
     6
100
AcDbLine
 10
450.866865
 20
1023.235971
 11
441.866865
 21
1023.235973
  0
LINE
  5
296
100
AcDbEntity
  8
M0
 62
     6
100
AcDbLine
 10
441.866875
 20
1055.835979
 11
450.866875
 21
1055.835977
  0
LINE
  5
297
100
AcDbEntity
  8
M0
 62
     6
100
AcDbLine
 10
450.866871
 20
1041.835977
 11
453.816871
 21
1041.835976
  0
LINE
  5
298
100
AcDbEntity
  8
M0
 62
     6
100
AcDbLine
 10
441.866865
 20
1023.235973
 11
441.866868
 21
1033.335979
  0
LINE
  5
299
100
AcDbEntity
  8
M0
 62
     6
100
AcDbLine
 10
440.866869
 20
1034.83598
 11
440.866868
 21
1033.33598
  0
LINE
  5
29A
100
AcDbEntity
  8
M0
 62
     6
100
AcDbLine
 10
441.866869
 20
1034.835979
 11
440.866869
 21
1034.83598
  0
LINE
  5
29B
100
AcDbEntity
  8
M0
 62
     6
100
AcDbLine
 10
441.866869
 20
1034.835979
 11
441.866877
 21
1061.835979
  0
LINE
  5
29C
100
AcDbEntity
  8
M0
 62
     6
100
AcDbLine
 10
438.916871
 20
1041.83598
 11
441.866871
 21
1041.835979
  0
CIRCLE
  5
29D
100
AcDbEntity
  8
M0
 62
     6
100
AcDbCircle
 10
446.366863
 20
1016.835978
 40
2.799999
  0
LINE
  5
29E
100
AcDbEntity
  8
M0
 62
     6
100
AcDbLine
 10
211.117032
 20
1061.835976
 11
196.217033
 21
1061.83598
  0
LINE
  5
29F
100
AcDbEntity
  8
M0
 62
     6
100
AcDbLine
 10
196.217033
 20
1061.83598
 11
196.217005
 21
971.83598
  0
LINE
  5
2A0
100
AcDbEntity
  8
M0
 62
     6
100
AcDbLine
 10
196.217005
 20
971.83598
 11
211.117004
 21
971.835976
  0
LINE
  5
2A1
100
AcDbEntity
  8
M0
 62
     6
100
AcDbLine
 10
211.117004
 20
971.835976
 11
211.117032
 21
1061.835976
  0
LINE
  5
2A2
100
AcDbEntity
  8
M0
 62
     6
100
AcDbLine
 10
198.167013
 20
998.83598
 11
198.167013
 21
1000.33598
  0
LINE
  5
2A3
100
AcDbEntity
  8
M0
 62
     6
100
AcDbLine
 10
209.167013
 20
998.835976
 11
209.167013
 21
1000.335976
  0
LINE
  5
2A4
100
AcDbEntity
  8
M0
 62
     6
100
AcDbLine
 10
198.167013
 20
1000.33598
 11
209.167013
 21
1000.335976
  0
LINE
  5
2A5
100
AcDbEntity
  8
M0
 62
     6
100
AcDbLine
 10
199.167017
 20
1010.43597
 11
199.167013
 21
1000.335979
  0
LINE
  5
2A6
100
AcDbEntity
  8
M0
 62
     6
100
AcDbLine
 10
199.167013
 20
998.835979
 11
199.167004
 21
971.835979
  0
LINE
  5
2A7
100
AcDbEntity
  8
M0
 62
     6
100
AcDbLine
 10
208.167017
 20
1010.435968
 11
208.167013
 21
1000.335977
  0
LINE
  5
2A8
100
AcDbEntity
  8
M0
 62
     6
100
AcDbLine
 10
208.167013
 20
998.835977
 11
208.167004
 21
971.835977
  0
LINE
  5
2A9
100
AcDbEntity
  8
M0
 62
     6
100
AcDbLine
 10
209.167013
 20
998.835976
 11
208.167013
 21
998.835977
  0
LINE
  5
2AA
100
AcDbEntity
  8
M0
 62
     6
100
AcDbLine
 10
199.167013
 20
998.835979
 11
198.167013
 21
998.83598
  0
LINE
  5
2AB
100
AcDbEntity
  8
M0
 62
     6
100
AcDbLine
 10
208.167017
 20
1010.435968
 11
199.167017
 21
1010.43597
  0
LINE
  5
2AC
100
AcDbEntity
  8
M0
 62
     6
100
AcDbLine
 10
199.167006
 20
977.835979
 11
208.167006
 21
977.835977
  0
LINE
  5
2AD
100
AcDbEntity
  8
M0
 62
     6
100
AcDbLine
 10
196.217011
 20
991.83598
 11
199.167011
 21
991.835979
  0
LINE
  5
2AE
100
AcDbEntity
  8
M0
 62
     6
100
AcDbLine
 10
208.167011
 20
991.835977
 11
211.117011
 21
991.835976
  0
LINE
  5
2AF
100
AcDbEntity
  8
M0
 62
     6
100
AcDbLine
 10
209.167024
 20
1034.835976
 11
209.167024
 21
1033.335976
  0
LINE
  5
2B0
100
AcDbEntity
  8
M0
 62
     6
100
AcDbLine
 10
198.167024
 20
1033.33598
 11
209.167024
 21
1033.335976
  0
LINE
  5
2B1
100
AcDbEntity
  8
M0
 62
     6
100
AcDbLine
 10
208.167021
 20
1023.235971
 11
208.167024
 21
1033.335977
  0
LINE
  5
2B2
100
AcDbEntity
  8
M0
 62
     6
100
AcDbLine
 10
208.167024
 20
1034.835977
 11
208.167033
 21
1061.835977
  0
LINE
  5
2B3
100
AcDbEntity
  8
M0
 62
     6
100
AcDbLine
 10
209.167024
 20
1034.835976
 11
208.167024
 21
1034.835977
  0
LINE
  5
2B4
100
AcDbEntity
  8
M0
 62
     6
100
AcDbLine
 10
208.167021
 20
1023.235971
 11
199.167021
 21
1023.235973
  0
LINE
  5
2B5
100
AcDbEntity
  8
M0
 62
     6
100
AcDbLine
 10
199.167031
 20
1055.835979
 11
208.167031
 21
1055.835977
  0
LINE
  5
2B6
100
AcDbEntity
  8
M0
 62
     6
100
AcDbLine
 10
208.167026
 20
1041.835977
 11
211.117026
 21
1041.835976
  0
LINE
  5
2B7
100
AcDbEntity
  8
M0
 62
     6
100
AcDbLine
 10
199.167021
 20
1023.235973
 11
199.167024
 21
1033.335979
  0
LINE
  5
2B8
100
AcDbEntity
  8
M0
 62
     6
100
AcDbLine
 10
198.167024
 20
1034.83598
 11
198.167024
 21
1033.33598
  0
LINE
  5
2B9
100
AcDbEntity
  8
M0
 62
     6
100
AcDbLine
 10
199.167024
 20
1034.835979
 11
198.167024
 21
1034.83598
  0
LINE
  5
2BA
100
AcDbEntity
  8
M0
 62
     6
100
AcDbLine
 10
199.167024
 20
1034.835979
 11
199.167033
 21
1061.835979
  0
LINE
  5
2BB
100
AcDbEntity
  8
M0
 62
     6
100
AcDbLine
 10
196.217027
 20
1041.83598
 11
199.167026
 21
1041.835979
  0
CIRCLE
  5
2BC
100
AcDbEntity
  8
M0
 62
     6
100
AcDbCircle
 10
203.667019
 20
1016.835978
 40
2.799999
  0
CIRCLE
  5
2BD
100
AcDbEntity
  8
M0
100
AcDbCircle
 10
203.666987
 20
982.835948
 40
3.5
  0
ARC
  5
2BE
100
AcDbEntity
  8
M0
100
AcDbCircle
 10
206.766989
 20
979.03595
 40
1.0
100
AcDbArc
 50
-90.0
 51
3.597218E-005
  0
LINE
  5
2BF
100
AcDbEntity
  8
M0
100
AcDbLine
 10
206.766989
 20
978.03595
 11
200.56699
 21
978.035946
  0
ARC
  5
2C0
100
AcDbEntity
  8
M0
100
AcDbCircle
 10
200.56699
 20
979.035946
 40
1.0
100
AcDbArc
 50
180.000036
 51
270.0
  0
LINE
  5
2C1
100
AcDbEntity
  8
M0
100
AcDbLine
 10
199.56699
 20
979.035946
 11
199.566985
 21
986.635944
  0
ARC
  5
2C2
100
AcDbEntity
  8
M0
100
AcDbCircle
 10
200.566985
 20
986.635945
 40
1.0
100
AcDbArc
 50
90.0
 51
180.000036
  0
LINE
  5
2C3
100
AcDbEntity
  8
M0
100
AcDbLine
 10
200.566984
 20
987.635945
 11
206.766983
 21
987.635949
  0
LINE
  5
2C4
100
AcDbEntity
  8
M0
100
AcDbLine
 10
207.766984
 20
986.635949
 11
207.766989
 21
979.035951
  0
ARC
  5
2C5
100
AcDbEntity
  8
M0
100
AcDbCircle
 10
206.766984
 20
986.635949
 40
1.0
100
AcDbArc
 50
-1.866939E-005
 51
90.0
  0
LINE
  5
2C6
100
AcDbEntity
  8
M0
100
AcDbLine
 10
202.137289
 20
981.306248
 11
205.269949
 21
984.438912
  0
LINE
  5
2C7
100
AcDbEntity
  8
M0
100
AcDbLine
 10
205.764926
 20
981.72796
 11
202.632262
 21
984.860619
  0
LINE
  5
2C8
100
AcDbEntity
  8
M0
100
AcDbLine
 10
204.774977
 20
980.73801
 11
201.642314
 21
983.87067
  0
LINE
  5
2C9
100
AcDbEntity
  8
M0
  6
DASHDOT
100
AcDbLine
 10
199.166987
 20
982.835948
 11
208.166987
 21
982.835948
  0
LINE
  5
2CA
100
AcDbEntity
  8
M0
  6
DASHDOT
100
AcDbLine
 10
203.666987
 20
978.335948
 11
203.666987
 21
987.335948
  0
CIRCLE
  5
2CB
100
AcDbEntity
  8
M0
100
AcDbCircle
 10
203.666987
 20
1005.335948
 40
3.5
  0
ARC
  5
2CC
100
AcDbEntity
  8
M0
100
AcDbCircle
 10
206.766989
 20
1001.53595
 40
1.0
100
AcDbArc
 50
-90.0
 51
3.597218E-005
  0
LINE
  5
2CD
100
AcDbEntity
  8
M0
100
AcDbLine
 10
206.766989
 20
1000.53595
 11
200.56699
 21
1000.535946
  0
ARC
  5
2CE
100
AcDbEntity
  8
M0
100
AcDbCircle
 10
200.56699
 20
1001.535946
 40
1.0
100
AcDbArc
 50
180.000036
 51
270.0
  0
LINE
  5
2CF
100
AcDbEntity
  8
M0
100
AcDbLine
 10
199.56699
 20
1001.535946
 11
199.566985
 21
1009.135944
  0
ARC
  5
2D0
100
AcDbEntity
  8
M0
100
AcDbCircle
 10
200.566985
 20
1009.135945
 40
1.0
100
AcDbArc
 50
90.0
 51
180.000036
  0
LINE
  5
2D1
100
AcDbEntity
  8
M0
100
AcDbLine
 10
200.566984
 20
1010.135945
 11
206.766983
 21
1010.135949
  0
LINE
  5
2D2
100
AcDbEntity
  8
M0
100
AcDbLine
 10
207.766984
 20
1009.135949
 11
207.766989
 21
1001.535951
  0
ARC
  5
2D3
100
AcDbEntity
  8
M0
100
AcDbCircle
 10
206.766984
 20
1009.135949
 40
1.0
100
AcDbArc
 50
-1.866939E-005
 51
90.0
  0
LINE
  5
2D4
100
AcDbEntity
  8
M0
100
AcDbLine
 10
202.137289
 20
1003.806248
 11
205.269949
 21
1006.938912
  0
LINE
  5
2D5
100
AcDbEntity
  8
M0
100
AcDbLine
 10
205.764926
 20
1004.22796
 11
202.632262
 21
1007.360619
  0
LINE
  5
2D6
100
AcDbEntity
  8
M0
100
AcDbLine
 10
204.774977
 20
1003.23801
 11
201.642314
 21
1006.37067
  0
LINE
  5
2D7
100
AcDbEntity
  8
M0
  6
DASHDOT
100
AcDbLine
 10
199.166987
 20
1005.335948
 11
208.166987
 21
1005.335948
  0
LINE
  5
2D8
100
AcDbEntity
  8
M0
  6
DASHDOT
100
AcDbLine
 10
203.666987
 20
1000.835948
 11
203.666987
 21
1009.835948
  0
LINE
  5
2D9
100
AcDbEntity
  8
M0
 62
     7
100
AcDbLine
 10
204.374093
 20
992.335948
 11
206.470026
 21
994.43188
  0
LINE
  5
2DA
100
AcDbEntity
  8
M0
 62
     7
100
AcDbLine
 10
201.571043
 20
989.532898
 11
203.666987
 21
991.628841
  0
LINE
  5
2DB
100
AcDbEntity
  8
M0
 62
     7
100
AcDbLine
 10
202.95988
 20
992.335948
 11
200.863937
 21
990.240004
  0
LINE
  5
2DC
100
AcDbEntity
  8
M0
 62
     7
100
AcDbLine
 10
205.762919
 20
995.138987
 11
203.666987
 21
993.043054
  0
LINE
  5
2DD
100
AcDbEntity
  8
M0
 62
     7
100
AcDbLine
 10
203.666987
 20
993.043054
 11
202.570937
 21
994.139104
  0
LINE
  5
2DE
100
AcDbEntity
  8
M0
 62
     7
100
AcDbLine
 10
205.470143
 20
991.239897
 11
204.374093
 21
992.335948
  0
LINE
  5
2DF
100
AcDbEntity
  8
M0
 62
     7
100
AcDbLine
 10
203.666987
 20
991.628841
 11
204.763037
 21
990.532791
  0
LINE
  5
2E0
100
AcDbEntity
  8
M0
 62
     7
100
AcDbLine
 10
201.86383
 20
993.431998
 11
202.95988
 21
992.335948
  0
CIRCLE
  5
2E1
100
AcDbEntity
  8
M0
 62
     7
100
AcDbCircle
 10
203.666987
 20
992.335948
 40
3.5
  0
LINE
  5
2E2
100
AcDbEntity
  8
M0
 62
     7
100
AcDbLine
 10
204.763037
 20
990.532791
 11
205.470143
 21
991.239897
  0
LINE
  5
2E3
100
AcDbEntity
  8
M0
 62
     7
100
AcDbLine
 10
202.570937
 20
994.139104
 11
201.86383
 21
993.431998
  0
LINE
  5
2E4
100
AcDbEntity
  8
M0
100
AcDbLine
 10
322.016978
 20
1026.085948
 11
328.016978
 21
1026.085948
  0
LINE
  5
2E5
100
AcDbEntity
  8
M0
100
AcDbLine
 10
328.016978
 20
1026.085948
 11
328.016978
 21
1030.585948
  0
LINE
  5
2E6
100
AcDbEntity
  8
M0
100
AcDbLine
 10
328.016978
 20
1030.585948
 11
322.016978
 21
1030.585948
  0
LINE
  5
2E7
100
AcDbEntity
  8
M0
100
AcDbLine
 10
322.016978
 20
1030.585948
 11
322.016978
 21
1026.085948
  0
LINE
  5
2E8
100
AcDbEntity
  8
M0
  6
DASHDOT
 62
   234
100
AcDbLine
 10
902.512645
 20
1016.835943
 11
650.512645
 21
1016.835943
  0
LINE
  5
2E9
100
AcDbEntity
  8
M0
 62
   234
100
AcDbLine
 10
789.212645
 20
907.835943
 11
799.212645
 21
897.835943
  0
LINE
  5
2EA
100
AcDbEntity
  8
M0
 62
   234
100
AcDbLine
 10
769.212645
 20
1051.835943
 11
757.212645
 21
1051.835943
  0
LINE
  5
2EB
100
AcDbEntity
  8
M0
 62
   234
100
AcDbLine
 10
769.212645
 20
1043.835943
 11
757.212645
 21
1043.835943
  0
LINE
  5
2EC
100
AcDbEntity
  8
M0
 62
   234
100
AcDbLine
 10
757.212645
 20
981.835943
 11
769.212645
 21
981.835943
  0
LINE
  5
2ED
100
AcDbEntity
  8
M0
 62
   234
100
AcDbLine
 10
757.212645
 20
989.835943
 11
769.212645
 21
989.835943
  0
LINE
  5
2EE
100
AcDbEntity
  8
M0
 62
   234
100
AcDbLine
 10
757.212645
 20
1032.835943
 11
769.212645
 21
1032.835943
  0
LINE
  5
2EF
100
AcDbEntity
  8
M0
 62
   234
100
AcDbLine
 10
757.212645
 20
1040.835943
 11
769.212645
 21
1040.835943
  0
LINE
  5
2F0
100
AcDbEntity
  8
M0
 62
   234
100
AcDbLine
 10
757.212645
 20
978.835943
 11
769.212645
 21
978.835943
  0
LINE
  5
2F1
100
AcDbEntity
  8
M0
 62
   234
100
AcDbLine
 10
757.212645
 20
970.835943
 11
757.212645
 21
978.835943
  0
LINE
  5
2F2
100
AcDbEntity
  8
M0
 62
   234
100
AcDbLine
 10
757.212645
 20
981.835943
 11
757.212645
 21
989.835943
  0
LINE
  5
2F3
100
AcDbEntity
  8
M0
 62
   234
100
AcDbLine
 10
757.212645
 20
1032.835943
 11
757.212645
 21
1040.835943
  0
LINE
  5
2F4
100
AcDbEntity
  8
M0
 62
   234
100
AcDbLine
 10
757.212645
 20
1043.835943
 11
757.212645
 21
1051.835943
  0
LINE
  5
2F5
100
AcDbEntity
  8
M0
 62
   234
100
AcDbLine
 10
743.712645
 20
972.835943
 11
743.712645
 21
970.835943
  0
LINE
  5
2F6
100
AcDbEntity
  8
M0
 62
   234
100
AcDbLine
 10
743.712645
 20
970.835943
 11
769.212645
 21
970.835943
  0
LINE
  5
2F7
100
AcDbEntity
  8
M0
 62
   234
100
AcDbLine
 10
743.712645
 20
972.835943
 11
757.212645
 21
972.835943
  0
LINE
  5
2F8
100
AcDbEntity
  8
M0
 62
   234
100
AcDbLine
 10
759.212645
 20
938.835943
 11
769.212645
 21
938.835943
  0
LINE
  5
2F9
100
AcDbEntity
  8
M0
 62
   234
100
AcDbLine
 10
769.212645
 20
940.835943
 11
759.212645
 21
940.835943
  0
LINE
  5
2FA
100
AcDbEntity
  8
M0
 62
   234
100
AcDbLine
 10
769.212645
 20
942.835943
 11
759.212645
 21
942.835943
  0
LINE
  5
2FB
100
AcDbEntity
  8
M0
 62
   234
100
AcDbLine
 10
780.212645
 20
907.835943
 11
789.212645
 21
907.835943
  0
ARC
  5
2FC
100
AcDbEntity
  8
M0
 62
   234
100
AcDbCircle
 10
780.212645
 20
918.835943
 40
11.0
100
AcDbArc
 50
180.0
 51
270.0
  0
ARC
  5
2FD
100
AcDbEntity
  8
M0
 62
   234
100
AcDbCircle
 10
764.212645
 20
922.835943
 40
5.0
100
AcDbArc
 50
180.0
 51
270.0
  0
LINE
  5
2FE
100
AcDbEntity
  8
M0
 62
   234
100
AcDbLine
 10
764.212645
 20
917.835943
 11
769.258194
 21
917.835943
  0
LINE
  5
2FF
100
AcDbEntity
  8
M0
 62
   234
100
AcDbLine
 10
759.212645
 20
922.835943
 11
759.212645
 21
938.835943
  0
LINE
  5
300
100
AcDbEntity
  8
M0
 62
   234
100
AcDbLine
 10
759.212645
 20
940.835943
 11
759.212645
 21
942.835943
  0
LINE
  5
301
100
AcDbEntity
  8
M0
 62
   234
100
AcDbLine
 10
769.212645
 20
918.835943
 11
769.212645
 21
1117.935943
  0
LINE
  5
302
100
AcDbEntity
  8
M0
 62
   234
100
AcDbLine
 10
834.212645
 20
1135.835943
 11
816.312645
 21
1117.935943
  0
LINE
  5
303
100
AcDbEntity
  8
M0
 62
   234
100
AcDbLine
 10
764.212645
 20
1117.935943
 11
816.312645
 21
1117.935943
  0
ARC
  5
304
100
AcDbEntity
  8
M0
 62
   234
100
AcDbCircle
 10
764.212645
 20
1112.935943
 40
5.0
100
AcDbArc
 50
90.0
 51
180.0
  0
LINE
  5
305
100
AcDbEntity
  8
M0
 62
   234
100
AcDbLine
 10
761.212645
 20
1102.935943
 11
769.212645
 21
1102.935943
  0
LINE
  5
306
100
AcDbEntity
  8
M0
 62
   234
100
AcDbLine
 10
759.212645
 20
1112.935943
 11
759.212645
 21
1104.935943
  0
ARC
  5
307
100
AcDbEntity
  8
M0
 62
   234
100
AcDbCircle
 10
761.212645
 20
1104.935943
 40
2.0
100
AcDbArc
 50
180.0
 51
270.0
  0
LINE
  5
308
100
AcDbEntity
  8
M0
 62
   234
100
AcDbLine
 10
845.712645
 20
897.835943
 11
845.712645
 21
1135.835943
  0
LINE
  5
309
100
AcDbEntity
  8
M0
 62
   234
100
AcDbLine
 10
845.712645
 20
897.835943
 11
799.212645
 21
897.835943
  0
LINE
  5
30A
100
AcDbEntity
  8
M0
 62
   234
100
AcDbLine
 10
834.212645
 20
1135.835943
 11
845.712645
 21
1135.835943
  0
LINE
  5
30B
100
AcDbEntity
  8
M0
 62
   234
100
AcDbLine
 10
839.012645
 20
897.835943
 11
839.012645
 21
1135.835943
  0
LINE
  5
30C
100
AcDbEntity
  8
M0
 62
   154
100
AcDbLine
 10
717.212645
 20
1023.335943
 11
729.212645
 21
1023.335943
  0
LINE
  5
30D
100
AcDbEntity
  8
M0
 62
   154
100
AcDbLine
 10
717.212645
 20
1010.335943
 11
729.212645
 21
1010.335943
  0
LINE
  5
30E
100
AcDbEntity
  8
M0
 62
   154
100
AcDbLine
 10
757.212645
 20
1004.335943
 11
768.012645
 21
1004.335943
  0
LINE
  5
30F
100
AcDbEntity
  8
M0
 62
   154
100
AcDbLine
 10
757.212645
 20
1029.335943
 11
768.012645
 21
1029.335943
  0
LINE
  5
310
100
AcDbEntity
  8
M0
 62
   154
100
AcDbLine
 10
756.212645
 20
973.835943
 11
756.212645
 21
1004.335943
  0
LINE
  5
311
100
AcDbEntity
  8
M0
 62
   154
100
AcDbLine
 10
756.212645
 20
1029.335943
 11
756.212645
 21
1059.835943
  0
ARC
  5
312
100
AcDbEntity
  8
M0
 62
   154
100
AcDbCircle
 10
738.212645
 20
1052.835943
 40
3.0
100
AcDbArc
 50
270.0
 51
360.0
  0
ARC
  5
313
100
AcDbEntity
  8
M0
 62
   154
100
AcDbCircle
 10
738.212645
 20
980.835943
 40
3.0
100
AcDbArc
 50
0.0
 51
90.0
  0
LINE
  5
314
100
AcDbEntity
  8
M0
 62
   154
100
AcDbLine
 10
734.212645
 20
1049.835943
 11
738.212645
 21
1049.835943
  0
LINE
  5
315
100
AcDbEntity
  8
M0
 62
   154
100
AcDbLine
 10
729.212645
 20
1044.835943
 11
729.212645
 21
1023.335943
  0
ARC
  5
316
100
AcDbEntity
  8
M0
 62
   154
100
AcDbCircle
 10
734.212645
 20
1044.835943
 40
5.0
100
AcDbArc
 50
90.0
 51
180.0
  0
LINE
  5
317
100
AcDbEntity
  8
M0
 62
   154
100
AcDbLine
 10
729.212645
 20
1010.335943
 11
729.212645
 21
988.835943
  0
LINE
  5
318
100
AcDbEntity
  8
M0
 62
   154
100
AcDbLine
 10
734.212645
 20
983.835943
 11
738.212645
 21
983.835943
  0
ARC
  5
319
100
AcDbEntity
  8
M0
 62
   154
100
AcDbCircle
 10
734.212645
 20
988.835943
 40
5.0
100
AcDbArc
 50
180.0
 51
270.0
  0
LINE
  5
31A
100
AcDbEntity
  8
M0
 62
   154
100
AcDbLine
 10
741.212645
 20
980.835943
 11
741.212645
 21
978.835943
  0
LINE
  5
31B
100
AcDbEntity
  8
M0
 62
   154
100
AcDbLine
 10
746.212645
 20
973.835943
 11
756.212645
 21
973.835943
  0
ARC
  5
31C
100
AcDbEntity
  8
M0
 62
   154
100
AcDbCircle
 10
746.212645
 20
978.835943
 40
5.0
100
AcDbArc
 50
180.0
 51
270.0
  0
LINE
  5
31D
100
AcDbEntity
  8
M0
 62
   154
100
AcDbLine
 10
756.212645
 20
1059.835943
 11
746.212645
 21
1059.835943
  0
LINE
  5
31E
100
AcDbEntity
  8
M0
 62
   154
100
AcDbLine
 10
741.212645
 20
1054.835943
 11
741.212645
 21
1052.835943
  0
ARC
  5
31F
100
AcDbEntity
  8
M0
 62
   154
100
AcDbCircle
 10
746.212645
 20
1054.835943
 40
5.0
100
AcDbArc
 50
90.0
 51
180.0
  0
LINE
  5
320
100
AcDbEntity
  8
M0
 62
   154
100
AcDbLine
 10
717.212645
 20
1023.335943
 11
717.212645
 21
1010.335943
  0
LINE
  5
321
100
AcDbEntity
  8
M0
 62
   154
100
AcDbLine
 10
768.012645
 20
1029.335943
 11
768.012645
 21
1004.335943
  0
LINE
  5
322
100
AcDbEntity
  8
M0
 62
   154
100
AcDbLine
 10
757.212645
 20
973.835943
 11
757.212645
 21
1059.835943
  0
LINE
  5
323
100
AcDbEntity
  8
M0
 62
   154
100
AcDbLine
 10
757.212645
 20
1059.835943
 11
756.212645
 21
1059.835943
  0
LINE
  5
324
100
AcDbEntity
  8
M0
 62
   154
100
AcDbLine
 10
756.212645
 20
1059.835943
 11
756.212645
 21
973.835943
  0
LINE
  5
325
100
AcDbEntity
  8
M0
 62
   154
100
AcDbLine
 10
756.212645
 20
973.835943
 11
757.212645
 21
973.835943
  0
LINE
  5
326
100
AcDbEntity
  8
M0
100
AcDbLine
 10
848.012645
 20
1135.835943
 11
848.012645
 21
897.835943
  0
ARC
  5
327
100
AcDbEntity
  8
M0
100
AcDbCircle
 10
877.512645
 20
900.835943
 40
3.0
100
AcDbArc
 50
270.0
 51
360.0
  0
LINE
  5
328
100
AcDbEntity
  8
M0
100
AcDbLine
 10
880.512645
 20
900.835943
 11
880.512645
 21
928.835943
  0
LINE
  5
329
100
AcDbEntity
  8
M0
100
AcDbLine
 10
877.512645
 20
931.835943
 11
848.012645
 21
931.835943
  0
ARC
  5
32A
100
AcDbEntity
  8
M0
100
AcDbCircle
 10
877.512645
 20
928.835943
 40
3.0
100
AcDbArc
 50
0.0
 51
90.0
  0
LINE
  5
32B
100
AcDbEntity
  8
M0
100
AcDbLine
 10
877.512645
 20
1101.835943
 11
848.012645
 21
1101.835943
  0
ARC
  5
32C
100
AcDbEntity
  8
M0
100
AcDbCircle
 10
877.512645
 20
1104.835943
 40
3.0
100
AcDbArc
 50
270.0
 51
360.0
  0
LINE
  5
32D
100
AcDbEntity
  8
M0
100
AcDbLine
 10
880.512645
 20
1104.835943
 11
880.512645
 21
1132.835943
  0
ARC
  5
32E
100
AcDbEntity
  8
M0
100
AcDbCircle
 10
877.512645
 20
1132.835943
 40
3.0
100
AcDbArc
 50
0.0
 51
90.0
  0
CIRCLE
  5
32F
100
AcDbEntity
  8
M0
100
AcDbCircle
 10
859.512645
 20
1127.835943
 40
3.5
  0
CIRCLE
  5
330
100
AcDbEntity
  8
M0
100
AcDbCircle
 10
859.512645
 20
1111.835943
 40
3.5
  0
CIRCLE
  5
331
100
AcDbEntity
  8
M0
100
AcDbCircle
 10
859.512645
 20
921.835943
 40
3.5
  0
CIRCLE
  5
332
100
AcDbEntity
  8
M0
100
AcDbCircle
 10
859.512645
 20
905.835943
 40
3.5
  0
LINE
  5
333
100
AcDbEntity
  8
M0
100
AcDbLine
 10
845.712645
 20
1135.835943
 11
877.512645
 21
1135.835943
  0
LINE
  5
334
100
AcDbEntity
  8
M0
100
AcDbLine
 10
845.712645
 20
897.835943
 11
877.512645
 21
897.835943
  0
LINE
  5
335
100
AcDbEntity
  8
M0
100
AcDbLine
 10
788.312645
 20
891.835943
 11
788.312645
 21
907.835943
  0
LINE
  5
336
100
AcDbEntity
  8
M0
100
AcDbLine
 10
759.212645
 20
1111.835943
 11
693.312645
 21
1111.835943
  0
LINE
  5
337
100
AcDbEntity
  8
M0
100
AcDbLine
 10
693.312645
 20
1111.835943
 11
693.312645
 21
1041.835943
  0
LINE
  5
338
100
AcDbEntity
  8
M0
100
AcDbLine
 10
773.312645
 20
891.835943
 11
788.312645
 21
891.835943
  0
LINE
  5
339
100
AcDbEntity
  8
M0
100
AcDbLine
 10
773.312645
 20
910.269147
 11
773.312645
 21
891.835943
  0
LINE
  5
33A
100
AcDbEntity
  8
M0
100
AcDbLine
 10
769.212645
 20
1086.835943
 11
730.312645
 21
1086.835943
  0
LINE
  5
33B
100
AcDbEntity
  8
M0
100
AcDbLine
 10
740.312645
 20
971.835943
 11
740.312645
 21
934.835943
  0
LINE
  5
33C
100
AcDbEntity
  8
M0
100
AcDbLine
 10
730.312645
 20
1086.835943
 11
730.312645
 21
1047.964841
  0
LINE
  5
33D
100
AcDbEntity
  8
M0
100
AcDbLine
 10
740.312645
 20
971.835943
 11
730.312645
 21
971.835943
  0
LINE
  5
33E
100
AcDbEntity
  8
M0
100
AcDbLine
 10
759.212645
 20
930.167762
 11
751.312645
 21
934.835943
  0
LINE
  5
33F
100
AcDbEntity
  8
M0
100
AcDbLine
 10
751.312645
 20
934.835943
 11
740.312645
 21
934.835943
  0
LINE
  5
340
100
AcDbEntity
  8
M0
100
AcDbLine
 10
751.312645
 20
1120.335943
 11
755.512583
 21
1120.335943
  0
LINE
  5
341
100
AcDbEntity
  8
M0
100
AcDbLine
 10
771.312645
 20
1117.935943
 11
771.312645
 21
1120.335943
  0
LINE
  5
342
100
AcDbEntity
  8
M0
100
AcDbLine
 10
719.312645
 20
1125.835943
 11
751.312645
 21
1125.835943
  0
LINE
  5
343
100
AcDbEntity
  8
M0
100
AcDbLine
 10
719.312645
 20
1125.835943
 11
719.312645
 21
1111.835943
  0
LINE
  5
344
100
AcDbEntity
  8
M0
100
AcDbLine
 10
751.312645
 20
1125.835943
 11
751.312645
 21
1120.335943
  0
LINE
  5
345
100
AcDbEntity
  8
M0
100
AcDbLine
 10
759.313666
 20
921.835943
 11
693.312645
 21
921.835943
  0
LINE
  5
346
100
AcDbEntity
  8
M0
100
AcDbLine
 10
751.312645
 20
913.335943
 11
755.512583
 21
913.335943
  0
LINE
  5
347
100
AcDbEntity
  8
M0
100
AcDbLine
 10
751.312645
 20
907.835943
 11
751.312645
 21
913.335943
  0
LINE
  5
348
100
AcDbEntity
  8
M0
100
AcDbLine
 10
719.312645
 20
907.835943
 11
751.312645
 21
907.835943
  0
LINE
  5
349
100
AcDbEntity
  8
M0
100
AcDbLine
 10
719.312645
 20
907.835943
 11
719.312645
 21
921.835943
  0
LINE
  5
34A
100
AcDbEntity
  8
M0
100
AcDbLine
 10
730.312645
 20
985.707046
 11
730.312645
 21
971.835943
  0
LINE
  5
34B
100
AcDbEntity
  8
M0
100
AcDbLine
 10
693.312645
 20
991.835943
 11
693.312645
 21
921.835943
  0
LINE
  5
34C
100
AcDbEntity
  8
M0
100
AcDbLine
 10
765.512583
 20
1120.335943
 11
771.312645
 21
1120.335943
  0
LINE
  5
34D
100
AcDbEntity
  8
M0
100
AcDbLine
 10
797.788055
 20
1117.935943
 11
825.808444
 21
1127.431742
  0
LINE
  5
34E
100
AcDbEntity
  8
M0
100
AcDbLine
 10
868.312645
 20
1141.835943
 11
892.512645
 21
1141.835943
  0
LINE
  5
34F
100
AcDbEntity
  8
M0
100
AcDbLine
 10
788.312645
 20
891.835943
 11
892.512645
 21
891.835943
  0
LINE
  5
350
100
AcDbEntity
  8
M0
  6
DOT
100
AcDbLine
 10
889.312645
 20
1141.835943
 11
889.312645
 21
891.835943
  0
LINE
  5
351
100
AcDbEntity
  8
M0
100
AcDbLine
 10
892.512645
 20
1141.835943
 11
892.512645
 21
891.835943
  0
LINE
  5
352
100
AcDbEntity
  8
M0
100
AcDbLine
 10
850.607727
 20
1135.835943
 11
868.312645
 21
1141.835943
  0
ARC
  5
353
100
AcDbEntity
  8
M0
100
AcDbCircle
 10
700.312645
 20
1051.835943
 40
10.0
100
AcDbArc
 50
270.0
 51
360.0
  0
ARC
  5
354
100
AcDbEntity
  8
M0
100
AcDbCircle
 10
700.312645
 20
981.835943
 40
10.0
100
AcDbArc
 50
0.0
 51
90.0
  0
LINE
  5
355
100
AcDbEntity
  8
M0
100
AcDbLine
 10
688.312645
 20
991.835943
 11
700.312645
 21
991.835943
  0
ARC
  5
356
100
AcDbEntity
  8
M0
100
AcDbCircle
 10
688.312645
 20
994.835943
 40
3.0
100
AcDbArc
 50
180.0
 51
270.0
  0
LINE
  5
357
100
AcDbEntity
  8
M0
100
AcDbLine
 10
688.312645
 20
1041.835943
 11
700.312645
 21
1041.835943
  0
LINE
  5
358
100
AcDbEntity
  8
M0
100
AcDbLine
 10
685.312645
 20
1038.835943
 11
685.312645
 21
994.835943
  0
ARC
  5
359
100
AcDbEntity
  8
M0
100
AcDbCircle
 10
688.312645
 20
1038.835943
 40
3.0
100
AcDbArc
 50
90.0
 51
180.0
  0
LINE
  5
35A
100
AcDbEntity
  8
M0
100
AcDbLine
 10
710.312645
 20
981.835943
 11
710.312645
 21
976.835943
  0
LINE
  5
35B
100
AcDbEntity
  8
M0
100
AcDbLine
 10
715.312645
 20
971.835943
 11
730.312645
 21
971.835943
  0
ARC
  5
35C
100
AcDbEntity
  8
M0
100
AcDbCircle
 10
715.312645
 20
976.835943
 40
5.0
100
AcDbArc
 50
180.0
 51
270.0
  0
LINE
  5
35D
100
AcDbEntity
  8
M0
100
AcDbLine
 10
730.312645
 20
1061.835943
 11
715.312645
 21
1061.835943
  0
LINE
  5
35E
100
AcDbEntity
  8
M0
100
AcDbLine
 10
710.312645
 20
1056.835943
 11
710.312645
 21
1051.835943
  0
ARC
  5
35F
100
AcDbEntity
  8
M0
100
AcDbCircle
 10
715.312645
 20
1056.835943
 40
5.0
100
AcDbArc
 50
90.0
 51
180.0
  0
LINE
  5
360
100
AcDbEntity
  8
M0
100
AcDbLine
 10
730.312645
 20
971.835943
 11
730.312645
 21
985.707046
  0
LINE
  5
361
100
AcDbEntity
  8
M0
100
AcDbLine
 10
730.312645
 20
1047.964841
 11
730.312645
 21
1061.835943
  0
CIRCLE
  5
362
100
AcDbEntity
  8
M0
 62
   234
100
AcDbCircle
 10
870.512645
 20
1127.835943
 40
5.25
  0
LINE
  5
363
100
AcDbEntity
  8
M0
 62
   234
100
AcDbLine
 10
871.361236
 20
1127.835868
 11
874.624948
 21
1131.099579
  0
LINE
  5
364
100
AcDbEntity
  8
M0
 62
   234
100
AcDbLine
 10
867.248998
 20
1123.72363
 11
870.51271
 21
1126.987342
  0
LINE
  5
365
100
AcDbEntity
  8
M0
 62
   234
100
AcDbLine
 10
869.664227
 20
1127.835825
 11
866.400494
 21
1124.572092
  0
LINE
  5
366
100
AcDbEntity
  8
M0
 62
   234
100
AcDbLine
 10
873.776476
 20
1131.948095
 11
870.512753
 21
1128.684351
  0
LINE
  5
367
100
AcDbEntity
  8
M0
 62
   234
100
AcDbLine
 10
870.512743
 20
1128.684362
 11
868.744976
 21
1130.452129
  0
LINE
  5
368
100
AcDbEntity
  8
M0
 62
   234
100
AcDbLine
 10
873.129003
 20
1126.068101
 11
871.361236
 21
1127.835868
  0
LINE
  5
369
100
AcDbEntity
  8
M0
 62
   234
100
AcDbLine
 10
870.51271
 20
1126.987342
 11
872.280477
 21
1125.219575
  0
LINE
  5
36A
100
AcDbEntity
  8
M0
 62
   234
100
AcDbLine
 10
867.89645
 20
1129.603603
 11
869.664217
 21
1127.835836
  0
LINE
  5
36B
100
AcDbEntity
  8
M0
 62
   234
100
AcDbLine
 10
872.280477
 20
1125.219575
 11
873.129003
 21
1126.068101
  0
LINE
  5
36C
100
AcDbEntity
  8
M0
 62
   234
100
AcDbLine
 10
868.744976
 20
1130.452129
 11
867.89645
 21
1129.603603
  0
CIRCLE
  5
36D
100
AcDbEntity
  8
M0
 62
   234
100
AcDbCircle
 10
870.512645
 20
1127.835943
 40
5.5
  0
CIRCLE
  5
36E
100
AcDbEntity
  8
M0
 62
   234
100
AcDbCircle
 10
870.512645
 20
1111.835943
 40
5.25
  0
LINE
  5
36F
100
AcDbEntity
  8
M0
 62
   234
100
AcDbLine
 10
871.361236
 20
1111.835868
 11
874.624948
 21
1115.099579
  0
LINE
  5
370
100
AcDbEntity
  8
M0
 62
   234
100
AcDbLine
 10
867.248998
 20
1107.72363
 11
870.51271
 21
1110.987342
  0
LINE
  5
371
100
AcDbEntity
  8
M0
 62
   234
100
AcDbLine
 10
869.664227
 20
1111.835825
 11
866.400494
 21
1108.572092
  0
LINE
  5
372
100
AcDbEntity
  8
M0
 62
   234
100
AcDbLine
 10
873.776476
 20
1115.948095
 11
870.512753
 21
1112.684351
  0
LINE
  5
373
100
AcDbEntity
  8
M0
 62
   234
100
AcDbLine
 10
870.512743
 20
1112.684362
 11
868.744976
 21
1114.452129
  0
LINE
  5
374
100
AcDbEntity
  8
M0
 62
   234
100
AcDbLine
 10
873.129003
 20
1110.068101
 11
871.361236
 21
1111.835868
  0
LINE
  5
375
100
AcDbEntity
  8
M0
 62
   234
100
AcDbLine
 10
870.51271
 20
1110.987342
 11
872.280477
 21
1109.219575
  0
LINE
  5
376
100
AcDbEntity
  8
M0
 62
   234
100
AcDbLine
 10
867.89645
 20
1113.603603
 11
869.664217
 21
1111.835836
  0
LINE
  5
377
100
AcDbEntity
  8
M0
 62
   234
100
AcDbLine
 10
872.280477
 20
1109.219575
 11
873.129003
 21
1110.068101
  0
LINE
  5
378
100
AcDbEntity
  8
M0
 62
   234
100
AcDbLine
 10
868.744976
 20
1114.452129
 11
867.89645
 21
1113.603603
  0
CIRCLE
  5
379
100
AcDbEntity
  8
M0
 62
   234
100
AcDbCircle
 10
870.512645
 20
1111.835943
 40
5.5
  0
CIRCLE
  5
37A
100
AcDbEntity
  8
M0
 62
   234
100
AcDbCircle
 10
870.512645
 20
921.835943
 40
5.25
  0
LINE
  5
37B
100
AcDbEntity
  8
M0
 62
   234
100
AcDbLine
 10
871.361236
 20
921.835868
 11
874.624948
 21
925.099579
  0
LINE
  5
37C
100
AcDbEntity
  8
M0
 62
   234
100
AcDbLine
 10
867.248998
 20
917.72363
 11
870.51271
 21
920.987342
  0
LINE
  5
37D
100
AcDbEntity
  8
M0
 62
   234
100
AcDbLine
 10
869.664227
 20
921.835825
 11
866.400494
 21
918.572092
  0
LINE
  5
37E
100
AcDbEntity
  8
M0
 62
   234
100
AcDbLine
 10
873.776476
 20
925.948095
 11
870.512753
 21
922.684351
  0
LINE
  5
37F
100
AcDbEntity
  8
M0
 62
   234
100
AcDbLine
 10
870.512743
 20
922.684362
 11
868.744976
 21
924.452129
  0
LINE
  5
380
100
AcDbEntity
  8
M0
 62
   234
100
AcDbLine
 10
873.129003
 20
920.068101
 11
871.361236
 21
921.835868
  0
LINE
  5
381
100
AcDbEntity
  8
M0
 62
   234
100
AcDbLine
 10
870.51271
 20
920.987342
 11
872.280477
 21
919.219575
  0
LINE
  5
382
100
AcDbEntity
  8
M0
 62
   234
100
AcDbLine
 10
867.89645
 20
923.603603
 11
869.664217
 21
921.835836
  0
LINE
  5
383
100
AcDbEntity
  8
M0
 62
   234
100
AcDbLine
 10
872.280477
 20
919.219575
 11
873.129003
 21
920.068101
  0
LINE
  5
384
100
AcDbEntity
  8
M0
 62
   234
100
AcDbLine
 10
868.744976
 20
924.452129
 11
867.89645
 21
923.603603
  0
CIRCLE
  5
385
100
AcDbEntity
  8
M0
 62
   234
100
AcDbCircle
 10
870.512645
 20
921.835943
 40
5.5
  0
CIRCLE
  5
386
100
AcDbEntity
  8
M0
 62
   234
100
AcDbCircle
 10
870.512645
 20
905.835943
 40
5.25
  0
LINE
  5
387
100
AcDbEntity
  8
M0
 62
   234
100
AcDbLine
 10
871.361236
 20
905.835868
 11
874.624948
 21
909.099579
  0
LINE
  5
388
100
AcDbEntity
  8
M0
 62
   234
100
AcDbLine
 10
867.248998
 20
901.72363
 11
870.51271
 21
904.987342
  0
LINE
  5
389
100
AcDbEntity
  8
M0
 62
   234
100
AcDbLine
 10
869.664227
 20
905.835825
 11
866.400494
 21
902.572092
  0
LINE
  5
38A
100
AcDbEntity
  8
M0
 62
   234
100
AcDbLine
 10
873.776476
 20
909.948095
 11
870.512753
 21
906.684351
  0
LINE
  5
38B
100
AcDbEntity
  8
M0
 62
   234
100
AcDbLine
 10
870.512743
 20
906.684362
 11
868.744976
 21
908.452129
  0
LINE
  5
38C
100
AcDbEntity
  8
M0
 62
   234
100
AcDbLine
 10
873.129003
 20
904.068101
 11
871.361236
 21
905.835868
  0
LINE
  5
38D
100
AcDbEntity
  8
M0
 62
   234
100
AcDbLine
 10
870.51271
 20
904.987342
 11
872.280477
 21
903.219575
  0
LINE
  5
38E
100
AcDbEntity
  8
M0
 62
   234
100
AcDbLine
 10
867.89645
 20
907.603603
 11
869.664217
 21
905.835836
  0
LINE
  5
38F
100
AcDbEntity
  8
M0
 62
   234
100
AcDbLine
 10
872.280477
 20
903.219575
 11
873.129003
 21
904.068101
  0
LINE
  5
390
100
AcDbEntity
  8
M0
 62
   234
100
AcDbLine
 10
868.744976
 20
908.452129
 11
867.89645
 21
907.603603
  0
CIRCLE
  5
391
100
AcDbEntity
  8
M0
 62
   234
100
AcDbCircle
 10
870.512645
 20
905.835943
 40
5.5
  0
LINE
  5
392
100
AcDbEntity
  8
M0
100
AcDbLine
 10
663.512645
 20
1111.835943
 11
693.312645
 21
1111.835943
  0
ARC
  5
393
100
AcDbEntity
  8
M0
100
AcDbCircle
 10
663.512645
 20
1108.835943
 40
3.0
100
AcDbArc
 50
90.0
 51
180.0
  0
LINE
  5
394
100
AcDbEntity
  8
M0
100
AcDbLine
 10
660.512645
 20
924.835943
 11
660.512645
 21
1108.835943
  0
LINE
  5
395
100
AcDbEntity
  8
M0
100
AcDbLine
 10
663.512645
 20
921.835943
 11
693.312645
 21
921.835943
  0
ARC
  5
396
100
AcDbEntity
  8
M0
100
AcDbCircle
 10
663.512645
 20
924.835943
 40
3.0
100
AcDbArc
 50
180.0
 51
270.0
  0
LINE
  5
397
100
AcDbEntity
  8
M0
 62
   114
100
AcDbLine
 10
763.611184
 20
1093.325853
 11
769.212645
 21
1093.325853
  0
LINE
  5
398
100
AcDbEntity
  8
M0
 62
   114
100
AcDbLine
 10
763.611184
 20
1093.325853
 11
763.611184
 21
1102.835943
  0
LINE
  5
399
100
AcDbEntity
  8
M0
 62
   114
100
AcDbLine
 10
763.611184
 20
1097.083197
 11
769.212645
 21
1097.083197
  0
LINE
  5
39A
100
AcDbEntity
  8
M0
 62
   114
100
AcDbLine
 10
763.611184
 20
899.325853
 11
770.112648
 21
899.325853
  0
LINE
  5
39B
100
AcDbEntity
  8
M0
 62
   114
100
AcDbLine
 10
770.112648
 20
899.325853
 11
770.112648
 21
914.478185
  0
LINE
  5
39C
100
AcDbEntity
  8
M0
 62
   114
100
AcDbLine
 10
770.170764
 20
914.345885
 11
763.611184
 21
914.345577
  0
LINE
  5
39D
100
AcDbEntity
  8
M0
 62
   114
100
AcDbLine
 10
763.611184
 20
899.325853
 11
763.611184
 21
914.345577
  0
LINE
  5
39E
100
AcDbEntity
  8
M0
 62
   114
100
AcDbLine
 10
763.611184
 20
910.588843
 11
770.112648
 21
910.588843
  0
LINE
  5
39F
100
AcDbEntity
  8
M0
 62
   114
100
AcDbLine
 10
763.611184
 20
903.083197
 11
770.112648
 21
903.083197
  0
LINE
  5
3A0
100
AcDbEntity
  8
M0
 62
   114
100
AcDbLine
 10
772.112648
 20
898.835953
 11
773.312645
 21
898.835953
  0
LINE
  5
3A1
100
AcDbEntity
  8
M0
 62
   114
100
AcDbLine
 10
773.312645
 20
898.835953
 11
773.312645
 21
910.269147
  0
LINE
  5
3A2
100
AcDbEntity
  8
M0
 62
   114
100
AcDbLine
 10
772.112648
 20
911.393494
 11
772.112648
 21
898.835953
  0
LINE
  5
3A3
100
AcDbEntity
  8
M0
 62
   114
100
AcDbLine
 10
770.112648
 20
899.135932
 11
772.112648
 21
899.135932
  0
LINE
  5
3A4
100
AcDbEntity
  8
M0
 62
   114
100
AcDbLine
 10
772.112648
 20
899.135932
 11
772.112648
 21
911.393494
  0
LINE
  5
3A5
100
AcDbEntity
  8
M0
 62
   114
100
AcDbLine
 10
770.112648
 20
914.535941
 11
770.112648
 21
899.135932
  0
LINE
  5
3A6
100
AcDbEntity
  8
M0
 62
   114
100
AcDbLine
 10
770.112648
 20
906.835929
 11
772.112648
 21
905.681236
  0
LINE
  5
3A7
100
AcDbEntity
  8
M0
 62
   114
100
AcDbLine
 10
770.112648
 20
907.990623
 11
772.112648
 21
906.835929
  0
CIRCLE
  5
3A8
100
AcDbEntity
  8
M0
100
AcDbCircle
 10
203.666987
 20
1050.836009
 40
3.5
  0
ARC
  5
3A9
100
AcDbEntity
  8
M0
100
AcDbCircle
 10
206.766989
 20
1054.636006
 40
1.0
100
AcDbArc
 50
359.999964
 51
450.0
  0
LINE
  5
3AA
100
AcDbEntity
  8
M0
100
AcDbLine
 10
206.766989
 20
1055.636006
 11
200.56699
 21
1055.63601
  0
ARC
  5
3AB
100
AcDbEntity
  8
M0
100
AcDbCircle
 10
200.56699
 20
1054.63601
 40
1.0
100
AcDbArc
 50
90.0
 51
179.999964
  0
LINE
  5
3AC
100
AcDbEntity
  8
M0
100
AcDbLine
 10
199.56699
 20
1054.63601
 11
199.566985
 21
1047.036012
  0
ARC
  5
3AD
100
AcDbEntity
  8
M0
100
AcDbCircle
 10
200.566985
 20
1047.036011
 40
1.0
100
AcDbArc
 50
179.999964
 51
270.0
  0
LINE
  5
3AE
100
AcDbEntity
  8
M0
100
AcDbLine
 10
200.566984
 20
1046.036011
 11
206.766983
 21
1046.036007
  0
LINE
  5
3AF
100
AcDbEntity
  8
M0
100
AcDbLine
 10
207.766984
 20
1047.036007
 11
207.766989
 21
1054.636005
  0
ARC
  5
3B0
100
AcDbEntity
  8
M0
100
AcDbCircle
 10
206.766984
 20
1047.036007
 40
1.0
100
AcDbArc
 50
270.0
 51
360.000019
  0
LINE
  5
3B1
100
AcDbEntity
  8
M0
100
AcDbLine
 10
202.137289
 20
1052.365708
 11
205.269949
 21
1049.233044
  0
LINE
  5
3B2
100
AcDbEntity
  8
M0
100
AcDbLine
 10
205.764926
 20
1051.943997
 11
202.632262
 21
1048.811337
  0
LINE
  5
3B3
100
AcDbEntity
  8
M0
100
AcDbLine
 10
204.774977
 20
1052.933946
 11
201.642314
 21
1049.801287
  0
LINE
  5
3B4
100
AcDbEntity
  8
M0
  6
DASHDOT
100
AcDbLine
 10
199.166987
 20
1050.836009
 11
208.166987
 21
1050.836009
  0
LINE
  5
3B5
100
AcDbEntity
  8
M0
  6
DASHDOT
100
AcDbLine
 10
203.666987
 20
1055.336009
 11
203.666987
 21
1046.336009
  0
LINE
  5
3B6
100
AcDbEntity
  8
M0
 62
     7
100
AcDbLine
 10
204.374093
 20
1041.336009
 11
206.470026
 21
1039.240076
  0
LINE
  5
3B7
100
AcDbEntity
  8
M0
 62
     7
100
AcDbLine
 10
201.571043
 20
1044.139059
 11
203.666987
 21
1042.043115
  0
LINE
  5
3B8
100
AcDbEntity
  8
M0
 62
     7
100
AcDbLine
 10
202.95988
 20
1041.336009
 11
200.863937
 21
1043.431952
  0
LINE
  5
3B9
100
AcDbEntity
  8
M0
 62
     7
100
AcDbLine
 10
205.762919
 20
1038.532969
 11
203.666987
 21
1040.628902
  0
LINE
  5
3BA
100
AcDbEntity
  8
M0
 62
     7
100
AcDbLine
 10
203.666987
 20
1040.628902
 11
202.570937
 21
1039.532852
  0
LINE
  5
3BB
100
AcDbEntity
  8
M0
 62
     7
100
AcDbLine
 10
205.470143
 20
1042.432059
 11
204.374093
 21
1041.336009
  0
LINE
  5
3BC
100
AcDbEntity
  8
M0
 62
     7
100
AcDbLine
 10
203.666987
 20
1042.043115
 11
204.763037
 21
1043.139165
  0
LINE
  5
3BD
100
AcDbEntity
  8
M0
 62
     7
100
AcDbLine
 10
201.86383
 20
1040.239958
 11
202.95988
 21
1041.336009
  0
CIRCLE
  5
3BE
100
AcDbEntity
  8
M0
 62
     7
100
AcDbCircle
 10
203.666987
 20
1041.336009
 40
3.5
  0
LINE
  5
3BF
100
AcDbEntity
  8
M0
 62
     7
100
AcDbLine
 10
204.763037
 20
1043.139165
 11
205.470143
 21
1042.432059
  0
LINE
  5
3C0
100
AcDbEntity
  8
M0
 62
     7
100
AcDbLine
 10
202.570937
 20
1039.532852
 11
201.86383
 21
1040.239958
  0
CIRCLE
  5
3C1
100
AcDbEntity
  8
M0
100
AcDbCircle
 10
203.666987
 20
1028.336009
 40
3.5
  0
ARC
  5
3C2
100
AcDbEntity
  8
M0
100
AcDbCircle
 10
206.766989
 20
1032.136006
 40
1.0
100
AcDbArc
 50
359.999964
 51
450.0
  0
LINE
  5
3C3
100
AcDbEntity
  8
M0
100
AcDbLine
 10
206.766989
 20
1033.136006
 11
200.56699
 21
1033.13601
  0
ARC
  5
3C4
100
AcDbEntity
  8
M0
100
AcDbCircle
 10
200.56699
 20
1032.13601
 40
1.0
100
AcDbArc
 50
90.0
 51
179.999964
  0
LINE
  5
3C5
100
AcDbEntity
  8
M0
100
AcDbLine
 10
199.56699
 20
1032.13601
 11
199.566985
 21
1024.536012
  0
ARC
  5
3C6
100
AcDbEntity
  8
M0
100
AcDbCircle
 10
200.566985
 20
1024.536011
 40
1.0
100
AcDbArc
 50
179.999964
 51
270.0
  0
LINE
  5
3C7
100
AcDbEntity
  8
M0
100
AcDbLine
 10
200.566984
 20
1023.536011
 11
206.766983
 21
1023.536007
  0
LINE
  5
3C8
100
AcDbEntity
  8
M0
100
AcDbLine
 10
207.766984
 20
1024.536007
 11
207.766989
 21
1032.136005
  0
ARC
  5
3C9
100
AcDbEntity
  8
M0
100
AcDbCircle
 10
206.766984
 20
1024.536007
 40
1.0
100
AcDbArc
 50
270.0
 51
360.000019
  0
LINE
  5
3CA
100
AcDbEntity
  8
M0
100
AcDbLine
 10
202.137289
 20
1029.865708
 11
205.269949
 21
1026.733044
  0
LINE
  5
3CB
100
AcDbEntity
  8
M0
100
AcDbLine
 10
205.764926
 20
1029.443997
 11
202.632262
 21
1026.311337
  0
LINE
  5
3CC
100
AcDbEntity
  8
M0
100
AcDbLine
 10
204.774977
 20
1030.433946
 11
201.642314
 21
1027.301287
  0
LINE
  5
3CD
100
AcDbEntity
  8
M0
  6
DASHDOT
100
AcDbLine
 10
199.166987
 20
1028.336009
 11
208.166987
 21
1028.336009
  0
LINE
  5
3CE
100
AcDbEntity
  8
M0
  6
DASHDOT
100
AcDbLine
 10
203.666987
 20
1032.836009
 11
203.666987
 21
1023.836009
  0
CIRCLE
  5
3CF
100
AcDbEntity
  8
M0
100
AcDbCircle
 10
218.56692
 20
1050.836013
 40
3.5
  0
ARC
  5
3D0
100
AcDbEntity
  8
M0
100
AcDbCircle
 10
215.466916
 20
1054.636009
 40
1.0
100
AcDbArc
 50
90.0
 51
180.000072
  0
LINE
  5
3D1
100
AcDbEntity
  8
M0
100
AcDbLine
 10
215.466915
 20
1055.636009
 11
221.666914
 21
1055.636016
  0
ARC
  5
3D2
100
AcDbEntity
  8
M0
100
AcDbCircle
 10
221.666915
 20
1054.636016
 40
1.0
100
AcDbArc
 50
7.194436E-005
 51
90.0
  0
LINE
  5
3D3
100
AcDbEntity
  8
M0
100
AcDbLine
 10
222.666915
 20
1054.636018
 11
222.666925
 21
1047.036019
  0
ARC
  5
3D4
100
AcDbEntity
  8
M0
100
AcDbCircle
 10
221.666925
 20
1047.036018
 40
1.0
100
AcDbArc
 50
-90.0
 51
7.194436E-005
  0
LINE
  5
3D5
100
AcDbEntity
  8
M0
100
AcDbLine
 10
221.666926
 20
1046.036018
 11
215.466927
 21
1046.03601
  0
LINE
  5
3D6
100
AcDbEntity
  8
M0
100
AcDbLine
 10
214.466926
 20
1047.036009
 11
214.466916
 21
1054.636007
  0
ARC
  5
3D7
100
AcDbEntity
  8
M0
100
AcDbCircle
 10
215.466926
 20
1047.03601
 40
1.0
100
AcDbArc
 50
180.000017
 51
270.0
  0
LINE
  5
3D8
100
AcDbEntity
  8
M0
100
AcDbLine
 10
220.096617
 20
1052.365714
 11
216.963959
 21
1049.233048
  0
LINE
  5
3D9
100
AcDbEntity
  8
M0
100
AcDbLine
 10
216.46898
 20
1051.944
 11
219.601646
 21
1048.811342
  0
LINE
  5
3DA
100
AcDbEntity
  8
M0
100
AcDbLine
 10
217.458928
 20
1052.93395
 11
220.591594
 21
1049.801293
  0
LINE
  5
3DB
100
AcDbEntity
  8
M0
  6
DASHDOT
100
AcDbLine
 10
223.06692
 20
1050.836016
 11
214.06692
 21
1050.83601
  0
LINE
  5
3DC
100
AcDbEntity
  8
M0
  6
DASHDOT
100
AcDbLine
 10
218.566917
 20
1055.336013
 11
218.566923
 21
1046.336013
  0
LINE
  5
3DD
100
AcDbEntity
  8
M0
 62
     7
100
AcDbLine
 10
217.85982
 20
1041.336013
 11
215.763888
 21
1039.240079
  0
LINE
  5
3DE
100
AcDbEntity
  8
M0
 62
     7
100
AcDbLine
 10
220.662868
 20
1044.139065
 11
218.566926
 21
1042.04312
  0
LINE
  5
3DF
100
AcDbEntity
  8
M0
 62
     7
100
AcDbLine
 10
219.274033
 20
1041.336014
 11
221.369975
 21
1043.431958
  0
LINE
  5
3E0
100
AcDbEntity
  8
M0
 62
     7
100
AcDbLine
 10
216.470996
 20
1038.532973
 11
218.566927
 21
1040.628906
  0
LINE
  5
3E1
100
AcDbEntity
  8
M0
 62
     7
100
AcDbLine
 10
218.566927
 20
1040.628906
 11
219.662977
 21
1039.532857
  0
LINE
  5
3E2
100
AcDbEntity
  8
M0
 62
     7
100
AcDbLine
 10
216.763769
 20
1042.432062
 11
217.85982
 21
1041.336013
  0
LINE
  5
3E3
100
AcDbEntity
  8
M0
 62
     7
100
AcDbLine
 10
218.566926
 20
1042.04312
 11
217.470875
 21
1043.139169
  0
LINE
  5
3E4
100
AcDbEntity
  8
M0
 62
     7
100
AcDbLine
 10
220.370084
 20
1040.239964
 11
219.274033
 21
1041.336014
  0
CIRCLE
  5
3E5
100
AcDbEntity
  8
M0
 62
     7
100
AcDbCircle
 10
218.566926
 20
1041.336013
 40
3.5
  0
LINE
  5
3E6
100
AcDbEntity
  8
M0
 62
     7
100
AcDbLine
 10
217.470875
 20
1043.139169
 11
216.763769
 21
1042.432062
  0
LINE
  5
3E7
100
AcDbEntity
  8
M0
 62
     7
100
AcDbLine
 10
219.662977
 20
1039.532857
 11
220.370084
 21
1040.239964
  0
CIRCLE
  5
3E8
100
AcDbEntity
  8
M0
100
AcDbCircle
 10
218.566934
 20
1028.336013
 40
3.5
  0
ARC
  5
3E9
100
AcDbEntity
  8
M0
100
AcDbCircle
 10
215.46693
 20
1032.136009
 40
1.0
100
AcDbArc
 50
90.0
 51
180.000072
  0
LINE
  5
3EA
100
AcDbEntity
  8
M0
100
AcDbLine
 10
215.466929
 20
1033.136009
 11
221.666928
 21
1033.136016
  0
ARC
  5
3EB
100
AcDbEntity
  8
M0
100
AcDbCircle
 10
221.666929
 20
1032.136016
 40
1.0
100
AcDbArc
 50
7.194436E-005
 51
90.0
  0
LINE
  5
3EC
100
AcDbEntity
  8
M0
100
AcDbLine
 10
222.666929
 20
1032.136018
 11
222.666939
 21
1024.536019
  0
ARC
  5
3ED
100
AcDbEntity
  8
M0
100
AcDbCircle
 10
221.666939
 20
1024.536018
 40
1.0
100
AcDbArc
 50
-90.0
 51
7.194436E-005
  0
LINE
  5
3EE
100
AcDbEntity
  8
M0
100
AcDbLine
 10
221.66694
 20
1023.536018
 11
215.466941
 21
1023.53601
  0
LINE
  5
3EF
100
AcDbEntity
  8
M0
100
AcDbLine
 10
214.46694
 20
1024.536009
 11
214.46693
 21
1032.136007
  0
ARC
  5
3F0
100
AcDbEntity
  8
M0
100
AcDbCircle
 10
215.46694
 20
1024.53601
 40
1.0
100
AcDbArc
 50
180.000017
 51
270.0
  0
LINE
  5
3F1
100
AcDbEntity
  8
M0
100
AcDbLine
 10
220.096631
 20
1029.865714
 11
216.963973
 21
1026.733048
  0
LINE
  5
3F2
100
AcDbEntity
  8
M0
100
AcDbLine
 10
216.468995
 20
1029.444
 11
219.60166
 21
1026.311342
  0
LINE
  5
3F3
100
AcDbEntity
  8
M0
100
AcDbLine
 10
217.458943
 20
1030.43395
 11
220.591608
 21
1027.301293
  0
LINE
  5
3F4
100
AcDbEntity
  8
M0
  6
DASHDOT
100
AcDbLine
 10
223.066934
 20
1028.336016
 11
214.066934
 21
1028.33601
  0
LINE
  5
3F5
100
AcDbEntity
  8
M0
  6
DASHDOT
100
AcDbLine
 10
218.566932
 20
1032.836013
 11
218.566937
 21
1023.836013
  0
CIRCLE
  5
3F6
100
AcDbEntity
  8
M0
100
AcDbCircle
 10
218.566949
 20
1005.335952
 40
3.5
  0
ARC
  5
3F7
100
AcDbEntity
  8
M0
100
AcDbCircle
 10
215.466949
 20
1001.535953
 40
1.0
100
AcDbArc
 50
180.0
 51
270.0
  0
LINE
  5
3F8
100
AcDbEntity
  8
M0
100
AcDbLine
 10
215.466949
 20
1000.535953
 11
221.666948
 21
1000.535953
  0
ARC
  5
3F9
100
AcDbEntity
  8
M0
100
AcDbCircle
 10
221.666948
 20
1001.535953
 40
1.0
100
AcDbArc
 50
270.0
 51
360.0
  0
LINE
  5
3FA
100
AcDbEntity
  8
M0
100
AcDbLine
 10
222.666948
 20
1001.535953
 11
222.666948
 21
1009.135951
  0
ARC
  5
3FB
100
AcDbEntity
  8
M0
100
AcDbCircle
 10
221.666948
 20
1009.135951
 40
1.0
100
AcDbArc
 50
0.0
 51
90.0
  0
LINE
  5
3FC
100
AcDbEntity
  8
M0
100
AcDbLine
 10
221.666948
 20
1010.135951
 11
215.466949
 21
1010.135951
  0
LINE
  5
3FD
100
AcDbEntity
  8
M0
100
AcDbLine
 10
214.466949
 20
1009.135951
 11
214.466949
 21
1001.535953
  0
ARC
  5
3FE
100
AcDbEntity
  8
M0
100
AcDbCircle
 10
215.466949
 20
1009.135951
 40
1.0
100
AcDbArc
 50
90.0
 51
180.000055
  0
LINE
  5
3FF
100
AcDbEntity
  8
M0
100
AcDbLine
 10
220.096647
 20
1003.806254
 11
216.963985
 21
1006.938916
  0
LINE
  5
400
100
AcDbEntity
  8
M0
100
AcDbLine
 10
216.46901
 20
1004.227963
 11
219.601672
 21
1007.360625
  0
LINE
  5
401
100
AcDbEntity
  8
M0
100
AcDbLine
 10
217.45896
 20
1003.238014
 11
220.591621
 21
1006.370676
  0
LINE
  5
402
100
AcDbEntity
  8
M0
  6
DASHDOT
100
AcDbLine
 10
223.066949
 20
1005.335955
 11
214.066949
 21
1005.335949
  0
LINE
  5
403
100
AcDbEntity
  8
M0
  6
DASHDOT
100
AcDbLine
 10
218.566952
 20
1000.835952
 11
218.566946
 21
1009.835952
  0
LINE
  5
404
100
AcDbEntity
  8
M0
 62
     7
100
AcDbLine
 10
217.85985
 20
992.335952
 11
215.763916
 21
994.431883
  0
LINE
  5
405
100
AcDbEntity
  8
M0
 62
     7
100
AcDbLine
 10
220.662902
 20
989.532904
 11
218.566958
 21
991.628845
  0
LINE
  5
406
100
AcDbEntity
  8
M0
 62
     7
100
AcDbLine
 10
219.274064
 20
992.335953
 11
221.370008
 21
990.240011
  0
LINE
  5
407
100
AcDbEntity
  8
M0
 62
     7
100
AcDbLine
 10
216.471023
 20
995.13899
 11
218.566957
 21
993.043059
  0
LINE
  5
408
100
AcDbEntity
  8
M0
 62
     7
100
AcDbLine
 10
218.566957
 20
993.043059
 11
219.663006
 21
994.13911
  0
LINE
  5
409
100
AcDbEntity
  8
M0
 62
     7
100
AcDbLine
 10
216.763801
 20
991.239901
 11
217.85985
 21
992.335952
  0
LINE
  5
40A
100
AcDbEntity
  8
M0
 62
     7
100
AcDbLine
 10
218.566958
 20
991.628845
 11
217.470908
 21
990.532795
  0
LINE
  5
40B
100
AcDbEntity
  8
M0
 62
     7
100
AcDbLine
 10
220.370113
 20
993.432003
 11
219.274064
 21
992.335953
  0
CIRCLE
  5
40C
100
AcDbEntity
  8
M0
 62
     7
100
AcDbCircle
 10
218.566957
 20
992.335952
 40
3.5
  0
LINE
  5
40D
100
AcDbEntity
  8
M0
 62
     7
100
AcDbLine
 10
217.470908
 20
990.532795
 11
216.763801
 21
991.239901
  0
LINE
  5
40E
100
AcDbEntity
  8
M0
 62
     7
100
AcDbLine
 10
219.663006
 20
994.13911
 11
220.370113
 21
993.432003
  0
CIRCLE
  5
40F
100
AcDbEntity
  8
M0
100
AcDbCircle
 10
218.566963
 20
982.835952
 40
3.5
  0
ARC
  5
410
100
AcDbEntity
  8
M0
100
AcDbCircle
 10
215.466964
 20
979.035953
 40
1.0
100
AcDbArc
 50
180.0
 51
270.0
  0
LINE
  5
411
100
AcDbEntity
  8
M0
100
AcDbLine
 10
215.466964
 20
978.035953
 11
221.666962
 21
978.035953
  0
ARC
  5
412
100
AcDbEntity
  8
M0
100
AcDbCircle
 10
221.666962
 20
979.035953
 40
1.0
100
AcDbArc
 50
270.0
 51
360.0
  0
LINE
  5
413
100
AcDbEntity
  8
M0
100
AcDbLine
 10
222.666962
 20
979.035953
 11
222.666962
 21
986.635951
  0
ARC
  5
414
100
AcDbEntity
  8
M0
100
AcDbCircle
 10
221.666962
 20
986.635951
 40
1.0
100
AcDbArc
 50
0.0
 51
90.0
  0
LINE
  5
415
100
AcDbEntity
  8
M0
100
AcDbLine
 10
221.666962
 20
987.635951
 11
215.466964
 21
987.635951
  0
LINE
  5
416
100
AcDbEntity
  8
M0
100
AcDbLine
 10
214.466964
 20
986.635951
 11
214.466964
 21
979.035953
  0
ARC
  5
417
100
AcDbEntity
  8
M0
100
AcDbCircle
 10
215.466964
 20
986.635951
 40
1.0
100
AcDbArc
 50
90.0
 51
180.000055
  0
LINE
  5
418
100
AcDbEntity
  8
M0
100
AcDbLine
 10
220.096661
 20
981.306254
 11
216.964
 21
984.438916
  0
LINE
  5
419
100
AcDbEntity
  8
M0
100
AcDbLine
 10
216.469024
 20
981.727963
 11
219.601686
 21
984.860625
  0
LINE
  5
41A
100
AcDbEntity
  8
M0
100
AcDbLine
 10
217.458974
 20
980.738014
 11
220.591636
 21
983.870676
  0
LINE
  5
41B
100
AcDbEntity
  8
M0
  6
DASHDOT
100
AcDbLine
 10
223.066963
 20
982.835955
 11
214.066963
 21
982.835949
  0
LINE
  5
41C
100
AcDbEntity
  8
M0
  6
DASHDOT
100
AcDbLine
 10
218.566966
 20
978.335952
 11
218.56696
 21
987.335952
  0
CIRCLE
  5
41D
100
AcDbEntity
  8
M0
100
AcDbCircle
 10
431.466992
 20
982.835952
 40
3.5
  0
ARC
  5
41E
100
AcDbEntity
  8
M0
100
AcDbCircle
 10
434.566991
 20
979.035953
 40
1.0
100
AcDbArc
 50
-90.0
 51
0.0
  0
LINE
  5
41F
100
AcDbEntity
  8
M0
100
AcDbLine
 10
434.566991
 20
978.035953
 11
428.366993
 21
978.035953
  0
ARC
  5
420
100
AcDbEntity
  8
M0
100
AcDbCircle
 10
428.366993
 20
979.035953
 40
1.0
100
AcDbArc
 50
180.0
 51
270.0
  0
LINE
  5
421
100
AcDbEntity
  8
M0
100
AcDbLine
 10
427.366993
 20
979.035953
 11
427.366993
 21
986.635951
  0
ARC
  5
422
100
AcDbEntity
  8
M0
100
AcDbCircle
 10
428.366993
 20
986.635951
 40
1.0
100
AcDbArc
 50
90.0
 51
180.0
  0
LINE
  5
423
100
AcDbEntity
  8
M0
100
AcDbLine
 10
428.366993
 20
987.635951
 11
434.566991
 21
987.635951
  0
LINE
  5
424
100
AcDbEntity
  8
M0
100
AcDbLine
 10
435.566991
 20
986.635951
 11
435.566991
 21
979.035953
  0
ARC
  5
425
100
AcDbEntity
  8
M0
100
AcDbCircle
 10
434.566991
 20
986.635951
 40
1.0
100
AcDbArc
 50
-5.464157E-005
 51
90.0
  0
LINE
  5
426
100
AcDbEntity
  8
M0
100
AcDbLine
 10
429.937294
 20
981.306254
 11
433.069955
 21
984.438916
  0
LINE
  5
427
100
AcDbEntity
  8
M0
100
AcDbLine
 10
433.564931
 20
981.727963
 11
430.432269
 21
984.860625
  0
LINE
  5
428
100
AcDbEntity
  8
M0
100
AcDbLine
 10
432.574981
 20
980.738014
 11
429.44232
 21
983.870676
  0
LINE
  5
429
100
AcDbEntity
  8
M0
  6
DASHDOT
100
AcDbLine
 10
426.966992
 20
982.835955
 11
435.966992
 21
982.835949
  0
LINE
  5
42A
100
AcDbEntity
  8
M0
  6
DASHDOT
100
AcDbLine
 10
431.466989
 20
978.335952
 11
431.466995
 21
987.335952
  0
CIRCLE
  5
42B
100
AcDbEntity
  8
M0
100
AcDbCircle
 10
446.366968
 20
982.835948
 40
3.5
  0
ARC
  5
42C
100
AcDbEntity
  8
M0
100
AcDbCircle
 10
443.266967
 20
979.03595
 40
1.0
100
AcDbArc
 50
179.999964
 51
270.0
  0
LINE
  5
42D
100
AcDbEntity
  8
M0
100
AcDbLine
 10
443.266966
 20
978.03595
 11
449.466965
 21
978.035946
  0
ARC
  5
42E
100
AcDbEntity
  8
M0
100
AcDbCircle
 10
449.466965
 20
979.035946
 40
1.0
100
AcDbArc
 50
270.0
 51
359.999964
  0
LINE
  5
42F
100
AcDbEntity
  8
M0
100
AcDbLine
 10
450.466965
 20
979.035946
 11
450.46697
 21
986.635944
  0
ARC
  5
430
100
AcDbEntity
  8
M0
100
AcDbCircle
 10
449.46697
 20
986.635945
 40
1.0
100
AcDbArc
 50
359.999964
 51
450.0
  0
LINE
  5
431
100
AcDbEntity
  8
M0
100
AcDbLine
 10
449.466971
 20
987.635945
 11
443.266972
 21
987.635949
  0
LINE
  5
432
100
AcDbEntity
  8
M0
100
AcDbLine
 10
442.266971
 20
986.635949
 11
442.266967
 21
979.035951
  0
ARC
  5
433
100
AcDbEntity
  8
M0
100
AcDbCircle
 10
443.266971
 20
986.635949
 40
1.0
100
AcDbArc
 50
90.0
 51
180.000019
  0
LINE
  5
434
100
AcDbEntity
  8
M0
100
AcDbLine
 10
447.896666
 20
981.306248
 11
444.764006
 21
984.438912
  0
LINE
  5
435
100
AcDbEntity
  8
M0
100
AcDbLine
 10
444.269029
 20
981.72796
 11
447.401693
 21
984.860619
  0
LINE
  5
436
100
AcDbEntity
  8
M0
100
AcDbLine
 10
445.258978
 20
980.73801
 11
448.391642
 21
983.87067
  0
LINE
  5
437
100
AcDbEntity
  8
M0
  6
DASHDOT
100
AcDbLine
 10
450.866968
 20
982.835948
 11
441.866968
 21
982.835948
  0
LINE
  5
438
100
AcDbEntity
  8
M0
  6
DASHDOT
100
AcDbLine
 10
446.366968
 20
978.335948
 11
446.366968
 21
987.335948
  0
LINE
  5
439
100
AcDbEntity
  8
M0
 62
     7
100
AcDbLine
 10
445.659862
 20
992.335948
 11
443.563929
 21
994.43188
  0
LINE
  5
43A
100
AcDbEntity
  8
M0
 62
     7
100
AcDbLine
 10
448.462912
 20
989.532898
 11
446.366968
 21
991.628841
  0
LINE
  5
43B
100
AcDbEntity
  8
M0
 62
     7
100
AcDbLine
 10
447.074075
 20
992.335948
 11
449.170018
 21
990.240004
  0
LINE
  5
43C
100
AcDbEntity
  8
M0
 62
     7
100
AcDbLine
 10
444.271036
 20
995.138987
 11
446.366968
 21
993.043054
  0
LINE
  5
43D
100
AcDbEntity
  8
M0
 62
     7
100
AcDbLine
 10
446.366968
 20
993.043054
 11
447.463018
 21
994.139104
  0
LINE
  5
43E
100
AcDbEntity
  8
M0
 62
     7
100
AcDbLine
 10
444.563812
 20
991.239897
 11
445.659862
 21
992.335948
  0
LINE
  5
43F
100
AcDbEntity
  8
M0
 62
     7
100
AcDbLine
 10
446.366968
 20
991.628841
 11
445.270918
 21
990.532791
  0
LINE
  5
440
100
AcDbEntity
  8
M0
 62
     7
100
AcDbLine
 10
448.170125
 20
993.431998
 11
447.074075
 21
992.335948
  0
CIRCLE
  5
441
100
AcDbEntity
  8
M0
 62
     7
100
AcDbCircle
 10
446.366968
 20
992.335948
 40
3.5
  0
LINE
  5
442
100
AcDbEntity
  8
M0
 62
     7
100
AcDbLine
 10
445.270918
 20
990.532791
 11
444.563812
 21
991.239897
  0
LINE
  5
443
100
AcDbEntity
  8
M0
 62
     7
100
AcDbLine
 10
447.463018
 20
994.139104
 11
448.170125
 21
993.431998
  0
LINE
  5
444
100
AcDbEntity
  8
M0
 62
     7
100
AcDbLine
 10
432.174105
 20
992.335952
 11
434.270039
 21
994.431883
  0
LINE
  5
445
100
AcDbEntity
  8
M0
 62
     7
100
AcDbLine
 10
429.371053
 20
989.532904
 11
431.466998
 21
991.628845
  0
LINE
  5
446
100
AcDbEntity
  8
M0
 62
     7
100
AcDbLine
 10
430.759891
 20
992.335953
 11
428.663947
 21
990.240011
  0
LINE
  5
447
100
AcDbEntity
  8
M0
 62
     7
100
AcDbLine
 10
433.562932
 20
995.13899
 11
431.466998
 21
993.043059
  0
LINE
  5
448
100
AcDbEntity
  8
M0
 62
     7
100
AcDbLine
 10
431.466998
 20
993.043059
 11
430.370949
 21
994.13911
  0
LINE
  5
449
100
AcDbEntity
  8
M0
 62
     7
100
AcDbLine
 10
433.270154
 20
991.239901
 11
432.174105
 21
992.335952
  0
LINE
  5
44A
100
AcDbEntity
  8
M0
 62
     7
100
AcDbLine
 10
431.466998
 20
991.628845
 11
432.563047
 21
990.532795
  0
LINE
  5
44B
100
AcDbEntity
  8
M0
 62
     7
100
AcDbLine
 10
429.663842
 20
993.432003
 11
430.759891
 21
992.335953
  0
CIRCLE
  5
44C
100
AcDbEntity
  8
M0
 62
     7
100
AcDbCircle
 10
431.466998
 20
992.335952
 40
3.5
  0
LINE
  5
44D
100
AcDbEntity
  8
M0
 62
     7
100
AcDbLine
 10
432.563047
 20
990.532795
 11
433.270154
 21
991.239901
  0
LINE
  5
44E
100
AcDbEntity
  8
M0
 62
     7
100
AcDbLine
 10
430.370949
 20
994.13911
 11
429.663842
 21
993.432003
  0
CIRCLE
  5
44F
100
AcDbEntity
  8
M0
100
AcDbCircle
 10
431.467006
 20
1005.335952
 40
3.5
  0
ARC
  5
450
100
AcDbEntity
  8
M0
100
AcDbCircle
 10
434.567006
 20
1001.535953
 40
1.0
100
AcDbArc
 50
-90.0
 51
0.0
  0
LINE
  5
451
100
AcDbEntity
  8
M0
100
AcDbLine
 10
434.567006
 20
1000.535953
 11
428.367007
 21
1000.535953
  0
ARC
  5
452
100
AcDbEntity
  8
M0
100
AcDbCircle
 10
428.367007
 20
1001.535953
 40
1.0
100
AcDbArc
 50
180.0
 51
270.0
  0
LINE
  5
453
100
AcDbEntity
  8
M0
100
AcDbLine
 10
427.367007
 20
1001.535953
 11
427.367007
 21
1009.135951
  0
ARC
  5
454
100
AcDbEntity
  8
M0
100
AcDbCircle
 10
428.367007
 20
1009.135951
 40
1.0
100
AcDbArc
 50
90.0
 51
180.0
  0
LINE
  5
455
100
AcDbEntity
  8
M0
100
AcDbLine
 10
428.367007
 20
1010.135951
 11
434.567006
 21
1010.135951
  0
LINE
  5
456
100
AcDbEntity
  8
M0
100
AcDbLine
 10
435.567006
 20
1009.135951
 11
435.567006
 21
1001.535953
  0
ARC
  5
457
100
AcDbEntity
  8
M0
100
AcDbCircle
 10
434.567006
 20
1009.135951
 40
1.0
100
AcDbArc
 50
-5.464157E-005
 51
90.0
  0
LINE
  5
458
100
AcDbEntity
  8
M0
100
AcDbLine
 10
429.937308
 20
1003.806254
 11
433.06997
 21
1006.938916
  0
LINE
  5
459
100
AcDbEntity
  8
M0
100
AcDbLine
 10
433.564945
 20
1004.227963
 11
430.432283
 21
1007.360625
  0
LINE
  5
45A
100
AcDbEntity
  8
M0
100
AcDbLine
 10
432.574995
 20
1003.238014
 11
429.442334
 21
1006.370676
  0
LINE
  5
45B
100
AcDbEntity
  8
M0
  6
DASHDOT
100
AcDbLine
 10
426.967006
 20
1005.335955
 11
435.967006
 21
1005.335949
  0
LINE
  5
45C
100
AcDbEntity
  8
M0
  6
DASHDOT
100
AcDbLine
 10
431.467003
 20
1000.835952
 11
431.467009
 21
1009.835952
  0
CIRCLE
  5
45D
100
AcDbEntity
  8
M0
100
AcDbCircle
 10
446.366968
 20
1005.335948
 40
3.5
  0
ARC
  5
45E
100
AcDbEntity
  8
M0
100
AcDbCircle
 10
443.266967
 20
1001.53595
 40
1.0
100
AcDbArc
 50
179.999964
 51
270.0
  0
LINE
  5
45F
100
AcDbEntity
  8
M0
100
AcDbLine
 10
443.266966
 20
1000.53595
 11
449.466965
 21
1000.535946
  0
ARC
  5
460
100
AcDbEntity
  8
M0
100
AcDbCircle
 10
449.466965
 20
1001.535946
 40
1.0
100
AcDbArc
 50
270.0
 51
359.999964
  0
LINE
  5
461
100
AcDbEntity
  8
M0
100
AcDbLine
 10
450.466965
 20
1001.535946
 11
450.46697
 21
1009.135944
  0
ARC
  5
462
100
AcDbEntity
  8
M0
100
AcDbCircle
 10
449.46697
 20
1009.135945
 40
1.0
100
AcDbArc
 50
359.999964
 51
450.0
  0
LINE
  5
463
100
AcDbEntity
  8
M0
100
AcDbLine
 10
449.466971
 20
1010.135945
 11
443.266972
 21
1010.135949
  0
LINE
  5
464
100
AcDbEntity
  8
M0
100
AcDbLine
 10
442.266971
 20
1009.135949
 11
442.266967
 21
1001.535951
  0
ARC
  5
465
100
AcDbEntity
  8
M0
100
AcDbCircle
 10
443.266971
 20
1009.135949
 40
1.0
100
AcDbArc
 50
90.0
 51
180.000019
  0
LINE
  5
466
100
AcDbEntity
  8
M0
100
AcDbLine
 10
447.896666
 20
1003.806248
 11
444.764006
 21
1006.938912
  0
LINE
  5
467
100
AcDbEntity
  8
M0
100
AcDbLine
 10
444.269029
 20
1004.22796
 11
447.401693
 21
1007.360619
  0
LINE
  5
468
100
AcDbEntity
  8
M0
100
AcDbLine
 10
445.258978
 20
1003.23801
 11
448.391642
 21
1006.37067
  0
LINE
  5
469
100
AcDbEntity
  8
M0
  6
DASHDOT
100
AcDbLine
 10
450.866968
 20
1005.335948
 11
441.866968
 21
1005.335948
  0
LINE
  5
46A
100
AcDbEntity
  8
M0
  6
DASHDOT
100
AcDbLine
 10
446.366968
 20
1000.835948
 11
446.366968
 21
1009.835948
  0
CIRCLE
  5
46B
100
AcDbEntity
  8
M0
100
AcDbCircle
 10
431.467021
 20
1028.336013
 40
3.5
  0
ARC
  5
46C
100
AcDbEntity
  8
M0
100
AcDbCircle
 10
434.567025
 20
1032.136009
 40
1.0
100
AcDbArc
 50
359.999928
 51
450.0
  0
LINE
  5
46D
100
AcDbEntity
  8
M0
100
AcDbLine
 10
434.567026
 20
1033.136009
 11
428.367027
 21
1033.136016
  0
ARC
  5
46E
100
AcDbEntity
  8
M0
100
AcDbCircle
 10
428.367026
 20
1032.136016
 40
1.0
100
AcDbArc
 50
90.0
 51
179.999928
  0
LINE
  5
46F
100
AcDbEntity
  8
M0
100
AcDbLine
 10
427.367026
 20
1032.136018
 11
427.367016
 21
1024.536019
  0
ARC
  5
470
100
AcDbEntity
  8
M0
100
AcDbCircle
 10
428.367016
 20
1024.536018
 40
1.0
100
AcDbArc
 50
179.999928
 51
270.0
  0
LINE
  5
471
100
AcDbEntity
  8
M0
100
AcDbLine
 10
428.367015
 20
1023.536018
 11
434.567014
 21
1023.53601
  0
LINE
  5
472
100
AcDbEntity
  8
M0
100
AcDbLine
 10
435.567015
 20
1024.536009
 11
435.567025
 21
1032.136007
  0
ARC
  5
473
100
AcDbEntity
  8
M0
100
AcDbCircle
 10
434.567015
 20
1024.53601
 40
1.0
100
AcDbArc
 50
270.0
 51
359.999983
  0
LINE
  5
474
100
AcDbEntity
  8
M0
100
AcDbLine
 10
429.937324
 20
1029.865714
 11
433.069982
 21
1026.733048
  0
LINE
  5
475
100
AcDbEntity
  8
M0
100
AcDbLine
 10
433.564961
 20
1029.444
 11
430.432295
 21
1026.311342
  0
LINE
  5
476
100
AcDbEntity
  8
M0
100
AcDbLine
 10
432.575013
 20
1030.43395
 11
429.442347
 21
1027.301293
  0
LINE
  5
477
100
AcDbEntity
  8
M0
  6
DASHDOT
100
AcDbLine
 10
426.967021
 20
1028.336016
 11
435.967021
 21
1028.33601
  0
LINE
  5
478
100
AcDbEntity
  8
M0
  6
DASHDOT
100
AcDbLine
 10
431.467023
 20
1032.836013
 11
431.467018
 21
1023.836013
  0
CIRCLE
  5
479
100
AcDbEntity
  8
M0
100
AcDbCircle
 10
446.366968
 20
1028.336009
 40
3.5
  0
ARC
  5
47A
100
AcDbEntity
  8
M0
100
AcDbCircle
 10
443.266967
 20
1032.136006
 40
1.0
100
AcDbArc
 50
90.0
 51
180.000036
  0
LINE
  5
47B
100
AcDbEntity
  8
M0
100
AcDbLine
 10
443.266966
 20
1033.136006
 11
449.466965
 21
1033.13601
  0
ARC
  5
47C
100
AcDbEntity
  8
M0
100
AcDbCircle
 10
449.466965
 20
1032.13601
 40
1.0
100
AcDbArc
 50
3.597218E-005
 51
90.0
  0
LINE
  5
47D
100
AcDbEntity
  8
M0
100
AcDbLine
 10
450.466965
 20
1032.13601
 11
450.46697
 21
1024.536012
  0
ARC
  5
47E
100
AcDbEntity
  8
M0
100
AcDbCircle
 10
449.46697
 20
1024.536011
 40
1.0
100
AcDbArc
 50
-90.0
 51
3.597218E-005
  0
LINE
  5
47F
100
AcDbEntity
  8
M0
100
AcDbLine
 10
449.466971
 20
1023.536011
 11
443.266972
 21
1023.536007
  0
LINE
  5
480
100
AcDbEntity
  8
M0
100
AcDbLine
 10
442.266971
 20
1024.536007
 11
442.266967
 21
1032.136005
  0
ARC
  5
481
100
AcDbEntity
  8
M0
100
AcDbCircle
 10
443.266971
 20
1024.536007
 40
1.0
100
AcDbArc
 50
179.999981
 51
270.0
  0
LINE
  5
482
100
AcDbEntity
  8
M0
100
AcDbLine
 10
447.896666
 20
1029.865708
 11
444.764006
 21
1026.733044
  0
LINE
  5
483
100
AcDbEntity
  8
M0
100
AcDbLine
 10
444.269029
 20
1029.443997
 11
447.401693
 21
1026.311337
  0
LINE
  5
484
100
AcDbEntity
  8
M0
100
AcDbLine
 10
445.258978
 20
1030.433946
 11
448.391642
 21
1027.301287
  0
LINE
  5
485
100
AcDbEntity
  8
M0
  6
DASHDOT
100
AcDbLine
 10
450.866968
 20
1028.336009
 11
441.866968
 21
1028.336009
  0
LINE
  5
486
100
AcDbEntity
  8
M0
  6
DASHDOT
100
AcDbLine
 10
446.366968
 20
1032.836009
 11
446.366968
 21
1023.836009
  0
LINE
  5
487
100
AcDbEntity
  8
M0
 62
     7
100
AcDbLine
 10
445.659862
 20
1041.336009
 11
443.563929
 21
1039.240076
  0
LINE
  5
488
100
AcDbEntity
  8
M0
 62
     7
100
AcDbLine
 10
448.462912
 20
1044.139059
 11
446.366968
 21
1042.043115
  0
LINE
  5
489
100
AcDbEntity
  8
M0
 62
     7
100
AcDbLine
 10
447.074075
 20
1041.336009
 11
449.170018
 21
1043.431952
  0
LINE
  5
48A
100
AcDbEntity
  8
M0
 62
     7
100
AcDbLine
 10
444.271036
 20
1038.532969
 11
446.366968
 21
1040.628902
  0
LINE
  5
48B
100
AcDbEntity
  8
M0
 62
     7
100
AcDbLine
 10
446.366968
 20
1040.628902
 11
447.463018
 21
1039.532852
  0
LINE
  5
48C
100
AcDbEntity
  8
M0
 62
     7
100
AcDbLine
 10
444.563812
 20
1042.432059
 11
445.659862
 21
1041.336009
  0
LINE
  5
48D
100
AcDbEntity
  8
M0
 62
     7
100
AcDbLine
 10
446.366968
 20
1042.043115
 11
445.270918
 21
1043.139165
  0
LINE
  5
48E
100
AcDbEntity
  8
M0
 62
     7
100
AcDbLine
 10
448.170125
 20
1040.239958
 11
447.074075
 21
1041.336009
  0
CIRCLE
  5
48F
100
AcDbEntity
  8
M0
 62
     7
100
AcDbCircle
 10
446.366968
 20
1041.336009
 40
3.5
  0
LINE
  5
490
100
AcDbEntity
  8
M0
 62
     7
100
AcDbLine
 10
445.270918
 20
1043.139165
 11
444.563812
 21
1042.432059
  0
LINE
  5
491
100
AcDbEntity
  8
M0
 62
     7
100
AcDbLine
 10
447.463018
 20
1039.532852
 11
448.170125
 21
1040.239958
  0
LINE
  5
492
100
AcDbEntity
  8
M0
 62
     7
100
AcDbLine
 10
432.174136
 20
1041.336013
 11
434.270067
 21
1039.240079
  0
LINE
  5
493
100
AcDbEntity
  8
M0
 62
     7
100
AcDbLine
 10
429.371087
 20
1044.139065
 11
431.467029
 21
1042.04312
  0
LINE
  5
494
100
AcDbEntity
  8
M0
 62
     7
100
AcDbLine
 10
430.759922
 20
1041.336014
 11
428.66398
 21
1043.431958
  0
LINE
  5
495
100
AcDbEntity
  8
M0
 62
     7
100
AcDbLine
 10
433.56296
 20
1038.532973
 11
431.467028
 21
1040.628906
  0
LINE
  5
496
100
AcDbEntity
  8
M0
 62
     7
100
AcDbLine
 10
431.467028
 20
1040.628906
 11
430.370978
 21
1039.532857
  0
LINE
  5
497
100
AcDbEntity
  8
M0
 62
     7
100
AcDbLine
 10
433.270186
 20
1042.432062
 11
432.174136
 21
1041.336013
  0
LINE
  5
498
100
AcDbEntity
  8
M0
 62
     7
100
AcDbLine
 10
431.467029
 20
1042.04312
 11
432.56308
 21
1043.139169
  0
LINE
  5
499
100
AcDbEntity
  8
M0
 62
     7
100
AcDbLine
 10
429.663871
 20
1040.239964
 11
430.759922
 21
1041.336014
  0
CIRCLE
  5
49A
100
AcDbEntity
  8
M0
 62
     7
100
AcDbCircle
 10
431.467029
 20
1041.336013
 40
3.5
  0
LINE
  5
49B
100
AcDbEntity
  8
M0
 62
     7
100
AcDbLine
 10
432.56308
 20
1043.139169
 11
433.270186
 21
1042.432062
  0
LINE
  5
49C
100
AcDbEntity
  8
M0
 62
     7
100
AcDbLine
 10
430.370978
 20
1039.532857
 11
429.663871
 21
1040.239964
  0
CIRCLE
  5
49D
100
AcDbEntity
  8
M0
100
AcDbCircle
 10
431.467035
 20
1050.836013
 40
3.5
  0
ARC
  5
49E
100
AcDbEntity
  8
M0
100
AcDbCircle
 10
434.567039
 20
1054.636009
 40
1.0
100
AcDbArc
 50
359.999928
 51
450.0
  0
LINE
  5
49F
100
AcDbEntity
  8
M0
100
AcDbLine
 10
434.56704
 20
1055.636009
 11
428.367041
 21
1055.636016
  0
ARC
  5
4A0
100
AcDbEntity
  8
M0
100
AcDbCircle
 10
428.36704
 20
1054.636016
 40
1.0
100
AcDbArc
 50
90.0
 51
179.999928
  0
LINE
  5
4A1
100
AcDbEntity
  8
M0
100
AcDbLine
 10
427.36704
 20
1054.636018
 11
427.367031
 21
1047.036019
  0
ARC
  5
4A2
100
AcDbEntity
  8
M0
100
AcDbCircle
 10
428.367031
 20
1047.036018
 40
1.0
100
AcDbArc
 50
179.999928
 51
270.0
  0
LINE
  5
4A3
100
AcDbEntity
  8
M0
100
AcDbLine
 10
428.367029
 20
1046.036018
 11
434.567028
 21
1046.03601
  0
LINE
  5
4A4
100
AcDbEntity
  8
M0
100
AcDbLine
 10
435.567029
 20
1047.036009
 11
435.567039
 21
1054.636007
  0
ARC
  5
4A5
100
AcDbEntity
  8
M0
100
AcDbCircle
 10
434.567029
 20
1047.03601
 40
1.0
100
AcDbArc
 50
270.0
 51
359.999983
  0
LINE
  5
4A6
100
AcDbEntity
  8
M0
100
AcDbLine
 10
429.937338
 20
1052.365714
 11
433.069996
 21
1049.233048
  0
LINE
  5
4A7
100
AcDbEntity
  8
M0
100
AcDbLine
 10
433.564975
 20
1051.944
 11
430.432309
 21
1048.811342
  0
LINE
  5
4A8
100
AcDbEntity
  8
M0
100
AcDbLine
 10
432.575027
 20
1052.93395
 11
429.442361
 21
1049.801293
  0
LINE
  5
4A9
100
AcDbEntity
  8
M0
  6
DASHDOT
100
AcDbLine
 10
426.967035
 20
1050.836016
 11
435.967035
 21
1050.83601
  0
LINE
  5
4AA
100
AcDbEntity
  8
M0
  6
DASHDOT
100
AcDbLine
 10
431.467038
 20
1055.336013
 11
431.467032
 21
1046.336013
  0
CIRCLE
  5
4AB
100
AcDbEntity
  8
M0
100
AcDbCircle
 10
446.366968
 20
1050.836009
 40
3.5
  0
ARC
  5
4AC
100
AcDbEntity
  8
M0
100
AcDbCircle
 10
443.266967
 20
1054.636006
 40
1.0
100
AcDbArc
 50
90.0
 51
180.000036
  0
LINE
  5
4AD
100
AcDbEntity
  8
M0
100
AcDbLine
 10
443.266966
 20
1055.636006
 11
449.466965
 21
1055.63601
  0
ARC
  5
4AE
100
AcDbEntity
  8
M0
100
AcDbCircle
 10
449.466965
 20
1054.63601
 40
1.0
100
AcDbArc
 50
3.597218E-005
 51
90.0
  0
LINE
  5
4AF
100
AcDbEntity
  8
M0
100
AcDbLine
 10
450.466965
 20
1054.63601
 11
450.46697
 21
1047.036012
  0
ARC
  5
4B0
100
AcDbEntity
  8
M0
100
AcDbCircle
 10
449.46697
 20
1047.036011
 40
1.0
100
AcDbArc
 50
-90.0
 51
3.597218E-005
  0
LINE
  5
4B1
100
AcDbEntity
  8
M0
100
AcDbLine
 10
449.466971
 20
1046.036011
 11
443.266972
 21
1046.036007
  0
LINE
  5
4B2
100
AcDbEntity
  8
M0
100
AcDbLine
 10
442.266971
 20
1047.036007
 11
442.266967
 21
1054.636005
  0
ARC
  5
4B3
100
AcDbEntity
  8
M0
100
AcDbCircle
 10
443.266971
 20
1047.036007
 40
1.0
100
AcDbArc
 50
179.999981
 51
270.0
  0
LINE
  5
4B4
100
AcDbEntity
  8
M0
100
AcDbLine
 10
447.896666
 20
1052.365708
 11
444.764006
 21
1049.233044
  0
LINE
  5
4B5
100
AcDbEntity
  8
M0
100
AcDbLine
 10
444.269029
 20
1051.943997
 11
447.401693
 21
1048.811337
  0
LINE
  5
4B6
100
AcDbEntity
  8
M0
100
AcDbLine
 10
445.258978
 20
1052.933946
 11
448.391642
 21
1049.801287
  0
LINE
  5
4B7
100
AcDbEntity
  8
M0
  6
DASHDOT
100
AcDbLine
 10
450.866968
 20
1050.836009
 11
441.866968
 21
1050.836009
  0
LINE
  5
4B8
100
AcDbEntity
  8
M0
  6
DASHDOT
100
AcDbLine
 10
446.366968
 20
1055.336009
 11
446.366968
 21
1046.336009
  0
LINE
  5
4B9
100
AcDbEntity
  8
M0
 62
   114
100
AcDbLine
 10
234.724084
 20
1086.835978
 11
236.820017
 21
1088.93191
  0
LINE
  5
4BA
100
AcDbEntity
  8
M0
 62
   114
100
AcDbLine
 10
231.921034
 20
1084.032928
 11
234.016978
 21
1086.128871
  0
LINE
  5
4BB
100
AcDbEntity
  8
M0
 62
   114
100
AcDbLine
 10
233.309871
 20
1086.835978
 11
231.213927
 21
1084.740035
  0
LINE
  5
4BC
100
AcDbEntity
  8
M0
 62
   114
100
AcDbLine
 10
236.11291
 20
1089.639017
 11
234.016978
 21
1087.543085
  0
LINE
  5
4BD
100
AcDbEntity
  8
M0
 62
   114
100
AcDbLine
 10
234.016978
 20
1087.543085
 11
232.920928
 21
1088.639135
  0
LINE
  5
4BE
100
AcDbEntity
  8
M0
 62
   114
100
AcDbLine
 10
235.820134
 20
1085.739928
 11
234.724084
 21
1086.835978
  0
LINE
  5
4BF
100
AcDbEntity
  8
M0
 62
   114
100
AcDbLine
 10
234.016978
 20
1086.128871
 11
235.113028
 21
1085.032821
  0
LINE
  5
4C0
100
AcDbEntity
  8
M0
 62
   114
100
AcDbLine
 10
232.213821
 20
1087.932028
 11
233.309871
 21
1086.835978
  0
CIRCLE
  5
4C1
100
AcDbEntity
  8
M0
 62
   114
100
AcDbCircle
 10
234.016978
 20
1086.835978
 40
3.5
  0
LINE
  5
4C2
100
AcDbEntity
  8
M0
 62
   114
100
AcDbLine
 10
235.113028
 20
1085.032821
 11
235.820134
 21
1085.739928
  0
LINE
  5
4C3
100
AcDbEntity
  8
M0
 62
   114
100
AcDbLine
 10
232.920928
 20
1088.639135
 11
232.213821
 21
1087.932028
  0
CIRCLE
  5
4C4
100
AcDbEntity
  8
M0
 62
   114
100
AcDbCircle
 10
234.016978
 20
1086.835978
 40
4.0
  0
LINE
  5
4C5
100
AcDbEntity
  8
M0
 62
   114
100
AcDbLine
 10
237.724084
 20
946.835978
 11
239.820017
 21
948.93191
  0
LINE
  5
4C6
100
AcDbEntity
  8
M0
 62
   114
100
AcDbLine
 10
234.921034
 20
944.032928
 11
237.016978
 21
946.128871
  0
LINE
  5
4C7
100
AcDbEntity
  8
M0
 62
   114
100
AcDbLine
 10
236.309871
 20
946.835978
 11
234.213927
 21
944.740035
  0
LINE
  5
4C8
100
AcDbEntity
  8
M0
 62
   114
100
AcDbLine
 10
239.11291
 20
949.639017
 11
237.016978
 21
947.543085
  0
LINE
  5
4C9
100
AcDbEntity
  8
M0
 62
   114
100
AcDbLine
 10
237.016978
 20
947.543085
 11
235.920928
 21
948.639135
  0
LINE
  5
4CA
100
AcDbEntity
  8
M0
 62
   114
100
AcDbLine
 10
238.820134
 20
945.739928
 11
237.724084
 21
946.835978
  0
LINE
  5
4CB
100
AcDbEntity
  8
M0
 62
   114
100
AcDbLine
 10
237.016978
 20
946.128871
 11
238.113028
 21
945.032821
  0
LINE
  5
4CC
100
AcDbEntity
  8
M0
 62
   114
100
AcDbLine
 10
235.213821
 20
947.932028
 11
236.309871
 21
946.835978
  0
CIRCLE
  5
4CD
100
AcDbEntity
  8
M0
 62
   114
100
AcDbCircle
 10
237.016978
 20
946.835978
 40
3.5
  0
LINE
  5
4CE
100
AcDbEntity
  8
M0
 62
   114
100
AcDbLine
 10
238.113028
 20
945.032821
 11
238.820134
 21
945.739928
  0
LINE
  5
4CF
100
AcDbEntity
  8
M0
 62
   114
100
AcDbLine
 10
235.920928
 20
948.639135
 11
235.213821
 21
947.932028
  0
CIRCLE
  5
4D0
100
AcDbEntity
  8
M0
 62
   114
100
AcDbCircle
 10
237.016978
 20
946.835978
 40
4.0
  0
LINE
  5
4D1
100
AcDbEntity
  8
M0
 62
   114
100
AcDbLine
 10
413.724084
 20
946.835978
 11
415.820017
 21
948.93191
  0
LINE
  5
4D2
100
AcDbEntity
  8
M0
 62
   114
100
AcDbLine
 10
410.921034
 20
944.032928
 11
413.016978
 21
946.128871
  0
LINE
  5
4D3
100
AcDbEntity
  8
M0
 62
   114
100
AcDbLine
 10
412.309871
 20
946.835978
 11
410.213927
 21
944.740035
  0
LINE
  5
4D4
100
AcDbEntity
  8
M0
 62
   114
100
AcDbLine
 10
415.11291
 20
949.639017
 11
413.016978
 21
947.543085
  0
LINE
  5
4D5
100
AcDbEntity
  8
M0
 62
   114
100
AcDbLine
 10
413.016978
 20
947.543085
 11
411.920928
 21
948.639135
  0
LINE
  5
4D6
100
AcDbEntity
  8
M0
 62
   114
100
AcDbLine
 10
414.820134
 20
945.739928
 11
413.724084
 21
946.835978
  0
LINE
  5
4D7
100
AcDbEntity
  8
M0
 62
   114
100
AcDbLine
 10
413.016978
 20
946.128871
 11
414.113028
 21
945.032821
  0
LINE
  5
4D8
100
AcDbEntity
  8
M0
 62
   114
100
AcDbLine
 10
411.213821
 20
947.932028
 11
412.309871
 21
946.835978
  0
CIRCLE
  5
4D9
100
AcDbEntity
  8
M0
 62
   114
100
AcDbCircle
 10
413.016978
 20
946.835978
 40
3.5
  0
LINE
  5
4DA
100
AcDbEntity
  8
M0
 62
   114
100
AcDbLine
 10
414.113028
 20
945.032821
 11
414.820134
 21
945.739928
  0
LINE
  5
4DB
100
AcDbEntity
  8
M0
 62
   114
100
AcDbLine
 10
411.920928
 20
948.639135
 11
411.213821
 21
947.932028
  0
CIRCLE
  5
4DC
100
AcDbEntity
  8
M0
 62
   114
100
AcDbCircle
 10
413.016978
 20
946.835978
 40
4.0
  0
LINE
  5
4DD
100
AcDbEntity
  8
M0
 62
   114
100
AcDbLine
 10
416.724084
 20
1086.835978
 11
418.820017
 21
1088.93191
  0
LINE
  5
4DE
100
AcDbEntity
  8
M0
 62
   114
100
AcDbLine
 10
413.921034
 20
1084.032928
 11
416.016978
 21
1086.128871
  0
LINE
  5
4DF
100
AcDbEntity
  8
M0
 62
   114
100
AcDbLine
 10
415.309871
 20
1086.835978
 11
413.213927
 21
1084.740035
  0
LINE
  5
4E0
100
AcDbEntity
  8
M0
 62
   114
100
AcDbLine
 10
418.11291
 20
1089.639017
 11
416.016978
 21
1087.543085
  0
LINE
  5
4E1
100
AcDbEntity
  8
M0
 62
   114
100
AcDbLine
 10
416.016978
 20
1087.543085
 11
414.920928
 21
1088.639135
  0
LINE
  5
4E2
100
AcDbEntity
  8
M0
 62
   114
100
AcDbLine
 10
417.820134
 20
1085.739928
 11
416.724084
 21
1086.835978
  0
LINE
  5
4E3
100
AcDbEntity
  8
M0
 62
   114
100
AcDbLine
 10
416.016978
 20
1086.128871
 11
417.113028
 21
1085.032821
  0
LINE
  5
4E4
100
AcDbEntity
  8
M0
 62
   114
100
AcDbLine
 10
414.213821
 20
1087.932028
 11
415.309871
 21
1086.835978
  0
CIRCLE
  5
4E5
100
AcDbEntity
  8
M0
 62
   114
100
AcDbCircle
 10
416.016978
 20
1086.835978
 40
3.5
  0
LINE
  5
4E6
100
AcDbEntity
  8
M0
 62
   114
100
AcDbLine
 10
417.113028
 20
1085.032821
 11
417.820134
 21
1085.739928
  0
LINE
  5
4E7
100
AcDbEntity
  8
M0
 62
   114
100
AcDbLine
 10
414.920928
 20
1088.639135
 11
414.213821
 21
1087.932028
  0
CIRCLE
  5
4E8
100
AcDbEntity
  8
M0
 62
   114
100
AcDbCircle
 10
416.016978
 20
1086.835978
 40
4.0
  0
LINE
  5
4E9
100
AcDbEntity
  8
M0
100
AcDbLine
 10
461.016606
 20
942.835978
 11
473.016606
 21
942.835978
  0
LINE
  5
4EA
100
AcDbEntity
  8
M0
100
AcDbLine
 10
461.016606
 20
940.835978
 11
473.016606
 21
940.835978
  0
LINE
  5
4EB
100
AcDbEntity
  8
M0
100
AcDbLine
 10
466.016606
 20
938.835978
 11
477.416606
 21
938.835978
  0
LINE
  5
4EC
100
AcDbEntity
  8
M0
100
AcDbLine
 10
470.716606
 20
909.835978
 11
470.716606
 21
911.335978
  0
LINE
  5
4ED
100
AcDbEntity
  8
M0
100
AcDbLine
 10
471.716606
 20
909.835978
 11
471.716606
 21
911.335978
  0
LINE
  5
4EE
100
AcDbEntity
  8
M0
100
AcDbLine
 10
471.716606
 20
909.835978
 11
470.716606
 21
909.835978
  0
LINE
  5
4EF
100
AcDbEntity
  8
M0
100
AcDbLine
 10
466.716606
 20
911.335978
 11
475.716606
 21
911.335978
  0
LINE
  5
4F0
100
AcDbEntity
  8
M0
100
AcDbLine
 10
466.716606
 20
926.835978
 11
466.716606
 21
911.335978
  0
LINE
  5
4F1
100
AcDbEntity
  8
M0
100
AcDbLine
 10
458.016606
 20
913.835978
 11
466.716606
 21
913.835978
  0
LINE
  5
4F2
100
AcDbEntity
  8
M0
100
AcDbLine
 10
477.416606
 20
926.835978
 11
456.616606
 21
926.835978
  0
LINE
  5
4F3
100
AcDbEntity
  8
M0
100
AcDbLine
 10
476.016606
 20
936.835978
 11
468.016606
 21
936.835978
  0
LINE
  5
4F4
100
AcDbEntity
  8
M0
100
AcDbLine
 10
476.016606
 20
926.835978
 11
476.016606
 21
936.835978
  0
LINE
  5
4F5
100
AcDbEntity
  8
M0
100
AcDbLine
 10
468.016606
 20
926.835978
 11
468.016606
 21
936.835978
  0
LINE
  5
4F6
100
AcDbEntity
  8
M0
100
AcDbLine
 10
458.016606
 20
913.835978
 11
458.016606
 21
926.835978
  0
LINE
  5
4F7
100
AcDbEntity
  8
M0
100
AcDbLine
 10
466.016606
 20
913.835978
 11
466.016606
 21
926.835978
  0
LINE
  5
4F8
100
AcDbEntity
  8
M0
100
AcDbLine
 10
468.016606
 20
927.335978
 11
476.016606
 21
927.335978
  0
LINE
  5
4F9
100
AcDbEntity
  8
M0
100
AcDbLine
 10
458.016606
 20
917.335978
 11
466.016606
 21
917.335978
  0
LINE
  5
4FA
100
AcDbEntity
  8
M0
100
AcDbLine
 10
462.016606
 20
936.335978
 11
466.016606
 21
936.335978
  0
LINE
  5
4FB
100
AcDbEntity
  8
M0
100
AcDbLine
 10
461.016606
 20
970.835978
 11
477.416606
 21
970.835978
  0
LINE
  5
4FC
100
AcDbEntity
  8
M0
100
AcDbLine
 10
464.480708
 20
972.835978
 11
477.416606
 21
972.835978
  0
LINE
  5
4FD
100
AcDbEntity
  8
M0
100
AcDbLine
 10
460.966606
 20
1102.935978
 11
459.016606
 21
1102.935978
  0
LINE
  5
4FE
100
AcDbEntity
  8
M0
100
AcDbLine
 10
463.066606
 20
1102.935978
 11
463.066606
 21
1117.935978
  0
LINE
  5
4FF
100
AcDbEntity
  8
M0
100
AcDbLine
 10
460.966606
 20
1102.935978
 11
460.966606
 21
1117.935978
  0
LINE
  5
500
100
AcDbEntity
  8
M0
100
AcDbLine
 10
459.016606
 20
1117.935978
 11
459.016606
 21
1102.935978
  0
LINE
  5
501
100
AcDbEntity
  8
M0
100
AcDbLine
 10
465.016606
 20
1102.935978
 11
465.016606
 21
1117.935978
  0
LINE
  5
502
100
AcDbEntity
  8
M0
100
AcDbLine
 10
465.016606
 20
1102.935978
 11
463.066606
 21
1102.935978
  0
LINE
  5
503
100
AcDbEntity
  8
M0
100
AcDbLine
 10
456.616606
 20
926.835978
 11
456.616606
 21
973.835977
  0
LINE
  5
504
100
AcDbEntity
  8
M0
100
AcDbLine
 10
458.316606
 20
1117.935978
 11
458.316606
 21
1135.835978
  0
LINE
  5
505
100
AcDbEntity
  8
M0
100
AcDbLine
 10
477.416606
 20
926.835978
 11
477.416606
 21
1117.935978
  0
LINE
  5
506
100
AcDbEntity
  8
M0
100
AcDbLine
 10
475.716606
 20
1117.935978
 11
475.716606
 21
1135.835978
  0
LINE
  5
507
100
AcDbEntity
  8
M0
100
AcDbLine
 10
477.416606
 20
1117.935978
 11
456.616606
 21
1117.935978
  0
LINE
  5
508
100
AcDbEntity
  8
M0
100
AcDbLine
 10
475.716606
 20
897.835978
 11
475.716606
 21
926.835978
  0
LINE
  5
509
100
AcDbEntity
  8
M0
100
AcDbLine
 10
458.316606
 20
897.835978
 11
458.316606
 21
913.835978
  0
LINE
  5
50A
100
AcDbEntity
  8
M0
  6
DASHDOT
100
AcDbLine
 10
467.016606
 20
1145.835978
 11
467.016606
 21
887.835978
  0
LINE
  5
50B
100
AcDbEntity
  8
M0
  6
DASHDOT
100
AcDbLine
 10
488.516606
 20
1016.835978
 11
445.516606
 21
1016.835978
  0
LINE
  5
50C
100
AcDbEntity
  8
M0
100
AcDbLine
 10
478.516606
 20
1135.835978
 11
455.516606
 21
1135.835978
  0
LINE
  5
50D
100
AcDbEntity
  8
M0
100
AcDbLine
 10
478.516606
 20
897.835978
 11
478.516606
 21
1135.835978
  0
LINE
  5
50E
100
AcDbEntity
  8
M0
100
AcDbLine
 10
455.516606
 20
897.835978
 11
478.516606
 21
897.835978
  0
LINE
  5
50F
100
AcDbEntity
  8
M0
100
AcDbLine
 10
455.516606
 20
1135.835978
 11
455.516606
 21
1059.835977
  0
ARC
  5
510
100
AcDbEntity
  8
M0
100
AcDbCircle
 10
465.016606
 20
1118.935978
 40
3.0
100
AcDbArc
 50
90.0
 51
180.0
  0
ARC
  5
511
100
AcDbEntity
  8
M0
100
AcDbCircle
 10
469.016606
 20
1118.935978
 40
3.0
100
AcDbArc
 50
0.0
 51
90.0
  0
LINE
  5
512
100
AcDbEntity
  8
M0
100
AcDbLine
 10
465.016606
 20
1121.935978
 11
469.016606
 21
1121.935978
  0
LINE
  5
513
100
AcDbEntity
  8
M0
100
AcDbLine
 10
462.016606
 20
1118.935978
 11
462.016606
 21
1117.935978
  0
LINE
  5
514
100
AcDbEntity
  8
M0
100
AcDbLine
 10
472.016606
 20
1118.935978
 11
472.016606
 21
1117.935978
  0
LINE
  5
515
100
AcDbEntity
  8
M0
100
AcDbLine
 10
462.016606
 20
926.835978
 11
462.016606
 21
936.335978
  0
LINE
  5
516
100
AcDbEntity
  8
M0
100
AcDbLine
 10
466.016606
 20
938.835978
 11
466.016606
 21
936.335978
  0
ARC
  5
517
100
AcDbEntity
  8
M0
100
AcDbCircle
 10
461.016606
 20
941.835978
 40
1.0
100
AcDbArc
 50
180.0
 51
270.0
  0
ARC
  5
518
100
AcDbEntity
  8
M0
100
AcDbCircle
 10
461.016606
 20
941.835978
 40
1.0
100
AcDbArc
 50
90.0
 51
180.0
  0
ARC
  5
519
100
AcDbEntity
  8
M0
100
AcDbCircle
 10
473.016606
 20
941.835978
 40
1.0
100
AcDbArc
 50
0.0
 51
90.0
  0
ARC
  5
51A
100
AcDbEntity
  8
M0
100
AcDbCircle
 10
473.016606
 20
941.835978
 40
1.0
100
AcDbArc
 50
270.0
 51
360.0
  0
ARC
  5
51B
100
AcDbEntity
  8
M0
100
AcDbCircle
 10
461.016606
 20
974.835978
 40
4.0
100
AcDbArc
 50
194.477528
 51
270.0
  0
LINE
  5
51C
100
AcDbEntity
  8
M0
100
AcDbLine
 10
456.616606
 20
1059.835977
 11
456.616606
 21
1117.935978
  0
LINE
  5
51D
100
AcDbEntity
  8
M0
100
AcDbLine
 10
455.516606
 20
973.835977
 11
455.516606
 21
897.835978
  0
ARC
  5
51E
100
AcDbEntity
  8
M0
100
AcDbCircle
 10
461.016606
 20
974.835978
 40
4.0
100
AcDbArc
 50
330.0
 51
345.522508
  0
LINE
  5
51F
100
AcDbEntity
  8
M0
100
AcDbLine
 10
468.016606
 20
972.835978
 11
468.016606
 21
970.835978
  0
CIRCLE
  5
520
100
AcDbEntity
  8
M0
100
AcDbCircle
 10
462.016606
 20
922.335978
 40
3.0
  0
LINE
  5
521
100
AcDbEntity
  8
M0
100
AcDbLine
 10
464.975591
 20
926.28332
 11
465.791753
 21
923.636027
  0
LINE
  5
522
100
AcDbEntity
  8
M0
100
AcDbLine
 10
464.975591
 20
918.388729
 11
465.791753
 21
921.036052
  0
LINE
  5
523
100
AcDbEntity
  8
M0
100
AcDbLine
 10
459.05811
 20
926.283335
 11
458.241704
 21
923.636027
  0
LINE
  5
524
100
AcDbEntity
  8
M0
100
AcDbLine
 10
459.05811
 20
918.388713
 11
458.241704
 21
921.036052
  0
LINE
  5
525
100
AcDbEntity
  8
M0
100
AcDbLine
 10
464.497563
 20
918.036052
 11
459.535893
 21
918.036052
  0
LINE
  5
526
100
AcDbEntity
  8
M0
100
AcDbLine
 10
458.241704
 20
921.036052
 11
458.241704
 21
923.636027
  0
LINE
  5
527
100
AcDbEntity
  8
M0
100
AcDbLine
 10
459.535893
 20
926.636027
 11
464.497563
 21
926.636012
  0
LINE
  5
528
100
AcDbEntity
  8
M0
100
AcDbLine
 10
465.791753
 20
923.636027
 11
465.791753
 21
921.036052
  0
LINE
  5
529
100
AcDbEntity
  8
M0
  6
DASHDOT
100
AcDbLine
 10
468.291752
 20
922.335978
 11
455.741704
 21
922.335978
  0
LINE
  5
52A
100
AcDbEntity
  8
M0
100
AcDbLine
 10
460.42603
 20
920.745159
 11
463.607671
 21
923.92692
  0
LINE
  5
52B
100
AcDbEntity
  8
M0
100
AcDbLine
 10
461.663335
 20
923.750163
 11
463.430913
 21
921.982463
  0
LINE
  5
52C
100
AcDbEntity
  8
M0
100
AcDbLine
 10
460.602788
 20
922.689494
 11
462.370366
 21
920.921917
  0
ARC
  5
52D
100
AcDbEntity
  8
M0
100
AcDbCircle
 10
464.497563
 20
926.136012
 40
0.5
100
AcDbArc
 50
17.127146
 51
90.0
  0
ARC
  5
52E
100
AcDbEntity
  8
M0
100
AcDbCircle
 10
464.497563
 20
918.536052
 40
0.5
100
AcDbArc
 50
270.0
 51
342.871263
  0
ARC
  5
52F
100
AcDbEntity
  8
M0
100
AcDbCircle
 10
459.535893
 20
918.536052
 40
0.5
100
AcDbArc
 50
197.138555
 51
270.0
  0
ARC
  5
530
100
AcDbEntity
  8
M0
100
AcDbCircle
 10
459.535893
 20
926.136012
 40
0.5
100
AcDbArc
 50
90.0
 51
162.862931
  0
LINE
  5
531
100
AcDbEntity
  8
M0
  6
DASHDOT
100
AcDbLine
 10
462.016606
 20
915.536068
 11
462.016606
 21
929.711376
  0
CIRCLE
  5
532
100
AcDbEntity
  8
M0
100
AcDbCircle
 10
472.016606
 20
932.335978
 40
3.0
  0
LINE
  5
533
100
AcDbEntity
  8
M0
100
AcDbLine
 10
474.975591
 20
936.28332
 11
475.791753
 21
933.636027
  0
LINE
  5
534
100
AcDbEntity
  8
M0
100
AcDbLine
 10
474.975591
 20
928.388729
 11
475.791753
 21
931.036052
  0
LINE
  5
535
100
AcDbEntity
  8
M0
100
AcDbLine
 10
469.05811
 20
936.283335
 11
468.241704
 21
933.636027
  0
LINE
  5
536
100
AcDbEntity
  8
M0
100
AcDbLine
 10
469.05811
 20
928.388713
 11
468.241704
 21
931.036052
  0
LINE
  5
537
100
AcDbEntity
  8
M0
100
AcDbLine
 10
474.497563
 20
928.036052
 11
469.535893
 21
928.036052
  0
LINE
  5
538
100
AcDbEntity
  8
M0
100
AcDbLine
 10
468.241704
 20
931.036052
 11
468.241704
 21
933.636027
  0
LINE
  5
539
100
AcDbEntity
  8
M0
100
AcDbLine
 10
469.535893
 20
936.636027
 11
474.497563
 21
936.636012
  0
LINE
  5
53A
100
AcDbEntity
  8
M0
100
AcDbLine
 10
475.791753
 20
933.636027
 11
475.791753
 21
931.036052
  0
LINE
  5
53B
100
AcDbEntity
  8
M0
  6
DASHDOT
100
AcDbLine
 10
478.291752
 20
932.335978
 11
465.741704
 21
932.335978
  0
LINE
  5
53C
100
AcDbEntity
  8
M0
100
AcDbLine
 10
470.42603
 20
930.745159
 11
473.607671
 21
933.92692
  0
LINE
  5
53D
100
AcDbEntity
  8
M0
100
AcDbLine
 10
471.663335
 20
933.750163
 11
473.430913
 21
931.982463
  0
LINE
  5
53E
100
AcDbEntity
  8
M0
100
AcDbLine
 10
470.602788
 20
932.689494
 11
472.370366
 21
930.921917
  0
ARC
  5
53F
100
AcDbEntity
  8
M0
100
AcDbCircle
 10
474.497563
 20
936.136012
 40
0.5
100
AcDbArc
 50
17.127146
 51
90.0
  0
ARC
  5
540
100
AcDbEntity
  8
M0
100
AcDbCircle
 10
474.497563
 20
928.536052
 40
0.5
100
AcDbArc
 50
270.0
 51
342.871263
  0
ARC
  5
541
100
AcDbEntity
  8
M0
100
AcDbCircle
 10
469.535893
 20
928.536052
 40
0.5
100
AcDbArc
 50
197.138555
 51
270.0
  0
ARC
  5
542
100
AcDbEntity
  8
M0
100
AcDbCircle
 10
469.535893
 20
936.136012
 40
0.5
100
AcDbArc
 50
90.0
 51
162.862931
  0
LINE
  5
543
100
AcDbEntity
  8
M0
  6
DASHDOT
100
AcDbLine
 10
472.016606
 20
925.536068
 11
472.016606
 21
939.711376
  0
LINE
  5
544
100
AcDbEntity
  8
M0
 62
     6
100
AcDbLine
 10
395.016978
 20
863.885996
 11
385.534067
 21
869.361002
  0
LINE
  5
545
100
AcDbEntity
  8
M0
 62
     6
100
AcDbLine
 10
385.534067
 20
869.361002
 11
385.534067
 21
880.310984
  0
LINE
  5
546
100
AcDbEntity
  8
M0
 62
     6
100
AcDbLine
 10
385.534067
 20
880.310984
 11
395.016978
 21
885.78599
  0
LINE
  5
547
100
AcDbEntity
  8
M0
 62
     6
100
AcDbLine
 10
395.016978
 20
885.78599
 11
404.500132
 21
880.310984
  0
LINE
  5
548
100
AcDbEntity
  8
M0
 62
     6
100
AcDbLine
 10
404.500132
 20
880.310984
 11
404.500132
 21
869.360972
  0
LINE
  5
549
100
AcDbEntity
  8
M0
 62
     6
100
AcDbLine
 10
404.500132
 20
869.360972
 11
395.016978
 21
863.885996
  0
CIRCLE
  5
54A
100
AcDbEntity
  8
M0
 62
     6
100
AcDbCircle
 10
395.016978
 20
874.835978
 40
6.0
  0
CIRCLE
  5
54B
100
AcDbEntity
  8
M0
 62
     7
100
AcDbCircle
 10
395.016978
 20
874.836043
 40
10.75
  0
CIRCLE
  5
54C
100
AcDbEntity
  8
M0
 62
     2
100
AcDbCircle
 10
395.016978
 20
874.836043
 40
13.0
  0
LINE
  5
54D
100
AcDbEntity
  8
M0
 62
     6
100
AcDbLine
 10
325.016978
 20
863.885932
 11
315.534067
 21
869.360938
  0
LINE
  5
54E
100
AcDbEntity
  8
M0
 62
     6
100
AcDbLine
 10
315.534067
 20
869.360938
 11
315.534067
 21
880.310919
  0
LINE
  5
54F
100
AcDbEntity
  8
M0
 62
     6
100
AcDbLine
 10
315.534067
 20
880.310919
 11
325.016978
 21
885.785925
  0
LINE
  5
550
100
AcDbEntity
  8
M0
 62
     6
100
AcDbLine
 10
325.016978
 20
885.785925
 11
334.500132
 21
880.310919
  0
LINE
  5
551
100
AcDbEntity
  8
M0
 62
     6
100
AcDbLine
 10
334.500132
 20
880.310919
 11
334.500132
 21
869.360907
  0
LINE
  5
552
100
AcDbEntity
  8
M0
 62
     6
100
AcDbLine
 10
334.500132
 20
869.360907
 11
325.016978
 21
863.885932
  0
CIRCLE
  5
553
100
AcDbEntity
  8
M0
 62
     6
100
AcDbCircle
 10
325.016978
 20
874.835913
 40
6.0
  0
CIRCLE
  5
554
100
AcDbEntity
  8
M0
 62
     7
100
AcDbCircle
 10
325.016978
 20
874.835978
 40
10.75
  0
CIRCLE
  5
555
100
AcDbEntity
  8
M0
 62
     2
100
AcDbCircle
 10
325.016978
 20
874.835978
 40
13.0
  0
LINE
  5
556
100
AcDbEntity
  8
M0
 62
     6
100
AcDbLine
 10
255.016978
 20
863.885932
 11
245.534067
 21
869.360938
  0
LINE
  5
557
100
AcDbEntity
  8
M0
 62
     6
100
AcDbLine
 10
245.534067
 20
869.360938
 11
245.534067
 21
880.310919
  0
LINE
  5
558
100
AcDbEntity
  8
M0
 62
     6
100
AcDbLine
 10
245.534067
 20
880.310919
 11
255.016978
 21
885.785925
  0
LINE
  5
559
100
AcDbEntity
  8
M0
 62
     6
100
AcDbLine
 10
255.016978
 20
885.785925
 11
264.500132
 21
880.310919
  0
LINE
  5
55A
100
AcDbEntity
  8
M0
 62
     6
100
AcDbLine
 10
264.500132
 20
880.310919
 11
264.500132
 21
869.360907
  0
LINE
  5
55B
100
AcDbEntity
  8
M0
 62
     6
100
AcDbLine
 10
264.500132
 20
869.360907
 11
255.016978
 21
863.885932
  0
CIRCLE
  5
55C
100
AcDbEntity
  8
M0
 62
     6
100
AcDbCircle
 10
255.016978
 20
874.835913
 40
6.0
  0
CIRCLE
  5
55D
100
AcDbEntity
  8
M0
 62
     7
100
AcDbCircle
 10
255.016978
 20
874.835978
 40
10.75
  0
CIRCLE
  5
55E
100
AcDbEntity
  8
M0
 62
     2
100
AcDbCircle
 10
255.016978
 20
874.835978
 40
13.0
  0
LINE
  5
55F
100
AcDbEntity
  8
M0
 62
     6
100
AcDbLine
 10
395.016914
 20
1147.885932
 11
385.534004
 21
1153.360938
  0
LINE
  5
560
100
AcDbEntity
  8
M0
 62
     6
100
AcDbLine
 10
385.534004
 20
1153.360938
 11
385.534004
 21
1164.310919
  0
LINE
  5
561
100
AcDbEntity
  8
M0
 62
     6
100
AcDbLine
 10
385.534004
 20
1164.310919
 11
395.016914
 21
1169.785925
  0
LINE
  5
562
100
AcDbEntity
  8
M0
 62
     6
100
AcDbLine
 10
395.016914
 20
1169.785925
 11
404.500068
 21
1164.310919
  0
LINE
  5
563
100
AcDbEntity
  8
M0
 62
     6
100
AcDbLine
 10
404.500068
 20
1164.310919
 11
404.500068
 21
1153.360907
  0
LINE
  5
564
100
AcDbEntity
  8
M0
 62
     6
100
AcDbLine
 10
404.500068
 20
1153.360907
 11
395.016914
 21
1147.885932
  0
CIRCLE
  5
565
100
AcDbEntity
  8
M0
 62
     6
100
AcDbCircle
 10
395.016914
 20
1158.835913
 40
6.0
  0
CIRCLE
  5
566
100
AcDbEntity
  8
M0
 62
     7
100
AcDbCircle
 10
395.016914
 20
1158.835978
 40
10.75
  0
CIRCLE
  5
567
100
AcDbEntity
  8
M0
 62
     2
100
AcDbCircle
 10
395.016914
 20
1158.835978
 40
13.0
  0
LINE
  5
568
100
AcDbEntity
  8
M0
 62
     6
100
AcDbLine
 10
325.016914
 20
1147.885932
 11
315.534004
 21
1153.360938
  0
LINE
  5
569
100
AcDbEntity
  8
M0
 62
     6
100
AcDbLine
 10
315.534004
 20
1153.360938
 11
315.534004
 21
1164.310919
  0
LINE
  5
56A
100
AcDbEntity
  8
M0
 62
     6
100
AcDbLine
 10
315.534004
 20
1164.310919
 11
325.016914
 21
1169.785925
  0
LINE
  5
56B
100
AcDbEntity
  8
M0
 62
     6
100
AcDbLine
 10
325.016914
 20
1169.785925
 11
334.500068
 21
1164.310919
  0
LINE
  5
56C
100
AcDbEntity
  8
M0
 62
     6
100
AcDbLine
 10
334.500068
 20
1164.310919
 11
334.500068
 21
1153.360907
  0
LINE
  5
56D
100
AcDbEntity
  8
M0
 62
     6
100
AcDbLine
 10
334.500068
 20
1153.360907
 11
325.016914
 21
1147.885932
  0
CIRCLE
  5
56E
100
AcDbEntity
  8
M0
 62
     6
100
AcDbCircle
 10
325.016914
 20
1158.835913
 40
6.0
  0
CIRCLE
  5
56F
100
AcDbEntity
  8
M0
 62
     7
100
AcDbCircle
 10
325.016914
 20
1158.835978
 40
10.75
  0
CIRCLE
  5
570
100
AcDbEntity
  8
M0
 62
     2
100
AcDbCircle
 10
325.016914
 20
1158.835978
 40
13.0
  0
LINE
  5
571
100
AcDbEntity
  8
M0
 62
     6
100
AcDbLine
 10
255.016914
 20
1147.885932
 11
245.534004
 21
1153.360938
  0
LINE
  5
572
100
AcDbEntity
  8
M0
 62
     6
100
AcDbLine
 10
245.534004
 20
1153.360938
 11
245.534004
 21
1164.310919
  0
LINE
  5
573
100
AcDbEntity
  8
M0
 62
     6
100
AcDbLine
 10
245.534004
 20
1164.310919
 11
255.016914
 21
1169.785925
  0
LINE
  5
574
100
AcDbEntity
  8
M0
 62
     6
100
AcDbLine
 10
255.016914
 20
1169.785925
 11
264.500068
 21
1164.310919
  0
LINE
  5
575
100
AcDbEntity
  8
M0
 62
     6
100
AcDbLine
 10
264.500068
 20
1164.310919
 11
264.500068
 21
1153.360907
  0
LINE
  5
576
100
AcDbEntity
  8
M0
 62
     6
100
AcDbLine
 10
264.500068
 20
1153.360907
 11
255.016914
 21
1147.885932
  0
CIRCLE
  5
577
100
AcDbEntity
  8
M0
 62
     6
100
AcDbCircle
 10
255.016914
 20
1158.835913
 40
6.0
  0
CIRCLE
  5
578
100
AcDbEntity
  8
M0
 62
     7
100
AcDbCircle
 10
255.016914
 20
1158.835978
 40
10.75
  0
CIRCLE
  5
579
100
AcDbEntity
  8
M0
 62
     2
100
AcDbCircle
 10
255.016914
 20
1158.835978
 40
13.0
  0
CIRCLE
  5
57A
100
AcDbEntity
  8
M0
 62
   114
100
AcDbCircle
 10
467.016606
 20
905.835978
 40
4.5
  0
LINE
  5
57B
100
AcDbEntity
  8
M0
 62
   114
100
AcDbLine
 10
467.865208
 20
905.835913
 11
470.59449
 21
908.565195
  0
LINE
  5
57C
100
AcDbEntity
  8
M0
 62
   114
100
AcDbLine
 10
464.287379
 20
902.258084
 11
467.016671
 21
904.987377
  0
LINE
  5
57D
100
AcDbEntity
  8
M0
 62
   114
100
AcDbLine
 10
466.168188
 20
905.835859
 11
463.438863
 21
903.106535
  0
LINE
  5
57E
100
AcDbEntity
  8
M0
 62
   114
100
AcDbLine
 10
469.746028
 20
909.413721
 11
467.016725
 21
906.684396
  0
LINE
  5
57F
100
AcDbEntity
  8
M0
 62
   114
100
AcDbLine
 10
467.016671
 20
904.987377
 11
468.289498
 21
903.71455
  0
LINE
  5
580
100
AcDbEntity
  8
M0
 62
   114
100
AcDbLine
 10
464.895351
 20
907.108697
 11
466.168177
 21
905.83587
  0
LINE
  5
581
100
AcDbEntity
  8
M0
 62
   114
100
AcDbLine
 10
467.016714
 20
906.684407
 11
465.743888
 21
907.957234
  0
LINE
  5
582
100
AcDbEntity
  8
M0
 62
   114
100
AcDbLine
 10
469.138035
 20
904.563087
 11
467.865208
 21
905.835913
  0
LINE
  5
583
100
AcDbEntity
  8
M0
 62
   114
100
AcDbLine
 10
468.289498
 20
903.71455
 11
469.138035
 21
904.563087
  0
LINE
  5
584
100
AcDbEntity
  8
M0
 62
   114
100
AcDbLine
 10
465.743888
 20
907.957234
 11
464.895351
 21
907.108697
  0
CIRCLE
  5
585
100
AcDbEntity
  8
M0
 62
   114
100
AcDbCircle
 10
467.016606
 20
905.835978
 40
5.0
  0
CIRCLE
  5
586
100
AcDbEntity
  8
M0
 62
   114
100
AcDbCircle
 10
467.016606
 20
1127.835978
 40
4.5
  0
LINE
  5
587
100
AcDbEntity
  8
M0
 62
   114
100
AcDbLine
 10
467.865208
 20
1127.835913
 11
470.59449
 21
1130.565195
  0
LINE
  5
588
100
AcDbEntity
  8
M0
 62
   114
100
AcDbLine
 10
464.287379
 20
1124.258084
 11
467.016671
 21
1126.987377
  0
LINE
  5
589
100
AcDbEntity
  8
M0
 62
   114
100
AcDbLine
 10
466.168188
 20
1127.835859
 11
463.438863
 21
1125.106535
  0
LINE
  5
58A
100
AcDbEntity
  8
M0
 62
   114
100
AcDbLine
 10
469.746028
 20
1131.413721
 11
467.016725
 21
1128.684396
  0
LINE
  5
58B
100
AcDbEntity
  8
M0
 62
   114
100
AcDbLine
 10
467.016671
 20
1126.987377
 11
468.289498
 21
1125.71455
  0
LINE
  5
58C
100
AcDbEntity
  8
M0
 62
   114
100
AcDbLine
 10
464.895351
 20
1129.108697
 11
466.168177
 21
1127.83587
  0
LINE
  5
58D
100
AcDbEntity
  8
M0
 62
   114
100
AcDbLine
 10
467.016714
 20
1128.684407
 11
465.743888
 21
1129.957234
  0
LINE
  5
58E
100
AcDbEntity
  8
M0
 62
   114
100
AcDbLine
 10
469.138035
 20
1126.563087
 11
467.865208
 21
1127.835913
  0
LINE
  5
58F
100
AcDbEntity
  8
M0
 62
   114
100
AcDbLine
 10
468.289498
 20
1125.71455
 11
469.138035
 21
1126.563087
  0
LINE
  5
590
100
AcDbEntity
  8
M0
 62
   114
100
AcDbLine
 10
465.743888
 20
1129.957234
 11
464.895351
 21
1129.108697
  0
CIRCLE
  5
591
100
AcDbEntity
  8
M0
 62
   114
100
AcDbCircle
 10
467.016606
 20
1127.835978
 40
5.0
  0
LINE
  5
592
100
AcDbEntity
  8
M0
100
AcDbLine
 10
445.016644
 20
1111.835978
 11
445.016644
 21
1113.235978
  0
LINE
  5
593
100
AcDbEntity
  8
M0
100
AcDbLine
 10
445.016644
 20
1113.235978
 11
400.016942
 21
1113.235978
  0
LINE
  5
594
100
AcDbEntity
  8
M0
100
AcDbLine
 10
205.016644
 20
1113.235978
 11
205.016644
 21
1111.835978
  0
LINE
  5
595
100
AcDbEntity
  8
M0
100
AcDbLine
 10
238.914413
 20
1108.735978
 11
250.016945
 21
1108.735978
  0
LINE
  5
596
100
AcDbEntity
  8
M0
100
AcDbLine
 10
250.016942
 20
1113.235978
 11
205.016644
 21
1113.235978
  0
LINE
  5
597
100
AcDbEntity
  8
M0
100
AcDbLine
 10
280.016945
 20
1108.735978
 11
286.016701
 21
1108.735978
  0
LINE
  5
598
100
AcDbEntity
  8
M0
100
AcDbLine
 10
310.016942
 20
1113.235978
 11
299.016698
 21
1113.235978
  0
LINE
  5
599
100
AcDbEntity
  8
M0
100
AcDbLine
 10
340.016945
 20
1108.735978
 11
350.612801
 21
1108.735978
  0
LINE
  5
59A
100
AcDbEntity
  8
M0
100
AcDbLine
 10
299.421154
 20
1108.735978
 11
310.016945
 21
1108.735978
  0
LINE
  5
59B
100
AcDbEntity
  8
M0
100
AcDbLine
 10
286.016698
 20
1113.235978
 11
280.016942
 21
1113.235978
  0
LINE
  5
59C
100
AcDbEntity
  8
M0
100
AcDbLine
 10
351.016698
 20
1113.235978
 11
340.016942
 21
1113.235978
  0
LINE
  5
59D
100
AcDbEntity
  8
M0
100
AcDbLine
 10
364.016701
 20
1108.735978
 11
370.016945
 21
1108.735978
  0
LINE
  5
59E
100
AcDbEntity
  8
M0
100
AcDbLine
 10
370.016942
 20
1113.235978
 11
364.016698
 21
1113.235978
  0
LINE
  5
59F
100
AcDbEntity
  8
M0
100
AcDbLine
 10
400.016945
 20
1108.735978
 11
411.112801
 21
1108.735978
  0
LINE
  5
5A0
100
AcDbEntity
  8
M0
 62
     7
100
AcDbLine
 10
236.016644
 20
1115.835969
 11
236.016644
 21
1119.835969
  0
LINE
  5
5A1
100
AcDbEntity
  8
M0
 62
     7
100
AcDbLine
 10
236.016644
 20
1119.835969
 11
208.016644
 21
1119.835969
  0
LINE
  5
5A2
100
AcDbEntity
  8
M0
 62
     7
100
AcDbLine
 10
208.016644
 20
1119.835969
 11
208.016644
 21
1115.835969
  0
LINE
  5
5A3
100
AcDbEntity
  8
M0
 62
     7
100
AcDbLine
 10
208.016644
 20
1115.835969
 11
236.016644
 21
1115.835969
  0
LINE
  5
5A4
100
AcDbEntity
  8
M0
 62
     7
100
AcDbLine
 10
222.016659
 20
1115.835969
 11
224.326062
 21
1119.835969
  0
LINE
  5
5A5
100
AcDbEntity
  8
M0
 62
     7
100
AcDbLine
 10
219.707257
 20
1115.835969
 11
222.016659
 21
1119.835969
  0
LINE
  5
5A6
100
AcDbEntity
  8
M0
 62
     2
100
AcDbLine
 10
238.016644
 20
1113.235978
 11
238.016644
 21
1115.835969
  0
LINE
  5
5A7
100
AcDbEntity
  8
M0
 62
     2
100
AcDbLine
 10
238.016644
 20
1115.835969
 11
206.016644
 21
1115.835969
  0
LINE
  5
5A8
100
AcDbEntity
  8
M0
 62
     2
100
AcDbLine
 10
206.016644
 20
1115.835969
 11
206.016644
 21
1113.235978
  0
LINE
  5
5A9
100
AcDbEntity
  8
M0
 62
     2
100
AcDbLine
 10
206.016644
 20
1113.235978
 11
238.016644
 21
1113.235978
  0
LINE
  5
5AA
100
AcDbEntity
  8
M0
 62
   114
100
AcDbLine
 10
828.212792
 20
1129.83609
 11
824.464689
 21
1129.83609
  0
LINE
  5
5AB
100
AcDbEntity
  8
M0
 62
   114
100
AcDbLine
 10
824.464689
 20
1129.83609
 11
824.464689
 21
1126.976358
  0
LINE
  5
5AC
100
AcDbEntity
  8
M0
100
AcDbLine
 10
210.016644
 20
1129.835969
 11
210.016644
 21
1119.835969
  0
LINE
  5
5AD
100
AcDbEntity
  8
M0
100
AcDbLine
 10
210.016644
 20
1129.835969
 11
234.016735
 21
1129.835969
  0
LINE
  5
5AE
100
AcDbEntity
  8
M0
100
AcDbLine
 10
222.016696
 20
1119.835969
 11
222.016689
 21
1129.835969
  0
LINE
  5
5AF
100
AcDbEntity
  8
M0
100
AcDbLine
 10
234.016735
 20
1129.835984
 11
234.016747
 21
1119.835984
  0
LINE
  5
5B0
100
AcDbEntity
  8
M0
100
AcDbLine
 10
440.016732
 20
1129.836113
 11
440.016744
 21
1119.836113
  0
LINE
  5
5B1
100
AcDbEntity
  8
M0
100
AcDbLine
 10
440.016732
 20
1129.836113
 11
416.016641
 21
1129.836083
  0
LINE
  5
5B2
100
AcDbEntity
  8
M0
100
AcDbLine
 10
428.016693
 20
1119.836098
 11
428.016686
 21
1129.836098
  0
LINE
  5
5B3
100
AcDbEntity
  8
M0
100
AcDbLine
 10
416.016641
 20
1129.836098
 11
416.016641
 21
1119.836098
  0
LINE
  5
5B4
100
AcDbEntity
  8
M0
 62
     7
100
AcDbLine
 10
414.016749
 20
1115.836081
 11
414.016744
 21
1119.836081
  0
LINE
  5
5B5
100
AcDbEntity
  8
M0
 62
     7
100
AcDbLine
 10
414.016744
 20
1119.836081
 11
442.016744
 21
1119.836116
  0
LINE
  5
5B6
100
AcDbEntity
  8
M0
 62
     7
100
AcDbLine
 10
442.016744
 20
1119.836116
 11
442.016749
 21
1115.836116
  0
LINE
  5
5B7
100
AcDbEntity
  8
M0
 62
     7
100
AcDbLine
 10
442.016749
 20
1115.836116
 11
414.016749
 21
1115.836081
  0
LINE
  5
5B8
100
AcDbEntity
  8
M0
 62
     7
100
AcDbLine
 10
428.016734
 20
1115.836098
 11
425.707327
 21
1119.836095
  0
LINE
  5
5B9
100
AcDbEntity
  8
M0
 62
     7
100
AcDbLine
 10
430.326137
 20
1115.836101
 11
428.016729
 21
1119.836098
  0
LINE
  5
5BA
100
AcDbEntity
  8
M0
 62
     2
100
AcDbLine
 10
412.016753
 20
1113.236087
 11
412.016749
 21
1115.836078
  0
LINE
  5
5BB
100
AcDbEntity
  8
M0
 62
     2
100
AcDbLine
 10
412.016749
 20
1115.836078
 11
444.016749
 21
1115.836118
  0
LINE
  5
5BC
100
AcDbEntity
  8
M0
 62
     2
100
AcDbLine
 10
444.016749
 20
1115.836118
 11
444.016753
 21
1113.236128
  0
LINE
  5
5BD
100
AcDbEntity
  8
M0
 62
     2
100
AcDbLine
 10
444.016753
 20
1113.236128
 11
412.016753
 21
1113.236087
  0
LINE
  5
5BE
100
AcDbEntity
  8
M0
 62
     6
100
AcDbLine
 10
753.212631
 20
1171.836025
 11
755.512634
 21
1171.836027
  0
LINE
  5
5BF
100
AcDbEntity
  8
M0
 62
     6
100
AcDbLine
 10
755.512634
 20
1171.836027
 11
755.51265
 21
1145.836027
  0
LINE
  5
5C0
100
AcDbEntity
  8
M0
 62
     6
100
AcDbLine
 10
755.51265
 20
1145.836027
 11
753.212647
 21
1145.836025
  0
LINE
  5
5C1
100
AcDbEntity
  8
M0
 62
     6
100
AcDbLine
 10
753.212647
 20
1145.836025
 11
753.212631
 21
1171.836025
  0
LINE
  5
5C2
100
AcDbEntity
  8
M0
 62
     7
100
AcDbLine
 10
750.212536
 20
1169.586141
 11
753.212536
 21
1169.586141
  0
LINE
  5
5C3
100
AcDbEntity
  8
M0
 62
     7
100
AcDbLine
 10
753.212536
 20
1169.586141
 11
753.212536
 21
1148.086141
  0
LINE
  5
5C4
100
AcDbEntity
  8
M0
 62
     7
100
AcDbLine
 10
753.212536
 20
1148.086141
 11
750.212536
 21
1148.086141
  0
LINE
  5
5C5
100
AcDbEntity
  8
M0
 62
     7
100
AcDbLine
 10
750.212536
 20
1148.086141
 11
750.212536
 21
1169.586141
  0
LINE
  5
5C6
100
AcDbEntity
  8
M0
 62
     7
100
AcDbLine
 10
750.212536
 20
1158.836126
 11
753.212536
 21
1160.568166
  0
LINE
  5
5C7
100
AcDbEntity
  8
M0
 62
     7
100
AcDbLine
 10
750.212536
 20
1157.104101
 11
753.212536
 21
1158.836141
  0
LINE
  5
5C8
100
AcDbEntity
  8
M0
 62
     6
100
AcDbLine
 10
740.212342
 20
1169.786018
 11
750.212342
 21
1169.786024
  0
LINE
  5
5C9
100
AcDbEntity
  8
M0
 62
     6
100
AcDbLine
 10
750.212586
 20
1169.786009
 11
750.2126
 21
1147.886015
  0
LINE
  5
5CA
100
AcDbEntity
  8
M0
 62
     6
100
AcDbLine
 10
740.2126
 20
1147.886054
 11
740.212586
 21
1169.786033
  0
LINE
  5
5CB
100
AcDbEntity
  8
M0
 62
     6
100
AcDbLine
 10
750.212346
 20
1164.311048
 11
740.212346
 21
1164.311042
  0
LINE
  5
5CC
100
AcDbEntity
  8
M0
 62
     6
100
AcDbLine
 10
740.212112
 20
1147.886024
 11
750.212356
 21
1147.88603
  0
LINE
  5
5CD
100
AcDbEntity
  8
M0
 62
     6
100
AcDbLine
 10
750.212352
 20
1153.361036
 11
740.212108
 21
1153.36103
  0
LINE
  5
5CE
100
AcDbEntity
  8
M0
 62
     6
100
AcDbLine
 10
740.212342
 20
885.786018
 11
750.212342
 21
885.786024
  0
LINE
  5
5CF
100
AcDbEntity
  8
M0
 62
     6
100
AcDbLine
 10
750.212586
 20
885.786009
 11
750.2126
 21
863.886015
  0
LINE
  5
5D0
100
AcDbEntity
  8
M0
 62
     6
100
AcDbLine
 10
740.2126
 20
863.886054
 11
740.212586
 21
885.786033
  0
LINE
  5
5D1
100
AcDbEntity
  8
M0
 62
     6
100
AcDbLine
 10
750.212346
 20
880.311048
 11
740.212346
 21
880.311042
  0
LINE
  5
5D2
100
AcDbEntity
  8
M0
 62
     6
100
AcDbLine
 10
740.212112
 20
863.886024
 11
750.212356
 21
863.88603
  0
LINE
  5
5D3
100
AcDbEntity
  8
M0
 62
     6
100
AcDbLine
 10
750.212352
 20
869.361036
 11
740.212108
 21
869.36103
  0
LINE
  5
5D4
100
AcDbEntity
  8
M0
 62
     7
100
AcDbLine
 10
750.212536
 20
885.586141
 11
753.212536
 21
885.586141
  0
LINE
  5
5D5
100
AcDbEntity
  8
M0
 62
     7
100
AcDbLine
 10
753.212536
 20
885.586141
 11
753.212536
 21
864.086141
  0
LINE
  5
5D6
100
AcDbEntity
  8
M0
 62
     7
100
AcDbLine
 10
753.212536
 20
864.086141
 11
750.212536
 21
864.086141
  0
LINE
  5
5D7
100
AcDbEntity
  8
M0
 62
     7
100
AcDbLine
 10
750.212536
 20
864.086141
 11
750.212536
 21
885.586141
  0
LINE
  5
5D8
100
AcDbEntity
  8
M0
 62
     7
100
AcDbLine
 10
750.212536
 20
874.836126
 11
753.212536
 21
876.568166
  0
LINE
  5
5D9
100
AcDbEntity
  8
M0
 62
     7
100
AcDbLine
 10
750.212536
 20
873.104101
 11
753.212536
 21
874.836141
  0
LINE
  5
5DA
100
AcDbEntity
  8
M0
 62
     6
100
AcDbLine
 10
753.212631
 20
887.836025
 11
755.512634
 21
887.836027
  0
LINE
  5
5DB
100
AcDbEntity
  8
M0
 62
     6
100
AcDbLine
 10
755.512634
 20
887.836027
 11
755.51265
 21
861.836027
  0
LINE
  5
5DC
100
AcDbEntity
  8
M0
 62
     6
100
AcDbLine
 10
755.51265
 20
861.836027
 11
753.212647
 21
861.836025
  0
LINE
  5
5DD
100
AcDbEntity
  8
M0
 62
     6
100
AcDbLine
 10
753.212647
 20
861.836025
 11
753.212631
 21
887.836025
  0
LINE
  5
5DE
100
AcDbEntity
  8
M0
  6
DIVIDE
100
AcDbLine
 10
291.016621
 20
1236.835913
 11
293.016621
 21
1236.835914
  0
LINE
  5
5DF
100
AcDbEntity
  8
M0
  6
DIVIDE
100
AcDbLine
 10
357.01669
 20
1125.835978
 11
357.016621
 21
1236.835954
  0
LINE
  5
5E0
100
AcDbEntity
  8
M0
  6
DIVIDE
100
AcDbLine
 10
293.01669
 20
1125.835978
 11
293.016621
 21
1236.835914
  0
LINE
  5
5E1
100
AcDbEntity
  8
M0
  6
DIVIDE
100
AcDbLine
 10
359.016621
 20
1236.835955
 11
359.01669
 21
1125.835979
  0
LINE
  5
5E2
100
AcDbEntity
  8
M0
  6
DIVIDE
100
AcDbLine
 10
291.016621
 20
1236.835913
 11
291.01669
 21
1125.835977
  0
LINE
  5
5E3
100
AcDbEntity
  8
M0
  6
DIVIDE
100
AcDbLine
 10
357.016621
 20
1236.835954
 11
359.016621
 21
1236.835955
  0
LINE
  5
5E4
100
AcDbEntity
  8
M0
  6
DIVIDE
100
AcDbLine
 10
359.016621
 20
796.836001
 11
359.01669
 21
907.835977
  0
LINE
  5
5E5
100
AcDbEntity
  8
M0
  6
DIVIDE
100
AcDbLine
 10
357.01669
 20
907.835978
 11
357.016621
 21
796.836002
  0
LINE
  5
5E6
100
AcDbEntity
  8
M0
  6
DIVIDE
100
AcDbLine
 10
357.016621
 20
796.836002
 11
359.016621
 21
796.836001
  0
LINE
  5
5E7
100
AcDbEntity
  8
M0
  6
DIVIDE
100
AcDbLine
 10
293.01669
 20
907.835978
 11
293.016621
 21
796.836042
  0
LINE
  5
5E8
100
AcDbEntity
  8
M0
  6
DIVIDE
100
AcDbLine
 10
291.016621
 20
796.836043
 11
293.016621
 21
796.836042
  0
LINE
  5
5E9
100
AcDbEntity
  8
M0
  6
DIVIDE
100
AcDbLine
 10
291.016621
 20
796.836043
 11
291.01669
 21
907.835979
  0
LINE
  5
5EA
100
AcDbEntity
  8
M0
 62
    74
100
AcDbLine
 10
209.016978
 20
960.835978
 11
200.016978
 21
960.835978
  0
LINE
  5
5EB
100
AcDbEntity
  8
M0
 62
    74
100
AcDbLine
 10
208.816978
 20
931.835978
 11
200.216978
 21
931.835978
  0
LINE
  5
5EC
100
AcDbEntity
  8
M0
 62
    74
100
AcDbLine
 10
202.016978
 20
922.835978
 11
202.016978
 21
920.835978
  0
LINE
  5
5ED
100
AcDbEntity
  8
M0
 62
    74
100
AcDbLine
 10
207.016978
 20
922.835978
 11
207.016978
 21
920.835978
  0
LINE
  5
5EE
100
AcDbEntity
  8
M0
 62
    74
100
AcDbLine
 10
200.216978
 20
936.835978
 11
200.216978
 21
920.835978
  0
LINE
  5
5EF
100
AcDbEntity
  8
M0
 62
    74
100
AcDbLine
 10
208.816978
 20
936.835978
 11
208.816978
 21
920.835978
  0
LINE
  5
5F0
100
AcDbEntity
  8
M0
 62
    74
100
AcDbLine
 10
200.016978
 20
960.835978
 11
200.016978
 21
936.835978
  0
LINE
  5
5F1
100
AcDbEntity
  8
M0
 62
    74
100
AcDbLine
 10
209.016978
 20
936.835978
 11
209.016978
 21
960.835978
  0
LINE
  5
5F2
100
AcDbEntity
  8
M0
 62
    74
100
AcDbLine
 10
207.016978
 20
922.835978
 11
202.016978
 21
922.835978
  0
LINE
  5
5F3
100
AcDbEntity
  8
M0
 62
    74
100
AcDbLine
 10
207.016978
 20
920.835978
 11
208.816978
 21
920.835978
  0
LINE
  5
5F4
100
AcDbEntity
  8
M0
 62
    74
100
AcDbLine
 10
200.216978
 20
920.835978
 11
202.016978
 21
920.835978
  0
LINE
  5
5F5
100
AcDbEntity
  8
M0
 62
    74
100
AcDbLine
 10
209.016978
 20
936.835978
 11
208.816978
 21
936.835978
  0
LINE
  5
5F6
100
AcDbEntity
  8
M0
 62
    74
100
AcDbLine
 10
200.216978
 20
936.835978
 11
200.016978
 21
936.835978
  0
CIRCLE
  5
5F7
100
AcDbEntity
  8
M0
 62
    74
100
AcDbCircle
 10
204.516978
 20
947.835978
 40
2.0
  0
LINE
  5
5F8
100
AcDbEntity
  8
M0
 62
    74
100
AcDbLine
 10
229.016978
 20
960.835978
 11
220.016978
 21
960.835978
  0
LINE
  5
5F9
100
AcDbEntity
  8
M0
 62
    74
100
AcDbLine
 10
228.816978
 20
931.835978
 11
220.216978
 21
931.835978
  0
LINE
  5
5FA
100
AcDbEntity
  8
M0
 62
    74
100
AcDbLine
 10
222.016978
 20
922.835978
 11
222.016978
 21
920.835978
  0
LINE
  5
5FB
100
AcDbEntity
  8
M0
 62
    74
100
AcDbLine
 10
227.016978
 20
922.835978
 11
227.016978
 21
920.835978
  0
LINE
  5
5FC
100
AcDbEntity
  8
M0
 62
    74
100
AcDbLine
 10
220.216978
 20
936.835978
 11
220.216978
 21
920.835978
  0
LINE
  5
5FD
100
AcDbEntity
  8
M0
 62
    74
100
AcDbLine
 10
228.816978
 20
936.835978
 11
228.816978
 21
920.835978
  0
LINE
  5
5FE
100
AcDbEntity
  8
M0
 62
    74
100
AcDbLine
 10
220.016978
 20
960.835978
 11
220.016978
 21
936.835978
  0
LINE
  5
5FF
100
AcDbEntity
  8
M0
 62
    74
100
AcDbLine
 10
229.016978
 20
936.835978
 11
229.016978
 21
960.835978
  0
LINE
  5
600
100
AcDbEntity
  8
M0
 62
    74
100
AcDbLine
 10
227.016978
 20
922.835978
 11
222.016978
 21
922.835978
  0
LINE
  5
601
100
AcDbEntity
  8
M0
 62
    74
100
AcDbLine
 10
227.016978
 20
920.835978
 11
228.816978
 21
920.835978
  0
LINE
  5
602
100
AcDbEntity
  8
M0
 62
    74
100
AcDbLine
 10
220.216978
 20
920.835978
 11
222.016978
 21
920.835978
  0
LINE
  5
603
100
AcDbEntity
  8
M0
 62
    74
100
AcDbLine
 10
229.016978
 20
936.835978
 11
228.816978
 21
936.835978
  0
LINE
  5
604
100
AcDbEntity
  8
M0
 62
    74
100
AcDbLine
 10
220.216978
 20
936.835978
 11
220.016978
 21
936.835978
  0
CIRCLE
  5
605
100
AcDbEntity
  8
M0
 62
    74
100
AcDbCircle
 10
224.516978
 20
947.835978
 40
2.0
  0
LINE
  5
606
100
AcDbEntity
  8
M0
 62
    74
100
AcDbLine
 10
430.016978
 20
960.835978
 11
421.016978
 21
960.835978
  0
LINE
  5
607
100
AcDbEntity
  8
M0
 62
    74
100
AcDbLine
 10
429.816978
 20
931.835978
 11
421.216978
 21
931.835978
  0
LINE
  5
608
100
AcDbEntity
  8
M0
 62
    74
100
AcDbLine
 10
423.016978
 20
922.835978
 11
423.016978
 21
920.835978
  0
LINE
  5
609
100
AcDbEntity
  8
M0
 62
    74
100
AcDbLine
 10
428.016978
 20
922.835978
 11
428.016978
 21
920.835978
  0
LINE
  5
60A
100
AcDbEntity
  8
M0
 62
    74
100
AcDbLine
 10
421.216978
 20
936.835978
 11
421.216978
 21
920.835978
  0
LINE
  5
60B
100
AcDbEntity
  8
M0
 62
    74
100
AcDbLine
 10
429.816978
 20
936.835978
 11
429.816978
 21
920.835978
  0
LINE
  5
60C
100
AcDbEntity
  8
M0
 62
    74
100
AcDbLine
 10
421.016978
 20
960.835978
 11
421.016978
 21
936.835978
  0
LINE
  5
60D
100
AcDbEntity
  8
M0
 62
    74
100
AcDbLine
 10
430.016978
 20
936.835978
 11
430.016978
 21
960.835978
  0
LINE
  5
60E
100
AcDbEntity
  8
M0
 62
    74
100
AcDbLine
 10
428.016978
 20
922.835978
 11
423.016978
 21
922.835978
  0
LINE
  5
60F
100
AcDbEntity
  8
M0
 62
    74
100
AcDbLine
 10
428.016978
 20
920.835978
 11
429.816978
 21
920.835978
  0
LINE
  5
610
100
AcDbEntity
  8
M0
 62
    74
100
AcDbLine
 10
421.216978
 20
920.835978
 11
423.016978
 21
920.835978
  0
LINE
  5
611
100
AcDbEntity
  8
M0
 62
    74
100
AcDbLine
 10
430.016978
 20
936.835978
 11
429.816978
 21
936.835978
  0
LINE
  5
612
100
AcDbEntity
  8
M0
 62
    74
100
AcDbLine
 10
421.216978
 20
936.835978
 11
421.016978
 21
936.835978
  0
CIRCLE
  5
613
100
AcDbEntity
  8
M0
 62
    74
100
AcDbCircle
 10
425.516978
 20
947.835978
 40
2.0
  0
LINE
  5
614
100
AcDbEntity
  8
M0
 62
   114
100
AcDbLine
 10
205.224084
 20
926.835978
 11
207.320017
 21
928.93191
  0
LINE
  5
615
100
AcDbEntity
  8
M0
 62
   114
100
AcDbLine
 10
202.421034
 20
924.032928
 11
204.516978
 21
926.128871
  0
LINE
  5
616
100
AcDbEntity
  8
M0
 62
   114
100
AcDbLine
 10
203.809871
 20
926.835978
 11
201.713927
 21
924.740035
  0
LINE
  5
617
100
AcDbEntity
  8
M0
 62
   114
100
AcDbLine
 10
206.61291
 20
929.639017
 11
204.516978
 21
927.543085
  0
LINE
  5
618
100
AcDbEntity
  8
M0
 62
   114
100
AcDbLine
 10
204.516978
 20
927.543085
 11
203.420928
 21
928.639135
  0
LINE
  5
619
100
AcDbEntity
  8
M0
 62
   114
100
AcDbLine
 10
206.320134
 20
925.739928
 11
205.224084
 21
926.835978
  0
LINE
  5
61A
100
AcDbEntity
  8
M0
 62
   114
100
AcDbLine
 10
204.516978
 20
926.128871
 11
205.613028
 21
925.032821
  0
LINE
  5
61B
100
AcDbEntity
  8
M0
 62
   114
100
AcDbLine
 10
202.713821
 20
927.932028
 11
203.809871
 21
926.835978
  0
CIRCLE
  5
61C
100
AcDbEntity
  8
M0
 62
   114
100
AcDbCircle
 10
204.516978
 20
926.835978
 40
3.5
  0
LINE
  5
61D
100
AcDbEntity
  8
M0
 62
   114
100
AcDbLine
 10
205.613028
 20
925.032821
 11
206.320134
 21
925.739928
  0
LINE
  5
61E
100
AcDbEntity
  8
M0
 62
   114
100
AcDbLine
 10
203.420928
 20
928.639135
 11
202.713821
 21
927.932028
  0
LINE
  5
61F
100
AcDbEntity
  8
M0
 62
   114
100
AcDbLine
 10
225.224084
 20
926.835978
 11
227.320017
 21
928.93191
  0
LINE
  5
620
100
AcDbEntity
  8
M0
 62
   114
100
AcDbLine
 10
222.421034
 20
924.032928
 11
224.516978
 21
926.128871
  0
LINE
  5
621
100
AcDbEntity
  8
M0
 62
   114
100
AcDbLine
 10
223.809871
 20
926.835978
 11
221.713927
 21
924.740035
  0
LINE
  5
622
100
AcDbEntity
  8
M0
 62
   114
100
AcDbLine
 10
226.61291
 20
929.639017
 11
224.516978
 21
927.543085
  0
LINE
  5
623
100
AcDbEntity
  8
M0
 62
   114
100
AcDbLine
 10
224.516978
 20
927.543085
 11
223.420928
 21
928.639135
  0
LINE
  5
624
100
AcDbEntity
  8
M0
 62
   114
100
AcDbLine
 10
226.320134
 20
925.739928
 11
225.224084
 21
926.835978
  0
LINE
  5
625
100
AcDbEntity
  8
M0
 62
   114
100
AcDbLine
 10
224.516978
 20
926.128871
 11
225.613028
 21
925.032821
  0
LINE
  5
626
100
AcDbEntity
  8
M0
 62
   114
100
AcDbLine
 10
222.713821
 20
927.932028
 11
223.809871
 21
926.835978
  0
CIRCLE
  5
627
100
AcDbEntity
  8
M0
 62
   114
100
AcDbCircle
 10
224.516978
 20
926.835978
 40
3.5
  0
LINE
  5
628
100
AcDbEntity
  8
M0
 62
   114
100
AcDbLine
 10
225.613028
 20
925.032821
 11
226.320134
 21
925.739928
  0
LINE
  5
629
100
AcDbEntity
  8
M0
 62
   114
100
AcDbLine
 10
223.420928
 20
928.639135
 11
222.713821
 21
927.932028
  0
LINE
  5
62A
100
AcDbEntity
  8
M0
 62
   114
100
AcDbLine
 10
426.224084
 20
926.835978
 11
428.320017
 21
928.93191
  0
LINE
  5
62B
100
AcDbEntity
  8
M0
 62
   114
100
AcDbLine
 10
423.421034
 20
924.032928
 11
425.516978
 21
926.128871
  0
LINE
  5
62C
100
AcDbEntity
  8
M0
 62
   114
100
AcDbLine
 10
424.809871
 20
926.835978
 11
422.713927
 21
924.740035
  0
LINE
  5
62D
100
AcDbEntity
  8
M0
 62
   114
100
AcDbLine
 10
427.61291
 20
929.639017
 11
425.516978
 21
927.543085
  0
LINE
  5
62E
100
AcDbEntity
  8
M0
 62
   114
100
AcDbLine
 10
425.516978
 20
927.543085
 11
424.420928
 21
928.639135
  0
LINE
  5
62F
100
AcDbEntity
  8
M0
 62
   114
100
AcDbLine
 10
427.320134
 20
925.739928
 11
426.224084
 21
926.835978
  0
LINE
  5
630
100
AcDbEntity
  8
M0
 62
   114
100
AcDbLine
 10
425.516978
 20
926.128871
 11
426.613028
 21
925.032821
  0
LINE
  5
631
100
AcDbEntity
  8
M0
 62
   114
100
AcDbLine
 10
423.713821
 20
927.932028
 11
424.809871
 21
926.835978
  0
CIRCLE
  5
632
100
AcDbEntity
  8
M0
 62
   114
100
AcDbCircle
 10
425.516978
 20
926.835978
 40
3.5
  0
LINE
  5
633
100
AcDbEntity
  8
M0
 62
   114
100
AcDbLine
 10
426.613028
 20
925.032821
 11
427.320134
 21
925.739928
  0
LINE
  5
634
100
AcDbEntity
  8
M0
 62
   114
100
AcDbLine
 10
424.420928
 20
928.639135
 11
423.713821
 21
927.932028
  0
LINE
  5
635
100
AcDbEntity
  8
M0
 62
     4
100
AcDbLine
 10
477.016603
 20
1059.835983
 11
467.016883
 21
1059.83598
  0
LINE
  5
636
100
AcDbEntity
  8
M0
 62
     4
100
AcDbLine
 10
477.01663
 20
973.835983
 11
477.016603
 21
1059.835983
  0
LINE
  5
637
100
AcDbEntity
  8
M0
 62
     4
100
AcDbLine
 10
477.01663
 20
973.835983
 11
467.01691
 21
973.83598
  0
LINE
  5
638
100
AcDbEntity
  8
M0
 62
     6
100
AcDbLine
 10
373.124115
 20
896.135993
 11
343.124115
 21
896.135993
  0
LINE
  5
639
100
AcDbEntity
  8
M0
 62
     6
100
AcDbLine
 10
276.90984
 20
896.135993
 11
306.90984
 21
896.135993
  0
ARC
  5
63A
100
AcDbEntity
  8
M0
 62
     6
100
AcDbCircle
 10
355.016978
 20
907.635993
 40
5.75
100
AcDbArc
 50
134.083159
 51
361.993147
  0
LINE
  5
63B
100
AcDbEntity
  8
M0
  6
DIVIDE
100
AcDbLine
 10
479.016989
 20
354.208982
 11
479.016989
 21
670.209006
  0
LINE
  5
63C
100
AcDbEntity
  8
M0
  6
DIVIDE
100
AcDbLine
 10
479.016989
 20
670.209006
 11
195.016968
 21
670.209006
  0
LINE
  5
63D
100
AcDbEntity
  8
M0
  6
DIVIDE
100
AcDbLine
 10
195.016968
 20
670.209006
 11
195.016968
 21
354.208982
  0
LINE
  5
63E
100
AcDbEntity
  8
M0
  6
DIVIDE
100
AcDbLine
 10
195.016968
 20
354.208982
 11
479.016989
 21
354.208982
  0
LINE
  5
63F
100
AcDbEntity
  8
M0
  6
DASHDOT
100
AcDbLine
 10
325.016978
 20
338.208996
 11
325.016978
 21
720.208994
  0
CIRCLE
  5
640
100
AcDbEntity
  8
M0
100
AcDbCircle
 10
410.016984
 20
624.209003
 40
5.0
  0
CIRCLE
  5
641
100
AcDbEntity
  8
M0
100
AcDbCircle
 10
240.016986
 20
624.209003
 40
5.0
  0
CIRCLE
  5
642
100
AcDbEntity
  8
M0
100
AcDbCircle
 10
410.016984
 20
624.209003
 40
3.5
  0
LINE
  5
643
100
AcDbEntity
  8
M0
  6
DASHDOT
100
AcDbLine
 10
356.516995
 20
624.209003
 11
475.516973
 21
624.209003
  0
LINE
  5
644
100
AcDbEntity
  8
M0
  6
DASHDOT
100
AcDbLine
 10
410.016984
 20
570.709014
 11
410.016984
 21
677.708991
  0
CIRCLE
  5
645
100
AcDbEntity
  8
M0
100
AcDbCircle
 10
240.016986
 20
624.209003
 40
3.5
  0
LINE
  5
646
100
AcDbEntity
  8
M0
  6
DASHDOT
100
AcDbLine
 10
293.516975
 20
624.209003
 11
198.516983
 21
624.209003
  0
LINE
  5
647
100
AcDbEntity
  8
M0
  6
DASHDOT
100
AcDbLine
 10
240.016986
 20
570.709014
 11
240.016986
 21
677.708991
  0
CIRCLE
  5
648
100
AcDbEntity
  8
M0
100
AcDbCircle
 10
410.016984
 20
402.208986
 40
5.0
  0
LINE
  5
649
100
AcDbEntity
  8
M0
  6
DASHDOT
100
AcDbLine
 10
355.016995
 20
402.208986
 11
477.016974
 21
402.208986
  0
LINE
  5
64A
100
AcDbEntity
  8
M0
  6
DASHDOT
100
AcDbLine
 10
410.016984
 20
347.208997
 11
410.016984
 21
457.208975
  0
CIRCLE
  5
64B
100
AcDbEntity
  8
M0
100
AcDbCircle
 10
240.016986
 20
402.208986
 40
5.0
  0
LINE
  5
64C
100
AcDbEntity
  8
M0
  6
DASHDOT
100
AcDbLine
 10
295.016975
 20
402.208986
 11
197.016983
 21
402.208986
  0
LINE
  5
64D
100
AcDbEntity
  8
M0
  6
DASHDOT
100
AcDbLine
 10
240.016986
 20
347.208997
 11
240.016986
 21
457.208975
  0
CIRCLE
  5
64E
100
AcDbEntity
  8
M0
100
AcDbCircle
 10
410.016984
 20
402.208986
 40
3.5
  0
CIRCLE
  5
64F
100
AcDbEntity
  8
M0
100
AcDbCircle
 10
240.016986
 20
402.208986
 40
3.5
  0
LINE
  5
650
100
AcDbEntity
  8
M1
 62
     2
100
AcDbLine
 10
49.999999
 20
49.999999
 11
49.999999
 21
1424.999979
  0
LINE
  5
651
100
AcDbEntity
  8
M1
 62
     2
100
AcDbLine
 10
49.999999
 20
1424.999979
 11
999.999985
 21
1424.999979
  0
LINE
  5
652
100
AcDbEntity
  8
M1
 62
     2
100
AcDbLine
 10
999.999985
 20
1424.999979
 11
999.999985
 21
49.999999
  0
LINE
  5
653
100
AcDbEntity
  8
M1
 62
     2
100
AcDbLine
 10
999.999985
 20
49.999999
 11
49.999999
 21
49.999999
  0
LINE
  5
654
100
AcDbEntity
  8
M1
 62
     2
100
AcDbLine
 10
999.999985
 20
99.999999
 11
499.999993
 21
99.999999
  0
LINE
  5
655
100
AcDbEntity
  8
M1
 62
     2
100
AcDbLine
 10
999.999985
 20
149.999998
 11
499.999993
 21
149.999998
  0
LINE
  5
656
100
AcDbEntity
  8
M1
 62
     2
100
AcDbLine
 10
999.999985
 20
199.999997
 11
499.999993
 21
199.999997
  0
LINE
  5
657
100
AcDbEntity
  8
M1
 62
     2
100
AcDbLine
 10
499.999993
 20
49.999999
 11
499.999993
 21
199.999997
  0
TEXT
  5
658
100
AcDbEntity
  8
M1
 62
     2
100
AcDbText
 10
512.499992
 20
62.499999
 40
25.0
  1
適　用；
  7
STANDARD
100
AcDbText
  0
TEXT
  5
659
100
AcDbEntity
  8
M1
 62
     2
100
AcDbText
 10
512.499992
 20
112.499998
 40
25.0
  1
形　式；
  7
STANDARD
100
AcDbText
  0
TEXT
  5
65A
100
AcDbEntity
  8
M1
 62
     2
100
AcDbText
 10
632.499991
 20
112.499998
 40
25.0
  1
＠Ｈ６００Ｃ，Ｈ６００Ｃ－Ｇ
 41
0.5
  7
STANDARD
100
AcDbText
  0
TEXT
  5
65B
100
AcDbEntity
  8
M1
 62
     2
100
AcDbText
 10
512.499992
 20
162.499998
 40
25.0
  1
登録名：
  7
STANDARD
100
AcDbText
  0
TEXT
  5
65C
100
AcDbEntity
  8
M1
 62
     2
100
AcDbText
 10
632.499991
 20
162.499998
 40
25.0
  1
＠ＤＭＨ６００ＣＲ００
 41
0.5
  7
STANDARD
100
AcDbText
  0
LINE
  5
65D
100
AcDbEntity
  8
DN0
100
AcDbLine
 10
289.272728
 20
258.733692
 11
380.572748
 21
258.733692
  0
TEXT
  5
65E
100
AcDbEntity
  8
DN0
100
AcDbText
 10
291.797727
 20
260.983692
 40
22.5
  1
せん孔図
 41
0.833333
  7
STANDARD
100
AcDbText
  0
ENDSEC
  0
SECTION
  2
OBJECTS
  0
DICTIONARY
  5
C
100
AcDbDictionary
  3
ACAD_GROUP
350
D
  3
ACAD_MLINESTYLE
350
E
  0
DICTIONARY
  5
D
102
{ACAD_REACTORS
330
C
102
}
100
AcDbDictionary
  0
DICTIONARY
  5
E
102
{ACAD_REACTORS
330
C
102
}
100
AcDbDictionary
  3
STANDARD
350
13
  0
MLINESTYLE
  5
13
102
{ACAD_REACTORS
330
E
102
}
100
AcDbMlineStyle
  2
STANDARD
 70
     0
  3

 62
     0
 51
90.0
 52
90.0
 71
     2
 49
0.5
 62
   256
  6
BYLAYER
 49
-0.5
 62
   256
  6
BYLAYER
  0
ENDSEC
  0
EOF
