  0
SECTION
  2
HEADER
  9
$ACADVER
  1
AC1014
  9
$INSBASE
 10
0.000000
 20
0.000000
 30
0.0
  9
$VIEWCTR
 10
7.531722
 20
4.5
  9
$VIEWSIZE
 40
9.0
  9
$SNAPMODE
 70
     0
  9
$SNAPUNIT
 10
1.0
 20
1.0
  9
$SNAPBASE
 10
0.0
 20
0.0
  9
$SNAPANG
 50
0.0
  9
$SNAPSTYLE
 70
     0
  9
$SNAPISOPAIR
 70
     0
  9
$GRIDMODE
 70
     0
  9
$GRIDUNIT
 10
0.0
 20
0.0
  9
$ORTHOMODE
 70
     0
  9
$REGENMODE
 70
     1
  9
$FILLMODE
 70
     1
  9
$QTEXTMODE
 70
     0
  9
$DRAGMODE
 70
     2
  9
$LTSCALE
  40
     1.000000
  9
$OSMODE
 70
     0
  9
$ATTMODE
 70
     1
  9
$TEXTSIZE
 40
0.2
  9
$TRACEWID
 40
0.05
  9
$TEXTSTYLE
  7
STANDARD
  9
$CELTYPE
  6
BYLAYER
  9
$CECOLOR
 62
   256
  9
$DIMSCALE
 40
1.0
  9
$DIMASZ
 40
0.18
  9
$DIMEXO
 40
0.0625
  9
$DIMDLI
 40
0.38
  9
$DIMRND
 40
0.0
  9
$DIMDLE
 40
0.0
  9
$DIMEXE
 40
0.18
  9
$DIMTP
 40
0.0
  9
$DIMTM
 40
0.0
  9
$DIMTXT
 40
0.18
  9
$DIMCEN
 40
0.09
  9
$DIMTSZ
 40
0.0
  9
$DIMTOL
 70
     0
  9
$DIMLIM
 70
     0
  9
$DIMTIH
 70
     1
  9
$DIMTOH
 70
     1
  9
$DIMSE1
 70
     0
  9
$DIMSE2
 70
     0
  9
$DIMTAD
 70
     0
  9
$DIMZIN
 70
     0
  9
$DIMBLK
  1

  9
$LUNITS
 70
     2
  9
$LUPREC
 70
     4
  9
$AXISMODE
 70
     0
  9
$AXISUNIT
 10
0.0
 20
0.0
  9
$SKETCHINC
 40
0.1
  9
$FILLETRAD
 40
0.0
  9
$AUNITS
 70
     0
  9
$AUPREC
 70
     0
  9
$MENU
  1
ACAD
  9
$ELEVATION
 40
0.0
  9
$THICKNESS
 40
0.0
  9
$VIEWDIR
 10
0.0
 20
0.0
 30
1.0
  9
$LIMCHECK
 70
     0
  9
$BLIPMODE
 70
     1
  9
$CHAMFERA
 40
0.0
  9
$CHAMFERB
 40
0.0
  9
$FASTZOOM
 70
     1
  9
$SKPOLY
 70
     0
  9
$TDCREATE
 40
0000000.0000000000
  9
$TDUPDATE
 40
0000000.0000000000
  9
$TDINDWG
 40
0.0000000000
  9
$TDUSRTIMER
 40
0.0000000000
  9
$USRTIMER
 70
     1
  9
$ANGBASE
 50
0.0
  9
$ANGDIR
 70
     0
  9
$PDMODE
 70
     0
  9
$PDSIZE
 40
0.0
  9
$PLINEWID
 40
0.0
  9
$COORDS
 70
     0
  9
$USERI1
 70
     0
  9
$USERI2
 70
     0
  9
$USERI3
 70
     0
  9
$USERI4
 70
     0
  9
$USERI5
 70
     0
  9
$USERR1
 40
0.0
  9
$USERR2
 40
0.0
  9
$USERR3
 40
0.0
  9
$USERR4
 40
0.0
  9
$USERR5
 40
0.0
  9
$CLAYER
  8
M0
  9
$EXTMIN
 10
44.444446
 20
44.444446
  9
$EXTMAX
 10
888.888912
 20
1266.6667
  9
$LIMMIN
 10
0.0
 20
0.0
  9
$LIMMAX
 10
210.0
 20
297.0
  9
$HANDSEED
  5
90E
  0
ENDSEC
  0
SECTION
  2
CLASSES
  0
ENDSEC
  0
SECTION
  2
TABLES
  0
TABLE
  2
VPORT
  5
8
100
AcDbSymbolTable
 70
     2
  0
VPORT
  5
14
100
AcDbSymbolTableRecord
100
AcDbViewportTableRecord
  2
*ACTIVE
 70
     0
 10
0.0
 20
0.0
 11
1.0
 21
1.0
 12
484.0
 22
297.0
 13
0.0
 23
0.0
 14
1.0
 24
1.0
 15
0.0
 25
0.0
 16
0.0
 26
0.0
 36
1.0
 17
0.0
 27
0.0
 37
0.0
 40
594.0
 41
2.0
 42
50.0
 43
0.0
 44
0.0
 50
0.0
 51
0.0
 71
     0
 72
   100
 73
     1
 74
     1
 75
     0
 76
     0
 77
     0
 78
     0
  0
ENDTAB
  0
TABLE
  2
LTYPE
  5
5
100
AcDbSymbolTable
 70
     5
  0
LTYPE
  5
15
100
AcDbSymbolTableRecord
100
AcDbLinetypeTableRecord
  2
BYBLOCK
 70
     0
  3

 72
    65
 73
     0
 40
0.0
  0
LTYPE
  5
16
100
AcDbSymbolTableRecord
100
AcDbLinetypeTableRecord
  2
BYLAYER
 70
     0
  3

 72
    65
 73
     0
 40
0.0
  0
LTYPE
  5
17
100
AcDbSymbolTableRecord
100
AcDbLinetypeTableRecord
  2
CONTINUOUS
 70
    64
  3
Solid line
 72
    65
 73
     0
 40
0.0
  0
LTYPE
  5
18
100
AcDbSymbolTableRecord
100
AcDbLinetypeTableRecord
  2
DASHED
 70
    64
  3
__ __ __ __ __ __ __ __ __ __ __ __ __ __ __ __
 72
    65
 73
     2
 40
0.75
 49
0.5
 74
     0
 49
-0.25
 74
     0
  0
LTYPE
  5
19
100
AcDbSymbolTableRecord
100
AcDbLinetypeTableRecord
  2
DASHDOT
 70
    64
  3
__ . __ . __ . __ . __ . __ . __ . __ . __ . __
 72
    65
 73
     4
 40
1.0
 49
0.5
 74
     0
 49
-0.25
 74
     0
 49
0.0
 74
     0
 49
-0.25
 74
     0
  0
LTYPE
  5
1A
100
AcDbSymbolTableRecord
100
AcDbLinetypeTableRecord
  2
DIVIDE
 70
    64
  3
____ . . ____ . . ____ . . ____ . . ____ . . __
 72
    65
 73
     6
 40
1.25
 49
0.5
 74
     0
 49
-0.25
 74
     0
 49
0.0
 74
     0
 49
-0.25
 74
     0
 49
0.0
 74
     0
 49
-0.25
 74
     0
  0
LTYPE
  5
1B
100
AcDbSymbolTableRecord
100
AcDbLinetypeTableRecord
  2
DOT
 70
    64
  3
. . . . . . . . . . . . . . . . . . . . . . . .
 72
    65
 73
     2
 40
0.25
 49
0.0
 74
     0
 49
-0.25
 74
     0
  0
ENDTAB
  0
TABLE
  2
LAYER
  5
2
100
AcDbSymbolTable
 70
   102
  0
LAYER
  5
F
100
AcDbSymbolTableRecord
100
AcDbLayerTableRecord
  2
0
 70
     0
 62
     7
  6
CONTINUOUS
  0
LAYER
  5
1C
100
AcDbSymbolTableRecord
100
AcDbLayerTableRecord
  2
DEFPOINTS
 70
     0
 62
     7
  6
CONTINUOUS
  0
LAYER
  5
1D
100
AcDbSymbolTableRecord
100
AcDbLayerTableRecord
  2
M0
 70
     0
 62
     3
  6
CONTINUOUS
  0
LAYER
  5
1E
100
AcDbSymbolTableRecord
100
AcDbLayerTableRecord
  2
M1
 70
     0
 62
     3
  6
CONTINUOUS
  0
LAYER
  5
1F
100
AcDbSymbolTableRecord
100
AcDbLayerTableRecord
  2
DD0
 70
     0
 62
     4
  6
CONTINUOUS
  0
LAYER
  5
20
100
AcDbSymbolTableRecord
100
AcDbLayerTableRecord
  2
DN0
 70
     0
 62
     2
  6
CONTINUOUS
  0
ENDTAB
  0
TABLE
  2
STYLE
  5
3
100
AcDbSymbolTable
 70
     2
  0
STYLE
  5
10
100
AcDbSymbolTableRecord
100
AcDbTextStyleTableRecord
  2
STANDARD
 70
     0
 40
0.0
 41
1.0
 50
0.0
 71
     0
 42
0.2
  3
txt
  4
BIGFONT
  0
ENDTAB
  0
TABLE
  2
VIEW
  5
6
100
AcDbSymbolTable
 70
     0
  0
ENDTAB
  0
TABLE
  2
UCS
  5
7
100
AcDbSymbolTable
 70
     0
  0
ENDTAB
  0
TABLE
  2
APPID
  5
9
100
AcDbSymbolTable
 70
     1
  0
APPID
  5
11
100
AcDbSymbolTableRecord
100
AcDbRegAppTableRecord
  2
ACAD
 70
     0
  0
ENDTAB
  0
TABLE
  2
DIMSTYLE
  5
A
100
AcDbSymbolTable
 70
     2
  0
DIMSTYLE
105
27
100
AcDbSymbolTableRecord
100
AcDbDimStyleTableRecord
  2
STANDARD
 70
     0
  3

  4

  5

  6
_OPEN
  7
_OPEN
 40
1.0
 41
13.333334
 42
1.0
 43
8.0
 44
1.0
 45
0.0
 46
0.0
 47
0.0
 48
0.0
140
14.000001
141
0.09
142
0.0
143
0.03937
144
1.0
145
0.0
146
1.0
147
0.6
 71
     0
 72
     0
 73
     1
 74
     1
 75
     0
 76
     0
 77
     3
 78
     8
170
     0
171
     2
172
     0
173
     1
174
     0
175
     0
176
     0
177
     0
178
     0
270
     2
271
     2
272
     4
273
     2
274
     2
340
10
275
     0
280
     0
281
     0
282
     0
283
     1
284
     0
285
     0
286
     0
287
     3
288
     0
  0
DIMSTYLE
105
28
100
AcDbSymbolTableRecord
100
AcDbDimStyleTableRecord
  2
LEADSTYL
 70
     0
  3

  4

  5

  6
_OPEN
  7
_OPEN
 40
1.0
 41
13.333334
 42
0.0625
 43
0.38
 44
0.18
 45
0.0
 46
0.0
 47
0.0
 48
0.0
140
14.000001
141
0.09
142
0.0
143
25.4
144
1.0
145
0.0
146
1.0
147
0.6
 71
     0
 72
     0
 73
     1
 74
     1
 75
     0
 76
     0
 77
     0
 78
     0
170
     0
171
     2
172
     0
173
     1
174
     0
175
     0
176
     0
177
     0
178
     0
270
     2
271
     4
272
     4
273
     2
274
     2
340
10
275
     0
280
     0
281
     0
282
     0
283
     1
284
     0
285
     0
286
     0
287
     3
288
     0
  0
ENDTAB
  0
TABLE
  2
BLOCK_RECORD
  5
1
100
AcDbSymbolTable
 70
    15
  0
BLOCK_RECORD
  5
21
100
AcDbSymbolTableRecord
100
AcDbBlockTableRecord
  2
*MODEL_SPACE
  0
BLOCK_RECORD
  5
24
100
AcDbSymbolTableRecord
100
AcDbBlockTableRecord
  2
*PAPER_SPACE
  0
BLOCK_RECORD
  5
29
100
AcDbSymbolTableRecord
100
AcDbBlockTableRecord
  2
_NONE
  0
BLOCK_RECORD
  5
2D
100
AcDbSymbolTableRecord
100
AcDbBlockTableRecord
  2
_OPEN
  0
BLOCK_RECORD
  5
33
100
AcDbSymbolTableRecord
100
AcDbBlockTableRecord
  2
_CLOSED
  0
BLOCK_RECORD
  5
3A
100
AcDbSymbolTableRecord
100
AcDbBlockTableRecord
  2
_ORIGIN
  0
BLOCK_RECORD
  5
3F
100
AcDbSymbolTableRecord
100
AcDbBlockTableRecord
  2
_DOT
  0
BLOCK_RECORD
  5
47
100
AcDbSymbolTableRecord
100
AcDbBlockTableRecord
  2
_OBLIQUE
  0
BLOCK_RECORD
  5
4B
100
AcDbSymbolTableRecord
100
AcDbBlockTableRecord
  2
DIMS0
  0
BLOCK_RECORD
  5
57
100
AcDbSymbolTableRecord
100
AcDbBlockTableRecord
  2
DIMS1
  0
BLOCK_RECORD
  5
63
100
AcDbSymbolTableRecord
100
AcDbBlockTableRecord
  2
DIMS2
  0
BLOCK_RECORD
  5
6F
100
AcDbSymbolTableRecord
100
AcDbBlockTableRecord
  2
DIMS3
  0
BLOCK_RECORD
  5
7B
100
AcDbSymbolTableRecord
100
AcDbBlockTableRecord
  2
DIMS4
  0
BLOCK_RECORD
  5
87
100
AcDbSymbolTableRecord
100
AcDbBlockTableRecord
  2
DIMS5
  0
BLOCK_RECORD
  5
93
100
AcDbSymbolTableRecord
100
AcDbBlockTableRecord
  2
DIMS6
  0
BLOCK_RECORD
  5
9F
100
AcDbSymbolTableRecord
100
AcDbBlockTableRecord
  2
DIMS7
  0
BLOCK_RECORD
  5
A8
100
AcDbSymbolTableRecord
100
AcDbBlockTableRecord
  2
DIMS8
  0
ENDTAB
  0
ENDSEC
  0
SECTION
  2
BLOCKS
  0
BLOCK
  5
22
100
AcDbEntity
  8
0
100
AcDbBlockBegin
  2
*MODEL_SPACE
 70
     0
 10
0.0
 20
0.0
 30
0.0
  3
*MODEL_SPACE
  1

  0
ENDBLK
  5
23
100
AcDbEntity
  8
0
100
AcDbBlockEnd
  0
BLOCK
  5
25
100
AcDbEntity
 67
     1
  8
0
100
AcDbBlockBegin
  2
*PAPER_SPACE
 70
     0
 10
0.0
 20
0.0
 30
0.0
  3
*PAPER_SPACE
  1

  0
ENDBLK
  5
26
100
AcDbEntity
 67
     1
  8
0
100
AcDbBlockEnd
  0
BLOCK
  5
2A
100
AcDbEntity
  8
0
100
AcDbBlockBegin
  2
_NONE
 70
     0
 10
0.0
 20
0.0
  0
CIRCLE
  5
2B
100
AcDbEntity
  8
0
 62
     0
100
AcDbCircle
 10
0.0
 20
0.0
 40
0.25
  0
ENDBLK
  5
2C
100
AcDbEntity
  8
0
100
AcDbBlockEnd
  0
BLOCK
  5
2E
100
AcDbEntity
  8
0
100
AcDbBlockBegin
  2
_OPEN
 70
     0
 10
0.0
 20
0.0
  0
LINE
  5
2F
100
AcDbEntity
  8
0
 62
     0
100
AcDbLine
 10
-0.965926
 20
0.258819
 11
0.0
 21
0.0
  0
LINE
  5
30
100
AcDbEntity
  8
0
 62
     0
100
AcDbLine
 10
0.0
 20
0.0
 11
-0.965926
 21
-0.258819
  0
LINE
  5
31
100
AcDbEntity
  8
0
 62
     0
100
AcDbLine
 10
0.0
 20
0.0
 11
-1.0
 21
0.0
  0
ENDBLK
  5
32
100
AcDbEntity
  8
0
100
AcDbBlockEnd
  0
BLOCK
  5
34
100
AcDbEntity
  8
0
100
AcDbBlockBegin
  2
_CLOSED
 70
     0
 10
0.0
 20
0.0
  0
LINE
  5
35
100
AcDbEntity
  8
0
 62
     0
100
AcDbLine
 10
-0.965926
 20
0.258819
 11
0.0
 21
0.0
  0
LINE
  5
36
100
AcDbEntity
  8
0
 62
     0
100
AcDbLine
 10
0.0
 20
0.0
 11
-0.965926
 21
-0.258819
  0
LINE
  5
37
100
AcDbEntity
  8
0
 62
     0
100
AcDbLine
 10
-0.965926
 20
0.258819
 11
-0.965926
 21
-0.258819
  0
LINE
  5
38
100
AcDbEntity
  8
0
 62
     0
100
AcDbLine
 10
0.0
 20
0.0
 11
-1.0
 21
0.0
  0
ENDBLK
  5
39
100
AcDbEntity
  8
0
100
AcDbBlockEnd
  0
BLOCK
  5
3B
100
AcDbEntity
  8
0
100
AcDbBlockBegin
  2
_ORIGIN
 70
     0
 10
0.0
 20
0.0
  0
CIRCLE
  5
3C
100
AcDbEntity
  8
0
 62
     0
100
AcDbCircle
 10
0.0
 20
0.0
 40
0.5
  0
LINE
  5
3D
100
AcDbEntity
  8
0
 62
     0
100
AcDbLine
 10
0.0
 20
0.0
 11
-1.0
 21
0.0
  0
ENDBLK
  5
3E
100
AcDbEntity
  8
0
100
AcDbBlockEnd
  0
BLOCK
  5
40
100
AcDbEntity
  8
0
100
AcDbBlockBegin
  2
_DOT
 70
     0
 10
0.0
 20
0.0
  0
POLYLINE
  5
41
100
AcDbEntity
  8
0
 62
     0
100
AcDb2dPolyline
 66
     1
 70
     1
 40
0.5
 41
0.5
  0
VERTEX
  5
42
100
AcDbEntity
  8
0
 62
     0
100
AcDbVertex
100
AcDb2dVertex
 10
-0.25
 20
0.0
 42
1.0
  0
VERTEX
  5
43
100
AcDbEntity
  8
0
 62
     0
100
AcDbVertex
100
AcDb2dVertex
 10
0.25
 20
0.0
 42
1.0
  0
SEQEND
  5
44
100
AcDbEntity
  8
0
 62
     0
  0
LINE
  5
45
100
AcDbEntity
  8
0
 62
     0
100
AcDbLine
 10
-0.5
 20
0.0
 11
-1.0
 21
0.0
  0
ENDBLK
  5
46
100
AcDbEntity
  8
0
100
AcDbBlockEnd
  0
BLOCK
  5
48
100
AcDbEntity
  8
0
100
AcDbBlockBegin
  2
_OBLIQUE
 70
     0
 10
0.0
 20
0.0
  0
LINE
  5
49
100
AcDbEntity
  8
0
 62
     0
100
AcDbLine
 10
-0.353553
 20
-0.353553
 11
0.353553
 21
0.353553
  0
ENDBLK
  5
4A
100
AcDbEntity
  8
0
100
AcDbBlockEnd
  0
BLOCK
  5
4C
100
AcDbEntity
  8
DD0
100
AcDbBlockBegin
  2
DIMS0
 70
     0
 10
0.0
 20
0.0
  0
LINE
  5
4D
100
AcDbEntity
  8
DD0
100
AcDbLine
 10
430.619756
 20
1136.850345
 11
430.619756
 21
1225.739236
  0
LINE
  5
4E
100
AcDbEntity
  8
DD0
100
AcDbLine
 10
146.619758
 20
1136.850345
 11
146.619758
 21
1225.739236
  0
LINE
  5
4F
100
AcDbEntity
  8
DD0
100
AcDbLine
 10
417.740744
 20
1217.843871
 11
430.619756
 21
1221.294791
  0
LINE
  5
50
100
AcDbEntity
  8
DD0
100
AcDbLine
 10
430.619756
 20
1221.294791
 11
417.740744
 21
1224.745712
  0
LINE
  5
51
100
AcDbEntity
  8
DD0
100
AcDbLine
 10
159.49877
 20
1224.745712
 11
146.619758
 21
1221.294791
  0
LINE
  5
52
100
AcDbEntity
  8
DD0
100
AcDbLine
 10
146.619758
 20
1221.294791
 11
159.49877
 21
1217.843871
  0
LINE
  5
53
100
AcDbEntity
  8
DD0
100
AcDbLine
 10
430.619756
 20
1221.294791
 11
146.619758
 21
1221.294791
  0
TEXT
  5
54
100
AcDbEntity
  8
DD0
100
AcDbText
 10
274.704972
 20
1224.405957
 40
14.000001
  1
２８４
 41
0.584656
  7
STANDARD
100
AcDbText
  0
ENDBLK
  5
55
100
AcDbEntity
  8
DD0
100
AcDbBlockEnd
  0
BLOCK
  5
58
100
AcDbEntity
  8
DD0
100
AcDbBlockBegin
  2
DIMS1
 70
     0
 10
0.0
 20
0.0
  0
LINE
  5
59
100
AcDbEntity
  8
DD0
100
AcDbLine
 10
383.064416
 20
1165.405982
 11
495.953111
 21
1165.405982
  0
LINE
  5
5A
100
AcDbEntity
  8
DD0
100
AcDbLine
 10
317.83499
 20
776.905877
 11
495.953111
 21
776.905877
  0
LINE
  5
5B
100
AcDbEntity
  8
DD0
100
AcDbLine
 10
494.959587
 20
1152.526971
 11
491.508666
 21
1165.405982
  0
LINE
  5
5C
100
AcDbEntity
  8
DD0
100
AcDbLine
 10
491.508666
 20
1165.405982
 11
488.057746
 21
1152.526971
  0
LINE
  5
5D
100
AcDbEntity
  8
DD0
100
AcDbLine
 10
488.057746
 20
789.784889
 11
491.508666
 21
776.905877
  0
LINE
  5
5E
100
AcDbEntity
  8
DD0
100
AcDbLine
 10
491.508666
 20
776.905877
 11
494.959587
 21
789.784889
  0
LINE
  5
5F
100
AcDbEntity
  8
DD0
100
AcDbLine
 10
491.508666
 20
1165.405982
 11
491.508666
 21
776.905877
  0
TEXT
  5
60
100
AcDbEntity
  8
DD0
100
AcDbText
 10
488.397569
 20
957.241086
 40
14.000001
  1
３８９
 50
90.000003
 41
0.584656
  7
STANDARD
100
AcDbText
  0
ENDBLK
  5
61
100
AcDbEntity
  8
DD0
100
AcDbBlockEnd
  0
BLOCK
  5
64
100
AcDbEntity
  8
DD0
100
AcDbBlockBegin
  2
DIMS2
 70
     0
 10
0.0
 20
0.0
  0
LINE
  5
65
100
AcDbEntity
  8
DD0
100
AcDbLine
 10
798.620016
 20
779.961433
 11
798.620016
 21
735.516987
  0
LINE
  5
66
100
AcDbEntity
  8
DD0
100
AcDbLine
 10
793.12007
 20
772.461433
 11
793.12007
 21
735.516987
  0
LINE
  5
67
100
AcDbEntity
  8
DD0
100
AcDbLine
 10
811.499028
 20
743.412353
 11
798.620016
 21
739.961432
  0
LINE
  5
68
100
AcDbEntity
  8
DD0
100
AcDbLine
 10
798.620016
 20
739.961432
 11
811.499028
 21
736.510511
  0
LINE
  5
69
100
AcDbEntity
  8
DD0
100
AcDbLine
 10
780.241059
 20
736.510511
 11
793.12007
 21
739.961432
  0
LINE
  5
6A
100
AcDbEntity
  8
DD0
100
AcDbLine
 10
793.12007
 20
739.961432
 11
780.241059
 21
743.412353
  0
LINE
  5
6B
100
AcDbEntity
  8
DD0
100
AcDbLine
 10
813.286683
 20
739.961432
 11
705.253399
 21
739.961432
  0
TEXT
  5
6C
100
AcDbEntity
  8
DD0
100
AcDbText
 10
709.094107
 20
743.072529
 40
14.000001
  1
５．５（取付）
 41
0.584656
  7
STANDARD
100
AcDbText
  0
ENDBLK
  5
6D
100
AcDbEntity
  8
DD0
100
AcDbBlockEnd
  0
BLOCK
  5
70
100
AcDbEntity
  8
DD0
100
AcDbBlockBegin
  2
DIMS3
 70
     0
 10
0.0
 20
0.0
  0
LINE
  5
71
100
AcDbEntity
  8
DD0
100
AcDbLine
 10
798.620016
 20
1136.850345
 11
798.620016
 21
1225.739236
  0
LINE
  5
72
100
AcDbEntity
  8
DD0
100
AcDbLine
 10
563.420052
 20
1103.85033
 11
563.420052
 21
1225.739236
  0
LINE
  5
73
100
AcDbEntity
  8
DD0
100
AcDbLine
 10
785.741005
 20
1217.843871
 11
798.620016
 21
1221.294791
  0
LINE
  5
74
100
AcDbEntity
  8
DD0
100
AcDbLine
 10
798.620016
 20
1221.294791
 11
785.741005
 21
1224.745712
  0
LINE
  5
75
100
AcDbEntity
  8
DD0
100
AcDbLine
 10
576.299063
 20
1224.745712
 11
563.420052
 21
1221.294791
  0
LINE
  5
76
100
AcDbEntity
  8
DD0
100
AcDbLine
 10
563.420052
 20
1221.294791
 11
576.299063
 21
1217.843871
  0
LINE
  5
77
100
AcDbEntity
  8
DD0
100
AcDbLine
 10
798.620016
 20
1221.294791
 11
563.420052
 21
1221.294791
  0
TEXT
  5
78
100
AcDbEntity
  8
DD0
100
AcDbText
 10
667.105241
 20
1224.405957
 40
14.000001
  1
２３５
 41
0.584656
  7
STANDARD
100
AcDbText
  0
ENDBLK
  5
79
100
AcDbEntity
  8
DD0
100
AcDbBlockEnd
  0
BLOCK
  5
7C
100
AcDbEntity
  8
DD0
100
AcDbBlockBegin
  2
DIMS4
 70
     0
 10
0.0
 20
0.0
  0
LINE
  5
7D
100
AcDbEntity
  8
DD0
 60
     1
100
AcDbLine
 10
798.620016
 20
1136.850345
 11
798.620016
 21
1181.29479
  0
LINE
  5
7E
100
AcDbEntity
  8
DD0
100
AcDbLine
 10
792.220005
 20
1136.850345
 11
792.220005
 21
1181.29479
  0
LINE
  5
7F
100
AcDbEntity
  8
DD0
100
AcDbLine
 10
811.499028
 20
1180.301267
 11
798.620016
 21
1176.850346
  0
LINE
  5
80
100
AcDbEntity
  8
DD0
100
AcDbLine
 10
798.620016
 20
1176.850346
 11
811.499028
 21
1173.399425
  0
LINE
  5
81
100
AcDbEntity
  8
DD0
100
AcDbLine
 10
779.340994
 20
1173.399425
 11
792.220005
 21
1176.850346
  0
LINE
  5
82
100
AcDbEntity
  8
DD0
100
AcDbLine
 10
792.220005
 20
1176.850346
 11
779.340994
 21
1180.301267
  0
LINE
  5
83
100
AcDbEntity
  8
DD0
100
AcDbLine
 10
813.286683
 20
1176.850346
 11
704.353334
 21
1176.850346
  0
TEXT
  5
84
100
AcDbEntity
  8
DD0
100
AcDbText
 10
708.194042
 20
1179.961511
 40
14.000001
  1
６．４（取付）
 41
0.584656
  7
STANDARD
100
AcDbText
  0
ENDBLK
  5
85
100
AcDbEntity
  8
DD0
100
AcDbBlockEnd
  0
BLOCK
  5
88
100
AcDbEntity
  8
DD0
100
AcDbBlockBegin
  2
DIMS5
 70
     0
 10
0.0
 20
0.0
  0
LINE
  5
89
100
AcDbEntity
  8
DD0
100
AcDbLine
 10
383.064721
 20
666.150056
 11
495.953111
 21
666.150056
  0
LINE
  5
8A
100
AcDbEntity
  8
DD0
100
AcDbLine
 10
393.064484
 20
620.150095
 11
495.953111
 21
620.150095
  0
LINE
  5
8B
100
AcDbEntity
  8
DD0
100
AcDbLine
 10
494.959587
 20
653.271044
 11
491.508666
 21
666.150056
  0
LINE
  5
8C
100
AcDbEntity
  8
DD0
100
AcDbLine
 10
491.508666
 20
666.150056
 11
488.057746
 21
653.271044
  0
LINE
  5
8D
100
AcDbEntity
  8
DD0
100
AcDbLine
 10
488.057746
 20
633.029106
 11
491.508666
 21
620.150095
  0
LINE
  5
8E
100
AcDbEntity
  8
DD0
100
AcDbLine
 10
491.508666
 20
620.150095
 11
494.959587
 21
633.029106
  0
LINE
  5
8F
100
AcDbEntity
  8
DD0
100
AcDbLine
 10
491.508666
 20
704.905613
 11
491.508666
 21
620.150095
  0
TEXT
  5
90
100
AcDbEntity
  8
DD0
100
AcDbText
 10
488.397569
 20
681.635271
 40
14.000001
  1
４６
 50
90.000003
 41
0.584656
  7
STANDARD
100
AcDbText
  0
ENDBLK
  5
91
100
AcDbEntity
  8
DD0
100
AcDbBlockEnd
  0
BLOCK
  5
94
100
AcDbEntity
  8
DD0
100
AcDbBlockBegin
  2
DIMS6
 70
     0
 10
0.0
 20
0.0
  0
LINE
  5
95
100
AcDbEntity
  8
DD0
100
AcDbLine
 10
393.064484
 20
620.150095
 11
494.842
 21
620.150095
  0
LINE
  5
96
100
AcDbEntity
  8
DD0
100
AcDbLine
 10
393.064484
 20
298.150066
 11
494.842
 21
298.150066
  0
LINE
  5
97
100
AcDbEntity
  8
DD0
100
AcDbLine
 10
493.848476
 20
607.271084
 11
490.397555
 21
620.150095
  0
LINE
  5
98
100
AcDbEntity
  8
DD0
100
AcDbLine
 10
490.397555
 20
620.150095
 11
486.946635
 21
607.271084
  0
LINE
  5
99
100
AcDbEntity
  8
DD0
100
AcDbLine
 10
486.946635
 20
311.029078
 11
490.397555
 21
298.150066
  0
LINE
  5
9A
100
AcDbEntity
  8
DD0
100
AcDbLine
 10
490.397555
 20
298.150066
 11
493.848476
 21
311.029078
  0
LINE
  5
9B
100
AcDbEntity
  8
DD0
100
AcDbLine
 10
490.397555
 20
620.150095
 11
490.397555
 21
298.150066
  0
TEXT
  5
9C
100
AcDbEntity
  8
DD0
100
AcDbText
 10
487.286458
 20
445.235254
 40
14.000001
  1
３２２
 50
90.000003
 41
0.584656
  7
STANDARD
100
AcDbText
  0
ENDBLK
  5
9D
100
AcDbEntity
  8
DD0
100
AcDbBlockEnd
  0
BLOCK
  5
A0
100
AcDbEntity
  8
DD0
100
AcDbBlockBegin
  2
DIMS7
 70
     0
 10
0.0
 20
0.0
  0
TEXT
  5
A1
100
AcDbEntity
  8
DD0
100
AcDbText
 10
421.681549
 20
236.737389
 40
14.000001
  1
４－Ｍ１０ねじ穴
 41
0.584656
  7
STANDARD
100
AcDbText
  0
LINE
  5
A2
100
AcDbEntity
  8
DD0
100
AcDbLine
 10
386.513217
 20
279.096931
 11
377.522457
 21
288.942947
  0
LINE
  5
A3
100
AcDbEntity
  8
DD0
100
AcDbLine
 10
377.522457
 20
288.942947
 11
380.385676
 21
275.920667
  0
LINE
  5
A4
100
AcDbEntity
  8
DD0
100
AcDbLine
 10
377.522457
 20
288.942947
 11
406.196334
 21
233.626274
  0
LINE
  5
A5
100
AcDbEntity
  8
DD0
100
AcDbLine
 10
406.196334
 20
233.626274
 11
514.107476
 21
233.626274
  0
ENDBLK
  5
A6
100
AcDbEntity
  8
DD0
100
AcDbBlockEnd
  0
BLOCK
  5
A9
100
AcDbEntity
  8
DD0
100
AcDbBlockBegin
  2
DIMS8
 70
     0
 10
0.0
 20
0.0
  0
LINE
  5
AA
100
AcDbEntity
  8
DD0
100
AcDbLine
 10
203.620051
 20
639.59454
 11
203.620051
 21
711.682148
  0
LINE
  5
AB
100
AcDbEntity
  8
DD0
100
AcDbLine
 10
373.620039
 20
639.59454
 11
373.620039
 21
711.682148
  0
LINE
  5
AC
100
AcDbEntity
  8
DD0
100
AcDbLine
 10
216.499063
 20
710.688624
 11
203.620051
 21
707.237703
  0
LINE
  5
AD
100
AcDbEntity
  8
DD0
100
AcDbLine
 10
203.620051
 20
707.237703
 11
216.499063
 21
703.786782
  0
LINE
  5
AE
100
AcDbEntity
  8
DD0
100
AcDbLine
 10
360.741028
 20
703.786782
 11
373.620039
 21
707.237703
  0
LINE
  5
AF
100
AcDbEntity
  8
DD0
100
AcDbLine
 10
373.620039
 20
707.237703
 11
360.741028
 21
710.688624
  0
LINE
  5
B0
100
AcDbEntity
  8
DD0
100
AcDbLine
 10
203.620051
 20
707.237703
 11
373.620039
 21
707.237703
  0
TEXT
  5
B1
100
AcDbEntity
  8
DD0
100
AcDbText
 10
274.705244
 20
710.348801
 40
14.000001
  1
１７０
 41
0.584656
  7
STANDARD
100
AcDbText
  0
ENDBLK
  5
B2
100
AcDbEntity
  8
DD0
100
AcDbBlockEnd
  0
ENDSEC
  0
SECTION
  2
ENTITIES
  0
INSERT
  5
56
100
AcDbEntity
  8
DD0
100
AcDbBlockReference
  2
DIMS0
 10
0.0
 20
0.0
  0
INSERT
  5
62
100
AcDbEntity
  8
DD0
100
AcDbBlockReference
  2
DIMS1
 10
0.0
 20
0.0
  0
INSERT
  5
6E
100
AcDbEntity
  8
DD0
100
AcDbBlockReference
  2
DIMS2
 10
0.0
 20
0.0
  0
INSERT
  5
7A
100
AcDbEntity
  8
DD0
100
AcDbBlockReference
  2
DIMS3
 10
0.0
 20
0.0
  0
INSERT
  5
86
100
AcDbEntity
  8
DD0
100
AcDbBlockReference
  2
DIMS4
 10
0.0
 20
0.0
  0
INSERT
  5
92
100
AcDbEntity
  8
DD0
100
AcDbBlockReference
  2
DIMS5
 10
0.0
 20
0.0
  0
INSERT
  5
9E
100
AcDbEntity
  8
DD0
100
AcDbBlockReference
  2
DIMS6
 10
0.0
 20
0.0
  0
INSERT
  5
A7
100
AcDbEntity
  8
DD0
100
AcDbBlockReference
  2
DIMS7
 10
0.0
 20
0.0
  0
INSERT
  5
B3
100
AcDbEntity
  8
DD0
100
AcDbBlockReference
  2
DIMS8
 10
0.0
 20
0.0
  0
LINE
  5
B4
100
AcDbEntity
  8
M0
 62
     6
100
AcDbLine
 10
417.419944
 20
1052.405907
 11
402.519944
 21
1052.405912
  0
LINE
  5
B5
100
AcDbEntity
  8
M0
 62
     6
100
AcDbLine
 10
402.519944
 20
1052.405912
 11
402.519916
 21
962.405912
  0
LINE
  5
B6
100
AcDbEntity
  8
M0
 62
     6
100
AcDbLine
 10
402.519916
 20
962.405912
 11
417.419916
 21
962.405907
  0
LINE
  5
B7
100
AcDbEntity
  8
M0
 62
     6
100
AcDbLine
 10
417.419916
 20
962.405907
 11
417.419944
 21
1052.405907
  0
LINE
  5
B8
100
AcDbEntity
  8
M0
 62
     6
100
AcDbLine
 10
404.469924
 20
989.405911
 11
404.469925
 21
990.905911
  0
LINE
  5
B9
100
AcDbEntity
  8
M0
 62
     6
100
AcDbLine
 10
415.469924
 20
989.405908
 11
415.469925
 21
990.905908
  0
LINE
  5
BA
100
AcDbEntity
  8
M0
 62
     6
100
AcDbLine
 10
404.469925
 20
990.905911
 11
415.469925
 21
990.905908
  0
LINE
  5
BB
100
AcDbEntity
  8
M0
 62
     6
100
AcDbLine
 10
405.469928
 20
1001.005902
 11
405.469925
 21
990.905911
  0
LINE
  5
BC
100
AcDbEntity
  8
M0
 62
     6
100
AcDbLine
 10
405.469924
 20
989.405911
 11
405.469916
 21
962.405911
  0
LINE
  5
BD
100
AcDbEntity
  8
M0
 62
     6
100
AcDbLine
 10
414.469928
 20
1001.005899
 11
414.469925
 21
990.905908
  0
LINE
  5
BE
100
AcDbEntity
  8
M0
 62
     6
100
AcDbLine
 10
414.469924
 20
989.405908
 11
414.469916
 21
962.405908
  0
LINE
  5
BF
100
AcDbEntity
  8
M0
 62
     6
100
AcDbLine
 10
415.469924
 20
989.405908
 11
414.469924
 21
989.405908
  0
LINE
  5
C0
100
AcDbEntity
  8
M0
 62
     6
100
AcDbLine
 10
405.469924
 20
989.405911
 11
404.469924
 21
989.405911
  0
LINE
  5
C1
100
AcDbEntity
  8
M0
 62
     6
100
AcDbLine
 10
414.469928
 20
1001.005899
 11
405.469928
 21
1001.005902
  0
LINE
  5
C2
100
AcDbEntity
  8
M0
 62
     6
100
AcDbLine
 10
405.469918
 20
968.405911
 11
414.469918
 21
968.405908
  0
LINE
  5
C3
100
AcDbEntity
  8
M0
 62
     6
100
AcDbLine
 10
402.519922
 20
982.405912
 11
405.469922
 21
982.405911
  0
LINE
  5
C4
100
AcDbEntity
  8
M0
 62
     6
100
AcDbLine
 10
414.469922
 20
982.405908
 11
417.419922
 21
982.405907
  0
LINE
  5
C5
100
AcDbEntity
  8
M0
 62
     6
100
AcDbLine
 10
415.469936
 20
1025.405908
 11
415.469935
 21
1023.905908
  0
LINE
  5
C6
100
AcDbEntity
  8
M0
 62
     6
100
AcDbLine
 10
404.469935
 20
1023.905911
 11
415.469935
 21
1023.905908
  0
LINE
  5
C7
100
AcDbEntity
  8
M0
 62
     6
100
AcDbLine
 10
414.469932
 20
1013.805902
 11
414.469935
 21
1023.905908
  0
LINE
  5
C8
100
AcDbEntity
  8
M0
 62
     6
100
AcDbLine
 10
414.469936
 20
1025.405908
 11
414.469944
 21
1052.405908
  0
LINE
  5
C9
100
AcDbEntity
  8
M0
 62
     6
100
AcDbLine
 10
415.469936
 20
1025.405908
 11
414.469936
 21
1025.405908
  0
LINE
  5
CA
100
AcDbEntity
  8
M0
 62
     6
100
AcDbLine
 10
414.469932
 20
1013.805902
 11
405.469932
 21
1013.805905
  0
LINE
  5
CB
100
AcDbEntity
  8
M0
 62
     6
100
AcDbLine
 10
405.469942
 20
1046.405911
 11
414.469942
 21
1046.405908
  0
LINE
  5
CC
100
AcDbEntity
  8
M0
 62
     6
100
AcDbLine
 10
414.469938
 20
1032.405908
 11
417.419938
 21
1032.405907
  0
LINE
  5
CD
100
AcDbEntity
  8
M0
 62
     6
100
AcDbLine
 10
405.469932
 20
1013.805905
 11
405.469935
 21
1023.905911
  0
LINE
  5
CE
100
AcDbEntity
  8
M0
 62
     6
100
AcDbLine
 10
404.469936
 20
1025.405911
 11
404.469935
 21
1023.905911
  0
LINE
  5
CF
100
AcDbEntity
  8
M0
 62
     6
100
AcDbLine
 10
405.469936
 20
1025.405911
 11
404.469936
 21
1025.405911
  0
LINE
  5
D0
100
AcDbEntity
  8
M0
 62
     6
100
AcDbLine
 10
405.469936
 20
1025.405911
 11
405.469944
 21
1052.405911
  0
LINE
  5
D1
100
AcDbEntity
  8
M0
 62
     6
100
AcDbLine
 10
402.519938
 20
1032.405912
 11
405.469938
 21
1032.405911
  0
CIRCLE
  5
D2
100
AcDbEntity
  8
M0
 62
     6
100
AcDbCircle
 10
409.96993
 20
1007.40591
 40
2.799999
  0
LINE
  5
D3
100
AcDbEntity
  8
M0
 62
     6
100
AcDbLine
 10
174.7201
 20
1052.405907
 11
159.8201
 21
1052.405912
  0
LINE
  5
D4
100
AcDbEntity
  8
M0
 62
     6
100
AcDbLine
 10
159.8201
 20
1052.405912
 11
159.820072
 21
962.405912
  0
LINE
  5
D5
100
AcDbEntity
  8
M0
 62
     6
100
AcDbLine
 10
159.820072
 20
962.405912
 11
174.720071
 21
962.405907
  0
LINE
  5
D6
100
AcDbEntity
  8
M0
 62
     6
100
AcDbLine
 10
174.720071
 20
962.405907
 11
174.7201
 21
1052.405907
  0
LINE
  5
D7
100
AcDbEntity
  8
M0
 62
     6
100
AcDbLine
 10
161.77008
 20
989.405911
 11
161.770081
 21
990.905911
  0
LINE
  5
D8
100
AcDbEntity
  8
M0
 62
     6
100
AcDbLine
 10
172.77008
 20
989.405908
 11
172.770081
 21
990.905908
  0
LINE
  5
D9
100
AcDbEntity
  8
M0
 62
     6
100
AcDbLine
 10
161.770081
 20
990.905911
 11
172.770081
 21
990.905908
  0
LINE
  5
DA
100
AcDbEntity
  8
M0
 62
     6
100
AcDbLine
 10
162.770084
 20
1001.005902
 11
162.770081
 21
990.905911
  0
LINE
  5
DB
100
AcDbEntity
  8
M0
 62
     6
100
AcDbLine
 10
162.77008
 20
989.405911
 11
162.770072
 21
962.405911
  0
LINE
  5
DC
100
AcDbEntity
  8
M0
 62
     6
100
AcDbLine
 10
171.770084
 20
1001.005899
 11
171.770081
 21
990.905908
  0
LINE
  5
DD
100
AcDbEntity
  8
M0
 62
     6
100
AcDbLine
 10
171.77008
 20
989.405908
 11
171.770072
 21
962.405908
  0
LINE
  5
DE
100
AcDbEntity
  8
M0
 62
     6
100
AcDbLine
 10
172.77008
 20
989.405908
 11
171.77008
 21
989.405908
  0
LINE
  5
DF
100
AcDbEntity
  8
M0
 62
     6
100
AcDbLine
 10
162.77008
 20
989.405911
 11
161.77008
 21
989.405911
  0
LINE
  5
E0
100
AcDbEntity
  8
M0
 62
     6
100
AcDbLine
 10
171.770084
 20
1001.005899
 11
162.770084
 21
1001.005902
  0
LINE
  5
E1
100
AcDbEntity
  8
M0
 62
     6
100
AcDbLine
 10
162.770074
 20
968.405911
 11
171.770074
 21
968.405908
  0
LINE
  5
E2
100
AcDbEntity
  8
M0
 62
     6
100
AcDbLine
 10
159.820078
 20
982.405912
 11
162.770078
 21
982.405911
  0
LINE
  5
E3
100
AcDbEntity
  8
M0
 62
     6
100
AcDbLine
 10
171.770078
 20
982.405908
 11
174.720078
 21
982.405907
  0
LINE
  5
E4
100
AcDbEntity
  8
M0
 62
     6
100
AcDbLine
 10
172.770091
 20
1025.405908
 11
172.770091
 21
1023.905908
  0
LINE
  5
E5
100
AcDbEntity
  8
M0
 62
     6
100
AcDbLine
 10
161.770091
 20
1023.905911
 11
172.770091
 21
1023.905908
  0
LINE
  5
E6
100
AcDbEntity
  8
M0
 62
     6
100
AcDbLine
 10
171.770088
 20
1013.805902
 11
171.770091
 21
1023.905908
  0
LINE
  5
E7
100
AcDbEntity
  8
M0
 62
     6
100
AcDbLine
 10
171.770091
 20
1025.405908
 11
171.7701
 21
1052.405908
  0
LINE
  5
E8
100
AcDbEntity
  8
M0
 62
     6
100
AcDbLine
 10
172.770091
 20
1025.405908
 11
171.770091
 21
1025.405908
  0
LINE
  5
E9
100
AcDbEntity
  8
M0
 62
     6
100
AcDbLine
 10
171.770088
 20
1013.805902
 11
162.770088
 21
1013.805905
  0
LINE
  5
EA
100
AcDbEntity
  8
M0
 62
     6
100
AcDbLine
 10
162.770098
 20
1046.405911
 11
171.770098
 21
1046.405908
  0
LINE
  5
EB
100
AcDbEntity
  8
M0
 62
     6
100
AcDbLine
 10
171.770094
 20
1032.405908
 11
174.720093
 21
1032.405907
  0
LINE
  5
EC
100
AcDbEntity
  8
M0
 62
     6
100
AcDbLine
 10
162.770088
 20
1013.805905
 11
162.770091
 21
1023.905911
  0
LINE
  5
ED
100
AcDbEntity
  8
M0
 62
     6
100
AcDbLine
 10
161.770091
 20
1025.405911
 11
161.770091
 21
1023.905911
  0
LINE
  5
EE
100
AcDbEntity
  8
M0
 62
     6
100
AcDbLine
 10
162.770091
 20
1025.405911
 11
161.770091
 21
1025.405911
  0
LINE
  5
EF
100
AcDbEntity
  8
M0
 62
     6
100
AcDbLine
 10
162.770091
 20
1025.405911
 11
162.7701
 21
1052.405911
  0
LINE
  5
F0
100
AcDbEntity
  8
M0
 62
     6
100
AcDbLine
 10
159.820094
 20
1032.405912
 11
162.770094
 21
1032.405911
  0
CIRCLE
  5
F1
100
AcDbEntity
  8
M0
 62
     6
100
AcDbCircle
 10
167.270086
 20
1007.40591
 40
2.799999
  0
CIRCLE
  5
F2
100
AcDbEntity
  8
M0
100
AcDbCircle
 10
167.270054
 20
973.405879
 40
3.5
  0
ARC
  5
F3
100
AcDbEntity
  8
M0
100
AcDbCircle
 10
170.370056
 20
969.605882
 40
1.0
100
AcDbArc
 50
-90.0
 51
3.597218E-005
  0
LINE
  5
F4
100
AcDbEntity
  8
M0
100
AcDbLine
 10
170.370056
 20
968.605882
 11
164.170058
 21
968.605878
  0
ARC
  5
F5
100
AcDbEntity
  8
M0
100
AcDbCircle
 10
164.170057
 20
969.605878
 40
1.0
100
AcDbArc
 50
180.000036
 51
270.0
  0
LINE
  5
F6
100
AcDbEntity
  8
M0
100
AcDbLine
 10
163.170057
 20
969.605877
 11
163.170052
 21
977.205876
  0
ARC
  5
F7
100
AcDbEntity
  8
M0
100
AcDbCircle
 10
164.170052
 20
977.205877
 40
1.0
100
AcDbArc
 50
90.0
 51
180.000036
  0
LINE
  5
F8
100
AcDbEntity
  8
M0
100
AcDbLine
 10
164.170051
 20
978.205877
 11
170.37005
 21
978.20588
  0
LINE
  5
F9
100
AcDbEntity
  8
M0
100
AcDbLine
 10
171.370051
 20
977.205881
 11
171.370056
 21
969.605883
  0
ARC
  5
FA
100
AcDbEntity
  8
M0
100
AcDbCircle
 10
170.370051
 20
977.20588
 40
1.0
100
AcDbArc
 50
-1.866939E-005
 51
90.0
  0
LINE
  5
FB
100
AcDbEntity
  8
M0
100
AcDbLine
 10
165.740357
 20
971.87618
 11
168.873016
 21
975.008844
  0
LINE
  5
FC
100
AcDbEntity
  8
M0
100
AcDbLine
 10
169.367993
 20
972.297891
 11
166.235329
 21
975.430551
  0
LINE
  5
FD
100
AcDbEntity
  8
M0
100
AcDbLine
 10
168.378045
 20
971.307941
 11
165.245381
 21
974.440601
  0
LINE
  5
FE
100
AcDbEntity
  8
M0
  6
DASHDOT
100
AcDbLine
 10
162.770054
 20
973.405879
 11
171.770054
 21
973.405879
  0
LINE
  5
FF
100
AcDbEntity
  8
M0
  6
DASHDOT
100
AcDbLine
 10
167.270054
 20
968.905879
 11
167.270054
 21
977.905879
  0
CIRCLE
  5
100
100
AcDbEntity
  8
M0
100
AcDbCircle
 10
167.270054
 20
995.905879
 40
3.5
  0
ARC
  5
101
100
AcDbEntity
  8
M0
100
AcDbCircle
 10
170.370056
 20
992.105882
 40
1.0
100
AcDbArc
 50
-90.0
 51
3.597218E-005
  0
LINE
  5
102
100
AcDbEntity
  8
M0
100
AcDbLine
 10
170.370056
 20
991.105882
 11
164.170058
 21
991.105878
  0
ARC
  5
103
100
AcDbEntity
  8
M0
100
AcDbCircle
 10
164.170057
 20
992.105878
 40
1.0
100
AcDbArc
 50
180.000036
 51
270.0
  0
LINE
  5
104
100
AcDbEntity
  8
M0
100
AcDbLine
 10
163.170057
 20
992.105877
 11
163.170052
 21
999.705876
  0
ARC
  5
105
100
AcDbEntity
  8
M0
100
AcDbCircle
 10
164.170052
 20
999.705877
 40
1.0
100
AcDbArc
 50
90.0
 51
180.000036
  0
LINE
  5
106
100
AcDbEntity
  8
M0
100
AcDbLine
 10
164.170051
 20
1000.705877
 11
170.37005
 21
1000.70588
  0
LINE
  5
107
100
AcDbEntity
  8
M0
100
AcDbLine
 10
171.370051
 20
999.705881
 11
171.370056
 21
992.105883
  0
ARC
  5
108
100
AcDbEntity
  8
M0
100
AcDbCircle
 10
170.370051
 20
999.70588
 40
1.0
100
AcDbArc
 50
-1.866939E-005
 51
90.0
  0
LINE
  5
109
100
AcDbEntity
  8
M0
100
AcDbLine
 10
165.740357
 20
994.37618
 11
168.873016
 21
997.508844
  0
LINE
  5
10A
100
AcDbEntity
  8
M0
100
AcDbLine
 10
169.367993
 20
994.797891
 11
166.235329
 21
997.930551
  0
LINE
  5
10B
100
AcDbEntity
  8
M0
100
AcDbLine
 10
168.378045
 20
993.807941
 11
165.245381
 21
996.940601
  0
LINE
  5
10C
100
AcDbEntity
  8
M0
  6
DASHDOT
100
AcDbLine
 10
162.770054
 20
995.905879
 11
171.770054
 21
995.905879
  0
LINE
  5
10D
100
AcDbEntity
  8
M0
  6
DASHDOT
100
AcDbLine
 10
167.270054
 20
991.405879
 11
167.270054
 21
1000.405879
  0
LINE
  5
10E
100
AcDbEntity
  8
M0
100
AcDbLine
 10
285.620045
 20
1016.655879
 11
291.620045
 21
1016.655879
  0
LINE
  5
10F
100
AcDbEntity
  8
M0
100
AcDbLine
 10
291.620045
 20
1016.655879
 11
291.620045
 21
1021.155879
  0
LINE
  5
110
100
AcDbEntity
  8
M0
100
AcDbLine
 10
291.620045
 20
1021.155879
 11
285.620045
 21
1021.155879
  0
LINE
  5
111
100
AcDbEntity
  8
M0
100
AcDbLine
 10
285.620045
 20
1021.155879
 11
285.620045
 21
1016.655879
  0
LINE
  5
112
100
AcDbEntity
  8
M0
 62
     7
100
AcDbLine
 10
167.977161
 20
982.905879
 11
170.073093
 21
985.001812
  0
LINE
  5
113
100
AcDbEntity
  8
M0
 62
     7
100
AcDbLine
 10
165.174111
 20
980.102829
 11
167.270054
 21
982.198772
  0
LINE
  5
114
100
AcDbEntity
  8
M0
 62
     7
100
AcDbLine
 10
166.562947
 20
982.905879
 11
164.467004
 21
980.809936
  0
LINE
  5
115
100
AcDbEntity
  8
M0
 62
     7
100
AcDbLine
 10
169.365986
 20
985.708918
 11
167.270054
 21
983.612986
  0
LINE
  5
116
100
AcDbEntity
  8
M0
 62
     7
100
AcDbLine
 10
167.270054
 20
983.612986
 11
166.174004
 21
984.709036
  0
LINE
  5
117
100
AcDbEntity
  8
M0
 62
     7
100
AcDbLine
 10
169.073211
 20
981.809829
 11
167.977161
 21
982.905879
  0
LINE
  5
118
100
AcDbEntity
  8
M0
 62
     7
100
AcDbLine
 10
167.270054
 20
982.198772
 11
168.366104
 21
981.102722
  0
LINE
  5
119
100
AcDbEntity
  8
M0
 62
     7
100
AcDbLine
 10
165.466897
 20
984.001929
 11
166.562947
 21
982.905879
  0
CIRCLE
  5
11A
100
AcDbEntity
  8
M0
 62
     7
100
AcDbCircle
 10
167.270054
 20
982.905879
 40
3.5
  0
LINE
  5
11B
100
AcDbEntity
  8
M0
 62
     7
100
AcDbLine
 10
168.366104
 20
981.102722
 11
169.073211
 21
981.809829
  0
LINE
  5
11C
100
AcDbEntity
  8
M0
 62
     7
100
AcDbLine
 10
166.174004
 20
984.709036
 11
165.466897
 21
984.001929
  0
CIRCLE
  5
11D
100
AcDbEntity
  8
M0
100
AcDbCircle
 10
167.270054
 20
1041.40594
 40
3.5
  0
ARC
  5
11E
100
AcDbEntity
  8
M0
100
AcDbCircle
 10
170.370056
 20
1045.205938
 40
1.0
100
AcDbArc
 50
359.999964
 51
450.0
  0
LINE
  5
11F
100
AcDbEntity
  8
M0
100
AcDbLine
 10
170.370056
 20
1046.205938
 11
164.170058
 21
1046.205941
  0
ARC
  5
120
100
AcDbEntity
  8
M0
100
AcDbCircle
 10
164.170057
 20
1045.205941
 40
1.0
100
AcDbArc
 50
90.0
 51
179.999964
  0
LINE
  5
121
100
AcDbEntity
  8
M0
100
AcDbLine
 10
163.170057
 20
1045.205942
 11
163.170052
 21
1037.605944
  0
ARC
  5
122
100
AcDbEntity
  8
M0
100
AcDbCircle
 10
164.170052
 20
1037.605943
 40
1.0
100
AcDbArc
 50
179.999964
 51
270.0
  0
LINE
  5
123
100
AcDbEntity
  8
M0
100
AcDbLine
 10
164.170051
 20
1036.605943
 11
170.37005
 21
1036.605939
  0
LINE
  5
124
100
AcDbEntity
  8
M0
100
AcDbLine
 10
171.370051
 20
1037.605938
 11
171.370056
 21
1045.205937
  0
ARC
  5
125
100
AcDbEntity
  8
M0
100
AcDbCircle
 10
170.370051
 20
1037.605939
 40
1.0
100
AcDbArc
 50
270.0
 51
360.000019
  0
LINE
  5
126
100
AcDbEntity
  8
M0
100
AcDbLine
 10
165.740357
 20
1042.93564
 11
168.873016
 21
1039.802976
  0
LINE
  5
127
100
AcDbEntity
  8
M0
100
AcDbLine
 10
169.367993
 20
1042.513928
 11
166.235329
 21
1039.381268
  0
LINE
  5
128
100
AcDbEntity
  8
M0
100
AcDbLine
 10
168.378045
 20
1043.503878
 11
165.245381
 21
1040.371218
  0
LINE
  5
129
100
AcDbEntity
  8
M0
  6
DASHDOT
100
AcDbLine
 10
162.770054
 20
1041.40594
 11
171.770054
 21
1041.40594
  0
LINE
  5
12A
100
AcDbEntity
  8
M0
  6
DASHDOT
100
AcDbLine
 10
167.270054
 20
1045.90594
 11
167.270054
 21
1036.90594
  0
LINE
  5
12B
100
AcDbEntity
  8
M0
 62
     7
100
AcDbLine
 10
167.977161
 20
1031.90594
 11
170.073093
 21
1029.810008
  0
LINE
  5
12C
100
AcDbEntity
  8
M0
 62
     7
100
AcDbLine
 10
165.174111
 20
1034.70899
 11
167.270054
 21
1032.613047
  0
LINE
  5
12D
100
AcDbEntity
  8
M0
 62
     7
100
AcDbLine
 10
166.562947
 20
1031.90594
 11
164.467004
 21
1034.001883
  0
LINE
  5
12E
100
AcDbEntity
  8
M0
 62
     7
100
AcDbLine
 10
169.365986
 20
1029.102901
 11
167.270054
 21
1031.198833
  0
LINE
  5
12F
100
AcDbEntity
  8
M0
 62
     7
100
AcDbLine
 10
167.270054
 20
1031.198833
 11
166.174004
 21
1030.102783
  0
LINE
  5
130
100
AcDbEntity
  8
M0
 62
     7
100
AcDbLine
 10
169.073211
 20
1033.00199
 11
167.977161
 21
1031.90594
  0
LINE
  5
131
100
AcDbEntity
  8
M0
 62
     7
100
AcDbLine
 10
167.270054
 20
1032.613047
 11
168.366104
 21
1033.709097
  0
LINE
  5
132
100
AcDbEntity
  8
M0
 62
     7
100
AcDbLine
 10
165.466897
 20
1030.80989
 11
166.562947
 21
1031.90594
  0
CIRCLE
  5
133
100
AcDbEntity
  8
M0
 62
     7
100
AcDbCircle
 10
167.270054
 20
1031.90594
 40
3.5
  0
LINE
  5
134
100
AcDbEntity
  8
M0
 62
     7
100
AcDbLine
 10
168.366104
 20
1033.709097
 11
169.073211
 21
1033.00199
  0
LINE
  5
135
100
AcDbEntity
  8
M0
 62
     7
100
AcDbLine
 10
166.174004
 20
1030.102783
 11
165.466897
 21
1030.80989
  0
CIRCLE
  5
136
100
AcDbEntity
  8
M0
100
AcDbCircle
 10
167.270054
 20
1018.90594
 40
3.5
  0
ARC
  5
137
100
AcDbEntity
  8
M0
100
AcDbCircle
 10
170.370056
 20
1022.705938
 40
1.0
100
AcDbArc
 50
359.999964
 51
450.0
  0
LINE
  5
138
100
AcDbEntity
  8
M0
100
AcDbLine
 10
170.370056
 20
1023.705938
 11
164.170058
 21
1023.705941
  0
ARC
  5
139
100
AcDbEntity
  8
M0
100
AcDbCircle
 10
164.170057
 20
1022.705941
 40
1.0
100
AcDbArc
 50
90.0
 51
179.999964
  0
LINE
  5
13A
100
AcDbEntity
  8
M0
100
AcDbLine
 10
163.170057
 20
1022.705942
 11
163.170052
 21
1015.105944
  0
ARC
  5
13B
100
AcDbEntity
  8
M0
100
AcDbCircle
 10
164.170052
 20
1015.105943
 40
1.0
100
AcDbArc
 50
179.999964
 51
270.0
  0
LINE
  5
13C
100
AcDbEntity
  8
M0
100
AcDbLine
 10
164.170051
 20
1014.105943
 11
170.37005
 21
1014.105939
  0
LINE
  5
13D
100
AcDbEntity
  8
M0
100
AcDbLine
 10
171.370051
 20
1015.105938
 11
171.370056
 21
1022.705937
  0
ARC
  5
13E
100
AcDbEntity
  8
M0
100
AcDbCircle
 10
170.370051
 20
1015.105939
 40
1.0
100
AcDbArc
 50
270.0
 51
360.000019
  0
LINE
  5
13F
100
AcDbEntity
  8
M0
100
AcDbLine
 10
165.740357
 20
1020.43564
 11
168.873016
 21
1017.302976
  0
LINE
  5
140
100
AcDbEntity
  8
M0
100
AcDbLine
 10
169.367993
 20
1020.013928
 11
166.235329
 21
1016.881268
  0
LINE
  5
141
100
AcDbEntity
  8
M0
100
AcDbLine
 10
168.378045
 20
1021.003878
 11
165.245381
 21
1017.871218
  0
LINE
  5
142
100
AcDbEntity
  8
M0
  6
DASHDOT
100
AcDbLine
 10
162.770054
 20
1018.90594
 11
171.770054
 21
1018.90594
  0
LINE
  5
143
100
AcDbEntity
  8
M0
  6
DASHDOT
100
AcDbLine
 10
167.270054
 20
1023.40594
 11
167.270054
 21
1014.40594
  0
CIRCLE
  5
144
100
AcDbEntity
  8
M0
100
AcDbCircle
 10
182.169988
 20
1041.405945
 40
3.5
  0
ARC
  5
145
100
AcDbEntity
  8
M0
100
AcDbCircle
 10
179.069983
 20
1045.20594
 40
1.0
100
AcDbArc
 50
90.0
 51
180.000072
  0
LINE
  5
146
100
AcDbEntity
  8
M0
100
AcDbLine
 10
179.069982
 20
1046.20594
 11
185.269981
 21
1046.205948
  0
ARC
  5
147
100
AcDbEntity
  8
M0
100
AcDbCircle
 10
185.269982
 20
1045.205948
 40
1.0
100
AcDbArc
 50
7.194436E-005
 51
90.0
  0
LINE
  5
148
100
AcDbEntity
  8
M0
100
AcDbLine
 10
186.269982
 20
1045.205949
 11
186.269992
 21
1037.605951
  0
ARC
  5
149
100
AcDbEntity
  8
M0
100
AcDbCircle
 10
185.269992
 20
1037.60595
 40
1.0
100
AcDbArc
 50
-90.0
 51
7.194436E-005
  0
LINE
  5
14A
100
AcDbEntity
  8
M0
100
AcDbLine
 10
185.269993
 20
1036.60595
 11
179.069994
 21
1036.605942
  0
LINE
  5
14B
100
AcDbEntity
  8
M0
100
AcDbLine
 10
178.069993
 20
1037.605941
 11
178.069983
 21
1045.205939
  0
ARC
  5
14C
100
AcDbEntity
  8
M0
100
AcDbCircle
 10
179.069993
 20
1037.605942
 40
1.0
100
AcDbArc
 50
180.000017
 51
270.0
  0
LINE
  5
14D
100
AcDbEntity
  8
M0
100
AcDbLine
 10
183.699684
 20
1042.935645
 11
180.567026
 21
1039.802979
  0
LINE
  5
14E
100
AcDbEntity
  8
M0
100
AcDbLine
 10
180.072048
 20
1042.513932
 11
183.204713
 21
1039.381274
  0
LINE
  5
14F
100
AcDbEntity
  8
M0
100
AcDbLine
 10
181.061996
 20
1043.503882
 11
184.194661
 21
1040.371224
  0
LINE
  5
150
100
AcDbEntity
  8
M0
  6
DASHDOT
100
AcDbLine
 10
186.669988
 20
1041.405948
 11
177.669988
 21
1041.405942
  0
LINE
  5
151
100
AcDbEntity
  8
M0
  6
DASHDOT
100
AcDbLine
 10
182.169985
 20
1045.905945
 11
182.16999
 21
1036.905945
  0
LINE
  5
152
100
AcDbEntity
  8
M0
 62
     7
100
AcDbLine
 10
181.462887
 20
1031.905945
 11
179.366956
 21
1029.810011
  0
LINE
  5
153
100
AcDbEntity
  8
M0
 62
     7
100
AcDbLine
 10
184.265935
 20
1034.708996
 11
182.169993
 21
1032.613052
  0
LINE
  5
154
100
AcDbEntity
  8
M0
 62
     7
100
AcDbLine
 10
182.8771
 20
1031.905945
 11
184.973042
 21
1034.00189
  0
LINE
  5
155
100
AcDbEntity
  8
M0
 62
     7
100
AcDbLine
 10
180.074063
 20
1029.102904
 11
182.169994
 21
1031.198838
  0
LINE
  5
156
100
AcDbEntity
  8
M0
 62
     7
100
AcDbLine
 10
182.169994
 20
1031.198838
 11
183.266045
 21
1030.102789
  0
LINE
  5
157
100
AcDbEntity
  8
M0
 62
     7
100
AcDbLine
 10
180.366836
 20
1033.001994
 11
181.462887
 21
1031.905945
  0
LINE
  5
158
100
AcDbEntity
  8
M0
 62
     7
100
AcDbLine
 10
182.169993
 20
1032.613052
 11
181.073942
 21
1033.709101
  0
LINE
  5
159
100
AcDbEntity
  8
M0
 62
     7
100
AcDbLine
 10
183.973151
 20
1030.809896
 11
182.8771
 21
1031.905945
  0
CIRCLE
  5
15A
100
AcDbEntity
  8
M0
 62
     7
100
AcDbCircle
 10
182.169994
 20
1031.905945
 40
3.5
  0
LINE
  5
15B
100
AcDbEntity
  8
M0
 62
     7
100
AcDbLine
 10
181.073942
 20
1033.709101
 11
180.366836
 21
1033.001994
  0
LINE
  5
15C
100
AcDbEntity
  8
M0
 62
     7
100
AcDbLine
 10
183.266045
 20
1030.102789
 11
183.973151
 21
1030.809896
  0
LINE
  5
15D
100
AcDbEntity
  8
M0
 62
     7
100
AcDbLine
 10
181.462918
 20
982.905883
 11
179.366984
 21
985.001814
  0
LINE
  5
15E
100
AcDbEntity
  8
M0
 62
     7
100
AcDbLine
 10
184.265969
 20
980.102835
 11
182.170025
 21
982.198777
  0
LINE
  5
15F
100
AcDbEntity
  8
M0
 62
     7
100
AcDbLine
 10
182.877131
 20
982.905884
 11
184.973076
 21
980.809943
  0
LINE
  5
160
100
AcDbEntity
  8
M0
 62
     7
100
AcDbLine
 10
180.07409
 20
985.708922
 11
182.170024
 21
983.612991
  0
LINE
  5
161
100
AcDbEntity
  8
M0
 62
     7
100
AcDbLine
 10
182.170024
 20
983.612991
 11
183.266073
 21
984.709041
  0
LINE
  5
162
100
AcDbEntity
  8
M0
 62
     7
100
AcDbLine
 10
180.366868
 20
981.809833
 11
181.462918
 21
982.905883
  0
LINE
  5
163
100
AcDbEntity
  8
M0
 62
     7
100
AcDbLine
 10
182.170025
 20
982.198777
 11
181.073975
 21
981.102726
  0
LINE
  5
164
100
AcDbEntity
  8
M0
 62
     7
100
AcDbLine
 10
183.97318
 20
984.001935
 11
182.877131
 21
982.905884
  0
CIRCLE
  5
165
100
AcDbEntity
  8
M0
 62
     7
100
AcDbCircle
 10
182.170024
 20
982.905884
 40
3.5
  0
LINE
  5
166
100
AcDbEntity
  8
M0
 62
     7
100
AcDbLine
 10
181.073975
 20
981.102726
 11
180.366868
 21
981.809833
  0
LINE
  5
167
100
AcDbEntity
  8
M0
 62
     7
100
AcDbLine
 10
183.266073
 20
984.709041
 11
183.97318
 21
984.001935
  0
CIRCLE
  5
168
100
AcDbEntity
  8
M0
100
AcDbCircle
 10
182.170016
 20
995.905884
 40
3.5
  0
ARC
  5
169
100
AcDbEntity
  8
M0
100
AcDbCircle
 10
179.070017
 20
992.105885
 40
1.0
100
AcDbArc
 50
180.0
 51
270.0
  0
LINE
  5
16A
100
AcDbEntity
  8
M0
100
AcDbLine
 10
179.070017
 20
991.105885
 11
185.270016
 21
991.105885
  0
ARC
  5
16B
100
AcDbEntity
  8
M0
100
AcDbCircle
 10
185.270016
 20
992.105885
 40
1.0
100
AcDbArc
 50
270.0
 51
360.0
  0
LINE
  5
16C
100
AcDbEntity
  8
M0
100
AcDbLine
 10
186.270016
 20
992.105885
 11
186.270016
 21
999.705883
  0
ARC
  5
16D
100
AcDbEntity
  8
M0
100
AcDbCircle
 10
185.270016
 20
999.705883
 40
1.0
100
AcDbArc
 50
0.0
 51
90.0
  0
LINE
  5
16E
100
AcDbEntity
  8
M0
100
AcDbLine
 10
185.270016
 20
1000.705883
 11
179.070017
 21
1000.705883
  0
LINE
  5
16F
100
AcDbEntity
  8
M0
100
AcDbLine
 10
178.070017
 20
999.705883
 11
178.070017
 21
992.105885
  0
ARC
  5
170
100
AcDbEntity
  8
M0
100
AcDbCircle
 10
179.070017
 20
999.705883
 40
1.0
100
AcDbArc
 50
90.0
 51
180.000055
  0
LINE
  5
171
100
AcDbEntity
  8
M0
100
AcDbLine
 10
183.699714
 20
994.376186
 11
180.567053
 21
997.508847
  0
LINE
  5
172
100
AcDbEntity
  8
M0
100
AcDbLine
 10
180.072078
 20
994.797895
 11
183.204739
 21
997.930556
  0
LINE
  5
173
100
AcDbEntity
  8
M0
100
AcDbLine
 10
181.062027
 20
993.807945
 11
184.194689
 21
996.940607
  0
LINE
  5
174
100
AcDbEntity
  8
M0
  6
DASHDOT
100
AcDbLine
 10
186.670016
 20
995.905887
 11
177.670016
 21
995.905881
  0
LINE
  5
175
100
AcDbEntity
  8
M0
  6
DASHDOT
100
AcDbLine
 10
182.170019
 20
991.405884
 11
182.170013
 21
1000.405884
  0
CIRCLE
  5
176
100
AcDbEntity
  8
M0
100
AcDbCircle
 10
182.170002
 20
1018.905945
 40
3.5
  0
ARC
  5
177
100
AcDbEntity
  8
M0
100
AcDbCircle
 10
179.069997
 20
1022.70594
 40
1.0
100
AcDbArc
 50
90.0
 51
180.000072
  0
LINE
  5
178
100
AcDbEntity
  8
M0
100
AcDbLine
 10
179.069996
 20
1023.70594
 11
185.269995
 21
1023.705948
  0
ARC
  5
179
100
AcDbEntity
  8
M0
100
AcDbCircle
 10
185.269996
 20
1022.705948
 40
1.0
100
AcDbArc
 50
7.194436E-005
 51
90.0
  0
LINE
  5
17A
100
AcDbEntity
  8
M0
100
AcDbLine
 10
186.269996
 20
1022.705949
 11
186.270006
 21
1015.105951
  0
ARC
  5
17B
100
AcDbEntity
  8
M0
100
AcDbCircle
 10
185.270006
 20
1015.10595
 40
1.0
100
AcDbArc
 50
-90.0
 51
7.194436E-005
  0
LINE
  5
17C
100
AcDbEntity
  8
M0
100
AcDbLine
 10
185.270007
 20
1014.10595
 11
179.070008
 21
1014.105942
  0
LINE
  5
17D
100
AcDbEntity
  8
M0
100
AcDbLine
 10
178.070007
 20
1015.105941
 11
178.069997
 21
1022.705939
  0
ARC
  5
17E
100
AcDbEntity
  8
M0
100
AcDbCircle
 10
179.070007
 20
1015.105942
 40
1.0
100
AcDbArc
 50
180.000017
 51
270.0
  0
LINE
  5
17F
100
AcDbEntity
  8
M0
100
AcDbLine
 10
183.699698
 20
1020.435645
 11
180.56704
 21
1017.302979
  0
LINE
  5
180
100
AcDbEntity
  8
M0
100
AcDbLine
 10
180.072062
 20
1020.013932
 11
183.204728
 21
1016.881274
  0
LINE
  5
181
100
AcDbEntity
  8
M0
100
AcDbLine
 10
181.06201
 20
1021.003882
 11
184.194675
 21
1017.871224
  0
LINE
  5
182
100
AcDbEntity
  8
M0
  6
DASHDOT
100
AcDbLine
 10
186.670002
 20
1018.905948
 11
177.670002
 21
1018.905942
  0
LINE
  5
183
100
AcDbEntity
  8
M0
  6
DASHDOT
100
AcDbLine
 10
182.169999
 20
1023.405945
 11
182.170005
 21
1014.405945
  0
CIRCLE
  5
184
100
AcDbEntity
  8
M0
100
AcDbCircle
 10
182.17003
 20
973.405884
 40
3.5
  0
ARC
  5
185
100
AcDbEntity
  8
M0
100
AcDbCircle
 10
179.070031
 20
969.605885
 40
1.0
100
AcDbArc
 50
180.0
 51
270.0
  0
LINE
  5
186
100
AcDbEntity
  8
M0
100
AcDbLine
 10
179.070031
 20
968.605885
 11
185.27003
 21
968.605885
  0
ARC
  5
187
100
AcDbEntity
  8
M0
100
AcDbCircle
 10
185.27003
 20
969.605885
 40
1.0
100
AcDbArc
 50
270.0
 51
360.0
  0
LINE
  5
188
100
AcDbEntity
  8
M0
100
AcDbLine
 10
186.27003
 20
969.605885
 11
186.27003
 21
977.205883
  0
ARC
  5
189
100
AcDbEntity
  8
M0
100
AcDbCircle
 10
185.27003
 20
977.205883
 40
1.0
100
AcDbArc
 50
0.0
 51
90.0
  0
LINE
  5
18A
100
AcDbEntity
  8
M0
100
AcDbLine
 10
185.27003
 20
978.205883
 11
179.070031
 21
978.205883
  0
LINE
  5
18B
100
AcDbEntity
  8
M0
100
AcDbLine
 10
178.070031
 20
977.205883
 11
178.070031
 21
969.605885
  0
ARC
  5
18C
100
AcDbEntity
  8
M0
100
AcDbCircle
 10
179.070031
 20
977.205883
 40
1.0
100
AcDbArc
 50
90.0
 51
180.000055
  0
LINE
  5
18D
100
AcDbEntity
  8
M0
100
AcDbLine
 10
183.699729
 20
971.876186
 11
180.567067
 21
975.008847
  0
LINE
  5
18E
100
AcDbEntity
  8
M0
100
AcDbLine
 10
180.072092
 20
972.297895
 11
183.204754
 21
975.430556
  0
LINE
  5
18F
100
AcDbEntity
  8
M0
100
AcDbLine
 10
181.062041
 20
971.307945
 11
184.194703
 21
974.440607
  0
LINE
  5
190
100
AcDbEntity
  8
M0
  6
DASHDOT
100
AcDbLine
 10
186.67003
 20
973.405887
 11
177.67003
 21
973.405881
  0
LINE
  5
191
100
AcDbEntity
  8
M0
  6
DASHDOT
100
AcDbLine
 10
182.170033
 20
968.905884
 11
182.170027
 21
977.905884
  0
CIRCLE
  5
192
100
AcDbEntity
  8
M0
100
AcDbCircle
 10
395.070059
 20
973.405884
 40
3.5
  0
ARC
  5
193
100
AcDbEntity
  8
M0
100
AcDbCircle
 10
398.170059
 20
969.605885
 40
1.0
100
AcDbArc
 50
-90.0
 51
0.0
  0
LINE
  5
194
100
AcDbEntity
  8
M0
100
AcDbLine
 10
398.170059
 20
968.605885
 11
391.97006
 21
968.605885
  0
ARC
  5
195
100
AcDbEntity
  8
M0
100
AcDbCircle
 10
391.97006
 20
969.605885
 40
1.0
100
AcDbArc
 50
180.0
 51
270.0
  0
LINE
  5
196
100
AcDbEntity
  8
M0
100
AcDbLine
 10
390.97006
 20
969.605885
 11
390.97006
 21
977.205883
  0
ARC
  5
197
100
AcDbEntity
  8
M0
100
AcDbCircle
 10
391.97006
 20
977.205883
 40
1.0
100
AcDbArc
 50
90.0
 51
180.0
  0
LINE
  5
198
100
AcDbEntity
  8
M0
100
AcDbLine
 10
391.97006
 20
978.205883
 11
398.170059
 21
978.205883
  0
LINE
  5
199
100
AcDbEntity
  8
M0
100
AcDbLine
 10
399.170059
 20
977.205883
 11
399.170059
 21
969.605885
  0
ARC
  5
19A
100
AcDbEntity
  8
M0
100
AcDbCircle
 10
398.170059
 20
977.205883
 40
1.0
100
AcDbArc
 50
-5.464157E-005
 51
90.0
  0
LINE
  5
19B
100
AcDbEntity
  8
M0
100
AcDbLine
 10
393.540361
 20
971.876186
 11
396.673023
 21
975.008847
  0
LINE
  5
19C
100
AcDbEntity
  8
M0
100
AcDbLine
 10
397.167998
 20
972.297895
 11
394.035336
 21
975.430556
  0
LINE
  5
19D
100
AcDbEntity
  8
M0
100
AcDbLine
 10
396.178049
 20
971.307945
 11
393.045387
 21
974.440607
  0
LINE
  5
19E
100
AcDbEntity
  8
M0
  6
DASHDOT
100
AcDbLine
 10
390.570059
 20
973.405887
 11
399.570059
 21
973.405881
  0
LINE
  5
19F
100
AcDbEntity
  8
M0
  6
DASHDOT
100
AcDbLine
 10
395.070056
 20
968.905884
 11
395.070062
 21
977.905884
  0
CIRCLE
  5
1A0
100
AcDbEntity
  8
M0
100
AcDbCircle
 10
409.970036
 20
973.405879
 40
3.5
  0
ARC
  5
1A1
100
AcDbEntity
  8
M0
100
AcDbCircle
 10
406.870034
 20
969.605882
 40
1.0
100
AcDbArc
 50
179.999964
 51
270.0
  0
LINE
  5
1A2
100
AcDbEntity
  8
M0
100
AcDbLine
 10
406.870033
 20
968.605882
 11
413.070032
 21
968.605878
  0
ARC
  5
1A3
100
AcDbEntity
  8
M0
100
AcDbCircle
 10
413.070033
 20
969.605878
 40
1.0
100
AcDbArc
 50
270.0
 51
359.999964
  0
LINE
  5
1A4
100
AcDbEntity
  8
M0
100
AcDbLine
 10
414.070033
 20
969.605877
 11
414.070037
 21
977.205876
  0
ARC
  5
1A5
100
AcDbEntity
  8
M0
100
AcDbCircle
 10
413.070037
 20
977.205877
 40
1.0
100
AcDbArc
 50
359.999964
 51
450.0
  0
LINE
  5
1A6
100
AcDbEntity
  8
M0
100
AcDbLine
 10
413.070038
 20
978.205877
 11
406.870039
 21
978.20588
  0
LINE
  5
1A7
100
AcDbEntity
  8
M0
100
AcDbLine
 10
405.870039
 20
977.205881
 11
405.870034
 21
969.605883
  0
ARC
  5
1A8
100
AcDbEntity
  8
M0
100
AcDbCircle
 10
406.870039
 20
977.20588
 40
1.0
100
AcDbArc
 50
90.0
 51
180.000019
  0
LINE
  5
1A9
100
AcDbEntity
  8
M0
100
AcDbLine
 10
411.499733
 20
971.87618
 11
408.367073
 21
975.008844
  0
LINE
  5
1AA
100
AcDbEntity
  8
M0
100
AcDbLine
 10
407.872096
 20
972.297891
 11
411.00476
 21
975.430551
  0
LINE
  5
1AB
100
AcDbEntity
  8
M0
100
AcDbLine
 10
408.862045
 20
971.307941
 11
411.994709
 21
974.440601
  0
LINE
  5
1AC
100
AcDbEntity
  8
M0
  6
DASHDOT
100
AcDbLine
 10
414.470036
 20
973.405879
 11
405.470036
 21
973.405879
  0
LINE
  5
1AD
100
AcDbEntity
  8
M0
  6
DASHDOT
100
AcDbLine
 10
409.970036
 20
968.905879
 11
409.970036
 21
977.905879
  0
LINE
  5
1AE
100
AcDbEntity
  8
M0
 62
     7
100
AcDbLine
 10
409.262929
 20
982.905879
 11
407.166996
 21
985.001812
  0
LINE
  5
1AF
100
AcDbEntity
  8
M0
 62
     7
100
AcDbLine
 10
412.065979
 20
980.102829
 11
409.970036
 21
982.198772
  0
LINE
  5
1B0
100
AcDbEntity
  8
M0
 62
     7
100
AcDbLine
 10
410.677142
 20
982.905879
 11
412.773086
 21
980.809936
  0
LINE
  5
1B1
100
AcDbEntity
  8
M0
 62
     7
100
AcDbLine
 10
407.874103
 20
985.708918
 11
409.970036
 21
983.612986
  0
LINE
  5
1B2
100
AcDbEntity
  8
M0
 62
     7
100
AcDbLine
 10
409.970036
 20
983.612986
 11
411.066086
 21
984.709036
  0
LINE
  5
1B3
100
AcDbEntity
  8
M0
 62
     7
100
AcDbLine
 10
408.166879
 20
981.809829
 11
409.262929
 21
982.905879
  0
LINE
  5
1B4
100
AcDbEntity
  8
M0
 62
     7
100
AcDbLine
 10
409.970036
 20
982.198772
 11
408.873986
 21
981.102722
  0
LINE
  5
1B5
100
AcDbEntity
  8
M0
 62
     7
100
AcDbLine
 10
411.773192
 20
984.001929
 11
410.677142
 21
982.905879
  0
CIRCLE
  5
1B6
100
AcDbEntity
  8
M0
 62
     7
100
AcDbCircle
 10
409.970036
 20
982.905879
 40
3.5
  0
LINE
  5
1B7
100
AcDbEntity
  8
M0
 62
     7
100
AcDbLine
 10
408.873986
 20
981.102722
 11
408.166879
 21
981.809829
  0
LINE
  5
1B8
100
AcDbEntity
  8
M0
 62
     7
100
AcDbLine
 10
411.066086
 20
984.709036
 11
411.773192
 21
984.001929
  0
LINE
  5
1B9
100
AcDbEntity
  8
M0
 62
     7
100
AcDbLine
 10
395.777172
 20
982.905883
 11
397.873106
 21
985.001814
  0
LINE
  5
1BA
100
AcDbEntity
  8
M0
 62
     7
100
AcDbLine
 10
392.97412
 20
980.102835
 11
395.070065
 21
982.198777
  0
LINE
  5
1BB
100
AcDbEntity
  8
M0
 62
     7
100
AcDbLine
 10
394.362958
 20
982.905884
 11
392.267014
 21
980.809943
  0
LINE
  5
1BC
100
AcDbEntity
  8
M0
 62
     7
100
AcDbLine
 10
397.166
 20
985.708922
 11
395.070066
 21
983.612991
  0
LINE
  5
1BD
100
AcDbEntity
  8
M0
 62
     7
100
AcDbLine
 10
395.070066
 20
983.612991
 11
393.974016
 21
984.709041
  0
LINE
  5
1BE
100
AcDbEntity
  8
M0
 62
     7
100
AcDbLine
 10
396.873221
 20
981.809833
 11
395.777172
 21
982.905883
  0
LINE
  5
1BF
100
AcDbEntity
  8
M0
 62
     7
100
AcDbLine
 10
395.070065
 20
982.198777
 11
396.166114
 21
981.102726
  0
LINE
  5
1C0
100
AcDbEntity
  8
M0
 62
     7
100
AcDbLine
 10
393.266909
 20
984.001935
 11
394.362958
 21
982.905884
  0
CIRCLE
  5
1C1
100
AcDbEntity
  8
M0
 62
     7
100
AcDbCircle
 10
395.070065
 20
982.905884
 40
3.5
  0
LINE
  5
1C2
100
AcDbEntity
  8
M0
 62
     7
100
AcDbLine
 10
396.166114
 20
981.102726
 11
396.873221
 21
981.809833
  0
LINE
  5
1C3
100
AcDbEntity
  8
M0
 62
     7
100
AcDbLine
 10
393.974016
 20
984.709041
 11
393.266909
 21
984.001935
  0
CIRCLE
  5
1C4
100
AcDbEntity
  8
M0
100
AcDbCircle
 10
395.070073
 20
995.905884
 40
3.5
  0
ARC
  5
1C5
100
AcDbEntity
  8
M0
100
AcDbCircle
 10
398.170073
 20
992.105885
 40
1.0
100
AcDbArc
 50
-90.0
 51
0.0
  0
LINE
  5
1C6
100
AcDbEntity
  8
M0
100
AcDbLine
 10
398.170073
 20
991.105885
 11
391.970074
 21
991.105885
  0
ARC
  5
1C7
100
AcDbEntity
  8
M0
100
AcDbCircle
 10
391.970074
 20
992.105885
 40
1.0
100
AcDbArc
 50
180.0
 51
270.0
  0
LINE
  5
1C8
100
AcDbEntity
  8
M0
100
AcDbLine
 10
390.970074
 20
992.105885
 11
390.970074
 21
999.705883
  0
ARC
  5
1C9
100
AcDbEntity
  8
M0
100
AcDbCircle
 10
391.970074
 20
999.705883
 40
1.0
100
AcDbArc
 50
90.0
 51
180.0
  0
LINE
  5
1CA
100
AcDbEntity
  8
M0
100
AcDbLine
 10
391.970074
 20
1000.705883
 11
398.170073
 21
1000.705883
  0
LINE
  5
1CB
100
AcDbEntity
  8
M0
100
AcDbLine
 10
399.170073
 20
999.705883
 11
399.170073
 21
992.105885
  0
ARC
  5
1CC
100
AcDbEntity
  8
M0
100
AcDbCircle
 10
398.170073
 20
999.705883
 40
1.0
100
AcDbArc
 50
-5.464157E-005
 51
90.0
  0
LINE
  5
1CD
100
AcDbEntity
  8
M0
100
AcDbLine
 10
393.540375
 20
994.376186
 11
396.673037
 21
997.508847
  0
LINE
  5
1CE
100
AcDbEntity
  8
M0
100
AcDbLine
 10
397.168012
 20
994.797895
 11
394.03535
 21
997.930556
  0
LINE
  5
1CF
100
AcDbEntity
  8
M0
100
AcDbLine
 10
396.178063
 20
993.807945
 11
393.045401
 21
996.940607
  0
LINE
  5
1D0
100
AcDbEntity
  8
M0
  6
DASHDOT
100
AcDbLine
 10
390.570073
 20
995.905887
 11
399.570073
 21
995.905881
  0
LINE
  5
1D1
100
AcDbEntity
  8
M0
  6
DASHDOT
100
AcDbLine
 10
395.070071
 20
991.405884
 11
395.070076
 21
1000.405884
  0
CIRCLE
  5
1D2
100
AcDbEntity
  8
M0
100
AcDbCircle
 10
409.970036
 20
995.905879
 40
3.5
  0
ARC
  5
1D3
100
AcDbEntity
  8
M0
100
AcDbCircle
 10
406.870034
 20
992.105882
 40
1.0
100
AcDbArc
 50
179.999964
 51
270.0
  0
LINE
  5
1D4
100
AcDbEntity
  8
M0
100
AcDbLine
 10
406.870033
 20
991.105882
 11
413.070032
 21
991.105878
  0
ARC
  5
1D5
100
AcDbEntity
  8
M0
100
AcDbCircle
 10
413.070033
 20
992.105878
 40
1.0
100
AcDbArc
 50
270.0
 51
359.999964
  0
LINE
  5
1D6
100
AcDbEntity
  8
M0
100
AcDbLine
 10
414.070033
 20
992.105877
 11
414.070037
 21
999.705876
  0
ARC
  5
1D7
100
AcDbEntity
  8
M0
100
AcDbCircle
 10
413.070037
 20
999.705877
 40
1.0
100
AcDbArc
 50
359.999964
 51
450.0
  0
LINE
  5
1D8
100
AcDbEntity
  8
M0
100
AcDbLine
 10
413.070038
 20
1000.705877
 11
406.870039
 21
1000.70588
  0
LINE
  5
1D9
100
AcDbEntity
  8
M0
100
AcDbLine
 10
405.870039
 20
999.705881
 11
405.870034
 21
992.105883
  0
ARC
  5
1DA
100
AcDbEntity
  8
M0
100
AcDbCircle
 10
406.870039
 20
999.70588
 40
1.0
100
AcDbArc
 50
90.0
 51
180.000019
  0
LINE
  5
1DB
100
AcDbEntity
  8
M0
100
AcDbLine
 10
411.499733
 20
994.37618
 11
408.367073
 21
997.508844
  0
LINE
  5
1DC
100
AcDbEntity
  8
M0
100
AcDbLine
 10
407.872096
 20
994.797891
 11
411.00476
 21
997.930551
  0
LINE
  5
1DD
100
AcDbEntity
  8
M0
100
AcDbLine
 10
408.862045
 20
993.807941
 11
411.994709
 21
996.940601
  0
LINE
  5
1DE
100
AcDbEntity
  8
M0
  6
DASHDOT
100
AcDbLine
 10
414.470036
 20
995.905879
 11
405.470036
 21
995.905879
  0
LINE
  5
1DF
100
AcDbEntity
  8
M0
  6
DASHDOT
100
AcDbLine
 10
409.970036
 20
991.405879
 11
409.970036
 21
1000.405879
  0
CIRCLE
  5
1E0
100
AcDbEntity
  8
M0
100
AcDbCircle
 10
395.070088
 20
1018.905945
 40
3.5
  0
ARC
  5
1E1
100
AcDbEntity
  8
M0
100
AcDbCircle
 10
398.170092
 20
1022.70594
 40
1.0
100
AcDbArc
 50
359.999928
 51
450.0
  0
LINE
  5
1E2
100
AcDbEntity
  8
M0
100
AcDbLine
 10
398.170093
 20
1023.70594
 11
391.970094
 21
1023.705948
  0
ARC
  5
1E3
100
AcDbEntity
  8
M0
100
AcDbCircle
 10
391.970093
 20
1022.705948
 40
1.0
100
AcDbArc
 50
90.0
 51
179.999928
  0
LINE
  5
1E4
100
AcDbEntity
  8
M0
100
AcDbLine
 10
390.970093
 20
1022.705949
 11
390.970084
 21
1015.105951
  0
ARC
  5
1E5
100
AcDbEntity
  8
M0
100
AcDbCircle
 10
391.970084
 20
1015.10595
 40
1.0
100
AcDbArc
 50
179.999928
 51
270.0
  0
LINE
  5
1E6
100
AcDbEntity
  8
M0
100
AcDbLine
 10
391.970082
 20
1014.10595
 11
398.170081
 21
1014.105942
  0
LINE
  5
1E7
100
AcDbEntity
  8
M0
100
AcDbLine
 10
399.170083
 20
1015.105941
 11
399.170092
 21
1022.705939
  0
ARC
  5
1E8
100
AcDbEntity
  8
M0
100
AcDbCircle
 10
398.170083
 20
1015.105942
 40
1.0
100
AcDbArc
 50
270.0
 51
359.999983
  0
LINE
  5
1E9
100
AcDbEntity
  8
M0
100
AcDbLine
 10
393.540391
 20
1020.435645
 11
396.673049
 21
1017.302979
  0
LINE
  5
1EA
100
AcDbEntity
  8
M0
100
AcDbLine
 10
397.168028
 20
1020.013932
 11
394.035362
 21
1016.881274
  0
LINE
  5
1EB
100
AcDbEntity
  8
M0
100
AcDbLine
 10
396.17808
 20
1021.003882
 11
393.045414
 21
1017.871224
  0
LINE
  5
1EC
100
AcDbEntity
  8
M0
  6
DASHDOT
100
AcDbLine
 10
390.570088
 20
1018.905948
 11
399.570088
 21
1018.905942
  0
LINE
  5
1ED
100
AcDbEntity
  8
M0
  6
DASHDOT
100
AcDbLine
 10
395.070091
 20
1023.405945
 11
395.070085
 21
1014.405945
  0
CIRCLE
  5
1EE
100
AcDbEntity
  8
M0
100
AcDbCircle
 10
409.970036
 20
1018.90594
 40
3.5
  0
ARC
  5
1EF
100
AcDbEntity
  8
M0
100
AcDbCircle
 10
406.870034
 20
1022.705938
 40
1.0
100
AcDbArc
 50
90.0
 51
180.000036
  0
LINE
  5
1F0
100
AcDbEntity
  8
M0
100
AcDbLine
 10
406.870033
 20
1023.705938
 11
413.070032
 21
1023.705941
  0
ARC
  5
1F1
100
AcDbEntity
  8
M0
100
AcDbCircle
 10
413.070033
 20
1022.705941
 40
1.0
100
AcDbArc
 50
3.597218E-005
 51
90.0
  0
LINE
  5
1F2
100
AcDbEntity
  8
M0
100
AcDbLine
 10
414.070033
 20
1022.705942
 11
414.070037
 21
1015.105944
  0
ARC
  5
1F3
100
AcDbEntity
  8
M0
100
AcDbCircle
 10
413.070037
 20
1015.105943
 40
1.0
100
AcDbArc
 50
-90.0
 51
3.597218E-005
  0
LINE
  5
1F4
100
AcDbEntity
  8
M0
100
AcDbLine
 10
413.070038
 20
1014.105943
 11
406.870039
 21
1014.105939
  0
LINE
  5
1F5
100
AcDbEntity
  8
M0
100
AcDbLine
 10
405.870039
 20
1015.105938
 11
405.870034
 21
1022.705937
  0
ARC
  5
1F6
100
AcDbEntity
  8
M0
100
AcDbCircle
 10
406.870039
 20
1015.105939
 40
1.0
100
AcDbArc
 50
179.999981
 51
270.0
  0
LINE
  5
1F7
100
AcDbEntity
  8
M0
100
AcDbLine
 10
411.499733
 20
1020.43564
 11
408.367073
 21
1017.302976
  0
LINE
  5
1F8
100
AcDbEntity
  8
M0
100
AcDbLine
 10
407.872096
 20
1020.013928
 11
411.00476
 21
1016.881268
  0
LINE
  5
1F9
100
AcDbEntity
  8
M0
100
AcDbLine
 10
408.862045
 20
1021.003878
 11
411.994709
 21
1017.871218
  0
LINE
  5
1FA
100
AcDbEntity
  8
M0
  6
DASHDOT
100
AcDbLine
 10
414.470036
 20
1018.90594
 11
405.470036
 21
1018.90594
  0
LINE
  5
1FB
100
AcDbEntity
  8
M0
  6
DASHDOT
100
AcDbLine
 10
409.970036
 20
1023.40594
 11
409.970036
 21
1014.40594
  0
LINE
  5
1FC
100
AcDbEntity
  8
M0
 62
     7
100
AcDbLine
 10
409.262929
 20
1031.90594
 11
407.166996
 21
1029.810008
  0
LINE
  5
1FD
100
AcDbEntity
  8
M0
 62
     7
100
AcDbLine
 10
412.065979
 20
1034.70899
 11
409.970036
 21
1032.613047
  0
LINE
  5
1FE
100
AcDbEntity
  8
M0
 62
     7
100
AcDbLine
 10
410.677142
 20
1031.90594
 11
412.773086
 21
1034.001883
  0
LINE
  5
1FF
100
AcDbEntity
  8
M0
 62
     7
100
AcDbLine
 10
407.874103
 20
1029.102901
 11
409.970036
 21
1031.198833
  0
LINE
  5
200
100
AcDbEntity
  8
M0
 62
     7
100
AcDbLine
 10
409.970036
 20
1031.198833
 11
411.066086
 21
1030.102783
  0
LINE
  5
201
100
AcDbEntity
  8
M0
 62
     7
100
AcDbLine
 10
408.166879
 20
1033.00199
 11
409.262929
 21
1031.90594
  0
LINE
  5
202
100
AcDbEntity
  8
M0
 62
     7
100
AcDbLine
 10
409.970036
 20
1032.613047
 11
408.873986
 21
1033.709097
  0
LINE
  5
203
100
AcDbEntity
  8
M0
 62
     7
100
AcDbLine
 10
411.773192
 20
1030.80989
 11
410.677142
 21
1031.90594
  0
CIRCLE
  5
204
100
AcDbEntity
  8
M0
 62
     7
100
AcDbCircle
 10
409.970036
 20
1031.90594
 40
3.5
  0
LINE
  5
205
100
AcDbEntity
  8
M0
 62
     7
100
AcDbLine
 10
408.873986
 20
1033.709097
 11
408.166879
 21
1033.00199
  0
LINE
  5
206
100
AcDbEntity
  8
M0
 62
     7
100
AcDbLine
 10
411.066086
 20
1030.102783
 11
411.773192
 21
1030.80989
  0
LINE
  5
207
100
AcDbEntity
  8
M0
 62
     7
100
AcDbLine
 10
395.777203
 20
1031.905945
 11
397.873134
 21
1029.810011
  0
LINE
  5
208
100
AcDbEntity
  8
M0
 62
     7
100
AcDbLine
 10
392.974154
 20
1034.708996
 11
395.070096
 21
1032.613052
  0
LINE
  5
209
100
AcDbEntity
  8
M0
 62
     7
100
AcDbLine
 10
394.362989
 20
1031.905945
 11
392.267047
 21
1034.00189
  0
LINE
  5
20A
100
AcDbEntity
  8
M0
 62
     7
100
AcDbLine
 10
397.166027
 20
1029.102904
 11
395.070096
 21
1031.198838
  0
LINE
  5
20B
100
AcDbEntity
  8
M0
 62
     7
100
AcDbLine
 10
395.070096
 20
1031.198838
 11
393.974045
 21
1030.102789
  0
LINE
  5
20C
100
AcDbEntity
  8
M0
 62
     7
100
AcDbLine
 10
396.873253
 20
1033.001994
 11
395.777203
 21
1031.905945
  0
LINE
  5
20D
100
AcDbEntity
  8
M0
 62
     7
100
AcDbLine
 10
395.070096
 20
1032.613052
 11
396.166147
 21
1033.709101
  0
LINE
  5
20E
100
AcDbEntity
  8
M0
 62
     7
100
AcDbLine
 10
393.266939
 20
1030.809896
 11
394.362989
 21
1031.905945
  0
CIRCLE
  5
20F
100
AcDbEntity
  8
M0
 62
     7
100
AcDbCircle
 10
395.070096
 20
1031.905945
 40
3.5
  0
LINE
  5
210
100
AcDbEntity
  8
M0
 62
     7
100
AcDbLine
 10
396.166147
 20
1033.709101
 11
396.873253
 21
1033.001994
  0
LINE
  5
211
100
AcDbEntity
  8
M0
 62
     7
100
AcDbLine
 10
393.974045
 20
1030.102789
 11
393.266939
 21
1030.809896
  0
CIRCLE
  5
212
100
AcDbEntity
  8
M0
100
AcDbCircle
 10
395.070102
 20
1041.405945
 40
3.5
  0
ARC
  5
213
100
AcDbEntity
  8
M0
100
AcDbCircle
 10
398.170106
 20
1045.20594
 40
1.0
100
AcDbArc
 50
359.999928
 51
450.0
  0
LINE
  5
214
100
AcDbEntity
  8
M0
100
AcDbLine
 10
398.170107
 20
1046.20594
 11
391.970109
 21
1046.205948
  0
ARC
  5
215
100
AcDbEntity
  8
M0
100
AcDbCircle
 10
391.970107
 20
1045.205948
 40
1.0
100
AcDbArc
 50
90.0
 51
179.999928
  0
LINE
  5
216
100
AcDbEntity
  8
M0
100
AcDbLine
 10
390.970107
 20
1045.205949
 11
390.970098
 21
1037.605951
  0
ARC
  5
217
100
AcDbEntity
  8
M0
100
AcDbCircle
 10
391.970098
 20
1037.60595
 40
1.0
100
AcDbArc
 50
179.999928
 51
270.0
  0
LINE
  5
218
100
AcDbEntity
  8
M0
100
AcDbLine
 10
391.970097
 20
1036.60595
 11
398.170095
 21
1036.605942
  0
LINE
  5
219
100
AcDbEntity
  8
M0
100
AcDbLine
 10
399.170097
 20
1037.605941
 11
399.170106
 21
1045.205939
  0
ARC
  5
21A
100
AcDbEntity
  8
M0
100
AcDbCircle
 10
398.170097
 20
1037.605942
 40
1.0
100
AcDbArc
 50
270.0
 51
359.999983
  0
LINE
  5
21B
100
AcDbEntity
  8
M0
100
AcDbLine
 10
393.540406
 20
1042.935645
 11
396.673063
 21
1039.802979
  0
LINE
  5
21C
100
AcDbEntity
  8
M0
100
AcDbLine
 10
397.168042
 20
1042.513932
 11
394.035376
 21
1039.381274
  0
LINE
  5
21D
100
AcDbEntity
  8
M0
100
AcDbLine
 10
396.178094
 20
1043.503882
 11
393.045428
 21
1040.371224
  0
LINE
  5
21E
100
AcDbEntity
  8
M0
  6
DASHDOT
100
AcDbLine
 10
390.570102
 20
1041.405948
 11
399.570102
 21
1041.405942
  0
LINE
  5
21F
100
AcDbEntity
  8
M0
  6
DASHDOT
100
AcDbLine
 10
395.070105
 20
1045.905945
 11
395.070099
 21
1036.905945
  0
CIRCLE
  5
220
100
AcDbEntity
  8
M0
100
AcDbCircle
 10
409.970036
 20
1041.40594
 40
3.5
  0
ARC
  5
221
100
AcDbEntity
  8
M0
100
AcDbCircle
 10
406.870034
 20
1045.205938
 40
1.0
100
AcDbArc
 50
90.0
 51
180.000036
  0
LINE
  5
222
100
AcDbEntity
  8
M0
100
AcDbLine
 10
406.870033
 20
1046.205938
 11
413.070032
 21
1046.205941
  0
ARC
  5
223
100
AcDbEntity
  8
M0
100
AcDbCircle
 10
413.070033
 20
1045.205941
 40
1.0
100
AcDbArc
 50
3.597217E-005
 51
90.0
  0
LINE
  5
224
100
AcDbEntity
  8
M0
100
AcDbLine
 10
414.070033
 20
1045.205942
 11
414.070037
 21
1037.605944
  0
ARC
  5
225
100
AcDbEntity
  8
M0
100
AcDbCircle
 10
413.070037
 20
1037.605943
 40
1.0
100
AcDbArc
 50
-90.0
 51
3.597218E-005
  0
LINE
  5
226
100
AcDbEntity
  8
M0
100
AcDbLine
 10
413.070038
 20
1036.605943
 11
406.870039
 21
1036.605939
  0
LINE
  5
227
100
AcDbEntity
  8
M0
100
AcDbLine
 10
405.870039
 20
1037.605938
 11
405.870034
 21
1045.205937
  0
ARC
  5
228
100
AcDbEntity
  8
M0
100
AcDbCircle
 10
406.870039
 20
1037.605939
 40
1.0
100
AcDbArc
 50
179.999981
 51
270.0
  0
LINE
  5
229
100
AcDbEntity
  8
M0
100
AcDbLine
 10
411.499733
 20
1042.93564
 11
408.367073
 21
1039.802976
  0
LINE
  5
22A
100
AcDbEntity
  8
M0
100
AcDbLine
 10
407.872096
 20
1042.513928
 11
411.00476
 21
1039.381268
  0
LINE
  5
22B
100
AcDbEntity
  8
M0
100
AcDbLine
 10
408.862045
 20
1043.503878
 11
411.994709
 21
1040.371218
  0
LINE
  5
22C
100
AcDbEntity
  8
M0
  6
DASHDOT
100
AcDbLine
 10
414.470036
 20
1041.40594
 11
405.470036
 21
1041.40594
  0
LINE
  5
22D
100
AcDbEntity
  8
M0
  6
DASHDOT
100
AcDbLine
 10
409.970036
 20
1045.90594
 11
409.970036
 21
1036.90594
  0
LINE
  5
22E
100
AcDbEntity
  8
M0
 62
   114
100
AcDbLine
 10
201.327152
 20
937.40591
 11
203.423084
 21
939.501842
  0
LINE
  5
22F
100
AcDbEntity
  8
M0
 62
   114
100
AcDbLine
 10
198.524101
 20
934.60286
 11
200.620045
 21
936.698803
  0
LINE
  5
230
100
AcDbEntity
  8
M0
 62
   114
100
AcDbLine
 10
199.912938
 20
937.40591
 11
197.816995
 21
935.309967
  0
LINE
  5
231
100
AcDbEntity
  8
M0
 62
   114
100
AcDbLine
 10
202.715977
 20
940.208949
 11
200.620045
 21
938.113017
  0
LINE
  5
232
100
AcDbEntity
  8
M0
 62
   114
100
AcDbLine
 10
200.620045
 20
938.113017
 11
199.523995
 21
939.209067
  0
LINE
  5
233
100
AcDbEntity
  8
M0
 62
   114
100
AcDbLine
 10
202.423202
 20
936.30986
 11
201.327152
 21
937.40591
  0
LINE
  5
234
100
AcDbEntity
  8
M0
 62
   114
100
AcDbLine
 10
200.620045
 20
936.698803
 11
201.716095
 21
935.602753
  0
LINE
  5
235
100
AcDbEntity
  8
M0
 62
   114
100
AcDbLine
 10
198.816888
 20
938.50196
 11
199.912938
 21
937.40591
  0
CIRCLE
  5
236
100
AcDbEntity
  8
M0
 62
   114
100
AcDbCircle
 10
200.620045
 20
937.40591
 40
3.5
  0
LINE
  5
237
100
AcDbEntity
  8
M0
 62
   114
100
AcDbLine
 10
201.716095
 20
935.602753
 11
202.423202
 21
936.30986
  0
LINE
  5
238
100
AcDbEntity
  8
M0
 62
   114
100
AcDbLine
 10
199.523995
 20
939.209067
 11
198.816888
 21
938.50196
  0
CIRCLE
  5
239
100
AcDbEntity
  8
M0
 62
   114
100
AcDbCircle
 10
200.620045
 20
937.40591
 40
4.0
  0
LINE
  5
23A
100
AcDbEntity
  8
M0
 62
   114
100
AcDbLine
 10
198.327152
 20
1077.40591
 11
200.423084
 21
1079.501842
  0
LINE
  5
23B
100
AcDbEntity
  8
M0
 62
   114
100
AcDbLine
 10
195.524101
 20
1074.60286
 11
197.620045
 21
1076.698803
  0
LINE
  5
23C
100
AcDbEntity
  8
M0
 62
   114
100
AcDbLine
 10
196.912938
 20
1077.40591
 11
194.816995
 21
1075.309967
  0
LINE
  5
23D
100
AcDbEntity
  8
M0
 62
   114
100
AcDbLine
 10
199.715977
 20
1080.208949
 11
197.620045
 21
1078.113017
  0
LINE
  5
23E
100
AcDbEntity
  8
M0
 62
   114
100
AcDbLine
 10
197.620045
 20
1078.113017
 11
196.523995
 21
1079.209067
  0
LINE
  5
23F
100
AcDbEntity
  8
M0
 62
   114
100
AcDbLine
 10
199.423202
 20
1076.30986
 11
198.327152
 21
1077.40591
  0
LINE
  5
240
100
AcDbEntity
  8
M0
 62
   114
100
AcDbLine
 10
197.620045
 20
1076.698803
 11
198.716095
 21
1075.602753
  0
LINE
  5
241
100
AcDbEntity
  8
M0
 62
   114
100
AcDbLine
 10
195.816888
 20
1078.50196
 11
196.912938
 21
1077.40591
  0
CIRCLE
  5
242
100
AcDbEntity
  8
M0
 62
   114
100
AcDbCircle
 10
197.620045
 20
1077.40591
 40
3.5
  0
LINE
  5
243
100
AcDbEntity
  8
M0
 62
   114
100
AcDbLine
 10
198.716095
 20
1075.602753
 11
199.423202
 21
1076.30986
  0
LINE
  5
244
100
AcDbEntity
  8
M0
 62
   114
100
AcDbLine
 10
196.523995
 20
1079.209067
 11
195.816888
 21
1078.50196
  0
CIRCLE
  5
245
100
AcDbEntity
  8
M0
 62
   114
100
AcDbCircle
 10
197.620045
 20
1077.40591
 40
4.0
  0
LINE
  5
246
100
AcDbEntity
  8
M0
 62
   114
100
AcDbLine
 10
377.327152
 20
937.40591
 11
379.423084
 21
939.501842
  0
LINE
  5
247
100
AcDbEntity
  8
M0
 62
   114
100
AcDbLine
 10
374.524101
 20
934.60286
 11
376.620045
 21
936.698803
  0
LINE
  5
248
100
AcDbEntity
  8
M0
 62
   114
100
AcDbLine
 10
375.912938
 20
937.40591
 11
373.816995
 21
935.309967
  0
LINE
  5
249
100
AcDbEntity
  8
M0
 62
   114
100
AcDbLine
 10
378.715977
 20
940.208949
 11
376.620045
 21
938.113017
  0
LINE
  5
24A
100
AcDbEntity
  8
M0
 62
   114
100
AcDbLine
 10
376.620045
 20
938.113017
 11
375.523995
 21
939.209067
  0
LINE
  5
24B
100
AcDbEntity
  8
M0
 62
   114
100
AcDbLine
 10
378.423202
 20
936.30986
 11
377.327152
 21
937.40591
  0
LINE
  5
24C
100
AcDbEntity
  8
M0
 62
   114
100
AcDbLine
 10
376.620045
 20
936.698803
 11
377.716095
 21
935.602753
  0
LINE
  5
24D
100
AcDbEntity
  8
M0
 62
   114
100
AcDbLine
 10
374.816888
 20
938.50196
 11
375.912938
 21
937.40591
  0
CIRCLE
  5
24E
100
AcDbEntity
  8
M0
 62
   114
100
AcDbCircle
 10
376.620045
 20
937.40591
 40
3.5
  0
LINE
  5
24F
100
AcDbEntity
  8
M0
 62
   114
100
AcDbLine
 10
377.716095
 20
935.602753
 11
378.423202
 21
936.30986
  0
LINE
  5
250
100
AcDbEntity
  8
M0
 62
   114
100
AcDbLine
 10
375.523995
 20
939.209067
 11
374.816888
 21
938.50196
  0
CIRCLE
  5
251
100
AcDbEntity
  8
M0
 62
   114
100
AcDbCircle
 10
376.620045
 20
937.40591
 40
4.0
  0
LINE
  5
252
100
AcDbEntity
  8
M0
 62
   114
100
AcDbLine
 10
380.327152
 20
1077.40591
 11
382.423084
 21
1079.501842
  0
LINE
  5
253
100
AcDbEntity
  8
M0
 62
   114
100
AcDbLine
 10
377.524101
 20
1074.60286
 11
379.620045
 21
1076.698803
  0
LINE
  5
254
100
AcDbEntity
  8
M0
 62
   114
100
AcDbLine
 10
378.912938
 20
1077.40591
 11
376.816995
 21
1075.309967
  0
LINE
  5
255
100
AcDbEntity
  8
M0
 62
   114
100
AcDbLine
 10
381.715977
 20
1080.208949
 11
379.620045
 21
1078.113017
  0
LINE
  5
256
100
AcDbEntity
  8
M0
 62
   114
100
AcDbLine
 10
379.620045
 20
1078.113017
 11
378.523995
 21
1079.209067
  0
LINE
  5
257
100
AcDbEntity
  8
M0
 62
   114
100
AcDbLine
 10
381.423202
 20
1076.30986
 11
380.327152
 21
1077.40591
  0
LINE
  5
258
100
AcDbEntity
  8
M0
 62
   114
100
AcDbLine
 10
379.620045
 20
1076.698803
 11
380.716095
 21
1075.602753
  0
LINE
  5
259
100
AcDbEntity
  8
M0
 62
   114
100
AcDbLine
 10
377.816888
 20
1078.50196
 11
378.912938
 21
1077.40591
  0
CIRCLE
  5
25A
100
AcDbEntity
  8
M0
 62
   114
100
AcDbCircle
 10
379.620045
 20
1077.40591
 40
3.5
  0
LINE
  5
25B
100
AcDbEntity
  8
M0
 62
   114
100
AcDbLine
 10
380.716095
 20
1075.602753
 11
381.423202
 21
1076.30986
  0
LINE
  5
25C
100
AcDbEntity
  8
M0
 62
   114
100
AcDbLine
 10
378.523995
 20
1079.209067
 11
377.816888
 21
1078.50196
  0
CIRCLE
  5
25D
100
AcDbEntity
  8
M0
 62
   114
100
AcDbCircle
 10
379.620045
 20
1077.40591
 40
4.0
  0
LINE
  5
25E
100
AcDbEntity
  8
M0
 62
     6
100
AcDbLine
 10
358.620045
 20
854.455928
 11
349.137135
 21
859.930934
  0
LINE
  5
25F
100
AcDbEntity
  8
M0
 62
     6
100
AcDbLine
 10
349.137135
 20
859.930934
 11
349.137135
 21
870.880916
  0
LINE
  5
260
100
AcDbEntity
  8
M0
 62
     6
100
AcDbLine
 10
349.137135
 20
870.880916
 11
358.620045
 21
876.355922
  0
LINE
  5
261
100
AcDbEntity
  8
M0
 62
     6
100
AcDbLine
 10
358.620045
 20
876.355922
 11
368.103199
 21
870.880916
  0
LINE
  5
262
100
AcDbEntity
  8
M0
 62
     6
100
AcDbLine
 10
368.103199
 20
870.880916
 11
368.103199
 21
859.930904
  0
LINE
  5
263
100
AcDbEntity
  8
M0
 62
     6
100
AcDbLine
 10
368.103199
 20
859.930904
 11
358.620045
 21
854.455928
  0
CIRCLE
  5
264
100
AcDbEntity
  8
M0
 62
     6
100
AcDbCircle
 10
358.620045
 20
865.40591
 40
6.0
  0
CIRCLE
  5
265
100
AcDbEntity
  8
M0
 62
     7
100
AcDbCircle
 10
358.620045
 20
865.405975
 40
10.75
  0
CIRCLE
  5
266
100
AcDbEntity
  8
M0
 62
     2
100
AcDbCircle
 10
358.620045
 20
865.405975
 40
13.0
  0
LINE
  5
267
100
AcDbEntity
  8
M0
 62
     6
100
AcDbLine
 10
288.620045
 20
854.455863
 11
279.137135
 21
859.930869
  0
LINE
  5
268
100
AcDbEntity
  8
M0
 62
     6
100
AcDbLine
 10
279.137135
 20
859.930869
 11
279.137135
 21
870.880851
  0
LINE
  5
269
100
AcDbEntity
  8
M0
 62
     6
100
AcDbLine
 10
279.137135
 20
870.880851
 11
288.620045
 21
876.355857
  0
LINE
  5
26A
100
AcDbEntity
  8
M0
 62
     6
100
AcDbLine
 10
288.620045
 20
876.355857
 11
298.103199
 21
870.880851
  0
LINE
  5
26B
100
AcDbEntity
  8
M0
 62
     6
100
AcDbLine
 10
298.103199
 20
870.880851
 11
298.103199
 21
859.930839
  0
LINE
  5
26C
100
AcDbEntity
  8
M0
 62
     6
100
AcDbLine
 10
298.103199
 20
859.930839
 11
288.620045
 21
854.455863
  0
CIRCLE
  5
26D
100
AcDbEntity
  8
M0
 62
     6
100
AcDbCircle
 10
288.620045
 20
865.405845
 40
6.0
  0
CIRCLE
  5
26E
100
AcDbEntity
  8
M0
 62
     7
100
AcDbCircle
 10
288.620045
 20
865.40591
 40
10.75
  0
CIRCLE
  5
26F
100
AcDbEntity
  8
M0
 62
     2
100
AcDbCircle
 10
288.620045
 20
865.40591
 40
13.0
  0
LINE
  5
270
100
AcDbEntity
  8
M0
 62
     6
100
AcDbLine
 10
218.620045
 20
854.455863
 11
209.137135
 21
859.930869
  0
LINE
  5
271
100
AcDbEntity
  8
M0
 62
     6
100
AcDbLine
 10
209.137135
 20
859.930869
 11
209.137135
 21
870.880851
  0
LINE
  5
272
100
AcDbEntity
  8
M0
 62
     6
100
AcDbLine
 10
209.137135
 20
870.880851
 11
218.620045
 21
876.355857
  0
LINE
  5
273
100
AcDbEntity
  8
M0
 62
     6
100
AcDbLine
 10
218.620045
 20
876.355857
 11
228.103199
 21
870.880851
  0
LINE
  5
274
100
AcDbEntity
  8
M0
 62
     6
100
AcDbLine
 10
228.103199
 20
870.880851
 11
228.103199
 21
859.930839
  0
LINE
  5
275
100
AcDbEntity
  8
M0
 62
     6
100
AcDbLine
 10
228.103199
 20
859.930839
 11
218.620045
 21
854.455863
  0
CIRCLE
  5
276
100
AcDbEntity
  8
M0
 62
     6
100
AcDbCircle
 10
218.620045
 20
865.405845
 40
6.0
  0
CIRCLE
  5
277
100
AcDbEntity
  8
M0
 62
     7
100
AcDbCircle
 10
218.620045
 20
865.40591
 40
10.75
  0
CIRCLE
  5
278
100
AcDbEntity
  8
M0
 62
     2
100
AcDbCircle
 10
218.620045
 20
865.40591
 40
13.0
  0
LINE
  5
279
100
AcDbEntity
  8
M0
 62
     6
100
AcDbLine
 10
358.619981
 20
1138.455863
 11
349.137071
 21
1143.930869
  0
LINE
  5
27A
100
AcDbEntity
  8
M0
 62
     6
100
AcDbLine
 10
349.137071
 20
1143.930869
 11
349.137071
 21
1154.880851
  0
LINE
  5
27B
100
AcDbEntity
  8
M0
 62
     6
100
AcDbLine
 10
349.137071
 20
1154.880851
 11
358.619981
 21
1160.355857
  0
LINE
  5
27C
100
AcDbEntity
  8
M0
 62
     6
100
AcDbLine
 10
358.619981
 20
1160.355857
 11
368.103135
 21
1154.880851
  0
LINE
  5
27D
100
AcDbEntity
  8
M0
 62
     6
100
AcDbLine
 10
368.103135
 20
1154.880851
 11
368.103135
 21
1143.930839
  0
LINE
  5
27E
100
AcDbEntity
  8
M0
 62
     6
100
AcDbLine
 10
368.103135
 20
1143.930839
 11
358.619981
 21
1138.455863
  0
CIRCLE
  5
27F
100
AcDbEntity
  8
M0
 62
     6
100
AcDbCircle
 10
358.619981
 20
1149.405845
 40
6.0
  0
CIRCLE
  5
280
100
AcDbEntity
  8
M0
 62
     7
100
AcDbCircle
 10
358.619981
 20
1149.40591
 40
10.75
  0
CIRCLE
  5
281
100
AcDbEntity
  8
M0
 62
     2
100
AcDbCircle
 10
358.619981
 20
1149.40591
 40
13.0
  0
LINE
  5
282
100
AcDbEntity
  8
M0
 62
     6
100
AcDbLine
 10
288.619981
 20
1138.455863
 11
279.137071
 21
1143.930869
  0
LINE
  5
283
100
AcDbEntity
  8
M0
 62
     6
100
AcDbLine
 10
279.137071
 20
1143.930869
 11
279.137071
 21
1154.880851
  0
LINE
  5
284
100
AcDbEntity
  8
M0
 62
     6
100
AcDbLine
 10
279.137071
 20
1154.880851
 11
288.619981
 21
1160.355857
  0
LINE
  5
285
100
AcDbEntity
  8
M0
 62
     6
100
AcDbLine
 10
288.619981
 20
1160.355857
 11
298.103135
 21
1154.880851
  0
LINE
  5
286
100
AcDbEntity
  8
M0
 62
     6
100
AcDbLine
 10
298.103135
 20
1154.880851
 11
298.103135
 21
1143.930839
  0
LINE
  5
287
100
AcDbEntity
  8
M0
 62
     6
100
AcDbLine
 10
298.103135
 20
1143.930839
 11
288.619981
 21
1138.455863
  0
CIRCLE
  5
288
100
AcDbEntity
  8
M0
 62
     6
100
AcDbCircle
 10
288.619981
 20
1149.405845
 40
6.0
  0
CIRCLE
  5
289
100
AcDbEntity
  8
M0
 62
     7
100
AcDbCircle
 10
288.619981
 20
1149.40591
 40
10.75
  0
CIRCLE
  5
28A
100
AcDbEntity
  8
M0
 62
     2
100
AcDbCircle
 10
288.619981
 20
1149.40591
 40
13.0
  0
LINE
  5
28B
100
AcDbEntity
  8
M0
 62
     6
100
AcDbLine
 10
218.619981
 20
1138.455863
 11
209.137071
 21
1143.930869
  0
LINE
  5
28C
100
AcDbEntity
  8
M0
 62
     6
100
AcDbLine
 10
209.137071
 20
1143.930869
 11
209.137071
 21
1154.880851
  0
LINE
  5
28D
100
AcDbEntity
  8
M0
 62
     6
100
AcDbLine
 10
209.137071
 20
1154.880851
 11
218.619981
 21
1160.355857
  0
LINE
  5
28E
100
AcDbEntity
  8
M0
 62
     6
100
AcDbLine
 10
218.619981
 20
1160.355857
 11
228.103135
 21
1154.880851
  0
LINE
  5
28F
100
AcDbEntity
  8
M0
 62
     6
100
AcDbLine
 10
228.103135
 20
1154.880851
 11
228.103135
 21
1143.930839
  0
LINE
  5
290
100
AcDbEntity
  8
M0
 62
     6
100
AcDbLine
 10
228.103135
 20
1143.930839
 11
218.619981
 21
1138.455863
  0
CIRCLE
  5
291
100
AcDbEntity
  8
M0
 62
     6
100
AcDbCircle
 10
218.619981
 20
1149.405845
 40
6.0
  0
CIRCLE
  5
292
100
AcDbEntity
  8
M0
 62
     7
100
AcDbCircle
 10
218.619981
 20
1149.40591
 40
10.75
  0
CIRCLE
  5
293
100
AcDbEntity
  8
M0
 62
     2
100
AcDbCircle
 10
218.619981
 20
1149.40591
 40
13.0
  0
LINE
  5
294
100
AcDbEntity
  8
M0
100
AcDbLine
 10
408.619711
 20
1102.40591
 11
408.619711
 21
1103.80591
  0
LINE
  5
295
100
AcDbEntity
  8
M0
100
AcDbLine
 10
408.619711
 20
1103.80591
 11
363.62001
 21
1103.80591
  0
LINE
  5
296
100
AcDbEntity
  8
M0
100
AcDbLine
 10
168.619711
 20
1103.80591
 11
168.619711
 21
1102.40591
  0
LINE
  5
297
100
AcDbEntity
  8
M0
100
AcDbLine
 10
202.51748
 20
1099.30591
 11
213.620013
 21
1099.30591
  0
LINE
  5
298
100
AcDbEntity
  8
M0
100
AcDbLine
 10
213.62001
 20
1103.80591
 11
168.619711
 21
1103.80591
  0
LINE
  5
299
100
AcDbEntity
  8
M0
100
AcDbLine
 10
243.620013
 20
1099.30591
 11
249.619768
 21
1099.30591
  0
LINE
  5
29A
100
AcDbEntity
  8
M0
100
AcDbLine
 10
273.62001
 20
1103.80591
 11
262.619766
 21
1103.80591
  0
LINE
  5
29B
100
AcDbEntity
  8
M0
100
AcDbLine
 10
303.620013
 20
1099.30591
 11
314.215869
 21
1099.30591
  0
LINE
  5
29C
100
AcDbEntity
  8
M0
100
AcDbLine
 10
263.024221
 20
1099.30591
 11
273.620013
 21
1099.30591
  0
LINE
  5
29D
100
AcDbEntity
  8
M0
100
AcDbLine
 10
249.619766
 20
1103.80591
 11
243.62001
 21
1103.80591
  0
LINE
  5
29E
100
AcDbEntity
  8
M0
100
AcDbLine
 10
314.619766
 20
1103.80591
 11
303.62001
 21
1103.80591
  0
LINE
  5
29F
100
AcDbEntity
  8
M0
100
AcDbLine
 10
327.619768
 20
1099.30591
 11
333.620013
 21
1099.30591
  0
LINE
  5
2A0
100
AcDbEntity
  8
M0
100
AcDbLine
 10
333.62001
 20
1103.80591
 11
327.619766
 21
1103.80591
  0
LINE
  5
2A1
100
AcDbEntity
  8
M0
100
AcDbLine
 10
363.620013
 20
1099.30591
 11
374.715869
 21
1099.30591
  0
LINE
  5
2A2
100
AcDbEntity
  8
M0
 62
     7
100
AcDbLine
 10
199.619711
 20
1106.405901
 11
199.619711
 21
1110.405901
  0
LINE
  5
2A3
100
AcDbEntity
  8
M0
 62
     7
100
AcDbLine
 10
199.619711
 20
1110.405901
 11
171.619711
 21
1110.405901
  0
LINE
  5
2A4
100
AcDbEntity
  8
M0
 62
     7
100
AcDbLine
 10
171.619711
 20
1110.405901
 11
171.619711
 21
1106.405901
  0
LINE
  5
2A5
100
AcDbEntity
  8
M0
 62
     7
100
AcDbLine
 10
171.619711
 20
1106.405901
 11
199.619711
 21
1106.405901
  0
LINE
  5
2A6
100
AcDbEntity
  8
M0
 62
     7
100
AcDbLine
 10
185.619726
 20
1106.405901
 11
187.929129
 21
1110.405901
  0
LINE
  5
2A7
100
AcDbEntity
  8
M0
 62
     7
100
AcDbLine
 10
183.310324
 20
1106.405901
 11
185.619726
 21
1110.405901
  0
LINE
  5
2A8
100
AcDbEntity
  8
M0
 62
     2
100
AcDbLine
 10
201.619711
 20
1103.80591
 11
201.619711
 21
1106.405901
  0
LINE
  5
2A9
100
AcDbEntity
  8
M0
 62
     2
100
AcDbLine
 10
201.619711
 20
1106.405901
 11
169.619711
 21
1106.405901
  0
LINE
  5
2AA
100
AcDbEntity
  8
M0
 62
     2
100
AcDbLine
 10
169.619711
 20
1106.405901
 11
169.619711
 21
1103.80591
  0
LINE
  5
2AB
100
AcDbEntity
  8
M0
 62
     2
100
AcDbLine
 10
169.619711
 20
1103.80591
 11
201.619711
 21
1103.80591
  0
LINE
  5
2AC
100
AcDbEntity
  8
M0
100
AcDbLine
 10
173.619711
 20
1120.405901
 11
173.619711
 21
1110.405901
  0
LINE
  5
2AD
100
AcDbEntity
  8
M0
100
AcDbLine
 10
173.619711
 20
1120.405901
 11
197.619802
 21
1120.405901
  0
LINE
  5
2AE
100
AcDbEntity
  8
M0
100
AcDbLine
 10
185.619763
 20
1110.405901
 11
185.619757
 21
1120.405901
  0
LINE
  5
2AF
100
AcDbEntity
  8
M0
100
AcDbLine
 10
197.619802
 20
1120.405916
 11
197.619815
 21
1110.405916
  0
LINE
  5
2B0
100
AcDbEntity
  8
M0
100
AcDbLine
 10
403.619799
 20
1120.406045
 11
403.619812
 21
1110.406045
  0
LINE
  5
2B1
100
AcDbEntity
  8
M0
100
AcDbLine
 10
403.619799
 20
1120.406045
 11
379.619708
 21
1120.406015
  0
LINE
  5
2B2
100
AcDbEntity
  8
M0
100
AcDbLine
 10
391.61976
 20
1110.40603
 11
391.619754
 21
1120.40603
  0
LINE
  5
2B3
100
AcDbEntity
  8
M0
100
AcDbLine
 10
379.619708
 20
1120.40603
 11
379.619708
 21
1110.40603
  0
LINE
  5
2B4
100
AcDbEntity
  8
M0
 62
     7
100
AcDbLine
 10
377.619817
 20
1106.406012
 11
377.619812
 21
1110.406012
  0
LINE
  5
2B5
100
AcDbEntity
  8
M0
 62
     7
100
AcDbLine
 10
377.619812
 20
1110.406012
 11
405.619812
 21
1110.406047
  0
LINE
  5
2B6
100
AcDbEntity
  8
M0
 62
     7
100
AcDbLine
 10
405.619812
 20
1110.406047
 11
405.619817
 21
1106.406047
  0
LINE
  5
2B7
100
AcDbEntity
  8
M0
 62
     7
100
AcDbLine
 10
405.619817
 20
1106.406047
 11
377.619817
 21
1106.406012
  0
LINE
  5
2B8
100
AcDbEntity
  8
M0
 62
     7
100
AcDbLine
 10
391.619801
 20
1106.40603
 11
389.310394
 21
1110.406027
  0
LINE
  5
2B9
100
AcDbEntity
  8
M0
 62
     7
100
AcDbLine
 10
393.929204
 20
1106.406033
 11
391.619796
 21
1110.40603
  0
LINE
  5
2BA
100
AcDbEntity
  8
M0
 62
     2
100
AcDbLine
 10
375.61982
 20
1103.806019
 11
375.619817
 21
1106.40601
  0
LINE
  5
2BB
100
AcDbEntity
  8
M0
 62
     2
100
AcDbLine
 10
375.619817
 20
1106.40601
 11
407.619817
 21
1106.40605
  0
LINE
  5
2BC
100
AcDbEntity
  8
M0
 62
     2
100
AcDbLine
 10
407.619817
 20
1106.40605
 11
407.61982
 21
1103.806059
  0
LINE
  5
2BD
100
AcDbEntity
  8
M0
 62
     2
100
AcDbLine
 10
407.61982
 20
1103.806059
 11
375.61982
 21
1103.806019
  0
LINE
  5
2BE
100
AcDbEntity
  8
M0
 62
    74
100
AcDbLine
 10
172.620045
 20
951.40591
 11
163.620045
 21
951.40591
  0
LINE
  5
2BF
100
AcDbEntity
  8
M0
 62
    74
100
AcDbLine
 10
172.420045
 20
922.40591
 11
163.820045
 21
922.40591
  0
LINE
  5
2C0
100
AcDbEntity
  8
M0
 62
    74
100
AcDbLine
 10
165.620045
 20
913.40591
 11
165.620045
 21
911.40591
  0
LINE
  5
2C1
100
AcDbEntity
  8
M0
 62
    74
100
AcDbLine
 10
170.620045
 20
913.40591
 11
170.620045
 21
911.40591
  0
LINE
  5
2C2
100
AcDbEntity
  8
M0
 62
    74
100
AcDbLine
 10
163.820045
 20
927.40591
 11
163.820045
 21
911.40591
  0
LINE
  5
2C3
100
AcDbEntity
  8
M0
 62
    74
100
AcDbLine
 10
172.420045
 20
927.40591
 11
172.420045
 21
911.40591
  0
LINE
  5
2C4
100
AcDbEntity
  8
M0
 62
    74
100
AcDbLine
 10
163.620045
 20
951.40591
 11
163.620045
 21
927.40591
  0
LINE
  5
2C5
100
AcDbEntity
  8
M0
 62
    74
100
AcDbLine
 10
172.620045
 20
927.40591
 11
172.620045
 21
951.40591
  0
LINE
  5
2C6
100
AcDbEntity
  8
M0
 62
    74
100
AcDbLine
 10
170.620045
 20
913.40591
 11
165.620045
 21
913.40591
  0
LINE
  5
2C7
100
AcDbEntity
  8
M0
 62
    74
100
AcDbLine
 10
170.620045
 20
911.40591
 11
172.420045
 21
911.40591
  0
LINE
  5
2C8
100
AcDbEntity
  8
M0
 62
    74
100
AcDbLine
 10
163.820045
 20
911.40591
 11
165.620045
 21
911.40591
  0
LINE
  5
2C9
100
AcDbEntity
  8
M0
 62
    74
100
AcDbLine
 10
172.620045
 20
927.40591
 11
172.420045
 21
927.40591
  0
LINE
  5
2CA
100
AcDbEntity
  8
M0
 62
    74
100
AcDbLine
 10
163.820045
 20
927.40591
 11
163.620045
 21
927.40591
  0
CIRCLE
  5
2CB
100
AcDbEntity
  8
M0
 62
    74
100
AcDbCircle
 10
168.120045
 20
938.40591
 40
2.0
  0
LINE
  5
2CC
100
AcDbEntity
  8
M0
 62
    74
100
AcDbLine
 10
393.620045
 20
951.40591
 11
384.620045
 21
951.40591
  0
LINE
  5
2CD
100
AcDbEntity
  8
M0
 62
    74
100
AcDbLine
 10
393.420045
 20
922.40591
 11
384.820045
 21
922.40591
  0
LINE
  5
2CE
100
AcDbEntity
  8
M0
 62
    74
100
AcDbLine
 10
386.620045
 20
913.40591
 11
386.620045
 21
911.40591
  0
LINE
  5
2CF
100
AcDbEntity
  8
M0
 62
    74
100
AcDbLine
 10
391.620045
 20
913.40591
 11
391.620045
 21
911.40591
  0
LINE
  5
2D0
100
AcDbEntity
  8
M0
 62
    74
100
AcDbLine
 10
384.820045
 20
927.40591
 11
384.820045
 21
911.40591
  0
LINE
  5
2D1
100
AcDbEntity
  8
M0
 62
    74
100
AcDbLine
 10
393.420045
 20
927.40591
 11
393.420045
 21
911.40591
  0
LINE
  5
2D2
100
AcDbEntity
  8
M0
 62
    74
100
AcDbLine
 10
384.620045
 20
951.40591
 11
384.620045
 21
927.40591
  0
LINE
  5
2D3
100
AcDbEntity
  8
M0
 62
    74
100
AcDbLine
 10
393.620045
 20
927.40591
 11
393.620045
 21
951.40591
  0
LINE
  5
2D4
100
AcDbEntity
  8
M0
 62
    74
100
AcDbLine
 10
391.620045
 20
913.40591
 11
386.620045
 21
913.40591
  0
LINE
  5
2D5
100
AcDbEntity
  8
M0
 62
    74
100
AcDbLine
 10
391.620045
 20
911.40591
 11
393.420045
 21
911.40591
  0
LINE
  5
2D6
100
AcDbEntity
  8
M0
 62
    74
100
AcDbLine
 10
384.820045
 20
911.40591
 11
386.620045
 21
911.40591
  0
LINE
  5
2D7
100
AcDbEntity
  8
M0
 62
    74
100
AcDbLine
 10
393.620045
 20
927.40591
 11
393.420045
 21
927.40591
  0
LINE
  5
2D8
100
AcDbEntity
  8
M0
 62
    74
100
AcDbLine
 10
384.820045
 20
927.40591
 11
384.620045
 21
927.40591
  0
CIRCLE
  5
2D9
100
AcDbEntity
  8
M0
 62
    74
100
AcDbCircle
 10
389.120045
 20
938.40591
 40
2.0
  0
LINE
  5
2DA
100
AcDbEntity
  8
M0
 62
    74
100
AcDbLine
 10
192.620045
 20
951.40591
 11
183.620045
 21
951.40591
  0
LINE
  5
2DB
100
AcDbEntity
  8
M0
 62
    74
100
AcDbLine
 10
192.420045
 20
922.40591
 11
183.820045
 21
922.40591
  0
LINE
  5
2DC
100
AcDbEntity
  8
M0
 62
    74
100
AcDbLine
 10
185.620045
 20
913.40591
 11
185.620045
 21
911.40591
  0
LINE
  5
2DD
100
AcDbEntity
  8
M0
 62
    74
100
AcDbLine
 10
190.620045
 20
913.40591
 11
190.620045
 21
911.40591
  0
LINE
  5
2DE
100
AcDbEntity
  8
M0
 62
    74
100
AcDbLine
 10
183.820045
 20
927.40591
 11
183.820045
 21
911.40591
  0
LINE
  5
2DF
100
AcDbEntity
  8
M0
 62
    74
100
AcDbLine
 10
192.420045
 20
927.40591
 11
192.420045
 21
911.40591
  0
LINE
  5
2E0
100
AcDbEntity
  8
M0
 62
    74
100
AcDbLine
 10
183.620045
 20
951.40591
 11
183.620045
 21
927.40591
  0
LINE
  5
2E1
100
AcDbEntity
  8
M0
 62
    74
100
AcDbLine
 10
192.620045
 20
927.40591
 11
192.620045
 21
951.40591
  0
LINE
  5
2E2
100
AcDbEntity
  8
M0
 62
    74
100
AcDbLine
 10
190.620045
 20
913.40591
 11
185.620045
 21
913.40591
  0
LINE
  5
2E3
100
AcDbEntity
  8
M0
 62
    74
100
AcDbLine
 10
190.620045
 20
911.40591
 11
192.420045
 21
911.40591
  0
LINE
  5
2E4
100
AcDbEntity
  8
M0
 62
    74
100
AcDbLine
 10
183.820045
 20
911.40591
 11
185.620045
 21
911.40591
  0
LINE
  5
2E5
100
AcDbEntity
  8
M0
 62
    74
100
AcDbLine
 10
192.620045
 20
927.40591
 11
192.420045
 21
927.40591
  0
LINE
  5
2E6
100
AcDbEntity
  8
M0
 62
    74
100
AcDbLine
 10
183.820045
 20
927.40591
 11
183.620045
 21
927.40591
  0
CIRCLE
  5
2E7
100
AcDbEntity
  8
M0
 62
    74
100
AcDbCircle
 10
188.120045
 20
938.40591
 40
2.0
  0
LINE
  5
2E8
100
AcDbEntity
  8
M0
 62
   114
100
AcDbLine
 10
168.827152
 20
917.40591
 11
170.923084
 21
919.501842
  0
LINE
  5
2E9
100
AcDbEntity
  8
M0
 62
   114
100
AcDbLine
 10
166.024101
 20
914.60286
 11
168.120045
 21
916.698803
  0
LINE
  5
2EA
100
AcDbEntity
  8
M0
 62
   114
100
AcDbLine
 10
167.412938
 20
917.40591
 11
165.316995
 21
915.309967
  0
LINE
  5
2EB
100
AcDbEntity
  8
M0
 62
   114
100
AcDbLine
 10
170.215977
 20
920.208949
 11
168.120045
 21
918.113017
  0
LINE
  5
2EC
100
AcDbEntity
  8
M0
 62
   114
100
AcDbLine
 10
168.120045
 20
918.113017
 11
167.023995
 21
919.209067
  0
LINE
  5
2ED
100
AcDbEntity
  8
M0
 62
   114
100
AcDbLine
 10
169.923202
 20
916.30986
 11
168.827152
 21
917.40591
  0
LINE
  5
2EE
100
AcDbEntity
  8
M0
 62
   114
100
AcDbLine
 10
168.120045
 20
916.698803
 11
169.216095
 21
915.602753
  0
LINE
  5
2EF
100
AcDbEntity
  8
M0
 62
   114
100
AcDbLine
 10
166.316888
 20
918.50196
 11
167.412938
 21
917.40591
  0
CIRCLE
  5
2F0
100
AcDbEntity
  8
M0
 62
   114
100
AcDbCircle
 10
168.120045
 20
917.40591
 40
3.5
  0
LINE
  5
2F1
100
AcDbEntity
  8
M0
 62
   114
100
AcDbLine
 10
169.216095
 20
915.602753
 11
169.923202
 21
916.30986
  0
LINE
  5
2F2
100
AcDbEntity
  8
M0
 62
   114
100
AcDbLine
 10
167.023995
 20
919.209067
 11
166.316888
 21
918.50196
  0
LINE
  5
2F3
100
AcDbEntity
  8
M0
 62
   114
100
AcDbLine
 10
188.827152
 20
917.40591
 11
190.923084
 21
919.501842
  0
LINE
  5
2F4
100
AcDbEntity
  8
M0
 62
   114
100
AcDbLine
 10
186.024101
 20
914.60286
 11
188.120045
 21
916.698803
  0
LINE
  5
2F5
100
AcDbEntity
  8
M0
 62
   114
100
AcDbLine
 10
187.412938
 20
917.40591
 11
185.316995
 21
915.309967
  0
LINE
  5
2F6
100
AcDbEntity
  8
M0
 62
   114
100
AcDbLine
 10
190.215977
 20
920.208949
 11
188.120045
 21
918.113017
  0
LINE
  5
2F7
100
AcDbEntity
  8
M0
 62
   114
100
AcDbLine
 10
188.120045
 20
918.113017
 11
187.023995
 21
919.209067
  0
LINE
  5
2F8
100
AcDbEntity
  8
M0
 62
   114
100
AcDbLine
 10
189.923202
 20
916.30986
 11
188.827152
 21
917.40591
  0
LINE
  5
2F9
100
AcDbEntity
  8
M0
 62
   114
100
AcDbLine
 10
188.120045
 20
916.698803
 11
189.216095
 21
915.602753
  0
LINE
  5
2FA
100
AcDbEntity
  8
M0
 62
   114
100
AcDbLine
 10
186.316888
 20
918.50196
 11
187.412938
 21
917.40591
  0
CIRCLE
  5
2FB
100
AcDbEntity
  8
M0
 62
   114
100
AcDbCircle
 10
188.120045
 20
917.40591
 40
3.5
  0
LINE
  5
2FC
100
AcDbEntity
  8
M0
 62
   114
100
AcDbLine
 10
189.216095
 20
915.602753
 11
189.923202
 21
916.30986
  0
LINE
  5
2FD
100
AcDbEntity
  8
M0
 62
   114
100
AcDbLine
 10
187.023995
 20
919.209067
 11
186.316888
 21
918.50196
  0
LINE
  5
2FE
100
AcDbEntity
  8
M0
 62
   114
100
AcDbLine
 10
389.827152
 20
917.40591
 11
391.923084
 21
919.501842
  0
LINE
  5
2FF
100
AcDbEntity
  8
M0
 62
   114
100
AcDbLine
 10
387.024101
 20
914.60286
 11
389.120045
 21
916.698803
  0
LINE
  5
300
100
AcDbEntity
  8
M0
 62
   114
100
AcDbLine
 10
388.412938
 20
917.40591
 11
386.316995
 21
915.309967
  0
LINE
  5
301
100
AcDbEntity
  8
M0
 62
   114
100
AcDbLine
 10
391.215977
 20
920.208949
 11
389.120045
 21
918.113017
  0
LINE
  5
302
100
AcDbEntity
  8
M0
 62
   114
100
AcDbLine
 10
389.120045
 20
918.113017
 11
388.023995
 21
919.209067
  0
LINE
  5
303
100
AcDbEntity
  8
M0
 62
   114
100
AcDbLine
 10
390.923202
 20
916.30986
 11
389.827152
 21
917.40591
  0
LINE
  5
304
100
AcDbEntity
  8
M0
 62
   114
100
AcDbLine
 10
389.120045
 20
916.698803
 11
390.216095
 21
915.602753
  0
LINE
  5
305
100
AcDbEntity
  8
M0
 62
   114
100
AcDbLine
 10
387.316888
 20
918.50196
 11
388.412938
 21
917.40591
  0
CIRCLE
  5
306
100
AcDbEntity
  8
M0
 62
   114
100
AcDbCircle
 10
389.120045
 20
917.40591
 40
3.5
  0
LINE
  5
307
100
AcDbEntity
  8
M0
 62
   114
100
AcDbLine
 10
390.216095
 20
915.602753
 11
390.923202
 21
916.30986
  0
LINE
  5
308
100
AcDbEntity
  8
M0
 62
   114
100
AcDbLine
 10
388.023995
 20
919.209067
 11
387.316888
 21
918.50196
  0
LINE
  5
309
100
AcDbEntity
  8
M0
 62
     6
100
AcDbLine
 10
336.727182
 20
886.705925
 11
306.727182
 21
886.705925
  0
LINE
  5
30A
100
AcDbEntity
  8
M0
 62
     6
100
AcDbLine
 10
240.512907
 20
886.705925
 11
270.512907
 21
886.705925
  0
ARC
  5
30B
100
AcDbEntity
  8
M0
 62
     6
100
AcDbCircle
 10
318.620045
 20
898.205925
 40
5.75
100
AcDbArc
 50
134.083159
 51
361.993147
  0
LINE
  5
30C
100
AcDbEntity
  8
M0
 62
     2
100
AcDbLine
 10
388.159168
 20
931.366756
 11
390.004017
 21
929.521922
  0
LINE
  5
30D
100
AcDbEntity
  8
M0
 62
     2
100
AcDbLine
 10
390.130894
 20
932.123866
 11
387.555821
 21
929.548793
  0
LINE
  5
30E
100
AcDbEntity
  8
M0
 62
     2
100
AcDbLine
 10
390.838001
 20
931.416759
 11
388.262928
 21
928.841685
  0
LINE
  5
30F
100
AcDbEntity
  8
M0
 62
     2
100
AcDbLine
 10
386.020039
 20
925.605907
 11
392.220036
 21
925.605907
  0
LINE
  5
310
100
AcDbEntity
  8
M0
 62
     2
100
AcDbLine
 10
393.220036
 20
926.605891
 11
393.220036
 21
934.205867
  0
LINE
  5
311
100
AcDbEntity
  8
M0
 62
     2
100
AcDbLine
 10
385.020039
 20
934.205882
 11
385.020039
 21
926.605907
  0
CIRCLE
  5
312
100
AcDbEntity
  8
M0
 62
     2
100
AcDbCircle
 10
389.120045
 20
930.40591
 40
3.499993
  0
ARC
  5
313
100
AcDbEntity
  8
M0
 62
     2
100
AcDbCircle
 10
392.220036
 20
926.605907
 40
1.0
100
AcDbArc
 50
270.0
 51
360.0
  0
ARC
  5
314
100
AcDbEntity
  8
M0
 62
     2
100
AcDbCircle
 10
392.220036
 20
934.205714
 40
1.0
100
AcDbArc
 50
0.0
 51
90.0
  0
ARC
  5
315
100
AcDbEntity
  8
M0
 62
     2
100
AcDbCircle
 10
386.020039
 20
934.205714
 40
1.0
100
AcDbArc
 50
90.0
 51
180.0
  0
ARC
  5
316
100
AcDbEntity
  8
M0
 62
     2
100
AcDbCircle
 10
386.020039
 20
926.605907
 40
1.0
100
AcDbArc
 50
179.999945
 51
270.0
  0
LINE
  5
317
100
AcDbEntity
  8
M0
  6
DASHDOT
 62
     2
100
AcDbLine
 10
394.779469
 20
930.40591
 11
383.460606
 21
930.40591
  0
LINE
  5
318
100
AcDbEntity
  8
M0
  6
DASHDOT
 62
     2
100
AcDbLine
 10
389.12003
 20
936.065334
 11
389.120045
 21
924.746471
  0
LINE
  5
319
100
AcDbEntity
  8
M0
 62
     2
100
AcDbLine
 10
386.020039
 20
935.205898
 11
392.220036
 21
935.205898
  0
LINE
  5
31A
100
AcDbEntity
  8
M0
 62
     2
100
AcDbLine
 10
187.159168
 20
931.366756
 11
189.004017
 21
929.521922
  0
LINE
  5
31B
100
AcDbEntity
  8
M0
 62
     2
100
AcDbLine
 10
189.130894
 20
932.123866
 11
186.555821
 21
929.548793
  0
LINE
  5
31C
100
AcDbEntity
  8
M0
 62
     2
100
AcDbLine
 10
189.838001
 20
931.416759
 11
187.262928
 21
928.841685
  0
LINE
  5
31D
100
AcDbEntity
  8
M0
 62
     2
100
AcDbLine
 10
185.020039
 20
925.605907
 11
191.220036
 21
925.605907
  0
LINE
  5
31E
100
AcDbEntity
  8
M0
 62
     2
100
AcDbLine
 10
192.220036
 20
926.605891
 11
192.220036
 21
934.205867
  0
LINE
  5
31F
100
AcDbEntity
  8
M0
 62
     2
100
AcDbLine
 10
184.020039
 20
934.205882
 11
184.020039
 21
926.605907
  0
CIRCLE
  5
320
100
AcDbEntity
  8
M0
 62
     2
100
AcDbCircle
 10
188.120045
 20
930.40591
 40
3.499993
  0
ARC
  5
321
100
AcDbEntity
  8
M0
 62
     2
100
AcDbCircle
 10
191.220036
 20
926.605907
 40
1.0
100
AcDbArc
 50
270.0
 51
360.0
  0
ARC
  5
322
100
AcDbEntity
  8
M0
 62
     2
100
AcDbCircle
 10
191.220036
 20
934.205714
 40
1.0
100
AcDbArc
 50
0.0
 51
90.0
  0
ARC
  5
323
100
AcDbEntity
  8
M0
 62
     2
100
AcDbCircle
 10
185.020039
 20
934.205714
 40
1.0
100
AcDbArc
 50
90.0
 51
180.0
  0
ARC
  5
324
100
AcDbEntity
  8
M0
 62
     2
100
AcDbCircle
 10
185.020039
 20
926.605907
 40
1.0
100
AcDbArc
 50
179.999945
 51
270.0
  0
LINE
  5
325
100
AcDbEntity
  8
M0
  6
DASHDOT
 62
     2
100
AcDbLine
 10
193.779469
 20
930.40591
 11
182.460606
 21
930.40591
  0
LINE
  5
326
100
AcDbEntity
  8
M0
  6
DASHDOT
 62
     2
100
AcDbLine
 10
188.12003
 20
936.065334
 11
188.120045
 21
924.746471
  0
LINE
  5
327
100
AcDbEntity
  8
M0
 62
     2
100
AcDbLine
 10
185.020039
 20
935.205898
 11
191.220036
 21
935.205898
  0
LINE
  5
328
100
AcDbEntity
  8
M0
 62
     2
100
AcDbLine
 10
167.159168
 20
931.366756
 11
169.004017
 21
929.521922
  0
LINE
  5
329
100
AcDbEntity
  8
M0
 62
     2
100
AcDbLine
 10
169.130894
 20
932.123866
 11
166.555821
 21
929.548793
  0
LINE
  5
32A
100
AcDbEntity
  8
M0
 62
     2
100
AcDbLine
 10
169.838001
 20
931.416759
 11
167.262928
 21
928.841685
  0
LINE
  5
32B
100
AcDbEntity
  8
M0
 62
     2
100
AcDbLine
 10
165.020039
 20
925.605907
 11
171.220036
 21
925.605907
  0
LINE
  5
32C
100
AcDbEntity
  8
M0
 62
     2
100
AcDbLine
 10
172.220036
 20
926.605891
 11
172.220036
 21
934.205867
  0
LINE
  5
32D
100
AcDbEntity
  8
M0
 62
     2
100
AcDbLine
 10
164.020039
 20
934.205882
 11
164.020039
 21
926.605907
  0
CIRCLE
  5
32E
100
AcDbEntity
  8
M0
 62
     2
100
AcDbCircle
 10
168.120045
 20
930.40591
 40
3.499993
  0
ARC
  5
32F
100
AcDbEntity
  8
M0
 62
     2
100
AcDbCircle
 10
171.220036
 20
926.605907
 40
1.0
100
AcDbArc
 50
270.0
 51
360.0
  0
ARC
  5
330
100
AcDbEntity
  8
M0
 62
     2
100
AcDbCircle
 10
171.220036
 20
934.205714
 40
1.0
100
AcDbArc
 50
0.0
 51
90.0
  0
ARC
  5
331
100
AcDbEntity
  8
M0
 62
     2
100
AcDbCircle
 10
165.020039
 20
934.205714
 40
1.0
100
AcDbArc
 50
90.0
 51
180.0
  0
ARC
  5
332
100
AcDbEntity
  8
M0
 62
     2
100
AcDbCircle
 10
165.020039
 20
926.605907
 40
1.0
100
AcDbArc
 50
179.999945
 51
270.0
  0
LINE
  5
333
100
AcDbEntity
  8
M0
  6
DASHDOT
 62
     2
100
AcDbLine
 10
173.779469
 20
930.40591
 11
162.460606
 21
930.40591
  0
LINE
  5
334
100
AcDbEntity
  8
M0
  6
DASHDOT
 62
     2
100
AcDbLine
 10
168.12003
 20
936.065334
 11
168.120045
 21
924.746471
  0
LINE
  5
335
100
AcDbEntity
  8
M0
 62
     2
100
AcDbLine
 10
165.020039
 20
935.205898
 11
171.220036
 21
935.205898
  0
LINE
  5
336
100
AcDbEntity
  8
M0
100
AcDbLine
 10
430.619756
 20
784.40591
 11
430.619756
 21
1132.40591
  0
LINE
  5
337
100
AcDbEntity
  8
M0
100
AcDbLine
 10
430.619756
 20
1132.40591
 11
378.619992
 21
1132.40591
  0
LINE
  5
338
100
AcDbEntity
  8
M0
100
AcDbLine
 10
146.619756
 20
1132.40591
 11
146.619756
 21
784.40591
  0
LINE
  5
339
100
AcDbEntity
  8
M0
100
AcDbLine
 10
146.619756
 20
784.40591
 11
191.119756
 21
784.40591
  0
LINE
  5
33A
100
AcDbEntity
  8
M0
  6
DASHDOT
100
AcDbLine
 10
288.619756
 20
759.40591
 11
288.619756
 21
1180.786471
  0
CIRCLE
  5
33B
100
AcDbEntity
  8
M0
100
AcDbCircle
 10
203.619756
 20
1119.40591
 40
6.0
  0
CIRCLE
  5
33C
100
AcDbEntity
  8
M0
100
AcDbCircle
 10
373.619756
 20
1119.40591
 40
6.0
  0
LINE
  5
33D
100
AcDbEntity
  8
M0
100
AcDbLine
 10
427.419756
 20
1132.40591
 11
427.419756
 21
784.40591
  0
LINE
  5
33E
100
AcDbEntity
  8
M0
100
AcDbLine
 10
149.819756
 20
1132.40591
 11
149.819756
 21
784.40591
  0
LINE
  5
33F
100
AcDbEntity
  8
M0
100
AcDbLine
 10
386.119756
 20
784.40591
 11
430.619756
 21
784.40591
  0
LINE
  5
340
100
AcDbEntity
  8
M0
100
AcDbLine
 10
338.619992
 20
1132.40591
 11
308.619992
 21
1132.40591
  0
LINE
  5
341
100
AcDbEntity
  8
M0
100
AcDbLine
 10
268.97713
 20
1132.40591
 11
238.977139
 21
1132.40591
  0
LINE
  5
342
100
AcDbEntity
  8
M0
100
AcDbLine
 10
199.691422
 20
1132.40591
 11
146.619756
 21
1132.40591
  0
LINE
  5
343
100
AcDbEntity
  8
M0
 62
     7
100
AcDbLine
 10
386.119756
 20
781.90591
 11
386.119756
 21
852.90591
  0
LINE
  5
344
100
AcDbEntity
  8
M0
 62
     7
100
AcDbLine
 10
191.119756
 20
852.90591
 11
191.119756
 21
781.90591
  0
LINE
  5
345
100
AcDbEntity
  8
M0
 62
     7
100
AcDbLine
 10
196.119756
 20
776.90591
 11
313.390528
 21
776.90591
  0
LINE
  5
346
100
AcDbEntity
  8
M0
 62
     7
100
AcDbLine
 10
191.119756
 20
781.90591
 11
196.119756
 21
776.90591
  0
LINE
  5
347
100
AcDbEntity
  8
M0
 62
     7
100
AcDbLine
 10
381.119756
 20
776.90591
 11
386.119756
 21
781.90591
  0
CIRCLE
  5
348
100
AcDbEntity
  8
M0
 62
     7
100
AcDbCircle
 10
373.619756
 20
797.40591
 40
5.5
  0
LINE
  5
349
100
AcDbEntity
  8
M0
  6
DASHDOT
 62
     7
100
AcDbLine
 10
364.119756
 20
797.40591
 11
383.119756
 21
797.40591
  0
LINE
  5
34A
100
AcDbEntity
  8
M0
  6
DASHDOT
 62
     7
100
AcDbLine
 10
373.619756
 20
787.90591
 11
373.619756
 21
806.90591
  0
LINE
  5
34B
100
AcDbEntity
  8
M0
  6
DASHDOT
 62
     7
100
AcDbLine
 10
366.119756
 20
822.40591
 11
381.119756
 21
822.40591
  0
LINE
  5
34C
100
AcDbEntity
  8
M0
  6
DASHDOT
 62
     7
100
AcDbLine
 10
373.619756
 20
814.90591
 11
373.619756
 21
829.90591
  0
LINE
  5
34D
100
AcDbEntity
  8
M0
  6
DASHDOT
 62
     7
100
AcDbLine
 10
211.119756
 20
822.40591
 11
196.119756
 21
822.40591
  0
LINE
  5
34E
100
AcDbEntity
  8
M0
  6
DASHDOT
 62
     7
100
AcDbLine
 10
203.619756
 20
814.90591
 11
203.619756
 21
829.90591
  0
CIRCLE
  5
34F
100
AcDbEntity
  8
M0
 62
     7
100
AcDbCircle
 10
203.619756
 20
797.40591
 40
5.5
  0
LINE
  5
350
100
AcDbEntity
  8
M0
  6
DASHDOT
 62
     7
100
AcDbLine
 10
213.119756
 20
797.40591
 11
194.119756
 21
797.40591
  0
LINE
  5
351
100
AcDbEntity
  8
M0
  6
DASHDOT
 62
     7
100
AcDbLine
 10
203.619756
 20
787.90591
 11
203.619756
 21
806.90591
  0
LINE
  5
352
100
AcDbEntity
  8
M0
 62
     7
100
AcDbLine
 10
221.119756
 20
849.90591
 11
221.119756
 21
776.90591
  0
LINE
  5
353
100
AcDbEntity
  8
M0
 62
     7
100
AcDbLine
 10
356.119756
 20
849.90591
 11
356.119756
 21
776.90591
  0
LINE
  5
354
100
AcDbEntity
  8
M0
 62
     7
100
AcDbLine
 10
316.848968
 20
776.90591
 11
381.119756
 21
776.90591
  0
LINE
  5
355
100
AcDbEntity
  8
M0
 62
     7
100
AcDbLine
 10
178.619756
 20
852.90591
 11
198.619756
 21
852.90591
  0
ARC
  5
356
100
AcDbEntity
  8
M0
 62
     7
100
AcDbCircle
 10
222.619756
 20
842.90591
 40
10.0
100
AcDbArc
 50
0.0
 51
44.427106
  0
LINE
  5
357
100
AcDbEntity
  8
M0
 62
     7
100
AcDbLine
 10
232.619756
 20
842.90591
 11
232.619756
 21
807.90591
  0
ARC
  5
358
100
AcDbEntity
  8
M0
 62
     7
100
AcDbCircle
 10
235.619756
 20
807.90591
 40
3.0
100
AcDbArc
 50
179.999709
 51
269.999709
  0
LINE
  5
359
100
AcDbEntity
  8
M0
 62
     7
100
AcDbLine
 10
308.619756
 20
852.90591
 11
338.619756
 21
852.90591
  0
ARC
  5
35A
100
AcDbEntity
  8
M0
 62
     7
100
AcDbCircle
 10
302.619756
 20
842.90591
 40
10.0
100
AcDbArc
 50
135.572955
 51
179.999913
  0
LINE
  5
35B
100
AcDbEntity
  8
M0
 62
     7
100
AcDbLine
 10
235.619756
 20
804.90591
 11
289.619756
 21
804.90591
  0
LINE
  5
35C
100
AcDbEntity
  8
M0
 62
     7
100
AcDbLine
 10
292.619756
 20
842.90591
 11
292.619756
 21
807.90591
  0
ARC
  5
35D
100
AcDbEntity
  8
M0
 62
     7
100
AcDbCircle
 10
289.619756
 20
807.90591
 40
3.0
100
AcDbArc
 50
269.999709
 51
360.0
  0
LINE
  5
35E
100
AcDbEntity
  8
M0
  6
DASHDOT
 62
     7
100
AcDbLine
 10
274.369756
 20
842.90591
 11
287.869756
 21
842.90591
  0
LINE
  5
35F
100
AcDbEntity
  8
M0
  6
DASHDOT
 62
     7
100
AcDbLine
 10
281.119756
 20
836.15591
 11
281.119756
 21
849.65591
  0
LINE
  5
360
100
AcDbEntity
  8
M0
  6
DASHDOT
 62
     7
100
AcDbLine
 10
274.369756
 20
814.90591
 11
287.869756
 21
814.90591
  0
LINE
  5
361
100
AcDbEntity
  8
M0
  6
DASHDOT
 62
     7
100
AcDbLine
 10
281.119756
 20
821.65591
 11
281.119756
 21
808.15591
  0
LINE
  5
362
100
AcDbEntity
  8
M0
  6
DASHDOT
 62
     7
100
AcDbLine
 10
250.869756
 20
814.90591
 11
237.369756
 21
814.90591
  0
LINE
  5
363
100
AcDbEntity
  8
M0
  6
DASHDOT
 62
     7
100
AcDbLine
 10
244.119756
 20
821.65591
 11
244.119756
 21
808.15591
  0
LINE
  5
364
100
AcDbEntity
  8
M0
  6
DASHDOT
 62
     7
100
AcDbLine
 10
250.869756
 20
842.90591
 11
237.369756
 21
842.90591
  0
LINE
  5
365
100
AcDbEntity
  8
M0
  6
DASHDOT
 62
     7
100
AcDbLine
 10
244.119756
 20
836.15591
 11
244.119756
 21
849.65591
  0
LINE
  5
366
100
AcDbEntity
  8
M0
 62
     7
100
AcDbLine
 10
268.619756
 20
878.90591
 11
238.619756
 21
878.90591
  0
LINE
  5
367
100
AcDbEntity
  8
M0
 62
     7
100
AcDbLine
 10
338.619756
 20
878.90591
 11
308.619756
 21
878.90591
  0
LINE
  5
368
100
AcDbEntity
  8
M0
 62
     7
100
AcDbLine
 10
378.619756
 20
852.90591
 11
398.619756
 21
852.90591
  0
LINE
  5
369
100
AcDbEntity
  8
M0
100
AcDbLine
 10
371.869756
 20
888.205898
 11
371.869756
 21
918.90591
  0
LINE
  5
36A
100
AcDbEntity
  8
M0
100
AcDbLine
 10
403.369756
 20
852.90591
 11
403.369756
 21
882.405925
  0
LINE
  5
36B
100
AcDbEntity
  8
M0
100
AcDbLine
 10
368.669744
 20
891.192561
 11
368.669744
 21
918.90591
  0
LINE
  5
36C
100
AcDbEntity
  8
M0
100
AcDbLine
 10
406.569753
 20
852.90591
 11
406.569753
 21
882.405925
  0
LINE
  5
36D
100
AcDbEntity
  8
M0
100
AcDbLine
 10
406.569753
 20
852.90591
 11
378.619756
 21
852.90591
  0
LINE
  5
36E
100
AcDbEntity
  8
M0
100
AcDbLine
 10
205.369756
 20
888.205898
 11
205.369756
 21
918.90591
  0
LINE
  5
36F
100
AcDbEntity
  8
M0
100
AcDbLine
 10
173.869756
 20
852.90591
 11
173.869756
 21
882.405925
  0
LINE
  5
370
100
AcDbEntity
  8
M0
100
AcDbLine
 10
208.569768
 20
891.192561
 11
208.569768
 21
918.90591
  0
LINE
  5
371
100
AcDbEntity
  8
M0
100
AcDbLine
 10
170.669759
 20
852.90591
 11
170.669759
 21
882.405925
  0
LINE
  5
372
100
AcDbEntity
  8
M0
100
AcDbLine
 10
170.669759
 20
852.90591
 11
198.619756
 21
852.90591
  0
LINE
  5
373
100
AcDbEntity
  8
M0
100
AcDbLine
 10
405.469625
 20
989.90591
 11
405.469625
 21
968.90591
  0
LINE
  5
374
100
AcDbEntity
  8
M0
100
AcDbLine
 10
418.569753
 20
910.906047
 11
428.669759
 21
910.906047
  0
LINE
  5
375
100
AcDbEntity
  8
M0
100
AcDbLine
 10
268.620045
 20
849.40591
 11
308.620045
 21
849.40591
  0
LINE
  5
376
100
AcDbEntity
  8
M0
100
AcDbLine
 10
268.620045
 20
881.40591
 11
268.620045
 21
849.40591
  0
LINE
  5
377
100
AcDbEntity
  8
M0
100
AcDbLine
 10
308.620045
 20
849.40591
 11
308.620045
 21
881.40591
  0
LINE
  5
378
100
AcDbEntity
  8
M0
100
AcDbLine
 10
303.620045
 20
918.40591
 11
303.620045
 21
895.40591
  0
LINE
  5
379
100
AcDbEntity
  8
M0
100
AcDbLine
 10
303.620045
 20
895.40591
 11
308.620045
 21
881.40591
  0
LINE
  5
37A
100
AcDbEntity
  8
M0
100
AcDbLine
 10
268.620045
 20
881.40591
 11
273.620045
 21
895.40591
  0
LINE
  5
37B
100
AcDbEntity
  8
M0
100
AcDbLine
 10
273.620045
 20
918.40591
 11
273.620045
 21
895.40591
  0
CIRCLE
  5
37C
100
AcDbEntity
  8
M0
100
AcDbCircle
 10
288.620045
 20
865.40591
 40
6.0
  0
LINE
  5
37D
100
AcDbEntity
  8
M0
  6
DASHDOT
100
AcDbLine
 10
273.620045
 20
865.40591
 11
303.620045
 21
865.40591
  0
LINE
  5
37E
100
AcDbEntity
  8
M0
100
AcDbLine
 10
198.620045
 20
849.40591
 11
198.620045
 21
881.40591
  0
LINE
  5
37F
100
AcDbEntity
  8
M0
100
AcDbLine
 10
238.620045
 20
881.40591
 11
238.620045
 21
849.40591
  0
LINE
  5
380
100
AcDbEntity
  8
M0
100
AcDbLine
 10
238.620045
 20
849.40591
 11
198.620045
 21
849.40591
  0
LINE
  5
381
100
AcDbEntity
  8
M0
100
AcDbLine
 10
243.620045
 20
918.40591
 11
243.620045
 21
895.40591
  0
LINE
  5
382
100
AcDbEntity
  8
M0
100
AcDbLine
 10
238.620045
 20
881.40591
 11
243.620045
 21
895.40591
  0
LINE
  5
383
100
AcDbEntity
  8
M0
100
AcDbLine
 10
213.620045
 20
918.40591
 11
213.620045
 21
895.40591
  0
LINE
  5
384
100
AcDbEntity
  8
M0
100
AcDbLine
 10
198.62006
 20
881.40591
 11
213.620045
 21
895.40591
  0
CIRCLE
  5
385
100
AcDbEntity
  8
M0
100
AcDbCircle
 10
218.620045
 20
865.40591
 40
6.0
  0
LINE
  5
386
100
AcDbEntity
  8
M0
  6
DASHDOT
100
AcDbLine
 10
203.620045
 20
865.40591
 11
233.620045
 21
865.40591
  0
LINE
  5
387
100
AcDbEntity
  8
M0
  6
DASHDOT
100
AcDbLine
 10
218.620045
 20
850.40591
 11
218.620045
 21
880.40591
  0
LINE
  5
388
100
AcDbEntity
  8
M0
100
AcDbLine
 10
198.619971
 20
1165.405897
 11
198.619991
 21
1133.405897
  0
LINE
  5
389
100
AcDbEntity
  8
M0
100
AcDbLine
 10
238.619991
 20
1133.405922
 11
238.619971
 21
1165.405922
  0
LINE
  5
38A
100
AcDbEntity
  8
M0
100
AcDbLine
 10
238.619971
 20
1165.405922
 11
198.619971
 21
1165.405897
  0
LINE
  5
38B
100
AcDbEntity
  8
M0
100
AcDbLine
 10
243.620014
 20
1096.405925
 11
243.62
 21
1119.405925
  0
LINE
  5
38C
100
AcDbEntity
  8
M0
100
AcDbLine
 10
238.619991
 20
1133.405922
 11
243.62
 21
1119.405925
  0
LINE
  5
38D
100
AcDbEntity
  8
M0
100
AcDbLine
 10
213.620014
 20
1096.405907
 11
213.62
 21
1119.405907
  0
LINE
  5
38E
100
AcDbEntity
  8
M0
100
AcDbLine
 10
198.620006
 20
1133.405897
 11
213.62
 21
1119.405907
  0
CIRCLE
  5
38F
100
AcDbEntity
  8
M0
100
AcDbCircle
 10
218.619981
 20
1149.40591
 40
6.0
  0
LINE
  5
390
100
AcDbEntity
  8
M0
  6
DASHDOT
100
AcDbLine
 10
203.619981
 20
1149.40591
 11
233.619981
 21
1149.40591
  0
LINE
  5
391
100
AcDbEntity
  8
M0
  6
DASHDOT
100
AcDbLine
 10
218.619981
 20
1134.40591
 11
218.619981
 21
1164.40591
  0
ARC
  5
392
100
AcDbEntity
  8
M0
 62
     2
100
AcDbCircle
 10
163.620045
 20
1097.40591
 40
5.0
100
AcDbArc
 50
89.999825
 51
180.0
  0
LINE
  5
393
100
AcDbEntity
  8
M0
 62
     2
100
AcDbLine
 10
198.620045
 20
1102.40591
 11
163.620045
 21
1102.40591
  0
ARC
  5
394
100
AcDbEntity
  8
M0
 62
     2
100
AcDbCircle
 10
198.620045
 20
1098.40591
 40
4.0
100
AcDbArc
 50
0.0
 51
89.999781
  0
LINE
  5
395
100
AcDbEntity
  8
M0
 62
     2
100
AcDbLine
 10
158.620045
 20
1077.40591
 11
189.620045
 21
1077.40591
  0
LINE
  5
396
100
AcDbEntity
  8
M0
 62
     2
100
AcDbLine
 10
158.620045
 20
1097.40591
 11
158.620045
 21
887.405925
  0
ARC
  5
397
100
AcDbEntity
  8
M0
 62
     2
100
AcDbCircle
 10
163.620045
 20
887.405925
 40
5.0
100
AcDbArc
 50
179.999825
 51
270.0
  0
ARC
  5
398
100
AcDbEntity
  8
M0
 62
     2
100
AcDbCircle
 10
198.620045
 20
916.405911
 40
4.0
100
AcDbArc
 50
270.0
 51
360.0
  0
ARC
  5
399
100
AcDbEntity
  8
M0
 62
     2
100
AcDbCircle
 10
196.620045
 20
916.405911
 40
4.0
100
AcDbArc
 50
179.999973
 51
270.0
  0
LINE
  5
39A
100
AcDbEntity
  8
M0
 62
     2
100
AcDbLine
 10
198.620045
 20
912.405911
 11
192.420045
 21
912.405911
  0
LINE
  5
39B
100
AcDbEntity
  8
M0
 62
     2
100
AcDbLine
 10
175.620045
 20
912.405911
 11
172.420045
 21
912.405911
  0
LINE
  5
39C
100
AcDbEntity
  8
M0
 62
     2
100
AcDbLine
 10
163.620045
 20
882.405925
 11
183.357456
 21
882.405925
  0
ARC
  5
39D
100
AcDbEntity
  8
M0
 62
     2
100
AcDbCircle
 10
183.357456
 20
887.405925
 40
5.0
100
AcDbArc
 50
270.0
 51
336.250608
  0
LINE
  5
39E
100
AcDbEntity
  8
M0
 62
     2
100
AcDbLine
 10
197.620045
 20
907.405911
 11
197.620045
 21
912.405911
  0
LINE
  5
39F
100
AcDbEntity
  8
M0
 62
     2
100
AcDbLine
 10
158.620045
 20
962.40591
 11
191.120045
 21
962.40591
  0
LINE
  5
3A0
100
AcDbEntity
  8
M0
 62
     2
100
AcDbLine
 10
175.620045
 20
962.40591
 11
175.620045
 21
912.405911
  0
LINE
  5
3A1
100
AcDbEntity
  8
M0
 62
     2
100
AcDbLine
 10
180.620045
 20
912.405911
 11
180.620045
 21
962.40591
  0
LINE
  5
3A2
100
AcDbEntity
  8
M0
 62
     2
100
AcDbLine
 10
175.620045
 20
925.40591
 11
178.120045
 21
928.40591
  0
LINE
  5
3A3
100
AcDbEntity
  8
M0
 62
     2
100
AcDbLine
 10
175.620045
 20
912.405911
 11
178.120045
 21
915.405911
  0
LINE
  5
3A4
100
AcDbEntity
  8
M0
 62
     2
100
AcDbLine
 10
180.620045
 20
925.40591
 11
178.120045
 21
928.40591
  0
LINE
  5
3A5
100
AcDbEntity
  8
M0
 62
     2
100
AcDbLine
 10
180.620045
 20
912.405911
 11
178.120045
 21
915.405911
  0
LINE
  5
3A6
100
AcDbEntity
  8
M0
 62
     2
100
AcDbLine
 10
158.620045
 20
925.40591
 11
163.820045
 21
925.40591
  0
LINE
  5
3A7
100
AcDbEntity
  8
M0
 62
     2
100
AcDbLine
 10
180.620045
 20
925.40591
 11
183.820045
 21
925.40591
  0
LINE
  5
3A8
100
AcDbEntity
  8
M0
 62
     2
100
AcDbLine
 10
178.120045
 20
962.40591
 11
178.120045
 21
915.405911
  0
LINE
  5
3A9
100
AcDbEntity
  8
M0
 62
     2
100
AcDbLine
 10
163.620045
 20
925.40591
 11
163.620045
 21
952.90591
  0
LINE
  5
3AA
100
AcDbEntity
  8
M0
 62
     2
100
AcDbLine
 10
172.620045
 20
925.40591
 11
172.620045
 21
952.90591
  0
LINE
  5
3AB
100
AcDbEntity
  8
M0
 62
     2
100
AcDbLine
 10
183.620045
 20
952.90591
 11
183.620045
 21
925.40591
  0
LINE
  5
3AC
100
AcDbEntity
  8
M0
 62
     2
100
AcDbLine
 10
163.620045
 20
955.40591
 11
163.620045
 21
962.40591
  0
ARC
  5
3AD
100
AcDbEntity
  8
M0
 62
     2
100
AcDbCircle
 10
165.620045
 20
955.40591
 40
2.0
100
AcDbArc
 50
180.0
 51
270.0
  0
LINE
  5
3AE
100
AcDbEntity
  8
M0
 62
     2
100
AcDbLine
 10
172.620045
 20
955.40591
 11
172.620045
 21
962.40591
  0
LINE
  5
3AF
100
AcDbEntity
  8
M0
 62
     2
100
AcDbLine
 10
183.620045
 20
962.40591
 11
183.620045
 21
955.40591
  0
ARC
  5
3B0
100
AcDbEntity
  8
M0
 62
     2
100
AcDbCircle
 10
185.620045
 20
955.40591
 40
2.0
100
AcDbArc
 50
180.0
 51
270.0
  0
LINE
  5
3B1
100
AcDbEntity
  8
M0
 62
     2
100
AcDbLine
 10
187.934025
 20
885.392223
 11
197.620045
 21
907.405911
  0
LINE
  5
3B2
100
AcDbEntity
  8
M0
 62
     2
100
AcDbLine
 10
165.620045
 20
953.40591
 11
170.620045
 21
953.40591
  0
ARC
  5
3B3
100
AcDbEntity
  8
M0
 62
     2
100
AcDbCircle
 10
170.620045
 20
955.40591
 40
2.0
100
AcDbArc
 50
270.0
 51
360.0
  0
LINE
  5
3B4
100
AcDbEntity
  8
M0
 62
     2
100
AcDbLine
 10
185.620045
 20
953.40591
 11
192.620045
 21
953.40591
  0
LINE
  5
3B5
100
AcDbEntity
  8
M0
 62
     2
100
AcDbLine
 10
183.620045
 20
952.90591
 11
192.620045
 21
952.90591
  0
LINE
  5
3B6
100
AcDbEntity
  8
M0
 62
     2
100
AcDbLine
 10
163.620045
 20
952.90591
 11
172.620045
 21
952.90591
  0
ARC
  5
3B7
100
AcDbEntity
  8
M0
 62
     2
100
AcDbCircle
 10
413.620045
 20
1097.40591
 40
5.0
100
AcDbArc
 50
0.0
 51
90.0
  0
LINE
  5
3B8
100
AcDbEntity
  8
M0
 62
     2
100
AcDbLine
 10
378.620045
 20
1102.40591
 11
413.620045
 21
1102.40591
  0
ARC
  5
3B9
100
AcDbEntity
  8
M0
 62
     2
100
AcDbCircle
 10
378.620045
 20
1098.40591
 40
4.0
100
AcDbArc
 50
90.0
 51
180.0
  0
LINE
  5
3BA
100
AcDbEntity
  8
M0
 62
     2
100
AcDbLine
 10
418.620045
 20
1077.40591
 11
387.620045
 21
1077.40591
  0
LINE
  5
3BB
100
AcDbEntity
  8
M0
 62
     2
100
AcDbLine
 10
418.620045
 20
1097.40591
 11
418.620045
 21
887.405925
  0
ARC
  5
3BC
100
AcDbEntity
  8
M0
 62
     2
100
AcDbCircle
 10
413.620045
 20
887.405925
 40
5.0
100
AcDbArc
 50
-90.000175
 51
0.0
  0
ARC
  5
3BD
100
AcDbEntity
  8
M0
 62
     2
100
AcDbCircle
 10
378.620045
 20
916.405911
 40
4.0
100
AcDbArc
 50
179.999973
 51
269.999781
  0
ARC
  5
3BE
100
AcDbEntity
  8
M0
 62
     2
100
AcDbCircle
 10
380.620045
 20
916.405911
 40
4.0
100
AcDbArc
 50
-90.000219
 51
0.0
  0
LINE
  5
3BF
100
AcDbEntity
  8
M0
 62
     2
100
AcDbLine
 10
378.620045
 20
912.405911
 11
384.820045
 21
912.405911
  0
LINE
  5
3C0
100
AcDbEntity
  8
M0
 62
     2
100
AcDbLine
 10
401.620045
 20
912.405911
 11
418.620045
 21
912.405911
  0
LINE
  5
3C1
100
AcDbEntity
  8
M0
 62
     2
100
AcDbLine
 10
413.620045
 20
882.405925
 11
393.882633
 21
882.405925
  0
ARC
  5
3C2
100
AcDbEntity
  8
M0
 62
     2
100
AcDbCircle
 10
393.882633
 20
887.405925
 40
5.0
100
AcDbArc
 50
203.749232
 51
269.999825
  0
LINE
  5
3C3
100
AcDbEntity
  8
M0
 62
     2
100
AcDbLine
 10
379.620045
 20
907.405911
 11
379.620045
 21
912.405911
  0
LINE
  5
3C4
100
AcDbEntity
  8
M0
 62
     2
100
AcDbLine
 10
418.620045
 20
962.40591
 11
386.12003
 21
962.40591
  0
LINE
  5
3C5
100
AcDbEntity
  8
M0
 62
     2
100
AcDbLine
 10
401.620045
 20
962.40591
 11
401.620045
 21
912.405911
  0
LINE
  5
3C6
100
AcDbEntity
  8
M0
 62
     2
100
AcDbLine
 10
396.620045
 20
912.405911
 11
396.620045
 21
962.40591
  0
LINE
  5
3C7
100
AcDbEntity
  8
M0
 62
     2
100
AcDbLine
 10
401.620045
 20
925.40591
 11
399.120045
 21
928.40591
  0
LINE
  5
3C8
100
AcDbEntity
  8
M0
 62
     2
100
AcDbLine
 10
401.620045
 20
912.405911
 11
399.120045
 21
915.405911
  0
LINE
  5
3C9
100
AcDbEntity
  8
M0
 62
     2
100
AcDbLine
 10
396.620045
 20
925.40591
 11
399.120045
 21
928.40591
  0
LINE
  5
3CA
100
AcDbEntity
  8
M0
 62
     2
100
AcDbLine
 10
396.620045
 20
912.405911
 11
399.120045
 21
915.405911
  0
LINE
  5
3CB
100
AcDbEntity
  8
M0
 62
     2
100
AcDbLine
 10
418.620045
 20
925.40591
 11
401.620045
 21
925.40591
  0
LINE
  5
3CC
100
AcDbEntity
  8
M0
 62
     2
100
AcDbLine
 10
396.620045
 20
925.40591
 11
393.420045
 21
925.40591
  0
LINE
  5
3CD
100
AcDbEntity
  8
M0
 62
     2
100
AcDbLine
 10
399.120045
 20
962.40591
 11
399.120045
 21
915.405911
  0
LINE
  5
3CE
100
AcDbEntity
  8
M0
 62
     2
100
AcDbLine
 10
413.620045
 20
925.40591
 11
413.620045
 21
952.90591
  0
LINE
  5
3CF
100
AcDbEntity
  8
M0
 62
     2
100
AcDbLine
 10
404.620045
 20
925.40591
 11
404.620045
 21
952.90591
  0
LINE
  5
3D0
100
AcDbEntity
  8
M0
 62
     2
100
AcDbLine
 10
393.620045
 20
952.90591
 11
393.620045
 21
925.40591
  0
LINE
  5
3D1
100
AcDbEntity
  8
M0
 62
     2
100
AcDbLine
 10
413.620045
 20
955.40591
 11
413.620045
 21
962.40591
  0
ARC
  5
3D2
100
AcDbEntity
  8
M0
 62
     2
100
AcDbCircle
 10
411.620045
 20
955.40591
 40
2.0
100
AcDbArc
 50
-90.000437
 51
0.0
  0
LINE
  5
3D3
100
AcDbEntity
  8
M0
 62
     2
100
AcDbLine
 10
404.620045
 20
955.40591
 11
404.620045
 21
962.40591
  0
LINE
  5
3D4
100
AcDbEntity
  8
M0
 62
     2
100
AcDbLine
 10
393.620045
 20
962.40591
 11
393.620045
 21
955.40591
  0
ARC
  5
3D5
100
AcDbEntity
  8
M0
 62
     2
100
AcDbCircle
 10
391.620045
 20
955.40591
 40
2.0
100
AcDbArc
 50
-90.000437
 51
0.0
  0
LINE
  5
3D6
100
AcDbEntity
  8
M0
 62
     2
100
AcDbLine
 10
389.306065
 20
885.392223
 11
379.620045
 21
907.405911
  0
CIRCLE
  5
3D7
100
AcDbEntity
  8
M0
 62
     2
100
AcDbCircle
 10
409.120045
 20
930.40591
 40
2.099999
  0
CIRCLE
  5
3D8
100
AcDbEntity
  8
M0
 62
     2
100
AcDbCircle
 10
409.120045
 20
938.40591
 40
2.099999
  0
CIRCLE
  5
3D9
100
AcDbEntity
  8
M0
 62
     2
100
AcDbCircle
 10
409.120045
 20
946.40591
 40
2.099999
  0
LINE
  5
3DA
100
AcDbEntity
  8
M0
 62
     2
100
AcDbLine
 10
411.620045
 20
953.40591
 11
406.620045
 21
953.40591
  0
ARC
  5
3DB
100
AcDbEntity
  8
M0
 62
     2
100
AcDbCircle
 10
406.620045
 20
955.40591
 40
2.0
100
AcDbArc
 50
180.0
 51
269.999563
  0
LINE
  5
3DC
100
AcDbEntity
  8
M0
 62
     2
100
AcDbLine
 10
391.620045
 20
953.40591
 11
384.620045
 21
953.40591
  0
LINE
  5
3DD
100
AcDbEntity
  8
M0
 62
     2
100
AcDbLine
 10
393.620045
 20
952.90591
 11
384.620045
 21
952.90591
  0
LINE
  5
3DE
100
AcDbEntity
  8
M0
 62
     2
100
AcDbLine
 10
413.620045
 20
952.90591
 11
404.620045
 21
952.90591
  0
CIRCLE
  5
3DF
100
AcDbEntity
  8
M0
 62
     2
100
AcDbCircle
 10
409.120045
 20
930.40591
 40
3.0
  0
CIRCLE
  5
3E0
100
AcDbEntity
  8
M0
 62
     2
100
AcDbCircle
 10
409.120045
 20
938.40591
 40
3.0
  0
CIRCLE
  5
3E1
100
AcDbEntity
  8
M0
 62
     2
100
AcDbCircle
 10
409.120045
 20
946.40591
 40
3.0
  0
LINE
  5
3E2
100
AcDbEntity
  8
M0
 62
     2
100
AcDbLine
 10
403.620052
 20
1098.91125
 11
410.121502
 21
1095.158656
  0
LINE
  5
3E3
100
AcDbEntity
  8
M0
 62
     2
100
AcDbLine
 10
410.121502
 20
1095.158656
 11
410.121502
 21
1087.653011
  0
LINE
  5
3E4
100
AcDbEntity
  8
M0
 62
     2
100
AcDbLine
 10
410.121502
 20
1087.653011
 11
403.620052
 21
1083.900264
  0
LINE
  5
3E5
100
AcDbEntity
  8
M0
 62
     2
100
AcDbLine
 10
403.620052
 20
1083.900264
 11
397.121029
 21
1087.653011
  0
LINE
  5
3E6
100
AcDbEntity
  8
M0
 62
     2
100
AcDbLine
 10
397.121029
 20
1087.653011
 11
397.121029
 21
1095.158656
  0
LINE
  5
3E7
100
AcDbEntity
  8
M0
 62
     2
100
AcDbLine
 10
397.121029
 20
1095.158656
 11
403.620052
 21
1098.91125
  0
CIRCLE
  5
3E8
100
AcDbEntity
  8
M0
 62
     2
100
AcDbCircle
 10
403.620045
 20
1091.40591
 40
8.0
  0
CIRCLE
  5
3E9
100
AcDbEntity
  8
M0
 62
     2
100
AcDbCircle
 10
403.620045
 20
1091.40591
 40
7.700005
  0
LINE
  5
3EA
100
AcDbEntity
  8
M0
 62
     2
100
AcDbLine
 10
403.620052
 20
904.911252
 11
410.121502
 21
901.158658
  0
LINE
  5
3EB
100
AcDbEntity
  8
M0
 62
     2
100
AcDbLine
 10
410.121502
 20
901.158658
 11
410.121502
 21
893.653012
  0
LINE
  5
3EC
100
AcDbEntity
  8
M0
 62
     2
100
AcDbLine
 10
410.121502
 20
893.653012
 11
403.620052
 21
889.900266
  0
LINE
  5
3ED
100
AcDbEntity
  8
M0
 62
     2
100
AcDbLine
 10
403.620052
 20
889.900266
 11
397.121029
 21
893.653012
  0
LINE
  5
3EE
100
AcDbEntity
  8
M0
 62
     2
100
AcDbLine
 10
397.121029
 20
893.653012
 11
397.121029
 21
901.158658
  0
LINE
  5
3EF
100
AcDbEntity
  8
M0
 62
     2
100
AcDbLine
 10
397.121029
 20
901.158658
 11
403.620052
 21
904.911252
  0
CIRCLE
  5
3F0
100
AcDbEntity
  8
M0
 62
     2
100
AcDbCircle
 10
403.620045
 20
897.405912
 40
8.0
  0
CIRCLE
  5
3F1
100
AcDbEntity
  8
M0
 62
     2
100
AcDbCircle
 10
403.620045
 20
897.405912
 40
7.700005
  0
LINE
  5
3F2
100
AcDbEntity
  8
M0
 62
     2
100
AcDbLine
 10
173.620052
 20
904.911252
 11
180.121502
 21
901.158658
  0
LINE
  5
3F3
100
AcDbEntity
  8
M0
 62
     2
100
AcDbLine
 10
180.121502
 20
901.158658
 11
180.121502
 21
893.653012
  0
LINE
  5
3F4
100
AcDbEntity
  8
M0
 62
     2
100
AcDbLine
 10
180.121502
 20
893.653012
 11
173.620052
 21
889.900266
  0
LINE
  5
3F5
100
AcDbEntity
  8
M0
 62
     2
100
AcDbLine
 10
173.620052
 20
889.900266
 11
167.121029
 21
893.653012
  0
LINE
  5
3F6
100
AcDbEntity
  8
M0
 62
     2
100
AcDbLine
 10
167.121029
 20
893.653012
 11
167.121029
 21
901.158658
  0
LINE
  5
3F7
100
AcDbEntity
  8
M0
 62
     2
100
AcDbLine
 10
167.121029
 20
901.158658
 11
173.620052
 21
904.911252
  0
CIRCLE
  5
3F8
100
AcDbEntity
  8
M0
 62
     2
100
AcDbCircle
 10
173.620045
 20
897.405912
 40
8.0
  0
CIRCLE
  5
3F9
100
AcDbEntity
  8
M0
 62
     2
100
AcDbCircle
 10
173.620045
 20
897.405912
 40
7.700005
  0
LINE
  5
3FA
100
AcDbEntity
  8
M0
 62
     2
100
AcDbLine
 10
173.620052
 20
1098.91125
 11
180.121502
 21
1095.158656
  0
LINE
  5
3FB
100
AcDbEntity
  8
M0
 62
     2
100
AcDbLine
 10
180.121502
 20
1095.158656
 11
180.121502
 21
1087.653011
  0
LINE
  5
3FC
100
AcDbEntity
  8
M0
 62
     2
100
AcDbLine
 10
180.121502
 20
1087.653011
 11
173.620052
 21
1083.900264
  0
LINE
  5
3FD
100
AcDbEntity
  8
M0
 62
     2
100
AcDbLine
 10
173.620052
 20
1083.900264
 11
167.121029
 21
1087.653011
  0
LINE
  5
3FE
100
AcDbEntity
  8
M0
 62
     2
100
AcDbLine
 10
167.121029
 20
1087.653011
 11
167.121029
 21
1095.158656
  0
LINE
  5
3FF
100
AcDbEntity
  8
M0
 62
     2
100
AcDbLine
 10
167.121029
 20
1095.158656
 11
173.620052
 21
1098.91125
  0
CIRCLE
  5
400
100
AcDbEntity
  8
M0
 62
     2
100
AcDbCircle
 10
173.620045
 20
1091.40591
 40
8.0
  0
CIRCLE
  5
401
100
AcDbEntity
  8
M0
 62
     2
100
AcDbCircle
 10
173.620045
 20
1091.40591
 40
7.700005
  0
LINE
  5
402
100
AcDbEntity
  8
M0
 62
     2
100
AcDbLine
 10
315.619758
 20
1116.40591
 11
326.619758
 21
1116.40591
  0
LINE
  5
403
100
AcDbEntity
  8
M0
 62
     2
100
AcDbLine
 10
327.619758
 20
1115.40591
 11
327.61977
 21
1096.40591
  0
LINE
  5
404
100
AcDbEntity
  8
M0
 62
     2
100
AcDbLine
 10
314.619758
 20
1115.405909
 11
314.619768
 21
1100.341901
  0
ARC
  5
405
100
AcDbEntity
  8
M0
 62
     2
100
AcDbCircle
 10
326.619758
 20
1115.40591
 40
1.0
100
AcDbArc
 50
3.597218E-005
 51
90.0
  0
ARC
  5
406
100
AcDbEntity
  8
M0
 62
     2
100
AcDbCircle
 10
315.619758
 20
1115.40591
 40
1.0
100
AcDbArc
 50
90.0
 51
180.000036
  0
LINE
  5
407
100
AcDbEntity
  8
M0
 62
     2
100
AcDbLine
 10
249.619758
 20
1115.405861
 11
249.61977
 21
1096.405861
  0
LINE
  5
408
100
AcDbEntity
  8
M0
 62
     2
100
AcDbLine
 10
262.619758
 20
1115.405876
 11
262.619768
 21
1100.341868
  0
ARC
  5
409
100
AcDbEntity
  8
M0
 62
     2
100
AcDbCircle
 10
250.619758
 20
1115.405862
 40
1.0
100
AcDbArc
 50
90.0
 51
180.000036
  0
LINE
  5
40A
100
AcDbEntity
  8
M0
 62
     2
100
AcDbLine
 10
261.619757
 20
1116.405876
 11
250.619757
 21
1116.405862
  0
ARC
  5
40B
100
AcDbEntity
  8
M0
 62
     2
100
AcDbCircle
 10
261.619758
 20
1115.405876
 40
1.0
100
AcDbArc
 50
3.597217E-005
 51
90.0
  0
LINE
  5
40C
100
AcDbEntity
  8
M0
 62
     2
100
AcDbLine
 10
314.619758
 20
899.40591
 11
314.619768
 21
914.469919
  0
LINE
  5
40D
100
AcDbEntity
  8
M0
 62
     2
100
AcDbLine
 10
315.619758
 20
898.40591
 11
326.619758
 21
898.40591
  0
ARC
  5
40E
100
AcDbEntity
  8
M0
 62
     2
100
AcDbCircle
 10
315.619758
 20
899.40591
 40
1.0
100
AcDbArc
 50
179.999964
 51
270.0
  0
ARC
  5
40F
100
AcDbEntity
  8
M0
 62
     2
100
AcDbCircle
 10
326.619758
 20
899.40591
 40
1.0
100
AcDbArc
 50
270.0
 51
359.999964
  0
LINE
  5
410
100
AcDbEntity
  8
M0
 62
     2
100
AcDbLine
 10
327.619758
 20
899.405909
 11
327.61977
 21
918.40591
  0
LINE
  5
411
100
AcDbEntity
  8
M0
 62
     2
100
AcDbLine
 10
262.619758
 20
899.405943
 11
262.619768
 21
914.469952
  0
LINE
  5
412
100
AcDbEntity
  8
M0
 62
     2
100
AcDbLine
 10
261.619757
 20
898.405944
 11
250.619757
 21
898.405957
  0
ARC
  5
413
100
AcDbEntity
  8
M0
 62
     2
100
AcDbCircle
 10
261.619758
 20
899.405944
 40
1.0
100
AcDbArc
 50
270.0
 51
359.999964
  0
ARC
  5
414
100
AcDbEntity
  8
M0
 62
     2
100
AcDbCircle
 10
250.619758
 20
899.405957
 40
1.0
100
AcDbArc
 50
179.999964
 51
270.0
  0
LINE
  5
415
100
AcDbEntity
  8
M0
 62
     2
100
AcDbLine
 10
249.619758
 20
899.405958
 11
249.61977
 21
918.405959
  0
LINE
  5
416
100
AcDbEntity
  8
M0
 62
     2
100
AcDbLine
 10
172.420045
 20
925.40591
 11
175.620045
 21
925.40591
  0
LINE
  5
417
100
AcDbEntity
  8
M0
 62
     2
100
AcDbLine
 10
163.820045
 20
912.405911
 11
158.620045
 21
912.405911
  0
LINE
  5
418
100
AcDbEntity
  8
M0
 62
     2
100
AcDbLine
 10
170.620045
 20
912.405911
 11
165.620045
 21
912.405911
  0
LINE
  5
419
100
AcDbEntity
  8
M0
 62
     2
100
AcDbLine
 10
192.420045
 20
925.40591
 11
192.620045
 21
925.40591
  0
LINE
  5
41A
100
AcDbEntity
  8
M0
 62
     2
100
AcDbLine
 10
190.620045
 20
912.405911
 11
185.620045
 21
912.405911
  0
LINE
  5
41B
100
AcDbEntity
  8
M0
 62
     2
100
AcDbLine
 10
183.820045
 20
912.405911
 11
180.620045
 21
912.405911
  0
LINE
  5
41C
100
AcDbEntity
  8
M0
 62
     2
100
AcDbLine
 10
384.820045
 20
925.40591
 11
384.620045
 21
925.40591
  0
LINE
  5
41D
100
AcDbEntity
  8
M0
 62
     2
100
AcDbLine
 10
393.420045
 20
912.405911
 11
396.620045
 21
912.405911
  0
LINE
  5
41E
100
AcDbEntity
  8
M0
 62
     2
100
AcDbLine
 10
386.620045
 20
912.405911
 11
391.620045
 21
912.405911
  0
LINE
  5
41F
100
AcDbEntity
  8
M0
100
AcDbLine
 10
378.620045
 20
849.40591
 11
378.620045
 21
881.40591
  0
LINE
  5
420
100
AcDbEntity
  8
M0
100
AcDbLine
 10
338.620045
 20
881.40591
 11
338.620045
 21
849.40591
  0
LINE
  5
421
100
AcDbEntity
  8
M0
100
AcDbLine
 10
338.620045
 20
849.40591
 11
378.620045
 21
849.40591
  0
LINE
  5
422
100
AcDbEntity
  8
M0
100
AcDbLine
 10
333.620045
 20
918.40591
 11
333.620045
 21
895.40591
  0
LINE
  5
423
100
AcDbEntity
  8
M0
100
AcDbLine
 10
338.620045
 20
881.40591
 11
333.620045
 21
895.40591
  0
LINE
  5
424
100
AcDbEntity
  8
M0
100
AcDbLine
 10
363.620045
 20
918.40591
 11
363.620045
 21
895.40591
  0
LINE
  5
425
100
AcDbEntity
  8
M0
100
AcDbLine
 10
378.62003
 20
881.40591
 11
363.620045
 21
895.40591
  0
CIRCLE
  5
426
100
AcDbEntity
  8
M0
100
AcDbCircle
 10
358.620045
 20
865.40591
 40
6.0
  0
LINE
  5
427
100
AcDbEntity
  8
M0
  6
DASHDOT
100
AcDbLine
 10
343.620045
 20
865.40591
 11
373.620045
 21
865.40591
  0
LINE
  5
428
100
AcDbEntity
  8
M0
  6
DASHDOT
100
AcDbLine
 10
358.620045
 20
850.40591
 11
358.620045
 21
880.40591
  0
LINE
  5
429
100
AcDbEntity
  8
M0
100
AcDbLine
 10
418.570042
 20
882.405925
 11
418.570042
 21
1132.40591
  0
LINE
  5
42A
100
AcDbEntity
  8
M0
100
AcDbLine
 10
418.570042
 20
1132.40591
 11
377.548536
 21
1132.40591
  0
LINE
  5
42B
100
AcDbEntity
  8
M0
100
AcDbLine
 10
158.670048
 20
1132.40591
 11
158.670048
 21
882.405925
  0
LINE
  5
42C
100
AcDbEntity
  8
M0
100
AcDbLine
 10
158.670048
 20
882.405925
 11
183.357456
 21
882.405925
  0
LINE
  5
42D
100
AcDbEntity
  8
M0
  6
DASHDOT
100
AcDbLine
 10
133.670048
 20
1007.40591
 11
444.560032
 21
1007.40591
  0
CIRCLE
  5
42E
100
AcDbEntity
  8
M0
100
AcDbCircle
 10
203.619756
 20
1119.40591
 40
5.75
  0
CIRCLE
  5
42F
100
AcDbEntity
  8
M0
100
AcDbCircle
 10
373.619756
 20
1119.40591
 40
5.75
  0
LINE
  5
430
100
AcDbEntity
  8
M0
100
AcDbLine
 10
418.570042
 20
1101.90591
 11
415.37003
 21
1101.90591
  0
LINE
  5
431
100
AcDbEntity
  8
M0
100
AcDbLine
 10
415.37003
 20
1132.40591
 11
415.37003
 21
1101.90591
  0
LINE
  5
432
100
AcDbEntity
  8
M0
100
AcDbLine
 10
158.670048
 20
1101.90591
 11
161.440601
 21
1101.90591
  0
LINE
  5
433
100
AcDbEntity
  8
M0
100
AcDbLine
 10
161.87006
 20
1132.40591
 11
161.87006
 21
1101.90591
  0
LINE
  5
434
100
AcDbEntity
  8
M0
100
AcDbLine
 10
308.620045
 20
882.405925
 11
338.620045
 21
882.405925
  0
LINE
  5
435
100
AcDbEntity
  8
M0
100
AcDbLine
 10
393.882633
 20
882.405925
 11
418.570042
 21
882.405925
  0
LINE
  5
436
100
AcDbEntity
  8
M0
100
AcDbLine
 10
238.620045
 20
882.405925
 11
268.620045
 21
882.405925
  0
ARC
  5
437
100
AcDbEntity
  8
M0
100
AcDbCircle
 10
203.619895
 20
897.40591
 40
11.5
100
AcDbArc
 50
29.591783
 51
64.505546
  0
LINE
  5
438
100
AcDbEntity
  8
M0
100
AcDbLine
 10
338.262853
 20
1132.40591
 11
308.262844
 21
1132.40591
  0
LINE
  5
439
100
AcDbEntity
  8
M0
100
AcDbLine
 10
268.977192
 20
1132.40591
 11
238.977192
 21
1132.40591
  0
LINE
  5
43A
100
AcDbEntity
  8
M0
100
AcDbLine
 10
196.560775
 20
1132.40591
 11
158.670048
 21
1132.40591
  0
ARC
  5
43B
100
AcDbEntity
  8
M0
100
AcDbCircle
 10
203.619756
 20
1119.40591
 40
11.5
100
AcDbArc
 50
100.5818
 51
175.011504
  0
ARC
  5
43C
100
AcDbEntity
  8
M0
100
AcDbCircle
 10
373.619756
 20
1119.40591
 40
11.5
100
AcDbArc
 50
209.591812
 51
290.354715
  0
ARC
  5
43D
100
AcDbEntity
  8
M0
100
AcDbCircle
 10
373.619895
 20
897.40591
 40
11.5
100
AcDbArc
 50
115.495992
 51
150.4081
  0
ARC
  5
43E
100
AcDbEntity
  8
M0
100
AcDbCircle
 10
318.619756
 20
1119.40591
 40
5.75
100
AcDbArc
 50
328.551019
 51
585.916817
  0
ARC
  5
43F
100
AcDbEntity
  8
M0
100
AcDbCircle
 10
318.619756
 20
1119.40591
 40
11.5
100
AcDbArc
 50
321.497772
 51
609.644094
  0
ARC
  5
440
100
AcDbEntity
  8
M0
100
AcDbCircle
 10
318.619895
 20
897.40591
 40
11.5
100
AcDbArc
 50
248.502484
 51
291.497516
  0
ARC
  5
441
100
AcDbEntity
  8
M0
100
AcDbCircle
 10
203.619756
 20
1119.40591
 40
11.5
100
AcDbArc
 50
249.645357
 51
330.408018
  0
ARC
  5
442
100
AcDbEntity
  8
M0
100
AcDbCircle
 10
373.619756
 20
1119.40591
 40
11.5
100
AcDbArc
 50
4.989102
 51
79.418051
  0
LINE
  5
443
100
AcDbEntity
  8
M0
 62
     6
100
AcDbLine
 10
174.720017
 20
1052.405907
 11
189.620017
 21
1052.405912
  0
LINE
  5
444
100
AcDbEntity
  8
M0
 62
     6
100
AcDbLine
 10
189.620017
 20
1052.405912
 11
189.620045
 21
962.405912
  0
LINE
  5
445
100
AcDbEntity
  8
M0
 62
     6
100
AcDbLine
 10
189.620045
 20
962.405912
 11
174.720046
 21
962.405907
  0
LINE
  5
446
100
AcDbEntity
  8
M0
 62
     6
100
AcDbLine
 10
174.720046
 20
962.405907
 11
174.720017
 21
1052.405907
  0
LINE
  5
447
100
AcDbEntity
  8
M0
 62
     6
100
AcDbLine
 10
187.670037
 20
989.405911
 11
187.670036
 21
990.905911
  0
LINE
  5
448
100
AcDbEntity
  8
M0
 62
     6
100
AcDbLine
 10
176.670037
 20
989.405908
 11
176.670036
 21
990.905908
  0
LINE
  5
449
100
AcDbEntity
  8
M0
 62
     6
100
AcDbLine
 10
187.670036
 20
990.905911
 11
176.670036
 21
990.905908
  0
LINE
  5
44A
100
AcDbEntity
  8
M0
 62
     6
100
AcDbLine
 10
186.670033
 20
1001.005902
 11
186.670036
 21
990.905911
  0
LINE
  5
44B
100
AcDbEntity
  8
M0
 62
     6
100
AcDbLine
 10
186.670037
 20
989.405911
 11
186.670045
 21
962.405911
  0
LINE
  5
44C
100
AcDbEntity
  8
M0
 62
     6
100
AcDbLine
 10
177.670033
 20
1001.005899
 11
177.670036
 21
990.905908
  0
LINE
  5
44D
100
AcDbEntity
  8
M0
 62
     6
100
AcDbLine
 10
177.670037
 20
989.405908
 11
177.670045
 21
962.405908
  0
LINE
  5
44E
100
AcDbEntity
  8
M0
 62
     6
100
AcDbLine
 10
176.670037
 20
989.405908
 11
177.670037
 21
989.405908
  0
LINE
  5
44F
100
AcDbEntity
  8
M0
 62
     6
100
AcDbLine
 10
186.670037
 20
989.405911
 11
187.670037
 21
989.405911
  0
LINE
  5
450
100
AcDbEntity
  8
M0
 62
     6
100
AcDbLine
 10
177.670033
 20
1001.005899
 11
186.670033
 21
1001.005902
  0
LINE
  5
451
100
AcDbEntity
  8
M0
 62
     6
100
AcDbLine
 10
186.670043
 20
968.405911
 11
177.670043
 21
968.405908
  0
LINE
  5
452
100
AcDbEntity
  8
M0
 62
     6
100
AcDbLine
 10
189.620039
 20
982.405912
 11
186.670039
 21
982.405911
  0
LINE
  5
453
100
AcDbEntity
  8
M0
 62
     6
100
AcDbLine
 10
177.670039
 20
982.405908
 11
174.720039
 21
982.405907
  0
LINE
  5
454
100
AcDbEntity
  8
M0
 62
     6
100
AcDbLine
 10
176.670026
 20
1025.405908
 11
176.670026
 21
1023.905908
  0
LINE
  5
455
100
AcDbEntity
  8
M0
 62
     6
100
AcDbLine
 10
187.670026
 20
1023.905911
 11
176.670026
 21
1023.905908
  0
LINE
  5
456
100
AcDbEntity
  8
M0
 62
     6
100
AcDbLine
 10
177.670029
 20
1013.805902
 11
177.670026
 21
1023.905908
  0
LINE
  5
457
100
AcDbEntity
  8
M0
 62
     6
100
AcDbLine
 10
177.670026
 20
1025.405908
 11
177.670017
 21
1052.405908
  0
LINE
  5
458
100
AcDbEntity
  8
M0
 62
     6
100
AcDbLine
 10
176.670026
 20
1025.405908
 11
177.670026
 21
1025.405908
  0
LINE
  5
459
100
AcDbEntity
  8
M0
 62
     6
100
AcDbLine
 10
177.670029
 20
1013.805902
 11
186.670029
 21
1013.805905
  0
LINE
  5
45A
100
AcDbEntity
  8
M0
 62
     6
100
AcDbLine
 10
186.670019
 20
1046.405911
 11
177.670019
 21
1046.405908
  0
LINE
  5
45B
100
AcDbEntity
  8
M0
 62
     6
100
AcDbLine
 10
177.670023
 20
1032.405908
 11
174.720024
 21
1032.405907
  0
LINE
  5
45C
100
AcDbEntity
  8
M0
 62
     6
100
AcDbLine
 10
186.670029
 20
1013.805905
 11
186.670026
 21
1023.905911
  0
LINE
  5
45D
100
AcDbEntity
  8
M0
 62
     6
100
AcDbLine
 10
187.670026
 20
1025.405911
 11
187.670026
 21
1023.905911
  0
LINE
  5
45E
100
AcDbEntity
  8
M0
 62
     6
100
AcDbLine
 10
186.670026
 20
1025.405911
 11
187.670026
 21
1025.405911
  0
LINE
  5
45F
100
AcDbEntity
  8
M0
 62
     6
100
AcDbLine
 10
186.670026
 20
1025.405911
 11
186.670017
 21
1052.405911
  0
LINE
  5
460
100
AcDbEntity
  8
M0
 62
     6
100
AcDbLine
 10
189.620023
 20
1032.405912
 11
186.670023
 21
1032.405911
  0
CIRCLE
  5
461
100
AcDbEntity
  8
M0
 62
     6
100
AcDbCircle
 10
182.170031
 20
1007.40591
 40
2.799999
  0
LINE
  5
462
100
AcDbEntity
  8
M0
 62
     6
100
AcDbLine
 10
402.520042
 20
1052.405907
 11
387.620042
 21
1052.405912
  0
LINE
  5
463
100
AcDbEntity
  8
M0
 62
     6
100
AcDbLine
 10
387.620042
 20
1052.405912
 11
387.620014
 21
962.405912
  0
LINE
  5
464
100
AcDbEntity
  8
M0
 62
     6
100
AcDbLine
 10
387.620014
 20
962.405912
 11
402.520013
 21
962.405907
  0
LINE
  5
465
100
AcDbEntity
  8
M0
 62
     6
100
AcDbLine
 10
402.520013
 20
962.405907
 11
402.520042
 21
1052.405907
  0
LINE
  5
466
100
AcDbEntity
  8
M0
 62
     6
100
AcDbLine
 10
389.570022
 20
989.405911
 11
389.570023
 21
990.905911
  0
LINE
  5
467
100
AcDbEntity
  8
M0
 62
     6
100
AcDbLine
 10
400.570022
 20
989.405908
 11
400.570023
 21
990.905908
  0
LINE
  5
468
100
AcDbEntity
  8
M0
 62
     6
100
AcDbLine
 10
389.570023
 20
990.905911
 11
400.570023
 21
990.905908
  0
LINE
  5
469
100
AcDbEntity
  8
M0
 62
     6
100
AcDbLine
 10
390.570026
 20
1001.005902
 11
390.570023
 21
990.905911
  0
LINE
  5
46A
100
AcDbEntity
  8
M0
 62
     6
100
AcDbLine
 10
390.570022
 20
989.405911
 11
390.570014
 21
962.405911
  0
LINE
  5
46B
100
AcDbEntity
  8
M0
 62
     6
100
AcDbLine
 10
399.570026
 20
1001.005899
 11
399.570023
 21
990.905908
  0
LINE
  5
46C
100
AcDbEntity
  8
M0
 62
     6
100
AcDbLine
 10
399.570022
 20
989.405908
 11
399.570014
 21
962.405908
  0
LINE
  5
46D
100
AcDbEntity
  8
M0
 62
     6
100
AcDbLine
 10
400.570022
 20
989.405908
 11
399.570022
 21
989.405908
  0
LINE
  5
46E
100
AcDbEntity
  8
M0
 62
     6
100
AcDbLine
 10
390.570022
 20
989.405911
 11
389.570022
 21
989.405911
  0
LINE
  5
46F
100
AcDbEntity
  8
M0
 62
     6
100
AcDbLine
 10
399.570026
 20
1001.005899
 11
390.570026
 21
1001.005902
  0
LINE
  5
470
100
AcDbEntity
  8
M0
 62
     6
100
AcDbLine
 10
390.570016
 20
968.405911
 11
399.570016
 21
968.405908
  0
LINE
  5
471
100
AcDbEntity
  8
M0
 62
     6
100
AcDbLine
 10
387.62002
 20
982.405912
 11
390.57002
 21
982.405911
  0
LINE
  5
472
100
AcDbEntity
  8
M0
 62
     6
100
AcDbLine
 10
399.57002
 20
982.405908
 11
402.52002
 21
982.405907
  0
LINE
  5
473
100
AcDbEntity
  8
M0
 62
     6
100
AcDbLine
 10
400.570033
 20
1025.405908
 11
400.570033
 21
1023.905908
  0
LINE
  5
474
100
AcDbEntity
  8
M0
 62
     6
100
AcDbLine
 10
389.570033
 20
1023.905911
 11
400.570033
 21
1023.905908
  0
LINE
  5
475
100
AcDbEntity
  8
M0
 62
     6
100
AcDbLine
 10
399.57003
 20
1013.805902
 11
399.570033
 21
1023.905908
  0
LINE
  5
476
100
AcDbEntity
  8
M0
 62
     6
100
AcDbLine
 10
399.570033
 20
1025.405908
 11
399.570042
 21
1052.405908
  0
LINE
  5
477
100
AcDbEntity
  8
M0
 62
     6
100
AcDbLine
 10
400.570033
 20
1025.405908
 11
399.570033
 21
1025.405908
  0
LINE
  5
478
100
AcDbEntity
  8
M0
 62
     6
100
AcDbLine
 10
399.57003
 20
1013.805902
 11
390.57003
 21
1013.805905
  0
LINE
  5
479
100
AcDbEntity
  8
M0
 62
     6
100
AcDbLine
 10
390.57004
 20
1046.405911
 11
399.57004
 21
1046.405908
  0
LINE
  5
47A
100
AcDbEntity
  8
M0
 62
     6
100
AcDbLine
 10
399.570036
 20
1032.405908
 11
402.520035
 21
1032.405907
  0
LINE
  5
47B
100
AcDbEntity
  8
M0
 62
     6
100
AcDbLine
 10
390.57003
 20
1013.805905
 11
390.570033
 21
1023.905911
  0
LINE
  5
47C
100
AcDbEntity
  8
M0
 62
     6
100
AcDbLine
 10
389.570033
 20
1025.405911
 11
389.570033
 21
1023.905911
  0
LINE
  5
47D
100
AcDbEntity
  8
M0
 62
     6
100
AcDbLine
 10
390.570033
 20
1025.405911
 11
389.570033
 21
1025.405911
  0
LINE
  5
47E
100
AcDbEntity
  8
M0
 62
     6
100
AcDbLine
 10
390.570033
 20
1025.405911
 11
390.570042
 21
1052.405911
  0
LINE
  5
47F
100
AcDbEntity
  8
M0
 62
     6
100
AcDbLine
 10
387.620036
 20
1032.405912
 11
390.570036
 21
1032.405911
  0
CIRCLE
  5
480
100
AcDbEntity
  8
M0
 62
     6
100
AcDbCircle
 10
395.070028
 20
1007.40591
 40
2.799999
  0
ARC
  5
481
100
AcDbEntity
  8
M0
 62
     7
100
AcDbCircle
 10
386.120045
 20
963.90591
 40
1.5
100
AcDbArc
 50
269.999417
 51
360.0
  0
ARC
  5
482
100
AcDbEntity
  8
M0
 62
     7
100
AcDbCircle
 10
386.120045
 20
960.90591
 40
1.5
100
AcDbArc
 50
90.0
 51
180.0
  0
ARC
  5
483
100
AcDbEntity
  8
M0
 62
     7
100
AcDbCircle
 10
383.620045
 20
1098.40591
 40
4.0
100
AcDbArc
 50
0.0
 51
90.0
  0
LINE
  5
484
100
AcDbEntity
  8
M0
 62
     7
100
AcDbLine
 10
383.620045
 20
1102.40591
 11
378.620045
 21
1102.40591
  0
LINE
  5
485
100
AcDbEntity
  8
M0
 62
     7
100
AcDbLine
 10
314.000034
 20
1098.565898
 11
314.280033
 21
1099.525905
  0
ARC
  5
486
100
AcDbEntity
  8
M0
 62
     7
100
AcDbCircle
 10
311.120045
 20
1099.40591
 40
3.0
100
AcDbArc
 50
269.999709
 51
343.738968
  0
LINE
  5
487
100
AcDbEntity
  8
M0
 62
     7
100
AcDbLine
 10
322.960041
 20
1099.525905
 11
323.24004
 21
1098.565898
  0
ARC
  5
488
100
AcDbEntity
  8
M0
 62
     7
100
AcDbCircle
 10
326.120045
 20
1099.40591
 40
3.0
100
AcDbArc
 50
196.260391
 51
269.999709
  0
LINE
  5
489
100
AcDbEntity
  8
M0
 62
     7
100
AcDbLine
 10
374.500034
 20
1098.565898
 11
374.780033
 21
1099.525905
  0
ARC
  5
48A
100
AcDbEntity
  8
M0
 62
     7
100
AcDbCircle
 10
378.620045
 20
1098.40591
 40
4.0
100
AcDbArc
 50
90.0
 51
163.740119
  0
ARC
  5
48B
100
AcDbEntity
  8
M0
 62
     7
100
AcDbCircle
 10
371.620045
 20
1099.40591
 40
3.0
100
AcDbArc
 50
269.999709
 51
343.738968
  0
LINE
  5
48C
100
AcDbEntity
  8
M0
 62
     7
100
AcDbLine
 10
371.620045
 20
1096.40591
 11
326.120045
 21
1096.40591
  0
ARC
  5
48D
100
AcDbEntity
  8
M0
 62
     7
100
AcDbCircle
 10
319.120045
 20
1098.40591
 40
4.0
100
AcDbArc
 50
16.260152
 51
90.0
  0
ARC
  5
48E
100
AcDbEntity
  8
M0
 62
     7
100
AcDbCircle
 10
318.120045
 20
1098.40591
 40
4.0
100
AcDbArc
 50
90.0
 51
163.740119
  0
LINE
  5
48F
100
AcDbEntity
  8
M0
 62
     7
100
AcDbLine
 10
318.120045
 20
1102.40591
 11
319.120045
 21
1102.40591
  0
ARC
  5
490
100
AcDbEntity
  8
M0
 62
     7
100
AcDbCircle
 10
384.620045
 20
1085.40591
 40
3.0
100
AcDbArc
 50
269.999709
 51
360.0
  0
ARC
  5
491
100
AcDbEntity
  8
M0
 62
     7
100
AcDbCircle
 10
384.620045
 20
1069.40591
 40
3.0
100
AcDbArc
 50
0.0
 51
90.0
  0
LINE
  5
492
100
AcDbEntity
  8
M0
 62
     7
100
AcDbLine
 10
384.620045
 20
1082.40591
 11
379.620045
 21
1082.40591
  0
LINE
  5
493
100
AcDbEntity
  8
M0
 62
     7
100
AcDbLine
 10
384.620045
 20
1072.40591
 11
379.620045
 21
1072.40591
  0
ARC
  5
494
100
AcDbEntity
  8
M0
 62
     7
100
AcDbCircle
 10
379.620045
 20
1077.40591
 40
5.0
100
AcDbArc
 50
90.0
 51
269.999825
  0
ARC
  5
495
100
AcDbEntity
  8
M0
 62
     7
100
AcDbCircle
 10
193.620045
 20
1098.40591
 40
4.0
100
AcDbArc
 50
89.999781
 51
180.0
  0
LINE
  5
496
100
AcDbEntity
  8
M0
 62
     7
100
AcDbLine
 10
193.620045
 20
1102.40591
 11
198.620045
 21
1102.40591
  0
LINE
  5
497
100
AcDbEntity
  8
M0
 62
     7
100
AcDbLine
 10
263.240055
 20
1098.565898
 11
262.960056
 21
1099.525905
  0
ARC
  5
498
100
AcDbEntity
  8
M0
 62
     7
100
AcDbCircle
 10
266.120045
 20
1099.40591
 40
3.0
100
AcDbArc
 50
196.260753
 51
270.0
  0
LINE
  5
499
100
AcDbEntity
  8
M0
 62
     7
100
AcDbLine
 10
254.280048
 20
1099.525905
 11
254.00005
 21
1098.565898
  0
ARC
  5
49A
100
AcDbEntity
  8
M0
 62
     7
100
AcDbCircle
 10
251.120045
 20
1099.40591
 40
3.0
100
AcDbArc
 50
270.0
 51
343.739609
  0
LINE
  5
49B
100
AcDbEntity
  8
M0
 62
     7
100
AcDbLine
 10
202.740055
 20
1098.565898
 11
202.460056
 21
1099.525905
  0
ARC
  5
49C
100
AcDbEntity
  8
M0
 62
     7
100
AcDbCircle
 10
198.620045
 20
1098.40591
 40
4.0
100
AcDbArc
 50
16.259671
 51
89.999781
  0
ARC
  5
49D
100
AcDbEntity
  8
M0
 62
     7
100
AcDbCircle
 10
205.620045
 20
1099.40591
 40
3.0
100
AcDbArc
 50
196.260753
 51
270.0
  0
LINE
  5
49E
100
AcDbEntity
  8
M0
 62
     7
100
AcDbLine
 10
205.620045
 20
1096.40591
 11
251.120045
 21
1096.40591
  0
LINE
  5
49F
100
AcDbEntity
  8
M0
 62
     7
100
AcDbLine
 10
311.120045
 20
1096.40591
 11
266.120045
 21
1096.40591
  0
ARC
  5
4A0
100
AcDbEntity
  8
M0
 62
     7
100
AcDbCircle
 10
258.120045
 20
1098.40591
 40
4.0
100
AcDbArc
 50
89.999781
 51
163.739848
  0
ARC
  5
4A1
100
AcDbEntity
  8
M0
 62
     7
100
AcDbCircle
 10
259.120045
 20
1098.40591
 40
4.0
100
AcDbArc
 50
16.259671
 51
89.999781
  0
LINE
  5
4A2
100
AcDbEntity
  8
M0
 62
     7
100
AcDbLine
 10
259.120045
 20
1102.40591
 11
258.120045
 21
1102.40591
  0
ARC
  5
4A3
100
AcDbEntity
  8
M0
 62
     7
100
AcDbCircle
 10
192.620045
 20
1085.40591
 40
3.0
100
AcDbArc
 50
180.0
 51
270.0
  0
ARC
  5
4A4
100
AcDbEntity
  8
M0
 62
     7
100
AcDbCircle
 10
192.620045
 20
1069.40591
 40
3.0
100
AcDbArc
 50
89.999709
 51
180.0
  0
LINE
  5
4A5
100
AcDbEntity
  8
M0
 62
     7
100
AcDbLine
 10
192.620045
 20
1082.40591
 11
197.620045
 21
1082.40591
  0
LINE
  5
4A6
100
AcDbEntity
  8
M0
 62
     7
100
AcDbLine
 10
192.620045
 20
1072.40591
 11
197.620045
 21
1072.40591
  0
ARC
  5
4A7
100
AcDbEntity
  8
M0
 62
     7
100
AcDbCircle
 10
197.620045
 20
1077.40591
 40
5.0
100
AcDbArc
 50
-90.0
 51
89.999825
  0
LINE
  5
4A8
100
AcDbEntity
  8
M0
 62
     7
100
AcDbLine
 10
314.000034
 20
916.245912
 11
314.280033
 21
915.285912
  0
ARC
  5
4A9
100
AcDbEntity
  8
M0
 62
     7
100
AcDbCircle
 10
311.120045
 20
915.405912
 40
3.0
100
AcDbArc
 50
16.260368
 51
90.0
  0
LINE
  5
4AA
100
AcDbEntity
  8
M0
 62
     7
100
AcDbLine
 10
322.960041
 20
915.285912
 11
323.24004
 21
916.245912
  0
ARC
  5
4AB
100
AcDbEntity
  8
M0
 62
     7
100
AcDbCircle
 10
326.120045
 20
915.405912
 40
3.0
100
AcDbArc
 50
90.0
 51
163.739819
  0
LINE
  5
4AC
100
AcDbEntity
  8
M0
 62
     7
100
AcDbLine
 10
311.120045
 20
918.405911
 11
266.120045
 21
918.405911
  0
ARC
  5
4AD
100
AcDbEntity
  8
M0
 62
     7
100
AcDbCircle
 10
319.120045
 20
916.405912
 40
4.0
100
AcDbArc
 50
269.999781
 51
343.739703
  0
ARC
  5
4AE
100
AcDbEntity
  8
M0
 62
     7
100
AcDbCircle
 10
380.620045
 20
916.405912
 40
4.0
100
AcDbArc
 50
-90.000219
 51
0.0
  0
LINE
  5
4AF
100
AcDbEntity
  8
M0
 62
     7
100
AcDbLine
 10
192.620045
 20
916.405912
 11
192.620045
 21
960.90591
  0
LINE
  5
4B0
100
AcDbEntity
  8
M0
 62
     7
100
AcDbLine
 10
384.620045
 20
916.405912
 11
384.620045
 21
960.90591
  0
LINE
  5
4B1
100
AcDbEntity
  8
M0
 62
     7
100
AcDbLine
 10
380.620045
 20
912.405912
 11
378.720036
 21
912.405912
  0
LINE
  5
4B2
100
AcDbEntity
  8
M0
 62
     7
100
AcDbLine
 10
374.60004
 20
916.245912
 11
374.880039
 21
915.285912
  0
ARC
  5
4B3
100
AcDbEntity
  8
M0
 62
     7
100
AcDbCircle
 10
378.720036
 20
916.405912
 40
4.0
100
AcDbArc
 50
196.260039
 51
269.999781
  0
ARC
  5
4B4
100
AcDbEntity
  8
M0
 62
     7
100
AcDbCircle
 10
371.720036
 20
915.405912
 40
3.0
100
AcDbArc
 50
16.260298
 51
90.0
  0
LINE
  5
4B5
100
AcDbEntity
  8
M0
 62
     7
100
AcDbLine
 10
371.720036
 20
918.405911
 11
326.120045
 21
918.405911
  0
ARC
  5
4B6
100
AcDbEntity
  8
M0
 62
     7
100
AcDbCircle
 10
318.120045
 20
916.405912
 40
4.0
100
AcDbArc
 50
196.260039
 51
269.999781
  0
LINE
  5
4B7
100
AcDbEntity
  8
M0
 62
     7
100
AcDbLine
 10
318.120045
 20
912.405912
 11
319.120045
 21
912.405912
  0
LINE
  5
4B8
100
AcDbEntity
  8
M0
 62
     7
100
AcDbLine
 10
263.240055
 20
916.245912
 11
262.960056
 21
915.285912
  0
ARC
  5
4B9
100
AcDbEntity
  8
M0
 62
     7
100
AcDbCircle
 10
266.120045
 20
915.405912
 40
3.0
100
AcDbArc
 50
89.999709
 51
163.739527
  0
LINE
  5
4BA
100
AcDbEntity
  8
M0
 62
     7
100
AcDbLine
 10
254.280048
 20
915.285912
 11
254.00005
 21
916.245912
  0
ARC
  5
4BB
100
AcDbEntity
  8
M0
 62
     7
100
AcDbCircle
 10
251.120045
 20
915.405912
 40
3.0
100
AcDbArc
 50
16.260146
 51
89.999709
  0
ARC
  5
4BC
100
AcDbEntity
  8
M0
 62
     7
100
AcDbCircle
 10
258.120045
 20
916.405912
 40
4.0
100
AcDbArc
 50
196.260192
 51
270.0
  0
ARC
  5
4BD
100
AcDbEntity
  8
M0
 62
     7
100
AcDbCircle
 10
259.120045
 20
916.405912
 40
4.0
100
AcDbArc
 50
270.0
 51
343.73987
  0
LINE
  5
4BE
100
AcDbEntity
  8
M0
 62
     7
100
AcDbLine
 10
259.120045
 20
912.405912
 11
258.120045
 21
912.405912
  0
ARC
  5
4BF
100
AcDbEntity
  8
M0
 62
     7
100
AcDbCircle
 10
196.620045
 20
916.405912
 40
4.0
100
AcDbArc
 50
179.999959
 51
270.0
  0
ARC
  5
4C0
100
AcDbEntity
  8
M0
 62
     7
100
AcDbCircle
 10
195.620045
 20
929.405911
 40
3.0
100
AcDbArc
 50
89.999709
 51
179.999982
  0
ARC
  5
4C1
100
AcDbEntity
  8
M0
 62
     7
100
AcDbCircle
 10
195.620045
 20
945.40591
 40
3.0
100
AcDbArc
 50
180.0
 51
270.0
  0
LINE
  5
4C2
100
AcDbEntity
  8
M0
 62
     7
100
AcDbLine
 10
195.620045
 20
932.405911
 11
200.620045
 21
932.405911
  0
LINE
  5
4C3
100
AcDbEntity
  8
M0
 62
     7
100
AcDbLine
 10
195.620045
 20
942.40591
 11
200.620045
 21
942.40591
  0
ARC
  5
4C4
100
AcDbEntity
  8
M0
 62
     7
100
AcDbCircle
 10
200.620045
 20
937.40591
 40
5.0
100
AcDbArc
 50
270.0
 51
449.999825
  0
ARC
  5
4C5
100
AcDbEntity
  8
M0
 62
     7
100
AcDbCircle
 10
381.620045
 20
929.405911
 40
3.0
100
AcDbArc
 50
0.0
 51
90.0
  0
ARC
  5
4C6
100
AcDbEntity
  8
M0
 62
     7
100
AcDbCircle
 10
381.620045
 20
945.40591
 40
3.0
100
AcDbArc
 50
-90.000291
 51
0.0
  0
LINE
  5
4C7
100
AcDbEntity
  8
M0
 62
     7
100
AcDbLine
 10
381.620045
 20
932.405911
 11
376.620045
 21
932.405911
  0
LINE
  5
4C8
100
AcDbEntity
  8
M0
 62
     7
100
AcDbLine
 10
381.620045
 20
942.40591
 11
376.620045
 21
942.40591
  0
ARC
  5
4C9
100
AcDbEntity
  8
M0
 62
     7
100
AcDbCircle
 10
376.620045
 20
937.40591
 40
5.0
100
AcDbArc
 50
90.0
 51
269.999825
  0
LINE
  5
4CA
100
AcDbEntity
  8
M0
 62
     7
100
AcDbLine
 10
189.620045
 20
963.90591
 11
189.620045
 21
1098.40591
  0
ARC
  5
4CB
100
AcDbEntity
  8
M0
 62
     7
100
AcDbCircle
 10
191.120045
 20
963.90591
 40
1.5
100
AcDbArc
 50
180.0
 51
270.0
  0
ARC
  5
4CC
100
AcDbEntity
  8
M0
 62
     7
100
AcDbCircle
 10
191.120045
 20
960.90591
 40
1.5
100
AcDbArc
 50
0.0
 51
89.999417
  0
LINE
  5
4CD
100
AcDbEntity
  8
M0
 62
     7
100
AcDbLine
 10
387.620045
 20
963.90591
 11
387.620045
 21
1098.40591
  0
LINE
  5
4CE
100
AcDbEntity
  8
M0
 62
     7
100
AcDbLine
 10
205.520054
 20
918.405911
 11
251.120045
 21
918.405911
  0
ARC
  5
4CF
100
AcDbEntity
  8
M0
 62
     7
100
AcDbCircle
 10
205.520054
 20
915.405912
 40
3.0
100
AcDbArc
 50
89.999709
 51
163.739632
  0
ARC
  5
4D0
100
AcDbEntity
  8
M0
 62
     7
100
AcDbCircle
 10
198.520054
 20
916.405912
 40
4.0
100
AcDbArc
 50
270.0
 51
343.73987
  0
LINE
  5
4D1
100
AcDbEntity
  8
M0
 62
     7
100
AcDbLine
 10
202.640049
 20
916.245912
 11
202.36005
 21
915.285912
  0
LINE
  5
4D2
100
AcDbEntity
  8
M0
 62
     7
100
AcDbLine
 10
196.620045
 20
912.405912
 11
198.520054
 21
912.405912
  0
LINE
  5
4D3
100
AcDbEntity
  8
M0
  6
DASHDOT
 62
     7
100
AcDbLine
 10
272.320057
 20
1018.90591
 11
304.920033
 21
1018.90591
  0
ARC
  5
4D4
100
AcDbEntity
  8
M0
 62
     7
100
AcDbCircle
 10
290.620045
 20
1034.255901
 40
1.0
100
AcDbArc
 50
0.0
 51
90.0
  0
LINE
  5
4D5
100
AcDbEntity
  8
M0
 62
     7
100
AcDbLine
 10
286.620045
 20
1035.255901
 11
290.620045
 21
1035.255901
  0
ARC
  5
4D6
100
AcDbEntity
  8
M0
 62
     7
100
AcDbCircle
 10
286.620045
 20
1034.255901
 40
1.0
100
AcDbArc
 50
90.0
 51
180.0
  0
LINE
  5
4D7
100
AcDbEntity
  8
M0
 62
     7
100
AcDbLine
 10
285.620045
 20
1034.255901
 11
285.620045
 21
1031.255901
  0
LINE
  5
4D8
100
AcDbEntity
  8
M0
 62
     7
100
AcDbLine
 10
291.620045
 20
1034.255901
 11
291.620045
 21
1031.255901
  0
LINE
  5
4D9
100
AcDbEntity
  8
M0
 62
     7
100
AcDbLine
 10
282.120045
 20
1032.255901
 11
295.120045
 21
1032.255901
  0
LINE
  5
4DA
100
AcDbEntity
  8
M0
 62
     7
100
AcDbLine
 10
282.120045
 20
1031.255901
 11
285.620045
 21
1031.255901
  0
LINE
  5
4DB
100
AcDbEntity
  8
M0
 62
     7
100
AcDbLine
 10
291.620045
 20
1031.255901
 11
295.120045
 21
1031.255901
  0
LINE
  5
4DC
100
AcDbEntity
  8
M0
 62
     7
100
AcDbLine
 10
282.120045
 20
1032.255901
 11
282.120045
 21
1029.055904
  0
LINE
  5
4DD
100
AcDbEntity
  8
M0
 62
     7
100
AcDbLine
 10
295.120045
 20
1032.255901
 11
295.120045
 21
1029.055904
  0
LINE
  5
4DE
100
AcDbEntity
  8
M0
 62
     7
100
AcDbLine
 10
296.920044
 20
1029.055904
 11
295.120045
 21
1029.055904
  0
ARC
  5
4DF
100
AcDbEntity
  8
M0
 62
     7
100
AcDbCircle
 10
296.920044
 20
1026.055904
 40
3.0
100
AcDbArc
 50
0.0
 51
90.0
  0
LINE
  5
4E0
100
AcDbEntity
  8
M0
 62
     7
100
AcDbLine
 10
282.120045
 20
1029.055904
 11
280.320046
 21
1029.055904
  0
ARC
  5
4E1
100
AcDbEntity
  8
M0
 62
     7
100
AcDbCircle
 10
280.320046
 20
1026.055904
 40
3.0
100
AcDbArc
 50
90.0
 51
180.0
  0
LINE
  5
4E2
100
AcDbEntity
  8
M0
 62
     7
100
AcDbLine
 10
297.620045
 20
1022.90591
 11
297.620045
 21
1014.90591
  0
LINE
  5
4E3
100
AcDbEntity
  8
M0
 62
     7
100
AcDbLine
 10
279.620045
 20
1022.90591
 11
279.620045
 21
1014.90591
  0
LINE
  5
4E4
100
AcDbEntity
  8
M0
 62
     7
100
AcDbLine
 10
297.620045
 20
1022.90591
 11
298.920044
 21
1022.90591
  0
ARC
  5
4E5
100
AcDbEntity
  8
M0
 62
     7
100
AcDbCircle
 10
298.920044
 20
1023.90591
 40
1.0
100
AcDbArc
 50
270.0
 51
360.0
  0
LINE
  5
4E6
100
AcDbEntity
  8
M0
 62
     7
100
AcDbLine
 10
278.320046
 20
1022.90591
 11
279.620045
 21
1022.90591
  0
ARC
  5
4E7
100
AcDbEntity
  8
M0
 62
     7
100
AcDbCircle
 10
278.320046
 20
1023.90591
 40
1.0
100
AcDbArc
 50
180.0
 51
270.0
  0
LINE
  5
4E8
100
AcDbEntity
  8
M0
 62
     7
100
AcDbLine
 10
278.320046
 20
1014.90591
 11
279.620045
 21
1014.90591
  0
ARC
  5
4E9
100
AcDbEntity
  8
M0
 62
     7
100
AcDbCircle
 10
278.320046
 20
1013.90591
 40
1.0
100
AcDbArc
 50
90.0
 51
180.0
  0
LINE
  5
4EA
100
AcDbEntity
  8
M0
 62
     7
100
AcDbLine
 10
297.620045
 20
1014.90591
 11
298.920044
 21
1014.90591
  0
ARC
  5
4EB
100
AcDbEntity
  8
M0
 62
     7
100
AcDbCircle
 10
298.920044
 20
1013.90591
 40
1.0
100
AcDbArc
 50
0.0
 51
90.0
  0
LINE
  5
4EC
100
AcDbEntity
  8
M0
 62
     7
100
AcDbLine
 10
277.320046
 20
1002.755901
 11
299.920044
 21
1002.755901
  0
LINE
  5
4ED
100
AcDbEntity
  8
M0
 62
     7
100
AcDbLine
 10
277.320046
 20
1026.055904
 11
277.320046
 21
1002.755901
  0
LINE
  5
4EE
100
AcDbEntity
  8
M0
 62
     7
100
AcDbLine
 10
299.920044
 20
1002.755901
 11
299.920044
 21
1026.055904
  0
LINE
  5
4EF
100
AcDbEntity
  8
M0
100
AcDbLine
 10
378.619971
 20
1165.405922
 11
378.619991
 21
1133.405922
  0
LINE
  5
4F0
100
AcDbEntity
  8
M0
100
AcDbLine
 10
338.619991
 20
1133.405897
 11
338.619971
 21
1165.405897
  0
LINE
  5
4F1
100
AcDbEntity
  8
M0
100
AcDbLine
 10
338.619971
 20
1165.405897
 11
378.619971
 21
1165.405922
  0
LINE
  5
4F2
100
AcDbEntity
  8
M0
100
AcDbLine
 10
333.620014
 20
1096.405894
 11
333.62
 21
1119.405894
  0
LINE
  5
4F3
100
AcDbEntity
  8
M0
100
AcDbLine
 10
338.619991
 20
1133.405897
 11
333.62
 21
1119.405894
  0
LINE
  5
4F4
100
AcDbEntity
  8
M0
100
AcDbLine
 10
363.620014
 20
1096.405913
 11
363.62
 21
1119.405913
  0
LINE
  5
4F5
100
AcDbEntity
  8
M0
100
AcDbLine
 10
378.619976
 20
1133.405922
 11
363.62
 21
1119.405913
  0
CIRCLE
  5
4F6
100
AcDbEntity
  8
M0
100
AcDbCircle
 10
358.619981
 20
1149.40591
 40
6.0
  0
LINE
  5
4F7
100
AcDbEntity
  8
M0
  6
DASHDOT
100
AcDbLine
 10
343.619981
 20
1149.40591
 11
373.619981
 21
1149.40591
  0
LINE
  5
4F8
100
AcDbEntity
  8
M0
  6
DASHDOT
100
AcDbLine
 10
358.619981
 20
1134.40591
 11
358.619981
 21
1164.40591
  0
LINE
  5
4F9
100
AcDbEntity
  8
M0
100
AcDbLine
 10
268.619971
 20
1165.405897
 11
308.619971
 21
1165.405922
  0
LINE
  5
4FA
100
AcDbEntity
  8
M0
100
AcDbLine
 10
268.619991
 20
1133.405897
 11
268.619971
 21
1165.405897
  0
LINE
  5
4FB
100
AcDbEntity
  8
M0
100
AcDbLine
 10
308.619971
 20
1165.405922
 11
308.619991
 21
1133.405922
  0
LINE
  5
4FC
100
AcDbEntity
  8
M0
100
AcDbLine
 10
303.620014
 20
1096.405919
 11
303.62
 21
1119.405919
  0
LINE
  5
4FD
100
AcDbEntity
  8
M0
100
AcDbLine
 10
303.62
 20
1119.405919
 11
308.619991
 21
1133.405922
  0
LINE
  5
4FE
100
AcDbEntity
  8
M0
100
AcDbLine
 10
268.619991
 20
1133.405897
 11
273.62
 21
1119.4059
  0
LINE
  5
4FF
100
AcDbEntity
  8
M0
100
AcDbLine
 10
273.620014
 20
1096.4059
 11
273.62
 21
1119.4059
  0
CIRCLE
  5
500
100
AcDbEntity
  8
M0
100
AcDbCircle
 10
288.619981
 20
1149.40591
 40
6.0
  0
LINE
  5
501
100
AcDbEntity
  8
M0
  6
DASHDOT
100
AcDbLine
 10
273.619981
 20
1149.40591
 11
303.619981
 21
1149.40591
  0
LINE
  5
502
100
AcDbEntity
  8
M0
 62
     7
100
AcDbLine
 10
722.420037
 20
984.90591
 11
718.72003
 21
984.90591
  0
LINE
  5
503
100
AcDbEntity
  8
M0
 62
     7
100
AcDbLine
 10
699.220037
 20
882.40591
 11
699.220037
 21
852.90591
  0
LINE
  5
504
100
AcDbEntity
  8
M0
 62
     7
100
AcDbLine
 10
699.220037
 20
852.90591
 11
722.420037
 21
852.90591
  0
LINE
  5
505
100
AcDbEntity
  8
M0
 62
     7
100
AcDbLine
 10
722.420037
 20
984.90591
 11
722.420037
 21
932.90591
  0
LINE
  5
506
100
AcDbEntity
  8
M0
 62
     7
100
AcDbLine
 10
722.420037
 20
882.40591
 11
722.420037
 21
852.90591
  0
LINE
  5
507
100
AcDbEntity
  8
M0
 62
     6
100
AcDbLine
 10
722.420037
 20
840.906032
 11
722.420037
 21
878.90591
  0
LINE
  5
508
100
AcDbEntity
  8
M0
 62
     6
100
AcDbLine
 10
722.420037
 20
878.90591
 11
725.620037
 21
878.90591
  0
LINE
  5
509
100
AcDbEntity
  8
M0
 62
     6
100
AcDbLine
 10
725.620037
 20
878.90591
 11
725.620037
 21
840.906032
  0
LINE
  5
50A
100
AcDbEntity
  8
M0
 62
     6
100
AcDbLine
 10
722.420037
 20
852.90591
 11
725.620037
 21
852.90591
  0
LINE
  5
50B
100
AcDbEntity
  8
M0
 62
     6
100
AcDbLine
 10
735.120037
 20
848.90591
 11
735.120037
 21
844.584481
  0
LINE
  5
50C
100
AcDbEntity
  8
M0
 62
     6
100
AcDbLine
 10
735.120037
 20
848.90591
 11
725.620037
 21
848.90591
  0
LINE
  5
50D
100
AcDbEntity
  8
M0
100
AcDbLine
 10
727.920037
 20
840.906032
 11
727.920037
 21
848.90591
  0
LINE
  5
50E
100
AcDbEntity
  8
M0
 62
     2
100
AcDbLine
 10
726.920037
 20
848.90591
 11
726.920037
 21
864.90591
  0
LINE
  5
50F
100
AcDbEntity
  8
M0
 62
     2
100
AcDbLine
 10
726.920037
 20
864.90591
 11
749.920037
 21
864.90591
  0
LINE
  5
510
100
AcDbEntity
  8
M0
 62
     2
100
AcDbLine
 10
749.920037
 20
864.90591
 11
749.920037
 21
854.40591
  0
LINE
  5
511
100
AcDbEntity
  8
M0
 62
     2
100
AcDbLine
 10
749.920037
 20
837.90591
 11
744.720021
 21
837.90591
  0
LINE
  5
512
100
AcDbEntity
  8
M0
 62
     2
100
AcDbLine
 10
749.920037
 20
854.40591
 11
735.920037
 21
854.40591
  0
LINE
  5
513
100
AcDbEntity
  8
M0
 62
     2
100
AcDbLine
 10
735.920037
 20
844.870195
 11
735.920037
 21
854.40591
  0
LINE
  5
514
100
AcDbEntity
  8
M0
 62
     2
100
AcDbLine
 10
749.920037
 20
837.90591
 11
749.920037
 21
837.405894
  0
LINE
  5
515
100
AcDbEntity
  8
M0
100
AcDbLine
 10
785.720037
 20
776.90591
 11
785.720037
 21
784.40591
  0
LINE
  5
516
100
AcDbEntity
  8
M0
100
AcDbLine
 10
795.420037
 20
784.40591
 11
795.420037
 21
776.90591
  0
LINE
  5
517
100
AcDbEntity
  8
M0
100
AcDbLine
 10
795.420037
 20
776.90591
 11
785.720037
 21
776.90591
  0
LINE
  5
518
100
AcDbEntity
  8
M0
  6
DASHDOT
100
AcDbLine
 10
795.420037
 20
797.40591
 11
793.120037
 21
797.40591
  0
LINE
  5
519
100
AcDbEntity
  8
M0
100
AcDbLine
 10
793.120037
 20
776.90591
 11
793.120037
 21
784.40591
  0
LINE
  5
51A
100
AcDbEntity
  8
M0
  6
DOT
100
AcDbLine
 10
793.120037
 20
784.40591
 11
793.120037
 21
817.40591
  0
LINE
  5
51B
100
AcDbEntity
  8
M0
  6
DASHDOT
100
AcDbLine
 10
798.620037
 20
1119.40591
 11
792.220037
 21
1119.40591
  0
LINE
  5
51C
100
AcDbEntity
  8
M0
100
AcDbLine
 10
758.620037
 20
1132.40591
 11
798.620037
 21
1132.40591
  0
LINE
  5
51D
100
AcDbEntity
  8
M0
100
AcDbLine
 10
758.620037
 20
784.40591
 11
758.620037
 21
1132.40591
  0
LINE
  5
51E
100
AcDbEntity
  8
M0
100
AcDbLine
 10
798.620037
 20
1132.40591
 11
798.620037
 21
784.40591
  0
LINE
  5
51F
100
AcDbEntity
  8
M0
  6
DASHDOT
100
AcDbLine
 10
795.420037
 20
797.40591
 11
798.620037
 21
797.40591
  0
LINE
  5
520
100
AcDbEntity
  8
M0
100
AcDbLine
 10
758.620037
 20
866.40591
 11
758.620037
 21
882.40591
  0
LINE
  5
521
100
AcDbEntity
  8
M0
100
AcDbLine
 10
798.620037
 20
784.40591
 11
758.620037
 21
784.40591
  0
LINE
  5
522
100
AcDbEntity
  8
M0
 62
     2
100
AcDbLine
 10
751.720037
 20
866.40591
 11
758.620037
 21
866.40591
  0
LINE
  5
523
100
AcDbEntity
  8
M0
 62
     2
100
AcDbLine
 10
751.720037
 20
854.40591
 11
758.620037
 21
854.40591
  0
LINE
  5
524
100
AcDbEntity
  8
M0
 62
     2
100
AcDbLine
 10
751.720037
 20
854.40591
 11
751.720037
 21
866.40591
  0
LINE
  5
525
100
AcDbEntity
  8
M0
 62
   234
100
AcDbLine
 10
730.020037
 20
928.40591
 11
730.020037
 21
932.90591
  0
LINE
  5
526
100
AcDbEntity
  8
M0
 62
   234
100
AcDbLine
 10
730.020037
 20
932.90591
 11
718.720013
 21
932.90591
  0
LINE
  5
527
100
AcDbEntity
  8
M0
 62
   234
100
AcDbLine
 10
699.020037
 20
872.90591
 11
714.520037
 21
872.90591
  0
LINE
  5
528
100
AcDbEntity
  8
M0
 62
   234
100
AcDbLine
 10
699.020037
 20
882.40591
 11
699.020037
 21
872.90591
  0
LINE
  5
529
100
AcDbEntity
  8
M0
 62
   234
100
AcDbLine
 10
714.520037
 20
872.90591
 11
724.020037
 21
882.40591
  0
ARC
  5
52A
100
AcDbEntity
  8
M0
 62
   234
100
AcDbCircle
 10
708.020037
 20
882.90591
 40
3.3235
100
AcDbArc
 50
188.652647
 51
351.347353
  0
ARC
  5
52B
100
AcDbEntity
  8
M0
 62
   234
100
AcDbCircle
 10
708.020037
 20
882.90591
 40
4.0
100
AcDbArc
 50
187.180756
 51
352.819244
  0
LINE
  5
52C
100
AcDbEntity
  8
M0
 62
     1
100
AcDbLine
 10
743.220037
 20
843.906014
 11
743.220037
 21
844.705888
  0
LINE
  5
52D
100
AcDbEntity
  8
M0
 62
     1
100
AcDbLine
 10
741.220037
 20
843.90601
 11
741.220037
 21
844.705898
  0
LINE
  5
52E
100
AcDbEntity
  8
M0
 62
     1
100
AcDbLine
 10
733.8837
 20
844.142932
 11
740.220037
 21
846.40591
  0
ARC
  5
52F
100
AcDbEntity
  8
M0
 62
     1
100
AcDbCircle
 10
734.220037
 20
843.201191
 40
1.0
100
AcDbArc
 50
109.653824
 51
135.828445
  0
ARC
  5
530
100
AcDbEntity
  8
M0
 62
     1
100
AcDbCircle
 10
741.220037
 20
850.90591
 40
2.0
100
AcDbArc
 50
0.0
 51
90.0
  0
LINE
  5
531
100
AcDbEntity
  8
M0
 62
     1
100
AcDbLine
 10
741.220037
 20
846.40591
 11
740.220037
 21
846.40591
  0
LINE
  5
532
100
AcDbEntity
  8
M0
 62
     1
100
AcDbLine
 10
758.620037
 20
850.90591
 11
743.220037
 21
850.90591
  0
LINE
  5
533
100
AcDbEntity
  8
M0
 62
     1
100
AcDbLine
 10
743.220037
 20
847.805888
 11
743.220037
 21
850.90591
  0
LINE
  5
534
100
AcDbEntity
  8
M0
 62
     1
100
AcDbLine
 10
741.220037
 20
845.505904
 11
741.220037
 21
852.90591
  0
LINE
  5
535
100
AcDbEntity
  8
M0
 62
   114
100
AcDbLine
 10
720.320427
 20
847.90594
 11
720.320427
 21
840.906032
  0
ARC
  5
536
100
AcDbEntity
  8
M0
 62
   114
100
AcDbCircle
 10
729.020378
 20
842.90591
 40
11.999989
100
AcDbArc
 50
164.506528
 51
177.131175
  0
LINE
  5
537
100
AcDbEntity
  8
M0
 62
   114
100
AcDbLine
 10
720.320427
 20
847.406642
 11
718.85894
 21
847.278468
  0
ARC
  5
538
100
AcDbEntity
  8
M0
 62
   114
100
AcDbCircle
 10
718.998406
 20
845.68423
 40
1.599998
100
AcDbArc
 50
94.999457
 51
164.513915
  0
LINE
  5
539
100
AcDbEntity
  8
M0
 62
   114
100
AcDbLine
 10
718.820183
 20
843.506496
 11
718.820183
 21
842.306544
  0
LINE
  5
53A
100
AcDbEntity
  8
M0
 62
   114
100
AcDbLine
 10
717.020561
 20
843.506496
 11
718.820183
 21
843.506496
  0
LINE
  5
53B
100
AcDbEntity
  8
M0
 62
   114
100
AcDbLine
 10
717.035515
 20
842.306544
 11
718.820183
 21
842.306544
  0
LINE
  5
53C
100
AcDbEntity
  8
M0
 62
   114
100
AcDbLine
 10
721.620171
 20
847.90591
 11
721.620171
 21
840.906032
  0
LINE
  5
53D
100
AcDbEntity
  8
M0
 62
   114
100
AcDbLine
 10
722.420037
 20
847.90591
 11
722.420037
 21
840.906032
  0
LINE
  5
53E
100
AcDbEntity
  8
M0
 62
   114
100
AcDbLine
 10
721.620171
 20
847.90591
 11
722.420037
 21
847.90591
  0
ARC
  5
53F
100
AcDbEntity
  8
M0
 62
   114
100
AcDbCircle
 10
729.020378
 20
842.90591
 40
11.999989
100
AcDbArc
 50
182.862961
 51
189.593486
  0
LINE
  5
540
100
AcDbEntity
  8
M0
 62
   114
100
AcDbLine
 10
727.920037
 20
845.40591
 11
730.320183
 21
845.40591
  0
LINE
  5
541
100
AcDbEntity
  8
M0
 62
   114
100
AcDbLine
 10
720.320427
 20
842.90591
 11
721.620171
 21
843.856642
  0
LINE
  5
542
100
AcDbEntity
  8
M0
 62
   114
100
AcDbLine
 10
720.320427
 20
841.956398
 11
721.620171
 21
842.90591
  0
LINE
  5
543
100
AcDbEntity
  8
M0
 62
   114
100
AcDbLine
 10
720.320183
 20
847.90594
 11
721.620171
 21
847.90594
  0
LINE
  5
544
100
AcDbEntity
  8
M0
 62
   114
100
AcDbLine
 10
730.320183
 20
842.979199
 11
730.320183
 21
845.40594
  0
LINE
  5
545
100
AcDbEntity
  8
M0
 62
   114
100
AcDbLine
 10
727.920037
 20
845.005794
 11
730.320183
 21
845.005794
  0
LINE
  5
546
100
AcDbEntity
  8
M0
100
AcDbLine
 10
691.220037
 20
1101.90591
 11
701.220066
 21
1101.90591
  0
LINE
  5
547
100
AcDbEntity
  8
M0
100
AcDbLine
 10
694.720037
 20
1106.40591
 11
711.547931
 21
1106.40591
  0
LINE
  5
548
100
AcDbEntity
  8
M0
100
AcDbLine
 10
694.720037
 20
1106.40591
 11
694.720037
 21
1101.90591
  0
ARC
  5
549
100
AcDbEntity
  8
M0
 62
     6
100
AcDbCircle
 10
603.220037
 20
1042.40591
 40
10.0
100
AcDbArc
 50
270.0
 51
360.0
  0
ARC
  5
54A
100
AcDbEntity
  8
M0
 62
     6
100
AcDbCircle
 10
603.220037
 20
972.40591
 40
10.0
100
AcDbArc
 50
0.0
 51
90.0
  0
LINE
  5
54B
100
AcDbEntity
  8
M0
 62
     6
100
AcDbLine
 10
591.220037
 20
982.40591
 11
603.220037
 21
982.40591
  0
ARC
  5
54C
100
AcDbEntity
  8
M0
 62
     6
100
AcDbCircle
 10
591.220037
 20
985.40591
 40
3.0
100
AcDbArc
 50
180.0
 51
270.0
  0
LINE
  5
54D
100
AcDbEntity
  8
M0
 62
     6
100
AcDbLine
 10
591.220037
 20
1032.40591
 11
603.220037
 21
1032.40591
  0
LINE
  5
54E
100
AcDbEntity
  8
M0
 62
     6
100
AcDbLine
 10
588.220037
 20
1029.40591
 11
588.220037
 21
985.40591
  0
ARC
  5
54F
100
AcDbEntity
  8
M0
 62
     6
100
AcDbCircle
 10
591.220037
 20
1029.40591
 40
3.0
100
AcDbArc
 50
90.0
 51
180.0
  0
LINE
  5
550
100
AcDbEntity
  8
M0
 62
     6
100
AcDbLine
 10
613.220037
 20
972.40591
 11
613.220037
 21
967.40591
  0
LINE
  5
551
100
AcDbEntity
  8
M0
 62
     6
100
AcDbLine
 10
618.220037
 20
962.40591
 11
633.220037
 21
962.40591
  0
ARC
  5
552
100
AcDbEntity
  8
M0
 62
     6
100
AcDbCircle
 10
618.220037
 20
967.40591
 40
5.0
100
AcDbArc
 50
180.0
 51
270.0
  0
LINE
  5
553
100
AcDbEntity
  8
M0
 62
     6
100
AcDbLine
 10
633.220037
 20
1052.40591
 11
618.220037
 21
1052.40591
  0
LINE
  5
554
100
AcDbEntity
  8
M0
 62
     6
100
AcDbLine
 10
613.220037
 20
1047.40591
 11
613.220037
 21
1042.40591
  0
ARC
  5
555
100
AcDbEntity
  8
M0
 62
     6
100
AcDbCircle
 10
618.220037
 20
1047.40591
 40
5.0
100
AcDbArc
 50
90.0
 51
180.0
  0
LINE
  5
556
100
AcDbEntity
  8
M0
 62
     6
100
AcDbLine
 10
633.220037
 20
962.40591
 11
633.220037
 21
1002.40591
  0
LINE
  5
557
100
AcDbEntity
  8
M0
 62
     6
100
AcDbLine
 10
633.220037
 20
1012.40591
 11
633.220037
 21
1052.40591
  0
LINE
  5
558
100
AcDbEntity
  8
M0
 62
     6
100
AcDbLine
 10
631.220037
 20
1010.40591
 11
631.220037
 21
1004.40591
  0
ARC
  5
559
100
AcDbEntity
  8
M0
 62
     6
100
AcDbCircle
 10
633.220037
 20
1004.40591
 40
2.0
100
AcDbArc
 50
180.0
 51
270.0
  0
ARC
  5
55A
100
AcDbEntity
  8
M0
 62
     6
100
AcDbCircle
 10
633.220037
 20
1010.40591
 40
2.0
100
AcDbArc
 50
90.0
 51
180.0
  0
LINE
  5
55B
100
AcDbEntity
  8
M0
 62
     7
100
AcDbLine
 10
566.420037
 20
1102.40591
 11
596.220037
 21
1102.40591
  0
ARC
  5
55C
100
AcDbEntity
  8
M0
 62
     7
100
AcDbCircle
 10
566.420037
 20
1099.40591
 40
3.0
100
AcDbArc
 50
90.0
 51
180.0
  0
LINE
  5
55D
100
AcDbEntity
  8
M0
 62
     7
100
AcDbLine
 10
563.420037
 20
915.40591
 11
563.420037
 21
1099.40591
  0
LINE
  5
55E
100
AcDbEntity
  8
M0
 62
     7
100
AcDbLine
 10
566.420037
 20
912.40591
 11
596.220037
 21
912.40591
  0
ARC
  5
55F
100
AcDbEntity
  8
M0
 62
     7
100
AcDbCircle
 10
566.420037
 20
915.40591
 40
3.0
100
AcDbArc
 50
180.0
 51
270.0
  0
LINE
  5
560
100
AcDbEntity
  8
M0
  6
DASHDOT
 62
     7
100
AcDbLine
 10
805.420037
 20
1007.40591
 11
553.420037
 21
1007.40591
  0
LINE
  5
561
100
AcDbEntity
  8
M0
 62
   114
100
AcDbLine
 10
666.518575
 20
889.895819
 11
673.02004
 21
889.895819
  0
LINE
  5
562
100
AcDbEntity
  8
M0
 62
   114
100
AcDbLine
 10
673.02004
 20
889.895819
 11
673.02004
 21
905.048151
  0
LINE
  5
563
100
AcDbEntity
  8
M0
 62
   114
100
AcDbLine
 10
673.078156
 20
904.915851
 11
666.518575
 21
904.915543
  0
LINE
  5
564
100
AcDbEntity
  8
M0
 62
   114
100
AcDbLine
 10
666.518575
 20
889.895819
 11
666.518575
 21
904.915543
  0
LINE
  5
565
100
AcDbEntity
  8
M0
 62
   114
100
AcDbLine
 10
666.518575
 20
901.158809
 11
673.02004
 21
901.158809
  0
LINE
  5
566
100
AcDbEntity
  8
M0
 62
   114
100
AcDbLine
 10
666.518575
 20
893.653164
 11
673.02004
 21
893.653164
  0
LINE
  5
567
100
AcDbEntity
  8
M0
 62
   114
100
AcDbLine
 10
675.02004
 20
889.40592
 11
676.220037
 21
889.40592
  0
LINE
  5
568
100
AcDbEntity
  8
M0
 62
   114
100
AcDbLine
 10
676.220037
 20
889.40592
 11
676.220037
 21
900.839113
  0
LINE
  5
569
100
AcDbEntity
  8
M0
 62
   114
100
AcDbLine
 10
675.02004
 20
905.406241
 11
675.02004
 21
889.40592
  0
LINE
  5
56A
100
AcDbEntity
  8
M0
 62
   114
100
AcDbLine
 10
673.02004
 20
889.705898
 11
675.02004
 21
889.705898
  0
LINE
  5
56B
100
AcDbEntity
  8
M0
 62
   114
100
AcDbLine
 10
675.02004
 20
889.705898
 11
675.02004
 21
901.963461
  0
LINE
  5
56C
100
AcDbEntity
  8
M0
 62
   114
100
AcDbLine
 10
673.02004
 20
905.105908
 11
673.02004
 21
889.705898
  0
LINE
  5
56D
100
AcDbEntity
  8
M0
 62
   114
100
AcDbLine
 10
673.02004
 20
897.405895
 11
675.02004
 21
896.251202
  0
LINE
  5
56E
100
AcDbEntity
  8
M0
 62
   114
100
AcDbLine
 10
673.02004
 20
898.560589
 11
675.02004
 21
897.405895
  0
LINE
  5
56F
100
AcDbEntity
  8
M0
 62
   114
100
AcDbLine
 10
675.019289
 20
905.406241
 11
676.219286
 21
905.406354
  0
LINE
  5
570
100
AcDbEntity
  8
M0
 62
   114
100
AcDbLine
 10
673.019317
 20
905.106075
 11
675.019317
 21
905.106262
  0
LINE
  5
571
100
AcDbEntity
  8
M0
 62
     4
100
AcDbLine
 10
627.420065
 20
859.405911
 11
643.119988
 21
859.40591
  0
LINE
  5
572
100
AcDbEntity
  8
M0
 62
     4
100
AcDbLine
 10
676.420072
 20
871.40589
 11
668.420072
 21
871.405896
  0
LINE
  5
573
100
AcDbEntity
  8
M0
 62
     4
100
AcDbLine
 10
668.420075
 20
876.368908
 11
668.420062
 21
854.442898
  0
LINE
  5
574
100
AcDbEntity
  8
M0
 62
     4
100
AcDbLine
 10
668.420062
 20
854.442898
 11
676.420062
 21
854.442893
  0
LINE
  5
575
100
AcDbEntity
  8
M0
 62
     4
100
AcDbLine
 10
676.420062
 20
854.442893
 11
676.420075
 21
876.368903
  0
LINE
  5
576
100
AcDbEntity
  8
M0
 62
     4
100
AcDbLine
 10
676.420075
 20
876.368903
 11
668.420075
 21
876.368908
  0
LINE
  5
577
100
AcDbEntity
  8
M0
 62
     4
100
AcDbLine
 10
627.420065
 20
859.405911
 11
627.420072
 21
871.405911
  0
LINE
  5
578
100
AcDbEntity
  8
M0
 62
     4
100
AcDbLine
 10
643.119981
 20
871.40591
 11
627.420072
 21
871.405911
  0
LINE
  5
579
100
AcDbEntity
  8
M0
 62
     4
100
AcDbLine
 10
668.420065
 20
859.405896
 11
676.420065
 21
859.40589
  0
LINE
  5
57A
100
AcDbEntity
  8
M0
  6
DASHDOT
 62
     4
100
AcDbLine
 10
681.420005
 20
865.405944
 11
623.036155
 21
865.405944
  0
LINE
  5
57B
100
AcDbEntity
  8
M0
 62
     4
100
AcDbLine
 10
627.420005
 20
1155.405944
 11
643.119981
 21
1155.405944
  0
LINE
  5
57C
100
AcDbEntity
  8
M0
 62
     4
100
AcDbLine
 10
676.420005
 20
1143.405944
 11
668.420005
 21
1143.405944
  0
LINE
  5
57D
100
AcDbEntity
  8
M0
  6
DASHDOT
 62
     4
100
AcDbLine
 10
681.420005
 20
1149.405944
 11
623.036155
 21
1149.405944
  0
LINE
  5
57E
100
AcDbEntity
  8
M0
 62
     4
100
AcDbLine
 10
668.420005
 20
1138.442932
 11
668.420005
 21
1160.368942
  0
LINE
  5
57F
100
AcDbEntity
  8
M0
 62
     4
100
AcDbLine
 10
668.420005
 20
1160.368942
 11
676.420005
 21
1160.368942
  0
LINE
  5
580
100
AcDbEntity
  8
M0
 62
     4
100
AcDbLine
 10
676.420005
 20
1160.368942
 11
676.420005
 21
1138.442932
  0
LINE
  5
581
100
AcDbEntity
  8
M0
 62
     4
100
AcDbLine
 10
676.420005
 20
1138.442932
 11
668.420005
 21
1138.442932
  0
LINE
  5
582
100
AcDbEntity
  8
M0
 62
     4
100
AcDbLine
 10
627.420005
 20
1155.405944
 11
627.420005
 21
1143.405944
  0
LINE
  5
583
100
AcDbEntity
  8
M0
 62
     4
100
AcDbLine
 10
643.119988
 20
1143.405944
 11
627.420005
 21
1143.405944
  0
LINE
  5
584
100
AcDbEntity
  8
M0
 62
     4
100
AcDbLine
 10
668.420005
 20
1155.405944
 11
676.420005
 21
1155.405944
  0
LINE
  5
585
100
AcDbEntity
  8
M0
100
AcDbLine
 10
771.220037
 20
1132.40591
 11
795.420037
 21
1132.40591
  0
LINE
  5
586
100
AcDbEntity
  8
M0
100
AcDbLine
 10
691.220037
 20
882.40591
 11
758.620037
 21
882.40591
  0
LINE
  5
587
100
AcDbEntity
  8
M0
  6
DOT
100
AcDbLine
 10
792.220037
 20
1132.40591
 11
792.220037
 21
1099.40591
  0
LINE
  5
588
100
AcDbEntity
  8
M0
100
AcDbLine
 10
691.220037
 20
882.40591
 11
691.220037
 21
939.40591
  0
ARC
  5
589
100
AcDbEntity
  8
M0
100
AcDbCircle
 10
656.220023
 20
963.90591
 40
5.0
100
AcDbArc
 50
359.999982
 51
450.0
  0
LINE
  5
58A
100
AcDbEntity
  8
M0
100
AcDbLine
 10
661.220023
 20
963.905908
 11
661.22002
 21
953.405911
  0
ARC
  5
58B
100
AcDbEntity
  8
M0
100
AcDbCircle
 10
666.22002
 20
953.40591
 40
5.0
100
AcDbArc
 50
179.999982
 51
270.0
  0
LINE
  5
58C
100
AcDbEntity
  8
M0
100
AcDbLine
 10
694.420037
 20
939.40591
 11
691.220037
 21
939.40591
  0
ARC
  5
58D
100
AcDbEntity
  8
M0
100
AcDbCircle
 10
694.420037
 20
943.40591
 40
4.0
100
AcDbArc
 50
270.0
 51
360.0
  0
LINE
  5
58E
100
AcDbEntity
  8
M0
100
AcDbLine
 10
698.420037
 20
944.40591
 11
698.420037
 21
943.40591
  0
LINE
  5
58F
100
AcDbEntity
  8
M0
100
AcDbLine
 10
694.420037
 20
948.40591
 11
666.22002
 21
948.40591
  0
ARC
  5
590
100
AcDbEntity
  8
M0
100
AcDbCircle
 10
694.420037
 20
944.40591
 40
4.0
100
AcDbArc
 50
0.0
 51
90.0
  0
ARC
  5
591
100
AcDbEntity
  8
M0
100
AcDbCircle
 10
683.220036
 20
1004.40591
 40
4.0
100
AcDbArc
 50
270.0
 51
359.999982
  0
LINE
  5
592
100
AcDbEntity
  8
M0
100
AcDbLine
 10
687.220036
 20
1004.405908
 11
687.220038
 21
1010.405908
  0
LINE
  5
593
100
AcDbEntity
  8
M0
100
AcDbLine
 10
683.220036
 20
1000.40591
 11
649.220034
 21
1000.40591
  0
LINE
  5
594
100
AcDbEntity
  8
M0
100
AcDbLine
 10
649.220034
 20
1000.40591
 11
649.220026
 21
973.905911
  0
ARC
  5
595
100
AcDbEntity
  8
M0
100
AcDbCircle
 10
654.220026
 20
973.90591
 40
5.0
100
AcDbArc
 50
179.999982
 51
270.0
  0
LINE
  5
596
100
AcDbEntity
  8
M0
100
AcDbLine
 10
656.220023
 20
968.90591
 11
654.220026
 21
968.90591
  0
ARC
  5
597
100
AcDbEntity
  8
M0
100
AcDbCircle
 10
683.220038
 20
1010.40591
 40
4.0
100
AcDbArc
 50
359.999982
 51
450.0
  0
LINE
  5
598
100
AcDbEntity
  8
M0
100
AcDbLine
 10
683.220038
 20
1014.40591
 11
649.220039
 21
1014.40591
  0
LINE
  5
599
100
AcDbEntity
  8
M0
100
AcDbLine
 10
649.220047
 20
1040.905911
 11
649.220039
 21
1014.40591
  0
ARC
  5
59A
100
AcDbEntity
  8
M0
100
AcDbCircle
 10
654.220047
 20
1040.90591
 40
5.0
100
AcDbArc
 50
90.0
 51
179.999982
  0
LINE
  5
59B
100
AcDbEntity
  8
M0
100
AcDbLine
 10
656.22005
 20
1045.90591
 11
654.220047
 21
1045.90591
  0
ARC
  5
59C
100
AcDbEntity
  8
M0
100
AcDbCircle
 10
656.22005
 20
1050.90591
 40
5.0
100
AcDbArc
 50
270.0
 51
359.999982
  0
ARC
  5
59D
100
AcDbEntity
  8
M0
100
AcDbCircle
 10
666.220054
 20
1061.40591
 40
5.0
100
AcDbArc
 50
90.0
 51
179.999982
  0
LINE
  5
59E
100
AcDbEntity
  8
M0
100
AcDbLine
 10
661.22005
 20
1050.905908
 11
661.220054
 21
1061.405911
  0
LINE
  5
59F
100
AcDbEntity
  8
M0
100
AcDbLine
 10
694.420037
 20
1066.40591
 11
666.220054
 21
1066.40591
  0
ARC
  5
5A0
100
AcDbEntity
  8
M0
100
AcDbCircle
 10
694.420037
 20
1070.40591
 40
4.0
100
AcDbArc
 50
270.0
 51
360.0
  0
LINE
  5
5A1
100
AcDbEntity
  8
M0
100
AcDbLine
 10
691.220037
 20
1075.40591
 11
691.220037
 21
1101.90591
  0
LINE
  5
5A2
100
AcDbEntity
  8
M0
100
AcDbLine
 10
698.420037
 20
1071.40591
 11
698.420037
 21
1070.40591
  0
LINE
  5
5A3
100
AcDbEntity
  8
M0
100
AcDbLine
 10
694.420037
 20
1075.40591
 11
691.220037
 21
1075.40591
  0
ARC
  5
5A4
100
AcDbEntity
  8
M0
100
AcDbCircle
 10
694.420037
 20
1071.40591
 40
4.0
100
AcDbArc
 50
0.0
 51
90.0
  0
LINE
  5
5A5
100
AcDbEntity
  8
M0
100
AcDbLine
 10
758.620037
 20
1126.915907
 11
701.220066
 21
1101.90591
  0
LINE
  5
5A6
100
AcDbEntity
  8
M0
100
AcDbLine
 10
691.220037
 20
1101.90591
 11
701.220066
 21
1101.90591
  0
LINE
  5
5A7
100
AcDbEntity
  8
M0
100
AcDbLine
 10
723.720031
 20
993.40591
 11
758.620037
 21
993.40591
  0
ARC
  5
5A8
100
AcDbEntity
  8
M0
100
AcDbCircle
 10
723.720031
 20
988.40591
 40
5.0
100
AcDbArc
 50
90.0
 51
179.999982
  0
LINE
  5
5A9
100
AcDbEntity
  8
M0
100
AcDbLine
 10
718.720013
 20
933.405911
 11
718.720031
 21
988.405911
  0
ARC
  5
5AA
100
AcDbEntity
  8
M0
100
AcDbCircle
 10
723.720013
 20
933.40591
 40
5.0
100
AcDbArc
 50
179.999982
 51
270.0
  0
LINE
  5
5AB
100
AcDbEntity
  8
M0
100
AcDbLine
 10
758.620037
 20
928.40591
 11
723.720013
 21
928.40591
  0
LINE
  5
5AC
100
AcDbEntity
  8
M0
  6
DASHDOT
100
AcDbLine
 10
714.520037
 20
886.90591
 11
714.520037
 21
918.90591
  0
CIRCLE
  5
5AD
100
AcDbEntity
  8
M0
100
AcDbCircle
 10
714.520037
 20
902.90591
 40
6.0
  0
LINE
  5
5AE
100
AcDbEntity
  8
M0
  6
DASHDOT
100
AcDbLine
 10
698.520037
 20
902.90591
 11
730.520037
 21
902.90591
  0
LINE
  5
5AF
100
AcDbEntity
  8
M0
 62
     2
100
AcDbLine
 10
691.220037
 20
1102.40591
 11
596.220037
 21
1102.40591
  0
LINE
  5
5B0
100
AcDbEntity
  8
M0
 62
     2
100
AcDbLine
 10
596.220037
 20
1102.40591
 11
596.220037
 21
1032.40591
  0
LINE
  5
5B1
100
AcDbEntity
  8
M0
 62
     2
100
AcDbLine
 10
676.220037
 20
882.40591
 11
691.220037
 21
882.40591
  0
LINE
  5
5B2
100
AcDbEntity
  8
M0
 62
     2
100
AcDbLine
 10
676.220037
 20
912.40591
 11
676.220037
 21
882.40591
  0
LINE
  5
5B3
100
AcDbEntity
  8
M0
 62
     2
100
AcDbLine
 10
676.220037
 20
1077.40591
 11
633.220037
 21
1077.40591
  0
LINE
  5
5B4
100
AcDbEntity
  8
M0
 62
     2
100
AcDbLine
 10
643.220037
 20
962.40591
 11
643.220037
 21
925.40591
  0
LINE
  5
5B5
100
AcDbEntity
  8
M0
 62
     2
100
AcDbLine
 10
633.220037
 20
1077.40591
 11
633.220037
 21
1012.40591
  0
LINE
  5
5B6
100
AcDbEntity
  8
M0
 62
     2
100
AcDbLine
 10
643.220037
 20
962.40591
 11
633.220037
 21
962.40591
  0
LINE
  5
5B7
100
AcDbEntity
  8
M0
 62
     2
100
AcDbLine
 10
676.220037
 20
912.40591
 11
654.220037
 21
925.40591
  0
LINE
  5
5B8
100
AcDbEntity
  8
M0
 62
     2
100
AcDbLine
 10
654.220037
 20
925.40591
 11
643.220037
 21
925.40591
  0
LINE
  5
5B9
100
AcDbEntity
  8
M0
 62
     2
100
AcDbLine
 10
654.220037
 20
1110.90591
 11
658.419974
 21
1110.90591
  0
LINE
  5
5BA
100
AcDbEntity
  8
M0
 62
     2
100
AcDbLine
 10
674.220037
 20
1102.40591
 11
674.220037
 21
1110.90591
  0
LINE
  5
5BB
100
AcDbEntity
  8
M0
 62
     2
100
AcDbLine
 10
622.220037
 20
1116.40591
 11
654.220037
 21
1116.40591
  0
LINE
  5
5BC
100
AcDbEntity
  8
M0
 62
     2
100
AcDbLine
 10
622.220037
 20
1116.40591
 11
622.220037
 21
1102.40591
  0
LINE
  5
5BD
100
AcDbEntity
  8
M0
 62
     2
100
AcDbLine
 10
654.220037
 20
1116.40591
 11
654.220037
 21
1110.90591
  0
LINE
  5
5BE
100
AcDbEntity
  8
M0
 62
     2
100
AcDbLine
 10
676.220037
 20
912.40591
 11
653.220037
 21
912.40591
  0
LINE
  5
5BF
100
AcDbEntity
  8
M0
 62
     2
100
AcDbLine
 10
654.220037
 20
903.90591
 11
658.419974
 21
903.90591
  0
LINE
  5
5C0
100
AcDbEntity
  8
M0
 62
     2
100
AcDbLine
 10
654.220037
 20
898.40591
 11
654.220037
 21
903.90591
  0
LINE
  5
5C1
100
AcDbEntity
  8
M0
 62
     2
100
AcDbLine
 10
622.220037
 20
898.40591
 11
654.220037
 21
898.40591
  0
LINE
  5
5C2
100
AcDbEntity
  8
M0
 62
     2
100
AcDbLine
 10
622.220037
 20
898.40591
 11
622.220037
 21
912.40591
  0
LINE
  5
5C3
100
AcDbEntity
  8
M0
 62
     2
100
AcDbLine
 10
633.220037
 20
1002.40591
 11
633.220037
 21
962.40591
  0
LINE
  5
5C4
100
AcDbEntity
  8
M0
 62
     2
100
AcDbLine
 10
596.220037
 20
982.40591
 11
596.220037
 21
912.40591
  0
LINE
  5
5C5
100
AcDbEntity
  8
M0
 62
     2
100
AcDbLine
 10
668.419974
 20
1110.90591
 11
674.220037
 21
1110.90591
  0
LINE
  5
5C6
100
AcDbEntity
  8
M0
 62
     2
100
AcDbLine
 10
676.220037
 20
1102.40591
 11
676.220037
 21
1077.40591
  0
LINE
  5
5C7
100
AcDbEntity
  8
M0
 62
     2
100
AcDbLine
 10
691.220037
 20
1102.40591
 11
691.220037
 21
1066.40591
  0
LINE
  5
5C8
100
AcDbEntity
  8
M0
 62
     2
100
AcDbLine
 10
691.220037
 20
1067.90591
 11
664.220037
 21
1067.90591
  0
ARC
  5
5C9
100
AcDbEntity
  8
M0
 62
     2
100
AcDbCircle
 10
664.220037
 20
1063.90591
 40
4.0
100
AcDbArc
 50
90.0
 51
180.0
  0
LINE
  5
5CA
100
AcDbEntity
  8
M0
 62
     2
100
AcDbLine
 10
660.220037
 20
1054.40591
 11
660.220037
 21
1063.90591
  0
ARC
  5
5CB
100
AcDbEntity
  8
M0
 62
     2
100
AcDbCircle
 10
652.220037
 20
1054.40591
 40
8.0
100
AcDbArc
 50
270.0
 51
360.0
  0
ARC
  5
5CC
100
AcDbEntity
  8
M0
 62
     2
100
AcDbCircle
 10
652.220037
 20
1042.40591
 40
4.0
100
AcDbArc
 50
90.0
 51
180.0
  0
LINE
  5
5CD
100
AcDbEntity
  8
M0
 62
     2
100
AcDbLine
 10
648.220037
 20
972.40591
 11
648.220037
 21
1002.40591
  0
ARC
  5
5CE
100
AcDbEntity
  8
M0
 62
     2
100
AcDbCircle
 10
652.220037
 20
972.40591
 40
4.0
100
AcDbArc
 50
180.0
 51
270.0
  0
ARC
  5
5CF
100
AcDbEntity
  8
M0
 62
     2
100
AcDbCircle
 10
652.220037
 20
960.40591
 40
8.0
100
AcDbArc
 50
0.0
 51
90.0
  0
LINE
  5
5D0
100
AcDbEntity
  8
M0
 62
     2
100
AcDbLine
 10
660.220037
 20
960.40591
 11
660.220037
 21
950.90591
  0
ARC
  5
5D1
100
AcDbEntity
  8
M0
 62
     2
100
AcDbCircle
 10
664.220037
 20
950.90591
 40
4.0
100
AcDbArc
 50
180.0
 51
270.0
  0
LINE
  5
5D2
100
AcDbEntity
  8
M0
 62
     2
100
AcDbLine
 10
691.220037
 20
946.90591
 11
664.220037
 21
946.90591
  0
LINE
  5
5D3
100
AcDbEntity
  8
M0
 62
     2
100
AcDbLine
 10
691.220037
 20
948.40591
 11
691.220037
 21
882.40591
  0
LINE
  5
5D4
100
AcDbEntity
  8
M0
 62
     2
100
AcDbLine
 10
648.220037
 20
1013.90591
 11
633.220037
 21
1013.90591
  0
LINE
  5
5D5
100
AcDbEntity
  8
M0
 62
     2
100
AcDbLine
 10
648.220037
 20
1000.90591
 11
633.220037
 21
1000.90591
  0
LINE
  5
5D6
100
AcDbEntity
  8
M0
 62
     2
100
AcDbLine
 10
648.220037
 20
1012.40591
 11
648.220037
 21
1042.40591
  0
LINE
  5
5D7
100
AcDbEntity
  8
M0
 62
     2
100
AcDbLine
 10
651.620037
 20
912.40591
 11
596.220037
 21
912.40591
  0
LINE
  5
5D8
100
AcDbEntity
  8
M0
100
AcDbLine
 10
658.419974
 20
1165.405914
 11
668.419974
 21
1165.405914
  0
LINE
  5
5D9
100
AcDbEntity
  8
M0
100
AcDbLine
 10
658.419974
 20
849.405914
 11
668.419974
 21
849.405914
  0
LINE
  5
5DA
100
AcDbEntity
  8
M0
100
AcDbLine
 10
658.419974
 20
1165.405914
 11
658.419974
 21
1102.40591
  0
LINE
  5
5DB
100
AcDbEntity
  8
M0
100
AcDbLine
 10
668.419974
 20
1165.405914
 11
668.419974
 21
1102.40591
  0
LINE
  5
5DC
100
AcDbEntity
  8
M0
100
AcDbLine
 10
658.419974
 20
912.40591
 11
658.419974
 21
849.405914
  0
LINE
  5
5DD
100
AcDbEntity
  8
M0
100
AcDbLine
 10
668.419974
 20
912.40591
 11
668.419974
 21
904.915633
  0
LINE
  5
5DE
100
AcDbEntity
  8
M0
100
AcDbLine
 10
668.419974
 20
889.895819
 11
668.419974
 21
849.405914
  0
LINE
  5
5DF
100
AcDbEntity
  8
M0
 62
   114
100
AcDbLine
 10
743.679401
 20
1120.406056
 11
727.37208
 21
1120.406056
  0
LINE
  5
5E0
100
AcDbEntity
  8
M0
 62
   114
100
AcDbLine
 10
727.37208
 20
1120.406056
 11
727.37208
 21
1113.300721
  0
LINE
  5
5E1
100
AcDbEntity
  8
M0
 62
     6
100
AcDbLine
 10
656.120022
 20
1162.405992
 11
658.420025
 21
1162.405993
  0
LINE
  5
5E2
100
AcDbEntity
  8
M0
 62
     6
100
AcDbLine
 10
658.420025
 20
1162.405993
 11
658.420041
 21
1136.405993
  0
LINE
  5
5E3
100
AcDbEntity
  8
M0
 62
     6
100
AcDbLine
 10
658.420041
 20
1136.405993
 11
656.120038
 21
1136.405992
  0
LINE
  5
5E4
100
AcDbEntity
  8
M0
 62
     6
100
AcDbLine
 10
656.120038
 20
1136.405992
 11
656.120022
 21
1162.405992
  0
LINE
  5
5E5
100
AcDbEntity
  8
M0
 62
     7
100
AcDbLine
 10
653.119927
 20
1160.156107
 11
656.119927
 21
1160.156107
  0
LINE
  5
5E6
100
AcDbEntity
  8
M0
 62
     7
100
AcDbLine
 10
656.119927
 20
1160.156107
 11
656.119927
 21
1138.656107
  0
LINE
  5
5E7
100
AcDbEntity
  8
M0
 62
     7
100
AcDbLine
 10
656.119927
 20
1138.656107
 11
653.119927
 21
1138.656107
  0
LINE
  5
5E8
100
AcDbEntity
  8
M0
 62
     7
100
AcDbLine
 10
653.119927
 20
1138.656107
 11
653.119927
 21
1160.156107
  0
LINE
  5
5E9
100
AcDbEntity
  8
M0
 62
     7
100
AcDbLine
 10
653.119927
 20
1149.406092
 11
656.119927
 21
1151.138132
  0
LINE
  5
5EA
100
AcDbEntity
  8
M0
 62
     7
100
AcDbLine
 10
653.119927
 20
1147.674067
 11
656.119927
 21
1149.406107
  0
LINE
  5
5EB
100
AcDbEntity
  8
M0
 62
     6
100
AcDbLine
 10
643.119733
 20
1160.355984
 11
653.119733
 21
1160.35599
  0
LINE
  5
5EC
100
AcDbEntity
  8
M0
 62
     6
100
AcDbLine
 10
653.119977
 20
1160.355975
 11
653.119991
 21
1138.455981
  0
LINE
  5
5ED
100
AcDbEntity
  8
M0
 62
     6
100
AcDbLine
 10
643.119991
 20
1138.45602
 11
643.119977
 21
1160.355999
  0
LINE
  5
5EE
100
AcDbEntity
  8
M0
 62
     6
100
AcDbLine
 10
653.119737
 20
1154.881015
 11
643.119737
 21
1154.881008
  0
LINE
  5
5EF
100
AcDbEntity
  8
M0
 62
     6
100
AcDbLine
 10
643.119503
 20
1138.45599
 11
653.119747
 21
1138.455996
  0
LINE
  5
5F0
100
AcDbEntity
  8
M0
 62
     6
100
AcDbLine
 10
653.119744
 20
1143.931002
 11
643.1195
 21
1143.930996
  0
LINE
  5
5F1
100
AcDbEntity
  8
M0
 62
     6
100
AcDbLine
 10
643.119733
 20
876.355984
 11
653.119733
 21
876.35599
  0
LINE
  5
5F2
100
AcDbEntity
  8
M0
 62
     6
100
AcDbLine
 10
653.119977
 20
876.355975
 11
653.119991
 21
854.455981
  0
LINE
  5
5F3
100
AcDbEntity
  8
M0
 62
     6
100
AcDbLine
 10
643.119991
 20
854.45602
 11
643.119977
 21
876.355999
  0
LINE
  5
5F4
100
AcDbEntity
  8
M0
 62
     6
100
AcDbLine
 10
653.119737
 20
870.881015
 11
643.119737
 21
870.881008
  0
LINE
  5
5F5
100
AcDbEntity
  8
M0
 62
     6
100
AcDbLine
 10
643.119503
 20
854.45599
 11
653.119747
 21
854.455996
  0
LINE
  5
5F6
100
AcDbEntity
  8
M0
 62
     6
100
AcDbLine
 10
653.119744
 20
859.931002
 11
643.1195
 21
859.930996
  0
LINE
  5
5F7
100
AcDbEntity
  8
M0
 62
     7
100
AcDbLine
 10
653.119927
 20
876.156107
 11
656.119927
 21
876.156107
  0
LINE
  5
5F8
100
AcDbEntity
  8
M0
 62
     7
100
AcDbLine
 10
656.119927
 20
876.156107
 11
656.119927
 21
854.656107
  0
LINE
  5
5F9
100
AcDbEntity
  8
M0
 62
     7
100
AcDbLine
 10
656.119927
 20
854.656107
 11
653.119927
 21
854.656107
  0
LINE
  5
5FA
100
AcDbEntity
  8
M0
 62
     7
100
AcDbLine
 10
653.119927
 20
854.656107
 11
653.119927
 21
876.156107
  0
LINE
  5
5FB
100
AcDbEntity
  8
M0
 62
     7
100
AcDbLine
 10
653.119927
 20
865.406092
 11
656.119927
 21
867.138132
  0
LINE
  5
5FC
100
AcDbEntity
  8
M0
 62
     7
100
AcDbLine
 10
653.119927
 20
863.674067
 11
656.119927
 21
865.406107
  0
LINE
  5
5FD
100
AcDbEntity
  8
M0
 62
     6
100
AcDbLine
 10
656.120022
 20
878.405992
 11
658.420025
 21
878.405993
  0
LINE
  5
5FE
100
AcDbEntity
  8
M0
 62
     6
100
AcDbLine
 10
658.420025
 20
878.405993
 11
658.420041
 21
852.405993
  0
LINE
  5
5FF
100
AcDbEntity
  8
M0
 62
     6
100
AcDbLine
 10
658.420041
 20
852.405993
 11
656.120038
 21
852.405992
  0
LINE
  5
600
100
AcDbEntity
  8
M0
 62
     6
100
AcDbLine
 10
656.120038
 20
852.405992
 11
656.120022
 21
878.405992
  0
LINE
  5
601
100
AcDbEntity
  8
M0
 62
   114
100
AcDbLine
 10
666.518575
 20
1083.895819
 11
673.02004
 21
1083.895819
  0
LINE
  5
602
100
AcDbEntity
  8
M0
 62
   114
100
AcDbLine
 10
673.02004
 20
1083.895819
 11
673.02004
 21
1099.048151
  0
LINE
  5
603
100
AcDbEntity
  8
M0
 62
   114
100
AcDbLine
 10
673.078156
 20
1098.915851
 11
666.518575
 21
1098.915543
  0
LINE
  5
604
100
AcDbEntity
  8
M0
 62
   114
100
AcDbLine
 10
666.518575
 20
1083.895819
 11
666.518575
 21
1098.915543
  0
LINE
  5
605
100
AcDbEntity
  8
M0
 62
   114
100
AcDbLine
 10
666.518575
 20
1095.158809
 11
673.02004
 21
1095.158809
  0
LINE
  5
606
100
AcDbEntity
  8
M0
 62
   114
100
AcDbLine
 10
666.518575
 20
1087.653164
 11
673.02004
 21
1087.653164
  0
LINE
  5
607
100
AcDbEntity
  8
M0
 62
   114
100
AcDbLine
 10
675.02004
 20
1083.40592
 11
676.220037
 21
1083.40592
  0
LINE
  5
608
100
AcDbEntity
  8
M0
 62
   114
100
AcDbLine
 10
676.220037
 20
1083.40592
 11
676.220037
 21
1094.839113
  0
LINE
  5
609
100
AcDbEntity
  8
M0
 62
   114
100
AcDbLine
 10
675.02004
 20
1099.406241
 11
675.02004
 21
1083.40592
  0
LINE
  5
60A
100
AcDbEntity
  8
M0
 62
   114
100
AcDbLine
 10
673.02004
 20
1083.705898
 11
675.02004
 21
1083.705898
  0
LINE
  5
60B
100
AcDbEntity
  8
M0
 62
   114
100
AcDbLine
 10
675.02004
 20
1083.705898
 11
675.02004
 21
1095.963461
  0
LINE
  5
60C
100
AcDbEntity
  8
M0
 62
   114
100
AcDbLine
 10
673.02004
 20
1099.105908
 11
673.02004
 21
1083.705898
  0
LINE
  5
60D
100
AcDbEntity
  8
M0
 62
   114
100
AcDbLine
 10
673.02004
 20
1091.405895
 11
675.02004
 21
1090.251202
  0
LINE
  5
60E
100
AcDbEntity
  8
M0
 62
   114
100
AcDbLine
 10
673.02004
 20
1092.560589
 11
675.02004
 21
1091.405895
  0
LINE
  5
60F
100
AcDbEntity
  8
M0
 62
   114
100
AcDbLine
 10
675.019289
 20
1099.406241
 11
676.219286
 21
1099.406354
  0
LINE
  5
610
100
AcDbEntity
  8
M0
 62
   114
100
AcDbLine
 10
673.019317
 20
1099.106075
 11
675.019317
 21
1099.106262
  0
LINE
  5
611
100
AcDbEntity
  8
M0
 62
     6
100
AcDbLine
 10
665.220037
 20
1002.40591
 11
665.220037
 21
1012.40591
  0
CIRCLE
  5
612
100
AcDbEntity
  8
M0
 62
     6
100
AcDbCircle
 10
659.720037
 20
1007.40591
 40
2.5
  0
LINE
  5
613
100
AcDbEntity
  8
M0
 62
     6
100
AcDbLine
 10
583.220037
 20
1009.90591
 11
588.220037
 21
1009.90591
  0
ARC
  5
614
100
AcDbEntity
  8
M0
 62
     6
100
AcDbCircle
 10
583.220037
 20
1008.40591
 40
1.5
100
AcDbArc
 50
90.0
 51
180.0
  0
LINE
  5
615
100
AcDbEntity
  8
M0
 62
     6
100
AcDbLine
 10
581.720037
 20
1008.40591
 11
581.720037
 21
1006.40591
  0
LINE
  5
616
100
AcDbEntity
  8
M0
 62
     6
100
AcDbLine
 10
583.220037
 20
1004.90591
 11
588.220037
 21
1004.90591
  0
ARC
  5
617
100
AcDbEntity
  8
M0
 62
     6
100
AcDbCircle
 10
583.220037
 20
1006.40591
 40
1.5
100
AcDbArc
 50
180.0
 51
270.0
  0
LINE
  5
618
100
AcDbEntity
  8
M0
 62
     6
100
AcDbLine
 10
665.220037
 20
1012.40591
 11
633.220037
 21
1012.40591
  0
LINE
  5
619
100
AcDbEntity
  8
M0
 62
     6
100
AcDbLine
 10
633.220037
 20
1002.40591
 11
665.220037
 21
1002.40591
  0
LINE
  5
61A
100
AcDbEntity
  8
M0
  6
DOT
 62
    74
100
AcDbLine
 10
646.620037
 20
951.405944
 11
648.220037
 21
951.405944
  0
LINE
  5
61B
100
AcDbEntity
  8
M0
 62
    74
100
AcDbLine
 10
651.620037
 20
911.405944
 11
653.220037
 21
911.405944
  0
LINE
  5
61C
100
AcDbEntity
  8
M0
 62
    74
100
AcDbLine
 10
651.620037
 20
921.405944
 11
651.620037
 21
911.405944
  0
ARC
  5
61D
100
AcDbEntity
  8
M0
 62
    74
100
AcDbCircle
 10
650.620037
 20
921.405944
 40
1.0
100
AcDbArc
 50
0.0
 51
90.0
  0
LINE
  5
61E
100
AcDbEntity
  8
M0
  6
DOT
 62
    74
100
AcDbLine
 10
648.220037
 20
951.405944
 11
648.220037
 21
925.40591
  0
ARC
  5
61F
100
AcDbEntity
  8
M0
 62
    74
100
AcDbCircle
 10
649.220037
 20
925.005944
 40
1.0
100
AcDbArc
 50
180.0
 51
270.0
  0
LINE
  5
620
100
AcDbEntity
  8
M0
 62
    74
100
AcDbLine
 10
649.220037
 20
922.405944
 11
650.620037
 21
922.405944
  0
LINE
  5
621
100
AcDbEntity
  8
M0
 62
    74
100
AcDbLine
 10
646.620037
 20
925.005944
 11
646.620037
 21
925.40591
  0
ARC
  5
622
100
AcDbEntity
  8
M0
 62
    74
100
AcDbCircle
 10
649.220037
 20
925.005944
 40
2.6
100
AcDbArc
 50
180.0
 51
270.0
  0
LINE
  5
623
100
AcDbEntity
  8
M0
 62
    74
100
AcDbLine
 10
650.620037
 20
924.005944
 11
649.220037
 21
924.005944
  0
LINE
  5
624
100
AcDbEntity
  8
M0
 62
    74
100
AcDbLine
 10
653.220037
 20
911.405944
 11
653.220037
 21
921.405944
  0
ARC
  5
625
100
AcDbEntity
  8
M0
 62
    74
100
AcDbCircle
 10
650.620037
 20
921.405944
 40
2.6
100
AcDbArc
 50
0.0
 51
90.0
  0
LINE
  5
626
100
AcDbEntity
  8
M0
 62
    74
100
AcDbLine
 10
648.220037
 20
930.405944
 11
646.620037
 21
930.405944
  0
LINE
  5
627
100
AcDbEntity
  8
M0
  6
DOT
 62
    74
100
AcDbLine
 10
646.620037
 20
925.40591
 11
646.620037
 21
951.405944
  0
LINE
  5
628
100
AcDbEntity
  8
M0
 62
    74
100
AcDbLine
 10
648.220037
 20
925.40591
 11
648.220037
 21
925.005944
  0
LINE
  5
629
100
AcDbEntity
  8
M0
 62
   114
100
AcDbLine
 10
651.120037
 20
913.405944
 11
651.120037
 21
921.405944
  0
LINE
  5
62A
100
AcDbEntity
  8
M0
 62
   114
100
AcDbLine
 10
651.620037
 20
913.405944
 11
651.620037
 21
921.405944
  0
LINE
  5
62B
100
AcDbEntity
  8
M0
 62
   114
100
AcDbLine
 10
650.120037
 20
920.905944
 11
651.120037
 21
920.905944
  0
LINE
  5
62C
100
AcDbEntity
  8
M0
 62
   114
100
AcDbLine
 10
650.120037
 20
913.905944
 11
651.120037
 21
913.905944
  0
LINE
  5
62D
100
AcDbEntity
  8
M0
 62
   114
100
AcDbLine
 10
651.120037
 20
921.405944
 11
651.620037
 21
921.405944
  0
LINE
  5
62E
100
AcDbEntity
  8
M0
 62
   114
100
AcDbLine
 10
651.120037
 20
913.405944
 11
651.620037
 21
913.405944
  0
LINE
  5
62F
100
AcDbEntity
  8
M0
 62
   114
100
AcDbLine
 10
650.120037
 20
913.906066
 11
650.120037
 21
920.906066
  0
LINE
  5
630
100
AcDbEntity
  8
M0
 62
   114
100
AcDbLine
 10
650.120037
 20
919.406066
 11
650.120037
 21
915.406066
  0
LINE
  5
631
100
AcDbEntity
  8
M0
 62
   114
100
AcDbLine
 10
650.120037
 20
920.906066
 11
649.141017
 21
920.906066
  0
LINE
  5
632
100
AcDbEntity
  8
M0
 62
   114
100
AcDbLine
 10
649.141017
 20
913.906066
 11
650.120037
 21
913.906066
  0
ARC
  5
633
100
AcDbEntity
  8
M0
 62
   114
100
AcDbCircle
 10
649.141017
 20
915.206069
 40
1.299999
100
AcDbArc
 50
196.601342
 51
270.0
  0
LINE
  5
634
100
AcDbEntity
  8
M0
 62
   114
100
AcDbLine
 10
647.533931
 20
917.906066
 11
648.93394
 21
917.906066
  0
LINE
  5
635
100
AcDbEntity
  8
M0
 62
   114
100
AcDbLine
 10
648.93394
 20
917.906066
 11
648.93394
 21
916.906066
  0
LINE
  5
636
100
AcDbEntity
  8
M0
 62
   114
100
AcDbLine
 10
648.93394
 20
916.906066
 11
647.533931
 21
916.906066
  0
ARC
  5
637
100
AcDbEntity
  8
M0
 62
   114
100
AcDbCircle
 10
656.52003
 20
917.406066
 40
9.0
100
AcDbArc
 50
163.049976
 51
176.815183
  0
ARC
  5
638
100
AcDbEntity
  8
M0
 62
   114
100
AcDbCircle
 10
656.52003
 20
917.406066
 40
9.0
100
AcDbArc
 50
183.18469
 51
196.601474
  0
LINE
  5
639
100
AcDbEntity
  8
M0
 62
   114
100
AcDbLine
 10
651.120037
 20
917.406066
 11
650.120037
 21
916.906066
  0
LINE
  5
63A
100
AcDbEntity
  8
M0
 62
   114
100
AcDbLine
 10
650.120037
 20
917.406066
 11
651.120037
 21
917.906051
  0
ARC
  5
63B
100
AcDbEntity
  8
M0
 62
   114
100
AcDbCircle
 10
649.141017
 20
919.605819
 40
1.299999
100
AcDbArc
 50
90.0
 51
166.805802
  0
LINE
  5
63C
100
AcDbEntity
  8
M0
 60
     1
100
AcDbLine
 10
141.28631
 20
576.37249
 11
156.28631
 21
576.37249
  0
ARC
  5
63D
100
AcDbEntity
  8
M0
 62
     4
100
AcDbCircle
 10
734.220037
 20
961.30591
 40
2.0
100
AcDbArc
 50
270.0
 51
360.0
  0
CIRCLE
  5
63E
100
AcDbEntity
  8
M0
 62
     4
100
AcDbCircle
 10
741.220037
 20
944.30591
 40
6.0
  0
ARC
  5
63F
100
AcDbEntity
  8
M0
 62
     4
100
AcDbCircle
 10
748.220037
 20
961.30591
 40
2.0
100
AcDbArc
 50
180.0
 51
270.0
  0
ARC
  5
640
100
AcDbEntity
  8
M0
 62
     4
100
AcDbCircle
 10
741.220037
 20
944.30591
 40
15.0
100
AcDbArc
 50
180.0
 51
360.0
  0
LINE
  5
641
100
AcDbEntity
  8
M0
 62
     4
100
AcDbLine
 10
726.220037
 20
993.40591
 11
726.220037
 21
944.30591
  0
LINE
  5
642
100
AcDbEntity
  8
M0
 62
     4
100
AcDbLine
 10
736.220037
 20
993.40591
 11
736.220037
 21
953.80591
  0
LINE
  5
643
100
AcDbEntity
  8
M0
 62
     4
100
AcDbLine
 10
756.220037
 20
944.30591
 11
756.220037
 21
993.40591
  0
LINE
  5
644
100
AcDbEntity
  8
M0
 62
     4
100
AcDbLine
 10
746.220037
 20
993.40591
 11
746.220037
 21
953.80591
  0
LINE
  5
645
100
AcDbEntity
  8
M0
 62
     4
100
AcDbLine
 10
726.220037
 20
959.30591
 11
734.220037
 21
959.30591
  0
LINE
  5
646
100
AcDbEntity
  8
M0
 62
     4
100
AcDbLine
 10
748.220037
 20
959.30591
 11
756.220037
 21
959.30591
  0
LINE
  5
647
100
AcDbEntity
  8
M0
 62
     4
100
AcDbLine
 10
726.220037
 20
964.30591
 11
722.220037
 21
964.30591
  0
LINE
  5
648
100
AcDbEntity
  8
M0
 62
     4
100
AcDbLine
 10
722.220037
 20
964.30591
 11
722.220037
 21
993.175608
  0
LINE
  5
649
100
AcDbEntity
  8
M0
100
AcDbLine
 10
156.620045
 20
896.90591
 11
156.620045
 21
908.90591
  0
LINE
  5
64A
100
AcDbEntity
  8
M0
100
AcDbLine
 10
156.620045
 20
908.90591
 11
158.620045
 21
908.90591
  0
LINE
  5
64B
100
AcDbEntity
  8
M0
100
AcDbLine
 10
156.620045
 20
896.90591
 11
158.620045
 21
896.90591
  0
LINE
  5
64C
100
AcDbEntity
  8
M0
100
AcDbLine
 10
420.620045
 20
896.90591
 11
418.620045
 21
896.90591
  0
LINE
  5
64D
100
AcDbEntity
  8
M0
100
AcDbLine
 10
420.620045
 20
896.90591
 11
420.620045
 21
908.90591
  0
LINE
  5
64E
100
AcDbEntity
  8
M0
100
AcDbLine
 10
420.620045
 20
908.90591
 11
418.620045
 21
908.90591
  0
LINE
  5
64F
100
AcDbEntity
  8
M0
100
AcDbLine
 10
253.669756
 20
792.90591
 11
271.569756
 21
792.90591
  0
LINE
  5
650
100
AcDbEntity
  8
M0
100
AcDbLine
 10
271.569756
 20
792.90591
 11
271.569756
 21
804.90591
  0
LINE
  5
651
100
AcDbEntity
  8
M0
100
AcDbLine
 10
253.669756
 20
792.90591
 11
253.669756
 21
804.90591
  0
LINE
  5
652
100
AcDbEntity
  8
M0
100
AcDbLine
 10
226.619756
 20
849.40591
 11
226.619756
 21
796.40591
  0
LINE
  5
653
100
AcDbEntity
  8
M0
100
AcDbLine
 10
236.619756
 20
796.40591
 11
236.619756
 21
804.90591
  0
LINE
  5
654
100
AcDbEntity
  8
M0
100
AcDbLine
 10
226.619756
 20
796.40591
 11
236.619756
 21
796.40591
  0
LINE
  5
655
100
AcDbEntity
  8
M0
100
AcDbLine
 10
226.619756
 20
855.40591
 11
236.619756
 21
855.40591
  0
LINE
  5
656
100
AcDbEntity
  8
M0
100
AcDbLine
 10
226.619756
 20
808.60591
 11
232.619756
 21
808.60591
  0
LINE
  5
657
100
AcDbEntity
  8
M0
100
AcDbLine
 10
298.619756
 20
796.40591
 11
288.619756
 21
796.40591
  0
LINE
  5
658
100
AcDbEntity
  8
M0
100
AcDbLine
 10
288.619756
 20
796.40591
 11
288.619756
 21
804.90591
  0
LINE
  5
659
100
AcDbEntity
  8
M0
100
AcDbLine
 10
298.619756
 20
849.40591
 11
298.619756
 21
796.40591
  0
LINE
  5
65A
100
AcDbEntity
  8
M0
100
AcDbLine
 10
298.619756
 20
808.60591
 11
292.619756
 21
808.60591
  0
LINE
  5
65B
100
AcDbEntity
  8
M0
100
AcDbLine
 10
170.669759
 20
872.90591
 11
166.169759
 21
872.90591
  0
LINE
  5
65C
100
AcDbEntity
  8
M0
100
AcDbLine
 10
166.169759
 20
872.90591
 11
166.169759
 21
882.405925
  0
LINE
  5
65D
100
AcDbEntity
  8
M0
100
AcDbLine
 10
411.069753
 20
872.90591
 11
411.069753
 21
882.405925
  0
LINE
  5
65E
100
AcDbEntity
  8
M0
100
AcDbLine
 10
406.569753
 20
872.90591
 11
411.069753
 21
872.90591
  0
LINE
  5
65F
100
AcDbEntity
  8
M0
 62
    74
100
AcDbLine
 10
348.919758
 20
845.305901
 11
341.31976
 21
845.305906
  0
LINE
  5
660
100
AcDbEntity
  8
M0
 62
    74
100
AcDbLine
 10
341.319756
 20
845.305891
 11
341.319751
 21
836.405927
  0
LINE
  5
661
100
AcDbEntity
  8
M0
 62
    74
100
AcDbLine
 10
348.91974
 20
836.405923
 11
348.919746
 21
845.305886
  0
CIRCLE
  5
662
100
AcDbEntity
  8
M0
 62
    74
100
AcDbCircle
 10
345.11976
 20
846.15591
 40
0.85
  0
ARC
  5
663
100
AcDbEntity
  8
M0
 62
    74
100
AcDbCircle
 10
345.11976
 20
846.15591
 40
1.65
100
AcDbArc
 50
328.99211
 51
571.008414
  0
ARC
  5
664
100
AcDbEntity
  8
M0
 62
    74
100
AcDbCircle
 10
342.474023
 20
846.305905
 40
1.0
100
AcDbArc
 50
270.0
 51
356.752962
  0
ARC
  5
665
100
AcDbEntity
  8
M0
 62
    74
100
AcDbCircle
 10
347.765511
 20
846.305902
 40
1.0
100
AcDbArc
 50
183.244342
 51
270.0
  0
LINE
  5
666
100
AcDbEntity
  8
M0
 62
    74
100
AcDbLine
 10
311.319757
 20
777.505935
 11
318.919755
 21
777.505935
  0
LINE
  5
667
100
AcDbEntity
  8
M0
 62
    74
100
AcDbLine
 10
318.919744
 20
777.505931
 11
318.919744
 21
786.405894
  0
LINE
  5
668
100
AcDbEntity
  8
M0
 62
    74
100
AcDbLine
 10
311.319753
 20
786.405894
 11
311.319753
 21
777.505931
  0
CIRCLE
  5
669
100
AcDbEntity
  8
M0
 62
    74
100
AcDbCircle
 10
315.119756
 20
776.655925
 40
0.85
  0
ARC
  5
66A
100
AcDbEntity
  8
M0
 62
    74
100
AcDbCircle
 10
315.119756
 20
776.655925
 40
1.65
100
AcDbArc
 50
148.992189
 51
391.008004
  0
ARC
  5
66B
100
AcDbEntity
  8
M0
 62
    74
100
AcDbCircle
 10
317.765492
 20
776.505931
 40
1.0
100
AcDbArc
 50
90.0
 51
176.755568
  0
ARC
  5
66C
100
AcDbEntity
  8
M0
 62
    74
100
AcDbCircle
 10
312.474004
 20
776.505931
 40
1.0
100
AcDbArc
 50
3.244268
 51
90.0
  0
LINE
  5
66D
100
AcDbEntity
  8
M0
 62
    74
100
AcDbLine
 10
311.11974
 20
797.405894
 11
349.11974
 21
797.405894
  0
LINE
  5
66E
100
AcDbEntity
  8
M0
 62
    74
100
AcDbLine
 10
349.11974
 20
825.405894
 11
311.11974
 21
825.405879
  0
LINE
  5
66F
100
AcDbEntity
  8
M0
 62
    74
100
AcDbLine
 10
351.619756
 20
811.40594
 11
351.619756
 21
843.40594
  0
LINE
  5
670
100
AcDbEntity
  8
M0
 62
    74
100
AcDbLine
 10
351.119756
 20
839.90594
 11
349.619756
 21
839.90594
  0
LINE
  5
671
100
AcDbEntity
  8
M0
 62
    74
100
AcDbLine
 10
311.119756
 20
825.90594
 11
349.119756
 21
825.90594
  0
LINE
  5
672
100
AcDbEntity
  8
M0
 62
    74
100
AcDbLine
 10
311.119756
 20
839.405894
 11
311.119756
 21
825.90594
  0
LINE
  5
673
100
AcDbEntity
  8
M0
 62
    74
100
AcDbLine
 10
319.119756
 20
840.405894
 11
319.119756
 21
828.40594
  0
LINE
  5
674
100
AcDbEntity
  8
M0
 62
    74
100
AcDbLine
 10
321.119756
 20
840.405894
 11
321.119756
 21
827.15594
  0
LINE
  5
675
100
AcDbEntity
  8
M0
 62
    74
100
AcDbLine
 10
329.119756
 20
840.405894
 11
329.119756
 21
828.40594
  0
LINE
  5
676
100
AcDbEntity
  8
M0
 62
    74
100
AcDbLine
 10
331.119756
 20
840.405894
 11
331.119756
 21
827.15594
  0
LINE
  5
677
100
AcDbEntity
  8
M0
 62
    74
100
AcDbLine
 10
339.119756
 20
840.40591
 11
339.119756
 21
828.40594
  0
LINE
  5
678
100
AcDbEntity
  8
M0
 62
    74
100
AcDbLine
 10
341.119756
 20
843.90594
 11
341.119756
 21
827.15594
  0
LINE
  5
679
100
AcDbEntity
  8
M0
 62
    74
100
AcDbLine
 10
349.119756
 20
843.90594
 11
349.119756
 21
825.90594
  0
LINE
  5
67A
100
AcDbEntity
  8
M0
 62
    74
100
AcDbLine
 10
318.619756
 20
827.90594
 11
318.619756
 21
826.65594
  0
LINE
  5
67B
100
AcDbEntity
  8
M0
 62
    74
100
AcDbLine
 10
328.619756
 20
827.90594
 11
328.619756
 21
826.65594
  0
LINE
  5
67C
100
AcDbEntity
  8
M0
 62
    74
100
AcDbLine
 10
338.619756
 20
843.40594
 11
338.619756
 21
833.497829
  0
LINE
  5
67D
100
AcDbEntity
  8
M0
 62
    74
100
AcDbLine
 10
309.119756
 20
828.90594
 11
310.619756
 21
828.90594
  0
LINE
  5
67E
100
AcDbEntity
  8
M0
 62
    74
100
AcDbLine
 10
329.619756
 20
828.90594
 11
330.619756
 21
828.90594
  0
LINE
  5
67F
100
AcDbEntity
  8
M0
 62
    74
100
AcDbLine
 10
339.619756
 20
828.90594
 11
340.619756
 21
828.90594
  0
LINE
  5
680
100
AcDbEntity
  8
M0
 62
    74
100
AcDbLine
 10
349.619756
 20
828.90594
 11
351.119756
 21
828.90594
  0
LINE
  5
681
100
AcDbEntity
  8
M0
 62
    74
100
AcDbLine
 10
311.119756
 20
836.40594
 11
319.119756
 21
836.40594
  0
LINE
  5
682
100
AcDbEntity
  8
M0
 62
    74
100
AcDbLine
 10
321.119756
 20
836.40594
 11
329.119756
 21
836.40594
  0
LINE
  5
683
100
AcDbEntity
  8
M0
 62
    74
100
AcDbLine
 10
331.119756
 20
836.40594
 11
338.619756
 21
836.40594
  0
LINE
  5
684
100
AcDbEntity
  8
M0
 62
    74
100
AcDbLine
 10
331.119756
 20
838.40594
 11
338.619756
 21
838.40594
  0
LINE
  5
685
100
AcDbEntity
  8
M0
 62
    74
100
AcDbLine
 10
310.619756
 20
839.90591
 11
309.119756
 21
839.90591
  0
LINE
  5
686
100
AcDbEntity
  8
M0
 62
    74
100
AcDbLine
 10
320.619756
 20
840.90591
 11
319.619756
 21
840.90591
  0
LINE
  5
687
100
AcDbEntity
  8
M0
 62
    74
100
AcDbLine
 10
330.619756
 20
840.90591
 11
329.619756
 21
840.90591
  0
LINE
  5
688
100
AcDbEntity
  8
M0
 62
    74
100
AcDbLine
 10
319.119756
 20
828.40594
 11
318.619756
 21
827.90594
  0
LINE
  5
689
100
AcDbEntity
  8
M0
 62
    74
100
AcDbLine
 10
329.119756
 20
828.40594
 11
328.619756
 21
827.90594
  0
LINE
  5
68A
100
AcDbEntity
  8
M0
 62
    74
100
AcDbLine
 10
339.119756
 20
828.40594
 11
338.619756
 21
827.90594
  0
LINE
  5
68B
100
AcDbEntity
  8
M0
 62
    74
100
AcDbLine
 10
340.619756
 20
840.905925
 11
339.619756
 21
840.905925
  0
LINE
  5
68C
100
AcDbEntity
  8
M0
 62
    74
100
AcDbLine
 10
339.119756
 20
843.90594
 11
341.319753
 21
843.90594
  0
LINE
  5
68D
100
AcDbEntity
  8
M0
 62
    74
100
AcDbLine
 10
351.119756
 20
841.40594
 11
349.619756
 21
841.40594
  0
ARC
  5
68E
100
AcDbEntity
  8
M0
 62
    74
100
AcDbCircle
 10
309.119756
 20
839.405894
 40
0.5
100
AcDbArc
 50
89.998251
 51
180.0
  0
ARC
  5
68F
100
AcDbEntity
  8
M0
 62
    74
100
AcDbCircle
 10
310.619756
 20
839.405894
 40
0.5
100
AcDbArc
 50
0.0
 51
89.998251
  0
ARC
  5
690
100
AcDbEntity
  8
M0
 62
    74
100
AcDbCircle
 10
319.619756
 20
840.405894
 40
0.5
100
AcDbArc
 50
90.0
 51
180.0
  0
ARC
  5
691
100
AcDbEntity
  8
M0
 62
    74
100
AcDbCircle
 10
320.619756
 20
840.405894
 40
0.5
100
AcDbArc
 50
0.0
 51
90.0
  0
ARC
  5
692
100
AcDbEntity
  8
M0
 62
    74
100
AcDbCircle
 10
329.619756
 20
840.405894
 40
0.5
100
AcDbArc
 50
90.0
 51
180.0
  0
ARC
  5
693
100
AcDbEntity
  8
M0
 62
    74
100
AcDbCircle
 10
330.619756
 20
840.405894
 40
0.5
100
AcDbArc
 50
0.0
 51
90.0
  0
ARC
  5
694
100
AcDbEntity
  8
M0
 62
    74
100
AcDbCircle
 10
339.619756
 20
840.40591
 40
0.5
100
AcDbArc
 50
90.0
 51
180.0
  0
ARC
  5
695
100
AcDbEntity
  8
M0
 62
    74
100
AcDbCircle
 10
339.119756
 20
843.40594
 40
0.5
100
AcDbArc
 50
90.0
 51
180.0
  0
ARC
  5
696
100
AcDbEntity
  8
M0
 62
    74
100
AcDbCircle
 10
351.119756
 20
843.40594
 40
0.5
100
AcDbArc
 50
0.0
 51
90.0
  0
ARC
  5
697
100
AcDbEntity
  8
M0
 62
    74
100
AcDbCircle
 10
351.119756
 20
828.40594
 40
0.5
100
AcDbArc
 50
0.0
 51
90.0
  0
ARC
  5
698
100
AcDbEntity
  8
M0
 62
    74
100
AcDbCircle
 10
340.619756
 20
828.40594
 40
0.5
100
AcDbArc
 50
0.0
 51
90.0
  0
ARC
  5
699
100
AcDbEntity
  8
M0
 62
    74
100
AcDbCircle
 10
330.619756
 20
828.40594
 40
0.5
100
AcDbArc
 50
0.0
 51
90.0
  0
ARC
  5
69A
100
AcDbEntity
  8
M0
 62
    74
100
AcDbCircle
 10
310.619756
 20
828.40594
 40
0.5
100
AcDbArc
 50
0.0
 51
89.998251
  0
ARC
  5
69B
100
AcDbEntity
  8
M0
 62
    74
100
AcDbCircle
 10
351.119756
 20
839.405925
 40
0.5
100
AcDbArc
 50
0.0
 51
90.0
  0
ARC
  5
69C
100
AcDbEntity
  8
M0
 62
    74
100
AcDbCircle
 10
340.619756
 20
840.40591
 40
0.5
100
AcDbArc
 50
0.0
 51
90.0
  0
ARC
  5
69D
100
AcDbEntity
  8
M0
 62
    74
100
AcDbCircle
 10
351.119756
 20
840.905925
 40
0.5
100
AcDbArc
 50
0.0
 51
90.0
  0
ARC
  5
69E
100
AcDbEntity
  8
M0
 62
    74
100
AcDbCircle
 10
349.619756
 20
840.905925
 40
0.5
100
AcDbArc
 50
90.0
 51
180.0
  0
ARC
  5
69F
100
AcDbEntity
  8
M0
 62
    74
100
AcDbCircle
 10
349.619756
 20
839.405925
 40
0.5
100
AcDbArc
 50
90.0
 51
180.0
  0
ARC
  5
6A0
100
AcDbEntity
  8
M0
 62
    74
100
AcDbCircle
 10
349.619756
 20
828.40594
 40
0.5
100
AcDbArc
 50
90.0
 51
180.0
  0
ARC
  5
6A1
100
AcDbEntity
  8
M0
 62
    74
100
AcDbCircle
 10
339.619756
 20
828.40594
 40
0.5
100
AcDbArc
 50
90.0
 51
180.0
  0
ARC
  5
6A2
100
AcDbEntity
  8
M0
 62
    74
100
AcDbCircle
 10
329.619756
 20
828.40594
 40
0.5
100
AcDbArc
 50
90.0
 51
180.0
  0
ARC
  5
6A3
100
AcDbEntity
  8
M0
 62
    74
100
AcDbCircle
 10
309.119756
 20
828.40594
 40
0.5
100
AcDbArc
 50
89.998251
 51
180.0
  0
ARC
  5
6A4
100
AcDbEntity
  8
M0
 62
    74
100
AcDbCircle
 10
322.369756
 20
827.15594
 40
1.25
100
AcDbArc
 50
180.0
 51
270.0
  0
ARC
  5
6A5
100
AcDbEntity
  8
M0
 62
    74
100
AcDbCircle
 10
332.369756
 20
827.15594
 40
1.25
100
AcDbArc
 50
180.0
 51
270.0
  0
ARC
  5
6A6
100
AcDbEntity
  8
M0
 62
    74
100
AcDbCircle
 10
342.369756
 20
827.15594
 40
1.25
100
AcDbArc
 50
180.0
 51
270.0
  0
ARC
  5
6A7
100
AcDbEntity
  8
M0
 62
    74
100
AcDbCircle
 10
337.869756
 20
826.65594
 40
0.75
100
AcDbArc
 50
270.0
 51
360.0
  0
ARC
  5
6A8
100
AcDbEntity
  8
M0
 62
    74
100
AcDbCircle
 10
327.869756
 20
826.65594
 40
0.75
100
AcDbArc
 50
270.0
 51
360.0
  0
ARC
  5
6A9
100
AcDbEntity
  8
M0
 62
    74
100
AcDbCircle
 10
317.869756
 20
826.65594
 40
0.75
100
AcDbArc
 50
270.0
 51
360.0
  0
LINE
  5
6AA
100
AcDbEntity
  8
M0
 62
    74
100
AcDbLine
 10
308.619756
 20
811.405925
 11
308.619756
 21
779.405925
  0
LINE
  5
6AB
100
AcDbEntity
  8
M0
 62
    74
100
AcDbLine
 10
309.119756
 20
782.905925
 11
310.619756
 21
782.905925
  0
LINE
  5
6AC
100
AcDbEntity
  8
M0
 62
    74
100
AcDbLine
 10
351.619756
 20
783.405971
 11
351.619756
 21
811.405925
  0
LINE
  5
6AD
100
AcDbEntity
  8
M0
 62
    74
100
AcDbLine
 10
349.119756
 20
796.905925
 11
311.119756
 21
796.905925
  0
LINE
  5
6AE
100
AcDbEntity
  8
M0
 62
    74
100
AcDbLine
 10
349.119756
 20
783.405971
 11
349.119756
 21
796.905925
  0
LINE
  5
6AF
100
AcDbEntity
  8
M0
 62
    74
100
AcDbLine
 10
341.119756
 20
782.405971
 11
341.119756
 21
794.405925
  0
LINE
  5
6B0
100
AcDbEntity
  8
M0
 62
    74
100
AcDbLine
 10
339.119756
 20
782.405971
 11
339.119756
 21
795.655925
  0
LINE
  5
6B1
100
AcDbEntity
  8
M0
 62
    74
100
AcDbLine
 10
331.119756
 20
782.405971
 11
331.119756
 21
794.405925
  0
LINE
  5
6B2
100
AcDbEntity
  8
M0
 62
    74
100
AcDbLine
 10
329.119756
 20
782.405971
 11
329.119756
 21
795.655925
  0
LINE
  5
6B3
100
AcDbEntity
  8
M0
 62
    74
100
AcDbLine
 10
321.119756
 20
782.405956
 11
321.119756
 21
794.405925
  0
LINE
  5
6B4
100
AcDbEntity
  8
M0
 62
    74
100
AcDbLine
 10
319.119756
 20
778.905925
 11
319.119756
 21
795.655925
  0
LINE
  5
6B5
100
AcDbEntity
  8
M0
 62
    74
100
AcDbLine
 10
311.119756
 20
778.905894
 11
311.119756
 21
796.905925
  0
LINE
  5
6B6
100
AcDbEntity
  8
M0
 62
    74
100
AcDbLine
 10
341.619756
 20
794.905925
 11
341.619756
 21
796.155925
  0
LINE
  5
6B7
100
AcDbEntity
  8
M0
 62
    74
100
AcDbLine
 10
331.619756
 20
794.905925
 11
331.619756
 21
796.155925
  0
LINE
  5
6B8
100
AcDbEntity
  8
M0
 62
    74
100
AcDbLine
 10
321.619756
 20
779.405925
 11
321.619756
 21
789.314067
  0
LINE
  5
6B9
100
AcDbEntity
  8
M0
 62
    74
100
AcDbLine
 10
351.119756
 20
793.905925
 11
349.619756
 21
793.905925
  0
LINE
  5
6BA
100
AcDbEntity
  8
M0
 62
    74
100
AcDbLine
 10
340.619756
 20
793.905925
 11
339.619756
 21
793.905925
  0
LINE
  5
6BB
100
AcDbEntity
  8
M0
 62
    74
100
AcDbLine
 10
320.619756
 20
793.905925
 11
319.619756
 21
793.905925
  0
LINE
  5
6BC
100
AcDbEntity
  8
M0
 62
    74
100
AcDbLine
 10
310.619756
 20
793.905925
 11
309.119756
 21
793.905925
  0
LINE
  5
6BD
100
AcDbEntity
  8
M0
 62
    74
100
AcDbLine
 10
349.119756
 20
786.405925
 11
341.119756
 21
786.40591
  0
LINE
  5
6BE
100
AcDbEntity
  8
M0
 62
    74
100
AcDbLine
 10
339.119756
 20
784.40591
 11
331.119756
 21
784.40591
  0
LINE
  5
6BF
100
AcDbEntity
  8
M0
 62
    74
100
AcDbLine
 10
329.119756
 20
784.40591
 11
321.619756
 21
784.405925
  0
LINE
  5
6C0
100
AcDbEntity
  8
M0
 62
    74
100
AcDbLine
 10
349.619756
 20
782.905956
 11
351.119756
 21
782.905956
  0
LINE
  5
6C1
100
AcDbEntity
  8
M0
 62
    74
100
AcDbLine
 10
339.619756
 20
781.905956
 11
340.619756
 21
781.905956
  0
LINE
  5
6C2
100
AcDbEntity
  8
M0
 62
    74
100
AcDbLine
 10
329.619756
 20
781.905956
 11
330.619756
 21
781.905956
  0
LINE
  5
6C3
100
AcDbEntity
  8
M0
 62
    74
100
AcDbLine
 10
341.119756
 20
794.405925
 11
341.619756
 21
794.905925
  0
LINE
  5
6C4
100
AcDbEntity
  8
M0
 62
    74
100
AcDbLine
 10
331.119756
 20
794.405925
 11
331.619756
 21
794.905925
  0
LINE
  5
6C5
100
AcDbEntity
  8
M0
 62
    74
100
AcDbLine
 10
321.119756
 20
794.405925
 11
321.619756
 21
794.905925
  0
LINE
  5
6C6
100
AcDbEntity
  8
M0
 62
    74
100
AcDbLine
 10
319.619756
 20
781.90594
 11
320.619756
 21
781.90594
  0
LINE
  5
6C7
100
AcDbEntity
  8
M0
 62
    74
100
AcDbLine
 10
321.119756
 20
778.90591
 11
318.919744
 21
778.905894
  0
LINE
  5
6C8
100
AcDbEntity
  8
M0
 62
    74
100
AcDbLine
 10
309.119756
 20
781.405925
 11
310.619756
 21
781.405925
  0
ARC
  5
6C9
100
AcDbEntity
  8
M0
 62
    74
100
AcDbCircle
 10
351.119756
 20
783.405971
 40
0.5
100
AcDbArc
 50
269.998251
 51
360.0
  0
ARC
  5
6CA
100
AcDbEntity
  8
M0
 62
    74
100
AcDbCircle
 10
349.619756
 20
783.405971
 40
0.5
100
AcDbArc
 50
179.999891
 51
269.998251
  0
ARC
  5
6CB
100
AcDbEntity
  8
M0
 62
    74
100
AcDbCircle
 10
340.619756
 20
782.405971
 40
0.5
100
AcDbArc
 50
270.0
 51
360.0
  0
ARC
  5
6CC
100
AcDbEntity
  8
M0
 62
    74
100
AcDbCircle
 10
339.619756
 20
782.405971
 40
0.5
100
AcDbArc
 50
179.999891
 51
270.0
  0
ARC
  5
6CD
100
AcDbEntity
  8
M0
 62
    74
100
AcDbCircle
 10
330.619756
 20
782.405971
 40
0.5
100
AcDbArc
 50
270.0
 51
360.0
  0
ARC
  5
6CE
100
AcDbEntity
  8
M0
 62
    74
100
AcDbCircle
 10
329.619756
 20
782.405971
 40
0.5
100
AcDbArc
 50
179.999891
 51
270.0
  0
ARC
  5
6CF
100
AcDbEntity
  8
M0
 62
    74
100
AcDbCircle
 10
320.619756
 20
782.405956
 40
0.5
100
AcDbArc
 50
270.0
 51
360.0
  0
ARC
  5
6D0
100
AcDbEntity
  8
M0
 62
    74
100
AcDbCircle
 10
321.119756
 20
779.405925
 40
0.5
100
AcDbArc
 50
270.0
 51
360.0
  0
ARC
  5
6D1
100
AcDbEntity
  8
M0
 62
    74
100
AcDbCircle
 10
309.119756
 20
779.405925
 40
0.5
100
AcDbArc
 50
179.999891
 51
270.0
  0
ARC
  5
6D2
100
AcDbEntity
  8
M0
 62
    74
100
AcDbCircle
 10
309.119756
 20
794.405925
 40
0.5
100
AcDbArc
 50
180.0
 51
270.0
  0
ARC
  5
6D3
100
AcDbEntity
  8
M0
 62
    74
100
AcDbCircle
 10
319.619756
 20
794.405925
 40
0.5
100
AcDbArc
 50
180.0
 51
270.0
  0
ARC
  5
6D4
100
AcDbEntity
  8
M0
 62
    74
100
AcDbCircle
 10
339.619756
 20
794.405925
 40
0.5
100
AcDbArc
 50
180.0
 51
270.0
  0
ARC
  5
6D5
100
AcDbEntity
  8
M0
 62
    74
100
AcDbCircle
 10
349.619756
 20
794.405925
 40
0.5
100
AcDbArc
 50
180.0
 51
269.998251
  0
ARC
  5
6D6
100
AcDbEntity
  8
M0
 62
    74
100
AcDbCircle
 10
309.119756
 20
783.40594
 40
0.5
100
AcDbArc
 50
179.999891
 51
270.0
  0
ARC
  5
6D7
100
AcDbEntity
  8
M0
 62
    74
100
AcDbCircle
 10
319.619756
 20
782.405956
 40
0.5
100
AcDbArc
 50
179.999891
 51
270.0
  0
ARC
  5
6D8
100
AcDbEntity
  8
M0
 62
    74
100
AcDbCircle
 10
309.119756
 20
781.90594
 40
0.5
100
AcDbArc
 50
179.999891
 51
270.0
  0
ARC
  5
6D9
100
AcDbEntity
  8
M0
 62
    74
100
AcDbCircle
 10
310.619756
 20
781.90594
 40
0.5
100
AcDbArc
 50
270.0
 51
360.0
  0
ARC
  5
6DA
100
AcDbEntity
  8
M0
 62
    74
100
AcDbCircle
 10
310.619756
 20
783.40594
 40
0.5
100
AcDbArc
 50
270.0
 51
360.0
  0
ARC
  5
6DB
100
AcDbEntity
  8
M0
 62
    74
100
AcDbCircle
 10
310.619756
 20
794.405925
 40
0.5
100
AcDbArc
 50
270.0
 51
360.0
  0
ARC
  5
6DC
100
AcDbEntity
  8
M0
 62
    74
100
AcDbCircle
 10
320.619756
 20
794.405925
 40
0.5
100
AcDbArc
 50
270.0
 51
360.0
  0
ARC
  5
6DD
100
AcDbEntity
  8
M0
 62
    74
100
AcDbCircle
 10
340.619756
 20
794.405925
 40
0.5
100
AcDbArc
 50
270.0
 51
360.0
  0
ARC
  5
6DE
100
AcDbEntity
  8
M0
 62
    74
100
AcDbCircle
 10
351.119756
 20
794.405925
 40
0.5
100
AcDbArc
 50
269.998251
 51
360.0
  0
ARC
  5
6DF
100
AcDbEntity
  8
M0
 62
    74
100
AcDbCircle
 10
337.869756
 20
795.655925
 40
1.25
100
AcDbArc
 50
0.0
 51
90.0
  0
ARC
  5
6E0
100
AcDbEntity
  8
M0
 62
    74
100
AcDbCircle
 10
327.869756
 20
795.655925
 40
1.25
100
AcDbArc
 50
0.0
 51
90.0
  0
ARC
  5
6E1
100
AcDbEntity
  8
M0
 62
    74
100
AcDbCircle
 10
317.869756
 20
795.655925
 40
1.25
100
AcDbArc
 50
0.0
 51
90.0
  0
ARC
  5
6E2
100
AcDbEntity
  8
M0
 62
    74
100
AcDbCircle
 10
322.369756
 20
796.155925
 40
0.75
100
AcDbArc
 50
90.0
 51
180.0
  0
ARC
  5
6E3
100
AcDbEntity
  8
M0
 62
    74
100
AcDbCircle
 10
332.369756
 20
796.155925
 40
0.75
100
AcDbArc
 50
90.0
 51
180.0
  0
ARC
  5
6E4
100
AcDbEntity
  8
M0
 62
    74
100
AcDbCircle
 10
342.369756
 20
796.155925
 40
0.75
100
AcDbArc
 50
90.0
 51
180.0
  0
LINE
  5
6E5
100
AcDbEntity
  8
M0
  6
DASHDOT
 62
    74
100
AcDbLine
 10
330.119756
 20
773.958293
 11
330.119756
 21
850.031688
  0
LINE
  5
6E6
100
AcDbEntity
  8
M0
  6
DASHDOT
 62
    74
100
AcDbLine
 10
305.700307
 20
811.40591
 11
354.958928
 21
811.40591
  0
LINE
  5
6E7
100
AcDbEntity
  8
M0
 62
    74
100
AcDbLine
 10
329.119756
 20
838.40594
 11
321.119756
 21
838.405925
  0
LINE
  5
6E8
100
AcDbEntity
  8
M0
 62
    74
100
AcDbLine
 10
308.619756
 20
839.405894
 11
308.619756
 21
811.40594
  0
LINE
  5
6E9
100
AcDbEntity
  8
M0
 62
    74
100
AcDbLine
 10
338.619756
 20
829.114131
 11
338.619756
 21
826.65594
  0
LINE
  5
6EA
100
AcDbEntity
  8
M0
 62
    74
100
AcDbLine
 10
321.619756
 20
793.697887
 11
321.619756
 21
796.155925
  0
LINE
  5
6EB
100
AcDbEntity
  8
M0
 62
    74
100
AcDbLine
 10
327.119756
 20
808.15591
 11
328.619756
 21
808.15591
  0
LINE
  5
6EC
100
AcDbEntity
  8
M0
 62
    74
100
AcDbLine
 10
333.619756
 20
808.655894
 11
333.619756
 21
814.155879
  0
LINE
  5
6ED
100
AcDbEntity
  8
M0
 62
    74
100
AcDbLine
 10
333.119756
 20
814.65591
 11
331.619756
 21
814.65591
  0
LINE
  5
6EE
100
AcDbEntity
  8
M0
 62
    74
100
AcDbLine
 10
326.619756
 20
814.155894
 11
326.619756
 21
808.65591
  0
LINE
  5
6EF
100
AcDbEntity
  8
M0
 62
    74
100
AcDbLine
 10
331.119756
 20
814.155894
 11
331.119756
 21
813.805888
  0
LINE
  5
6F0
100
AcDbEntity
  8
M0
 62
    74
100
AcDbLine
 10
330.619756
 20
813.305904
 11
329.619756
 21
813.305904
  0
LINE
  5
6F1
100
AcDbEntity
  8
M0
 62
    74
100
AcDbLine
 10
329.119756
 20
813.805888
 11
329.119756
 21
814.155879
  0
LINE
  5
6F2
100
AcDbEntity
  8
M0
 62
    74
100
AcDbLine
 10
328.619756
 20
814.65591
 11
327.119756
 21
814.65591
  0
LINE
  5
6F3
100
AcDbEntity
  8
M0
 62
    74
100
AcDbLine
 10
329.119756
 20
808.655894
 11
329.119756
 21
809.005901
  0
LINE
  5
6F4
100
AcDbEntity
  8
M0
 62
    74
100
AcDbLine
 10
329.619756
 20
809.505901
 11
330.619756
 21
809.505901
  0
LINE
  5
6F5
100
AcDbEntity
  8
M0
 62
    74
100
AcDbLine
 10
331.119756
 20
809.005901
 11
331.119756
 21
808.65591
  0
LINE
  5
6F6
100
AcDbEntity
  8
M0
 62
    74
100
AcDbLine
 10
331.619756
 20
808.15591
 11
333.119756
 21
808.15591
  0
ARC
  5
6F7
100
AcDbEntity
  8
M0
 62
    74
100
AcDbCircle
 10
327.119756
 20
808.65591
 40
0.5
100
AcDbArc
 50
180.0
 51
270.0
  0
ARC
  5
6F8
100
AcDbEntity
  8
M0
 62
    74
100
AcDbCircle
 10
328.619756
 20
808.65591
 40
0.5
100
AcDbArc
 50
270.0
 51
360.0
  0
ARC
  5
6F9
100
AcDbEntity
  8
M0
 62
    74
100
AcDbCircle
 10
329.619756
 20
809.005901
 40
0.5
100
AcDbArc
 50
90.0
 51
180.0
  0
ARC
  5
6FA
100
AcDbEntity
  8
M0
 62
    74
100
AcDbCircle
 10
330.619756
 20
809.005901
 40
0.5
100
AcDbArc
 50
0.0
 51
90.0
  0
ARC
  5
6FB
100
AcDbEntity
  8
M0
 62
    74
100
AcDbCircle
 10
331.619756
 20
808.65591
 40
0.5
100
AcDbArc
 50
180.0
 51
270.0
  0
ARC
  5
6FC
100
AcDbEntity
  8
M0
 62
    74
100
AcDbCircle
 10
333.119756
 20
808.65591
 40
0.5
100
AcDbArc
 50
270.0
 51
360.0
  0
ARC
  5
6FD
100
AcDbEntity
  8
M0
 62
    74
100
AcDbCircle
 10
333.119756
 20
814.155894
 40
0.5
100
AcDbArc
 50
0.0
 51
90.0
  0
ARC
  5
6FE
100
AcDbEntity
  8
M0
 62
    74
100
AcDbCircle
 10
331.619756
 20
814.155894
 40
0.5
100
AcDbArc
 50
90.0
 51
180.0
  0
ARC
  5
6FF
100
AcDbEntity
  8
M0
 62
    74
100
AcDbCircle
 10
330.619756
 20
813.805888
 40
0.5
100
AcDbArc
 50
270.0
 51
360.0
  0
ARC
  5
700
100
AcDbEntity
  8
M0
 62
    74
100
AcDbCircle
 10
329.619756
 20
813.805888
 40
0.5
100
AcDbArc
 50
180.0
 51
270.0
  0
ARC
  5
701
100
AcDbEntity
  8
M0
 62
    74
100
AcDbCircle
 10
328.619756
 20
814.155894
 40
0.5
100
AcDbArc
 50
0.0
 51
90.0
  0
ARC
  5
702
100
AcDbEntity
  8
M0
 62
    74
100
AcDbCircle
 10
327.119756
 20
814.155894
 40
0.5
100
AcDbArc
 50
90.0
 51
180.0
  0
LINE
  5
703
100
AcDbEntity
  8
M0
 62
    74
100
AcDbLine
 10
341.119756
 20
836.40594
 11
349.119756
 21
836.40594
  0
LINE
  5
704
100
AcDbEntity
  8
M0
 62
    74
100
AcDbLine
 10
319.119756
 20
786.40591
 11
311.119756
 21
786.40591
  0
LINE
  5
705
100
AcDbEntity
  8
M0
 62
    74
100
AcDbLine
 10
329.119756
 20
786.40591
 11
321.619756
 21
786.40591
  0
LINE
  5
706
100
AcDbEntity
  8
M0
 62
    74
100
AcDbLine
 10
339.119756
 20
786.40591
 11
331.119756
 21
786.40591
  0
LINE
  5
707
100
AcDbEntity
  8
M0
 62
    74
100
AcDbLine
 10
319.119756
 20
840.405894
 11
319.11974
 21
842.905894
  0
LINE
  5
708
100
AcDbEntity
  8
M0
 62
    74
100
AcDbLine
 10
319.11974
 20
842.905894
 11
318.119756
 21
843.905894
  0
LINE
  5
709
100
AcDbEntity
  8
M0
 62
    74
100
AcDbLine
 10
322.119756
 20
784.405894
 11
322.119756
 21
782.90591
  0
LINE
  5
70A
100
AcDbEntity
  8
M0
 62
    74
100
AcDbLine
 10
323.119756
 20
784.405894
 11
323.119756
 21
780.90591
  0
LINE
  5
70B
100
AcDbEntity
  8
M0
 62
    74
100
AcDbLine
 10
343.119756
 20
778.90591
 11
351.619756
 21
778.90591
  0
LINE
  5
70C
100
AcDbEntity
  8
M0
 62
    74
100
AcDbLine
 10
351.619756
 20
778.90591
 11
351.619756
 21
783.405956
  0
LINE
  5
70D
100
AcDbEntity
  8
M0
 62
    74
100
AcDbLine
 10
318.119756
 20
843.905894
 11
310.619756
 21
843.905879
  0
ARC
  5
70E
100
AcDbEntity
  8
M0
 62
    74
100
AcDbCircle
 10
310.619756
 20
841.905879
 40
2.0
100
AcDbArc
 50
89.999563
 51
180.0
  0
LINE
  5
70F
100
AcDbEntity
  8
M0
 62
    74
100
AcDbLine
 10
337.119756
 20
782.90591
 11
337.119756
 21
784.405894
  0
LINE
  5
710
100
AcDbEntity
  8
M0
 62
    74
100
AcDbLine
 10
335.619756
 20
782.90591
 11
335.619756
 21
784.405894
  0
LINE
  5
711
100
AcDbEntity
  8
M0
 62
    74
100
AcDbLine
 10
338.619756
 20
780.90591
 11
338.619756
 21
784.40591
  0
LINE
  5
712
100
AcDbEntity
  8
M0
 62
    74
100
AcDbLine
 10
334.619756
 20
780.90591
 11
334.619756
 21
784.405894
  0
LINE
  5
713
100
AcDbEntity
  8
M0
 62
    74
100
AcDbLine
 10
321.619756
 20
780.90591
 11
323.119756
 21
780.90591
  0
LINE
  5
714
100
AcDbEntity
  8
M0
 62
    74
100
AcDbLine
 10
342.119756
 20
779.905894
 11
342.119756
 21
785.905894
  0
LINE
  5
715
100
AcDbEntity
  8
M0
 62
    74
100
AcDbLine
 10
342.119756
 20
779.905894
 11
343.119756
 21
778.90591
  0
ARC
  5
716
100
AcDbEntity
  8
M0
 62
    74
100
AcDbCircle
 10
341.619756
 20
785.90591
 40
0.5
100
AcDbArc
 50
0.0
 51
90.0
  0
LINE
  5
717
100
AcDbEntity
  8
M0
 62
    74
100
AcDbLine
 10
339.119756
 20
780.90591
 11
339.119756
 21
782.405971
  0
LINE
  5
718
100
AcDbEntity
  8
M0
 62
    74
100
AcDbLine
 10
334.619756
 20
780.90591
 11
338.619756
 21
780.90591
  0
LINE
  5
719
100
AcDbEntity
  8
M0
 62
    74
100
AcDbLine
 10
335.619756
 20
782.90591
 11
337.119756
 21
782.90591
  0
LINE
  5
71A
100
AcDbEntity
  8
M0
 62
    74
100
AcDbLine
 10
341.119756
 20
782.90591
 11
342.119756
 21
782.90591
  0
LINE
  5
71B
100
AcDbEntity
  8
M0
 62
    74
100
AcDbLine
 10
339.119756
 20
780.90591
 11
342.119756
 21
780.90591
  0
LINE
  5
71C
100
AcDbEntity
  8
M0
 62
    74
100
AcDbLine
 10
321.619756
 20
782.90591
 11
322.119756
 21
782.90591
  0
LINE
  5
71D
100
AcDbEntity
  8
M0
 62
    74
100
AcDbLine
 10
311.718755
 20
836.40594
 11
311.718984
 21
840.610332
  0
LINE
  5
71E
100
AcDbEntity
  8
M0
 62
    74
100
AcDbLine
 10
315.5183
 20
836.40594
 11
315.518544
 21
840.611858
  0
ARC
  5
71F
100
AcDbEntity
  8
M0
 62
    74
100
AcDbCircle
 10
313.168706
 20
835.405833
 40
2.25
100
AcDbArc
 50
130.127109
 51
147.597441
  0
ARC
  5
720
100
AcDbEntity
  8
M0
 62
    74
100
AcDbCircle
 10
313.619374
 20
839.405772
 40
2.25
100
AcDbArc
 50
32.443352
 51
147.643365
  0
LINE
  5
721
100
AcDbEntity
  8
M0
 62
    74
100
AcDbLine
 10
311.269032
 20
836.611537
 11
311.269032
 21
836.40594
  0
ARC
  5
722
100
AcDbEntity
  8
M0
 62
    74
100
AcDbCircle
 10
346.619771
 20
784.405803
 40
2.25
100
AcDbArc
 50
210.501935
 51
237.612484
  0
ARC
  5
723
100
AcDbEntity
  8
M0
 62
    74
100
AcDbCircle
 10
348.169759
 20
785.405803
 40
2.25
100
AcDbArc
 50
278.628353
 51
282.61096
  0
LINE
  5
724
100
AcDbEntity
  8
M0
 62
    74
100
AcDbLine
 10
349.119756
 20
783.668803
 11
348.661046
 21
783.210094
  0
LINE
  5
725
100
AcDbEntity
  8
M0
 62
    74
100
AcDbLine
 10
343.174062
 20
784.91447
 11
344.681142
 21
783.263759
  0
LINE
  5
726
100
AcDbEntity
  8
M0
 62
    74
100
AcDbLine
 10
345.414586
 20
782.505794
 11
347.824941
 21
782.505794
  0
ARC
  5
727
100
AcDbEntity
  8
M0
 62
    74
100
AcDbCircle
 10
345.369771
 20
785.405803
 40
2.25
100
AcDbArc
 50
153.609034
 51
192.613549
  0
ARC
  5
728
100
AcDbEntity
  8
M0
 62
    74
100
AcDbCircle
 10
346.619771
 20
784.405803
 40
2.25
100
AcDbArc
 50
302.386379
 51
327.0272
  0
LINE
  5
729
100
AcDbEntity
  8
M0
 62
    74
100
AcDbLine
 10
308.619756
 20
841.905864
 11
308.619756
 21
839.405894
  0
LINE
  5
72A
100
AcDbEntity
  8
M0
 62
    74
100
AcDbLine
 10
311.26975
 20
796.905925
 11
348.969731
 21
796.905925
  0
LINE
  5
72B
100
AcDbEntity
  8
M0
 62
    74
100
AcDbLine
 10
348.969731
 20
796.905925
 11
348.969731
 21
797.405894
  0
LINE
  5
72C
100
AcDbEntity
  8
M0
 62
    74
100
AcDbLine
 10
311.26975
 20
797.405894
 11
311.26975
 21
796.905925
  0
CIRCLE
  5
72D
100
AcDbEntity
  8
M0
 62
    74
100
AcDbCircle
 10
315.119756
 20
783.405925
 40
3.0
  0
LINE
  5
72E
100
AcDbEntity
  8
M0
 62
    74
100
AcDbLine
 10
311.868901
 20
786.40591
 11
311.344747
 21
784.705974
  0
LINE
  5
72F
100
AcDbEntity
  8
M0
 62
    74
100
AcDbLine
 10
312.161
 20
779.458675
 11
311.344747
 21
782.105998
  0
LINE
  5
730
100
AcDbEntity
  8
M0
 62
    74
100
AcDbLine
 10
318.37058
 20
786.40591
 11
318.89475
 21
784.705974
  0
LINE
  5
731
100
AcDbEntity
  8
M0
 62
    74
100
AcDbLine
 10
318.078481
 20
779.458659
 11
318.89475
 21
782.105998
  0
LINE
  5
732
100
AcDbEntity
  8
M0
 62
    74
100
AcDbLine
 10
312.638799
 20
779.105998
 11
317.600667
 21
779.105998
  0
LINE
  5
733
100
AcDbEntity
  8
M0
 62
    74
100
AcDbLine
 10
318.89475
 20
782.105998
 11
318.89475
 21
784.705974
  0
LINE
  5
734
100
AcDbEntity
  8
M0
 62
    74
100
AcDbLine
 10
311.344747
 20
784.705974
 11
311.344747
 21
782.105998
  0
LINE
  5
735
100
AcDbEntity
  8
M0
  6
DASHDOT
 62
    74
100
AcDbLine
 10
308.844747
 20
783.405925
 11
321.39475
 21
783.405925
  0
LINE
  5
736
100
AcDbEntity
  8
M0
  6
DASHDOT
 62
    74
100
AcDbLine
 10
315.119756
 20
776.606013
 11
315.119756
 21
790.205974
  0
LINE
  5
737
100
AcDbEntity
  8
M0
 62
    74
100
AcDbLine
 10
316.71053
 20
781.815105
 11
313.528722
 21
784.996867
  0
LINE
  5
738
100
AcDbEntity
  8
M0
 62
    74
100
AcDbLine
 10
315.473165
 20
784.82011
 11
313.705495
 21
783.052409
  0
LINE
  5
739
100
AcDbEntity
  8
M0
 62
    74
100
AcDbLine
 10
316.533772
 20
783.759441
 11
314.766149
 21
781.991862
  0
ARC
  5
73A
100
AcDbEntity
  8
M0
 62
    74
100
AcDbCircle
 10
312.638799
 20
779.605998
 40
0.5
100
AcDbArc
 50
197.136852
 51
270.0
  0
ARC
  5
73B
100
AcDbEntity
  8
M0
 62
    74
100
AcDbCircle
 10
317.600667
 20
779.605998
 40
0.5
100
AcDbArc
 50
270.0
 51
342.863518
  0
CIRCLE
  5
73C
100
AcDbEntity
  8
M0
 62
    74
100
AcDbCircle
 10
315.119756
 20
791.505931
 40
3.0
  0
LINE
  5
73D
100
AcDbEntity
  8
M0
 62
    74
100
AcDbLine
 10
312.161
 20
795.453273
 11
311.344747
 21
792.80598
  0
LINE
  5
73E
100
AcDbEntity
  8
M0
 62
    74
100
AcDbLine
 10
312.161
 20
787.558681
 11
311.344747
 21
790.206004
  0
LINE
  5
73F
100
AcDbEntity
  8
M0
 62
    74
100
AcDbLine
 10
318.078481
 20
795.453288
 11
318.89475
 21
792.80598
  0
LINE
  5
740
100
AcDbEntity
  8
M0
 62
    74
100
AcDbLine
 10
318.078481
 20
787.558665
 11
318.89475
 21
790.206004
  0
LINE
  5
741
100
AcDbEntity
  8
M0
 62
    74
100
AcDbLine
 10
312.638799
 20
787.206004
 11
317.600667
 21
787.206004
  0
LINE
  5
742
100
AcDbEntity
  8
M0
 62
    74
100
AcDbLine
 10
318.89475
 20
790.206004
 11
318.89475
 21
792.80598
  0
LINE
  5
743
100
AcDbEntity
  8
M0
 62
    74
100
AcDbLine
 10
317.600667
 20
795.80598
 11
312.638799
 21
795.805965
  0
LINE
  5
744
100
AcDbEntity
  8
M0
 62
    74
100
AcDbLine
 10
311.344747
 20
792.80598
 11
311.344747
 21
790.206004
  0
LINE
  5
745
100
AcDbEntity
  8
M0
  6
DASHDOT
 62
    74
100
AcDbLine
 10
308.844747
 20
791.505931
 11
321.39475
 21
791.505931
  0
LINE
  5
746
100
AcDbEntity
  8
M0
  6
DASHDOT
 62
    74
100
AcDbLine
 10
315.119756
 20
784.70602
 11
315.119756
 21
798.30598
  0
LINE
  5
747
100
AcDbEntity
  8
M0
 62
    74
100
AcDbLine
 10
316.71053
 20
789.915111
 11
313.528722
 21
793.096873
  0
LINE
  5
748
100
AcDbEntity
  8
M0
 62
    74
100
AcDbLine
 10
315.473165
 20
792.920116
 11
313.705495
 21
791.152415
  0
LINE
  5
749
100
AcDbEntity
  8
M0
 62
    74
100
AcDbLine
 10
316.533772
 20
791.859447
 11
314.766149
 21
790.091869
  0
ARC
  5
74A
100
AcDbEntity
  8
M0
 62
    74
100
AcDbCircle
 10
312.638799
 20
795.305965
 40
0.5
100
AcDbArc
 50
89.998251
 51
162.863148
  0
ARC
  5
74B
100
AcDbEntity
  8
M0
 62
    74
100
AcDbCircle
 10
312.638799
 20
787.706004
 40
0.5
100
AcDbArc
 50
197.136852
 51
270.0
  0
ARC
  5
74C
100
AcDbEntity
  8
M0
 62
    74
100
AcDbCircle
 10
317.600667
 20
787.706004
 40
0.5
100
AcDbArc
 50
270.0
 51
342.863518
  0
ARC
  5
74D
100
AcDbEntity
  8
M0
 62
    74
100
AcDbCircle
 10
317.600667
 20
795.305965
 40
0.5
100
AcDbArc
 50
17.136137
 51
90.0
  0
CIRCLE
  5
74E
100
AcDbEntity
  8
M0
 62
    74
100
AcDbCircle
 10
325.119756
 20
791.505931
 40
3.0
  0
LINE
  5
74F
100
AcDbEntity
  8
M0
 62
    74
100
AcDbLine
 10
322.161
 20
795.453273
 11
321.344747
 21
792.80598
  0
LINE
  5
750
100
AcDbEntity
  8
M0
 62
    74
100
AcDbLine
 10
322.161
 20
787.558681
 11
321.344747
 21
790.206004
  0
LINE
  5
751
100
AcDbEntity
  8
M0
 62
    74
100
AcDbLine
 10
328.078481
 20
795.453288
 11
328.89475
 21
792.80598
  0
LINE
  5
752
100
AcDbEntity
  8
M0
 62
    74
100
AcDbLine
 10
328.078481
 20
787.558665
 11
328.89475
 21
790.206004
  0
LINE
  5
753
100
AcDbEntity
  8
M0
 62
    74
100
AcDbLine
 10
322.638799
 20
787.206004
 11
327.600667
 21
787.206004
  0
LINE
  5
754
100
AcDbEntity
  8
M0
 62
    74
100
AcDbLine
 10
328.89475
 20
790.206004
 11
328.89475
 21
792.80598
  0
LINE
  5
755
100
AcDbEntity
  8
M0
 62
    74
100
AcDbLine
 10
327.600667
 20
795.80598
 11
322.638799
 21
795.805965
  0
LINE
  5
756
100
AcDbEntity
  8
M0
 62
    74
100
AcDbLine
 10
321.344747
 20
792.80598
 11
321.344747
 21
790.206004
  0
LINE
  5
757
100
AcDbEntity
  8
M0
  6
DASHDOT
 62
    74
100
AcDbLine
 10
318.844747
 20
791.505931
 11
331.39475
 21
791.505931
  0
LINE
  5
758
100
AcDbEntity
  8
M0
  6
DASHDOT
 62
    74
100
AcDbLine
 10
325.119756
 20
784.70602
 11
325.119756
 21
798.30598
  0
LINE
  5
759
100
AcDbEntity
  8
M0
 62
    74
100
AcDbLine
 10
326.71053
 20
789.915111
 11
323.528722
 21
793.096873
  0
LINE
  5
75A
100
AcDbEntity
  8
M0
 62
    74
100
AcDbLine
 10
325.473165
 20
792.920116
 11
323.705495
 21
791.152415
  0
LINE
  5
75B
100
AcDbEntity
  8
M0
 62
    74
100
AcDbLine
 10
326.533772
 20
791.859447
 11
324.766149
 21
790.091869
  0
ARC
  5
75C
100
AcDbEntity
  8
M0
 62
    74
100
AcDbCircle
 10
322.638799
 20
795.305965
 40
0.5
100
AcDbArc
 50
90.0
 51
162.863694
  0
ARC
  5
75D
100
AcDbEntity
  8
M0
 62
    74
100
AcDbCircle
 10
322.638799
 20
787.706004
 40
0.5
100
AcDbArc
 50
197.136065
 51
270.0
  0
ARC
  5
75E
100
AcDbEntity
  8
M0
 62
    74
100
AcDbCircle
 10
327.600667
 20
787.706004
 40
0.5
100
AcDbArc
 50
270.0
 51
342.863518
  0
ARC
  5
75F
100
AcDbEntity
  8
M0
 62
    74
100
AcDbCircle
 10
327.600667
 20
795.305965
 40
0.5
100
AcDbArc
 50
17.136137
 51
90.0
  0
CIRCLE
  5
760
100
AcDbEntity
  8
M0
 62
    74
100
AcDbCircle
 10
335.119756
 20
791.505931
 40
3.0
  0
LINE
  5
761
100
AcDbEntity
  8
M0
 62
    74
100
AcDbLine
 10
332.161
 20
795.453273
 11
331.344747
 21
792.80598
  0
LINE
  5
762
100
AcDbEntity
  8
M0
 62
    74
100
AcDbLine
 10
332.161
 20
787.558681
 11
331.344747
 21
790.206004
  0
LINE
  5
763
100
AcDbEntity
  8
M0
 62
    74
100
AcDbLine
 10
338.078481
 20
795.453288
 11
338.89475
 21
792.80598
  0
LINE
  5
764
100
AcDbEntity
  8
M0
 62
    74
100
AcDbLine
 10
338.078481
 20
787.558665
 11
338.89475
 21
790.206004
  0
LINE
  5
765
100
AcDbEntity
  8
M0
 62
    74
100
AcDbLine
 10
332.638799
 20
787.206004
 11
337.600667
 21
787.206004
  0
LINE
  5
766
100
AcDbEntity
  8
M0
 62
    74
100
AcDbLine
 10
338.89475
 20
790.206004
 11
338.89475
 21
792.80598
  0
LINE
  5
767
100
AcDbEntity
  8
M0
 62
    74
100
AcDbLine
 10
337.600667
 20
795.80598
 11
332.638799
 21
795.805965
  0
LINE
  5
768
100
AcDbEntity
  8
M0
 62
    74
100
AcDbLine
 10
331.344747
 20
792.80598
 11
331.344747
 21
790.206004
  0
LINE
  5
769
100
AcDbEntity
  8
M0
  6
DASHDOT
 62
    74
100
AcDbLine
 10
328.844747
 20
791.505931
 11
341.39475
 21
791.505931
  0
LINE
  5
76A
100
AcDbEntity
  8
M0
  6
DASHDOT
 62
    74
100
AcDbLine
 10
335.119756
 20
784.70602
 11
335.119756
 21
798.30598
  0
LINE
  5
76B
100
AcDbEntity
  8
M0
 62
    74
100
AcDbLine
 10
336.71053
 20
789.915111
 11
333.528722
 21
793.096873
  0
LINE
  5
76C
100
AcDbEntity
  8
M0
 62
    74
100
AcDbLine
 10
335.473165
 20
792.920116
 11
333.705495
 21
791.152415
  0
LINE
  5
76D
100
AcDbEntity
  8
M0
 62
    74
100
AcDbLine
 10
336.533772
 20
791.859447
 11
334.766149
 21
790.091869
  0
ARC
  5
76E
100
AcDbEntity
  8
M0
 62
    74
100
AcDbCircle
 10
332.638799
 20
795.305965
 40
0.5
100
AcDbArc
 50
90.0
 51
162.863759
  0
ARC
  5
76F
100
AcDbEntity
  8
M0
 62
    74
100
AcDbCircle
 10
332.638799
 20
787.706004
 40
0.5
100
AcDbArc
 50
197.136033
 51
270.0
  0
ARC
  5
770
100
AcDbEntity
  8
M0
 62
    74
100
AcDbCircle
 10
337.600667
 20
787.706004
 40
0.5
100
AcDbArc
 50
270.0
 51
342.863485
  0
ARC
  5
771
100
AcDbEntity
  8
M0
 62
    74
100
AcDbCircle
 10
337.600667
 20
795.305965
 40
0.5
100
AcDbArc
 50
17.136274
 51
90.0
  0
CIRCLE
  5
772
100
AcDbEntity
  8
M0
 62
    74
100
AcDbCircle
 10
345.119756
 20
791.505931
 40
3.0
  0
LINE
  5
773
100
AcDbEntity
  8
M0
 62
    74
100
AcDbLine
 10
342.161
 20
795.453273
 11
341.344747
 21
792.80598
  0
LINE
  5
774
100
AcDbEntity
  8
M0
 62
    74
100
AcDbLine
 10
342.161
 20
787.558681
 11
341.344747
 21
790.206004
  0
LINE
  5
775
100
AcDbEntity
  8
M0
 62
    74
100
AcDbLine
 10
348.078481
 20
795.453288
 11
348.89475
 21
792.80598
  0
LINE
  5
776
100
AcDbEntity
  8
M0
 62
    74
100
AcDbLine
 10
348.078481
 20
787.558665
 11
348.89475
 21
790.206004
  0
LINE
  5
777
100
AcDbEntity
  8
M0
 62
    74
100
AcDbLine
 10
342.638799
 20
787.206004
 11
347.600667
 21
787.206004
  0
LINE
  5
778
100
AcDbEntity
  8
M0
 62
    74
100
AcDbLine
 10
348.89475
 20
790.206004
 11
348.89475
 21
792.80598
  0
LINE
  5
779
100
AcDbEntity
  8
M0
 62
    74
100
AcDbLine
 10
347.600667
 20
795.80598
 11
342.638799
 21
795.805965
  0
LINE
  5
77A
100
AcDbEntity
  8
M0
 62
    74
100
AcDbLine
 10
341.344747
 20
792.80598
 11
341.344747
 21
790.206004
  0
LINE
  5
77B
100
AcDbEntity
  8
M0
  6
DASHDOT
 62
    74
100
AcDbLine
 10
338.844747
 20
791.505931
 11
351.39475
 21
791.505931
  0
LINE
  5
77C
100
AcDbEntity
  8
M0
  6
DASHDOT
 62
    74
100
AcDbLine
 10
345.119756
 20
784.70602
 11
345.119756
 21
798.30598
  0
LINE
  5
77D
100
AcDbEntity
  8
M0
 62
    74
100
AcDbLine
 10
346.71053
 20
789.915111
 11
343.528722
 21
793.096873
  0
LINE
  5
77E
100
AcDbEntity
  8
M0
 62
    74
100
AcDbLine
 10
345.473165
 20
792.920116
 11
343.705495
 21
791.152415
  0
LINE
  5
77F
100
AcDbEntity
  8
M0
 62
    74
100
AcDbLine
 10
346.533772
 20
791.859447
 11
344.766149
 21
790.091869
  0
ARC
  5
780
100
AcDbEntity
  8
M0
 62
    74
100
AcDbCircle
 10
342.638799
 20
795.305965
 40
0.5
100
AcDbArc
 50
90.0
 51
162.863759
  0
ARC
  5
781
100
AcDbEntity
  8
M0
 62
    74
100
AcDbCircle
 10
342.638799
 20
787.706004
 40
0.5
100
AcDbArc
 50
197.136033
 51
270.0
  0
ARC
  5
782
100
AcDbEntity
  8
M0
 62
    74
100
AcDbCircle
 10
347.600667
 20
787.706004
 40
0.5
100
AcDbArc
 50
269.998251
 51
342.863148
  0
ARC
  5
783
100
AcDbEntity
  8
M0
 62
    74
100
AcDbCircle
 10
347.600667
 20
795.305965
 40
0.5
100
AcDbArc
 50
17.136852
 51
90.0
  0
CIRCLE
  5
784
100
AcDbEntity
  8
M0
 62
    74
100
AcDbCircle
 10
315.119756
 20
831.305934
 40
3.0
  0
LINE
  5
785
100
AcDbEntity
  8
M0
 62
    74
100
AcDbLine
 10
312.161
 20
835.253276
 11
311.344747
 21
832.605983
  0
LINE
  5
786
100
AcDbEntity
  8
M0
 62
    74
100
AcDbLine
 10
312.161
 20
827.358684
 11
311.344747
 21
830.006007
  0
LINE
  5
787
100
AcDbEntity
  8
M0
 62
    74
100
AcDbLine
 10
318.078481
 20
835.253291
 11
318.89475
 21
832.605983
  0
LINE
  5
788
100
AcDbEntity
  8
M0
 62
    74
100
AcDbLine
 10
318.078481
 20
827.358669
 11
318.89475
 21
830.006007
  0
LINE
  5
789
100
AcDbEntity
  8
M0
 62
    74
100
AcDbLine
 10
312.638799
 20
827.006007
 11
317.600667
 21
827.006007
  0
LINE
  5
78A
100
AcDbEntity
  8
M0
 62
    74
100
AcDbLine
 10
318.89475
 20
830.006007
 11
318.89475
 21
832.605983
  0
LINE
  5
78B
100
AcDbEntity
  8
M0
 62
    74
100
AcDbLine
 10
317.600667
 20
835.605983
 11
312.638799
 21
835.605968
  0
LINE
  5
78C
100
AcDbEntity
  8
M0
 62
    74
100
AcDbLine
 10
311.344747
 20
832.605983
 11
311.344747
 21
830.006007
  0
LINE
  5
78D
100
AcDbEntity
  8
M0
  6
DASHDOT
 62
    74
100
AcDbLine
 10
308.844747
 20
831.305934
 11
321.39475
 21
831.305934
  0
LINE
  5
78E
100
AcDbEntity
  8
M0
  6
DASHDOT
 62
    74
100
AcDbLine
 10
315.119756
 20
824.506023
 11
315.119756
 21
838.105983
  0
LINE
  5
78F
100
AcDbEntity
  8
M0
 62
    74
100
AcDbLine
 10
316.71053
 20
829.715114
 11
313.528722
 21
832.896877
  0
LINE
  5
790
100
AcDbEntity
  8
M0
 62
    74
100
AcDbLine
 10
315.473165
 20
832.720119
 11
313.705495
 21
830.952419
  0
LINE
  5
791
100
AcDbEntity
  8
M0
 62
    74
100
AcDbLine
 10
316.533772
 20
831.65945
 11
314.766149
 21
829.891872
  0
ARC
  5
792
100
AcDbEntity
  8
M0
 62
    74
100
AcDbCircle
 10
312.638799
 20
835.105968
 40
0.5
100
AcDbArc
 50
89.998251
 51
162.865132
  0
ARC
  5
793
100
AcDbEntity
  8
M0
 62
    74
100
AcDbCircle
 10
312.638799
 20
827.506007
 40
0.5
100
AcDbArc
 50
197.13821
 51
270.0
  0
ARC
  5
794
100
AcDbEntity
  8
M0
 62
    74
100
AcDbCircle
 10
317.600667
 20
827.506007
 40
0.5
100
AcDbArc
 50
270.0
 51
342.85999
  0
ARC
  5
795
100
AcDbEntity
  8
M0
 62
    74
100
AcDbCircle
 10
317.600667
 20
835.105968
 40
0.5
100
AcDbArc
 50
17.132714
 51
90.0
  0
CIRCLE
  5
796
100
AcDbEntity
  8
M0
 62
    74
100
AcDbCircle
 10
325.119756
 20
831.305934
 40
3.0
  0
LINE
  5
797
100
AcDbEntity
  8
M0
 62
    74
100
AcDbLine
 10
322.161
 20
835.253276
 11
321.344747
 21
832.605983
  0
LINE
  5
798
100
AcDbEntity
  8
M0
 62
    74
100
AcDbLine
 10
322.161
 20
827.358684
 11
321.344747
 21
830.006007
  0
LINE
  5
799
100
AcDbEntity
  8
M0
 62
    74
100
AcDbLine
 10
328.078481
 20
835.253291
 11
328.89475
 21
832.605983
  0
LINE
  5
79A
100
AcDbEntity
  8
M0
 62
    74
100
AcDbLine
 10
328.078481
 20
827.358669
 11
328.89475
 21
830.006007
  0
LINE
  5
79B
100
AcDbEntity
  8
M0
 62
    74
100
AcDbLine
 10
322.638799
 20
827.006007
 11
327.600667
 21
827.006007
  0
LINE
  5
79C
100
AcDbEntity
  8
M0
 62
    74
100
AcDbLine
 10
328.89475
 20
830.006007
 11
328.89475
 21
832.605983
  0
LINE
  5
79D
100
AcDbEntity
  8
M0
 62
    74
100
AcDbLine
 10
327.600667
 20
835.605983
 11
322.638799
 21
835.605968
  0
LINE
  5
79E
100
AcDbEntity
  8
M0
 62
    74
100
AcDbLine
 10
321.344747
 20
832.605983
 11
321.344747
 21
830.006007
  0
LINE
  5
79F
100
AcDbEntity
  8
M0
  6
DASHDOT
 62
    74
100
AcDbLine
 10
318.844747
 20
831.305934
 11
331.39475
 21
831.305934
  0
LINE
  5
7A0
100
AcDbEntity
  8
M0
  6
DASHDOT
 62
    74
100
AcDbLine
 10
325.119756
 20
824.506023
 11
325.119756
 21
838.105983
  0
LINE
  5
7A1
100
AcDbEntity
  8
M0
 62
    74
100
AcDbLine
 10
326.71053
 20
829.715114
 11
323.528722
 21
832.896877
  0
LINE
  5
7A2
100
AcDbEntity
  8
M0
 62
    74
100
AcDbLine
 10
325.473165
 20
832.720119
 11
323.705495
 21
830.952419
  0
LINE
  5
7A3
100
AcDbEntity
  8
M0
 62
    74
100
AcDbLine
 10
326.533772
 20
831.65945
 11
324.766149
 21
829.891872
  0
ARC
  5
7A4
100
AcDbEntity
  8
M0
 62
    74
100
AcDbCircle
 10
322.638799
 20
835.105968
 40
0.5
100
AcDbArc
 50
90.0
 51
162.865422
  0
ARC
  5
7A5
100
AcDbEntity
  8
M0
 62
    74
100
AcDbCircle
 10
322.638799
 20
827.506007
 40
0.5
100
AcDbArc
 50
197.13821
 51
270.0
  0
ARC
  5
7A6
100
AcDbEntity
  8
M0
 62
    74
100
AcDbCircle
 10
327.600667
 20
827.506007
 40
0.5
100
AcDbArc
 50
270.0
 51
342.85999
  0
ARC
  5
7A7
100
AcDbEntity
  8
M0
 62
    74
100
AcDbCircle
 10
327.600667
 20
835.105968
 40
0.5
100
AcDbArc
 50
17.132714
 51
90.0
  0
CIRCLE
  5
7A8
100
AcDbEntity
  8
M0
 62
    74
100
AcDbCircle
 10
335.119756
 20
831.305934
 40
3.0
  0
LINE
  5
7A9
100
AcDbEntity
  8
M0
 62
    74
100
AcDbLine
 10
332.161
 20
835.253276
 11
331.344747
 21
832.605983
  0
LINE
  5
7AA
100
AcDbEntity
  8
M0
 62
    74
100
AcDbLine
 10
332.161
 20
827.358684
 11
331.344747
 21
830.006007
  0
LINE
  5
7AB
100
AcDbEntity
  8
M0
 62
    74
100
AcDbLine
 10
338.078481
 20
835.253291
 11
338.89475
 21
832.605983
  0
LINE
  5
7AC
100
AcDbEntity
  8
M0
 62
    74
100
AcDbLine
 10
338.078481
 20
827.358669
 11
338.89475
 21
830.006007
  0
LINE
  5
7AD
100
AcDbEntity
  8
M0
 62
    74
100
AcDbLine
 10
332.638799
 20
827.006007
 11
337.600667
 21
827.006007
  0
LINE
  5
7AE
100
AcDbEntity
  8
M0
 62
    74
100
AcDbLine
 10
338.89475
 20
830.006007
 11
338.89475
 21
832.605983
  0
LINE
  5
7AF
100
AcDbEntity
  8
M0
 62
    74
100
AcDbLine
 10
337.600667
 20
835.605983
 11
332.638799
 21
835.605968
  0
LINE
  5
7B0
100
AcDbEntity
  8
M0
 62
    74
100
AcDbLine
 10
331.344747
 20
832.605983
 11
331.344747
 21
830.006007
  0
LINE
  5
7B1
100
AcDbEntity
  8
M0
  6
DASHDOT
 62
    74
100
AcDbLine
 10
328.844747
 20
831.305934
 11
341.39475
 21
831.305934
  0
LINE
  5
7B2
100
AcDbEntity
  8
M0
  6
DASHDOT
 62
    74
100
AcDbLine
 10
335.119756
 20
824.506023
 11
335.119756
 21
838.105983
  0
LINE
  5
7B3
100
AcDbEntity
  8
M0
 62
    74
100
AcDbLine
 10
336.71053
 20
829.715114
 11
333.528722
 21
832.896877
  0
LINE
  5
7B4
100
AcDbEntity
  8
M0
 62
    74
100
AcDbLine
 10
335.473165
 20
832.720119
 11
333.705495
 21
830.952419
  0
LINE
  5
7B5
100
AcDbEntity
  8
M0
 62
    74
100
AcDbLine
 10
336.533772
 20
831.65945
 11
334.766149
 21
829.891872
  0
ARC
  5
7B6
100
AcDbEntity
  8
M0
 62
    74
100
AcDbCircle
 10
332.638799
 20
835.105968
 40
0.5
100
AcDbArc
 50
90.0
 51
162.865454
  0
ARC
  5
7B7
100
AcDbEntity
  8
M0
 62
    74
100
AcDbCircle
 10
332.638799
 20
827.506007
 40
0.5
100
AcDbArc
 50
197.138178
 51
270.0
  0
ARC
  5
7B8
100
AcDbEntity
  8
M0
 62
    74
100
AcDbCircle
 10
337.600667
 20
827.506007
 40
0.5
100
AcDbArc
 50
270.0
 51
342.858255
  0
ARC
  5
7B9
100
AcDbEntity
  8
M0
 62
    74
100
AcDbCircle
 10
337.600667
 20
835.105968
 40
0.5
100
AcDbArc
 50
17.134578
 51
90.0
  0
CIRCLE
  5
7BA
100
AcDbEntity
  8
M0
 62
    74
100
AcDbCircle
 10
345.119756
 20
839.40594
 40
3.0
  0
LINE
  5
7BB
100
AcDbEntity
  8
M0
 62
    74
100
AcDbLine
 10
342.161
 20
843.353282
 11
341.344747
 21
840.705989
  0
LINE
  5
7BC
100
AcDbEntity
  8
M0
 62
    74
100
AcDbLine
 10
341.868932
 20
836.40594
 11
341.344747
 21
838.106013
  0
LINE
  5
7BD
100
AcDbEntity
  8
M0
 62
    74
100
AcDbLine
 10
348.078481
 20
843.353297
 11
348.89475
 21
840.705989
  0
LINE
  5
7BE
100
AcDbEntity
  8
M0
 62
    74
100
AcDbLine
 10
348.370549
 20
836.40594
 11
348.89475
 21
838.106013
  0
LINE
  5
7BF
100
AcDbEntity
  8
M0
 62
    74
100
AcDbLine
 10
348.89475
 20
838.106013
 11
348.89475
 21
840.705989
  0
LINE
  5
7C0
100
AcDbEntity
  8
M0
 62
    74
100
AcDbLine
 10
347.600667
 20
843.705989
 11
342.638799
 21
843.705974
  0
LINE
  5
7C1
100
AcDbEntity
  8
M0
 62
    74
100
AcDbLine
 10
341.344747
 20
840.705989
 11
341.344747
 21
838.106013
  0
LINE
  5
7C2
100
AcDbEntity
  8
M0
  6
DASHDOT
 62
    74
100
AcDbLine
 10
338.844747
 20
839.40594
 11
351.39475
 21
839.40594
  0
LINE
  5
7C3
100
AcDbEntity
  8
M0
  6
DASHDOT
 62
    74
100
AcDbLine
 10
345.119756
 20
832.606029
 11
345.119756
 21
846.205989
  0
LINE
  5
7C4
100
AcDbEntity
  8
M0
 62
    74
100
AcDbLine
 10
346.71053
 20
837.81512
 11
343.528722
 21
840.996883
  0
LINE
  5
7C5
100
AcDbEntity
  8
M0
 62
    74
100
AcDbLine
 10
345.473165
 20
840.820125
 11
343.705495
 21
839.052425
  0
LINE
  5
7C6
100
AcDbEntity
  8
M0
 62
    74
100
AcDbLine
 10
346.533772
 20
839.759456
 11
344.766149
 21
837.991878
  0
ARC
  5
7C7
100
AcDbEntity
  8
M0
 62
    74
100
AcDbCircle
 10
342.638799
 20
843.205974
 40
0.5
100
AcDbArc
 50
90.0
 51
162.865454
  0
ARC
  5
7C8
100
AcDbEntity
  8
M0
 62
    74
100
AcDbCircle
 10
347.600667
 20
843.205974
 40
0.5
100
AcDbArc
 50
17.134868
 51
90.0
  0
CIRCLE
  5
7C9
100
AcDbEntity
  8
M0
 62
    74
100
AcDbCircle
 10
345.119756
 20
831.305934
 40
3.0
  0
LINE
  5
7CA
100
AcDbEntity
  8
M0
 62
    74
100
AcDbLine
 10
342.161
 20
835.253276
 11
341.344747
 21
832.605983
  0
LINE
  5
7CB
100
AcDbEntity
  8
M0
 62
    74
100
AcDbLine
 10
342.161
 20
827.358684
 11
341.344747
 21
830.006007
  0
LINE
  5
7CC
100
AcDbEntity
  8
M0
 62
    74
100
AcDbLine
 10
348.078481
 20
835.253291
 11
348.89475
 21
832.605983
  0
LINE
  5
7CD
100
AcDbEntity
  8
M0
 62
    74
100
AcDbLine
 10
348.078481
 20
827.358669
 11
348.89475
 21
830.006007
  0
LINE
  5
7CE
100
AcDbEntity
  8
M0
 62
    74
100
AcDbLine
 10
342.638799
 20
827.006007
 11
347.600667
 21
827.006007
  0
LINE
  5
7CF
100
AcDbEntity
  8
M0
 62
    74
100
AcDbLine
 10
348.89475
 20
830.006007
 11
348.89475
 21
832.605983
  0
LINE
  5
7D0
100
AcDbEntity
  8
M0
 62
    74
100
AcDbLine
 10
347.600667
 20
835.605983
 11
342.638799
 21
835.605968
  0
LINE
  5
7D1
100
AcDbEntity
  8
M0
 62
    74
100
AcDbLine
 10
341.344747
 20
832.605983
 11
341.344747
 21
830.006007
  0
LINE
  5
7D2
100
AcDbEntity
  8
M0
  6
DASHDOT
 62
    74
100
AcDbLine
 10
338.844747
 20
831.305934
 11
351.39475
 21
831.305934
  0
LINE
  5
7D3
100
AcDbEntity
  8
M0
  6
DASHDOT
 62
    74
100
AcDbLine
 10
345.119756
 20
824.506023
 11
345.119756
 21
838.105983
  0
LINE
  5
7D4
100
AcDbEntity
  8
M0
 62
    74
100
AcDbLine
 10
346.71053
 20
829.715114
 11
343.528722
 21
832.896877
  0
LINE
  5
7D5
100
AcDbEntity
  8
M0
 62
    74
100
AcDbLine
 10
345.473165
 20
832.720119
 11
343.705495
 21
830.952419
  0
LINE
  5
7D6
100
AcDbEntity
  8
M0
 62
    74
100
AcDbLine
 10
346.533772
 20
831.65945
 11
344.766149
 21
829.891872
  0
ARC
  5
7D7
100
AcDbEntity
  8
M0
 62
    74
100
AcDbCircle
 10
342.638799
 20
835.105968
 40
0.5
100
AcDbArc
 50
90.0
 51
162.865454
  0
ARC
  5
7D8
100
AcDbEntity
  8
M0
 62
    74
100
AcDbCircle
 10
342.638799
 20
827.506007
 40
0.5
100
AcDbArc
 50
197.138178
 51
270.0
  0
ARC
  5
7D9
100
AcDbEntity
  8
M0
 62
    74
100
AcDbCircle
 10
347.600667
 20
827.506007
 40
0.5
100
AcDbArc
 50
269.998251
 51
342.856262
  0
ARC
  5
7DA
100
AcDbEntity
  8
M0
 62
    74
100
AcDbCircle
 10
347.600667
 20
835.105968
 40
0.5
100
AcDbArc
 50
17.134868
 51
90.0
  0
LINE
  5
7DB
100
AcDbEntity
  8
M0
 62
    74
100
AcDbLine
 10
311.26975
 20
825.905879
 11
348.969731
 21
825.905879
  0
LINE
  5
7DC
100
AcDbEntity
  8
M0
 62
    74
100
AcDbLine
 10
348.969731
 20
825.905879
 11
348.969731
 21
825.394557
  0
LINE
  5
7DD
100
AcDbEntity
  8
M0
 62
    74
100
AcDbLine
 10
311.26975
 20
825.394557
 11
311.26975
 21
825.905879
  0
LINE
  5
7DE
100
AcDbEntity
  8
M0
 62
    74
100
AcDbLine
 10
325.51975
 20
779.90591
 11
334.51975
 21
779.90591
  0
ARC
  5
7DF
100
AcDbEntity
  8
M0
 62
    74
100
AcDbCircle
 10
325.51975
 20
780.90591
 40
1.0
100
AcDbArc
 50
179.999945
 51
270.0
  0
ARC
  5
7E0
100
AcDbEntity
  8
M0
 62
    74
100
AcDbCircle
 10
334.51975
 20
780.90591
 40
1.0
100
AcDbArc
 50
270.0
 51
360.0
  0
LINE
  5
7E1
100
AcDbEntity
  8
M0
 62
    74
100
AcDbLine
 10
327.069753
 20
782.205898
 11
329.161519
 21
782.205898
  0
LINE
  5
7E2
100
AcDbEntity
  8
M0
 62
    74
100
AcDbLine
 10
333.369756
 20
782.405879
 11
333.369756
 21
784.405894
  0
ARC
  5
7E3
100
AcDbEntity
  8
M0
 62
    74
100
AcDbCircle
 10
327.069753
 20
782.405894
 40
0.2
100
AcDbArc
 50
179.999727
 51
270.0
  0
ARC
  5
7E4
100
AcDbEntity
  8
M0
 62
    74
100
AcDbCircle
 10
333.169744
 20
782.405894
 40
0.2
100
AcDbArc
 50
270.0
 51
360.0
  0
LINE
  5
7E5
100
AcDbEntity
  8
M0
 62
    74
100
AcDbLine
 10
324.519734
 20
784.405894
 11
324.51975
 21
780.90591
  0
LINE
  5
7E6
100
AcDbEntity
  8
M0
 62
    74
100
AcDbLine
 10
326.86974
 20
784.405894
 11
326.869756
 21
782.405894
  0
LINE
  5
7E7
100
AcDbEntity
  8
M0
 62
    74
100
AcDbLine
 10
331.077977
 20
782.205898
 11
333.169744
 21
782.205898
  0
LINE
  5
7E8
100
AcDbEntity
  8
M0
 62
    74
100
AcDbLine
 10
311.319753
 20
778.905894
 11
309.119756
 21
778.905925
  0
LINE
  5
7E9
100
AcDbEntity
  8
M0
 62
    74
100
AcDbLine
 10
348.919728
 20
843.90594
 11
351.119756
 21
843.90594
  0
LINE
  5
7EA
100
AcDbEntity
  8
M0
 62
   194
100
AcDbLine
 10
727.720021
 20
784.905986
 11
727.720021
 21
789.40591
  0
LINE
  5
7EB
100
AcDbEntity
  8
M0
 62
   194
100
AcDbLine
 10
744.720021
 20
778.906017
 11
744.720021
 21
843.906017
  0
LINE
  5
7EC
100
AcDbEntity
  8
M0
 62
   194
100
AcDbLine
 10
744.720021
 20
843.906017
 11
737.040258
 21
843.906001
  0
LINE
  5
7ED
100
AcDbEntity
  8
M0
 62
   194
100
AcDbLine
 10
703.720021
 20
827.906032
 11
703.720021
 21
794.906001
  0
LINE
  5
7EE
100
AcDbEntity
  8
M0
 62
   194
100
AcDbLine
 10
731.220021
 20
841.406032
 11
737.220021
 21
841.406032
  0
LINE
  5
7EF
100
AcDbEntity
  8
M0
 62
   194
100
AcDbLine
 10
715.220021
 20
839.906032
 11
728.621938
 21
839.906032
  0
LINE
  5
7F0
100
AcDbEntity
  8
M0
 62
   194
100
AcDbLine
 10
738.220021
 20
842.906001
 11
738.220021
 21
842.406032
  0
LINE
  5
7F1
100
AcDbEntity
  8
M0
 62
   194
100
AcDbLine
 10
707.220021
 20
833.906017
 11
707.220021
 21
830.906032
  0
LINE
  5
7F2
100
AcDbEntity
  8
M0
 62
   194
100
AcDbLine
 10
704.720021
 20
828.906032
 11
705.220021
 21
828.906032
  0
LINE
  5
7F3
100
AcDbEntity
  8
M0
 62
   194
100
AcDbLine
 10
714.220021
 20
840.906032
 11
728.637456
 21
840.906032
  0
ARC
  5
7F4
100
AcDbEntity
  8
M0
 62
   194
100
AcDbCircle
 10
739.220021
 20
842.906001
 40
1.0
100
AcDbArc
 50
90.0
 51
180.0
  0
ARC
  5
7F5
100
AcDbEntity
  8
M0
 62
   194
100
AcDbCircle
 10
737.220021
 20
842.406032
 40
1.0
100
AcDbArc
 50
270.0
 51
360.0
  0
ARC
  5
7F6
100
AcDbEntity
  8
M0
 62
   194
100
AcDbCircle
 10
733.220021
 20
838.906001
 40
5.0
100
AcDbArc
 50
90.0
 51
156.421627
  0
ARC
  5
7F7
100
AcDbEntity
  8
M0
 62
   194
100
AcDbCircle
 10
714.220021
 20
833.906032
 40
7.0
100
AcDbArc
 50
90.0
 51
180.0
  0
ARC
  5
7F8
100
AcDbEntity
  8
M0
 62
   194
100
AcDbCircle
 10
715.220021
 20
831.906032
 40
8.0
100
AcDbArc
 50
90.0
 51
180.0
  0
ARC
  5
7F9
100
AcDbEntity
  8
M0
 62
   194
100
AcDbCircle
 10
705.220021
 20
830.906032
 40
2.0
100
AcDbArc
 50
270.0
 51
360.0
  0
ARC
  5
7FA
100
AcDbEntity
  8
M0
 62
   194
100
AcDbCircle
 10
704.720021
 20
827.906032
 40
1.0
100
AcDbArc
 50
89.999126
 51
180.0
  0
LINE
  5
7FB
100
AcDbEntity
  8
M0
 62
   194
100
AcDbLine
 10
744.720021
 20
778.906017
 11
733.220006
 21
778.906032
  0
LINE
  5
7FC
100
AcDbEntity
  8
M0
 62
   194
100
AcDbLine
 10
715.220021
 20
782.906001
 11
724.720021
 21
782.906001
  0
LINE
  5
7FD
100
AcDbEntity
  8
M0
 62
   194
100
AcDbLine
 10
707.220021
 20
788.906017
 11
707.220021
 21
791.906001
  0
LINE
  5
7FE
100
AcDbEntity
  8
M0
 62
   194
100
AcDbLine
 10
704.720021
 20
793.906001
 11
705.220021
 21
793.906001
  0
LINE
  5
7FF
100
AcDbEntity
  8
M0
 62
   194
100
AcDbLine
 10
714.220021
 20
781.906001
 11
728.637456
 21
781.906001
  0
ARC
  5
800
100
AcDbEntity
  8
M0
 62
   194
100
AcDbCircle
 10
733.220021
 20
783.906032
 40
5.0
100
AcDbArc
 50
203.578261
 51
270.0
  0
ARC
  5
801
100
AcDbEntity
  8
M0
 62
   194
100
AcDbCircle
 10
714.220021
 20
788.906001
 40
7.0
100
AcDbArc
 50
179.999961
 51
270.0
  0
ARC
  5
802
100
AcDbEntity
  8
M0
 62
   194
100
AcDbCircle
 10
715.220021
 20
790.906001
 40
8.0
100
AcDbArc
 50
179.999964
 51
270.0
  0
ARC
  5
803
100
AcDbEntity
  8
M0
 62
   194
100
AcDbCircle
 10
705.220021
 20
791.906001
 40
2.0
100
AcDbArc
 50
0.0
 51
89.999563
  0
ARC
  5
804
100
AcDbEntity
  8
M0
 62
   194
100
AcDbCircle
 10
704.720021
 20
794.906001
 40
1.0
100
AcDbArc
 50
180.0
 51
270.0
  0
LINE
  5
805
100
AcDbEntity
  8
M0
  6
DASHDOT
 62
   194
100
AcDbLine
 10
697.154943
 20
811.40591
 11
752.037404
 21
811.40591
  0
LINE
  5
806
100
AcDbEntity
  8
M0
 62
   194
100
AcDbLine
 10
729.720021
 20
791.40591
 11
744.720021
 21
791.40591
  0
LINE
  5
807
100
AcDbEntity
  8
M0
 62
   194
100
AcDbLine
 10
728.720021
 20
786.406017
 11
744.720021
 21
786.406017
  0
ARC
  5
808
100
AcDbEntity
  8
M0
 62
   194
100
AcDbCircle
 10
729.720021
 20
789.40591
 40
2.0
100
AcDbArc
 50
90.0
 51
179.999945
  0
ARC
  5
809
100
AcDbEntity
  8
M0
 62
   194
100
AcDbCircle
 10
724.720021
 20
785.906001
 40
3.0
100
AcDbArc
 50
270.0
 51
360.0
  0
ARC
  5
80A
100
AcDbEntity
  8
M0
 62
   194
100
AcDbCircle
 10
724.720021
 20
784.906001
 40
3.0
100
AcDbArc
 50
270.0
 51
360.0
  0
ARC
  5
80B
100
AcDbEntity
  8
M0
 62
   194
100
AcDbCircle
 10
728.720021
 20
785.406017
 40
1.0
100
AcDbArc
 50
90.0
 51
179.999945
  0
LINE
  5
80C
100
AcDbEntity
  8
M0
 62
   194
100
AcDbLine
 10
739.220021
 20
784.706004
 11
739.220021
 21
784.406017
  0
LINE
  5
80D
100
AcDbEntity
  8
M0
 62
   194
100
AcDbLine
 10
739.720021
 20
783.906017
 11
744.720021
 21
783.906017
  0
LINE
  5
80E
100
AcDbEntity
  8
M0
 62
   194
100
AcDbLine
 10
732.720021
 20
786.406001
 11
739.220021
 21
784.706004
  0
ARC
  5
80F
100
AcDbEntity
  8
M0
 62
   194
100
AcDbCircle
 10
739.720021
 20
784.406017
 40
0.5
100
AcDbArc
 50
179.999891
 51
270.0
  0
ARC
  5
810
100
AcDbEntity
  8
M0
 62
   194
100
AcDbCircle
 10
731.220021
 20
838.406032
 40
3.0
100
AcDbArc
 50
90.0
 51
150.000331
  0
LINE
  5
811
100
AcDbEntity
  8
M0
 62
   194
100
AcDbLine
 10
763.720021
 20
778.905894
 11
763.720021
 21
784.40591
  0
LINE
  5
812
100
AcDbEntity
  8
M0
 62
   194
100
AcDbLine
 10
754.820012
 20
785.905894
 11
754.820012
 21
781.905894
  0
LINE
  5
813
100
AcDbEntity
  8
M0
 62
   194
100
AcDbLine
 10
759.320012
 20
784.40591
 11
759.320012
 21
780.905894
  0
LINE
  5
814
100
AcDbEntity
  8
M0
 62
   194
100
AcDbLine
 10
755.820012
 20
780.905894
 11
759.320012
 21
780.905894
  0
ARC
  5
815
100
AcDbEntity
  8
M0
 62
   194
100
AcDbCircle
 10
755.820012
 20
781.905894
 40
1.0
100
AcDbArc
 50
179.999945
 51
269.999126
  0
LINE
  5
816
100
AcDbEntity
  8
M0
 62
   194
100
AcDbLine
 10
744.720021
 20
791.405894
 11
758.620037
 21
791.405894
  0
ARC
  5
817
100
AcDbEntity
  8
M0
 62
   194
100
AcDbCircle
 10
754.320012
 20
785.905894
 40
0.5
100
AcDbArc
 50
0.0
 51
90.0
  0
ARC
  5
818
100
AcDbEntity
  8
M0
 62
   194
100
AcDbCircle
 10
754.320012
 20
784.952937
 40
0.5
100
AcDbArc
 50
0.0
 51
84.350095
  0
LINE
  5
819
100
AcDbEntity
  8
M0
 62
   194
100
AcDbLine
 10
763.720021
 20
778.905894
 11
773.720021
 21
778.905894
  0
LINE
  5
81A
100
AcDbEntity
  8
M0
 62
   194
100
AcDbLine
 10
773.720021
 20
778.905894
 11
773.720015
 21
784.40591
  0
LINE
  5
81B
100
AcDbEntity
  8
M0
 62
   194
100
AcDbLine
 10
744.720021
 20
837.405894
 11
744.720021
 21
817.405894
  0
LINE
  5
81C
100
AcDbEntity
  8
M0
  6
DASHDOT
 62
   194
100
AcDbLine
 10
742.220021
 20
811.405894
 11
758.620037
 21
811.405894
  0
LINE
  5
81D
100
AcDbEntity
  8
M0
 62
   194
100
AcDbLine
 10
744.720021
 20
817.405894
 11
744.720021
 21
785.405894
  0
LINE
  5
81E
100
AcDbEntity
  8
M0
 62
   194
100
AcDbLine
 10
744.720021
 20
837.405894
 11
758.620037
 21
837.405894
  0
LINE
  5
81F
100
AcDbEntity
  8
M0
 62
   194
100
AcDbLine
 10
744.720021
 20
786.405894
 11
758.620037
 21
786.405894
  0
LINE
  5
820
100
AcDbEntity
  8
M0
 62
   194
100
AcDbLine
 10
744.720021
 20
785.405894
 11
754.531728
 21
785.405894
  0
LINE
  5
821
100
AcDbEntity
  8
M0
 62
   194
100
AcDbLine
 10
744.720021
 20
786.405894
 11
754.369268
 21
785.450511
  0
LINE
  5
822
100
AcDbEntity
  8
M0
 62
   194
100
AcDbLine
 10
700.720021
 20
813.40591
 11
700.720037
 21
809.40591
  0
LINE
  5
823
100
AcDbEntity
  8
M0
 62
   194
100
AcDbLine
 10
703.720021
 20
813.90591
 11
701.220021
 21
813.90591
  0
LINE
  5
824
100
AcDbEntity
  8
M0
 62
   194
100
AcDbLine
 10
703.720021
 20
808.90591
 11
701.220037
 21
808.90591
  0
ARC
  5
825
100
AcDbEntity
  8
M0
 62
   194
100
AcDbCircle
 10
701.220021
 20
813.40591
 40
0.5
100
AcDbArc
 50
89.998251
 51
180.0
  0
ARC
  5
826
100
AcDbEntity
  8
M0
 62
   194
100
AcDbCircle
 10
701.220037
 20
809.40591
 40
0.5
100
AcDbArc
 50
180.0
 51
270.0
  0
LINE
  5
827
100
AcDbEntity
  8
M0
 62
   194
100
AcDbLine
 10
736.219991
 20
841.405986
 11
736.220006
 21
843.905864
  0
LINE
  5
828
100
AcDbEntity
  8
M0
 62
   194
100
AcDbLine
 10
733.820012
 20
843.705913
 11
735.420003
 21
843.705913
  0
LINE
  5
829
100
AcDbEntity
  8
M0
 62
   194
100
AcDbLine
 10
735.420003
 20
842.705913
 11
736.220006
 21
842.505916
  0
LINE
  5
82A
100
AcDbEntity
  8
M0
 62
   194
100
AcDbLine
 10
735.420003
 20
842.705898
 11
735.420003
 21
843.705913
  0
LINE
  5
82B
100
AcDbEntity
  8
M0
 62
   194
100
AcDbLine
 10
733.819997
 20
842.505916
 11
734.419988
 21
842.505916
  0
ARC
  5
82C
100
AcDbEntity
  8
M0
 62
   194
100
AcDbCircle
 10
731.820027
 20
841.405925
 40
1.0
100
AcDbArc
 50
90.0
 51
180.0
  0
LINE
  5
82D
100
AcDbEntity
  8
M0
 62
   194
100
AcDbLine
 10
733.819997
 20
842.405879
 11
731.820027
 21
842.40594
  0
LINE
  5
82E
100
AcDbEntity
  8
M0
 62
   194
100
AcDbLine
 10
733.120015
 20
841.406001
 11
733.12003
 21
842.40594
  0
LINE
  5
82F
100
AcDbEntity
  8
M0
 62
   194
100
AcDbLine
 10
733.819997
 20
841.405986
 11
733.820012
 21
843.705913
  0
LINE
  5
830
100
AcDbEntity
  8
M0
 62
   194
100
AcDbLine
 10
734.419972
 20
841.405986
 11
734.419988
 21
842.505916
  0
LINE
  5
831
100
AcDbEntity
  8
M0
 62
   194
100
AcDbLine
 10
736.231191
 20
843.906001
 11
733.220006
 21
843.906001
  0
LINE
  5
832
100
AcDbEntity
  8
M0
 62
   194
100
AcDbLine
 10
774.720021
 20
778.655864
 11
774.720021
 21
778.905894
  0
LINE
  5
833
100
AcDbEntity
  8
M0
 62
   194
100
AcDbLine
 10
776.720021
 20
778.655864
 11
776.720021
 21
778.905894
  0
LINE
  5
834
100
AcDbEntity
  8
M0
 62
   194
100
AcDbLine
 10
749.720021
 20
806.405894
 11
749.720021
 21
817.405894
  0
LINE
  5
835
100
AcDbEntity
  8
M0
 62
   194
100
AcDbLine
 10
744.720021
 20
817.405894
 11
749.720021
 21
817.405894
  0
LINE
  5
836
100
AcDbEntity
  8
M0
 62
   194
100
AcDbLine
 10
744.720021
 20
805.405894
 11
746.983953
 21
805.405894
  0
LINE
  5
837
100
AcDbEntity
  8
M0
 62
   194
100
AcDbLine
 10
749.220021
 20
806.405894
 11
758.620037
 21
806.405894
  0
LINE
  5
838
100
AcDbEntity
  8
M0
 62
   194
100
AcDbLine
 10
749.220021
 20
804.405894
 11
758.620037
 21
804.405894
  0
LINE
  5
839
100
AcDbEntity
  8
M0
 62
   194
100
AcDbLine
 10
746.220021
 20
807.405894
 11
746.220021
 21
817.405894
  0
LINE
  5
83A
100
AcDbEntity
  8
M0
 62
   194
100
AcDbLine
 10
748.220021
 20
807.405894
 11
748.220021
 21
817.405894
  0
ARC
  5
83B
100
AcDbEntity
  8
M0
 62
   194
100
AcDbCircle
 10
749.220021
 20
807.405894
 40
1.0
100
AcDbArc
 50
180.0
 51
269.999126
  0
ARC
  5
83C
100
AcDbEntity
  8
M0
 62
   194
100
AcDbCircle
 10
749.220021
 20
807.405894
 40
3.0
100
AcDbArc
 50
179.999982
 51
269.999709
  0
LINE
  5
83D
100
AcDbEntity
  8
M0
 62
   194
100
AcDbLine
 10
773.720037
 20
778.905894
 11
785.720037
 21
778.905894
  0
LINE
  5
83E
100
AcDbEntity
  8
M0
 62
   194
100
AcDbLine
 10
785.720037
 20
778.905894
 11
785.720037
 21
784.40591
  0
LINE
  5
83F
100
AcDbEntity
  8
M0
 62
   194
100
AcDbLine
 10
773.720037
 20
784.40591
 11
773.720037
 21
778.905894
  0
LINE
  5
840
100
AcDbEntity
  8
M0
 62
   194
100
AcDbLine
 10
747.820027
 20
844.705867
 11
747.820043
 21
847.805873
  0
LINE
  5
841
100
AcDbEntity
  8
M0
 62
   194
100
AcDbLine
 10
747.820043
 20
847.805873
 11
743.020055
 21
847.805888
  0
LINE
  5
842
100
AcDbEntity
  8
M0
 62
   194
100
AcDbLine
 10
736.220037
 20
843.705913
 11
736.220037
 21
841.406047
  0
LINE
  5
843
100
AcDbEntity
  8
M0
 62
   194
100
AcDbLine
 10
737.02004
 20
843.705913
 11
737.02004
 21
841.406047
  0
LINE
  5
844
100
AcDbEntity
  8
M0
 62
   194
100
AcDbLine
 10
738.020055
 20
845.505916
 11
742.02004
 21
845.505901
  0
LINE
  5
845
100
AcDbEntity
  8
M0
 62
   194
100
AcDbLine
 10
738.020055
 20
844.705913
 11
747.820027
 21
844.705867
  0
ARC
  5
846
100
AcDbEntity
  8
M0
 62
   194
100
AcDbCircle
 10
738.02004
 20
843.705913
 40
1.0
100
AcDbArc
 50
90.0
 51
180.0
  0
ARC
  5
847
100
AcDbEntity
  8
M0
 62
   194
100
AcDbCircle
 10
738.02004
 20
843.705913
 40
1.799999
100
AcDbArc
 50
90.0
 51
180.0
  0
LINE
  5
848
100
AcDbEntity
  8
M0
 62
   194
100
AcDbLine
 10
743.02004
 20
844.705882
 11
743.020055
 21
847.805888
  0
ARC
  5
849
100
AcDbEntity
  8
M0
 62
   194
100
AcDbCircle
 10
742.02004
 20
846.505901
 40
1.0
100
AcDbArc
 50
269.999126
 51
360.0
  0
LINE
  5
84A
100
AcDbEntity
  8
M0
 62
   194
100
AcDbLine
 10
748.819982
 20
845.155833
 11
758.620037
 21
845.155803
  0
LINE
  5
84B
100
AcDbEntity
  8
M0
 62
   194
100
AcDbLine
 10
748.819982
 20
847.155833
 11
758.620037
 21
847.155803
  0
LINE
  5
84C
100
AcDbEntity
  8
M0
 62
   194
100
AcDbLine
 10
748.819997
 20
845.155833
 11
748.819997
 21
847.155833
  0
LINE
  5
84D
100
AcDbEntity
  8
M0
 62
   194
100
AcDbLine
 10
747.820012
 20
846.655849
 11
748.819997
 21
846.655849
  0
LINE
  5
84E
100
AcDbEntity
  8
M0
 62
   194
100
AcDbLine
 10
747.820012
 20
845.655849
 11
748.819982
 21
845.655849
  0
LINE
  5
84F
100
AcDbEntity
  8
M0
 62
   194
100
AcDbLine
 10
747.819966
 20
778.105861
 11
747.819951
 21
775.005855
  0
LINE
  5
850
100
AcDbEntity
  8
M0
 62
   194
100
AcDbLine
 10
747.819951
 20
775.005855
 11
743.019963
 21
775.005885
  0
LINE
  5
851
100
AcDbEntity
  8
M0
 62
   194
100
AcDbLine
 10
738.019994
 20
777.305919
 11
742.019979
 21
777.305904
  0
LINE
  5
852
100
AcDbEntity
  8
M0
 62
   194
100
AcDbLine
 10
738.019994
 20
778.105922
 11
747.819966
 21
778.105861
  0
ARC
  5
853
100
AcDbEntity
  8
M0
 62
   194
100
AcDbCircle
 10
738.020009
 20
779.105922
 40
1.0
100
AcDbArc
 50
191.529527
 51
270.0
  0
ARC
  5
854
100
AcDbEntity
  8
M0
 62
   194
100
AcDbCircle
 10
738.020009
 20
779.105922
 40
1.799999
100
AcDbArc
 50
186.37518
 51
270.0
  0
LINE
  5
855
100
AcDbEntity
  8
M0
 62
   194
100
AcDbLine
 10
743.019979
 20
778.105891
 11
743.019963
 21
775.005885
  0
ARC
  5
856
100
AcDbEntity
  8
M0
 62
   194
100
AcDbCircle
 10
742.019963
 20
776.305904
 40
1.0
100
AcDbArc
 50
0.0
 51
90.0
  0
LINE
  5
857
100
AcDbEntity
  8
M0
 62
   194
100
AcDbLine
 10
748.819951
 20
777.655864
 11
748.819951
 21
775.655864
  0
LINE
  5
858
100
AcDbEntity
  8
M0
 62
   194
100
AcDbLine
 10
747.819951
 20
777.155864
 11
748.819951
 21
777.155849
  0
LINE
  5
859
100
AcDbEntity
  8
M0
 62
   194
100
AcDbLine
 10
747.819936
 20
776.155864
 11
748.819951
 21
776.155864
  0
LINE
  5
85A
100
AcDbEntity
  8
M0
 62
   194
100
AcDbLine
 10
748.819921
 20
777.655864
 11
773.720006
 21
777.655864
  0
LINE
  5
85B
100
AcDbEntity
  8
M0
 62
   194
100
AcDbLine
 10
748.819921
 20
775.655864
 11
773.720006
 21
775.655864
  0
ARC
  5
85C
100
AcDbEntity
  8
M0
 62
   194
100
AcDbCircle
 10
773.720006
 20
778.655864
 40
1.0
100
AcDbArc
 50
269.999126
 51
360.0
  0
ARC
  5
85D
100
AcDbEntity
  8
M0
 62
   194
100
AcDbCircle
 10
773.720006
 20
778.655864
 40
3.0
100
AcDbArc
 50
269.999709
 51
360.0
  0
CIRCLE
  5
85E
100
AcDbEntity
  8
M0
 62
   114
100
AcDbCircle
 10
373.619756
 20
822.40591
 40
5.25
  0
LINE
  5
85F
100
AcDbEntity
  8
M0
 62
   114
100
AcDbLine
 10
374.468346
 20
822.405834
 11
377.732058
 21
825.669546
  0
LINE
  5
860
100
AcDbEntity
  8
M0
 62
   114
100
AcDbLine
 10
370.356109
 20
818.293597
 11
373.61982
 21
821.557308
  0
LINE
  5
861
100
AcDbEntity
  8
M0
 62
   114
100
AcDbLine
 10
372.771338
 20
822.405791
 11
369.507604
 21
819.142058
  0
LINE
  5
862
100
AcDbEntity
  8
M0
 62
   114
100
AcDbLine
 10
376.883586
 20
826.518061
 11
373.619864
 21
823.254317
  0
LINE
  5
863
100
AcDbEntity
  8
M0
 62
   114
100
AcDbLine
 10
373.619853
 20
823.254328
 11
371.852086
 21
825.022095
  0
LINE
  5
864
100
AcDbEntity
  8
M0
 62
   114
100
AcDbLine
 10
376.236113
 20
820.638067
 11
374.468346
 21
822.405834
  0
LINE
  5
865
100
AcDbEntity
  8
M0
 62
   114
100
AcDbLine
 10
373.61982
 20
821.557308
 11
375.387587
 21
819.789541
  0
LINE
  5
866
100
AcDbEntity
  8
M0
 62
   114
100
AcDbLine
 10
371.00356
 20
824.173569
 11
372.771327
 21
822.405802
  0
LINE
  5
867
100
AcDbEntity
  8
M0
 62
   114
100
AcDbLine
 10
375.387587
 20
819.789541
 11
376.236113
 21
820.638067
  0
LINE
  5
868
100
AcDbEntity
  8
M0
 62
   114
100
AcDbLine
 10
371.852086
 20
825.022095
 11
371.00356
 21
824.173569
  0
CIRCLE
  5
869
100
AcDbEntity
  8
M0
 62
   114
100
AcDbCircle
 10
373.619756
 20
822.40591
 40
5.75
  0
CIRCLE
  5
86A
100
AcDbEntity
  8
M0
 62
   114
100
AcDbCircle
 10
203.619756
 20
822.40591
 40
5.25
  0
LINE
  5
86B
100
AcDbEntity
  8
M0
 62
   114
100
AcDbLine
 10
204.468346
 20
822.405834
 11
207.732058
 21
825.669546
  0
LINE
  5
86C
100
AcDbEntity
  8
M0
 62
   114
100
AcDbLine
 10
200.356109
 20
818.293597
 11
203.61982
 21
821.557308
  0
LINE
  5
86D
100
AcDbEntity
  8
M0
 62
   114
100
AcDbLine
 10
202.771338
 20
822.405791
 11
199.507604
 21
819.142058
  0
LINE
  5
86E
100
AcDbEntity
  8
M0
 62
   114
100
AcDbLine
 10
206.883586
 20
826.518061
 11
203.619864
 21
823.254317
  0
LINE
  5
86F
100
AcDbEntity
  8
M0
 62
   114
100
AcDbLine
 10
203.619853
 20
823.254328
 11
201.852086
 21
825.022095
  0
LINE
  5
870
100
AcDbEntity
  8
M0
 62
   114
100
AcDbLine
 10
206.236113
 20
820.638067
 11
204.468346
 21
822.405834
  0
LINE
  5
871
100
AcDbEntity
  8
M0
 62
   114
100
AcDbLine
 10
203.61982
 20
821.557308
 11
205.387587
 21
819.789541
  0
LINE
  5
872
100
AcDbEntity
  8
M0
 62
   114
100
AcDbLine
 10
201.00356
 20
824.173569
 11
202.771327
 21
822.405802
  0
LINE
  5
873
100
AcDbEntity
  8
M0
 62
   114
100
AcDbLine
 10
205.387587
 20
819.789541
 11
206.236113
 21
820.638067
  0
LINE
  5
874
100
AcDbEntity
  8
M0
 62
   114
100
AcDbLine
 10
201.852086
 20
825.022095
 11
201.00356
 21
824.173569
  0
CIRCLE
  5
875
100
AcDbEntity
  8
M0
 62
   114
100
AcDbCircle
 10
203.619756
 20
822.40591
 40
5.75
  0
CIRCLE
  5
876
100
AcDbEntity
  8
M0
 62
   114
100
AcDbCircle
 10
281.119756
 20
842.90591
 40
4.5
  0
LINE
  5
877
100
AcDbEntity
  8
M0
 62
   114
100
AcDbLine
 10
281.968357
 20
842.905845
 11
284.697639
 21
845.635126
  0
LINE
  5
878
100
AcDbEntity
  8
M0
 62
   114
100
AcDbLine
 10
278.390528
 20
839.328016
 11
281.11982
 21
842.057308
  0
LINE
  5
879
100
AcDbEntity
  8
M0
 62
   114
100
AcDbLine
 10
280.271338
 20
842.905791
 11
277.542013
 21
840.176466
  0
LINE
  5
87A
100
AcDbEntity
  8
M0
 62
   114
100
AcDbLine
 10
283.849178
 20
846.483652
 11
281.119874
 21
843.754328
  0
LINE
  5
87B
100
AcDbEntity
  8
M0
 62
   114
100
AcDbLine
 10
281.11982
 20
842.057308
 11
282.392647
 21
840.784481
  0
LINE
  5
87C
100
AcDbEntity
  8
M0
 62
   114
100
AcDbLine
 10
278.9985
 20
844.178629
 11
280.271327
 21
842.905802
  0
LINE
  5
87D
100
AcDbEntity
  8
M0
 62
   114
100
AcDbLine
 10
281.119864
 20
843.754339
 11
279.847037
 21
845.027165
  0
LINE
  5
87E
100
AcDbEntity
  8
M0
 62
   114
100
AcDbLine
 10
283.241184
 20
841.633018
 11
281.968357
 21
842.905845
  0
LINE
  5
87F
100
AcDbEntity
  8
M0
 62
   114
100
AcDbLine
 10
282.392647
 20
840.784481
 11
283.241184
 21
841.633018
  0
LINE
  5
880
100
AcDbEntity
  8
M0
 62
   114
100
AcDbLine
 10
279.847037
 20
845.027165
 11
278.9985
 21
844.178629
  0
CIRCLE
  5
881
100
AcDbEntity
  8
M0
 62
   114
100
AcDbCircle
 10
281.119756
 20
842.90591
 40
5.0
  0
CIRCLE
  5
882
100
AcDbEntity
  8
M0
 62
   114
100
AcDbCircle
 10
244.119756
 20
842.90591
 40
4.5
  0
LINE
  5
883
100
AcDbEntity
  8
M0
 62
   114
100
AcDbLine
 10
244.968357
 20
842.905845
 11
247.697639
 21
845.635126
  0
LINE
  5
884
100
AcDbEntity
  8
M0
 62
   114
100
AcDbLine
 10
241.390528
 20
839.328016
 11
244.11982
 21
842.057308
  0
LINE
  5
885
100
AcDbEntity
  8
M0
 62
   114
100
AcDbLine
 10
243.271338
 20
842.905791
 11
240.542013
 21
840.176466
  0
LINE
  5
886
100
AcDbEntity
  8
M0
 62
   114
100
AcDbLine
 10
246.849178
 20
846.483652
 11
244.119874
 21
843.754328
  0
LINE
  5
887
100
AcDbEntity
  8
M0
 62
   114
100
AcDbLine
 10
244.11982
 20
842.057308
 11
245.392647
 21
840.784481
  0
LINE
  5
888
100
AcDbEntity
  8
M0
 62
   114
100
AcDbLine
 10
241.9985
 20
844.178629
 11
243.271327
 21
842.905802
  0
LINE
  5
889
100
AcDbEntity
  8
M0
 62
   114
100
AcDbLine
 10
244.119864
 20
843.754339
 11
242.847037
 21
845.027165
  0
LINE
  5
88A
100
AcDbEntity
  8
M0
 62
   114
100
AcDbLine
 10
246.241184
 20
841.633018
 11
244.968357
 21
842.905845
  0
LINE
  5
88B
100
AcDbEntity
  8
M0
 62
   114
100
AcDbLine
 10
245.392647
 20
840.784481
 11
246.241184
 21
841.633018
  0
LINE
  5
88C
100
AcDbEntity
  8
M0
 62
   114
100
AcDbLine
 10
242.847037
 20
845.027165
 11
241.9985
 21
844.178629
  0
CIRCLE
  5
88D
100
AcDbEntity
  8
M0
 62
   114
100
AcDbCircle
 10
244.119756
 20
842.90591
 40
5.0
  0
CIRCLE
  5
88E
100
AcDbEntity
  8
M0
 62
   114
100
AcDbCircle
 10
244.119756
 20
814.90591
 40
4.5
  0
LINE
  5
88F
100
AcDbEntity
  8
M0
 62
   114
100
AcDbLine
 10
244.968357
 20
814.905845
 11
247.697639
 21
817.635126
  0
LINE
  5
890
100
AcDbEntity
  8
M0
 62
   114
100
AcDbLine
 10
241.390528
 20
811.328016
 11
244.11982
 21
814.057308
  0
LINE
  5
891
100
AcDbEntity
  8
M0
 62
   114
100
AcDbLine
 10
243.271338
 20
814.905791
 11
240.542013
 21
812.176466
  0
LINE
  5
892
100
AcDbEntity
  8
M0
 62
   114
100
AcDbLine
 10
246.849178
 20
818.483652
 11
244.119874
 21
815.754328
  0
LINE
  5
893
100
AcDbEntity
  8
M0
 62
   114
100
AcDbLine
 10
244.11982
 20
814.057308
 11
245.392647
 21
812.784481
  0
LINE
  5
894
100
AcDbEntity
  8
M0
 62
   114
100
AcDbLine
 10
241.9985
 20
816.178629
 11
243.271327
 21
814.905802
  0
LINE
  5
895
100
AcDbEntity
  8
M0
 62
   114
100
AcDbLine
 10
244.119864
 20
815.754339
 11
242.847037
 21
817.027165
  0
LINE
  5
896
100
AcDbEntity
  8
M0
 62
   114
100
AcDbLine
 10
246.241184
 20
813.633018
 11
244.968357
 21
814.905845
  0
LINE
  5
897
100
AcDbEntity
  8
M0
 62
   114
100
AcDbLine
 10
245.392647
 20
812.784481
 11
246.241184
 21
813.633018
  0
LINE
  5
898
100
AcDbEntity
  8
M0
 62
   114
100
AcDbLine
 10
242.847037
 20
817.027165
 11
241.9985
 21
816.178629
  0
CIRCLE
  5
899
100
AcDbEntity
  8
M0
 62
   114
100
AcDbCircle
 10
244.119756
 20
814.90591
 40
5.0
  0
CIRCLE
  5
89A
100
AcDbEntity
  8
M0
 62
   114
100
AcDbCircle
 10
281.119756
 20
814.90591
 40
4.5
  0
LINE
  5
89B
100
AcDbEntity
  8
M0
 62
   114
100
AcDbLine
 10
281.968357
 20
814.905845
 11
284.697639
 21
817.635126
  0
LINE
  5
89C
100
AcDbEntity
  8
M0
 62
   114
100
AcDbLine
 10
278.390528
 20
811.328016
 11
281.11982
 21
814.057308
  0
LINE
  5
89D
100
AcDbEntity
  8
M0
 62
   114
100
AcDbLine
 10
280.271338
 20
814.905791
 11
277.542013
 21
812.176466
  0
LINE
  5
89E
100
AcDbEntity
  8
M0
 62
   114
100
AcDbLine
 10
283.849178
 20
818.483652
 11
281.119874
 21
815.754328
  0
LINE
  5
89F
100
AcDbEntity
  8
M0
 62
   114
100
AcDbLine
 10
281.11982
 20
814.057308
 11
282.392647
 21
812.784481
  0
LINE
  5
8A0
100
AcDbEntity
  8
M0
 62
   114
100
AcDbLine
 10
278.9985
 20
816.178629
 11
280.271327
 21
814.905802
  0
LINE
  5
8A1
100
AcDbEntity
  8
M0
 62
   114
100
AcDbLine
 10
281.119864
 20
815.754339
 11
279.847037
 21
817.027165
  0
LINE
  5
8A2
100
AcDbEntity
  8
M0
 62
   114
100
AcDbLine
 10
283.241184
 20
813.633018
 11
281.968357
 21
814.905845
  0
LINE
  5
8A3
100
AcDbEntity
  8
M0
 62
   114
100
AcDbLine
 10
282.392647
 20
812.784481
 11
283.241184
 21
813.633018
  0
LINE
  5
8A4
100
AcDbEntity
  8
M0
 62
   114
100
AcDbLine
 10
279.847037
 20
817.027165
 11
278.9985
 21
816.178629
  0
CIRCLE
  5
8A5
100
AcDbEntity
  8
M0
 62
   114
100
AcDbCircle
 10
281.119756
 20
814.90591
 40
5.0
  0
CIRCLE
  5
8A6
100
AcDbEntity
  8
M0
 62
     7
100
AcDbCircle
 10
189.619748
 20
865.90591
 40
7.700005
  0
LINE
  5
8A7
100
AcDbEntity
  8
M0
 62
     2
100
AcDbLine
 10
189.619756
 20
873.411449
 11
183.119756
 21
869.658672
  0
LINE
  5
8A8
100
AcDbEntity
  8
M0
 62
     2
100
AcDbLine
 10
183.119756
 20
869.658672
 11
183.119756
 21
862.153133
  0
LINE
  5
8A9
100
AcDbEntity
  8
M0
 62
     2
100
AcDbLine
 10
183.119756
 20
862.153133
 11
189.61974
 21
858.400356
  0
LINE
  5
8AA
100
AcDbEntity
  8
M0
 62
     2
100
AcDbLine
 10
189.61974
 20
858.400356
 11
196.11974
 21
862.153133
  0
LINE
  5
8AB
100
AcDbEntity
  8
M0
 62
     2
100
AcDbLine
 10
196.11974
 20
862.153133
 11
196.119756
 21
869.658672
  0
LINE
  5
8AC
100
AcDbEntity
  8
M0
 62
     2
100
AcDbLine
 10
196.119756
 20
869.658672
 11
189.619756
 21
873.411449
  0
CIRCLE
  5
8AD
100
AcDbEntity
  8
M0
 62
     7
100
AcDbCircle
 10
387.619733
 20
865.90591
 40
7.700005
  0
LINE
  5
8AE
100
AcDbEntity
  8
M0
 62
     2
100
AcDbLine
 10
387.61974
 20
873.411449
 11
381.11974
 21
869.658672
  0
LINE
  5
8AF
100
AcDbEntity
  8
M0
 62
     2
100
AcDbLine
 10
381.11974
 20
869.658672
 11
381.11974
 21
862.153133
  0
LINE
  5
8B0
100
AcDbEntity
  8
M0
 62
     2
100
AcDbLine
 10
381.11974
 20
862.153133
 11
387.619725
 21
858.400356
  0
LINE
  5
8B1
100
AcDbEntity
  8
M0
 62
     2
100
AcDbLine
 10
387.619725
 20
858.400356
 11
394.119725
 21
862.153133
  0
LINE
  5
8B2
100
AcDbEntity
  8
M0
 62
     2
100
AcDbLine
 10
394.119725
 20
862.153133
 11
394.11974
 21
869.658672
  0
LINE
  5
8B3
100
AcDbEntity
  8
M0
 62
     2
100
AcDbLine
 10
394.11974
 20
869.658672
 11
387.61974
 21
873.411449
  0
CIRCLE
  5
8B4
100
AcDbEntity
  8
M0
 62
     2
100
AcDbCircle
 10
387.61974
 20
865.90591
 40
6.5
  0
LINE
  5
8B5
100
AcDbEntity
  8
M0
 62
   234
100
AcDbLine
 10
232.326863
 20
802.40591
 11
234.422795
 21
804.501842
  0
LINE
  5
8B6
100
AcDbEntity
  8
M0
 62
   234
100
AcDbLine
 10
229.523812
 20
799.60286
 11
231.619756
 21
801.698803
  0
LINE
  5
8B7
100
AcDbEntity
  8
M0
 62
   234
100
AcDbLine
 10
230.912649
 20
802.40591
 11
228.816706
 21
800.309967
  0
LINE
  5
8B8
100
AcDbEntity
  8
M0
 62
   234
100
AcDbLine
 10
233.715688
 20
805.208949
 11
231.619756
 21
803.113017
  0
LINE
  5
8B9
100
AcDbEntity
  8
M0
 62
   234
100
AcDbLine
 10
231.619756
 20
803.113017
 11
230.523706
 21
804.209067
  0
LINE
  5
8BA
100
AcDbEntity
  8
M0
 62
   234
100
AcDbLine
 10
233.422913
 20
801.30986
 11
232.326863
 21
802.40591
  0
LINE
  5
8BB
100
AcDbEntity
  8
M0
 62
   234
100
AcDbLine
 10
231.619756
 20
801.698803
 11
232.715806
 21
800.602753
  0
LINE
  5
8BC
100
AcDbEntity
  8
M0
 62
   234
100
AcDbLine
 10
229.816599
 20
803.50196
 11
230.912649
 21
802.40591
  0
CIRCLE
  5
8BD
100
AcDbEntity
  8
M0
 62
   234
100
AcDbCircle
 10
231.619756
 20
802.40591
 40
3.5
  0
LINE
  5
8BE
100
AcDbEntity
  8
M0
 62
   234
100
AcDbLine
 10
232.715806
 20
800.602753
 11
233.422913
 21
801.30986
  0
LINE
  5
8BF
100
AcDbEntity
  8
M0
 62
   234
100
AcDbLine
 10
230.523706
 20
804.209067
 11
229.816599
 21
803.50196
  0
LINE
  5
8C0
100
AcDbEntity
  8
M0
  6
DASHDOT
 62
   234
100
AcDbLine
 10
231.619756
 20
796.861468
 11
231.619756
 21
807.950351
  0
LINE
  5
8C1
100
AcDbEntity
  8
M0
 62
   234
100
AcDbLine
 10
294.326863
 20
802.40591
 11
296.422795
 21
804.501842
  0
LINE
  5
8C2
100
AcDbEntity
  8
M0
 62
   234
100
AcDbLine
 10
291.523813
 20
799.60286
 11
293.619756
 21
801.698803
  0
LINE
  5
8C3
100
AcDbEntity
  8
M0
 62
   234
100
AcDbLine
 10
292.912649
 20
802.40591
 11
290.816706
 21
800.309966
  0
LINE
  5
8C4
100
AcDbEntity
  8
M0
 62
   234
100
AcDbLine
 10
295.715688
 20
805.208949
 11
293.619756
 21
803.113017
  0
LINE
  5
8C5
100
AcDbEntity
  8
M0
 62
   234
100
AcDbLine
 10
293.619756
 20
803.113017
 11
292.523706
 21
804.209067
  0
LINE
  5
8C6
100
AcDbEntity
  8
M0
 62
   234
100
AcDbLine
 10
295.422913
 20
801.30986
 11
294.326863
 21
802.40591
  0
LINE
  5
8C7
100
AcDbEntity
  8
M0
 62
   234
100
AcDbLine
 10
293.619756
 20
801.698803
 11
294.715806
 21
800.602753
  0
LINE
  5
8C8
100
AcDbEntity
  8
M0
 62
   234
100
AcDbLine
 10
291.816599
 20
803.50196
 11
292.912649
 21
802.40591
  0
CIRCLE
  5
8C9
100
AcDbEntity
  8
M0
 62
   234
100
AcDbCircle
 10
293.619756
 20
802.40591
 40
3.5
  0
LINE
  5
8CA
100
AcDbEntity
  8
M0
 62
   234
100
AcDbLine
 10
294.715806
 20
800.602753
 11
295.422913
 21
801.30986
  0
LINE
  5
8CB
100
AcDbEntity
  8
M0
 62
   234
100
AcDbLine
 10
292.523706
 20
804.209067
 11
291.816599
 21
803.50196
  0
LINE
  5
8CC
100
AcDbEntity
  8
M0
  6
DASHDOT
 62
   234
100
AcDbLine
 10
293.619756
 20
796.861468
 11
293.619756
 21
807.950351
  0
LINE
  5
8CD
100
AcDbEntity
  8
M0
 62
   114
100
AcDbLine
 10
182.371221
 20
875.396048
 11
175.869756
 21
875.396048
  0
LINE
  5
8CE
100
AcDbEntity
  8
M0
 62
   114
100
AcDbLine
 10
175.869756
 20
875.396048
 11
175.869756
 21
882.405925
  0
LINE
  5
8CF
100
AcDbEntity
  8
M0
 62
   114
100
AcDbLine
 10
182.371221
 20
875.396048
 11
182.371221
 21
882.405925
  0
LINE
  5
8D0
100
AcDbEntity
  8
M0
 62
   114
100
AcDbLine
 10
182.371221
 20
879.153392
 11
175.869756
 21
879.153392
  0
LINE
  5
8D1
100
AcDbEntity
  8
M0
 62
   114
100
AcDbLine
 10
175.869756
 20
875.206127
 11
173.869756
 21
875.206127
  0
LINE
  5
8D2
100
AcDbEntity
  8
M0
 62
   114
100
AcDbLine
 10
173.869756
 20
875.206127
 11
173.869756
 21
882.405925
  0
LINE
  5
8D3
100
AcDbEntity
  8
M0
 62
   114
100
AcDbLine
 10
175.869756
 20
882.405925
 11
175.869756
 21
875.206127
  0
LINE
  5
8D4
100
AcDbEntity
  8
M0
 62
   114
100
AcDbLine
 10
394.868869
 20
875.396048
 11
401.370334
 21
875.396048
  0
LINE
  5
8D5
100
AcDbEntity
  8
M0
 62
   114
100
AcDbLine
 10
401.370334
 20
875.396048
 11
401.370334
 21
882.405925
  0
LINE
  5
8D6
100
AcDbEntity
  8
M0
 62
   114
100
AcDbLine
 10
394.868869
 20
875.396048
 11
394.868869
 21
882.405925
  0
LINE
  5
8D7
100
AcDbEntity
  8
M0
 62
   114
100
AcDbLine
 10
394.868869
 20
879.153392
 11
401.370334
 21
879.153392
  0
LINE
  5
8D8
100
AcDbEntity
  8
M0
 62
   114
100
AcDbLine
 10
401.370334
 20
875.206127
 11
403.370334
 21
875.206127
  0
LINE
  5
8D9
100
AcDbEntity
  8
M0
 62
   114
100
AcDbLine
 10
403.370334
 20
875.206127
 11
403.370334
 21
882.405925
  0
LINE
  5
8DA
100
AcDbEntity
  8
M0
 62
   114
100
AcDbLine
 10
401.370334
 20
882.405925
 11
401.370334
 21
875.206127
  0
LINE
  5
8DB
100
AcDbEntity
  8
M0
  6
DIVIDE
100
AcDbLine
 10
430.620053
 20
285.150067
 11
430.620053
 21
633.150067
  0
LINE
  5
8DC
100
AcDbEntity
  8
M0
  6
DIVIDE
100
AcDbLine
 10
430.620053
 20
633.150067
 11
378.620289
 21
633.150067
  0
LINE
  5
8DD
100
AcDbEntity
  8
M0
  6
DIVIDE
100
AcDbLine
 10
378.620268
 20
666.150079
 11
378.620288
 21
634.150079
  0
LINE
  5
8DE
100
AcDbEntity
  8
M0
  6
DIVIDE
100
AcDbLine
 10
338.620268
 20
666.150054
 11
378.620268
 21
666.150079
  0
LINE
  5
8DF
100
AcDbEntity
  8
M0
  6
DIVIDE
100
AcDbLine
 10
338.620288
 20
634.150054
 11
338.620268
 21
666.150054
  0
LINE
  5
8E0
100
AcDbEntity
  8
M0
  6
DIVIDE
100
AcDbLine
 10
308.620268
 20
666.150079
 11
308.620288
 21
634.150079
  0
LINE
  5
8E1
100
AcDbEntity
  8
M0
  6
DIVIDE
100
AcDbLine
 10
268.620268
 20
666.150054
 11
308.620268
 21
666.150079
  0
LINE
  5
8E2
100
AcDbEntity
  8
M0
  6
DASHDOT
100
AcDbLine
 10
288.620011
 20
686.150067
 11
288.620281
 21
257.650067
  0
LINE
  5
8E3
100
AcDbEntity
  8
M0
  6
DIVIDE
100
AcDbLine
 10
268.620288
 20
634.150054
 11
268.620268
 21
666.150054
  0
LINE
  5
8E4
100
AcDbEntity
  8
M0
  6
DIVIDE
100
AcDbLine
 10
238.620288
 20
634.150079
 11
238.620268
 21
666.150079
  0
LINE
  5
8E5
100
AcDbEntity
  8
M0
  6
DIVIDE
100
AcDbLine
 10
238.620268
 20
666.150079
 11
198.620268
 21
666.150054
  0
LINE
  5
8E6
100
AcDbEntity
  8
M0
  6
DIVIDE
100
AcDbLine
 10
198.620268
 20
666.150054
 11
198.620288
 21
634.150054
  0
LINE
  5
8E7
100
AcDbEntity
  8
M0
  6
DIVIDE
100
AcDbLine
 10
146.620053
 20
633.150067
 11
146.620053
 21
285.150067
  0
LINE
  5
8E8
100
AcDbEntity
  8
M0
  6
DIVIDE
100
AcDbLine
 10
146.620053
 20
285.150067
 11
191.120053
 21
285.150067
  0
LINE
  5
8E9
100
AcDbEntity
  8
M0
  6
DIVIDE
 62
     7
100
AcDbLine
 10
191.120053
 20
285.150067
 11
191.120053
 21
282.650067
  0
LINE
  5
8EA
100
AcDbEntity
  8
M0
  6
DIVIDE
 62
     7
100
AcDbLine
 10
191.120053
 20
282.650067
 11
196.120053
 21
277.650067
  0
LINE
  5
8EB
100
AcDbEntity
  8
M0
  6
DIVIDE
 62
     7
100
AcDbLine
 10
196.120053
 20
277.650067
 11
381.120053
 21
277.650067
  0
LINE
  5
8EC
100
AcDbEntity
  8
M0
  6
DIVIDE
 62
     7
100
AcDbLine
 10
381.120053
 20
277.650067
 11
386.120053
 21
282.650067
  0
LINE
  5
8ED
100
AcDbEntity
  8
M0
  6
DIVIDE
100
AcDbLine
 10
386.120053
 20
285.150067
 11
430.620053
 21
285.150067
  0
CIRCLE
  5
8EE
100
AcDbEntity
  8
M0
 62
     7
100
AcDbCircle
 10
373.620053
 20
298.150067
 40
10.0
  0
CIRCLE
  5
8EF
100
AcDbEntity
  8
M0
 62
     7
100
AcDbCircle
 10
203.620053
 20
298.150067
 40
10.0
  0
CIRCLE
  5
8F0
100
AcDbEntity
  8
M0
100
AcDbCircle
 10
203.620053
 20
620.150067
 40
10.0
  0
CIRCLE
  5
8F1
100
AcDbEntity
  8
M0
100
AcDbCircle
 10
373.620053
 20
620.150067
 40
10.0
  0
LINE
  5
8F2
100
AcDbEntity
  8
M0
  6
DIVIDE
 62
     7
100
AcDbLine
 10
386.120474
 20
285.150067
 11
386.120477
 21
282.650189
  0
LINE
  5
8F3
100
AcDbEntity
  8
M0
  6
DIVIDE
100
AcDbLine
 10
268.620289
 20
633.150067
 11
238.620289
 21
633.150067
  0
LINE
  5
8F4
100
AcDbEntity
  8
M0
  6
DIVIDE
100
AcDbLine
 10
338.620289
 20
633.150067
 11
308.620289
 21
633.150067
  0
LINE
  5
8F5
100
AcDbEntity
  8
M0
  6
DIVIDE
100
AcDbLine
 10
198.620289
 20
633.150067
 11
146.620053
 21
633.150067
  0
LINE
  5
8F6
100
AcDbEntity
  8
M0
  6
DASHDOT
100
AcDbLine
 10
358.620053
 20
298.150067
 11
388.620053
 21
298.150067
  0
LINE
  5
8F7
100
AcDbEntity
  8
M0
  6
DASHDOT
100
AcDbLine
 10
373.620053
 20
283.150067
 11
373.620053
 21
313.150067
  0
LINE
  5
8F8
100
AcDbEntity
  8
M0
  6
DASHDOT
100
AcDbLine
 10
188.620053
 20
298.150067
 11
218.620053
 21
298.150067
  0
LINE
  5
8F9
100
AcDbEntity
  8
M0
  6
DASHDOT
100
AcDbLine
 10
203.620053
 20
283.150067
 11
203.620053
 21
313.150067
  0
LINE
  5
8FA
100
AcDbEntity
  8
M0
  6
DASHDOT
100
AcDbLine
 10
358.620053
 20
620.150067
 11
388.620053
 21
620.150067
  0
LINE
  5
8FB
100
AcDbEntity
  8
M0
  6
DASHDOT
100
AcDbLine
 10
373.620053
 20
605.150067
 11
373.620053
 21
635.150067
  0
LINE
  5
8FC
100
AcDbEntity
  8
M0
  6
DASHDOT
100
AcDbLine
 10
188.620053
 20
620.150067
 11
218.620053
 21
620.150067
  0
LINE
  5
8FD
100
AcDbEntity
  8
M0
  6
DASHDOT
100
AcDbLine
 10
203.620053
 20
605.150067
 11
203.620053
 21
635.150067
  0
LINE
  5
8FE
100
AcDbEntity
  8
M1
 62
     2
100
AcDbLine
 10
44.444446
 20
44.444446
 11
44.444446
 21
1266.6667
  0
LINE
  5
8FF
100
AcDbEntity
  8
M1
 62
     2
100
AcDbLine
 10
44.444446
 20
1266.6667
 11
888.888912
 21
1266.6667
  0
LINE
  5
900
100
AcDbEntity
  8
M1
 62
     2
100
AcDbLine
 10
888.888912
 20
1266.6667
 11
888.888912
 21
44.444446
  0
LINE
  5
901
100
AcDbEntity
  8
M1
 62
     2
100
AcDbLine
 10
888.888912
 20
44.444446
 11
44.444446
 21
44.444446
  0
LINE
  5
902
100
AcDbEntity
  8
M1
 62
     2
100
AcDbLine
 10
888.888912
 20
88.888891
 11
444.444456
 21
88.888891
  0
LINE
  5
903
100
AcDbEntity
  8
M1
 62
     2
100
AcDbLine
 10
888.888912
 20
133.333337
 11
444.444456
 21
133.333337
  0
LINE
  5
904
100
AcDbEntity
  8
M1
 62
     2
100
AcDbLine
 10
888.888912
 20
177.777782
 11
444.444456
 21
177.777782
  0
LINE
  5
905
100
AcDbEntity
  8
M1
 62
     2
100
AcDbLine
 10
444.444456
 20
44.444446
 11
444.444456
 21
177.777782
  0
TEXT
  5
906
100
AcDbEntity
  8
M1
 62
     2
100
AcDbText
 10
455.555568
 20
55.555557
 40
22.222223
  1
適　用；
  7
STANDARD
100
AcDbText
  0
TEXT
  5
907
100
AcDbEntity
  8
M1
 62
     2
100
AcDbText
 10
455.555568
 20
144.444448
 40
22.222223
  1
登録名：
  7
STANDARD
100
AcDbText
  0
TEXT
  5
908
100
AcDbEntity
  8
M1
 62
     2
100
AcDbText
 10
562.222237
 20
144.444448
 40
22.222223
  1
ＤＭＨ６００ＣＬＲ００
 41
0.5
  7
STANDARD
100
AcDbText
  0
TEXT
  5
909
100
AcDbEntity
  8
M1
 62
     2
100
AcDbText
 10
455.555568
 20
100.000003
 40
22.222223
  1
形　式；
  7
STANDARD
100
AcDbText
  0
TEXT
  5
90A
100
AcDbEntity
  8
M1
 62
     2
100
AcDbText
 10
562.222237
 20
100.000003
 40
22.222223
  1
Ｈ６００Ｃ－Ｌ，Ｈ６００Ｃ－ＬＧ
 41
0.5
  7
STANDARD
100
AcDbText
  0
LINE
  5
90B
100
AcDbEntity
  8
DN0
100
AcDbLine
 10
252.816783
 20
203.410297
 11
333.972326
 21
203.410297
  0
TEXT
  5
90C
100
AcDbEntity
  8
DN0
100
AcDbText
 10
255.061227
 20
205.410297
 40
20.000001
  1
せん孔図
 41
0.833333
  7
STANDARD
100
AcDbText
  0
ENDSEC
  0
SECTION
  2
OBJECTS
  0
DICTIONARY
  5
C
100
AcDbDictionary
  3
ACAD_GROUP
350
D
  3
ACAD_MLINESTYLE
350
E
  0
DICTIONARY
  5
D
102
{ACAD_REACTORS
330
C
102
}
100
AcDbDictionary
  0
DICTIONARY
  5
E
102
{ACAD_REACTORS
330
C
102
}
100
AcDbDictionary
  3
STANDARD
350
13
  0
MLINESTYLE
  5
13
102
{ACAD_REACTORS
330
E
102
}
100
AcDbMlineStyle
  2
STANDARD
 70
     0
  3

 62
     0
 51
90.0
 52
90.0
 71
     2
 49
0.5
 62
   256
  6
BYLAYER
 49
-0.5
 62
   256
  6
BYLAYER
  0
ENDSEC
  0
EOF
