  0
SECTION
  2
HEADER
  9
$ACADVER
  1
AC1014
  9
$INSBASE
 10
0.000000
 20
0.000000
 30
0.0
  9
$VIEWCTR
 10
7.531722
 20
4.5
  9
$VIEWSIZE
 40
9.0
  9
$SNAPMODE
 70
     0
  9
$SNAPUNIT
 10
1.0
 20
1.0
  9
$SNAPBASE
 10
0.0
 20
0.0
  9
$SNAPANG
 50
0.0
  9
$SNAPSTYLE
 70
     0
  9
$SNAPISOPAIR
 70
     0
  9
$GRIDMODE
 70
     0
  9
$GRIDUNIT
 10
0.0
 20
0.0
  9
$ORTHOMODE
 70
     0
  9
$REGENMODE
 70
     1
  9
$FILLMODE
 70
     1
  9
$QTEXTMODE
 70
     0
  9
$DRAGMODE
 70
     2
  9
$LTSCALE
  40
     1.000000
  9
$OSMODE
 70
     0
  9
$ATTMODE
 70
     1
  9
$TEXTSIZE
 40
0.2
  9
$TRACEWID
 40
0.05
  9
$TEXTSTYLE
  7
STANDARD
  9
$CELTYPE
  6
BYLAYER
  9
$CECOLOR
 62
   256
  9
$DIMSCALE
 40
1.0
  9
$DIMASZ
 40
0.18
  9
$DIMEXO
 40
0.0625
  9
$DIMDLI
 40
0.38
  9
$DIMRND
 40
0.0
  9
$DIMDLE
 40
0.0
  9
$DIMEXE
 40
0.18
  9
$DIMTP
 40
0.0
  9
$DIMTM
 40
0.0
  9
$DIMTXT
 40
0.18
  9
$DIMCEN
 40
0.09
  9
$DIMTSZ
 40
0.0
  9
$DIMTOL
 70
     0
  9
$DIMLIM
 70
     0
  9
$DIMTIH
 70
     1
  9
$DIMTOH
 70
     1
  9
$DIMSE1
 70
     0
  9
$DIMSE2
 70
     0
  9
$DIMTAD
 70
     0
  9
$DIMZIN
 70
     0
  9
$DIMBLK
  1

  9
$LUNITS
 70
     2
  9
$LUPREC
 70
     4
  9
$AXISMODE
 70
     0
  9
$AXISUNIT
 10
0.0
 20
0.0
  9
$SKETCHINC
 40
0.1
  9
$FILLETRAD
 40
0.0
  9
$AUNITS
 70
     0
  9
$AUPREC
 70
     0
  9
$MENU
  1
ACAD
  9
$ELEVATION
 40
0.0
  9
$THICKNESS
 40
0.0
  9
$VIEWDIR
 10
0.0
 20
0.0
 30
1.0
  9
$LIMCHECK
 70
     0
  9
$BLIPMODE
 70
     1
  9
$CHAMFERA
 40
0.0
  9
$CHAMFERB
 40
0.0
  9
$FASTZOOM
 70
     1
  9
$SKPOLY
 70
     0
  9
$TDCREATE
 40
0000000.0000000000
  9
$TDUPDATE
 40
0000000.0000000000
  9
$TDINDWG
 40
0.0000000000
  9
$TDUSRTIMER
 40
0.0000000000
  9
$USRTIMER
 70
     1
  9
$ANGBASE
 50
0.0
  9
$ANGDIR
 70
     0
  9
$PDMODE
 70
     0
  9
$PDSIZE
 40
0.0
  9
$PLINEWID
 40
0.0
  9
$COORDS
 70
     0
  9
$USERI1
 70
     0
  9
$USERI2
 70
     0
  9
$USERI3
 70
     0
  9
$USERI4
 70
     0
  9
$USERI5
 70
     0
  9
$USERR1
 40
0.0
  9
$USERR2
 40
0.0
  9
$USERR3
 40
0.0
  9
$USERR4
 40
0.0
  9
$USERR5
 40
0.0
  9
$CLAYER
  8
M0
  9
$EXTMIN
 10
71.428571
 20
71.428571
  9
$EXTMAX
 10
1428.571422
 20
2035.714277
  9
$LIMMIN
 10
0.0
 20
0.0
  9
$LIMMAX
 10
210.0
 20
297.0
  9
$HANDSEED
  5
657
  0
ENDSEC
  0
SECTION
  2
CLASSES
  0
ENDSEC
  0
SECTION
  2
TABLES
  0
TABLE
  2
VPORT
  5
8
100
AcDbSymbolTable
 70
     2
  0
VPORT
  5
14
100
AcDbSymbolTableRecord
100
AcDbViewportTableRecord
  2
*ACTIVE
 70
     0
 10
0.0
 20
0.0
 11
1.0
 21
1.0
 12
484.0
 22
297.0
 13
0.0
 23
0.0
 14
1.0
 24
1.0
 15
0.0
 25
0.0
 16
0.0
 26
0.0
 36
1.0
 17
0.0
 27
0.0
 37
0.0
 40
594.0
 41
2.0
 42
50.0
 43
0.0
 44
0.0
 50
0.0
 51
0.0
 71
     0
 72
   100
 73
     1
 74
     1
 75
     0
 76
     0
 77
     0
 78
     0
  0
ENDTAB
  0
TABLE
  2
LTYPE
  5
5
100
AcDbSymbolTable
 70
     5
  0
LTYPE
  5
15
100
AcDbSymbolTableRecord
100
AcDbLinetypeTableRecord
  2
BYBLOCK
 70
     0
  3

 72
    65
 73
     0
 40
0.0
  0
LTYPE
  5
16
100
AcDbSymbolTableRecord
100
AcDbLinetypeTableRecord
  2
BYLAYER
 70
     0
  3

 72
    65
 73
     0
 40
0.0
  0
LTYPE
  5
17
100
AcDbSymbolTableRecord
100
AcDbLinetypeTableRecord
  2
CONTINUOUS
 70
    64
  3
Solid line
 72
    65
 73
     0
 40
0.0
  0
LTYPE
  5
18
100
AcDbSymbolTableRecord
100
AcDbLinetypeTableRecord
  2
DASHED
 70
    64
  3
__ __ __ __ __ __ __ __ __ __ __ __ __ __ __ __
 72
    65
 73
     2
 40
0.75
 49
0.5
 74
     0
 49
-0.25
 74
     0
  0
LTYPE
  5
19
100
AcDbSymbolTableRecord
100
AcDbLinetypeTableRecord
  2
DASHDOT
 70
    64
  3
__ . __ . __ . __ . __ . __ . __ . __ . __ . __
 72
    65
 73
     4
 40
1.0
 49
0.5
 74
     0
 49
-0.25
 74
     0
 49
0.0
 74
     0
 49
-0.25
 74
     0
  0
LTYPE
  5
1A
100
AcDbSymbolTableRecord
100
AcDbLinetypeTableRecord
  2
DIVIDE
 70
    64
  3
____ . . ____ . . ____ . . ____ . . ____ . . __
 72
    65
 73
     6
 40
1.25
 49
0.5
 74
     0
 49
-0.25
 74
     0
 49
0.0
 74
     0
 49
-0.25
 74
     0
 49
0.0
 74
     0
 49
-0.25
 74
     0
  0
LTYPE
  5
1B
100
AcDbSymbolTableRecord
100
AcDbLinetypeTableRecord
  2
DOT
 70
    64
  3
. . . . . . . . . . . . . . . . . . . . . . . .
 72
    65
 73
     2
 40
0.25
 49
0.0
 74
     0
 49
-0.25
 74
     0
  0
ENDTAB
  0
TABLE
  2
LAYER
  5
2
100
AcDbSymbolTable
 70
   102
  0
LAYER
  5
F
100
AcDbSymbolTableRecord
100
AcDbLayerTableRecord
  2
0
 70
     0
 62
     7
  6
CONTINUOUS
  0
LAYER
  5
1C
100
AcDbSymbolTableRecord
100
AcDbLayerTableRecord
  2
DEFPOINTS
 70
     0
 62
     7
  6
CONTINUOUS
  0
LAYER
  5
1D
100
AcDbSymbolTableRecord
100
AcDbLayerTableRecord
  2
M0
 70
     0
 62
     3
  6
CONTINUOUS
  0
LAYER
  5
1E
100
AcDbSymbolTableRecord
100
AcDbLayerTableRecord
  2
M1
 70
     0
 62
     3
  6
CONTINUOUS
  0
LAYER
  5
1F
100
AcDbSymbolTableRecord
100
AcDbLayerTableRecord
  2
DD0
 70
     0
 62
     4
  6
CONTINUOUS
  0
LAYER
  5
20
100
AcDbSymbolTableRecord
100
AcDbLayerTableRecord
  2
DN0
 70
     0
 62
     2
  6
CONTINUOUS
  0
ENDTAB
  0
TABLE
  2
STYLE
  5
3
100
AcDbSymbolTable
 70
     2
  0
STYLE
  5
10
100
AcDbSymbolTableRecord
100
AcDbTextStyleTableRecord
  2
STANDARD
 70
     0
 40
0.0
 41
1.0
 50
0.0
 71
     0
 42
0.2
  3
txt
  4
BIGFONT
  0
ENDTAB
  0
TABLE
  2
VIEW
  5
6
100
AcDbSymbolTable
 70
     0
  0
ENDTAB
  0
TABLE
  2
UCS
  5
7
100
AcDbSymbolTable
 70
     0
  0
ENDTAB
  0
TABLE
  2
APPID
  5
9
100
AcDbSymbolTable
 70
     1
  0
APPID
  5
11
100
AcDbSymbolTableRecord
100
AcDbRegAppTableRecord
  2
ACAD
 70
     0
  0
ENDTAB
  0
TABLE
  2
DIMSTYLE
  5
A
100
AcDbSymbolTable
 70
     2
  0
DIMSTYLE
105
27
100
AcDbSymbolTableRecord
100
AcDbDimStyleTableRecord
  2
STANDARD
 70
     0
  3

  4

  5

  6
_OPEN
  7
_OPEN
 40
1.0
 41
21.428571
 42
1.0
 43
8.0
 44
1.0
 45
0.0
 46
0.0
 47
0.0
 48
0.0
140
22.500001
141
0.09
142
0.0
143
0.03937
144
1.0
145
0.0
146
1.0
147
0.6
 71
     0
 72
     0
 73
     1
 74
     1
 75
     0
 76
     0
 77
     3
 78
     8
170
     0
171
     2
172
     0
173
     1
174
     0
175
     0
176
     0
177
     0
178
     0
270
     2
271
     2
272
     4
273
     2
274
     2
340
10
275
     0
280
     0
281
     0
282
     0
283
     1
284
     0
285
     0
286
     0
287
     3
288
     0
  0
DIMSTYLE
105
28
100
AcDbSymbolTableRecord
100
AcDbDimStyleTableRecord
  2
LEADSTYL
 70
     0
  3

  4

  5

  6
_OPEN
  7
_OPEN
 40
1.0
 41
21.428571
 42
0.0625
 43
0.38
 44
0.18
 45
0.0
 46
0.0
 47
0.0
 48
0.0
140
22.500001
141
0.09
142
0.0
143
25.4
144
1.0
145
0.0
146
1.0
147
0.6
 71
     0
 72
     0
 73
     1
 74
     1
 75
     0
 76
     0
 77
     0
 78
     0
170
     0
171
     2
172
     0
173
     1
174
     0
175
     0
176
     0
177
     0
178
     0
270
     2
271
     4
272
     4
273
     2
274
     2
340
10
275
     0
280
     0
281
     0
282
     0
283
     1
284
     0
285
     0
286
     0
287
     3
288
     0
  0
ENDTAB
  0
TABLE
  2
BLOCK_RECORD
  5
1
100
AcDbSymbolTable
 70
    14
  0
BLOCK_RECORD
  5
21
100
AcDbSymbolTableRecord
100
AcDbBlockTableRecord
  2
*MODEL_SPACE
  0
BLOCK_RECORD
  5
24
100
AcDbSymbolTableRecord
100
AcDbBlockTableRecord
  2
*PAPER_SPACE
  0
BLOCK_RECORD
  5
29
100
AcDbSymbolTableRecord
100
AcDbBlockTableRecord
  2
_NONE
  0
BLOCK_RECORD
  5
2D
100
AcDbSymbolTableRecord
100
AcDbBlockTableRecord
  2
_OPEN
  0
BLOCK_RECORD
  5
33
100
AcDbSymbolTableRecord
100
AcDbBlockTableRecord
  2
_CLOSED
  0
BLOCK_RECORD
  5
3A
100
AcDbSymbolTableRecord
100
AcDbBlockTableRecord
  2
_ORIGIN
  0
BLOCK_RECORD
  5
3F
100
AcDbSymbolTableRecord
100
AcDbBlockTableRecord
  2
_DOT
  0
BLOCK_RECORD
  5
47
100
AcDbSymbolTableRecord
100
AcDbBlockTableRecord
  2
_OBLIQUE
  0
BLOCK_RECORD
  5
4B
100
AcDbSymbolTableRecord
100
AcDbBlockTableRecord
  2
DIMS0
  0
BLOCK_RECORD
  5
57
100
AcDbSymbolTableRecord
100
AcDbBlockTableRecord
  2
DIMS1
  0
BLOCK_RECORD
  5
63
100
AcDbSymbolTableRecord
100
AcDbBlockTableRecord
  2
DIMS2
  0
BLOCK_RECORD
  5
6F
100
AcDbSymbolTableRecord
100
AcDbBlockTableRecord
  2
DIMS3
  0
BLOCK_RECORD
  5
7B
100
AcDbSymbolTableRecord
100
AcDbBlockTableRecord
  2
DIMS4
  0
BLOCK_RECORD
  5
87
100
AcDbSymbolTableRecord
100
AcDbBlockTableRecord
  2
DIMS5
  0
BLOCK_RECORD
  5
90
100
AcDbSymbolTableRecord
100
AcDbBlockTableRecord
  2
DIMS6
  0
BLOCK_RECORD
  5
9C
100
AcDbSymbolTableRecord
100
AcDbBlockTableRecord
  2
DIMS7
  0
ENDTAB
  0
ENDSEC
  0
SECTION
  2
BLOCKS
  0
BLOCK
  5
22
100
AcDbEntity
  8
0
100
AcDbBlockBegin
  2
*MODEL_SPACE
 70
     0
 10
0.0
 20
0.0
 30
0.0
  3
*MODEL_SPACE
  1

  0
ENDBLK
  5
23
100
AcDbEntity
  8
0
100
AcDbBlockEnd
  0
BLOCK
  5
25
100
AcDbEntity
 67
     1
  8
0
100
AcDbBlockBegin
  2
*PAPER_SPACE
 70
     0
 10
0.0
 20
0.0
 30
0.0
  3
*PAPER_SPACE
  1

  0
ENDBLK
  5
26
100
AcDbEntity
 67
     1
  8
0
100
AcDbBlockEnd
  0
BLOCK
  5
2A
100
AcDbEntity
  8
0
100
AcDbBlockBegin
  2
_NONE
 70
     0
 10
0.0
 20
0.0
  0
CIRCLE
  5
2B
100
AcDbEntity
  8
0
 62
     0
100
AcDbCircle
 10
0.0
 20
0.0
 40
0.25
  0
ENDBLK
  5
2C
100
AcDbEntity
  8
0
100
AcDbBlockEnd
  0
BLOCK
  5
2E
100
AcDbEntity
  8
0
100
AcDbBlockBegin
  2
_OPEN
 70
     0
 10
0.0
 20
0.0
  0
LINE
  5
2F
100
AcDbEntity
  8
0
 62
     0
100
AcDbLine
 10
-0.965926
 20
0.258819
 11
0.0
 21
0.0
  0
LINE
  5
30
100
AcDbEntity
  8
0
 62
     0
100
AcDbLine
 10
0.0
 20
0.0
 11
-0.965926
 21
-0.258819
  0
LINE
  5
31
100
AcDbEntity
  8
0
 62
     0
100
AcDbLine
 10
0.0
 20
0.0
 11
-1.0
 21
0.0
  0
ENDBLK
  5
32
100
AcDbEntity
  8
0
100
AcDbBlockEnd
  0
BLOCK
  5
34
100
AcDbEntity
  8
0
100
AcDbBlockBegin
  2
_CLOSED
 70
     0
 10
0.0
 20
0.0
  0
LINE
  5
35
100
AcDbEntity
  8
0
 62
     0
100
AcDbLine
 10
-0.965926
 20
0.258819
 11
0.0
 21
0.0
  0
LINE
  5
36
100
AcDbEntity
  8
0
 62
     0
100
AcDbLine
 10
0.0
 20
0.0
 11
-0.965926
 21
-0.258819
  0
LINE
  5
37
100
AcDbEntity
  8
0
 62
     0
100
AcDbLine
 10
-0.965926
 20
0.258819
 11
-0.965926
 21
-0.258819
  0
LINE
  5
38
100
AcDbEntity
  8
0
 62
     0
100
AcDbLine
 10
0.0
 20
0.0
 11
-1.0
 21
0.0
  0
ENDBLK
  5
39
100
AcDbEntity
  8
0
100
AcDbBlockEnd
  0
BLOCK
  5
3B
100
AcDbEntity
  8
0
100
AcDbBlockBegin
  2
_ORIGIN
 70
     0
 10
0.0
 20
0.0
  0
CIRCLE
  5
3C
100
AcDbEntity
  8
0
 62
     0
100
AcDbCircle
 10
0.0
 20
0.0
 40
0.5
  0
LINE
  5
3D
100
AcDbEntity
  8
0
 62
     0
100
AcDbLine
 10
0.0
 20
0.0
 11
-1.0
 21
0.0
  0
ENDBLK
  5
3E
100
AcDbEntity
  8
0
100
AcDbBlockEnd
  0
BLOCK
  5
40
100
AcDbEntity
  8
0
100
AcDbBlockBegin
  2
_DOT
 70
     0
 10
0.0
 20
0.0
  0
POLYLINE
  5
41
100
AcDbEntity
  8
0
 62
     0
100
AcDb2dPolyline
 66
     1
 70
     1
 40
0.5
 41
0.5
  0
VERTEX
  5
42
100
AcDbEntity
  8
0
 62
     0
100
AcDbVertex
100
AcDb2dVertex
 10
-0.25
 20
0.0
 42
1.0
  0
VERTEX
  5
43
100
AcDbEntity
  8
0
 62
     0
100
AcDbVertex
100
AcDb2dVertex
 10
0.25
 20
0.0
 42
1.0
  0
SEQEND
  5
44
100
AcDbEntity
  8
0
 62
     0
  0
LINE
  5
45
100
AcDbEntity
  8
0
 62
     0
100
AcDbLine
 10
-0.5
 20
0.0
 11
-1.0
 21
0.0
  0
ENDBLK
  5
46
100
AcDbEntity
  8
0
100
AcDbBlockEnd
  0
BLOCK
  5
48
100
AcDbEntity
  8
0
100
AcDbBlockBegin
  2
_OBLIQUE
 70
     0
 10
0.0
 20
0.0
  0
LINE
  5
49
100
AcDbEntity
  8
0
 62
     0
100
AcDbLine
 10
-0.353553
 20
-0.353553
 11
0.353553
 21
0.353553
  0
ENDBLK
  5
4A
100
AcDbEntity
  8
0
100
AcDbBlockEnd
  0
BLOCK
  5
4C
100
AcDbEntity
  8
DD0
100
AcDbBlockBegin
  2
DIMS0
 70
     0
 10
0.0
 20
0.0
  0
LINE
  5
4D
100
AcDbEntity
  8
DD0
100
AcDbLine
 10
748.511665
 20
1769.653313
 11
888.924895
 21
1769.653313
  0
LINE
  5
4E
100
AcDbEntity
  8
DD0
100
AcDbLine
 10
748.51172
 20
1453.653384
 11
888.924895
 21
1453.653384
  0
LINE
  5
4F
100
AcDbEntity
  8
DD0
100
AcDbLine
 10
887.32816
 20
1748.954902
 11
881.782038
 21
1769.653313
  0
LINE
  5
50
100
AcDbEntity
  8
DD0
100
AcDbLine
 10
881.782038
 20
1769.653313
 11
876.235915
 21
1748.954902
  0
LINE
  5
51
100
AcDbEntity
  8
DD0
100
AcDbLine
 10
876.235915
 20
1474.351794
 11
881.782038
 21
1453.653384
  0
LINE
  5
52
100
AcDbEntity
  8
DD0
100
AcDbLine
 10
881.782038
 20
1453.653384
 11
887.32816
 21
1474.351794
  0
LINE
  5
53
100
AcDbEntity
  8
DD0
100
AcDbLine
 10
881.782038
 20
1769.653313
 11
881.782038
 21
1453.653384
  0
TEXT
  5
54
100
AcDbEntity
  8
DD0
100
AcDbText
 10
877.496334
 20
1579.742599
 40
22.500001
  1
３１６
 50
90.000003
 41
0.833333
  7
STANDARD
100
AcDbText
  0
ENDBLK
  5
55
100
AcDbEntity
  8
DD0
100
AcDbBlockEnd
  0
BLOCK
  5
58
100
AcDbEntity
  8
DD0
100
AcDbBlockBegin
  2
DIMS1
 70
     0
 10
0.0
 20
0.0
  0
LINE
  5
59
100
AcDbEntity
  8
DD0
100
AcDbLine
 10
227.420751
 20
1737.796231
 11
227.420751
 21
1857.15462
  0
LINE
  5
5A
100
AcDbEntity
  8
DD0
100
AcDbLine
 10
805.318992
 20
1737.796231
 11
805.318992
 21
1857.15462
  0
LINE
  5
5B
100
AcDbEntity
  8
DD0
100
AcDbLine
 10
248.119162
 20
1855.557886
 11
227.420751
 21
1850.011763
  0
LINE
  5
5C
100
AcDbEntity
  8
DD0
100
AcDbLine
 10
227.420751
 20
1850.011763
 11
248.119162
 21
1844.465641
  0
LINE
  5
5D
100
AcDbEntity
  8
DD0
100
AcDbLine
 10
784.620582
 20
1844.465641
 11
805.318992
 21
1850.011763
  0
LINE
  5
5E
100
AcDbEntity
  8
DD0
100
AcDbLine
 10
805.318992
 20
1850.011763
 11
784.620582
 21
1855.557886
  0
LINE
  5
5F
100
AcDbEntity
  8
DD0
100
AcDbLine
 10
227.420751
 20
1850.011763
 11
805.318992
 21
1850.011763
  0
TEXT
  5
60
100
AcDbEntity
  8
DD0
100
AcDbText
 10
484.45915
 20
1854.297521
 40
22.500001
  1
５７８
 41
0.833333
  7
STANDARD
100
AcDbText
  0
ENDBLK
  5
61
100
AcDbEntity
  8
DD0
100
AcDbBlockEnd
  0
BLOCK
  5
64
100
AcDbEntity
  8
DD0
100
AcDbBlockBegin
  2
DIMS2
 70
     0
 10
0.0
 20
0.0
  0
LINE
  5
65
100
AcDbEntity
  8
DD0
100
AcDbLine
 10
788.513671
 20
1147.942674
 11
888.924895
 21
1147.942674
  0
LINE
  5
66
100
AcDbEntity
  8
DD0
100
AcDbLine
 10
777.013666
 20
1130.942967
 11
888.924895
 21
1130.942967
  0
LINE
  5
67
100
AcDbEntity
  8
DD0
100
AcDbLine
 10
876.235915
 20
1168.641085
 11
881.782038
 21
1147.942674
  0
LINE
  5
68
100
AcDbEntity
  8
DD0
100
AcDbLine
 10
881.782038
 20
1147.942674
 11
887.32816
 21
1168.641085
  0
LINE
  5
69
100
AcDbEntity
  8
DD0
100
AcDbLine
 10
887.32816
 20
1110.244556
 11
881.782038
 21
1130.942967
  0
LINE
  5
6A
100
AcDbEntity
  8
DD0
100
AcDbLine
 10
881.782038
 20
1130.942967
 11
876.235915
 21
1110.244556
  0
LINE
  5
6B
100
AcDbEntity
  8
DD0
100
AcDbLine
 10
881.782038
 20
1223.656962
 11
881.782038
 21
1107.371538
  0
TEXT
  5
6C
100
AcDbEntity
  8
DD0
100
AcDbText
 10
877.496334
 20
1173.353419
 40
22.500001
  1
１７
 50
90.000003
 41
0.833333
  7
STANDARD
100
AcDbText
  0
ENDBLK
  5
6D
100
AcDbEntity
  8
DD0
100
AcDbBlockEnd
  0
BLOCK
  5
70
100
AcDbEntity
  8
DD0
100
AcDbBlockBegin
  2
DIMS3
 70
     0
 10
0.0
 20
0.0
  0
LINE
  5
71
100
AcDbEntity
  8
DD0
 60
     1
100
AcDbLine
 10
777.013666
 20
1130.942967
 11
888.924895
 21
1130.942967
  0
LINE
  5
72
100
AcDbEntity
  8
DD0
100
AcDbLine
 10
777.013666
 20
852.943035
 11
888.924895
 21
852.943035
  0
LINE
  5
73
100
AcDbEntity
  8
DD0
100
AcDbLine
 10
887.32816
 20
1110.244556
 11
881.782038
 21
1130.942967
  0
LINE
  5
74
100
AcDbEntity
  8
DD0
100
AcDbLine
 10
881.782038
 20
1130.942967
 11
876.235915
 21
1110.244556
  0
LINE
  5
75
100
AcDbEntity
  8
DD0
100
AcDbLine
 10
876.235915
 20
873.641446
 11
881.782038
 21
852.943035
  0
LINE
  5
76
100
AcDbEntity
  8
DD0
100
AcDbLine
 10
881.782038
 20
852.943035
 11
887.32816
 21
873.641446
  0
LINE
  5
77
100
AcDbEntity
  8
DD0
100
AcDbLine
 10
881.782038
 20
1130.942967
 11
881.782038
 21
852.943035
  0
TEXT
  5
78
100
AcDbEntity
  8
DD0
100
AcDbText
 10
877.496334
 20
960.032279
 40
22.500001
  1
２７８
 50
90.000003
 41
0.833333
  7
STANDARD
100
AcDbText
  0
ENDBLK
  5
79
100
AcDbEntity
  8
DD0
100
AcDbBlockEnd
  0
BLOCK
  5
7C
100
AcDbEntity
  8
DD0
100
AcDbBlockBegin
  2
DIMS4
 70
     0
 10
0.0
 20
0.0
  0
LINE
  5
7D
100
AcDbEntity
  8
DD0
100
AcDbLine
 10
276.370892
 20
1151.587236
 11
276.370892
 21
1208.522465
  0
LINE
  5
7E
100
AcDbEntity
  8
DD0
100
AcDbLine
 10
756.370814
 20
1151.585819
 11
756.370814
 21
1208.522465
  0
LINE
  5
7F
100
AcDbEntity
  8
DD0
100
AcDbLine
 10
297.069302
 20
1206.92573
 11
276.370892
 21
1201.379607
  0
LINE
  5
80
100
AcDbEntity
  8
DD0
100
AcDbLine
 10
276.370892
 20
1201.379607
 11
297.069302
 21
1195.833485
  0
LINE
  5
81
100
AcDbEntity
  8
DD0
100
AcDbLine
 10
735.672403
 20
1195.833485
 11
756.370814
 21
1201.379607
  0
LINE
  5
82
100
AcDbEntity
  8
DD0
100
AcDbLine
 10
756.370814
 20
1201.379607
 11
735.672403
 21
1206.92573
  0
LINE
  5
83
100
AcDbEntity
  8
DD0
100
AcDbLine
 10
276.370892
 20
1201.379607
 11
756.370814
 21
1201.379607
  0
TEXT
  5
84
100
AcDbEntity
  8
DD0
100
AcDbText
 10
484.460131
 20
1205.665365
 40
22.500001
  1
４８０
 41
0.833333
  7
STANDARD
100
AcDbText
  0
ENDBLK
  5
85
100
AcDbEntity
  8
DD0
100
AcDbBlockEnd
  0
BLOCK
  5
88
100
AcDbEntity
  8
DD0
100
AcDbBlockBegin
  2
DIMS5
 70
     0
 10
0.0
 20
0.0
  0
TEXT
  5
89
100
AcDbEntity
  8
DD0
100
AcDbText
 10
522.988682
 20
754.172785
 40
22.500001
  1
４－Ｍ１０ねじ穴
 41
0.833333
  7
STANDARD
100
AcDbText
  0
LINE
  5
8A
100
AcDbEntity
  8
DD0
100
AcDbLine
 10
747.606757
 20
826.795571
 11
750.734762
 21
847.99461
  0
LINE
  5
8B
100
AcDbEntity
  8
DD0
100
AcDbLine
 10
750.734762
 20
847.99461
 11
737.426311
 21
831.199706
  0
LINE
  5
8C
100
AcDbEntity
  8
DD0
100
AcDbLine
 10
750.734762
 20
847.99461
 11
708.292331
 21
749.886155
  0
LINE
  5
8D
100
AcDbEntity
  8
DD0
100
AcDbLine
 10
708.292331
 20
749.88621
 11
514.006858
 21
749.88621
  0
ENDBLK
  5
8E
100
AcDbEntity
  8
DD0
100
AcDbBlockEnd
  0
BLOCK
  5
91
100
AcDbEntity
  8
DD0
100
AcDbBlockBegin
  2
DIMS6
 70
     0
 10
0.0
 20
0.0
  0
LINE
  5
92
100
AcDbEntity
  8
DD0
100
AcDbLine
 10
1281.089123
 20
1770.295708
 11
1281.089123
 21
1810.76594
  0
LINE
  5
93
100
AcDbEntity
  8
DD0
100
AcDbLine
 10
1258.889111
 20
1770.595652
 11
1258.889111
 21
1810.76594
  0
LINE
  5
94
100
AcDbEntity
  8
DD0
100
AcDbLine
 10
1301.787534
 20
1809.169205
 11
1281.089123
 21
1803.623083
  0
LINE
  5
95
100
AcDbEntity
  8
DD0
100
AcDbLine
 10
1281.089123
 20
1803.623083
 11
1301.787534
 21
1798.07696
  0
LINE
  5
96
100
AcDbEntity
  8
DD0
100
AcDbLine
 10
1238.190701
 20
1798.07696
 11
1258.889111
 21
1803.623083
  0
LINE
  5
97
100
AcDbEntity
  8
DD0
100
AcDbLine
 10
1258.889111
 20
1803.623083
 11
1238.190701
 21
1809.169205
  0
LINE
  5
98
100
AcDbEntity
  8
DD0
100
AcDbLine
 10
1356.803411
 20
1803.623083
 11
1235.317683
 21
1803.623083
  0
TEXT
  5
99
100
AcDbEntity
  8
DD0
100
AcDbText
 10
1306.499868
 20
1807.908841
 40
22.500001
  1
２５
 41
0.833333
  7
STANDARD
100
AcDbText
  0
ENDBLK
  5
9A
100
AcDbEntity
  8
DD0
100
AcDbBlockEnd
  0
BLOCK
  5
9D
100
AcDbEntity
  8
DD0
100
AcDbBlockBegin
  2
DIMS7
 70
     0
 10
0.0
 20
0.0
  0
LINE
  5
9E
100
AcDbEntity
  8
DD0
100
AcDbLine
 10
1281.089123
 20
1770.295708
 11
1281.089123
 21
1857.15462
  0
LINE
  5
9F
100
AcDbEntity
  8
DD0
100
AcDbLine
 10
1026.489035
 20
1710.796131
 11
1026.489035
 21
1857.15462
  0
LINE
  5
A0
100
AcDbEntity
  8
DD0
100
AcDbLine
 10
1260.390713
 20
1844.465641
 11
1281.089123
 21
1850.011763
  0
LINE
  5
A1
100
AcDbEntity
  8
DD0
100
AcDbLine
 10
1281.089123
 20
1850.011763
 11
1260.390713
 21
1855.557886
  0
LINE
  5
A2
100
AcDbEntity
  8
DD0
100
AcDbLine
 10
1047.187446
 20
1855.557886
 11
1026.489035
 21
1850.011763
  0
LINE
  5
A3
100
AcDbEntity
  8
DD0
100
AcDbLine
 10
1026.489035
 20
1850.011763
 11
1047.187446
 21
1844.465641
  0
LINE
  5
A4
100
AcDbEntity
  8
DD0
100
AcDbLine
 10
1281.089123
 20
1850.011763
 11
1026.489035
 21
1850.011763
  0
TEXT
  5
A5
100
AcDbEntity
  8
DD0
100
AcDbText
 10
1121.87833
 20
1854.297521
 40
22.500001
  1
２５８
 41
0.833333
  7
STANDARD
100
AcDbText
  0
ENDBLK
  5
A6
100
AcDbEntity
  8
DD0
100
AcDbBlockEnd
  0
ENDSEC
  0
SECTION
  2
ENTITIES
  0
INSERT
  5
56
100
AcDbEntity
  8
DD0
100
AcDbBlockReference
  2
DIMS0
 10
0.0
 20
0.0
  0
INSERT
  5
62
100
AcDbEntity
  8
DD0
100
AcDbBlockReference
  2
DIMS1
 10
0.0
 20
0.0
  0
INSERT
  5
6E
100
AcDbEntity
  8
DD0
100
AcDbBlockReference
  2
DIMS2
 10
0.0
 20
0.0
  0
INSERT
  5
7A
100
AcDbEntity
  8
DD0
100
AcDbBlockReference
  2
DIMS3
 10
0.0
 20
0.0
  0
INSERT
  5
86
100
AcDbEntity
  8
DD0
100
AcDbBlockReference
  2
DIMS4
 10
0.0
 20
0.0
  0
INSERT
  5
8F
100
AcDbEntity
  8
DD0
100
AcDbBlockReference
  2
DIMS5
 10
0.0
 20
0.0
  0
INSERT
  5
9B
100
AcDbEntity
  8
DD0
100
AcDbBlockReference
  2
DIMS6
 10
0.0
 20
0.0
  0
INSERT
  5
A7
100
AcDbEntity
  8
DD0
100
AcDbBlockReference
  2
DIMS7
 10
0.0
 20
0.0
  0
LINE
  5
A8
100
AcDbEntity
  8
M0
  6
DASHDOT
100
AcDbLine
 10
276.36986
 20
1740.902819
 11
276.36986
 21
1760.402819
  0
LINE
  5
A9
100
AcDbEntity
  8
M0
  6
DASHDOT
100
AcDbLine
 10
266.61986
 20
1750.652819
 11
286.11986
 21
1750.652819
  0
CIRCLE
  5
AA
100
AcDbEntity
  8
M0
100
AcDbCircle
 10
276.36986
 20
1750.652819
 40
5.75
  0
LINE
  5
AB
100
AcDbEntity
  8
M0
  6
DASHDOT
100
AcDbLine
 10
756.369616
 20
1740.902819
 11
756.369616
 21
1760.402819
  0
LINE
  5
AC
100
AcDbEntity
  8
M0
  6
DASHDOT
100
AcDbLine
 10
746.619616
 20
1750.652819
 11
766.11986
 21
1750.652819
  0
CIRCLE
  5
AD
100
AcDbEntity
  8
M0
100
AcDbCircle
 10
756.369616
 20
1750.652819
 40
5.75
  0
LINE
  5
AE
100
AcDbEntity
  8
M0
100
AcDbLine
 10
251.36986
 20
1767.652819
 11
251.36986
 21
1707.652819
  0
LINE
  5
AF
100
AcDbEntity
  8
M0
100
AcDbLine
 10
781.36986
 20
1767.652819
 11
741.368639
 21
1767.652819
  0
LINE
  5
B0
100
AcDbEntity
  8
M0
100
AcDbLine
 10
781.36986
 20
1707.652819
 11
781.36986
 21
1767.652819
  0
LINE
  5
B1
100
AcDbEntity
  8
M0
100
AcDbLine
 10
516.36986
 20
1767.652819
 11
471.370852
 21
1767.652819
  0
LINE
  5
B2
100
AcDbEntity
  8
M0
100
AcDbLine
 10
291.370852
 20
1767.652819
 11
251.36986
 21
1767.652819
  0
LINE
  5
B3
100
AcDbEntity
  8
M0
100
AcDbLine
 10
361.370852
 20
1767.652819
 11
331.370852
 21
1767.652819
  0
LINE
  5
B4
100
AcDbEntity
  8
M0
100
AcDbLine
 10
431.370852
 20
1767.652819
 11
401.370852
 21
1767.652819
  0
LINE
  5
B5
100
AcDbEntity
  8
M0
100
AcDbLine
 10
561.368639
 20
1767.652819
 11
516.36986
 21
1767.652819
  0
LINE
  5
B6
100
AcDbEntity
  8
M0
100
AcDbLine
 10
631.368639
 20
1767.652819
 11
601.368639
 21
1767.652819
  0
LINE
  5
B7
100
AcDbEntity
  8
M0
100
AcDbLine
 10
701.368639
 20
1767.652819
 11
671.368639
 21
1767.652819
  0
LINE
  5
B8
100
AcDbEntity
  8
M0
  6
DASHDOT
100
AcDbLine
 10
276.369881
 20
1482.403079
 11
276.369893
 21
1462.903079
  0
LINE
  5
B9
100
AcDbEntity
  8
M0
  6
DASHDOT
100
AcDbLine
 10
266.619887
 20
1472.653073
 11
286.119887
 21
1472.653085
  0
CIRCLE
  5
BA
100
AcDbEntity
  8
M0
100
AcDbCircle
 10
276.369887
 20
1472.653079
 40
5.75
  0
LINE
  5
BB
100
AcDbEntity
  8
M0
  6
DASHDOT
100
AcDbLine
 10
756.369637
 20
1482.40338
 11
756.369649
 21
1462.90338
  0
LINE
  5
BC
100
AcDbEntity
  8
M0
  6
DASHDOT
100
AcDbLine
 10
746.619643
 20
1472.653374
 11
766.119887
 21
1472.653386
  0
CIRCLE
  5
BD
100
AcDbEntity
  8
M0
100
AcDbCircle
 10
756.369643
 20
1472.65338
 40
5.75
  0
LINE
  5
BE
100
AcDbEntity
  8
M0
  6
DASHDOT
100
AcDbLine
 10
516.369854
 20
1525.65323
 11
516.369904
 21
1445.65323
  0
LINE
  5
BF
100
AcDbEntity
  8
M0
100
AcDbLine
 10
251.369898
 20
1455.653063
 11
251.36986
 21
1515.653063
  0
LINE
  5
C0
100
AcDbEntity
  8
M0
100
AcDbLine
 10
781.369898
 20
1455.653396
 11
741.369653
 21
1455.653371
  0
LINE
  5
C1
100
AcDbEntity
  8
M0
100
AcDbLine
 10
781.36986
 20
1515.653396
 11
781.369898
 21
1455.653396
  0
LINE
  5
C2
100
AcDbEntity
  8
M0
100
AcDbLine
 10
696.371362
 20
1455.653343
 11
693.369653
 21
1455.653341
  0
LINE
  5
C3
100
AcDbEntity
  8
M0
100
AcDbLine
 10
701.368921
 20
1455.653346
 11
671.368921
 21
1455.653327
  0
LINE
  5
C4
100
AcDbEntity
  8
M0
100
AcDbLine
 10
631.368921
 20
1455.653302
 11
601.368921
 21
1455.653283
  0
LINE
  5
C5
100
AcDbEntity
  8
M0
100
AcDbLine
 10
619.369653
 20
1455.653294
 11
606.368433
 21
1455.653286
  0
LINE
  5
C6
100
AcDbEntity
  8
M0
100
AcDbLine
 10
561.367944
 20
1455.653258
 11
471.369836
 21
1455.653201
  0
LINE
  5
C7
100
AcDbEntity
  8
M0
100
AcDbLine
 10
426.371469
 20
1455.653173
 11
423.369867
 21
1455.653171
  0
LINE
  5
C8
100
AcDbEntity
  8
M0
100
AcDbLine
 10
431.370767
 20
1455.653176
 11
401.370767
 21
1455.653157
  0
LINE
  5
C9
100
AcDbEntity
  8
M0
100
AcDbLine
 10
358.868814
 20
1455.653131
 11
349.369882
 21
1455.653125
  0
LINE
  5
CA
100
AcDbEntity
  8
M0
100
AcDbLine
 10
361.370767
 20
1455.653132
 11
331.370767
 21
1455.653114
  0
LINE
  5
CB
100
AcDbEntity
  8
M0
100
AcDbLine
 10
291.36796
 20
1455.653088
 11
251.369898
 21
1455.653063
  0
LINE
  5
CC
100
AcDbEntity
  8
M0
100
AcDbLine
 10
1262.089113
 20
1712.152807
 11
1281.089113
 21
1712.152807
  0
LINE
  5
CD
100
AcDbEntity
  8
M0
100
AcDbLine
 10
1262.089113
 20
1763.152804
 11
1281.089113
 21
1763.152804
  0
LINE
  5
CE
100
AcDbEntity
  8
M0
100
AcDbLine
 10
1281.089113
 20
1763.152804
 11
1281.089113
 21
1712.152807
  0
LINE
  5
CF
100
AcDbEntity
  8
M0
100
AcDbLine
 10
1278.889098
 20
1767.652819
 11
1278.889098
 21
1764.452807
  0
LINE
  5
D0
100
AcDbEntity
  8
M0
100
AcDbLine
 10
1278.889098
 20
1710.852819
 11
1278.889098
 21
1707.652819
  0
LINE
  5
D1
100
AcDbEntity
  8
M0
100
AcDbLine
 10
1278.889098
 20
1710.852819
 11
1278.889098
 21
1707.652819
  0
LINE
  5
D2
100
AcDbEntity
  8
M0
100
AcDbLine
 10
1278.889098
 20
1767.652819
 11
1278.889098
 21
1764.452807
  0
LINE
  5
D3
100
AcDbEntity
  8
M0
100
AcDbLine
 10
1263.089113
 20
1707.652819
 11
1278.889098
 21
1707.652819
  0
LINE
  5
D4
100
AcDbEntity
  8
M0
100
AcDbLine
 10
1278.889098
 20
1767.652819
 11
1263.089113
 21
1767.652819
  0
ARC
  5
D5
100
AcDbEntity
  8
M0
100
AcDbCircle
 10
1263.089113
 20
1711.852819
 40
4.2
100
AcDbArc
 50
179.999974
 51
270.0
  0
LINE
  5
D6
100
AcDbEntity
  8
M0
100
AcDbLine
 10
1258.889116
 20
1763.452807
 11
1258.889116
 21
1515.652819
  0
ARC
  5
D7
100
AcDbEntity
  8
M0
100
AcDbCircle
 10
1263.089113
 20
1763.452807
 40
4.2
100
AcDbArc
 50
89.999792
 51
180.0
  0
ARC
  5
D8
100
AcDbEntity
  8
M0
100
AcDbCircle
 10
1263.089113
 20
1711.852819
 40
1.0
100
AcDbArc
 50
180.0
 51
270.0
  0
LINE
  5
D9
100
AcDbEntity
  8
M0
100
AcDbLine
 10
1263.089113
 20
1710.852819
 11
1278.889098
 21
1710.852819
  0
LINE
  5
DA
100
AcDbEntity
  8
M0
100
AcDbLine
 10
1262.089113
 20
1763.452807
 11
1262.089113
 21
1711.852819
  0
ARC
  5
DB
100
AcDbEntity
  8
M0
100
AcDbCircle
 10
1263.089113
 20
1763.452807
 40
1.0
100
AcDbArc
 50
89.999126
 51
180.0
  0
LINE
  5
DC
100
AcDbEntity
  8
M0
100
AcDbLine
 10
1263.089113
 20
1764.452807
 11
1278.889098
 21
1764.452807
  0
LINE
  5
DD
100
AcDbEntity
  8
M0
100
AcDbLine
 10
1262.089116
 20
1511.15282
 11
1281.089116
 21
1511.152832
  0
LINE
  5
DE
100
AcDbEntity
  8
M0
100
AcDbLine
 10
1262.089148
 20
1460.152822
 11
1281.089148
 21
1460.152834
  0
LINE
  5
DF
100
AcDbEntity
  8
M0
100
AcDbLine
 10
1281.089148
 20
1460.152834
 11
1281.089116
 21
1511.152832
  0
LINE
  5
E0
100
AcDbEntity
  8
M0
100
AcDbLine
 10
1278.889136
 20
1455.652818
 11
1278.889134
 21
1458.85283
  0
LINE
  5
E1
100
AcDbEntity
  8
M0
100
AcDbLine
 10
1278.8891
 20
1512.452818
 11
1278.889098
 21
1515.652818
  0
LINE
  5
E2
100
AcDbEntity
  8
M0
100
AcDbLine
 10
1278.8891
 20
1512.452818
 11
1278.889098
 21
1515.652818
  0
LINE
  5
E3
100
AcDbEntity
  8
M0
100
AcDbLine
 10
1278.889136
 20
1455.652818
 11
1278.889134
 21
1458.85283
  0
LINE
  5
E4
100
AcDbEntity
  8
M0
100
AcDbLine
 10
1263.089113
 20
1515.652808
 11
1278.889098
 21
1515.652818
  0
LINE
  5
E5
100
AcDbEntity
  8
M0
100
AcDbLine
 10
1278.889136
 20
1455.652818
 11
1263.089151
 21
1455.652808
  0
ARC
  5
E6
100
AcDbEntity
  8
M0
100
AcDbCircle
 10
1263.089116
 20
1511.452808
 40
4.2
100
AcDbArc
 50
89.999828
 51
180.000036
  0
LINE
  5
E7
100
AcDbEntity
  8
M0
100
AcDbLine
 10
1258.889151
 20
1459.852817
 11
1258.889119
 21
1511.452805
  0
ARC
  5
E8
100
AcDbEntity
  8
M0
100
AcDbCircle
 10
1263.089148
 20
1459.85282
 40
4.2
100
AcDbArc
 50
180.000036
 51
270.0
  0
ARC
  5
E9
100
AcDbEntity
  8
M0
100
AcDbCircle
 10
1263.089116
 20
1511.452808
 40
1.0
100
AcDbArc
 50
89.999162
 51
180.000036
  0
LINE
  5
EA
100
AcDbEntity
  8
M0
100
AcDbLine
 10
1263.089115
 20
1512.452808
 11
1278.8891
 21
1512.452818
  0
LINE
  5
EB
100
AcDbEntity
  8
M0
100
AcDbLine
 10
1262.089148
 20
1459.852819
 11
1262.089116
 21
1511.452807
  0
ARC
  5
EC
100
AcDbEntity
  8
M0
100
AcDbCircle
 10
1263.089148
 20
1459.85282
 40
1.0
100
AcDbArc
 50
180.000036
 51
270.0
  0
LINE
  5
ED
100
AcDbEntity
  8
M0
100
AcDbLine
 10
1263.089149
 20
1458.85282
 11
1278.889134
 21
1458.85283
  0
CIRCLE
  5
EE
100
AcDbEntity
  8
M0
100
AcDbCircle
 10
651.368883
 20
1753.653307
 40
12.999992
  0
CIRCLE
  5
EF
100
AcDbEntity
  8
M0
100
AcDbCircle
 10
311.367907
 20
1753.653796
 40
12.999992
  0
ARC
  5
F0
100
AcDbEntity
  8
M0
 62
     7
100
AcDbCircle
 10
748.868883
 20
1568.153338
 40
1.5
100
AcDbArc
 50
269.999417
 51
360.0
  0
ARC
  5
F1
100
AcDbEntity
  8
M0
 62
     7
100
AcDbCircle
 10
748.868883
 20
1565.153338
 40
1.5
100
AcDbArc
 50
90.0
 51
180.0
  0
ARC
  5
F2
100
AcDbEntity
  8
M0
 62
     7
100
AcDbCircle
 10
746.368883
 20
1702.653338
 40
4.0
100
AcDbArc
 50
0.0
 51
90.0
  0
LINE
  5
F3
100
AcDbEntity
  8
M0
 62
     7
100
AcDbLine
 10
746.368883
 20
1706.653338
 11
741.368883
 21
1706.653338
  0
LINE
  5
F4
100
AcDbEntity
  8
M0
 62
     7
100
AcDbLine
 10
676.748873
 20
1702.813326
 11
677.028872
 21
1703.773333
  0
ARC
  5
F5
100
AcDbEntity
  8
M0
 62
     7
100
AcDbCircle
 10
673.868883
 20
1703.653338
 40
3.0
100
AcDbArc
 50
269.999709
 51
343.738606
  0
LINE
  5
F6
100
AcDbEntity
  8
M0
 62
     7
100
AcDbLine
 10
685.70888
 20
1703.773333
 11
685.988878
 21
1702.813326
  0
ARC
  5
F7
100
AcDbEntity
  8
M0
 62
     7
100
AcDbCircle
 10
688.868883
 20
1703.653338
 40
3.0
100
AcDbArc
 50
196.260391
 51
269.999709
  0
LINE
  5
F8
100
AcDbEntity
  8
M0
 62
     7
100
AcDbLine
 10
737.248873
 20
1702.813326
 11
737.528872
 21
1703.773333
  0
ARC
  5
F9
100
AcDbEntity
  8
M0
 62
     7
100
AcDbCircle
 10
741.368883
 20
1702.653338
 40
4.0
100
AcDbArc
 50
90.0
 51
163.740119
  0
ARC
  5
FA
100
AcDbEntity
  8
M0
 62
     7
100
AcDbCircle
 10
734.368883
 20
1703.653338
 40
3.0
100
AcDbArc
 50
269.999709
 51
343.738606
  0
LINE
  5
FB
100
AcDbEntity
  8
M0
 62
     7
100
AcDbLine
 10
734.368883
 20
1700.653338
 11
688.868883
 21
1700.653338
  0
ARC
  5
FC
100
AcDbEntity
  8
M0
 62
     7
100
AcDbCircle
 10
681.868883
 20
1702.653338
 40
4.0
100
AcDbArc
 50
16.260152
 51
90.0
  0
ARC
  5
FD
100
AcDbEntity
  8
M0
 62
     7
100
AcDbCircle
 10
680.868883
 20
1702.653338
 40
4.0
100
AcDbArc
 50
90.0
 51
163.740119
  0
LINE
  5
FE
100
AcDbEntity
  8
M0
 62
     7
100
AcDbLine
 10
680.868883
 20
1706.653338
 11
681.868883
 21
1706.653338
  0
ARC
  5
FF
100
AcDbEntity
  8
M0
 62
     7
100
AcDbCircle
 10
747.368883
 20
1689.653338
 40
3.0
100
AcDbArc
 50
269.999709
 51
360.0
  0
ARC
  5
100
100
AcDbEntity
  8
M0
 62
     7
100
AcDbCircle
 10
747.368883
 20
1673.653338
 40
3.0
100
AcDbArc
 50
0.0
 51
90.0
  0
LINE
  5
101
100
AcDbEntity
  8
M0
 62
     7
100
AcDbLine
 10
747.368883
 20
1686.653338
 11
742.368883
 21
1686.653338
  0
LINE
  5
102
100
AcDbEntity
  8
M0
 62
     7
100
AcDbLine
 10
747.368883
 20
1676.653338
 11
742.368883
 21
1676.653338
  0
CIRCLE
  5
103
100
AcDbEntity
  8
M0
 62
     7
100
AcDbCircle
 10
742.368883
 20
1681.653338
 40
2.5
  0
LINE
  5
104
100
AcDbEntity
  8
M0
  6
DASHDOT
 62
     7
100
AcDbLine
 10
734.868883
 20
1681.653338
 11
749.868883
 21
1681.653338
  0
LINE
  5
105
100
AcDbEntity
  8
M0
  6
DASHDOT
 62
     7
100
AcDbLine
 10
742.368883
 20
1674.153338
 11
742.368883
 21
1689.153338
  0
ARC
  5
106
100
AcDbEntity
  8
M0
 62
     7
100
AcDbCircle
 10
742.368883
 20
1681.653338
 40
5.0
100
AcDbArc
 50
90.0
 51
269.999825
  0
ARC
  5
107
100
AcDbEntity
  8
M0
 62
     7
100
AcDbCircle
 10
556.368883
 20
1702.653338
 40
4.0
100
AcDbArc
 50
89.999781
 51
180.0
  0
LINE
  5
108
100
AcDbEntity
  8
M0
 62
     7
100
AcDbLine
 10
556.368883
 20
1706.653338
 11
561.368883
 21
1706.653338
  0
LINE
  5
109
100
AcDbEntity
  8
M0
 62
     7
100
AcDbLine
 10
625.988894
 20
1702.813326
 11
625.708895
 21
1703.773333
  0
ARC
  5
10A
100
AcDbEntity
  8
M0
 62
     7
100
AcDbCircle
 10
628.868883
 20
1703.653338
 40
3.0
100
AcDbArc
 50
196.260753
 51
270.0
  0
LINE
  5
10B
100
AcDbEntity
  8
M0
 62
     7
100
AcDbLine
 10
617.028887
 20
1703.773333
 11
616.748888
 21
1702.813326
  0
ARC
  5
10C
100
AcDbEntity
  8
M0
 62
     7
100
AcDbCircle
 10
613.868883
 20
1703.653338
 40
3.0
100
AcDbArc
 50
270.0
 51
343.739609
  0
LINE
  5
10D
100
AcDbEntity
  8
M0
 62
     7
100
AcDbLine
 10
565.488894
 20
1702.813326
 11
565.208895
 21
1703.773333
  0
ARC
  5
10E
100
AcDbEntity
  8
M0
 62
     7
100
AcDbCircle
 10
561.368883
 20
1702.653338
 40
4.0
100
AcDbArc
 50
16.259462
 51
89.999781
  0
ARC
  5
10F
100
AcDbEntity
  8
M0
 62
     7
100
AcDbCircle
 10
568.368883
 20
1703.653338
 40
3.0
100
AcDbArc
 50
196.260753
 51
270.0
  0
LINE
  5
110
100
AcDbEntity
  8
M0
 62
     7
100
AcDbLine
 10
568.368883
 20
1700.653338
 11
613.868883
 21
1700.653338
  0
LINE
  5
111
100
AcDbEntity
  8
M0
 62
     7
100
AcDbLine
 10
673.868883
 20
1700.653338
 11
628.868883
 21
1700.653338
  0
ARC
  5
112
100
AcDbEntity
  8
M0
 62
     7
100
AcDbCircle
 10
620.868883
 20
1702.653338
 40
4.0
100
AcDbArc
 50
89.999781
 51
163.739848
  0
ARC
  5
113
100
AcDbEntity
  8
M0
 62
     7
100
AcDbCircle
 10
621.868883
 20
1702.653338
 40
4.0
100
AcDbArc
 50
16.259462
 51
89.999781
  0
LINE
  5
114
100
AcDbEntity
  8
M0
 62
     7
100
AcDbLine
 10
621.868883
 20
1706.653338
 11
620.868883
 21
1706.653338
  0
ARC
  5
115
100
AcDbEntity
  8
M0
 62
     7
100
AcDbCircle
 10
555.368883
 20
1689.653338
 40
3.0
100
AcDbArc
 50
180.0
 51
270.0
  0
ARC
  5
116
100
AcDbEntity
  8
M0
 62
     7
100
AcDbCircle
 10
555.368883
 20
1673.653338
 40
3.0
100
AcDbArc
 50
89.999709
 51
180.0
  0
LINE
  5
117
100
AcDbEntity
  8
M0
 62
     7
100
AcDbLine
 10
555.368883
 20
1686.653338
 11
560.368883
 21
1686.653338
  0
LINE
  5
118
100
AcDbEntity
  8
M0
 62
     7
100
AcDbLine
 10
555.368883
 20
1676.653338
 11
560.368883
 21
1676.653338
  0
CIRCLE
  5
119
100
AcDbEntity
  8
M0
 62
     7
100
AcDbCircle
 10
560.368883
 20
1681.653338
 40
2.5
  0
LINE
  5
11A
100
AcDbEntity
  8
M0
  6
DASHDOT
 62
     7
100
AcDbLine
 10
567.868883
 20
1681.653338
 11
552.868883
 21
1681.653338
  0
LINE
  5
11B
100
AcDbEntity
  8
M0
  6
DASHDOT
 62
     7
100
AcDbLine
 10
560.368883
 20
1674.153338
 11
560.368883
 21
1689.153338
  0
ARC
  5
11C
100
AcDbEntity
  8
M0
 62
     7
100
AcDbCircle
 10
560.368883
 20
1681.653338
 40
5.0
100
AcDbArc
 50
-90.0
 51
89.999825
  0
LINE
  5
11D
100
AcDbEntity
  8
M0
 62
     7
100
AcDbLine
 10
676.748873
 20
1520.49334
 11
677.028872
 21
1519.53334
  0
ARC
  5
11E
100
AcDbEntity
  8
M0
 62
     7
100
AcDbCircle
 10
673.868883
 20
1519.65334
 40
3.0
100
AcDbArc
 50
16.26042
 51
90.0
  0
LINE
  5
11F
100
AcDbEntity
  8
M0
 62
     7
100
AcDbLine
 10
685.70888
 20
1519.53334
 11
685.988878
 21
1520.49334
  0
ARC
  5
120
100
AcDbEntity
  8
M0
 62
     7
100
AcDbCircle
 10
688.868883
 20
1519.65334
 40
3.0
100
AcDbArc
 50
90.0
 51
163.739819
  0
LINE
  5
121
100
AcDbEntity
  8
M0
 62
     7
100
AcDbLine
 10
673.868883
 20
1522.653339
 11
628.868883
 21
1522.653339
  0
ARC
  5
122
100
AcDbEntity
  8
M0
 62
     7
100
AcDbCircle
 10
681.868883
 20
1520.65334
 40
4.0
100
AcDbArc
 50
269.999781
 51
343.739651
  0
ARC
  5
123
100
AcDbEntity
  8
M0
 62
     7
100
AcDbCircle
 10
743.368883
 20
1520.65334
 40
4.0
100
AcDbArc
 50
-90.000219
 51
0.0
  0
LINE
  5
124
100
AcDbEntity
  8
M0
 62
     7
100
AcDbLine
 10
555.368883
 20
1520.65334
 11
555.368883
 21
1565.153338
  0
LINE
  5
125
100
AcDbEntity
  8
M0
 62
     7
100
AcDbLine
 10
747.368883
 20
1520.65334
 11
747.368883
 21
1565.153338
  0
LINE
  5
126
100
AcDbEntity
  8
M0
 62
     7
100
AcDbLine
 10
743.368883
 20
1516.65334
 11
741.468874
 21
1516.65334
  0
LINE
  5
127
100
AcDbEntity
  8
M0
 62
     7
100
AcDbLine
 10
737.348879
 20
1520.49334
 11
737.628878
 21
1519.53334
  0
ARC
  5
128
100
AcDbEntity
  8
M0
 62
     7
100
AcDbCircle
 10
741.468874
 20
1520.65334
 40
4.0
100
AcDbArc
 50
196.259986
 51
269.999781
  0
ARC
  5
129
100
AcDbEntity
  8
M0
 62
     7
100
AcDbCircle
 10
734.468874
 20
1519.65334
 40
3.0
100
AcDbArc
 50
16.26035
 51
90.0
  0
LINE
  5
12A
100
AcDbEntity
  8
M0
 62
     7
100
AcDbLine
 10
734.468874
 20
1522.653339
 11
688.868883
 21
1522.653339
  0
ARC
  5
12B
100
AcDbEntity
  8
M0
 62
     7
100
AcDbCircle
 10
680.868883
 20
1520.65334
 40
4.0
100
AcDbArc
 50
196.259986
 51
269.999781
  0
LINE
  5
12C
100
AcDbEntity
  8
M0
 62
     7
100
AcDbLine
 10
680.868883
 20
1516.65334
 11
681.868883
 21
1516.65334
  0
LINE
  5
12D
100
AcDbEntity
  8
M0
 62
     7
100
AcDbLine
 10
625.988894
 20
1520.49334
 11
625.708895
 21
1519.53334
  0
ARC
  5
12E
100
AcDbEntity
  8
M0
 62
     7
100
AcDbCircle
 10
628.868883
 20
1519.65334
 40
3.0
100
AcDbArc
 50
89.999709
 51
163.739475
  0
LINE
  5
12F
100
AcDbEntity
  8
M0
 62
     7
100
AcDbLine
 10
617.028887
 20
1519.53334
 11
616.748888
 21
1520.49334
  0
ARC
  5
130
100
AcDbEntity
  8
M0
 62
     7
100
AcDbCircle
 10
613.868883
 20
1519.65334
 40
3.0
100
AcDbArc
 50
16.260129
 51
89.999709
  0
ARC
  5
131
100
AcDbEntity
  8
M0
 62
     7
100
AcDbCircle
 10
620.868883
 20
1520.65334
 40
4.0
100
AcDbArc
 50
196.260192
 51
270.0
  0
ARC
  5
132
100
AcDbEntity
  8
M0
 62
     7
100
AcDbCircle
 10
621.868883
 20
1520.65334
 40
4.0
100
AcDbArc
 50
270.0
 51
343.73987
  0
LINE
  5
133
100
AcDbEntity
  8
M0
 62
     7
100
AcDbLine
 10
621.868883
 20
1516.65334
 11
620.868883
 21
1516.65334
  0
ARC
  5
134
100
AcDbEntity
  8
M0
 62
     7
100
AcDbCircle
 10
559.368883
 20
1520.65334
 40
4.0
100
AcDbArc
 50
179.999959
 51
270.0
  0
ARC
  5
135
100
AcDbEntity
  8
M0
 62
     7
100
AcDbCircle
 10
558.368883
 20
1533.653339
 40
3.0
100
AcDbArc
 50
89.999709
 51
179.999982
  0
ARC
  5
136
100
AcDbEntity
  8
M0
 62
     7
100
AcDbCircle
 10
558.368883
 20
1549.653338
 40
3.0
100
AcDbArc
 50
180.0
 51
270.0
  0
LINE
  5
137
100
AcDbEntity
  8
M0
 62
     7
100
AcDbLine
 10
558.368883
 20
1536.653339
 11
563.368883
 21
1536.653339
  0
LINE
  5
138
100
AcDbEntity
  8
M0
 62
     7
100
AcDbLine
 10
558.368883
 20
1546.653338
 11
563.368883
 21
1546.653338
  0
CIRCLE
  5
139
100
AcDbEntity
  8
M0
 62
     7
100
AcDbCircle
 10
563.368883
 20
1541.653338
 40
2.5
  0
LINE
  5
13A
100
AcDbEntity
  8
M0
  6
DASHDOT
 62
     7
100
AcDbLine
 10
570.868883
 20
1541.653338
 11
555.868883
 21
1541.653338
  0
LINE
  5
13B
100
AcDbEntity
  8
M0
  6
DASHDOT
 62
     7
100
AcDbLine
 10
563.368883
 20
1549.153338
 11
563.368883
 21
1534.153339
  0
ARC
  5
13C
100
AcDbEntity
  8
M0
 62
     7
100
AcDbCircle
 10
563.368883
 20
1541.653338
 40
5.0
100
AcDbArc
 50
270.0
 51
449.999825
  0
ARC
  5
13D
100
AcDbEntity
  8
M0
 62
     7
100
AcDbCircle
 10
744.368883
 20
1533.653339
 40
3.0
100
AcDbArc
 50
0.0
 51
90.0
  0
ARC
  5
13E
100
AcDbEntity
  8
M0
 62
     7
100
AcDbCircle
 10
744.368883
 20
1549.653338
 40
3.0
100
AcDbArc
 50
-90.000291
 51
0.0
  0
LINE
  5
13F
100
AcDbEntity
  8
M0
 62
     7
100
AcDbLine
 10
744.368883
 20
1536.653339
 11
739.368883
 21
1536.653339
  0
LINE
  5
140
100
AcDbEntity
  8
M0
 62
     7
100
AcDbLine
 10
744.368883
 20
1546.653338
 11
739.368883
 21
1546.653338
  0
CIRCLE
  5
141
100
AcDbEntity
  8
M0
 62
     7
100
AcDbCircle
 10
739.368883
 20
1541.653338
 40
2.5
  0
LINE
  5
142
100
AcDbEntity
  8
M0
  6
DASHDOT
 62
     7
100
AcDbLine
 10
731.868883
 20
1541.653338
 11
746.868883
 21
1541.653338
  0
LINE
  5
143
100
AcDbEntity
  8
M0
  6
DASHDOT
 62
     7
100
AcDbLine
 10
739.368883
 20
1549.153338
 11
739.368883
 21
1534.153339
  0
ARC
  5
144
100
AcDbEntity
  8
M0
 62
     7
100
AcDbCircle
 10
739.368883
 20
1541.653338
 40
5.0
100
AcDbArc
 50
90.0
 51
269.999825
  0
LINE
  5
145
100
AcDbEntity
  8
M0
 62
     7
100
AcDbLine
 10
552.368883
 20
1568.153338
 11
552.368883
 21
1702.653338
  0
ARC
  5
146
100
AcDbEntity
  8
M0
 62
     7
100
AcDbCircle
 10
553.868883
 20
1568.153338
 40
1.5
100
AcDbArc
 50
180.0
 51
270.0
  0
ARC
  5
147
100
AcDbEntity
  8
M0
 62
     7
100
AcDbCircle
 10
553.868883
 20
1565.153338
 40
1.5
100
AcDbArc
 50
0.0
 51
89.999417
  0
LINE
  5
148
100
AcDbEntity
  8
M0
 62
     7
100
AcDbLine
 10
750.368883
 20
1568.153338
 11
750.368883
 21
1702.653338
  0
LINE
  5
149
100
AcDbEntity
  8
M0
 62
     7
100
AcDbLine
 10
568.268892
 20
1522.653339
 11
613.868883
 21
1522.653339
  0
ARC
  5
14A
100
AcDbEntity
  8
M0
 62
     7
100
AcDbCircle
 10
568.268892
 20
1519.65334
 40
3.0
100
AcDbArc
 50
89.999709
 51
163.739527
  0
ARC
  5
14B
100
AcDbEntity
  8
M0
 62
     7
100
AcDbCircle
 10
561.268892
 20
1520.65334
 40
4.0
100
AcDbArc
 50
270.0
 51
343.73987
  0
LINE
  5
14C
100
AcDbEntity
  8
M0
 62
     7
100
AcDbLine
 10
565.388888
 20
1520.49334
 11
565.108889
 21
1519.53334
  0
LINE
  5
14D
100
AcDbEntity
  8
M0
 62
     7
100
AcDbLine
 10
559.368883
 20
1516.65334
 11
561.268892
 21
1516.65334
  0
LINE
  5
14E
100
AcDbEntity
  8
M0
  6
DASHDOT
 62
     7
100
AcDbLine
 10
635.068895
 20
1623.153338
 11
667.668871
 21
1623.153338
  0
ARC
  5
14F
100
AcDbEntity
  8
M0
 62
     7
100
AcDbCircle
 10
653.368883
 20
1638.503329
 40
1.0
100
AcDbArc
 50
0.0
 51
90.0
  0
LINE
  5
150
100
AcDbEntity
  8
M0
 62
     7
100
AcDbLine
 10
649.368883
 20
1639.503329
 11
653.368883
 21
1639.503329
  0
ARC
  5
151
100
AcDbEntity
  8
M0
 62
     7
100
AcDbCircle
 10
649.368883
 20
1638.503329
 40
1.0
100
AcDbArc
 50
90.0
 51
180.0
  0
LINE
  5
152
100
AcDbEntity
  8
M0
 62
     7
100
AcDbLine
 10
648.368883
 20
1638.503329
 11
648.368883
 21
1635.503329
  0
LINE
  5
153
100
AcDbEntity
  8
M0
 62
     7
100
AcDbLine
 10
654.368883
 20
1638.503329
 11
654.368883
 21
1635.503329
  0
LINE
  5
154
100
AcDbEntity
  8
M0
 62
     7
100
AcDbLine
 10
644.868883
 20
1636.503329
 11
657.868883
 21
1636.503329
  0
LINE
  5
155
100
AcDbEntity
  8
M0
 62
     7
100
AcDbLine
 10
644.868883
 20
1635.503329
 11
648.368883
 21
1635.503329
  0
LINE
  5
156
100
AcDbEntity
  8
M0
 62
     7
100
AcDbLine
 10
654.368883
 20
1635.503329
 11
657.868883
 21
1635.503329
  0
LINE
  5
157
100
AcDbEntity
  8
M0
 62
     7
100
AcDbLine
 10
644.868883
 20
1636.503329
 11
644.868883
 21
1633.303332
  0
LINE
  5
158
100
AcDbEntity
  8
M0
 62
     7
100
AcDbLine
 10
657.868883
 20
1636.503329
 11
657.868883
 21
1633.303332
  0
LINE
  5
159
100
AcDbEntity
  8
M0
 62
     7
100
AcDbLine
 10
659.668883
 20
1633.303332
 11
657.868883
 21
1633.303332
  0
ARC
  5
15A
100
AcDbEntity
  8
M0
 62
     7
100
AcDbCircle
 10
659.668883
 20
1630.303332
 40
3.0
100
AcDbArc
 50
0.0
 51
90.0
  0
LINE
  5
15B
100
AcDbEntity
  8
M0
 62
     7
100
AcDbLine
 10
644.868883
 20
1633.303332
 11
643.068884
 21
1633.303332
  0
ARC
  5
15C
100
AcDbEntity
  8
M0
 62
     7
100
AcDbCircle
 10
643.068884
 20
1630.303332
 40
3.0
100
AcDbArc
 50
90.0
 51
180.0
  0
LINE
  5
15D
100
AcDbEntity
  8
M0
 62
     7
100
AcDbLine
 10
660.368883
 20
1627.153338
 11
660.368883
 21
1619.153338
  0
LINE
  5
15E
100
AcDbEntity
  8
M0
 62
     7
100
AcDbLine
 10
642.368883
 20
1627.153338
 11
642.368883
 21
1619.153338
  0
LINE
  5
15F
100
AcDbEntity
  8
M0
 62
     7
100
AcDbLine
 10
660.368883
 20
1627.153338
 11
661.668883
 21
1627.153338
  0
ARC
  5
160
100
AcDbEntity
  8
M0
 62
     7
100
AcDbCircle
 10
661.668883
 20
1628.153338
 40
1.0
100
AcDbArc
 50
270.0
 51
360.0
  0
LINE
  5
161
100
AcDbEntity
  8
M0
 62
     7
100
AcDbLine
 10
641.068884
 20
1627.153338
 11
642.368883
 21
1627.153338
  0
ARC
  5
162
100
AcDbEntity
  8
M0
 62
     7
100
AcDbCircle
 10
641.068884
 20
1628.153338
 40
1.0
100
AcDbArc
 50
180.0
 51
270.0
  0
LINE
  5
163
100
AcDbEntity
  8
M0
 62
     7
100
AcDbLine
 10
641.068884
 20
1619.153338
 11
642.368883
 21
1619.153338
  0
ARC
  5
164
100
AcDbEntity
  8
M0
 62
     7
100
AcDbCircle
 10
641.068884
 20
1618.153338
 40
1.0
100
AcDbArc
 50
90.0
 51
180.0
  0
LINE
  5
165
100
AcDbEntity
  8
M0
 62
     7
100
AcDbLine
 10
660.368883
 20
1619.153338
 11
661.668883
 21
1619.153338
  0
ARC
  5
166
100
AcDbEntity
  8
M0
 62
     7
100
AcDbCircle
 10
661.668883
 20
1618.153338
 40
1.0
100
AcDbArc
 50
0.0
 51
90.0
  0
LINE
  5
167
100
AcDbEntity
  8
M0
 62
     7
100
AcDbLine
 10
640.068884
 20
1607.003329
 11
662.668883
 21
1607.003329
  0
LINE
  5
168
100
AcDbEntity
  8
M0
 62
     7
100
AcDbLine
 10
640.068884
 20
1630.303332
 11
640.068884
 21
1607.003329
  0
LINE
  5
169
100
AcDbEntity
  8
M0
 62
     7
100
AcDbLine
 10
662.668883
 20
1607.003329
 11
662.668883
 21
1630.303332
  0
LINE
  5
16A
100
AcDbEntity
  8
M0
 62
     6
100
AcDbLine
 10
765.26888
 20
1656.653336
 11
750.368881
 21
1656.65334
  0
LINE
  5
16B
100
AcDbEntity
  8
M0
 62
     6
100
AcDbLine
 10
750.368881
 20
1656.65334
 11
750.368852
 21
1566.65334
  0
LINE
  5
16C
100
AcDbEntity
  8
M0
 62
     6
100
AcDbLine
 10
750.368852
 20
1566.65334
 11
765.268852
 21
1566.653336
  0
LINE
  5
16D
100
AcDbEntity
  8
M0
 62
     6
100
AcDbLine
 10
765.268852
 20
1566.653336
 11
765.26888
 21
1656.653336
  0
LINE
  5
16E
100
AcDbEntity
  8
M0
 62
     6
100
AcDbLine
 10
752.318861
 20
1593.65334
 11
752.318861
 21
1595.15334
  0
LINE
  5
16F
100
AcDbEntity
  8
M0
 62
     6
100
AcDbLine
 10
763.318861
 20
1593.653336
 11
763.318861
 21
1595.153336
  0
LINE
  5
170
100
AcDbEntity
  8
M0
 62
     6
100
AcDbLine
 10
752.318861
 20
1595.15334
 11
763.318861
 21
1595.153336
  0
LINE
  5
171
100
AcDbEntity
  8
M0
 62
     6
100
AcDbLine
 10
753.318864
 20
1605.25333
 11
753.318861
 21
1595.153339
  0
LINE
  5
172
100
AcDbEntity
  8
M0
 62
     6
100
AcDbLine
 10
753.318861
 20
1593.653339
 11
753.318852
 21
1566.653339
  0
LINE
  5
173
100
AcDbEntity
  8
M0
 62
     6
100
AcDbLine
 10
762.318864
 20
1605.253327
 11
762.318861
 21
1595.153337
  0
LINE
  5
174
100
AcDbEntity
  8
M0
 62
     6
100
AcDbLine
 10
762.318861
 20
1593.653337
 11
762.318852
 21
1566.653337
  0
LINE
  5
175
100
AcDbEntity
  8
M0
 62
     6
100
AcDbLine
 10
763.318861
 20
1593.653336
 11
762.318861
 21
1593.653337
  0
LINE
  5
176
100
AcDbEntity
  8
M0
 62
     6
100
AcDbLine
 10
753.318861
 20
1593.653339
 11
752.318861
 21
1593.65334
  0
LINE
  5
177
100
AcDbEntity
  8
M0
 62
     6
100
AcDbLine
 10
762.318864
 20
1605.253327
 11
753.318864
 21
1605.25333
  0
LINE
  5
178
100
AcDbEntity
  8
M0
 62
     6
100
AcDbLine
 10
753.318854
 20
1572.653339
 11
762.318854
 21
1572.653337
  0
LINE
  5
179
100
AcDbEntity
  8
M0
 62
     6
100
AcDbLine
 10
750.368859
 20
1586.65334
 11
753.318858
 21
1586.653339
  0
LINE
  5
17A
100
AcDbEntity
  8
M0
 62
     6
100
AcDbLine
 10
762.318858
 20
1586.653337
 11
765.268858
 21
1586.653336
  0
LINE
  5
17B
100
AcDbEntity
  8
M0
 62
     6
100
AcDbLine
 10
763.318872
 20
1629.653336
 11
763.318871
 21
1628.153336
  0
LINE
  5
17C
100
AcDbEntity
  8
M0
 62
     6
100
AcDbLine
 10
752.318871
 20
1628.15334
 11
763.318871
 21
1628.153336
  0
LINE
  5
17D
100
AcDbEntity
  8
M0
 62
     6
100
AcDbLine
 10
762.318868
 20
1618.05333
 11
762.318871
 21
1628.153337
  0
LINE
  5
17E
100
AcDbEntity
  8
M0
 62
     6
100
AcDbLine
 10
762.318872
 20
1629.653337
 11
762.31888
 21
1656.653337
  0
LINE
  5
17F
100
AcDbEntity
  8
M0
 62
     6
100
AcDbLine
 10
763.318872
 20
1629.653336
 11
762.318872
 21
1629.653337
  0
LINE
  5
180
100
AcDbEntity
  8
M0
 62
     6
100
AcDbLine
 10
762.318868
 20
1618.05333
 11
753.318868
 21
1618.053333
  0
LINE
  5
181
100
AcDbEntity
  8
M0
 62
     6
100
AcDbLine
 10
753.318879
 20
1650.653339
 11
762.318879
 21
1650.653337
  0
LINE
  5
182
100
AcDbEntity
  8
M0
 62
     6
100
AcDbLine
 10
762.318874
 20
1636.653337
 11
765.268874
 21
1636.653336
  0
LINE
  5
183
100
AcDbEntity
  8
M0
 62
     6
100
AcDbLine
 10
753.318868
 20
1618.053333
 11
753.318871
 21
1628.153339
  0
LINE
  5
184
100
AcDbEntity
  8
M0
 62
     6
100
AcDbLine
 10
752.318872
 20
1629.65334
 11
752.318871
 21
1628.15334
  0
LINE
  5
185
100
AcDbEntity
  8
M0
 62
     6
100
AcDbLine
 10
753.318872
 20
1629.653339
 11
752.318872
 21
1629.65334
  0
LINE
  5
186
100
AcDbEntity
  8
M0
 62
     6
100
AcDbLine
 10
753.318872
 20
1629.653339
 11
753.31888
 21
1656.653339
  0
LINE
  5
187
100
AcDbEntity
  8
M0
 62
     6
100
AcDbLine
 10
750.368874
 20
1636.65334
 11
753.318874
 21
1636.653339
  0
CIRCLE
  5
188
100
AcDbEntity
  8
M0
 62
     6
100
AcDbCircle
 10
757.818866
 20
1611.653338
 40
2.799999
  0
LINE
  5
189
100
AcDbEntity
  8
M0
 62
     6
100
AcDbLine
 10
537.468886
 20
1656.653336
 11
552.368886
 21
1656.65334
  0
LINE
  5
18A
100
AcDbEntity
  8
M0
 62
     6
100
AcDbLine
 10
552.368886
 20
1656.65334
 11
552.368914
 21
1566.65334
  0
LINE
  5
18B
100
AcDbEntity
  8
M0
 62
     6
100
AcDbLine
 10
552.368914
 20
1566.65334
 11
537.468915
 21
1566.653336
  0
LINE
  5
18C
100
AcDbEntity
  8
M0
 62
     6
100
AcDbLine
 10
537.468915
 20
1566.653336
 11
537.468886
 21
1656.653336
  0
LINE
  5
18D
100
AcDbEntity
  8
M0
 62
     6
100
AcDbLine
 10
550.418906
 20
1593.65334
 11
550.418905
 21
1595.15334
  0
LINE
  5
18E
100
AcDbEntity
  8
M0
 62
     6
100
AcDbLine
 10
539.418906
 20
1593.653336
 11
539.418905
 21
1595.153336
  0
LINE
  5
18F
100
AcDbEntity
  8
M0
 62
     6
100
AcDbLine
 10
550.418905
 20
1595.15334
 11
539.418905
 21
1595.153336
  0
LINE
  5
190
100
AcDbEntity
  8
M0
 62
     6
100
AcDbLine
 10
549.418902
 20
1605.25333
 11
549.418905
 21
1595.153339
  0
LINE
  5
191
100
AcDbEntity
  8
M0
 62
     6
100
AcDbLine
 10
549.418906
 20
1593.653339
 11
549.418914
 21
1566.653339
  0
LINE
  5
192
100
AcDbEntity
  8
M0
 62
     6
100
AcDbLine
 10
540.418902
 20
1605.253327
 11
540.418905
 21
1595.153337
  0
LINE
  5
193
100
AcDbEntity
  8
M0
 62
     6
100
AcDbLine
 10
540.418906
 20
1593.653337
 11
540.418914
 21
1566.653337
  0
LINE
  5
194
100
AcDbEntity
  8
M0
 62
     6
100
AcDbLine
 10
539.418906
 20
1593.653336
 11
540.418906
 21
1593.653337
  0
LINE
  5
195
100
AcDbEntity
  8
M0
 62
     6
100
AcDbLine
 10
549.418906
 20
1593.653339
 11
550.418906
 21
1593.65334
  0
LINE
  5
196
100
AcDbEntity
  8
M0
 62
     6
100
AcDbLine
 10
540.418902
 20
1605.253327
 11
549.418902
 21
1605.25333
  0
LINE
  5
197
100
AcDbEntity
  8
M0
 62
     6
100
AcDbLine
 10
549.418912
 20
1572.653339
 11
540.418912
 21
1572.653337
  0
LINE
  5
198
100
AcDbEntity
  8
M0
 62
     6
100
AcDbLine
 10
552.368908
 20
1586.65334
 11
549.418908
 21
1586.653339
  0
LINE
  5
199
100
AcDbEntity
  8
M0
 62
     6
100
AcDbLine
 10
540.418908
 20
1586.653337
 11
537.468908
 21
1586.653336
  0
LINE
  5
19A
100
AcDbEntity
  8
M0
 62
     6
100
AcDbLine
 10
539.418895
 20
1629.653336
 11
539.418895
 21
1628.153336
  0
LINE
  5
19B
100
AcDbEntity
  8
M0
 62
     6
100
AcDbLine
 10
550.418895
 20
1628.15334
 11
539.418895
 21
1628.153336
  0
LINE
  5
19C
100
AcDbEntity
  8
M0
 62
     6
100
AcDbLine
 10
540.418898
 20
1618.05333
 11
540.418895
 21
1628.153337
  0
LINE
  5
19D
100
AcDbEntity
  8
M0
 62
     6
100
AcDbLine
 10
540.418895
 20
1629.653337
 11
540.418886
 21
1656.653337
  0
LINE
  5
19E
100
AcDbEntity
  8
M0
 62
     6
100
AcDbLine
 10
539.418895
 20
1629.653336
 11
540.418895
 21
1629.653337
  0
LINE
  5
19F
100
AcDbEntity
  8
M0
 62
     6
100
AcDbLine
 10
540.418898
 20
1618.05333
 11
549.418898
 21
1618.053333
  0
LINE
  5
1A0
100
AcDbEntity
  8
M0
 62
     6
100
AcDbLine
 10
549.418888
 20
1650.653339
 11
540.418888
 21
1650.653337
  0
LINE
  5
1A1
100
AcDbEntity
  8
M0
 62
     6
100
AcDbLine
 10
540.418892
 20
1636.653337
 11
537.468893
 21
1636.653336
  0
LINE
  5
1A2
100
AcDbEntity
  8
M0
 62
     6
100
AcDbLine
 10
549.418898
 20
1618.053333
 11
549.418895
 21
1628.153339
  0
LINE
  5
1A3
100
AcDbEntity
  8
M0
 62
     6
100
AcDbLine
 10
550.418895
 20
1629.65334
 11
550.418895
 21
1628.15334
  0
LINE
  5
1A4
100
AcDbEntity
  8
M0
 62
     6
100
AcDbLine
 10
549.418895
 20
1629.653339
 11
550.418895
 21
1629.65334
  0
LINE
  5
1A5
100
AcDbEntity
  8
M0
 62
     6
100
AcDbLine
 10
549.418895
 20
1629.653339
 11
549.418886
 21
1656.653339
  0
LINE
  5
1A6
100
AcDbEntity
  8
M0
 62
     6
100
AcDbLine
 10
552.368892
 20
1636.65334
 11
549.418892
 21
1636.653339
  0
CIRCLE
  5
1A7
100
AcDbEntity
  8
M0
 62
     6
100
AcDbCircle
 10
544.9189
 20
1611.653338
 40
2.799999
  0
LINE
  5
1A8
100
AcDbEntity
  8
M0
 62
     4
100
AcDbLine
 10
792.818789
 20
1654.65334
 11
780.818789
 21
1654.653336
  0
LINE
  5
1A9
100
AcDbEntity
  8
M0
 62
     4
100
AcDbLine
 10
792.818803
 20
1611.65334
 11
792.818789
 21
1654.65334
  0
LINE
  5
1AA
100
AcDbEntity
  8
M0
 62
     4
100
AcDbLine
 10
792.818816
 20
1568.65334
 11
780.818816
 21
1568.653336
  0
LINE
  5
1AB
100
AcDbEntity
  8
M0
 62
     4
100
AcDbLine
 10
792.818803
 20
1611.65334
 11
792.818816
 21
1568.65334
  0
LINE
  5
1AC
100
AcDbEntity
  8
M0
100
AcDbLine
 10
781.31888
 20
1486.653353
 11
781.31888
 21
1736.653338
  0
LINE
  5
1AD
100
AcDbEntity
  8
M0
100
AcDbLine
 10
781.31888
 20
1736.653338
 11
740.297442
 21
1736.653338
  0
LINE
  5
1AE
100
AcDbEntity
  8
M0
100
AcDbLine
 10
521.418886
 20
1736.653338
 11
521.418886
 21
1486.653353
  0
LINE
  5
1AF
100
AcDbEntity
  8
M0
100
AcDbLine
 10
521.418886
 20
1486.653353
 11
561.368883
 21
1486.653353
  0
LINE
  5
1B0
100
AcDbEntity
  8
M0
  6
DASHDOT
100
AcDbLine
 10
496.418886
 20
1611.653338
 11
807.30887
 21
1611.653338
  0
CIRCLE
  5
1B1
100
AcDbEntity
  8
M0
100
AcDbCircle
 10
566.368883
 20
1499.65334
 40
5.75
  0
CIRCLE
  5
1B2
100
AcDbEntity
  8
M0
100
AcDbCircle
 10
566.368883
 20
1723.653338
 40
5.75
  0
CIRCLE
  5
1B3
100
AcDbEntity
  8
M0
100
AcDbCircle
 10
681.368883
 20
1723.653338
 40
5.75
  0
CIRCLE
  5
1B4
100
AcDbEntity
  8
M0
100
AcDbCircle
 10
681.368883
 20
1499.65334
 40
5.75
  0
CIRCLE
  5
1B5
100
AcDbEntity
  8
M0
100
AcDbCircle
 10
736.368883
 20
1723.653338
 40
5.75
  0
CIRCLE
  5
1B6
100
AcDbEntity
  8
M0
100
AcDbCircle
 10
681.368883
 20
1723.653338
 40
11.5
  0
CIRCLE
  5
1B7
100
AcDbEntity
  8
M0
100
AcDbCircle
 10
736.368883
 20
1499.65334
 40
5.75
  0
CIRCLE
  5
1B8
100
AcDbEntity
  8
M0
100
AcDbCircle
 10
681.368883
 20
1499.65334
 40
11.5
  0
LINE
  5
1B9
100
AcDbEntity
  8
M0
100
AcDbLine
 10
753.31888
 20
1681.653338
 11
753.31888
 21
1679.653338
  0
LINE
  5
1BA
100
AcDbEntity
  8
M0
100
AcDbLine
 10
781.31888
 20
1679.653338
 11
753.31888
 21
1679.653338
  0
LINE
  5
1BB
100
AcDbEntity
  8
M0
100
AcDbLine
 10
781.31888
 20
1706.153338
 11
778.118868
 21
1706.153338
  0
LINE
  5
1BC
100
AcDbEntity
  8
M0
100
AcDbLine
 10
778.118868
 20
1736.653338
 11
778.118868
 21
1706.153338
  0
LINE
  5
1BD
100
AcDbEntity
  8
M0
100
AcDbLine
 10
778.118868
 20
1679.653338
 11
778.118868
 21
1656.653338
  0
LINE
  5
1BE
100
AcDbEntity
  8
M0
100
AcDbLine
 10
521.418886
 20
1706.153338
 11
524.18944
 21
1706.153338
  0
LINE
  5
1BF
100
AcDbEntity
  8
M0
100
AcDbLine
 10
524.618899
 20
1736.653338
 11
524.618899
 21
1706.153338
  0
CIRCLE
  5
1C0
100
AcDbEntity
  8
M0
100
AcDbCircle
 10
766.368883
 20
1695.653338
 40
5.0
  0
CIRCLE
  5
1C1
100
AcDbEntity
  8
M0
100
AcDbCircle
 10
536.368883
 20
1695.653338
 40
5.0
  0
LINE
  5
1C2
100
AcDbEntity
  8
M0
100
AcDbLine
 10
671.368883
 20
1486.653353
 11
701.368883
 21
1486.653353
  0
LINE
  5
1C3
100
AcDbEntity
  8
M0
100
AcDbLine
 10
740.297442
 20
1486.653353
 11
781.31888
 21
1486.653353
  0
ARC
  5
1C4
100
AcDbEntity
  8
M0
100
AcDbCircle
 10
736.368883
 20
1499.65334
 40
11.5
100
AcDbArc
 50
280.581723
 51
357.620457
  0
LINE
  5
1C5
100
AcDbEntity
  8
M0
100
AcDbLine
 10
601.368883
 20
1486.653353
 11
631.368883
 21
1486.653353
  0
ARC
  5
1C6
100
AcDbEntity
  8
M0
100
AcDbCircle
 10
566.368883
 20
1499.65334
 40
11.5
100
AcDbArc
 50
29.591763
 51
130.121205
  0
LINE
  5
1C7
100
AcDbEntity
  8
M0
100
AcDbLine
 10
701.368883
 20
1736.653338
 11
671.011736
 21
1736.653338
  0
LINE
  5
1C8
100
AcDbEntity
  8
M0
100
AcDbLine
 10
631.72603
 20
1736.653338
 11
601.72603
 21
1736.653338
  0
LINE
  5
1C9
100
AcDbEntity
  8
M0
100
AcDbLine
 10
562.440325
 20
1736.653338
 11
521.418886
 21
1736.653338
  0
ARC
  5
1CA
100
AcDbEntity
  8
M0
100
AcDbCircle
 10
566.368883
 20
1723.653338
 40
11.5
100
AcDbArc
 50
100.581711
 51
330.40798
  0
ARC
  5
1CB
100
AcDbEntity
  8
M0
100
AcDbCircle
 10
736.368883
 20
1723.653338
 40
11.5
100
AcDbArc
 50
209.591812
 51
439.418051
  0
ARC
  5
1CC
100
AcDbEntity
  8
M0
100
AcDbCircle
 10
736.368883
 20
1499.65334
 40
11.5
100
AcDbArc
 50
49.878605
 51
150.4081
  0
ARC
  5
1CD
100
AcDbEntity
  8
M0
100
AcDbCircle
 10
566.368883
 20
1499.65334
 40
11.5
100
AcDbArc
 50
182.379382
 51
259.418053
  0
LINE
  5
1CE
100
AcDbEntity
  8
M0
 62
     6
100
AcDbLine
 10
781.318973
 20
1730.653345
 11
781.318823
 21
1492.65336
  0
LINE
  5
1CF
100
AcDbEntity
  8
M0
 62
     6
100
AcDbLine
 10
781.318823
 20
1492.65336
 11
805.318822
 21
1492.653345
  0
LINE
  5
1D0
100
AcDbEntity
  8
M0
 62
     6
100
AcDbLine
 10
805.318822
 20
1492.653345
 11
805.318972
 21
1730.65333
  0
LINE
  5
1D1
100
AcDbEntity
  8
M0
 62
     6
100
AcDbLine
 10
805.318972
 20
1730.65333
 11
781.318973
 21
1730.653345
  0
LINE
  5
1D2
100
AcDbEntity
  8
M0
  6
DASHDOT
 62
     6
100
AcDbLine
 10
800.818968
 20
1722.653333
 11
784.818968
 21
1722.653343
  0
LINE
  5
1D3
100
AcDbEntity
  8
M0
 62
     6
100
AcDbLine
 10
795.218969
 20
1724.453324
 11
795.218966
 21
1720.853333
  0
ARC
  5
1D4
100
AcDbEntity
  8
M0
 62
     6
100
AcDbCircle
 10
792.818968
 20
1722.653338
 40
3.0
100
AcDbArc
 50
216.869935
 51
323.129629
  0
ARC
  5
1D5
100
AcDbEntity
  8
M0
 62
     6
100
AcDbCircle
 10
792.818968
 20
1722.653338
 40
3.0
100
AcDbArc
 50
36.869239
 51
143.130336
  0
LINE
  5
1D6
100
AcDbEntity
  8
M0
 62
     6
100
AcDbLine
 10
797.818971
 20
1727.653335
 11
797.818965
 21
1718.653335
  0
LINE
  5
1D7
100
AcDbEntity
  8
M0
 62
     6
100
AcDbLine
 10
800.918965
 20
1718.653333
 11
797.818965
 21
1718.653335
  0
LINE
  5
1D8
100
AcDbEntity
  8
M0
 62
     6
100
AcDbLine
 10
797.818971
 20
1727.653335
 11
800.91897
 21
1727.653333
  0
LINE
  5
1D9
100
AcDbEntity
  8
M0
 62
     6
100
AcDbLine
 10
790.418969
 20
1724.453327
 11
790.418967
 21
1720.853336
  0
ARC
  5
1DA
100
AcDbEntity
  8
M0
 62
     6
100
AcDbCircle
 10
792.818968
 20
1722.653338
 40
3.0
100
AcDbArc
 50
36.869239
 51
143.130336
  0
LINE
  5
1DB
100
AcDbEntity
  8
M0
 62
     6
100
AcDbLine
 10
787.818971
 20
1727.653341
 11
787.818965
 21
1718.653341
  0
LINE
  5
1DC
100
AcDbEntity
  8
M0
 62
     6
100
AcDbLine
 10
784.718972
 20
1727.653343
 11
787.818971
 21
1727.653341
  0
LINE
  5
1DD
100
AcDbEntity
  8
M0
 62
     6
100
AcDbLine
 10
784.718966
 20
1718.653343
 11
787.818965
 21
1718.653341
  0
LINE
  5
1DE
100
AcDbEntity
  8
M0
 62
     6
100
AcDbLine
 10
802.818961
 20
1711.653332
 11
782.818961
 21
1711.653344
  0
LINE
  5
1DF
100
AcDbEntity
  8
M0
 62
     6
100
AcDbLine
 10
802.818962
 20
1712.653332
 11
782.818962
 21
1712.653344
  0
LINE
  5
1E0
100
AcDbEntity
  8
M0
 62
     6
100
AcDbLine
 10
800.818973
 20
1730.653333
 11
800.818962
 21
1712.653333
  0
LINE
  5
1E1
100
AcDbEntity
  8
M0
 62
     6
100
AcDbLine
 10
784.818973
 20
1730.653343
 11
784.818962
 21
1712.653343
  0
LINE
  5
1E2
100
AcDbEntity
  8
M0
 62
     6
100
AcDbLine
 10
784.818961
 20
1711.653343
 11
784.818952
 21
1697.653343
  0
LINE
  5
1E3
100
AcDbEntity
  8
M0
 62
     6
100
AcDbLine
 10
798.818962
 20
1712.653334
 11
798.818962
 21
1713.753325
  0
ARC
  5
1E4
100
AcDbEntity
  8
M0
 62
     6
100
AcDbCircle
 10
795.818962
 20
1713.753327
 40
3.0
100
AcDbArc
 50
359.999673
 51
450.0
  0
LINE
  5
1E5
100
AcDbEntity
  8
M0
 62
     6
100
AcDbLine
 10
795.818964
 20
1716.753327
 11
789.818964
 21
1716.753331
  0
LINE
  5
1E6
100
AcDbEntity
  8
M0
 62
     6
100
AcDbLine
 10
786.818962
 20
1712.653342
 11
786.818962
 21
1713.753333
  0
ARC
  5
1E7
100
AcDbEntity
  8
M0
 62
     6
100
AcDbCircle
 10
789.818962
 20
1713.753331
 40
3.0
100
AcDbArc
 50
90.0
 51
179.999964
  0
LINE
  5
1E8
100
AcDbEntity
  8
M0
 62
     6
100
AcDbLine
 10
790.818961
 20
1711.653339
 11
790.818952
 21
1697.653339
  0
LINE
  5
1E9
100
AcDbEntity
  8
M0
 62
     6
100
AcDbLine
 10
786.768953
 20
1697.653342
 11
786.768962
 21
1711.653342
  0
LINE
  5
1EA
100
AcDbEntity
  8
M0
 62
     6
100
AcDbLine
 10
788.868952
 20
1697.65334
 11
788.868961
 21
1711.65334
  0
LINE
  5
1EB
100
AcDbEntity
  8
M0
 62
     6
100
AcDbLine
 10
790.818952
 20
1697.653339
 11
788.868952
 21
1697.65334
  0
LINE
  5
1EC
100
AcDbEntity
  8
M0
 62
     6
100
AcDbLine
 10
786.768953
 20
1697.653342
 11
784.818952
 21
1697.653343
  0
LINE
  5
1ED
100
AcDbEntity
  8
M0
 62
     6
100
AcDbLine
 10
782.818925
 20
1654.653344
 11
782.818962
 21
1712.653344
  0
LINE
  5
1EE
100
AcDbEntity
  8
M0
  6
DASHDOT
 62
     6
100
AcDbLine
 10
800.819037
 20
1500.653352
 11
784.819038
 21
1500.653332
  0
LINE
  5
1EF
100
AcDbEntity
  8
M0
 62
     6
100
AcDbLine
 10
795.219039
 20
1498.853357
 11
795.219034
 21
1502.453348
  0
ARC
  5
1F0
100
AcDbEntity
  8
M0
 62
     6
100
AcDbCircle
 10
792.819038
 20
1500.653342
 40
3.0
100
AcDbArc
 50
36.870276
 51
143.12997
  0
ARC
  5
1F1
100
AcDbEntity
  8
M0
 62
     6
100
AcDbCircle
 10
792.819038
 20
1500.653342
 40
3.0
100
AcDbArc
 50
216.869735
 51
323.130344
  0
LINE
  5
1F2
100
AcDbEntity
  8
M0
 62
     6
100
AcDbLine
 10
797.819044
 20
1495.653348
 11
797.819032
 21
1504.653348
  0
LINE
  5
1F3
100
AcDbEntity
  8
M0
 62
     6
100
AcDbLine
 10
800.919032
 20
1504.653352
 11
797.819032
 21
1504.653348
  0
LINE
  5
1F4
100
AcDbEntity
  8
M0
 62
     6
100
AcDbLine
 10
797.819044
 20
1495.653348
 11
800.919043
 21
1495.653352
  0
LINE
  5
1F5
100
AcDbEntity
  8
M0
 62
     6
100
AcDbLine
 10
790.41904
 20
1498.853352
 11
790.419036
 21
1502.453342
  0
ARC
  5
1F6
100
AcDbEntity
  8
M0
 62
     6
100
AcDbCircle
 10
792.819038
 20
1500.653342
 40
3.0
100
AcDbArc
 50
216.869735
 51
323.130344
  0
LINE
  5
1F7
100
AcDbEntity
  8
M0
 62
     6
100
AcDbLine
 10
787.819045
 20
1495.653336
 11
787.819033
 21
1504.653336
  0
LINE
  5
1F8
100
AcDbEntity
  8
M0
 62
     6
100
AcDbLine
 10
784.719045
 20
1495.653332
 11
787.819045
 21
1495.653336
  0
LINE
  5
1F9
100
AcDbEntity
  8
M0
 62
     6
100
AcDbLine
 10
784.719034
 20
1504.653332
 11
787.819033
 21
1504.653336
  0
LINE
  5
1FA
100
AcDbEntity
  8
M0
 62
     6
100
AcDbLine
 10
800.819048
 20
1492.653363
 11
800.819025
 21
1510.653352
  0
LINE
  5
1FB
100
AcDbEntity
  8
M0
 62
     6
100
AcDbLine
 10
784.819049
 20
1492.653343
 11
784.819025
 21
1510.653332
  0
ARC
  5
1FC
100
AcDbEntity
  8
M0
 62
     6
100
AcDbCircle
 10
795.819026
 20
1509.553355
 40
3.0
100
AcDbArc
 50
270.0
 51
359.999929
  0
LINE
  5
1FD
100
AcDbEntity
  8
M0
 62
     6
100
AcDbLine
 10
795.81903
 20
1506.553355
 11
789.819031
 21
1506.553348
  0
ARC
  5
1FE
100
AcDbEntity
  8
M0
 62
     6
100
AcDbCircle
 10
789.819027
 20
1509.553347
 40
3.0
100
AcDbArc
 50
179.999964
 51
270.0
  0
LINE
  5
1FF
100
AcDbEntity
  8
M0
 62
     6
100
AcDbLine
 10
802.819025
 20
1510.653354
 11
782.819025
 21
1510.653329
  0
LINE
  5
200
100
AcDbEntity
  8
M0
 62
     6
100
AcDbLine
 10
782.818952
 20
1568.653329
 11
782.819025
 21
1510.653329
  0
LINE
  5
201
100
AcDbEntity
  8
M0
 62
     6
100
AcDbLine
 10
786.818962
 20
1510.653334
 11
786.818963
 21
1509.553343
  0
LINE
  5
202
100
AcDbEntity
  8
M0
 62
     6
100
AcDbLine
 10
798.818961
 20
1510.653342
 11
798.818962
 21
1509.553351
  0
LINE
  5
203
100
AcDbEntity
  8
M0
  6
DASHDOT
100
AcDbLine
 10
781.370612
 20
872.943293
 11
805.370611
 21
872.943277
  0
LINE
  5
204
100
AcDbEntity
  8
M0
  6
DASHDOT
100
AcDbLine
 10
805.370611
 20
872.943277
 11
805.370761
 21
1110.943262
  0
LINE
  5
205
100
AcDbEntity
  8
M0
  6
DASHDOT
100
AcDbLine
 10
805.370761
 20
1110.943262
 11
781.370762
 21
1110.943277
  0
LINE
  5
206
100
AcDbEntity
  8
M0
  6
DASHDOT
100
AcDbLine
 10
251.369425
 20
872.94494
 11
227.369426
 21
872.945074
  0
LINE
  5
207
100
AcDbEntity
  8
M0
  6
DASHDOT
100
AcDbLine
 10
227.369426
 20
872.945074
 11
227.370757
 21
1110.945059
  0
LINE
  5
208
100
AcDbEntity
  8
M0
  6
DASHDOT
100
AcDbLine
 10
227.370757
 20
1110.945059
 11
251.370756
 21
1110.944925
  0
LINE
  5
209
100
AcDbEntity
  8
M0
100
AcDbLine
 10
741.368883
 20
1453.653338
 11
741.368883
 21
1485.653338
  0
LINE
  5
20A
100
AcDbEntity
  8
M0
100
AcDbLine
 10
701.368883
 20
1485.653338
 11
701.368883
 21
1453.653338
  0
LINE
  5
20B
100
AcDbEntity
  8
M0
100
AcDbLine
 10
701.368883
 20
1453.653338
 11
741.368883
 21
1453.653338
  0
LINE
  5
20C
100
AcDbEntity
  8
M0
100
AcDbLine
 10
696.368883
 20
1522.653338
 11
696.368883
 21
1499.653338
  0
LINE
  5
20D
100
AcDbEntity
  8
M0
100
AcDbLine
 10
701.368883
 20
1485.653338
 11
696.368883
 21
1499.653338
  0
LINE
  5
20E
100
AcDbEntity
  8
M0
100
AcDbLine
 10
726.368883
 20
1522.653338
 11
726.368883
 21
1499.653338
  0
LINE
  5
20F
100
AcDbEntity
  8
M0
100
AcDbLine
 10
741.368868
 20
1485.653338
 11
726.368883
 21
1499.653338
  0
CIRCLE
  5
210
100
AcDbEntity
  8
M0
100
AcDbCircle
 10
721.368883
 20
1469.653338
 40
6.0
  0
LINE
  5
211
100
AcDbEntity
  8
M0
100
AcDbLine
 10
631.368883
 20
1453.653338
 11
671.368883
 21
1453.653338
  0
LINE
  5
212
100
AcDbEntity
  8
M0
  6
DASHDOT
100
AcDbLine
 10
651.368883
 20
1428.653307
 11
651.368883
 21
1611.653307
  0
LINE
  5
213
100
AcDbEntity
  8
M0
100
AcDbLine
 10
631.368883
 20
1485.653338
 11
631.368883
 21
1453.653338
  0
LINE
  5
214
100
AcDbEntity
  8
M0
100
AcDbLine
 10
671.368883
 20
1453.653338
 11
671.368883
 21
1485.653338
  0
LINE
  5
215
100
AcDbEntity
  8
M0
100
AcDbLine
 10
666.368883
 20
1522.653338
 11
666.368883
 21
1499.653338
  0
LINE
  5
216
100
AcDbEntity
  8
M0
100
AcDbLine
 10
666.368883
 20
1499.653338
 11
671.368883
 21
1485.653338
  0
LINE
  5
217
100
AcDbEntity
  8
M0
100
AcDbLine
 10
631.368883
 20
1485.653338
 11
636.368883
 21
1499.653338
  0
LINE
  5
218
100
AcDbEntity
  8
M0
100
AcDbLine
 10
636.368883
 20
1522.653338
 11
636.368883
 21
1499.653338
  0
CIRCLE
  5
219
100
AcDbEntity
  8
M0
100
AcDbCircle
 10
651.368883
 20
1469.653338
 40
6.0
  0
LINE
  5
21A
100
AcDbEntity
  8
M0
 62
     6
100
AcDbLine
 10
651.368883
 20
1458.703265
 11
641.885973
 21
1464.178271
  0
LINE
  5
21B
100
AcDbEntity
  8
M0
 62
     6
100
AcDbLine
 10
641.885973
 20
1464.178271
 11
641.885973
 21
1475.128252
  0
LINE
  5
21C
100
AcDbEntity
  8
M0
 62
     6
100
AcDbLine
 10
641.885973
 20
1475.128252
 11
651.368883
 21
1480.603259
  0
LINE
  5
21D
100
AcDbEntity
  8
M0
 62
     6
100
AcDbLine
 10
651.368883
 20
1480.603259
 11
660.852038
 21
1475.128252
  0
LINE
  5
21E
100
AcDbEntity
  8
M0
 62
     6
100
AcDbLine
 10
660.852038
 20
1475.128252
 11
660.852038
 21
1464.17824
  0
LINE
  5
21F
100
AcDbEntity
  8
M0
 62
     6
100
AcDbLine
 10
660.852038
 20
1464.17824
 11
651.368883
 21
1458.703265
  0
CIRCLE
  5
220
100
AcDbEntity
  8
M0
 62
     6
100
AcDbCircle
 10
651.368883
 20
1469.653246
 40
6.0
  0
LINE
  5
221
100
AcDbEntity
  8
M0
  6
DASHDOT
 62
     6
100
AcDbLine
 10
665.074206
 20
1469.653353
 11
637.664446
 21
1469.653353
  0
LINE
  5
222
100
AcDbEntity
  8
M0
  6
DASHDOT
 62
     6
100
AcDbLine
 10
651.369127
 20
1483.358279
 11
651.369372
 21
1455.948428
  0
LINE
  5
223
100
AcDbEntity
  8
M0
 62
     6
100
AcDbLine
 10
721.368883
 20
1458.703265
 11
711.885973
 21
1464.178271
  0
LINE
  5
224
100
AcDbEntity
  8
M0
 62
     6
100
AcDbLine
 10
711.885973
 20
1464.178271
 11
711.885973
 21
1475.128252
  0
LINE
  5
225
100
AcDbEntity
  8
M0
 62
     6
100
AcDbLine
 10
711.885973
 20
1475.128252
 11
721.368883
 21
1480.603259
  0
LINE
  5
226
100
AcDbEntity
  8
M0
 62
     6
100
AcDbLine
 10
721.368883
 20
1480.603259
 11
730.852038
 21
1475.128252
  0
LINE
  5
227
100
AcDbEntity
  8
M0
 62
     6
100
AcDbLine
 10
730.852038
 20
1475.128252
 11
730.852038
 21
1464.17824
  0
LINE
  5
228
100
AcDbEntity
  8
M0
 62
     6
100
AcDbLine
 10
730.852038
 20
1464.17824
 11
721.368883
 21
1458.703265
  0
CIRCLE
  5
229
100
AcDbEntity
  8
M0
 62
     6
100
AcDbCircle
 10
721.368883
 20
1469.653246
 40
6.0
  0
LINE
  5
22A
100
AcDbEntity
  8
M0
  6
DASHDOT
 62
     6
100
AcDbLine
 10
735.074206
 20
1469.653353
 11
707.664446
 21
1469.653353
  0
LINE
  5
22B
100
AcDbEntity
  8
M0
  6
DASHDOT
 62
     6
100
AcDbLine
 10
721.369127
 20
1483.358279
 11
721.369372
 21
1455.948428
  0
LINE
  5
22C
100
AcDbEntity
  8
M0
100
AcDbLine
 10
561.368883
 20
1453.653338
 11
561.368883
 21
1485.653338
  0
LINE
  5
22D
100
AcDbEntity
  8
M0
100
AcDbLine
 10
601.368883
 20
1485.653338
 11
601.368883
 21
1453.653338
  0
LINE
  5
22E
100
AcDbEntity
  8
M0
100
AcDbLine
 10
601.368883
 20
1453.653338
 11
561.368883
 21
1453.653338
  0
LINE
  5
22F
100
AcDbEntity
  8
M0
100
AcDbLine
 10
606.368883
 20
1522.653338
 11
606.368883
 21
1499.653338
  0
LINE
  5
230
100
AcDbEntity
  8
M0
100
AcDbLine
 10
601.368883
 20
1485.653338
 11
606.368883
 21
1499.653338
  0
LINE
  5
231
100
AcDbEntity
  8
M0
100
AcDbLine
 10
576.368883
 20
1522.653338
 11
576.368883
 21
1499.653338
  0
LINE
  5
232
100
AcDbEntity
  8
M0
100
AcDbLine
 10
561.368899
 20
1485.653338
 11
576.368883
 21
1499.653338
  0
CIRCLE
  5
233
100
AcDbEntity
  8
M0
100
AcDbCircle
 10
581.368883
 20
1469.653338
 40
6.0
  0
LINE
  5
234
100
AcDbEntity
  8
M0
 62
     6
100
AcDbLine
 10
581.368883
 20
1458.703265
 11
590.851793
 21
1464.178271
  0
LINE
  5
235
100
AcDbEntity
  8
M0
 62
     6
100
AcDbLine
 10
590.851793
 20
1464.178271
 11
590.851793
 21
1475.128252
  0
LINE
  5
236
100
AcDbEntity
  8
M0
 62
     6
100
AcDbLine
 10
590.851793
 20
1475.128252
 11
581.368883
 21
1480.603259
  0
LINE
  5
237
100
AcDbEntity
  8
M0
 62
     6
100
AcDbLine
 10
581.368883
 20
1480.603259
 11
571.885729
 21
1475.128252
  0
LINE
  5
238
100
AcDbEntity
  8
M0
 62
     6
100
AcDbLine
 10
571.885729
 20
1475.128252
 11
571.885729
 21
1464.17824
  0
LINE
  5
239
100
AcDbEntity
  8
M0
 62
     6
100
AcDbLine
 10
571.885729
 20
1464.17824
 11
581.368883
 21
1458.703265
  0
CIRCLE
  5
23A
100
AcDbEntity
  8
M0
 62
     6
100
AcDbCircle
 10
581.368883
 20
1469.653246
 40
6.0
  0
LINE
  5
23B
100
AcDbEntity
  8
M0
  6
DASHDOT
 62
     6
100
AcDbLine
 10
567.663561
 20
1469.653353
 11
595.073321
 21
1469.653353
  0
LINE
  5
23C
100
AcDbEntity
  8
M0
  6
DASHDOT
 62
     6
100
AcDbLine
 10
581.368639
 20
1483.358279
 11
581.368395
 21
1455.948428
  0
LINE
  5
23D
100
AcDbEntity
  8
M0
100
AcDbLine
 10
561.36881
 20
1769.653325
 11
561.36883
 21
1737.653325
  0
LINE
  5
23E
100
AcDbEntity
  8
M0
100
AcDbLine
 10
601.36883
 20
1737.65335
 11
601.36881
 21
1769.65335
  0
LINE
  5
23F
100
AcDbEntity
  8
M0
100
AcDbLine
 10
601.36881
 20
1769.65335
 11
561.36881
 21
1769.653325
  0
LINE
  5
240
100
AcDbEntity
  8
M0
100
AcDbLine
 10
606.368853
 20
1700.653354
 11
606.368838
 21
1723.653354
  0
LINE
  5
241
100
AcDbEntity
  8
M0
100
AcDbLine
 10
601.36883
 20
1737.65335
 11
606.368838
 21
1723.653354
  0
LINE
  5
242
100
AcDbEntity
  8
M0
100
AcDbLine
 10
576.368853
 20
1700.653335
 11
576.368838
 21
1723.653335
  0
LINE
  5
243
100
AcDbEntity
  8
M0
100
AcDbLine
 10
561.368845
 20
1737.653325
 11
576.368838
 21
1723.653335
  0
CIRCLE
  5
244
100
AcDbEntity
  8
M0
100
AcDbCircle
 10
581.36882
 20
1753.653338
 40
6.0
  0
LINE
  5
245
100
AcDbEntity
  8
M0
100
AcDbLine
 10
631.36881
 20
1769.653325
 11
671.36881
 21
1769.65335
  0
LINE
  5
246
100
AcDbEntity
  8
M0
  6
DASHDOT
100
AcDbLine
 10
651.36855
 20
1794.653307
 11
651.368665
 21
1611.653307
  0
LINE
  5
247
100
AcDbEntity
  8
M0
100
AcDbLine
 10
631.36883
 20
1737.653325
 11
631.36881
 21
1769.653325
  0
LINE
  5
248
100
AcDbEntity
  8
M0
100
AcDbLine
 10
671.36881
 20
1769.65335
 11
671.36883
 21
1737.65335
  0
LINE
  5
249
100
AcDbEntity
  8
M0
100
AcDbLine
 10
666.368853
 20
1700.653347
 11
666.368838
 21
1723.653347
  0
LINE
  5
24A
100
AcDbEntity
  8
M0
100
AcDbLine
 10
666.368838
 20
1723.653347
 11
671.36883
 21
1737.65335
  0
LINE
  5
24B
100
AcDbEntity
  8
M0
100
AcDbLine
 10
631.36883
 20
1737.653325
 11
636.368838
 21
1723.653329
  0
LINE
  5
24C
100
AcDbEntity
  8
M0
100
AcDbLine
 10
636.368853
 20
1700.653329
 11
636.368838
 21
1723.653329
  0
CIRCLE
  5
24D
100
AcDbEntity
  8
M0
100
AcDbCircle
 10
651.36882
 20
1753.653338
 40
6.0
  0
LINE
  5
24E
100
AcDbEntity
  8
M0
100
AcDbLine
 10
741.36881
 20
1769.65335
 11
741.36883
 21
1737.65335
  0
LINE
  5
24F
100
AcDbEntity
  8
M0
100
AcDbLine
 10
701.36883
 20
1737.653325
 11
701.36881
 21
1769.653325
  0
LINE
  5
250
100
AcDbEntity
  8
M0
100
AcDbLine
 10
701.36881
 20
1769.653325
 11
741.36881
 21
1769.65335
  0
LINE
  5
251
100
AcDbEntity
  8
M0
100
AcDbLine
 10
696.368853
 20
1700.653322
 11
696.368838
 21
1723.653322
  0
LINE
  5
252
100
AcDbEntity
  8
M0
100
AcDbLine
 10
701.36883
 20
1737.653325
 11
696.368838
 21
1723.653322
  0
LINE
  5
253
100
AcDbEntity
  8
M0
100
AcDbLine
 10
726.368853
 20
1700.653341
 11
726.368838
 21
1723.653341
  0
LINE
  5
254
100
AcDbEntity
  8
M0
100
AcDbLine
 10
741.368814
 20
1737.65335
 11
726.368838
 21
1723.653341
  0
CIRCLE
  5
255
100
AcDbEntity
  8
M0
100
AcDbCircle
 10
721.36882
 20
1753.653338
 40
6.0
  0
LINE
  5
256
100
AcDbEntity
  8
M0
 62
     6
100
AcDbLine
 10
721.368813
 20
1764.603411
 11
711.885906
 21
1759.128399
  0
LINE
  5
257
100
AcDbEntity
  8
M0
 62
     6
100
AcDbLine
 10
711.885906
 20
1759.128399
 11
711.885913
 21
1748.178417
  0
LINE
  5
258
100
AcDbEntity
  8
M0
 62
     6
100
AcDbLine
 10
711.885913
 20
1748.178417
 11
721.368826
 21
1742.703417
  0
LINE
  5
259
100
AcDbEntity
  8
M0
 62
     6
100
AcDbLine
 10
721.368826
 20
1742.703417
 11
730.851977
 21
1748.178429
  0
LINE
  5
25A
100
AcDbEntity
  8
M0
 62
     6
100
AcDbLine
 10
730.851977
 20
1748.178429
 11
730.85197
 21
1759.128442
  0
LINE
  5
25B
100
AcDbEntity
  8
M0
 62
     6
100
AcDbLine
 10
730.85197
 20
1759.128442
 11
721.368813
 21
1764.603411
  0
CIRCLE
  5
25C
100
AcDbEntity
  8
M0
 62
     6
100
AcDbCircle
 10
721.36882
 20
1753.653429
 40
6.0
  0
LINE
  5
25D
100
AcDbEntity
  8
M0
  6
DASHDOT
 62
     6
100
AcDbLine
 10
735.074142
 20
1753.653331
 11
707.664382
 21
1753.653314
  0
LINE
  5
25E
100
AcDbEntity
  8
M0
  6
DASHDOT
 62
     6
100
AcDbLine
 10
721.369072
 20
1739.948397
 11
721.369299
 21
1767.358248
  0
LINE
  5
25F
100
AcDbEntity
  8
M0
 62
     6
100
AcDbLine
 10
651.368813
 20
1764.603411
 11
641.885906
 21
1759.128399
  0
LINE
  5
260
100
AcDbEntity
  8
M0
 62
     6
100
AcDbLine
 10
641.885906
 20
1759.128399
 11
641.885913
 21
1748.178417
  0
LINE
  5
261
100
AcDbEntity
  8
M0
 62
     6
100
AcDbLine
 10
641.885913
 20
1748.178417
 11
651.368826
 21
1742.703417
  0
LINE
  5
262
100
AcDbEntity
  8
M0
 62
     6
100
AcDbLine
 10
651.368826
 20
1742.703417
 11
660.851977
 21
1748.178429
  0
LINE
  5
263
100
AcDbEntity
  8
M0
 62
     6
100
AcDbLine
 10
660.851977
 20
1748.178429
 11
660.85197
 21
1759.128442
  0
LINE
  5
264
100
AcDbEntity
  8
M0
 62
     6
100
AcDbLine
 10
660.85197
 20
1759.128442
 11
651.368813
 21
1764.603411
  0
CIRCLE
  5
265
100
AcDbEntity
  8
M0
 62
     6
100
AcDbCircle
 10
651.36882
 20
1753.653429
 40
6.0
  0
LINE
  5
266
100
AcDbEntity
  8
M0
  6
DASHDOT
 62
     6
100
AcDbLine
 10
665.074142
 20
1753.653331
 11
637.664382
 21
1753.653314
  0
LINE
  5
267
100
AcDbEntity
  8
M0
 62
     6
100
AcDbLine
 10
581.368813
 20
1764.603411
 11
590.851726
 21
1759.128411
  0
LINE
  5
268
100
AcDbEntity
  8
M0
 62
     6
100
AcDbLine
 10
590.851726
 20
1759.128411
 11
590.851733
 21
1748.178429
  0
LINE
  5
269
100
AcDbEntity
  8
M0
 62
     6
100
AcDbLine
 10
590.851733
 20
1748.178429
 11
581.368826
 21
1742.703417
  0
LINE
  5
26A
100
AcDbEntity
  8
M0
 62
     6
100
AcDbLine
 10
581.368826
 20
1742.703417
 11
571.885669
 21
1748.178417
  0
LINE
  5
26B
100
AcDbEntity
  8
M0
 62
     6
100
AcDbLine
 10
571.885669
 20
1748.178417
 11
571.885662
 21
1759.12843
  0
LINE
  5
26C
100
AcDbEntity
  8
M0
 62
     6
100
AcDbLine
 10
571.885662
 20
1759.12843
 11
581.368813
 21
1764.603411
  0
CIRCLE
  5
26D
100
AcDbEntity
  8
M0
 62
     6
100
AcDbCircle
 10
581.36882
 20
1753.653429
 40
6.0
  0
LINE
  5
26E
100
AcDbEntity
  8
M0
  6
DASHDOT
 62
     6
100
AcDbLine
 10
567.663497
 20
1753.653314
 11
595.073257
 21
1753.653331
  0
LINE
  5
26F
100
AcDbEntity
  8
M0
  6
DASHDOT
 62
     6
100
AcDbLine
 10
581.368584
 20
1739.948397
 11
581.368323
 21
1767.358248
  0
ARC
  5
270
100
AcDbEntity
  8
M0
 62
     2
100
AcDbCircle
 10
526.368883
 20
1701.653338
 40
5.0
100
AcDbArc
 50
89.999825
 51
180.0
  0
LINE
  5
271
100
AcDbEntity
  8
M0
 62
     2
100
AcDbLine
 10
561.368883
 20
1706.653338
 11
526.368883
 21
1706.653338
  0
ARC
  5
272
100
AcDbEntity
  8
M0
 62
     2
100
AcDbCircle
 10
561.368883
 20
1702.653338
 40
4.0
100
AcDbArc
 50
0.0
 51
89.999781
  0
LINE
  5
273
100
AcDbEntity
  8
M0
 62
     2
100
AcDbLine
 10
521.368883
 20
1681.653338
 11
555.368883
 21
1681.653338
  0
LINE
  5
274
100
AcDbEntity
  8
M0
 62
     2
100
AcDbLine
 10
521.368883
 20
1701.653338
 11
521.368883
 21
1491.653353
  0
ARC
  5
275
100
AcDbEntity
  8
M0
 62
     2
100
AcDbCircle
 10
526.368883
 20
1491.653353
 40
5.0
100
AcDbArc
 50
179.999825
 51
270.0
  0
ARC
  5
276
100
AcDbEntity
  8
M0
 62
     2
100
AcDbCircle
 10
561.368883
 20
1520.653339
 40
4.0
100
AcDbArc
 50
270.0
 51
360.0
  0
ARC
  5
277
100
AcDbEntity
  8
M0
 62
     2
100
AcDbCircle
 10
559.368883
 20
1520.653339
 40
4.0
100
AcDbArc
 50
179.999973
 51
270.0
  0
LINE
  5
278
100
AcDbEntity
  8
M0
 62
     2
100
AcDbLine
 10
561.368883
 20
1516.653339
 11
543.368883
 21
1516.653339
  0
LINE
  5
279
100
AcDbEntity
  8
M0
 62
     2
100
AcDbLine
 10
538.368883
 20
1516.653339
 11
521.368883
 21
1516.653339
  0
LINE
  5
27A
100
AcDbEntity
  8
M0
 62
     2
100
AcDbLine
 10
526.368883
 20
1486.653353
 11
546.106295
 21
1486.653353
  0
ARC
  5
27B
100
AcDbEntity
  8
M0
 62
     2
100
AcDbCircle
 10
546.106295
 20
1491.653353
 40
5.0
100
AcDbArc
 50
270.0
 51
336.250768
  0
ARC
  5
27C
100
AcDbEntity
  8
M0
 62
     2
100
AcDbCircle
 10
536.368883
 20
1694.653338
 40
6.0
100
AcDbArc
 50
131.40952
 51
228.590577
  0
ARC
  5
27D
100
AcDbEntity
  8
M0
 62
     2
100
AcDbCircle
 10
536.368883
 20
1694.653338
 40
6.0
100
AcDbArc
 50
311.409533
 51
408.590056
  0
LINE
  5
27E
100
AcDbEntity
  8
M0
 62
     2
100
AcDbLine
 10
540.337511
 20
1690.153338
 11
532.400271
 21
1690.153338
  0
LINE
  5
27F
100
AcDbEntity
  8
M0
 62
     2
100
AcDbLine
 10
540.337511
 20
1699.153338
 11
532.400271
 21
1699.153338
  0
ARC
  5
280
100
AcDbEntity
  8
M0
 62
     2
100
AcDbCircle
 10
536.368883
 20
1501.65334
 40
6.0
100
AcDbArc
 50
131.409308
 51
228.590522
  0
ARC
  5
281
100
AcDbEntity
  8
M0
 62
     2
100
AcDbCircle
 10
536.368883
 20
1501.65334
 40
6.0
100
AcDbArc
 50
311.409611
 51
408.590371
  0
LINE
  5
282
100
AcDbEntity
  8
M0
 62
     2
100
AcDbLine
 10
540.337511
 20
1497.15334
 11
532.400271
 21
1497.15334
  0
LINE
  5
283
100
AcDbEntity
  8
M0
 62
     2
100
AcDbLine
 10
540.337511
 20
1506.15334
 11
532.400271
 21
1506.15334
  0
LINE
  5
284
100
AcDbEntity
  8
M0
 62
     2
100
AcDbLine
 10
560.368883
 20
1511.653339
 11
560.368883
 21
1516.653339
  0
LINE
  5
285
100
AcDbEntity
  8
M0
 62
     2
100
AcDbLine
 10
521.368883
 20
1566.653338
 11
553.868883
 21
1566.653338
  0
LINE
  5
286
100
AcDbEntity
  8
M0
 62
     2
100
AcDbLine
 10
538.368883
 20
1566.653338
 11
538.368883
 21
1516.653339
  0
LINE
  5
287
100
AcDbEntity
  8
M0
 62
     2
100
AcDbLine
 10
543.368883
 20
1516.653339
 11
543.368883
 21
1566.653338
  0
LINE
  5
288
100
AcDbEntity
  8
M0
 62
     2
100
AcDbLine
 10
538.368883
 20
1529.653338
 11
540.868883
 21
1532.653338
  0
LINE
  5
289
100
AcDbEntity
  8
M0
 62
     2
100
AcDbLine
 10
538.368883
 20
1516.653339
 11
540.868883
 21
1519.653339
  0
LINE
  5
28A
100
AcDbEntity
  8
M0
 62
     2
100
AcDbLine
 10
543.368883
 20
1529.653338
 11
540.868883
 21
1532.653338
  0
LINE
  5
28B
100
AcDbEntity
  8
M0
 62
     2
100
AcDbLine
 10
543.368883
 20
1516.653339
 11
540.868883
 21
1519.653339
  0
LINE
  5
28C
100
AcDbEntity
  8
M0
 62
     2
100
AcDbLine
 10
521.368883
 20
1529.653338
 11
538.368883
 21
1529.653338
  0
LINE
  5
28D
100
AcDbEntity
  8
M0
 62
     2
100
AcDbLine
 10
543.368883
 20
1529.653338
 11
555.368883
 21
1529.653338
  0
LINE
  5
28E
100
AcDbEntity
  8
M0
 62
     2
100
AcDbLine
 10
540.868883
 20
1566.653338
 11
540.868883
 21
1519.653339
  0
LINE
  5
28F
100
AcDbEntity
  8
M0
 62
     2
100
AcDbLine
 10
550.682863
 20
1489.639651
 11
560.368883
 21
1511.653339
  0
ARC
  5
290
100
AcDbEntity
  8
M0
 62
     2
100
AcDbCircle
 10
776.368883
 20
1701.653338
 40
5.0
100
AcDbArc
 50
0.0
 51
90.0
  0
LINE
  5
291
100
AcDbEntity
  8
M0
 62
     2
100
AcDbLine
 10
741.368883
 20
1706.653338
 11
776.368883
 21
1706.653338
  0
ARC
  5
292
100
AcDbEntity
  8
M0
 62
     2
100
AcDbCircle
 10
741.368883
 20
1702.653338
 40
4.0
100
AcDbArc
 50
90.0
 51
180.0
  0
LINE
  5
293
100
AcDbEntity
  8
M0
 62
     2
100
AcDbLine
 10
781.368883
 20
1681.653338
 11
747.368883
 21
1681.653338
  0
LINE
  5
294
100
AcDbEntity
  8
M0
 62
     2
100
AcDbLine
 10
781.368883
 20
1701.653338
 11
781.368883
 21
1491.653353
  0
ARC
  5
295
100
AcDbEntity
  8
M0
 62
     2
100
AcDbCircle
 10
776.368883
 20
1491.653353
 40
5.0
100
AcDbArc
 50
-90.000175
 51
0.0
  0
ARC
  5
296
100
AcDbEntity
  8
M0
 62
     2
100
AcDbCircle
 10
741.368883
 20
1520.653339
 40
4.0
100
AcDbArc
 50
179.999973
 51
269.999781
  0
ARC
  5
297
100
AcDbEntity
  8
M0
 62
     2
100
AcDbCircle
 10
743.368883
 20
1520.653339
 40
4.0
100
AcDbArc
 50
-90.000219
 51
0.0
  0
LINE
  5
298
100
AcDbEntity
  8
M0
 62
     2
100
AcDbLine
 10
741.368883
 20
1516.653339
 11
759.368883
 21
1516.653339
  0
LINE
  5
299
100
AcDbEntity
  8
M0
 62
     2
100
AcDbLine
 10
764.368883
 20
1516.653339
 11
781.368883
 21
1516.653339
  0
LINE
  5
29A
100
AcDbEntity
  8
M0
 62
     2
100
AcDbLine
 10
776.368883
 20
1486.653353
 11
756.631472
 21
1486.653353
  0
ARC
  5
29B
100
AcDbEntity
  8
M0
 62
     2
100
AcDbCircle
 10
756.631472
 20
1491.653353
 40
5.0
100
AcDbArc
 50
203.749002
 51
269.999825
  0
ARC
  5
29C
100
AcDbEntity
  8
M0
 62
     2
100
AcDbCircle
 10
766.368883
 20
1694.653338
 40
6.0
100
AcDbArc
 50
-48.590782
 51
48.59048
  0
ARC
  5
29D
100
AcDbEntity
  8
M0
 62
     2
100
AcDbCircle
 10
766.368883
 20
1694.653338
 40
6.0
100
AcDbArc
 50
131.409629
 51
228.590371
  0
LINE
  5
29E
100
AcDbEntity
  8
M0
 62
     2
100
AcDbLine
 10
762.400255
 20
1690.153338
 11
770.337496
 21
1690.153338
  0
LINE
  5
29F
100
AcDbEntity
  8
M0
 62
     2
100
AcDbLine
 10
762.400255
 20
1699.153338
 11
770.337496
 21
1699.153338
  0
ARC
  5
2A0
100
AcDbEntity
  8
M0
 62
     2
100
AcDbCircle
 10
766.368883
 20
1501.65334
 40
6.0
100
AcDbArc
 50
-48.590722
 51
48.590559
  0
ARC
  5
2A1
100
AcDbEntity
  8
M0
 62
     2
100
AcDbCircle
 10
766.368883
 20
1501.65334
 40
6.0
100
AcDbArc
 50
131.409623
 51
228.590183
  0
LINE
  5
2A2
100
AcDbEntity
  8
M0
 62
     2
100
AcDbLine
 10
762.400255
 20
1497.15334
 11
770.337496
 21
1497.15334
  0
LINE
  5
2A3
100
AcDbEntity
  8
M0
 62
     2
100
AcDbLine
 10
762.400255
 20
1506.15334
 11
770.337496
 21
1506.15334
  0
LINE
  5
2A4
100
AcDbEntity
  8
M0
 62
     2
100
AcDbLine
 10
742.368883
 20
1511.653339
 11
742.368883
 21
1516.653339
  0
LINE
  5
2A5
100
AcDbEntity
  8
M0
 62
     2
100
AcDbLine
 10
781.368883
 20
1566.653338
 11
748.868868
 21
1566.653338
  0
LINE
  5
2A6
100
AcDbEntity
  8
M0
 62
     2
100
AcDbLine
 10
764.368883
 20
1566.653338
 11
764.368883
 21
1516.653339
  0
LINE
  5
2A7
100
AcDbEntity
  8
M0
 62
     2
100
AcDbLine
 10
759.368883
 20
1516.653339
 11
759.368883
 21
1566.653338
  0
LINE
  5
2A8
100
AcDbEntity
  8
M0
 62
     2
100
AcDbLine
 10
764.368883
 20
1529.653338
 11
761.868883
 21
1532.653338
  0
LINE
  5
2A9
100
AcDbEntity
  8
M0
 62
     2
100
AcDbLine
 10
764.368883
 20
1516.653339
 11
761.868883
 21
1519.653339
  0
LINE
  5
2AA
100
AcDbEntity
  8
M0
 62
     2
100
AcDbLine
 10
759.368883
 20
1529.653338
 11
761.868883
 21
1532.653338
  0
LINE
  5
2AB
100
AcDbEntity
  8
M0
 62
     2
100
AcDbLine
 10
759.368883
 20
1516.653339
 11
761.868883
 21
1519.653339
  0
LINE
  5
2AC
100
AcDbEntity
  8
M0
 62
     2
100
AcDbLine
 10
781.368883
 20
1529.653338
 11
764.368883
 21
1529.653338
  0
LINE
  5
2AD
100
AcDbEntity
  8
M0
 62
     2
100
AcDbLine
 10
759.368883
 20
1529.653338
 11
747.368883
 21
1529.653338
  0
LINE
  5
2AE
100
AcDbEntity
  8
M0
 62
     2
100
AcDbLine
 10
761.868883
 20
1566.653338
 11
761.868883
 21
1519.653339
  0
LINE
  5
2AF
100
AcDbEntity
  8
M0
 62
     2
100
AcDbLine
 10
752.054903
 20
1489.639651
 11
742.368883
 21
1511.653339
  0
LINE
  5
2B0
100
AcDbEntity
  8
M0
 62
     6
100
AcDbLine
 10
780.168783
 20
1656.653336
 11
765.268783
 21
1656.65334
  0
LINE
  5
2B1
100
AcDbEntity
  8
M0
 62
     6
100
AcDbLine
 10
765.268783
 20
1656.65334
 11
765.268755
 21
1566.65334
  0
LINE
  5
2B2
100
AcDbEntity
  8
M0
 62
     6
100
AcDbLine
 10
765.268755
 20
1566.65334
 11
780.168754
 21
1566.653336
  0
LINE
  5
2B3
100
AcDbEntity
  8
M0
 62
     6
100
AcDbLine
 10
780.168754
 20
1566.653336
 11
780.168783
 21
1656.653336
  0
LINE
  5
2B4
100
AcDbEntity
  8
M0
 62
     6
100
AcDbLine
 10
767.218763
 20
1593.65334
 11
767.218763
 21
1595.15334
  0
LINE
  5
2B5
100
AcDbEntity
  8
M0
 62
     6
100
AcDbLine
 10
778.218763
 20
1593.653336
 11
778.218763
 21
1595.153336
  0
LINE
  5
2B6
100
AcDbEntity
  8
M0
 62
     6
100
AcDbLine
 10
767.218763
 20
1595.15334
 11
778.218763
 21
1595.153336
  0
LINE
  5
2B7
100
AcDbEntity
  8
M0
 62
     6
100
AcDbLine
 10
768.218767
 20
1605.25333
 11
768.218763
 21
1595.153339
  0
LINE
  5
2B8
100
AcDbEntity
  8
M0
 62
     6
100
AcDbLine
 10
768.218763
 20
1593.653339
 11
768.218755
 21
1566.653339
  0
LINE
  5
2B9
100
AcDbEntity
  8
M0
 62
     6
100
AcDbLine
 10
777.218767
 20
1605.253327
 11
777.218763
 21
1595.153337
  0
LINE
  5
2BA
100
AcDbEntity
  8
M0
 62
     6
100
AcDbLine
 10
777.218763
 20
1593.653337
 11
777.218755
 21
1566.653337
  0
LINE
  5
2BB
100
AcDbEntity
  8
M0
 62
     6
100
AcDbLine
 10
778.218763
 20
1593.653336
 11
777.218763
 21
1593.653337
  0
LINE
  5
2BC
100
AcDbEntity
  8
M0
 62
     6
100
AcDbLine
 10
768.218763
 20
1593.653339
 11
767.218763
 21
1593.65334
  0
LINE
  5
2BD
100
AcDbEntity
  8
M0
 62
     6
100
AcDbLine
 10
777.218767
 20
1605.253327
 11
768.218767
 21
1605.25333
  0
LINE
  5
2BE
100
AcDbEntity
  8
M0
 62
     6
100
AcDbLine
 10
768.218756
 20
1572.653339
 11
777.218756
 21
1572.653337
  0
LINE
  5
2BF
100
AcDbEntity
  8
M0
 62
     6
100
AcDbLine
 10
765.268761
 20
1586.65334
 11
768.218761
 21
1586.653339
  0
LINE
  5
2C0
100
AcDbEntity
  8
M0
 62
     6
100
AcDbLine
 10
777.218761
 20
1586.653337
 11
780.168761
 21
1586.653336
  0
LINE
  5
2C1
100
AcDbEntity
  8
M0
 62
     6
100
AcDbLine
 10
778.218774
 20
1629.653336
 11
778.218774
 21
1628.153336
  0
LINE
  5
2C2
100
AcDbEntity
  8
M0
 62
     6
100
AcDbLine
 10
767.218774
 20
1628.15334
 11
778.218774
 21
1628.153336
  0
LINE
  5
2C3
100
AcDbEntity
  8
M0
 62
     6
100
AcDbLine
 10
777.218771
 20
1618.05333
 11
777.218774
 21
1628.153337
  0
LINE
  5
2C4
100
AcDbEntity
  8
M0
 62
     6
100
AcDbLine
 10
777.218774
 20
1629.653337
 11
777.218783
 21
1656.653337
  0
LINE
  5
2C5
100
AcDbEntity
  8
M0
 62
     6
100
AcDbLine
 10
778.218774
 20
1629.653336
 11
777.218774
 21
1629.653337
  0
LINE
  5
2C6
100
AcDbEntity
  8
M0
 62
     6
100
AcDbLine
 10
777.218771
 20
1618.05333
 11
768.218771
 21
1618.053333
  0
LINE
  5
2C7
100
AcDbEntity
  8
M0
 62
     6
100
AcDbLine
 10
768.218781
 20
1650.653339
 11
777.218781
 21
1650.653337
  0
LINE
  5
2C8
100
AcDbEntity
  8
M0
 62
     6
100
AcDbLine
 10
777.218776
 20
1636.653337
 11
780.168776
 21
1636.653336
  0
LINE
  5
2C9
100
AcDbEntity
  8
M0
 62
     6
100
AcDbLine
 10
768.218771
 20
1618.053333
 11
768.218774
 21
1628.153339
  0
LINE
  5
2CA
100
AcDbEntity
  8
M0
 62
     6
100
AcDbLine
 10
767.218774
 20
1629.65334
 11
767.218774
 21
1628.15334
  0
LINE
  5
2CB
100
AcDbEntity
  8
M0
 62
     6
100
AcDbLine
 10
768.218774
 20
1629.653339
 11
767.218774
 21
1629.65334
  0
LINE
  5
2CC
100
AcDbEntity
  8
M0
 62
     6
100
AcDbLine
 10
768.218774
 20
1629.653339
 11
768.218783
 21
1656.653339
  0
LINE
  5
2CD
100
AcDbEntity
  8
M0
 62
     6
100
AcDbLine
 10
765.268777
 20
1636.65334
 11
768.218776
 21
1636.653339
  0
CIRCLE
  5
2CE
100
AcDbEntity
  8
M0
 62
     6
100
AcDbCircle
 10
772.718769
 20
1611.653338
 40
2.799999
  0
CIRCLE
  5
2CF
100
AcDbEntity
  8
M0
100
AcDbCircle
 10
772.718737
 20
1645.653307
 40
3.5
  0
CIRCLE
  5
2D0
100
AcDbEntity
  8
M0
100
AcDbCircle
 10
772.718737
 20
1623.153307
 40
3.5
  0
CIRCLE
  5
2D1
100
AcDbEntity
  8
M0
 62
     7
100
AcDbCircle
 10
757.818834
 20
1636.153307
 40
3.5
  0
CIRCLE
  5
2D2
100
AcDbEntity
  8
M0
 62
     7
100
AcDbCircle
 10
772.718737
 20
1587.153307
 40
3.5
  0
CIRCLE
  5
2D3
100
AcDbEntity
  8
M0
 62
     7
100
AcDbCircle
 10
772.718737
 20
1636.153307
 40
3.5
  0
CIRCLE
  5
2D4
100
AcDbEntity
  8
M0
 62
     7
100
AcDbCircle
 10
757.818834
 20
1587.153307
 40
3.5
  0
LINE
  5
2D5
100
AcDbEntity
  8
M0
 62
     6
100
AcDbLine
 10
537.469076
 20
1656.653336
 11
522.569076
 21
1656.65334
  0
LINE
  5
2D6
100
AcDbEntity
  8
M0
 62
     6
100
AcDbLine
 10
522.569076
 20
1656.65334
 11
522.569048
 21
1566.65334
  0
LINE
  5
2D7
100
AcDbEntity
  8
M0
 62
     6
100
AcDbLine
 10
522.569048
 20
1566.65334
 11
537.469047
 21
1566.653336
  0
LINE
  5
2D8
100
AcDbEntity
  8
M0
 62
     6
100
AcDbLine
 10
537.469047
 20
1566.653336
 11
537.469076
 21
1656.653336
  0
LINE
  5
2D9
100
AcDbEntity
  8
M0
 62
     6
100
AcDbLine
 10
524.519056
 20
1593.65334
 11
524.519056
 21
1595.15334
  0
LINE
  5
2DA
100
AcDbEntity
  8
M0
 62
     6
100
AcDbLine
 10
535.519056
 20
1593.653336
 11
535.519056
 21
1595.153336
  0
LINE
  5
2DB
100
AcDbEntity
  8
M0
 62
     6
100
AcDbLine
 10
524.519056
 20
1595.15334
 11
535.519056
 21
1595.153336
  0
LINE
  5
2DC
100
AcDbEntity
  8
M0
 62
     6
100
AcDbLine
 10
525.51906
 20
1605.25333
 11
525.519056
 21
1595.153339
  0
LINE
  5
2DD
100
AcDbEntity
  8
M0
 62
     6
100
AcDbLine
 10
525.519056
 20
1593.653339
 11
525.519047
 21
1566.653339
  0
LINE
  5
2DE
100
AcDbEntity
  8
M0
 62
     6
100
AcDbLine
 10
534.51906
 20
1605.253327
 11
534.519056
 21
1595.153337
  0
LINE
  5
2DF
100
AcDbEntity
  8
M0
 62
     6
100
AcDbLine
 10
534.519056
 20
1593.653337
 11
534.519047
 21
1566.653337
  0
LINE
  5
2E0
100
AcDbEntity
  8
M0
 62
     6
100
AcDbLine
 10
535.519056
 20
1593.653336
 11
534.519056
 21
1593.653337
  0
LINE
  5
2E1
100
AcDbEntity
  8
M0
 62
     6
100
AcDbLine
 10
525.519056
 20
1593.653339
 11
524.519056
 21
1593.65334
  0
LINE
  5
2E2
100
AcDbEntity
  8
M0
 62
     6
100
AcDbLine
 10
534.51906
 20
1605.253327
 11
525.51906
 21
1605.25333
  0
LINE
  5
2E3
100
AcDbEntity
  8
M0
 62
     6
100
AcDbLine
 10
525.519049
 20
1572.653339
 11
534.519049
 21
1572.653337
  0
LINE
  5
2E4
100
AcDbEntity
  8
M0
 62
     6
100
AcDbLine
 10
522.569054
 20
1586.65334
 11
525.519054
 21
1586.653339
  0
LINE
  5
2E5
100
AcDbEntity
  8
M0
 62
     6
100
AcDbLine
 10
534.519054
 20
1586.653337
 11
537.469054
 21
1586.653336
  0
LINE
  5
2E6
100
AcDbEntity
  8
M0
 62
     6
100
AcDbLine
 10
535.519067
 20
1629.653336
 11
535.519067
 21
1628.153336
  0
LINE
  5
2E7
100
AcDbEntity
  8
M0
 62
     6
100
AcDbLine
 10
524.519067
 20
1628.15334
 11
535.519067
 21
1628.153336
  0
LINE
  5
2E8
100
AcDbEntity
  8
M0
 62
     6
100
AcDbLine
 10
534.519064
 20
1618.05333
 11
534.519067
 21
1628.153337
  0
LINE
  5
2E9
100
AcDbEntity
  8
M0
 62
     6
100
AcDbLine
 10
534.519067
 20
1629.653337
 11
534.519076
 21
1656.653337
  0
LINE
  5
2EA
100
AcDbEntity
  8
M0
 62
     6
100
AcDbLine
 10
535.519067
 20
1629.653336
 11
534.519067
 21
1629.653337
  0
LINE
  5
2EB
100
AcDbEntity
  8
M0
 62
     6
100
AcDbLine
 10
534.519064
 20
1618.05333
 11
525.519064
 21
1618.053333
  0
LINE
  5
2EC
100
AcDbEntity
  8
M0
 62
     6
100
AcDbLine
 10
525.519074
 20
1650.653339
 11
534.519074
 21
1650.653337
  0
LINE
  5
2ED
100
AcDbEntity
  8
M0
 62
     6
100
AcDbLine
 10
534.519069
 20
1636.653337
 11
537.469069
 21
1636.653336
  0
LINE
  5
2EE
100
AcDbEntity
  8
M0
 62
     6
100
AcDbLine
 10
525.519064
 20
1618.053333
 11
525.519067
 21
1628.153339
  0
LINE
  5
2EF
100
AcDbEntity
  8
M0
 62
     6
100
AcDbLine
 10
524.519067
 20
1629.65334
 11
524.519067
 21
1628.15334
  0
LINE
  5
2F0
100
AcDbEntity
  8
M0
 62
     6
100
AcDbLine
 10
525.519067
 20
1629.653339
 11
524.519067
 21
1629.65334
  0
LINE
  5
2F1
100
AcDbEntity
  8
M0
 62
     6
100
AcDbLine
 10
525.519067
 20
1629.653339
 11
525.519076
 21
1656.653339
  0
LINE
  5
2F2
100
AcDbEntity
  8
M0
 62
     6
100
AcDbLine
 10
522.56907
 20
1636.65334
 11
525.519069
 21
1636.653339
  0
CIRCLE
  5
2F3
100
AcDbEntity
  8
M0
 62
     6
100
AcDbCircle
 10
530.019062
 20
1611.653338
 40
2.799999
  0
CIRCLE
  5
2F4
100
AcDbEntity
  8
M0
 62
     7
100
AcDbCircle
 10
544.918932
 20
1636.153307
 40
3.5
  0
CIRCLE
  5
2F5
100
AcDbEntity
  8
M0
 62
     7
100
AcDbCircle
 10
530.01903
 20
1636.153307
 40
3.5
  0
CIRCLE
  5
2F6
100
AcDbEntity
  8
M0
 62
     7
100
AcDbCircle
 10
544.918932
 20
1587.153307
 40
3.5
  0
CIRCLE
  5
2F7
100
AcDbEntity
  8
M0
 62
     7
100
AcDbCircle
 10
530.01903
 20
1587.153307
 40
3.5
  0
LINE
  5
2F8
100
AcDbEntity
  8
M0
100
AcDbLine
 10
648.368883
 20
1620.903307
 11
654.368883
 21
1620.903307
  0
LINE
  5
2F9
100
AcDbEntity
  8
M0
100
AcDbLine
 10
654.368883
 20
1620.903307
 11
654.368883
 21
1625.403307
  0
LINE
  5
2FA
100
AcDbEntity
  8
M0
100
AcDbLine
 10
654.368883
 20
1625.403307
 11
648.368883
 21
1625.403307
  0
LINE
  5
2FB
100
AcDbEntity
  8
M0
100
AcDbLine
 10
648.368883
 20
1625.403307
 11
648.368883
 21
1620.903307
  0
LINE
  5
2FC
100
AcDbEntity
  8
M0
  6
DASHDOT
100
AcDbLine
 10
516.36986
 20
1702.652819
 11
516.36986
 21
1782.652819
  0
CIRCLE
  5
2FD
100
AcDbEntity
  8
M0
100
AcDbCircle
 10
381.370836
 20
1753.653307
 40
12.999992
  0
ARC
  5
2FE
100
AcDbEntity
  8
M0
 62
     7
100
AcDbCircle
 10
283.870836
 20
1568.153338
 40
1.5
100
AcDbArc
 50
180.0
 51
270.0
  0
ARC
  5
2FF
100
AcDbEntity
  8
M0
 62
     7
100
AcDbCircle
 10
283.870836
 20
1565.153338
 40
1.5
100
AcDbArc
 50
0.0
 51
89.999417
  0
ARC
  5
300
100
AcDbEntity
  8
M0
 62
     7
100
AcDbCircle
 10
286.370836
 20
1702.653338
 40
4.0
100
AcDbArc
 50
89.999781
 51
180.0
  0
LINE
  5
301
100
AcDbEntity
  8
M0
 62
     7
100
AcDbLine
 10
286.370836
 20
1706.653338
 11
291.370836
 21
1706.653338
  0
LINE
  5
302
100
AcDbEntity
  8
M0
 62
     7
100
AcDbLine
 10
355.990847
 20
1702.813326
 11
355.710848
 21
1703.773333
  0
ARC
  5
303
100
AcDbEntity
  8
M0
 62
     7
100
AcDbCircle
 10
358.870836
 20
1703.653338
 40
3.0
100
AcDbArc
 50
196.260753
 51
270.0
  0
LINE
  5
304
100
AcDbEntity
  8
M0
 62
     7
100
AcDbLine
 10
347.03084
 20
1703.773333
 11
346.750841
 21
1702.813326
  0
ARC
  5
305
100
AcDbEntity
  8
M0
 62
     7
100
AcDbCircle
 10
343.870836
 20
1703.653338
 40
3.0
100
AcDbArc
 50
270.0
 51
343.739609
  0
LINE
  5
306
100
AcDbEntity
  8
M0
 62
     7
100
AcDbLine
 10
295.490847
 20
1702.813326
 11
295.210848
 21
1703.773333
  0
ARC
  5
307
100
AcDbEntity
  8
M0
 62
     7
100
AcDbCircle
 10
291.370836
 20
1702.653338
 40
4.0
100
AcDbArc
 50
16.259462
 51
89.999781
  0
ARC
  5
308
100
AcDbEntity
  8
M0
 62
     7
100
AcDbCircle
 10
298.370836
 20
1703.653338
 40
3.0
100
AcDbArc
 50
196.260753
 51
270.0
  0
LINE
  5
309
100
AcDbEntity
  8
M0
 62
     7
100
AcDbLine
 10
298.370836
 20
1700.653338
 11
343.870836
 21
1700.653338
  0
ARC
  5
30A
100
AcDbEntity
  8
M0
 62
     7
100
AcDbCircle
 10
350.870836
 20
1702.653338
 40
4.0
100
AcDbArc
 50
89.999781
 51
163.739848
  0
ARC
  5
30B
100
AcDbEntity
  8
M0
 62
     7
100
AcDbCircle
 10
351.870836
 20
1702.653338
 40
4.0
100
AcDbArc
 50
16.259462
 51
89.999781
  0
LINE
  5
30C
100
AcDbEntity
  8
M0
 62
     7
100
AcDbLine
 10
351.870836
 20
1706.653338
 11
350.870836
 21
1706.653338
  0
ARC
  5
30D
100
AcDbEntity
  8
M0
 62
     7
100
AcDbCircle
 10
285.370836
 20
1689.653338
 40
3.0
100
AcDbArc
 50
180.0
 51
270.0
  0
ARC
  5
30E
100
AcDbEntity
  8
M0
 62
     7
100
AcDbCircle
 10
285.370836
 20
1673.653338
 40
3.0
100
AcDbArc
 50
89.999709
 51
180.0
  0
LINE
  5
30F
100
AcDbEntity
  8
M0
 62
     7
100
AcDbLine
 10
285.370836
 20
1686.653338
 11
290.370836
 21
1686.653338
  0
LINE
  5
310
100
AcDbEntity
  8
M0
 62
     7
100
AcDbLine
 10
285.370836
 20
1676.653338
 11
290.370836
 21
1676.653338
  0
CIRCLE
  5
311
100
AcDbEntity
  8
M0
 62
     7
100
AcDbCircle
 10
290.370836
 20
1681.653338
 40
2.5
  0
LINE
  5
312
100
AcDbEntity
  8
M0
  6
DASHDOT
 62
     7
100
AcDbLine
 10
297.870836
 20
1681.653338
 11
282.870836
 21
1681.653338
  0
LINE
  5
313
100
AcDbEntity
  8
M0
  6
DASHDOT
 62
     7
100
AcDbLine
 10
290.370836
 20
1674.153338
 11
290.370836
 21
1689.153338
  0
ARC
  5
314
100
AcDbEntity
  8
M0
 62
     7
100
AcDbCircle
 10
290.370836
 20
1681.653338
 40
5.0
100
AcDbArc
 50
-90.0
 51
89.999825
  0
ARC
  5
315
100
AcDbEntity
  8
M0
 62
     7
100
AcDbCircle
 10
476.370836
 20
1702.653338
 40
4.0
100
AcDbArc
 50
0.0
 51
90.0
  0
LINE
  5
316
100
AcDbEntity
  8
M0
 62
     7
100
AcDbLine
 10
476.370836
 20
1706.653338
 11
471.370836
 21
1706.653338
  0
LINE
  5
317
100
AcDbEntity
  8
M0
 62
     7
100
AcDbLine
 10
406.750826
 20
1702.813326
 11
407.030825
 21
1703.773333
  0
ARC
  5
318
100
AcDbEntity
  8
M0
 62
     7
100
AcDbCircle
 10
403.870836
 20
1703.653338
 40
3.0
100
AcDbArc
 50
269.999709
 51
343.738606
  0
LINE
  5
319
100
AcDbEntity
  8
M0
 62
     7
100
AcDbLine
 10
415.710833
 20
1703.773333
 11
415.990832
 21
1702.813326
  0
ARC
  5
31A
100
AcDbEntity
  8
M0
 62
     7
100
AcDbCircle
 10
418.870836
 20
1703.653338
 40
3.0
100
AcDbArc
 50
196.260391
 51
269.999709
  0
LINE
  5
31B
100
AcDbEntity
  8
M0
 62
     7
100
AcDbLine
 10
467.250826
 20
1702.813326
 11
467.530825
 21
1703.773333
  0
ARC
  5
31C
100
AcDbEntity
  8
M0
 62
     7
100
AcDbCircle
 10
471.370836
 20
1702.653338
 40
4.0
100
AcDbArc
 50
90.0
 51
163.740119
  0
ARC
  5
31D
100
AcDbEntity
  8
M0
 62
     7
100
AcDbCircle
 10
464.370836
 20
1703.653338
 40
3.0
100
AcDbArc
 50
269.999709
 51
343.738606
  0
LINE
  5
31E
100
AcDbEntity
  8
M0
 62
     7
100
AcDbLine
 10
464.370836
 20
1700.653338
 11
418.870836
 21
1700.653338
  0
LINE
  5
31F
100
AcDbEntity
  8
M0
 62
     7
100
AcDbLine
 10
358.870836
 20
1700.653338
 11
403.870836
 21
1700.653338
  0
ARC
  5
320
100
AcDbEntity
  8
M0
 62
     7
100
AcDbCircle
 10
411.870836
 20
1702.653338
 40
4.0
100
AcDbArc
 50
16.260152
 51
90.0
  0
ARC
  5
321
100
AcDbEntity
  8
M0
 62
     7
100
AcDbCircle
 10
410.870836
 20
1702.653338
 40
4.0
100
AcDbArc
 50
90.0
 51
163.740119
  0
LINE
  5
322
100
AcDbEntity
  8
M0
 62
     7
100
AcDbLine
 10
410.870836
 20
1706.653338
 11
411.870836
 21
1706.653338
  0
ARC
  5
323
100
AcDbEntity
  8
M0
 62
     7
100
AcDbCircle
 10
477.370836
 20
1689.653338
 40
3.0
100
AcDbArc
 50
269.999709
 51
360.0
  0
ARC
  5
324
100
AcDbEntity
  8
M0
 62
     7
100
AcDbCircle
 10
477.370836
 20
1673.653338
 40
3.0
100
AcDbArc
 50
0.0
 51
90.0
  0
LINE
  5
325
100
AcDbEntity
  8
M0
 62
     7
100
AcDbLine
 10
477.370836
 20
1686.653338
 11
472.370836
 21
1686.653338
  0
LINE
  5
326
100
AcDbEntity
  8
M0
 62
     7
100
AcDbLine
 10
477.370836
 20
1676.653338
 11
472.370836
 21
1676.653338
  0
CIRCLE
  5
327
100
AcDbEntity
  8
M0
 62
     7
100
AcDbCircle
 10
472.370836
 20
1681.653338
 40
2.5
  0
LINE
  5
328
100
AcDbEntity
  8
M0
  6
DASHDOT
 62
     7
100
AcDbLine
 10
464.870836
 20
1681.653338
 11
479.870836
 21
1681.653338
  0
LINE
  5
329
100
AcDbEntity
  8
M0
  6
DASHDOT
 62
     7
100
AcDbLine
 10
472.370836
 20
1674.153338
 11
472.370836
 21
1689.153338
  0
ARC
  5
32A
100
AcDbEntity
  8
M0
 62
     7
100
AcDbCircle
 10
472.370836
 20
1681.653338
 40
5.0
100
AcDbArc
 50
90.0
 51
269.999825
  0
LINE
  5
32B
100
AcDbEntity
  8
M0
 62
     7
100
AcDbLine
 10
355.990847
 20
1520.49334
 11
355.710848
 21
1519.53334
  0
ARC
  5
32C
100
AcDbEntity
  8
M0
 62
     7
100
AcDbCircle
 10
358.870836
 20
1519.65334
 40
3.0
100
AcDbArc
 50
89.999709
 51
163.739527
  0
LINE
  5
32D
100
AcDbEntity
  8
M0
 62
     7
100
AcDbLine
 10
347.03084
 20
1519.53334
 11
346.750841
 21
1520.49334
  0
ARC
  5
32E
100
AcDbEntity
  8
M0
 62
     7
100
AcDbCircle
 10
343.870836
 20
1519.65334
 40
3.0
100
AcDbArc
 50
16.260146
 51
89.999709
  0
LINE
  5
32F
100
AcDbEntity
  8
M0
 62
     7
100
AcDbLine
 10
358.870836
 20
1522.653339
 11
403.870836
 21
1522.653339
  0
ARC
  5
330
100
AcDbEntity
  8
M0
 62
     7
100
AcDbCircle
 10
350.870836
 20
1520.65334
 40
4.0
100
AcDbArc
 50
196.260244
 51
270.0
  0
ARC
  5
331
100
AcDbEntity
  8
M0
 62
     7
100
AcDbCircle
 10
289.370836
 20
1520.65334
 40
4.0
100
AcDbArc
 50
179.999959
 51
270.0
  0
LINE
  5
332
100
AcDbEntity
  8
M0
 62
     7
100
AcDbLine
 10
477.370836
 20
1520.65334
 11
477.370836
 21
1565.153338
  0
LINE
  5
333
100
AcDbEntity
  8
M0
 62
     7
100
AcDbLine
 10
285.370836
 20
1520.65334
 11
285.370836
 21
1565.153338
  0
LINE
  5
334
100
AcDbEntity
  8
M0
 62
     7
100
AcDbLine
 10
289.370836
 20
1516.65334
 11
291.270846
 21
1516.65334
  0
LINE
  5
335
100
AcDbEntity
  8
M0
 62
     7
100
AcDbLine
 10
295.390841
 20
1520.49334
 11
295.110842
 21
1519.53334
  0
ARC
  5
336
100
AcDbEntity
  8
M0
 62
     7
100
AcDbCircle
 10
291.270846
 20
1520.65334
 40
4.0
100
AcDbArc
 50
270.0
 51
343.73987
  0
ARC
  5
337
100
AcDbEntity
  8
M0
 62
     7
100
AcDbCircle
 10
298.270846
 20
1519.65334
 40
3.0
100
AcDbArc
 50
89.999709
 51
163.73958
  0
LINE
  5
338
100
AcDbEntity
  8
M0
 62
     7
100
AcDbLine
 10
298.270846
 20
1522.653339
 11
343.870836
 21
1522.653339
  0
ARC
  5
339
100
AcDbEntity
  8
M0
 62
     7
100
AcDbCircle
 10
351.870836
 20
1520.65334
 40
4.0
100
AcDbArc
 50
270.0
 51
343.739922
  0
LINE
  5
33A
100
AcDbEntity
  8
M0
 62
     7
100
AcDbLine
 10
351.870836
 20
1516.65334
 11
350.870836
 21
1516.65334
  0
LINE
  5
33B
100
AcDbEntity
  8
M0
 62
     7
100
AcDbLine
 10
406.750826
 20
1520.49334
 11
407.030825
 21
1519.53334
  0
ARC
  5
33C
100
AcDbEntity
  8
M0
 62
     7
100
AcDbCircle
 10
403.870836
 20
1519.65334
 40
3.0
100
AcDbArc
 50
16.260473
 51
90.0
  0
LINE
  5
33D
100
AcDbEntity
  8
M0
 62
     7
100
AcDbLine
 10
415.710833
 20
1519.53334
 11
415.990832
 21
1520.49334
  0
ARC
  5
33E
100
AcDbEntity
  8
M0
 62
     7
100
AcDbCircle
 10
418.870836
 20
1519.65334
 40
3.0
100
AcDbArc
 50
90.0
 51
163.739819
  0
ARC
  5
33F
100
AcDbEntity
  8
M0
 62
     7
100
AcDbCircle
 10
411.870836
 20
1520.65334
 40
4.0
100
AcDbArc
 50
269.999781
 51
343.739703
  0
ARC
  5
340
100
AcDbEntity
  8
M0
 62
     7
100
AcDbCircle
 10
410.870836
 20
1520.65334
 40
4.0
100
AcDbArc
 50
196.259986
 51
269.999781
  0
LINE
  5
341
100
AcDbEntity
  8
M0
 62
     7
100
AcDbLine
 10
410.870836
 20
1516.65334
 11
411.870836
 21
1516.65334
  0
ARC
  5
342
100
AcDbEntity
  8
M0
 62
     7
100
AcDbCircle
 10
473.370836
 20
1520.65334
 40
4.0
100
AcDbArc
 50
-90.000219
 51
0.0
  0
ARC
  5
343
100
AcDbEntity
  8
M0
 62
     7
100
AcDbCircle
 10
474.370836
 20
1533.653339
 40
3.0
100
AcDbArc
 50
0.0
 51
90.0
  0
ARC
  5
344
100
AcDbEntity
  8
M0
 62
     7
100
AcDbCircle
 10
474.370836
 20
1549.653338
 40
3.0
100
AcDbArc
 50
-90.000291
 51
0.0
  0
LINE
  5
345
100
AcDbEntity
  8
M0
 62
     7
100
AcDbLine
 10
474.370836
 20
1536.653339
 11
469.370836
 21
1536.653339
  0
LINE
  5
346
100
AcDbEntity
  8
M0
 62
     7
100
AcDbLine
 10
474.370836
 20
1546.653338
 11
469.370836
 21
1546.653338
  0
CIRCLE
  5
347
100
AcDbEntity
  8
M0
 62
     7
100
AcDbCircle
 10
469.370836
 20
1541.653338
 40
2.5
  0
LINE
  5
348
100
AcDbEntity
  8
M0
  6
DASHDOT
 62
     7
100
AcDbLine
 10
461.870836
 20
1541.653338
 11
476.870836
 21
1541.653338
  0
LINE
  5
349
100
AcDbEntity
  8
M0
  6
DASHDOT
 62
     7
100
AcDbLine
 10
469.370836
 20
1549.153338
 11
469.370836
 21
1534.153339
  0
ARC
  5
34A
100
AcDbEntity
  8
M0
 62
     7
100
AcDbCircle
 10
469.370836
 20
1541.653338
 40
5.0
100
AcDbArc
 50
90.0
 51
269.999825
  0
ARC
  5
34B
100
AcDbEntity
  8
M0
 62
     7
100
AcDbCircle
 10
288.370836
 20
1533.653339
 40
3.0
100
AcDbArc
 50
89.999709
 51
179.999982
  0
ARC
  5
34C
100
AcDbEntity
  8
M0
 62
     7
100
AcDbCircle
 10
288.370836
 20
1549.653338
 40
3.0
100
AcDbArc
 50
180.0
 51
270.0
  0
LINE
  5
34D
100
AcDbEntity
  8
M0
 62
     7
100
AcDbLine
 10
288.370836
 20
1536.653339
 11
293.370836
 21
1536.653339
  0
LINE
  5
34E
100
AcDbEntity
  8
M0
 62
     7
100
AcDbLine
 10
288.370836
 20
1546.653338
 11
293.370836
 21
1546.653338
  0
CIRCLE
  5
34F
100
AcDbEntity
  8
M0
 62
     7
100
AcDbCircle
 10
293.370836
 20
1541.653338
 40
2.5
  0
LINE
  5
350
100
AcDbEntity
  8
M0
  6
DASHDOT
 62
     7
100
AcDbLine
 10
300.870836
 20
1541.653338
 11
285.870836
 21
1541.653338
  0
LINE
  5
351
100
AcDbEntity
  8
M0
  6
DASHDOT
 62
     7
100
AcDbLine
 10
293.370836
 20
1549.153338
 11
293.370836
 21
1534.153339
  0
ARC
  5
352
100
AcDbEntity
  8
M0
 62
     7
100
AcDbCircle
 10
293.370836
 20
1541.653338
 40
5.0
100
AcDbArc
 50
270.0
 51
449.999825
  0
LINE
  5
353
100
AcDbEntity
  8
M0
 62
     7
100
AcDbLine
 10
480.370836
 20
1568.153338
 11
480.370836
 21
1702.653338
  0
ARC
  5
354
100
AcDbEntity
  8
M0
 62
     7
100
AcDbCircle
 10
478.870836
 20
1568.153338
 40
1.5
100
AcDbArc
 50
-90.000583
 51
0.0
  0
ARC
  5
355
100
AcDbEntity
  8
M0
 62
     7
100
AcDbCircle
 10
478.870836
 20
1565.153338
 40
1.5
100
AcDbArc
 50
90.0
 51
180.0
  0
LINE
  5
356
100
AcDbEntity
  8
M0
 62
     7
100
AcDbLine
 10
282.370836
 20
1568.153338
 11
282.370836
 21
1702.653338
  0
LINE
  5
357
100
AcDbEntity
  8
M0
 62
     7
100
AcDbLine
 10
464.470827
 20
1522.653339
 11
418.870836
 21
1522.653339
  0
ARC
  5
358
100
AcDbEntity
  8
M0
 62
     7
100
AcDbCircle
 10
464.470827
 20
1519.65334
 40
3.0
100
AcDbArc
 50
16.260368
 51
90.0
  0
ARC
  5
359
100
AcDbEntity
  8
M0
 62
     7
100
AcDbCircle
 10
471.470827
 20
1520.65334
 40
4.0
100
AcDbArc
 50
196.260039
 51
269.999781
  0
LINE
  5
35A
100
AcDbEntity
  8
M0
 62
     7
100
AcDbLine
 10
467.350832
 20
1520.49334
 11
467.630831
 21
1519.53334
  0
LINE
  5
35B
100
AcDbEntity
  8
M0
 62
     7
100
AcDbLine
 10
473.370836
 20
1516.65334
 11
471.470827
 21
1516.65334
  0
LINE
  5
35C
100
AcDbEntity
  8
M0
  6
DASHDOT
 62
     7
100
AcDbLine
 10
397.670824
 20
1623.153338
 11
365.070849
 21
1623.153338
  0
ARC
  5
35D
100
AcDbEntity
  8
M0
 62
     7
100
AcDbCircle
 10
379.370836
 20
1638.503329
 40
1.0
100
AcDbArc
 50
90.0
 51
180.0
  0
LINE
  5
35E
100
AcDbEntity
  8
M0
 62
     7
100
AcDbLine
 10
383.370836
 20
1639.503329
 11
379.370836
 21
1639.503329
  0
ARC
  5
35F
100
AcDbEntity
  8
M0
 62
     7
100
AcDbCircle
 10
383.370836
 20
1638.503329
 40
1.0
100
AcDbArc
 50
0.0
 51
90.0
  0
LINE
  5
360
100
AcDbEntity
  8
M0
 62
     7
100
AcDbLine
 10
384.370836
 20
1638.503329
 11
384.370836
 21
1635.503329
  0
LINE
  5
361
100
AcDbEntity
  8
M0
 62
     7
100
AcDbLine
 10
378.370836
 20
1638.503329
 11
378.370836
 21
1635.503329
  0
LINE
  5
362
100
AcDbEntity
  8
M0
 62
     7
100
AcDbLine
 10
387.870836
 20
1636.503329
 11
374.870836
 21
1636.503329
  0
LINE
  5
363
100
AcDbEntity
  8
M0
 62
     7
100
AcDbLine
 10
387.870836
 20
1635.503329
 11
384.370836
 21
1635.503329
  0
LINE
  5
364
100
AcDbEntity
  8
M0
 62
     7
100
AcDbLine
 10
378.370836
 20
1635.503329
 11
374.870836
 21
1635.503329
  0
LINE
  5
365
100
AcDbEntity
  8
M0
 62
     7
100
AcDbLine
 10
387.870836
 20
1636.503329
 11
387.870836
 21
1633.303332
  0
LINE
  5
366
100
AcDbEntity
  8
M0
 62
     7
100
AcDbLine
 10
374.870836
 20
1636.503329
 11
374.870836
 21
1633.303332
  0
LINE
  5
367
100
AcDbEntity
  8
M0
 62
     7
100
AcDbLine
 10
373.070837
 20
1633.303332
 11
374.870836
 21
1633.303332
  0
ARC
  5
368
100
AcDbEntity
  8
M0
 62
     7
100
AcDbCircle
 10
373.070837
 20
1630.303332
 40
3.0
100
AcDbArc
 50
90.0
 51
180.0
  0
LINE
  5
369
100
AcDbEntity
  8
M0
 62
     7
100
AcDbLine
 10
387.870836
 20
1633.303332
 11
389.670836
 21
1633.303332
  0
ARC
  5
36A
100
AcDbEntity
  8
M0
 62
     7
100
AcDbCircle
 10
389.670836
 20
1630.303332
 40
3.0
100
AcDbArc
 50
0.0
 51
90.0
  0
LINE
  5
36B
100
AcDbEntity
  8
M0
 62
     7
100
AcDbLine
 10
372.370836
 20
1627.153338
 11
372.370836
 21
1619.153338
  0
LINE
  5
36C
100
AcDbEntity
  8
M0
 62
     7
100
AcDbLine
 10
390.370836
 20
1627.153338
 11
390.370836
 21
1619.153338
  0
LINE
  5
36D
100
AcDbEntity
  8
M0
 62
     7
100
AcDbLine
 10
372.370836
 20
1627.153338
 11
371.070837
 21
1627.153338
  0
ARC
  5
36E
100
AcDbEntity
  8
M0
 62
     7
100
AcDbCircle
 10
371.070837
 20
1628.153338
 40
1.0
100
AcDbArc
 50
180.0
 51
270.0
  0
LINE
  5
36F
100
AcDbEntity
  8
M0
 62
     7
100
AcDbLine
 10
391.670836
 20
1627.153338
 11
390.370836
 21
1627.153338
  0
ARC
  5
370
100
AcDbEntity
  8
M0
 62
     7
100
AcDbCircle
 10
391.670836
 20
1628.153338
 40
1.0
100
AcDbArc
 50
-90.0
 51
0.0
  0
LINE
  5
371
100
AcDbEntity
  8
M0
 62
     7
100
AcDbLine
 10
391.670836
 20
1619.153338
 11
390.370836
 21
1619.153338
  0
ARC
  5
372
100
AcDbEntity
  8
M0
 62
     7
100
AcDbCircle
 10
391.670836
 20
1618.153338
 40
1.0
100
AcDbArc
 50
0.0
 51
90.0
  0
LINE
  5
373
100
AcDbEntity
  8
M0
 62
     7
100
AcDbLine
 10
372.370836
 20
1619.153338
 11
371.070837
 21
1619.153338
  0
ARC
  5
374
100
AcDbEntity
  8
M0
 62
     7
100
AcDbCircle
 10
371.070837
 20
1618.153338
 40
1.0
100
AcDbArc
 50
90.0
 51
180.0
  0
LINE
  5
375
100
AcDbEntity
  8
M0
 62
     7
100
AcDbLine
 10
392.670836
 20
1607.003329
 11
370.070837
 21
1607.003329
  0
LINE
  5
376
100
AcDbEntity
  8
M0
 62
     7
100
AcDbLine
 10
392.670836
 20
1630.303332
 11
392.670836
 21
1607.003329
  0
LINE
  5
377
100
AcDbEntity
  8
M0
 62
     7
100
AcDbLine
 10
370.070837
 20
1607.003329
 11
370.070837
 21
1630.303332
  0
LINE
  5
378
100
AcDbEntity
  8
M0
 62
     6
100
AcDbLine
 10
267.470839
 20
1656.653336
 11
282.370839
 21
1656.65334
  0
LINE
  5
379
100
AcDbEntity
  8
M0
 62
     6
100
AcDbLine
 10
282.370839
 20
1656.65334
 11
282.370867
 21
1566.65334
  0
LINE
  5
37A
100
AcDbEntity
  8
M0
 62
     6
100
AcDbLine
 10
282.370867
 20
1566.65334
 11
267.470868
 21
1566.653336
  0
LINE
  5
37B
100
AcDbEntity
  8
M0
 62
     6
100
AcDbLine
 10
267.470868
 20
1566.653336
 11
267.470839
 21
1656.653336
  0
LINE
  5
37C
100
AcDbEntity
  8
M0
 62
     6
100
AcDbLine
 10
280.420859
 20
1593.65334
 11
280.420859
 21
1595.15334
  0
LINE
  5
37D
100
AcDbEntity
  8
M0
 62
     6
100
AcDbLine
 10
269.420859
 20
1593.653336
 11
269.420859
 21
1595.153336
  0
LINE
  5
37E
100
AcDbEntity
  8
M0
 62
     6
100
AcDbLine
 10
280.420859
 20
1595.15334
 11
269.420859
 21
1595.153336
  0
LINE
  5
37F
100
AcDbEntity
  8
M0
 62
     6
100
AcDbLine
 10
279.420855
 20
1605.25333
 11
279.420859
 21
1595.153339
  0
LINE
  5
380
100
AcDbEntity
  8
M0
 62
     6
100
AcDbLine
 10
279.420859
 20
1593.653339
 11
279.420868
 21
1566.653339
  0
LINE
  5
381
100
AcDbEntity
  8
M0
 62
     6
100
AcDbLine
 10
270.420855
 20
1605.253327
 11
270.420859
 21
1595.153337
  0
LINE
  5
382
100
AcDbEntity
  8
M0
 62
     6
100
AcDbLine
 10
270.420859
 20
1593.653337
 11
270.420868
 21
1566.653337
  0
LINE
  5
383
100
AcDbEntity
  8
M0
 62
     6
100
AcDbLine
 10
269.420859
 20
1593.653336
 11
270.420859
 21
1593.653337
  0
LINE
  5
384
100
AcDbEntity
  8
M0
 62
     6
100
AcDbLine
 10
279.420859
 20
1593.653339
 11
280.420859
 21
1593.65334
  0
LINE
  5
385
100
AcDbEntity
  8
M0
 62
     6
100
AcDbLine
 10
270.420855
 20
1605.253327
 11
279.420855
 21
1605.25333
  0
LINE
  5
386
100
AcDbEntity
  8
M0
 62
     6
100
AcDbLine
 10
279.420866
 20
1572.653339
 11
270.420866
 21
1572.653337
  0
LINE
  5
387
100
AcDbEntity
  8
M0
 62
     6
100
AcDbLine
 10
282.370861
 20
1586.65334
 11
279.420861
 21
1586.653339
  0
LINE
  5
388
100
AcDbEntity
  8
M0
 62
     6
100
AcDbLine
 10
270.420861
 20
1586.653337
 11
267.470861
 21
1586.653336
  0
LINE
  5
389
100
AcDbEntity
  8
M0
 62
     6
100
AcDbLine
 10
269.420848
 20
1629.653336
 11
269.420848
 21
1628.153336
  0
LINE
  5
38A
100
AcDbEntity
  8
M0
 62
     6
100
AcDbLine
 10
280.420848
 20
1628.15334
 11
269.420848
 21
1628.153336
  0
LINE
  5
38B
100
AcDbEntity
  8
M0
 62
     6
100
AcDbLine
 10
270.420851
 20
1618.05333
 11
270.420848
 21
1628.153337
  0
LINE
  5
38C
100
AcDbEntity
  8
M0
 62
     6
100
AcDbLine
 10
270.420848
 20
1629.653337
 11
270.420839
 21
1656.653337
  0
LINE
  5
38D
100
AcDbEntity
  8
M0
 62
     6
100
AcDbLine
 10
269.420848
 20
1629.653336
 11
270.420848
 21
1629.653337
  0
LINE
  5
38E
100
AcDbEntity
  8
M0
 62
     6
100
AcDbLine
 10
270.420851
 20
1618.05333
 11
279.420851
 21
1618.053333
  0
LINE
  5
38F
100
AcDbEntity
  8
M0
 62
     6
100
AcDbLine
 10
279.420841
 20
1650.653339
 11
270.420841
 21
1650.653337
  0
LINE
  5
390
100
AcDbEntity
  8
M0
 62
     6
100
AcDbLine
 10
270.420846
 20
1636.653337
 11
267.470846
 21
1636.653336
  0
LINE
  5
391
100
AcDbEntity
  8
M0
 62
     6
100
AcDbLine
 10
279.420851
 20
1618.053333
 11
279.420848
 21
1628.153339
  0
LINE
  5
392
100
AcDbEntity
  8
M0
 62
     6
100
AcDbLine
 10
280.420848
 20
1629.65334
 11
280.420848
 21
1628.15334
  0
LINE
  5
393
100
AcDbEntity
  8
M0
 62
     6
100
AcDbLine
 10
279.420848
 20
1629.653339
 11
280.420848
 21
1629.65334
  0
LINE
  5
394
100
AcDbEntity
  8
M0
 62
     6
100
AcDbLine
 10
279.420848
 20
1629.653339
 11
279.420839
 21
1656.653339
  0
LINE
  5
395
100
AcDbEntity
  8
M0
 62
     6
100
AcDbLine
 10
282.370845
 20
1636.65334
 11
279.420846
 21
1636.653339
  0
CIRCLE
  5
396
100
AcDbEntity
  8
M0
 62
     6
100
AcDbCircle
 10
274.920853
 20
1611.653338
 40
2.799999
  0
LINE
  5
397
100
AcDbEntity
  8
M0
 62
     6
100
AcDbLine
 10
495.270833
 20
1656.653336
 11
480.370834
 21
1656.65334
  0
LINE
  5
398
100
AcDbEntity
  8
M0
 62
     6
100
AcDbLine
 10
480.370834
 20
1656.65334
 11
480.370805
 21
1566.65334
  0
LINE
  5
399
100
AcDbEntity
  8
M0
 62
     6
100
AcDbLine
 10
480.370805
 20
1566.65334
 11
495.270805
 21
1566.653336
  0
LINE
  5
39A
100
AcDbEntity
  8
M0
 62
     6
100
AcDbLine
 10
495.270805
 20
1566.653336
 11
495.270833
 21
1656.653336
  0
LINE
  5
39B
100
AcDbEntity
  8
M0
 62
     6
100
AcDbLine
 10
482.320814
 20
1593.65334
 11
482.320814
 21
1595.15334
  0
LINE
  5
39C
100
AcDbEntity
  8
M0
 62
     6
100
AcDbLine
 10
493.320814
 20
1593.653336
 11
493.320814
 21
1595.153336
  0
LINE
  5
39D
100
AcDbEntity
  8
M0
 62
     6
100
AcDbLine
 10
482.320814
 20
1595.15334
 11
493.320814
 21
1595.153336
  0
LINE
  5
39E
100
AcDbEntity
  8
M0
 62
     6
100
AcDbLine
 10
483.320817
 20
1605.25333
 11
483.320814
 21
1595.153339
  0
LINE
  5
39F
100
AcDbEntity
  8
M0
 62
     6
100
AcDbLine
 10
483.320814
 20
1593.653339
 11
483.320805
 21
1566.653339
  0
LINE
  5
3A0
100
AcDbEntity
  8
M0
 62
     6
100
AcDbLine
 10
492.320817
 20
1605.253327
 11
492.320814
 21
1595.153337
  0
LINE
  5
3A1
100
AcDbEntity
  8
M0
 62
     6
100
AcDbLine
 10
492.320814
 20
1593.653337
 11
492.320805
 21
1566.653337
  0
LINE
  5
3A2
100
AcDbEntity
  8
M0
 62
     6
100
AcDbLine
 10
493.320814
 20
1593.653336
 11
492.320814
 21
1593.653337
  0
LINE
  5
3A3
100
AcDbEntity
  8
M0
 62
     6
100
AcDbLine
 10
483.320814
 20
1593.653339
 11
482.320814
 21
1593.65334
  0
LINE
  5
3A4
100
AcDbEntity
  8
M0
 62
     6
100
AcDbLine
 10
492.320817
 20
1605.253327
 11
483.320817
 21
1605.25333
  0
LINE
  5
3A5
100
AcDbEntity
  8
M0
 62
     6
100
AcDbLine
 10
483.320807
 20
1572.653339
 11
492.320807
 21
1572.653337
  0
LINE
  5
3A6
100
AcDbEntity
  8
M0
 62
     6
100
AcDbLine
 10
480.370812
 20
1586.65334
 11
483.320812
 21
1586.653339
  0
LINE
  5
3A7
100
AcDbEntity
  8
M0
 62
     6
100
AcDbLine
 10
492.320812
 20
1586.653337
 11
495.270811
 21
1586.653336
  0
LINE
  5
3A8
100
AcDbEntity
  8
M0
 62
     6
100
AcDbLine
 10
493.320825
 20
1629.653336
 11
493.320825
 21
1628.153336
  0
LINE
  5
3A9
100
AcDbEntity
  8
M0
 62
     6
100
AcDbLine
 10
482.320825
 20
1628.15334
 11
493.320825
 21
1628.153336
  0
LINE
  5
3AA
100
AcDbEntity
  8
M0
 62
     6
100
AcDbLine
 10
492.320821
 20
1618.05333
 11
492.320825
 21
1628.153337
  0
LINE
  5
3AB
100
AcDbEntity
  8
M0
 62
     6
100
AcDbLine
 10
492.320825
 20
1629.653337
 11
492.320834
 21
1656.653337
  0
LINE
  5
3AC
100
AcDbEntity
  8
M0
 62
     6
100
AcDbLine
 10
493.320825
 20
1629.653336
 11
492.320825
 21
1629.653337
  0
LINE
  5
3AD
100
AcDbEntity
  8
M0
 62
     6
100
AcDbLine
 10
492.320821
 20
1618.05333
 11
483.320821
 21
1618.053333
  0
LINE
  5
3AE
100
AcDbEntity
  8
M0
 62
     6
100
AcDbLine
 10
483.320832
 20
1650.653339
 11
492.320832
 21
1650.653337
  0
LINE
  5
3AF
100
AcDbEntity
  8
M0
 62
     6
100
AcDbLine
 10
492.320827
 20
1636.653337
 11
495.270827
 21
1636.653336
  0
LINE
  5
3B0
100
AcDbEntity
  8
M0
 62
     6
100
AcDbLine
 10
483.320821
 20
1618.053333
 11
483.320825
 21
1628.153339
  0
LINE
  5
3B1
100
AcDbEntity
  8
M0
 62
     6
100
AcDbLine
 10
482.320825
 20
1629.65334
 11
482.320825
 21
1628.15334
  0
LINE
  5
3B2
100
AcDbEntity
  8
M0
 62
     6
100
AcDbLine
 10
483.320825
 20
1629.653339
 11
482.320825
 21
1629.65334
  0
LINE
  5
3B3
100
AcDbEntity
  8
M0
 62
     6
100
AcDbLine
 10
483.320825
 20
1629.653339
 11
483.320834
 21
1656.653339
  0
LINE
  5
3B4
100
AcDbEntity
  8
M0
 62
     6
100
AcDbLine
 10
480.370827
 20
1636.65334
 11
483.320827
 21
1636.653339
  0
CIRCLE
  5
3B5
100
AcDbEntity
  8
M0
 62
     6
100
AcDbCircle
 10
487.820819
 20
1611.653338
 40
2.799999
  0
LINE
  5
3B6
100
AcDbEntity
  8
M0
 62
     4
100
AcDbLine
 10
239.920931
 20
1654.65334
 11
251.920931
 21
1654.653336
  0
LINE
  5
3B7
100
AcDbEntity
  8
M0
 62
     4
100
AcDbLine
 10
239.920917
 20
1611.65334
 11
239.920931
 21
1654.65334
  0
LINE
  5
3B8
100
AcDbEntity
  8
M0
 62
     4
100
AcDbLine
 10
239.920904
 20
1568.65334
 11
251.920904
 21
1568.653336
  0
LINE
  5
3B9
100
AcDbEntity
  8
M0
 62
     4
100
AcDbLine
 10
239.920917
 20
1611.65334
 11
239.920904
 21
1568.65334
  0
LINE
  5
3BA
100
AcDbEntity
  8
M0
100
AcDbLine
 10
251.420839
 20
1486.653353
 11
251.420839
 21
1736.653338
  0
LINE
  5
3BB
100
AcDbEntity
  8
M0
100
AcDbLine
 10
251.420839
 20
1736.653338
 11
292.442278
 21
1736.653338
  0
LINE
  5
3BC
100
AcDbEntity
  8
M0
100
AcDbLine
 10
511.320833
 20
1736.653338
 11
511.320833
 21
1486.653353
  0
LINE
  5
3BD
100
AcDbEntity
  8
M0
100
AcDbLine
 10
511.320833
 20
1486.653353
 11
471.370836
 21
1486.653353
  0
LINE
  5
3BE
100
AcDbEntity
  8
M0
  6
DASHDOT
100
AcDbLine
 10
536.320833
 20
1611.653338
 11
225.430849
 21
1611.653338
  0
CIRCLE
  5
3BF
100
AcDbEntity
  8
M0
100
AcDbCircle
 10
466.370836
 20
1499.65334
 40
5.75
  0
CIRCLE
  5
3C0
100
AcDbEntity
  8
M0
100
AcDbCircle
 10
466.370836
 20
1723.653338
 40
5.75
  0
CIRCLE
  5
3C1
100
AcDbEntity
  8
M0
100
AcDbCircle
 10
351.370836
 20
1723.653338
 40
5.75
  0
CIRCLE
  5
3C2
100
AcDbEntity
  8
M0
100
AcDbCircle
 10
351.370836
 20
1499.65334
 40
5.75
  0
CIRCLE
  5
3C3
100
AcDbEntity
  8
M0
100
AcDbCircle
 10
296.370836
 20
1723.653338
 40
5.75
  0
CIRCLE
  5
3C4
100
AcDbEntity
  8
M0
100
AcDbCircle
 10
351.370836
 20
1723.653338
 40
11.5
  0
CIRCLE
  5
3C5
100
AcDbEntity
  8
M0
100
AcDbCircle
 10
296.370836
 20
1499.65334
 40
5.75
  0
CIRCLE
  5
3C6
100
AcDbEntity
  8
M0
100
AcDbCircle
 10
351.370836
 20
1499.65334
 40
11.5
  0
LINE
  5
3C7
100
AcDbEntity
  8
M0
100
AcDbLine
 10
279.420839
 20
1681.653338
 11
279.420839
 21
1679.653338
  0
LINE
  5
3C8
100
AcDbEntity
  8
M0
100
AcDbLine
 10
251.420839
 20
1679.653338
 11
279.420839
 21
1679.653338
  0
LINE
  5
3C9
100
AcDbEntity
  8
M0
100
AcDbLine
 10
251.420839
 20
1706.153338
 11
254.620852
 21
1706.153338
  0
LINE
  5
3CA
100
AcDbEntity
  8
M0
100
AcDbLine
 10
254.620852
 20
1736.653338
 11
254.620852
 21
1706.153338
  0
LINE
  5
3CB
100
AcDbEntity
  8
M0
100
AcDbLine
 10
254.620852
 20
1679.653338
 11
254.620852
 21
1656.653338
  0
LINE
  5
3CC
100
AcDbEntity
  8
M0
100
AcDbLine
 10
511.320833
 20
1706.153338
 11
508.55028
 21
1706.153338
  0
LINE
  5
3CD
100
AcDbEntity
  8
M0
100
AcDbLine
 10
508.120821
 20
1736.653338
 11
508.120821
 21
1706.153338
  0
CIRCLE
  5
3CE
100
AcDbEntity
  8
M0
100
AcDbCircle
 10
266.370836
 20
1695.653338
 40
5.0
  0
CIRCLE
  5
3CF
100
AcDbEntity
  8
M0
100
AcDbCircle
 10
496.370836
 20
1695.653338
 40
5.0
  0
LINE
  5
3D0
100
AcDbEntity
  8
M0
100
AcDbLine
 10
361.370836
 20
1486.653353
 11
331.370836
 21
1486.653353
  0
LINE
  5
3D1
100
AcDbEntity
  8
M0
100
AcDbLine
 10
292.442278
 20
1486.653353
 11
251.420839
 21
1486.653353
  0
ARC
  5
3D2
100
AcDbEntity
  8
M0
100
AcDbCircle
 10
296.370836
 20
1499.65334
 40
11.5
100
AcDbArc
 50
182.379434
 51
259.418127
  0
LINE
  5
3D3
100
AcDbEntity
  8
M0
100
AcDbLine
 10
431.370836
 20
1486.653353
 11
401.370836
 21
1486.653353
  0
ARC
  5
3D4
100
AcDbEntity
  8
M0
100
AcDbCircle
 10
466.370836
 20
1499.65334
 40
11.5
100
AcDbArc
 50
49.878703
 51
150.4081
  0
LINE
  5
3D5
100
AcDbEntity
  8
M0
100
AcDbLine
 10
331.370836
 20
1736.653338
 11
361.727984
 21
1736.653338
  0
LINE
  5
3D6
100
AcDbEntity
  8
M0
100
AcDbLine
 10
401.013689
 20
1736.653338
 11
431.013689
 21
1736.653338
  0
LINE
  5
3D7
100
AcDbEntity
  8
M0
100
AcDbLine
 10
470.299395
 20
1736.653338
 11
511.320833
 21
1736.653338
  0
ARC
  5
3D8
100
AcDbEntity
  8
M0
100
AcDbCircle
 10
466.370836
 20
1723.653338
 40
11.5
100
AcDbArc
 50
-150.408084
 51
79.418126
  0
ARC
  5
3D9
100
AcDbEntity
  8
M0
100
AcDbCircle
 10
296.370836
 20
1723.653338
 40
11.5
100
AcDbArc
 50
100.5818
 51
330.408188
  0
ARC
  5
3DA
100
AcDbEntity
  8
M0
100
AcDbCircle
 10
296.370836
 20
1499.65334
 40
11.5
100
AcDbArc
 50
29.591854
 51
130.121227
  0
ARC
  5
3DB
100
AcDbEntity
  8
M0
100
AcDbCircle
 10
466.370836
 20
1499.65334
 40
11.5
100
AcDbArc
 50
280.581798
 51
357.620509
  0
LINE
  5
3DC
100
AcDbEntity
  8
M0
 62
     6
100
AcDbLine
 10
251.420747
 20
1730.653345
 11
251.420896
 21
1492.65336
  0
LINE
  5
3DD
100
AcDbEntity
  8
M0
 62
     6
100
AcDbLine
 10
251.420896
 20
1492.65336
 11
227.420897
 21
1492.653345
  0
LINE
  5
3DE
100
AcDbEntity
  8
M0
 62
     6
100
AcDbLine
 10
227.420897
 20
1492.653345
 11
227.420748
 21
1730.65333
  0
LINE
  5
3DF
100
AcDbEntity
  8
M0
 62
     6
100
AcDbLine
 10
227.420748
 20
1730.65333
 11
251.420747
 21
1730.653345
  0
LINE
  5
3E0
100
AcDbEntity
  8
M0
  6
DASHDOT
 62
     6
100
AcDbLine
 10
231.920752
 20
1722.653333
 11
247.920752
 21
1722.653343
  0
LINE
  5
3E1
100
AcDbEntity
  8
M0
 62
     6
100
AcDbLine
 10
237.520751
 20
1724.453324
 11
237.520753
 21
1720.853333
  0
ARC
  5
3E2
100
AcDbEntity
  8
M0
 62
     6
100
AcDbCircle
 10
239.920752
 20
1722.653338
 40
3.0
100
AcDbArc
 50
216.87036
 51
323.129734
  0
ARC
  5
3E3
100
AcDbEntity
  8
M0
 62
     6
100
AcDbCircle
 10
239.920752
 20
1722.653338
 40
3.0
100
AcDbArc
 50
36.869409
 51
143.130408
  0
LINE
  5
3E4
100
AcDbEntity
  8
M0
 62
     6
100
AcDbLine
 10
234.920749
 20
1727.653335
 11
234.920754
 21
1718.653335
  0
LINE
  5
3E5
100
AcDbEntity
  8
M0
 62
     6
100
AcDbLine
 10
231.820755
 20
1718.653333
 11
234.920754
 21
1718.653335
  0
LINE
  5
3E6
100
AcDbEntity
  8
M0
 62
     6
100
AcDbLine
 10
234.920749
 20
1727.653335
 11
231.820749
 21
1727.653333
  0
LINE
  5
3E7
100
AcDbEntity
  8
M0
 62
     6
100
AcDbLine
 10
242.32075
 20
1724.453327
 11
242.320753
 21
1720.853336
  0
ARC
  5
3E8
100
AcDbEntity
  8
M0
 62
     6
100
AcDbCircle
 10
239.920752
 20
1722.653338
 40
3.0
100
AcDbArc
 50
36.869409
 51
143.130408
  0
LINE
  5
3E9
100
AcDbEntity
  8
M0
 62
     6
100
AcDbLine
 10
244.920749
 20
1727.653341
 11
244.920754
 21
1718.653341
  0
LINE
  5
3EA
100
AcDbEntity
  8
M0
 62
     6
100
AcDbLine
 10
248.020748
 20
1727.653343
 11
244.920749
 21
1727.653341
  0
LINE
  5
3EB
100
AcDbEntity
  8
M0
 62
     6
100
AcDbLine
 10
248.020754
 20
1718.653343
 11
244.920754
 21
1718.653341
  0
LINE
  5
3EC
100
AcDbEntity
  8
M0
 62
     6
100
AcDbLine
 10
229.920759
 20
1711.653332
 11
249.920759
 21
1711.653344
  0
LINE
  5
3ED
100
AcDbEntity
  8
M0
 62
     6
100
AcDbLine
 10
229.920758
 20
1712.653332
 11
249.920758
 21
1712.653344
  0
LINE
  5
3EE
100
AcDbEntity
  8
M0
 62
     6
100
AcDbLine
 10
231.920747
 20
1730.653333
 11
231.920758
 21
1712.653333
  0
LINE
  5
3EF
100
AcDbEntity
  8
M0
 62
     6
100
AcDbLine
 10
247.920747
 20
1730.653343
 11
247.920758
 21
1712.653343
  0
LINE
  5
3F0
100
AcDbEntity
  8
M0
 62
     6
100
AcDbLine
 10
247.920759
 20
1711.653343
 11
247.920768
 21
1697.653343
  0
LINE
  5
3F1
100
AcDbEntity
  8
M0
 62
     6
100
AcDbLine
 10
233.920758
 20
1712.653334
 11
233.920757
 21
1713.753325
  0
ARC
  5
3F2
100
AcDbEntity
  8
M0
 62
     6
100
AcDbCircle
 10
236.920757
 20
1713.753327
 40
3.0
100
AcDbArc
 50
90.0
 51
180.000036
  0
LINE
  5
3F3
100
AcDbEntity
  8
M0
 62
     6
100
AcDbLine
 10
236.920756
 20
1716.753327
 11
242.920756
 21
1716.753331
  0
LINE
  5
3F4
100
AcDbEntity
  8
M0
 62
     6
100
AcDbLine
 10
245.920758
 20
1712.653342
 11
245.920757
 21
1713.753333
  0
ARC
  5
3F5
100
AcDbEntity
  8
M0
 62
     6
100
AcDbCircle
 10
242.920757
 20
1713.753331
 40
3.0
100
AcDbArc
 50
-0.000255
 51
90.0
  0
LINE
  5
3F6
100
AcDbEntity
  8
M0
 62
     6
100
AcDbLine
 10
241.920759
 20
1711.653339
 11
241.920768
 21
1697.653339
  0
LINE
  5
3F7
100
AcDbEntity
  8
M0
 62
     6
100
AcDbLine
 10
245.970767
 20
1697.653342
 11
245.970758
 21
1711.653342
  0
LINE
  5
3F8
100
AcDbEntity
  8
M0
 62
     6
100
AcDbLine
 10
243.870767
 20
1697.65334
 11
243.870759
 21
1711.65334
  0
LINE
  5
3F9
100
AcDbEntity
  8
M0
 62
     6
100
AcDbLine
 10
241.920768
 20
1697.653339
 11
243.870767
 21
1697.65334
  0
LINE
  5
3FA
100
AcDbEntity
  8
M0
 62
     6
100
AcDbLine
 10
245.970767
 20
1697.653342
 11
247.920768
 21
1697.653343
  0
LINE
  5
3FB
100
AcDbEntity
  8
M0
 62
     6
100
AcDbLine
 10
249.920795
 20
1654.653344
 11
249.920758
 21
1712.653344
  0
LINE
  5
3FC
100
AcDbEntity
  8
M0
  6
DASHDOT
 62
     6
100
AcDbLine
 10
231.920752
 20
1500.653343
 11
247.920751
 21
1500.653333
  0
LINE
  5
3FD
100
AcDbEntity
  8
M0
 62
     6
100
AcDbLine
 10
237.520752
 20
1498.853352
 11
237.520754
 21
1502.453343
  0
ARC
  5
3FE
100
AcDbEntity
  8
M0
 62
     6
100
AcDbCircle
 10
239.920752
 20
1500.653339
 40
3.0
100
AcDbArc
 50
36.869914
 51
143.129659
  0
ARC
  5
3FF
100
AcDbEntity
  8
M0
 62
     6
100
AcDbCircle
 10
239.920752
 20
1500.653339
 40
3.0
100
AcDbArc
 50
216.869604
 51
323.130264
  0
LINE
  5
400
100
AcDbEntity
  8
M0
 62
     6
100
AcDbLine
 10
234.920749
 20
1495.653341
 11
234.920755
 21
1504.653341
  0
LINE
  5
401
100
AcDbEntity
  8
M0
 62
     6
100
AcDbLine
 10
231.820756
 20
1504.653343
 11
234.920755
 21
1504.653341
  0
LINE
  5
402
100
AcDbEntity
  8
M0
 62
     6
100
AcDbLine
 10
234.920749
 20
1495.653341
 11
231.82075
 21
1495.653343
  0
LINE
  5
403
100
AcDbEntity
  8
M0
 62
     6
100
AcDbLine
 10
242.32075
 20
1498.853349
 11
242.320752
 21
1502.45334
  0
ARC
  5
404
100
AcDbEntity
  8
M0
 62
     6
100
AcDbCircle
 10
239.920752
 20
1500.653339
 40
3.0
100
AcDbArc
 50
216.869604
 51
323.130264
  0
LINE
  5
405
100
AcDbEntity
  8
M0
 62
     6
100
AcDbLine
 10
244.920748
 20
1495.653335
 11
244.920754
 21
1504.653335
  0
LINE
  5
406
100
AcDbEntity
  8
M0
 62
     6
100
AcDbLine
 10
248.020748
 20
1495.653333
 11
244.920748
 21
1495.653335
  0
LINE
  5
407
100
AcDbEntity
  8
M0
 62
     6
100
AcDbLine
 10
248.020754
 20
1504.653333
 11
244.920754
 21
1504.653335
  0
LINE
  5
408
100
AcDbEntity
  8
M0
 62
     6
100
AcDbLine
 10
229.920759
 20
1510.653344
 11
249.920758
 21
1510.653332
  0
LINE
  5
409
100
AcDbEntity
  8
M0
 62
     6
100
AcDbLine
 10
231.920747
 20
1492.653348
 11
231.920759
 21
1510.653343
  0
LINE
  5
40A
100
AcDbEntity
  8
M0
 62
     6
100
AcDbLine
 10
247.920747
 20
1492.653343
 11
247.920758
 21
1510.653333
  0
LINE
  5
40B
100
AcDbEntity
  8
M0
 62
     6
100
AcDbLine
 10
233.920759
 20
1510.653342
 11
233.920758
 21
1509.553351
  0
ARC
  5
40C
100
AcDbEntity
  8
M0
 62
     6
100
AcDbCircle
 10
236.920758
 20
1509.553349
 40
3.0
100
AcDbArc
 50
180.000036
 51
270.0
  0
LINE
  5
40D
100
AcDbEntity
  8
M0
 62
     6
100
AcDbLine
 10
236.920756
 20
1506.553349
 11
242.920755
 21
1506.553346
  0
LINE
  5
40E
100
AcDbEntity
  8
M0
 62
     6
100
AcDbLine
 10
245.920758
 20
1510.653334
 11
245.920757
 21
1509.553343
  0
ARC
  5
40F
100
AcDbEntity
  8
M0
 62
     6
100
AcDbCircle
 10
242.920757
 20
1509.553345
 40
3.0
100
AcDbArc
 50
270.0
 51
360.000001
  0
LINE
  5
410
100
AcDbEntity
  8
M0
 62
     6
100
AcDbLine
 10
249.920767
 20
1568.653329
 11
249.920694
 21
1510.653329
  0
LINE
  5
411
100
AcDbEntity
  8
M0
100
AcDbLine
 10
291.370836
 20
1453.653338
 11
291.370836
 21
1485.653338
  0
LINE
  5
412
100
AcDbEntity
  8
M0
100
AcDbLine
 10
331.370836
 20
1485.653338
 11
331.370836
 21
1453.653338
  0
LINE
  5
413
100
AcDbEntity
  8
M0
100
AcDbLine
 10
331.370836
 20
1453.653338
 11
291.370836
 21
1453.653338
  0
LINE
  5
414
100
AcDbEntity
  8
M0
100
AcDbLine
 10
336.370836
 20
1522.653338
 11
336.370836
 21
1499.653338
  0
LINE
  5
415
100
AcDbEntity
  8
M0
100
AcDbLine
 10
331.370836
 20
1485.653338
 11
336.370836
 21
1499.653338
  0
LINE
  5
416
100
AcDbEntity
  8
M0
100
AcDbLine
 10
306.370836
 20
1522.653338
 11
306.370836
 21
1499.653338
  0
LINE
  5
417
100
AcDbEntity
  8
M0
100
AcDbLine
 10
291.370852
 20
1485.653338
 11
306.370836
 21
1499.653338
  0
CIRCLE
  5
418
100
AcDbEntity
  8
M0
100
AcDbCircle
 10
311.370836
 20
1469.653338
 40
6.0
  0
LINE
  5
419
100
AcDbEntity
  8
M0
100
AcDbLine
 10
401.370836
 20
1453.653338
 11
361.370836
 21
1453.653338
  0
LINE
  5
41A
100
AcDbEntity
  8
M0
  6
DASHDOT
100
AcDbLine
 10
381.370836
 20
1428.653307
 11
381.370836
 21
1611.653307
  0
LINE
  5
41B
100
AcDbEntity
  8
M0
100
AcDbLine
 10
401.370836
 20
1485.653338
 11
401.370836
 21
1453.653338
  0
LINE
  5
41C
100
AcDbEntity
  8
M0
100
AcDbLine
 10
361.370836
 20
1453.653338
 11
361.370836
 21
1485.653338
  0
LINE
  5
41D
100
AcDbEntity
  8
M0
100
AcDbLine
 10
366.370836
 20
1522.653338
 11
366.370836
 21
1499.653338
  0
LINE
  5
41E
100
AcDbEntity
  8
M0
100
AcDbLine
 10
366.370836
 20
1499.653338
 11
361.370836
 21
1485.653338
  0
LINE
  5
41F
100
AcDbEntity
  8
M0
100
AcDbLine
 10
401.370836
 20
1485.653338
 11
396.370836
 21
1499.653338
  0
LINE
  5
420
100
AcDbEntity
  8
M0
100
AcDbLine
 10
396.370836
 20
1522.653338
 11
396.370836
 21
1499.653338
  0
CIRCLE
  5
421
100
AcDbEntity
  8
M0
100
AcDbCircle
 10
381.370836
 20
1469.653338
 40
6.0
  0
LINE
  5
422
100
AcDbEntity
  8
M0
 62
     6
100
AcDbLine
 10
381.370836
 20
1458.703265
 11
390.853747
 21
1464.178271
  0
LINE
  5
423
100
AcDbEntity
  8
M0
 62
     6
100
AcDbLine
 10
390.853747
 20
1464.178271
 11
390.853747
 21
1475.128252
  0
LINE
  5
424
100
AcDbEntity
  8
M0
 62
     6
100
AcDbLine
 10
390.853747
 20
1475.128252
 11
381.370836
 21
1480.603259
  0
LINE
  5
425
100
AcDbEntity
  8
M0
 62
     6
100
AcDbLine
 10
381.370836
 20
1480.603259
 11
371.887682
 21
1475.128252
  0
LINE
  5
426
100
AcDbEntity
  8
M0
 62
     6
100
AcDbLine
 10
371.887682
 20
1475.128252
 11
371.887682
 21
1464.17824
  0
LINE
  5
427
100
AcDbEntity
  8
M0
 62
     6
100
AcDbLine
 10
371.887682
 20
1464.17824
 11
381.370836
 21
1458.703265
  0
CIRCLE
  5
428
100
AcDbEntity
  8
M0
 62
     6
100
AcDbCircle
 10
381.370836
 20
1469.653246
 40
6.0
  0
LINE
  5
429
100
AcDbEntity
  8
M0
  6
DASHDOT
 62
     6
100
AcDbLine
 10
367.665514
 20
1469.653353
 11
395.075274
 21
1469.653353
  0
LINE
  5
42A
100
AcDbEntity
  8
M0
 62
     6
100
AcDbLine
 10
311.370836
 20
1458.703265
 11
320.853747
 21
1464.178271
  0
LINE
  5
42B
100
AcDbEntity
  8
M0
 62
     6
100
AcDbLine
 10
320.853747
 20
1464.178271
 11
320.853747
 21
1475.128252
  0
LINE
  5
42C
100
AcDbEntity
  8
M0
 62
     6
100
AcDbLine
 10
320.853747
 20
1475.128252
 11
311.370836
 21
1480.603259
  0
LINE
  5
42D
100
AcDbEntity
  8
M0
 62
     6
100
AcDbLine
 10
311.370836
 20
1480.603259
 11
301.887682
 21
1475.128252
  0
LINE
  5
42E
100
AcDbEntity
  8
M0
 62
     6
100
AcDbLine
 10
301.887682
 20
1475.128252
 11
301.887682
 21
1464.17824
  0
LINE
  5
42F
100
AcDbEntity
  8
M0
 62
     6
100
AcDbLine
 10
301.887682
 20
1464.17824
 11
311.370836
 21
1458.703265
  0
CIRCLE
  5
430
100
AcDbEntity
  8
M0
 62
     6
100
AcDbCircle
 10
311.370836
 20
1469.653246
 40
6.0
  0
LINE
  5
431
100
AcDbEntity
  8
M0
  6
DASHDOT
 62
     6
100
AcDbLine
 10
297.665514
 20
1469.653353
 11
325.075274
 21
1469.653353
  0
LINE
  5
432
100
AcDbEntity
  8
M0
  6
DASHDOT
 62
     6
100
AcDbLine
 10
311.370592
 20
1483.358279
 11
311.370348
 21
1455.948428
  0
LINE
  5
433
100
AcDbEntity
  8
M0
100
AcDbLine
 10
471.370836
 20
1453.653338
 11
471.370836
 21
1485.653338
  0
LINE
  5
434
100
AcDbEntity
  8
M0
100
AcDbLine
 10
431.370836
 20
1485.653338
 11
431.370836
 21
1453.653338
  0
LINE
  5
435
100
AcDbEntity
  8
M0
100
AcDbLine
 10
431.370836
 20
1453.653338
 11
471.370836
 21
1453.653338
  0
LINE
  5
436
100
AcDbEntity
  8
M0
100
AcDbLine
 10
426.370836
 20
1522.653338
 11
426.370836
 21
1499.653338
  0
LINE
  5
437
100
AcDbEntity
  8
M0
100
AcDbLine
 10
431.370836
 20
1485.653338
 11
426.370836
 21
1499.653338
  0
LINE
  5
438
100
AcDbEntity
  8
M0
100
AcDbLine
 10
456.370836
 20
1522.653338
 11
456.370836
 21
1499.653338
  0
LINE
  5
439
100
AcDbEntity
  8
M0
100
AcDbLine
 10
471.370821
 20
1485.653338
 11
456.370836
 21
1499.653338
  0
CIRCLE
  5
43A
100
AcDbEntity
  8
M0
100
AcDbCircle
 10
451.370836
 20
1469.653338
 40
6.0
  0
LINE
  5
43B
100
AcDbEntity
  8
M0
 62
     6
100
AcDbLine
 10
451.370836
 20
1458.703265
 11
441.887926
 21
1464.178271
  0
LINE
  5
43C
100
AcDbEntity
  8
M0
 62
     6
100
AcDbLine
 10
441.887926
 20
1464.178271
 11
441.887926
 21
1475.128252
  0
LINE
  5
43D
100
AcDbEntity
  8
M0
 62
     6
100
AcDbLine
 10
441.887926
 20
1475.128252
 11
451.370836
 21
1480.603259
  0
LINE
  5
43E
100
AcDbEntity
  8
M0
 62
     6
100
AcDbLine
 10
451.370836
 20
1480.603259
 11
460.853991
 21
1475.128252
  0
LINE
  5
43F
100
AcDbEntity
  8
M0
 62
     6
100
AcDbLine
 10
460.853991
 20
1475.128252
 11
460.853991
 21
1464.17824
  0
LINE
  5
440
100
AcDbEntity
  8
M0
 62
     6
100
AcDbLine
 10
460.853991
 20
1464.17824
 11
451.370836
 21
1458.703265
  0
CIRCLE
  5
441
100
AcDbEntity
  8
M0
 62
     6
100
AcDbCircle
 10
451.370836
 20
1469.653246
 40
6.0
  0
LINE
  5
442
100
AcDbEntity
  8
M0
  6
DASHDOT
 62
     6
100
AcDbLine
 10
465.076159
 20
1469.653353
 11
437.666399
 21
1469.653353
  0
LINE
  5
443
100
AcDbEntity
  8
M0
  6
DASHDOT
 62
     6
100
AcDbLine
 10
451.371081
 20
1483.358279
 11
451.371325
 21
1455.948428
  0
LINE
  5
444
100
AcDbEntity
  8
M0
100
AcDbLine
 10
471.37091
 20
1769.653325
 11
471.37089
 21
1737.653325
  0
LINE
  5
445
100
AcDbEntity
  8
M0
100
AcDbLine
 10
431.37089
 20
1737.65335
 11
431.37091
 21
1769.65335
  0
LINE
  5
446
100
AcDbEntity
  8
M0
100
AcDbLine
 10
431.37091
 20
1769.65335
 11
471.37091
 21
1769.653325
  0
LINE
  5
447
100
AcDbEntity
  8
M0
100
AcDbLine
 10
426.370867
 20
1700.653354
 11
426.370881
 21
1723.653354
  0
LINE
  5
448
100
AcDbEntity
  8
M0
100
AcDbLine
 10
431.37089
 20
1737.65335
 11
426.370881
 21
1723.653354
  0
LINE
  5
449
100
AcDbEntity
  8
M0
100
AcDbLine
 10
456.370867
 20
1700.653335
 11
456.370881
 21
1723.653335
  0
LINE
  5
44A
100
AcDbEntity
  8
M0
100
AcDbLine
 10
471.370875
 20
1737.653325
 11
456.370881
 21
1723.653335
  0
CIRCLE
  5
44B
100
AcDbEntity
  8
M0
100
AcDbCircle
 10
451.3709
 20
1753.653338
 40
6.0
  0
LINE
  5
44C
100
AcDbEntity
  8
M0
100
AcDbLine
 10
401.37091
 20
1769.653325
 11
361.37091
 21
1769.65335
  0
LINE
  5
44D
100
AcDbEntity
  8
M0
  6
DASHDOT
100
AcDbLine
 10
381.37117
 20
1794.653307
 11
381.371055
 21
1611.653307
  0
LINE
  5
44E
100
AcDbEntity
  8
M0
100
AcDbLine
 10
401.37089
 20
1737.653325
 11
401.37091
 21
1769.653325
  0
LINE
  5
44F
100
AcDbEntity
  8
M0
100
AcDbLine
 10
361.37091
 20
1769.65335
 11
361.37089
 21
1737.65335
  0
LINE
  5
450
100
AcDbEntity
  8
M0
100
AcDbLine
 10
366.370867
 20
1700.653347
 11
366.370881
 21
1723.653347
  0
LINE
  5
451
100
AcDbEntity
  8
M0
100
AcDbLine
 10
366.370881
 20
1723.653347
 11
361.37089
 21
1737.65335
  0
LINE
  5
452
100
AcDbEntity
  8
M0
100
AcDbLine
 10
401.37089
 20
1737.653325
 11
396.370881
 21
1723.653329
  0
LINE
  5
453
100
AcDbEntity
  8
M0
100
AcDbLine
 10
396.370867
 20
1700.653329
 11
396.370881
 21
1723.653329
  0
CIRCLE
  5
454
100
AcDbEntity
  8
M0
100
AcDbCircle
 10
381.3709
 20
1753.653338
 40
6.0
  0
LINE
  5
455
100
AcDbEntity
  8
M0
100
AcDbLine
 10
291.37091
 20
1769.65335
 11
291.37089
 21
1737.65335
  0
LINE
  5
456
100
AcDbEntity
  8
M0
100
AcDbLine
 10
331.37089
 20
1737.653325
 11
331.37091
 21
1769.653325
  0
LINE
  5
457
100
AcDbEntity
  8
M0
100
AcDbLine
 10
331.37091
 20
1769.653325
 11
291.37091
 21
1769.65335
  0
LINE
  5
458
100
AcDbEntity
  8
M0
100
AcDbLine
 10
336.370867
 20
1700.653322
 11
336.370881
 21
1723.653322
  0
LINE
  5
459
100
AcDbEntity
  8
M0
100
AcDbLine
 10
331.37089
 20
1737.653325
 11
336.370881
 21
1723.653322
  0
LINE
  5
45A
100
AcDbEntity
  8
M0
100
AcDbLine
 10
306.370867
 20
1700.653341
 11
306.370881
 21
1723.653341
  0
LINE
  5
45B
100
AcDbEntity
  8
M0
100
AcDbLine
 10
291.370905
 20
1737.65335
 11
306.370881
 21
1723.653341
  0
CIRCLE
  5
45C
100
AcDbEntity
  8
M0
100
AcDbCircle
 10
311.3709
 20
1753.653338
 40
6.0
  0
LINE
  5
45D
100
AcDbEntity
  8
M0
 62
     6
100
AcDbLine
 10
311.370907
 20
1764.603411
 11
320.853814
 21
1759.128399
  0
LINE
  5
45E
100
AcDbEntity
  8
M0
 62
     6
100
AcDbLine
 10
320.853814
 20
1759.128399
 11
320.853807
 21
1748.178417
  0
LINE
  5
45F
100
AcDbEntity
  8
M0
 62
     6
100
AcDbLine
 10
320.853807
 20
1748.178417
 11
311.370893
 21
1742.703417
  0
LINE
  5
460
100
AcDbEntity
  8
M0
 62
     6
100
AcDbLine
 10
311.370893
 20
1742.703417
 11
301.887742
 21
1748.178429
  0
LINE
  5
461
100
AcDbEntity
  8
M0
 62
     6
100
AcDbLine
 10
301.887742
 20
1748.178429
 11
301.887749
 21
1759.128442
  0
LINE
  5
462
100
AcDbEntity
  8
M0
 62
     6
100
AcDbLine
 10
301.887749
 20
1759.128442
 11
311.370907
 21
1764.603411
  0
CIRCLE
  5
463
100
AcDbEntity
  8
M0
 62
     6
100
AcDbCircle
 10
311.3709
 20
1753.653429
 40
6.0
  0
LINE
  5
464
100
AcDbEntity
  8
M0
  6
DASHDOT
 62
     6
100
AcDbLine
 10
297.665578
 20
1753.653331
 11
325.075337
 21
1753.653314
  0
LINE
  5
465
100
AcDbEntity
  8
M0
  6
DASHDOT
 62
     6
100
AcDbLine
 10
311.370647
 20
1739.948397
 11
311.37042
 21
1767.358248
  0
LINE
  5
466
100
AcDbEntity
  8
M0
 62
     6
100
AcDbLine
 10
381.370907
 20
1764.603411
 11
390.853814
 21
1759.128399
  0
LINE
  5
467
100
AcDbEntity
  8
M0
 62
     6
100
AcDbLine
 10
390.853814
 20
1759.128399
 11
390.853807
 21
1748.178417
  0
LINE
  5
468
100
AcDbEntity
  8
M0
 62
     6
100
AcDbLine
 10
390.853807
 20
1748.178417
 11
381.370893
 21
1742.703417
  0
LINE
  5
469
100
AcDbEntity
  8
M0
 62
     6
100
AcDbLine
 10
381.370893
 20
1742.703417
 11
371.887742
 21
1748.178429
  0
LINE
  5
46A
100
AcDbEntity
  8
M0
 62
     6
100
AcDbLine
 10
371.887742
 20
1748.178429
 11
371.887749
 21
1759.128442
  0
LINE
  5
46B
100
AcDbEntity
  8
M0
 62
     6
100
AcDbLine
 10
371.887749
 20
1759.128442
 11
381.370907
 21
1764.603411
  0
CIRCLE
  5
46C
100
AcDbEntity
  8
M0
 62
     6
100
AcDbCircle
 10
381.3709
 20
1753.653429
 40
6.0
  0
LINE
  5
46D
100
AcDbEntity
  8
M0
  6
DASHDOT
 62
     6
100
AcDbLine
 10
367.665578
 20
1753.653331
 11
395.075337
 21
1753.653314
  0
LINE
  5
46E
100
AcDbEntity
  8
M0
 62
     6
100
AcDbLine
 10
451.370907
 20
1764.603411
 11
441.887993
 21
1759.128411
  0
LINE
  5
46F
100
AcDbEntity
  8
M0
 62
     6
100
AcDbLine
 10
441.887993
 20
1759.128411
 11
441.887987
 21
1748.178429
  0
LINE
  5
470
100
AcDbEntity
  8
M0
 62
     6
100
AcDbLine
 10
441.887987
 20
1748.178429
 11
451.370893
 21
1742.703417
  0
LINE
  5
471
100
AcDbEntity
  8
M0
 62
     6
100
AcDbLine
 10
451.370893
 20
1742.703417
 11
460.854051
 21
1748.178417
  0
LINE
  5
472
100
AcDbEntity
  8
M0
 62
     6
100
AcDbLine
 10
460.854051
 20
1748.178417
 11
460.854058
 21
1759.12843
  0
LINE
  5
473
100
AcDbEntity
  8
M0
 62
     6
100
AcDbLine
 10
460.854058
 20
1759.12843
 11
451.370907
 21
1764.603411
  0
CIRCLE
  5
474
100
AcDbEntity
  8
M0
 62
     6
100
AcDbCircle
 10
451.3709
 20
1753.653429
 40
6.0
  0
LINE
  5
475
100
AcDbEntity
  8
M0
  6
DASHDOT
 62
     6
100
AcDbLine
 10
465.076222
 20
1753.653314
 11
437.666463
 21
1753.653331
  0
LINE
  5
476
100
AcDbEntity
  8
M0
  6
DASHDOT
 62
     6
100
AcDbLine
 10
451.371136
 20
1739.948397
 11
451.371397
 21
1767.358248
  0
ARC
  5
477
100
AcDbEntity
  8
M0
 62
     2
100
AcDbCircle
 10
506.370836
 20
1701.653338
 40
5.0
100
AcDbArc
 50
0.0
 51
90.0
  0
LINE
  5
478
100
AcDbEntity
  8
M0
 62
     2
100
AcDbLine
 10
471.370836
 20
1706.653338
 11
506.370836
 21
1706.653338
  0
ARC
  5
479
100
AcDbEntity
  8
M0
 62
     2
100
AcDbCircle
 10
471.370836
 20
1702.653338
 40
4.0
100
AcDbArc
 50
90.0
 51
180.0
  0
LINE
  5
47A
100
AcDbEntity
  8
M0
 62
     2
100
AcDbLine
 10
511.370836
 20
1681.653338
 11
477.370836
 21
1681.653338
  0
LINE
  5
47B
100
AcDbEntity
  8
M0
 62
     2
100
AcDbLine
 10
511.370836
 20
1701.653338
 11
511.370836
 21
1491.653353
  0
ARC
  5
47C
100
AcDbEntity
  8
M0
 62
     2
100
AcDbCircle
 10
506.370836
 20
1491.653353
 40
5.0
100
AcDbArc
 50
-90.000175
 51
0.0
  0
ARC
  5
47D
100
AcDbEntity
  8
M0
 62
     2
100
AcDbCircle
 10
471.370836
 20
1520.653339
 40
4.0
100
AcDbArc
 50
179.999973
 51
269.999781
  0
ARC
  5
47E
100
AcDbEntity
  8
M0
 62
     2
100
AcDbCircle
 10
473.370836
 20
1520.653339
 40
4.0
100
AcDbArc
 50
-90.000219
 51
0.0
  0
LINE
  5
47F
100
AcDbEntity
  8
M0
 62
     2
100
AcDbLine
 10
471.370836
 20
1516.653339
 11
489.370836
 21
1516.653339
  0
LINE
  5
480
100
AcDbEntity
  8
M0
 62
     2
100
AcDbLine
 10
494.370836
 20
1516.653339
 11
511.370836
 21
1516.653339
  0
LINE
  5
481
100
AcDbEntity
  8
M0
 62
     2
100
AcDbLine
 10
506.370836
 20
1486.653353
 11
486.633425
 21
1486.653353
  0
ARC
  5
482
100
AcDbEntity
  8
M0
 62
     2
100
AcDbCircle
 10
486.633425
 20
1491.653353
 40
5.0
100
AcDbArc
 50
203.749232
 51
269.999825
  0
ARC
  5
483
100
AcDbEntity
  8
M0
 62
     2
100
AcDbCircle
 10
496.370836
 20
1694.653338
 40
6.0
100
AcDbArc
 50
-48.590782
 51
48.59048
  0
ARC
  5
484
100
AcDbEntity
  8
M0
 62
     2
100
AcDbCircle
 10
496.370836
 20
1694.653338
 40
6.0
100
AcDbArc
 50
131.409944
 51
228.590467
  0
LINE
  5
485
100
AcDbEntity
  8
M0
 62
     2
100
AcDbLine
 10
492.402208
 20
1690.153338
 11
500.339449
 21
1690.153338
  0
LINE
  5
486
100
AcDbEntity
  8
M0
 62
     2
100
AcDbLine
 10
492.402208
 20
1699.153338
 11
500.339449
 21
1699.153338
  0
ARC
  5
487
100
AcDbEntity
  8
M0
 62
     2
100
AcDbCircle
 10
496.370836
 20
1501.65334
 40
6.0
100
AcDbArc
 50
-48.590674
 51
48.590559
  0
ARC
  5
488
100
AcDbEntity
  8
M0
 62
     2
100
AcDbCircle
 10
496.370836
 20
1501.65334
 40
6.0
100
AcDbArc
 50
131.409623
 51
228.590232
  0
LINE
  5
489
100
AcDbEntity
  8
M0
 62
     2
100
AcDbLine
 10
492.402208
 20
1497.15334
 11
500.339449
 21
1497.15334
  0
LINE
  5
48A
100
AcDbEntity
  8
M0
 62
     2
100
AcDbLine
 10
492.402208
 20
1506.15334
 11
500.339449
 21
1506.15334
  0
LINE
  5
48B
100
AcDbEntity
  8
M0
 62
     2
100
AcDbLine
 10
472.370836
 20
1511.653339
 11
472.370836
 21
1516.653339
  0
LINE
  5
48C
100
AcDbEntity
  8
M0
 62
     2
100
AcDbLine
 10
511.370836
 20
1566.653338
 11
478.870836
 21
1566.653338
  0
LINE
  5
48D
100
AcDbEntity
  8
M0
 62
     2
100
AcDbLine
 10
494.370836
 20
1566.653338
 11
494.370836
 21
1516.653339
  0
LINE
  5
48E
100
AcDbEntity
  8
M0
 62
     2
100
AcDbLine
 10
489.370836
 20
1516.653339
 11
489.370836
 21
1566.653338
  0
LINE
  5
48F
100
AcDbEntity
  8
M0
 62
     2
100
AcDbLine
 10
494.370836
 20
1529.653338
 11
491.870836
 21
1532.653338
  0
LINE
  5
490
100
AcDbEntity
  8
M0
 62
     2
100
AcDbLine
 10
494.370836
 20
1516.653339
 11
491.870836
 21
1519.653339
  0
LINE
  5
491
100
AcDbEntity
  8
M0
 62
     2
100
AcDbLine
 10
489.370836
 20
1529.653338
 11
491.870836
 21
1532.653338
  0
LINE
  5
492
100
AcDbEntity
  8
M0
 62
     2
100
AcDbLine
 10
489.370836
 20
1516.653339
 11
491.870836
 21
1519.653339
  0
LINE
  5
493
100
AcDbEntity
  8
M0
 62
     2
100
AcDbLine
 10
511.370836
 20
1529.653338
 11
494.370836
 21
1529.653338
  0
LINE
  5
494
100
AcDbEntity
  8
M0
 62
     2
100
AcDbLine
 10
489.370836
 20
1529.653338
 11
477.370836
 21
1529.653338
  0
LINE
  5
495
100
AcDbEntity
  8
M0
 62
     2
100
AcDbLine
 10
491.870836
 20
1566.653338
 11
491.870836
 21
1519.653339
  0
LINE
  5
496
100
AcDbEntity
  8
M0
 62
     2
100
AcDbLine
 10
482.056856
 20
1489.639651
 11
472.370836
 21
1511.653339
  0
ARC
  5
497
100
AcDbEntity
  8
M0
 62
     2
100
AcDbCircle
 10
256.370836
 20
1701.653338
 40
5.0
100
AcDbArc
 50
89.999825
 51
180.0
  0
LINE
  5
498
100
AcDbEntity
  8
M0
 62
     2
100
AcDbLine
 10
291.370836
 20
1706.653338
 11
256.370836
 21
1706.653338
  0
ARC
  5
499
100
AcDbEntity
  8
M0
 62
     2
100
AcDbCircle
 10
291.370836
 20
1702.653338
 40
4.0
100
AcDbArc
 50
0.0
 51
89.999781
  0
LINE
  5
49A
100
AcDbEntity
  8
M0
 62
     2
100
AcDbLine
 10
251.370836
 20
1681.653338
 11
285.370836
 21
1681.653338
  0
LINE
  5
49B
100
AcDbEntity
  8
M0
 62
     2
100
AcDbLine
 10
251.370836
 20
1701.653338
 11
251.370836
 21
1491.653353
  0
ARC
  5
49C
100
AcDbEntity
  8
M0
 62
     2
100
AcDbCircle
 10
256.370836
 20
1491.653353
 40
5.0
100
AcDbArc
 50
179.999825
 51
270.0
  0
ARC
  5
49D
100
AcDbEntity
  8
M0
 62
     2
100
AcDbCircle
 10
291.370836
 20
1520.653339
 40
4.0
100
AcDbArc
 50
270.0
 51
360.0
  0
ARC
  5
49E
100
AcDbEntity
  8
M0
 62
     2
100
AcDbCircle
 10
289.370836
 20
1520.653339
 40
4.0
100
AcDbArc
 50
179.999973
 51
270.0
  0
LINE
  5
49F
100
AcDbEntity
  8
M0
 62
     2
100
AcDbLine
 10
291.370836
 20
1516.653339
 11
273.370836
 21
1516.653339
  0
LINE
  5
4A0
100
AcDbEntity
  8
M0
 62
     2
100
AcDbLine
 10
268.370836
 20
1516.653339
 11
251.370836
 21
1516.653339
  0
LINE
  5
4A1
100
AcDbEntity
  8
M0
 62
     2
100
AcDbLine
 10
256.370836
 20
1486.653353
 11
276.108248
 21
1486.653353
  0
ARC
  5
4A2
100
AcDbEntity
  8
M0
 62
     2
100
AcDbCircle
 10
276.108248
 20
1491.653353
 40
5.0
100
AcDbArc
 50
270.0
 51
336.250838
  0
ARC
  5
4A3
100
AcDbEntity
  8
M0
 62
     2
100
AcDbCircle
 10
266.370836
 20
1694.653338
 40
6.0
100
AcDbArc
 50
131.40952
 51
228.590577
  0
ARC
  5
4A4
100
AcDbEntity
  8
M0
 62
     2
100
AcDbCircle
 10
266.370836
 20
1694.653338
 40
6.0
100
AcDbArc
 50
311.409533
 51
408.590165
  0
LINE
  5
4A5
100
AcDbEntity
  8
M0
 62
     2
100
AcDbLine
 10
270.339464
 20
1690.153338
 11
262.402224
 21
1690.153338
  0
LINE
  5
4A6
100
AcDbEntity
  8
M0
 62
     2
100
AcDbLine
 10
270.339464
 20
1699.153338
 11
262.402224
 21
1699.153338
  0
ARC
  5
4A7
100
AcDbEntity
  8
M0
 62
     2
100
AcDbCircle
 10
266.370836
 20
1501.65334
 40
6.0
100
AcDbArc
 50
131.409308
 51
228.590547
  0
ARC
  5
4A8
100
AcDbEntity
  8
M0
 62
     2
100
AcDbCircle
 10
266.370836
 20
1501.65334
 40
6.0
100
AcDbArc
 50
311.409793
 51
408.590371
  0
LINE
  5
4A9
100
AcDbEntity
  8
M0
 62
     2
100
AcDbLine
 10
270.339464
 20
1497.15334
 11
262.402224
 21
1497.15334
  0
LINE
  5
4AA
100
AcDbEntity
  8
M0
 62
     2
100
AcDbLine
 10
270.339464
 20
1506.15334
 11
262.402224
 21
1506.15334
  0
LINE
  5
4AB
100
AcDbEntity
  8
M0
 62
     2
100
AcDbLine
 10
290.370836
 20
1511.653339
 11
290.370836
 21
1516.653339
  0
LINE
  5
4AC
100
AcDbEntity
  8
M0
 62
     2
100
AcDbLine
 10
251.370836
 20
1566.653338
 11
283.870852
 21
1566.653338
  0
LINE
  5
4AD
100
AcDbEntity
  8
M0
 62
     2
100
AcDbLine
 10
268.370836
 20
1566.653338
 11
268.370836
 21
1516.653339
  0
LINE
  5
4AE
100
AcDbEntity
  8
M0
 62
     2
100
AcDbLine
 10
273.370836
 20
1516.653339
 11
273.370836
 21
1566.653338
  0
LINE
  5
4AF
100
AcDbEntity
  8
M0
 62
     2
100
AcDbLine
 10
268.370836
 20
1529.653338
 11
270.870836
 21
1532.653338
  0
LINE
  5
4B0
100
AcDbEntity
  8
M0
 62
     2
100
AcDbLine
 10
268.370836
 20
1516.653339
 11
270.870836
 21
1519.653339
  0
LINE
  5
4B1
100
AcDbEntity
  8
M0
 62
     2
100
AcDbLine
 10
273.370836
 20
1529.653338
 11
270.870836
 21
1532.653338
  0
LINE
  5
4B2
100
AcDbEntity
  8
M0
 62
     2
100
AcDbLine
 10
273.370836
 20
1516.653339
 11
270.870836
 21
1519.653339
  0
LINE
  5
4B3
100
AcDbEntity
  8
M0
 62
     2
100
AcDbLine
 10
251.370836
 20
1529.653338
 11
268.370836
 21
1529.653338
  0
LINE
  5
4B4
100
AcDbEntity
  8
M0
 62
     2
100
AcDbLine
 10
273.370836
 20
1529.653338
 11
285.370836
 21
1529.653338
  0
LINE
  5
4B5
100
AcDbEntity
  8
M0
 62
     2
100
AcDbLine
 10
270.870836
 20
1566.653338
 11
270.870836
 21
1519.653339
  0
LINE
  5
4B6
100
AcDbEntity
  8
M0
 62
     2
100
AcDbLine
 10
280.684817
 20
1489.639651
 11
290.370836
 21
1511.653339
  0
CIRCLE
  5
4B7
100
AcDbEntity
  8
M0
100
AcDbCircle
 10
244.920885
 20
1517.403307
 40
3.0
  0
CIRCLE
  5
4B8
100
AcDbEntity
  8
M0
100
AcDbCircle
 10
234.920977
 20
1517.403307
 40
3.0
  0
CIRCLE
  5
4B9
100
AcDbEntity
  8
M0
100
AcDbCircle
 10
234.920977
 20
1527.403307
 40
3.0
  0
LINE
  5
4BA
100
AcDbEntity
  8
M0
 62
     6
100
AcDbLine
 10
252.570937
 20
1656.653336
 11
267.470937
 21
1656.65334
  0
LINE
  5
4BB
100
AcDbEntity
  8
M0
 62
     6
100
AcDbLine
 10
267.470937
 20
1656.65334
 11
267.470965
 21
1566.65334
  0
LINE
  5
4BC
100
AcDbEntity
  8
M0
 62
     6
100
AcDbLine
 10
267.470965
 20
1566.65334
 11
252.570965
 21
1566.653336
  0
LINE
  5
4BD
100
AcDbEntity
  8
M0
 62
     6
100
AcDbLine
 10
252.570965
 20
1566.653336
 11
252.570937
 21
1656.653336
  0
LINE
  5
4BE
100
AcDbEntity
  8
M0
 62
     6
100
AcDbLine
 10
265.520957
 20
1593.65334
 11
265.520956
 21
1595.15334
  0
LINE
  5
4BF
100
AcDbEntity
  8
M0
 62
     6
100
AcDbLine
 10
254.520957
 20
1593.653336
 11
254.520956
 21
1595.153336
  0
LINE
  5
4C0
100
AcDbEntity
  8
M0
 62
     6
100
AcDbLine
 10
265.520956
 20
1595.15334
 11
254.520956
 21
1595.153336
  0
LINE
  5
4C1
100
AcDbEntity
  8
M0
 62
     6
100
AcDbLine
 10
264.520953
 20
1605.25333
 11
264.520956
 21
1595.153339
  0
LINE
  5
4C2
100
AcDbEntity
  8
M0
 62
     6
100
AcDbLine
 10
264.520957
 20
1593.653339
 11
264.520965
 21
1566.653339
  0
LINE
  5
4C3
100
AcDbEntity
  8
M0
 62
     6
100
AcDbLine
 10
255.520953
 20
1605.253327
 11
255.520956
 21
1595.153337
  0
LINE
  5
4C4
100
AcDbEntity
  8
M0
 62
     6
100
AcDbLine
 10
255.520957
 20
1593.653337
 11
255.520965
 21
1566.653337
  0
LINE
  5
4C5
100
AcDbEntity
  8
M0
 62
     6
100
AcDbLine
 10
254.520957
 20
1593.653336
 11
255.520957
 21
1593.653337
  0
LINE
  5
4C6
100
AcDbEntity
  8
M0
 62
     6
100
AcDbLine
 10
264.520957
 20
1593.653339
 11
265.520957
 21
1593.65334
  0
LINE
  5
4C7
100
AcDbEntity
  8
M0
 62
     6
100
AcDbLine
 10
255.520953
 20
1605.253327
 11
264.520953
 21
1605.25333
  0
LINE
  5
4C8
100
AcDbEntity
  8
M0
 62
     6
100
AcDbLine
 10
264.520963
 20
1572.653339
 11
255.520963
 21
1572.653337
  0
LINE
  5
4C9
100
AcDbEntity
  8
M0
 62
     6
100
AcDbLine
 10
267.470959
 20
1586.65334
 11
264.520959
 21
1586.653339
  0
LINE
  5
4CA
100
AcDbEntity
  8
M0
 62
     6
100
AcDbLine
 10
255.520959
 20
1586.653337
 11
252.570959
 21
1586.653336
  0
LINE
  5
4CB
100
AcDbEntity
  8
M0
 62
     6
100
AcDbLine
 10
254.520945
 20
1629.653336
 11
254.520946
 21
1628.153336
  0
LINE
  5
4CC
100
AcDbEntity
  8
M0
 62
     6
100
AcDbLine
 10
265.520946
 20
1628.15334
 11
254.520946
 21
1628.153336
  0
LINE
  5
4CD
100
AcDbEntity
  8
M0
 62
     6
100
AcDbLine
 10
255.520949
 20
1618.05333
 11
255.520946
 21
1628.153337
  0
LINE
  5
4CE
100
AcDbEntity
  8
M0
 62
     6
100
AcDbLine
 10
255.520945
 20
1629.653337
 11
255.520937
 21
1656.653337
  0
LINE
  5
4CF
100
AcDbEntity
  8
M0
 62
     6
100
AcDbLine
 10
254.520945
 20
1629.653336
 11
255.520945
 21
1629.653337
  0
LINE
  5
4D0
100
AcDbEntity
  8
M0
 62
     6
100
AcDbLine
 10
255.520949
 20
1618.05333
 11
264.520949
 21
1618.053333
  0
LINE
  5
4D1
100
AcDbEntity
  8
M0
 62
     6
100
AcDbLine
 10
264.520939
 20
1650.653339
 11
255.520939
 21
1650.653337
  0
LINE
  5
4D2
100
AcDbEntity
  8
M0
 62
     6
100
AcDbLine
 10
255.520943
 20
1636.653337
 11
252.570943
 21
1636.653336
  0
LINE
  5
4D3
100
AcDbEntity
  8
M0
 62
     6
100
AcDbLine
 10
264.520949
 20
1618.053333
 11
264.520946
 21
1628.153339
  0
LINE
  5
4D4
100
AcDbEntity
  8
M0
 62
     6
100
AcDbLine
 10
265.520945
 20
1629.65334
 11
265.520946
 21
1628.15334
  0
LINE
  5
4D5
100
AcDbEntity
  8
M0
 62
     6
100
AcDbLine
 10
264.520945
 20
1629.653339
 11
265.520945
 21
1629.65334
  0
LINE
  5
4D6
100
AcDbEntity
  8
M0
 62
     6
100
AcDbLine
 10
264.520945
 20
1629.653339
 11
264.520937
 21
1656.653339
  0
LINE
  5
4D7
100
AcDbEntity
  8
M0
 62
     6
100
AcDbLine
 10
267.470943
 20
1636.65334
 11
264.520943
 21
1636.653339
  0
CIRCLE
  5
4D8
100
AcDbEntity
  8
M0
 62
     6
100
AcDbCircle
 10
260.020951
 20
1611.653338
 40
2.799999
  0
CIRCLE
  5
4D9
100
AcDbEntity
  8
M0
 62
     7
100
AcDbCircle
 10
274.920885
 20
1636.153307
 40
3.5
  0
CIRCLE
  5
4DA
100
AcDbEntity
  8
M0
 62
     7
100
AcDbCircle
 10
260.020983
 20
1587.153307
 40
3.5
  0
CIRCLE
  5
4DB
100
AcDbEntity
  8
M0
 62
     7
100
AcDbCircle
 10
260.020983
 20
1636.153307
 40
3.5
  0
CIRCLE
  5
4DC
100
AcDbEntity
  8
M0
 62
     7
100
AcDbCircle
 10
274.920885
 20
1587.153307
 40
3.5
  0
LINE
  5
4DD
100
AcDbEntity
  8
M0
 62
     6
100
AcDbLine
 10
495.270644
 20
1656.653336
 11
510.170644
 21
1656.65334
  0
LINE
  5
4DE
100
AcDbEntity
  8
M0
 62
     6
100
AcDbLine
 10
510.170644
 20
1656.65334
 11
510.170672
 21
1566.65334
  0
LINE
  5
4DF
100
AcDbEntity
  8
M0
 62
     6
100
AcDbLine
 10
510.170672
 20
1566.65334
 11
495.270672
 21
1566.653336
  0
LINE
  5
4E0
100
AcDbEntity
  8
M0
 62
     6
100
AcDbLine
 10
495.270672
 20
1566.653336
 11
495.270644
 21
1656.653336
  0
LINE
  5
4E1
100
AcDbEntity
  8
M0
 62
     6
100
AcDbLine
 10
508.220664
 20
1593.65334
 11
508.220663
 21
1595.15334
  0
LINE
  5
4E2
100
AcDbEntity
  8
M0
 62
     6
100
AcDbLine
 10
497.220664
 20
1593.653336
 11
497.220663
 21
1595.153336
  0
LINE
  5
4E3
100
AcDbEntity
  8
M0
 62
     6
100
AcDbLine
 10
508.220663
 20
1595.15334
 11
497.220663
 21
1595.153336
  0
LINE
  5
4E4
100
AcDbEntity
  8
M0
 62
     6
100
AcDbLine
 10
507.22066
 20
1605.25333
 11
507.220663
 21
1595.153339
  0
LINE
  5
4E5
100
AcDbEntity
  8
M0
 62
     6
100
AcDbLine
 10
507.220664
 20
1593.653339
 11
507.220672
 21
1566.653339
  0
LINE
  5
4E6
100
AcDbEntity
  8
M0
 62
     6
100
AcDbLine
 10
498.22066
 20
1605.253327
 11
498.220663
 21
1595.153337
  0
LINE
  5
4E7
100
AcDbEntity
  8
M0
 62
     6
100
AcDbLine
 10
498.220664
 20
1593.653337
 11
498.220672
 21
1566.653337
  0
LINE
  5
4E8
100
AcDbEntity
  8
M0
 62
     6
100
AcDbLine
 10
497.220664
 20
1593.653336
 11
498.220664
 21
1593.653337
  0
LINE
  5
4E9
100
AcDbEntity
  8
M0
 62
     6
100
AcDbLine
 10
507.220664
 20
1593.653339
 11
508.220664
 21
1593.65334
  0
LINE
  5
4EA
100
AcDbEntity
  8
M0
 62
     6
100
AcDbLine
 10
498.22066
 20
1605.253327
 11
507.22066
 21
1605.25333
  0
LINE
  5
4EB
100
AcDbEntity
  8
M0
 62
     6
100
AcDbLine
 10
507.22067
 20
1572.653339
 11
498.22067
 21
1572.653337
  0
LINE
  5
4EC
100
AcDbEntity
  8
M0
 62
     6
100
AcDbLine
 10
510.170666
 20
1586.65334
 11
507.220666
 21
1586.653339
  0
LINE
  5
4ED
100
AcDbEntity
  8
M0
 62
     6
100
AcDbLine
 10
498.220666
 20
1586.653337
 11
495.270666
 21
1586.653336
  0
LINE
  5
4EE
100
AcDbEntity
  8
M0
 62
     6
100
AcDbLine
 10
497.220652
 20
1629.653336
 11
497.220653
 21
1628.153336
  0
LINE
  5
4EF
100
AcDbEntity
  8
M0
 62
     6
100
AcDbLine
 10
508.220653
 20
1628.15334
 11
497.220653
 21
1628.153336
  0
LINE
  5
4F0
100
AcDbEntity
  8
M0
 62
     6
100
AcDbLine
 10
498.220656
 20
1618.05333
 11
498.220653
 21
1628.153337
  0
LINE
  5
4F1
100
AcDbEntity
  8
M0
 62
     6
100
AcDbLine
 10
498.220652
 20
1629.653337
 11
498.220644
 21
1656.653337
  0
LINE
  5
4F2
100
AcDbEntity
  8
M0
 62
     6
100
AcDbLine
 10
497.220652
 20
1629.653336
 11
498.220652
 21
1629.653337
  0
LINE
  5
4F3
100
AcDbEntity
  8
M0
 62
     6
100
AcDbLine
 10
498.220656
 20
1618.05333
 11
507.220656
 21
1618.053333
  0
LINE
  5
4F4
100
AcDbEntity
  8
M0
 62
     6
100
AcDbLine
 10
507.220646
 20
1650.653339
 11
498.220646
 21
1650.653337
  0
LINE
  5
4F5
100
AcDbEntity
  8
M0
 62
     6
100
AcDbLine
 10
498.22065
 20
1636.653337
 11
495.27065
 21
1636.653336
  0
LINE
  5
4F6
100
AcDbEntity
  8
M0
 62
     6
100
AcDbLine
 10
507.220656
 20
1618.053333
 11
507.220653
 21
1628.153339
  0
LINE
  5
4F7
100
AcDbEntity
  8
M0
 62
     6
100
AcDbLine
 10
508.220652
 20
1629.65334
 11
508.220653
 21
1628.15334
  0
LINE
  5
4F8
100
AcDbEntity
  8
M0
 62
     6
100
AcDbLine
 10
507.220652
 20
1629.653339
 11
508.220652
 21
1629.65334
  0
LINE
  5
4F9
100
AcDbEntity
  8
M0
 62
     6
100
AcDbLine
 10
507.220652
 20
1629.653339
 11
507.220644
 21
1656.653339
  0
LINE
  5
4FA
100
AcDbEntity
  8
M0
 62
     6
100
AcDbLine
 10
510.17065
 20
1636.65334
 11
507.22065
 21
1636.653339
  0
CIRCLE
  5
4FB
100
AcDbEntity
  8
M0
 62
     6
100
AcDbCircle
 10
502.720658
 20
1611.653338
 40
2.799999
  0
CIRCLE
  5
4FC
100
AcDbEntity
  8
M0
 62
     7
100
AcDbCircle
 10
487.820788
 20
1636.153307
 40
3.5
  0
CIRCLE
  5
4FD
100
AcDbEntity
  8
M0
 62
     7
100
AcDbCircle
 10
502.72069
 20
1636.153307
 40
3.5
  0
CIRCLE
  5
4FE
100
AcDbEntity
  8
M0
 62
     7
100
AcDbCircle
 10
487.820788
 20
1587.153307
 40
3.5
  0
CIRCLE
  5
4FF
100
AcDbEntity
  8
M0
 62
     7
100
AcDbCircle
 10
502.72069
 20
1587.153307
 40
3.5
  0
LINE
  5
500
100
AcDbEntity
  8
M0
100
AcDbLine
 10
384.370836
 20
1620.903307
 11
378.370836
 21
1620.903307
  0
LINE
  5
501
100
AcDbEntity
  8
M0
100
AcDbLine
 10
378.370836
 20
1620.903307
 11
378.370836
 21
1625.403307
  0
LINE
  5
502
100
AcDbEntity
  8
M0
100
AcDbLine
 10
378.370836
 20
1625.403307
 11
384.370836
 21
1625.403307
  0
LINE
  5
503
100
AcDbEntity
  8
M0
100
AcDbLine
 10
384.370836
 20
1625.403307
 11
384.370836
 21
1620.903307
  0
LINE
  5
504
100
AcDbEntity
  8
M0
  6
DASHDOT
100
AcDbLine
 10
516.36986
 20
1702.652819
 11
516.36986
 21
1782.652819
  0
LINE
  5
505
100
AcDbEntity
  8
M0
 62
     7
100
AcDbLine
 10
1059.289034
 20
1706.653307
 11
1059.289034
 21
1700.653307
  0
ARC
  5
506
100
AcDbEntity
  8
M0
 62
     7
100
AcDbCircle
 10
1029.489031
 20
1703.653307
 40
3.0
100
AcDbArc
 50
90.0
 51
180.0
  0
LINE
  5
507
100
AcDbEntity
  8
M0
 62
     7
100
AcDbLine
 10
1029.489031
 20
1706.653307
 11
1059.289034
 21
1706.653307
  0
LINE
  5
508
100
AcDbEntity
  8
M0
 62
     7
100
AcDbLine
 10
1059.289034
 20
1522.653338
 11
1059.289034
 21
1516.653338
  0
LINE
  5
509
100
AcDbEntity
  8
M0
 62
     7
100
AcDbLine
 10
1026.489031
 20
1519.653338
 11
1026.489031
 21
1703.653307
  0
ARC
  5
50A
100
AcDbEntity
  8
M0
 62
     7
100
AcDbCircle
 10
1029.489031
 20
1519.653338
 40
3.0
100
AcDbArc
 50
180.0
 51
269.999709
  0
LINE
  5
50B
100
AcDbEntity
  8
M0
 62
     7
100
AcDbLine
 10
1029.489031
 20
1516.653338
 11
1059.289034
 21
1516.653338
  0
LINE
  5
50C
100
AcDbEntity
  8
M0
100
AcDbLine
 10
1154.28908
 20
1486.653353
 11
1154.28908
 21
1706.653338
  0
LINE
  5
50D
100
AcDbEntity
  8
M0
  6
DASHDOT
100
AcDbLine
 10
1013.204653
 20
1611.653338
 11
1159.28908
 21
1611.653338
  0
ARC
  5
50E
100
AcDbEntity
  8
M0
100
AcDbCircle
 10
1116.28908
 20
1614.403338
 40
3.0
100
AcDbArc
 50
109.471848
 51
180.0
  0
LINE
  5
50F
100
AcDbEntity
  8
M0
100
AcDbLine
 10
1113.28908
 20
1614.403338
 11
1113.28908
 21
1608.903338
  0
ARC
  5
510
100
AcDbEntity
  8
M0
100
AcDbCircle
 10
1116.28908
 20
1608.903338
 40
3.0
100
AcDbArc
 50
180.0
 51
250.528524
  0
ARC
  5
511
100
AcDbEntity
  8
M0
100
AcDbCircle
 10
1127.28908
 20
1555.153338
 40
4.0
100
AcDbArc
 50
180.0
 51
269.999781
  0
ARC
  5
512
100
AcDbEntity
  8
M0
100
AcDbCircle
 10
1127.28908
 20
1668.153338
 40
4.0
100
AcDbArc
 50
90.0
 51
180.0
  0
LINE
  5
513
100
AcDbEntity
  8
M0
100
AcDbLine
 10
1154.28908
 20
1672.153338
 11
1127.28908
 21
1672.153338
  0
LINE
  5
514
100
AcDbEntity
  8
M0
100
AcDbLine
 10
1154.28908
 20
1551.153338
 11
1127.28908
 21
1551.153338
  0
ARC
  5
515
100
AcDbEntity
  8
M0
100
AcDbCircle
 10
1114.28908
 20
1647.653338
 40
3.0
100
AcDbArc
 50
90.0
 51
180.0
  0
LINE
  5
516
100
AcDbEntity
  8
M0
100
AcDbLine
 10
1115.28908
 20
1650.653338
 11
1114.28908
 21
1650.653338
  0
LINE
  5
517
100
AcDbEntity
  8
M0
100
AcDbLine
 10
1123.28908
 20
1658.653338
 11
1123.28908
 21
1668.153338
  0
ARC
  5
518
100
AcDbEntity
  8
M0
100
AcDbCircle
 10
1115.28908
 20
1658.653338
 40
8.0
100
AcDbArc
 50
269.999891
 51
360.0
  0
ARC
  5
519
100
AcDbEntity
  8
M0
100
AcDbCircle
 10
1114.28908
 20
1575.653338
 40
3.0
100
AcDbArc
 50
180.0
 51
269.999709
  0
LINE
  5
51A
100
AcDbEntity
  8
M0
100
AcDbLine
 10
1123.28908
 20
1555.153338
 11
1123.28908
 21
1564.653338
  0
LINE
  5
51B
100
AcDbEntity
  8
M0
100
AcDbLine
 10
1115.28908
 20
1572.653338
 11
1114.28908
 21
1572.653338
  0
ARC
  5
51C
100
AcDbEntity
  8
M0
100
AcDbCircle
 10
1115.28908
 20
1564.653338
 40
8.0
100
AcDbArc
 50
0.0
 51
90.0
  0
LINE
  5
51D
100
AcDbEntity
  8
M0
100
AcDbLine
 10
1111.28908
 20
1647.653338
 11
1111.28908
 21
1575.653338
  0
ARC
  5
51E
100
AcDbEntity
  8
M0
100
AcDbCircle
 10
1114.28908
 20
1626.653338
 40
3.0
100
AcDbArc
 50
90.0
 51
180.0
  0
ARC
  5
51F
100
AcDbEntity
  8
M0
100
AcDbCircle
 10
1114.28908
 20
1596.653338
 40
3.0
100
AcDbArc
 50
180.0
 51
269.999709
  0
LINE
  5
520
100
AcDbEntity
  8
M0
100
AcDbLine
 10
1127.28908
 20
1629.653338
 11
1114.28908
 21
1629.653338
  0
LINE
  5
521
100
AcDbEntity
  8
M0
100
AcDbLine
 10
1127.28908
 20
1593.653338
 11
1114.28908
 21
1593.653338
  0
LINE
  5
522
100
AcDbEntity
  8
M0
100
AcDbLine
 10
1096.28908
 20
1618.153338
 11
1111.28908
 21
1618.153338
  0
LINE
  5
523
100
AcDbEntity
  8
M0
100
AcDbLine
 10
1096.28908
 20
1605.153338
 11
1111.28908
 21
1605.153338
  0
LINE
  5
524
100
AcDbEntity
  8
M0
100
AcDbLine
 10
1139.28908
 20
1706.653338
 11
1139.28908
 21
1685.653338
  0
ARC
  5
525
100
AcDbEntity
  8
M0
100
AcDbCircle
 10
1136.28908
 20
1685.653338
 40
3.0
100
AcDbArc
 50
269.999709
 51
360.0
  0
LINE
  5
526
100
AcDbEntity
  8
M0
100
AcDbLine
 10
1097.28908
 20
1682.653338
 11
1136.28908
 21
1682.653338
  0
ARC
  5
527
100
AcDbEntity
  8
M0
100
AcDbCircle
 10
1097.28908
 20
1681.653338
 40
1.0
100
AcDbArc
 50
90.0
 51
180.0
  0
LINE
  5
528
100
AcDbEntity
  8
M0
100
AcDbLine
 10
1096.28908
 20
1566.653338
 11
1096.28908
 21
1681.653338
  0
LINE
  5
529
100
AcDbEntity
  8
M0
100
AcDbLine
 10
1096.28908
 20
1566.653338
 11
1101.28908
 21
1566.653338
  0
LINE
  5
52A
100
AcDbEntity
  8
M0
100
AcDbLine
 10
1101.28908
 20
1566.653338
 11
1101.28908
 21
1529.653338
  0
LINE
  5
52B
100
AcDbEntity
  8
M0
100
AcDbLine
 10
1112.28908
 20
1529.653338
 11
1139.28908
 21
1516.653339
  0
LINE
  5
52C
100
AcDbEntity
  8
M0
100
AcDbLine
 10
1101.28908
 20
1529.653338
 11
1112.28908
 21
1529.653338
  0
LINE
  5
52D
100
AcDbEntity
  8
M0
100
AcDbLine
 10
1139.28908
 20
1516.653339
 11
1139.28908
 21
1486.653353
  0
LINE
  5
52E
100
AcDbEntity
  8
M0
100
AcDbLine
 10
1154.28908
 20
1706.653338
 11
1059.289095
 21
1706.653338
  0
ARC
  5
52F
100
AcDbEntity
  8
M0
100
AcDbCircle
 10
1086.289094
 20
1497.65334
 40
1.0
100
AcDbArc
 50
179.999945
 51
270.0
  0
LINE
  5
530
100
AcDbEntity
  8
M0
100
AcDbLine
 10
1086.289094
 20
1496.65334
 11
1116.28908
 21
1496.65334
  0
ARC
  5
531
100
AcDbEntity
  8
M0
100
AcDbCircle
 10
1116.28908
 20
1497.65334
 40
1.0
100
AcDbArc
 50
269.999126
 51
360.0
  0
LINE
  5
532
100
AcDbEntity
  8
M0
100
AcDbLine
 10
1117.28908
 20
1497.65334
 11
1117.28908
 21
1511.153339
  0
LINE
  5
533
100
AcDbEntity
  8
M0
100
AcDbLine
 10
1117.28908
 20
1511.153339
 11
1137.28908
 21
1511.153339
  0
LINE
  5
534
100
AcDbEntity
  8
M0
100
AcDbLine
 10
1085.289094
 20
1497.65334
 11
1085.289094
 21
1516.653339
  0
LINE
  5
535
100
AcDbEntity
  8
M0
100
AcDbLine
 10
1137.28908
 20
1516.653339
 11
1137.28908
 21
1511.153339
  0
LINE
  5
536
100
AcDbEntity
  8
M0
100
AcDbLine
 10
1059.289095
 20
1516.653339
 11
1139.28908
 21
1516.653339
  0
LINE
  5
537
100
AcDbEntity
  8
M0
100
AcDbLine
 10
1059.289095
 20
1706.653338
 11
1059.289095
 21
1636.653338
  0
LINE
  5
538
100
AcDbEntity
  8
M0
100
AcDbLine
 10
1139.28908
 20
1486.653353
 11
1154.28908
 21
1486.653353
  0
ARC
  5
539
100
AcDbEntity
  8
M0
100
AcDbCircle
 10
1086.289094
 20
1725.653338
 40
1.0
100
AcDbArc
 50
90.0
 51
180.0
  0
LINE
  5
53A
100
AcDbEntity
  8
M0
100
AcDbLine
 10
1086.289094
 20
1726.653338
 11
1116.28908
 21
1726.653338
  0
ARC
  5
53B
100
AcDbEntity
  8
M0
100
AcDbCircle
 10
1116.28908
 20
1725.653338
 40
1.0
100
AcDbArc
 50
0.0
 51
90.0
  0
LINE
  5
53C
100
AcDbEntity
  8
M0
100
AcDbLine
 10
1117.28908
 20
1725.653338
 11
1117.28908
 21
1712.153338
  0
LINE
  5
53D
100
AcDbEntity
  8
M0
100
AcDbLine
 10
1117.28908
 20
1712.153338
 11
1137.28908
 21
1712.153338
  0
LINE
  5
53E
100
AcDbEntity
  8
M0
100
AcDbLine
 10
1085.289094
 20
1725.653338
 11
1085.289094
 21
1706.653338
  0
LINE
  5
53F
100
AcDbEntity
  8
M0
100
AcDbLine
 10
1137.28908
 20
1706.653338
 11
1137.28908
 21
1712.153338
  0
LINE
  5
540
100
AcDbEntity
  8
M0
100
AcDbLine
 10
1059.289095
 20
1586.653338
 11
1059.289095
 21
1516.653339
  0
LINE
  5
541
100
AcDbEntity
  8
M0
 62
     6
100
AcDbLine
 10
1081.289098
 20
1566.653318
 11
1096.289098
 21
1566.653313
  0
ARC
  5
542
100
AcDbEntity
  8
M0
 62
     6
100
AcDbCircle
 10
1081.289099
 20
1571.653318
 40
5.0
100
AcDbArc
 50
179.999982
 51
269.999807
  0
LINE
  5
543
100
AcDbEntity
  8
M0
 62
     6
100
AcDbLine
 10
1081.289126
 20
1656.653318
 11
1096.289126
 21
1656.653313
  0
ARC
  5
544
100
AcDbEntity
  8
M0
 62
     6
100
AcDbCircle
 10
1081.289124
 20
1651.653318
 40
5.0
100
AcDbArc
 50
90.0
 51
179.999982
  0
ARC
  5
545
100
AcDbEntity
  8
M0
 62
     6
100
AcDbCircle
 10
1054.289119
 20
1633.653326
 40
3.0
100
AcDbArc
 50
90.0
 51
179.999982
  0
LINE
  5
546
100
AcDbEntity
  8
M0
 62
     6
100
AcDbLine
 10
1051.289105
 20
1589.653327
 11
1051.289119
 21
1633.653327
  0
ARC
  5
547
100
AcDbEntity
  8
M0
 62
     6
100
AcDbCircle
 10
1054.289105
 20
1589.653326
 40
3.0
100
AcDbArc
 50
179.999982
 51
269.999691
  0
LINE
  5
548
100
AcDbEntity
  8
M0
 62
     6
100
AcDbLine
 10
1076.289099
 20
1571.653319
 11
1076.289101
 21
1576.653319
  0
LINE
  5
549
100
AcDbEntity
  8
M0
 62
     6
100
AcDbLine
 10
1054.289104
 20
1586.653326
 11
1066.289104
 21
1586.653322
  0
ARC
  5
54A
100
AcDbEntity
  8
M0
 62
     6
100
AcDbCircle
 10
1066.289101
 20
1576.653322
 40
10.0
100
AcDbArc
 50
359.999895
 51
450.0
  0
LINE
  5
54B
100
AcDbEntity
  8
M0
 62
     6
100
AcDbLine
 10
1054.28912
 20
1636.653326
 11
1066.28912
 21
1636.653322
  0
LINE
  5
54C
100
AcDbEntity
  8
M0
 62
     6
100
AcDbLine
 10
1076.289123
 20
1646.653319
 11
1076.289124
 21
1651.653319
  0
ARC
  5
54D
100
AcDbEntity
  8
M0
 62
     6
100
AcDbCircle
 10
1066.289123
 20
1646.653322
 40
10.0
100
AcDbArc
 50
269.999895
 51
359.999895
  0
ARC
  5
54E
100
AcDbEntity
  8
M0
 62
     6
100
AcDbCircle
 10
1096.289113
 20
1614.653313
 40
2.0
100
AcDbArc
 50
90.0
 51
179.999982
  0
LINE
  5
54F
100
AcDbEntity
  8
M0
 62
     6
100
AcDbLine
 10
1094.289111
 20
1608.653314
 11
1094.289113
 21
1614.653314
  0
ARC
  5
550
100
AcDbEntity
  8
M0
 62
     6
100
AcDbCircle
 10
1096.289111
 20
1608.653313
 40
2.0
100
AcDbArc
 50
179.999982
 51
269.999545
  0
LINE
  5
551
100
AcDbEntity
  8
M0
 62
     6
100
AcDbLine
 10
1096.289098
 20
1566.653313
 11
1096.28911
 21
1606.653313
  0
LINE
  5
552
100
AcDbEntity
  8
M0
 62
     6
100
AcDbLine
 10
1096.289113
 20
1616.653313
 11
1096.289126
 21
1656.653313
  0
LINE
  5
553
100
AcDbEntity
  8
M0
 62
     4
100
AcDbLine
 10
1154.289125
 20
1654.653314
 11
1144.289125
 21
1654.653317
  0
ARC
  5
554
100
AcDbEntity
  8
M0
 62
     4
100
AcDbCircle
 10
1144.289124
 20
1649.653317
 40
5.0
100
AcDbArc
 50
90.0
 51
179.999982
  0
LINE
  5
555
100
AcDbEntity
  8
M0
 62
     4
100
AcDbLine
 10
1144.289098
 20
1568.653317
 11
1154.289098
 21
1568.653314
  0
ARC
  5
556
100
AcDbEntity
  8
M0
 62
     4
100
AcDbCircle
 10
1144.2891
 20
1573.653317
 40
5.0
100
AcDbArc
 50
179.999982
 51
269.999807
  0
ARC
  5
557
100
AcDbEntity
  8
M0
 62
     4
100
AcDbCircle
 10
1132.28912
 20
1639.65332
 40
5.0
100
AcDbArc
 50
90.0
 51
179.999982
  0
ARC
  5
558
100
AcDbEntity
  8
M0
 62
     4
100
AcDbCircle
 10
1132.289103
 20
1583.65332
 40
5.0
100
AcDbArc
 50
179.999982
 51
269.999807
  0
LINE
  5
559
100
AcDbEntity
  8
M0
 62
     4
100
AcDbLine
 10
1132.289122
 20
1644.65332
 11
1136.289122
 21
1644.653319
  0
LINE
  5
55A
100
AcDbEntity
  8
M0
 62
     4
100
AcDbLine
 10
1139.289124
 20
1649.653318
 11
1139.289123
 21
1647.653318
  0
ARC
  5
55B
100
AcDbEntity
  8
M0
 62
     4
100
AcDbCircle
 10
1136.289123
 20
1647.653319
 40
3.0
100
AcDbArc
 50
269.999691
 51
359.999691
  0
LINE
  5
55C
100
AcDbEntity
  8
M0
 62
     4
100
AcDbLine
 10
1139.2891
 20
1575.653318
 11
1139.2891
 21
1573.653318
  0
LINE
  5
55D
100
AcDbEntity
  8
M0
 62
     4
100
AcDbLine
 10
1132.289101
 20
1578.65332
 11
1136.289101
 21
1578.653319
  0
ARC
  5
55E
100
AcDbEntity
  8
M0
 62
     4
100
AcDbCircle
 10
1136.2891
 20
1575.653319
 40
3.0
100
AcDbArc
 50
359.999691
 51
450.0
  0
LINE
  5
55F
100
AcDbEntity
  8
M0
 62
     4
100
AcDbLine
 10
1115.289114
 20
1618.153326
 11
1115.28911
 21
1605.153326
  0
LINE
  5
560
100
AcDbEntity
  8
M0
 62
     4
100
AcDbLine
 10
1127.28912
 20
1639.653322
 11
1127.289114
 21
1618.153322
  0
LINE
  5
561
100
AcDbEntity
  8
M0
 62
     4
100
AcDbLine
 10
1127.28911
 20
1605.153322
 11
1127.289103
 21
1583.653322
  0
LINE
  5
562
100
AcDbEntity
  8
M0
 62
     4
100
AcDbLine
 10
1154.289098
 20
1568.653314
 11
1154.289108
 21
1599.153314
  0
LINE
  5
563
100
AcDbEntity
  8
M0
 62
     4
100
AcDbLine
 10
1154.289116
 20
1624.153314
 11
1154.289125
 21
1654.653314
  0
LINE
  5
564
100
AcDbEntity
  8
M0
 62
     4
100
AcDbLine
 10
1115.28911
 20
1605.153326
 11
1127.28911
 21
1605.153322
  0
LINE
  5
565
100
AcDbEntity
  8
M0
 62
     4
100
AcDbLine
 10
1115.289114
 20
1618.153326
 11
1127.289114
 21
1618.153322
  0
LINE
  5
566
100
AcDbEntity
  8
M0
 62
     6
100
AcDbLine
 10
1224.089083
 20
1730.653338
 11
1184.28908
 21
1730.653338
  0
LINE
  5
567
100
AcDbEntity
  8
M0
 62
     6
100
AcDbLine
 10
1154.289094
 20
1709.653338
 11
1154.289094
 21
1517.553339
  0
LINE
  5
568
100
AcDbEntity
  8
M0
 62
     6
100
AcDbLine
 10
1219.28908
 20
1492.653353
 11
1224.089083
 21
1492.653353
  0
LINE
  5
569
100
AcDbEntity
  8
M0
  6
DASHDOT
 62
     6
100
AcDbLine
 10
1149.289095
 20
1611.653338
 11
1234.28908
 21
1611.653338
  0
LINE
  5
56A
100
AcDbEntity
  8
M0
 62
     6
100
AcDbLine
 10
1224.089083
 20
1492.653353
 11
1224.089083
 21
1730.653338
  0
LINE
  5
56B
100
AcDbEntity
  8
M0
 62
     6
100
AcDbLine
 10
1205.389086
 20
1506.553339
 11
1219.28908
 21
1492.653353
  0
LINE
  5
56C
100
AcDbEntity
  8
M0
 62
     6
100
AcDbLine
 10
1165.289094
 20
1506.553339
 11
1205.389086
 21
1506.553339
  0
ARC
  5
56D
100
AcDbEntity
  8
M0
 62
     6
100
AcDbCircle
 10
1165.289094
 20
1517.553339
 40
11.0
100
AcDbArc
 50
179.999965
 51
269.999945
  0
LINE
  5
56E
100
AcDbEntity
  8
M0
 62
     6
100
AcDbLine
 10
1165.289094
 20
1720.653338
 11
1174.28908
 21
1720.653338
  0
ARC
  5
56F
100
AcDbEntity
  8
M0
 62
     6
100
AcDbCircle
 10
1165.289094
 20
1709.653338
 40
11.0
100
AcDbArc
 50
90.0
 51
180.0
  0
LINE
  5
570
100
AcDbEntity
  8
M0
 62
     6
100
AcDbLine
 10
1174.28908
 20
1720.653338
 11
1184.28908
 21
1730.653338
  0
LINE
  5
571
100
AcDbEntity
  8
M0
100
AcDbLine
 10
1258.889101
 20
1486.653307
 11
1154.289095
 21
1486.653307
  0
LINE
  5
572
100
AcDbEntity
  8
M0
  6
DASHED
100
AcDbLine
 10
1256.589098
 20
1736.653307
 11
1256.589098
 21
1730.653307
  0
LINE
  5
573
100
AcDbEntity
  8
M0
100
AcDbLine
 10
1258.889101
 20
1736.653307
 11
1236.589098
 21
1736.653307
  0
LINE
  5
574
100
AcDbEntity
  8
M0
100
AcDbLine
 10
1236.589098
 20
1736.653307
 11
1224.089098
 21
1731.206774
  0
LINE
  5
575
100
AcDbEntity
  8
M0
  6
DASHED
100
AcDbLine
 10
1256.589098
 20
1696.653307
 11
1256.589098
 21
1526.653307
  0
LINE
  5
576
100
AcDbEntity
  8
M0
  6
DASHED
100
AcDbLine
 10
1256.589098
 20
1492.653307
 11
1256.589098
 21
1486.653307
  0
LINE
  5
577
100
AcDbEntity
  8
M0
  6
DASHDOT
100
AcDbLine
 10
1268.889209
 20
1611.6533
 11
1214.089222
 21
1611.653317
  0
LINE
  5
578
100
AcDbEntity
  8
M0
100
AcDbLine
 10
1224.089184
 20
1492.653329
 11
1255.889172
 21
1492.65332
  0
ARC
  5
579
100
AcDbEntity
  8
M0
100
AcDbCircle
 10
1255.889173
 20
1495.653306
 40
3.0
100
AcDbArc
 50
269.999691
 51
359.999946
  0
ARC
  5
57A
100
AcDbEntity
  8
M0
100
AcDbCircle
 10
1255.889182
 20
1523.653305
 40
3.0
100
AcDbArc
 50
359.999927
 51
450.0
  0
ARC
  5
57B
100
AcDbEntity
  8
M0
100
AcDbCircle
 10
1255.889237
 20
1699.653304
 40
3.0
100
AcDbArc
 50
269.999691
 51
359.999691
  0
LINE
  5
57C
100
AcDbEntity
  8
M0
100
AcDbLine
 10
1258.889237
 20
1699.653303
 11
1258.889246
 21
1727.653303
  0
LINE
  5
57D
100
AcDbEntity
  8
M0
100
AcDbLine
 10
1255.889247
 20
1730.653304
 11
1224.089259
 21
1730.653314
  0
ARC
  5
57E
100
AcDbEntity
  8
M0
100
AcDbCircle
 10
1255.889246
 20
1727.653304
 40
3.0
100
AcDbArc
 50
359.999691
 51
450.0
  0
LINE
  5
57F
100
AcDbEntity
  8
M0
100
AcDbLine
 10
1226.389183
 20
1526.653314
 11
1255.889183
 21
1526.653304
  0
LINE
  5
580
100
AcDbEntity
  8
M0
100
AcDbLine
 10
1226.389236
 20
1696.653314
 11
1255.889236
 21
1696.653304
  0
LINE
  5
581
100
AcDbEntity
  8
M0
100
AcDbLine
 10
1226.389183
 20
1526.653314
 11
1226.389236
 21
1696.653314
  0
LINE
  5
582
100
AcDbEntity
  8
M0
100
AcDbLine
 10
1224.089259
 20
1730.653314
 11
1224.089184
 21
1492.653329
  0
LINE
  5
583
100
AcDbEntity
  8
M0
100
AcDbLine
 10
1226.389236
 20
1696.653314
 11
1226.389247
 21
1730.653314
  0
LINE
  5
584
100
AcDbEntity
  8
M0
100
AcDbLine
 10
1226.389172
 20
1492.653329
 11
1226.389183
 21
1526.653314
  0
CIRCLE
  5
585
100
AcDbEntity
  8
M0
100
AcDbCircle
 10
1248.88918
 20
1516.653307
 40
3.5
  0
LINE
  5
586
100
AcDbEntity
  8
M0
  6
DASHDOT
100
AcDbLine
 10
1248.889175
 20
1503.153308
 11
1248.889184
 21
1530.153306
  0
LINE
  5
587
100
AcDbEntity
  8
M0
  6
DASHDOT
100
AcDbLine
 10
1262.38918
 20
1516.653303
 11
1235.38918
 21
1516.653312
  0
CIRCLE
  5
588
100
AcDbEntity
  8
M0
100
AcDbCircle
 10
1248.889174
 20
1500.653308
 40
3.5
  0
LINE
  5
589
100
AcDbEntity
  8
M0
  6
DASHDOT
100
AcDbLine
 10
1248.88917
 20
1487.153322
 11
1248.889179
 21
1514.153307
  0
LINE
  5
58A
100
AcDbEntity
  8
M0
  6
DASHDOT
100
AcDbLine
 10
1262.389174
 20
1500.653304
 11
1235.389174
 21
1500.653313
  0
CIRCLE
  5
58B
100
AcDbEntity
  8
M0
100
AcDbCircle
 10
1237.88918
 20
1516.653311
 40
3.5
  0
LINE
  5
58C
100
AcDbEntity
  8
M0
  6
DASHDOT
100
AcDbLine
 10
1237.889175
 20
1503.153312
 11
1237.889184
 21
1530.15331
  0
LINE
  5
58D
100
AcDbEntity
  8
M0
  6
DASHDOT
100
AcDbLine
 10
1251.38918
 20
1516.653307
 11
1224.38918
 21
1516.653315
  0
CIRCLE
  5
58E
100
AcDbEntity
  8
M0
100
AcDbCircle
 10
1237.889174
 20
1500.653312
 40
3.5
  0
LINE
  5
58F
100
AcDbEntity
  8
M0
  6
DASHDOT
100
AcDbLine
 10
1237.88917
 20
1487.153325
 11
1237.889179
 21
1514.153311
  0
LINE
  5
590
100
AcDbEntity
  8
M0
  6
DASHDOT
100
AcDbLine
 10
1251.389174
 20
1500.653308
 11
1224.389174
 21
1500.653316
  0
CIRCLE
  5
591
100
AcDbEntity
  8
M0
100
AcDbCircle
 10
1248.889239
 20
1706.653306
 40
3.5
  0
LINE
  5
592
100
AcDbEntity
  8
M0
  6
DASHDOT
100
AcDbLine
 10
1248.889243
 20
1720.153306
 11
1248.889235
 21
1693.153306
  0
LINE
  5
593
100
AcDbEntity
  8
M0
  6
DASHDOT
100
AcDbLine
 10
1262.389239
 20
1706.653302
 11
1235.389239
 21
1706.653311
  0
CIRCLE
  5
594
100
AcDbEntity
  8
M0
100
AcDbCircle
 10
1248.889244
 20
1722.653306
 40
3.5
  0
LINE
  5
595
100
AcDbEntity
  8
M0
  6
DASHDOT
100
AcDbLine
 10
1248.889248
 20
1736.153306
 11
1248.88924
 21
1709.153306
  0
LINE
  5
596
100
AcDbEntity
  8
M0
  6
DASHDOT
100
AcDbLine
 10
1262.389244
 20
1722.653302
 11
1235.389244
 21
1722.653311
  0
CIRCLE
  5
597
100
AcDbEntity
  8
M0
100
AcDbCircle
 10
1237.889239
 20
1706.65331
 40
3.5
  0
LINE
  5
598
100
AcDbEntity
  8
M0
  6
DASHDOT
100
AcDbLine
 10
1237.889243
 20
1720.15331
 11
1237.889235
 21
1693.15331
  0
LINE
  5
599
100
AcDbEntity
  8
M0
  6
DASHDOT
100
AcDbLine
 10
1251.389239
 20
1706.653306
 11
1224.389239
 21
1706.653314
  0
CIRCLE
  5
59A
100
AcDbEntity
  8
M0
100
AcDbCircle
 10
1237.889244
 20
1722.65331
 40
3.5
  0
LINE
  5
59B
100
AcDbEntity
  8
M0
  6
DASHDOT
100
AcDbLine
 10
1237.889248
 20
1736.15331
 11
1237.88924
 21
1709.15331
  0
LINE
  5
59C
100
AcDbEntity
  8
M0
  6
DASHDOT
100
AcDbLine
 10
1251.389244
 20
1722.653306
 11
1224.389244
 21
1722.653314
  0
LINE
  5
59D
100
AcDbEntity
  8
M0
100
AcDbLine
 10
1121.889147
 20
1769.653307
 11
1131.889147
 21
1769.653307
  0
LINE
  5
59E
100
AcDbEntity
  8
M0
100
AcDbLine
 10
1121.889147
 20
1453.653307
 11
1131.889147
 21
1453.653307
  0
LINE
  5
59F
100
AcDbEntity
  8
M0
100
AcDbLine
 10
1121.889147
 20
1769.653307
 11
1121.889147
 21
1712.153307
  0
LINE
  5
5A0
100
AcDbEntity
  8
M0
100
AcDbLine
 10
1131.889147
 20
1769.653307
 11
1131.889147
 21
1712.153307
  0
LINE
  5
5A1
100
AcDbEntity
  8
M0
100
AcDbLine
 10
1121.889147
 20
1511.153307
 11
1121.889147
 21
1453.653307
  0
LINE
  5
5A2
100
AcDbEntity
  8
M0
100
AcDbLine
 10
1131.889147
 20
1511.153307
 11
1131.889147
 21
1453.653307
  0
LINE
  5
5A3
100
AcDbEntity
  8
M0
 62
     4
100
AcDbLine
 10
1101.889237
 20
1463.653293
 11
1109.589234
 21
1463.653303
  0
LINE
  5
5A4
100
AcDbEntity
  8
M0
 62
     4
100
AcDbLine
 10
1139.889245
 20
1475.653284
 11
1131.889245
 21
1475.653289
  0
LINE
  5
5A5
100
AcDbEntity
  8
M0
  6
DASHDOT
 62
     4
100
AcDbLine
 10
1144.889241
 20
1469.653281
 11
1097.478993
 21
1469.653311
  0
LINE
  5
5A6
100
AcDbEntity
  8
M0
 62
     4
100
AcDbLine
 10
1131.889248
 20
1480.616302
 11
1131.889234
 21
1458.690292
  0
LINE
  5
5A7
100
AcDbEntity
  8
M0
 62
     4
100
AcDbLine
 10
1131.889234
 20
1458.690292
 11
1139.889234
 21
1458.690287
  0
LINE
  5
5A8
100
AcDbEntity
  8
M0
 62
     4
100
AcDbLine
 10
1139.889234
 20
1458.690287
 11
1139.889248
 21
1480.616297
  0
LINE
  5
5A9
100
AcDbEntity
  8
M0
 62
     4
100
AcDbLine
 10
1139.889248
 20
1480.616297
 11
1131.889248
 21
1480.616302
  0
LINE
  5
5AA
100
AcDbEntity
  8
M0
 62
     4
100
AcDbLine
 10
1101.889237
 20
1463.653293
 11
1101.889245
 21
1475.653293
  0
LINE
  5
5AB
100
AcDbEntity
  8
M0
 62
     4
100
AcDbLine
 10
1109.589242
 20
1475.653303
 11
1101.889245
 21
1475.653293
  0
LINE
  5
5AC
100
AcDbEntity
  8
M0
 62
     4
100
AcDbLine
 10
1131.889237
 20
1463.653289
 11
1139.889237
 21
1463.653284
  0
LINE
  5
5AD
100
AcDbEntity
  8
M0
  6
DASHDOT
 62
     6
100
AcDbLine
 10
1125.740008
 20
1469.653353
 11
1110.143084
 21
1469.653353
  0
LINE
  5
5AE
100
AcDbEntity
  8
M0
 62
     6
100
AcDbLine
 10
1109.588884
 20
1458.703341
 11
1119.588884
 21
1458.703341
  0
LINE
  5
5AF
100
AcDbEntity
  8
M0
 62
     6
100
AcDbLine
 10
1119.589129
 20
1458.703356
 11
1119.589129
 21
1480.60335
  0
LINE
  5
5B0
100
AcDbEntity
  8
M0
 62
     6
100
AcDbLine
 10
1109.589129
 20
1480.603304
 11
1109.589129
 21
1458.703326
  0
LINE
  5
5B1
100
AcDbEntity
  8
M0
 62
     6
100
AcDbLine
 10
1119.588884
 20
1464.178317
 11
1109.588884
 21
1464.178317
  0
LINE
  5
5B2
100
AcDbEntity
  8
M0
 62
     6
100
AcDbLine
 10
1109.58864
 20
1480.603335
 11
1119.588884
 21
1480.603335
  0
LINE
  5
5B3
100
AcDbEntity
  8
M0
 62
     6
100
AcDbLine
 10
1119.588884
 20
1475.128329
 11
1109.58864
 21
1475.128329
  0
LINE
  5
5B4
100
AcDbEntity
  8
M0
 62
     6
100
AcDbLine
 10
1119.589174
 20
1456.653582
 11
1121.889177
 21
1456.653582
  0
LINE
  5
5B5
100
AcDbEntity
  8
M0
 62
     6
100
AcDbLine
 10
1121.889177
 20
1456.653582
 11
1121.889177
 21
1482.653582
  0
LINE
  5
5B6
100
AcDbEntity
  8
M0
 62
     6
100
AcDbLine
 10
1121.889177
 20
1482.653582
 11
1119.589174
 21
1482.653582
  0
LINE
  5
5B7
100
AcDbEntity
  8
M0
 62
     6
100
AcDbLine
 10
1119.589174
 20
1482.653582
 11
1119.589174
 21
1456.653582
  0
LINE
  5
5B8
100
AcDbEntity
  8
M0
  6
DASHDOT
 62
     6
100
AcDbLine
 10
1110.089403
 20
1469.653567
 11
1124.889177
 21
1469.653582
  0
LINE
  5
5B9
100
AcDbEntity
  8
M0
 62
     4
100
AcDbLine
 10
1101.889177
 20
1759.653338
 11
1109.589174
 21
1759.653338
  0
LINE
  5
5BA
100
AcDbEntity
  8
M0
 62
     4
100
AcDbLine
 10
1139.889177
 20
1747.653338
 11
1131.889177
 21
1747.653338
  0
LINE
  5
5BB
100
AcDbEntity
  8
M0
  6
DASHDOT
 62
     4
100
AcDbLine
 10
1144.889177
 20
1753.653338
 11
1097.505327
 21
1753.653338
  0
LINE
  5
5BC
100
AcDbEntity
  8
M0
 62
     4
100
AcDbLine
 10
1131.889177
 20
1742.690325
 11
1131.889177
 21
1764.616335
  0
LINE
  5
5BD
100
AcDbEntity
  8
M0
 62
     4
100
AcDbLine
 10
1131.889177
 20
1764.616335
 11
1139.889177
 21
1764.616335
  0
LINE
  5
5BE
100
AcDbEntity
  8
M0
 62
     4
100
AcDbLine
 10
1139.889177
 20
1764.616335
 11
1139.889177
 21
1742.690325
  0
LINE
  5
5BF
100
AcDbEntity
  8
M0
 62
     4
100
AcDbLine
 10
1139.889177
 20
1742.690325
 11
1131.889177
 21
1742.690325
  0
LINE
  5
5C0
100
AcDbEntity
  8
M0
 62
     4
100
AcDbLine
 10
1101.889177
 20
1759.653338
 11
1101.889177
 21
1747.653338
  0
LINE
  5
5C1
100
AcDbEntity
  8
M0
 62
     4
100
AcDbLine
 10
1109.589174
 20
1747.653338
 11
1101.889177
 21
1747.653338
  0
LINE
  5
5C2
100
AcDbEntity
  8
M0
 62
     4
100
AcDbLine
 10
1131.889177
 20
1759.653338
 11
1139.889177
 21
1759.653338
  0
LINE
  5
5C3
100
AcDbEntity
  8
M0
  6
DASHDOT
 62
     6
100
AcDbLine
 10
1125.739944
 20
1753.653375
 11
1098.643264
 21
1753.653358
  0
LINE
  5
5C4
100
AcDbEntity
  8
M0
 62
     6
100
AcDbLine
 10
1109.588814
 20
1764.603377
 11
1119.588814
 21
1764.603384
  0
LINE
  5
5C5
100
AcDbEntity
  8
M0
 62
     6
100
AcDbLine
 10
1119.589058
 20
1764.603368
 11
1119.589072
 21
1742.703375
  0
LINE
  5
5C6
100
AcDbEntity
  8
M0
 62
     6
100
AcDbLine
 10
1109.589072
 20
1742.703414
 11
1109.589058
 21
1764.603393
  0
LINE
  5
5C7
100
AcDbEntity
  8
M0
 62
     6
100
AcDbLine
 10
1119.588817
 20
1759.128408
 11
1109.588817
 21
1759.128402
  0
LINE
  5
5C8
100
AcDbEntity
  8
M0
 62
     6
100
AcDbLine
 10
1109.588584
 20
1742.703384
 11
1119.588828
 21
1742.70339
  0
LINE
  5
5C9
100
AcDbEntity
  8
M0
 62
     6
100
AcDbLine
 10
1119.588824
 20
1748.178396
 11
1109.58858
 21
1748.17839
  0
LINE
  5
5CA
100
AcDbEntity
  8
M0
 62
     6
100
AcDbLine
 10
1119.589103
 20
1766.653385
 11
1121.889106
 21
1766.653387
  0
LINE
  5
5CB
100
AcDbEntity
  8
M0
 62
     6
100
AcDbLine
 10
1121.889106
 20
1766.653387
 11
1121.889122
 21
1740.653387
  0
LINE
  5
5CC
100
AcDbEntity
  8
M0
 62
     6
100
AcDbLine
 10
1121.889122
 20
1740.653387
 11
1119.589119
 21
1740.653385
  0
LINE
  5
5CD
100
AcDbEntity
  8
M0
 62
     6
100
AcDbLine
 10
1119.589119
 20
1740.653385
 11
1119.589103
 21
1766.653385
  0
LINE
  5
5CE
100
AcDbEntity
  8
M0
  6
DASHDOT
 62
     6
100
AcDbLine
 10
1116.589095
 20
1753.653399
 11
1124.889114
 21
1753.653389
  0
LINE
  5
5CF
100
AcDbEntity
  8
M0
100
AcDbLine
 10
1272.889055
 20
1671.653429
 11
1272.889055
 21
1551.653429
  0
LINE
  5
5D0
100
AcDbEntity
  8
M0
100
AcDbLine
 10
1258.889055
 20
1551.653429
 11
1272.889055
 21
1551.653429
  0
LINE
  5
5D1
100
AcDbEntity
  8
M0
100
AcDbLine
 10
1258.889055
 20
1671.653429
 11
1272.889055
 21
1671.653429
  0
CIRCLE
  5
5D2
100
AcDbEntity
  8
M0
100
AcDbCircle
 10
757.819079
 20
1623.153307
 40
3.5
  0
CIRCLE
  5
5D3
100
AcDbEntity
  8
M0
100
AcDbCircle
 10
757.819079
 20
1645.653307
 40
3.5
  0
CIRCLE
  5
5D4
100
AcDbEntity
  8
M0
100
AcDbCircle
 10
757.819079
 20
1577.653307
 40
3.5
  0
CIRCLE
  5
5D5
100
AcDbEntity
  8
M0
100
AcDbCircle
 10
757.819079
 20
1600.153307
 40
3.5
  0
CIRCLE
  5
5D6
100
AcDbEntity
  8
M0
100
AcDbCircle
 10
772.718737
 20
1577.653307
 40
3.5
  0
CIRCLE
  5
5D7
100
AcDbEntity
  8
M0
100
AcDbCircle
 10
772.718737
 20
1600.153307
 40
3.5
  0
CIRCLE
  5
5D8
100
AcDbEntity
  8
M0
100
AcDbCircle
 10
544.918444
 20
1645.653063
 40
3.5
  0
CIRCLE
  5
5D9
100
AcDbEntity
  8
M0
100
AcDbCircle
 10
530.018541
 20
1645.653063
 40
3.5
  0
CIRCLE
  5
5DA
100
AcDbEntity
  8
M0
100
AcDbCircle
 10
544.918444
 20
1623.153063
 40
3.5
  0
CIRCLE
  5
5DB
100
AcDbEntity
  8
M0
100
AcDbCircle
 10
530.018786
 20
1623.153063
 40
3.5
  0
CIRCLE
  5
5DC
100
AcDbEntity
  8
M0
100
AcDbCircle
 10
544.918444
 20
1600.153307
 40
3.5
  0
CIRCLE
  5
5DD
100
AcDbEntity
  8
M0
100
AcDbCircle
 10
530.018786
 20
1600.153307
 40
3.5
  0
CIRCLE
  5
5DE
100
AcDbEntity
  8
M0
100
AcDbCircle
 10
544.918444
 20
1577.653307
 40
3.5
  0
CIRCLE
  5
5DF
100
AcDbEntity
  8
M0
100
AcDbCircle
 10
530.018786
 20
1577.653307
 40
3.5
  0
CIRCLE
  5
5E0
100
AcDbEntity
  8
M0
100
AcDbCircle
 10
502.721178
 20
1645.653063
 40
3.5
  0
CIRCLE
  5
5E1
100
AcDbEntity
  8
M0
100
AcDbCircle
 10
487.82152
 20
1645.653063
 40
3.5
  0
CIRCLE
  5
5E2
100
AcDbEntity
  8
M0
100
AcDbCircle
 10
487.821276
 20
1623.153063
 40
3.5
  0
CIRCLE
  5
5E3
100
AcDbEntity
  8
M0
100
AcDbCircle
 10
502.721178
 20
1623.153063
 40
3.5
  0
CIRCLE
  5
5E4
100
AcDbEntity
  8
M0
100
AcDbCircle
 10
502.721178
 20
1600.153307
 40
3.5
  0
CIRCLE
  5
5E5
100
AcDbEntity
  8
M0
100
AcDbCircle
 10
487.821276
 20
1600.153307
 40
3.5
  0
CIRCLE
  5
5E6
100
AcDbEntity
  8
M0
100
AcDbCircle
 10
487.821276
 20
1577.653307
 40
3.5
  0
CIRCLE
  5
5E7
100
AcDbEntity
  8
M0
100
AcDbCircle
 10
502.721178
 20
1577.653307
 40
3.5
  0
CIRCLE
  5
5E8
100
AcDbEntity
  8
M0
100
AcDbCircle
 10
274.920641
 20
1645.653307
 40
3.5
  0
CIRCLE
  5
5E9
100
AcDbEntity
  8
M0
100
AcDbCircle
 10
260.020983
 20
1645.653307
 40
3.5
  0
CIRCLE
  5
5EA
100
AcDbEntity
  8
M0
100
AcDbCircle
 10
260.020983
 20
1623.153307
 40
3.5
  0
CIRCLE
  5
5EB
100
AcDbEntity
  8
M0
100
AcDbCircle
 10
274.920641
 20
1623.153307
 40
3.5
  0
CIRCLE
  5
5EC
100
AcDbEntity
  8
M0
100
AcDbCircle
 10
274.920641
 20
1600.153307
 40
3.5
  0
CIRCLE
  5
5ED
100
AcDbEntity
  8
M0
100
AcDbCircle
 10
260.020983
 20
1600.153307
 40
3.5
  0
CIRCLE
  5
5EE
100
AcDbEntity
  8
M0
100
AcDbCircle
 10
260.020983
 20
1577.653307
 40
3.5
  0
CIRCLE
  5
5EF
100
AcDbEntity
  8
M0
100
AcDbCircle
 10
274.920641
 20
1577.653307
 40
3.5
  0
CIRCLE
  5
5F0
100
AcDbEntity
  8
M0
100
AcDbCircle
 10
797.818834
 20
1527.403307
 40
3.0
  0
CIRCLE
  5
5F1
100
AcDbEntity
  8
M0
100
AcDbCircle
 10
797.818834
 20
1517.403307
 40
3.0
  0
CIRCLE
  5
5F2
100
AcDbEntity
  8
M0
100
AcDbCircle
 10
787.818834
 20
1517.403307
 40
3.0
  0
LINE
  5
5F3
100
AcDbEntity
  8
M0
100
AcDbLine
 10
802.819079
 20
1712.653307
 11
802.819079
 21
1510.653307
  0
LINE
  5
5F4
100
AcDbEntity
  8
M0
100
AcDbLine
 10
229.920839
 20
1510.653307
 11
229.920839
 21
1712.653307
  0
LINE
  5
5F5
100
AcDbEntity
  8
M0
  6
DASHDOT
100
AcDbLine
 10
516.36986
 20
1702.652819
 11
516.369616
 21
1525.653063
  0
LINE
  5
5F6
100
AcDbEntity
  8
M0
  6
DASHDOT
100
AcDbLine
 10
516.370961
 20
1176.115043
 11
516.369786
 21
798.099087
  0
LINE
  5
5F7
100
AcDbEntity
  8
M0
  6
DIVIDE
100
AcDbLine
 10
251.370857
 20
1147.942676
 11
251.370857
 21
1110.944925
  0
LINE
  5
5F8
100
AcDbEntity
  8
M0
  6
DIVIDE
100
AcDbLine
 10
781.370791
 20
1147.942676
 11
741.36981
 21
1147.942676
  0
LINE
  5
5F9
100
AcDbEntity
  8
M0
  6
DIVIDE
100
AcDbLine
 10
516.37087
 20
1147.942676
 11
471.371857
 21
1147.942676
  0
LINE
  5
5FA
100
AcDbEntity
  8
M0
  6
DIVIDE
100
AcDbLine
 10
291.371846
 20
1147.942676
 11
251.370857
 21
1147.942676
  0
LINE
  5
5FB
100
AcDbEntity
  8
M0
  6
DIVIDE
100
AcDbLine
 10
361.371845
 20
1147.942676
 11
331.371842
 21
1147.942676
  0
LINE
  5
5FC
100
AcDbEntity
  8
M0
  6
DIVIDE
100
AcDbLine
 10
431.371852
 20
1147.942676
 11
401.371849
 21
1147.942676
  0
LINE
  5
5FD
100
AcDbEntity
  8
M0
  6
DIVIDE
100
AcDbLine
 10
561.369791
 20
1147.942676
 11
516.37087
 21
1147.942676
  0
LINE
  5
5FE
100
AcDbEntity
  8
M0
  6
DIVIDE
100
AcDbLine
 10
631.369798
 20
1147.942676
 11
601.369795
 21
1147.942676
  0
LINE
  5
5FF
100
AcDbEntity
  8
M0
  6
DIVIDE
100
AcDbLine
 10
701.369806
 20
1147.942676
 11
671.369803
 21
1147.942676
  0
LINE
  5
600
100
AcDbEntity
  8
M0
  6
DIVIDE
100
AcDbLine
 10
251.370887
 20
835.942994
 11
251.370868
 21
872.94494
  0
LINE
  5
601
100
AcDbEntity
  8
M0
  6
DIVIDE
100
AcDbLine
 10
781.370791
 20
835.94333
 11
741.370543
 21
835.943299
  0
LINE
  5
602
100
AcDbEntity
  8
M0
  6
DIVIDE
100
AcDbLine
 10
696.372247
 20
835.943269
 11
693.370537
 21
835.943269
  0
LINE
  5
603
100
AcDbEntity
  8
M0
  6
DIVIDE
100
AcDbLine
 10
701.369806
 20
835.943269
 11
671.369803
 21
835.943253
  0
LINE
  5
604
100
AcDbEntity
  8
M0
  6
DIVIDE
100
AcDbLine
 10
631.369798
 20
835.943223
 11
601.369795
 21
835.943208
  0
LINE
  5
605
100
AcDbEntity
  8
M0
  6
DIVIDE
100
AcDbLine
 10
619.37053
 20
835.943223
 11
606.369307
 21
835.943208
  0
LINE
  5
606
100
AcDbEntity
  8
M0
  6
DIVIDE
100
AcDbLine
 10
561.368814
 20
835.943192
 11
471.370834
 21
835.943131
  0
LINE
  5
607
100
AcDbEntity
  8
M0
  6
DIVIDE
100
AcDbLine
 10
426.372462
 20
835.943101
 11
423.37086
 21
835.943101
  0
LINE
  5
608
100
AcDbEntity
  8
M0
  6
DIVIDE
100
AcDbLine
 10
431.371776
 20
835.943101
 11
401.371773
 21
835.943086
  0
LINE
  5
609
100
AcDbEntity
  8
M0
  6
DIVIDE
100
AcDbLine
 10
358.8698
 20
835.943055
 11
349.370867
 21
835.943055
  0
LINE
  5
60A
100
AcDbEntity
  8
M0
  6
DIVIDE
100
AcDbLine
 10
361.371769
 20
835.943055
 11
331.371765
 21
835.94304
  0
LINE
  5
60B
100
AcDbEntity
  8
M0
  6
DIVIDE
100
AcDbLine
 10
291.368953
 20
835.943009
 11
251.370887
 21
835.942994
  0
LINE
  5
60C
100
AcDbEntity
  8
M0
  6
DIVIDE
100
AcDbLine
 10
781.370547
 20
1147.942676
 11
781.370576
 21
1110.943277
  0
LINE
  5
60D
100
AcDbEntity
  8
M0
  6
DASHDOT
100
AcDbLine
 10
829.656685
 20
991.94327
 11
201.890989
 21
991.94327
  0
LINE
  5
60E
100
AcDbEntity
  8
M0
  6
DIVIDE
100
AcDbLine
 10
701.369806
 20
833.943268
 11
741.36981
 21
833.943268
  0
LINE
  5
60F
100
AcDbEntity
  8
M0
  6
DIVIDE
100
AcDbLine
 10
701.369806
 20
835.943269
 11
701.369806
 21
833.943268
  0
LINE
  5
610
100
AcDbEntity
  8
M0
  6
DIVIDE
100
AcDbLine
 10
741.36981
 20
833.943268
 11
741.36981
 21
835.943299
  0
LINE
  5
611
100
AcDbEntity
  8
M0
  6
DIVIDE
100
AcDbLine
 10
631.369798
 20
833.943268
 11
671.369803
 21
833.943268
  0
LINE
  5
612
100
AcDbEntity
  8
M0
  6
DIVIDE
100
AcDbLine
 10
631.369798
 20
835.943223
 11
631.369798
 21
833.943268
  0
LINE
  5
613
100
AcDbEntity
  8
M0
  6
DIVIDE
100
AcDbLine
 10
671.369803
 20
833.943268
 11
671.369803
 21
835.943253
  0
LINE
  5
614
100
AcDbEntity
  8
M0
  6
DIVIDE
100
AcDbLine
 10
601.369795
 20
833.943268
 11
561.369791
 21
833.943268
  0
LINE
  5
615
100
AcDbEntity
  8
M0
  6
DIVIDE
100
AcDbLine
 10
561.369791
 20
833.943268
 11
561.369791
 21
835.943192
  0
LINE
  5
616
100
AcDbEntity
  8
M0
  6
DIVIDE
100
AcDbLine
 10
601.369795
 20
835.943208
 11
601.369795
 21
833.943268
  0
LINE
  5
617
100
AcDbEntity
  8
M0
  6
DIVIDE
100
AcDbLine
 10
601.369795
 20
1149.943165
 11
561.369791
 21
1149.943165
  0
LINE
  5
618
100
AcDbEntity
  8
M0
  6
DIVIDE
100
AcDbLine
 10
561.369791
 20
1149.943165
 11
561.369791
 21
1147.942676
  0
LINE
  5
619
100
AcDbEntity
  8
M0
  6
DIVIDE
100
AcDbLine
 10
601.369795
 20
1147.942676
 11
601.369795
 21
1149.943165
  0
LINE
  5
61A
100
AcDbEntity
  8
M0
  6
DIVIDE
100
AcDbLine
 10
631.369798
 20
1149.943165
 11
671.369803
 21
1149.943165
  0
LINE
  5
61B
100
AcDbEntity
  8
M0
  6
DIVIDE
100
AcDbLine
 10
631.369798
 20
1147.942676
 11
631.369798
 21
1149.943165
  0
LINE
  5
61C
100
AcDbEntity
  8
M0
  6
DIVIDE
100
AcDbLine
 10
671.369803
 20
1149.943165
 11
671.369803
 21
1147.942676
  0
LINE
  5
61D
100
AcDbEntity
  8
M0
  6
DIVIDE
100
AcDbLine
 10
701.369806
 20
1149.943165
 11
741.36981
 21
1149.943165
  0
LINE
  5
61E
100
AcDbEntity
  8
M0
  6
DIVIDE
100
AcDbLine
 10
701.369806
 20
1147.942676
 11
701.369806
 21
1149.943165
  0
LINE
  5
61F
100
AcDbEntity
  8
M0
  6
DIVIDE
100
AcDbLine
 10
741.36981
 20
1149.943165
 11
741.36981
 21
1147.942676
  0
LINE
  5
620
100
AcDbEntity
  8
M0
  6
DIVIDE
100
AcDbLine
 10
331.371765
 20
833.943268
 11
291.371774
 21
833.943268
  0
LINE
  5
621
100
AcDbEntity
  8
M0
  6
DIVIDE
100
AcDbLine
 10
291.371774
 20
833.943268
 11
291.371774
 21
835.943009
  0
LINE
  5
622
100
AcDbEntity
  8
M0
  6
DIVIDE
100
AcDbLine
 10
331.371765
 20
835.94304
 11
331.371765
 21
833.943268
  0
LINE
  5
623
100
AcDbEntity
  8
M0
  6
DIVIDE
100
AcDbLine
 10
401.371773
 20
833.943268
 11
361.371769
 21
833.943268
  0
LINE
  5
624
100
AcDbEntity
  8
M0
  6
DIVIDE
100
AcDbLine
 10
361.371769
 20
833.943268
 11
361.371769
 21
835.943055
  0
LINE
  5
625
100
AcDbEntity
  8
M0
  6
DIVIDE
100
AcDbLine
 10
401.371773
 20
835.943086
 11
401.371773
 21
833.943268
  0
LINE
  5
626
100
AcDbEntity
  8
M0
  6
DIVIDE
100
AcDbLine
 10
431.371776
 20
833.943268
 11
471.37178
 21
833.943268
  0
LINE
  5
627
100
AcDbEntity
  8
M0
  6
DIVIDE
100
AcDbLine
 10
431.371776
 20
835.943101
 11
431.371776
 21
833.943268
  0
LINE
  5
628
100
AcDbEntity
  8
M0
  6
DIVIDE
100
AcDbLine
 10
471.37178
 20
833.943268
 11
471.37178
 21
835.943131
  0
LINE
  5
629
100
AcDbEntity
  8
M0
  6
DIVIDE
100
AcDbLine
 10
431.371852
 20
1149.943165
 11
471.371857
 21
1149.943165
  0
LINE
  5
62A
100
AcDbEntity
  8
M0
  6
DIVIDE
100
AcDbLine
 10
471.371857
 20
1149.943165
 11
471.371857
 21
1147.942676
  0
LINE
  5
62B
100
AcDbEntity
  8
M0
  6
DIVIDE
100
AcDbLine
 10
431.371852
 20
1147.942676
 11
431.371852
 21
1149.943165
  0
LINE
  5
62C
100
AcDbEntity
  8
M0
  6
DIVIDE
100
AcDbLine
 10
401.371849
 20
1149.943165
 11
361.371845
 21
1149.943165
  0
LINE
  5
62D
100
AcDbEntity
  8
M0
  6
DIVIDE
100
AcDbLine
 10
401.371849
 20
1147.942676
 11
401.371849
 21
1149.943165
  0
LINE
  5
62E
100
AcDbEntity
  8
M0
  6
DIVIDE
100
AcDbLine
 10
361.371845
 20
1149.943165
 11
361.371845
 21
1147.942676
  0
LINE
  5
62F
100
AcDbEntity
  8
M0
  6
DIVIDE
100
AcDbLine
 10
331.371842
 20
1149.943165
 11
291.371848
 21
1149.943165
  0
LINE
  5
630
100
AcDbEntity
  8
M0
  6
DIVIDE
100
AcDbLine
 10
331.371842
 20
1147.942676
 11
331.371842
 21
1149.943165
  0
LINE
  5
631
100
AcDbEntity
  8
M0
  6
DIVIDE
100
AcDbLine
 10
291.371848
 20
1149.943165
 11
291.371846
 21
1147.942676
  0
LINE
  5
632
100
AcDbEntity
  8
M0
  6
DIVIDE
100
AcDbLine
 10
251.421775
 20
866.943278
 11
251.421775
 21
872.94494
  0
CIRCLE
  5
633
100
AcDbEntity
  8
M0
  6
DIVIDE
100
AcDbCircle
 10
756.370788
 20
1130.942919
 40
3.5
  0
LINE
  5
634
100
AcDbEntity
  8
M0
  6
DIVIDE
100
AcDbLine
 10
742.870787
 20
1130.942919
 11
769.87079
 21
1130.942919
  0
LINE
  5
635
100
AcDbEntity
  8
M0
  6
DIVIDE
100
AcDbLine
 10
756.370788
 20
1117.442917
 11
756.370788
 21
1144.44292
  0
CIRCLE
  5
636
100
AcDbEntity
  8
M0
  6
DIVIDE
100
AcDbCircle
 10
756.370788
 20
1130.942674
 40
7.500001
  0
CIRCLE
  5
637
100
AcDbEntity
  8
M0
  6
DIVIDE
100
AcDbCircle
 10
756.370788
 20
852.943046
 40
3.5
  0
LINE
  5
638
100
AcDbEntity
  8
M0
  6
DIVIDE
100
AcDbLine
 10
742.870787
 20
852.943046
 11
769.87079
 21
852.943046
  0
LINE
  5
639
100
AcDbEntity
  8
M0
  6
DIVIDE
100
AcDbLine
 10
756.370788
 20
839.443045
 11
756.370788
 21
866.443047
  0
CIRCLE
  5
63A
100
AcDbEntity
  8
M0
  6
DIVIDE
100
AcDbCircle
 10
756.370788
 20
852.942893
 40
7.500001
  0
CIRCLE
  5
63B
100
AcDbEntity
  8
M0
  6
DIVIDE
100
AcDbCircle
 10
276.370813
 20
1130.944383
 40
3.5
  0
LINE
  5
63C
100
AcDbEntity
  8
M0
  6
DIVIDE
100
AcDbLine
 10
289.870817
 20
1130.944139
 11
262.870812
 21
1130.944383
  0
LINE
  5
63D
100
AcDbEntity
  8
M0
  6
DIVIDE
100
AcDbLine
 10
276.370722
 20
1117.444382
 11
276.37089
 21
1144.444385
  0
CIRCLE
  5
63E
100
AcDbEntity
  8
M0
  6
DIVIDE
100
AcDbCircle
 10
276.370813
 20
1130.944139
 40
7.500001
  0
CIRCLE
  5
63F
100
AcDbEntity
  8
M0
  6
DIVIDE
100
AcDbCircle
 10
276.369074
 20
852.944537
 40
3.5
  0
LINE
  5
640
100
AcDbEntity
  8
M0
  6
DIVIDE
100
AcDbLine
 10
289.869089
 20
852.944453
 11
262.869073
 21
852.944621
  0
LINE
  5
641
100
AcDbEntity
  8
M0
  6
DIVIDE
100
AcDbLine
 10
276.368998
 20
839.444537
 11
276.369166
 21
866.444538
  0
CIRCLE
  5
642
100
AcDbEntity
  8
M0
  6
DIVIDE
100
AcDbCircle
 10
276.369074
 20
852.944385
 40
7.500001
  0
LINE
  5
643
100
AcDbEntity
  8
M0
  6
DIVIDE
100
AcDbLine
 10
701.367971
 20
1147.942676
 11
701.367971
 21
1149.943165
  0
LINE
  5
644
100
AcDbEntity
  8
M0
  6
DIVIDE
100
AcDbLine
 10
741.367976
 20
1149.943165
 11
741.367976
 21
1147.942676
  0
LINE
  5
645
100
AcDbEntity
  8
M0
  6
DIVIDE
100
AcDbLine
 10
781.370762
 20
872.943293
 11
781.370791
 21
835.94333
  0
LINE
  5
646
100
AcDbEntity
  8
M0
  6
DIVIDE
100
AcDbLine
 10
251.421775
 20
1110.944924
 11
251.421775
 21
1116.943161
  0
LINE
  5
647
100
AcDbEntity
  8
M1
 62
     2
100
AcDbLine
 10
71.428571
 20
71.428571
 11
71.428571
 21
2035.714277
  0
LINE
  5
648
100
AcDbEntity
  8
M1
 62
     2
100
AcDbLine
 10
71.428571
 20
2035.714277
 11
1428.571422
 21
2035.714277
  0
LINE
  5
649
100
AcDbEntity
  8
M1
 62
     2
100
AcDbLine
 10
1428.571422
 20
2035.714277
 11
1428.571422
 21
71.428571
  0
LINE
  5
64A
100
AcDbEntity
  8
M1
 62
     2
100
AcDbLine
 10
1428.571422
 20
71.428571
 11
71.428571
 21
71.428571
  0
LINE
  5
64B
100
AcDbEntity
  8
M1
 62
     2
100
AcDbLine
 10
1428.571422
 20
142.857142
 11
714.285711
 21
142.857142
  0
LINE
  5
64C
100
AcDbEntity
  8
M1
 62
     2
100
AcDbLine
 10
1428.571422
 20
214.285713
 11
714.285711
 21
214.285713
  0
LINE
  5
64D
100
AcDbEntity
  8
M1
 62
     2
100
AcDbLine
 10
1428.571422
 20
285.714284
 11
714.285711
 21
285.714284
  0
LINE
  5
64E
100
AcDbEntity
  8
M1
 62
     2
100
AcDbLine
 10
714.285711
 20
71.428571
 11
714.285711
 21
285.714284
  0
TEXT
  5
64F
100
AcDbEntity
  8
M1
 62
     2
100
AcDbText
 10
732.142854
 20
89.285714
 40
35.714287
  1
適　用；
 41
1.0
  7
STANDARD
100
AcDbText
  0
TEXT
  5
650
100
AcDbEntity
  8
M1
 62
     2
100
AcDbText
 10
732.142854
 20
232.142856
 40
35.714287
  1
登録名：
 41
1.0
  7
STANDARD
100
AcDbText
  0
TEXT
  5
651
100
AcDbEntity
  8
M1
 62
     2
100
AcDbText
 10
903.571425
 20
232.142856
 40
35.714287
  1
ＤＭＨ６００ＣＲＲ００
 41
0.5
  7
STANDARD
100
AcDbText
  0
TEXT
  5
652
100
AcDbEntity
  8
M1
 62
     2
100
AcDbText
 10
732.142854
 20
160.714285
 40
35.714287
  1
形　式；
 41
1.0
  7
STANDARD
100
AcDbText
  0
TEXT
  5
653
100
AcDbEntity
  8
M1
 62
     2
100
AcDbText
 10
903.571425
 20
160.714285
 40
35.714287
  1
Ｈ６００Ｃ－Ｒ，Ｈ６００Ｃ－ＲＧ
 41
0.5
  7
STANDARD
100
AcDbText
  0
LINE
  5
654
100
AcDbEntity
  8
DN0
100
AcDbLine
 10
455.455484
 20
644.359564
 11
585.884059
 21
644.359564
  0
TEXT
  5
655
100
AcDbEntity
  8
DN0
100
AcDbText
 10
459.062626
 20
647.57385
 40
32.142857
  1
せん孔図
 41
0.833333
  7
STANDARD
100
AcDbText
  0
ENDSEC
  0
SECTION
  2
OBJECTS
  0
DICTIONARY
  5
C
100
AcDbDictionary
  3
ACAD_GROUP
350
D
  3
ACAD_MLINESTYLE
350
E
  0
DICTIONARY
  5
D
102
{ACAD_REACTORS
330
C
102
}
100
AcDbDictionary
  0
DICTIONARY
  5
E
102
{ACAD_REACTORS
330
C
102
}
100
AcDbDictionary
  3
STANDARD
350
13
  0
MLINESTYLE
  5
13
102
{ACAD_REACTORS
330
E
102
}
100
AcDbMlineStyle
  2
STANDARD
 70
     0
  3

 62
     0
 51
90.0
 52
90.0
 71
     2
 49
0.5
 62
   256
  6
BYLAYER
 49
-0.5
 62
   256
  6
BYLAYER
  0
ENDSEC
  0
EOF
