  0
SECTION
  2
HEADER
  9
$ACADVER
  1
AC1014
  9
$INSBASE
 10
0.000000
 20
0.000000
 30
0.0
  9
$VIEWCTR
 10
7.531722
 20
4.5
  9
$VIEWSIZE
 40
9.0
  9
$SNAPMODE
 70
     0
  9
$SNAPUNIT
 10
1.0
 20
1.0
  9
$SNAPBASE
 10
0.0
 20
0.0
  9
$SNAPANG
 50
0.0
  9
$SNAPSTYLE
 70
     0
  9
$SNAPISOPAIR
 70
     0
  9
$GRIDMODE
 70
     0
  9
$GRIDUNIT
 10
0.0
 20
0.0
  9
$ORTHOMODE
 70
     0
  9
$REGENMODE
 70
     1
  9
$FILLMODE
 70
     1
  9
$QTEXTMODE
 70
     0
  9
$DRAGMODE
 70
     2
  9
$LTSCALE
  40
     1.000000
  9
$OSMODE
 70
     0
  9
$ATTMODE
 70
     1
  9
$TEXTSIZE
 40
0.2
  9
$TRACEWID
 40
0.05
  9
$TEXTSTYLE
  7
STANDARD
  9
$CELTYPE
  6
BYLAYER
  9
$CECOLOR
 62
   256
  9
$DIMSCALE
 40
1.0
  9
$DIMASZ
 40
0.18
  9
$DIMEXO
 40
0.0625
  9
$DIMDLI
 40
0.38
  9
$DIMRND
 40
0.0
  9
$DIMDLE
 40
0.0
  9
$DIMEXE
 40
0.18
  9
$DIMTP
 40
0.0
  9
$DIMTM
 40
0.0
  9
$DIMTXT
 40
0.18
  9
$DIMCEN
 40
0.09
  9
$DIMTSZ
 40
0.0
  9
$DIMTOL
 70
     0
  9
$DIMLIM
 70
     0
  9
$DIMTIH
 70
     1
  9
$DIMTOH
 70
     1
  9
$DIMSE1
 70
     0
  9
$DIMSE2
 70
     0
  9
$DIMTAD
 70
     0
  9
$DIMZIN
 70
     0
  9
$DIMBLK
  1

  9
$LUNITS
 70
     2
  9
$LUPREC
 70
     4
  9
$AXISMODE
 70
     0
  9
$AXISUNIT
 10
0.0
 20
0.0
  9
$SKETCHINC
 40
0.1
  9
$FILLETRAD
 40
0.0
  9
$AUNITS
 70
     0
  9
$AUPREC
 70
     0
  9
$MENU
  1
ACAD
  9
$ELEVATION
 40
0.0
  9
$THICKNESS
 40
0.0
  9
$VIEWDIR
 10
0.0
 20
0.0
 30
1.0
  9
$LIMCHECK
 70
     0
  9
$BLIPMODE
 70
     1
  9
$CHAMFERA
 40
0.0
  9
$CHAMFERB
 40
0.0
  9
$FASTZOOM
 70
     1
  9
$SKPOLY
 70
     0
  9
$TDCREATE
 40
0000000.0000000000
  9
$TDUPDATE
 40
0000000.0000000000
  9
$TDINDWG
 40
0.0000000000
  9
$TDUSRTIMER
 40
0.0000000000
  9
$USRTIMER
 70
     1
  9
$ANGBASE
 50
0.0
  9
$ANGDIR
 70
     0
  9
$PDMODE
 70
     0
  9
$PDSIZE
 40
0.0
  9
$PLINEWID
 40
0.0
  9
$COORDS
 70
     0
  9
$USERI1
 70
     0
  9
$USERI2
 70
     0
  9
$USERI3
 70
     0
  9
$USERI4
 70
     0
  9
$USERI5
 70
     0
  9
$USERR1
 40
0.0
  9
$USERR2
 40
0.0
  9
$USERR3
 40
0.0
  9
$USERR4
 40
0.0
  9
$USERR5
 40
0.0
  9
$CLAYER
  8
M0
  9
$EXTMIN
 10
57.142858
 20
57.142858
  9
$EXTMAX
 10
1142.857162
 20
1628.571456
  9
$LIMMIN
 10
0.0
 20
0.0
  9
$LIMMAX
 10
210.0
 20
297.0
  9
$HANDSEED
  5
684
  0
ENDSEC
  0
SECTION
  2
CLASSES
  0
ENDSEC
  0
SECTION
  2
TABLES
  0
TABLE
  2
VPORT
  5
8
100
AcDbSymbolTable
 70
     2
  0
VPORT
  5
14
100
AcDbSymbolTableRecord
100
AcDbViewportTableRecord
  2
*ACTIVE
 70
     0
 10
0.0
 20
0.0
 11
1.0
 21
1.0
 12
484.0
 22
297.0
 13
0.0
 23
0.0
 14
1.0
 24
1.0
 15
0.0
 25
0.0
 16
0.0
 26
0.0
 36
1.0
 17
0.0
 27
0.0
 37
0.0
 40
594.0
 41
2.0
 42
50.0
 43
0.0
 44
0.0
 50
0.0
 51
0.0
 71
     0
 72
   100
 73
     1
 74
     1
 75
     0
 76
     0
 77
     0
 78
     0
  0
ENDTAB
  0
TABLE
  2
LTYPE
  5
5
100
AcDbSymbolTable
 70
     5
  0
LTYPE
  5
15
100
AcDbSymbolTableRecord
100
AcDbLinetypeTableRecord
  2
BYBLOCK
 70
     0
  3

 72
    65
 73
     0
 40
0.0
  0
LTYPE
  5
16
100
AcDbSymbolTableRecord
100
AcDbLinetypeTableRecord
  2
BYLAYER
 70
     0
  3

 72
    65
 73
     0
 40
0.0
  0
LTYPE
  5
17
100
AcDbSymbolTableRecord
100
AcDbLinetypeTableRecord
  2
CONTINUOUS
 70
    64
  3
Solid line
 72
    65
 73
     0
 40
0.0
  0
LTYPE
  5
18
100
AcDbSymbolTableRecord
100
AcDbLinetypeTableRecord
  2
DASHED
 70
    64
  3
__ __ __ __ __ __ __ __ __ __ __ __ __ __ __ __
 72
    65
 73
     2
 40
0.75
 49
0.5
 74
     0
 49
-0.25
 74
     0
  0
LTYPE
  5
19
100
AcDbSymbolTableRecord
100
AcDbLinetypeTableRecord
  2
DASHDOT
 70
    64
  3
__ . __ . __ . __ . __ . __ . __ . __ . __ . __
 72
    65
 73
     4
 40
1.0
 49
0.5
 74
     0
 49
-0.25
 74
     0
 49
0.0
 74
     0
 49
-0.25
 74
     0
  0
LTYPE
  5
1A
100
AcDbSymbolTableRecord
100
AcDbLinetypeTableRecord
  2
DIVIDE
 70
    64
  3
____ . . ____ . . ____ . . ____ . . ____ . . __
 72
    65
 73
     6
 40
1.25
 49
0.5
 74
     0
 49
-0.25
 74
     0
 49
0.0
 74
     0
 49
-0.25
 74
     0
 49
0.0
 74
     0
 49
-0.25
 74
     0
  0
LTYPE
  5
1B
100
AcDbSymbolTableRecord
100
AcDbLinetypeTableRecord
  2
DOT
 70
    64
  3
. . . . . . . . . . . . . . . . . . . . . . . .
 72
    65
 73
     2
 40
0.25
 49
0.0
 74
     0
 49
-0.25
 74
     0
  0
ENDTAB
  0
TABLE
  2
LAYER
  5
2
100
AcDbSymbolTable
 70
   102
  0
LAYER
  5
F
100
AcDbSymbolTableRecord
100
AcDbLayerTableRecord
  2
0
 70
     0
 62
     7
  6
CONTINUOUS
  0
LAYER
  5
1C
100
AcDbSymbolTableRecord
100
AcDbLayerTableRecord
  2
DEFPOINTS
 70
     0
 62
     7
  6
CONTINUOUS
  0
LAYER
  5
1D
100
AcDbSymbolTableRecord
100
AcDbLayerTableRecord
  2
M0
 70
     0
 62
     3
  6
CONTINUOUS
  0
LAYER
  5
1E
100
AcDbSymbolTableRecord
100
AcDbLayerTableRecord
  2
M1
 70
     0
 62
     3
  6
CONTINUOUS
  0
LAYER
  5
1F
100
AcDbSymbolTableRecord
100
AcDbLayerTableRecord
  2
DD0
 70
     0
 62
     4
  6
CONTINUOUS
  0
LAYER
  5
20
100
AcDbSymbolTableRecord
100
AcDbLayerTableRecord
  2
DN0
 70
     0
 62
     2
  6
CONTINUOUS
  0
ENDTAB
  0
TABLE
  2
STYLE
  5
3
100
AcDbSymbolTable
 70
     2
  0
STYLE
  5
10
100
AcDbSymbolTableRecord
100
AcDbTextStyleTableRecord
  2
STANDARD
 70
     0
 40
0.0
 41
1.0
 50
0.0
 71
     0
 42
0.2
  3
txt
  4
BIGFONT
  0
ENDTAB
  0
TABLE
  2
VIEW
  5
6
100
AcDbSymbolTable
 70
     0
  0
ENDTAB
  0
TABLE
  2
UCS
  5
7
100
AcDbSymbolTable
 70
     0
  0
ENDTAB
  0
TABLE
  2
APPID
  5
9
100
AcDbSymbolTable
 70
     1
  0
APPID
  5
11
100
AcDbSymbolTableRecord
100
AcDbRegAppTableRecord
  2
ACAD
 70
     0
  0
ENDTAB
  0
TABLE
  2
DIMSTYLE
  5
A
100
AcDbSymbolTable
 70
     2
  0
DIMSTYLE
105
27
100
AcDbSymbolTableRecord
100
AcDbDimStyleTableRecord
  2
STANDARD
 70
     0
  3

  4

  5

  6
_OPEN
  7
_OPEN
 40
1.0
 41
17.142857
 42
1.0
 43
8.0
 44
1.0
 45
0.0
 46
0.0
 47
0.0
 48
0.0
140
18.000001
141
0.09
142
0.0
143
0.03937
144
1.0
145
0.0
146
1.0
147
0.6
 71
     0
 72
     0
 73
     1
 74
     1
 75
     0
 76
     0
 77
     3
 78
     8
170
     0
171
     2
172
     0
173
     1
174
     0
175
     0
176
     0
177
     0
178
     0
270
     2
271
     2
272
     4
273
     2
274
     2
340
10
275
     0
280
     0
281
     0
282
     0
283
     1
284
     0
285
     0
286
     0
287
     3
288
     0
  0
DIMSTYLE
105
28
100
AcDbSymbolTableRecord
100
AcDbDimStyleTableRecord
  2
LEADSTYL
 70
     0
  3

  4

  5

  6
_OPEN
  7
_OPEN
 40
1.0
 41
17.142857
 42
0.0625
 43
0.38
 44
0.18
 45
0.0
 46
0.0
 47
0.0
 48
0.0
140
18.000001
141
0.09
142
0.0
143
25.4
144
1.0
145
0.0
146
1.0
147
0.6
 71
     0
 72
     0
 73
     1
 74
     1
 75
     0
 76
     0
 77
     0
 78
     0
170
     0
171
     2
172
     0
173
     1
174
     0
175
     0
176
     0
177
     0
178
     0
270
     2
271
     4
272
     4
273
     2
274
     2
340
10
275
     0
280
     0
281
     0
282
     0
283
     1
284
     0
285
     0
286
     0
287
     3
288
     0
  0
ENDTAB
  0
TABLE
  2
BLOCK_RECORD
  5
1
100
AcDbSymbolTable
 70
    15
  0
BLOCK_RECORD
  5
21
100
AcDbSymbolTableRecord
100
AcDbBlockTableRecord
  2
*MODEL_SPACE
  0
BLOCK_RECORD
  5
24
100
AcDbSymbolTableRecord
100
AcDbBlockTableRecord
  2
*PAPER_SPACE
  0
BLOCK_RECORD
  5
29
100
AcDbSymbolTableRecord
100
AcDbBlockTableRecord
  2
_NONE
  0
BLOCK_RECORD
  5
2D
100
AcDbSymbolTableRecord
100
AcDbBlockTableRecord
  2
_OPEN
  0
BLOCK_RECORD
  5
33
100
AcDbSymbolTableRecord
100
AcDbBlockTableRecord
  2
_CLOSED
  0
BLOCK_RECORD
  5
3A
100
AcDbSymbolTableRecord
100
AcDbBlockTableRecord
  2
_ORIGIN
  0
BLOCK_RECORD
  5
3F
100
AcDbSymbolTableRecord
100
AcDbBlockTableRecord
  2
_DOT
  0
BLOCK_RECORD
  5
47
100
AcDbSymbolTableRecord
100
AcDbBlockTableRecord
  2
_OBLIQUE
  0
BLOCK_RECORD
  5
4B
100
AcDbSymbolTableRecord
100
AcDbBlockTableRecord
  2
DIMS0
  0
BLOCK_RECORD
  5
57
100
AcDbSymbolTableRecord
100
AcDbBlockTableRecord
  2
DIMS1
  0
BLOCK_RECORD
  5
63
100
AcDbSymbolTableRecord
100
AcDbBlockTableRecord
  2
DIMS2
  0
BLOCK_RECORD
  5
6F
100
AcDbSymbolTableRecord
100
AcDbBlockTableRecord
  2
DIMS3
  0
BLOCK_RECORD
  5
7B
100
AcDbSymbolTableRecord
100
AcDbBlockTableRecord
  2
DIMS4
  0
BLOCK_RECORD
  5
87
100
AcDbSymbolTableRecord
100
AcDbBlockTableRecord
  2
DIMS5
  0
BLOCK_RECORD
  5
93
100
AcDbSymbolTableRecord
100
AcDbBlockTableRecord
  2
DIMS6
  0
BLOCK_RECORD
  5
9F
100
AcDbSymbolTableRecord
100
AcDbBlockTableRecord
  2
DIMS7
  0
BLOCK_RECORD
  5
AB
100
AcDbSymbolTableRecord
100
AcDbBlockTableRecord
  2
DIMS8
  0
ENDTAB
  0
ENDSEC
  0
SECTION
  2
BLOCKS
  0
BLOCK
  5
22
100
AcDbEntity
  8
0
100
AcDbBlockBegin
  2
*MODEL_SPACE
 70
     0
 10
0.0
 20
0.0
 30
0.0
  3
*MODEL_SPACE
  1

  0
ENDBLK
  5
23
100
AcDbEntity
  8
0
100
AcDbBlockEnd
  0
BLOCK
  5
25
100
AcDbEntity
 67
     1
  8
0
100
AcDbBlockBegin
  2
*PAPER_SPACE
 70
     0
 10
0.0
 20
0.0
 30
0.0
  3
*PAPER_SPACE
  1

  0
ENDBLK
  5
26
100
AcDbEntity
 67
     1
  8
0
100
AcDbBlockEnd
  0
BLOCK
  5
2A
100
AcDbEntity
  8
0
100
AcDbBlockBegin
  2
_NONE
 70
     0
 10
0.0
 20
0.0
  0
CIRCLE
  5
2B
100
AcDbEntity
  8
0
 62
     0
100
AcDbCircle
 10
0.0
 20
0.0
 40
0.25
  0
ENDBLK
  5
2C
100
AcDbEntity
  8
0
100
AcDbBlockEnd
  0
BLOCK
  5
2E
100
AcDbEntity
  8
0
100
AcDbBlockBegin
  2
_OPEN
 70
     0
 10
0.0
 20
0.0
  0
LINE
  5
2F
100
AcDbEntity
  8
0
 62
     0
100
AcDbLine
 10
-0.965926
 20
0.258819
 11
0.0
 21
0.0
  0
LINE
  5
30
100
AcDbEntity
  8
0
 62
     0
100
AcDbLine
 10
0.0
 20
0.0
 11
-0.965926
 21
-0.258819
  0
LINE
  5
31
100
AcDbEntity
  8
0
 62
     0
100
AcDbLine
 10
0.0
 20
0.0
 11
-1.0
 21
0.0
  0
ENDBLK
  5
32
100
AcDbEntity
  8
0
100
AcDbBlockEnd
  0
BLOCK
  5
34
100
AcDbEntity
  8
0
100
AcDbBlockBegin
  2
_CLOSED
 70
     0
 10
0.0
 20
0.0
  0
LINE
  5
35
100
AcDbEntity
  8
0
 62
     0
100
AcDbLine
 10
-0.965926
 20
0.258819
 11
0.0
 21
0.0
  0
LINE
  5
36
100
AcDbEntity
  8
0
 62
     0
100
AcDbLine
 10
0.0
 20
0.0
 11
-0.965926
 21
-0.258819
  0
LINE
  5
37
100
AcDbEntity
  8
0
 62
     0
100
AcDbLine
 10
-0.965926
 20
0.258819
 11
-0.965926
 21
-0.258819
  0
LINE
  5
38
100
AcDbEntity
  8
0
 62
     0
100
AcDbLine
 10
0.0
 20
0.0
 11
-1.0
 21
0.0
  0
ENDBLK
  5
39
100
AcDbEntity
  8
0
100
AcDbBlockEnd
  0
BLOCK
  5
3B
100
AcDbEntity
  8
0
100
AcDbBlockBegin
  2
_ORIGIN
 70
     0
 10
0.0
 20
0.0
  0
CIRCLE
  5
3C
100
AcDbEntity
  8
0
 62
     0
100
AcDbCircle
 10
0.0
 20
0.0
 40
0.5
  0
LINE
  5
3D
100
AcDbEntity
  8
0
 62
     0
100
AcDbLine
 10
0.0
 20
0.0
 11
-1.0
 21
0.0
  0
ENDBLK
  5
3E
100
AcDbEntity
  8
0
100
AcDbBlockEnd
  0
BLOCK
  5
40
100
AcDbEntity
  8
0
100
AcDbBlockBegin
  2
_DOT
 70
     0
 10
0.0
 20
0.0
  0
POLYLINE
  5
41
100
AcDbEntity
  8
0
 62
     0
100
AcDb2dPolyline
 66
     1
 70
     1
 40
0.5
 41
0.5
  0
VERTEX
  5
42
100
AcDbEntity
  8
0
 62
     0
100
AcDbVertex
100
AcDb2dVertex
 10
-0.25
 20
0.0
 42
1.0
  0
VERTEX
  5
43
100
AcDbEntity
  8
0
 62
     0
100
AcDbVertex
100
AcDb2dVertex
 10
0.25
 20
0.0
 42
1.0
  0
SEQEND
  5
44
100
AcDbEntity
  8
0
 62
     0
  0
LINE
  5
45
100
AcDbEntity
  8
0
 62
     0
100
AcDbLine
 10
-0.5
 20
0.0
 11
-1.0
 21
0.0
  0
ENDBLK
  5
46
100
AcDbEntity
  8
0
100
AcDbBlockEnd
  0
BLOCK
  5
48
100
AcDbEntity
  8
0
100
AcDbBlockBegin
  2
_OBLIQUE
 70
     0
 10
0.0
 20
0.0
  0
LINE
  5
49
100
AcDbEntity
  8
0
 62
     0
100
AcDbLine
 10
-0.353553
 20
-0.353553
 11
0.353553
 21
0.353553
  0
ENDBLK
  5
4A
100
AcDbEntity
  8
0
100
AcDbBlockEnd
  0
BLOCK
  5
4C
100
AcDbEntity
  8
DD0
100
AcDbBlockBegin
  2
DIMS0
 70
     0
 10
0.0
 20
0.0
  0
LINE
  5
4D
100
AcDbEntity
  8
DD0
100
AcDbLine
 10
624.461506
 20
1404.345291
 11
744.037401
 21
1404.345291
  0
LINE
  5
4E
100
AcDbEntity
  8
DD0
100
AcDbLine
 10
664.461594
 20
1403.345274
 11
744.037401
 21
1403.345274
  0
LINE
  5
4F
100
AcDbEntity
  8
DD0
100
AcDbLine
 10
733.886217
 20
1420.90402
 11
738.323115
 21
1404.345291
  0
LINE
  5
50
100
AcDbEntity
  8
DD0
100
AcDbLine
 10
738.323115
 20
1404.345291
 11
742.760013
 21
1420.90402
  0
LINE
  5
51
100
AcDbEntity
  8
DD0
100
AcDbLine
 10
742.760013
 20
1386.786545
 11
738.323115
 21
1403.345274
  0
LINE
  5
52
100
AcDbEntity
  8
DD0
100
AcDbLine
 10
738.323115
 20
1403.345274
 11
733.886217
 21
1386.786545
  0
LINE
  5
53
100
AcDbEntity
  8
DD0
100
AcDbLine
 10
738.323115
 20
1443.202436
 11
738.323115
 21
1384.488131
  0
TEXT
  5
54
100
AcDbEntity
  8
DD0
100
AcDbText
 10
734.894509
 20
1424.392886
 40
14.285715
  1
１
 50
90.000003
 41
0.833333
  7
STANDARD
100
AcDbText
  0
ENDBLK
  5
55
100
AcDbEntity
  8
DD0
100
AcDbBlockEnd
  0
BLOCK
  5
58
100
AcDbEntity
  8
DD0
100
AcDbBlockBegin
  2
DIMS1
 70
     0
 10
0.0
 20
0.0
  0
LINE
  5
59
100
AcDbEntity
  8
DD0
 60
     1
100
AcDbLine
 10
664.461594
 20
1403.345274
 11
744.037401
 21
1403.345274
  0
LINE
  5
5A
100
AcDbEntity
  8
DD0
100
AcDbLine
 10
664.461638
 20
990.845877
 11
744.037401
 21
990.845877
  0
LINE
  5
5B
100
AcDbEntity
  8
DD0
100
AcDbLine
 10
742.760013
 20
1386.786545
 11
738.323115
 21
1403.345274
  0
LINE
  5
5C
100
AcDbEntity
  8
DD0
100
AcDbLine
 10
738.323115
 20
1403.345274
 11
733.886217
 21
1386.786545
  0
LINE
  5
5D
100
AcDbEntity
  8
DD0
100
AcDbLine
 10
733.886217
 20
1007.404606
 11
738.323115
 21
990.845877
  0
LINE
  5
5E
100
AcDbEntity
  8
DD0
100
AcDbLine
 10
738.323115
 20
990.845877
 11
742.760013
 21
1007.404606
  0
LINE
  5
5F
100
AcDbEntity
  8
DD0
100
AcDbLine
 10
738.323115
 20
1403.345274
 11
738.323115
 21
990.845877
  0
TEXT
  5
60
100
AcDbEntity
  8
DD0
100
AcDbText
 10
734.894509
 20
1176.857482
 40
14.285715
  1
４１２
 50
90.000003
 41
0.833333
  7
STANDARD
100
AcDbText
  0
ENDBLK
  5
61
100
AcDbEntity
  8
DD0
100
AcDbBlockEnd
  0
BLOCK
  5
64
100
AcDbEntity
  8
DD0
100
AcDbBlockBegin
  2
DIMS2
 70
     0
 10
0.0
 20
0.0
  0
LINE
  5
65
100
AcDbEntity
  8
DD0
100
AcDbLine
 10
128.74731
 20
1409.059559
 11
128.74731
 21
1465.675074
  0
LINE
  5
66
100
AcDbEntity
  8
DD0
100
AcDbLine
 10
658.747308
 20
1409.059559
 11
658.747308
 21
1465.675074
  0
LINE
  5
67
100
AcDbEntity
  8
DD0
100
AcDbLine
 10
145.306039
 20
1464.397599
 11
128.74731
 21
1459.960701
  0
LINE
  5
68
100
AcDbEntity
  8
DD0
100
AcDbLine
 10
128.74731
 20
1459.960701
 11
145.306039
 21
1455.523803
  0
LINE
  5
69
100
AcDbEntity
  8
DD0
100
AcDbLine
 10
642.18858
 20
1455.523803
 11
658.747308
 21
1459.960701
  0
LINE
  5
6A
100
AcDbEntity
  8
DD0
100
AcDbLine
 10
658.747308
 20
1459.960701
 11
642.18858
 21
1464.397599
  0
LINE
  5
6B
100
AcDbEntity
  8
DD0
100
AcDbLine
 10
128.74731
 20
1459.960701
 11
658.747308
 21
1459.960701
  0
TEXT
  5
6C
100
AcDbEntity
  8
DD0
100
AcDbText
 10
373.50921
 20
1463.38922
 40
14.285715
  1
５３６
 41
0.833333
  7
STANDARD
100
AcDbText
  0
ENDBLK
  5
6D
100
AcDbEntity
  8
DD0
100
AcDbBlockEnd
  0
BLOCK
  5
70
100
AcDbEntity
  8
DD0
100
AcDbBlockBegin
  2
DIMS3
 70
     0
 10
0.0
 20
0.0
  0
LINE
  5
71
100
AcDbEntity
  8
DD0
100
AcDbLine
 10
638.797313
 20
766.779537
 11
638.797313
 21
838.209679
  0
LINE
  5
72
100
AcDbEntity
  8
DD0
100
AcDbLine
 10
158.797316
 20
766.779537
 11
158.797316
 21
838.209679
  0
LINE
  5
73
100
AcDbEntity
  8
DD0
100
AcDbLine
 10
622.238584
 20
828.058495
 11
638.797313
 21
832.495393
  0
LINE
  5
74
100
AcDbEntity
  8
DD0
100
AcDbLine
 10
638.797313
 20
832.495393
 11
622.238584
 21
836.932291
  0
LINE
  5
75
100
AcDbEntity
  8
DD0
100
AcDbLine
 10
175.356045
 20
836.932291
 11
158.797316
 21
832.495393
  0
LINE
  5
76
100
AcDbEntity
  8
DD0
100
AcDbLine
 10
158.797316
 20
832.495393
 11
175.356045
 21
828.058495
  0
LINE
  5
77
100
AcDbEntity
  8
DD0
100
AcDbLine
 10
638.797313
 20
832.495393
 11
158.797316
 21
832.495393
  0
TEXT
  5
78
100
AcDbEntity
  8
DD0
100
AcDbText
 10
373.268753
 20
835.923999
 40
18.000001
  1
４８０
 41
0.833333
  7
STANDARD
100
AcDbText
  0
ENDBLK
  5
79
100
AcDbEntity
  8
DD0
100
AcDbBlockEnd
  0
BLOCK
  5
7C
100
AcDbEntity
  8
DD0
100
AcDbBlockBegin
  2
DIMS4
 70
     0
 10
0.0
 20
0.0
  0
LINE
  5
7D
100
AcDbEntity
  8
DD0
100
AcDbLine
 10
660.940171
 20
366.636708
 11
744.037401
 21
366.636708
  0
LINE
  5
7E
100
AcDbEntity
  8
DD0
100
AcDbLine
 10
660.940171
 20
744.636679
 11
744.037401
 21
744.636679
  0
LINE
  5
7F
100
AcDbEntity
  8
DD0
100
AcDbLine
 10
733.886217
 20
383.195436
 11
738.323115
 21
366.636708
  0
LINE
  5
80
100
AcDbEntity
  8
DD0
100
AcDbLine
 10
738.323115
 20
366.636708
 11
742.760013
 21
383.195436
  0
LINE
  5
81
100
AcDbEntity
  8
DD0
100
AcDbLine
 10
742.760013
 20
728.07795
 11
738.323115
 21
744.636679
  0
LINE
  5
82
100
AcDbEntity
  8
DD0
100
AcDbLine
 10
738.323115
 20
744.636679
 11
733.886217
 21
728.07795
  0
LINE
  5
83
100
AcDbEntity
  8
DD0
100
AcDbLine
 10
738.323115
 20
366.636708
 11
738.323115
 21
744.636679
  0
TEXT
  5
84
100
AcDbEntity
  8
DD0
100
AcDbText
 10
734.894509
 20
530.108137
 40
18.000001
  1
３７８
 50
90.000003
 41
0.833333
  7
STANDARD
100
AcDbText
  0
ENDBLK
  5
85
100
AcDbEntity
  8
DD0
100
AcDbBlockEnd
  0
BLOCK
  5
88
100
AcDbEntity
  8
DD0
100
AcDbBlockBegin
  2
DIMS5
 70
     0
 10
0.0
 20
0.0
  0
LINE
  5
89
100
AcDbEntity
  8
DD0
100
AcDbLine
 10
660.940171
 20
744.636679
 11
744.037401
 21
744.636679
  0
LINE
  5
8A
100
AcDbEntity
  8
DD0
100
AcDbLine
 10
672.511608
 20
762.636645
 11
744.037401
 21
762.636645
  0
LINE
  5
8B
100
AcDbEntity
  8
DD0
100
AcDbLine
 10
742.760013
 20
728.07795
 11
738.323115
 21
744.636679
  0
LINE
  5
8C
100
AcDbEntity
  8
DD0
100
AcDbLine
 10
738.323115
 20
744.636679
 11
733.886217
 21
728.07795
  0
LINE
  5
8D
100
AcDbEntity
  8
DD0
100
AcDbLine
 10
733.886217
 20
779.195373
 11
738.323115
 21
762.636645
  0
LINE
  5
8E
100
AcDbEntity
  8
DD0
100
AcDbLine
 10
738.323115
 20
762.636645
 11
742.760013
 21
779.195373
  0
LINE
  5
8F
100
AcDbEntity
  8
DD0
100
AcDbLine
 10
738.323115
 20
725.779536
 11
738.323115
 21
823.208076
  0
TEXT
  5
90
100
AcDbEntity
  8
DD0
100
AcDbText
 10
734.894509
 20
782.965241
 40
18.000001
  1
１８
 50
90.000003
 41
0.833333
  7
STANDARD
100
AcDbText
  0
ENDBLK
  5
91
100
AcDbEntity
  8
DD0
100
AcDbBlockEnd
  0
BLOCK
  5
94
100
AcDbEntity
  8
DD0
100
AcDbBlockBegin
  2
DIMS6
 70
     0
 10
0.0
 20
0.0
  0
LINE
  5
95
100
AcDbEntity
  8
DD0
100
AcDbLine
 10
1081.643085
 20
989.631975
 11
1081.643085
 21
911.933871
  0
LINE
  5
96
100
AcDbEntity
  8
DD0
100
AcDbLine
 10
1059.443116
 20
989.331943
 11
1059.443116
 21
911.933871
  0
LINE
  5
97
100
AcDbEntity
  8
DD0
100
AcDbLine
 10
1098.201814
 20
922.085055
 11
1081.643085
 21
917.648157
  0
LINE
  5
98
100
AcDbEntity
  8
DD0
100
AcDbLine
 10
1081.643085
 20
917.648157
 11
1098.201814
 21
913.211259
  0
LINE
  5
99
100
AcDbEntity
  8
DD0
100
AcDbLine
 10
1042.884387
 20
913.211259
 11
1059.443116
 21
917.648157
  0
LINE
  5
9A
100
AcDbEntity
  8
DD0
100
AcDbLine
 10
1059.443116
 20
917.648157
 11
1042.884387
 21
922.085055
  0
LINE
  5
9B
100
AcDbEntity
  8
DD0
100
AcDbLine
 10
1100.500228
 20
917.648157
 11
980.87168
 21
917.648157
  0
TEXT
  5
9C
100
AcDbEntity
  8
DD0
100
AcDbText
 10
985.485996
 20
921.076763
 40
18.000001
  1
ｔ２２
 41
0.833333
  7
STANDARD
100
AcDbText
  0
ENDBLK
  5
9D
100
AcDbEntity
  8
DD0
100
AcDbBlockEnd
  0
BLOCK
  5
A0
100
AcDbEntity
  8
DD0
100
AcDbBlockBegin
  2
DIMS7
 70
     0
 10
0.0
 20
0.0
  0
LINE
  5
A1
100
AcDbEntity
  8
DD0
100
AcDbLine
 10
1081.643085
 20
1404.559524
 11
1081.643085
 21
1465.674899
  0
LINE
  5
A2
100
AcDbEntity
  8
DD0
100
AcDbLine
 10
823.842875
 20
1344.059297
 11
823.842875
 21
1465.674899
  0
LINE
  5
A3
100
AcDbEntity
  8
DD0
100
AcDbLine
 10
1065.084356
 20
1455.523803
 11
1081.643085
 21
1459.960701
  0
LINE
  5
A4
100
AcDbEntity
  8
DD0
100
AcDbLine
 10
1081.643085
 20
1459.960701
 11
1065.084356
 21
1464.397599
  0
LINE
  5
A5
100
AcDbEntity
  8
DD0
100
AcDbLine
 10
840.401603
 20
1464.397599
 11
823.842875
 21
1459.960701
  0
LINE
  5
A6
100
AcDbEntity
  8
DD0
100
AcDbLine
 10
823.842875
 20
1459.960701
 11
840.401603
 21
1455.523803
  0
LINE
  5
A7
100
AcDbEntity
  8
DD0
100
AcDbLine
 10
1081.643085
 20
1459.960701
 11
823.842875
 21
1459.960701
  0
TEXT
  5
A8
100
AcDbEntity
  8
DD0
100
AcDbText
 10
909.214371
 20
1463.38922
 40
18.000001
  1
２５７．５
 41
0.833333
  7
STANDARD
100
AcDbText
  0
ENDBLK
  5
A9
100
AcDbEntity
  8
DD0
100
AcDbBlockEnd
  0
BLOCK
  5
AC
100
AcDbEntity
  8
DD0
100
AcDbBlockBegin
  2
DIMS8
 70
     0
 10
0.0
 20
0.0
  0
TEXT
  5
AD
100
AcDbEntity
  8
DD0
100
AcDbText
 10
690.698481
 20
307.019441
 40
18.000001
  1
４－Ｍ１０ねじ穴
 41
0.833333
  7
STANDARD
100
AcDbText
  0
LINE
  5
AE
100
AcDbEntity
  8
DD0
100
AcDbLine
 10
653.292787
 20
349.901727
 11
642.182454
 21
362.95692
  0
LINE
  5
AF
100
AcDbEntity
  8
DD0
100
AcDbLine
 10
642.182454
 20
362.95692
 11
645.276688
 21
346.095625
  0
LINE
  5
B0
100
AcDbEntity
  8
DD0
100
AcDbLine
 10
642.182454
 20
362.95692
 11
670.369884
 21
303.590878
  0
LINE
  5
B1
100
AcDbEntity
  8
DD0
100
AcDbLine
 10
670.369884
 20
303.590878
 11
852.084191
 21
303.590878
  0
ENDBLK
  5
B2
100
AcDbEntity
  8
DD0
100
AcDbBlockEnd
  0
ENDSEC
  0
SECTION
  2
ENTITIES
  0
INSERT
  5
56
100
AcDbEntity
  8
DD0
100
AcDbBlockReference
  2
DIMS0
 10
0.0
 20
0.0
  0
INSERT
  5
62
100
AcDbEntity
  8
DD0
100
AcDbBlockReference
  2
DIMS1
 10
0.0
 20
0.0
  0
INSERT
  5
6E
100
AcDbEntity
  8
DD0
100
AcDbBlockReference
  2
DIMS2
 10
0.0
 20
0.0
  0
INSERT
  5
7A
100
AcDbEntity
  8
DD0
100
AcDbBlockReference
  2
DIMS3
 10
0.0
 20
0.0
  0
INSERT
  5
86
100
AcDbEntity
  8
DD0
100
AcDbBlockReference
  2
DIMS4
 10
0.0
 20
0.0
  0
INSERT
  5
92
100
AcDbEntity
  8
DD0
100
AcDbBlockReference
  2
DIMS5
 10
0.0
 20
0.0
  0
INSERT
  5
9E
100
AcDbEntity
  8
DD0
100
AcDbBlockReference
  2
DIMS6
 10
0.0
 20
0.0
  0
INSERT
  5
AA
100
AcDbEntity
  8
DD0
100
AcDbBlockReference
  2
DIMS7
 10
0.0
 20
0.0
  0
INSERT
  5
B3
100
AcDbEntity
  8
DD0
100
AcDbBlockReference
  2
DIMS8
 10
0.0
 20
0.0
  0
ARC
  5
B4
100
AcDbEntity
  8
M0
 62
     7
100
AcDbCircle
 10
356.24731
 20
1202.845305
 40
1.5
100
AcDbArc
 50
269.999417
 51
360.0
  0
ARC
  5
B5
100
AcDbEntity
  8
M0
 62
     7
100
AcDbCircle
 10
356.24731
 20
1199.845305
 40
1.5
100
AcDbArc
 50
90.0
 51
180.0
  0
ARC
  5
B6
100
AcDbEntity
  8
M0
 62
     7
100
AcDbCircle
 10
353.74731
 20
1337.345305
 40
4.0
100
AcDbArc
 50
0.0
 51
90.0
  0
LINE
  5
B7
100
AcDbEntity
  8
M0
 62
     7
100
AcDbLine
 10
353.74731
 20
1341.345305
 11
348.74731
 21
1341.345305
  0
LINE
  5
B8
100
AcDbEntity
  8
M0
 62
     7
100
AcDbLine
 10
284.1273
 20
1337.505293
 11
284.407298
 21
1338.4653
  0
ARC
  5
B9
100
AcDbEntity
  8
M0
 62
     7
100
AcDbCircle
 10
281.24731
 20
1338.345305
 40
3.0
100
AcDbArc
 50
269.999709
 51
343.738968
  0
LINE
  5
BA
100
AcDbEntity
  8
M0
 62
     7
100
AcDbLine
 10
293.087306
 20
1338.4653
 11
293.367305
 21
1337.505293
  0
ARC
  5
BB
100
AcDbEntity
  8
M0
 62
     7
100
AcDbCircle
 10
296.24731
 20
1338.345305
 40
3.0
100
AcDbArc
 50
196.260391
 51
269.999709
  0
LINE
  5
BC
100
AcDbEntity
  8
M0
 62
     7
100
AcDbLine
 10
344.6273
 20
1337.505293
 11
344.907298
 21
1338.4653
  0
ARC
  5
BD
100
AcDbEntity
  8
M0
 62
     7
100
AcDbCircle
 10
348.74731
 20
1337.345305
 40
4.0
100
AcDbArc
 50
90.0
 51
163.740119
  0
ARC
  5
BE
100
AcDbEntity
  8
M0
 62
     7
100
AcDbCircle
 10
341.74731
 20
1338.345305
 40
3.0
100
AcDbArc
 50
269.999709
 51
343.738968
  0
LINE
  5
BF
100
AcDbEntity
  8
M0
 62
     7
100
AcDbLine
 10
341.74731
 20
1335.345305
 11
296.24731
 21
1335.345305
  0
ARC
  5
C0
100
AcDbEntity
  8
M0
 62
     7
100
AcDbCircle
 10
289.24731
 20
1337.345305
 40
4.0
100
AcDbArc
 50
16.260152
 51
90.0
  0
ARC
  5
C1
100
AcDbEntity
  8
M0
 62
     7
100
AcDbCircle
 10
288.24731
 20
1337.345305
 40
4.0
100
AcDbArc
 50
90.0
 51
163.740119
  0
LINE
  5
C2
100
AcDbEntity
  8
M0
 62
     7
100
AcDbLine
 10
288.24731
 20
1341.345305
 11
289.24731
 21
1341.345305
  0
ARC
  5
C3
100
AcDbEntity
  8
M0
 62
     7
100
AcDbCircle
 10
354.74731
 20
1324.345305
 40
3.0
100
AcDbArc
 50
269.999709
 51
360.0
  0
ARC
  5
C4
100
AcDbEntity
  8
M0
 62
     7
100
AcDbCircle
 10
354.74731
 20
1308.345305
 40
3.0
100
AcDbArc
 50
0.0
 51
90.0
  0
LINE
  5
C5
100
AcDbEntity
  8
M0
 62
     7
100
AcDbLine
 10
354.74731
 20
1321.345305
 11
349.74731
 21
1321.345305
  0
LINE
  5
C6
100
AcDbEntity
  8
M0
 62
     7
100
AcDbLine
 10
354.74731
 20
1311.345305
 11
349.74731
 21
1311.345305
  0
LINE
  5
C7
100
AcDbEntity
  8
M0
  6
DASHDOT
 62
     7
100
AcDbLine
 10
362.74731
 20
1316.345305
 11
334.464793
 21
1316.345305
  0
CIRCLE
  5
C8
100
AcDbEntity
  8
M0
 62
     7
100
AcDbCircle
 10
349.74731
 20
1316.345305
 40
2.5
  0
LINE
  5
C9
100
AcDbEntity
  8
M0
  6
DASHDOT
 62
     7
100
AcDbLine
 10
342.24731
 20
1316.345305
 11
357.24731
 21
1316.345305
  0
LINE
  5
CA
100
AcDbEntity
  8
M0
  6
DASHDOT
 62
     7
100
AcDbLine
 10
349.74731
 20
1308.845305
 11
349.74731
 21
1323.845305
  0
ARC
  5
CB
100
AcDbEntity
  8
M0
 62
     7
100
AcDbCircle
 10
349.74731
 20
1316.345305
 40
5.0
100
AcDbArc
 50
90.0
 51
269.999825
  0
ARC
  5
CC
100
AcDbEntity
  8
M0
 62
     7
100
AcDbCircle
 10
163.74731
 20
1337.345305
 40
4.0
100
AcDbArc
 50
89.999781
 51
180.0
  0
LINE
  5
CD
100
AcDbEntity
  8
M0
 62
     7
100
AcDbLine
 10
163.74731
 20
1341.345305
 11
168.74731
 21
1341.345305
  0
LINE
  5
CE
100
AcDbEntity
  8
M0
 62
     7
100
AcDbLine
 10
233.36732
 20
1337.505293
 11
233.087322
 21
1338.4653
  0
ARC
  5
CF
100
AcDbEntity
  8
M0
 62
     7
100
AcDbCircle
 10
236.24731
 20
1338.345305
 40
3.0
100
AcDbArc
 50
196.260753
 51
270.0
  0
LINE
  5
D0
100
AcDbEntity
  8
M0
 62
     7
100
AcDbLine
 10
224.407314
 20
1338.4653
 11
224.127315
 21
1337.505293
  0
ARC
  5
D1
100
AcDbEntity
  8
M0
 62
     7
100
AcDbCircle
 10
221.24731
 20
1338.345305
 40
3.0
100
AcDbArc
 50
270.0
 51
343.739609
  0
LINE
  5
D2
100
AcDbEntity
  8
M0
 62
     7
100
AcDbLine
 10
172.86732
 20
1337.505293
 11
172.587322
 21
1338.4653
  0
ARC
  5
D3
100
AcDbEntity
  8
M0
 62
     7
100
AcDbCircle
 10
168.74731
 20
1337.345305
 40
4.0
100
AcDbArc
 50
16.259671
 51
89.999781
  0
ARC
  5
D4
100
AcDbEntity
  8
M0
 62
     7
100
AcDbCircle
 10
175.74731
 20
1338.345305
 40
3.0
100
AcDbArc
 50
196.260753
 51
270.0
  0
LINE
  5
D5
100
AcDbEntity
  8
M0
 62
     7
100
AcDbLine
 10
175.74731
 20
1335.345305
 11
221.24731
 21
1335.345305
  0
LINE
  5
D6
100
AcDbEntity
  8
M0
 62
     7
100
AcDbLine
 10
281.24731
 20
1335.345305
 11
236.24731
 21
1335.345305
  0
ARC
  5
D7
100
AcDbEntity
  8
M0
 62
     7
100
AcDbCircle
 10
228.24731
 20
1337.345305
 40
4.0
100
AcDbArc
 50
89.999781
 51
163.739848
  0
ARC
  5
D8
100
AcDbEntity
  8
M0
 62
     7
100
AcDbCircle
 10
229.24731
 20
1337.345305
 40
4.0
100
AcDbArc
 50
16.259671
 51
89.999781
  0
LINE
  5
D9
100
AcDbEntity
  8
M0
 62
     7
100
AcDbLine
 10
229.24731
 20
1341.345305
 11
228.24731
 21
1341.345305
  0
ARC
  5
DA
100
AcDbEntity
  8
M0
 62
     7
100
AcDbCircle
 10
162.74731
 20
1324.345305
 40
3.0
100
AcDbArc
 50
180.0
 51
270.0
  0
ARC
  5
DB
100
AcDbEntity
  8
M0
 62
     7
100
AcDbCircle
 10
162.74731
 20
1308.345305
 40
3.0
100
AcDbArc
 50
89.999709
 51
180.0
  0
LINE
  5
DC
100
AcDbEntity
  8
M0
 62
     7
100
AcDbLine
 10
162.74731
 20
1321.345305
 11
167.74731
 21
1321.345305
  0
LINE
  5
DD
100
AcDbEntity
  8
M0
 62
     7
100
AcDbLine
 10
162.74731
 20
1311.345305
 11
167.74731
 21
1311.345305
  0
LINE
  5
DE
100
AcDbEntity
  8
M0
  6
DASHDOT
 62
     7
100
AcDbLine
 10
154.74731
 20
1316.345305
 11
183.029826
 21
1316.345305
  0
CIRCLE
  5
DF
100
AcDbEntity
  8
M0
 62
     7
100
AcDbCircle
 10
167.74731
 20
1316.345305
 40
2.5
  0
LINE
  5
E0
100
AcDbEntity
  8
M0
  6
DASHDOT
 62
     7
100
AcDbLine
 10
175.24731
 20
1316.345305
 11
160.24731
 21
1316.345305
  0
LINE
  5
E1
100
AcDbEntity
  8
M0
  6
DASHDOT
 62
     7
100
AcDbLine
 10
167.74731
 20
1308.845305
 11
167.74731
 21
1323.845305
  0
ARC
  5
E2
100
AcDbEntity
  8
M0
 62
     7
100
AcDbCircle
 10
167.74731
 20
1316.345305
 40
5.0
100
AcDbArc
 50
-90.0
 51
89.999825
  0
LINE
  5
E3
100
AcDbEntity
  8
M0
 62
     7
100
AcDbLine
 10
284.1273
 20
1155.185307
 11
284.407298
 21
1154.225307
  0
ARC
  5
E4
100
AcDbEntity
  8
M0
 62
     7
100
AcDbCircle
 10
281.24731
 20
1154.345307
 40
3.0
100
AcDbArc
 50
16.260368
 51
90.0
  0
LINE
  5
E5
100
AcDbEntity
  8
M0
 62
     7
100
AcDbLine
 10
293.087306
 20
1154.225307
 11
293.367305
 21
1155.185307
  0
ARC
  5
E6
100
AcDbEntity
  8
M0
 62
     7
100
AcDbCircle
 10
296.24731
 20
1154.345307
 40
3.0
100
AcDbArc
 50
90.0
 51
163.739819
  0
LINE
  5
E7
100
AcDbEntity
  8
M0
 62
     7
100
AcDbLine
 10
281.24731
 20
1157.345306
 11
236.24731
 21
1157.345306
  0
ARC
  5
E8
100
AcDbEntity
  8
M0
 62
     7
100
AcDbCircle
 10
289.24731
 20
1155.345307
 40
4.0
100
AcDbArc
 50
269.999781
 51
343.739703
  0
ARC
  5
E9
100
AcDbEntity
  8
M0
 62
     7
100
AcDbCircle
 10
350.74731
 20
1155.345307
 40
4.0
100
AcDbArc
 50
-90.000219
 51
0.0
  0
LINE
  5
EA
100
AcDbEntity
  8
M0
 62
     7
100
AcDbLine
 10
162.74731
 20
1155.345307
 11
162.74731
 21
1199.845305
  0
LINE
  5
EB
100
AcDbEntity
  8
M0
 62
     7
100
AcDbLine
 10
354.74731
 20
1155.345307
 11
354.74731
 21
1199.845305
  0
LINE
  5
EC
100
AcDbEntity
  8
M0
 62
     7
100
AcDbLine
 10
350.74731
 20
1151.345307
 11
348.847301
 21
1151.345307
  0
LINE
  5
ED
100
AcDbEntity
  8
M0
 62
     7
100
AcDbLine
 10
344.727306
 20
1155.185307
 11
345.007304
 21
1154.225307
  0
ARC
  5
EE
100
AcDbEntity
  8
M0
 62
     7
100
AcDbCircle
 10
348.847301
 20
1155.345307
 40
4.0
100
AcDbArc
 50
196.260039
 51
269.999781
  0
ARC
  5
EF
100
AcDbEntity
  8
M0
 62
     7
100
AcDbCircle
 10
341.847301
 20
1154.345307
 40
3.0
100
AcDbArc
 50
16.260298
 51
90.0
  0
LINE
  5
F0
100
AcDbEntity
  8
M0
 62
     7
100
AcDbLine
 10
341.847301
 20
1157.345306
 11
296.24731
 21
1157.345306
  0
ARC
  5
F1
100
AcDbEntity
  8
M0
 62
     7
100
AcDbCircle
 10
288.24731
 20
1155.345307
 40
4.0
100
AcDbArc
 50
196.260039
 51
269.999781
  0
LINE
  5
F2
100
AcDbEntity
  8
M0
 62
     7
100
AcDbLine
 10
288.24731
 20
1151.345307
 11
289.24731
 21
1151.345307
  0
LINE
  5
F3
100
AcDbEntity
  8
M0
 62
     7
100
AcDbLine
 10
233.36732
 20
1155.185307
 11
233.087322
 21
1154.225307
  0
ARC
  5
F4
100
AcDbEntity
  8
M0
 62
     7
100
AcDbCircle
 10
236.24731
 20
1154.345307
 40
3.0
100
AcDbArc
 50
89.999709
 51
163.739527
  0
LINE
  5
F5
100
AcDbEntity
  8
M0
 62
     7
100
AcDbLine
 10
224.407314
 20
1154.225307
 11
224.127315
 21
1155.185307
  0
ARC
  5
F6
100
AcDbEntity
  8
M0
 62
     7
100
AcDbCircle
 10
221.24731
 20
1154.345307
 40
3.0
100
AcDbArc
 50
16.260146
 51
89.999709
  0
ARC
  5
F7
100
AcDbEntity
  8
M0
 62
     7
100
AcDbCircle
 10
228.24731
 20
1155.345307
 40
4.0
100
AcDbArc
 50
196.260192
 51
270.0
  0
ARC
  5
F8
100
AcDbEntity
  8
M0
 62
     7
100
AcDbCircle
 10
229.24731
 20
1155.345307
 40
4.0
100
AcDbArc
 50
270.0
 51
343.73987
  0
LINE
  5
F9
100
AcDbEntity
  8
M0
 62
     7
100
AcDbLine
 10
229.24731
 20
1151.345307
 11
228.24731
 21
1151.345307
  0
ARC
  5
FA
100
AcDbEntity
  8
M0
 62
     7
100
AcDbCircle
 10
166.74731
 20
1155.345307
 40
4.0
100
AcDbArc
 50
179.999959
 51
270.0
  0
ARC
  5
FB
100
AcDbEntity
  8
M0
 62
     7
100
AcDbCircle
 10
165.74731
 20
1168.345306
 40
3.0
100
AcDbArc
 50
89.999709
 51
179.999982
  0
ARC
  5
FC
100
AcDbEntity
  8
M0
 62
     7
100
AcDbCircle
 10
165.74731
 20
1184.345305
 40
3.0
100
AcDbArc
 50
180.0
 51
270.0
  0
LINE
  5
FD
100
AcDbEntity
  8
M0
 62
     7
100
AcDbLine
 10
165.74731
 20
1171.345306
 11
170.74731
 21
1171.345306
  0
LINE
  5
FE
100
AcDbEntity
  8
M0
 62
     7
100
AcDbLine
 10
165.74731
 20
1181.345305
 11
170.74731
 21
1181.345305
  0
LINE
  5
FF
100
AcDbEntity
  8
M0
  6
DASHDOT
 62
     7
100
AcDbLine
 10
157.74731
 20
1176.345305
 11
186.029826
 21
1176.345305
  0
CIRCLE
  5
100
100
AcDbEntity
  8
M0
 62
     7
100
AcDbCircle
 10
170.74731
 20
1176.345305
 40
2.5
  0
LINE
  5
101
100
AcDbEntity
  8
M0
  6
DASHDOT
 62
     7
100
AcDbLine
 10
178.24731
 20
1176.345305
 11
163.24731
 21
1176.345305
  0
LINE
  5
102
100
AcDbEntity
  8
M0
  6
DASHDOT
 62
     7
100
AcDbLine
 10
170.74731
 20
1183.845305
 11
170.74731
 21
1168.845306
  0
ARC
  5
103
100
AcDbEntity
  8
M0
 62
     7
100
AcDbCircle
 10
170.74731
 20
1176.345305
 40
5.0
100
AcDbArc
 50
270.0
 51
449.999825
  0
ARC
  5
104
100
AcDbEntity
  8
M0
 62
     7
100
AcDbCircle
 10
351.74731
 20
1168.345306
 40
3.0
100
AcDbArc
 50
0.0
 51
90.0
  0
ARC
  5
105
100
AcDbEntity
  8
M0
 62
     7
100
AcDbCircle
 10
351.74731
 20
1184.345305
 40
3.0
100
AcDbArc
 50
-90.000291
 51
0.0
  0
LINE
  5
106
100
AcDbEntity
  8
M0
 62
     7
100
AcDbLine
 10
351.74731
 20
1171.345306
 11
346.74731
 21
1171.345306
  0
LINE
  5
107
100
AcDbEntity
  8
M0
 62
     7
100
AcDbLine
 10
351.74731
 20
1181.345305
 11
346.74731
 21
1181.345305
  0
LINE
  5
108
100
AcDbEntity
  8
M0
  6
DASHDOT
 62
     7
100
AcDbLine
 10
359.74731
 20
1176.345305
 11
331.464793
 21
1176.345305
  0
CIRCLE
  5
109
100
AcDbEntity
  8
M0
 62
     7
100
AcDbCircle
 10
346.74731
 20
1176.345305
 40
2.5
  0
LINE
  5
10A
100
AcDbEntity
  8
M0
  6
DASHDOT
 62
     7
100
AcDbLine
 10
339.24731
 20
1176.345305
 11
354.24731
 21
1176.345305
  0
LINE
  5
10B
100
AcDbEntity
  8
M0
  6
DASHDOT
 62
     7
100
AcDbLine
 10
346.74731
 20
1183.845305
 11
346.74731
 21
1168.845306
  0
ARC
  5
10C
100
AcDbEntity
  8
M0
 62
     7
100
AcDbCircle
 10
346.74731
 20
1176.345305
 40
5.0
100
AcDbArc
 50
90.0
 51
269.999825
  0
LINE
  5
10D
100
AcDbEntity
  8
M0
 62
     7
100
AcDbLine
 10
159.74731
 20
1202.845305
 11
159.74731
 21
1337.345305
  0
ARC
  5
10E
100
AcDbEntity
  8
M0
 62
     7
100
AcDbCircle
 10
161.24731
 20
1202.845305
 40
1.5
100
AcDbArc
 50
180.0
 51
270.0
  0
ARC
  5
10F
100
AcDbEntity
  8
M0
 62
     7
100
AcDbCircle
 10
161.24731
 20
1199.845305
 40
1.5
100
AcDbArc
 50
0.0
 51
89.999417
  0
LINE
  5
110
100
AcDbEntity
  8
M0
 62
     7
100
AcDbLine
 10
357.74731
 20
1202.845305
 11
357.74731
 21
1337.345305
  0
LINE
  5
111
100
AcDbEntity
  8
M0
 62
     7
100
AcDbLine
 10
175.647319
 20
1157.345306
 11
221.24731
 21
1157.345306
  0
ARC
  5
112
100
AcDbEntity
  8
M0
 62
     7
100
AcDbCircle
 10
175.647319
 20
1154.345307
 40
3.0
100
AcDbArc
 50
89.999709
 51
163.739632
  0
ARC
  5
113
100
AcDbEntity
  8
M0
 62
     7
100
AcDbCircle
 10
168.647319
 20
1155.345307
 40
4.0
100
AcDbArc
 50
270.0
 51
343.73987
  0
LINE
  5
114
100
AcDbEntity
  8
M0
 62
     7
100
AcDbLine
 10
172.767314
 20
1155.185307
 11
172.487315
 21
1154.225307
  0
LINE
  5
115
100
AcDbEntity
  8
M0
 62
     7
100
AcDbLine
 10
166.74731
 20
1151.345307
 11
168.647319
 21
1151.345307
  0
LINE
  5
116
100
AcDbEntity
  8
M0
  6
DASHDOT
 62
     7
100
AcDbLine
 10
242.447322
 20
1257.845305
 11
275.047298
 21
1257.845305
  0
ARC
  5
117
100
AcDbEntity
  8
M0
 62
     7
100
AcDbCircle
 10
260.74731
 20
1273.195296
 40
1.0
100
AcDbArc
 50
0.0
 51
90.0
  0
LINE
  5
118
100
AcDbEntity
  8
M0
 62
     7
100
AcDbLine
 10
256.74731
 20
1274.195296
 11
260.74731
 21
1274.195296
  0
ARC
  5
119
100
AcDbEntity
  8
M0
 62
     7
100
AcDbCircle
 10
256.74731
 20
1273.195296
 40
1.0
100
AcDbArc
 50
90.0
 51
180.0
  0
LINE
  5
11A
100
AcDbEntity
  8
M0
 62
     7
100
AcDbLine
 10
255.74731
 20
1273.195296
 11
255.74731
 21
1270.195296
  0
LINE
  5
11B
100
AcDbEntity
  8
M0
 62
     7
100
AcDbLine
 10
261.74731
 20
1273.195296
 11
261.74731
 21
1270.195296
  0
LINE
  5
11C
100
AcDbEntity
  8
M0
 62
     7
100
AcDbLine
 10
252.24731
 20
1271.195296
 11
265.24731
 21
1271.195296
  0
LINE
  5
11D
100
AcDbEntity
  8
M0
 62
     7
100
AcDbLine
 10
252.24731
 20
1270.195296
 11
255.74731
 21
1270.195296
  0
LINE
  5
11E
100
AcDbEntity
  8
M0
 62
     7
100
AcDbLine
 10
261.74731
 20
1270.195296
 11
265.24731
 21
1270.195296
  0
LINE
  5
11F
100
AcDbEntity
  8
M0
 62
     7
100
AcDbLine
 10
252.24731
 20
1271.195296
 11
252.24731
 21
1267.995299
  0
LINE
  5
120
100
AcDbEntity
  8
M0
 62
     7
100
AcDbLine
 10
265.24731
 20
1271.195296
 11
265.24731
 21
1267.995299
  0
LINE
  5
121
100
AcDbEntity
  8
M0
 62
     7
100
AcDbLine
 10
267.047309
 20
1267.995299
 11
265.24731
 21
1267.995299
  0
ARC
  5
122
100
AcDbEntity
  8
M0
 62
     7
100
AcDbCircle
 10
267.047309
 20
1264.995299
 40
3.0
100
AcDbArc
 50
0.0
 51
90.0
  0
LINE
  5
123
100
AcDbEntity
  8
M0
 62
     7
100
AcDbLine
 10
252.24731
 20
1267.995299
 11
250.447311
 21
1267.995299
  0
ARC
  5
124
100
AcDbEntity
  8
M0
 62
     7
100
AcDbCircle
 10
250.447311
 20
1264.995299
 40
3.0
100
AcDbArc
 50
90.0
 51
180.0
  0
LINE
  5
125
100
AcDbEntity
  8
M0
 62
     7
100
AcDbLine
 10
267.74731
 20
1261.845305
 11
267.74731
 21
1253.845305
  0
LINE
  5
126
100
AcDbEntity
  8
M0
 62
     7
100
AcDbLine
 10
249.74731
 20
1261.845305
 11
249.74731
 21
1253.845305
  0
LINE
  5
127
100
AcDbEntity
  8
M0
 62
     7
100
AcDbLine
 10
267.74731
 20
1261.845305
 11
269.047309
 21
1261.845305
  0
ARC
  5
128
100
AcDbEntity
  8
M0
 62
     7
100
AcDbCircle
 10
269.047309
 20
1262.845305
 40
1.0
100
AcDbArc
 50
270.0
 51
360.0
  0
LINE
  5
129
100
AcDbEntity
  8
M0
 62
     7
100
AcDbLine
 10
248.447311
 20
1261.845305
 11
249.74731
 21
1261.845305
  0
ARC
  5
12A
100
AcDbEntity
  8
M0
 62
     7
100
AcDbCircle
 10
248.447311
 20
1262.845305
 40
1.0
100
AcDbArc
 50
180.0
 51
270.0
  0
LINE
  5
12B
100
AcDbEntity
  8
M0
 62
     7
100
AcDbLine
 10
248.447311
 20
1253.845305
 11
249.74731
 21
1253.845305
  0
ARC
  5
12C
100
AcDbEntity
  8
M0
 62
     7
100
AcDbCircle
 10
248.447311
 20
1252.845305
 40
1.0
100
AcDbArc
 50
90.0
 51
180.0
  0
LINE
  5
12D
100
AcDbEntity
  8
M0
 62
     7
100
AcDbLine
 10
267.74731
 20
1253.845305
 11
269.047309
 21
1253.845305
  0
ARC
  5
12E
100
AcDbEntity
  8
M0
 62
     7
100
AcDbCircle
 10
269.047309
 20
1252.845305
 40
1.0
100
AcDbArc
 50
0.0
 51
90.0
  0
LINE
  5
12F
100
AcDbEntity
  8
M0
 62
     7
100
AcDbLine
 10
247.447311
 20
1241.695296
 11
270.047309
 21
1241.695296
  0
LINE
  5
130
100
AcDbEntity
  8
M0
 62
     7
100
AcDbLine
 10
247.447311
 20
1264.995299
 11
247.447311
 21
1241.695296
  0
LINE
  5
131
100
AcDbEntity
  8
M0
 62
     7
100
AcDbLine
 10
270.047309
 20
1241.695296
 11
270.047309
 21
1264.995299
  0
LINE
  5
132
100
AcDbEntity
  8
M0
 62
     6
100
AcDbLine
 10
372.647307
 20
1291.345303
 11
357.747307
 21
1291.345307
  0
LINE
  5
133
100
AcDbEntity
  8
M0
 62
     6
100
AcDbLine
 10
357.747307
 20
1291.345307
 11
357.747279
 21
1201.345307
  0
LINE
  5
134
100
AcDbEntity
  8
M0
 62
     6
100
AcDbLine
 10
357.747279
 20
1201.345307
 11
372.647279
 21
1201.345303
  0
LINE
  5
135
100
AcDbEntity
  8
M0
 62
     6
100
AcDbLine
 10
372.647279
 20
1201.345303
 11
372.647307
 21
1291.345303
  0
LINE
  5
136
100
AcDbEntity
  8
M0
  6
DASHDOT
 62
     6
100
AcDbLine
 10
377.647293
 20
1246.345301
 11
352.747293
 21
1246.345309
  0
LINE
  5
137
100
AcDbEntity
  8
M0
 62
     6
100
AcDbLine
 10
359.697287
 20
1228.345307
 11
359.697288
 21
1229.845307
  0
LINE
  5
138
100
AcDbEntity
  8
M0
 62
     6
100
AcDbLine
 10
370.697287
 20
1228.345303
 11
370.697288
 21
1229.845303
  0
LINE
  5
139
100
AcDbEntity
  8
M0
 62
     6
100
AcDbLine
 10
359.697288
 20
1229.845307
 11
370.697288
 21
1229.845303
  0
LINE
  5
13A
100
AcDbEntity
  8
M0
 62
     6
100
AcDbLine
 10
360.697291
 20
1239.945297
 11
360.697288
 21
1229.845306
  0
LINE
  5
13B
100
AcDbEntity
  8
M0
 62
     6
100
AcDbLine
 10
360.697287
 20
1228.345306
 11
360.697279
 21
1201.345306
  0
LINE
  5
13C
100
AcDbEntity
  8
M0
 62
     6
100
AcDbLine
 10
369.697291
 20
1239.945294
 11
369.697288
 21
1229.845304
  0
LINE
  5
13D
100
AcDbEntity
  8
M0
 62
     6
100
AcDbLine
 10
369.697287
 20
1228.345304
 11
369.697279
 21
1201.345304
  0
LINE
  5
13E
100
AcDbEntity
  8
M0
 62
     6
100
AcDbLine
 10
370.697287
 20
1228.345303
 11
369.697287
 21
1228.345304
  0
LINE
  5
13F
100
AcDbEntity
  8
M0
 62
     6
100
AcDbLine
 10
360.697287
 20
1228.345306
 11
359.697287
 21
1228.345307
  0
LINE
  5
140
100
AcDbEntity
  8
M0
 62
     6
100
AcDbLine
 10
369.697291
 20
1239.945294
 11
360.697291
 21
1239.945297
  0
LINE
  5
141
100
AcDbEntity
  8
M0
 62
     6
100
AcDbLine
 10
360.697281
 20
1207.345306
 11
369.697281
 21
1207.345304
  0
LINE
  5
142
100
AcDbEntity
  8
M0
 62
     6
100
AcDbLine
 10
357.747285
 20
1221.345307
 11
360.697285
 21
1221.345306
  0
LINE
  5
143
100
AcDbEntity
  8
M0
 62
     6
100
AcDbLine
 10
369.697285
 20
1221.345304
 11
372.647285
 21
1221.345303
  0
LINE
  5
144
100
AcDbEntity
  8
M0
 62
     6
100
AcDbLine
 10
370.697299
 20
1264.345303
 11
370.697298
 21
1262.845303
  0
LINE
  5
145
100
AcDbEntity
  8
M0
 62
     6
100
AcDbLine
 10
359.697298
 20
1262.845307
 11
370.697298
 21
1262.845303
  0
LINE
  5
146
100
AcDbEntity
  8
M0
 62
     6
100
AcDbLine
 10
369.697295
 20
1252.745298
 11
369.697298
 21
1262.845304
  0
LINE
  5
147
100
AcDbEntity
  8
M0
 62
     6
100
AcDbLine
 10
369.697299
 20
1264.345304
 11
369.697307
 21
1291.345304
  0
LINE
  5
148
100
AcDbEntity
  8
M0
 62
     6
100
AcDbLine
 10
370.697299
 20
1264.345303
 11
369.697299
 21
1264.345304
  0
LINE
  5
149
100
AcDbEntity
  8
M0
 62
     6
100
AcDbLine
 10
369.697295
 20
1252.745298
 11
360.697295
 21
1252.7453
  0
LINE
  5
14A
100
AcDbEntity
  8
M0
 62
     6
100
AcDbLine
 10
360.697305
 20
1285.345306
 11
369.697305
 21
1285.345304
  0
LINE
  5
14B
100
AcDbEntity
  8
M0
 62
     6
100
AcDbLine
 10
369.697301
 20
1271.345304
 11
372.647301
 21
1271.345303
  0
LINE
  5
14C
100
AcDbEntity
  8
M0
 62
     6
100
AcDbLine
 10
360.697295
 20
1252.7453
 11
360.697298
 21
1262.845306
  0
LINE
  5
14D
100
AcDbEntity
  8
M0
 62
     6
100
AcDbLine
 10
359.697299
 20
1264.345307
 11
359.697298
 21
1262.845307
  0
LINE
  5
14E
100
AcDbEntity
  8
M0
 62
     6
100
AcDbLine
 10
360.697299
 20
1264.345306
 11
359.697299
 21
1264.345307
  0
LINE
  5
14F
100
AcDbEntity
  8
M0
 62
     6
100
AcDbLine
 10
360.697299
 20
1264.345306
 11
360.697307
 21
1291.345306
  0
LINE
  5
150
100
AcDbEntity
  8
M0
 62
     6
100
AcDbLine
 10
357.747301
 20
1271.345307
 11
360.697301
 21
1271.345306
  0
CIRCLE
  5
151
100
AcDbEntity
  8
M0
 62
     6
100
AcDbCircle
 10
365.197293
 20
1246.345305
 40
2.799999
  0
LINE
  5
152
100
AcDbEntity
  8
M0
 62
     6
100
AcDbLine
 10
144.847313
 20
1291.345303
 11
159.747313
 21
1291.345307
  0
LINE
  5
153
100
AcDbEntity
  8
M0
 62
     6
100
AcDbLine
 10
159.747313
 20
1291.345307
 11
159.747341
 21
1201.345307
  0
LINE
  5
154
100
AcDbEntity
  8
M0
 62
     6
100
AcDbLine
 10
159.747341
 20
1201.345307
 11
144.847341
 21
1201.345303
  0
LINE
  5
155
100
AcDbEntity
  8
M0
 62
     6
100
AcDbLine
 10
144.847341
 20
1201.345303
 11
144.847313
 21
1291.345303
  0
LINE
  5
156
100
AcDbEntity
  8
M0
  6
DASHDOT
 62
     6
100
AcDbLine
 10
139.847327
 20
1246.345301
 11
164.747327
 21
1246.345309
  0
LINE
  5
157
100
AcDbEntity
  8
M0
 62
     6
100
AcDbLine
 10
157.797333
 20
1228.345307
 11
157.797332
 21
1229.845307
  0
LINE
  5
158
100
AcDbEntity
  8
M0
 62
     6
100
AcDbLine
 10
146.797333
 20
1228.345303
 11
146.797332
 21
1229.845303
  0
LINE
  5
159
100
AcDbEntity
  8
M0
 62
     6
100
AcDbLine
 10
157.797332
 20
1229.845307
 11
146.797332
 21
1229.845303
  0
LINE
  5
15A
100
AcDbEntity
  8
M0
 62
     6
100
AcDbLine
 10
156.797329
 20
1239.945297
 11
156.797332
 21
1229.845306
  0
LINE
  5
15B
100
AcDbEntity
  8
M0
 62
     6
100
AcDbLine
 10
156.797333
 20
1228.345306
 11
156.797341
 21
1201.345306
  0
LINE
  5
15C
100
AcDbEntity
  8
M0
 62
     6
100
AcDbLine
 10
147.797329
 20
1239.945294
 11
147.797332
 21
1229.845304
  0
LINE
  5
15D
100
AcDbEntity
  8
M0
 62
     6
100
AcDbLine
 10
147.797333
 20
1228.345304
 11
147.797341
 21
1201.345304
  0
LINE
  5
15E
100
AcDbEntity
  8
M0
 62
     6
100
AcDbLine
 10
146.797333
 20
1228.345303
 11
147.797333
 21
1228.345304
  0
LINE
  5
15F
100
AcDbEntity
  8
M0
 62
     6
100
AcDbLine
 10
156.797333
 20
1228.345306
 11
157.797333
 21
1228.345307
  0
LINE
  5
160
100
AcDbEntity
  8
M0
 62
     6
100
AcDbLine
 10
147.797329
 20
1239.945294
 11
156.797329
 21
1239.945297
  0
LINE
  5
161
100
AcDbEntity
  8
M0
 62
     6
100
AcDbLine
 10
156.797339
 20
1207.345306
 11
147.797339
 21
1207.345304
  0
LINE
  5
162
100
AcDbEntity
  8
M0
 62
     6
100
AcDbLine
 10
159.747335
 20
1221.345307
 11
156.797335
 21
1221.345306
  0
LINE
  5
163
100
AcDbEntity
  8
M0
 62
     6
100
AcDbLine
 10
147.797335
 20
1221.345304
 11
144.847335
 21
1221.345303
  0
LINE
  5
164
100
AcDbEntity
  8
M0
 62
     6
100
AcDbLine
 10
146.797321
 20
1264.345303
 11
146.797322
 21
1262.845303
  0
LINE
  5
165
100
AcDbEntity
  8
M0
 62
     6
100
AcDbLine
 10
157.797322
 20
1262.845307
 11
146.797322
 21
1262.845303
  0
LINE
  5
166
100
AcDbEntity
  8
M0
 62
     6
100
AcDbLine
 10
147.797325
 20
1252.745298
 11
147.797322
 21
1262.845304
  0
LINE
  5
167
100
AcDbEntity
  8
M0
 62
     6
100
AcDbLine
 10
147.797321
 20
1264.345304
 11
147.797313
 21
1291.345304
  0
LINE
  5
168
100
AcDbEntity
  8
M0
 62
     6
100
AcDbLine
 10
146.797321
 20
1264.345303
 11
147.797321
 21
1264.345304
  0
LINE
  5
169
100
AcDbEntity
  8
M0
 62
     6
100
AcDbLine
 10
147.797325
 20
1252.745298
 11
156.797325
 21
1252.7453
  0
LINE
  5
16A
100
AcDbEntity
  8
M0
 62
     6
100
AcDbLine
 10
156.797315
 20
1285.345306
 11
147.797315
 21
1285.345304
  0
LINE
  5
16B
100
AcDbEntity
  8
M0
 62
     6
100
AcDbLine
 10
147.797319
 20
1271.345304
 11
144.847319
 21
1271.345303
  0
LINE
  5
16C
100
AcDbEntity
  8
M0
 62
     6
100
AcDbLine
 10
156.797325
 20
1252.7453
 11
156.797322
 21
1262.845306
  0
LINE
  5
16D
100
AcDbEntity
  8
M0
 62
     6
100
AcDbLine
 10
157.797321
 20
1264.345307
 11
157.797322
 21
1262.845307
  0
LINE
  5
16E
100
AcDbEntity
  8
M0
 62
     6
100
AcDbLine
 10
156.797321
 20
1264.345306
 11
157.797321
 21
1264.345307
  0
LINE
  5
16F
100
AcDbEntity
  8
M0
 62
     6
100
AcDbLine
 10
156.797321
 20
1264.345306
 11
156.797313
 21
1291.345306
  0
LINE
  5
170
100
AcDbEntity
  8
M0
 62
     6
100
AcDbLine
 10
159.747319
 20
1271.345307
 11
156.797319
 21
1271.345306
  0
CIRCLE
  5
171
100
AcDbEntity
  8
M0
 62
     6
100
AcDbCircle
 10
152.297327
 20
1246.345305
 40
2.799999
  0
LINE
  5
172
100
AcDbEntity
  8
M0
100
AcDbLine
 10
388.697307
 20
1121.34532
 11
388.697307
 21
1371.345305
  0
LINE
  5
173
100
AcDbEntity
  8
M0
100
AcDbLine
 10
388.697307
 20
1371.345305
 11
347.675868
 21
1371.345305
  0
LINE
  5
174
100
AcDbEntity
  8
M0
100
AcDbLine
 10
128.797313
 20
1371.345305
 11
128.797313
 21
1121.34532
  0
LINE
  5
175
100
AcDbEntity
  8
M0
100
AcDbLine
 10
128.797313
 20
1121.34532
 11
143.99731
 21
1121.34532
  0
LINE
  5
176
100
AcDbEntity
  8
M0
  6
DASHDOT
100
AcDbLine
 10
103.797313
 20
1246.345305
 11
414.687297
 21
1246.345305
  0
CIRCLE
  5
177
100
AcDbEntity
  8
M0
100
AcDbCircle
 10
173.74731
 20
1358.345305
 40
5.75
  0
CIRCLE
  5
178
100
AcDbEntity
  8
M0
100
AcDbCircle
 10
288.74731
 20
1358.345305
 40
5.75
  0
CIRCLE
  5
179
100
AcDbEntity
  8
M0
100
AcDbCircle
 10
343.74731
 20
1358.345305
 40
5.75
  0
CIRCLE
  5
17A
100
AcDbEntity
  8
M0
100
AcDbCircle
 10
288.74731
 20
1358.345305
 40
11.5
  0
LINE
  5
17B
100
AcDbEntity
  8
M0
100
AcDbLine
 10
360.697307
 20
1316.345305
 11
360.697307
 21
1314.345305
  0
LINE
  5
17C
100
AcDbEntity
  8
M0
100
AcDbLine
 10
388.697307
 20
1314.345305
 11
360.697307
 21
1314.345305
  0
LINE
  5
17D
100
AcDbEntity
  8
M0
100
AcDbLine
 10
388.697307
 20
1340.845305
 11
385.497295
 21
1340.845305
  0
LINE
  5
17E
100
AcDbEntity
  8
M0
100
AcDbLine
 10
385.497295
 20
1371.345305
 11
385.497295
 21
1340.845305
  0
LINE
  5
17F
100
AcDbEntity
  8
M0
100
AcDbLine
 10
385.497295
 20
1314.345305
 11
385.497295
 21
1291.345305
  0
LINE
  5
180
100
AcDbEntity
  8
M0
100
AcDbLine
 10
128.797313
 20
1340.845305
 11
131.567867
 21
1340.845305
  0
LINE
  5
181
100
AcDbEntity
  8
M0
100
AcDbLine
 10
131.997325
 20
1371.345305
 11
131.997325
 21
1340.845305
  0
CIRCLE
  5
182
100
AcDbEntity
  8
M0
100
AcDbCircle
 10
373.74731
 20
1330.345305
 40
5.0
  0
CIRCLE
  5
183
100
AcDbEntity
  8
M0
100
AcDbCircle
 10
143.74731
 20
1330.345305
 40
5.0
  0
LINE
  5
184
100
AcDbEntity
  8
M0
100
AcDbLine
 10
373.74731
 20
1121.34532
 11
388.697307
 21
1121.34532
  0
LINE
  5
185
100
AcDbEntity
  8
M0
100
AcDbLine
 10
308.74731
 20
1371.345305
 11
278.390163
 21
1371.345305
  0
LINE
  5
186
100
AcDbEntity
  8
M0
100
AcDbLine
 10
239.104457
 20
1371.345305
 11
209.104457
 21
1371.345305
  0
LINE
  5
187
100
AcDbEntity
  8
M0
100
AcDbLine
 10
169.818752
 20
1371.345305
 11
128.797313
 21
1371.345305
  0
ARC
  5
188
100
AcDbEntity
  8
M0
100
AcDbCircle
 10
173.74731
 20
1358.345305
 40
11.5
100
AcDbArc
 50
100.5818
 51
330.408018
  0
ARC
  5
189
100
AcDbEntity
  8
M0
100
AcDbCircle
 10
343.74731
 20
1358.345305
 40
11.5
100
AcDbArc
 50
209.591812
 51
439.418051
  0
LINE
  5
18A
100
AcDbEntity
  8
M0
100
AcDbLine
 10
348.74731
 20
1088.345305
 11
348.74731
 21
1120.345305
  0
LINE
  5
18B
100
AcDbEntity
  8
M0
100
AcDbLine
 10
308.74731
 20
1120.345305
 11
308.74731
 21
1088.345305
  0
LINE
  5
18C
100
AcDbEntity
  8
M0
100
AcDbLine
 10
308.74731
 20
1088.345305
 11
348.74731
 21
1088.345305
  0
LINE
  5
18D
100
AcDbEntity
  8
M0
100
AcDbLine
 10
303.74731
 20
1157.345305
 11
303.74731
 21
1134.345305
  0
LINE
  5
18E
100
AcDbEntity
  8
M0
100
AcDbLine
 10
308.74731
 20
1120.345305
 11
303.74731
 21
1134.345305
  0
LINE
  5
18F
100
AcDbEntity
  8
M0
100
AcDbLine
 10
333.74731
 20
1157.345305
 11
333.74731
 21
1134.345305
  0
LINE
  5
190
100
AcDbEntity
  8
M0
100
AcDbLine
 10
348.747295
 20
1120.345305
 11
333.74731
 21
1134.345305
  0
CIRCLE
  5
191
100
AcDbEntity
  8
M0
100
AcDbCircle
 10
328.74731
 20
1104.345305
 40
6.0
  0
LINE
  5
192
100
AcDbEntity
  8
M0
100
AcDbLine
 10
238.74731
 20
1088.345305
 11
278.74731
 21
1088.345305
  0
LINE
  5
193
100
AcDbEntity
  8
M0
  6
DASHDOT
100
AcDbLine
 10
258.74731
 20
1063.345275
 11
258.74731
 21
1246.345275
  0
LINE
  5
194
100
AcDbEntity
  8
M0
100
AcDbLine
 10
238.74731
 20
1120.345305
 11
238.74731
 21
1088.345305
  0
LINE
  5
195
100
AcDbEntity
  8
M0
100
AcDbLine
 10
278.74731
 20
1088.345305
 11
278.74731
 21
1120.345305
  0
LINE
  5
196
100
AcDbEntity
  8
M0
100
AcDbLine
 10
273.74731
 20
1157.345305
 11
273.74731
 21
1134.345305
  0
LINE
  5
197
100
AcDbEntity
  8
M0
100
AcDbLine
 10
273.74731
 20
1134.345305
 11
278.74731
 21
1120.345305
  0
LINE
  5
198
100
AcDbEntity
  8
M0
100
AcDbLine
 10
238.74731
 20
1120.345305
 11
243.74731
 21
1134.345305
  0
LINE
  5
199
100
AcDbEntity
  8
M0
100
AcDbLine
 10
243.74731
 20
1157.345305
 11
243.74731
 21
1134.345305
  0
CIRCLE
  5
19A
100
AcDbEntity
  8
M0
100
AcDbCircle
 10
258.74731
 20
1104.345305
 40
6.0
  0
LINE
  5
19B
100
AcDbEntity
  8
M0
 62
     6
100
AcDbLine
 10
258.74731
 20
1093.395232
 11
249.2644
 21
1098.870238
  0
LINE
  5
19C
100
AcDbEntity
  8
M0
 62
     6
100
AcDbLine
 10
249.2644
 20
1098.870238
 11
249.2644
 21
1109.82022
  0
LINE
  5
19D
100
AcDbEntity
  8
M0
 62
     6
100
AcDbLine
 10
249.2644
 20
1109.82022
 11
258.74731
 21
1115.295226
  0
LINE
  5
19E
100
AcDbEntity
  8
M0
 62
     6
100
AcDbLine
 10
258.74731
 20
1115.295226
 11
268.230464
 21
1109.82022
  0
LINE
  5
19F
100
AcDbEntity
  8
M0
 62
     6
100
AcDbLine
 10
268.230464
 20
1109.82022
 11
268.230464
 21
1098.870207
  0
LINE
  5
1A0
100
AcDbEntity
  8
M0
 62
     6
100
AcDbLine
 10
268.230464
 20
1098.870207
 11
258.74731
 21
1093.395232
  0
CIRCLE
  5
1A1
100
AcDbEntity
  8
M0
 62
     6
100
AcDbCircle
 10
258.74731
 20
1104.345214
 40
6.0
  0
LINE
  5
1A2
100
AcDbEntity
  8
M0
  6
DASHDOT
 62
     6
100
AcDbLine
 10
272.452632
 20
1104.34532
 11
245.042873
 21
1104.34532
  0
LINE
  5
1A3
100
AcDbEntity
  8
M0
  6
DASHDOT
 62
     6
100
AcDbLine
 10
258.747554
 20
1118.050246
 11
258.747798
 21
1090.640395
  0
LINE
  5
1A4
100
AcDbEntity
  8
M0
 62
     6
100
AcDbLine
 10
328.74731
 20
1093.395232
 11
319.2644
 21
1098.870238
  0
LINE
  5
1A5
100
AcDbEntity
  8
M0
 62
     6
100
AcDbLine
 10
319.2644
 20
1098.870238
 11
319.2644
 21
1109.82022
  0
LINE
  5
1A6
100
AcDbEntity
  8
M0
 62
     6
100
AcDbLine
 10
319.2644
 20
1109.82022
 11
328.74731
 21
1115.295226
  0
LINE
  5
1A7
100
AcDbEntity
  8
M0
 62
     6
100
AcDbLine
 10
328.74731
 20
1115.295226
 11
338.230464
 21
1109.82022
  0
LINE
  5
1A8
100
AcDbEntity
  8
M0
 62
     6
100
AcDbLine
 10
338.230464
 20
1109.82022
 11
338.230464
 21
1098.870207
  0
LINE
  5
1A9
100
AcDbEntity
  8
M0
 62
     6
100
AcDbLine
 10
338.230464
 20
1098.870207
 11
328.74731
 21
1093.395232
  0
CIRCLE
  5
1AA
100
AcDbEntity
  8
M0
 62
     6
100
AcDbCircle
 10
328.74731
 20
1104.345214
 40
6.0
  0
LINE
  5
1AB
100
AcDbEntity
  8
M0
  6
DASHDOT
 62
     6
100
AcDbLine
 10
342.452632
 20
1104.34532
 11
315.042873
 21
1104.34532
  0
LINE
  5
1AC
100
AcDbEntity
  8
M0
  6
DASHDOT
 62
     6
100
AcDbLine
 10
328.747554
 20
1118.050246
 11
328.747798
 21
1090.640395
  0
LINE
  5
1AD
100
AcDbEntity
  8
M0
100
AcDbLine
 10
168.74731
 20
1088.345305
 11
168.74731
 21
1120.345305
  0
LINE
  5
1AE
100
AcDbEntity
  8
M0
100
AcDbLine
 10
208.74731
 20
1120.345305
 11
208.74731
 21
1088.345305
  0
LINE
  5
1AF
100
AcDbEntity
  8
M0
100
AcDbLine
 10
208.74731
 20
1088.345305
 11
168.74731
 21
1088.345305
  0
LINE
  5
1B0
100
AcDbEntity
  8
M0
100
AcDbLine
 10
213.74731
 20
1157.345305
 11
213.74731
 21
1134.345305
  0
LINE
  5
1B1
100
AcDbEntity
  8
M0
100
AcDbLine
 10
208.74731
 20
1120.345305
 11
213.74731
 21
1134.345305
  0
LINE
  5
1B2
100
AcDbEntity
  8
M0
100
AcDbLine
 10
183.74731
 20
1157.345305
 11
183.74731
 21
1134.345305
  0
LINE
  5
1B3
100
AcDbEntity
  8
M0
100
AcDbLine
 10
168.747325
 20
1120.345305
 11
183.74731
 21
1134.345305
  0
CIRCLE
  5
1B4
100
AcDbEntity
  8
M0
100
AcDbCircle
 10
188.74731
 20
1104.345305
 40
6.0
  0
LINE
  5
1B5
100
AcDbEntity
  8
M0
 62
     6
100
AcDbLine
 10
188.74731
 20
1093.395232
 11
198.23022
 21
1098.870238
  0
LINE
  5
1B6
100
AcDbEntity
  8
M0
 62
     6
100
AcDbLine
 10
198.23022
 20
1098.870238
 11
198.23022
 21
1109.82022
  0
LINE
  5
1B7
100
AcDbEntity
  8
M0
 62
     6
100
AcDbLine
 10
198.23022
 20
1109.82022
 11
188.74731
 21
1115.295226
  0
LINE
  5
1B8
100
AcDbEntity
  8
M0
 62
     6
100
AcDbLine
 10
188.74731
 20
1115.295226
 11
179.264156
 21
1109.82022
  0
LINE
  5
1B9
100
AcDbEntity
  8
M0
 62
     6
100
AcDbLine
 10
179.264156
 20
1109.82022
 11
179.264156
 21
1098.870207
  0
LINE
  5
1BA
100
AcDbEntity
  8
M0
 62
     6
100
AcDbLine
 10
179.264156
 20
1098.870207
 11
188.74731
 21
1093.395232
  0
CIRCLE
  5
1BB
100
AcDbEntity
  8
M0
 62
     6
100
AcDbCircle
 10
188.74731
 20
1104.345214
 40
6.0
  0
LINE
  5
1BC
100
AcDbEntity
  8
M0
  6
DASHDOT
 62
     6
100
AcDbLine
 10
175.041988
 20
1104.34532
 11
202.451747
 21
1104.34532
  0
LINE
  5
1BD
100
AcDbEntity
  8
M0
  6
DASHDOT
 62
     6
100
AcDbLine
 10
188.747066
 20
1118.050246
 11
188.746822
 21
1090.640395
  0
LINE
  5
1BE
100
AcDbEntity
  8
M0
100
AcDbLine
 10
168.747236
 20
1404.345292
 11
168.747256
 21
1372.345292
  0
LINE
  5
1BF
100
AcDbEntity
  8
M0
100
AcDbLine
 10
208.747256
 20
1372.345318
 11
208.747236
 21
1404.345318
  0
LINE
  5
1C0
100
AcDbEntity
  8
M0
100
AcDbLine
 10
208.747236
 20
1404.345318
 11
168.747236
 21
1404.345292
  0
LINE
  5
1C1
100
AcDbEntity
  8
M0
100
AcDbLine
 10
213.747279
 20
1335.345321
 11
213.747265
 21
1358.345321
  0
LINE
  5
1C2
100
AcDbEntity
  8
M0
100
AcDbLine
 10
208.747256
 20
1372.345318
 11
213.747265
 21
1358.345321
  0
LINE
  5
1C3
100
AcDbEntity
  8
M0
100
AcDbLine
 10
183.747279
 20
1335.345302
 11
183.747265
 21
1358.345302
  0
LINE
  5
1C4
100
AcDbEntity
  8
M0
100
AcDbLine
 10
168.747272
 20
1372.345292
 11
183.747265
 21
1358.345302
  0
CIRCLE
  5
1C5
100
AcDbEntity
  8
M0
100
AcDbCircle
 10
188.747246
 20
1388.345305
 40
6.0
  0
LINE
  5
1C6
100
AcDbEntity
  8
M0
100
AcDbLine
 10
238.747236
 20
1404.345292
 11
278.747236
 21
1404.345318
  0
LINE
  5
1C7
100
AcDbEntity
  8
M0
  6
DASHDOT
100
AcDbLine
 10
258.746976
 20
1429.345275
 11
258.747091
 21
1246.345275
  0
LINE
  5
1C8
100
AcDbEntity
  8
M0
100
AcDbLine
 10
238.747256
 20
1372.345292
 11
238.747236
 21
1404.345292
  0
LINE
  5
1C9
100
AcDbEntity
  8
M0
100
AcDbLine
 10
278.747236
 20
1404.345318
 11
278.747256
 21
1372.345318
  0
LINE
  5
1CA
100
AcDbEntity
  8
M0
100
AcDbLine
 10
273.747279
 20
1335.345314
 11
273.747265
 21
1358.345314
  0
LINE
  5
1CB
100
AcDbEntity
  8
M0
100
AcDbLine
 10
273.747265
 20
1358.345314
 11
278.747256
 21
1372.345318
  0
LINE
  5
1CC
100
AcDbEntity
  8
M0
100
AcDbLine
 10
238.747256
 20
1372.345292
 11
243.747265
 21
1358.345296
  0
LINE
  5
1CD
100
AcDbEntity
  8
M0
100
AcDbLine
 10
243.747279
 20
1335.345296
 11
243.747265
 21
1358.345296
  0
CIRCLE
  5
1CE
100
AcDbEntity
  8
M0
100
AcDbCircle
 10
258.747246
 20
1388.345305
 40
6.0
  0
LINE
  5
1CF
100
AcDbEntity
  8
M0
100
AcDbLine
 10
348.747236
 20
1404.345318
 11
348.747256
 21
1372.345318
  0
LINE
  5
1D0
100
AcDbEntity
  8
M0
100
AcDbLine
 10
308.747256
 20
1372.345292
 11
308.747236
 21
1404.345292
  0
LINE
  5
1D1
100
AcDbEntity
  8
M0
100
AcDbLine
 10
308.747236
 20
1404.345292
 11
348.747236
 21
1404.345318
  0
LINE
  5
1D2
100
AcDbEntity
  8
M0
100
AcDbLine
 10
303.747279
 20
1335.345289
 11
303.747265
 21
1358.345289
  0
LINE
  5
1D3
100
AcDbEntity
  8
M0
100
AcDbLine
 10
308.747256
 20
1372.345292
 11
303.747265
 21
1358.345289
  0
LINE
  5
1D4
100
AcDbEntity
  8
M0
100
AcDbLine
 10
333.747279
 20
1335.345308
 11
333.747265
 21
1358.345308
  0
LINE
  5
1D5
100
AcDbEntity
  8
M0
100
AcDbLine
 10
348.747241
 20
1372.345318
 11
333.747265
 21
1358.345308
  0
CIRCLE
  5
1D6
100
AcDbEntity
  8
M0
100
AcDbCircle
 10
328.747246
 20
1388.345305
 40
6.0
  0
LINE
  5
1D7
100
AcDbEntity
  8
M0
 62
     6
100
AcDbLine
 10
328.747239
 20
1399.295378
 11
319.264333
 21
1393.820366
  0
LINE
  5
1D8
100
AcDbEntity
  8
M0
 62
     6
100
AcDbLine
 10
319.264333
 20
1393.820366
 11
319.264339
 21
1382.870385
  0
LINE
  5
1D9
100
AcDbEntity
  8
M0
 62
     6
100
AcDbLine
 10
319.264339
 20
1382.870385
 11
328.747253
 21
1377.395384
  0
LINE
  5
1DA
100
AcDbEntity
  8
M0
 62
     6
100
AcDbLine
 10
328.747253
 20
1377.395384
 11
338.230404
 21
1382.870396
  0
LINE
  5
1DB
100
AcDbEntity
  8
M0
 62
     6
100
AcDbLine
 10
338.230404
 20
1382.870396
 11
338.230397
 21
1393.820409
  0
LINE
  5
1DC
100
AcDbEntity
  8
M0
 62
     6
100
AcDbLine
 10
338.230397
 20
1393.820409
 11
328.747239
 21
1399.295378
  0
CIRCLE
  5
1DD
100
AcDbEntity
  8
M0
 62
     6
100
AcDbCircle
 10
328.747246
 20
1388.345397
 40
6.0
  0
LINE
  5
1DE
100
AcDbEntity
  8
M0
  6
DASHDOT
 62
     6
100
AcDbLine
 10
342.452568
 20
1388.345298
 11
315.042809
 21
1388.345281
  0
LINE
  5
1DF
100
AcDbEntity
  8
M0
  6
DASHDOT
 62
     6
100
AcDbLine
 10
328.747499
 20
1374.640364
 11
328.747726
 21
1402.050215
  0
LINE
  5
1E0
100
AcDbEntity
  8
M0
 62
     6
100
AcDbLine
 10
258.747239
 20
1399.295378
 11
249.264333
 21
1393.820366
  0
LINE
  5
1E1
100
AcDbEntity
  8
M0
 62
     6
100
AcDbLine
 10
249.264333
 20
1393.820366
 11
249.264339
 21
1382.870385
  0
LINE
  5
1E2
100
AcDbEntity
  8
M0
 62
     6
100
AcDbLine
 10
249.264339
 20
1382.870385
 11
258.747253
 21
1377.395384
  0
LINE
  5
1E3
100
AcDbEntity
  8
M0
 62
     6
100
AcDbLine
 10
258.747253
 20
1377.395384
 11
268.230404
 21
1382.870396
  0
LINE
  5
1E4
100
AcDbEntity
  8
M0
 62
     6
100
AcDbLine
 10
268.230404
 20
1382.870396
 11
268.230397
 21
1393.820409
  0
LINE
  5
1E5
100
AcDbEntity
  8
M0
 62
     6
100
AcDbLine
 10
268.230397
 20
1393.820409
 11
258.747239
 21
1399.295378
  0
CIRCLE
  5
1E6
100
AcDbEntity
  8
M0
 62
     6
100
AcDbCircle
 10
258.747246
 20
1388.345397
 40
6.0
  0
LINE
  5
1E7
100
AcDbEntity
  8
M0
  6
DASHDOT
 62
     6
100
AcDbLine
 10
272.452568
 20
1388.345298
 11
245.042809
 21
1388.345281
  0
LINE
  5
1E8
100
AcDbEntity
  8
M0
  6
DASHDOT
 62
     6
100
AcDbLine
 10
258.747499
 20
1374.640364
 11
258.747726
 21
1402.050215
  0
LINE
  5
1E9
100
AcDbEntity
  8
M0
 62
     6
100
AcDbLine
 10
188.747239
 20
1399.295378
 11
198.230153
 21
1393.820378
  0
LINE
  5
1EA
100
AcDbEntity
  8
M0
 62
     6
100
AcDbLine
 10
198.230153
 20
1393.820378
 11
198.23016
 21
1382.870396
  0
LINE
  5
1EB
100
AcDbEntity
  8
M0
 62
     6
100
AcDbLine
 10
198.23016
 20
1382.870396
 11
188.747253
 21
1377.395384
  0
LINE
  5
1EC
100
AcDbEntity
  8
M0
 62
     6
100
AcDbLine
 10
188.747253
 20
1377.395384
 11
179.264095
 21
1382.870385
  0
LINE
  5
1ED
100
AcDbEntity
  8
M0
 62
     6
100
AcDbLine
 10
179.264095
 20
1382.870385
 11
179.264088
 21
1393.820397
  0
LINE
  5
1EE
100
AcDbEntity
  8
M0
 62
     6
100
AcDbLine
 10
179.264088
 20
1393.820397
 11
188.747239
 21
1399.295378
  0
CIRCLE
  5
1EF
100
AcDbEntity
  8
M0
 62
     6
100
AcDbCircle
 10
188.747246
 20
1388.345397
 40
6.0
  0
LINE
  5
1F0
100
AcDbEntity
  8
M0
  6
DASHDOT
 62
     6
100
AcDbLine
 10
175.041924
 20
1388.345281
 11
202.451683
 21
1388.345298
  0
LINE
  5
1F1
100
AcDbEntity
  8
M0
  6
DASHDOT
 62
     6
100
AcDbLine
 10
188.747011
 20
1374.640364
 11
188.746749
 21
1402.050215
  0
ARC
  5
1F2
100
AcDbEntity
  8
M0
 62
     2
100
AcDbCircle
 10
133.74731
 20
1336.345305
 40
5.0
100
AcDbArc
 50
89.999825
 51
180.0
  0
LINE
  5
1F3
100
AcDbEntity
  8
M0
 62
     2
100
AcDbLine
 10
168.74731
 20
1341.345305
 11
133.74731
 21
1341.345305
  0
ARC
  5
1F4
100
AcDbEntity
  8
M0
 62
     2
100
AcDbCircle
 10
168.74731
 20
1337.345305
 40
4.0
100
AcDbArc
 50
0.0
 51
89.999781
  0
LINE
  5
1F5
100
AcDbEntity
  8
M0
 62
     2
100
AcDbLine
 10
128.74731
 20
1316.345305
 11
162.74731
 21
1316.345305
  0
LINE
  5
1F6
100
AcDbEntity
  8
M0
 62
     2
100
AcDbLine
 10
128.74731
 20
1336.345305
 11
128.74731
 21
1126.34532
  0
ARC
  5
1F7
100
AcDbEntity
  8
M0
 62
     2
100
AcDbCircle
 10
133.74731
 20
1126.34532
 40
5.0
100
AcDbArc
 50
179.999825
 51
270.0
  0
ARC
  5
1F8
100
AcDbEntity
  8
M0
 62
     2
100
AcDbCircle
 10
168.74731
 20
1155.345306
 40
4.0
100
AcDbArc
 50
270.0
 51
360.0
  0
ARC
  5
1F9
100
AcDbEntity
  8
M0
 62
     2
100
AcDbCircle
 10
166.74731
 20
1155.345306
 40
4.0
100
AcDbArc
 50
179.999973
 51
270.0
  0
LINE
  5
1FA
100
AcDbEntity
  8
M0
 62
     2
100
AcDbLine
 10
168.74731
 20
1151.345306
 11
150.74731
 21
1151.345306
  0
LINE
  5
1FB
100
AcDbEntity
  8
M0
 62
     2
100
AcDbLine
 10
145.74731
 20
1151.345306
 11
128.74731
 21
1151.345306
  0
LINE
  5
1FC
100
AcDbEntity
  8
M0
 62
     2
100
AcDbLine
 10
133.74731
 20
1121.34532
 11
153.484721
 21
1121.34532
  0
ARC
  5
1FD
100
AcDbEntity
  8
M0
 62
     2
100
AcDbCircle
 10
153.484721
 20
1126.34532
 40
5.0
100
AcDbArc
 50
270.0
 51
336.250608
  0
LINE
  5
1FE
100
AcDbEntity
  8
M0
  6
DASHDOT
 62
     2
100
AcDbLine
 10
112.747325
 20
1329.345305
 11
174.74731
 21
1329.345305
  0
LINE
  5
1FF
100
AcDbEntity
  8
M0
  6
DASHDOT
 62
     2
100
AcDbLine
 10
143.74731
 20
1298.345305
 11
143.74731
 21
1360.345305
  0
ARC
  5
200
100
AcDbEntity
  8
M0
 62
     2
100
AcDbCircle
 10
143.74731
 20
1329.345305
 40
6.0
100
AcDbArc
 50
131.40952
 51
228.590577
  0
ARC
  5
201
100
AcDbEntity
  8
M0
 62
     2
100
AcDbCircle
 10
143.74731
 20
1329.345305
 40
6.0
100
AcDbArc
 50
311.409533
 51
408.590165
  0
LINE
  5
202
100
AcDbEntity
  8
M0
 62
     2
100
AcDbLine
 10
147.715938
 20
1324.845305
 11
139.778697
 21
1324.845305
  0
LINE
  5
203
100
AcDbEntity
  8
M0
 62
     2
100
AcDbLine
 10
147.715938
 20
1333.845305
 11
139.778697
 21
1333.845305
  0
LINE
  5
204
100
AcDbEntity
  8
M0
  6
DASHDOT
 62
     2
100
AcDbLine
 10
112.747325
 20
1136.345307
 11
174.74731
 21
1136.345307
  0
LINE
  5
205
100
AcDbEntity
  8
M0
  6
DASHDOT
 62
     2
100
AcDbLine
 10
143.74731
 20
1105.34532
 11
143.74731
 21
1167.345305
  0
ARC
  5
206
100
AcDbEntity
  8
M0
 62
     2
100
AcDbCircle
 10
143.74731
 20
1136.345307
 40
6.0
100
AcDbArc
 50
131.409441
 51
228.590522
  0
ARC
  5
207
100
AcDbEntity
  8
M0
 62
     2
100
AcDbCircle
 10
143.74731
 20
1136.345307
 40
6.0
100
AcDbArc
 50
311.409611
 51
408.590371
  0
LINE
  5
208
100
AcDbEntity
  8
M0
 62
     2
100
AcDbLine
 10
147.715938
 20
1131.845307
 11
139.778697
 21
1131.845307
  0
LINE
  5
209
100
AcDbEntity
  8
M0
 62
     2
100
AcDbLine
 10
147.715938
 20
1140.845307
 11
139.778697
 21
1140.845307
  0
LINE
  5
20A
100
AcDbEntity
  8
M0
 62
     2
100
AcDbLine
 10
167.74731
 20
1146.345306
 11
167.74731
 21
1151.345306
  0
LINE
  5
20B
100
AcDbEntity
  8
M0
 62
     2
100
AcDbLine
 10
128.74731
 20
1201.345305
 11
161.24731
 21
1201.345305
  0
LINE
  5
20C
100
AcDbEntity
  8
M0
 62
     2
100
AcDbLine
 10
145.74731
 20
1201.345305
 11
145.74731
 21
1151.345306
  0
LINE
  5
20D
100
AcDbEntity
  8
M0
 62
     2
100
AcDbLine
 10
150.74731
 20
1151.345306
 11
150.74731
 21
1201.345305
  0
LINE
  5
20E
100
AcDbEntity
  8
M0
 62
     2
100
AcDbLine
 10
145.74731
 20
1164.345305
 11
148.24731
 21
1167.345305
  0
LINE
  5
20F
100
AcDbEntity
  8
M0
 62
     2
100
AcDbLine
 10
145.74731
 20
1151.345306
 11
148.24731
 21
1154.345306
  0
LINE
  5
210
100
AcDbEntity
  8
M0
 62
     2
100
AcDbLine
 10
150.74731
 20
1164.345305
 11
148.24731
 21
1167.345305
  0
LINE
  5
211
100
AcDbEntity
  8
M0
 62
     2
100
AcDbLine
 10
150.74731
 20
1151.345306
 11
148.24731
 21
1154.345306
  0
LINE
  5
212
100
AcDbEntity
  8
M0
 62
     2
100
AcDbLine
 10
128.74731
 20
1164.345305
 11
145.74731
 21
1164.345305
  0
LINE
  5
213
100
AcDbEntity
  8
M0
 62
     2
100
AcDbLine
 10
150.74731
 20
1164.345305
 11
162.74731
 21
1164.345305
  0
LINE
  5
214
100
AcDbEntity
  8
M0
 62
     2
100
AcDbLine
 10
148.24731
 20
1201.345305
 11
148.24731
 21
1154.345306
  0
LINE
  5
215
100
AcDbEntity
  8
M0
 62
     2
100
AcDbLine
 10
133.74731
 20
1164.345305
 11
133.74731
 21
1191.845305
  0
LINE
  5
216
100
AcDbEntity
  8
M0
 62
     2
100
AcDbLine
 10
142.74731
 20
1164.345305
 11
142.74731
 21
1191.845305
  0
LINE
  5
217
100
AcDbEntity
  8
M0
 62
     2
100
AcDbLine
 10
153.74731
 20
1191.845305
 11
153.74731
 21
1164.345305
  0
LINE
  5
218
100
AcDbEntity
  8
M0
 62
     2
100
AcDbLine
 10
133.74731
 20
1194.345305
 11
133.74731
 21
1201.345305
  0
ARC
  5
219
100
AcDbEntity
  8
M0
 62
     2
100
AcDbCircle
 10
135.74731
 20
1194.345305
 40
2.0
100
AcDbArc
 50
180.0
 51
270.0
  0
LINE
  5
21A
100
AcDbEntity
  8
M0
 62
     2
100
AcDbLine
 10
142.74731
 20
1194.345305
 11
142.74731
 21
1201.345305
  0
LINE
  5
21B
100
AcDbEntity
  8
M0
 62
     2
100
AcDbLine
 10
153.74731
 20
1201.345305
 11
153.74731
 21
1194.345305
  0
ARC
  5
21C
100
AcDbEntity
  8
M0
 62
     2
100
AcDbCircle
 10
155.74731
 20
1194.345305
 40
2.0
100
AcDbArc
 50
180.0
 51
270.0
  0
LINE
  5
21D
100
AcDbEntity
  8
M0
 62
     2
100
AcDbLine
 10
158.06129
 20
1124.331618
 11
167.74731
 21
1146.345306
  0
LINE
  5
21E
100
AcDbEntity
  8
M0
 62
     2
100
AcDbLine
 10
135.74731
 20
1192.345305
 11
140.74731
 21
1192.345305
  0
ARC
  5
21F
100
AcDbEntity
  8
M0
 62
     2
100
AcDbCircle
 10
140.74731
 20
1194.345305
 40
2.0
100
AcDbArc
 50
270.0
 51
360.0
  0
LINE
  5
220
100
AcDbEntity
  8
M0
 62
     2
100
AcDbLine
 10
155.74731
 20
1192.345305
 11
162.74731
 21
1192.345305
  0
LINE
  5
221
100
AcDbEntity
  8
M0
 62
     2
100
AcDbLine
 10
153.74731
 20
1191.845305
 11
162.74731
 21
1191.845305
  0
LINE
  5
222
100
AcDbEntity
  8
M0
 62
     2
100
AcDbLine
 10
133.74731
 20
1191.845305
 11
142.74731
 21
1191.845305
  0
CIRCLE
  5
223
100
AcDbEntity
  8
M0
 62
     2
100
AcDbCircle
 10
138.24731
 20
1169.345305
 40
3.0
  0
CIRCLE
  5
224
100
AcDbEntity
  8
M0
 62
     2
100
AcDbCircle
 10
138.24731
 20
1177.345305
 40
3.0
  0
CIRCLE
  5
225
100
AcDbEntity
  8
M0
 62
     2
100
AcDbCircle
 10
138.24731
 20
1185.345305
 40
3.0
  0
CIRCLE
  5
226
100
AcDbEntity
  8
M0
 62
     2
100
AcDbCircle
 10
158.24731
 20
1169.345305
 40
3.0
  0
CIRCLE
  5
227
100
AcDbEntity
  8
M0
 62
     2
100
AcDbCircle
 10
158.24731
 20
1177.345305
 40
3.0
  0
CIRCLE
  5
228
100
AcDbEntity
  8
M0
 62
     2
100
AcDbCircle
 10
158.24731
 20
1185.345305
 40
3.0
  0
ARC
  5
229
100
AcDbEntity
  8
M0
 62
     2
100
AcDbCircle
 10
383.74731
 20
1336.345305
 40
5.0
100
AcDbArc
 50
0.0
 51
90.0
  0
LINE
  5
22A
100
AcDbEntity
  8
M0
 62
     2
100
AcDbLine
 10
348.74731
 20
1341.345305
 11
383.74731
 21
1341.345305
  0
ARC
  5
22B
100
AcDbEntity
  8
M0
 62
     2
100
AcDbCircle
 10
348.74731
 20
1337.345305
 40
4.0
100
AcDbArc
 50
90.0
 51
180.0
  0
LINE
  5
22C
100
AcDbEntity
  8
M0
 62
     2
100
AcDbLine
 10
388.74731
 20
1316.345305
 11
354.74731
 21
1316.345305
  0
LINE
  5
22D
100
AcDbEntity
  8
M0
 62
     2
100
AcDbLine
 10
388.74731
 20
1336.345305
 11
388.74731
 21
1126.34532
  0
ARC
  5
22E
100
AcDbEntity
  8
M0
 62
     2
100
AcDbCircle
 10
383.74731
 20
1126.34532
 40
5.0
100
AcDbArc
 50
-90.000175
 51
0.0
  0
ARC
  5
22F
100
AcDbEntity
  8
M0
 62
     2
100
AcDbCircle
 10
348.74731
 20
1155.345306
 40
4.0
100
AcDbArc
 50
179.999973
 51
269.999781
  0
ARC
  5
230
100
AcDbEntity
  8
M0
 62
     2
100
AcDbCircle
 10
350.74731
 20
1155.345306
 40
4.0
100
AcDbArc
 50
-90.000219
 51
0.0
  0
LINE
  5
231
100
AcDbEntity
  8
M0
 62
     2
100
AcDbLine
 10
348.74731
 20
1151.345306
 11
366.74731
 21
1151.345306
  0
LINE
  5
232
100
AcDbEntity
  8
M0
 62
     2
100
AcDbLine
 10
371.74731
 20
1151.345306
 11
388.74731
 21
1151.345306
  0
LINE
  5
233
100
AcDbEntity
  8
M0
 62
     2
100
AcDbLine
 10
383.74731
 20
1121.34532
 11
364.009898
 21
1121.34532
  0
ARC
  5
234
100
AcDbEntity
  8
M0
 62
     2
100
AcDbCircle
 10
364.009898
 20
1126.34532
 40
5.0
100
AcDbArc
 50
203.749232
 51
269.999825
  0
LINE
  5
235
100
AcDbEntity
  8
M0
  6
DASHDOT
 62
     2
100
AcDbLine
 10
404.747295
 20
1329.345305
 11
342.74731
 21
1329.345305
  0
LINE
  5
236
100
AcDbEntity
  8
M0
  6
DASHDOT
 62
     2
100
AcDbLine
 10
373.74731
 20
1298.345305
 11
373.74731
 21
1360.345305
  0
ARC
  5
237
100
AcDbEntity
  8
M0
 62
     2
100
AcDbCircle
 10
373.74731
 20
1329.345305
 40
6.0
100
AcDbArc
 50
-48.590686
 51
48.59048
  0
ARC
  5
238
100
AcDbEntity
  8
M0
 62
     2
100
AcDbCircle
 10
373.74731
 20
1329.345305
 40
6.0
100
AcDbArc
 50
131.409629
 51
228.590371
  0
LINE
  5
239
100
AcDbEntity
  8
M0
 62
     2
100
AcDbLine
 10
369.778682
 20
1324.845305
 11
377.715923
 21
1324.845305
  0
LINE
  5
23A
100
AcDbEntity
  8
M0
 62
     2
100
AcDbLine
 10
369.778682
 20
1333.845305
 11
377.715923
 21
1333.845305
  0
LINE
  5
23B
100
AcDbEntity
  8
M0
  6
DASHDOT
 62
     2
100
AcDbLine
 10
404.747295
 20
1136.345307
 11
342.74731
 21
1136.345307
  0
LINE
  5
23C
100
AcDbEntity
  8
M0
  6
DASHDOT
 62
     2
100
AcDbLine
 10
373.74731
 20
1105.34532
 11
373.74731
 21
1167.345305
  0
ARC
  5
23D
100
AcDbEntity
  8
M0
 62
     2
100
AcDbCircle
 10
373.74731
 20
1136.345307
 40
6.0
100
AcDbArc
 50
-48.590674
 51
48.590547
  0
ARC
  5
23E
100
AcDbEntity
  8
M0
 62
     2
100
AcDbCircle
 10
373.74731
 20
1136.345307
 40
6.0
100
AcDbArc
 50
131.409623
 51
228.590232
  0
LINE
  5
23F
100
AcDbEntity
  8
M0
 62
     2
100
AcDbLine
 10
369.778682
 20
1131.845307
 11
377.715923
 21
1131.845307
  0
LINE
  5
240
100
AcDbEntity
  8
M0
 62
     2
100
AcDbLine
 10
369.778682
 20
1140.845307
 11
377.715923
 21
1140.845307
  0
LINE
  5
241
100
AcDbEntity
  8
M0
 62
     2
100
AcDbLine
 10
349.74731
 20
1146.345306
 11
349.74731
 21
1151.345306
  0
LINE
  5
242
100
AcDbEntity
  8
M0
 62
     2
100
AcDbLine
 10
388.74731
 20
1201.345305
 11
356.247295
 21
1201.345305
  0
LINE
  5
243
100
AcDbEntity
  8
M0
 62
     2
100
AcDbLine
 10
371.74731
 20
1201.345305
 11
371.74731
 21
1151.345306
  0
LINE
  5
244
100
AcDbEntity
  8
M0
 62
     2
100
AcDbLine
 10
366.74731
 20
1151.345306
 11
366.74731
 21
1201.345305
  0
LINE
  5
245
100
AcDbEntity
  8
M0
 62
     2
100
AcDbLine
 10
371.74731
 20
1164.345305
 11
369.24731
 21
1167.345305
  0
LINE
  5
246
100
AcDbEntity
  8
M0
 62
     2
100
AcDbLine
 10
371.74731
 20
1151.345306
 11
369.24731
 21
1154.345306
  0
LINE
  5
247
100
AcDbEntity
  8
M0
 62
     2
100
AcDbLine
 10
366.74731
 20
1164.345305
 11
369.24731
 21
1167.345305
  0
LINE
  5
248
100
AcDbEntity
  8
M0
 62
     2
100
AcDbLine
 10
366.74731
 20
1151.345306
 11
369.24731
 21
1154.345306
  0
LINE
  5
249
100
AcDbEntity
  8
M0
 62
     2
100
AcDbLine
 10
388.74731
 20
1164.345305
 11
371.74731
 21
1164.345305
  0
LINE
  5
24A
100
AcDbEntity
  8
M0
 62
     2
100
AcDbLine
 10
366.74731
 20
1164.345305
 11
354.74731
 21
1164.345305
  0
LINE
  5
24B
100
AcDbEntity
  8
M0
 62
     2
100
AcDbLine
 10
369.24731
 20
1201.345305
 11
369.24731
 21
1154.345306
  0
LINE
  5
24C
100
AcDbEntity
  8
M0
 62
     2
100
AcDbLine
 10
383.74731
 20
1164.345305
 11
383.74731
 21
1191.845305
  0
LINE
  5
24D
100
AcDbEntity
  8
M0
 62
     2
100
AcDbLine
 10
374.74731
 20
1164.345305
 11
374.74731
 21
1191.845305
  0
LINE
  5
24E
100
AcDbEntity
  8
M0
 62
     2
100
AcDbLine
 10
363.74731
 20
1191.845305
 11
363.74731
 21
1164.345305
  0
LINE
  5
24F
100
AcDbEntity
  8
M0
 62
     2
100
AcDbLine
 10
383.74731
 20
1194.345305
 11
383.74731
 21
1201.345305
  0
ARC
  5
250
100
AcDbEntity
  8
M0
 62
     2
100
AcDbCircle
 10
381.74731
 20
1194.345305
 40
2.0
100
AcDbArc
 50
-90.000437
 51
0.0
  0
LINE
  5
251
100
AcDbEntity
  8
M0
 62
     2
100
AcDbLine
 10
374.74731
 20
1194.345305
 11
374.74731
 21
1201.345305
  0
LINE
  5
252
100
AcDbEntity
  8
M0
 62
     2
100
AcDbLine
 10
363.74731
 20
1201.345305
 11
363.74731
 21
1194.345305
  0
ARC
  5
253
100
AcDbEntity
  8
M0
 62
     2
100
AcDbCircle
 10
361.74731
 20
1194.345305
 40
2.0
100
AcDbArc
 50
-90.000437
 51
0.0
  0
LINE
  5
254
100
AcDbEntity
  8
M0
 62
     2
100
AcDbLine
 10
359.43333
 20
1124.331618
 11
349.74731
 21
1146.345306
  0
LINE
  5
255
100
AcDbEntity
  8
M0
 62
     2
100
AcDbLine
 10
381.74731
 20
1192.345305
 11
376.74731
 21
1192.345305
  0
ARC
  5
256
100
AcDbEntity
  8
M0
 62
     2
100
AcDbCircle
 10
376.74731
 20
1194.345305
 40
2.0
100
AcDbArc
 50
180.0
 51
269.999563
  0
LINE
  5
257
100
AcDbEntity
  8
M0
 62
     2
100
AcDbLine
 10
361.74731
 20
1192.345305
 11
354.74731
 21
1192.345305
  0
LINE
  5
258
100
AcDbEntity
  8
M0
 62
     2
100
AcDbLine
 10
363.74731
 20
1191.845305
 11
354.74731
 21
1191.845305
  0
LINE
  5
259
100
AcDbEntity
  8
M0
 62
     2
100
AcDbLine
 10
383.74731
 20
1191.845305
 11
374.74731
 21
1191.845305
  0
CIRCLE
  5
25A
100
AcDbEntity
  8
M0
 62
     2
100
AcDbCircle
 10
379.24731
 20
1169.345305
 40
3.0
  0
CIRCLE
  5
25B
100
AcDbEntity
  8
M0
 62
     2
100
AcDbCircle
 10
379.24731
 20
1177.345305
 40
3.0
  0
CIRCLE
  5
25C
100
AcDbEntity
  8
M0
 62
     2
100
AcDbCircle
 10
379.24731
 20
1185.345305
 40
3.0
  0
CIRCLE
  5
25D
100
AcDbEntity
  8
M0
 62
     2
100
AcDbCircle
 10
359.24731
 20
1169.345305
 40
3.0
  0
CIRCLE
  5
25E
100
AcDbEntity
  8
M0
 62
     2
100
AcDbCircle
 10
359.24731
 20
1177.345305
 40
3.0
  0
CIRCLE
  5
25F
100
AcDbEntity
  8
M0
 62
     2
100
AcDbCircle
 10
359.24731
 20
1185.345305
 40
3.0
  0
LINE
  5
260
100
AcDbEntity
  8
M0
 62
     6
100
AcDbLine
 10
387.547209
 20
1291.345303
 11
372.64721
 21
1291.345307
  0
LINE
  5
261
100
AcDbEntity
  8
M0
 62
     6
100
AcDbLine
 10
372.64721
 20
1291.345307
 11
372.647181
 21
1201.345307
  0
LINE
  5
262
100
AcDbEntity
  8
M0
 62
     6
100
AcDbLine
 10
372.647181
 20
1201.345307
 11
387.547181
 21
1201.345303
  0
LINE
  5
263
100
AcDbEntity
  8
M0
 62
     6
100
AcDbLine
 10
387.547181
 20
1201.345303
 11
387.547209
 21
1291.345303
  0
LINE
  5
264
100
AcDbEntity
  8
M0
  6
DASHDOT
 62
     6
100
AcDbLine
 10
392.547195
 20
1246.345301
 11
367.647195
 21
1246.345309
  0
LINE
  5
265
100
AcDbEntity
  8
M0
 62
     6
100
AcDbLine
 10
374.59719
 20
1228.345307
 11
374.59719
 21
1229.845307
  0
LINE
  5
266
100
AcDbEntity
  8
M0
 62
     6
100
AcDbLine
 10
385.59719
 20
1228.345303
 11
385.59719
 21
1229.845303
  0
LINE
  5
267
100
AcDbEntity
  8
M0
 62
     6
100
AcDbLine
 10
374.59719
 20
1229.845307
 11
385.59719
 21
1229.845303
  0
LINE
  5
268
100
AcDbEntity
  8
M0
 62
     6
100
AcDbLine
 10
375.597193
 20
1239.945297
 11
375.59719
 21
1229.845306
  0
LINE
  5
269
100
AcDbEntity
  8
M0
 62
     6
100
AcDbLine
 10
384.597193
 20
1239.945294
 11
384.59719
 21
1229.845304
  0
LINE
  5
26A
100
AcDbEntity
  8
M0
 62
     6
100
AcDbLine
 10
384.59719
 20
1228.345304
 11
384.597181
 21
1201.345304
  0
LINE
  5
26B
100
AcDbEntity
  8
M0
 62
     6
100
AcDbLine
 10
385.59719
 20
1228.345303
 11
384.59719
 21
1228.345304
  0
LINE
  5
26C
100
AcDbEntity
  8
M0
 62
     6
100
AcDbLine
 10
375.59719
 20
1228.345306
 11
374.59719
 21
1228.345307
  0
LINE
  5
26D
100
AcDbEntity
  8
M0
 62
     6
100
AcDbLine
 10
384.597193
 20
1239.945294
 11
375.597193
 21
1239.945297
  0
LINE
  5
26E
100
AcDbEntity
  8
M0
 62
     6
100
AcDbLine
 10
375.597183
 20
1207.345306
 11
384.597183
 21
1207.345304
  0
LINE
  5
26F
100
AcDbEntity
  8
M0
 62
     6
100
AcDbLine
 10
372.647188
 20
1221.345307
 11
375.597187
 21
1221.345306
  0
LINE
  5
270
100
AcDbEntity
  8
M0
 62
     6
100
AcDbLine
 10
384.597187
 20
1221.345304
 11
387.547187
 21
1221.345303
  0
LINE
  5
271
100
AcDbEntity
  8
M0
 62
     6
100
AcDbLine
 10
385.597201
 20
1264.345303
 11
385.5972
 21
1262.845303
  0
LINE
  5
272
100
AcDbEntity
  8
M0
 62
     6
100
AcDbLine
 10
374.5972
 20
1262.845307
 11
385.5972
 21
1262.845303
  0
LINE
  5
273
100
AcDbEntity
  8
M0
 62
     6
100
AcDbLine
 10
384.597197
 20
1252.745298
 11
384.5972
 21
1262.845304
  0
LINE
  5
274
100
AcDbEntity
  8
M0
 62
     6
100
AcDbLine
 10
384.597201
 20
1264.345304
 11
384.597209
 21
1291.345304
  0
LINE
  5
275
100
AcDbEntity
  8
M0
 62
     6
100
AcDbLine
 10
385.597201
 20
1264.345303
 11
384.597201
 21
1264.345304
  0
LINE
  5
276
100
AcDbEntity
  8
M0
 62
     6
100
AcDbLine
 10
384.597197
 20
1252.745298
 11
375.597197
 21
1252.7453
  0
LINE
  5
277
100
AcDbEntity
  8
M0
 62
     6
100
AcDbLine
 10
375.597208
 20
1285.345306
 11
384.597208
 21
1285.345304
  0
LINE
  5
278
100
AcDbEntity
  8
M0
 62
     6
100
AcDbLine
 10
384.597203
 20
1271.345304
 11
387.547203
 21
1271.345303
  0
LINE
  5
279
100
AcDbEntity
  8
M0
 62
     6
100
AcDbLine
 10
375.597197
 20
1252.7453
 11
375.5972
 21
1262.845306
  0
LINE
  5
27A
100
AcDbEntity
  8
M0
 62
     6
100
AcDbLine
 10
374.597201
 20
1264.345307
 11
374.5972
 21
1262.845307
  0
LINE
  5
27B
100
AcDbEntity
  8
M0
 62
     6
100
AcDbLine
 10
375.597201
 20
1264.345306
 11
374.597201
 21
1264.345307
  0
LINE
  5
27C
100
AcDbEntity
  8
M0
 62
     6
100
AcDbLine
 10
375.597201
 20
1264.345306
 11
375.597209
 21
1291.345306
  0
LINE
  5
27D
100
AcDbEntity
  8
M0
 62
     6
100
AcDbLine
 10
372.647203
 20
1271.345307
 11
375.597203
 21
1271.345306
  0
CIRCLE
  5
27E
100
AcDbEntity
  8
M0
 62
     6
100
AcDbCircle
 10
380.097195
 20
1246.345305
 40
2.799999
  0
LINE
  5
27F
100
AcDbEntity
  8
M0
 62
     6
100
AcDbLine
 10
144.847502
 20
1291.345303
 11
129.947503
 21
1291.345307
  0
LINE
  5
280
100
AcDbEntity
  8
M0
 62
     6
100
AcDbLine
 10
129.947503
 20
1291.345307
 11
129.947474
 21
1201.345307
  0
LINE
  5
281
100
AcDbEntity
  8
M0
 62
     6
100
AcDbLine
 10
129.947474
 20
1201.345307
 11
144.847474
 21
1201.345303
  0
LINE
  5
282
100
AcDbEntity
  8
M0
 62
     6
100
AcDbLine
 10
144.847474
 20
1201.345303
 11
144.847502
 21
1291.345303
  0
LINE
  5
283
100
AcDbEntity
  8
M0
  6
DASHDOT
 62
     6
100
AcDbLine
 10
149.847488
 20
1246.345301
 11
124.947488
 21
1246.345309
  0
LINE
  5
284
100
AcDbEntity
  8
M0
 62
     6
100
AcDbLine
 10
131.897483
 20
1228.345307
 11
131.897483
 21
1229.845307
  0
LINE
  5
285
100
AcDbEntity
  8
M0
 62
     6
100
AcDbLine
 10
142.897483
 20
1228.345303
 11
142.897483
 21
1229.845303
  0
LINE
  5
286
100
AcDbEntity
  8
M0
 62
     6
100
AcDbLine
 10
131.897483
 20
1229.845307
 11
142.897483
 21
1229.845303
  0
LINE
  5
287
100
AcDbEntity
  8
M0
 62
     6
100
AcDbLine
 10
132.897486
 20
1239.945297
 11
132.897483
 21
1229.845306
  0
LINE
  5
288
100
AcDbEntity
  8
M0
 62
     6
100
AcDbLine
 10
132.897483
 20
1228.345306
 11
132.897474
 21
1201.345306
  0
LINE
  5
289
100
AcDbEntity
  8
M0
 62
     6
100
AcDbLine
 10
141.897486
 20
1239.945294
 11
141.897483
 21
1229.845304
  0
LINE
  5
28A
100
AcDbEntity
  8
M0
 62
     6
100
AcDbLine
 10
141.897483
 20
1228.345304
 11
141.897474
 21
1201.345304
  0
LINE
  5
28B
100
AcDbEntity
  8
M0
 62
     6
100
AcDbLine
 10
142.897483
 20
1228.345303
 11
141.897483
 21
1228.345304
  0
LINE
  5
28C
100
AcDbEntity
  8
M0
 62
     6
100
AcDbLine
 10
132.897483
 20
1228.345306
 11
131.897483
 21
1228.345307
  0
LINE
  5
28D
100
AcDbEntity
  8
M0
 62
     6
100
AcDbLine
 10
141.897486
 20
1239.945294
 11
132.897486
 21
1239.945297
  0
LINE
  5
28E
100
AcDbEntity
  8
M0
 62
     6
100
AcDbLine
 10
132.897476
 20
1207.345306
 11
141.897476
 21
1207.345304
  0
LINE
  5
28F
100
AcDbEntity
  8
M0
 62
     6
100
AcDbLine
 10
129.947481
 20
1221.345307
 11
132.89748
 21
1221.345306
  0
LINE
  5
290
100
AcDbEntity
  8
M0
 62
     6
100
AcDbLine
 10
141.89748
 20
1221.345304
 11
144.84748
 21
1221.345303
  0
LINE
  5
291
100
AcDbEntity
  8
M0
 62
     6
100
AcDbLine
 10
142.897494
 20
1264.345303
 11
142.897493
 21
1262.845303
  0
LINE
  5
292
100
AcDbEntity
  8
M0
 62
     6
100
AcDbLine
 10
131.897493
 20
1262.845307
 11
142.897493
 21
1262.845303
  0
LINE
  5
293
100
AcDbEntity
  8
M0
 62
     6
100
AcDbLine
 10
141.89749
 20
1252.745298
 11
141.897493
 21
1262.845304
  0
LINE
  5
294
100
AcDbEntity
  8
M0
 62
     6
100
AcDbLine
 10
141.897494
 20
1264.345304
 11
141.897502
 21
1291.345304
  0
LINE
  5
295
100
AcDbEntity
  8
M0
 62
     6
100
AcDbLine
 10
142.897494
 20
1264.345303
 11
141.897494
 21
1264.345304
  0
LINE
  5
296
100
AcDbEntity
  8
M0
 62
     6
100
AcDbLine
 10
141.89749
 20
1252.745298
 11
132.89749
 21
1252.7453
  0
LINE
  5
297
100
AcDbEntity
  8
M0
 62
     6
100
AcDbLine
 10
132.8975
 20
1285.345306
 11
141.8975
 21
1285.345304
  0
LINE
  5
298
100
AcDbEntity
  8
M0
 62
     6
100
AcDbLine
 10
141.897496
 20
1271.345304
 11
144.847496
 21
1271.345303
  0
LINE
  5
299
100
AcDbEntity
  8
M0
 62
     6
100
AcDbLine
 10
132.89749
 20
1252.7453
 11
132.897493
 21
1262.845306
  0
LINE
  5
29A
100
AcDbEntity
  8
M0
 62
     6
100
AcDbLine
 10
131.897494
 20
1264.345307
 11
131.897493
 21
1262.845307
  0
LINE
  5
29B
100
AcDbEntity
  8
M0
 62
     6
100
AcDbLine
 10
132.897494
 20
1264.345306
 11
131.897494
 21
1264.345307
  0
LINE
  5
29C
100
AcDbEntity
  8
M0
 62
     6
100
AcDbLine
 10
132.897494
 20
1264.345306
 11
132.897502
 21
1291.345306
  0
LINE
  5
29D
100
AcDbEntity
  8
M0
 62
     6
100
AcDbLine
 10
129.947496
 20
1271.345307
 11
132.897496
 21
1271.345306
  0
CIRCLE
  5
29E
100
AcDbEntity
  8
M0
 62
     6
100
AcDbCircle
 10
137.397488
 20
1246.345305
 40
2.799999
  0
CIRCLE
  5
29F
100
AcDbEntity
  8
M0
 62
     1
100
AcDbCircle
 10
137.397456
 20
1280.345275
 40
3.5
  0
LINE
  5
2A0
100
AcDbEntity
  8
M0
 62
     7
100
AcDbLine
 10
356.24731
 20
1020.345275
 11
356.24731
 21
1091.345275
  0
LINE
  5
2A1
100
AcDbEntity
  8
M0
 62
     7
100
AcDbLine
 10
161.24731
 20
1091.345275
 11
161.24731
 21
1020.345275
  0
LINE
  5
2A2
100
AcDbEntity
  8
M0
 62
     7
100
AcDbLine
 10
166.24731
 20
1015.345275
 11
351.24731
 21
1015.345275
  0
LINE
  5
2A3
100
AcDbEntity
  8
M0
  6
DASHDOT
 62
     7
100
AcDbLine
 10
258.74731
 20
1010.345275
 11
258.74731
 21
1155.345275
  0
LINE
  5
2A4
100
AcDbEntity
  8
M0
 62
     7
100
AcDbLine
 10
161.24731
 20
1020.345275
 11
166.24731
 21
1015.345275
  0
LINE
  5
2A5
100
AcDbEntity
  8
M0
 62
     7
100
AcDbLine
 10
351.24731
 20
1015.345275
 11
356.24731
 21
1020.345275
  0
CIRCLE
  5
2A6
100
AcDbEntity
  8
M0
 62
     7
100
AcDbCircle
 10
343.74731
 20
1035.845275
 40
5.5
  0
LINE
  5
2A7
100
AcDbEntity
  8
M0
  6
DASHDOT
 62
     7
100
AcDbLine
 10
334.24731
 20
1035.845275
 11
353.24731
 21
1035.845275
  0
LINE
  5
2A8
100
AcDbEntity
  8
M0
  6
DASHDOT
 62
     7
100
AcDbLine
 10
343.74731
 20
1026.345275
 11
343.74731
 21
1045.345275
  0
CIRCLE
  5
2A9
100
AcDbEntity
  8
M0
 62
     7
100
AcDbCircle
 10
343.74731
 20
1060.845275
 40
3.5
  0
LINE
  5
2AA
100
AcDbEntity
  8
M0
  6
DASHDOT
 62
     7
100
AcDbLine
 10
336.24731
 20
1060.845275
 11
351.24731
 21
1060.845275
  0
LINE
  5
2AB
100
AcDbEntity
  8
M0
  6
DASHDOT
 62
     7
100
AcDbLine
 10
343.74731
 20
1053.345275
 11
343.74731
 21
1068.345275
  0
CIRCLE
  5
2AC
100
AcDbEntity
  8
M0
 62
     7
100
AcDbCircle
 10
173.74731
 20
1060.845275
 40
3.5
  0
LINE
  5
2AD
100
AcDbEntity
  8
M0
  6
DASHDOT
 62
     7
100
AcDbLine
 10
181.24731
 20
1060.845275
 11
166.24731
 21
1060.845275
  0
LINE
  5
2AE
100
AcDbEntity
  8
M0
  6
DASHDOT
 62
     7
100
AcDbLine
 10
173.74731
 20
1053.345275
 11
173.74731
 21
1068.345275
  0
CIRCLE
  5
2AF
100
AcDbEntity
  8
M0
 62
     7
100
AcDbCircle
 10
173.74731
 20
1035.845275
 40
5.5
  0
LINE
  5
2B0
100
AcDbEntity
  8
M0
  6
DASHDOT
 62
     7
100
AcDbLine
 10
183.24731
 20
1035.845275
 11
164.24731
 21
1035.845275
  0
LINE
  5
2B1
100
AcDbEntity
  8
M0
  6
DASHDOT
 62
     7
100
AcDbLine
 10
173.74731
 20
1026.345275
 11
173.74731
 21
1045.345275
  0
LINE
  5
2B2
100
AcDbEntity
  8
M0
 62
     7
100
AcDbLine
 10
191.24731
 20
1088.345275
 11
191.24731
 21
1015.345275
  0
LINE
  5
2B3
100
AcDbEntity
  8
M0
 62
     7
100
AcDbLine
 10
326.24731
 20
1088.345275
 11
326.24731
 21
1015.345275
  0
LINE
  5
2B4
100
AcDbEntity
  8
M0
 62
     2
100
AcDbLine
 10
321.74731
 20
1049.845336
 11
321.74731
 21
1081.845351
  0
LINE
  5
2B5
100
AcDbEntity
  8
M0
 62
     2
100
AcDbLine
 10
309.24731
 20
1082.345336
 11
311.447307
 21
1082.345336
  0
LINE
  5
2B6
100
AcDbEntity
  8
M0
 62
     2
100
AcDbLine
 10
278.74731
 20
1049.84532
 11
278.74731
 21
1017.845305
  0
LINE
  5
2B7
100
AcDbEntity
  8
M0
 62
     2
100
AcDbLine
 10
321.74731
 20
1021.845366
 11
321.74731
 21
1049.84532
  0
LINE
  5
2B8
100
AcDbEntity
  8
M0
 62
     2
100
AcDbLine
 10
291.24731
 20
1017.345305
 11
289.047298
 21
1017.34529
  0
LINE
  5
2B9
100
AcDbEntity
  8
M0
 62
     2
100
AcDbLine
 10
278.74731
 20
1077.84529
 11
278.74731
 21
1049.845336
  0
LINE
  5
2BA
100
AcDbEntity
  8
M0
 62
     2
100
AcDbLine
 10
279.24731
 20
1017.345305
 11
321.24731
 21
1017.345305
  0
LINE
  5
2BB
100
AcDbEntity
  8
M0
 62
     2
100
AcDbLine
 10
321.74731
 20
1017.845305
 11
321.74731
 21
1021.845351
  0
LINE
  5
2BC
100
AcDbEntity
  8
M0
 62
     2
100
AcDbLine
 10
321.247295
 20
1082.345351
 11
280.74731
 21
1082.345275
  0
ARC
  5
2BD
100
AcDbEntity
  8
M0
 62
     2
100
AcDbCircle
 10
280.74731
 20
1080.345275
 40
2.0
100
AcDbArc
 50
89.999563
 51
180.0
  0
LINE
  5
2BE
100
AcDbEntity
  8
M0
 62
     2
100
AcDbLine
 10
278.74731
 20
1080.345259
 11
278.74731
 21
1077.84529
  0
LINE
  5
2BF
100
AcDbEntity
  8
M0
 62
     2
100
AcDbLine
 10
281.447307
 20
1017.34529
 11
279.24731
 21
1017.34532
  0
LINE
  5
2C0
100
AcDbEntity
  8
M0
 62
     2
100
AcDbLine
 10
319.047282
 20
1082.345336
 11
321.24731
 21
1082.345336
  0
ARC
  5
2C1
100
AcDbEntity
  8
M0
 62
     2
100
AcDbCircle
 10
321.24731
 20
1081.845351
 40
0.5
100
AcDbArc
 50
0.0
 51
90.0
  0
ARC
  5
2C2
100
AcDbEntity
  8
M0
 62
     2
100
AcDbCircle
 10
321.24731
 20
1017.845305
 40
0.5
100
AcDbArc
 50
269.998251
 51
360.0
  0
ARC
  5
2C3
100
AcDbEntity
  8
M0
 62
     2
100
AcDbCircle
 10
279.24731
 20
1017.845305
 40
0.5
100
AcDbArc
 50
179.998251
 51
270.0
  0
LINE
  5
2C4
100
AcDbEntity
  8
M0
100
AcDbLine
 10
175.49731
 20
1126.645262
 11
175.49731
 21
1157.345275
  0
LINE
  5
2C5
100
AcDbEntity
  8
M0
100
AcDbLine
 10
143.99731
 20
1091.345275
 11
143.99731
 21
1121.34529
  0
LINE
  5
2C6
100
AcDbEntity
  8
M0
100
AcDbLine
 10
178.697322
 20
1129.631926
 11
178.697322
 21
1157.345275
  0
LINE
  5
2C7
100
AcDbEntity
  8
M0
100
AcDbLine
 10
140.797313
 20
1091.345275
 11
140.797313
 21
1121.34529
  0
LINE
  5
2C8
100
AcDbEntity
  8
M0
100
AcDbLine
 10
140.797313
 20
1091.345275
 11
168.74731
 21
1091.345275
  0
LINE
  5
2C9
100
AcDbEntity
  8
M0
100
AcDbLine
 10
375.597179
 20
1228.345275
 11
375.597179
 21
1207.345275
  0
LINE
  5
2CA
100
AcDbEntity
  8
M0
100
AcDbLine
 10
128.74731
 20
1050.845519
 11
161.24731
 21
1050.845549
  0
LINE
  5
2CB
100
AcDbEntity
  8
M0
100
AcDbLine
 10
168.745418
 20
990.845549
 11
213.745891
 21
990.84558
  0
LINE
  5
2CC
100
AcDbEntity
  8
M0
100
AcDbLine
 10
236.246264
 20
990.845595
 11
281.246242
 21
990.845625
  0
LINE
  5
2CD
100
AcDbEntity
  8
M0
100
AcDbLine
 10
300.747264
 20
990.845641
 11
348.747279
 21
990.845671
  0
LINE
  5
2CE
100
AcDbEntity
  8
M0
100
AcDbLine
 10
438.745387
 20
990.845717
 11
483.745876
 21
990.845748
  0
LINE
  5
2CF
100
AcDbEntity
  8
M0
100
AcDbLine
 10
506.246089
 20
990.845763
 11
551.246089
 21
990.845793
  0
LINE
  5
2D0
100
AcDbEntity
  8
M0
100
AcDbLine
 10
570.747066
 20
990.845809
 11
618.747066
 21
990.845839
  0
LINE
  5
2D1
100
AcDbEntity
  8
M0
100
AcDbLine
 10
658.747066
 20
1050.845854
 11
626.24731
 21
1050.845839
  0
LINE
  5
2D2
100
AcDbEntity
  8
M0
100
AcDbLine
 10
356.24731
 20
1050.845671
 11
431.24731
 21
1050.845717
  0
LINE
  5
2D3
100
AcDbEntity
  8
M0
100
AcDbLine
 10
356.24731
 20
1089.345397
 11
431.24731
 21
1089.345442
  0
LINE
  5
2D4
100
AcDbEntity
  8
M0
100
AcDbLine
 10
388.697307
 20
1149.345412
 11
398.797313
 21
1149.345412
  0
LINE
  5
2D5
100
AcDbEntity
  8
M0
100
AcDbLine
 10
658.74731
 20
1089.345275
 11
658.747066
 21
1050.845854
  0
LINE
  5
2D6
100
AcDbEntity
  8
M0
100
AcDbLine
 10
128.74731
 20
1089.345275
 11
128.74731
 21
1050.845519
  0
LINE
  5
2D7
100
AcDbEntity
  8
M0
 62
     7
100
AcDbLine
 10
148.74731
 20
1091.345275
 11
168.74731
 21
1091.345275
  0
ARC
  5
2D8
100
AcDbEntity
  8
M0
 62
     7
100
AcDbCircle
 10
192.74731
 20
1081.345275
 40
10.0
100
AcDbArc
 50
0.0
 51
44.427106
  0
LINE
  5
2D9
100
AcDbEntity
  8
M0
 62
     7
100
AcDbLine
 10
202.74731
 20
1081.345275
 11
202.74731
 21
1046.345275
  0
ARC
  5
2DA
100
AcDbEntity
  8
M0
 62
     7
100
AcDbCircle
 10
205.74731
 20
1046.345275
 40
3.0
100
AcDbArc
 50
179.999709
 51
269.999709
  0
LINE
  5
2DB
100
AcDbEntity
  8
M0
 62
     7
100
AcDbLine
 10
278.74731
 20
1091.345275
 11
308.74731
 21
1091.345275
  0
ARC
  5
2DC
100
AcDbEntity
  8
M0
 62
     7
100
AcDbCircle
 10
272.74731
 20
1081.345275
 40
10.0
100
AcDbArc
 50
135.572955
 51
179.999913
  0
LINE
  5
2DD
100
AcDbEntity
  8
M0
 62
     7
100
AcDbLine
 10
205.74731
 20
1043.345275
 11
259.74731
 21
1043.345275
  0
LINE
  5
2DE
100
AcDbEntity
  8
M0
 62
     7
100
AcDbLine
 10
262.74731
 20
1081.345275
 11
262.74731
 21
1046.345275
  0
ARC
  5
2DF
100
AcDbEntity
  8
M0
 62
     7
100
AcDbCircle
 10
259.74731
 20
1046.345275
 40
3.0
100
AcDbArc
 50
269.999709
 51
360.0
  0
CIRCLE
  5
2E0
100
AcDbEntity
  8
M0
 62
     7
100
AcDbCircle
 10
159.74731
 20
1104.345275
 40
4.0
  0
LINE
  5
2E1
100
AcDbEntity
  8
M0
  6
DASHDOT
 62
     7
100
AcDbLine
 10
151.74731
 20
1104.345275
 11
167.74731
 21
1104.345275
  0
LINE
  5
2E2
100
AcDbEntity
  8
M0
  6
DASHDOT
 62
     7
100
AcDbLine
 10
159.74731
 20
1096.345275
 11
159.74731
 21
1112.345275
  0
CIRCLE
  5
2E3
100
AcDbEntity
  8
M0
 62
     7
100
AcDbCircle
 10
357.747295
 20
1104.345275
 40
4.0
  0
LINE
  5
2E4
100
AcDbEntity
  8
M0
  6
DASHDOT
 62
     7
100
AcDbLine
 10
349.747295
 20
1104.345275
 11
365.747295
 21
1104.345275
  0
LINE
  5
2E5
100
AcDbEntity
  8
M0
  6
DASHDOT
 62
     7
100
AcDbLine
 10
357.747295
 20
1096.345275
 11
357.747295
 21
1112.345275
  0
CIRCLE
  5
2E6
100
AcDbEntity
  8
M0
 62
     7
100
AcDbCircle
 10
251.24731
 20
1081.345275
 40
2.75
  0
LINE
  5
2E7
100
AcDbEntity
  8
M0
  6
DASHDOT
 62
     7
100
AcDbLine
 10
244.49731
 20
1081.345275
 11
257.99731
 21
1081.345275
  0
LINE
  5
2E8
100
AcDbEntity
  8
M0
  6
DASHDOT
 62
     7
100
AcDbLine
 10
251.24731
 20
1074.595275
 11
251.24731
 21
1088.095275
  0
CIRCLE
  5
2E9
100
AcDbEntity
  8
M0
 62
     7
100
AcDbCircle
 10
251.24731
 20
1053.345275
 40
2.75
  0
LINE
  5
2EA
100
AcDbEntity
  8
M0
  6
DASHDOT
 62
     7
100
AcDbLine
 10
244.49731
 20
1053.345275
 11
257.99731
 21
1053.345275
  0
LINE
  5
2EB
100
AcDbEntity
  8
M0
  6
DASHDOT
 62
     7
100
AcDbLine
 10
251.24731
 20
1060.095275
 11
251.24731
 21
1046.595275
  0
CIRCLE
  5
2EC
100
AcDbEntity
  8
M0
 62
     7
100
AcDbCircle
 10
214.24731
 20
1053.345275
 40
2.75
  0
LINE
  5
2ED
100
AcDbEntity
  8
M0
  6
DASHDOT
 62
     7
100
AcDbLine
 10
220.99731
 20
1053.345275
 11
207.49731
 21
1053.345275
  0
LINE
  5
2EE
100
AcDbEntity
  8
M0
  6
DASHDOT
 62
     7
100
AcDbLine
 10
214.24731
 20
1060.095275
 11
214.24731
 21
1046.595275
  0
CIRCLE
  5
2EF
100
AcDbEntity
  8
M0
 62
     7
100
AcDbCircle
 10
214.24731
 20
1081.345275
 40
2.75
  0
LINE
  5
2F0
100
AcDbEntity
  8
M0
  6
DASHDOT
 62
     7
100
AcDbLine
 10
220.99731
 20
1081.345275
 11
207.49731
 21
1081.345275
  0
LINE
  5
2F1
100
AcDbEntity
  8
M0
  6
DASHDOT
 62
     7
100
AcDbLine
 10
214.24731
 20
1074.595275
 11
214.24731
 21
1088.095275
  0
LINE
  5
2F2
100
AcDbEntity
  8
M0
 62
     7
100
AcDbLine
 10
238.74731
 20
1117.345275
 11
208.74731
 21
1117.345275
  0
LINE
  5
2F3
100
AcDbEntity
  8
M0
 62
     7
100
AcDbLine
 10
308.74731
 20
1117.345275
 11
278.74731
 21
1117.345275
  0
LINE
  5
2F4
100
AcDbEntity
  8
M0
 62
     7
100
AcDbLine
 10
348.74731
 20
1091.345275
 11
368.74731
 21
1091.345275
  0
LINE
  5
2F5
100
AcDbEntity
  8
M0
100
AcDbLine
 10
341.99731
 20
1126.645262
 11
341.99731
 21
1157.345275
  0
LINE
  5
2F6
100
AcDbEntity
  8
M0
100
AcDbLine
 10
373.49731
 20
1091.345275
 11
373.49731
 21
1121.34529
  0
LINE
  5
2F7
100
AcDbEntity
  8
M0
100
AcDbLine
 10
338.797298
 20
1129.631926
 11
338.797298
 21
1157.345275
  0
LINE
  5
2F8
100
AcDbEntity
  8
M0
100
AcDbLine
 10
376.697307
 20
1091.345275
 11
376.697307
 21
1121.34529
  0
LINE
  5
2F9
100
AcDbEntity
  8
M0
100
AcDbLine
 10
376.697307
 20
1091.345275
 11
348.74731
 21
1091.345275
  0
CIRCLE
  5
2FA
100
AcDbEntity
  8
M0
 62
     1
100
AcDbCircle
 10
137.397456
 20
1270.845275
 40
3.5
  0
CIRCLE
  5
2FB
100
AcDbEntity
  8
M0
 62
     1
100
AcDbCircle
 10
152.297359
 20
1280.345275
 40
3.5
  0
CIRCLE
  5
2FC
100
AcDbEntity
  8
M0
 62
     1
100
AcDbCircle
 10
152.297359
 20
1270.845275
 40
3.5
  0
CIRCLE
  5
2FD
100
AcDbEntity
  8
M0
 62
     1
100
AcDbCircle
 10
152.297359
 20
1257.845275
 40
3.5
  0
CIRCLE
  5
2FE
100
AcDbEntity
  8
M0
 62
     1
100
AcDbCircle
 10
137.397456
 20
1257.845275
 40
3.5
  0
CIRCLE
  5
2FF
100
AcDbEntity
  8
M0
 62
     1
100
AcDbCircle
 10
137.397456
 20
1234.845275
 40
3.5
  0
CIRCLE
  5
300
100
AcDbEntity
  8
M0
 62
     1
100
AcDbCircle
 10
152.297359
 20
1234.845275
 40
3.5
  0
CIRCLE
  5
301
100
AcDbEntity
  8
M0
 62
     1
100
AcDbCircle
 10
137.397456
 20
1221.845275
 40
3.5
  0
CIRCLE
  5
302
100
AcDbEntity
  8
M0
 62
     1
100
AcDbCircle
 10
152.297359
 20
1221.845275
 40
3.5
  0
CIRCLE
  5
303
100
AcDbEntity
  8
M0
 62
     1
100
AcDbCircle
 10
137.397456
 20
1212.345275
 40
3.5
  0
CIRCLE
  5
304
100
AcDbEntity
  8
M0
 62
     1
100
AcDbCircle
 10
152.297359
 20
1212.345275
 40
3.5
  0
CIRCLE
  5
305
100
AcDbEntity
  8
M0
 62
     1
100
AcDbCircle
 10
365.197261
 20
1212.345275
 40
3.5
  0
CIRCLE
  5
306
100
AcDbEntity
  8
M0
 62
     1
100
AcDbCircle
 10
365.197261
 20
1221.845275
 40
3.5
  0
CIRCLE
  5
307
100
AcDbEntity
  8
M0
 62
     1
100
AcDbCircle
 10
365.197261
 20
1234.845275
 40
3.5
  0
CIRCLE
  5
308
100
AcDbEntity
  8
M0
 62
     1
100
AcDbCircle
 10
365.197261
 20
1257.845275
 40
3.5
  0
CIRCLE
  5
309
100
AcDbEntity
  8
M0
 62
     1
100
AcDbCircle
 10
365.197261
 20
1270.845275
 40
3.5
  0
CIRCLE
  5
30A
100
AcDbEntity
  8
M0
 62
     1
100
AcDbCircle
 10
380.097163
 20
1270.845275
 40
3.5
  0
CIRCLE
  5
30B
100
AcDbEntity
  8
M0
 62
     1
100
AcDbCircle
 10
380.097163
 20
1257.845275
 40
3.5
  0
CIRCLE
  5
30C
100
AcDbEntity
  8
M0
 62
     1
100
AcDbCircle
 10
380.097163
 20
1234.845275
 40
3.5
  0
CIRCLE
  5
30D
100
AcDbEntity
  8
M0
 62
     1
100
AcDbCircle
 10
380.097163
 20
1221.845275
 40
3.5
  0
CIRCLE
  5
30E
100
AcDbEntity
  8
M0
 62
     1
100
AcDbCircle
 10
380.097163
 20
1212.345275
 40
3.5
  0
CIRCLE
  5
30F
100
AcDbEntity
  8
M0
 62
     1
100
AcDbCircle
 10
365.197261
 20
1280.345275
 40
3.5
  0
CIRCLE
  5
310
100
AcDbEntity
  8
M0
 62
     1
100
AcDbCircle
 10
380.097163
 20
1280.345275
 40
3.5
  0
LINE
  5
311
100
AcDbEntity
  8
M0
100
AcDbLine
 10
856.642909
 20
1341.34503
 11
856.642909
 21
1335.34503
  0
ARC
  5
312
100
AcDbEntity
  8
M0
100
AcDbCircle
 10
826.842906
 20
1338.34503
 40
3.0
100
AcDbArc
 50
89.999709
 51
180.0
  0
LINE
  5
313
100
AcDbEntity
  8
M0
100
AcDbLine
 10
826.842906
 20
1341.34503
 11
856.642909
 21
1341.34503
  0
LINE
  5
314
100
AcDbEntity
  8
M0
100
AcDbLine
 10
856.642909
 20
1157.345275
 11
856.642909
 21
1151.345275
  0
LINE
  5
315
100
AcDbEntity
  8
M0
100
AcDbLine
 10
823.842906
 20
1154.345275
 11
823.842906
 21
1338.34503
  0
ARC
  5
316
100
AcDbEntity
  8
M0
100
AcDbCircle
 10
826.842906
 20
1154.345275
 40
3.0
100
AcDbArc
 50
180.0
 51
270.0
  0
LINE
  5
317
100
AcDbEntity
  8
M0
100
AcDbLine
 10
826.842906
 20
1151.345275
 11
856.642909
 21
1151.345275
  0
LINE
  5
318
100
AcDbEntity
  8
M0
100
AcDbLine
 10
951.642944
 20
1121.34529
 11
951.642944
 21
1341.345275
  0
LINE
  5
319
100
AcDbEntity
  8
M0
  6
DASHDOT
100
AcDbLine
 10
851.64297
 20
1246.345275
 11
956.642944
 21
1246.345275
  0
LINE
  5
31A
100
AcDbEntity
  8
M0
100
AcDbLine
 10
893.642955
 20
1252.845275
 11
908.642955
 21
1252.845275
  0
LINE
  5
31B
100
AcDbEntity
  8
M0
100
AcDbLine
 10
893.642955
 20
1239.845275
 11
908.642955
 21
1239.845275
  0
LINE
  5
31C
100
AcDbEntity
  8
M0
100
AcDbLine
 10
936.642955
 20
1341.345275
 11
936.642955
 21
1320.345275
  0
ARC
  5
31D
100
AcDbEntity
  8
M0
100
AcDbCircle
 10
933.642955
 20
1320.345275
 40
3.0
100
AcDbArc
 50
270.0
 51
360.0
  0
LINE
  5
31E
100
AcDbEntity
  8
M0
100
AcDbLine
 10
894.642955
 20
1317.345275
 11
933.642955
 21
1317.345275
  0
ARC
  5
31F
100
AcDbEntity
  8
M0
100
AcDbCircle
 10
894.642955
 20
1316.345275
 40
1.0
100
AcDbArc
 50
89.999126
 51
180.0
  0
LINE
  5
320
100
AcDbEntity
  8
M0
100
AcDbLine
 10
893.642955
 20
1201.345275
 11
893.642955
 21
1316.345275
  0
LINE
  5
321
100
AcDbEntity
  8
M0
100
AcDbLine
 10
893.642955
 20
1201.345275
 11
898.642955
 21
1201.345275
  0
LINE
  5
322
100
AcDbEntity
  8
M0
100
AcDbLine
 10
898.642955
 20
1201.345275
 11
898.642955
 21
1164.345275
  0
LINE
  5
323
100
AcDbEntity
  8
M0
100
AcDbLine
 10
909.642955
 20
1164.345275
 11
936.642955
 21
1151.345275
  0
LINE
  5
324
100
AcDbEntity
  8
M0
100
AcDbLine
 10
898.642955
 20
1164.345275
 11
909.642955
 21
1164.345275
  0
LINE
  5
325
100
AcDbEntity
  8
M0
100
AcDbLine
 10
936.642955
 20
1151.345275
 11
936.642955
 21
1121.34529
  0
LINE
  5
326
100
AcDbEntity
  8
M0
100
AcDbLine
 10
951.642944
 20
1341.345275
 11
856.64297
 21
1341.345275
  0
ARC
  5
327
100
AcDbEntity
  8
M0
100
AcDbCircle
 10
883.64297
 20
1132.345275
 40
1.0
100
AcDbArc
 50
180.0
 51
270.0
  0
LINE
  5
328
100
AcDbEntity
  8
M0
100
AcDbLine
 10
883.64297
 20
1131.345275
 11
913.642955
 21
1131.345275
  0
ARC
  5
329
100
AcDbEntity
  8
M0
100
AcDbCircle
 10
913.642955
 20
1132.345275
 40
1.0
100
AcDbArc
 50
270.0
 51
360.0
  0
LINE
  5
32A
100
AcDbEntity
  8
M0
100
AcDbLine
 10
914.642955
 20
1132.345275
 11
914.642955
 21
1145.845275
  0
LINE
  5
32B
100
AcDbEntity
  8
M0
100
AcDbLine
 10
914.642955
 20
1145.845275
 11
934.642955
 21
1145.845275
  0
LINE
  5
32C
100
AcDbEntity
  8
M0
100
AcDbLine
 10
882.64297
 20
1132.345275
 11
882.64297
 21
1151.345275
  0
LINE
  5
32D
100
AcDbEntity
  8
M0
100
AcDbLine
 10
934.642955
 20
1151.345275
 11
934.642955
 21
1145.845275
  0
LINE
  5
32E
100
AcDbEntity
  8
M0
100
AcDbLine
 10
856.64297
 20
1151.345275
 11
936.642955
 21
1151.345275
  0
LINE
  5
32F
100
AcDbEntity
  8
M0
100
AcDbLine
 10
856.64297
 20
1341.345275
 11
856.64297
 21
1271.345275
  0
LINE
  5
330
100
AcDbEntity
  8
M0
100
AcDbLine
 10
936.642955
 20
1121.34529
 11
951.642944
 21
1121.34529
  0
ARC
  5
331
100
AcDbEntity
  8
M0
100
AcDbCircle
 10
883.64297
 20
1360.345275
 40
1.0
100
AcDbArc
 50
89.999126
 51
180.0
  0
LINE
  5
332
100
AcDbEntity
  8
M0
100
AcDbLine
 10
883.64297
 20
1361.345275
 11
913.642955
 21
1361.345275
  0
ARC
  5
333
100
AcDbEntity
  8
M0
100
AcDbCircle
 10
913.642955
 20
1360.345275
 40
1.0
100
AcDbArc
 50
0.0
 51
89.999126
  0
LINE
  5
334
100
AcDbEntity
  8
M0
100
AcDbLine
 10
914.642955
 20
1360.345275
 11
914.642955
 21
1346.845275
  0
LINE
  5
335
100
AcDbEntity
  8
M0
100
AcDbLine
 10
914.642955
 20
1346.845275
 11
934.642955
 21
1346.845275
  0
LINE
  5
336
100
AcDbEntity
  8
M0
100
AcDbLine
 10
882.64297
 20
1360.345275
 11
882.64297
 21
1341.345275
  0
LINE
  5
337
100
AcDbEntity
  8
M0
100
AcDbLine
 10
934.642955
 20
1341.345275
 11
934.642955
 21
1346.845275
  0
LINE
  5
338
100
AcDbEntity
  8
M0
100
AcDbLine
 10
856.64297
 20
1221.345275
 11
856.64297
 21
1151.345275
  0
LINE
  5
339
100
AcDbEntity
  8
M0
100
AcDbLine
 10
878.64297
 20
1201.345244
 11
893.64297
 21
1201.345244
  0
ARC
  5
33A
100
AcDbEntity
  8
M0
100
AcDbCircle
 10
878.64297
 20
1206.345244
 40
5.0
100
AcDbArc
 50
180.0
 51
270.0
  0
LINE
  5
33B
100
AcDbEntity
  8
M0
100
AcDbLine
 10
878.643001
 20
1291.34503
 11
893.643001
 21
1291.34503
  0
ARC
  5
33C
100
AcDbEntity
  8
M0
100
AcDbCircle
 10
878.643001
 20
1286.34503
 40
5.0
100
AcDbArc
 50
89.999825
 51
180.0
  0
ARC
  5
33D
100
AcDbEntity
  8
M0
100
AcDbCircle
 10
851.642986
 20
1268.345259
 40
3.0
100
AcDbArc
 50
89.999709
 51
180.0
  0
LINE
  5
33E
100
AcDbEntity
  8
M0
100
AcDbLine
 10
848.64297
 20
1224.345259
 11
848.642986
 21
1268.345259
  0
ARC
  5
33F
100
AcDbEntity
  8
M0
100
AcDbCircle
 10
851.64297
 20
1224.345259
 40
3.0
100
AcDbArc
 50
180.0
 51
270.0
  0
LINE
  5
340
100
AcDbEntity
  8
M0
100
AcDbLine
 10
873.64297
 20
1206.345244
 11
873.64297
 21
1211.345244
  0
LINE
  5
341
100
AcDbEntity
  8
M0
100
AcDbLine
 10
851.64297
 20
1221.345259
 11
863.64297
 21
1221.345244
  0
ARC
  5
342
100
AcDbEntity
  8
M0
100
AcDbCircle
 10
863.64297
 20
1211.345244
 40
10.0
100
AcDbArc
 50
0.0
 51
89.999913
  0
LINE
  5
343
100
AcDbEntity
  8
M0
100
AcDbLine
 10
851.642986
 20
1271.345259
 11
863.642986
 21
1271.345244
  0
LINE
  5
344
100
AcDbEntity
  8
M0
100
AcDbLine
 10
873.643001
 20
1281.34503
 11
873.643001
 21
1286.34503
  0
ARC
  5
345
100
AcDbEntity
  8
M0
100
AcDbCircle
 10
863.643001
 20
1281.34503
 40
10.0
100
AcDbArc
 50
270.0
 51
360.0
  0
ARC
  5
346
100
AcDbEntity
  8
M0
100
AcDbCircle
 10
893.642986
 20
1249.345244
 40
2.0
100
AcDbArc
 50
89.999563
 51
180.0
  0
LINE
  5
347
100
AcDbEntity
  8
M0
100
AcDbLine
 10
891.642986
 20
1243.345244
 11
891.642986
 21
1249.345244
  0
ARC
  5
348
100
AcDbEntity
  8
M0
100
AcDbCircle
 10
893.642986
 20
1243.345244
 40
2.0
100
AcDbArc
 50
180.0
 51
270.0
  0
LINE
  5
349
100
AcDbEntity
  8
M0
100
AcDbLine
 10
893.64297
 20
1201.345244
 11
893.642986
 21
1241.345244
  0
LINE
  5
34A
100
AcDbEntity
  8
M0
100
AcDbLine
 10
893.642986
 20
1251.345244
 11
893.643001
 21
1291.34503
  0
LINE
  5
34B
100
AcDbEntity
  8
M0
100
AcDbLine
 10
1056.242961
 20
1121.34532
 11
951.642959
 21
1121.34532
  0
LINE
  5
34C
100
AcDbEntity
  8
M0
100
AcDbLine
 10
1056.242961
 20
1371.345275
 11
1033.942958
 21
1371.345275
  0
LINE
  5
34D
100
AcDbEntity
  8
M0
100
AcDbLine
 10
1033.942958
 20
1371.345275
 11
1021.442958
 21
1365.898741
  0
LINE
  5
34E
100
AcDbEntity
  8
M0
100
AcDbLine
 10
919.243022
 20
1404.34503
 11
929.243022
 21
1404.34503
  0
LINE
  5
34F
100
AcDbEntity
  8
M0
100
AcDbLine
 10
919.243022
 20
1088.345244
 11
929.243022
 21
1088.345244
  0
LINE
  5
350
100
AcDbEntity
  8
M0
100
AcDbLine
 10
919.243022
 20
1404.34503
 11
919.243022
 21
1346.84503
  0
LINE
  5
351
100
AcDbEntity
  8
M0
100
AcDbLine
 10
929.243022
 20
1404.34503
 11
929.243022
 21
1346.84503
  0
LINE
  5
352
100
AcDbEntity
  8
M0
100
AcDbLine
 10
919.243022
 20
1145.845244
 11
919.243022
 21
1088.345244
  0
LINE
  5
353
100
AcDbEntity
  8
M0
100
AcDbLine
 10
929.243022
 20
1145.845244
 11
929.243022
 21
1088.345244
  0
LINE
  5
354
100
AcDbEntity
  8
M0
  6
DASHDOT
100
AcDbLine
 10
942.243114
 20
1104.345214
 11
906.35902
 21
1104.345229
  0
LINE
  5
355
100
AcDbEntity
  8
M0
100
AcDbLine
 10
929.243114
 20
1115.308226
 11
929.243098
 21
1093.382216
  0
LINE
  5
356
100
AcDbEntity
  8
M0
  6
DASHDOT
100
AcDbLine
 10
923.093883
 20
1104.34529
 11
907.496959
 21
1104.34529
  0
LINE
  5
357
100
AcDbEntity
  8
M0
100
AcDbLine
 10
919.243053
 20
1091.345519
 11
919.243053
 21
1117.345519
  0
LINE
  5
358
100
AcDbEntity
  8
M0
  6
DASHDOT
100
AcDbLine
 10
907.443279
 20
1104.345503
 11
922.243053
 21
1104.345519
  0
LINE
  5
359
100
AcDbEntity
  8
M0
  6
DASHDOT
100
AcDbLine
 10
942.243053
 20
1388.345275
 11
899.859203
 21
1388.345275
  0
LINE
  5
35A
100
AcDbEntity
  8
M0
100
AcDbLine
 10
929.243053
 20
1377.38214
 11
929.243053
 21
1399.308165
  0
LINE
  5
35B
100
AcDbEntity
  8
M0
  6
DASHDOT
100
AcDbLine
 10
923.093822
 20
1388.345275
 11
900.997142
 21
1388.345275
  0
LINE
  5
35C
100
AcDbEntity
  8
M0
100
AcDbLine
 10
919.242976
 20
1401.345275
 11
919.242992
 21
1375.345275
  0
LINE
  5
35D
100
AcDbEntity
  8
M0
  6
DASHDOT
100
AcDbLine
 10
913.942973
 20
1388.345275
 11
922.242992
 21
1388.345275
  0
LINE
  5
35E
100
AcDbEntity
  8
M0
100
AcDbLine
 10
1056.242961
 20
1371.345275
 11
1056.242961
 21
1121.34532
  0
LINE
  5
35F
100
AcDbEntity
  8
M0
100
AcDbLine
 10
1021.442958
 20
1365.898741
 11
965.091719
 21
1341.345275
  0
LINE
  5
360
100
AcDbEntity
  8
M0
100
AcDbLine
 10
965.091719
 20
1341.345275
 11
951.642944
 21
1341.345275
  0
LINE
  5
361
100
AcDbEntity
  8
M0
100
AcDbLine
 10
908.642955
 20
1252.845275
 11
908.642955
 21
1239.845275
  0
LINE
  5
362
100
AcDbEntity
  8
M0
100
AcDbLine
 10
1046.542964
 20
1121.34532
 11
1046.542964
 21
1015.345275
  0
LINE
  5
363
100
AcDbEntity
  8
M0
100
AcDbLine
 10
1046.542964
 20
1015.345275
 11
1056.242961
 21
1015.345275
  0
LINE
  5
364
100
AcDbEntity
  8
M0
100
AcDbLine
 10
1046.542964
 20
1115.345275
 11
1056.242961
 21
1115.345275
  0
LINE
  5
365
100
AcDbEntity
  8
M0
100
AcDbLine
 10
1053.942958
 20
1115.345275
 11
1053.942958
 21
1015.345275
  0
LINE
  5
366
100
AcDbEntity
  8
M0
100
AcDbLine
 10
1049.542964
 20
1121.34532
 11
1049.542964
 21
1115.345275
  0
LINE
  5
367
100
AcDbEntity
  8
M0
100
AcDbLine
 10
1056.242961
 20
1015.345275
 11
1056.242961
 21
1115.345275
  0
LINE
  5
368
100
AcDbEntity
  8
M0
100
AcDbLine
 10
961.542964
 20
1082.346175
 11
961.542964
 21
1017.345275
  0
LINE
  5
369
100
AcDbEntity
  8
M0
100
AcDbLine
 10
961.542964
 20
1082.34532
 11
1046.542964
 21
1082.34532
  0
LINE
  5
36A
100
AcDbEntity
  8
M0
100
AcDbLine
 10
1046.542964
 20
1017.345275
 11
961.542964
 21
1017.345275
  0
LINE
  5
36B
100
AcDbEntity
  8
M0
100
AcDbLine
 10
958.642944
 20
1121.34529
 11
958.642944
 21
1091.345275
  0
LINE
  5
36C
100
AcDbEntity
  8
M0
100
AcDbLine
 10
981.842937
 20
1091.345275
 11
981.842937
 21
1121.34529
  0
LINE
  5
36D
100
AcDbEntity
  8
M0
100
AcDbLine
 10
958.642944
 20
1091.345275
 11
981.842937
 21
1091.345275
  0
LINE
  5
36E
100
AcDbEntity
  8
M0
100
AcDbLine
 10
985.042934
 20
1121.34532
 11
985.042934
 21
1082.34532
  0
LINE
  5
36F
100
AcDbEntity
  8
M0
100
AcDbLine
 10
981.842937
 20
1091.345275
 11
981.842937
 21
1082.34532
  0
LINE
  5
370
100
AcDbEntity
  8
M0
100
AcDbLine
 10
936.243428
 20
1109.820209
 11
929.243428
 21
1109.820209
  0
LINE
  5
371
100
AcDbEntity
  8
M0
100
AcDbLine
 10
936.243428
 20
1098.870196
 11
929.243428
 21
1098.870196
  0
LINE
  5
372
100
AcDbEntity
  8
M0
100
AcDbLine
 10
888.243428
 20
1110.345223
 11
906.94305
 21
1110.345223
  0
LINE
  5
373
100
AcDbEntity
  8
M0
100
AcDbLine
 10
906.94305
 20
1098.345223
 11
888.243428
 21
1098.345223
  0
LINE
  5
374
100
AcDbEntity
  8
M0
  6
DASHDOT
100
AcDbLine
 10
941.243428
 20
1104.345223
 11
883.859578
 21
1104.345223
  0
LINE
  5
375
100
AcDbEntity
  8
M0
100
AcDbLine
 10
929.243428
 20
1115.308221
 11
936.243428
 21
1115.308221
  0
LINE
  5
376
100
AcDbEntity
  8
M0
100
AcDbLine
 10
936.243428
 20
1115.308221
 11
936.243428
 21
1093.382211
  0
LINE
  5
377
100
AcDbEntity
  8
M0
100
AcDbLine
 10
936.243428
 20
1093.382211
 11
929.243428
 21
1093.382211
  0
LINE
  5
378
100
AcDbEntity
  8
M0
100
AcDbLine
 10
888.243428
 20
1110.345223
 11
888.243428
 21
1098.345223
  0
LINE
  5
379
100
AcDbEntity
  8
M0
100
AcDbLine
 10
913.943294
 20
1093.395221
 11
906.943294
 21
1093.395221
  0
LINE
  5
37A
100
AcDbEntity
  8
M0
100
AcDbLine
 10
906.94305
 20
1093.395236
 11
906.94305
 21
1115.29523
  0
LINE
  5
37B
100
AcDbEntity
  8
M0
100
AcDbLine
 10
913.94305
 20
1115.295184
 11
913.94305
 21
1093.395206
  0
LINE
  5
37C
100
AcDbEntity
  8
M0
100
AcDbLine
 10
906.943294
 20
1098.870196
 11
913.943294
 21
1098.870196
  0
LINE
  5
37D
100
AcDbEntity
  8
M0
100
AcDbLine
 10
913.943538
 20
1115.295215
 11
906.943294
 21
1115.295215
  0
LINE
  5
37E
100
AcDbEntity
  8
M0
100
AcDbLine
 10
906.943294
 20
1109.820209
 11
913.943538
 21
1109.820209
  0
LINE
  5
37F
100
AcDbEntity
  8
M0
100
AcDbLine
 10
913.94305
 20
1093.595223
 11
916.94305
 21
1093.595223
  0
LINE
  5
380
100
AcDbEntity
  8
M0
100
AcDbLine
 10
916.94305
 20
1093.595223
 11
916.94305
 21
1115.095223
  0
LINE
  5
381
100
AcDbEntity
  8
M0
100
AcDbLine
 10
916.94305
 20
1115.095223
 11
913.94305
 21
1115.095223
  0
LINE
  5
382
100
AcDbEntity
  8
M0
100
AcDbLine
 10
913.94305
 20
1115.095223
 11
913.94305
 21
1093.595223
  0
LINE
  5
383
100
AcDbEntity
  8
M0
100
AcDbLine
 10
913.94305
 20
1104.345239
 11
916.94305
 21
1102.613198
  0
LINE
  5
384
100
AcDbEntity
  8
M0
100
AcDbLine
 10
913.94305
 20
1106.077264
 11
916.94305
 21
1104.345223
  0
LINE
  5
385
100
AcDbEntity
  8
M0
100
AcDbLine
 10
919.243053
 20
1091.345233
 11
916.94305
 21
1091.345233
  0
LINE
  5
386
100
AcDbEntity
  8
M0
100
AcDbLine
 10
916.94305
 20
1091.345233
 11
916.94305
 21
1117.345233
  0
LINE
  5
387
100
AcDbEntity
  8
M0
100
AcDbLine
 10
916.94305
 20
1117.345233
 11
919.243053
 21
1117.345233
  0
LINE
  5
388
100
AcDbEntity
  8
M0
100
AcDbLine
 10
919.243053
 20
1117.345233
 11
919.243053
 21
1091.345233
  0
LINE
  5
389
100
AcDbEntity
  8
M0
100
AcDbLine
 10
936.24339
 20
1393.82026
 11
929.24339
 21
1393.82026
  0
LINE
  5
38A
100
AcDbEntity
  8
M0
100
AcDbLine
 10
936.24339
 20
1382.870248
 11
929.24339
 21
1382.870248
  0
LINE
  5
38B
100
AcDbEntity
  8
M0
100
AcDbLine
 10
888.24339
 20
1394.345275
 11
906.943012
 21
1394.345275
  0
LINE
  5
38C
100
AcDbEntity
  8
M0
100
AcDbLine
 10
906.943012
 20
1382.345275
 11
888.24339
 21
1382.345275
  0
LINE
  5
38D
100
AcDbEntity
  8
M0
  6
DASHDOT
100
AcDbLine
 10
941.24339
 20
1388.345275
 11
883.859539
 21
1388.345275
  0
LINE
  5
38E
100
AcDbEntity
  8
M0
100
AcDbLine
 10
929.24339
 20
1399.308272
 11
936.24339
 21
1399.308272
  0
LINE
  5
38F
100
AcDbEntity
  8
M0
100
AcDbLine
 10
936.24339
 20
1399.308272
 11
936.24339
 21
1377.382262
  0
LINE
  5
390
100
AcDbEntity
  8
M0
100
AcDbLine
 10
936.24339
 20
1377.382262
 11
929.24339
 21
1377.382262
  0
LINE
  5
391
100
AcDbEntity
  8
M0
100
AcDbLine
 10
888.24339
 20
1394.345275
 11
888.24339
 21
1382.345275
  0
LINE
  5
392
100
AcDbEntity
  8
M0
100
AcDbLine
 10
913.943256
 20
1377.395272
 11
906.943256
 21
1377.395272
  0
LINE
  5
393
100
AcDbEntity
  8
M0
100
AcDbLine
 10
906.943012
 20
1377.395287
 11
906.943012
 21
1399.295281
  0
LINE
  5
394
100
AcDbEntity
  8
M0
100
AcDbLine
 10
913.943012
 20
1399.295235
 11
913.943012
 21
1377.395257
  0
LINE
  5
395
100
AcDbEntity
  8
M0
100
AcDbLine
 10
906.943256
 20
1382.870248
 11
913.943256
 21
1382.870248
  0
LINE
  5
396
100
AcDbEntity
  8
M0
100
AcDbLine
 10
913.9435
 20
1399.295266
 11
906.943256
 21
1399.295266
  0
LINE
  5
397
100
AcDbEntity
  8
M0
100
AcDbLine
 10
906.943256
 20
1393.82026
 11
913.9435
 21
1393.82026
  0
LINE
  5
398
100
AcDbEntity
  8
M0
100
AcDbLine
 10
913.943012
 20
1377.595275
 11
916.943012
 21
1377.595275
  0
LINE
  5
399
100
AcDbEntity
  8
M0
100
AcDbLine
 10
916.943012
 20
1377.595275
 11
916.943012
 21
1399.095275
  0
LINE
  5
39A
100
AcDbEntity
  8
M0
100
AcDbLine
 10
916.943012
 20
1399.095275
 11
913.943012
 21
1399.095275
  0
LINE
  5
39B
100
AcDbEntity
  8
M0
100
AcDbLine
 10
913.943012
 20
1399.095275
 11
913.943012
 21
1377.595275
  0
LINE
  5
39C
100
AcDbEntity
  8
M0
100
AcDbLine
 10
913.943012
 20
1388.34529
 11
916.943012
 21
1386.613249
  0
LINE
  5
39D
100
AcDbEntity
  8
M0
100
AcDbLine
 10
913.943012
 20
1390.077315
 11
916.943012
 21
1388.345275
  0
LINE
  5
39E
100
AcDbEntity
  8
M0
100
AcDbLine
 10
919.243015
 20
1375.345284
 11
916.943012
 21
1375.345284
  0
LINE
  5
39F
100
AcDbEntity
  8
M0
100
AcDbLine
 10
916.943012
 20
1375.345284
 11
916.943012
 21
1401.345284
  0
LINE
  5
3A0
100
AcDbEntity
  8
M0
100
AcDbLine
 10
916.943012
 20
1401.345284
 11
919.243015
 21
1401.345284
  0
LINE
  5
3A1
100
AcDbEntity
  8
M0
100
AcDbLine
 10
919.243015
 20
1401.345284
 11
919.243015
 21
1375.345284
  0
ARC
  5
3A2
100
AcDbEntity
  8
M0
 62
     7
100
AcDbCircle
 10
626.24731
 20
1202.845305
 40
1.5
100
AcDbArc
 50
269.999417
 51
360.0
  0
ARC
  5
3A3
100
AcDbEntity
  8
M0
 62
     7
100
AcDbCircle
 10
626.24731
 20
1199.845305
 40
1.5
100
AcDbArc
 50
90.0
 51
180.0
  0
ARC
  5
3A4
100
AcDbEntity
  8
M0
 62
     7
100
AcDbCircle
 10
623.74731
 20
1337.345305
 40
4.0
100
AcDbArc
 50
0.0
 51
90.0
  0
LINE
  5
3A5
100
AcDbEntity
  8
M0
 62
     7
100
AcDbLine
 10
623.74731
 20
1341.345305
 11
618.74731
 21
1341.345305
  0
LINE
  5
3A6
100
AcDbEntity
  8
M0
 62
     7
100
AcDbLine
 10
554.1273
 20
1337.505293
 11
554.407298
 21
1338.4653
  0
ARC
  5
3A7
100
AcDbEntity
  8
M0
 62
     7
100
AcDbCircle
 10
551.24731
 20
1338.345305
 40
3.0
100
AcDbArc
 50
269.999709
 51
343.738968
  0
LINE
  5
3A8
100
AcDbEntity
  8
M0
 62
     7
100
AcDbLine
 10
563.087306
 20
1338.4653
 11
563.367305
 21
1337.505293
  0
ARC
  5
3A9
100
AcDbEntity
  8
M0
 62
     7
100
AcDbCircle
 10
566.24731
 20
1338.345305
 40
3.0
100
AcDbArc
 50
196.260391
 51
269.999709
  0
LINE
  5
3AA
100
AcDbEntity
  8
M0
 62
     7
100
AcDbLine
 10
614.6273
 20
1337.505293
 11
614.907298
 21
1338.4653
  0
ARC
  5
3AB
100
AcDbEntity
  8
M0
 62
     7
100
AcDbCircle
 10
618.74731
 20
1337.345305
 40
4.0
100
AcDbArc
 50
90.0
 51
163.740119
  0
ARC
  5
3AC
100
AcDbEntity
  8
M0
 62
     7
100
AcDbCircle
 10
611.74731
 20
1338.345305
 40
3.0
100
AcDbArc
 50
269.999709
 51
343.738968
  0
LINE
  5
3AD
100
AcDbEntity
  8
M0
 62
     7
100
AcDbLine
 10
611.74731
 20
1335.345305
 11
566.24731
 21
1335.345305
  0
ARC
  5
3AE
100
AcDbEntity
  8
M0
 62
     7
100
AcDbCircle
 10
559.24731
 20
1337.345305
 40
4.0
100
AcDbArc
 50
16.260152
 51
90.0
  0
ARC
  5
3AF
100
AcDbEntity
  8
M0
 62
     7
100
AcDbCircle
 10
558.24731
 20
1337.345305
 40
4.0
100
AcDbArc
 50
90.0
 51
163.740119
  0
LINE
  5
3B0
100
AcDbEntity
  8
M0
 62
     7
100
AcDbLine
 10
558.24731
 20
1341.345305
 11
559.24731
 21
1341.345305
  0
ARC
  5
3B1
100
AcDbEntity
  8
M0
 62
     7
100
AcDbCircle
 10
624.74731
 20
1324.345305
 40
3.0
100
AcDbArc
 50
269.999709
 51
360.0
  0
ARC
  5
3B2
100
AcDbEntity
  8
M0
 62
     7
100
AcDbCircle
 10
624.74731
 20
1308.345305
 40
3.0
100
AcDbArc
 50
0.0
 51
90.0
  0
LINE
  5
3B3
100
AcDbEntity
  8
M0
 62
     7
100
AcDbLine
 10
624.74731
 20
1321.345305
 11
619.74731
 21
1321.345305
  0
LINE
  5
3B4
100
AcDbEntity
  8
M0
 62
     7
100
AcDbLine
 10
624.74731
 20
1311.345305
 11
619.74731
 21
1311.345305
  0
LINE
  5
3B5
100
AcDbEntity
  8
M0
  6
DASHDOT
 62
     7
100
AcDbLine
 10
632.74731
 20
1316.345305
 11
604.464793
 21
1316.345305
  0
CIRCLE
  5
3B6
100
AcDbEntity
  8
M0
 62
     7
100
AcDbCircle
 10
619.74731
 20
1316.345305
 40
2.5
  0
LINE
  5
3B7
100
AcDbEntity
  8
M0
  6
DASHDOT
 62
     7
100
AcDbLine
 10
612.24731
 20
1316.345305
 11
627.24731
 21
1316.345305
  0
LINE
  5
3B8
100
AcDbEntity
  8
M0
  6
DASHDOT
 62
     7
100
AcDbLine
 10
619.74731
 20
1308.845305
 11
619.74731
 21
1323.845305
  0
ARC
  5
3B9
100
AcDbEntity
  8
M0
 62
     7
100
AcDbCircle
 10
619.74731
 20
1316.345305
 40
5.0
100
AcDbArc
 50
90.0
 51
269.999825
  0
ARC
  5
3BA
100
AcDbEntity
  8
M0
 62
     7
100
AcDbCircle
 10
433.74731
 20
1337.345305
 40
4.0
100
AcDbArc
 50
89.999781
 51
180.0
  0
LINE
  5
3BB
100
AcDbEntity
  8
M0
 62
     7
100
AcDbLine
 10
433.74731
 20
1341.345305
 11
438.74731
 21
1341.345305
  0
LINE
  5
3BC
100
AcDbEntity
  8
M0
 62
     7
100
AcDbLine
 10
503.36732
 20
1337.505293
 11
503.087322
 21
1338.4653
  0
ARC
  5
3BD
100
AcDbEntity
  8
M0
 62
     7
100
AcDbCircle
 10
506.24731
 20
1338.345305
 40
3.0
100
AcDbArc
 50
196.260753
 51
270.0
  0
LINE
  5
3BE
100
AcDbEntity
  8
M0
 62
     7
100
AcDbLine
 10
494.407314
 20
1338.4653
 11
494.127315
 21
1337.505293
  0
ARC
  5
3BF
100
AcDbEntity
  8
M0
 62
     7
100
AcDbCircle
 10
491.24731
 20
1338.345305
 40
3.0
100
AcDbArc
 50
270.0
 51
343.739609
  0
LINE
  5
3C0
100
AcDbEntity
  8
M0
 62
     7
100
AcDbLine
 10
442.86732
 20
1337.505293
 11
442.587322
 21
1338.4653
  0
ARC
  5
3C1
100
AcDbEntity
  8
M0
 62
     7
100
AcDbCircle
 10
438.74731
 20
1337.345305
 40
4.0
100
AcDbArc
 50
16.259671
 51
89.999781
  0
ARC
  5
3C2
100
AcDbEntity
  8
M0
 62
     7
100
AcDbCircle
 10
445.74731
 20
1338.345305
 40
3.0
100
AcDbArc
 50
196.260753
 51
270.0
  0
LINE
  5
3C3
100
AcDbEntity
  8
M0
 62
     7
100
AcDbLine
 10
445.74731
 20
1335.345305
 11
491.24731
 21
1335.345305
  0
LINE
  5
3C4
100
AcDbEntity
  8
M0
 62
     7
100
AcDbLine
 10
551.24731
 20
1335.345305
 11
506.24731
 21
1335.345305
  0
ARC
  5
3C5
100
AcDbEntity
  8
M0
 62
     7
100
AcDbCircle
 10
498.24731
 20
1337.345305
 40
4.0
100
AcDbArc
 50
89.999781
 51
163.739848
  0
ARC
  5
3C6
100
AcDbEntity
  8
M0
 62
     7
100
AcDbCircle
 10
499.24731
 20
1337.345305
 40
4.0
100
AcDbArc
 50
16.259671
 51
89.999781
  0
LINE
  5
3C7
100
AcDbEntity
  8
M0
 62
     7
100
AcDbLine
 10
499.24731
 20
1341.345305
 11
498.24731
 21
1341.345305
  0
ARC
  5
3C8
100
AcDbEntity
  8
M0
 62
     7
100
AcDbCircle
 10
432.74731
 20
1324.345305
 40
3.0
100
AcDbArc
 50
180.0
 51
270.0
  0
ARC
  5
3C9
100
AcDbEntity
  8
M0
 62
     7
100
AcDbCircle
 10
432.74731
 20
1308.345305
 40
3.0
100
AcDbArc
 50
89.999709
 51
180.0
  0
LINE
  5
3CA
100
AcDbEntity
  8
M0
 62
     7
100
AcDbLine
 10
432.74731
 20
1321.345305
 11
437.74731
 21
1321.345305
  0
LINE
  5
3CB
100
AcDbEntity
  8
M0
 62
     7
100
AcDbLine
 10
432.74731
 20
1311.345305
 11
437.74731
 21
1311.345305
  0
LINE
  5
3CC
100
AcDbEntity
  8
M0
  6
DASHDOT
 62
     7
100
AcDbLine
 10
424.74731
 20
1316.345305
 11
453.029826
 21
1316.345305
  0
CIRCLE
  5
3CD
100
AcDbEntity
  8
M0
 62
     7
100
AcDbCircle
 10
437.74731
 20
1316.345305
 40
2.5
  0
LINE
  5
3CE
100
AcDbEntity
  8
M0
  6
DASHDOT
 62
     7
100
AcDbLine
 10
445.24731
 20
1316.345305
 11
430.24731
 21
1316.345305
  0
LINE
  5
3CF
100
AcDbEntity
  8
M0
  6
DASHDOT
 62
     7
100
AcDbLine
 10
437.74731
 20
1308.845305
 11
437.74731
 21
1323.845305
  0
ARC
  5
3D0
100
AcDbEntity
  8
M0
 62
     7
100
AcDbCircle
 10
437.74731
 20
1316.345305
 40
5.0
100
AcDbArc
 50
-90.0
 51
89.999825
  0
LINE
  5
3D1
100
AcDbEntity
  8
M0
 62
     7
100
AcDbLine
 10
554.1273
 20
1155.185307
 11
554.407298
 21
1154.225307
  0
ARC
  5
3D2
100
AcDbEntity
  8
M0
 62
     7
100
AcDbCircle
 10
551.24731
 20
1154.345307
 40
3.0
100
AcDbArc
 50
16.260368
 51
90.0
  0
LINE
  5
3D3
100
AcDbEntity
  8
M0
 62
     7
100
AcDbLine
 10
563.087306
 20
1154.225307
 11
563.367305
 21
1155.185307
  0
ARC
  5
3D4
100
AcDbEntity
  8
M0
 62
     7
100
AcDbCircle
 10
566.24731
 20
1154.345307
 40
3.0
100
AcDbArc
 50
90.0
 51
163.739819
  0
LINE
  5
3D5
100
AcDbEntity
  8
M0
 62
     7
100
AcDbLine
 10
551.24731
 20
1157.345306
 11
506.24731
 21
1157.345306
  0
ARC
  5
3D6
100
AcDbEntity
  8
M0
 62
     7
100
AcDbCircle
 10
559.24731
 20
1155.345307
 40
4.0
100
AcDbArc
 50
269.999781
 51
343.739703
  0
ARC
  5
3D7
100
AcDbEntity
  8
M0
 62
     7
100
AcDbCircle
 10
620.74731
 20
1155.345307
 40
4.0
100
AcDbArc
 50
-90.000219
 51
0.0
  0
LINE
  5
3D8
100
AcDbEntity
  8
M0
 62
     7
100
AcDbLine
 10
432.74731
 20
1155.345307
 11
432.74731
 21
1199.845305
  0
LINE
  5
3D9
100
AcDbEntity
  8
M0
 62
     7
100
AcDbLine
 10
624.74731
 20
1155.345307
 11
624.74731
 21
1199.845305
  0
LINE
  5
3DA
100
AcDbEntity
  8
M0
 62
     7
100
AcDbLine
 10
620.74731
 20
1151.345307
 11
618.847301
 21
1151.345307
  0
LINE
  5
3DB
100
AcDbEntity
  8
M0
 62
     7
100
AcDbLine
 10
614.727306
 20
1155.185307
 11
615.007304
 21
1154.225307
  0
ARC
  5
3DC
100
AcDbEntity
  8
M0
 62
     7
100
AcDbCircle
 10
618.847301
 20
1155.345307
 40
4.0
100
AcDbArc
 50
196.260039
 51
269.999781
  0
ARC
  5
3DD
100
AcDbEntity
  8
M0
 62
     7
100
AcDbCircle
 10
611.847301
 20
1154.345307
 40
3.0
100
AcDbArc
 50
16.260298
 51
90.0
  0
LINE
  5
3DE
100
AcDbEntity
  8
M0
 62
     7
100
AcDbLine
 10
611.847301
 20
1157.345306
 11
566.24731
 21
1157.345306
  0
ARC
  5
3DF
100
AcDbEntity
  8
M0
 62
     7
100
AcDbCircle
 10
558.24731
 20
1155.345307
 40
4.0
100
AcDbArc
 50
196.260039
 51
269.999781
  0
LINE
  5
3E0
100
AcDbEntity
  8
M0
 62
     7
100
AcDbLine
 10
558.24731
 20
1151.345307
 11
559.24731
 21
1151.345307
  0
LINE
  5
3E1
100
AcDbEntity
  8
M0
 62
     7
100
AcDbLine
 10
503.36732
 20
1155.185307
 11
503.087322
 21
1154.225307
  0
ARC
  5
3E2
100
AcDbEntity
  8
M0
 62
     7
100
AcDbCircle
 10
506.24731
 20
1154.345307
 40
3.0
100
AcDbArc
 50
89.999709
 51
163.739527
  0
LINE
  5
3E3
100
AcDbEntity
  8
M0
 62
     7
100
AcDbLine
 10
494.407314
 20
1154.225307
 11
494.127315
 21
1155.185307
  0
ARC
  5
3E4
100
AcDbEntity
  8
M0
 62
     7
100
AcDbCircle
 10
491.24731
 20
1154.345307
 40
3.0
100
AcDbArc
 50
16.260146
 51
89.999709
  0
ARC
  5
3E5
100
AcDbEntity
  8
M0
 62
     7
100
AcDbCircle
 10
498.24731
 20
1155.345307
 40
4.0
100
AcDbArc
 50
196.260192
 51
270.0
  0
ARC
  5
3E6
100
AcDbEntity
  8
M0
 62
     7
100
AcDbCircle
 10
499.24731
 20
1155.345307
 40
4.0
100
AcDbArc
 50
270.0
 51
343.73987
  0
LINE
  5
3E7
100
AcDbEntity
  8
M0
 62
     7
100
AcDbLine
 10
499.24731
 20
1151.345307
 11
498.24731
 21
1151.345307
  0
ARC
  5
3E8
100
AcDbEntity
  8
M0
 62
     7
100
AcDbCircle
 10
436.74731
 20
1155.345307
 40
4.0
100
AcDbArc
 50
179.999959
 51
270.0
  0
ARC
  5
3E9
100
AcDbEntity
  8
M0
 62
     7
100
AcDbCircle
 10
435.74731
 20
1168.345306
 40
3.0
100
AcDbArc
 50
89.999709
 51
179.999982
  0
ARC
  5
3EA
100
AcDbEntity
  8
M0
 62
     7
100
AcDbCircle
 10
435.74731
 20
1184.345305
 40
3.0
100
AcDbArc
 50
180.0
 51
270.0
  0
LINE
  5
3EB
100
AcDbEntity
  8
M0
 62
     7
100
AcDbLine
 10
435.74731
 20
1171.345306
 11
440.74731
 21
1171.345306
  0
LINE
  5
3EC
100
AcDbEntity
  8
M0
 62
     7
100
AcDbLine
 10
435.74731
 20
1181.345305
 11
440.74731
 21
1181.345305
  0
LINE
  5
3ED
100
AcDbEntity
  8
M0
  6
DASHDOT
 62
     7
100
AcDbLine
 10
427.74731
 20
1176.345305
 11
456.029826
 21
1176.345305
  0
CIRCLE
  5
3EE
100
AcDbEntity
  8
M0
 62
     7
100
AcDbCircle
 10
440.74731
 20
1176.345305
 40
2.5
  0
LINE
  5
3EF
100
AcDbEntity
  8
M0
  6
DASHDOT
 62
     7
100
AcDbLine
 10
448.24731
 20
1176.345305
 11
433.24731
 21
1176.345305
  0
LINE
  5
3F0
100
AcDbEntity
  8
M0
  6
DASHDOT
 62
     7
100
AcDbLine
 10
440.74731
 20
1183.845305
 11
440.74731
 21
1168.845306
  0
ARC
  5
3F1
100
AcDbEntity
  8
M0
 62
     7
100
AcDbCircle
 10
440.74731
 20
1176.345305
 40
5.0
100
AcDbArc
 50
270.0
 51
449.999825
  0
ARC
  5
3F2
100
AcDbEntity
  8
M0
 62
     7
100
AcDbCircle
 10
621.74731
 20
1168.345306
 40
3.0
100
AcDbArc
 50
0.0
 51
90.0
  0
ARC
  5
3F3
100
AcDbEntity
  8
M0
 62
     7
100
AcDbCircle
 10
621.74731
 20
1184.345305
 40
3.0
100
AcDbArc
 50
-90.000291
 51
0.0
  0
LINE
  5
3F4
100
AcDbEntity
  8
M0
 62
     7
100
AcDbLine
 10
621.74731
 20
1171.345306
 11
616.74731
 21
1171.345306
  0
LINE
  5
3F5
100
AcDbEntity
  8
M0
 62
     7
100
AcDbLine
 10
621.74731
 20
1181.345305
 11
616.74731
 21
1181.345305
  0
LINE
  5
3F6
100
AcDbEntity
  8
M0
  6
DASHDOT
 62
     7
100
AcDbLine
 10
629.74731
 20
1176.345305
 11
601.464793
 21
1176.345305
  0
CIRCLE
  5
3F7
100
AcDbEntity
  8
M0
 62
     7
100
AcDbCircle
 10
616.74731
 20
1176.345305
 40
2.5
  0
LINE
  5
3F8
100
AcDbEntity
  8
M0
  6
DASHDOT
 62
     7
100
AcDbLine
 10
609.24731
 20
1176.345305
 11
624.24731
 21
1176.345305
  0
LINE
  5
3F9
100
AcDbEntity
  8
M0
  6
DASHDOT
 62
     7
100
AcDbLine
 10
616.74731
 20
1183.845305
 11
616.74731
 21
1168.845306
  0
ARC
  5
3FA
100
AcDbEntity
  8
M0
 62
     7
100
AcDbCircle
 10
616.74731
 20
1176.345305
 40
5.0
100
AcDbArc
 50
90.0
 51
269.999825
  0
LINE
  5
3FB
100
AcDbEntity
  8
M0
 62
     7
100
AcDbLine
 10
429.74731
 20
1202.845305
 11
429.74731
 21
1337.345305
  0
ARC
  5
3FC
100
AcDbEntity
  8
M0
 62
     7
100
AcDbCircle
 10
431.24731
 20
1202.845305
 40
1.5
100
AcDbArc
 50
180.0
 51
270.0
  0
ARC
  5
3FD
100
AcDbEntity
  8
M0
 62
     7
100
AcDbCircle
 10
431.24731
 20
1199.845305
 40
1.5
100
AcDbArc
 50
0.0
 51
89.999417
  0
LINE
  5
3FE
100
AcDbEntity
  8
M0
 62
     7
100
AcDbLine
 10
627.74731
 20
1202.845305
 11
627.74731
 21
1337.345305
  0
LINE
  5
3FF
100
AcDbEntity
  8
M0
 62
     7
100
AcDbLine
 10
445.647319
 20
1157.345306
 11
491.24731
 21
1157.345306
  0
ARC
  5
400
100
AcDbEntity
  8
M0
 62
     7
100
AcDbCircle
 10
445.647319
 20
1154.345307
 40
3.0
100
AcDbArc
 50
89.999709
 51
163.739632
  0
ARC
  5
401
100
AcDbEntity
  8
M0
 62
     7
100
AcDbCircle
 10
438.647319
 20
1155.345307
 40
4.0
100
AcDbArc
 50
270.0
 51
343.73987
  0
LINE
  5
402
100
AcDbEntity
  8
M0
 62
     7
100
AcDbLine
 10
442.767314
 20
1155.185307
 11
442.487315
 21
1154.225307
  0
LINE
  5
403
100
AcDbEntity
  8
M0
 62
     7
100
AcDbLine
 10
436.74731
 20
1151.345307
 11
438.647319
 21
1151.345307
  0
LINE
  5
404
100
AcDbEntity
  8
M0
  6
DASHDOT
 62
     7
100
AcDbLine
 10
512.447322
 20
1257.845305
 11
545.047298
 21
1257.845305
  0
ARC
  5
405
100
AcDbEntity
  8
M0
 62
     7
100
AcDbCircle
 10
530.74731
 20
1273.195296
 40
1.0
100
AcDbArc
 50
0.0
 51
90.0
  0
LINE
  5
406
100
AcDbEntity
  8
M0
 62
     7
100
AcDbLine
 10
526.74731
 20
1274.195296
 11
530.74731
 21
1274.195296
  0
ARC
  5
407
100
AcDbEntity
  8
M0
 62
     7
100
AcDbCircle
 10
526.74731
 20
1273.195296
 40
1.0
100
AcDbArc
 50
90.0
 51
180.0
  0
LINE
  5
408
100
AcDbEntity
  8
M0
 62
     7
100
AcDbLine
 10
525.74731
 20
1273.195296
 11
525.74731
 21
1270.195296
  0
LINE
  5
409
100
AcDbEntity
  8
M0
 62
     7
100
AcDbLine
 10
531.74731
 20
1273.195296
 11
531.74731
 21
1270.195296
  0
LINE
  5
40A
100
AcDbEntity
  8
M0
 62
     7
100
AcDbLine
 10
522.24731
 20
1271.195296
 11
535.24731
 21
1271.195296
  0
LINE
  5
40B
100
AcDbEntity
  8
M0
 62
     7
100
AcDbLine
 10
522.24731
 20
1270.195296
 11
525.74731
 21
1270.195296
  0
LINE
  5
40C
100
AcDbEntity
  8
M0
 62
     7
100
AcDbLine
 10
531.74731
 20
1270.195296
 11
535.24731
 21
1270.195296
  0
LINE
  5
40D
100
AcDbEntity
  8
M0
 62
     7
100
AcDbLine
 10
522.24731
 20
1271.195296
 11
522.24731
 21
1267.995299
  0
LINE
  5
40E
100
AcDbEntity
  8
M0
 62
     7
100
AcDbLine
 10
535.24731
 20
1271.195296
 11
535.24731
 21
1267.995299
  0
LINE
  5
40F
100
AcDbEntity
  8
M0
 62
     7
100
AcDbLine
 10
537.047309
 20
1267.995299
 11
535.24731
 21
1267.995299
  0
ARC
  5
410
100
AcDbEntity
  8
M0
 62
     7
100
AcDbCircle
 10
537.047309
 20
1264.995299
 40
3.0
100
AcDbArc
 50
0.0
 51
90.0
  0
LINE
  5
411
100
AcDbEntity
  8
M0
 62
     7
100
AcDbLine
 10
522.24731
 20
1267.995299
 11
520.447311
 21
1267.995299
  0
ARC
  5
412
100
AcDbEntity
  8
M0
 62
     7
100
AcDbCircle
 10
520.447311
 20
1264.995299
 40
3.0
100
AcDbArc
 50
90.0
 51
180.0
  0
LINE
  5
413
100
AcDbEntity
  8
M0
 62
     7
100
AcDbLine
 10
537.74731
 20
1261.845305
 11
537.74731
 21
1253.845305
  0
LINE
  5
414
100
AcDbEntity
  8
M0
 62
     7
100
AcDbLine
 10
519.74731
 20
1261.845305
 11
519.74731
 21
1253.845305
  0
LINE
  5
415
100
AcDbEntity
  8
M0
 62
     7
100
AcDbLine
 10
537.74731
 20
1261.845305
 11
539.047309
 21
1261.845305
  0
ARC
  5
416
100
AcDbEntity
  8
M0
 62
     7
100
AcDbCircle
 10
539.047309
 20
1262.845305
 40
1.0
100
AcDbArc
 50
270.0
 51
360.0
  0
LINE
  5
417
100
AcDbEntity
  8
M0
 62
     7
100
AcDbLine
 10
518.447311
 20
1261.845305
 11
519.74731
 21
1261.845305
  0
ARC
  5
418
100
AcDbEntity
  8
M0
 62
     7
100
AcDbCircle
 10
518.447311
 20
1262.845305
 40
1.0
100
AcDbArc
 50
180.0
 51
270.0
  0
LINE
  5
419
100
AcDbEntity
  8
M0
 62
     7
100
AcDbLine
 10
518.447311
 20
1253.845305
 11
519.74731
 21
1253.845305
  0
ARC
  5
41A
100
AcDbEntity
  8
M0
 62
     7
100
AcDbCircle
 10
518.447311
 20
1252.845305
 40
1.0
100
AcDbArc
 50
90.0
 51
180.0
  0
LINE
  5
41B
100
AcDbEntity
  8
M0
 62
     7
100
AcDbLine
 10
537.74731
 20
1253.845305
 11
539.047309
 21
1253.845305
  0
ARC
  5
41C
100
AcDbEntity
  8
M0
 62
     7
100
AcDbCircle
 10
539.047309
 20
1252.845305
 40
1.0
100
AcDbArc
 50
0.0
 51
90.0
  0
LINE
  5
41D
100
AcDbEntity
  8
M0
 62
     7
100
AcDbLine
 10
517.447311
 20
1241.695296
 11
540.047309
 21
1241.695296
  0
LINE
  5
41E
100
AcDbEntity
  8
M0
 62
     7
100
AcDbLine
 10
517.447311
 20
1264.995299
 11
517.447311
 21
1241.695296
  0
LINE
  5
41F
100
AcDbEntity
  8
M0
 62
     7
100
AcDbLine
 10
540.047309
 20
1241.695296
 11
540.047309
 21
1264.995299
  0
LINE
  5
420
100
AcDbEntity
  8
M0
 62
     6
100
AcDbLine
 10
642.647307
 20
1291.345303
 11
627.747307
 21
1291.345307
  0
LINE
  5
421
100
AcDbEntity
  8
M0
 62
     6
100
AcDbLine
 10
627.747307
 20
1291.345307
 11
627.747279
 21
1201.345307
  0
LINE
  5
422
100
AcDbEntity
  8
M0
 62
     6
100
AcDbLine
 10
627.747279
 20
1201.345307
 11
642.647279
 21
1201.345303
  0
LINE
  5
423
100
AcDbEntity
  8
M0
 62
     6
100
AcDbLine
 10
642.647279
 20
1201.345303
 11
642.647307
 21
1291.345303
  0
LINE
  5
424
100
AcDbEntity
  8
M0
  6
DASHDOT
 62
     6
100
AcDbLine
 10
647.647293
 20
1246.345301
 11
622.747293
 21
1246.345309
  0
LINE
  5
425
100
AcDbEntity
  8
M0
 62
     6
100
AcDbLine
 10
629.697287
 20
1228.345307
 11
629.697288
 21
1229.845307
  0
LINE
  5
426
100
AcDbEntity
  8
M0
 62
     6
100
AcDbLine
 10
640.697287
 20
1228.345303
 11
640.697288
 21
1229.845303
  0
LINE
  5
427
100
AcDbEntity
  8
M0
 62
     6
100
AcDbLine
 10
629.697288
 20
1229.845307
 11
640.697288
 21
1229.845303
  0
LINE
  5
428
100
AcDbEntity
  8
M0
 62
     6
100
AcDbLine
 10
630.697291
 20
1239.945297
 11
630.697288
 21
1229.845306
  0
LINE
  5
429
100
AcDbEntity
  8
M0
 62
     6
100
AcDbLine
 10
630.697287
 20
1228.345306
 11
630.697279
 21
1201.345306
  0
LINE
  5
42A
100
AcDbEntity
  8
M0
 62
     6
100
AcDbLine
 10
639.697291
 20
1239.945294
 11
639.697288
 21
1229.845304
  0
LINE
  5
42B
100
AcDbEntity
  8
M0
 62
     6
100
AcDbLine
 10
639.697287
 20
1228.345304
 11
639.697279
 21
1201.345304
  0
LINE
  5
42C
100
AcDbEntity
  8
M0
 62
     6
100
AcDbLine
 10
640.697287
 20
1228.345303
 11
639.697287
 21
1228.345304
  0
LINE
  5
42D
100
AcDbEntity
  8
M0
 62
     6
100
AcDbLine
 10
630.697287
 20
1228.345306
 11
629.697287
 21
1228.345307
  0
LINE
  5
42E
100
AcDbEntity
  8
M0
 62
     6
100
AcDbLine
 10
639.697291
 20
1239.945294
 11
630.697291
 21
1239.945297
  0
LINE
  5
42F
100
AcDbEntity
  8
M0
 62
     6
100
AcDbLine
 10
630.697281
 20
1207.345306
 11
639.697281
 21
1207.345304
  0
LINE
  5
430
100
AcDbEntity
  8
M0
 62
     6
100
AcDbLine
 10
627.747285
 20
1221.345307
 11
630.697285
 21
1221.345306
  0
LINE
  5
431
100
AcDbEntity
  8
M0
 62
     6
100
AcDbLine
 10
639.697285
 20
1221.345304
 11
642.647285
 21
1221.345303
  0
LINE
  5
432
100
AcDbEntity
  8
M0
 62
     6
100
AcDbLine
 10
640.697299
 20
1264.345303
 11
640.697298
 21
1262.845303
  0
LINE
  5
433
100
AcDbEntity
  8
M0
 62
     6
100
AcDbLine
 10
629.697298
 20
1262.845307
 11
640.697298
 21
1262.845303
  0
LINE
  5
434
100
AcDbEntity
  8
M0
 62
     6
100
AcDbLine
 10
639.697295
 20
1252.745298
 11
639.697298
 21
1262.845304
  0
LINE
  5
435
100
AcDbEntity
  8
M0
 62
     6
100
AcDbLine
 10
639.697299
 20
1264.345304
 11
639.697307
 21
1291.345304
  0
LINE
  5
436
100
AcDbEntity
  8
M0
 62
     6
100
AcDbLine
 10
640.697299
 20
1264.345303
 11
639.697299
 21
1264.345304
  0
LINE
  5
437
100
AcDbEntity
  8
M0
 62
     6
100
AcDbLine
 10
639.697295
 20
1252.745298
 11
630.697295
 21
1252.7453
  0
LINE
  5
438
100
AcDbEntity
  8
M0
 62
     6
100
AcDbLine
 10
630.697305
 20
1285.345306
 11
639.697305
 21
1285.345304
  0
LINE
  5
439
100
AcDbEntity
  8
M0
 62
     6
100
AcDbLine
 10
639.697301
 20
1271.345304
 11
642.647301
 21
1271.345303
  0
LINE
  5
43A
100
AcDbEntity
  8
M0
 62
     6
100
AcDbLine
 10
630.697295
 20
1252.7453
 11
630.697298
 21
1262.845306
  0
LINE
  5
43B
100
AcDbEntity
  8
M0
 62
     6
100
AcDbLine
 10
629.697299
 20
1264.345307
 11
629.697298
 21
1262.845307
  0
LINE
  5
43C
100
AcDbEntity
  8
M0
 62
     6
100
AcDbLine
 10
630.697299
 20
1264.345306
 11
629.697299
 21
1264.345307
  0
LINE
  5
43D
100
AcDbEntity
  8
M0
 62
     6
100
AcDbLine
 10
630.697299
 20
1264.345306
 11
630.697307
 21
1291.345306
  0
LINE
  5
43E
100
AcDbEntity
  8
M0
 62
     6
100
AcDbLine
 10
627.747301
 20
1271.345307
 11
630.697301
 21
1271.345306
  0
CIRCLE
  5
43F
100
AcDbEntity
  8
M0
 62
     6
100
AcDbCircle
 10
635.197293
 20
1246.345305
 40
2.799999
  0
LINE
  5
440
100
AcDbEntity
  8
M0
 62
     6
100
AcDbLine
 10
414.847313
 20
1291.345303
 11
429.747313
 21
1291.345307
  0
LINE
  5
441
100
AcDbEntity
  8
M0
 62
     6
100
AcDbLine
 10
429.747313
 20
1291.345307
 11
429.747341
 21
1201.345307
  0
LINE
  5
442
100
AcDbEntity
  8
M0
 62
     6
100
AcDbLine
 10
429.747341
 20
1201.345307
 11
414.847341
 21
1201.345303
  0
LINE
  5
443
100
AcDbEntity
  8
M0
 62
     6
100
AcDbLine
 10
414.847341
 20
1201.345303
 11
414.847313
 21
1291.345303
  0
LINE
  5
444
100
AcDbEntity
  8
M0
  6
DASHDOT
 62
     6
100
AcDbLine
 10
409.847327
 20
1246.345301
 11
434.747327
 21
1246.345309
  0
LINE
  5
445
100
AcDbEntity
  8
M0
 62
     6
100
AcDbLine
 10
427.797333
 20
1228.345307
 11
427.797332
 21
1229.845307
  0
LINE
  5
446
100
AcDbEntity
  8
M0
 62
     6
100
AcDbLine
 10
416.797333
 20
1228.345303
 11
416.797332
 21
1229.845303
  0
LINE
  5
447
100
AcDbEntity
  8
M0
 62
     6
100
AcDbLine
 10
427.797332
 20
1229.845307
 11
416.797332
 21
1229.845303
  0
LINE
  5
448
100
AcDbEntity
  8
M0
 62
     6
100
AcDbLine
 10
426.797329
 20
1239.945297
 11
426.797332
 21
1229.845306
  0
LINE
  5
449
100
AcDbEntity
  8
M0
 62
     6
100
AcDbLine
 10
426.797333
 20
1228.345306
 11
426.797341
 21
1201.345306
  0
LINE
  5
44A
100
AcDbEntity
  8
M0
 62
     6
100
AcDbLine
 10
417.797329
 20
1239.945294
 11
417.797332
 21
1229.845304
  0
LINE
  5
44B
100
AcDbEntity
  8
M0
 62
     6
100
AcDbLine
 10
417.797333
 20
1228.345304
 11
417.797341
 21
1201.345304
  0
LINE
  5
44C
100
AcDbEntity
  8
M0
 62
     6
100
AcDbLine
 10
416.797333
 20
1228.345303
 11
417.797333
 21
1228.345304
  0
LINE
  5
44D
100
AcDbEntity
  8
M0
 62
     6
100
AcDbLine
 10
426.797333
 20
1228.345306
 11
427.797333
 21
1228.345307
  0
LINE
  5
44E
100
AcDbEntity
  8
M0
 62
     6
100
AcDbLine
 10
417.797329
 20
1239.945294
 11
426.797329
 21
1239.945297
  0
LINE
  5
44F
100
AcDbEntity
  8
M0
 62
     6
100
AcDbLine
 10
426.797339
 20
1207.345306
 11
417.797339
 21
1207.345304
  0
LINE
  5
450
100
AcDbEntity
  8
M0
 62
     6
100
AcDbLine
 10
429.747335
 20
1221.345307
 11
426.797335
 21
1221.345306
  0
LINE
  5
451
100
AcDbEntity
  8
M0
 62
     6
100
AcDbLine
 10
417.797335
 20
1221.345304
 11
414.847335
 21
1221.345303
  0
LINE
  5
452
100
AcDbEntity
  8
M0
 62
     6
100
AcDbLine
 10
416.797321
 20
1264.345303
 11
416.797322
 21
1262.845303
  0
LINE
  5
453
100
AcDbEntity
  8
M0
 62
     6
100
AcDbLine
 10
427.797322
 20
1262.845307
 11
416.797322
 21
1262.845303
  0
LINE
  5
454
100
AcDbEntity
  8
M0
 62
     6
100
AcDbLine
 10
417.797325
 20
1252.745298
 11
417.797322
 21
1262.845304
  0
LINE
  5
455
100
AcDbEntity
  8
M0
 62
     6
100
AcDbLine
 10
417.797321
 20
1264.345304
 11
417.797313
 21
1291.345304
  0
LINE
  5
456
100
AcDbEntity
  8
M0
 62
     6
100
AcDbLine
 10
416.797321
 20
1264.345303
 11
417.797321
 21
1264.345304
  0
LINE
  5
457
100
AcDbEntity
  8
M0
 62
     6
100
AcDbLine
 10
417.797325
 20
1252.745298
 11
426.797325
 21
1252.7453
  0
LINE
  5
458
100
AcDbEntity
  8
M0
 62
     6
100
AcDbLine
 10
426.797315
 20
1285.345306
 11
417.797315
 21
1285.345304
  0
LINE
  5
459
100
AcDbEntity
  8
M0
 62
     6
100
AcDbLine
 10
417.797319
 20
1271.345304
 11
414.847319
 21
1271.345303
  0
LINE
  5
45A
100
AcDbEntity
  8
M0
 62
     6
100
AcDbLine
 10
426.797325
 20
1252.7453
 11
426.797322
 21
1262.845306
  0
LINE
  5
45B
100
AcDbEntity
  8
M0
 62
     6
100
AcDbLine
 10
427.797321
 20
1264.345307
 11
427.797322
 21
1262.845307
  0
LINE
  5
45C
100
AcDbEntity
  8
M0
 62
     6
100
AcDbLine
 10
426.797321
 20
1264.345306
 11
427.797321
 21
1264.345307
  0
LINE
  5
45D
100
AcDbEntity
  8
M0
 62
     6
100
AcDbLine
 10
426.797321
 20
1264.345306
 11
426.797313
 21
1291.345306
  0
LINE
  5
45E
100
AcDbEntity
  8
M0
 62
     6
100
AcDbLine
 10
429.747319
 20
1271.345307
 11
426.797319
 21
1271.345306
  0
CIRCLE
  5
45F
100
AcDbEntity
  8
M0
 62
     6
100
AcDbCircle
 10
422.297327
 20
1246.345305
 40
2.799999
  0
LINE
  5
460
100
AcDbEntity
  8
M0
100
AcDbLine
 10
658.697307
 20
1121.34532
 11
658.697307
 21
1371.345305
  0
LINE
  5
461
100
AcDbEntity
  8
M0
100
AcDbLine
 10
658.697307
 20
1371.345305
 11
617.675868
 21
1371.345305
  0
LINE
  5
462
100
AcDbEntity
  8
M0
100
AcDbLine
 10
398.797313
 20
1371.345305
 11
398.797313
 21
1121.34532
  0
LINE
  5
463
100
AcDbEntity
  8
M0
100
AcDbLine
 10
398.797313
 20
1121.34532
 11
413.99731
 21
1121.34532
  0
LINE
  5
464
100
AcDbEntity
  8
M0
  6
DASHDOT
100
AcDbLine
 10
373.797313
 20
1246.345305
 11
684.687297
 21
1246.345305
  0
CIRCLE
  5
465
100
AcDbEntity
  8
M0
100
AcDbCircle
 10
443.74731
 20
1358.345305
 40
5.75
  0
CIRCLE
  5
466
100
AcDbEntity
  8
M0
100
AcDbCircle
 10
558.74731
 20
1358.345305
 40
5.75
  0
CIRCLE
  5
467
100
AcDbEntity
  8
M0
100
AcDbCircle
 10
613.74731
 20
1358.345305
 40
5.75
  0
CIRCLE
  5
468
100
AcDbEntity
  8
M0
100
AcDbCircle
 10
558.74731
 20
1358.345305
 40
11.5
  0
LINE
  5
469
100
AcDbEntity
  8
M0
100
AcDbLine
 10
630.697307
 20
1316.345305
 11
630.697307
 21
1314.345305
  0
LINE
  5
46A
100
AcDbEntity
  8
M0
100
AcDbLine
 10
658.697307
 20
1314.345305
 11
630.697307
 21
1314.345305
  0
LINE
  5
46B
100
AcDbEntity
  8
M0
100
AcDbLine
 10
658.697307
 20
1340.845305
 11
655.497295
 21
1340.845305
  0
LINE
  5
46C
100
AcDbEntity
  8
M0
100
AcDbLine
 10
655.497295
 20
1371.345305
 11
655.497295
 21
1340.845305
  0
LINE
  5
46D
100
AcDbEntity
  8
M0
100
AcDbLine
 10
655.497295
 20
1314.345305
 11
655.497295
 21
1291.345305
  0
LINE
  5
46E
100
AcDbEntity
  8
M0
100
AcDbLine
 10
398.797313
 20
1340.845305
 11
401.567867
 21
1340.845305
  0
LINE
  5
46F
100
AcDbEntity
  8
M0
100
AcDbLine
 10
401.997325
 20
1371.345305
 11
401.997325
 21
1340.845305
  0
CIRCLE
  5
470
100
AcDbEntity
  8
M0
100
AcDbCircle
 10
643.74731
 20
1330.345305
 40
5.0
  0
CIRCLE
  5
471
100
AcDbEntity
  8
M0
100
AcDbCircle
 10
413.74731
 20
1330.345305
 40
5.0
  0
LINE
  5
472
100
AcDbEntity
  8
M0
100
AcDbLine
 10
643.74731
 20
1121.34532
 11
658.697307
 21
1121.34532
  0
LINE
  5
473
100
AcDbEntity
  8
M0
100
AcDbLine
 10
578.74731
 20
1371.345305
 11
548.390163
 21
1371.345305
  0
LINE
  5
474
100
AcDbEntity
  8
M0
100
AcDbLine
 10
509.104457
 20
1371.345305
 11
479.104457
 21
1371.345305
  0
LINE
  5
475
100
AcDbEntity
  8
M0
100
AcDbLine
 10
439.818752
 20
1371.345305
 11
398.797313
 21
1371.345305
  0
ARC
  5
476
100
AcDbEntity
  8
M0
100
AcDbCircle
 10
443.74731
 20
1358.345305
 40
11.5
100
AcDbArc
 50
100.5818
 51
330.408018
  0
ARC
  5
477
100
AcDbEntity
  8
M0
100
AcDbCircle
 10
613.74731
 20
1358.345305
 40
11.5
100
AcDbArc
 50
209.591812
 51
439.418051
  0
LINE
  5
478
100
AcDbEntity
  8
M0
100
AcDbLine
 10
618.74731
 20
1088.345305
 11
618.74731
 21
1120.345305
  0
LINE
  5
479
100
AcDbEntity
  8
M0
100
AcDbLine
 10
578.74731
 20
1120.345305
 11
578.74731
 21
1088.345305
  0
LINE
  5
47A
100
AcDbEntity
  8
M0
100
AcDbLine
 10
578.74731
 20
1088.345305
 11
618.74731
 21
1088.345305
  0
LINE
  5
47B
100
AcDbEntity
  8
M0
100
AcDbLine
 10
573.74731
 20
1157.345305
 11
573.74731
 21
1134.345305
  0
LINE
  5
47C
100
AcDbEntity
  8
M0
100
AcDbLine
 10
578.74731
 20
1120.345305
 11
573.74731
 21
1134.345305
  0
LINE
  5
47D
100
AcDbEntity
  8
M0
100
AcDbLine
 10
603.74731
 20
1157.345305
 11
603.74731
 21
1134.345305
  0
LINE
  5
47E
100
AcDbEntity
  8
M0
100
AcDbLine
 10
618.747295
 20
1120.345305
 11
603.74731
 21
1134.345305
  0
CIRCLE
  5
47F
100
AcDbEntity
  8
M0
100
AcDbCircle
 10
598.74731
 20
1104.345305
 40
6.0
  0
LINE
  5
480
100
AcDbEntity
  8
M0
100
AcDbLine
 10
508.74731
 20
1088.345305
 11
548.74731
 21
1088.345305
  0
LINE
  5
481
100
AcDbEntity
  8
M0
  6
DASHDOT
100
AcDbLine
 10
528.74731
 20
1063.345275
 11
528.74731
 21
1246.345275
  0
LINE
  5
482
100
AcDbEntity
  8
M0
100
AcDbLine
 10
508.74731
 20
1120.345305
 11
508.74731
 21
1088.345305
  0
LINE
  5
483
100
AcDbEntity
  8
M0
100
AcDbLine
 10
548.74731
 20
1088.345305
 11
548.74731
 21
1120.345305
  0
LINE
  5
484
100
AcDbEntity
  8
M0
100
AcDbLine
 10
543.74731
 20
1157.345305
 11
543.74731
 21
1134.345305
  0
LINE
  5
485
100
AcDbEntity
  8
M0
100
AcDbLine
 10
543.74731
 20
1134.345305
 11
548.74731
 21
1120.345305
  0
LINE
  5
486
100
AcDbEntity
  8
M0
100
AcDbLine
 10
508.74731
 20
1120.345305
 11
513.74731
 21
1134.345305
  0
LINE
  5
487
100
AcDbEntity
  8
M0
100
AcDbLine
 10
513.74731
 20
1157.345305
 11
513.74731
 21
1134.345305
  0
CIRCLE
  5
488
100
AcDbEntity
  8
M0
100
AcDbCircle
 10
528.74731
 20
1104.345305
 40
6.0
  0
LINE
  5
489
100
AcDbEntity
  8
M0
 62
     6
100
AcDbLine
 10
528.74731
 20
1093.395232
 11
519.2644
 21
1098.870238
  0
LINE
  5
48A
100
AcDbEntity
  8
M0
 62
     6
100
AcDbLine
 10
519.2644
 20
1098.870238
 11
519.2644
 21
1109.82022
  0
LINE
  5
48B
100
AcDbEntity
  8
M0
 62
     6
100
AcDbLine
 10
519.2644
 20
1109.82022
 11
528.74731
 21
1115.295226
  0
LINE
  5
48C
100
AcDbEntity
  8
M0
 62
     6
100
AcDbLine
 10
528.74731
 20
1115.295226
 11
538.230464
 21
1109.82022
  0
LINE
  5
48D
100
AcDbEntity
  8
M0
 62
     6
100
AcDbLine
 10
538.230464
 20
1109.82022
 11
538.230464
 21
1098.870207
  0
LINE
  5
48E
100
AcDbEntity
  8
M0
 62
     6
100
AcDbLine
 10
538.230464
 20
1098.870207
 11
528.74731
 21
1093.395232
  0
CIRCLE
  5
48F
100
AcDbEntity
  8
M0
 62
     6
100
AcDbCircle
 10
528.74731
 20
1104.345214
 40
6.0
  0
LINE
  5
490
100
AcDbEntity
  8
M0
  6
DASHDOT
 62
     6
100
AcDbLine
 10
542.452632
 20
1104.34532
 11
515.042873
 21
1104.34532
  0
LINE
  5
491
100
AcDbEntity
  8
M0
  6
DASHDOT
 62
     6
100
AcDbLine
 10
528.747554
 20
1118.050246
 11
528.747798
 21
1090.640395
  0
LINE
  5
492
100
AcDbEntity
  8
M0
 62
     6
100
AcDbLine
 10
598.74731
 20
1093.395232
 11
589.2644
 21
1098.870238
  0
LINE
  5
493
100
AcDbEntity
  8
M0
 62
     6
100
AcDbLine
 10
589.2644
 20
1098.870238
 11
589.2644
 21
1109.82022
  0
LINE
  5
494
100
AcDbEntity
  8
M0
 62
     6
100
AcDbLine
 10
589.2644
 20
1109.82022
 11
598.74731
 21
1115.295226
  0
LINE
  5
495
100
AcDbEntity
  8
M0
 62
     6
100
AcDbLine
 10
598.74731
 20
1115.295226
 11
608.230464
 21
1109.82022
  0
LINE
  5
496
100
AcDbEntity
  8
M0
 62
     6
100
AcDbLine
 10
608.230464
 20
1109.82022
 11
608.230464
 21
1098.870207
  0
LINE
  5
497
100
AcDbEntity
  8
M0
 62
     6
100
AcDbLine
 10
608.230464
 20
1098.870207
 11
598.74731
 21
1093.395232
  0
CIRCLE
  5
498
100
AcDbEntity
  8
M0
 62
     6
100
AcDbCircle
 10
598.74731
 20
1104.345214
 40
6.0
  0
LINE
  5
499
100
AcDbEntity
  8
M0
  6
DASHDOT
 62
     6
100
AcDbLine
 10
612.452632
 20
1104.34532
 11
585.042873
 21
1104.34532
  0
LINE
  5
49A
100
AcDbEntity
  8
M0
  6
DASHDOT
 62
     6
100
AcDbLine
 10
598.747554
 20
1118.050246
 11
598.747798
 21
1090.640395
  0
LINE
  5
49B
100
AcDbEntity
  8
M0
100
AcDbLine
 10
438.74731
 20
1088.345305
 11
438.74731
 21
1120.345305
  0
LINE
  5
49C
100
AcDbEntity
  8
M0
100
AcDbLine
 10
478.74731
 20
1120.345305
 11
478.74731
 21
1088.345305
  0
LINE
  5
49D
100
AcDbEntity
  8
M0
100
AcDbLine
 10
478.74731
 20
1088.345305
 11
438.74731
 21
1088.345305
  0
LINE
  5
49E
100
AcDbEntity
  8
M0
100
AcDbLine
 10
483.74731
 20
1157.345305
 11
483.74731
 21
1134.345305
  0
LINE
  5
49F
100
AcDbEntity
  8
M0
100
AcDbLine
 10
478.74731
 20
1120.345305
 11
483.74731
 21
1134.345305
  0
LINE
  5
4A0
100
AcDbEntity
  8
M0
100
AcDbLine
 10
453.74731
 20
1157.345305
 11
453.74731
 21
1134.345305
  0
LINE
  5
4A1
100
AcDbEntity
  8
M0
100
AcDbLine
 10
438.747325
 20
1120.345305
 11
453.74731
 21
1134.345305
  0
CIRCLE
  5
4A2
100
AcDbEntity
  8
M0
100
AcDbCircle
 10
458.74731
 20
1104.345305
 40
6.0
  0
LINE
  5
4A3
100
AcDbEntity
  8
M0
 62
     6
100
AcDbLine
 10
458.74731
 20
1093.395232
 11
468.23022
 21
1098.870238
  0
LINE
  5
4A4
100
AcDbEntity
  8
M0
 62
     6
100
AcDbLine
 10
468.23022
 20
1098.870238
 11
468.23022
 21
1109.82022
  0
LINE
  5
4A5
100
AcDbEntity
  8
M0
 62
     6
100
AcDbLine
 10
468.23022
 20
1109.82022
 11
458.74731
 21
1115.295226
  0
LINE
  5
4A6
100
AcDbEntity
  8
M0
 62
     6
100
AcDbLine
 10
458.74731
 20
1115.295226
 11
449.264156
 21
1109.82022
  0
LINE
  5
4A7
100
AcDbEntity
  8
M0
 62
     6
100
AcDbLine
 10
449.264156
 20
1109.82022
 11
449.264156
 21
1098.870207
  0
LINE
  5
4A8
100
AcDbEntity
  8
M0
 62
     6
100
AcDbLine
 10
449.264156
 20
1098.870207
 11
458.74731
 21
1093.395232
  0
CIRCLE
  5
4A9
100
AcDbEntity
  8
M0
 62
     6
100
AcDbCircle
 10
458.74731
 20
1104.345214
 40
6.0
  0
LINE
  5
4AA
100
AcDbEntity
  8
M0
  6
DASHDOT
 62
     6
100
AcDbLine
 10
445.041988
 20
1104.34532
 11
472.451747
 21
1104.34532
  0
LINE
  5
4AB
100
AcDbEntity
  8
M0
  6
DASHDOT
 62
     6
100
AcDbLine
 10
458.747066
 20
1118.050246
 11
458.746822
 21
1090.640395
  0
LINE
  5
4AC
100
AcDbEntity
  8
M0
100
AcDbLine
 10
438.747236
 20
1404.345292
 11
438.747256
 21
1372.345292
  0
LINE
  5
4AD
100
AcDbEntity
  8
M0
100
AcDbLine
 10
478.747256
 20
1372.345318
 11
478.747236
 21
1404.345318
  0
LINE
  5
4AE
100
AcDbEntity
  8
M0
100
AcDbLine
 10
478.747236
 20
1404.345318
 11
438.747236
 21
1404.345292
  0
LINE
  5
4AF
100
AcDbEntity
  8
M0
100
AcDbLine
 10
483.747279
 20
1335.345321
 11
483.747265
 21
1358.345321
  0
LINE
  5
4B0
100
AcDbEntity
  8
M0
100
AcDbLine
 10
478.747256
 20
1372.345318
 11
483.747265
 21
1358.345321
  0
LINE
  5
4B1
100
AcDbEntity
  8
M0
100
AcDbLine
 10
453.747279
 20
1335.345302
 11
453.747265
 21
1358.345302
  0
LINE
  5
4B2
100
AcDbEntity
  8
M0
100
AcDbLine
 10
438.747272
 20
1372.345292
 11
453.747265
 21
1358.345302
  0
CIRCLE
  5
4B3
100
AcDbEntity
  8
M0
100
AcDbCircle
 10
458.747246
 20
1388.345305
 40
6.0
  0
LINE
  5
4B4
100
AcDbEntity
  8
M0
100
AcDbLine
 10
508.747236
 20
1404.345292
 11
548.747236
 21
1404.345318
  0
LINE
  5
4B5
100
AcDbEntity
  8
M0
  6
DASHDOT
100
AcDbLine
 10
528.746976
 20
1429.345275
 11
528.747091
 21
1246.345275
  0
LINE
  5
4B6
100
AcDbEntity
  8
M0
100
AcDbLine
 10
508.747256
 20
1372.345292
 11
508.747236
 21
1404.345292
  0
LINE
  5
4B7
100
AcDbEntity
  8
M0
100
AcDbLine
 10
548.747236
 20
1404.345318
 11
548.747256
 21
1372.345318
  0
LINE
  5
4B8
100
AcDbEntity
  8
M0
100
AcDbLine
 10
543.747279
 20
1335.345314
 11
543.747265
 21
1358.345314
  0
LINE
  5
4B9
100
AcDbEntity
  8
M0
100
AcDbLine
 10
543.747265
 20
1358.345314
 11
548.747256
 21
1372.345318
  0
LINE
  5
4BA
100
AcDbEntity
  8
M0
100
AcDbLine
 10
508.747256
 20
1372.345292
 11
513.747265
 21
1358.345296
  0
LINE
  5
4BB
100
AcDbEntity
  8
M0
100
AcDbLine
 10
513.747279
 20
1335.345296
 11
513.747265
 21
1358.345296
  0
CIRCLE
  5
4BC
100
AcDbEntity
  8
M0
100
AcDbCircle
 10
528.747246
 20
1388.345305
 40
6.0
  0
LINE
  5
4BD
100
AcDbEntity
  8
M0
100
AcDbLine
 10
618.747236
 20
1404.345318
 11
618.747256
 21
1372.345318
  0
LINE
  5
4BE
100
AcDbEntity
  8
M0
100
AcDbLine
 10
578.747256
 20
1372.345292
 11
578.747236
 21
1404.345292
  0
LINE
  5
4BF
100
AcDbEntity
  8
M0
100
AcDbLine
 10
578.747236
 20
1404.345292
 11
618.747236
 21
1404.345318
  0
LINE
  5
4C0
100
AcDbEntity
  8
M0
100
AcDbLine
 10
573.747279
 20
1335.345289
 11
573.747265
 21
1358.345289
  0
LINE
  5
4C1
100
AcDbEntity
  8
M0
100
AcDbLine
 10
578.747256
 20
1372.345292
 11
573.747265
 21
1358.345289
  0
LINE
  5
4C2
100
AcDbEntity
  8
M0
100
AcDbLine
 10
603.747279
 20
1335.345308
 11
603.747265
 21
1358.345308
  0
LINE
  5
4C3
100
AcDbEntity
  8
M0
100
AcDbLine
 10
618.747241
 20
1372.345318
 11
603.747265
 21
1358.345308
  0
CIRCLE
  5
4C4
100
AcDbEntity
  8
M0
100
AcDbCircle
 10
598.747246
 20
1388.345305
 40
6.0
  0
LINE
  5
4C5
100
AcDbEntity
  8
M0
 62
     6
100
AcDbLine
 10
598.747239
 20
1399.295378
 11
589.264333
 21
1393.820366
  0
LINE
  5
4C6
100
AcDbEntity
  8
M0
 62
     6
100
AcDbLine
 10
589.264333
 20
1393.820366
 11
589.264339
 21
1382.870385
  0
LINE
  5
4C7
100
AcDbEntity
  8
M0
 62
     6
100
AcDbLine
 10
589.264339
 20
1382.870385
 11
598.747253
 21
1377.395384
  0
LINE
  5
4C8
100
AcDbEntity
  8
M0
 62
     6
100
AcDbLine
 10
598.747253
 20
1377.395384
 11
608.230404
 21
1382.870396
  0
LINE
  5
4C9
100
AcDbEntity
  8
M0
 62
     6
100
AcDbLine
 10
608.230404
 20
1382.870396
 11
608.230397
 21
1393.820409
  0
LINE
  5
4CA
100
AcDbEntity
  8
M0
 62
     6
100
AcDbLine
 10
608.230397
 20
1393.820409
 11
598.747239
 21
1399.295378
  0
CIRCLE
  5
4CB
100
AcDbEntity
  8
M0
 62
     6
100
AcDbCircle
 10
598.747246
 20
1388.345397
 40
6.0
  0
LINE
  5
4CC
100
AcDbEntity
  8
M0
  6
DASHDOT
 62
     6
100
AcDbLine
 10
612.452568
 20
1388.345298
 11
585.042809
 21
1388.345281
  0
LINE
  5
4CD
100
AcDbEntity
  8
M0
  6
DASHDOT
 62
     6
100
AcDbLine
 10
598.747499
 20
1374.640364
 11
598.747726
 21
1402.050215
  0
LINE
  5
4CE
100
AcDbEntity
  8
M0
 62
     6
100
AcDbLine
 10
528.747239
 20
1399.295378
 11
519.264333
 21
1393.820366
  0
LINE
  5
4CF
100
AcDbEntity
  8
M0
 62
     6
100
AcDbLine
 10
519.264333
 20
1393.820366
 11
519.264339
 21
1382.870385
  0
LINE
  5
4D0
100
AcDbEntity
  8
M0
 62
     6
100
AcDbLine
 10
519.264339
 20
1382.870385
 11
528.747253
 21
1377.395384
  0
LINE
  5
4D1
100
AcDbEntity
  8
M0
 62
     6
100
AcDbLine
 10
528.747253
 20
1377.395384
 11
538.230404
 21
1382.870396
  0
LINE
  5
4D2
100
AcDbEntity
  8
M0
 62
     6
100
AcDbLine
 10
538.230404
 20
1382.870396
 11
538.230397
 21
1393.820409
  0
LINE
  5
4D3
100
AcDbEntity
  8
M0
 62
     6
100
AcDbLine
 10
538.230397
 20
1393.820409
 11
528.747239
 21
1399.295378
  0
CIRCLE
  5
4D4
100
AcDbEntity
  8
M0
 62
     6
100
AcDbCircle
 10
528.747246
 20
1388.345397
 40
6.0
  0
LINE
  5
4D5
100
AcDbEntity
  8
M0
  6
DASHDOT
 62
     6
100
AcDbLine
 10
542.452568
 20
1388.345298
 11
515.042809
 21
1388.345281
  0
LINE
  5
4D6
100
AcDbEntity
  8
M0
  6
DASHDOT
 62
     6
100
AcDbLine
 10
528.747499
 20
1374.640364
 11
528.747726
 21
1402.050215
  0
LINE
  5
4D7
100
AcDbEntity
  8
M0
 62
     6
100
AcDbLine
 10
458.747239
 20
1399.295378
 11
468.230153
 21
1393.820378
  0
LINE
  5
4D8
100
AcDbEntity
  8
M0
 62
     6
100
AcDbLine
 10
468.230153
 20
1393.820378
 11
468.23016
 21
1382.870396
  0
LINE
  5
4D9
100
AcDbEntity
  8
M0
 62
     6
100
AcDbLine
 10
468.23016
 20
1382.870396
 11
458.747253
 21
1377.395384
  0
LINE
  5
4DA
100
AcDbEntity
  8
M0
 62
     6
100
AcDbLine
 10
458.747253
 20
1377.395384
 11
449.264095
 21
1382.870385
  0
LINE
  5
4DB
100
AcDbEntity
  8
M0
 62
     6
100
AcDbLine
 10
449.264095
 20
1382.870385
 11
449.264088
 21
1393.820397
  0
LINE
  5
4DC
100
AcDbEntity
  8
M0
 62
     6
100
AcDbLine
 10
449.264088
 20
1393.820397
 11
458.747239
 21
1399.295378
  0
CIRCLE
  5
4DD
100
AcDbEntity
  8
M0
 62
     6
100
AcDbCircle
 10
458.747246
 20
1388.345397
 40
6.0
  0
LINE
  5
4DE
100
AcDbEntity
  8
M0
  6
DASHDOT
 62
     6
100
AcDbLine
 10
445.041924
 20
1388.345281
 11
472.451683
 21
1388.345298
  0
LINE
  5
4DF
100
AcDbEntity
  8
M0
  6
DASHDOT
 62
     6
100
AcDbLine
 10
458.747011
 20
1374.640364
 11
458.746749
 21
1402.050215
  0
ARC
  5
4E0
100
AcDbEntity
  8
M0
 62
     2
100
AcDbCircle
 10
403.74731
 20
1336.345305
 40
5.0
100
AcDbArc
 50
89.999825
 51
180.0
  0
LINE
  5
4E1
100
AcDbEntity
  8
M0
 62
     2
100
AcDbLine
 10
438.74731
 20
1341.345305
 11
403.74731
 21
1341.345305
  0
ARC
  5
4E2
100
AcDbEntity
  8
M0
 62
     2
100
AcDbCircle
 10
438.74731
 20
1337.345305
 40
4.0
100
AcDbArc
 50
0.0
 51
89.999781
  0
LINE
  5
4E3
100
AcDbEntity
  8
M0
 62
     2
100
AcDbLine
 10
398.74731
 20
1316.345305
 11
432.74731
 21
1316.345305
  0
LINE
  5
4E4
100
AcDbEntity
  8
M0
 62
     2
100
AcDbLine
 10
398.74731
 20
1336.345305
 11
398.74731
 21
1126.34532
  0
ARC
  5
4E5
100
AcDbEntity
  8
M0
 62
     2
100
AcDbCircle
 10
403.74731
 20
1126.34532
 40
5.0
100
AcDbArc
 50
179.999825
 51
270.0
  0
ARC
  5
4E6
100
AcDbEntity
  8
M0
 62
     2
100
AcDbCircle
 10
438.74731
 20
1155.345306
 40
4.0
100
AcDbArc
 50
270.0
 51
360.0
  0
ARC
  5
4E7
100
AcDbEntity
  8
M0
 62
     2
100
AcDbCircle
 10
436.74731
 20
1155.345306
 40
4.0
100
AcDbArc
 50
179.999973
 51
270.0
  0
LINE
  5
4E8
100
AcDbEntity
  8
M0
 62
     2
100
AcDbLine
 10
438.74731
 20
1151.345306
 11
420.74731
 21
1151.345306
  0
LINE
  5
4E9
100
AcDbEntity
  8
M0
 62
     2
100
AcDbLine
 10
415.74731
 20
1151.345306
 11
398.74731
 21
1151.345306
  0
LINE
  5
4EA
100
AcDbEntity
  8
M0
 62
     2
100
AcDbLine
 10
403.74731
 20
1121.34532
 11
423.484721
 21
1121.34532
  0
ARC
  5
4EB
100
AcDbEntity
  8
M0
 62
     2
100
AcDbCircle
 10
423.484721
 20
1126.34532
 40
5.0
100
AcDbArc
 50
270.0
 51
336.250608
  0
LINE
  5
4EC
100
AcDbEntity
  8
M0
  6
DASHDOT
 62
     2
100
AcDbLine
 10
382.747325
 20
1329.345305
 11
444.74731
 21
1329.345305
  0
LINE
  5
4ED
100
AcDbEntity
  8
M0
  6
DASHDOT
 62
     2
100
AcDbLine
 10
413.74731
 20
1298.345305
 11
413.74731
 21
1360.345305
  0
ARC
  5
4EE
100
AcDbEntity
  8
M0
 62
     2
100
AcDbCircle
 10
413.74731
 20
1329.345305
 40
6.0
100
AcDbArc
 50
131.40952
 51
228.590577
  0
ARC
  5
4EF
100
AcDbEntity
  8
M0
 62
     2
100
AcDbCircle
 10
413.74731
 20
1329.345305
 40
6.0
100
AcDbArc
 50
311.409533
 51
408.590165
  0
LINE
  5
4F0
100
AcDbEntity
  8
M0
 62
     2
100
AcDbLine
 10
417.715938
 20
1324.845305
 11
409.778697
 21
1324.845305
  0
LINE
  5
4F1
100
AcDbEntity
  8
M0
 62
     2
100
AcDbLine
 10
417.715938
 20
1333.845305
 11
409.778697
 21
1333.845305
  0
LINE
  5
4F2
100
AcDbEntity
  8
M0
  6
DASHDOT
 62
     2
100
AcDbLine
 10
382.747325
 20
1136.345307
 11
444.74731
 21
1136.345307
  0
LINE
  5
4F3
100
AcDbEntity
  8
M0
  6
DASHDOT
 62
     2
100
AcDbLine
 10
413.74731
 20
1105.34532
 11
413.74731
 21
1167.345305
  0
ARC
  5
4F4
100
AcDbEntity
  8
M0
 62
     2
100
AcDbCircle
 10
413.74731
 20
1136.345307
 40
6.0
100
AcDbArc
 50
131.409441
 51
228.590522
  0
ARC
  5
4F5
100
AcDbEntity
  8
M0
 62
     2
100
AcDbCircle
 10
413.74731
 20
1136.345307
 40
6.0
100
AcDbArc
 50
311.409611
 51
408.590371
  0
LINE
  5
4F6
100
AcDbEntity
  8
M0
 62
     2
100
AcDbLine
 10
417.715938
 20
1131.845307
 11
409.778697
 21
1131.845307
  0
LINE
  5
4F7
100
AcDbEntity
  8
M0
 62
     2
100
AcDbLine
 10
417.715938
 20
1140.845307
 11
409.778697
 21
1140.845307
  0
LINE
  5
4F8
100
AcDbEntity
  8
M0
 62
     2
100
AcDbLine
 10
437.74731
 20
1146.345306
 11
437.74731
 21
1151.345306
  0
LINE
  5
4F9
100
AcDbEntity
  8
M0
 62
     2
100
AcDbLine
 10
398.74731
 20
1201.345305
 11
431.24731
 21
1201.345305
  0
LINE
  5
4FA
100
AcDbEntity
  8
M0
 62
     2
100
AcDbLine
 10
415.74731
 20
1201.345305
 11
415.74731
 21
1151.345306
  0
LINE
  5
4FB
100
AcDbEntity
  8
M0
 62
     2
100
AcDbLine
 10
420.74731
 20
1151.345306
 11
420.74731
 21
1201.345305
  0
LINE
  5
4FC
100
AcDbEntity
  8
M0
 62
     2
100
AcDbLine
 10
415.74731
 20
1164.345305
 11
418.24731
 21
1167.345305
  0
LINE
  5
4FD
100
AcDbEntity
  8
M0
 62
     2
100
AcDbLine
 10
415.74731
 20
1151.345306
 11
418.24731
 21
1154.345306
  0
LINE
  5
4FE
100
AcDbEntity
  8
M0
 62
     2
100
AcDbLine
 10
420.74731
 20
1164.345305
 11
418.24731
 21
1167.345305
  0
LINE
  5
4FF
100
AcDbEntity
  8
M0
 62
     2
100
AcDbLine
 10
420.74731
 20
1151.345306
 11
418.24731
 21
1154.345306
  0
LINE
  5
500
100
AcDbEntity
  8
M0
 62
     2
100
AcDbLine
 10
398.74731
 20
1164.345305
 11
415.74731
 21
1164.345305
  0
LINE
  5
501
100
AcDbEntity
  8
M0
 62
     2
100
AcDbLine
 10
420.74731
 20
1164.345305
 11
432.74731
 21
1164.345305
  0
LINE
  5
502
100
AcDbEntity
  8
M0
 62
     2
100
AcDbLine
 10
418.24731
 20
1201.345305
 11
418.24731
 21
1154.345306
  0
LINE
  5
503
100
AcDbEntity
  8
M0
 62
     2
100
AcDbLine
 10
403.74731
 20
1164.345305
 11
403.74731
 21
1191.845305
  0
LINE
  5
504
100
AcDbEntity
  8
M0
 62
     2
100
AcDbLine
 10
412.74731
 20
1164.345305
 11
412.74731
 21
1191.845305
  0
LINE
  5
505
100
AcDbEntity
  8
M0
 62
     2
100
AcDbLine
 10
423.74731
 20
1191.845305
 11
423.74731
 21
1164.345305
  0
LINE
  5
506
100
AcDbEntity
  8
M0
 62
     2
100
AcDbLine
 10
403.74731
 20
1194.345305
 11
403.74731
 21
1201.345305
  0
ARC
  5
507
100
AcDbEntity
  8
M0
 62
     2
100
AcDbCircle
 10
405.74731
 20
1194.345305
 40
2.0
100
AcDbArc
 50
180.0
 51
270.0
  0
LINE
  5
508
100
AcDbEntity
  8
M0
 62
     2
100
AcDbLine
 10
412.74731
 20
1194.345305
 11
412.74731
 21
1201.345305
  0
LINE
  5
509
100
AcDbEntity
  8
M0
 62
     2
100
AcDbLine
 10
423.74731
 20
1201.345305
 11
423.74731
 21
1194.345305
  0
ARC
  5
50A
100
AcDbEntity
  8
M0
 62
     2
100
AcDbCircle
 10
425.74731
 20
1194.345305
 40
2.0
100
AcDbArc
 50
180.0
 51
270.0
  0
LINE
  5
50B
100
AcDbEntity
  8
M0
 62
     2
100
AcDbLine
 10
428.06129
 20
1124.331618
 11
437.74731
 21
1146.345306
  0
LINE
  5
50C
100
AcDbEntity
  8
M0
 62
     2
100
AcDbLine
 10
405.74731
 20
1192.345305
 11
410.74731
 21
1192.345305
  0
ARC
  5
50D
100
AcDbEntity
  8
M0
 62
     2
100
AcDbCircle
 10
410.74731
 20
1194.345305
 40
2.0
100
AcDbArc
 50
270.0
 51
360.0
  0
LINE
  5
50E
100
AcDbEntity
  8
M0
 62
     2
100
AcDbLine
 10
425.74731
 20
1192.345305
 11
432.74731
 21
1192.345305
  0
LINE
  5
50F
100
AcDbEntity
  8
M0
 62
     2
100
AcDbLine
 10
423.74731
 20
1191.845305
 11
432.74731
 21
1191.845305
  0
LINE
  5
510
100
AcDbEntity
  8
M0
 62
     2
100
AcDbLine
 10
403.74731
 20
1191.845305
 11
412.74731
 21
1191.845305
  0
CIRCLE
  5
511
100
AcDbEntity
  8
M0
 62
     2
100
AcDbCircle
 10
408.24731
 20
1169.345305
 40
3.0
  0
CIRCLE
  5
512
100
AcDbEntity
  8
M0
 62
     2
100
AcDbCircle
 10
408.24731
 20
1177.345305
 40
3.0
  0
CIRCLE
  5
513
100
AcDbEntity
  8
M0
 62
     2
100
AcDbCircle
 10
408.24731
 20
1185.345305
 40
3.0
  0
CIRCLE
  5
514
100
AcDbEntity
  8
M0
 62
     2
100
AcDbCircle
 10
428.24731
 20
1169.345305
 40
3.0
  0
CIRCLE
  5
515
100
AcDbEntity
  8
M0
 62
     2
100
AcDbCircle
 10
428.24731
 20
1177.345305
 40
3.0
  0
CIRCLE
  5
516
100
AcDbEntity
  8
M0
 62
     2
100
AcDbCircle
 10
428.24731
 20
1185.345305
 40
3.0
  0
ARC
  5
517
100
AcDbEntity
  8
M0
 62
     2
100
AcDbCircle
 10
653.74731
 20
1336.345305
 40
5.0
100
AcDbArc
 50
0.0
 51
90.0
  0
LINE
  5
518
100
AcDbEntity
  8
M0
 62
     2
100
AcDbLine
 10
618.74731
 20
1341.345305
 11
653.74731
 21
1341.345305
  0
ARC
  5
519
100
AcDbEntity
  8
M0
 62
     2
100
AcDbCircle
 10
618.74731
 20
1337.345305
 40
4.0
100
AcDbArc
 50
90.0
 51
180.0
  0
LINE
  5
51A
100
AcDbEntity
  8
M0
 62
     2
100
AcDbLine
 10
658.74731
 20
1316.345305
 11
624.74731
 21
1316.345305
  0
LINE
  5
51B
100
AcDbEntity
  8
M0
 62
     2
100
AcDbLine
 10
658.74731
 20
1336.345305
 11
658.74731
 21
1126.34532
  0
ARC
  5
51C
100
AcDbEntity
  8
M0
 62
     2
100
AcDbCircle
 10
653.74731
 20
1126.34532
 40
5.0
100
AcDbArc
 50
-90.000175
 51
0.0
  0
ARC
  5
51D
100
AcDbEntity
  8
M0
 62
     2
100
AcDbCircle
 10
618.74731
 20
1155.345306
 40
4.0
100
AcDbArc
 50
179.999973
 51
269.999781
  0
ARC
  5
51E
100
AcDbEntity
  8
M0
 62
     2
100
AcDbCircle
 10
620.74731
 20
1155.345306
 40
4.0
100
AcDbArc
 50
-90.000219
 51
0.0
  0
LINE
  5
51F
100
AcDbEntity
  8
M0
 62
     2
100
AcDbLine
 10
618.74731
 20
1151.345306
 11
636.74731
 21
1151.345306
  0
LINE
  5
520
100
AcDbEntity
  8
M0
 62
     2
100
AcDbLine
 10
641.74731
 20
1151.345306
 11
658.74731
 21
1151.345306
  0
LINE
  5
521
100
AcDbEntity
  8
M0
 62
     2
100
AcDbLine
 10
653.74731
 20
1121.34532
 11
634.009898
 21
1121.34532
  0
ARC
  5
522
100
AcDbEntity
  8
M0
 62
     2
100
AcDbCircle
 10
634.009898
 20
1126.34532
 40
5.0
100
AcDbArc
 50
203.749232
 51
269.999825
  0
LINE
  5
523
100
AcDbEntity
  8
M0
  6
DASHDOT
 62
     2
100
AcDbLine
 10
674.747295
 20
1329.345305
 11
612.74731
 21
1329.345305
  0
LINE
  5
524
100
AcDbEntity
  8
M0
  6
DASHDOT
 62
     2
100
AcDbLine
 10
643.74731
 20
1298.345305
 11
643.74731
 21
1360.345305
  0
ARC
  5
525
100
AcDbEntity
  8
M0
 62
     2
100
AcDbCircle
 10
643.74731
 20
1329.345305
 40
6.0
100
AcDbArc
 50
-48.590686
 51
48.59048
  0
ARC
  5
526
100
AcDbEntity
  8
M0
 62
     2
100
AcDbCircle
 10
643.74731
 20
1329.345305
 40
6.0
100
AcDbArc
 50
131.409629
 51
228.590371
  0
LINE
  5
527
100
AcDbEntity
  8
M0
 62
     2
100
AcDbLine
 10
639.778682
 20
1324.845305
 11
647.715923
 21
1324.845305
  0
LINE
  5
528
100
AcDbEntity
  8
M0
 62
     2
100
AcDbLine
 10
639.778682
 20
1333.845305
 11
647.715923
 21
1333.845305
  0
LINE
  5
529
100
AcDbEntity
  8
M0
  6
DASHDOT
 62
     2
100
AcDbLine
 10
674.747295
 20
1136.345307
 11
612.74731
 21
1136.345307
  0
LINE
  5
52A
100
AcDbEntity
  8
M0
  6
DASHDOT
 62
     2
100
AcDbLine
 10
643.74731
 20
1105.34532
 11
643.74731
 21
1167.345305
  0
ARC
  5
52B
100
AcDbEntity
  8
M0
 62
     2
100
AcDbCircle
 10
643.74731
 20
1136.345307
 40
6.0
100
AcDbArc
 50
-48.590674
 51
48.590547
  0
ARC
  5
52C
100
AcDbEntity
  8
M0
 62
     2
100
AcDbCircle
 10
643.74731
 20
1136.345307
 40
6.0
100
AcDbArc
 50
131.409623
 51
228.590232
  0
LINE
  5
52D
100
AcDbEntity
  8
M0
 62
     2
100
AcDbLine
 10
639.778682
 20
1131.845307
 11
647.715923
 21
1131.845307
  0
LINE
  5
52E
100
AcDbEntity
  8
M0
 62
     2
100
AcDbLine
 10
639.778682
 20
1140.845307
 11
647.715923
 21
1140.845307
  0
LINE
  5
52F
100
AcDbEntity
  8
M0
 62
     2
100
AcDbLine
 10
619.74731
 20
1146.345306
 11
619.74731
 21
1151.345306
  0
LINE
  5
530
100
AcDbEntity
  8
M0
 62
     2
100
AcDbLine
 10
658.74731
 20
1201.345305
 11
626.247295
 21
1201.345305
  0
LINE
  5
531
100
AcDbEntity
  8
M0
 62
     2
100
AcDbLine
 10
641.74731
 20
1201.345305
 11
641.74731
 21
1151.345306
  0
LINE
  5
532
100
AcDbEntity
  8
M0
 62
     2
100
AcDbLine
 10
636.74731
 20
1151.345306
 11
636.74731
 21
1201.345305
  0
LINE
  5
533
100
AcDbEntity
  8
M0
 62
     2
100
AcDbLine
 10
641.74731
 20
1164.345305
 11
639.24731
 21
1167.345305
  0
LINE
  5
534
100
AcDbEntity
  8
M0
 62
     2
100
AcDbLine
 10
641.74731
 20
1151.345306
 11
639.24731
 21
1154.345306
  0
LINE
  5
535
100
AcDbEntity
  8
M0
 62
     2
100
AcDbLine
 10
636.74731
 20
1164.345305
 11
639.24731
 21
1167.345305
  0
LINE
  5
536
100
AcDbEntity
  8
M0
 62
     2
100
AcDbLine
 10
636.74731
 20
1151.345306
 11
639.24731
 21
1154.345306
  0
LINE
  5
537
100
AcDbEntity
  8
M0
 62
     2
100
AcDbLine
 10
658.74731
 20
1164.345305
 11
641.74731
 21
1164.345305
  0
LINE
  5
538
100
AcDbEntity
  8
M0
 62
     2
100
AcDbLine
 10
636.74731
 20
1164.345305
 11
624.74731
 21
1164.345305
  0
LINE
  5
539
100
AcDbEntity
  8
M0
 62
     2
100
AcDbLine
 10
639.24731
 20
1201.345305
 11
639.24731
 21
1154.345306
  0
LINE
  5
53A
100
AcDbEntity
  8
M0
 62
     2
100
AcDbLine
 10
653.74731
 20
1164.345305
 11
653.74731
 21
1191.845305
  0
LINE
  5
53B
100
AcDbEntity
  8
M0
 62
     2
100
AcDbLine
 10
644.74731
 20
1164.345305
 11
644.74731
 21
1191.845305
  0
LINE
  5
53C
100
AcDbEntity
  8
M0
 62
     2
100
AcDbLine
 10
633.74731
 20
1191.845305
 11
633.74731
 21
1164.345305
  0
LINE
  5
53D
100
AcDbEntity
  8
M0
 62
     2
100
AcDbLine
 10
653.74731
 20
1194.345305
 11
653.74731
 21
1201.345305
  0
ARC
  5
53E
100
AcDbEntity
  8
M0
 62
     2
100
AcDbCircle
 10
651.74731
 20
1194.345305
 40
2.0
100
AcDbArc
 50
-90.000437
 51
0.0
  0
LINE
  5
53F
100
AcDbEntity
  8
M0
 62
     2
100
AcDbLine
 10
644.74731
 20
1194.345305
 11
644.74731
 21
1201.345305
  0
LINE
  5
540
100
AcDbEntity
  8
M0
 62
     2
100
AcDbLine
 10
633.74731
 20
1201.345305
 11
633.74731
 21
1194.345305
  0
ARC
  5
541
100
AcDbEntity
  8
M0
 62
     2
100
AcDbCircle
 10
631.74731
 20
1194.345305
 40
2.0
100
AcDbArc
 50
-90.000437
 51
0.0
  0
LINE
  5
542
100
AcDbEntity
  8
M0
 62
     2
100
AcDbLine
 10
629.43333
 20
1124.331618
 11
619.74731
 21
1146.345306
  0
LINE
  5
543
100
AcDbEntity
  8
M0
 62
     2
100
AcDbLine
 10
651.74731
 20
1192.345305
 11
646.74731
 21
1192.345305
  0
ARC
  5
544
100
AcDbEntity
  8
M0
 62
     2
100
AcDbCircle
 10
646.74731
 20
1194.345305
 40
2.0
100
AcDbArc
 50
180.0
 51
269.999563
  0
LINE
  5
545
100
AcDbEntity
  8
M0
 62
     2
100
AcDbLine
 10
631.74731
 20
1192.345305
 11
624.74731
 21
1192.345305
  0
LINE
  5
546
100
AcDbEntity
  8
M0
 62
     2
100
AcDbLine
 10
633.74731
 20
1191.845305
 11
624.74731
 21
1191.845305
  0
LINE
  5
547
100
AcDbEntity
  8
M0
 62
     2
100
AcDbLine
 10
653.74731
 20
1191.845305
 11
644.74731
 21
1191.845305
  0
CIRCLE
  5
548
100
AcDbEntity
  8
M0
 62
     2
100
AcDbCircle
 10
649.24731
 20
1169.345305
 40
3.0
  0
CIRCLE
  5
549
100
AcDbEntity
  8
M0
 62
     2
100
AcDbCircle
 10
649.24731
 20
1177.345305
 40
3.0
  0
CIRCLE
  5
54A
100
AcDbEntity
  8
M0
 62
     2
100
AcDbCircle
 10
649.24731
 20
1185.345305
 40
3.0
  0
CIRCLE
  5
54B
100
AcDbEntity
  8
M0
 62
     2
100
AcDbCircle
 10
629.24731
 20
1169.345305
 40
3.0
  0
CIRCLE
  5
54C
100
AcDbEntity
  8
M0
 62
     2
100
AcDbCircle
 10
629.24731
 20
1177.345305
 40
3.0
  0
CIRCLE
  5
54D
100
AcDbEntity
  8
M0
 62
     2
100
AcDbCircle
 10
629.24731
 20
1185.345305
 40
3.0
  0
LINE
  5
54E
100
AcDbEntity
  8
M0
 62
     6
100
AcDbLine
 10
657.547209
 20
1291.345303
 11
642.64721
 21
1291.345307
  0
LINE
  5
54F
100
AcDbEntity
  8
M0
 62
     6
100
AcDbLine
 10
642.64721
 20
1291.345307
 11
642.647181
 21
1201.345307
  0
LINE
  5
550
100
AcDbEntity
  8
M0
 62
     6
100
AcDbLine
 10
642.647181
 20
1201.345307
 11
657.547181
 21
1201.345303
  0
LINE
  5
551
100
AcDbEntity
  8
M0
 62
     6
100
AcDbLine
 10
657.547181
 20
1201.345303
 11
657.547209
 21
1291.345303
  0
LINE
  5
552
100
AcDbEntity
  8
M0
  6
DASHDOT
 62
     6
100
AcDbLine
 10
662.547195
 20
1246.345301
 11
637.647195
 21
1246.345309
  0
LINE
  5
553
100
AcDbEntity
  8
M0
 62
     6
100
AcDbLine
 10
644.59719
 20
1228.345307
 11
644.59719
 21
1229.845307
  0
LINE
  5
554
100
AcDbEntity
  8
M0
 62
     6
100
AcDbLine
 10
655.59719
 20
1228.345303
 11
655.59719
 21
1229.845303
  0
LINE
  5
555
100
AcDbEntity
  8
M0
 62
     6
100
AcDbLine
 10
644.59719
 20
1229.845307
 11
655.59719
 21
1229.845303
  0
LINE
  5
556
100
AcDbEntity
  8
M0
 62
     6
100
AcDbLine
 10
645.597193
 20
1239.945297
 11
645.59719
 21
1229.845306
  0
LINE
  5
557
100
AcDbEntity
  8
M0
 62
     6
100
AcDbLine
 10
654.597193
 20
1239.945294
 11
654.59719
 21
1229.845304
  0
LINE
  5
558
100
AcDbEntity
  8
M0
 62
     6
100
AcDbLine
 10
654.59719
 20
1228.345304
 11
654.597181
 21
1201.345304
  0
LINE
  5
559
100
AcDbEntity
  8
M0
 62
     6
100
AcDbLine
 10
655.59719
 20
1228.345303
 11
654.59719
 21
1228.345304
  0
LINE
  5
55A
100
AcDbEntity
  8
M0
 62
     6
100
AcDbLine
 10
645.59719
 20
1228.345306
 11
644.59719
 21
1228.345307
  0
LINE
  5
55B
100
AcDbEntity
  8
M0
 62
     6
100
AcDbLine
 10
654.597193
 20
1239.945294
 11
645.597193
 21
1239.945297
  0
LINE
  5
55C
100
AcDbEntity
  8
M0
 62
     6
100
AcDbLine
 10
645.597183
 20
1207.345306
 11
654.597183
 21
1207.345304
  0
LINE
  5
55D
100
AcDbEntity
  8
M0
 62
     6
100
AcDbLine
 10
642.647188
 20
1221.345307
 11
645.597187
 21
1221.345306
  0
LINE
  5
55E
100
AcDbEntity
  8
M0
 62
     6
100
AcDbLine
 10
654.597187
 20
1221.345304
 11
657.547187
 21
1221.345303
  0
LINE
  5
55F
100
AcDbEntity
  8
M0
 62
     6
100
AcDbLine
 10
655.597201
 20
1264.345303
 11
655.5972
 21
1262.845303
  0
LINE
  5
560
100
AcDbEntity
  8
M0
 62
     6
100
AcDbLine
 10
644.5972
 20
1262.845307
 11
655.5972
 21
1262.845303
  0
LINE
  5
561
100
AcDbEntity
  8
M0
 62
     6
100
AcDbLine
 10
654.597197
 20
1252.745298
 11
654.5972
 21
1262.845304
  0
LINE
  5
562
100
AcDbEntity
  8
M0
 62
     6
100
AcDbLine
 10
654.597201
 20
1264.345304
 11
654.597209
 21
1291.345304
  0
LINE
  5
563
100
AcDbEntity
  8
M0
 62
     6
100
AcDbLine
 10
655.597201
 20
1264.345303
 11
654.597201
 21
1264.345304
  0
LINE
  5
564
100
AcDbEntity
  8
M0
 62
     6
100
AcDbLine
 10
654.597197
 20
1252.745298
 11
645.597197
 21
1252.7453
  0
LINE
  5
565
100
AcDbEntity
  8
M0
 62
     6
100
AcDbLine
 10
645.597208
 20
1285.345306
 11
654.597208
 21
1285.345304
  0
LINE
  5
566
100
AcDbEntity
  8
M0
 62
     6
100
AcDbLine
 10
654.597203
 20
1271.345304
 11
657.547203
 21
1271.345303
  0
LINE
  5
567
100
AcDbEntity
  8
M0
 62
     6
100
AcDbLine
 10
645.597197
 20
1252.7453
 11
645.5972
 21
1262.845306
  0
LINE
  5
568
100
AcDbEntity
  8
M0
 62
     6
100
AcDbLine
 10
644.597201
 20
1264.345307
 11
644.5972
 21
1262.845307
  0
LINE
  5
569
100
AcDbEntity
  8
M0
 62
     6
100
AcDbLine
 10
645.597201
 20
1264.345306
 11
644.597201
 21
1264.345307
  0
LINE
  5
56A
100
AcDbEntity
  8
M0
 62
     6
100
AcDbLine
 10
645.597201
 20
1264.345306
 11
645.597209
 21
1291.345306
  0
LINE
  5
56B
100
AcDbEntity
  8
M0
 62
     6
100
AcDbLine
 10
642.647203
 20
1271.345307
 11
645.597203
 21
1271.345306
  0
CIRCLE
  5
56C
100
AcDbEntity
  8
M0
 62
     6
100
AcDbCircle
 10
650.097195
 20
1246.345305
 40
2.799999
  0
LINE
  5
56D
100
AcDbEntity
  8
M0
 62
     6
100
AcDbLine
 10
414.847502
 20
1291.345303
 11
399.947503
 21
1291.345307
  0
LINE
  5
56E
100
AcDbEntity
  8
M0
 62
     6
100
AcDbLine
 10
399.947503
 20
1291.345307
 11
399.947474
 21
1201.345307
  0
LINE
  5
56F
100
AcDbEntity
  8
M0
 62
     6
100
AcDbLine
 10
399.947474
 20
1201.345307
 11
414.847474
 21
1201.345303
  0
LINE
  5
570
100
AcDbEntity
  8
M0
 62
     6
100
AcDbLine
 10
414.847474
 20
1201.345303
 11
414.847502
 21
1291.345303
  0
LINE
  5
571
100
AcDbEntity
  8
M0
  6
DASHDOT
 62
     6
100
AcDbLine
 10
419.847488
 20
1246.345301
 11
394.947488
 21
1246.345309
  0
LINE
  5
572
100
AcDbEntity
  8
M0
 62
     6
100
AcDbLine
 10
401.897483
 20
1228.345307
 11
401.897483
 21
1229.845307
  0
LINE
  5
573
100
AcDbEntity
  8
M0
 62
     6
100
AcDbLine
 10
412.897483
 20
1228.345303
 11
412.897483
 21
1229.845303
  0
LINE
  5
574
100
AcDbEntity
  8
M0
 62
     6
100
AcDbLine
 10
401.897483
 20
1229.845307
 11
412.897483
 21
1229.845303
  0
LINE
  5
575
100
AcDbEntity
  8
M0
 62
     6
100
AcDbLine
 10
402.897486
 20
1239.945297
 11
402.897483
 21
1229.845306
  0
LINE
  5
576
100
AcDbEntity
  8
M0
 62
     6
100
AcDbLine
 10
402.897483
 20
1228.345306
 11
402.897474
 21
1201.345306
  0
LINE
  5
577
100
AcDbEntity
  8
M0
 62
     6
100
AcDbLine
 10
411.897486
 20
1239.945294
 11
411.897483
 21
1229.845304
  0
LINE
  5
578
100
AcDbEntity
  8
M0
 62
     6
100
AcDbLine
 10
411.897483
 20
1228.345304
 11
411.897474
 21
1201.345304
  0
LINE
  5
579
100
AcDbEntity
  8
M0
 62
     6
100
AcDbLine
 10
412.897483
 20
1228.345303
 11
411.897483
 21
1228.345304
  0
LINE
  5
57A
100
AcDbEntity
  8
M0
 62
     6
100
AcDbLine
 10
402.897483
 20
1228.345306
 11
401.897483
 21
1228.345307
  0
LINE
  5
57B
100
AcDbEntity
  8
M0
 62
     6
100
AcDbLine
 10
411.897486
 20
1239.945294
 11
402.897486
 21
1239.945297
  0
LINE
  5
57C
100
AcDbEntity
  8
M0
 62
     6
100
AcDbLine
 10
402.897476
 20
1207.345306
 11
411.897476
 21
1207.345304
  0
LINE
  5
57D
100
AcDbEntity
  8
M0
 62
     6
100
AcDbLine
 10
399.947481
 20
1221.345307
 11
402.89748
 21
1221.345306
  0
LINE
  5
57E
100
AcDbEntity
  8
M0
 62
     6
100
AcDbLine
 10
411.89748
 20
1221.345304
 11
414.84748
 21
1221.345303
  0
LINE
  5
57F
100
AcDbEntity
  8
M0
 62
     6
100
AcDbLine
 10
412.897494
 20
1264.345303
 11
412.897493
 21
1262.845303
  0
LINE
  5
580
100
AcDbEntity
  8
M0
 62
     6
100
AcDbLine
 10
401.897493
 20
1262.845307
 11
412.897493
 21
1262.845303
  0
LINE
  5
581
100
AcDbEntity
  8
M0
 62
     6
100
AcDbLine
 10
411.89749
 20
1252.745298
 11
411.897493
 21
1262.845304
  0
LINE
  5
582
100
AcDbEntity
  8
M0
 62
     6
100
AcDbLine
 10
411.897494
 20
1264.345304
 11
411.897502
 21
1291.345304
  0
LINE
  5
583
100
AcDbEntity
  8
M0
 62
     6
100
AcDbLine
 10
412.897494
 20
1264.345303
 11
411.897494
 21
1264.345304
  0
LINE
  5
584
100
AcDbEntity
  8
M0
 62
     6
100
AcDbLine
 10
411.89749
 20
1252.745298
 11
402.89749
 21
1252.7453
  0
LINE
  5
585
100
AcDbEntity
  8
M0
 62
     6
100
AcDbLine
 10
402.8975
 20
1285.345306
 11
411.8975
 21
1285.345304
  0
LINE
  5
586
100
AcDbEntity
  8
M0
 62
     6
100
AcDbLine
 10
411.897496
 20
1271.345304
 11
414.847496
 21
1271.345303
  0
LINE
  5
587
100
AcDbEntity
  8
M0
 62
     6
100
AcDbLine
 10
402.89749
 20
1252.7453
 11
402.897493
 21
1262.845306
  0
LINE
  5
588
100
AcDbEntity
  8
M0
 62
     6
100
AcDbLine
 10
401.897494
 20
1264.345307
 11
401.897493
 21
1262.845307
  0
LINE
  5
589
100
AcDbEntity
  8
M0
 62
     6
100
AcDbLine
 10
402.897494
 20
1264.345306
 11
401.897494
 21
1264.345307
  0
LINE
  5
58A
100
AcDbEntity
  8
M0
 62
     6
100
AcDbLine
 10
402.897494
 20
1264.345306
 11
402.897502
 21
1291.345306
  0
LINE
  5
58B
100
AcDbEntity
  8
M0
 62
     6
100
AcDbLine
 10
399.947496
 20
1271.345307
 11
402.897496
 21
1271.345306
  0
CIRCLE
  5
58C
100
AcDbEntity
  8
M0
 62
     6
100
AcDbCircle
 10
407.397488
 20
1246.345305
 40
2.799999
  0
CIRCLE
  5
58D
100
AcDbEntity
  8
M0
 62
     1
100
AcDbCircle
 10
407.397456
 20
1280.345275
 40
3.5
  0
LINE
  5
58E
100
AcDbEntity
  8
M0
 62
     7
100
AcDbLine
 10
626.24731
 20
1020.345275
 11
626.24731
 21
1091.345275
  0
LINE
  5
58F
100
AcDbEntity
  8
M0
 62
     7
100
AcDbLine
 10
431.24731
 20
1091.345275
 11
431.24731
 21
1020.345275
  0
LINE
  5
590
100
AcDbEntity
  8
M0
 62
     7
100
AcDbLine
 10
436.24731
 20
1015.345275
 11
621.24731
 21
1015.345275
  0
LINE
  5
591
100
AcDbEntity
  8
M0
  6
DASHDOT
 62
     7
100
AcDbLine
 10
528.74731
 20
1010.345275
 11
528.74731
 21
1155.345275
  0
LINE
  5
592
100
AcDbEntity
  8
M0
 62
     7
100
AcDbLine
 10
431.24731
 20
1020.345275
 11
436.24731
 21
1015.345275
  0
LINE
  5
593
100
AcDbEntity
  8
M0
 62
     7
100
AcDbLine
 10
621.24731
 20
1015.345275
 11
626.24731
 21
1020.345275
  0
CIRCLE
  5
594
100
AcDbEntity
  8
M0
 62
     7
100
AcDbCircle
 10
613.74731
 20
1035.845275
 40
5.5
  0
LINE
  5
595
100
AcDbEntity
  8
M0
  6
DASHDOT
 62
     7
100
AcDbLine
 10
604.24731
 20
1035.845275
 11
623.24731
 21
1035.845275
  0
LINE
  5
596
100
AcDbEntity
  8
M0
  6
DASHDOT
 62
     7
100
AcDbLine
 10
613.74731
 20
1026.345275
 11
613.74731
 21
1045.345275
  0
CIRCLE
  5
597
100
AcDbEntity
  8
M0
 62
     7
100
AcDbCircle
 10
613.74731
 20
1060.845275
 40
3.5
  0
LINE
  5
598
100
AcDbEntity
  8
M0
  6
DASHDOT
 62
     7
100
AcDbLine
 10
606.24731
 20
1060.845275
 11
621.24731
 21
1060.845275
  0
LINE
  5
599
100
AcDbEntity
  8
M0
  6
DASHDOT
 62
     7
100
AcDbLine
 10
613.74731
 20
1053.345275
 11
613.74731
 21
1068.345275
  0
CIRCLE
  5
59A
100
AcDbEntity
  8
M0
 62
     7
100
AcDbCircle
 10
443.74731
 20
1060.845275
 40
3.5
  0
LINE
  5
59B
100
AcDbEntity
  8
M0
  6
DASHDOT
 62
     7
100
AcDbLine
 10
451.24731
 20
1060.845275
 11
436.24731
 21
1060.845275
  0
LINE
  5
59C
100
AcDbEntity
  8
M0
  6
DASHDOT
 62
     7
100
AcDbLine
 10
443.74731
 20
1053.345275
 11
443.74731
 21
1068.345275
  0
CIRCLE
  5
59D
100
AcDbEntity
  8
M0
 62
     7
100
AcDbCircle
 10
443.74731
 20
1035.845275
 40
5.5
  0
LINE
  5
59E
100
AcDbEntity
  8
M0
  6
DASHDOT
 62
     7
100
AcDbLine
 10
453.24731
 20
1035.845275
 11
434.24731
 21
1035.845275
  0
LINE
  5
59F
100
AcDbEntity
  8
M0
  6
DASHDOT
 62
     7
100
AcDbLine
 10
443.74731
 20
1026.345275
 11
443.74731
 21
1045.345275
  0
LINE
  5
5A0
100
AcDbEntity
  8
M0
 62
     7
100
AcDbLine
 10
461.24731
 20
1088.345275
 11
461.24731
 21
1015.345275
  0
LINE
  5
5A1
100
AcDbEntity
  8
M0
 62
     7
100
AcDbLine
 10
596.24731
 20
1088.345275
 11
596.24731
 21
1015.345275
  0
LINE
  5
5A2
100
AcDbEntity
  8
M0
 62
     2
100
AcDbLine
 10
591.74731
 20
1049.845336
 11
591.74731
 21
1081.845351
  0
LINE
  5
5A3
100
AcDbEntity
  8
M0
 62
     2
100
AcDbLine
 10
579.24731
 20
1082.345336
 11
581.447307
 21
1082.345336
  0
LINE
  5
5A4
100
AcDbEntity
  8
M0
 62
     2
100
AcDbLine
 10
548.74731
 20
1049.84532
 11
548.74731
 21
1017.845305
  0
LINE
  5
5A5
100
AcDbEntity
  8
M0
 62
     2
100
AcDbLine
 10
591.74731
 20
1021.845366
 11
591.74731
 21
1049.84532
  0
LINE
  5
5A6
100
AcDbEntity
  8
M0
 62
     2
100
AcDbLine
 10
561.24731
 20
1017.345305
 11
559.047298
 21
1017.34529
  0
LINE
  5
5A7
100
AcDbEntity
  8
M0
 62
     2
100
AcDbLine
 10
548.74731
 20
1077.84529
 11
548.74731
 21
1049.845336
  0
LINE
  5
5A8
100
AcDbEntity
  8
M0
 62
     2
100
AcDbLine
 10
549.24731
 20
1017.345305
 11
591.24731
 21
1017.345305
  0
LINE
  5
5A9
100
AcDbEntity
  8
M0
 62
     2
100
AcDbLine
 10
591.74731
 20
1017.845305
 11
591.74731
 21
1021.845351
  0
LINE
  5
5AA
100
AcDbEntity
  8
M0
 62
     2
100
AcDbLine
 10
591.247295
 20
1082.345351
 11
550.74731
 21
1082.345275
  0
ARC
  5
5AB
100
AcDbEntity
  8
M0
 62
     2
100
AcDbCircle
 10
550.74731
 20
1080.345275
 40
2.0
100
AcDbArc
 50
89.999563
 51
180.0
  0
LINE
  5
5AC
100
AcDbEntity
  8
M0
 62
     2
100
AcDbLine
 10
548.74731
 20
1080.345259
 11
548.74731
 21
1077.84529
  0
LINE
  5
5AD
100
AcDbEntity
  8
M0
 62
     2
100
AcDbLine
 10
551.447307
 20
1017.34529
 11
549.24731
 21
1017.34532
  0
LINE
  5
5AE
100
AcDbEntity
  8
M0
 62
     2
100
AcDbLine
 10
589.047282
 20
1082.345336
 11
591.24731
 21
1082.345336
  0
ARC
  5
5AF
100
AcDbEntity
  8
M0
 62
     2
100
AcDbCircle
 10
591.24731
 20
1081.845351
 40
0.5
100
AcDbArc
 50
0.0
 51
90.0
  0
ARC
  5
5B0
100
AcDbEntity
  8
M0
 62
     2
100
AcDbCircle
 10
591.24731
 20
1017.845305
 40
0.5
100
AcDbArc
 50
269.998251
 51
360.0
  0
ARC
  5
5B1
100
AcDbEntity
  8
M0
 62
     2
100
AcDbCircle
 10
549.24731
 20
1017.845305
 40
0.5
100
AcDbArc
 50
179.998251
 51
270.0
  0
LINE
  5
5B2
100
AcDbEntity
  8
M0
100
AcDbLine
 10
445.49731
 20
1126.645262
 11
445.49731
 21
1157.345275
  0
LINE
  5
5B3
100
AcDbEntity
  8
M0
100
AcDbLine
 10
413.99731
 20
1091.345275
 11
413.99731
 21
1121.34529
  0
LINE
  5
5B4
100
AcDbEntity
  8
M0
100
AcDbLine
 10
448.697322
 20
1129.631926
 11
448.697322
 21
1157.345275
  0
LINE
  5
5B5
100
AcDbEntity
  8
M0
100
AcDbLine
 10
410.797313
 20
1091.345275
 11
410.797313
 21
1121.34529
  0
LINE
  5
5B6
100
AcDbEntity
  8
M0
100
AcDbLine
 10
410.797313
 20
1091.345275
 11
438.74731
 21
1091.345275
  0
LINE
  5
5B7
100
AcDbEntity
  8
M0
100
AcDbLine
 10
645.597179
 20
1228.345275
 11
645.597179
 21
1207.345275
  0
LINE
  5
5B8
100
AcDbEntity
  8
M0
 62
     7
100
AcDbLine
 10
418.74731
 20
1091.345275
 11
438.74731
 21
1091.345275
  0
ARC
  5
5B9
100
AcDbEntity
  8
M0
 62
     7
100
AcDbCircle
 10
462.74731
 20
1081.345275
 40
10.0
100
AcDbArc
 50
0.0
 51
44.427106
  0
LINE
  5
5BA
100
AcDbEntity
  8
M0
 62
     7
100
AcDbLine
 10
472.74731
 20
1081.345275
 11
472.74731
 21
1046.345275
  0
ARC
  5
5BB
100
AcDbEntity
  8
M0
 62
     7
100
AcDbCircle
 10
475.74731
 20
1046.345275
 40
3.0
100
AcDbArc
 50
179.999709
 51
269.999709
  0
LINE
  5
5BC
100
AcDbEntity
  8
M0
 62
     7
100
AcDbLine
 10
548.74731
 20
1091.345275
 11
578.74731
 21
1091.345275
  0
ARC
  5
5BD
100
AcDbEntity
  8
M0
 62
     7
100
AcDbCircle
 10
542.74731
 20
1081.345275
 40
10.0
100
AcDbArc
 50
135.572955
 51
179.999913
  0
LINE
  5
5BE
100
AcDbEntity
  8
M0
 62
     7
100
AcDbLine
 10
475.74731
 20
1043.345275
 11
529.74731
 21
1043.345275
  0
LINE
  5
5BF
100
AcDbEntity
  8
M0
 62
     7
100
AcDbLine
 10
532.74731
 20
1081.345275
 11
532.74731
 21
1046.345275
  0
ARC
  5
5C0
100
AcDbEntity
  8
M0
 62
     7
100
AcDbCircle
 10
529.74731
 20
1046.345275
 40
3.0
100
AcDbArc
 50
269.999709
 51
360.0
  0
CIRCLE
  5
5C1
100
AcDbEntity
  8
M0
 62
     7
100
AcDbCircle
 10
429.74731
 20
1104.345275
 40
4.0
  0
LINE
  5
5C2
100
AcDbEntity
  8
M0
  6
DASHDOT
 62
     7
100
AcDbLine
 10
421.74731
 20
1104.345275
 11
437.74731
 21
1104.345275
  0
LINE
  5
5C3
100
AcDbEntity
  8
M0
  6
DASHDOT
 62
     7
100
AcDbLine
 10
429.74731
 20
1096.345275
 11
429.74731
 21
1112.345275
  0
CIRCLE
  5
5C4
100
AcDbEntity
  8
M0
 62
     7
100
AcDbCircle
 10
627.747295
 20
1104.345275
 40
4.0
  0
LINE
  5
5C5
100
AcDbEntity
  8
M0
  6
DASHDOT
 62
     7
100
AcDbLine
 10
619.747295
 20
1104.345275
 11
635.747295
 21
1104.345275
  0
LINE
  5
5C6
100
AcDbEntity
  8
M0
  6
DASHDOT
 62
     7
100
AcDbLine
 10
627.747295
 20
1096.345275
 11
627.747295
 21
1112.345275
  0
CIRCLE
  5
5C7
100
AcDbEntity
  8
M0
 62
     7
100
AcDbCircle
 10
521.24731
 20
1081.345275
 40
2.75
  0
LINE
  5
5C8
100
AcDbEntity
  8
M0
  6
DASHDOT
 62
     7
100
AcDbLine
 10
514.49731
 20
1081.345275
 11
527.99731
 21
1081.345275
  0
LINE
  5
5C9
100
AcDbEntity
  8
M0
  6
DASHDOT
 62
     7
100
AcDbLine
 10
521.24731
 20
1074.595275
 11
521.24731
 21
1088.095275
  0
CIRCLE
  5
5CA
100
AcDbEntity
  8
M0
 62
     7
100
AcDbCircle
 10
521.24731
 20
1053.345275
 40
2.75
  0
LINE
  5
5CB
100
AcDbEntity
  8
M0
  6
DASHDOT
 62
     7
100
AcDbLine
 10
514.49731
 20
1053.345275
 11
527.99731
 21
1053.345275
  0
LINE
  5
5CC
100
AcDbEntity
  8
M0
  6
DASHDOT
 62
     7
100
AcDbLine
 10
521.24731
 20
1060.095275
 11
521.24731
 21
1046.595275
  0
CIRCLE
  5
5CD
100
AcDbEntity
  8
M0
 62
     7
100
AcDbCircle
 10
484.24731
 20
1053.345275
 40
2.75
  0
LINE
  5
5CE
100
AcDbEntity
  8
M0
  6
DASHDOT
 62
     7
100
AcDbLine
 10
490.99731
 20
1053.345275
 11
477.49731
 21
1053.345275
  0
LINE
  5
5CF
100
AcDbEntity
  8
M0
  6
DASHDOT
 62
     7
100
AcDbLine
 10
484.24731
 20
1060.095275
 11
484.24731
 21
1046.595275
  0
CIRCLE
  5
5D0
100
AcDbEntity
  8
M0
 62
     7
100
AcDbCircle
 10
484.24731
 20
1081.345275
 40
2.75
  0
LINE
  5
5D1
100
AcDbEntity
  8
M0
  6
DASHDOT
 62
     7
100
AcDbLine
 10
490.99731
 20
1081.345275
 11
477.49731
 21
1081.345275
  0
LINE
  5
5D2
100
AcDbEntity
  8
M0
  6
DASHDOT
 62
     7
100
AcDbLine
 10
484.24731
 20
1074.595275
 11
484.24731
 21
1088.095275
  0
LINE
  5
5D3
100
AcDbEntity
  8
M0
 62
     7
100
AcDbLine
 10
508.74731
 20
1117.345275
 11
478.74731
 21
1117.345275
  0
LINE
  5
5D4
100
AcDbEntity
  8
M0
 62
     7
100
AcDbLine
 10
578.74731
 20
1117.345275
 11
548.74731
 21
1117.345275
  0
LINE
  5
5D5
100
AcDbEntity
  8
M0
 62
     7
100
AcDbLine
 10
618.74731
 20
1091.345275
 11
638.74731
 21
1091.345275
  0
LINE
  5
5D6
100
AcDbEntity
  8
M0
100
AcDbLine
 10
611.99731
 20
1126.645262
 11
611.99731
 21
1157.345275
  0
LINE
  5
5D7
100
AcDbEntity
  8
M0
100
AcDbLine
 10
643.49731
 20
1091.345275
 11
643.49731
 21
1121.34529
  0
LINE
  5
5D8
100
AcDbEntity
  8
M0
100
AcDbLine
 10
608.797298
 20
1129.631926
 11
608.797298
 21
1157.345275
  0
LINE
  5
5D9
100
AcDbEntity
  8
M0
100
AcDbLine
 10
646.697307
 20
1091.345275
 11
646.697307
 21
1121.34529
  0
LINE
  5
5DA
100
AcDbEntity
  8
M0
100
AcDbLine
 10
646.697307
 20
1091.345275
 11
618.74731
 21
1091.345275
  0
CIRCLE
  5
5DB
100
AcDbEntity
  8
M0
 62
     1
100
AcDbCircle
 10
407.397456
 20
1270.845275
 40
3.5
  0
CIRCLE
  5
5DC
100
AcDbEntity
  8
M0
 62
     1
100
AcDbCircle
 10
422.297359
 20
1280.345275
 40
3.5
  0
CIRCLE
  5
5DD
100
AcDbEntity
  8
M0
 62
     1
100
AcDbCircle
 10
422.297359
 20
1270.845275
 40
3.5
  0
CIRCLE
  5
5DE
100
AcDbEntity
  8
M0
 62
     1
100
AcDbCircle
 10
422.297359
 20
1257.845275
 40
3.5
  0
CIRCLE
  5
5DF
100
AcDbEntity
  8
M0
 62
     1
100
AcDbCircle
 10
407.397456
 20
1257.845275
 40
3.5
  0
CIRCLE
  5
5E0
100
AcDbEntity
  8
M0
 62
     1
100
AcDbCircle
 10
407.397456
 20
1234.845275
 40
3.5
  0
CIRCLE
  5
5E1
100
AcDbEntity
  8
M0
 62
     1
100
AcDbCircle
 10
422.297359
 20
1234.845275
 40
3.5
  0
CIRCLE
  5
5E2
100
AcDbEntity
  8
M0
 62
     1
100
AcDbCircle
 10
407.397456
 20
1221.845275
 40
3.5
  0
CIRCLE
  5
5E3
100
AcDbEntity
  8
M0
 62
     1
100
AcDbCircle
 10
422.297359
 20
1221.845275
 40
3.5
  0
CIRCLE
  5
5E4
100
AcDbEntity
  8
M0
 62
     1
100
AcDbCircle
 10
407.397456
 20
1212.345275
 40
3.5
  0
CIRCLE
  5
5E5
100
AcDbEntity
  8
M0
 62
     1
100
AcDbCircle
 10
422.297359
 20
1212.345275
 40
3.5
  0
CIRCLE
  5
5E6
100
AcDbEntity
  8
M0
 62
     1
100
AcDbCircle
 10
635.197261
 20
1212.345275
 40
3.5
  0
CIRCLE
  5
5E7
100
AcDbEntity
  8
M0
 62
     1
100
AcDbCircle
 10
635.197261
 20
1221.845275
 40
3.5
  0
CIRCLE
  5
5E8
100
AcDbEntity
  8
M0
 62
     1
100
AcDbCircle
 10
635.197261
 20
1234.845275
 40
3.5
  0
CIRCLE
  5
5E9
100
AcDbEntity
  8
M0
 62
     1
100
AcDbCircle
 10
635.197261
 20
1257.845275
 40
3.5
  0
CIRCLE
  5
5EA
100
AcDbEntity
  8
M0
 62
     1
100
AcDbCircle
 10
635.197261
 20
1270.845275
 40
3.5
  0
CIRCLE
  5
5EB
100
AcDbEntity
  8
M0
 62
     1
100
AcDbCircle
 10
650.097163
 20
1270.845275
 40
3.5
  0
CIRCLE
  5
5EC
100
AcDbEntity
  8
M0
 62
     1
100
AcDbCircle
 10
650.097163
 20
1257.845275
 40
3.5
  0
CIRCLE
  5
5ED
100
AcDbEntity
  8
M0
 62
     1
100
AcDbCircle
 10
650.097163
 20
1234.845275
 40
3.5
  0
CIRCLE
  5
5EE
100
AcDbEntity
  8
M0
 62
     1
100
AcDbCircle
 10
650.097163
 20
1221.845275
 40
3.5
  0
CIRCLE
  5
5EF
100
AcDbEntity
  8
M0
 62
     1
100
AcDbCircle
 10
650.097163
 20
1212.345275
 40
3.5
  0
CIRCLE
  5
5F0
100
AcDbEntity
  8
M0
 62
     1
100
AcDbCircle
 10
635.197261
 20
1280.345275
 40
3.5
  0
CIRCLE
  5
5F1
100
AcDbEntity
  8
M0
 62
     1
100
AcDbCircle
 10
650.097163
 20
1280.345275
 40
3.5
  0
LINE
  5
5F2
100
AcDbEntity
  8
M0
  6
DASHDOT
100
AcDbLine
 10
153.74731
 20
1376.595275
 11
153.74731
 21
1396.095275
  0
LINE
  5
5F3
100
AcDbEntity
  8
M0
  6
DASHDOT
100
AcDbLine
 10
143.99731
 20
1386.345275
 11
163.49731
 21
1386.345275
  0
CIRCLE
  5
5F4
100
AcDbEntity
  8
M0
100
AcDbCircle
 10
153.74731
 20
1386.345275
 40
5.75
  0
LINE
  5
5F5
100
AcDbEntity
  8
M0
  6
DASHDOT
100
AcDbLine
 10
633.747066
 20
1376.595275
 11
633.747066
 21
1396.095275
  0
LINE
  5
5F6
100
AcDbEntity
  8
M0
  6
DASHDOT
100
AcDbLine
 10
623.997066
 20
1386.345275
 11
643.49731
 21
1386.345275
  0
CIRCLE
  5
5F7
100
AcDbEntity
  8
M0
100
AcDbCircle
 10
633.747066
 20
1386.345275
 40
5.75
  0
LINE
  5
5F8
100
AcDbEntity
  8
M0
  6
DASHDOT
100
AcDbLine
 10
393.74731
 20
1333.345275
 11
393.74731
 21
1413.345275
  0
LINE
  5
5F9
100
AcDbEntity
  8
M0
100
AcDbLine
 10
128.74731
 20
1403.345275
 11
128.74731
 21
1343.345275
  0
LINE
  5
5FA
100
AcDbEntity
  8
M0
100
AcDbLine
 10
658.74731
 20
1403.345275
 11
618.747066
 21
1403.345275
  0
LINE
  5
5FB
100
AcDbEntity
  8
M0
100
AcDbLine
 10
658.74731
 20
1343.345275
 11
658.74731
 21
1403.345275
  0
LINE
  5
5FC
100
AcDbEntity
  8
M0
100
AcDbLine
 10
573.748775
 20
1403.345275
 11
570.747066
 21
1403.345275
  0
LINE
  5
5FD
100
AcDbEntity
  8
M0
100
AcDbLine
 10
578.747066
 20
1403.345275
 11
548.747066
 21
1403.345275
  0
LINE
  5
5FE
100
AcDbEntity
  8
M0
100
AcDbLine
 10
508.747066
 20
1403.345275
 11
496.747066
 21
1403.345275
  0
LINE
  5
5FF
100
AcDbEntity
  8
M0
100
AcDbLine
 10
496.747066
 20
1403.345275
 11
478.747066
 21
1403.345275
  0
LINE
  5
600
100
AcDbEntity
  8
M0
100
AcDbLine
 10
438.745357
 20
1403.345275
 11
348.747249
 21
1403.345275
  0
LINE
  5
601
100
AcDbEntity
  8
M0
100
AcDbLine
 10
308.747234
 20
1403.345275
 11
300.747279
 21
1403.345275
  0
LINE
  5
602
100
AcDbEntity
  8
M0
100
AcDbLine
 10
300.747279
 20
1403.345275
 11
278.747234
 21
1403.345275
  0
LINE
  5
603
100
AcDbEntity
  8
M0
100
AcDbLine
 10
238.747234
 20
1403.345275
 11
226.747295
 21
1403.345275
  0
LINE
  5
604
100
AcDbEntity
  8
M0
100
AcDbLine
 10
226.747295
 20
1403.345275
 11
208.747234
 21
1403.345275
  0
LINE
  5
605
100
AcDbEntity
  8
M0
100
AcDbLine
 10
168.745372
 20
1403.345275
 11
128.74731
 21
1403.345275
  0
LINE
  5
606
100
AcDbEntity
  8
M0
  6
DASHDOT
100
AcDbLine
 10
393.747304
 20
1159.345441
 11
393.747354
 21
1079.345441
  0
LINE
  5
607
100
AcDbEntity
  8
M0
100
AcDbLine
 10
128.747348
 20
1089.345275
 11
128.74731
 21
1149.345275
  0
LINE
  5
608
100
AcDbEntity
  8
M0
100
AcDbLine
 10
658.747348
 20
1089.345607
 11
618.747103
 21
1089.345582
  0
LINE
  5
609
100
AcDbEntity
  8
M0
100
AcDbLine
 10
658.74731
 20
1149.345607
 11
658.747348
 21
1089.345607
  0
LINE
  5
60A
100
AcDbEntity
  8
M0
100
AcDbLine
 10
161.247332
 20
1089.345295
 11
128.747348
 21
1089.345275
  0
LINE
  5
60B
100
AcDbEntity
  8
M0
  6
DASHDOT
100
AcDbLine
 10
153.747331
 20
1017.595534
 11
153.747343
 21
998.095534
  0
LINE
  5
60C
100
AcDbEntity
  8
M0
  6
DASHDOT
100
AcDbLine
 10
143.997337
 20
1007.845528
 11
163.497337
 21
1007.84554
  0
CIRCLE
  5
60D
100
AcDbEntity
  8
M0
100
AcDbCircle
 10
153.747337
 20
1007.845534
 40
5.75
  0
LINE
  5
60E
100
AcDbEntity
  8
M0
  6
DASHDOT
100
AcDbLine
 10
633.747087
 20
1017.595836
 11
633.747099
 21
998.095836
  0
LINE
  5
60F
100
AcDbEntity
  8
M0
  6
DASHDOT
100
AcDbLine
 10
623.997093
 20
1007.84583
 11
643.497337
 21
1007.845842
  0
CIRCLE
  5
610
100
AcDbEntity
  8
M0
100
AcDbCircle
 10
633.747093
 20
1007.845836
 40
5.75
  0
LINE
  5
611
100
AcDbEntity
  8
M0
  6
DASHDOT
100
AcDbLine
 10
393.747304
 20
1060.845685
 11
393.747354
 21
980.845685
  0
LINE
  5
612
100
AcDbEntity
  8
M0
100
AcDbLine
 10
128.747348
 20
990.845519
 11
128.74731
 21
1050.845519
  0
LINE
  5
613
100
AcDbEntity
  8
M0
100
AcDbLine
 10
658.747348
 20
990.845851
 11
618.747103
 21
990.845826
  0
LINE
  5
614
100
AcDbEntity
  8
M0
100
AcDbLine
 10
658.74731
 20
1050.845851
 11
658.747348
 21
990.845851
  0
LINE
  5
615
100
AcDbEntity
  8
M0
100
AcDbLine
 10
573.748812
 20
990.845798
 11
570.747103
 21
990.845796
  0
LINE
  5
616
100
AcDbEntity
  8
M0
100
AcDbLine
 10
570.747103
 20
990.845796
 11
551.246127
 21
990.845784
  0
LINE
  5
617
100
AcDbEntity
  8
M0
100
AcDbLine
 10
506.246127
 20
990.845756
 11
496.747103
 21
990.84575
  0
LINE
  5
618
100
AcDbEntity
  8
M0
100
AcDbLine
 10
496.747103
 20
990.84575
 11
483.745883
 21
990.845742
  0
LINE
  5
619
100
AcDbEntity
  8
M0
100
AcDbLine
 10
438.745394
 20
990.845713
 11
348.747287
 21
990.845657
  0
LINE
  5
61A
100
AcDbEntity
  8
M0
100
AcDbLine
 10
303.748919
 20
990.845629
 11
300.747317
 21
990.845627
  0
LINE
  5
61B
100
AcDbEntity
  8
M0
100
AcDbLine
 10
300.747271
 20
990.845627
 11
281.246249
 21
990.845614
  0
LINE
  5
61C
100
AcDbEntity
  8
M0
100
AcDbLine
 10
236.246264
 20
990.845586
 11
226.747332
 21
990.84558
  0
LINE
  5
61D
100
AcDbEntity
  8
M0
100
AcDbLine
 10
226.747287
 20
990.84558
 11
213.745883
 21
990.845572
  0
LINE
  5
61E
100
AcDbEntity
  8
M0
100
AcDbLine
 10
168.74541
 20
990.845544
 11
128.747348
 21
990.845519
  0
LINE
  5
61F
100
AcDbEntity
  8
M0
100
AcDbLine
 10
1062.643077
 20
1347.845262
 11
1081.643077
 21
1347.845262
  0
LINE
  5
620
100
AcDbEntity
  8
M0
100
AcDbLine
 10
1062.643077
 20
1398.845259
 11
1081.643077
 21
1398.845259
  0
LINE
  5
621
100
AcDbEntity
  8
M0
100
AcDbLine
 10
1081.643077
 20
1398.845259
 11
1081.643077
 21
1347.845262
  0
LINE
  5
622
100
AcDbEntity
  8
M0
100
AcDbLine
 10
1079.443062
 20
1403.345275
 11
1079.443062
 21
1400.145262
  0
LINE
  5
623
100
AcDbEntity
  8
M0
100
AcDbLine
 10
1079.443062
 20
1346.545274
 11
1079.443062
 21
1343.345275
  0
LINE
  5
624
100
AcDbEntity
  8
M0
100
AcDbLine
 10
1079.443062
 20
1346.545274
 11
1079.443062
 21
1343.345275
  0
LINE
  5
625
100
AcDbEntity
  8
M0
100
AcDbLine
 10
1079.443062
 20
1403.345275
 11
1079.443062
 21
1400.145262
  0
LINE
  5
626
100
AcDbEntity
  8
M0
100
AcDbLine
 10
1063.643077
 20
1343.345275
 11
1079.443062
 21
1343.345275
  0
LINE
  5
627
100
AcDbEntity
  8
M0
100
AcDbLine
 10
1079.443062
 20
1403.345275
 11
1063.643077
 21
1403.345275
  0
ARC
  5
628
100
AcDbEntity
  8
M0
100
AcDbCircle
 10
1063.643077
 20
1347.545274
 40
4.2
100
AcDbArc
 50
179.999974
 51
270.0
  0
LINE
  5
629
100
AcDbEntity
  8
M0
100
AcDbLine
 10
1059.44308
 20
1399.145262
 11
1059.44308
 21
1347.545274
  0
ARC
  5
62A
100
AcDbEntity
  8
M0
100
AcDbCircle
 10
1063.643077
 20
1399.145262
 40
4.2
100
AcDbArc
 50
89.999792
 51
180.0
  0
ARC
  5
62B
100
AcDbEntity
  8
M0
100
AcDbCircle
 10
1063.643077
 20
1347.545274
 40
1.0
100
AcDbArc
 50
180.0
 51
270.0
  0
LINE
  5
62C
100
AcDbEntity
  8
M0
100
AcDbLine
 10
1063.643077
 20
1346.545274
 11
1079.443062
 21
1346.545274
  0
LINE
  5
62D
100
AcDbEntity
  8
M0
100
AcDbLine
 10
1062.643077
 20
1399.145262
 11
1062.643077
 21
1347.545274
  0
ARC
  5
62E
100
AcDbEntity
  8
M0
100
AcDbCircle
 10
1063.643077
 20
1399.145262
 40
1.0
100
AcDbArc
 50
89.999126
 51
180.0
  0
LINE
  5
62F
100
AcDbEntity
  8
M0
100
AcDbLine
 10
1063.643077
 20
1400.145262
 11
1079.443062
 21
1400.145262
  0
LINE
  5
630
100
AcDbEntity
  8
M0
100
AcDbLine
 10
1059.443012
 20
1362.34503
 11
1059.443012
 21
1384.34503
  0
LINE
  5
631
100
AcDbEntity
  8
M0
100
AcDbLine
 10
1059.443012
 20
1384.34503
 11
1056.243014
 21
1384.34503
  0
LINE
  5
632
100
AcDbEntity
  8
M0
100
AcDbLine
 10
1056.243014
 20
1384.34503
 11
1056.243014
 21
1362.34503
  0
LINE
  5
633
100
AcDbEntity
  8
M0
100
AcDbLine
 10
1056.243014
 20
1362.34503
 11
1059.443012
 21
1362.34503
  0
LINE
  5
634
100
AcDbEntity
  8
M0
100
AcDbLine
 10
1062.643077
 20
1093.845262
 11
1081.643077
 21
1093.845262
  0
LINE
  5
635
100
AcDbEntity
  8
M0
100
AcDbLine
 10
1062.643077
 20
1144.845259
 11
1081.643077
 21
1144.845259
  0
LINE
  5
636
100
AcDbEntity
  8
M0
100
AcDbLine
 10
1081.643077
 20
1144.845259
 11
1081.643077
 21
1093.845262
  0
LINE
  5
637
100
AcDbEntity
  8
M0
100
AcDbLine
 10
1079.443062
 20
1149.345275
 11
1079.443062
 21
1146.145262
  0
LINE
  5
638
100
AcDbEntity
  8
M0
100
AcDbLine
 10
1079.443062
 20
1092.545274
 11
1079.443062
 21
1089.345275
  0
LINE
  5
639
100
AcDbEntity
  8
M0
100
AcDbLine
 10
1079.443062
 20
1092.545274
 11
1079.443062
 21
1089.345275
  0
LINE
  5
63A
100
AcDbEntity
  8
M0
100
AcDbLine
 10
1079.443062
 20
1149.345275
 11
1079.443062
 21
1146.145262
  0
LINE
  5
63B
100
AcDbEntity
  8
M0
100
AcDbLine
 10
1063.643077
 20
1089.345275
 11
1079.443062
 21
1089.345275
  0
LINE
  5
63C
100
AcDbEntity
  8
M0
100
AcDbLine
 10
1079.443062
 20
1149.345275
 11
1063.643077
 21
1149.345275
  0
ARC
  5
63D
100
AcDbEntity
  8
M0
100
AcDbCircle
 10
1063.643077
 20
1093.545274
 40
4.2
100
AcDbArc
 50
179.999974
 51
270.0
  0
LINE
  5
63E
100
AcDbEntity
  8
M0
100
AcDbLine
 10
1059.44308
 20
1145.145262
 11
1059.44308
 21
1093.545274
  0
ARC
  5
63F
100
AcDbEntity
  8
M0
100
AcDbCircle
 10
1063.643077
 20
1145.145262
 40
4.2
100
AcDbArc
 50
89.999792
 51
180.0
  0
ARC
  5
640
100
AcDbEntity
  8
M0
100
AcDbCircle
 10
1063.643077
 20
1093.545274
 40
1.0
100
AcDbArc
 50
180.0
 51
270.0
  0
LINE
  5
641
100
AcDbEntity
  8
M0
100
AcDbLine
 10
1063.643077
 20
1092.545274
 11
1079.443062
 21
1092.545274
  0
LINE
  5
642
100
AcDbEntity
  8
M0
100
AcDbLine
 10
1062.643077
 20
1145.145262
 11
1062.643077
 21
1093.545274
  0
ARC
  5
643
100
AcDbEntity
  8
M0
100
AcDbCircle
 10
1063.643077
 20
1145.145262
 40
1.0
100
AcDbArc
 50
89.999126
 51
180.0
  0
LINE
  5
644
100
AcDbEntity
  8
M0
100
AcDbLine
 10
1063.643077
 20
1146.145262
 11
1079.443062
 21
1146.145262
  0
LINE
  5
645
100
AcDbEntity
  8
M0
100
AcDbLine
 10
1059.443012
 20
1108.34503
 11
1059.443012
 21
1130.34503
  0
LINE
  5
646
100
AcDbEntity
  8
M0
100
AcDbLine
 10
1059.443012
 20
1130.34503
 11
1056.243014
 21
1130.34503
  0
LINE
  5
647
100
AcDbEntity
  8
M0
100
AcDbLine
 10
1056.243014
 20
1130.34503
 11
1056.243014
 21
1108.34503
  0
LINE
  5
648
100
AcDbEntity
  8
M0
100
AcDbLine
 10
1056.243014
 20
1108.34503
 11
1059.443012
 21
1108.34503
  0
LINE
  5
649
100
AcDbEntity
  8
M0
100
AcDbLine
 10
1062.643077
 20
995.346239
 11
1081.643077
 21
995.346239
  0
LINE
  5
64A
100
AcDbEntity
  8
M0
100
AcDbLine
 10
1062.643077
 20
1046.346236
 11
1081.643077
 21
1046.346236
  0
LINE
  5
64B
100
AcDbEntity
  8
M0
100
AcDbLine
 10
1081.643077
 20
1046.346236
 11
1081.643077
 21
995.346239
  0
LINE
  5
64C
100
AcDbEntity
  8
M0
100
AcDbLine
 10
1079.443062
 20
1050.846251
 11
1079.443062
 21
1047.646239
  0
LINE
  5
64D
100
AcDbEntity
  8
M0
100
AcDbLine
 10
1079.443062
 20
994.046251
 11
1079.443062
 21
990.846251
  0
LINE
  5
64E
100
AcDbEntity
  8
M0
100
AcDbLine
 10
1079.443062
 20
994.046251
 11
1079.443062
 21
990.846251
  0
LINE
  5
64F
100
AcDbEntity
  8
M0
100
AcDbLine
 10
1079.443062
 20
1050.846251
 11
1079.443062
 21
1047.646239
  0
LINE
  5
650
100
AcDbEntity
  8
M0
100
AcDbLine
 10
1063.643077
 20
990.846251
 11
1079.443062
 21
990.846251
  0
LINE
  5
651
100
AcDbEntity
  8
M0
100
AcDbLine
 10
1079.443062
 20
1050.846251
 11
1063.643077
 21
1050.846251
  0
ARC
  5
652
100
AcDbEntity
  8
M0
100
AcDbCircle
 10
1063.643077
 20
995.046251
 40
4.2
100
AcDbArc
 50
179.999974
 51
270.0
  0
LINE
  5
653
100
AcDbEntity
  8
M0
100
AcDbLine
 10
1059.44308
 20
1046.646239
 11
1059.44308
 21
995.046251
  0
ARC
  5
654
100
AcDbEntity
  8
M0
100
AcDbCircle
 10
1063.643077
 20
1046.646239
 40
4.2
100
AcDbArc
 50
89.999792
 51
180.0
  0
ARC
  5
655
100
AcDbEntity
  8
M0
100
AcDbCircle
 10
1063.643077
 20
995.046251
 40
1.0
100
AcDbArc
 50
180.0
 51
270.0
  0
LINE
  5
656
100
AcDbEntity
  8
M0
100
AcDbLine
 10
1063.643077
 20
994.046251
 11
1079.443062
 21
994.046251
  0
LINE
  5
657
100
AcDbEntity
  8
M0
100
AcDbLine
 10
1062.643077
 20
1046.646239
 11
1062.643077
 21
995.046251
  0
ARC
  5
658
100
AcDbEntity
  8
M0
100
AcDbCircle
 10
1063.643077
 20
1046.646239
 40
1.0
100
AcDbArc
 50
89.999126
 51
180.0
  0
LINE
  5
659
100
AcDbEntity
  8
M0
100
AcDbLine
 10
1063.643077
 20
1047.646239
 11
1079.443062
 21
1047.646239
  0
LINE
  5
65A
100
AcDbEntity
  8
M0
100
AcDbLine
 10
1059.443012
 20
1009.846007
 11
1059.443012
 21
1031.846007
  0
LINE
  5
65B
100
AcDbEntity
  8
M0
100
AcDbLine
 10
1059.443012
 20
1031.846007
 11
1056.243014
 21
1031.846007
  0
LINE
  5
65C
100
AcDbEntity
  8
M0
100
AcDbLine
 10
1056.243014
 20
1031.846007
 11
1056.243014
 21
1009.846007
  0
LINE
  5
65D
100
AcDbEntity
  8
M0
100
AcDbLine
 10
1056.243014
 20
1009.846007
 11
1059.443012
 21
1009.846007
  0
LINE
  5
65E
100
AcDbEntity
  8
M0
  6
DASHDOT
100
AcDbLine
 10
666.797313
 20
348.636686
 11
666.797313
 21
762.636686
  0
LINE
  5
65F
100
AcDbEntity
  8
M0
  6
DASHDOT
100
AcDbLine
 10
666.797313
 20
762.636686
 11
130.797313
 21
762.636686
  0
LINE
  5
660
100
AcDbEntity
  8
M0
  6
DASHDOT
100
AcDbLine
 10
130.797313
 20
762.636686
 11
130.797313
 21
348.636686
  0
LINE
  5
661
100
AcDbEntity
  8
M0
  6
DASHDOT
100
AcDbLine
 10
130.797313
 20
348.636686
 11
666.797313
 21
348.636686
  0
LINE
  5
662
100
AcDbEntity
  8
M0
  6
DASHDOT
100
AcDbLine
 10
102.225884
 20
555.636686
 11
695.368742
 21
555.636686
  0
LINE
  5
663
100
AcDbEntity
  8
M0
  6
DASHDOT
100
AcDbLine
 10
398.797313
 20
320.065257
 11
398.797313
 21
791.208115
  0
CIRCLE
  5
664
100
AcDbEntity
  8
M0
100
AcDbCircle
 10
638.797313
 20
366.636686
 40
5.0
  0
CIRCLE
  5
665
100
AcDbEntity
  8
M0
100
AcDbCircle
 10
158.797313
 20
366.636686
 40
5.0
  0
CIRCLE
  5
666
100
AcDbEntity
  8
M0
100
AcDbCircle
 10
638.797313
 20
744.636686
 40
5.0
  0
CIRCLE
  5
667
100
AcDbEntity
  8
M0
100
AcDbCircle
 10
158.797313
 20
744.636686
 40
5.0
  0
CIRCLE
  5
668
100
AcDbEntity
  8
M0
100
AcDbCircle
 10
638.797313
 20
366.636686
 40
5.0
  0
LINE
  5
669
100
AcDbEntity
  8
M0
  6
DASHDOT
100
AcDbLine
 10
622.368741
 20
366.636686
 11
655.225885
 21
366.636686
  0
LINE
  5
66A
100
AcDbEntity
  8
M0
  6
DASHDOT
100
AcDbLine
 10
638.797313
 20
350.208115
 11
638.797313
 21
383.065258
  0
CIRCLE
  5
66B
100
AcDbEntity
  8
M0
100
AcDbCircle
 10
158.797313
 20
366.636686
 40
5.0
  0
LINE
  5
66C
100
AcDbEntity
  8
M0
  6
DASHDOT
100
AcDbLine
 10
175.225885
 20
366.636686
 11
142.368741
 21
366.636686
  0
LINE
  5
66D
100
AcDbEntity
  8
M0
  6
DASHDOT
100
AcDbLine
 10
158.797313
 20
350.208115
 11
158.797313
 21
383.065258
  0
CIRCLE
  5
66E
100
AcDbEntity
  8
M0
100
AcDbCircle
 10
158.797313
 20
744.636686
 40
5.0
  0
LINE
  5
66F
100
AcDbEntity
  8
M0
  6
DASHDOT
100
AcDbLine
 10
175.225885
 20
744.636686
 11
142.368741
 21
744.636686
  0
LINE
  5
670
100
AcDbEntity
  8
M0
  6
DASHDOT
100
AcDbLine
 10
158.797313
 20
761.065258
 11
158.797313
 21
728.208115
  0
CIRCLE
  5
671
100
AcDbEntity
  8
M0
100
AcDbCircle
 10
638.797313
 20
744.636686
 40
5.0
  0
LINE
  5
672
100
AcDbEntity
  8
M0
  6
DASHDOT
100
AcDbLine
 10
622.368741
 20
744.636686
 11
655.225885
 21
744.636686
  0
LINE
  5
673
100
AcDbEntity
  8
M0
  6
DASHDOT
100
AcDbLine
 10
638.797313
 20
761.065258
 11
638.797313
 21
728.208115
  0
LINE
  5
674
100
AcDbEntity
  8
M1
 62
     2
100
AcDbLine
 10
57.142858
 20
57.142858
 11
57.142858
 21
1628.571456
  0
LINE
  5
675
100
AcDbEntity
  8
M1
 62
     2
100
AcDbLine
 10
57.142858
 20
1628.571456
 11
1142.857162
 21
1628.571456
  0
LINE
  5
676
100
AcDbEntity
  8
M1
 62
     2
100
AcDbLine
 10
1142.857162
 20
1628.571456
 11
1142.857162
 21
57.142858
  0
LINE
  5
677
100
AcDbEntity
  8
M1
 62
     2
100
AcDbLine
 10
1142.857162
 20
57.142858
 11
57.142858
 21
57.142858
  0
LINE
  5
678
100
AcDbEntity
  8
M1
 62
     2
100
AcDbLine
 10
1142.857162
 20
114.285716
 11
571.428581
 21
114.285716
  0
LINE
  5
679
100
AcDbEntity
  8
M1
 62
     2
100
AcDbLine
 10
1142.857162
 20
171.428574
 11
571.428581
 21
171.428574
  0
LINE
  5
67A
100
AcDbEntity
  8
M1
 62
     2
100
AcDbLine
 10
1142.857162
 20
228.571432
 11
571.428581
 21
228.571432
  0
LINE
  5
67B
100
AcDbEntity
  8
M1
 62
     2
100
AcDbLine
 10
571.428581
 20
57.142858
 11
571.428581
 21
228.571432
  0
TEXT
  5
67C
100
AcDbEntity
  8
M1
 62
     2
100
AcDbText
 10
585.714296
 20
71.428573
 40
28.571428
  1
適　用；
 41
1.0
  7
STANDARD
100
AcDbText
  0
TEXT
  5
67D
100
AcDbEntity
  8
M1
 62
     2
100
AcDbText
 10
585.714296
 20
185.714289
 40
28.571428
  1
登録名：
 41
1.0
  7
STANDARD
100
AcDbText
  0
TEXT
  5
67E
100
AcDbEntity
  8
M1
 62
     2
100
AcDbText
 10
722.857155
 20
185.714289
 40
28.571428
  1
ＤＭＨ６００ＣＲＬＲ００
 41
0.5
  7
STANDARD
100
AcDbText
  0
TEXT
  5
67F
100
AcDbEntity
  8
M1
 62
     2
100
AcDbText
 10
585.714296
 20
128.571431
 40
28.571428
  1
形　式；
 41
1.0
  7
STANDARD
100
AcDbText
  0
TEXT
  5
680
100
AcDbEntity
  8
M1
 62
     2
100
AcDbText
 10
722.857155
 20
128.571431
 40
28.571428
  1
Ｈ６００Ｃ－Ｌ，Ｈ６００Ｃ－ＲＬＧ
 41
0.5
  7
STANDARD
100
AcDbText
  0
LINE
  5
681
100
AcDbEntity
  8
DN0
100
AcDbLine
 10
354.434454
 20
251.061977
 11
458.777317
 21
251.061977
  0
TEXT
  5
682
100
AcDbEntity
  8
DN0
100
AcDbText
 10
357.320168
 20
253.633405
 40
25.714286
  1
せん孔図
 41
0.833333
  7
STANDARD
100
AcDbText
  0
ENDSEC
  0
SECTION
  2
OBJECTS
  0
DICTIONARY
  5
C
100
AcDbDictionary
  3
ACAD_GROUP
350
D
  3
ACAD_MLINESTYLE
350
E
  0
DICTIONARY
  5
D
102
{ACAD_REACTORS
330
C
102
}
100
AcDbDictionary
  0
DICTIONARY
  5
E
102
{ACAD_REACTORS
330
C
102
}
100
AcDbDictionary
  3
STANDARD
350
13
  0
MLINESTYLE
  5
13
102
{ACAD_REACTORS
330
E
102
}
100
AcDbMlineStyle
  2
STANDARD
 70
     0
  3

 62
     0
 51
90.0
 52
90.0
 71
     2
 49
0.5
 62
   256
  6
BYLAYER
 49
-0.5
 62
   256
  6
BYLAYER
  0
ENDSEC
  0
EOF
