  0
SECTION
  2
HEADER
  9
$ACADVER
  1
AC1014
  9
$INSBASE
 10
0.000000
 20
0.000000
 30
0.0
  9
$VIEWCTR
 10
7.531722
 20
4.5
  9
$VIEWSIZE
 40
9.0
  9
$SNAPMODE
 70
     0
  9
$SNAPUNIT
 10
1.0
 20
1.0
  9
$SNAPBASE
 10
0.0
 20
0.0
  9
$SNAPANG
 50
0.0
  9
$SNAPSTYLE
 70
     0
  9
$SNAPISOPAIR
 70
     0
  9
$GRIDMODE
 70
     0
  9
$GRIDUNIT
 10
0.0
 20
0.0
  9
$ORTHOMODE
 70
     0
  9
$REGENMODE
 70
     1
  9
$FILLMODE
 70
     1
  9
$QTEXTMODE
 70
     0
  9
$DRAGMODE
 70
     2
  9
$LTSCALE
  40
     1.000000
  9
$OSMODE
 70
     0
  9
$ATTMODE
 70
     1
  9
$TEXTSIZE
 40
0.2
  9
$TRACEWID
 40
0.05
  9
$TEXTSTYLE
  7
STANDARD
  9
$CELTYPE
  6
BYLAYER
  9
$CECOLOR
 62
   256
  9
$DIMSCALE
 40
1.0
  9
$DIMASZ
 40
0.18
  9
$DIMEXO
 40
0.0625
  9
$DIMDLI
 40
0.38
  9
$DIMRND
 40
0.0
  9
$DIMDLE
 40
0.0
  9
$DIMEXE
 40
0.18
  9
$DIMTP
 40
0.0
  9
$DIMTM
 40
0.0
  9
$DIMTXT
 40
0.18
  9
$DIMCEN
 40
0.09
  9
$DIMTSZ
 40
0.0
  9
$DIMTOL
 70
     0
  9
$DIMLIM
 70
     0
  9
$DIMTIH
 70
     1
  9
$DIMTOH
 70
     1
  9
$DIMSE1
 70
     0
  9
$DIMSE2
 70
     0
  9
$DIMTAD
 70
     0
  9
$DIMZIN
 70
     0
  9
$DIMBLK
  1

  9
$LUNITS
 70
     2
  9
$LUPREC
 70
     4
  9
$AXISMODE
 70
     0
  9
$AXISUNIT
 10
0.0
 20
0.0
  9
$SKETCHINC
 40
0.1
  9
$FILLETRAD
 40
0.0
  9
$AUNITS
 70
     0
  9
$AUPREC
 70
     0
  9
$MENU
  1
ACAD
  9
$ELEVATION
 40
0.0
  9
$THICKNESS
 40
0.0
  9
$VIEWDIR
 10
0.0
 20
0.0
 30
1.0
  9
$LIMCHECK
 70
     0
  9
$BLIPMODE
 70
     1
  9
$CHAMFERA
 40
0.0
  9
$CHAMFERB
 40
0.0
  9
$FASTZOOM
 70
     1
  9
$SKPOLY
 70
     0
  9
$TDCREATE
 40
0000000.0000000000
  9
$TDUPDATE
 40
0000000.0000000000
  9
$TDINDWG
 40
0.0000000000
  9
$TDUSRTIMER
 40
0.0000000000
  9
$USRTIMER
 70
     1
  9
$ANGBASE
 50
0.0
  9
$ANGDIR
 70
     0
  9
$PDMODE
 70
     0
  9
$PDSIZE
 40
0.0
  9
$PLINEWID
 40
0.0
  9
$COORDS
 70
     0
  9
$USERI1
 70
     0
  9
$USERI2
 70
     0
  9
$USERI3
 70
     0
  9
$USERI4
 70
     0
  9
$USERI5
 70
     0
  9
$USERR1
 40
0.0
  9
$USERR2
 40
0.0
  9
$USERR3
 40
0.0
  9
$USERR4
 40
0.0
  9
$USERR5
 40
0.0
  9
$CLAYER
  8
M0
  9
$EXTMIN
 10
49.999999
 20
49.999999
  9
$EXTMAX
 10
999.999985
 20
1424.999979
  9
$LIMMIN
 10
0.0
 20
0.0
  9
$LIMMAX
 10
210.0
 20
297.0
  9
$HANDSEED
  5
AD3
  0
ENDSEC
  0
SECTION
  2
CLASSES
  0
ENDSEC
  0
SECTION
  2
TABLES
  0
TABLE
  2
VPORT
  5
8
100
AcDbSymbolTable
 70
     2
  0
VPORT
  5
14
100
AcDbSymbolTableRecord
100
AcDbViewportTableRecord
  2
*ACTIVE
 70
     0
 10
0.0
 20
0.0
 11
1.0
 21
1.0
 12
484.0
 22
297.0
 13
0.0
 23
0.0
 14
1.0
 24
1.0
 15
0.0
 25
0.0
 16
0.0
 26
0.0
 36
1.0
 17
0.0
 27
0.0
 37
0.0
 40
594.0
 41
2.0
 42
50.0
 43
0.0
 44
0.0
 50
0.0
 51
0.0
 71
     0
 72
   100
 73
     1
 74
     1
 75
     0
 76
     0
 77
     0
 78
     0
  0
ENDTAB
  0
TABLE
  2
LTYPE
  5
5
100
AcDbSymbolTable
 70
     5
  0
LTYPE
  5
15
100
AcDbSymbolTableRecord
100
AcDbLinetypeTableRecord
  2
BYBLOCK
 70
     0
  3

 72
    65
 73
     0
 40
0.0
  0
LTYPE
  5
16
100
AcDbSymbolTableRecord
100
AcDbLinetypeTableRecord
  2
BYLAYER
 70
     0
  3

 72
    65
 73
     0
 40
0.0
  0
LTYPE
  5
17
100
AcDbSymbolTableRecord
100
AcDbLinetypeTableRecord
  2
CONTINUOUS
 70
    64
  3
Solid line
 72
    65
 73
     0
 40
0.0
  0
LTYPE
  5
18
100
AcDbSymbolTableRecord
100
AcDbLinetypeTableRecord
  2
DASHED
 70
    64
  3
__ __ __ __ __ __ __ __ __ __ __ __ __ __ __ __
 72
    65
 73
     2
 40
0.75
 49
0.5
 74
     0
 49
-0.25
 74
     0
  0
LTYPE
  5
19
100
AcDbSymbolTableRecord
100
AcDbLinetypeTableRecord
  2
DASHDOT
 70
    64
  3
__ . __ . __ . __ . __ . __ . __ . __ . __ . __
 72
    65
 73
     4
 40
1.0
 49
0.5
 74
     0
 49
-0.25
 74
     0
 49
0.0
 74
     0
 49
-0.25
 74
     0
  0
LTYPE
  5
1A
100
AcDbSymbolTableRecord
100
AcDbLinetypeTableRecord
  2
DIVIDE
 70
    64
  3
____ . . ____ . . ____ . . ____ . . ____ . . __
 72
    65
 73
     6
 40
1.25
 49
0.5
 74
     0
 49
-0.25
 74
     0
 49
0.0
 74
     0
 49
-0.25
 74
     0
 49
0.0
 74
     0
 49
-0.25
 74
     0
  0
LTYPE
  5
1B
100
AcDbSymbolTableRecord
100
AcDbLinetypeTableRecord
  2
DOT
 70
    64
  3
. . . . . . . . . . . . . . . . . . . . . . . .
 72
    65
 73
     2
 40
0.25
 49
0.0
 74
     0
 49
-0.25
 74
     0
  0
ENDTAB
  0
TABLE
  2
LAYER
  5
2
100
AcDbSymbolTable
 70
   102
  0
LAYER
  5
F
100
AcDbSymbolTableRecord
100
AcDbLayerTableRecord
  2
0
 70
     0
 62
     7
  6
CONTINUOUS
  0
LAYER
  5
1C
100
AcDbSymbolTableRecord
100
AcDbLayerTableRecord
  2
DEFPOINTS
 70
     0
 62
     7
  6
CONTINUOUS
  0
LAYER
  5
1D
100
AcDbSymbolTableRecord
100
AcDbLayerTableRecord
  2
M0
 70
     0
 62
     3
  6
CONTINUOUS
  0
LAYER
  5
1E
100
AcDbSymbolTableRecord
100
AcDbLayerTableRecord
  2
M1
 70
     0
 62
     3
  6
CONTINUOUS
  0
LAYER
  5
1F
100
AcDbSymbolTableRecord
100
AcDbLayerTableRecord
  2
DD0
 70
     0
 62
     4
  6
CONTINUOUS
  0
LAYER
  5
20
100
AcDbSymbolTableRecord
100
AcDbLayerTableRecord
  2
DN0
 70
     0
 62
     2
  6
CONTINUOUS
  0
ENDTAB
  0
TABLE
  2
STYLE
  5
3
100
AcDbSymbolTable
 70
     2
  0
STYLE
  5
10
100
AcDbSymbolTableRecord
100
AcDbTextStyleTableRecord
  2
STANDARD
 70
     0
 40
0.0
 41
1.0
 50
0.0
 71
     0
 42
0.2
  3
txt
  4
BIGFONT
  0
ENDTAB
  0
TABLE
  2
VIEW
  5
6
100
AcDbSymbolTable
 70
     0
  0
ENDTAB
  0
TABLE
  2
UCS
  5
7
100
AcDbSymbolTable
 70
     0
  0
ENDTAB
  0
TABLE
  2
APPID
  5
9
100
AcDbSymbolTable
 70
     1
  0
APPID
  5
11
100
AcDbSymbolTableRecord
100
AcDbRegAppTableRecord
  2
ACAD
 70
     0
  0
ENDTAB
  0
TABLE
  2
DIMSTYLE
  5
A
100
AcDbSymbolTable
 70
     2
  0
DIMSTYLE
105
27
100
AcDbSymbolTableRecord
100
AcDbDimStyleTableRecord
  2
STANDARD
 70
     0
  3

  4

  5

  6
_OPEN
  7
_OPEN
 40
1.0
 41
15.0
 42
1.0
 43
8.0
 44
1.0
 45
0.0
 46
0.0
 47
0.0
 48
0.0
140
15.75
141
0.09
142
0.0
143
0.03937
144
1.0
145
0.0
146
1.0
147
0.6
 71
     0
 72
     0
 73
     1
 74
     1
 75
     0
 76
     0
 77
     3
 78
     8
170
     0
171
     2
172
     0
173
     1
174
     0
175
     0
176
     0
177
     0
178
     0
270
     2
271
     2
272
     4
273
     2
274
     2
340
10
275
     0
280
     0
281
     0
282
     0
283
     1
284
     0
285
     0
286
     0
287
     3
288
     0
  0
DIMSTYLE
105
28
100
AcDbSymbolTableRecord
100
AcDbDimStyleTableRecord
  2
LEADSTYL
 70
     0
  3

  4

  5

  6
_OPEN
  7
_OPEN
 40
1.0
 41
15.0
 42
0.0625
 43
0.38
 44
0.18
 45
0.0
 46
0.0
 47
0.0
 48
0.0
140
15.75
141
0.09
142
0.0
143
25.4
144
1.0
145
0.0
146
1.0
147
0.6
 71
     0
 72
     0
 73
     1
 74
     1
 75
     0
 76
     0
 77
     0
 78
     0
170
     0
171
     2
172
     0
173
     1
174
     0
175
     0
176
     0
177
     0
178
     0
270
     2
271
     4
272
     4
273
     2
274
     2
340
10
275
     0
280
     0
281
     0
282
     0
283
     1
284
     0
285
     0
286
     0
287
     3
288
     0
  0
ENDTAB
  0
TABLE
  2
BLOCK_RECORD
  5
1
100
AcDbSymbolTable
 70
    18
  0
BLOCK_RECORD
  5
21
100
AcDbSymbolTableRecord
100
AcDbBlockTableRecord
  2
*MODEL_SPACE
  0
BLOCK_RECORD
  5
24
100
AcDbSymbolTableRecord
100
AcDbBlockTableRecord
  2
*PAPER_SPACE
  0
BLOCK_RECORD
  5
29
100
AcDbSymbolTableRecord
100
AcDbBlockTableRecord
  2
_NONE
  0
BLOCK_RECORD
  5
2D
100
AcDbSymbolTableRecord
100
AcDbBlockTableRecord
  2
_OPEN
  0
BLOCK_RECORD
  5
33
100
AcDbSymbolTableRecord
100
AcDbBlockTableRecord
  2
_CLOSED
  0
BLOCK_RECORD
  5
3A
100
AcDbSymbolTableRecord
100
AcDbBlockTableRecord
  2
_ORIGIN
  0
BLOCK_RECORD
  5
3F
100
AcDbSymbolTableRecord
100
AcDbBlockTableRecord
  2
_DOT
  0
BLOCK_RECORD
  5
47
100
AcDbSymbolTableRecord
100
AcDbBlockTableRecord
  2
_OBLIQUE
  0
BLOCK_RECORD
  5
4B
100
AcDbSymbolTableRecord
100
AcDbBlockTableRecord
  2
DIMS0
  0
BLOCK_RECORD
  5
57
100
AcDbSymbolTableRecord
100
AcDbBlockTableRecord
  2
DIMS1
  0
BLOCK_RECORD
  5
63
100
AcDbSymbolTableRecord
100
AcDbBlockTableRecord
  2
DIMS2
  0
BLOCK_RECORD
  5
6F
100
AcDbSymbolTableRecord
100
AcDbBlockTableRecord
  2
DIMS3
  0
BLOCK_RECORD
  5
7B
100
AcDbSymbolTableRecord
100
AcDbBlockTableRecord
  2
DIMS4
  0
BLOCK_RECORD
  5
87
100
AcDbSymbolTableRecord
100
AcDbBlockTableRecord
  2
DIMS5
  0
BLOCK_RECORD
  5
93
100
AcDbSymbolTableRecord
100
AcDbBlockTableRecord
  2
DIMS6
  0
BLOCK_RECORD
  5
9F
100
AcDbSymbolTableRecord
100
AcDbBlockTableRecord
  2
DIMS7
  0
BLOCK_RECORD
  5
AB
100
AcDbSymbolTableRecord
100
AcDbBlockTableRecord
  2
DIMS8
  0
BLOCK_RECORD
  5
B4
100
AcDbSymbolTableRecord
100
AcDbBlockTableRecord
  2
DIMS9
  0
BLOCK_RECORD
  5
C0
100
AcDbSymbolTableRecord
100
AcDbBlockTableRecord
  2
DIMS10
  0
BLOCK_RECORD
  5
CC
100
AcDbSymbolTableRecord
100
AcDbBlockTableRecord
  2
DIMS11
  0
ENDTAB
  0
ENDSEC
  0
SECTION
  2
BLOCKS
  0
BLOCK
  5
22
100
AcDbEntity
  8
0
100
AcDbBlockBegin
  2
*MODEL_SPACE
 70
     0
 10
0.0
 20
0.0
 30
0.0
  3
*MODEL_SPACE
  1

  0
ENDBLK
  5
23
100
AcDbEntity
  8
0
100
AcDbBlockEnd
  0
BLOCK
  5
25
100
AcDbEntity
 67
     1
  8
0
100
AcDbBlockBegin
  2
*PAPER_SPACE
 70
     0
 10
0.0
 20
0.0
 30
0.0
  3
*PAPER_SPACE
  1

  0
ENDBLK
  5
26
100
AcDbEntity
 67
     1
  8
0
100
AcDbBlockEnd
  0
BLOCK
  5
2A
100
AcDbEntity
  8
0
100
AcDbBlockBegin
  2
_NONE
 70
     0
 10
0.0
 20
0.0
  0
CIRCLE
  5
2B
100
AcDbEntity
  8
0
 62
     0
100
AcDbCircle
 10
0.0
 20
0.0
 40
0.25
  0
ENDBLK
  5
2C
100
AcDbEntity
  8
0
100
AcDbBlockEnd
  0
BLOCK
  5
2E
100
AcDbEntity
  8
0
100
AcDbBlockBegin
  2
_OPEN
 70
     0
 10
0.0
 20
0.0
  0
LINE
  5
2F
100
AcDbEntity
  8
0
 62
     0
100
AcDbLine
 10
-0.965926
 20
0.258819
 11
0.0
 21
0.0
  0
LINE
  5
30
100
AcDbEntity
  8
0
 62
     0
100
AcDbLine
 10
0.0
 20
0.0
 11
-0.965926
 21
-0.258819
  0
LINE
  5
31
100
AcDbEntity
  8
0
 62
     0
100
AcDbLine
 10
0.0
 20
0.0
 11
-1.0
 21
0.0
  0
ENDBLK
  5
32
100
AcDbEntity
  8
0
100
AcDbBlockEnd
  0
BLOCK
  5
34
100
AcDbEntity
  8
0
100
AcDbBlockBegin
  2
_CLOSED
 70
     0
 10
0.0
 20
0.0
  0
LINE
  5
35
100
AcDbEntity
  8
0
 62
     0
100
AcDbLine
 10
-0.965926
 20
0.258819
 11
0.0
 21
0.0
  0
LINE
  5
36
100
AcDbEntity
  8
0
 62
     0
100
AcDbLine
 10
0.0
 20
0.0
 11
-0.965926
 21
-0.258819
  0
LINE
  5
37
100
AcDbEntity
  8
0
 62
     0
100
AcDbLine
 10
-0.965926
 20
0.258819
 11
-0.965926
 21
-0.258819
  0
LINE
  5
38
100
AcDbEntity
  8
0
 62
     0
100
AcDbLine
 10
0.0
 20
0.0
 11
-1.0
 21
0.0
  0
ENDBLK
  5
39
100
AcDbEntity
  8
0
100
AcDbBlockEnd
  0
BLOCK
  5
3B
100
AcDbEntity
  8
0
100
AcDbBlockBegin
  2
_ORIGIN
 70
     0
 10
0.0
 20
0.0
  0
CIRCLE
  5
3C
100
AcDbEntity
  8
0
 62
     0
100
AcDbCircle
 10
0.0
 20
0.0
 40
0.5
  0
LINE
  5
3D
100
AcDbEntity
  8
0
 62
     0
100
AcDbLine
 10
0.0
 20
0.0
 11
-1.0
 21
0.0
  0
ENDBLK
  5
3E
100
AcDbEntity
  8
0
100
AcDbBlockEnd
  0
BLOCK
  5
40
100
AcDbEntity
  8
0
100
AcDbBlockBegin
  2
_DOT
 70
     0
 10
0.0
 20
0.0
  0
POLYLINE
  5
41
100
AcDbEntity
  8
0
 62
     0
100
AcDb2dPolyline
 66
     1
 70
     1
 40
0.5
 41
0.5
  0
VERTEX
  5
42
100
AcDbEntity
  8
0
 62
     0
100
AcDbVertex
100
AcDb2dVertex
 10
-0.25
 20
0.0
 42
1.0
  0
VERTEX
  5
43
100
AcDbEntity
  8
0
 62
     0
100
AcDbVertex
100
AcDb2dVertex
 10
0.25
 20
0.0
 42
1.0
  0
SEQEND
  5
44
100
AcDbEntity
  8
0
 62
     0
  0
LINE
  5
45
100
AcDbEntity
  8
0
 62
     0
100
AcDbLine
 10
-0.5
 20
0.0
 11
-1.0
 21
0.0
  0
ENDBLK
  5
46
100
AcDbEntity
  8
0
100
AcDbBlockEnd
  0
BLOCK
  5
48
100
AcDbEntity
  8
0
100
AcDbBlockBegin
  2
_OBLIQUE
 70
     0
 10
0.0
 20
0.0
  0
LINE
  5
49
100
AcDbEntity
  8
0
 62
     0
100
AcDbLine
 10
-0.353553
 20
-0.353553
 11
0.353553
 21
0.353553
  0
ENDBLK
  5
4A
100
AcDbEntity
  8
0
100
AcDbBlockEnd
  0
BLOCK
  5
4C
100
AcDbEntity
  8
DD0
100
AcDbBlockBegin
  2
DIMS0
 70
     0
 10
0.0
 20
0.0
  0
LINE
  5
4D
100
AcDbEntity
  8
DD0
100
AcDbLine
 10
195.066754
 20
1238.632565
 11
195.066754
 21
1301.632518
  0
LINE
  5
4E
100
AcDbEntity
  8
DD0
 60
     1
100
AcDbLine
 10
325.016437
 20
1294.132519
 11
325.016437
 21
1299.132518
  0
LINE
  5
4F
100
AcDbEntity
  8
DD0
100
AcDbLine
 10
209.555641
 20
1300.514804
 11
195.066754
 21
1296.632519
  0
LINE
  5
50
100
AcDbEntity
  8
DD0
100
AcDbLine
 10
195.066754
 20
1296.632519
 11
209.555641
 21
1292.750233
  0
LINE
  5
51
100
AcDbEntity
  8
DD0
100
AcDbLine
 10
310.527549
 20
1292.750233
 11
325.016437
 21
1296.632519
  0
LINE
  5
52
100
AcDbEntity
  8
DD0
100
AcDbLine
 10
325.016437
 20
1296.632519
 11
310.527549
 21
1300.514804
  0
LINE
  5
53
100
AcDbEntity
  8
DD0
100
AcDbLine
 10
195.066754
 20
1296.632519
 11
325.016437
 21
1296.632519
  0
TEXT
  5
54
100
AcDbEntity
  8
DD0
100
AcDbText
 10
237.70409
 20
1299.632549
 40
15.75
  1
１３０
 41
0.833333
  7
STANDARD
100
AcDbText
  0
ENDBLK
  5
55
100
AcDbEntity
  8
DD0
100
AcDbBlockEnd
  0
BLOCK
  5
58
100
AcDbEntity
  8
DD0
100
AcDbBlockBegin
  2
DIMS1
 70
     0
 10
0.0
 20
0.0
  0
LINE
  5
59
100
AcDbEntity
  8
DD0
100
AcDbLine
 10
195.066754
 20
1238.632565
 11
195.066754
 21
1336.737956
  0
LINE
  5
5A
100
AcDbEntity
  8
DD0
100
AcDbLine
 10
478.516381
 20
1232.632504
 11
478.516381
 21
1336.737956
  0
LINE
  5
5B
100
AcDbEntity
  8
DD0
100
AcDbLine
 10
209.555641
 20
1335.620242
 11
195.066754
 21
1331.737956
  0
LINE
  5
5C
100
AcDbEntity
  8
DD0
100
AcDbLine
 10
195.066754
 20
1331.737956
 11
209.555641
 21
1327.855671
  0
LINE
  5
5D
100
AcDbEntity
  8
DD0
100
AcDbLine
 10
464.027494
 20
1327.855671
 11
478.516381
 21
1331.737956
  0
LINE
  5
5E
100
AcDbEntity
  8
DD0
100
AcDbLine
 10
478.516381
 20
1331.737956
 11
464.027494
 21
1335.620242
  0
LINE
  5
5F
100
AcDbEntity
  8
DD0
100
AcDbLine
 10
195.066754
 20
1331.737956
 11
478.516381
 21
1331.737956
  0
TEXT
  5
60
100
AcDbEntity
  8
DD0
100
AcDbText
 10
314.454082
 20
1334.737987
 40
15.75
  1
２８４
 41
0.833333
  7
STANDARD
100
AcDbText
  0
ENDBLK
  5
61
100
AcDbEntity
  8
DD0
100
AcDbBlockEnd
  0
BLOCK
  5
64
100
AcDbEntity
  8
DD0
100
AcDbBlockBegin
  2
DIMS2
 70
     0
 10
0.0
 20
0.0
  0
LINE
  5
65
100
AcDbEntity
  8
DD0
100
AcDbLine
 10
420.016664
 20
1266.632519
 11
543.516342
 21
1266.632519
  0
LINE
  5
66
100
AcDbEntity
  8
DD0
100
AcDbLine
 10
420.01674
 20
834.632556
 11
543.516342
 21
834.632556
  0
LINE
  5
67
100
AcDbEntity
  8
DD0
100
AcDbLine
 10
542.398627
 20
1252.143632
 11
538.516342
 21
1266.632519
  0
LINE
  5
68
100
AcDbEntity
  8
DD0
100
AcDbLine
 10
538.516342
 20
1266.632519
 11
534.634056
 21
1252.143632
  0
LINE
  5
69
100
AcDbEntity
  8
DD0
100
AcDbLine
 10
534.634056
 20
849.121443
 11
538.516342
 21
834.632556
  0
LINE
  5
6A
100
AcDbEntity
  8
DD0
100
AcDbLine
 10
538.516342
 20
834.632556
 11
542.398627
 21
849.121443
  0
LINE
  5
6B
100
AcDbEntity
  8
DD0
100
AcDbLine
 10
538.516342
 20
1266.632519
 11
538.516342
 21
834.632556
  0
TEXT
  5
6C
100
AcDbEntity
  8
DD0
100
AcDbText
 10
535.516349
 20
1028.295013
 40
15.75
  1
４３２
 50
90.000003
 41
0.833333
  7
STANDARD
100
AcDbText
  0
ENDBLK
  5
6D
100
AcDbEntity
  8
DD0
100
AcDbBlockEnd
  0
BLOCK
  5
70
100
AcDbEntity
  8
DD0
100
AcDbBlockBegin
  2
DIMS3
 70
     0
 10
0.0
 20
0.0
  0
LINE
  5
71
100
AcDbEntity
  8
DD0
 60
     1
100
AcDbLine
 10
380.016817
 20
683.655462
 11
543.516342
 21
683.655462
  0
LINE
  5
72
100
AcDbEntity
  8
DD0
 60
     1
100
AcDbLine
 10
445.016816
 20
637.655478
 11
543.516342
 21
637.655478
  0
LINE
  5
73
100
AcDbEntity
  8
DD0
100
AcDbLine
 10
534.634056
 20
698.144349
 11
538.516342
 21
683.655462
  0
LINE
  5
74
100
AcDbEntity
  8
DD0
100
AcDbLine
 10
538.516342
 20
683.655462
 11
542.398627
 21
698.144349
  0
LINE
  5
75
100
AcDbEntity
  8
DD0
100
AcDbLine
 10
542.398627
 20
623.16659
 11
538.516342
 21
637.655478
  0
LINE
  5
76
100
AcDbEntity
  8
DD0
100
AcDbLine
 10
538.516342
 20
637.655478
 11
534.634056
 21
623.16659
  0
LINE
  5
77
100
AcDbEntity
  8
DD0
100
AcDbLine
 10
538.516342
 20
736.655463
 11
538.516342
 21
621.155478
  0
TEXT
  5
78
100
AcDbEntity
  8
DD0
100
AcDbText
 10
535.516349
 20
701.442983
 40
15.75
  1
４６
 50
90.000003
 41
0.833333
  7
STANDARD
100
AcDbText
  0
ENDBLK
  5
79
100
AcDbEntity
  8
DD0
100
AcDbBlockEnd
  0
BLOCK
  5
7C
100
AcDbEntity
  8
DD0
100
AcDbBlockBegin
  2
DIMS4
 70
     0
 10
0.0
 20
0.0
  0
LINE
  5
7D
100
AcDbEntity
  8
DD0
 60
     1
100
AcDbLine
 10
445.016816
 20
637.655478
 11
543.516342
 21
637.655478
  0
LINE
  5
7E
100
AcDbEntity
  8
DD0
100
AcDbLine
 10
445.016816
 20
415.655473
 11
543.516342
 21
415.655473
  0
LINE
  5
7F
100
AcDbEntity
  8
DD0
100
AcDbLine
 10
542.398627
 20
623.16659
 11
538.516342
 21
637.655478
  0
LINE
  5
80
100
AcDbEntity
  8
DD0
100
AcDbLine
 10
538.516342
 20
637.655478
 11
534.634056
 21
623.16659
  0
LINE
  5
81
100
AcDbEntity
  8
DD0
100
AcDbLine
 10
534.634056
 20
430.14436
 11
538.516342
 21
415.655473
  0
LINE
  5
82
100
AcDbEntity
  8
DD0
100
AcDbLine
 10
538.516342
 20
415.655473
 11
542.398627
 21
430.14436
  0
LINE
  5
83
100
AcDbEntity
  8
DD0
100
AcDbLine
 10
538.516342
 20
637.655478
 11
538.516342
 21
415.655473
  0
TEXT
  5
84
100
AcDbEntity
  8
DD0
100
AcDbText
 10
535.516349
 20
504.318008
 40
15.75
  1
２２２
 50
90.000003
 41
0.833333
  7
STANDARD
100
AcDbText
  0
ENDBLK
  5
85
100
AcDbEntity
  8
DD0
100
AcDbBlockEnd
  0
BLOCK
  5
88
100
AcDbEntity
  8
DD0
100
AcDbBlockBegin
  2
DIMS5
 70
     0
 10
0.0
 20
0.0
  0
LINE
  5
89
100
AcDbEntity
  8
DD0
 60
     1
100
AcDbLine
 10
445.016816
 20
415.655473
 11
543.516342
 21
415.655473
  0
LINE
  5
8A
100
AcDbEntity
  8
DD0
100
AcDbLine
 10
460.016816
 20
280.655456
 11
543.516342
 21
280.655456
  0
LINE
  5
8B
100
AcDbEntity
  8
DD0
100
AcDbLine
 10
542.398627
 20
401.166586
 11
538.516342
 21
415.655473
  0
LINE
  5
8C
100
AcDbEntity
  8
DD0
100
AcDbLine
 10
538.516342
 20
415.655473
 11
534.634056
 21
401.166586
  0
LINE
  5
8D
100
AcDbEntity
  8
DD0
100
AcDbLine
 10
534.634056
 20
295.144343
 11
538.516342
 21
280.655456
  0
LINE
  5
8E
100
AcDbEntity
  8
DD0
100
AcDbLine
 10
538.516342
 20
280.655456
 11
542.398627
 21
295.144343
  0
LINE
  5
8F
100
AcDbEntity
  8
DD0
100
AcDbLine
 10
538.516342
 20
415.655473
 11
538.516342
 21
280.655456
  0
TEXT
  5
90
100
AcDbEntity
  8
DD0
100
AcDbText
 10
535.516349
 20
325.817988
 40
15.75
  1
１３５
 50
90.000003
 41
0.833333
  7
STANDARD
100
AcDbText
  0
ENDBLK
  5
91
100
AcDbEntity
  8
DD0
100
AcDbBlockEnd
  0
BLOCK
  5
94
100
AcDbEntity
  8
DD0
100
AcDbBlockBegin
  2
DIMS6
 70
     0
 10
0.0
 20
0.0
  0
LINE
  5
95
100
AcDbEntity
  8
DD0
100
AcDbLine
 10
195.066831
 20
655.655508
 11
195.066831
 21
767.895115
  0
LINE
  5
96
100
AcDbEntity
  8
DD0
 60
     1
100
AcDbLine
 10
325.016818
 20
721.944264
 11
325.016818
 21
767.895115
  0
LINE
  5
97
100
AcDbEntity
  8
DD0
100
AcDbLine
 10
209.555718
 20
766.777401
 11
195.066831
 21
762.895115
  0
LINE
  5
98
100
AcDbEntity
  8
DD0
100
AcDbLine
 10
195.066831
 20
762.895115
 11
209.555718
 21
759.012829
  0
LINE
  5
99
100
AcDbEntity
  8
DD0
100
AcDbLine
 10
310.527931
 20
759.012829
 11
325.016818
 21
762.895115
  0
LINE
  5
9A
100
AcDbEntity
  8
DD0
100
AcDbLine
 10
325.016818
 20
762.895115
 11
310.527931
 21
766.777401
  0
LINE
  5
9B
100
AcDbEntity
  8
DD0
100
AcDbLine
 10
195.066831
 20
762.895115
 11
325.016818
 21
762.895115
  0
TEXT
  5
9C
100
AcDbEntity
  8
DD0
100
AcDbText
 10
237.704319
 20
765.895145
 40
15.75
  1
１３０
 41
0.833333
  7
STANDARD
100
AcDbText
  0
ENDBLK
  5
9D
100
AcDbEntity
  8
DD0
100
AcDbBlockEnd
  0
BLOCK
  5
A0
100
AcDbEntity
  8
DD0
100
AcDbBlockBegin
  2
DIMS7
 70
     0
 10
0.0
 20
0.0
  0
LINE
  5
A1
100
AcDbEntity
  8
DD0
100
AcDbLine
 10
240.016819
 20
672.655477
 11
240.016819
 21
732.975911
  0
LINE
  5
A2
100
AcDbEntity
  8
DD0
100
AcDbLine
 10
410.016855
 20
672.655477
 11
410.016855
 21
732.975911
  0
LINE
  5
A3
100
AcDbEntity
  8
DD0
100
AcDbLine
 10
254.505706
 20
731.858197
 11
240.016819
 21
727.975911
  0
LINE
  5
A4
100
AcDbEntity
  8
DD0
100
AcDbLine
 10
240.016819
 20
727.975911
 11
254.505706
 21
724.093625
  0
LINE
  5
A5
100
AcDbEntity
  8
DD0
100
AcDbLine
 10
395.527968
 20
724.093625
 11
410.016855
 21
727.975911
  0
LINE
  5
A6
100
AcDbEntity
  8
DD0
100
AcDbLine
 10
410.016855
 20
727.975911
 11
395.527968
 21
731.858197
  0
LINE
  5
A7
100
AcDbEntity
  8
DD0
100
AcDbLine
 10
240.016819
 20
727.975911
 11
410.016855
 21
727.975911
  0
TEXT
  5
A8
100
AcDbEntity
  8
DD0
100
AcDbText
 10
307.491363
 20
731.914967
 40
15.75
  1
１７０
 41
0.833333
  7
STANDARD
100
AcDbText
  0
ENDBLK
  5
A9
100
AcDbEntity
  8
DD0
100
AcDbBlockEnd
  0
BLOCK
  5
AC
100
AcDbEntity
  8
DD0
100
AcDbBlockBegin
  2
DIMS8
 70
     0
 10
0.0
 20
0.0
  0
TEXT
  5
AD
100
AcDbEntity
  8
DD0
100
AcDbText
 10
91.11901
 20
215.918442
 40
12.5
  1
６－Ｍ１０ねじ穴
 41
0.833333
  7
STANDARD
100
AcDbText
  0
LINE
  5
AE
100
AcDbEntity
  8
DD0
100
AcDbLine
 10
219.4261
 20
262.435277
 11
221.29316
 21
277.318626
  0
LINE
  5
AF
100
AcDbEntity
  8
DD0
100
AcDbLine
 10
221.29316
 20
277.318626
 11
212.234564
 21
265.362798
  0
LINE
  5
B0
100
AcDbEntity
  8
DD0
100
AcDbLine
 10
221.29316
 20
277.318626
 11
195.077207
 21
212.918412
  0
LINE
  5
B1
100
AcDbEntity
  8
DD0
100
AcDbLine
 10
195.077187
 20
212.918297
 11
85.077265
 21
212.918317
  0
ENDBLK
  5
B2
100
AcDbEntity
  8
DD0
100
AcDbBlockEnd
  0
BLOCK
  5
B5
100
AcDbEntity
  8
DD0
100
AcDbBlockBegin
  2
DIMS9
 70
     0
 10
0.0
 20
0.0
  0
LINE
  5
B6
100
AcDbEntity
  8
DD0
100
AcDbLine
 10
225.016819
 20
245.655457
 11
225.016819
 21
197.84557
  0
LINE
  5
B7
100
AcDbEntity
  8
DD0
100
AcDbLine
 10
425.016855
 20
245.655457
 11
425.016855
 21
197.84557
  0
LINE
  5
B8
100
AcDbEntity
  8
DD0
100
AcDbLine
 10
239.505707
 20
206.727856
 11
225.016819
 21
202.84557
  0
LINE
  5
B9
100
AcDbEntity
  8
DD0
100
AcDbLine
 10
225.016819
 20
202.84557
 11
239.505707
 21
198.963285
  0
LINE
  5
BA
100
AcDbEntity
  8
DD0
100
AcDbLine
 10
410.527967
 20
198.963285
 11
425.016855
 21
202.84557
  0
LINE
  5
BB
100
AcDbEntity
  8
DD0
100
AcDbLine
 10
425.016855
 20
202.84557
 11
410.527967
 21
206.727856
  0
LINE
  5
BC
100
AcDbEntity
  8
DD0
100
AcDbLine
 10
225.016819
 20
202.84557
 11
425.016855
 21
202.84557
  0
TEXT
  5
BD
100
AcDbEntity
  8
DD0
100
AcDbText
 10
302.67937
 20
205.845563
 40
15.75
  1
２００
 41
0.833333
  7
STANDARD
100
AcDbText
  0
ENDBLK
  5
BE
100
AcDbEntity
  8
DD0
100
AcDbBlockEnd
  0
BLOCK
  5
C1
100
AcDbEntity
  8
DD0
100
AcDbBlockBegin
  2
DIMS10
 70
     0
 10
0.0
 20
0.0
  0
LINE
  5
C2
100
AcDbEntity
  8
DD0
100
AcDbLine
 10
835.38901
 20
1238.632565
 11
835.38901
 21
1301.632518
  0
LINE
  5
C3
100
AcDbEntity
  8
DD0
100
AcDbLine
 10
838.589007
 20
1238.632565
 11
838.589007
 21
1301.632518
  0
LINE
  5
C4
100
AcDbEntity
  8
DD0
100
AcDbLine
 10
820.900123
 20
1292.750233
 11
835.38901
 21
1296.632519
  0
LINE
  5
C5
100
AcDbEntity
  8
DD0
100
AcDbLine
 10
835.38901
 20
1296.632519
 11
820.900123
 21
1300.514804
  0
LINE
  5
C6
100
AcDbEntity
  8
DD0
100
AcDbLine
 10
853.077894
 20
1300.514804
 11
838.589007
 21
1296.632519
  0
LINE
  5
C7
100
AcDbEntity
  8
DD0
100
AcDbLine
 10
838.589007
 20
1296.632519
 11
853.077894
 21
1292.750233
  0
LINE
  5
C8
100
AcDbEntity
  8
DD0
100
AcDbLine
 10
818.889011
 20
1296.632519
 11
907.339011
 21
1296.632519
  0
TEXT
  5
C9
100
AcDbEntity
  8
DD0
100
AcDbText
 10
856.376528
 20
1299.632549
 40
15.75
  1
３．２
 41
0.833333
  7
STANDARD
100
AcDbText
  0
ENDBLK
  5
CA
100
AcDbEntity
  8
DD0
100
AcDbBlockEnd
  0
BLOCK
  5
CD
100
AcDbEntity
  8
DD0
100
AcDbBlockBegin
  2
DIMS11
 70
     0
 10
0.0
 20
0.0
  0
LINE
  5
CE
100
AcDbEntity
  8
DD0
100
AcDbLine
 10
838.589007
 20
1238.632565
 11
838.589007
 21
1336.737956
  0
LINE
  5
CF
100
AcDbEntity
  8
DD0
100
AcDbLine
 10
606.589003
 20
1205.632535
 11
606.589003
 21
1336.737956
  0
LINE
  5
D0
100
AcDbEntity
  8
DD0
100
AcDbLine
 10
824.10012
 20
1327.855671
 11
838.589007
 21
1331.737956
  0
LINE
  5
D1
100
AcDbEntity
  8
DD0
100
AcDbLine
 10
838.589007
 20
1331.737956
 11
824.10012
 21
1335.620242
  0
LINE
  5
D2
100
AcDbEntity
  8
DD0
100
AcDbLine
 10
621.07789
 20
1335.620242
 11
606.589003
 21
1331.737956
  0
LINE
  5
D3
100
AcDbEntity
  8
DD0
100
AcDbLine
 10
606.589003
 20
1331.737956
 11
621.07789
 21
1327.855671
  0
LINE
  5
D4
100
AcDbEntity
  8
DD0
100
AcDbLine
 10
838.589007
 20
1331.737956
 11
606.589003
 21
1331.737956
  0
TEXT
  5
D5
100
AcDbEntity
  8
DD0
100
AcDbText
 10
700.2515
 20
1334.737987
 40
15.75
  1
２３２
 41
0.833333
  7
STANDARD
100
AcDbText
  0
ENDBLK
  5
D6
100
AcDbEntity
  8
DD0
100
AcDbBlockEnd
  0
ENDSEC
  0
SECTION
  2
ENTITIES
  0
INSERT
  5
56
100
AcDbEntity
  8
DD0
100
AcDbBlockReference
  2
DIMS0
 10
0.0
 20
0.0
  0
INSERT
  5
62
100
AcDbEntity
  8
DD0
100
AcDbBlockReference
  2
DIMS1
 10
0.0
 20
0.0
  0
INSERT
  5
6E
100
AcDbEntity
  8
DD0
100
AcDbBlockReference
  2
DIMS2
 10
0.0
 20
0.0
  0
INSERT
  5
7A
100
AcDbEntity
  8
DD0
100
AcDbBlockReference
  2
DIMS3
 10
0.0
 20
0.0
  0
INSERT
  5
86
100
AcDbEntity
  8
DD0
100
AcDbBlockReference
  2
DIMS4
 10
0.0
 20
0.0
  0
INSERT
  5
92
100
AcDbEntity
  8
DD0
100
AcDbBlockReference
  2
DIMS5
 10
0.0
 20
0.0
  0
INSERT
  5
9E
100
AcDbEntity
  8
DD0
100
AcDbBlockReference
  2
DIMS6
 10
0.0
 20
0.0
  0
INSERT
  5
AA
100
AcDbEntity
  8
DD0
100
AcDbBlockReference
  2
DIMS7
 10
0.0
 20
0.0
  0
INSERT
  5
B3
100
AcDbEntity
  8
DD0
100
AcDbBlockReference
  2
DIMS8
 10
0.0
 20
0.0
  0
INSERT
  5
BF
100
AcDbEntity
  8
DD0
100
AcDbBlockReference
  2
DIMS9
 10
0.0
 20
0.0
  0
INSERT
  5
CB
100
AcDbEntity
  8
DD0
100
AcDbBlockReference
  2
DIMS10
 10
0.0
 20
0.0
  0
INSERT
  5
D7
100
AcDbEntity
  8
DD0
100
AcDbBlockReference
  2
DIMS11
 10
0.0
 20
0.0
  0
ARC
  5
D8
100
AcDbEntity
  8
M0
 62
     7
100
AcDbCircle
 10
422.516753
 20
1065.132534
 40
1.5
100
AcDbArc
 50
269.999417
 51
360.0
  0
ARC
  5
D9
100
AcDbEntity
  8
M0
 62
     7
100
AcDbCircle
 10
422.516753
 20
1062.132534
 40
1.5
100
AcDbArc
 50
90.0
 51
180.0
  0
ARC
  5
DA
100
AcDbEntity
  8
M0
 62
     7
100
AcDbCircle
 10
420.016753
 20
1199.632534
 40
4.0
100
AcDbArc
 50
0.0
 51
90.0
  0
LINE
  5
DB
100
AcDbEntity
  8
M0
 62
     7
100
AcDbLine
 10
420.016753
 20
1203.632534
 11
415.016753
 21
1203.632534
  0
LINE
  5
DC
100
AcDbEntity
  8
M0
 62
     7
100
AcDbLine
 10
350.396743
 20
1199.792522
 11
350.676741
 21
1200.752529
  0
ARC
  5
DD
100
AcDbEntity
  8
M0
 62
     7
100
AcDbCircle
 10
347.516753
 20
1200.632534
 40
3.0
100
AcDbArc
 50
269.999709
 51
343.738968
  0
LINE
  5
DE
100
AcDbEntity
  8
M0
 62
     7
100
AcDbLine
 10
359.356749
 20
1200.752529
 11
359.636748
 21
1199.792522
  0
ARC
  5
DF
100
AcDbEntity
  8
M0
 62
     7
100
AcDbCircle
 10
362.516753
 20
1200.632534
 40
3.0
100
AcDbArc
 50
196.260391
 51
269.999709
  0
LINE
  5
E0
100
AcDbEntity
  8
M0
 62
     7
100
AcDbLine
 10
410.896743
 20
1199.792522
 11
411.176741
 21
1200.752529
  0
ARC
  5
E1
100
AcDbEntity
  8
M0
 62
     7
100
AcDbCircle
 10
415.016753
 20
1199.632534
 40
4.0
100
AcDbArc
 50
90.0
 51
163.740119
  0
ARC
  5
E2
100
AcDbEntity
  8
M0
 62
     7
100
AcDbCircle
 10
408.016753
 20
1200.632534
 40
3.0
100
AcDbArc
 50
269.999709
 51
343.738968
  0
LINE
  5
E3
100
AcDbEntity
  8
M0
 62
     7
100
AcDbLine
 10
408.016753
 20
1197.632534
 11
362.516753
 21
1197.632534
  0
ARC
  5
E4
100
AcDbEntity
  8
M0
 62
     7
100
AcDbCircle
 10
355.516753
 20
1199.632534
 40
4.0
100
AcDbArc
 50
16.260152
 51
90.0
  0
ARC
  5
E5
100
AcDbEntity
  8
M0
 62
     7
100
AcDbCircle
 10
354.516753
 20
1199.632534
 40
4.0
100
AcDbArc
 50
90.0
 51
163.740119
  0
LINE
  5
E6
100
AcDbEntity
  8
M0
 62
     7
100
AcDbLine
 10
354.516753
 20
1203.632534
 11
355.516753
 21
1203.632534
  0
ARC
  5
E7
100
AcDbEntity
  8
M0
 62
     7
100
AcDbCircle
 10
421.016753
 20
1186.632534
 40
3.0
100
AcDbArc
 50
269.999709
 51
360.0
  0
ARC
  5
E8
100
AcDbEntity
  8
M0
 62
     7
100
AcDbCircle
 10
421.016753
 20
1170.632534
 40
3.0
100
AcDbArc
 50
0.0
 51
90.0
  0
LINE
  5
E9
100
AcDbEntity
  8
M0
 62
     7
100
AcDbLine
 10
421.016753
 20
1183.632534
 11
416.016753
 21
1183.632534
  0
LINE
  5
EA
100
AcDbEntity
  8
M0
 62
     7
100
AcDbLine
 10
421.016753
 20
1173.632534
 11
416.016753
 21
1173.632534
  0
ARC
  5
EB
100
AcDbEntity
  8
M0
 62
     7
100
AcDbCircle
 10
416.016753
 20
1178.632534
 40
5.0
100
AcDbArc
 50
90.0
 51
269.999825
  0
ARC
  5
EC
100
AcDbEntity
  8
M0
 62
     7
100
AcDbCircle
 10
230.016753
 20
1199.632534
 40
4.0
100
AcDbArc
 50
89.999781
 51
180.0
  0
LINE
  5
ED
100
AcDbEntity
  8
M0
 62
     7
100
AcDbLine
 10
230.016753
 20
1203.632534
 11
235.016753
 21
1203.632534
  0
LINE
  5
EE
100
AcDbEntity
  8
M0
 62
     7
100
AcDbLine
 10
299.636763
 20
1199.792522
 11
299.356765
 21
1200.752529
  0
ARC
  5
EF
100
AcDbEntity
  8
M0
 62
     7
100
AcDbCircle
 10
302.516753
 20
1200.632534
 40
3.0
100
AcDbArc
 50
196.260753
 51
270.0
  0
LINE
  5
F0
100
AcDbEntity
  8
M0
 62
     7
100
AcDbLine
 10
290.676757
 20
1200.752529
 11
290.396758
 21
1199.792522
  0
ARC
  5
F1
100
AcDbEntity
  8
M0
 62
     7
100
AcDbCircle
 10
287.516753
 20
1200.632534
 40
3.0
100
AcDbArc
 50
270.0
 51
343.739609
  0
LINE
  5
F2
100
AcDbEntity
  8
M0
 62
     7
100
AcDbLine
 10
239.136763
 20
1199.792522
 11
238.856765
 21
1200.752529
  0
ARC
  5
F3
100
AcDbEntity
  8
M0
 62
     7
100
AcDbCircle
 10
235.016753
 20
1199.632534
 40
4.0
100
AcDbArc
 50
16.259671
 51
89.999781
  0
ARC
  5
F4
100
AcDbEntity
  8
M0
 62
     7
100
AcDbCircle
 10
242.016753
 20
1200.632534
 40
3.0
100
AcDbArc
 50
196.260753
 51
270.0
  0
LINE
  5
F5
100
AcDbEntity
  8
M0
 62
     7
100
AcDbLine
 10
242.016753
 20
1197.632534
 11
287.516753
 21
1197.632534
  0
LINE
  5
F6
100
AcDbEntity
  8
M0
 62
     7
100
AcDbLine
 10
347.516753
 20
1197.632534
 11
302.516753
 21
1197.632534
  0
ARC
  5
F7
100
AcDbEntity
  8
M0
 62
     7
100
AcDbCircle
 10
294.516753
 20
1199.632534
 40
4.0
100
AcDbArc
 50
89.999781
 51
163.739848
  0
ARC
  5
F8
100
AcDbEntity
  8
M0
 62
     7
100
AcDbCircle
 10
295.516753
 20
1199.632534
 40
4.0
100
AcDbArc
 50
16.259671
 51
89.999781
  0
LINE
  5
F9
100
AcDbEntity
  8
M0
 62
     7
100
AcDbLine
 10
295.516753
 20
1203.632534
 11
294.516753
 21
1203.632534
  0
ARC
  5
FA
100
AcDbEntity
  8
M0
 62
     7
100
AcDbCircle
 10
229.016753
 20
1186.632534
 40
3.0
100
AcDbArc
 50
180.0
 51
270.0
  0
ARC
  5
FB
100
AcDbEntity
  8
M0
 62
     7
100
AcDbCircle
 10
229.016753
 20
1170.632534
 40
3.0
100
AcDbArc
 50
89.999709
 51
180.0
  0
LINE
  5
FC
100
AcDbEntity
  8
M0
 62
     7
100
AcDbLine
 10
229.016753
 20
1183.632534
 11
234.016753
 21
1183.632534
  0
LINE
  5
FD
100
AcDbEntity
  8
M0
 62
     7
100
AcDbLine
 10
229.016753
 20
1173.632534
 11
234.016753
 21
1173.632534
  0
ARC
  5
FE
100
AcDbEntity
  8
M0
 62
     7
100
AcDbCircle
 10
234.016753
 20
1178.632534
 40
5.0
100
AcDbArc
 50
-90.0
 51
89.999825
  0
LINE
  5
FF
100
AcDbEntity
  8
M0
 62
     7
100
AcDbLine
 10
350.396743
 20
1017.472536
 11
350.676741
 21
1016.512536
  0
ARC
  5
100
100
AcDbEntity
  8
M0
 62
     7
100
AcDbCircle
 10
347.516753
 20
1016.632536
 40
3.0
100
AcDbArc
 50
16.260368
 51
90.0
  0
LINE
  5
101
100
AcDbEntity
  8
M0
 62
     7
100
AcDbLine
 10
359.356749
 20
1016.512536
 11
359.636748
 21
1017.472536
  0
ARC
  5
102
100
AcDbEntity
  8
M0
 62
     7
100
AcDbCircle
 10
362.516753
 20
1016.632536
 40
3.0
100
AcDbArc
 50
90.0
 51
163.739819
  0
LINE
  5
103
100
AcDbEntity
  8
M0
 62
     7
100
AcDbLine
 10
347.516753
 20
1019.632535
 11
302.516753
 21
1019.632535
  0
ARC
  5
104
100
AcDbEntity
  8
M0
 62
     7
100
AcDbCircle
 10
355.516753
 20
1017.632536
 40
4.0
100
AcDbArc
 50
269.999781
 51
343.739703
  0
ARC
  5
105
100
AcDbEntity
  8
M0
 62
     7
100
AcDbCircle
 10
417.016753
 20
1017.632536
 40
4.0
100
AcDbArc
 50
-90.000219
 51
0.0
  0
LINE
  5
106
100
AcDbEntity
  8
M0
 62
     7
100
AcDbLine
 10
229.016753
 20
1017.632536
 11
229.016753
 21
1062.132534
  0
LINE
  5
107
100
AcDbEntity
  8
M0
 62
     7
100
AcDbLine
 10
421.016753
 20
1017.632536
 11
421.016753
 21
1062.132534
  0
LINE
  5
108
100
AcDbEntity
  8
M0
 62
     7
100
AcDbLine
 10
417.016753
 20
1013.632536
 11
415.116744
 21
1013.632536
  0
LINE
  5
109
100
AcDbEntity
  8
M0
 62
     7
100
AcDbLine
 10
410.996749
 20
1017.472536
 11
411.276748
 21
1016.512536
  0
ARC
  5
10A
100
AcDbEntity
  8
M0
 62
     7
100
AcDbCircle
 10
415.116744
 20
1017.632536
 40
4.0
100
AcDbArc
 50
196.260039
 51
269.999781
  0
ARC
  5
10B
100
AcDbEntity
  8
M0
 62
     7
100
AcDbCircle
 10
408.116744
 20
1016.632536
 40
3.0
100
AcDbArc
 50
16.260298
 51
90.0
  0
LINE
  5
10C
100
AcDbEntity
  8
M0
 62
     7
100
AcDbLine
 10
408.116744
 20
1019.632535
 11
362.516753
 21
1019.632535
  0
ARC
  5
10D
100
AcDbEntity
  8
M0
 62
     7
100
AcDbCircle
 10
354.516753
 20
1017.632536
 40
4.0
100
AcDbArc
 50
196.260039
 51
269.999781
  0
LINE
  5
10E
100
AcDbEntity
  8
M0
 62
     7
100
AcDbLine
 10
354.516753
 20
1013.632536
 11
355.516753
 21
1013.632536
  0
LINE
  5
10F
100
AcDbEntity
  8
M0
 62
     7
100
AcDbLine
 10
299.636763
 20
1017.472536
 11
299.356765
 21
1016.512536
  0
ARC
  5
110
100
AcDbEntity
  8
M0
 62
     7
100
AcDbCircle
 10
302.516753
 20
1016.632536
 40
3.0
100
AcDbArc
 50
89.999709
 51
163.739527
  0
LINE
  5
111
100
AcDbEntity
  8
M0
 62
     7
100
AcDbLine
 10
290.676757
 20
1016.512536
 11
290.396758
 21
1017.472536
  0
ARC
  5
112
100
AcDbEntity
  8
M0
 62
     7
100
AcDbCircle
 10
287.516753
 20
1016.632536
 40
3.0
100
AcDbArc
 50
16.260146
 51
89.999709
  0
ARC
  5
113
100
AcDbEntity
  8
M0
 62
     7
100
AcDbCircle
 10
294.516753
 20
1017.632536
 40
4.0
100
AcDbArc
 50
196.260192
 51
270.0
  0
ARC
  5
114
100
AcDbEntity
  8
M0
 62
     7
100
AcDbCircle
 10
295.516753
 20
1017.632536
 40
4.0
100
AcDbArc
 50
270.0
 51
343.73987
  0
LINE
  5
115
100
AcDbEntity
  8
M0
 62
     7
100
AcDbLine
 10
295.516753
 20
1013.632536
 11
294.516753
 21
1013.632536
  0
ARC
  5
116
100
AcDbEntity
  8
M0
 62
     7
100
AcDbCircle
 10
233.016753
 20
1017.632536
 40
4.0
100
AcDbArc
 50
179.999959
 51
270.0
  0
ARC
  5
117
100
AcDbEntity
  8
M0
 62
     7
100
AcDbCircle
 10
232.016753
 20
1030.632535
 40
3.0
100
AcDbArc
 50
89.999709
 51
179.999982
  0
ARC
  5
118
100
AcDbEntity
  8
M0
 62
     7
100
AcDbCircle
 10
232.016753
 20
1046.632534
 40
3.0
100
AcDbArc
 50
180.0
 51
270.0
  0
LINE
  5
119
100
AcDbEntity
  8
M0
 62
     7
100
AcDbLine
 10
232.016753
 20
1033.632535
 11
237.016753
 21
1033.632535
  0
LINE
  5
11A
100
AcDbEntity
  8
M0
 62
     7
100
AcDbLine
 10
232.016753
 20
1043.632534
 11
237.016753
 21
1043.632534
  0
ARC
  5
11B
100
AcDbEntity
  8
M0
 62
     7
100
AcDbCircle
 10
237.016753
 20
1038.632534
 40
5.0
100
AcDbArc
 50
270.0
 51
449.999825
  0
ARC
  5
11C
100
AcDbEntity
  8
M0
 62
     7
100
AcDbCircle
 10
418.016753
 20
1030.632535
 40
3.0
100
AcDbArc
 50
0.0
 51
90.0
  0
ARC
  5
11D
100
AcDbEntity
  8
M0
 62
     7
100
AcDbCircle
 10
418.016753
 20
1046.632534
 40
3.0
100
AcDbArc
 50
-90.000291
 51
0.0
  0
LINE
  5
11E
100
AcDbEntity
  8
M0
 62
     7
100
AcDbLine
 10
418.016753
 20
1033.632535
 11
413.016753
 21
1033.632535
  0
LINE
  5
11F
100
AcDbEntity
  8
M0
 62
     7
100
AcDbLine
 10
418.016753
 20
1043.632534
 11
413.016753
 21
1043.632534
  0
ARC
  5
120
100
AcDbEntity
  8
M0
 62
     7
100
AcDbCircle
 10
413.016753
 20
1038.632534
 40
5.0
100
AcDbArc
 50
90.0
 51
269.999825
  0
LINE
  5
121
100
AcDbEntity
  8
M0
 62
     7
100
AcDbLine
 10
226.016753
 20
1065.132534
 11
226.016753
 21
1199.632534
  0
ARC
  5
122
100
AcDbEntity
  8
M0
 62
     7
100
AcDbCircle
 10
227.516753
 20
1065.132534
 40
1.5
100
AcDbArc
 50
180.0
 51
270.0
  0
ARC
  5
123
100
AcDbEntity
  8
M0
 62
     7
100
AcDbCircle
 10
227.516753
 20
1062.132534
 40
1.5
100
AcDbArc
 50
0.0
 51
89.999417
  0
LINE
  5
124
100
AcDbEntity
  8
M0
 62
     7
100
AcDbLine
 10
424.016753
 20
1065.132534
 11
424.016753
 21
1199.632534
  0
LINE
  5
125
100
AcDbEntity
  8
M0
 62
     7
100
AcDbLine
 10
241.916762
 20
1019.632535
 11
287.516753
 21
1019.632535
  0
ARC
  5
126
100
AcDbEntity
  8
M0
 62
     7
100
AcDbCircle
 10
241.916762
 20
1016.632536
 40
3.0
100
AcDbArc
 50
89.999709
 51
163.739632
  0
ARC
  5
127
100
AcDbEntity
  8
M0
 62
     7
100
AcDbCircle
 10
234.916762
 20
1017.632536
 40
4.0
100
AcDbArc
 50
270.0
 51
343.73987
  0
LINE
  5
128
100
AcDbEntity
  8
M0
 62
     7
100
AcDbLine
 10
239.036757
 20
1017.472536
 11
238.756759
 21
1016.512536
  0
LINE
  5
129
100
AcDbEntity
  8
M0
 62
     7
100
AcDbLine
 10
233.016753
 20
1013.632536
 11
234.916762
 21
1013.632536
  0
LINE
  5
12A
100
AcDbEntity
  8
M0
  6
DASHDOT
 62
     7
100
AcDbLine
 10
308.716765
 20
1120.132534
 11
341.316741
 21
1120.132534
  0
ARC
  5
12B
100
AcDbEntity
  8
M0
 62
     7
100
AcDbCircle
 10
327.016753
 20
1135.482525
 40
1.0
100
AcDbArc
 50
0.0
 51
90.0
  0
LINE
  5
12C
100
AcDbEntity
  8
M0
 62
     7
100
AcDbLine
 10
323.016753
 20
1136.482525
 11
327.016753
 21
1136.482525
  0
ARC
  5
12D
100
AcDbEntity
  8
M0
 62
     7
100
AcDbCircle
 10
323.016753
 20
1135.482525
 40
1.0
100
AcDbArc
 50
90.0
 51
180.0
  0
LINE
  5
12E
100
AcDbEntity
  8
M0
 62
     7
100
AcDbLine
 10
322.016753
 20
1135.482525
 11
322.016753
 21
1132.482525
  0
LINE
  5
12F
100
AcDbEntity
  8
M0
 62
     7
100
AcDbLine
 10
328.016753
 20
1135.482525
 11
328.016753
 21
1132.482525
  0
LINE
  5
130
100
AcDbEntity
  8
M0
 62
     7
100
AcDbLine
 10
318.516753
 20
1133.482525
 11
331.516753
 21
1133.482525
  0
LINE
  5
131
100
AcDbEntity
  8
M0
 62
     7
100
AcDbLine
 10
318.516753
 20
1132.482525
 11
322.016753
 21
1132.482525
  0
LINE
  5
132
100
AcDbEntity
  8
M0
 62
     7
100
AcDbLine
 10
328.016753
 20
1132.482525
 11
331.516753
 21
1132.482525
  0
LINE
  5
133
100
AcDbEntity
  8
M0
 62
     7
100
AcDbLine
 10
318.516753
 20
1133.482525
 11
318.516753
 21
1130.282528
  0
LINE
  5
134
100
AcDbEntity
  8
M0
 62
     7
100
AcDbLine
 10
331.516753
 20
1133.482525
 11
331.516753
 21
1130.282528
  0
LINE
  5
135
100
AcDbEntity
  8
M0
 62
     7
100
AcDbLine
 10
333.316752
 20
1130.282528
 11
331.516753
 21
1130.282528
  0
ARC
  5
136
100
AcDbEntity
  8
M0
 62
     7
100
AcDbCircle
 10
333.316752
 20
1127.282528
 40
3.0
100
AcDbArc
 50
0.0
 51
90.0
  0
LINE
  5
137
100
AcDbEntity
  8
M0
 62
     7
100
AcDbLine
 10
318.516753
 20
1130.282528
 11
316.716754
 21
1130.282528
  0
ARC
  5
138
100
AcDbEntity
  8
M0
 62
     7
100
AcDbCircle
 10
316.716754
 20
1127.282528
 40
3.0
100
AcDbArc
 50
90.0
 51
180.0
  0
LINE
  5
139
100
AcDbEntity
  8
M0
 62
     7
100
AcDbLine
 10
334.016753
 20
1124.132534
 11
334.016753
 21
1116.132534
  0
LINE
  5
13A
100
AcDbEntity
  8
M0
 62
     7
100
AcDbLine
 10
316.016753
 20
1124.132534
 11
316.016753
 21
1116.132534
  0
LINE
  5
13B
100
AcDbEntity
  8
M0
 62
     7
100
AcDbLine
 10
334.016753
 20
1124.132534
 11
335.316752
 21
1124.132534
  0
ARC
  5
13C
100
AcDbEntity
  8
M0
 62
     7
100
AcDbCircle
 10
335.316752
 20
1125.132534
 40
1.0
100
AcDbArc
 50
270.0
 51
360.0
  0
LINE
  5
13D
100
AcDbEntity
  8
M0
 62
     7
100
AcDbLine
 10
314.716754
 20
1124.132534
 11
316.016753
 21
1124.132534
  0
ARC
  5
13E
100
AcDbEntity
  8
M0
 62
     7
100
AcDbCircle
 10
314.716754
 20
1125.132534
 40
1.0
100
AcDbArc
 50
180.0
 51
270.0
  0
LINE
  5
13F
100
AcDbEntity
  8
M0
 62
     7
100
AcDbLine
 10
314.716754
 20
1116.132534
 11
316.016753
 21
1116.132534
  0
ARC
  5
140
100
AcDbEntity
  8
M0
 62
     7
100
AcDbCircle
 10
314.716754
 20
1115.132534
 40
1.0
100
AcDbArc
 50
90.0
 51
180.0
  0
LINE
  5
141
100
AcDbEntity
  8
M0
 62
     7
100
AcDbLine
 10
334.016753
 20
1116.132534
 11
335.316752
 21
1116.132534
  0
ARC
  5
142
100
AcDbEntity
  8
M0
 62
     7
100
AcDbCircle
 10
335.316752
 20
1115.132534
 40
1.0
100
AcDbArc
 50
0.0
 51
90.0
  0
LINE
  5
143
100
AcDbEntity
  8
M0
 62
     7
100
AcDbLine
 10
313.716754
 20
1103.982525
 11
336.316752
 21
1103.982525
  0
LINE
  5
144
100
AcDbEntity
  8
M0
 62
     7
100
AcDbLine
 10
313.716754
 20
1127.282528
 11
313.716754
 21
1103.982525
  0
LINE
  5
145
100
AcDbEntity
  8
M0
 62
     7
100
AcDbLine
 10
336.316752
 20
1103.982525
 11
336.316752
 21
1127.282528
  0
LINE
  5
146
100
AcDbEntity
  8
M0
 62
     6
100
AcDbLine
 10
438.91675
 20
1153.632532
 11
424.01675
 21
1153.632536
  0
LINE
  5
147
100
AcDbEntity
  8
M0
 62
     6
100
AcDbLine
 10
424.01675
 20
1153.632536
 11
424.016722
 21
1063.632536
  0
LINE
  5
148
100
AcDbEntity
  8
M0
 62
     6
100
AcDbLine
 10
424.016722
 20
1063.632536
 11
438.916722
 21
1063.632532
  0
LINE
  5
149
100
AcDbEntity
  8
M0
 62
     6
100
AcDbLine
 10
438.916722
 20
1063.632532
 11
438.91675
 21
1153.632532
  0
LINE
  5
14A
100
AcDbEntity
  8
M0
 62
     6
100
AcDbLine
 10
425.96673
 20
1090.632536
 11
425.966731
 21
1092.132536
  0
LINE
  5
14B
100
AcDbEntity
  8
M0
 62
     6
100
AcDbLine
 10
436.96673
 20
1090.632532
 11
436.966731
 21
1092.132532
  0
LINE
  5
14C
100
AcDbEntity
  8
M0
 62
     6
100
AcDbLine
 10
425.966731
 20
1092.132536
 11
436.966731
 21
1092.132532
  0
LINE
  5
14D
100
AcDbEntity
  8
M0
 62
     6
100
AcDbLine
 10
426.966734
 20
1102.232526
 11
426.966731
 21
1092.132535
  0
LINE
  5
14E
100
AcDbEntity
  8
M0
 62
     6
100
AcDbLine
 10
426.96673
 20
1090.632535
 11
426.966722
 21
1063.632535
  0
LINE
  5
14F
100
AcDbEntity
  8
M0
 62
     6
100
AcDbLine
 10
435.966734
 20
1102.232523
 11
435.966731
 21
1092.132532
  0
LINE
  5
150
100
AcDbEntity
  8
M0
 62
     6
100
AcDbLine
 10
435.96673
 20
1090.632532
 11
435.966722
 21
1063.632532
  0
LINE
  5
151
100
AcDbEntity
  8
M0
 62
     6
100
AcDbLine
 10
436.96673
 20
1090.632532
 11
435.96673
 21
1090.632532
  0
LINE
  5
152
100
AcDbEntity
  8
M0
 62
     6
100
AcDbLine
 10
426.96673
 20
1090.632535
 11
425.96673
 21
1090.632536
  0
LINE
  5
153
100
AcDbEntity
  8
M0
 62
     6
100
AcDbLine
 10
435.966734
 20
1102.232523
 11
426.966734
 21
1102.232526
  0
LINE
  5
154
100
AcDbEntity
  8
M0
 62
     6
100
AcDbLine
 10
426.966724
 20
1069.632535
 11
435.966724
 21
1069.632532
  0
LINE
  5
155
100
AcDbEntity
  8
M0
 62
     6
100
AcDbLine
 10
424.016728
 20
1083.632536
 11
426.966728
 21
1083.632535
  0
LINE
  5
156
100
AcDbEntity
  8
M0
 62
     6
100
AcDbLine
 10
435.966728
 20
1083.632532
 11
438.916728
 21
1083.632532
  0
LINE
  5
157
100
AcDbEntity
  8
M0
 62
     6
100
AcDbLine
 10
436.966742
 20
1126.632532
 11
436.966741
 21
1125.132532
  0
LINE
  5
158
100
AcDbEntity
  8
M0
 62
     6
100
AcDbLine
 10
425.966741
 20
1125.132536
 11
436.966741
 21
1125.132532
  0
LINE
  5
159
100
AcDbEntity
  8
M0
 62
     6
100
AcDbLine
 10
435.966738
 20
1115.032526
 11
435.966741
 21
1125.132532
  0
LINE
  5
15A
100
AcDbEntity
  8
M0
 62
     6
100
AcDbLine
 10
435.966742
 20
1126.632532
 11
435.96675
 21
1153.632532
  0
LINE
  5
15B
100
AcDbEntity
  8
M0
 62
     6
100
AcDbLine
 10
436.966742
 20
1126.632532
 11
435.966742
 21
1126.632532
  0
LINE
  5
15C
100
AcDbEntity
  8
M0
 62
     6
100
AcDbLine
 10
435.966738
 20
1115.032526
 11
426.966738
 21
1115.032529
  0
LINE
  5
15D
100
AcDbEntity
  8
M0
 62
     6
100
AcDbLine
 10
426.966748
 20
1147.632535
 11
435.966748
 21
1147.632532
  0
LINE
  5
15E
100
AcDbEntity
  8
M0
 62
     6
100
AcDbLine
 10
435.966744
 20
1133.632532
 11
438.916744
 21
1133.632532
  0
LINE
  5
15F
100
AcDbEntity
  8
M0
 62
     6
100
AcDbLine
 10
426.966738
 20
1115.032529
 11
426.966741
 21
1125.132535
  0
LINE
  5
160
100
AcDbEntity
  8
M0
 62
     6
100
AcDbLine
 10
425.966742
 20
1126.632536
 11
425.966741
 21
1125.132536
  0
LINE
  5
161
100
AcDbEntity
  8
M0
 62
     6
100
AcDbLine
 10
426.966742
 20
1126.632535
 11
425.966742
 21
1126.632536
  0
LINE
  5
162
100
AcDbEntity
  8
M0
 62
     6
100
AcDbLine
 10
426.966742
 20
1126.632535
 11
426.96675
 21
1153.632535
  0
LINE
  5
163
100
AcDbEntity
  8
M0
 62
     6
100
AcDbLine
 10
424.016744
 20
1133.632536
 11
426.966744
 21
1133.632535
  0
CIRCLE
  5
164
100
AcDbEntity
  8
M0
 62
     6
100
AcDbCircle
 10
431.466736
 20
1108.632534
 40
2.799999
  0
LINE
  5
165
100
AcDbEntity
  8
M0
 62
     6
100
AcDbLine
 10
211.116726
 20
1153.632532
 11
226.016725
 21
1153.632536
  0
LINE
  5
166
100
AcDbEntity
  8
M0
 62
     6
100
AcDbLine
 10
226.016725
 20
1153.632536
 11
226.016753
 21
1063.632536
  0
LINE
  5
167
100
AcDbEntity
  8
M0
 62
     6
100
AcDbLine
 10
226.016753
 20
1063.632536
 11
211.116754
 21
1063.632532
  0
LINE
  5
168
100
AcDbEntity
  8
M0
 62
     6
100
AcDbLine
 10
211.116754
 20
1063.632532
 11
211.116726
 21
1153.632532
  0
LINE
  5
169
100
AcDbEntity
  8
M0
 62
     6
100
AcDbLine
 10
224.066745
 20
1090.632536
 11
224.066745
 21
1092.132536
  0
LINE
  5
16A
100
AcDbEntity
  8
M0
 62
     6
100
AcDbLine
 10
213.066745
 20
1090.632532
 11
213.066745
 21
1092.132532
  0
LINE
  5
16B
100
AcDbEntity
  8
M0
 62
     6
100
AcDbLine
 10
224.066745
 20
1092.132536
 11
213.066745
 21
1092.132532
  0
LINE
  5
16C
100
AcDbEntity
  8
M0
 62
     6
100
AcDbLine
 10
223.066741
 20
1102.232526
 11
223.066745
 21
1092.132535
  0
LINE
  5
16D
100
AcDbEntity
  8
M0
 62
     6
100
AcDbLine
 10
223.066745
 20
1090.632535
 11
223.066754
 21
1063.632535
  0
LINE
  5
16E
100
AcDbEntity
  8
M0
 62
     6
100
AcDbLine
 10
214.066741
 20
1102.232523
 11
214.066745
 21
1092.132532
  0
LINE
  5
16F
100
AcDbEntity
  8
M0
 62
     6
100
AcDbLine
 10
214.066745
 20
1090.632532
 11
214.066754
 21
1063.632532
  0
LINE
  5
170
100
AcDbEntity
  8
M0
 62
     6
100
AcDbLine
 10
213.066745
 20
1090.632532
 11
214.066745
 21
1090.632532
  0
LINE
  5
171
100
AcDbEntity
  8
M0
 62
     6
100
AcDbLine
 10
223.066745
 20
1090.632535
 11
224.066745
 21
1090.632536
  0
LINE
  5
172
100
AcDbEntity
  8
M0
 62
     6
100
AcDbLine
 10
214.066741
 20
1102.232523
 11
223.066741
 21
1102.232526
  0
LINE
  5
173
100
AcDbEntity
  8
M0
 62
     6
100
AcDbLine
 10
223.066752
 20
1069.632535
 11
214.066752
 21
1069.632532
  0
LINE
  5
174
100
AcDbEntity
  8
M0
 62
     6
100
AcDbLine
 10
226.016747
 20
1083.632536
 11
223.066747
 21
1083.632535
  0
LINE
  5
175
100
AcDbEntity
  8
M0
 62
     6
100
AcDbLine
 10
214.066747
 20
1083.632532
 11
211.116748
 21
1083.632532
  0
LINE
  5
176
100
AcDbEntity
  8
M0
 62
     6
100
AcDbLine
 10
213.066734
 20
1126.632532
 11
213.066734
 21
1125.132532
  0
LINE
  5
177
100
AcDbEntity
  8
M0
 62
     6
100
AcDbLine
 10
224.066734
 20
1125.132536
 11
213.066734
 21
1125.132532
  0
LINE
  5
178
100
AcDbEntity
  8
M0
 62
     6
100
AcDbLine
 10
214.066737
 20
1115.032526
 11
214.066734
 21
1125.132532
  0
LINE
  5
179
100
AcDbEntity
  8
M0
 62
     6
100
AcDbLine
 10
214.066734
 20
1126.632532
 11
214.066725
 21
1153.632532
  0
LINE
  5
17A
100
AcDbEntity
  8
M0
 62
     6
100
AcDbLine
 10
213.066734
 20
1126.632532
 11
214.066734
 21
1126.632532
  0
LINE
  5
17B
100
AcDbEntity
  8
M0
 62
     6
100
AcDbLine
 10
214.066737
 20
1115.032526
 11
223.066737
 21
1115.032529
  0
LINE
  5
17C
100
AcDbEntity
  8
M0
 62
     6
100
AcDbLine
 10
223.066727
 20
1147.632535
 11
214.066727
 21
1147.632532
  0
LINE
  5
17D
100
AcDbEntity
  8
M0
 62
     6
100
AcDbLine
 10
214.066732
 20
1133.632532
 11
211.116732
 21
1133.632532
  0
LINE
  5
17E
100
AcDbEntity
  8
M0
 62
     6
100
AcDbLine
 10
223.066737
 20
1115.032529
 11
223.066734
 21
1125.132535
  0
LINE
  5
17F
100
AcDbEntity
  8
M0
 62
     6
100
AcDbLine
 10
224.066734
 20
1126.632536
 11
224.066734
 21
1125.132536
  0
LINE
  5
180
100
AcDbEntity
  8
M0
 62
     6
100
AcDbLine
 10
223.066734
 20
1126.632535
 11
224.066734
 21
1126.632536
  0
LINE
  5
181
100
AcDbEntity
  8
M0
 62
     6
100
AcDbLine
 10
223.066734
 20
1126.632535
 11
223.066725
 21
1153.632535
  0
LINE
  5
182
100
AcDbEntity
  8
M0
 62
     6
100
AcDbLine
 10
226.016731
 20
1133.632536
 11
223.066732
 21
1133.632535
  0
CIRCLE
  5
183
100
AcDbEntity
  8
M0
 62
     6
100
AcDbCircle
 10
218.566739
 20
1108.632534
 40
2.799999
  0
LINE
  5
184
100
AcDbEntity
  8
M0
 62
     4
100
AcDbLine
 10
467.016659
 20
1151.632536
 11
455.016659
 21
1151.632532
  0
LINE
  5
185
100
AcDbEntity
  8
M0
  6
DASHDOT
 62
     4
100
AcDbLine
 10
477.088056
 20
1108.632539
 11
445.854468
 21
1108.632529
  0
LINE
  5
186
100
AcDbEntity
  8
M0
 62
     4
100
AcDbLine
 10
467.016686
 20
1065.632536
 11
467.016659
 21
1151.632536
  0
LINE
  5
187
100
AcDbEntity
  8
M0
 62
     4
100
AcDbLine
 10
467.016686
 20
1065.632536
 11
455.016686
 21
1065.632532
  0
LINE
  5
188
100
AcDbEntity
  8
M0
  6
DASHDOT
 62
     4
100
AcDbLine
 10
477.088056
 20
1108.632539
 11
445.854468
 21
1108.632529
  0
LINE
  5
189
100
AcDbEntity
  8
M0
 62
     4
100
AcDbLine
 10
455.016686
 20
1065.632532
 11
455.016659
 21
1151.632536
  0
LINE
  5
18A
100
AcDbEntity
  8
M0
100
AcDbLine
 10
454.96675
 20
983.632549
 11
454.96675
 21
1233.632534
  0
LINE
  5
18B
100
AcDbEntity
  8
M0
100
AcDbLine
 10
454.96675
 20
1233.632534
 11
413.945311
 21
1233.632534
  0
LINE
  5
18C
100
AcDbEntity
  8
M0
100
AcDbLine
 10
195.066756
 20
1233.632534
 11
195.066756
 21
983.632549
  0
LINE
  5
18D
100
AcDbEntity
  8
M0
100
AcDbLine
 10
195.066756
 20
983.632549
 11
236.088212
 21
983.632549
  0
LINE
  5
18E
100
AcDbEntity
  8
M0
  6
DASHDOT
100
AcDbLine
 10
170.066756
 20
1108.632534
 11
480.95674
 21
1108.632534
  0
CIRCLE
  5
18F
100
AcDbEntity
  8
M0
100
AcDbCircle
 10
240.016603
 20
998.632534
 40
5.75
  0
CIRCLE
  5
190
100
AcDbEntity
  8
M0
100
AcDbCircle
 10
240.016464
 20
1220.632534
 40
5.75
  0
CIRCLE
  5
191
100
AcDbEntity
  8
M0
100
AcDbCircle
 10
410.016464
 20
1220.632534
 40
5.75
  0
CIRCLE
  5
192
100
AcDbEntity
  8
M0
100
AcDbCircle
 10
410.016603
 20
998.632534
 40
5.75
  0
LINE
  5
193
100
AcDbEntity
  8
M0
100
AcDbLine
 10
454.96675
 20
1203.132534
 11
451.766738
 21
1203.132534
  0
LINE
  5
194
100
AcDbEntity
  8
M0
100
AcDbLine
 10
451.766738
 20
1233.632534
 11
451.766738
 21
1203.132534
  0
LINE
  5
195
100
AcDbEntity
  8
M0
100
AcDbLine
 10
195.066756
 20
1203.132534
 11
197.83731
 21
1203.132534
  0
LINE
  5
196
100
AcDbEntity
  8
M0
100
AcDbLine
 10
198.266768
 20
1233.632534
 11
198.266768
 21
1203.132534
  0
LINE
  5
197
100
AcDbEntity
  8
M0
100
AcDbLine
 10
345.016753
 20
983.632549
 11
374.659605
 21
983.632549
  0
LINE
  5
198
100
AcDbEntity
  8
M0
100
AcDbLine
 10
413.945311
 20
983.632549
 11
454.96675
 21
983.632549
  0
ARC
  5
199
100
AcDbEntity
  8
M0
100
AcDbCircle
 10
410.016603
 20
998.632534
 40
11.5
100
AcDbArc
 50
270.882379
 51
349.61912
  0
LINE
  5
19A
100
AcDbEntity
  8
M0
100
AcDbLine
 10
275.373901
 20
983.632549
 11
305.373901
 21
983.632549
  0
ARC
  5
19B
100
AcDbEntity
  8
M0
100
AcDbCircle
 10
240.016603
 20
998.632534
 40
11.5
100
AcDbArc
 50
29.591783
 51
122.120143
  0
LINE
  5
19C
100
AcDbEntity
  8
M0
100
AcDbLine
 10
375.016753
 20
1233.632534
 11
344.659606
 21
1233.632534
  0
LINE
  5
19D
100
AcDbEntity
  8
M0
100
AcDbLine
 10
305.3739
 20
1233.632534
 11
275.3739
 21
1233.632534
  0
LINE
  5
19E
100
AcDbEntity
  8
M0
100
AcDbLine
 10
236.088195
 20
1233.632534
 11
195.066756
 21
1233.632534
  0
ARC
  5
19F
100
AcDbEntity
  8
M0
100
AcDbCircle
 10
240.016464
 20
1220.632534
 40
11.5
100
AcDbArc
 50
100.5818
 51
175.011504
  0
ARC
  5
1A0
100
AcDbEntity
  8
M0
100
AcDbCircle
 10
410.016464
 20
1220.632534
 40
11.5
100
AcDbArc
 50
209.591812
 51
290.354715
  0
ARC
  5
1A1
100
AcDbEntity
  8
M0
100
AcDbCircle
 10
410.016603
 20
998.632534
 40
11.5
100
AcDbArc
 50
58.551019
 51
150.4081
  0
ARC
  5
1A2
100
AcDbEntity
  8
M0
100
AcDbCircle
 10
240.016603
 20
998.632534
 40
11.5
100
AcDbArc
 50
190.38088
 51
269.117621
  0
ARC
  5
1A3
100
AcDbEntity
  8
M0
100
AcDbCircle
 10
355.016464
 20
1220.632534
 40
5.75
100
AcDbArc
 50
328.551019
 51
585.916817
  0
ARC
  5
1A4
100
AcDbEntity
  8
M0
100
AcDbCircle
 10
355.016464
 20
1220.632534
 40
11.5
100
AcDbArc
 50
321.497772
 51
609.644094
  0
ARC
  5
1A5
100
AcDbEntity
  8
M0
100
AcDbCircle
 10
355.016603
 20
998.632534
 40
11.5
100
AcDbArc
 50
248.502484
 51
291.497516
  0
ARC
  5
1A6
100
AcDbEntity
  8
M0
100
AcDbCircle
 10
240.016464
 20
1220.632534
 40
11.5
100
AcDbArc
 50
249.645357
 51
330.408018
  0
ARC
  5
1A7
100
AcDbEntity
  8
M0
100
AcDbCircle
 10
410.016464
 20
1220.632534
 40
11.5
100
AcDbArc
 50
4.989102
 51
79.418051
  0
LINE
  5
1A8
100
AcDbEntity
  8
M0
100
AcDbLine
 10
415.016753
 20
950.632534
 11
415.016753
 21
982.632534
  0
LINE
  5
1A9
100
AcDbEntity
  8
M0
100
AcDbLine
 10
375.016753
 20
982.632534
 11
375.016753
 21
950.632534
  0
LINE
  5
1AA
100
AcDbEntity
  8
M0
100
AcDbLine
 10
370.016753
 20
1019.632534
 11
370.016753
 21
996.632534
  0
LINE
  5
1AB
100
AcDbEntity
  8
M0
100
AcDbLine
 10
375.016753
 20
982.632534
 11
370.016753
 21
996.632534
  0
LINE
  5
1AC
100
AcDbEntity
  8
M0
100
AcDbLine
 10
400.016753
 20
1019.632534
 11
400.016753
 21
996.632534
  0
LINE
  5
1AD
100
AcDbEntity
  8
M0
100
AcDbLine
 10
415.016738
 20
982.632534
 11
400.016753
 21
996.632534
  0
CIRCLE
  5
1AE
100
AcDbEntity
  8
M0
100
AcDbCircle
 10
395.016753
 20
966.632534
 40
6.0
  0
LINE
  5
1AF
100
AcDbEntity
  8
M0
  6
DASHDOT
100
AcDbLine
 10
379.016752
 20
966.632534
 11
411.016754
 21
966.632534
  0
LINE
  5
1B0
100
AcDbEntity
  8
M0
  6
DASHDOT
100
AcDbLine
 10
395.016753
 20
950.632533
 11
395.016753
 21
982.632534
  0
LINE
  5
1B1
100
AcDbEntity
  8
M0
  6
DASHDOT
100
AcDbLine
 10
325.016753
 20
925.632503
 11
325.016753
 21
1108.632503
  0
LINE
  5
1B2
100
AcDbEntity
  8
M0
100
AcDbLine
 10
305.016753
 20
982.632534
 11
305.016753
 21
950.632534
  0
LINE
  5
1B3
100
AcDbEntity
  8
M0
100
AcDbLine
 10
345.016753
 20
950.632534
 11
345.016753
 21
982.632534
  0
LINE
  5
1B4
100
AcDbEntity
  8
M0
100
AcDbLine
 10
340.016753
 20
1019.632534
 11
340.016753
 21
996.632534
  0
LINE
  5
1B5
100
AcDbEntity
  8
M0
100
AcDbLine
 10
340.016753
 20
996.632534
 11
345.016753
 21
982.632534
  0
LINE
  5
1B6
100
AcDbEntity
  8
M0
100
AcDbLine
 10
305.016753
 20
982.632534
 11
310.016753
 21
996.632534
  0
LINE
  5
1B7
100
AcDbEntity
  8
M0
100
AcDbLine
 10
310.016753
 20
1019.632534
 11
310.016753
 21
996.632534
  0
CIRCLE
  5
1B8
100
AcDbEntity
  8
M0
100
AcDbCircle
 10
325.016753
 20
966.632534
 40
6.0
  0
LINE
  5
1B9
100
AcDbEntity
  8
M0
  6
DASHDOT
100
AcDbLine
 10
309.016752
 20
966.632534
 11
341.016754
 21
966.632534
  0
LINE
  5
1BA
100
AcDbEntity
  8
M0
100
AcDbLine
 10
235.016753
 20
950.632534
 11
235.016753
 21
982.632534
  0
LINE
  5
1BB
100
AcDbEntity
  8
M0
100
AcDbLine
 10
275.016753
 20
982.632534
 11
275.016753
 21
950.632534
  0
LINE
  5
1BC
100
AcDbEntity
  8
M0
100
AcDbLine
 10
280.016753
 20
1019.632534
 11
280.016753
 21
996.632534
  0
LINE
  5
1BD
100
AcDbEntity
  8
M0
100
AcDbLine
 10
275.016753
 20
982.632534
 11
280.016753
 21
996.632534
  0
LINE
  5
1BE
100
AcDbEntity
  8
M0
100
AcDbLine
 10
250.016753
 20
1019.632534
 11
250.016753
 21
996.632534
  0
LINE
  5
1BF
100
AcDbEntity
  8
M0
100
AcDbLine
 10
235.016768
 20
982.632534
 11
250.016753
 21
996.632534
  0
CIRCLE
  5
1C0
100
AcDbEntity
  8
M0
100
AcDbCircle
 10
255.016753
 20
966.632534
 40
6.0
  0
LINE
  5
1C1
100
AcDbEntity
  8
M0
  6
DASHDOT
100
AcDbLine
 10
239.016752
 20
966.632534
 11
271.016754
 21
966.632534
  0
LINE
  5
1C2
100
AcDbEntity
  8
M0
  6
DASHDOT
100
AcDbLine
 10
255.016753
 20
950.632533
 11
255.016753
 21
982.632534
  0
LINE
  5
1C3
100
AcDbEntity
  8
M0
100
AcDbLine
 10
235.016679
 20
1266.632521
 11
235.016699
 21
1234.632521
  0
LINE
  5
1C4
100
AcDbEntity
  8
M0
100
AcDbLine
 10
275.016699
 20
1234.632546
 11
275.016679
 21
1266.632546
  0
LINE
  5
1C5
100
AcDbEntity
  8
M0
100
AcDbLine
 10
275.016679
 20
1266.632546
 11
235.016679
 21
1266.632521
  0
LINE
  5
1C6
100
AcDbEntity
  8
M0
100
AcDbLine
 10
280.016723
 20
1197.63255
 11
280.016708
 21
1220.63255
  0
LINE
  5
1C7
100
AcDbEntity
  8
M0
100
AcDbLine
 10
275.016699
 20
1234.632546
 11
280.016708
 21
1220.63255
  0
LINE
  5
1C8
100
AcDbEntity
  8
M0
100
AcDbLine
 10
250.016723
 20
1197.632531
 11
250.016708
 21
1220.632531
  0
LINE
  5
1C9
100
AcDbEntity
  8
M0
100
AcDbLine
 10
235.016715
 20
1234.632521
 11
250.016708
 21
1220.632531
  0
CIRCLE
  5
1CA
100
AcDbEntity
  8
M0
100
AcDbCircle
 10
255.016689
 20
1250.632534
 40
6.0
  0
LINE
  5
1CB
100
AcDbEntity
  8
M0
  6
DASHDOT
100
AcDbLine
 10
240.016689
 20
1250.632534
 11
270.016689
 21
1250.632534
  0
LINE
  5
1CC
100
AcDbEntity
  8
M0
  6
DASHDOT
100
AcDbLine
 10
255.016689
 20
1235.632534
 11
255.016689
 21
1265.632534
  0
LINE
  5
1CD
100
AcDbEntity
  8
M0
100
AcDbLine
 10
305.016679
 20
1266.632521
 11
345.016679
 21
1266.632546
  0
LINE
  5
1CE
100
AcDbEntity
  8
M0
  6
DASHDOT
100
AcDbLine
 10
325.016419
 20
1291.632503
 11
325.016534
 21
1108.632503
  0
LINE
  5
1CF
100
AcDbEntity
  8
M0
100
AcDbLine
 10
305.016699
 20
1234.632521
 11
305.016679
 21
1266.632521
  0
LINE
  5
1D0
100
AcDbEntity
  8
M0
100
AcDbLine
 10
345.016679
 20
1266.632546
 11
345.016699
 21
1234.632546
  0
LINE
  5
1D1
100
AcDbEntity
  8
M0
100
AcDbLine
 10
340.016723
 20
1197.632543
 11
340.016708
 21
1220.632543
  0
LINE
  5
1D2
100
AcDbEntity
  8
M0
100
AcDbLine
 10
340.016708
 20
1220.632543
 11
345.016699
 21
1234.632546
  0
LINE
  5
1D3
100
AcDbEntity
  8
M0
100
AcDbLine
 10
305.016699
 20
1234.632521
 11
310.016708
 21
1220.632524
  0
LINE
  5
1D4
100
AcDbEntity
  8
M0
100
AcDbLine
 10
310.016723
 20
1197.632524
 11
310.016708
 21
1220.632524
  0
CIRCLE
  5
1D5
100
AcDbEntity
  8
M0
100
AcDbCircle
 10
325.016689
 20
1250.632534
 40
6.0
  0
LINE
  5
1D6
100
AcDbEntity
  8
M0
  6
DASHDOT
100
AcDbLine
 10
310.016689
 20
1250.632534
 11
340.016689
 21
1250.632534
  0
LINE
  5
1D7
100
AcDbEntity
  8
M0
100
AcDbLine
 10
415.016679
 20
1266.632546
 11
415.016699
 21
1234.632546
  0
LINE
  5
1D8
100
AcDbEntity
  8
M0
100
AcDbLine
 10
375.016699
 20
1234.632521
 11
375.016679
 21
1266.632521
  0
LINE
  5
1D9
100
AcDbEntity
  8
M0
100
AcDbLine
 10
375.016679
 20
1266.632521
 11
415.016679
 21
1266.632546
  0
LINE
  5
1DA
100
AcDbEntity
  8
M0
100
AcDbLine
 10
370.016723
 20
1197.632518
 11
370.016708
 21
1220.632518
  0
LINE
  5
1DB
100
AcDbEntity
  8
M0
100
AcDbLine
 10
375.016699
 20
1234.632521
 11
370.016708
 21
1220.632518
  0
LINE
  5
1DC
100
AcDbEntity
  8
M0
100
AcDbLine
 10
400.016723
 20
1197.632537
 11
400.016708
 21
1220.632537
  0
LINE
  5
1DD
100
AcDbEntity
  8
M0
100
AcDbLine
 10
415.016684
 20
1234.632546
 11
400.016708
 21
1220.632537
  0
CIRCLE
  5
1DE
100
AcDbEntity
  8
M0
100
AcDbCircle
 10
395.016689
 20
1250.632534
 40
6.0
  0
LINE
  5
1DF
100
AcDbEntity
  8
M0
  6
DASHDOT
100
AcDbLine
 10
380.016689
 20
1250.632534
 11
410.016689
 21
1250.632534
  0
LINE
  5
1E0
100
AcDbEntity
  8
M0
  6
DASHDOT
100
AcDbLine
 10
395.016689
 20
1235.632534
 11
395.016689
 21
1265.632534
  0
ARC
  5
1E1
100
AcDbEntity
  8
M0
 62
     2
100
AcDbCircle
 10
200.016753
 20
1198.632534
 40
5.0
100
AcDbArc
 50
89.999825
 51
180.0
  0
LINE
  5
1E2
100
AcDbEntity
  8
M0
 62
     2
100
AcDbLine
 10
235.016753
 20
1203.632534
 11
200.016753
 21
1203.632534
  0
ARC
  5
1E3
100
AcDbEntity
  8
M0
 62
     2
100
AcDbCircle
 10
235.016753
 20
1199.632534
 40
4.0
100
AcDbArc
 50
0.0
 51
89.999781
  0
LINE
  5
1E4
100
AcDbEntity
  8
M0
 62
     2
100
AcDbLine
 10
195.016753
 20
1178.632534
 11
226.016753
 21
1178.632534
  0
LINE
  5
1E5
100
AcDbEntity
  8
M0
 62
     2
100
AcDbLine
 10
195.016753
 20
1198.632534
 11
195.016753
 21
988.632549
  0
ARC
  5
1E6
100
AcDbEntity
  8
M0
 62
     2
100
AcDbCircle
 10
200.016753
 20
988.632549
 40
5.0
100
AcDbArc
 50
179.999825
 51
270.0
  0
ARC
  5
1E7
100
AcDbEntity
  8
M0
 62
     2
100
AcDbCircle
 10
235.016753
 20
1017.632535
 40
4.0
100
AcDbArc
 50
270.0
 51
360.0
  0
ARC
  5
1E8
100
AcDbEntity
  8
M0
 62
     2
100
AcDbCircle
 10
233.016753
 20
1017.632535
 40
4.0
100
AcDbArc
 50
179.999973
 51
270.0
  0
LINE
  5
1E9
100
AcDbEntity
  8
M0
 62
     2
100
AcDbLine
 10
235.016753
 20
1013.632535
 11
228.816753
 21
1013.632535
  0
LINE
  5
1EA
100
AcDbEntity
  8
M0
 62
     2
100
AcDbLine
 10
212.016753
 20
1013.632535
 11
208.816753
 21
1013.632535
  0
LINE
  5
1EB
100
AcDbEntity
  8
M0
 62
     2
100
AcDbLine
 10
200.016753
 20
983.632549
 11
219.754165
 21
983.632549
  0
ARC
  5
1EC
100
AcDbEntity
  8
M0
 62
     2
100
AcDbCircle
 10
219.754165
 20
988.632549
 40
5.0
100
AcDbArc
 50
270.0
 51
336.250608
  0
LINE
  5
1ED
100
AcDbEntity
  8
M0
 62
     2
100
AcDbLine
 10
234.016753
 20
1008.632535
 11
234.016753
 21
1013.632535
  0
LINE
  5
1EE
100
AcDbEntity
  8
M0
 62
     2
100
AcDbLine
 10
195.016753
 20
1063.632534
 11
227.516753
 21
1063.632534
  0
LINE
  5
1EF
100
AcDbEntity
  8
M0
 62
     2
100
AcDbLine
 10
212.016753
 20
1063.632534
 11
212.016753
 21
1013.632535
  0
LINE
  5
1F0
100
AcDbEntity
  8
M0
 62
     2
100
AcDbLine
 10
217.016753
 20
1013.632535
 11
217.016753
 21
1063.632534
  0
LINE
  5
1F1
100
AcDbEntity
  8
M0
 62
     2
100
AcDbLine
 10
212.016753
 20
1026.632534
 11
214.516753
 21
1029.632534
  0
LINE
  5
1F2
100
AcDbEntity
  8
M0
 62
     2
100
AcDbLine
 10
212.016753
 20
1013.632535
 11
214.516753
 21
1016.632535
  0
LINE
  5
1F3
100
AcDbEntity
  8
M0
 62
     2
100
AcDbLine
 10
217.016753
 20
1026.632534
 11
214.516753
 21
1029.632534
  0
LINE
  5
1F4
100
AcDbEntity
  8
M0
 62
     2
100
AcDbLine
 10
217.016753
 20
1013.632535
 11
214.516753
 21
1016.632535
  0
LINE
  5
1F5
100
AcDbEntity
  8
M0
 62
     2
100
AcDbLine
 10
195.016753
 20
1026.632534
 11
200.216753
 21
1026.632534
  0
LINE
  5
1F6
100
AcDbEntity
  8
M0
 62
     2
100
AcDbLine
 10
217.016753
 20
1026.632534
 11
220.216753
 21
1026.632534
  0
LINE
  5
1F7
100
AcDbEntity
  8
M0
 62
     2
100
AcDbLine
 10
214.516753
 20
1063.632534
 11
214.516753
 21
1016.632535
  0
LINE
  5
1F8
100
AcDbEntity
  8
M0
 62
     2
100
AcDbLine
 10
200.016753
 20
1026.632534
 11
200.016753
 21
1054.132534
  0
LINE
  5
1F9
100
AcDbEntity
  8
M0
 62
     2
100
AcDbLine
 10
209.016753
 20
1026.632534
 11
209.016753
 21
1054.132534
  0
LINE
  5
1FA
100
AcDbEntity
  8
M0
 62
     2
100
AcDbLine
 10
220.016753
 20
1054.132534
 11
220.016753
 21
1026.632534
  0
LINE
  5
1FB
100
AcDbEntity
  8
M0
 62
     2
100
AcDbLine
 10
200.016753
 20
1056.632534
 11
200.016753
 21
1063.632534
  0
ARC
  5
1FC
100
AcDbEntity
  8
M0
 62
     2
100
AcDbCircle
 10
202.016753
 20
1056.632534
 40
2.0
100
AcDbArc
 50
180.0
 51
270.0
  0
LINE
  5
1FD
100
AcDbEntity
  8
M0
 62
     2
100
AcDbLine
 10
209.016753
 20
1056.632534
 11
209.016753
 21
1063.632534
  0
LINE
  5
1FE
100
AcDbEntity
  8
M0
 62
     2
100
AcDbLine
 10
220.016753
 20
1063.632534
 11
220.016753
 21
1056.632534
  0
ARC
  5
1FF
100
AcDbEntity
  8
M0
 62
     2
100
AcDbCircle
 10
222.016753
 20
1056.632534
 40
2.0
100
AcDbArc
 50
180.0
 51
270.0
  0
LINE
  5
200
100
AcDbEntity
  8
M0
 62
     2
100
AcDbLine
 10
224.330733
 20
986.618847
 11
234.016753
 21
1008.632535
  0
LINE
  5
201
100
AcDbEntity
  8
M0
 62
     2
100
AcDbLine
 10
202.016753
 20
1054.632534
 11
207.016753
 21
1054.632534
  0
ARC
  5
202
100
AcDbEntity
  8
M0
 62
     2
100
AcDbCircle
 10
207.016753
 20
1056.632534
 40
2.0
100
AcDbArc
 50
270.0
 51
360.0
  0
LINE
  5
203
100
AcDbEntity
  8
M0
 62
     2
100
AcDbLine
 10
222.016753
 20
1054.632534
 11
229.016753
 21
1054.632534
  0
LINE
  5
204
100
AcDbEntity
  8
M0
 62
     2
100
AcDbLine
 10
220.016753
 20
1054.132534
 11
229.016753
 21
1054.132534
  0
LINE
  5
205
100
AcDbEntity
  8
M0
 62
     2
100
AcDbLine
 10
200.016753
 20
1054.132534
 11
209.016753
 21
1054.132534
  0
ARC
  5
206
100
AcDbEntity
  8
M0
 62
     2
100
AcDbCircle
 10
450.016753
 20
1198.632534
 40
5.0
100
AcDbArc
 50
0.0
 51
90.0
  0
LINE
  5
207
100
AcDbEntity
  8
M0
 62
     2
100
AcDbLine
 10
415.016753
 20
1203.632534
 11
450.016753
 21
1203.632534
  0
ARC
  5
208
100
AcDbEntity
  8
M0
 62
     2
100
AcDbCircle
 10
415.016753
 20
1199.632534
 40
4.0
100
AcDbArc
 50
90.0
 51
180.0
  0
LINE
  5
209
100
AcDbEntity
  8
M0
 62
     2
100
AcDbLine
 10
455.016753
 20
1178.632534
 11
424.016753
 21
1178.632534
  0
LINE
  5
20A
100
AcDbEntity
  8
M0
 62
     2
100
AcDbLine
 10
455.016753
 20
1198.632534
 11
455.016753
 21
988.632549
  0
ARC
  5
20B
100
AcDbEntity
  8
M0
 62
     2
100
AcDbCircle
 10
450.016753
 20
988.632549
 40
5.0
100
AcDbArc
 50
-90.000175
 51
0.0
  0
ARC
  5
20C
100
AcDbEntity
  8
M0
 62
     2
100
AcDbCircle
 10
415.016753
 20
1017.632535
 40
4.0
100
AcDbArc
 50
179.999973
 51
269.999781
  0
ARC
  5
20D
100
AcDbEntity
  8
M0
 62
     2
100
AcDbCircle
 10
417.016753
 20
1017.632535
 40
4.0
100
AcDbArc
 50
-90.000219
 51
0.0
  0
LINE
  5
20E
100
AcDbEntity
  8
M0
 62
     2
100
AcDbLine
 10
415.016753
 20
1013.632535
 11
421.216753
 21
1013.632535
  0
LINE
  5
20F
100
AcDbEntity
  8
M0
 62
     2
100
AcDbLine
 10
438.016753
 20
1013.632535
 11
455.016753
 21
1013.632535
  0
LINE
  5
210
100
AcDbEntity
  8
M0
 62
     2
100
AcDbLine
 10
450.016753
 20
983.632549
 11
430.279342
 21
983.632549
  0
ARC
  5
211
100
AcDbEntity
  8
M0
 62
     2
100
AcDbCircle
 10
430.279342
 20
988.632549
 40
5.0
100
AcDbArc
 50
203.749232
 51
269.999825
  0
LINE
  5
212
100
AcDbEntity
  8
M0
 62
     2
100
AcDbLine
 10
416.016753
 20
1008.632535
 11
416.016753
 21
1013.632535
  0
LINE
  5
213
100
AcDbEntity
  8
M0
 62
     2
100
AcDbLine
 10
455.016753
 20
1063.632534
 11
422.516738
 21
1063.632534
  0
LINE
  5
214
100
AcDbEntity
  8
M0
 62
     2
100
AcDbLine
 10
438.016753
 20
1063.632534
 11
438.016753
 21
1013.632535
  0
LINE
  5
215
100
AcDbEntity
  8
M0
 62
     2
100
AcDbLine
 10
433.016753
 20
1013.632535
 11
433.016753
 21
1063.632534
  0
LINE
  5
216
100
AcDbEntity
  8
M0
 62
     2
100
AcDbLine
 10
438.016753
 20
1026.632534
 11
435.516753
 21
1029.632534
  0
LINE
  5
217
100
AcDbEntity
  8
M0
 62
     2
100
AcDbLine
 10
438.016753
 20
1013.632535
 11
435.516753
 21
1016.632535
  0
LINE
  5
218
100
AcDbEntity
  8
M0
 62
     2
100
AcDbLine
 10
433.016753
 20
1026.632534
 11
435.516753
 21
1029.632534
  0
LINE
  5
219
100
AcDbEntity
  8
M0
 62
     2
100
AcDbLine
 10
433.016753
 20
1013.632535
 11
435.516753
 21
1016.632535
  0
LINE
  5
21A
100
AcDbEntity
  8
M0
 62
     2
100
AcDbLine
 10
455.016753
 20
1026.632534
 11
438.016753
 21
1026.632534
  0
LINE
  5
21B
100
AcDbEntity
  8
M0
 62
     2
100
AcDbLine
 10
433.016753
 20
1026.632534
 11
429.816753
 21
1026.632534
  0
LINE
  5
21C
100
AcDbEntity
  8
M0
 62
     2
100
AcDbLine
 10
435.516753
 20
1063.632534
 11
435.516753
 21
1016.632535
  0
LINE
  5
21D
100
AcDbEntity
  8
M0
 62
     2
100
AcDbLine
 10
450.016753
 20
1026.632534
 11
450.016753
 21
1054.132534
  0
LINE
  5
21E
100
AcDbEntity
  8
M0
 62
     2
100
AcDbLine
 10
441.016753
 20
1026.632534
 11
441.016753
 21
1054.132534
  0
LINE
  5
21F
100
AcDbEntity
  8
M0
 62
     2
100
AcDbLine
 10
430.016753
 20
1054.132534
 11
430.016753
 21
1026.632534
  0
LINE
  5
220
100
AcDbEntity
  8
M0
 62
     2
100
AcDbLine
 10
450.016753
 20
1056.632534
 11
450.016753
 21
1063.632534
  0
ARC
  5
221
100
AcDbEntity
  8
M0
 62
     2
100
AcDbCircle
 10
448.016753
 20
1056.632534
 40
2.0
100
AcDbArc
 50
-90.000437
 51
0.0
  0
LINE
  5
222
100
AcDbEntity
  8
M0
 62
     2
100
AcDbLine
 10
441.016753
 20
1056.632534
 11
441.016753
 21
1063.632534
  0
LINE
  5
223
100
AcDbEntity
  8
M0
 62
     2
100
AcDbLine
 10
430.016753
 20
1063.632534
 11
430.016753
 21
1056.632534
  0
ARC
  5
224
100
AcDbEntity
  8
M0
 62
     2
100
AcDbCircle
 10
428.016753
 20
1056.632534
 40
2.0
100
AcDbArc
 50
-90.000437
 51
0.0
  0
LINE
  5
225
100
AcDbEntity
  8
M0
 62
     2
100
AcDbLine
 10
425.702773
 20
986.618847
 11
416.016753
 21
1008.632535
  0
CIRCLE
  5
226
100
AcDbEntity
  8
M0
 62
     2
100
AcDbCircle
 10
445.516753
 20
1031.632534
 40
2.099999
  0
CIRCLE
  5
227
100
AcDbEntity
  8
M0
 62
     2
100
AcDbCircle
 10
445.516753
 20
1039.632534
 40
2.099999
  0
CIRCLE
  5
228
100
AcDbEntity
  8
M0
 62
     2
100
AcDbCircle
 10
445.516753
 20
1047.632534
 40
2.099999
  0
LINE
  5
229
100
AcDbEntity
  8
M0
 62
     2
100
AcDbLine
 10
448.016753
 20
1054.632534
 11
443.016753
 21
1054.632534
  0
ARC
  5
22A
100
AcDbEntity
  8
M0
 62
     2
100
AcDbCircle
 10
443.016753
 20
1056.632534
 40
2.0
100
AcDbArc
 50
180.0
 51
269.999563
  0
LINE
  5
22B
100
AcDbEntity
  8
M0
 62
     2
100
AcDbLine
 10
428.016753
 20
1054.632534
 11
421.016753
 21
1054.632534
  0
LINE
  5
22C
100
AcDbEntity
  8
M0
 62
     2
100
AcDbLine
 10
430.016753
 20
1054.132534
 11
421.016753
 21
1054.132534
  0
LINE
  5
22D
100
AcDbEntity
  8
M0
 62
     2
100
AcDbLine
 10
450.016753
 20
1054.132534
 11
441.016753
 21
1054.132534
  0
CIRCLE
  5
22E
100
AcDbEntity
  8
M0
 62
     2
100
AcDbCircle
 10
445.516753
 20
1031.632534
 40
3.0
  0
CIRCLE
  5
22F
100
AcDbEntity
  8
M0
 62
     2
100
AcDbCircle
 10
445.516753
 20
1039.632534
 40
3.0
  0
CIRCLE
  5
230
100
AcDbEntity
  8
M0
 62
     2
100
AcDbCircle
 10
445.516753
 20
1047.632534
 40
3.0
  0
LINE
  5
231
100
AcDbEntity
  8
M0
 62
     2
100
AcDbLine
 10
440.016761
 20
1200.137874
 11
446.51821
 21
1196.38528
  0
LINE
  5
232
100
AcDbEntity
  8
M0
 62
     2
100
AcDbLine
 10
446.51821
 20
1196.38528
 11
446.51821
 21
1188.879635
  0
LINE
  5
233
100
AcDbEntity
  8
M0
 62
     2
100
AcDbLine
 10
446.51821
 20
1188.879635
 11
440.016761
 21
1185.126888
  0
LINE
  5
234
100
AcDbEntity
  8
M0
 62
     2
100
AcDbLine
 10
440.016761
 20
1185.126888
 11
433.517737
 21
1188.879635
  0
LINE
  5
235
100
AcDbEntity
  8
M0
 62
     2
100
AcDbLine
 10
433.517737
 20
1188.879635
 11
433.517737
 21
1196.38528
  0
LINE
  5
236
100
AcDbEntity
  8
M0
 62
     2
100
AcDbLine
 10
433.517737
 20
1196.38528
 11
440.016761
 21
1200.137874
  0
CIRCLE
  5
237
100
AcDbEntity
  8
M0
 62
     2
100
AcDbCircle
 10
440.016753
 20
1192.632534
 40
8.0
  0
CIRCLE
  5
238
100
AcDbEntity
  8
M0
 62
     2
100
AcDbCircle
 10
440.016753
 20
1192.632534
 40
7.700005
  0
LINE
  5
239
100
AcDbEntity
  8
M0
 62
     2
100
AcDbLine
 10
440.016761
 20
1006.137876
 11
446.51821
 21
1002.385282
  0
LINE
  5
23A
100
AcDbEntity
  8
M0
 62
     2
100
AcDbLine
 10
446.51821
 20
1002.385282
 11
446.51821
 21
994.879637
  0
LINE
  5
23B
100
AcDbEntity
  8
M0
 62
     2
100
AcDbLine
 10
446.51821
 20
994.879637
 11
440.016761
 21
991.12689
  0
LINE
  5
23C
100
AcDbEntity
  8
M0
 62
     2
100
AcDbLine
 10
440.016761
 20
991.12689
 11
433.517737
 21
994.879637
  0
LINE
  5
23D
100
AcDbEntity
  8
M0
 62
     2
100
AcDbLine
 10
433.517737
 20
994.879637
 11
433.517737
 21
1002.385282
  0
LINE
  5
23E
100
AcDbEntity
  8
M0
 62
     2
100
AcDbLine
 10
433.517737
 20
1002.385282
 11
440.016761
 21
1006.137876
  0
CIRCLE
  5
23F
100
AcDbEntity
  8
M0
 62
     2
100
AcDbCircle
 10
440.016753
 20
998.632536
 40
8.0
  0
CIRCLE
  5
240
100
AcDbEntity
  8
M0
 62
     2
100
AcDbCircle
 10
440.016753
 20
998.632536
 40
7.700005
  0
LINE
  5
241
100
AcDbEntity
  8
M0
 62
     2
100
AcDbLine
 10
210.016761
 20
1006.137876
 11
216.51821
 21
1002.385282
  0
LINE
  5
242
100
AcDbEntity
  8
M0
 62
     2
100
AcDbLine
 10
216.51821
 20
1002.385282
 11
216.51821
 21
994.879637
  0
LINE
  5
243
100
AcDbEntity
  8
M0
 62
     2
100
AcDbLine
 10
216.51821
 20
994.879637
 11
210.016761
 21
991.12689
  0
LINE
  5
244
100
AcDbEntity
  8
M0
 62
     2
100
AcDbLine
 10
210.016761
 20
991.12689
 11
203.517737
 21
994.879637
  0
LINE
  5
245
100
AcDbEntity
  8
M0
 62
     2
100
AcDbLine
 10
203.517737
 20
994.879637
 11
203.517737
 21
1002.385282
  0
LINE
  5
246
100
AcDbEntity
  8
M0
 62
     2
100
AcDbLine
 10
203.517737
 20
1002.385282
 11
210.016761
 21
1006.137876
  0
CIRCLE
  5
247
100
AcDbEntity
  8
M0
 62
     2
100
AcDbCircle
 10
210.016753
 20
998.632536
 40
8.0
  0
CIRCLE
  5
248
100
AcDbEntity
  8
M0
 62
     2
100
AcDbCircle
 10
210.016753
 20
998.632536
 40
7.700005
  0
LINE
  5
249
100
AcDbEntity
  8
M0
 62
     2
100
AcDbLine
 10
210.016761
 20
1200.137874
 11
216.51821
 21
1196.38528
  0
LINE
  5
24A
100
AcDbEntity
  8
M0
 62
     2
100
AcDbLine
 10
216.51821
 20
1196.38528
 11
216.51821
 21
1188.879635
  0
LINE
  5
24B
100
AcDbEntity
  8
M0
 62
     2
100
AcDbLine
 10
216.51821
 20
1188.879635
 11
210.016761
 21
1185.126888
  0
LINE
  5
24C
100
AcDbEntity
  8
M0
 62
     2
100
AcDbLine
 10
210.016761
 20
1185.126888
 11
203.517737
 21
1188.879635
  0
LINE
  5
24D
100
AcDbEntity
  8
M0
 62
     2
100
AcDbLine
 10
203.517737
 20
1188.879635
 11
203.517737
 21
1196.38528
  0
LINE
  5
24E
100
AcDbEntity
  8
M0
 62
     2
100
AcDbLine
 10
203.517737
 20
1196.38528
 11
210.016761
 21
1200.137874
  0
CIRCLE
  5
24F
100
AcDbEntity
  8
M0
 62
     2
100
AcDbCircle
 10
210.016753
 20
1192.632534
 40
8.0
  0
CIRCLE
  5
250
100
AcDbEntity
  8
M0
 62
     2
100
AcDbCircle
 10
210.016753
 20
1192.632534
 40
7.700005
  0
LINE
  5
251
100
AcDbEntity
  8
M0
 62
     2
100
AcDbLine
 10
352.016467
 20
1217.632534
 11
363.016467
 21
1217.632534
  0
LINE
  5
252
100
AcDbEntity
  8
M0
 62
     2
100
AcDbLine
 10
364.016467
 20
1216.632535
 11
364.016478
 21
1197.632534
  0
LINE
  5
253
100
AcDbEntity
  8
M0
 62
     2
100
AcDbLine
 10
351.016467
 20
1216.632533
 11
351.016476
 21
1201.568525
  0
ARC
  5
254
100
AcDbEntity
  8
M0
 62
     2
100
AcDbCircle
 10
363.016467
 20
1216.632534
 40
1.0
100
AcDbArc
 50
3.597217E-005
 51
90.0
  0
ARC
  5
255
100
AcDbEntity
  8
M0
 62
     2
100
AcDbCircle
 10
352.016467
 20
1216.632534
 40
1.0
100
AcDbArc
 50
90.0
 51
180.000036
  0
LINE
  5
256
100
AcDbEntity
  8
M0
 62
     2
100
AcDbLine
 10
286.016467
 20
1216.632486
 11
286.016478
 21
1197.632485
  0
LINE
  5
257
100
AcDbEntity
  8
M0
 62
     2
100
AcDbLine
 10
299.016467
 20
1216.632501
 11
299.016476
 21
1201.568492
  0
ARC
  5
258
100
AcDbEntity
  8
M0
 62
     2
100
AcDbCircle
 10
287.016467
 20
1216.632486
 40
1.0
100
AcDbArc
 50
90.0
 51
180.000036
  0
LINE
  5
259
100
AcDbEntity
  8
M0
 62
     2
100
AcDbLine
 10
298.016465
 20
1217.6325
 11
287.016465
 21
1217.632486
  0
ARC
  5
25A
100
AcDbEntity
  8
M0
 62
     2
100
AcDbCircle
 10
298.016467
 20
1216.6325
 40
1.0
100
AcDbArc
 50
3.597218E-005
 51
90.0
  0
LINE
  5
25B
100
AcDbEntity
  8
M0
 62
     2
100
AcDbLine
 10
351.016467
 20
1000.632535
 11
351.016476
 21
1015.696543
  0
LINE
  5
25C
100
AcDbEntity
  8
M0
 62
     2
100
AcDbLine
 10
352.016467
 20
999.632534
 11
363.016467
 21
999.632534
  0
ARC
  5
25D
100
AcDbEntity
  8
M0
 62
     2
100
AcDbCircle
 10
352.016467
 20
1000.632534
 40
1.0
100
AcDbArc
 50
179.999964
 51
270.0
  0
ARC
  5
25E
100
AcDbEntity
  8
M0
 62
     2
100
AcDbCircle
 10
363.016467
 20
1000.632534
 40
1.0
100
AcDbArc
 50
270.0
 51
359.999964
  0
LINE
  5
25F
100
AcDbEntity
  8
M0
 62
     2
100
AcDbLine
 10
364.016467
 20
1000.632533
 11
364.016478
 21
1019.632534
  0
LINE
  5
260
100
AcDbEntity
  8
M0
 62
     2
100
AcDbLine
 10
299.016467
 20
1000.632567
 11
299.016476
 21
1015.696576
  0
LINE
  5
261
100
AcDbEntity
  8
M0
 62
     2
100
AcDbLine
 10
298.016465
 20
999.632568
 11
287.016465
 21
999.632582
  0
ARC
  5
262
100
AcDbEntity
  8
M0
 62
     2
100
AcDbCircle
 10
298.016467
 20
1000.632568
 40
1.0
100
AcDbArc
 50
270.0
 51
359.999964
  0
ARC
  5
263
100
AcDbEntity
  8
M0
 62
     2
100
AcDbCircle
 10
287.016467
 20
1000.632582
 40
1.0
100
AcDbArc
 50
179.999964
 51
270.0
  0
LINE
  5
264
100
AcDbEntity
  8
M0
 62
     2
100
AcDbLine
 10
286.016467
 20
1000.632582
 11
286.016478
 21
1019.632583
  0
LINE
  5
265
100
AcDbEntity
  8
M0
 62
     2
100
AcDbLine
 10
208.816753
 20
1026.632534
 11
212.016753
 21
1026.632534
  0
LINE
  5
266
100
AcDbEntity
  8
M0
 62
     2
100
AcDbLine
 10
200.216753
 20
1013.632535
 11
195.016753
 21
1013.632535
  0
LINE
  5
267
100
AcDbEntity
  8
M0
 62
     2
100
AcDbLine
 10
207.016753
 20
1013.632535
 11
202.016753
 21
1013.632535
  0
LINE
  5
268
100
AcDbEntity
  8
M0
 62
     2
100
AcDbLine
 10
228.816753
 20
1026.632534
 11
229.016753
 21
1026.632534
  0
LINE
  5
269
100
AcDbEntity
  8
M0
 62
     2
100
AcDbLine
 10
227.016753
 20
1013.632535
 11
222.016753
 21
1013.632535
  0
LINE
  5
26A
100
AcDbEntity
  8
M0
 62
     2
100
AcDbLine
 10
220.216753
 20
1013.632535
 11
217.016753
 21
1013.632535
  0
LINE
  5
26B
100
AcDbEntity
  8
M0
 62
     2
100
AcDbLine
 10
421.216753
 20
1026.632534
 11
421.016753
 21
1026.632534
  0
LINE
  5
26C
100
AcDbEntity
  8
M0
 62
     2
100
AcDbLine
 10
429.816753
 20
1013.632535
 11
433.016753
 21
1013.632535
  0
LINE
  5
26D
100
AcDbEntity
  8
M0
 62
     2
100
AcDbLine
 10
423.016753
 20
1013.632535
 11
428.016753
 21
1013.632535
  0
LINE
  5
26E
100
AcDbEntity
  8
M0
 62
     6
100
AcDbLine
 10
453.816652
 20
1153.632532
 11
438.916653
 21
1153.632536
  0
LINE
  5
26F
100
AcDbEntity
  8
M0
 62
     6
100
AcDbLine
 10
438.916653
 20
1153.632536
 11
438.916624
 21
1063.632536
  0
LINE
  5
270
100
AcDbEntity
  8
M0
 62
     6
100
AcDbLine
 10
438.916624
 20
1063.632536
 11
453.816624
 21
1063.632532
  0
LINE
  5
271
100
AcDbEntity
  8
M0
 62
     6
100
AcDbLine
 10
453.816624
 20
1063.632532
 11
453.816652
 21
1153.632532
  0
LINE
  5
272
100
AcDbEntity
  8
M0
 62
     6
100
AcDbLine
 10
440.866633
 20
1090.632536
 11
440.866633
 21
1092.132536
  0
LINE
  5
273
100
AcDbEntity
  8
M0
 62
     6
100
AcDbLine
 10
451.866633
 20
1090.632532
 11
451.866633
 21
1092.132532
  0
LINE
  5
274
100
AcDbEntity
  8
M0
 62
     6
100
AcDbLine
 10
440.866633
 20
1092.132536
 11
451.866633
 21
1092.132532
  0
LINE
  5
275
100
AcDbEntity
  8
M0
 62
     6
100
AcDbLine
 10
441.866636
 20
1102.232526
 11
441.866633
 21
1092.132535
  0
LINE
  5
276
100
AcDbEntity
  8
M0
 62
     6
100
AcDbLine
 10
441.866633
 20
1090.632535
 11
441.866624
 21
1063.632535
  0
LINE
  5
277
100
AcDbEntity
  8
M0
 62
     6
100
AcDbLine
 10
450.866636
 20
1102.232523
 11
450.866633
 21
1092.132532
  0
LINE
  5
278
100
AcDbEntity
  8
M0
 62
     6
100
AcDbLine
 10
450.866633
 20
1090.632532
 11
450.866624
 21
1063.632532
  0
LINE
  5
279
100
AcDbEntity
  8
M0
 62
     6
100
AcDbLine
 10
451.866633
 20
1090.632532
 11
450.866633
 21
1090.632532
  0
LINE
  5
27A
100
AcDbEntity
  8
M0
 62
     6
100
AcDbLine
 10
441.866633
 20
1090.632535
 11
440.866633
 21
1090.632536
  0
LINE
  5
27B
100
AcDbEntity
  8
M0
 62
     6
100
AcDbLine
 10
450.866636
 20
1102.232523
 11
441.866636
 21
1102.232526
  0
LINE
  5
27C
100
AcDbEntity
  8
M0
 62
     6
100
AcDbLine
 10
441.866626
 20
1069.632535
 11
450.866626
 21
1069.632532
  0
LINE
  5
27D
100
AcDbEntity
  8
M0
 62
     6
100
AcDbLine
 10
438.916631
 20
1083.632536
 11
441.866631
 21
1083.632535
  0
LINE
  5
27E
100
AcDbEntity
  8
M0
 62
     6
100
AcDbLine
 10
450.866631
 20
1083.632532
 11
453.81663
 21
1083.632532
  0
LINE
  5
27F
100
AcDbEntity
  8
M0
 62
     6
100
AcDbLine
 10
451.866644
 20
1126.632532
 11
451.866644
 21
1125.132532
  0
LINE
  5
280
100
AcDbEntity
  8
M0
 62
     6
100
AcDbLine
 10
440.866644
 20
1125.132536
 11
451.866644
 21
1125.132532
  0
LINE
  5
281
100
AcDbEntity
  8
M0
 62
     6
100
AcDbLine
 10
450.86664
 20
1115.032526
 11
450.866644
 21
1125.132532
  0
LINE
  5
282
100
AcDbEntity
  8
M0
 62
     6
100
AcDbLine
 10
450.866644
 20
1126.632532
 11
450.866653
 21
1153.632532
  0
LINE
  5
283
100
AcDbEntity
  8
M0
 62
     6
100
AcDbLine
 10
451.866644
 20
1126.632532
 11
450.866644
 21
1126.632532
  0
LINE
  5
284
100
AcDbEntity
  8
M0
 62
     6
100
AcDbLine
 10
450.86664
 20
1115.032526
 11
441.86664
 21
1115.032529
  0
LINE
  5
285
100
AcDbEntity
  8
M0
 62
     6
100
AcDbLine
 10
441.866651
 20
1147.632535
 11
450.866651
 21
1147.632532
  0
LINE
  5
286
100
AcDbEntity
  8
M0
 62
     6
100
AcDbLine
 10
450.866646
 20
1133.632532
 11
453.816646
 21
1133.632532
  0
LINE
  5
287
100
AcDbEntity
  8
M0
 62
     6
100
AcDbLine
 10
441.86664
 20
1115.032529
 11
441.866644
 21
1125.132535
  0
LINE
  5
288
100
AcDbEntity
  8
M0
 62
     6
100
AcDbLine
 10
440.866644
 20
1126.632536
 11
440.866644
 21
1125.132536
  0
LINE
  5
289
100
AcDbEntity
  8
M0
 62
     6
100
AcDbLine
 10
441.866644
 20
1126.632535
 11
440.866644
 21
1126.632536
  0
LINE
  5
28A
100
AcDbEntity
  8
M0
 62
     6
100
AcDbLine
 10
441.866644
 20
1126.632535
 11
441.866653
 21
1153.632535
  0
LINE
  5
28B
100
AcDbEntity
  8
M0
 62
     6
100
AcDbLine
 10
438.916646
 20
1133.632536
 11
441.866646
 21
1133.632535
  0
CIRCLE
  5
28C
100
AcDbEntity
  8
M0
 62
     6
100
AcDbCircle
 10
446.366638
 20
1108.632534
 40
2.799999
  0
LINE
  5
28D
100
AcDbEntity
  8
M0
 62
     6
100
AcDbLine
 10
211.116808
 20
1153.632532
 11
196.216808
 21
1153.632536
  0
LINE
  5
28E
100
AcDbEntity
  8
M0
 62
     6
100
AcDbLine
 10
196.216808
 20
1153.632536
 11
196.21678
 21
1063.632536
  0
LINE
  5
28F
100
AcDbEntity
  8
M0
 62
     6
100
AcDbLine
 10
196.21678
 20
1063.632536
 11
211.11678
 21
1063.632532
  0
LINE
  5
290
100
AcDbEntity
  8
M0
 62
     6
100
AcDbLine
 10
211.11678
 20
1063.632532
 11
211.116808
 21
1153.632532
  0
LINE
  5
291
100
AcDbEntity
  8
M0
 62
     6
100
AcDbLine
 10
198.166788
 20
1090.632536
 11
198.166789
 21
1092.132536
  0
LINE
  5
292
100
AcDbEntity
  8
M0
 62
     6
100
AcDbLine
 10
209.166788
 20
1090.632532
 11
209.166789
 21
1092.132532
  0
LINE
  5
293
100
AcDbEntity
  8
M0
 62
     6
100
AcDbLine
 10
198.166789
 20
1092.132536
 11
209.166789
 21
1092.132532
  0
LINE
  5
294
100
AcDbEntity
  8
M0
 62
     6
100
AcDbLine
 10
199.166792
 20
1102.232526
 11
199.166789
 21
1092.132535
  0
LINE
  5
295
100
AcDbEntity
  8
M0
 62
     6
100
AcDbLine
 10
199.166788
 20
1090.632535
 11
199.16678
 21
1063.632535
  0
LINE
  5
296
100
AcDbEntity
  8
M0
 62
     6
100
AcDbLine
 10
208.166792
 20
1102.232523
 11
208.166789
 21
1092.132532
  0
LINE
  5
297
100
AcDbEntity
  8
M0
 62
     6
100
AcDbLine
 10
208.166788
 20
1090.632532
 11
208.16678
 21
1063.632532
  0
LINE
  5
298
100
AcDbEntity
  8
M0
 62
     6
100
AcDbLine
 10
209.166788
 20
1090.632532
 11
208.166788
 21
1090.632532
  0
LINE
  5
299
100
AcDbEntity
  8
M0
 62
     6
100
AcDbLine
 10
199.166788
 20
1090.632535
 11
198.166788
 21
1090.632536
  0
LINE
  5
29A
100
AcDbEntity
  8
M0
 62
     6
100
AcDbLine
 10
208.166792
 20
1102.232523
 11
199.166792
 21
1102.232526
  0
LINE
  5
29B
100
AcDbEntity
  8
M0
 62
     6
100
AcDbLine
 10
199.166782
 20
1069.632535
 11
208.166782
 21
1069.632532
  0
LINE
  5
29C
100
AcDbEntity
  8
M0
 62
     6
100
AcDbLine
 10
196.216786
 20
1083.632536
 11
199.166786
 21
1083.632535
  0
LINE
  5
29D
100
AcDbEntity
  8
M0
 62
     6
100
AcDbLine
 10
208.166786
 20
1083.632532
 11
211.116786
 21
1083.632532
  0
LINE
  5
29E
100
AcDbEntity
  8
M0
 62
     6
100
AcDbLine
 10
209.1668
 20
1126.632532
 11
209.166799
 21
1125.132532
  0
LINE
  5
29F
100
AcDbEntity
  8
M0
 62
     6
100
AcDbLine
 10
198.166799
 20
1125.132536
 11
209.166799
 21
1125.132532
  0
LINE
  5
2A0
100
AcDbEntity
  8
M0
 62
     6
100
AcDbLine
 10
208.166796
 20
1115.032526
 11
208.166799
 21
1125.132532
  0
LINE
  5
2A1
100
AcDbEntity
  8
M0
 62
     6
100
AcDbLine
 10
208.1668
 20
1126.632532
 11
208.166808
 21
1153.632532
  0
LINE
  5
2A2
100
AcDbEntity
  8
M0
 62
     6
100
AcDbLine
 10
209.1668
 20
1126.632532
 11
208.1668
 21
1126.632532
  0
LINE
  5
2A3
100
AcDbEntity
  8
M0
 62
     6
100
AcDbLine
 10
208.166796
 20
1115.032526
 11
199.166796
 21
1115.032529
  0
LINE
  5
2A4
100
AcDbEntity
  8
M0
 62
     6
100
AcDbLine
 10
199.166806
 20
1147.632535
 11
208.166806
 21
1147.632532
  0
LINE
  5
2A5
100
AcDbEntity
  8
M0
 62
     6
100
AcDbLine
 10
208.166802
 20
1133.632532
 11
211.116802
 21
1133.632532
  0
LINE
  5
2A6
100
AcDbEntity
  8
M0
 62
     6
100
AcDbLine
 10
199.166796
 20
1115.032529
 11
199.166799
 21
1125.132535
  0
LINE
  5
2A7
100
AcDbEntity
  8
M0
 62
     6
100
AcDbLine
 10
198.1668
 20
1126.632536
 11
198.166799
 21
1125.132536
  0
LINE
  5
2A8
100
AcDbEntity
  8
M0
 62
     6
100
AcDbLine
 10
199.1668
 20
1126.632535
 11
198.1668
 21
1126.632536
  0
LINE
  5
2A9
100
AcDbEntity
  8
M0
 62
     6
100
AcDbLine
 10
199.1668
 20
1126.632535
 11
199.166808
 21
1153.632535
  0
LINE
  5
2AA
100
AcDbEntity
  8
M0
 62
     6
100
AcDbLine
 10
196.216802
 20
1133.632536
 11
199.166802
 21
1133.632535
  0
CIRCLE
  5
2AB
100
AcDbEntity
  8
M0
 62
     6
100
AcDbCircle
 10
203.666794
 20
1108.632534
 40
2.799999
  0
CIRCLE
  5
2AC
100
AcDbEntity
  8
M0
100
AcDbCircle
 10
203.666762
 20
1074.632503
 40
3.5
  0
ARC
  5
2AD
100
AcDbEntity
  8
M0
100
AcDbCircle
 10
206.766764
 20
1070.832506
 40
1.0
100
AcDbArc
 50
-90.0
 51
3.597218E-005
  0
LINE
  5
2AE
100
AcDbEntity
  8
M0
100
AcDbLine
 10
206.766765
 20
1069.832506
 11
200.566766
 21
1069.832502
  0
ARC
  5
2AF
100
AcDbEntity
  8
M0
100
AcDbCircle
 10
200.566765
 20
1070.832502
 40
1.0
100
AcDbArc
 50
180.000036
 51
270.0
  0
LINE
  5
2B0
100
AcDbEntity
  8
M0
100
AcDbLine
 10
199.566765
 20
1070.832502
 11
199.56676
 21
1078.4325
  0
ARC
  5
2B1
100
AcDbEntity
  8
M0
100
AcDbCircle
 10
200.56676
 20
1078.432501
 40
1.0
100
AcDbArc
 50
90.0
 51
180.000036
  0
LINE
  5
2B2
100
AcDbEntity
  8
M0
100
AcDbLine
 10
200.56676
 20
1079.432501
 11
206.766759
 21
1079.432505
  0
LINE
  5
2B3
100
AcDbEntity
  8
M0
100
AcDbLine
 10
207.766759
 20
1078.432505
 11
207.766764
 21
1070.832507
  0
ARC
  5
2B4
100
AcDbEntity
  8
M0
100
AcDbCircle
 10
206.766759
 20
1078.432505
 40
1.0
100
AcDbArc
 50
-1.866939E-005
 51
90.0
  0
LINE
  5
2B5
100
AcDbEntity
  8
M0
100
AcDbLine
 10
202.137065
 20
1073.102804
 11
205.269725
 21
1076.235468
  0
LINE
  5
2B6
100
AcDbEntity
  8
M0
100
AcDbLine
 10
205.764701
 20
1073.524515
 11
202.632038
 21
1076.657175
  0
LINE
  5
2B7
100
AcDbEntity
  8
M0
100
AcDbLine
 10
204.774753
 20
1072.534566
 11
201.642089
 21
1075.667225
  0
LINE
  5
2B8
100
AcDbEntity
  8
M0
  6
DASHDOT
100
AcDbLine
 10
199.166762
 20
1074.632503
 11
208.166762
 21
1074.632503
  0
LINE
  5
2B9
100
AcDbEntity
  8
M0
  6
DASHDOT
100
AcDbLine
 10
203.666762
 20
1070.132503
 11
203.666762
 21
1079.132503
  0
CIRCLE
  5
2BA
100
AcDbEntity
  8
M0
100
AcDbCircle
 10
203.666762
 20
1097.132503
 40
3.5
  0
ARC
  5
2BB
100
AcDbEntity
  8
M0
100
AcDbCircle
 10
206.766764
 20
1093.332506
 40
1.0
100
AcDbArc
 50
-90.0
 51
3.597218E-005
  0
LINE
  5
2BC
100
AcDbEntity
  8
M0
100
AcDbLine
 10
206.766765
 20
1092.332506
 11
200.566766
 21
1092.332502
  0
ARC
  5
2BD
100
AcDbEntity
  8
M0
100
AcDbCircle
 10
200.566765
 20
1093.332502
 40
1.0
100
AcDbArc
 50
180.000036
 51
270.0
  0
LINE
  5
2BE
100
AcDbEntity
  8
M0
100
AcDbLine
 10
199.566765
 20
1093.332502
 11
199.56676
 21
1100.9325
  0
ARC
  5
2BF
100
AcDbEntity
  8
M0
100
AcDbCircle
 10
200.56676
 20
1100.932501
 40
1.0
100
AcDbArc
 50
90.0
 51
180.000036
  0
LINE
  5
2C0
100
AcDbEntity
  8
M0
100
AcDbLine
 10
200.56676
 20
1101.932501
 11
206.766759
 21
1101.932505
  0
LINE
  5
2C1
100
AcDbEntity
  8
M0
100
AcDbLine
 10
207.766759
 20
1100.932505
 11
207.766764
 21
1093.332507
  0
ARC
  5
2C2
100
AcDbEntity
  8
M0
100
AcDbCircle
 10
206.766759
 20
1100.932505
 40
1.0
100
AcDbArc
 50
-1.866939E-005
 51
90.0
  0
LINE
  5
2C3
100
AcDbEntity
  8
M0
100
AcDbLine
 10
202.137065
 20
1095.602804
 11
205.269725
 21
1098.735468
  0
LINE
  5
2C4
100
AcDbEntity
  8
M0
100
AcDbLine
 10
205.764701
 20
1096.024515
 11
202.632038
 21
1099.157175
  0
LINE
  5
2C5
100
AcDbEntity
  8
M0
100
AcDbLine
 10
204.774753
 20
1095.034566
 11
201.642089
 21
1098.167225
  0
LINE
  5
2C6
100
AcDbEntity
  8
M0
  6
DASHDOT
100
AcDbLine
 10
199.166762
 20
1097.132503
 11
208.166762
 21
1097.132503
  0
LINE
  5
2C7
100
AcDbEntity
  8
M0
  6
DASHDOT
100
AcDbLine
 10
203.666762
 20
1092.632503
 11
203.666762
 21
1101.632503
  0
LINE
  5
2C8
100
AcDbEntity
  8
M0
 62
     7
100
AcDbLine
 10
204.373869
 20
1084.132503
 11
206.469801
 21
1086.228436
  0
LINE
  5
2C9
100
AcDbEntity
  8
M0
 62
     7
100
AcDbLine
 10
201.570819
 20
1081.329453
 11
203.666762
 21
1083.425397
  0
LINE
  5
2CA
100
AcDbEntity
  8
M0
 62
     7
100
AcDbLine
 10
202.959655
 20
1084.132503
 11
200.863712
 21
1082.03656
  0
LINE
  5
2CB
100
AcDbEntity
  8
M0
 62
     7
100
AcDbLine
 10
205.762695
 20
1086.935543
 11
203.666762
 21
1084.83961
  0
LINE
  5
2CC
100
AcDbEntity
  8
M0
 62
     7
100
AcDbLine
 10
203.666762
 20
1084.83961
 11
202.570712
 21
1085.93566
  0
LINE
  5
2CD
100
AcDbEntity
  8
M0
 62
     7
100
AcDbLine
 10
205.469919
 20
1083.036453
 11
204.373869
 21
1084.132503
  0
LINE
  5
2CE
100
AcDbEntity
  8
M0
 62
     7
100
AcDbLine
 10
203.666762
 20
1083.425397
 11
204.762812
 21
1082.329347
  0
LINE
  5
2CF
100
AcDbEntity
  8
M0
 62
     7
100
AcDbLine
 10
201.863605
 20
1085.228553
 11
202.959655
 21
1084.132503
  0
CIRCLE
  5
2D0
100
AcDbEntity
  8
M0
 62
     7
100
AcDbCircle
 10
203.666762
 20
1084.132503
 40
3.5
  0
LINE
  5
2D1
100
AcDbEntity
  8
M0
 62
     7
100
AcDbLine
 10
204.762812
 20
1082.329347
 11
205.469919
 21
1083.036453
  0
LINE
  5
2D2
100
AcDbEntity
  8
M0
 62
     7
100
AcDbLine
 10
202.570712
 20
1085.93566
 11
201.863605
 21
1085.228553
  0
LINE
  5
2D3
100
AcDbEntity
  8
M0
100
AcDbLine
 10
322.016753
 20
1117.882503
 11
328.016753
 21
1117.882503
  0
LINE
  5
2D4
100
AcDbEntity
  8
M0
100
AcDbLine
 10
328.016753
 20
1117.882503
 11
328.016753
 21
1122.382503
  0
LINE
  5
2D5
100
AcDbEntity
  8
M0
100
AcDbLine
 10
328.016753
 20
1122.382503
 11
322.016753
 21
1122.382503
  0
LINE
  5
2D6
100
AcDbEntity
  8
M0
100
AcDbLine
 10
322.016753
 20
1122.382503
 11
322.016753
 21
1117.882503
  0
CIRCLE
  5
2D7
100
AcDbEntity
  8
M0
100
AcDbCircle
 10
203.666762
 20
1142.632564
 40
3.5
  0
ARC
  5
2D8
100
AcDbEntity
  8
M0
100
AcDbCircle
 10
206.766764
 20
1146.432562
 40
1.0
100
AcDbArc
 50
359.999964
 51
450.0
  0
LINE
  5
2D9
100
AcDbEntity
  8
M0
100
AcDbLine
 10
206.766765
 20
1147.432562
 11
200.566766
 21
1147.432566
  0
ARC
  5
2DA
100
AcDbEntity
  8
M0
100
AcDbCircle
 10
200.566765
 20
1146.432566
 40
1.0
100
AcDbArc
 50
90.0
 51
179.999964
  0
LINE
  5
2DB
100
AcDbEntity
  8
M0
100
AcDbLine
 10
199.566765
 20
1146.432566
 11
199.56676
 21
1138.832568
  0
ARC
  5
2DC
100
AcDbEntity
  8
M0
100
AcDbCircle
 10
200.56676
 20
1138.832567
 40
1.0
100
AcDbArc
 50
179.999964
 51
270.0
  0
LINE
  5
2DD
100
AcDbEntity
  8
M0
100
AcDbLine
 10
200.56676
 20
1137.832567
 11
206.766759
 21
1137.832563
  0
LINE
  5
2DE
100
AcDbEntity
  8
M0
100
AcDbLine
 10
207.766759
 20
1138.832563
 11
207.766764
 21
1146.432561
  0
ARC
  5
2DF
100
AcDbEntity
  8
M0
100
AcDbCircle
 10
206.766759
 20
1138.832563
 40
1.0
100
AcDbArc
 50
270.0
 51
360.000019
  0
LINE
  5
2E0
100
AcDbEntity
  8
M0
100
AcDbLine
 10
202.137065
 20
1144.162264
 11
205.269725
 21
1141.0296
  0
LINE
  5
2E1
100
AcDbEntity
  8
M0
100
AcDbLine
 10
205.764701
 20
1143.740552
 11
202.632038
 21
1140.607893
  0
LINE
  5
2E2
100
AcDbEntity
  8
M0
100
AcDbLine
 10
204.774753
 20
1144.730502
 11
201.642089
 21
1141.597842
  0
LINE
  5
2E3
100
AcDbEntity
  8
M0
  6
DASHDOT
100
AcDbLine
 10
199.166762
 20
1142.632564
 11
208.166762
 21
1142.632564
  0
LINE
  5
2E4
100
AcDbEntity
  8
M0
  6
DASHDOT
100
AcDbLine
 10
203.666762
 20
1147.132564
 11
203.666762
 21
1138.132564
  0
LINE
  5
2E5
100
AcDbEntity
  8
M0
 62
     7
100
AcDbLine
 10
204.373869
 20
1133.132564
 11
206.469801
 21
1131.036632
  0
LINE
  5
2E6
100
AcDbEntity
  8
M0
 62
     7
100
AcDbLine
 10
201.570819
 20
1135.935614
 11
203.666762
 21
1133.839671
  0
LINE
  5
2E7
100
AcDbEntity
  8
M0
 62
     7
100
AcDbLine
 10
202.959655
 20
1133.132564
 11
200.863712
 21
1135.228508
  0
LINE
  5
2E8
100
AcDbEntity
  8
M0
 62
     7
100
AcDbLine
 10
205.762695
 20
1130.329525
 11
203.666762
 21
1132.425458
  0
LINE
  5
2E9
100
AcDbEntity
  8
M0
 62
     7
100
AcDbLine
 10
203.666762
 20
1132.425458
 11
202.570712
 21
1131.329408
  0
LINE
  5
2EA
100
AcDbEntity
  8
M0
 62
     7
100
AcDbLine
 10
205.469919
 20
1134.228615
 11
204.373869
 21
1133.132564
  0
LINE
  5
2EB
100
AcDbEntity
  8
M0
 62
     7
100
AcDbLine
 10
203.666762
 20
1133.839671
 11
204.762812
 21
1134.935721
  0
LINE
  5
2EC
100
AcDbEntity
  8
M0
 62
     7
100
AcDbLine
 10
201.863605
 20
1132.036514
 11
202.959655
 21
1133.132564
  0
CIRCLE
  5
2ED
100
AcDbEntity
  8
M0
 62
     7
100
AcDbCircle
 10
203.666762
 20
1133.132564
 40
3.5
  0
LINE
  5
2EE
100
AcDbEntity
  8
M0
 62
     7
100
AcDbLine
 10
204.762812
 20
1134.935721
 11
205.469919
 21
1134.228615
  0
LINE
  5
2EF
100
AcDbEntity
  8
M0
 62
     7
100
AcDbLine
 10
202.570712
 20
1131.329408
 11
201.863605
 21
1132.036514
  0
CIRCLE
  5
2F0
100
AcDbEntity
  8
M0
100
AcDbCircle
 10
203.666762
 20
1120.132564
 40
3.5
  0
ARC
  5
2F1
100
AcDbEntity
  8
M0
100
AcDbCircle
 10
206.766764
 20
1123.932562
 40
1.0
100
AcDbArc
 50
359.999964
 51
450.0
  0
LINE
  5
2F2
100
AcDbEntity
  8
M0
100
AcDbLine
 10
206.766765
 20
1124.932562
 11
200.566766
 21
1124.932566
  0
ARC
  5
2F3
100
AcDbEntity
  8
M0
100
AcDbCircle
 10
200.566765
 20
1123.932566
 40
1.0
100
AcDbArc
 50
90.0
 51
179.999964
  0
LINE
  5
2F4
100
AcDbEntity
  8
M0
100
AcDbLine
 10
199.566765
 20
1123.932566
 11
199.56676
 21
1116.332568
  0
ARC
  5
2F5
100
AcDbEntity
  8
M0
100
AcDbCircle
 10
200.56676
 20
1116.332567
 40
1.0
100
AcDbArc
 50
179.999964
 51
270.0
  0
LINE
  5
2F6
100
AcDbEntity
  8
M0
100
AcDbLine
 10
200.56676
 20
1115.332567
 11
206.766759
 21
1115.332563
  0
LINE
  5
2F7
100
AcDbEntity
  8
M0
100
AcDbLine
 10
207.766759
 20
1116.332563
 11
207.766764
 21
1123.932561
  0
ARC
  5
2F8
100
AcDbEntity
  8
M0
100
AcDbCircle
 10
206.766759
 20
1116.332563
 40
1.0
100
AcDbArc
 50
270.0
 51
360.000019
  0
LINE
  5
2F9
100
AcDbEntity
  8
M0
100
AcDbLine
 10
202.137065
 20
1121.662264
 11
205.269725
 21
1118.5296
  0
LINE
  5
2FA
100
AcDbEntity
  8
M0
100
AcDbLine
 10
205.764701
 20
1121.240552
 11
202.632038
 21
1118.107893
  0
LINE
  5
2FB
100
AcDbEntity
  8
M0
100
AcDbLine
 10
204.774753
 20
1122.230502
 11
201.642089
 21
1119.097842
  0
LINE
  5
2FC
100
AcDbEntity
  8
M0
  6
DASHDOT
100
AcDbLine
 10
199.166762
 20
1120.132564
 11
208.166762
 21
1120.132564
  0
LINE
  5
2FD
100
AcDbEntity
  8
M0
  6
DASHDOT
100
AcDbLine
 10
203.666762
 20
1124.632564
 11
203.666762
 21
1115.632564
  0
CIRCLE
  5
2FE
100
AcDbEntity
  8
M0
100
AcDbCircle
 10
218.566696
 20
1142.632569
 40
3.5
  0
ARC
  5
2FF
100
AcDbEntity
  8
M0
100
AcDbCircle
 10
215.466692
 20
1146.432564
 40
1.0
100
AcDbArc
 50
90.0
 51
180.000072
  0
LINE
  5
300
100
AcDbEntity
  8
M0
100
AcDbLine
 10
215.46669
 20
1147.432564
 11
221.666689
 21
1147.432572
  0
ARC
  5
301
100
AcDbEntity
  8
M0
100
AcDbCircle
 10
221.66669
 20
1146.432572
 40
1.0
100
AcDbArc
 50
7.194436E-005
 51
90.0
  0
LINE
  5
302
100
AcDbEntity
  8
M0
100
AcDbLine
 10
222.66669
 20
1146.432573
 11
222.6667
 21
1138.832575
  0
ARC
  5
303
100
AcDbEntity
  8
M0
100
AcDbCircle
 10
221.6667
 20
1138.832574
 40
1.0
100
AcDbArc
 50
-90.0
 51
7.194436E-005
  0
LINE
  5
304
100
AcDbEntity
  8
M0
100
AcDbLine
 10
221.666701
 20
1137.832574
 11
215.466702
 21
1137.832566
  0
LINE
  5
305
100
AcDbEntity
  8
M0
100
AcDbLine
 10
214.466701
 20
1138.832565
 11
214.466692
 21
1146.432563
  0
ARC
  5
306
100
AcDbEntity
  8
M0
100
AcDbCircle
 10
215.466701
 20
1138.832566
 40
1.0
100
AcDbArc
 50
180.000017
 51
270.0
  0
LINE
  5
307
100
AcDbEntity
  8
M0
100
AcDbLine
 10
220.096392
 20
1144.162269
 11
216.963734
 21
1141.029604
  0
LINE
  5
308
100
AcDbEntity
  8
M0
100
AcDbLine
 10
216.468756
 20
1143.740556
 11
219.601422
 21
1140.607898
  0
LINE
  5
309
100
AcDbEntity
  8
M0
100
AcDbLine
 10
217.458704
 20
1144.730506
 11
220.59137
 21
1141.597848
  0
LINE
  5
30A
100
AcDbEntity
  8
M0
  6
DASHDOT
100
AcDbLine
 10
223.066696
 20
1142.632572
 11
214.066696
 21
1142.632566
  0
LINE
  5
30B
100
AcDbEntity
  8
M0
  6
DASHDOT
100
AcDbLine
 10
218.566693
 20
1147.132569
 11
218.566699
 21
1138.132569
  0
LINE
  5
30C
100
AcDbEntity
  8
M0
 62
     7
100
AcDbLine
 10
217.859595
 20
1133.132569
 11
215.763664
 21
1131.036635
  0
LINE
  5
30D
100
AcDbEntity
  8
M0
 62
     7
100
AcDbLine
 10
220.662643
 20
1135.93562
 11
218.566701
 21
1133.839676
  0
LINE
  5
30E
100
AcDbEntity
  8
M0
 62
     7
100
AcDbLine
 10
219.273809
 20
1133.13257
 11
221.369751
 21
1135.228514
  0
LINE
  5
30F
100
AcDbEntity
  8
M0
 62
     7
100
AcDbLine
 10
216.470771
 20
1130.329529
 11
218.566702
 21
1132.425462
  0
LINE
  5
310
100
AcDbEntity
  8
M0
 62
     7
100
AcDbLine
 10
218.566702
 20
1132.425462
 11
219.662753
 21
1131.329413
  0
LINE
  5
311
100
AcDbEntity
  8
M0
 62
     7
100
AcDbLine
 10
216.763544
 20
1134.228618
 11
217.859595
 21
1133.132569
  0
LINE
  5
312
100
AcDbEntity
  8
M0
 62
     7
100
AcDbLine
 10
218.566701
 20
1133.839676
 11
217.470651
 21
1134.935725
  0
LINE
  5
313
100
AcDbEntity
  8
M0
 62
     7
100
AcDbLine
 10
220.369859
 20
1132.03652
 11
219.273809
 21
1133.13257
  0
CIRCLE
  5
314
100
AcDbEntity
  8
M0
 62
     7
100
AcDbCircle
 10
218.566702
 20
1133.132569
 40
3.5
  0
LINE
  5
315
100
AcDbEntity
  8
M0
 62
     7
100
AcDbLine
 10
217.470651
 20
1134.935725
 11
216.763544
 21
1134.228618
  0
LINE
  5
316
100
AcDbEntity
  8
M0
 62
     7
100
AcDbLine
 10
219.662753
 20
1131.329413
 11
220.369859
 21
1132.03652
  0
CIRCLE
  5
317
100
AcDbEntity
  8
M0
100
AcDbCircle
 10
218.56671
 20
1120.132569
 40
3.5
  0
ARC
  5
318
100
AcDbEntity
  8
M0
100
AcDbCircle
 10
215.466706
 20
1123.932564
 40
1.0
100
AcDbArc
 50
90.0
 51
180.000072
  0
LINE
  5
319
100
AcDbEntity
  8
M0
100
AcDbLine
 10
215.466704
 20
1124.932564
 11
221.666703
 21
1124.932572
  0
ARC
  5
31A
100
AcDbEntity
  8
M0
100
AcDbCircle
 10
221.666705
 20
1123.932572
 40
1.0
100
AcDbArc
 50
7.194436E-005
 51
90.0
  0
LINE
  5
31B
100
AcDbEntity
  8
M0
100
AcDbLine
 10
222.666705
 20
1123.932573
 11
222.666714
 21
1116.332575
  0
ARC
  5
31C
100
AcDbEntity
  8
M0
100
AcDbCircle
 10
221.666714
 20
1116.332574
 40
1.0
100
AcDbArc
 50
-90.0
 51
7.194436E-005
  0
LINE
  5
31D
100
AcDbEntity
  8
M0
100
AcDbLine
 10
221.666715
 20
1115.332574
 11
215.466717
 21
1115.332566
  0
LINE
  5
31E
100
AcDbEntity
  8
M0
100
AcDbLine
 10
214.466715
 20
1116.332565
 11
214.466706
 21
1123.932563
  0
ARC
  5
31F
100
AcDbEntity
  8
M0
100
AcDbCircle
 10
215.466715
 20
1116.332566
 40
1.0
100
AcDbArc
 50
180.000017
 51
270.0
  0
LINE
  5
320
100
AcDbEntity
  8
M0
100
AcDbLine
 10
220.096406
 20
1121.662269
 11
216.963749
 21
1118.529604
  0
LINE
  5
321
100
AcDbEntity
  8
M0
100
AcDbLine
 10
216.46877
 20
1121.240556
 11
219.601436
 21
1118.107898
  0
LINE
  5
322
100
AcDbEntity
  8
M0
100
AcDbLine
 10
217.458718
 20
1122.230506
 11
220.591384
 21
1119.097848
  0
LINE
  5
323
100
AcDbEntity
  8
M0
  6
DASHDOT
100
AcDbLine
 10
223.06671
 20
1120.132572
 11
214.06671
 21
1120.132566
  0
LINE
  5
324
100
AcDbEntity
  8
M0
  6
DASHDOT
100
AcDbLine
 10
218.566707
 20
1124.632569
 11
218.566713
 21
1115.632569
  0
CIRCLE
  5
325
100
AcDbEntity
  8
M0
100
AcDbCircle
 10
218.566724
 20
1097.132508
 40
3.5
  0
ARC
  5
326
100
AcDbEntity
  8
M0
100
AcDbCircle
 10
215.466725
 20
1093.332509
 40
1.0
100
AcDbArc
 50
180.0
 51
270.0
  0
LINE
  5
327
100
AcDbEntity
  8
M0
100
AcDbLine
 10
215.466725
 20
1092.332509
 11
221.666724
 21
1092.332509
  0
ARC
  5
328
100
AcDbEntity
  8
M0
100
AcDbCircle
 10
221.666724
 20
1093.332509
 40
1.0
100
AcDbArc
 50
270.0
 51
360.0
  0
LINE
  5
329
100
AcDbEntity
  8
M0
100
AcDbLine
 10
222.666724
 20
1093.332509
 11
222.666724
 21
1100.932507
  0
ARC
  5
32A
100
AcDbEntity
  8
M0
100
AcDbCircle
 10
221.666724
 20
1100.932507
 40
1.0
100
AcDbArc
 50
0.0
 51
90.0
  0
LINE
  5
32B
100
AcDbEntity
  8
M0
100
AcDbLine
 10
221.666724
 20
1101.932507
 11
215.466725
 21
1101.932507
  0
LINE
  5
32C
100
AcDbEntity
  8
M0
100
AcDbLine
 10
214.466725
 20
1100.932507
 11
214.466725
 21
1093.332509
  0
ARC
  5
32D
100
AcDbEntity
  8
M0
100
AcDbCircle
 10
215.466725
 20
1100.932507
 40
1.0
100
AcDbArc
 50
90.0
 51
180.000055
  0
LINE
  5
32E
100
AcDbEntity
  8
M0
100
AcDbLine
 10
220.096423
 20
1095.60281
 11
216.963761
 21
1098.735471
  0
LINE
  5
32F
100
AcDbEntity
  8
M0
100
AcDbLine
 10
216.468786
 20
1096.024519
 11
219.601448
 21
1099.157181
  0
LINE
  5
330
100
AcDbEntity
  8
M0
100
AcDbLine
 10
217.458735
 20
1095.03457
 11
220.591397
 21
1098.167231
  0
LINE
  5
331
100
AcDbEntity
  8
M0
  6
DASHDOT
100
AcDbLine
 10
223.066724
 20
1097.132511
 11
214.066724
 21
1097.132505
  0
LINE
  5
332
100
AcDbEntity
  8
M0
  6
DASHDOT
100
AcDbLine
 10
218.566727
 20
1092.632508
 11
218.566722
 21
1101.632508
  0
LINE
  5
333
100
AcDbEntity
  8
M0
 62
     7
100
AcDbLine
 10
217.859626
 20
1084.132508
 11
215.763692
 21
1086.228439
  0
LINE
  5
334
100
AcDbEntity
  8
M0
 62
     7
100
AcDbLine
 10
220.662678
 20
1081.329459
 11
218.566733
 21
1083.425401
  0
LINE
  5
335
100
AcDbEntity
  8
M0
 62
     7
100
AcDbLine
 10
219.273839
 20
1084.132509
 11
221.369784
 21
1082.036567
  0
LINE
  5
336
100
AcDbEntity
  8
M0
 62
     7
100
AcDbLine
 10
216.470798
 20
1086.935546
 11
218.566732
 21
1084.839615
  0
LINE
  5
337
100
AcDbEntity
  8
M0
 62
     7
100
AcDbLine
 10
218.566732
 20
1084.839615
 11
219.662781
 21
1085.935666
  0
LINE
  5
338
100
AcDbEntity
  8
M0
 62
     7
100
AcDbLine
 10
216.763576
 20
1083.036457
 11
217.859626
 21
1084.132508
  0
LINE
  5
339
100
AcDbEntity
  8
M0
 62
     7
100
AcDbLine
 10
218.566733
 20
1083.425401
 11
217.470684
 21
1082.329351
  0
LINE
  5
33A
100
AcDbEntity
  8
M0
 62
     7
100
AcDbLine
 10
220.369889
 20
1085.228559
 11
219.273839
 21
1084.132509
  0
CIRCLE
  5
33B
100
AcDbEntity
  8
M0
 62
     7
100
AcDbCircle
 10
218.566733
 20
1084.132508
 40
3.5
  0
LINE
  5
33C
100
AcDbEntity
  8
M0
 62
     7
100
AcDbLine
 10
217.470684
 20
1082.329351
 11
216.763576
 21
1083.036457
  0
LINE
  5
33D
100
AcDbEntity
  8
M0
 62
     7
100
AcDbLine
 10
219.662781
 20
1085.935666
 11
220.369889
 21
1085.228559
  0
CIRCLE
  5
33E
100
AcDbEntity
  8
M0
100
AcDbCircle
 10
218.566739
 20
1074.632508
 40
3.5
  0
ARC
  5
33F
100
AcDbEntity
  8
M0
100
AcDbCircle
 10
215.466739
 20
1070.832509
 40
1.0
100
AcDbArc
 50
180.0
 51
270.0
  0
LINE
  5
340
100
AcDbEntity
  8
M0
100
AcDbLine
 10
215.466739
 20
1069.832509
 11
221.666738
 21
1069.832509
  0
ARC
  5
341
100
AcDbEntity
  8
M0
100
AcDbCircle
 10
221.666738
 20
1070.832509
 40
1.0
100
AcDbArc
 50
270.0
 51
360.0
  0
LINE
  5
342
100
AcDbEntity
  8
M0
100
AcDbLine
 10
222.666738
 20
1070.832509
 11
222.666738
 21
1078.432507
  0
ARC
  5
343
100
AcDbEntity
  8
M0
100
AcDbCircle
 10
221.666738
 20
1078.432507
 40
1.0
100
AcDbArc
 50
0.0
 51
90.0
  0
LINE
  5
344
100
AcDbEntity
  8
M0
100
AcDbLine
 10
221.666738
 20
1079.432507
 11
215.466739
 21
1079.432507
  0
LINE
  5
345
100
AcDbEntity
  8
M0
100
AcDbLine
 10
214.466739
 20
1078.432507
 11
214.466739
 21
1070.832509
  0
ARC
  5
346
100
AcDbEntity
  8
M0
100
AcDbCircle
 10
215.466739
 20
1078.432507
 40
1.0
100
AcDbArc
 50
90.0
 51
180.000055
  0
LINE
  5
347
100
AcDbEntity
  8
M0
100
AcDbLine
 10
220.096437
 20
1073.10281
 11
216.963775
 21
1076.235471
  0
LINE
  5
348
100
AcDbEntity
  8
M0
100
AcDbLine
 10
216.4688
 20
1073.524519
 11
219.601462
 21
1076.657181
  0
LINE
  5
349
100
AcDbEntity
  8
M0
100
AcDbLine
 10
217.458749
 20
1072.53457
 11
220.591411
 21
1075.667231
  0
LINE
  5
34A
100
AcDbEntity
  8
M0
  6
DASHDOT
100
AcDbLine
 10
223.066739
 20
1074.632511
 11
214.066739
 21
1074.632505
  0
LINE
  5
34B
100
AcDbEntity
  8
M0
  6
DASHDOT
100
AcDbLine
 10
218.566741
 20
1070.132508
 11
218.566736
 21
1079.132508
  0
CIRCLE
  5
34C
100
AcDbEntity
  8
M0
100
AcDbCircle
 10
431.466768
 20
1074.632508
 40
3.5
  0
ARC
  5
34D
100
AcDbEntity
  8
M0
100
AcDbCircle
 10
434.566767
 20
1070.832509
 40
1.0
100
AcDbArc
 50
-90.0
 51
0.0
  0
LINE
  5
34E
100
AcDbEntity
  8
M0
100
AcDbLine
 10
434.566767
 20
1069.832509
 11
428.366768
 21
1069.832509
  0
ARC
  5
34F
100
AcDbEntity
  8
M0
100
AcDbCircle
 10
428.366768
 20
1070.832509
 40
1.0
100
AcDbArc
 50
180.0
 51
270.0
  0
LINE
  5
350
100
AcDbEntity
  8
M0
100
AcDbLine
 10
427.366768
 20
1070.832509
 11
427.366768
 21
1078.432507
  0
ARC
  5
351
100
AcDbEntity
  8
M0
100
AcDbCircle
 10
428.366768
 20
1078.432507
 40
1.0
100
AcDbArc
 50
90.0
 51
180.0
  0
LINE
  5
352
100
AcDbEntity
  8
M0
100
AcDbLine
 10
428.366768
 20
1079.432507
 11
434.566767
 21
1079.432507
  0
LINE
  5
353
100
AcDbEntity
  8
M0
100
AcDbLine
 10
435.566767
 20
1078.432507
 11
435.566767
 21
1070.832509
  0
ARC
  5
354
100
AcDbEntity
  8
M0
100
AcDbCircle
 10
434.566767
 20
1078.432507
 40
1.0
100
AcDbArc
 50
-5.464157E-005
 51
90.0
  0
LINE
  5
355
100
AcDbEntity
  8
M0
100
AcDbLine
 10
429.937069
 20
1073.10281
 11
433.069731
 21
1076.235471
  0
LINE
  5
356
100
AcDbEntity
  8
M0
100
AcDbLine
 10
433.564706
 20
1073.524519
 11
430.432044
 21
1076.657181
  0
LINE
  5
357
100
AcDbEntity
  8
M0
100
AcDbLine
 10
432.574757
 20
1072.53457
 11
429.442095
 21
1075.667231
  0
LINE
  5
358
100
AcDbEntity
  8
M0
  6
DASHDOT
100
AcDbLine
 10
426.966768
 20
1074.632511
 11
435.966768
 21
1074.632505
  0
LINE
  5
359
100
AcDbEntity
  8
M0
  6
DASHDOT
100
AcDbLine
 10
431.466765
 20
1070.132508
 11
431.46677
 21
1079.132508
  0
CIRCLE
  5
35A
100
AcDbEntity
  8
M0
100
AcDbCircle
 10
446.366744
 20
1074.632503
 40
3.5
  0
ARC
  5
35B
100
AcDbEntity
  8
M0
100
AcDbCircle
 10
443.266742
 20
1070.832506
 40
1.0
100
AcDbArc
 50
179.999964
 51
270.0
  0
LINE
  5
35C
100
AcDbEntity
  8
M0
100
AcDbLine
 10
443.266741
 20
1069.832506
 11
449.46674
 21
1069.832502
  0
ARC
  5
35D
100
AcDbEntity
  8
M0
100
AcDbCircle
 10
449.466741
 20
1070.832502
 40
1.0
100
AcDbArc
 50
270.0
 51
359.999964
  0
LINE
  5
35E
100
AcDbEntity
  8
M0
100
AcDbLine
 10
450.466741
 20
1070.832502
 11
450.466746
 21
1078.4325
  0
ARC
  5
35F
100
AcDbEntity
  8
M0
100
AcDbCircle
 10
449.466746
 20
1078.432501
 40
1.0
100
AcDbArc
 50
359.999964
 51
450.0
  0
LINE
  5
360
100
AcDbEntity
  8
M0
100
AcDbLine
 10
449.466746
 20
1079.432501
 11
443.266747
 21
1079.432505
  0
LINE
  5
361
100
AcDbEntity
  8
M0
100
AcDbLine
 10
442.266747
 20
1078.432505
 11
442.266742
 21
1070.832507
  0
ARC
  5
362
100
AcDbEntity
  8
M0
100
AcDbCircle
 10
443.266747
 20
1078.432505
 40
1.0
100
AcDbArc
 50
90.0
 51
180.000019
  0
LINE
  5
363
100
AcDbEntity
  8
M0
100
AcDbLine
 10
447.896441
 20
1073.102804
 11
444.763781
 21
1076.235468
  0
LINE
  5
364
100
AcDbEntity
  8
M0
100
AcDbLine
 10
444.268805
 20
1073.524515
 11
447.401468
 21
1076.657175
  0
LINE
  5
365
100
AcDbEntity
  8
M0
100
AcDbLine
 10
445.258753
 20
1072.534566
 11
448.391417
 21
1075.667225
  0
LINE
  5
366
100
AcDbEntity
  8
M0
  6
DASHDOT
100
AcDbLine
 10
450.866744
 20
1074.632503
 11
441.866744
 21
1074.632503
  0
LINE
  5
367
100
AcDbEntity
  8
M0
  6
DASHDOT
100
AcDbLine
 10
446.366744
 20
1070.132503
 11
446.366744
 21
1079.132503
  0
LINE
  5
368
100
AcDbEntity
  8
M0
 62
     7
100
AcDbLine
 10
445.659637
 20
1084.132503
 11
443.563705
 21
1086.228436
  0
LINE
  5
369
100
AcDbEntity
  8
M0
 62
     7
100
AcDbLine
 10
448.462687
 20
1081.329453
 11
446.366744
 21
1083.425397
  0
LINE
  5
36A
100
AcDbEntity
  8
M0
 62
     7
100
AcDbLine
 10
447.073851
 20
1084.132503
 11
449.169794
 21
1082.03656
  0
LINE
  5
36B
100
AcDbEntity
  8
M0
 62
     7
100
AcDbLine
 10
444.270811
 20
1086.935543
 11
446.366744
 21
1084.83961
  0
LINE
  5
36C
100
AcDbEntity
  8
M0
 62
     7
100
AcDbLine
 10
446.366744
 20
1084.83961
 11
447.462794
 21
1085.93566
  0
LINE
  5
36D
100
AcDbEntity
  8
M0
 62
     7
100
AcDbLine
 10
444.563587
 20
1083.036453
 11
445.659637
 21
1084.132503
  0
LINE
  5
36E
100
AcDbEntity
  8
M0
 62
     7
100
AcDbLine
 10
446.366744
 20
1083.425397
 11
445.270694
 21
1082.329347
  0
LINE
  5
36F
100
AcDbEntity
  8
M0
 62
     7
100
AcDbLine
 10
448.169901
 20
1085.228553
 11
447.073851
 21
1084.132503
  0
CIRCLE
  5
370
100
AcDbEntity
  8
M0
 62
     7
100
AcDbCircle
 10
446.366744
 20
1084.132503
 40
3.5
  0
LINE
  5
371
100
AcDbEntity
  8
M0
 62
     7
100
AcDbLine
 10
445.270694
 20
1082.329347
 11
444.563587
 21
1083.036453
  0
LINE
  5
372
100
AcDbEntity
  8
M0
 62
     7
100
AcDbLine
 10
447.462794
 20
1085.93566
 11
448.169901
 21
1085.228553
  0
LINE
  5
373
100
AcDbEntity
  8
M0
 62
     7
100
AcDbLine
 10
432.17388
 20
1084.132508
 11
434.269814
 21
1086.228439
  0
LINE
  5
374
100
AcDbEntity
  8
M0
 62
     7
100
AcDbLine
 10
429.370828
 20
1081.329459
 11
431.466773
 21
1083.425401
  0
LINE
  5
375
100
AcDbEntity
  8
M0
 62
     7
100
AcDbLine
 10
430.759667
 20
1084.132509
 11
428.663722
 21
1082.036567
  0
LINE
  5
376
100
AcDbEntity
  8
M0
 62
     7
100
AcDbLine
 10
433.562708
 20
1086.935546
 11
431.466774
 21
1084.839615
  0
LINE
  5
377
100
AcDbEntity
  8
M0
 62
     7
100
AcDbLine
 10
431.466774
 20
1084.839615
 11
430.370725
 21
1085.935666
  0
LINE
  5
378
100
AcDbEntity
  8
M0
 62
     7
100
AcDbLine
 10
433.26993
 20
1083.036457
 11
432.17388
 21
1084.132508
  0
LINE
  5
379
100
AcDbEntity
  8
M0
 62
     7
100
AcDbLine
 10
431.466773
 20
1083.425401
 11
432.562822
 21
1082.329351
  0
LINE
  5
37A
100
AcDbEntity
  8
M0
 62
     7
100
AcDbLine
 10
429.663617
 20
1085.228559
 11
430.759667
 21
1084.132509
  0
CIRCLE
  5
37B
100
AcDbEntity
  8
M0
 62
     7
100
AcDbCircle
 10
431.466774
 20
1084.132508
 40
3.5
  0
LINE
  5
37C
100
AcDbEntity
  8
M0
 62
     7
100
AcDbLine
 10
432.562822
 20
1082.329351
 11
433.26993
 21
1083.036457
  0
LINE
  5
37D
100
AcDbEntity
  8
M0
 62
     7
100
AcDbLine
 10
430.370725
 20
1085.935666
 11
429.663617
 21
1085.228559
  0
CIRCLE
  5
37E
100
AcDbEntity
  8
M0
100
AcDbCircle
 10
431.466782
 20
1097.132508
 40
3.5
  0
ARC
  5
37F
100
AcDbEntity
  8
M0
100
AcDbCircle
 10
434.566781
 20
1093.332509
 40
1.0
100
AcDbArc
 50
-90.0
 51
0.0
  0
LINE
  5
380
100
AcDbEntity
  8
M0
100
AcDbLine
 10
434.566781
 20
1092.332509
 11
428.366782
 21
1092.332509
  0
ARC
  5
381
100
AcDbEntity
  8
M0
100
AcDbCircle
 10
428.366782
 20
1093.332509
 40
1.0
100
AcDbArc
 50
180.0
 51
270.0
  0
LINE
  5
382
100
AcDbEntity
  8
M0
100
AcDbLine
 10
427.366782
 20
1093.332509
 11
427.366782
 21
1100.932507
  0
ARC
  5
383
100
AcDbEntity
  8
M0
100
AcDbCircle
 10
428.366782
 20
1100.932507
 40
1.0
100
AcDbArc
 50
90.0
 51
180.0
  0
LINE
  5
384
100
AcDbEntity
  8
M0
100
AcDbLine
 10
428.366782
 20
1101.932507
 11
434.566781
 21
1101.932507
  0
LINE
  5
385
100
AcDbEntity
  8
M0
100
AcDbLine
 10
435.566781
 20
1100.932507
 11
435.566781
 21
1093.332509
  0
ARC
  5
386
100
AcDbEntity
  8
M0
100
AcDbCircle
 10
434.566781
 20
1100.932507
 40
1.0
100
AcDbArc
 50
-5.464157E-005
 51
90.0
  0
LINE
  5
387
100
AcDbEntity
  8
M0
100
AcDbLine
 10
429.937083
 20
1095.60281
 11
433.069745
 21
1098.735471
  0
LINE
  5
388
100
AcDbEntity
  8
M0
100
AcDbLine
 10
433.56472
 20
1096.024519
 11
430.432058
 21
1099.157181
  0
LINE
  5
389
100
AcDbEntity
  8
M0
100
AcDbLine
 10
432.574771
 20
1095.03457
 11
429.442109
 21
1098.167231
  0
LINE
  5
38A
100
AcDbEntity
  8
M0
  6
DASHDOT
100
AcDbLine
 10
426.966782
 20
1097.132511
 11
435.966782
 21
1097.132505
  0
LINE
  5
38B
100
AcDbEntity
  8
M0
  6
DASHDOT
100
AcDbLine
 10
431.466779
 20
1092.632508
 11
431.466784
 21
1101.632508
  0
CIRCLE
  5
38C
100
AcDbEntity
  8
M0
100
AcDbCircle
 10
446.366744
 20
1097.132503
 40
3.5
  0
ARC
  5
38D
100
AcDbEntity
  8
M0
100
AcDbCircle
 10
443.266742
 20
1093.332506
 40
1.0
100
AcDbArc
 50
179.999964
 51
270.0
  0
LINE
  5
38E
100
AcDbEntity
  8
M0
100
AcDbLine
 10
443.266741
 20
1092.332506
 11
449.46674
 21
1092.332502
  0
ARC
  5
38F
100
AcDbEntity
  8
M0
100
AcDbCircle
 10
449.466741
 20
1093.332502
 40
1.0
100
AcDbArc
 50
270.0
 51
359.999964
  0
LINE
  5
390
100
AcDbEntity
  8
M0
100
AcDbLine
 10
450.466741
 20
1093.332502
 11
450.466746
 21
1100.9325
  0
ARC
  5
391
100
AcDbEntity
  8
M0
100
AcDbCircle
 10
449.466746
 20
1100.932501
 40
1.0
100
AcDbArc
 50
359.999964
 51
450.0
  0
LINE
  5
392
100
AcDbEntity
  8
M0
100
AcDbLine
 10
449.466746
 20
1101.932501
 11
443.266747
 21
1101.932505
  0
LINE
  5
393
100
AcDbEntity
  8
M0
100
AcDbLine
 10
442.266747
 20
1100.932505
 11
442.266742
 21
1093.332507
  0
ARC
  5
394
100
AcDbEntity
  8
M0
100
AcDbCircle
 10
443.266747
 20
1100.932505
 40
1.0
100
AcDbArc
 50
90.0
 51
180.000019
  0
LINE
  5
395
100
AcDbEntity
  8
M0
100
AcDbLine
 10
447.896441
 20
1095.602804
 11
444.763781
 21
1098.735468
  0
LINE
  5
396
100
AcDbEntity
  8
M0
100
AcDbLine
 10
444.268805
 20
1096.024515
 11
447.401468
 21
1099.157175
  0
LINE
  5
397
100
AcDbEntity
  8
M0
100
AcDbLine
 10
445.258753
 20
1095.034566
 11
448.391417
 21
1098.167225
  0
LINE
  5
398
100
AcDbEntity
  8
M0
  6
DASHDOT
100
AcDbLine
 10
450.866744
 20
1097.132503
 11
441.866744
 21
1097.132503
  0
LINE
  5
399
100
AcDbEntity
  8
M0
  6
DASHDOT
100
AcDbLine
 10
446.366744
 20
1092.632503
 11
446.366744
 21
1101.632503
  0
CIRCLE
  5
39A
100
AcDbEntity
  8
M0
100
AcDbCircle
 10
431.466796
 20
1120.132569
 40
3.5
  0
ARC
  5
39B
100
AcDbEntity
  8
M0
100
AcDbCircle
 10
434.5668
 20
1123.932564
 40
1.0
100
AcDbArc
 50
359.999928
 51
450.0
  0
LINE
  5
39C
100
AcDbEntity
  8
M0
100
AcDbLine
 10
434.566802
 20
1124.932564
 11
428.366803
 21
1124.932572
  0
ARC
  5
39D
100
AcDbEntity
  8
M0
100
AcDbCircle
 10
428.366801
 20
1123.932572
 40
1.0
100
AcDbArc
 50
90.0
 51
179.999928
  0
LINE
  5
39E
100
AcDbEntity
  8
M0
100
AcDbLine
 10
427.366801
 20
1123.932573
 11
427.366792
 21
1116.332575
  0
ARC
  5
39F
100
AcDbEntity
  8
M0
100
AcDbCircle
 10
428.366792
 20
1116.332574
 40
1.0
100
AcDbArc
 50
179.999928
 51
270.0
  0
LINE
  5
3A0
100
AcDbEntity
  8
M0
100
AcDbLine
 10
428.366791
 20
1115.332574
 11
434.56679
 21
1115.332566
  0
LINE
  5
3A1
100
AcDbEntity
  8
M0
100
AcDbLine
 10
435.566791
 20
1116.332565
 11
435.5668
 21
1123.932563
  0
ARC
  5
3A2
100
AcDbEntity
  8
M0
100
AcDbCircle
 10
434.566791
 20
1116.332566
 40
1.0
100
AcDbArc
 50
270.0
 51
359.999983
  0
LINE
  5
3A3
100
AcDbEntity
  8
M0
100
AcDbLine
 10
429.9371
 20
1121.662269
 11
433.069758
 21
1118.529604
  0
LINE
  5
3A4
100
AcDbEntity
  8
M0
100
AcDbLine
 10
433.564736
 20
1121.240556
 11
430.43207
 21
1118.107898
  0
LINE
  5
3A5
100
AcDbEntity
  8
M0
100
AcDbLine
 10
432.574788
 20
1122.230506
 11
429.442122
 21
1119.097848
  0
LINE
  5
3A6
100
AcDbEntity
  8
M0
  6
DASHDOT
100
AcDbLine
 10
426.966796
 20
1120.132572
 11
435.966796
 21
1120.132566
  0
LINE
  5
3A7
100
AcDbEntity
  8
M0
  6
DASHDOT
100
AcDbLine
 10
431.466799
 20
1124.632569
 11
431.466793
 21
1115.632569
  0
CIRCLE
  5
3A8
100
AcDbEntity
  8
M0
100
AcDbCircle
 10
446.366744
 20
1120.132564
 40
3.5
  0
ARC
  5
3A9
100
AcDbEntity
  8
M0
100
AcDbCircle
 10
443.266742
 20
1123.932562
 40
1.0
100
AcDbArc
 50
90.0
 51
180.000036
  0
LINE
  5
3AA
100
AcDbEntity
  8
M0
100
AcDbLine
 10
443.266741
 20
1124.932562
 11
449.46674
 21
1124.932566
  0
ARC
  5
3AB
100
AcDbEntity
  8
M0
100
AcDbCircle
 10
449.466741
 20
1123.932566
 40
1.0
100
AcDbArc
 50
3.597217E-005
 51
90.0
  0
LINE
  5
3AC
100
AcDbEntity
  8
M0
100
AcDbLine
 10
450.466741
 20
1123.932566
 11
450.466746
 21
1116.332568
  0
ARC
  5
3AD
100
AcDbEntity
  8
M0
100
AcDbCircle
 10
449.466746
 20
1116.332567
 40
1.0
100
AcDbArc
 50
-90.0
 51
3.597218E-005
  0
LINE
  5
3AE
100
AcDbEntity
  8
M0
100
AcDbLine
 10
449.466746
 20
1115.332567
 11
443.266747
 21
1115.332563
  0
LINE
  5
3AF
100
AcDbEntity
  8
M0
100
AcDbLine
 10
442.266747
 20
1116.332563
 11
442.266742
 21
1123.932561
  0
ARC
  5
3B0
100
AcDbEntity
  8
M0
100
AcDbCircle
 10
443.266747
 20
1116.332563
 40
1.0
100
AcDbArc
 50
179.999981
 51
270.0
  0
LINE
  5
3B1
100
AcDbEntity
  8
M0
100
AcDbLine
 10
447.896441
 20
1121.662264
 11
444.763781
 21
1118.5296
  0
LINE
  5
3B2
100
AcDbEntity
  8
M0
100
AcDbLine
 10
444.268805
 20
1121.240552
 11
447.401468
 21
1118.107893
  0
LINE
  5
3B3
100
AcDbEntity
  8
M0
100
AcDbLine
 10
445.258753
 20
1122.230502
 11
448.391417
 21
1119.097842
  0
LINE
  5
3B4
100
AcDbEntity
  8
M0
  6
DASHDOT
100
AcDbLine
 10
450.866744
 20
1120.132564
 11
441.866744
 21
1120.132564
  0
LINE
  5
3B5
100
AcDbEntity
  8
M0
  6
DASHDOT
100
AcDbLine
 10
446.366744
 20
1124.632564
 11
446.366744
 21
1115.632564
  0
LINE
  5
3B6
100
AcDbEntity
  8
M0
 62
     7
100
AcDbLine
 10
445.659637
 20
1133.132564
 11
443.563705
 21
1131.036632
  0
LINE
  5
3B7
100
AcDbEntity
  8
M0
 62
     7
100
AcDbLine
 10
448.462687
 20
1135.935614
 11
446.366744
 21
1133.839671
  0
LINE
  5
3B8
100
AcDbEntity
  8
M0
 62
     7
100
AcDbLine
 10
447.073851
 20
1133.132564
 11
449.169794
 21
1135.228508
  0
LINE
  5
3B9
100
AcDbEntity
  8
M0
 62
     7
100
AcDbLine
 10
444.270811
 20
1130.329525
 11
446.366744
 21
1132.425458
  0
LINE
  5
3BA
100
AcDbEntity
  8
M0
 62
     7
100
AcDbLine
 10
446.366744
 20
1132.425458
 11
447.462794
 21
1131.329408
  0
LINE
  5
3BB
100
AcDbEntity
  8
M0
 62
     7
100
AcDbLine
 10
444.563587
 20
1134.228615
 11
445.659637
 21
1133.132564
  0
LINE
  5
3BC
100
AcDbEntity
  8
M0
 62
     7
100
AcDbLine
 10
446.366744
 20
1133.839671
 11
445.270694
 21
1134.935721
  0
LINE
  5
3BD
100
AcDbEntity
  8
M0
 62
     7
100
AcDbLine
 10
448.169901
 20
1132.036514
 11
447.073851
 21
1133.132564
  0
CIRCLE
  5
3BE
100
AcDbEntity
  8
M0
 62
     7
100
AcDbCircle
 10
446.366744
 20
1133.132564
 40
3.5
  0
LINE
  5
3BF
100
AcDbEntity
  8
M0
 62
     7
100
AcDbLine
 10
445.270694
 20
1134.935721
 11
444.563587
 21
1134.228615
  0
LINE
  5
3C0
100
AcDbEntity
  8
M0
 62
     7
100
AcDbLine
 10
447.462794
 20
1131.329408
 11
448.169901
 21
1132.036514
  0
LINE
  5
3C1
100
AcDbEntity
  8
M0
 62
     7
100
AcDbLine
 10
432.173911
 20
1133.132569
 11
434.269842
 21
1131.036635
  0
LINE
  5
3C2
100
AcDbEntity
  8
M0
 62
     7
100
AcDbLine
 10
429.370863
 20
1135.93562
 11
431.466805
 21
1133.839676
  0
LINE
  5
3C3
100
AcDbEntity
  8
M0
 62
     7
100
AcDbLine
 10
430.759697
 20
1133.13257
 11
428.663756
 21
1135.228514
  0
LINE
  5
3C4
100
AcDbEntity
  8
M0
 62
     7
100
AcDbLine
 10
433.562735
 20
1130.329529
 11
431.466804
 21
1132.425462
  0
LINE
  5
3C5
100
AcDbEntity
  8
M0
 62
     7
100
AcDbLine
 10
431.466804
 20
1132.425462
 11
430.370753
 21
1131.329413
  0
LINE
  5
3C6
100
AcDbEntity
  8
M0
 62
     7
100
AcDbLine
 10
433.269962
 20
1134.228618
 11
432.173911
 21
1133.132569
  0
LINE
  5
3C7
100
AcDbEntity
  8
M0
 62
     7
100
AcDbLine
 10
431.466805
 20
1133.839676
 11
432.562855
 21
1134.935725
  0
LINE
  5
3C8
100
AcDbEntity
  8
M0
 62
     7
100
AcDbLine
 10
429.663647
 20
1132.03652
 11
430.759697
 21
1133.13257
  0
CIRCLE
  5
3C9
100
AcDbEntity
  8
M0
 62
     7
100
AcDbCircle
 10
431.466804
 20
1133.132569
 40
3.5
  0
LINE
  5
3CA
100
AcDbEntity
  8
M0
 62
     7
100
AcDbLine
 10
432.562855
 20
1134.935725
 11
433.269962
 21
1134.228618
  0
LINE
  5
3CB
100
AcDbEntity
  8
M0
 62
     7
100
AcDbLine
 10
430.370753
 20
1131.329413
 11
429.663647
 21
1132.03652
  0
CIRCLE
  5
3CC
100
AcDbEntity
  8
M0
100
AcDbCircle
 10
431.46681
 20
1142.632569
 40
3.5
  0
ARC
  5
3CD
100
AcDbEntity
  8
M0
100
AcDbCircle
 10
434.566814
 20
1146.432564
 40
1.0
100
AcDbArc
 50
359.999928
 51
450.0
  0
LINE
  5
3CE
100
AcDbEntity
  8
M0
100
AcDbLine
 10
434.566816
 20
1147.432564
 11
428.366817
 21
1147.432572
  0
ARC
  5
3CF
100
AcDbEntity
  8
M0
100
AcDbCircle
 10
428.366816
 20
1146.432572
 40
1.0
100
AcDbArc
 50
90.0
 51
179.999928
  0
LINE
  5
3D0
100
AcDbEntity
  8
M0
100
AcDbLine
 10
427.366816
 20
1146.432573
 11
427.366806
 21
1138.832575
  0
ARC
  5
3D1
100
AcDbEntity
  8
M0
100
AcDbCircle
 10
428.366806
 20
1138.832574
 40
1.0
100
AcDbArc
 50
179.999928
 51
270.0
  0
LINE
  5
3D2
100
AcDbEntity
  8
M0
100
AcDbLine
 10
428.366805
 20
1137.832574
 11
434.566804
 21
1137.832566
  0
LINE
  5
3D3
100
AcDbEntity
  8
M0
100
AcDbLine
 10
435.566805
 20
1138.832565
 11
435.566814
 21
1146.432563
  0
ARC
  5
3D4
100
AcDbEntity
  8
M0
100
AcDbCircle
 10
434.566805
 20
1138.832566
 40
1.0
100
AcDbArc
 50
270.0
 51
359.999983
  0
LINE
  5
3D5
100
AcDbEntity
  8
M0
100
AcDbLine
 10
429.937114
 20
1144.162269
 11
433.069772
 21
1141.029604
  0
LINE
  5
3D6
100
AcDbEntity
  8
M0
100
AcDbLine
 10
433.56475
 20
1143.740556
 11
430.432084
 21
1140.607898
  0
LINE
  5
3D7
100
AcDbEntity
  8
M0
100
AcDbLine
 10
432.574802
 20
1144.730506
 11
429.442136
 21
1141.597848
  0
LINE
  5
3D8
100
AcDbEntity
  8
M0
  6
DASHDOT
100
AcDbLine
 10
426.96681
 20
1142.632572
 11
435.96681
 21
1142.632566
  0
LINE
  5
3D9
100
AcDbEntity
  8
M0
  6
DASHDOT
100
AcDbLine
 10
431.466813
 20
1147.132569
 11
431.466807
 21
1138.132569
  0
CIRCLE
  5
3DA
100
AcDbEntity
  8
M0
100
AcDbCircle
 10
446.366744
 20
1142.632564
 40
3.5
  0
ARC
  5
3DB
100
AcDbEntity
  8
M0
100
AcDbCircle
 10
443.266742
 20
1146.432562
 40
1.0
100
AcDbArc
 50
90.0
 51
180.000036
  0
LINE
  5
3DC
100
AcDbEntity
  8
M0
100
AcDbLine
 10
443.266741
 20
1147.432562
 11
449.46674
 21
1147.432566
  0
ARC
  5
3DD
100
AcDbEntity
  8
M0
100
AcDbCircle
 10
449.466741
 20
1146.432566
 40
1.0
100
AcDbArc
 50
3.597217E-005
 51
90.0
  0
LINE
  5
3DE
100
AcDbEntity
  8
M0
100
AcDbLine
 10
450.466741
 20
1146.432566
 11
450.466746
 21
1138.832568
  0
ARC
  5
3DF
100
AcDbEntity
  8
M0
100
AcDbCircle
 10
449.466746
 20
1138.832567
 40
1.0
100
AcDbArc
 50
-90.0
 51
3.597218E-005
  0
LINE
  5
3E0
100
AcDbEntity
  8
M0
100
AcDbLine
 10
449.466746
 20
1137.832567
 11
443.266747
 21
1137.832563
  0
LINE
  5
3E1
100
AcDbEntity
  8
M0
100
AcDbLine
 10
442.266747
 20
1138.832563
 11
442.266742
 21
1146.432561
  0
ARC
  5
3E2
100
AcDbEntity
  8
M0
100
AcDbCircle
 10
443.266747
 20
1138.832563
 40
1.0
100
AcDbArc
 50
179.999981
 51
270.0
  0
LINE
  5
3E3
100
AcDbEntity
  8
M0
100
AcDbLine
 10
447.896441
 20
1144.162264
 11
444.763781
 21
1141.0296
  0
LINE
  5
3E4
100
AcDbEntity
  8
M0
100
AcDbLine
 10
444.268805
 20
1143.740552
 11
447.401468
 21
1140.607893
  0
LINE
  5
3E5
100
AcDbEntity
  8
M0
100
AcDbLine
 10
445.258753
 20
1144.730502
 11
448.391417
 21
1141.597842
  0
LINE
  5
3E6
100
AcDbEntity
  8
M0
  6
DASHDOT
100
AcDbLine
 10
450.866744
 20
1142.632564
 11
441.866744
 21
1142.632564
  0
LINE
  5
3E7
100
AcDbEntity
  8
M0
  6
DASHDOT
100
AcDbLine
 10
446.366744
 20
1147.132564
 11
446.366744
 21
1138.132564
  0
LINE
  5
3E8
100
AcDbEntity
  8
M0
 62
   114
100
AcDbLine
 10
234.72386
 20
1178.632534
 11
236.819792
 21
1180.728466
  0
LINE
  5
3E9
100
AcDbEntity
  8
M0
 62
   114
100
AcDbLine
 10
231.92081
 20
1175.829484
 11
234.016753
 21
1177.925427
  0
LINE
  5
3EA
100
AcDbEntity
  8
M0
 62
   114
100
AcDbLine
 10
233.309646
 20
1178.632534
 11
231.213703
 21
1176.536591
  0
LINE
  5
3EB
100
AcDbEntity
  8
M0
 62
   114
100
AcDbLine
 10
236.112686
 20
1181.435573
 11
234.016753
 21
1179.339641
  0
LINE
  5
3EC
100
AcDbEntity
  8
M0
 62
   114
100
AcDbLine
 10
234.016753
 20
1179.339641
 11
232.920703
 21
1180.435691
  0
LINE
  5
3ED
100
AcDbEntity
  8
M0
 62
   114
100
AcDbLine
 10
235.81991
 20
1177.536484
 11
234.72386
 21
1178.632534
  0
LINE
  5
3EE
100
AcDbEntity
  8
M0
 62
   114
100
AcDbLine
 10
234.016753
 20
1177.925427
 11
235.112803
 21
1176.829377
  0
LINE
  5
3EF
100
AcDbEntity
  8
M0
 62
   114
100
AcDbLine
 10
232.213596
 20
1179.728584
 11
233.309646
 21
1178.632534
  0
CIRCLE
  5
3F0
100
AcDbEntity
  8
M0
 62
   114
100
AcDbCircle
 10
234.016753
 20
1178.632534
 40
3.5
  0
LINE
  5
3F1
100
AcDbEntity
  8
M0
 62
   114
100
AcDbLine
 10
235.112803
 20
1176.829377
 11
235.81991
 21
1177.536484
  0
LINE
  5
3F2
100
AcDbEntity
  8
M0
 62
   114
100
AcDbLine
 10
232.920703
 20
1180.435691
 11
232.213596
 21
1179.728584
  0
CIRCLE
  5
3F3
100
AcDbEntity
  8
M0
 62
   114
100
AcDbCircle
 10
234.016753
 20
1178.632534
 40
4.0
  0
LINE
  5
3F4
100
AcDbEntity
  8
M0
 62
   114
100
AcDbLine
 10
237.72386
 20
1038.632534
 11
239.819792
 21
1040.728466
  0
LINE
  5
3F5
100
AcDbEntity
  8
M0
 62
   114
100
AcDbLine
 10
234.92081
 20
1035.829484
 11
237.016753
 21
1037.925427
  0
LINE
  5
3F6
100
AcDbEntity
  8
M0
 62
   114
100
AcDbLine
 10
236.309646
 20
1038.632534
 11
234.213703
 21
1036.536591
  0
LINE
  5
3F7
100
AcDbEntity
  8
M0
 62
   114
100
AcDbLine
 10
239.112686
 20
1041.435573
 11
237.016753
 21
1039.339641
  0
LINE
  5
3F8
100
AcDbEntity
  8
M0
 62
   114
100
AcDbLine
 10
237.016753
 20
1039.339641
 11
235.920703
 21
1040.435691
  0
LINE
  5
3F9
100
AcDbEntity
  8
M0
 62
   114
100
AcDbLine
 10
238.81991
 20
1037.536484
 11
237.72386
 21
1038.632534
  0
LINE
  5
3FA
100
AcDbEntity
  8
M0
 62
   114
100
AcDbLine
 10
237.016753
 20
1037.925427
 11
238.112803
 21
1036.829377
  0
LINE
  5
3FB
100
AcDbEntity
  8
M0
 62
   114
100
AcDbLine
 10
235.213596
 20
1039.728584
 11
236.309646
 21
1038.632534
  0
CIRCLE
  5
3FC
100
AcDbEntity
  8
M0
 62
   114
100
AcDbCircle
 10
237.016753
 20
1038.632534
 40
3.5
  0
LINE
  5
3FD
100
AcDbEntity
  8
M0
 62
   114
100
AcDbLine
 10
238.112803
 20
1036.829377
 11
238.81991
 21
1037.536484
  0
LINE
  5
3FE
100
AcDbEntity
  8
M0
 62
   114
100
AcDbLine
 10
235.920703
 20
1040.435691
 11
235.213596
 21
1039.728584
  0
CIRCLE
  5
3FF
100
AcDbEntity
  8
M0
 62
   114
100
AcDbCircle
 10
237.016753
 20
1038.632534
 40
4.0
  0
LINE
  5
400
100
AcDbEntity
  8
M0
 62
   114
100
AcDbLine
 10
413.72386
 20
1038.632534
 11
415.819792
 21
1040.728466
  0
LINE
  5
401
100
AcDbEntity
  8
M0
 62
   114
100
AcDbLine
 10
410.92081
 20
1035.829484
 11
413.016753
 21
1037.925427
  0
LINE
  5
402
100
AcDbEntity
  8
M0
 62
   114
100
AcDbLine
 10
412.309646
 20
1038.632534
 11
410.213703
 21
1036.536591
  0
LINE
  5
403
100
AcDbEntity
  8
M0
 62
   114
100
AcDbLine
 10
415.112686
 20
1041.435573
 11
413.016753
 21
1039.339641
  0
LINE
  5
404
100
AcDbEntity
  8
M0
 62
   114
100
AcDbLine
 10
413.016753
 20
1039.339641
 11
411.920703
 21
1040.435691
  0
LINE
  5
405
100
AcDbEntity
  8
M0
 62
   114
100
AcDbLine
 10
414.81991
 20
1037.536484
 11
413.72386
 21
1038.632534
  0
LINE
  5
406
100
AcDbEntity
  8
M0
 62
   114
100
AcDbLine
 10
413.016753
 20
1037.925427
 11
414.112803
 21
1036.829377
  0
LINE
  5
407
100
AcDbEntity
  8
M0
 62
   114
100
AcDbLine
 10
411.213596
 20
1039.728584
 11
412.309646
 21
1038.632534
  0
CIRCLE
  5
408
100
AcDbEntity
  8
M0
 62
   114
100
AcDbCircle
 10
413.016753
 20
1038.632534
 40
3.5
  0
LINE
  5
409
100
AcDbEntity
  8
M0
 62
   114
100
AcDbLine
 10
414.112803
 20
1036.829377
 11
414.81991
 21
1037.536484
  0
LINE
  5
40A
100
AcDbEntity
  8
M0
 62
   114
100
AcDbLine
 10
411.920703
 20
1040.435691
 11
411.213596
 21
1039.728584
  0
CIRCLE
  5
40B
100
AcDbEntity
  8
M0
 62
   114
100
AcDbCircle
 10
413.016753
 20
1038.632534
 40
4.0
  0
LINE
  5
40C
100
AcDbEntity
  8
M0
 62
   114
100
AcDbLine
 10
416.72386
 20
1178.632534
 11
418.819792
 21
1180.728466
  0
LINE
  5
40D
100
AcDbEntity
  8
M0
 62
   114
100
AcDbLine
 10
413.92081
 20
1175.829484
 11
416.016753
 21
1177.925427
  0
LINE
  5
40E
100
AcDbEntity
  8
M0
 62
   114
100
AcDbLine
 10
415.309646
 20
1178.632534
 11
413.213703
 21
1176.536591
  0
LINE
  5
40F
100
AcDbEntity
  8
M0
 62
   114
100
AcDbLine
 10
418.112686
 20
1181.435573
 11
416.016753
 21
1179.339641
  0
LINE
  5
410
100
AcDbEntity
  8
M0
 62
   114
100
AcDbLine
 10
416.016753
 20
1179.339641
 11
414.920703
 21
1180.435691
  0
LINE
  5
411
100
AcDbEntity
  8
M0
 62
   114
100
AcDbLine
 10
417.81991
 20
1177.536484
 11
416.72386
 21
1178.632534
  0
LINE
  5
412
100
AcDbEntity
  8
M0
 62
   114
100
AcDbLine
 10
416.016753
 20
1177.925427
 11
417.112803
 21
1176.829377
  0
LINE
  5
413
100
AcDbEntity
  8
M0
 62
   114
100
AcDbLine
 10
414.213596
 20
1179.728584
 11
415.309646
 21
1178.632534
  0
CIRCLE
  5
414
100
AcDbEntity
  8
M0
 62
   114
100
AcDbCircle
 10
416.016753
 20
1178.632534
 40
3.5
  0
LINE
  5
415
100
AcDbEntity
  8
M0
 62
   114
100
AcDbLine
 10
417.112803
 20
1176.829377
 11
417.81991
 21
1177.536484
  0
LINE
  5
416
100
AcDbEntity
  8
M0
 62
   114
100
AcDbLine
 10
414.920703
 20
1180.435691
 11
414.213596
 21
1179.728584
  0
CIRCLE
  5
417
100
AcDbEntity
  8
M0
 62
   114
100
AcDbCircle
 10
416.016753
 20
1178.632534
 40
4.0
  0
LINE
  5
418
100
AcDbEntity
  8
M0
100
AcDbLine
 10
461.016382
 20
1034.632534
 11
473.016382
 21
1034.632534
  0
LINE
  5
419
100
AcDbEntity
  8
M0
100
AcDbLine
 10
461.016382
 20
1032.632534
 11
473.016382
 21
1032.632534
  0
LINE
  5
41A
100
AcDbEntity
  8
M0
100
AcDbLine
 10
466.016382
 20
1030.632534
 11
477.416382
 21
1030.632534
  0
LINE
  5
41B
100
AcDbEntity
  8
M0
100
AcDbLine
 10
470.716382
 20
1001.632534
 11
470.716382
 21
1003.132534
  0
LINE
  5
41C
100
AcDbEntity
  8
M0
100
AcDbLine
 10
471.716382
 20
1001.632534
 11
471.716382
 21
1003.132534
  0
LINE
  5
41D
100
AcDbEntity
  8
M0
100
AcDbLine
 10
471.716382
 20
1001.632534
 11
470.716382
 21
1001.632534
  0
LINE
  5
41E
100
AcDbEntity
  8
M0
100
AcDbLine
 10
466.716382
 20
1003.132534
 11
475.716382
 21
1003.132534
  0
LINE
  5
41F
100
AcDbEntity
  8
M0
100
AcDbLine
 10
466.716382
 20
1018.632534
 11
466.716382
 21
1003.132534
  0
LINE
  5
420
100
AcDbEntity
  8
M0
100
AcDbLine
 10
458.016382
 20
1005.632534
 11
466.716382
 21
1005.632534
  0
LINE
  5
421
100
AcDbEntity
  8
M0
100
AcDbLine
 10
477.416382
 20
1018.632534
 11
456.616382
 21
1018.632534
  0
LINE
  5
422
100
AcDbEntity
  8
M0
100
AcDbLine
 10
476.016382
 20
1028.632534
 11
468.016382
 21
1028.632534
  0
LINE
  5
423
100
AcDbEntity
  8
M0
100
AcDbLine
 10
476.016382
 20
1018.632534
 11
476.016382
 21
1028.632534
  0
LINE
  5
424
100
AcDbEntity
  8
M0
100
AcDbLine
 10
468.016382
 20
1018.632534
 11
468.016382
 21
1028.632534
  0
LINE
  5
425
100
AcDbEntity
  8
M0
100
AcDbLine
 10
458.016382
 20
1005.632534
 11
458.016382
 21
1018.632534
  0
LINE
  5
426
100
AcDbEntity
  8
M0
100
AcDbLine
 10
466.016382
 20
1005.632534
 11
466.016382
 21
1018.632534
  0
LINE
  5
427
100
AcDbEntity
  8
M0
100
AcDbLine
 10
468.016382
 20
1019.132534
 11
476.016382
 21
1019.132534
  0
LINE
  5
428
100
AcDbEntity
  8
M0
100
AcDbLine
 10
458.016382
 20
1009.132534
 11
466.016382
 21
1009.132534
  0
LINE
  5
429
100
AcDbEntity
  8
M0
100
AcDbLine
 10
462.016382
 20
1028.132534
 11
466.016382
 21
1028.132534
  0
LINE
  5
42A
100
AcDbEntity
  8
M0
100
AcDbLine
 10
461.016382
 20
1062.632534
 11
477.416382
 21
1062.632534
  0
LINE
  5
42B
100
AcDbEntity
  8
M0
100
AcDbLine
 10
464.480483
 20
1064.632534
 11
477.416382
 21
1064.632534
  0
LINE
  5
42C
100
AcDbEntity
  8
M0
100
AcDbLine
 10
460.966382
 20
1194.732534
 11
459.016382
 21
1194.732534
  0
LINE
  5
42D
100
AcDbEntity
  8
M0
100
AcDbLine
 10
463.066382
 20
1194.732534
 11
463.066382
 21
1209.732534
  0
LINE
  5
42E
100
AcDbEntity
  8
M0
100
AcDbLine
 10
460.966382
 20
1194.732534
 11
460.966382
 21
1209.732534
  0
LINE
  5
42F
100
AcDbEntity
  8
M0
100
AcDbLine
 10
459.016382
 20
1209.732534
 11
459.016382
 21
1194.732534
  0
LINE
  5
430
100
AcDbEntity
  8
M0
100
AcDbLine
 10
465.016382
 20
1194.732534
 11
465.016382
 21
1209.732534
  0
LINE
  5
431
100
AcDbEntity
  8
M0
100
AcDbLine
 10
465.016382
 20
1194.732534
 11
463.066382
 21
1194.732534
  0
LINE
  5
432
100
AcDbEntity
  8
M0
100
AcDbLine
 10
456.616382
 20
1018.632534
 11
456.616382
 21
1065.632533
  0
LINE
  5
433
100
AcDbEntity
  8
M0
100
AcDbLine
 10
458.316382
 20
1209.732534
 11
458.316382
 21
1227.632534
  0
LINE
  5
434
100
AcDbEntity
  8
M0
100
AcDbLine
 10
477.416382
 20
1018.632534
 11
477.416382
 21
1209.732534
  0
LINE
  5
435
100
AcDbEntity
  8
M0
100
AcDbLine
 10
475.716382
 20
1209.732534
 11
475.716382
 21
1227.632534
  0
LINE
  5
436
100
AcDbEntity
  8
M0
100
AcDbLine
 10
477.416382
 20
1209.732534
 11
456.616382
 21
1209.732534
  0
LINE
  5
437
100
AcDbEntity
  8
M0
100
AcDbLine
 10
475.716382
 20
989.632534
 11
475.716382
 21
1018.632534
  0
LINE
  5
438
100
AcDbEntity
  8
M0
100
AcDbLine
 10
458.316382
 20
989.632534
 11
458.316382
 21
1005.632534
  0
LINE
  5
439
100
AcDbEntity
  8
M0
  6
DASHDOT
100
AcDbLine
 10
467.016382
 20
1237.632534
 11
467.016382
 21
979.632534
  0
LINE
  5
43A
100
AcDbEntity
  8
M0
  6
DASHDOT
100
AcDbLine
 10
488.516382
 20
1108.632534
 11
445.516382
 21
1108.632534
  0
LINE
  5
43B
100
AcDbEntity
  8
M0
100
AcDbLine
 10
478.516382
 20
1227.632534
 11
455.516382
 21
1227.632534
  0
LINE
  5
43C
100
AcDbEntity
  8
M0
100
AcDbLine
 10
478.516382
 20
989.632534
 11
478.516382
 21
1227.632534
  0
LINE
  5
43D
100
AcDbEntity
  8
M0
100
AcDbLine
 10
455.516382
 20
989.632534
 11
478.516382
 21
989.632534
  0
LINE
  5
43E
100
AcDbEntity
  8
M0
100
AcDbLine
 10
455.516382
 20
1227.632534
 11
455.516382
 21
1151.632532
  0
ARC
  5
43F
100
AcDbEntity
  8
M0
100
AcDbCircle
 10
465.016382
 20
1210.732534
 40
3.0
100
AcDbArc
 50
90.0
 51
180.0
  0
ARC
  5
440
100
AcDbEntity
  8
M0
100
AcDbCircle
 10
469.016382
 20
1210.732534
 40
3.0
100
AcDbArc
 50
0.0
 51
90.0
  0
LINE
  5
441
100
AcDbEntity
  8
M0
100
AcDbLine
 10
465.016382
 20
1213.732534
 11
469.016382
 21
1213.732534
  0
LINE
  5
442
100
AcDbEntity
  8
M0
100
AcDbLine
 10
462.016382
 20
1210.732534
 11
462.016382
 21
1209.732534
  0
LINE
  5
443
100
AcDbEntity
  8
M0
100
AcDbLine
 10
472.016382
 20
1210.732534
 11
472.016382
 21
1209.732534
  0
LINE
  5
444
100
AcDbEntity
  8
M0
100
AcDbLine
 10
462.016382
 20
1018.632534
 11
462.016382
 21
1028.132534
  0
LINE
  5
445
100
AcDbEntity
  8
M0
100
AcDbLine
 10
466.016382
 20
1030.632534
 11
466.016382
 21
1028.132534
  0
ARC
  5
446
100
AcDbEntity
  8
M0
100
AcDbCircle
 10
461.016382
 20
1033.632534
 40
1.0
100
AcDbArc
 50
180.0
 51
270.0
  0
ARC
  5
447
100
AcDbEntity
  8
M0
100
AcDbCircle
 10
461.016382
 20
1033.632534
 40
1.0
100
AcDbArc
 50
90.0
 51
180.0
  0
ARC
  5
448
100
AcDbEntity
  8
M0
100
AcDbCircle
 10
473.016382
 20
1033.632534
 40
1.0
100
AcDbArc
 50
0.0
 51
90.0
  0
ARC
  5
449
100
AcDbEntity
  8
M0
100
AcDbCircle
 10
473.016382
 20
1033.632534
 40
1.0
100
AcDbArc
 50
270.0
 51
360.0
  0
ARC
  5
44A
100
AcDbEntity
  8
M0
100
AcDbCircle
 10
461.016382
 20
1066.632534
 40
4.0
100
AcDbArc
 50
194.477528
 51
270.0
  0
LINE
  5
44B
100
AcDbEntity
  8
M0
100
AcDbLine
 10
456.616382
 20
1151.632533
 11
456.616382
 21
1209.732534
  0
LINE
  5
44C
100
AcDbEntity
  8
M0
100
AcDbLine
 10
455.516382
 20
1065.632532
 11
455.516382
 21
989.632534
  0
ARC
  5
44D
100
AcDbEntity
  8
M0
100
AcDbCircle
 10
461.016382
 20
1066.632534
 40
4.0
100
AcDbArc
 50
330.0
 51
345.522508
  0
LINE
  5
44E
100
AcDbEntity
  8
M0
100
AcDbLine
 10
468.016382
 20
1064.632534
 11
468.016382
 21
1062.632534
  0
CIRCLE
  5
44F
100
AcDbEntity
  8
M0
100
AcDbCircle
 10
462.016382
 20
1014.132534
 40
3.0
  0
LINE
  5
450
100
AcDbEntity
  8
M0
100
AcDbLine
 10
464.975366
 20
1018.079876
 11
465.791528
 21
1015.432583
  0
LINE
  5
451
100
AcDbEntity
  8
M0
100
AcDbLine
 10
464.975366
 20
1010.185284
 11
465.791528
 21
1012.832608
  0
LINE
  5
452
100
AcDbEntity
  8
M0
100
AcDbLine
 10
459.057886
 20
1018.079891
 11
458.241479
 21
1015.432583
  0
LINE
  5
453
100
AcDbEntity
  8
M0
100
AcDbLine
 10
459.057886
 20
1010.185269
 11
458.241479
 21
1012.832608
  0
LINE
  5
454
100
AcDbEntity
  8
M0
100
AcDbLine
 10
464.497339
 20
1009.832608
 11
459.535669
 21
1009.832608
  0
LINE
  5
455
100
AcDbEntity
  8
M0
100
AcDbLine
 10
458.241479
 20
1012.832608
 11
458.241479
 21
1015.432583
  0
LINE
  5
456
100
AcDbEntity
  8
M0
100
AcDbLine
 10
459.535669
 20
1018.432583
 11
464.497339
 21
1018.432567
  0
LINE
  5
457
100
AcDbEntity
  8
M0
100
AcDbLine
 10
465.791528
 20
1015.432583
 11
465.791528
 21
1012.832608
  0
LINE
  5
458
100
AcDbEntity
  8
M0
  6
DASHDOT
100
AcDbLine
 10
468.291527
 20
1014.132534
 11
455.741479
 21
1014.132534
  0
LINE
  5
459
100
AcDbEntity
  8
M0
100
AcDbLine
 10
460.425806
 20
1012.541715
 11
463.607446
 21
1015.723476
  0
LINE
  5
45A
100
AcDbEntity
  8
M0
100
AcDbLine
 10
461.66311
 20
1015.546718
 11
463.430688
 21
1013.779018
  0
LINE
  5
45B
100
AcDbEntity
  8
M0
100
AcDbLine
 10
460.602563
 20
1014.48605
 11
462.370142
 21
1012.718472
  0
ARC
  5
45C
100
AcDbEntity
  8
M0
100
AcDbCircle
 10
464.497339
 20
1017.932567
 40
0.5
100
AcDbArc
 50
17.127146
 51
90.0
  0
ARC
  5
45D
100
AcDbEntity
  8
M0
100
AcDbCircle
 10
464.497339
 20
1010.332608
 40
0.5
100
AcDbArc
 50
270.0
 51
342.871263
  0
ARC
  5
45E
100
AcDbEntity
  8
M0
100
AcDbCircle
 10
459.535669
 20
1010.332608
 40
0.5
100
AcDbArc
 50
197.138555
 51
270.0
  0
ARC
  5
45F
100
AcDbEntity
  8
M0
100
AcDbCircle
 10
459.535669
 20
1017.932567
 40
0.5
100
AcDbArc
 50
90.0
 51
162.862931
  0
LINE
  5
460
100
AcDbEntity
  8
M0
  6
DASHDOT
100
AcDbLine
 10
462.016382
 20
1007.332623
 11
462.016382
 21
1021.507932
  0
CIRCLE
  5
461
100
AcDbEntity
  8
M0
100
AcDbCircle
 10
472.016382
 20
1024.132534
 40
3.0
  0
LINE
  5
462
100
AcDbEntity
  8
M0
100
AcDbLine
 10
474.975366
 20
1028.079876
 11
475.791528
 21
1025.432583
  0
LINE
  5
463
100
AcDbEntity
  8
M0
100
AcDbLine
 10
474.975366
 20
1020.185284
 11
475.791528
 21
1022.832608
  0
LINE
  5
464
100
AcDbEntity
  8
M0
100
AcDbLine
 10
469.057886
 20
1028.079891
 11
468.241479
 21
1025.432583
  0
LINE
  5
465
100
AcDbEntity
  8
M0
100
AcDbLine
 10
469.057886
 20
1020.185269
 11
468.241479
 21
1022.832608
  0
LINE
  5
466
100
AcDbEntity
  8
M0
100
AcDbLine
 10
474.497339
 20
1019.832608
 11
469.535669
 21
1019.832608
  0
LINE
  5
467
100
AcDbEntity
  8
M0
100
AcDbLine
 10
468.241479
 20
1022.832608
 11
468.241479
 21
1025.432583
  0
LINE
  5
468
100
AcDbEntity
  8
M0
100
AcDbLine
 10
469.535669
 20
1028.432583
 11
474.497339
 21
1028.432567
  0
LINE
  5
469
100
AcDbEntity
  8
M0
100
AcDbLine
 10
475.791528
 20
1025.432583
 11
475.791528
 21
1022.832608
  0
LINE
  5
46A
100
AcDbEntity
  8
M0
  6
DASHDOT
100
AcDbLine
 10
478.291527
 20
1024.132534
 11
465.741479
 21
1024.132534
  0
LINE
  5
46B
100
AcDbEntity
  8
M0
100
AcDbLine
 10
470.425806
 20
1022.541715
 11
473.607446
 21
1025.723476
  0
LINE
  5
46C
100
AcDbEntity
  8
M0
100
AcDbLine
 10
471.66311
 20
1025.546718
 11
473.430688
 21
1023.779018
  0
LINE
  5
46D
100
AcDbEntity
  8
M0
100
AcDbLine
 10
470.602563
 20
1024.48605
 11
472.370142
 21
1022.718472
  0
ARC
  5
46E
100
AcDbEntity
  8
M0
100
AcDbCircle
 10
474.497339
 20
1027.932567
 40
0.5
100
AcDbArc
 50
17.127146
 51
90.0
  0
ARC
  5
46F
100
AcDbEntity
  8
M0
100
AcDbCircle
 10
474.497339
 20
1020.332608
 40
0.5
100
AcDbArc
 50
270.0
 51
342.871263
  0
ARC
  5
470
100
AcDbEntity
  8
M0
100
AcDbCircle
 10
469.535669
 20
1020.332608
 40
0.5
100
AcDbArc
 50
197.138555
 51
270.0
  0
ARC
  5
471
100
AcDbEntity
  8
M0
100
AcDbCircle
 10
469.535669
 20
1027.932567
 40
0.5
100
AcDbArc
 50
90.0
 51
162.862931
  0
LINE
  5
472
100
AcDbEntity
  8
M0
  6
DASHDOT
100
AcDbLine
 10
472.016382
 20
1017.332623
 11
472.016382
 21
1031.507932
  0
LINE
  5
473
100
AcDbEntity
  8
M0
 62
     6
100
AcDbLine
 10
395.016753
 20
955.682552
 11
385.533843
 21
961.157558
  0
LINE
  5
474
100
AcDbEntity
  8
M0
 62
     6
100
AcDbLine
 10
385.533843
 20
961.157558
 11
385.533843
 21
972.10754
  0
LINE
  5
475
100
AcDbEntity
  8
M0
 62
     6
100
AcDbLine
 10
385.533843
 20
972.10754
 11
395.016753
 21
977.582546
  0
LINE
  5
476
100
AcDbEntity
  8
M0
 62
     6
100
AcDbLine
 10
395.016753
 20
977.582546
 11
404.499907
 21
972.10754
  0
LINE
  5
477
100
AcDbEntity
  8
M0
 62
     6
100
AcDbLine
 10
404.499907
 20
972.10754
 11
404.499907
 21
961.157528
  0
LINE
  5
478
100
AcDbEntity
  8
M0
 62
     6
100
AcDbLine
 10
404.499907
 20
961.157528
 11
395.016753
 21
955.682552
  0
CIRCLE
  5
479
100
AcDbEntity
  8
M0
 62
     6
100
AcDbCircle
 10
395.016753
 20
966.632534
 40
6.0
  0
CIRCLE
  5
47A
100
AcDbEntity
  8
M0
 62
     7
100
AcDbCircle
 10
395.016753
 20
966.632599
 40
10.75
  0
CIRCLE
  5
47B
100
AcDbEntity
  8
M0
 62
     2
100
AcDbCircle
 10
395.016753
 20
966.632599
 40
13.0
  0
LINE
  5
47C
100
AcDbEntity
  8
M0
 62
     6
100
AcDbLine
 10
325.016753
 20
955.682487
 11
315.533843
 21
961.157493
  0
LINE
  5
47D
100
AcDbEntity
  8
M0
 62
     6
100
AcDbLine
 10
315.533843
 20
961.157493
 11
315.533843
 21
972.107475
  0
LINE
  5
47E
100
AcDbEntity
  8
M0
 62
     6
100
AcDbLine
 10
315.533843
 20
972.107475
 11
325.016753
 21
977.582481
  0
LINE
  5
47F
100
AcDbEntity
  8
M0
 62
     6
100
AcDbLine
 10
325.016753
 20
977.582481
 11
334.499907
 21
972.107475
  0
LINE
  5
480
100
AcDbEntity
  8
M0
 62
     6
100
AcDbLine
 10
334.499907
 20
972.107475
 11
334.499907
 21
961.157463
  0
LINE
  5
481
100
AcDbEntity
  8
M0
 62
     6
100
AcDbLine
 10
334.499907
 20
961.157463
 11
325.016753
 21
955.682487
  0
CIRCLE
  5
482
100
AcDbEntity
  8
M0
 62
     6
100
AcDbCircle
 10
325.016753
 20
966.632469
 40
6.0
  0
CIRCLE
  5
483
100
AcDbEntity
  8
M0
 62
     7
100
AcDbCircle
 10
325.016753
 20
966.632534
 40
10.75
  0
CIRCLE
  5
484
100
AcDbEntity
  8
M0
 62
     2
100
AcDbCircle
 10
325.016753
 20
966.632534
 40
13.0
  0
LINE
  5
485
100
AcDbEntity
  8
M0
 62
     6
100
AcDbLine
 10
255.016753
 20
955.682487
 11
245.533843
 21
961.157493
  0
LINE
  5
486
100
AcDbEntity
  8
M0
 62
     6
100
AcDbLine
 10
245.533843
 20
961.157493
 11
245.533843
 21
972.107475
  0
LINE
  5
487
100
AcDbEntity
  8
M0
 62
     6
100
AcDbLine
 10
245.533843
 20
972.107475
 11
255.016753
 21
977.582481
  0
LINE
  5
488
100
AcDbEntity
  8
M0
 62
     6
100
AcDbLine
 10
255.016753
 20
977.582481
 11
264.499907
 21
972.107475
  0
LINE
  5
489
100
AcDbEntity
  8
M0
 62
     6
100
AcDbLine
 10
264.499907
 20
972.107475
 11
264.499907
 21
961.157463
  0
LINE
  5
48A
100
AcDbEntity
  8
M0
 62
     6
100
AcDbLine
 10
264.499907
 20
961.157463
 11
255.016753
 21
955.682487
  0
CIRCLE
  5
48B
100
AcDbEntity
  8
M0
 62
     6
100
AcDbCircle
 10
255.016753
 20
966.632469
 40
6.0
  0
CIRCLE
  5
48C
100
AcDbEntity
  8
M0
 62
     7
100
AcDbCircle
 10
255.016753
 20
966.632534
 40
10.75
  0
CIRCLE
  5
48D
100
AcDbEntity
  8
M0
 62
     2
100
AcDbCircle
 10
255.016753
 20
966.632534
 40
13.0
  0
LINE
  5
48E
100
AcDbEntity
  8
M0
 62
     6
100
AcDbLine
 10
395.016689
 20
1239.682487
 11
385.533779
 21
1245.157493
  0
LINE
  5
48F
100
AcDbEntity
  8
M0
 62
     6
100
AcDbLine
 10
385.533779
 20
1245.157493
 11
385.533779
 21
1256.107475
  0
LINE
  5
490
100
AcDbEntity
  8
M0
 62
     6
100
AcDbLine
 10
385.533779
 20
1256.107475
 11
395.016689
 21
1261.582481
  0
LINE
  5
491
100
AcDbEntity
  8
M0
 62
     6
100
AcDbLine
 10
395.016689
 20
1261.582481
 11
404.499844
 21
1256.107475
  0
LINE
  5
492
100
AcDbEntity
  8
M0
 62
     6
100
AcDbLine
 10
404.499844
 20
1256.107475
 11
404.499844
 21
1245.157463
  0
LINE
  5
493
100
AcDbEntity
  8
M0
 62
     6
100
AcDbLine
 10
404.499844
 20
1245.157463
 11
395.016689
 21
1239.682487
  0
CIRCLE
  5
494
100
AcDbEntity
  8
M0
 62
     6
100
AcDbCircle
 10
395.016689
 20
1250.632469
 40
6.0
  0
CIRCLE
  5
495
100
AcDbEntity
  8
M0
 62
     7
100
AcDbCircle
 10
395.016689
 20
1250.632534
 40
10.75
  0
CIRCLE
  5
496
100
AcDbEntity
  8
M0
 62
     2
100
AcDbCircle
 10
395.016689
 20
1250.632534
 40
13.0
  0
LINE
  5
497
100
AcDbEntity
  8
M0
 62
     6
100
AcDbLine
 10
325.016689
 20
1239.682487
 11
315.533779
 21
1245.157493
  0
LINE
  5
498
100
AcDbEntity
  8
M0
 62
     6
100
AcDbLine
 10
315.533779
 20
1245.157493
 11
315.533779
 21
1256.107475
  0
LINE
  5
499
100
AcDbEntity
  8
M0
 62
     6
100
AcDbLine
 10
315.533779
 20
1256.107475
 11
325.016689
 21
1261.582481
  0
LINE
  5
49A
100
AcDbEntity
  8
M0
 62
     6
100
AcDbLine
 10
325.016689
 20
1261.582481
 11
334.499844
 21
1256.107475
  0
LINE
  5
49B
100
AcDbEntity
  8
M0
 62
     6
100
AcDbLine
 10
334.499844
 20
1256.107475
 11
334.499844
 21
1245.157463
  0
LINE
  5
49C
100
AcDbEntity
  8
M0
 62
     6
100
AcDbLine
 10
334.499844
 20
1245.157463
 11
325.016689
 21
1239.682487
  0
CIRCLE
  5
49D
100
AcDbEntity
  8
M0
 62
     6
100
AcDbCircle
 10
325.016689
 20
1250.632469
 40
6.0
  0
CIRCLE
  5
49E
100
AcDbEntity
  8
M0
 62
     7
100
AcDbCircle
 10
325.016689
 20
1250.632534
 40
10.75
  0
CIRCLE
  5
49F
100
AcDbEntity
  8
M0
 62
     2
100
AcDbCircle
 10
325.016689
 20
1250.632534
 40
13.0
  0
LINE
  5
4A0
100
AcDbEntity
  8
M0
 62
     6
100
AcDbLine
 10
255.016689
 20
1239.682487
 11
245.533779
 21
1245.157493
  0
LINE
  5
4A1
100
AcDbEntity
  8
M0
 62
     6
100
AcDbLine
 10
245.533779
 20
1245.157493
 11
245.533779
 21
1256.107475
  0
LINE
  5
4A2
100
AcDbEntity
  8
M0
 62
     6
100
AcDbLine
 10
245.533779
 20
1256.107475
 11
255.016689
 21
1261.582481
  0
LINE
  5
4A3
100
AcDbEntity
  8
M0
 62
     6
100
AcDbLine
 10
255.016689
 20
1261.582481
 11
264.499844
 21
1256.107475
  0
LINE
  5
4A4
100
AcDbEntity
  8
M0
 62
     6
100
AcDbLine
 10
264.499844
 20
1256.107475
 11
264.499844
 21
1245.157463
  0
LINE
  5
4A5
100
AcDbEntity
  8
M0
 62
     6
100
AcDbLine
 10
264.499844
 20
1245.157463
 11
255.016689
 21
1239.682487
  0
CIRCLE
  5
4A6
100
AcDbEntity
  8
M0
 62
     6
100
AcDbCircle
 10
255.016689
 20
1250.632469
 40
6.0
  0
CIRCLE
  5
4A7
100
AcDbEntity
  8
M0
 62
     7
100
AcDbCircle
 10
255.016689
 20
1250.632534
 40
10.75
  0
CIRCLE
  5
4A8
100
AcDbEntity
  8
M0
 62
     2
100
AcDbCircle
 10
255.016689
 20
1250.632534
 40
13.0
  0
CIRCLE
  5
4A9
100
AcDbEntity
  8
M0
 62
   114
100
AcDbCircle
 10
467.016382
 20
997.632534
 40
4.5
  0
LINE
  5
4AA
100
AcDbEntity
  8
M0
 62
   114
100
AcDbLine
 10
467.864983
 20
997.632469
 11
470.594265
 21
1000.361751
  0
LINE
  5
4AB
100
AcDbEntity
  8
M0
 62
   114
100
AcDbLine
 10
464.287154
 20
994.05464
 11
467.016447
 21
996.783932
  0
LINE
  5
4AC
100
AcDbEntity
  8
M0
 62
   114
100
AcDbLine
 10
466.167964
 20
997.632415
 11
463.438639
 21
994.903091
  0
LINE
  5
4AD
100
AcDbEntity
  8
M0
 62
   114
100
AcDbLine
 10
469.745804
 20
1001.210277
 11
467.016501
 21
998.480952
  0
LINE
  5
4AE
100
AcDbEntity
  8
M0
 62
   114
100
AcDbLine
 10
467.016447
 20
996.783932
 11
468.289273
 21
995.511106
  0
LINE
  5
4AF
100
AcDbEntity
  8
M0
 62
   114
100
AcDbLine
 10
464.895126
 20
998.905253
 11
466.167953
 21
997.632426
  0
LINE
  5
4B0
100
AcDbEntity
  8
M0
 62
   114
100
AcDbLine
 10
467.01649
 20
998.480963
 11
465.743663
 21
999.75379
  0
LINE
  5
4B1
100
AcDbEntity
  8
M0
 62
   114
100
AcDbLine
 10
469.13781
 20
996.359642
 11
467.864983
 21
997.632469
  0
LINE
  5
4B2
100
AcDbEntity
  8
M0
 62
   114
100
AcDbLine
 10
468.289273
 20
995.511106
 11
469.13781
 21
996.359642
  0
LINE
  5
4B3
100
AcDbEntity
  8
M0
 62
   114
100
AcDbLine
 10
465.743663
 20
999.75379
 11
464.895126
 21
998.905253
  0
CIRCLE
  5
4B4
100
AcDbEntity
  8
M0
 62
   114
100
AcDbCircle
 10
467.016382
 20
997.632534
 40
5.0
  0
CIRCLE
  5
4B5
100
AcDbEntity
  8
M0
 62
   114
100
AcDbCircle
 10
467.016382
 20
1219.632534
 40
4.5
  0
LINE
  5
4B6
100
AcDbEntity
  8
M0
 62
   114
100
AcDbLine
 10
467.864983
 20
1219.632469
 11
470.594265
 21
1222.361751
  0
LINE
  5
4B7
100
AcDbEntity
  8
M0
 62
   114
100
AcDbLine
 10
464.287154
 20
1216.05464
 11
467.016447
 21
1218.783932
  0
LINE
  5
4B8
100
AcDbEntity
  8
M0
 62
   114
100
AcDbLine
 10
466.167964
 20
1219.632415
 11
463.438639
 21
1216.903091
  0
LINE
  5
4B9
100
AcDbEntity
  8
M0
 62
   114
100
AcDbLine
 10
469.745804
 20
1223.210277
 11
467.016501
 21
1220.480952
  0
LINE
  5
4BA
100
AcDbEntity
  8
M0
 62
   114
100
AcDbLine
 10
467.016447
 20
1218.783932
 11
468.289273
 21
1217.511106
  0
LINE
  5
4BB
100
AcDbEntity
  8
M0
 62
   114
100
AcDbLine
 10
464.895126
 20
1220.905253
 11
466.167953
 21
1219.632426
  0
LINE
  5
4BC
100
AcDbEntity
  8
M0
 62
   114
100
AcDbLine
 10
467.01649
 20
1220.480963
 11
465.743663
 21
1221.75379
  0
LINE
  5
4BD
100
AcDbEntity
  8
M0
 62
   114
100
AcDbLine
 10
469.13781
 20
1218.359642
 11
467.864983
 21
1219.632469
  0
LINE
  5
4BE
100
AcDbEntity
  8
M0
 62
   114
100
AcDbLine
 10
468.289273
 20
1217.511106
 11
469.13781
 21
1218.359642
  0
LINE
  5
4BF
100
AcDbEntity
  8
M0
 62
   114
100
AcDbLine
 10
465.743663
 20
1221.75379
 11
464.895126
 21
1220.905253
  0
CIRCLE
  5
4C0
100
AcDbEntity
  8
M0
 62
   114
100
AcDbCircle
 10
467.016382
 20
1219.632534
 40
5.0
  0
LINE
  5
4C1
100
AcDbEntity
  8
M0
100
AcDbLine
 10
445.016419
 20
1203.632534
 11
445.016419
 21
1205.032534
  0
LINE
  5
4C2
100
AcDbEntity
  8
M0
100
AcDbLine
 10
445.016419
 20
1205.032534
 11
400.016718
 21
1205.032534
  0
LINE
  5
4C3
100
AcDbEntity
  8
M0
100
AcDbLine
 10
205.016419
 20
1205.032534
 11
205.016419
 21
1203.632534
  0
LINE
  5
4C4
100
AcDbEntity
  8
M0
100
AcDbLine
 10
238.914188
 20
1200.532534
 11
250.016721
 21
1200.532534
  0
LINE
  5
4C5
100
AcDbEntity
  8
M0
100
AcDbLine
 10
250.016718
 20
1205.032534
 11
205.016419
 21
1205.032534
  0
LINE
  5
4C6
100
AcDbEntity
  8
M0
100
AcDbLine
 10
280.016721
 20
1200.532534
 11
286.016477
 21
1200.532534
  0
LINE
  5
4C7
100
AcDbEntity
  8
M0
100
AcDbLine
 10
310.016718
 20
1205.032534
 11
299.016474
 21
1205.032534
  0
LINE
  5
4C8
100
AcDbEntity
  8
M0
100
AcDbLine
 10
340.016721
 20
1200.532534
 11
350.612577
 21
1200.532534
  0
LINE
  5
4C9
100
AcDbEntity
  8
M0
100
AcDbLine
 10
299.420929
 20
1200.532534
 11
310.016721
 21
1200.532534
  0
LINE
  5
4CA
100
AcDbEntity
  8
M0
100
AcDbLine
 10
286.016474
 20
1205.032534
 11
280.016718
 21
1205.032534
  0
LINE
  5
4CB
100
AcDbEntity
  8
M0
100
AcDbLine
 10
351.016474
 20
1205.032534
 11
340.016718
 21
1205.032534
  0
LINE
  5
4CC
100
AcDbEntity
  8
M0
100
AcDbLine
 10
364.016477
 20
1200.532534
 11
370.016721
 21
1200.532534
  0
LINE
  5
4CD
100
AcDbEntity
  8
M0
100
AcDbLine
 10
370.016718
 20
1205.032534
 11
364.016474
 21
1205.032534
  0
LINE
  5
4CE
100
AcDbEntity
  8
M0
100
AcDbLine
 10
400.016721
 20
1200.532534
 11
411.112577
 21
1200.532534
  0
LINE
  5
4CF
100
AcDbEntity
  8
M0
 62
     7
100
AcDbLine
 10
236.016419
 20
1207.632525
 11
236.016419
 21
1211.632525
  0
LINE
  5
4D0
100
AcDbEntity
  8
M0
 62
     7
100
AcDbLine
 10
236.016419
 20
1211.632525
 11
208.016419
 21
1211.632525
  0
LINE
  5
4D1
100
AcDbEntity
  8
M0
 62
     7
100
AcDbLine
 10
208.016419
 20
1211.632525
 11
208.016419
 21
1207.632525
  0
LINE
  5
4D2
100
AcDbEntity
  8
M0
 62
     7
100
AcDbLine
 10
208.016419
 20
1207.632525
 11
236.016419
 21
1207.632525
  0
LINE
  5
4D3
100
AcDbEntity
  8
M0
 62
     7
100
AcDbLine
 10
222.016435
 20
1207.632525
 11
224.325837
 21
1211.632525
  0
LINE
  5
4D4
100
AcDbEntity
  8
M0
 62
     7
100
AcDbLine
 10
219.707032
 20
1207.632525
 11
222.016435
 21
1211.632525
  0
LINE
  5
4D5
100
AcDbEntity
  8
M0
 62
     2
100
AcDbLine
 10
238.016419
 20
1205.032534
 11
238.016419
 21
1207.632525
  0
LINE
  5
4D6
100
AcDbEntity
  8
M0
 62
     2
100
AcDbLine
 10
238.016419
 20
1207.632525
 11
206.016419
 21
1207.632525
  0
LINE
  5
4D7
100
AcDbEntity
  8
M0
 62
     2
100
AcDbLine
 10
206.016419
 20
1207.632525
 11
206.016419
 21
1205.032534
  0
LINE
  5
4D8
100
AcDbEntity
  8
M0
 62
     2
100
AcDbLine
 10
206.016419
 20
1205.032534
 11
238.016419
 21
1205.032534
  0
LINE
  5
4D9
100
AcDbEntity
  8
M0
100
AcDbLine
 10
210.016419
 20
1221.632525
 11
210.016419
 21
1211.632525
  0
LINE
  5
4DA
100
AcDbEntity
  8
M0
100
AcDbLine
 10
210.016419
 20
1221.632525
 11
234.01651
 21
1221.632525
  0
LINE
  5
4DB
100
AcDbEntity
  8
M0
100
AcDbLine
 10
222.016471
 20
1211.632525
 11
222.016465
 21
1221.632525
  0
LINE
  5
4DC
100
AcDbEntity
  8
M0
100
AcDbLine
 10
234.01651
 20
1221.63254
 11
234.016523
 21
1211.63254
  0
LINE
  5
4DD
100
AcDbEntity
  8
M0
100
AcDbLine
 10
440.016507
 20
1221.632669
 11
440.01652
 21
1211.632669
  0
LINE
  5
4DE
100
AcDbEntity
  8
M0
100
AcDbLine
 10
440.016507
 20
1221.632669
 11
416.016416
 21
1221.632639
  0
LINE
  5
4DF
100
AcDbEntity
  8
M0
100
AcDbLine
 10
428.016468
 20
1211.632654
 11
428.016462
 21
1221.632654
  0
LINE
  5
4E0
100
AcDbEntity
  8
M0
100
AcDbLine
 10
416.016416
 20
1221.632654
 11
416.016416
 21
1211.632654
  0
LINE
  5
4E1
100
AcDbEntity
  8
M0
 62
     7
100
AcDbLine
 10
414.016525
 20
1207.632636
 11
414.01652
 21
1211.632636
  0
LINE
  5
4E2
100
AcDbEntity
  8
M0
 62
     7
100
AcDbLine
 10
414.01652
 20
1211.632636
 11
442.01652
 21
1211.632672
  0
LINE
  5
4E3
100
AcDbEntity
  8
M0
 62
     7
100
AcDbLine
 10
442.01652
 20
1211.632672
 11
442.016525
 21
1207.632672
  0
LINE
  5
4E4
100
AcDbEntity
  8
M0
 62
     7
100
AcDbLine
 10
442.016525
 20
1207.632672
 11
414.016525
 21
1207.632636
  0
LINE
  5
4E5
100
AcDbEntity
  8
M0
 62
     7
100
AcDbLine
 10
428.01651
 20
1207.632654
 11
425.707102
 21
1211.632651
  0
LINE
  5
4E6
100
AcDbEntity
  8
M0
 62
     7
100
AcDbLine
 10
430.325912
 20
1207.632657
 11
428.016505
 21
1211.632654
  0
LINE
  5
4E7
100
AcDbEntity
  8
M0
 62
     2
100
AcDbLine
 10
412.016528
 20
1205.032643
 11
412.016525
 21
1207.632634
  0
LINE
  5
4E8
100
AcDbEntity
  8
M0
 62
     2
100
AcDbLine
 10
412.016525
 20
1207.632634
 11
444.016525
 21
1207.632674
  0
LINE
  5
4E9
100
AcDbEntity
  8
M0
 62
     2
100
AcDbLine
 10
444.016525
 20
1207.632674
 11
444.016528
 21
1205.032683
  0
LINE
  5
4EA
100
AcDbEntity
  8
M0
 62
     2
100
AcDbLine
 10
444.016528
 20
1205.032683
 11
412.016528
 21
1205.032643
  0
LINE
  5
4EB
100
AcDbEntity
  8
M0
 62
    74
100
AcDbLine
 10
209.016753
 20
1052.632534
 11
200.016753
 21
1052.632534
  0
LINE
  5
4EC
100
AcDbEntity
  8
M0
 62
    74
100
AcDbLine
 10
208.816753
 20
1023.632534
 11
200.216753
 21
1023.632534
  0
LINE
  5
4ED
100
AcDbEntity
  8
M0
 62
    74
100
AcDbLine
 10
202.016753
 20
1014.632534
 11
202.016753
 21
1012.632534
  0
LINE
  5
4EE
100
AcDbEntity
  8
M0
 62
    74
100
AcDbLine
 10
207.016753
 20
1014.632534
 11
207.016753
 21
1012.632534
  0
LINE
  5
4EF
100
AcDbEntity
  8
M0
 62
    74
100
AcDbLine
 10
200.216753
 20
1028.632534
 11
200.216753
 21
1012.632534
  0
LINE
  5
4F0
100
AcDbEntity
  8
M0
 62
    74
100
AcDbLine
 10
208.816753
 20
1028.632534
 11
208.816753
 21
1012.632534
  0
LINE
  5
4F1
100
AcDbEntity
  8
M0
 62
    74
100
AcDbLine
 10
200.016753
 20
1052.632534
 11
200.016753
 21
1028.632534
  0
LINE
  5
4F2
100
AcDbEntity
  8
M0
 62
    74
100
AcDbLine
 10
209.016753
 20
1028.632534
 11
209.016753
 21
1052.632534
  0
LINE
  5
4F3
100
AcDbEntity
  8
M0
 62
    74
100
AcDbLine
 10
207.016753
 20
1014.632534
 11
202.016753
 21
1014.632534
  0
LINE
  5
4F4
100
AcDbEntity
  8
M0
 62
    74
100
AcDbLine
 10
207.016753
 20
1012.632534
 11
208.816753
 21
1012.632534
  0
LINE
  5
4F5
100
AcDbEntity
  8
M0
 62
    74
100
AcDbLine
 10
200.216753
 20
1012.632534
 11
202.016753
 21
1012.632534
  0
LINE
  5
4F6
100
AcDbEntity
  8
M0
 62
    74
100
AcDbLine
 10
209.016753
 20
1028.632534
 11
208.816753
 21
1028.632534
  0
LINE
  5
4F7
100
AcDbEntity
  8
M0
 62
    74
100
AcDbLine
 10
200.216753
 20
1028.632534
 11
200.016753
 21
1028.632534
  0
CIRCLE
  5
4F8
100
AcDbEntity
  8
M0
 62
    74
100
AcDbCircle
 10
204.516753
 20
1039.632534
 40
2.0
  0
LINE
  5
4F9
100
AcDbEntity
  8
M0
 62
    74
100
AcDbLine
 10
229.016753
 20
1052.632534
 11
220.016753
 21
1052.632534
  0
LINE
  5
4FA
100
AcDbEntity
  8
M0
 62
    74
100
AcDbLine
 10
228.816753
 20
1023.632534
 11
220.216753
 21
1023.632534
  0
LINE
  5
4FB
100
AcDbEntity
  8
M0
 62
    74
100
AcDbLine
 10
222.016753
 20
1014.632534
 11
222.016753
 21
1012.632534
  0
LINE
  5
4FC
100
AcDbEntity
  8
M0
 62
    74
100
AcDbLine
 10
227.016753
 20
1014.632534
 11
227.016753
 21
1012.632534
  0
LINE
  5
4FD
100
AcDbEntity
  8
M0
 62
    74
100
AcDbLine
 10
220.216753
 20
1028.632534
 11
220.216753
 21
1012.632534
  0
LINE
  5
4FE
100
AcDbEntity
  8
M0
 62
    74
100
AcDbLine
 10
228.816753
 20
1028.632534
 11
228.816753
 21
1012.632534
  0
LINE
  5
4FF
100
AcDbEntity
  8
M0
 62
    74
100
AcDbLine
 10
220.016753
 20
1052.632534
 11
220.016753
 21
1028.632534
  0
LINE
  5
500
100
AcDbEntity
  8
M0
 62
    74
100
AcDbLine
 10
229.016753
 20
1028.632534
 11
229.016753
 21
1052.632534
  0
LINE
  5
501
100
AcDbEntity
  8
M0
 62
    74
100
AcDbLine
 10
227.016753
 20
1014.632534
 11
222.016753
 21
1014.632534
  0
LINE
  5
502
100
AcDbEntity
  8
M0
 62
    74
100
AcDbLine
 10
227.016753
 20
1012.632534
 11
228.816753
 21
1012.632534
  0
LINE
  5
503
100
AcDbEntity
  8
M0
 62
    74
100
AcDbLine
 10
220.216753
 20
1012.632534
 11
222.016753
 21
1012.632534
  0
LINE
  5
504
100
AcDbEntity
  8
M0
 62
    74
100
AcDbLine
 10
229.016753
 20
1028.632534
 11
228.816753
 21
1028.632534
  0
LINE
  5
505
100
AcDbEntity
  8
M0
 62
    74
100
AcDbLine
 10
220.216753
 20
1028.632534
 11
220.016753
 21
1028.632534
  0
CIRCLE
  5
506
100
AcDbEntity
  8
M0
 62
    74
100
AcDbCircle
 10
224.516753
 20
1039.632534
 40
2.0
  0
LINE
  5
507
100
AcDbEntity
  8
M0
 62
    74
100
AcDbLine
 10
430.016753
 20
1052.632534
 11
421.016753
 21
1052.632534
  0
LINE
  5
508
100
AcDbEntity
  8
M0
 62
    74
100
AcDbLine
 10
429.816753
 20
1023.632534
 11
421.216753
 21
1023.632534
  0
LINE
  5
509
100
AcDbEntity
  8
M0
 62
    74
100
AcDbLine
 10
423.016753
 20
1014.632534
 11
423.016753
 21
1012.632534
  0
LINE
  5
50A
100
AcDbEntity
  8
M0
 62
    74
100
AcDbLine
 10
428.016753
 20
1014.632534
 11
428.016753
 21
1012.632534
  0
LINE
  5
50B
100
AcDbEntity
  8
M0
 62
    74
100
AcDbLine
 10
421.216753
 20
1028.632534
 11
421.216753
 21
1012.632534
  0
LINE
  5
50C
100
AcDbEntity
  8
M0
 62
    74
100
AcDbLine
 10
429.816753
 20
1028.632534
 11
429.816753
 21
1012.632534
  0
LINE
  5
50D
100
AcDbEntity
  8
M0
 62
    74
100
AcDbLine
 10
421.016753
 20
1052.632534
 11
421.016753
 21
1028.632534
  0
LINE
  5
50E
100
AcDbEntity
  8
M0
 62
    74
100
AcDbLine
 10
430.016753
 20
1028.632534
 11
430.016753
 21
1052.632534
  0
LINE
  5
50F
100
AcDbEntity
  8
M0
 62
    74
100
AcDbLine
 10
428.016753
 20
1014.632534
 11
423.016753
 21
1014.632534
  0
LINE
  5
510
100
AcDbEntity
  8
M0
 62
    74
100
AcDbLine
 10
428.016753
 20
1012.632534
 11
429.816753
 21
1012.632534
  0
LINE
  5
511
100
AcDbEntity
  8
M0
 62
    74
100
AcDbLine
 10
421.216753
 20
1012.632534
 11
423.016753
 21
1012.632534
  0
LINE
  5
512
100
AcDbEntity
  8
M0
 62
    74
100
AcDbLine
 10
430.016753
 20
1028.632534
 11
429.816753
 21
1028.632534
  0
LINE
  5
513
100
AcDbEntity
  8
M0
 62
    74
100
AcDbLine
 10
421.216753
 20
1028.632534
 11
421.016753
 21
1028.632534
  0
CIRCLE
  5
514
100
AcDbEntity
  8
M0
 62
    74
100
AcDbCircle
 10
425.516753
 20
1039.632534
 40
2.0
  0
LINE
  5
515
100
AcDbEntity
  8
M0
 62
   114
100
AcDbLine
 10
205.22386
 20
1018.632534
 11
207.319792
 21
1020.728466
  0
LINE
  5
516
100
AcDbEntity
  8
M0
 62
   114
100
AcDbLine
 10
202.42081
 20
1015.829484
 11
204.516753
 21
1017.925427
  0
LINE
  5
517
100
AcDbEntity
  8
M0
 62
   114
100
AcDbLine
 10
203.809646
 20
1018.632534
 11
201.713703
 21
1016.536591
  0
LINE
  5
518
100
AcDbEntity
  8
M0
 62
   114
100
AcDbLine
 10
206.612686
 20
1021.435573
 11
204.516753
 21
1019.339641
  0
LINE
  5
519
100
AcDbEntity
  8
M0
 62
   114
100
AcDbLine
 10
204.516753
 20
1019.339641
 11
203.420703
 21
1020.435691
  0
LINE
  5
51A
100
AcDbEntity
  8
M0
 62
   114
100
AcDbLine
 10
206.31991
 20
1017.536484
 11
205.22386
 21
1018.632534
  0
LINE
  5
51B
100
AcDbEntity
  8
M0
 62
   114
100
AcDbLine
 10
204.516753
 20
1017.925427
 11
205.612803
 21
1016.829377
  0
LINE
  5
51C
100
AcDbEntity
  8
M0
 62
   114
100
AcDbLine
 10
202.713596
 20
1019.728584
 11
203.809646
 21
1018.632534
  0
CIRCLE
  5
51D
100
AcDbEntity
  8
M0
 62
   114
100
AcDbCircle
 10
204.516753
 20
1018.632534
 40
3.5
  0
LINE
  5
51E
100
AcDbEntity
  8
M0
 62
   114
100
AcDbLine
 10
205.612803
 20
1016.829377
 11
206.31991
 21
1017.536484
  0
LINE
  5
51F
100
AcDbEntity
  8
M0
 62
   114
100
AcDbLine
 10
203.420703
 20
1020.435691
 11
202.713596
 21
1019.728584
  0
LINE
  5
520
100
AcDbEntity
  8
M0
 62
   114
100
AcDbLine
 10
225.22386
 20
1018.632534
 11
227.319792
 21
1020.728466
  0
LINE
  5
521
100
AcDbEntity
  8
M0
 62
   114
100
AcDbLine
 10
222.42081
 20
1015.829484
 11
224.516753
 21
1017.925427
  0
LINE
  5
522
100
AcDbEntity
  8
M0
 62
   114
100
AcDbLine
 10
223.809646
 20
1018.632534
 11
221.713703
 21
1016.536591
  0
LINE
  5
523
100
AcDbEntity
  8
M0
 62
   114
100
AcDbLine
 10
226.612686
 20
1021.435573
 11
224.516753
 21
1019.339641
  0
LINE
  5
524
100
AcDbEntity
  8
M0
 62
   114
100
AcDbLine
 10
224.516753
 20
1019.339641
 11
223.420703
 21
1020.435691
  0
LINE
  5
525
100
AcDbEntity
  8
M0
 62
   114
100
AcDbLine
 10
226.31991
 20
1017.536484
 11
225.22386
 21
1018.632534
  0
LINE
  5
526
100
AcDbEntity
  8
M0
 62
   114
100
AcDbLine
 10
224.516753
 20
1017.925427
 11
225.612803
 21
1016.829377
  0
LINE
  5
527
100
AcDbEntity
  8
M0
 62
   114
100
AcDbLine
 10
222.713596
 20
1019.728584
 11
223.809646
 21
1018.632534
  0
CIRCLE
  5
528
100
AcDbEntity
  8
M0
 62
   114
100
AcDbCircle
 10
224.516753
 20
1018.632534
 40
3.5
  0
LINE
  5
529
100
AcDbEntity
  8
M0
 62
   114
100
AcDbLine
 10
225.612803
 20
1016.829377
 11
226.31991
 21
1017.536484
  0
LINE
  5
52A
100
AcDbEntity
  8
M0
 62
   114
100
AcDbLine
 10
223.420703
 20
1020.435691
 11
222.713596
 21
1019.728584
  0
LINE
  5
52B
100
AcDbEntity
  8
M0
 62
   114
100
AcDbLine
 10
426.22386
 20
1018.632534
 11
428.319792
 21
1020.728466
  0
LINE
  5
52C
100
AcDbEntity
  8
M0
 62
   114
100
AcDbLine
 10
423.42081
 20
1015.829484
 11
425.516753
 21
1017.925427
  0
LINE
  5
52D
100
AcDbEntity
  8
M0
 62
   114
100
AcDbLine
 10
424.809646
 20
1018.632534
 11
422.713703
 21
1016.536591
  0
LINE
  5
52E
100
AcDbEntity
  8
M0
 62
   114
100
AcDbLine
 10
427.612686
 20
1021.435573
 11
425.516753
 21
1019.339641
  0
LINE
  5
52F
100
AcDbEntity
  8
M0
 62
   114
100
AcDbLine
 10
425.516753
 20
1019.339641
 11
424.420703
 21
1020.435691
  0
LINE
  5
530
100
AcDbEntity
  8
M0
 62
   114
100
AcDbLine
 10
427.31991
 20
1017.536484
 11
426.22386
 21
1018.632534
  0
LINE
  5
531
100
AcDbEntity
  8
M0
 62
   114
100
AcDbLine
 10
425.516753
 20
1017.925427
 11
426.612803
 21
1016.829377
  0
LINE
  5
532
100
AcDbEntity
  8
M0
 62
   114
100
AcDbLine
 10
423.713596
 20
1019.728584
 11
424.809646
 21
1018.632534
  0
CIRCLE
  5
533
100
AcDbEntity
  8
M0
 62
   114
100
AcDbCircle
 10
425.516753
 20
1018.632534
 40
3.5
  0
LINE
  5
534
100
AcDbEntity
  8
M0
 62
   114
100
AcDbLine
 10
426.612803
 20
1016.829377
 11
427.31991
 21
1017.536484
  0
LINE
  5
535
100
AcDbEntity
  8
M0
 62
   114
100
AcDbLine
 10
424.420703
 20
1020.435691
 11
423.713596
 21
1019.728584
  0
LINE
  5
536
100
AcDbEntity
  8
M0
 62
     4
100
AcDbLine
 10
477.016378
 20
1151.632539
 11
467.016659
 21
1151.632536
  0
LINE
  5
537
100
AcDbEntity
  8
M0
 62
     4
100
AcDbLine
 10
477.016405
 20
1065.632539
 11
477.016378
 21
1151.632539
  0
LINE
  5
538
100
AcDbEntity
  8
M0
 62
     4
100
AcDbLine
 10
477.016405
 20
1065.632539
 11
467.016686
 21
1065.632536
  0
LINE
  5
539
100
AcDbEntity
  8
M0
 62
     4
100
AcDbLine
 10
670.589043
 20
960.632535
 11
679.588942
 21
960.632535
  0
LINE
  5
53A
100
AcDbEntity
  8
M0
 62
     4
100
AcDbLine
 10
719.58905
 20
972.632515
 11
711.58905
 21
972.63252
  0
LINE
  5
53B
100
AcDbEntity
  8
M0
 62
     4
100
AcDbLine
 10
711.589053
 20
977.595532
 11
711.58904
 21
955.669522
  0
LINE
  5
53C
100
AcDbEntity
  8
M0
 62
     4
100
AcDbLine
 10
711.58904
 20
955.669522
 11
719.58904
 21
955.669517
  0
LINE
  5
53D
100
AcDbEntity
  8
M0
 62
     4
100
AcDbLine
 10
719.58904
 20
955.669517
 11
719.589053
 21
977.595527
  0
LINE
  5
53E
100
AcDbEntity
  8
M0
 62
     4
100
AcDbLine
 10
719.589053
 20
977.595527
 11
711.589053
 21
977.595532
  0
LINE
  5
53F
100
AcDbEntity
  8
M0
 62
     4
100
AcDbLine
 10
670.589043
 20
960.632535
 11
670.58905
 21
972.632535
  0
LINE
  5
540
100
AcDbEntity
  8
M0
 62
     4
100
AcDbLine
 10
679.588935
 20
972.632535
 11
670.58905
 21
972.632535
  0
LINE
  5
541
100
AcDbEntity
  8
M0
 62
     4
100
AcDbLine
 10
711.589043
 20
960.63252
 11
719.589043
 21
960.632515
  0
LINE
  5
542
100
AcDbEntity
  8
M0
  6
DASHDOT
 62
     4
100
AcDbLine
 10
724.588983
 20
966.632569
 11
666.205133
 21
966.632569
  0
LINE
  5
543
100
AcDbEntity
  8
M0
 62
     4
100
AcDbLine
 10
670.588983
 20
1256.632569
 11
686.288959
 21
1256.632569
  0
LINE
  5
544
100
AcDbEntity
  8
M0
 62
     4
100
AcDbLine
 10
719.588983
 20
1244.632569
 11
711.588983
 21
1244.632569
  0
LINE
  5
545
100
AcDbEntity
  8
M0
  6
DASHDOT
 62
     4
100
AcDbLine
 10
724.588983
 20
1250.632569
 11
666.205133
 21
1250.632569
  0
LINE
  5
546
100
AcDbEntity
  8
M0
 62
     4
100
AcDbLine
 10
711.588983
 20
1239.669556
 11
711.588983
 21
1261.595566
  0
LINE
  5
547
100
AcDbEntity
  8
M0
 62
     4
100
AcDbLine
 10
711.588983
 20
1261.595566
 11
719.588983
 21
1261.595566
  0
LINE
  5
548
100
AcDbEntity
  8
M0
 62
     4
100
AcDbLine
 10
719.588983
 20
1261.595566
 11
719.588983
 21
1239.669556
  0
LINE
  5
549
100
AcDbEntity
  8
M0
 62
     4
100
AcDbLine
 10
719.588983
 20
1239.669556
 11
711.588983
 21
1239.669556
  0
LINE
  5
54A
100
AcDbEntity
  8
M0
 62
     4
100
AcDbLine
 10
670.588983
 20
1256.632569
 11
670.588983
 21
1244.632569
  0
LINE
  5
54B
100
AcDbEntity
  8
M0
 62
     4
100
AcDbLine
 10
686.288966
 20
1244.632569
 11
670.588983
 21
1244.632569
  0
LINE
  5
54C
100
AcDbEntity
  8
M0
 62
     4
100
AcDbLine
 10
711.588983
 20
1256.632569
 11
719.588983
 21
1256.632569
  0
LINE
  5
54D
100
AcDbEntity
  8
M0
100
AcDbLine
 10
701.588952
 20
1266.632538
 11
711.588952
 21
1266.632538
  0
LINE
  5
54E
100
AcDbEntity
  8
M0
100
AcDbLine
 10
701.588952
 20
950.632538
 11
711.588952
 21
950.632538
  0
LINE
  5
54F
100
AcDbEntity
  8
M0
100
AcDbLine
 10
701.588952
 20
1266.632538
 11
701.588952
 21
1203.632534
  0
LINE
  5
550
100
AcDbEntity
  8
M0
100
AcDbLine
 10
711.588952
 20
1266.632538
 11
711.588952
 21
1209.732534
  0
LINE
  5
551
100
AcDbEntity
  8
M0
100
AcDbLine
 10
701.588952
 20
1013.632534
 11
701.588952
 21
950.632538
  0
LINE
  5
552
100
AcDbEntity
  8
M0
100
AcDbLine
 10
711.588952
 20
1009.632534
 11
711.588952
 21
1006.142257
  0
LINE
  5
553
100
AcDbEntity
  8
M0
100
AcDbLine
 10
711.588952
 20
991.122444
 11
711.588952
 21
950.632538
  0
LINE
  5
554
100
AcDbEntity
  8
M0
  6
DASHDOT
 62
   234
100
AcDbLine
 10
848.589015
 20
1108.632534
 11
596.589015
 21
1108.632534
  0
LINE
  5
555
100
AcDbEntity
  8
M0
 62
   234
100
AcDbLine
 10
735.289015
 20
999.632534
 11
745.289015
 21
989.632534
  0
LINE
  5
556
100
AcDbEntity
  8
M0
 62
   234
100
AcDbLine
 10
715.289015
 20
1143.632534
 11
703.289015
 21
1143.632534
  0
LINE
  5
557
100
AcDbEntity
  8
M0
 62
   234
100
AcDbLine
 10
715.289015
 20
1135.632534
 11
703.289015
 21
1135.632534
  0
LINE
  5
558
100
AcDbEntity
  8
M0
 62
   234
100
AcDbLine
 10
703.289015
 20
1073.632534
 11
715.289015
 21
1073.632534
  0
LINE
  5
559
100
AcDbEntity
  8
M0
 62
   234
100
AcDbLine
 10
703.289015
 20
1081.632534
 11
715.289015
 21
1081.632534
  0
LINE
  5
55A
100
AcDbEntity
  8
M0
 62
   234
100
AcDbLine
 10
703.289015
 20
1124.632534
 11
715.289015
 21
1124.632534
  0
LINE
  5
55B
100
AcDbEntity
  8
M0
 62
   234
100
AcDbLine
 10
703.289015
 20
1132.632534
 11
715.289015
 21
1132.632534
  0
LINE
  5
55C
100
AcDbEntity
  8
M0
 62
   234
100
AcDbLine
 10
703.289015
 20
1070.632534
 11
715.289015
 21
1070.632534
  0
LINE
  5
55D
100
AcDbEntity
  8
M0
 62
   234
100
AcDbLine
 10
703.289015
 20
1062.632534
 11
703.289015
 21
1070.632534
  0
LINE
  5
55E
100
AcDbEntity
  8
M0
 62
   234
100
AcDbLine
 10
703.289015
 20
1073.632534
 11
703.289015
 21
1081.632534
  0
LINE
  5
55F
100
AcDbEntity
  8
M0
 62
   234
100
AcDbLine
 10
703.289015
 20
1124.632534
 11
703.289015
 21
1132.632534
  0
LINE
  5
560
100
AcDbEntity
  8
M0
 62
   234
100
AcDbLine
 10
703.289015
 20
1135.632534
 11
703.289015
 21
1143.632534
  0
LINE
  5
561
100
AcDbEntity
  8
M0
 62
   234
100
AcDbLine
 10
689.789015
 20
1064.632534
 11
689.789015
 21
1062.632534
  0
LINE
  5
562
100
AcDbEntity
  8
M0
 62
   234
100
AcDbLine
 10
689.789015
 20
1062.632534
 11
715.289015
 21
1062.632534
  0
LINE
  5
563
100
AcDbEntity
  8
M0
 62
   234
100
AcDbLine
 10
689.789015
 20
1064.632534
 11
703.289015
 21
1064.632534
  0
LINE
  5
564
100
AcDbEntity
  8
M0
 62
   234
100
AcDbLine
 10
705.289015
 20
1030.632534
 11
715.289015
 21
1030.632534
  0
LINE
  5
565
100
AcDbEntity
  8
M0
 62
   234
100
AcDbLine
 10
715.289015
 20
1032.632534
 11
705.289015
 21
1032.632534
  0
LINE
  5
566
100
AcDbEntity
  8
M0
 62
   234
100
AcDbLine
 10
715.289015
 20
1034.632534
 11
705.289015
 21
1034.632534
  0
LINE
  5
567
100
AcDbEntity
  8
M0
 62
   234
100
AcDbLine
 10
726.289015
 20
999.632534
 11
735.289015
 21
999.632534
  0
ARC
  5
568
100
AcDbEntity
  8
M0
 62
   234
100
AcDbCircle
 10
726.289015
 20
1010.632534
 40
11.0
100
AcDbArc
 50
180.0
 51
270.0
  0
ARC
  5
569
100
AcDbEntity
  8
M0
 62
   234
100
AcDbCircle
 10
710.289015
 20
1014.632534
 40
5.0
100
AcDbArc
 50
180.0
 51
270.0
  0
LINE
  5
56A
100
AcDbEntity
  8
M0
 62
   234
100
AcDbLine
 10
710.289015
 20
1009.632534
 11
715.334563
 21
1009.632534
  0
LINE
  5
56B
100
AcDbEntity
  8
M0
 62
   234
100
AcDbLine
 10
705.289015
 20
1014.632534
 11
705.289015
 21
1030.632534
  0
LINE
  5
56C
100
AcDbEntity
  8
M0
 62
   234
100
AcDbLine
 10
705.289015
 20
1032.632534
 11
705.289015
 21
1034.632534
  0
LINE
  5
56D
100
AcDbEntity
  8
M0
 62
   234
100
AcDbLine
 10
715.289015
 20
1010.632534
 11
715.289015
 21
1209.732534
  0
LINE
  5
56E
100
AcDbEntity
  8
M0
 62
   234
100
AcDbLine
 10
780.289015
 20
1227.632534
 11
762.389015
 21
1209.732534
  0
LINE
  5
56F
100
AcDbEntity
  8
M0
 62
   234
100
AcDbLine
 10
710.289015
 20
1209.732534
 11
762.389015
 21
1209.732534
  0
ARC
  5
570
100
AcDbEntity
  8
M0
 62
   234
100
AcDbCircle
 10
710.289015
 20
1204.732534
 40
5.0
100
AcDbArc
 50
90.0
 51
180.0
  0
LINE
  5
571
100
AcDbEntity
  8
M0
 62
   234
100
AcDbLine
 10
707.289015
 20
1194.732534
 11
715.289015
 21
1194.732534
  0
LINE
  5
572
100
AcDbEntity
  8
M0
 62
   234
100
AcDbLine
 10
705.289015
 20
1204.732534
 11
705.289015
 21
1196.732534
  0
ARC
  5
573
100
AcDbEntity
  8
M0
 62
   234
100
AcDbCircle
 10
707.289015
 20
1196.732534
 40
2.0
100
AcDbArc
 50
180.0
 51
270.0
  0
LINE
  5
574
100
AcDbEntity
  8
M0
 62
   234
100
AcDbLine
 10
791.789015
 20
989.632534
 11
791.789015
 21
1227.632534
  0
LINE
  5
575
100
AcDbEntity
  8
M0
 62
   234
100
AcDbLine
 10
791.789015
 20
989.632534
 11
745.289015
 21
989.632534
  0
LINE
  5
576
100
AcDbEntity
  8
M0
 62
   234
100
AcDbLine
 10
780.289015
 20
1227.632534
 11
791.789015
 21
1227.632534
  0
LINE
  5
577
100
AcDbEntity
  8
M0
  6
DASHED
 62
   234
100
AcDbLine
 10
715.589015
 20
1028.632534
 11
715.589015
 21
1020.132534
  0
LINE
  5
578
100
AcDbEntity
  8
M0
 62
   234
100
AcDbLine
 10
785.089015
 20
989.632534
 11
785.089015
 21
1227.632534
  0
LINE
  5
579
100
AcDbEntity
  8
M0
 62
   154
100
AcDbLine
 10
663.289015
 20
1115.132534
 11
675.289015
 21
1115.132534
  0
LINE
  5
57A
100
AcDbEntity
  8
M0
 62
   154
100
AcDbLine
 10
663.289015
 20
1102.132534
 11
675.289015
 21
1102.132534
  0
LINE
  5
57B
100
AcDbEntity
  8
M0
 62
   154
100
AcDbLine
 10
703.289015
 20
1096.132534
 11
714.089015
 21
1096.132534
  0
LINE
  5
57C
100
AcDbEntity
  8
M0
 62
   154
100
AcDbLine
 10
703.289015
 20
1121.132534
 11
714.089015
 21
1121.132534
  0
LINE
  5
57D
100
AcDbEntity
  8
M0
 62
   154
100
AcDbLine
 10
702.289015
 20
1065.632534
 11
702.289015
 21
1096.132534
  0
LINE
  5
57E
100
AcDbEntity
  8
M0
 62
   154
100
AcDbLine
 10
702.289015
 20
1121.132534
 11
702.289015
 21
1151.632534
  0
ARC
  5
57F
100
AcDbEntity
  8
M0
 62
   154
100
AcDbCircle
 10
684.289015
 20
1144.632534
 40
3.0
100
AcDbArc
 50
270.0
 51
360.0
  0
ARC
  5
580
100
AcDbEntity
  8
M0
 62
   154
100
AcDbCircle
 10
684.289015
 20
1072.632534
 40
3.0
100
AcDbArc
 50
0.0
 51
90.0
  0
LINE
  5
581
100
AcDbEntity
  8
M0
 62
   154
100
AcDbLine
 10
680.289015
 20
1141.632534
 11
684.289015
 21
1141.632534
  0
LINE
  5
582
100
AcDbEntity
  8
M0
 62
   154
100
AcDbLine
 10
675.289015
 20
1136.632534
 11
675.289015
 21
1115.132534
  0
ARC
  5
583
100
AcDbEntity
  8
M0
 62
   154
100
AcDbCircle
 10
680.289015
 20
1136.632534
 40
5.0
100
AcDbArc
 50
90.0
 51
180.0
  0
LINE
  5
584
100
AcDbEntity
  8
M0
 62
   154
100
AcDbLine
 10
675.289015
 20
1102.132534
 11
675.289015
 21
1080.632534
  0
LINE
  5
585
100
AcDbEntity
  8
M0
 62
   154
100
AcDbLine
 10
680.289015
 20
1075.632534
 11
684.289015
 21
1075.632534
  0
ARC
  5
586
100
AcDbEntity
  8
M0
 62
   154
100
AcDbCircle
 10
680.289015
 20
1080.632534
 40
5.0
100
AcDbArc
 50
180.0
 51
270.0
  0
LINE
  5
587
100
AcDbEntity
  8
M0
 62
   154
100
AcDbLine
 10
687.289015
 20
1072.632534
 11
687.289015
 21
1070.632534
  0
LINE
  5
588
100
AcDbEntity
  8
M0
 62
   154
100
AcDbLine
 10
692.289015
 20
1065.632534
 11
702.289015
 21
1065.632534
  0
ARC
  5
589
100
AcDbEntity
  8
M0
 62
   154
100
AcDbCircle
 10
692.289015
 20
1070.632534
 40
5.0
100
AcDbArc
 50
180.0
 51
270.0
  0
LINE
  5
58A
100
AcDbEntity
  8
M0
 62
   154
100
AcDbLine
 10
702.289015
 20
1151.632534
 11
692.289015
 21
1151.632534
  0
LINE
  5
58B
100
AcDbEntity
  8
M0
 62
   154
100
AcDbLine
 10
687.289015
 20
1146.632534
 11
687.289015
 21
1144.632534
  0
ARC
  5
58C
100
AcDbEntity
  8
M0
 62
   154
100
AcDbCircle
 10
692.289015
 20
1146.632534
 40
5.0
100
AcDbArc
 50
90.0
 51
180.0
  0
LINE
  5
58D
100
AcDbEntity
  8
M0
 62
   154
100
AcDbLine
 10
663.289015
 20
1115.132534
 11
663.289015
 21
1102.132534
  0
LINE
  5
58E
100
AcDbEntity
  8
M0
 62
   154
100
AcDbLine
 10
714.089015
 20
1121.132534
 11
714.089015
 21
1096.132534
  0
LINE
  5
58F
100
AcDbEntity
  8
M0
 62
   154
100
AcDbLine
 10
703.289015
 20
1065.632534
 11
703.289015
 21
1151.632534
  0
LINE
  5
590
100
AcDbEntity
  8
M0
 62
   154
100
AcDbLine
 10
703.289015
 20
1151.632534
 11
702.289015
 21
1151.632534
  0
LINE
  5
591
100
AcDbEntity
  8
M0
 62
   154
100
AcDbLine
 10
702.289015
 20
1151.632534
 11
702.289015
 21
1065.632534
  0
LINE
  5
592
100
AcDbEntity
  8
M0
 62
   154
100
AcDbLine
 10
702.289015
 20
1065.632534
 11
703.289015
 21
1065.632534
  0
LINE
  5
593
100
AcDbEntity
  8
M0
100
AcDbLine
 10
794.089015
 20
1227.632534
 11
794.089015
 21
989.632534
  0
ARC
  5
594
100
AcDbEntity
  8
M0
100
AcDbCircle
 10
823.589015
 20
992.632534
 40
3.0
100
AcDbArc
 50
270.0
 51
360.0
  0
LINE
  5
595
100
AcDbEntity
  8
M0
100
AcDbLine
 10
826.589015
 20
992.632534
 11
826.589015
 21
1020.632534
  0
LINE
  5
596
100
AcDbEntity
  8
M0
100
AcDbLine
 10
823.589015
 20
1023.632534
 11
794.089015
 21
1023.632534
  0
ARC
  5
597
100
AcDbEntity
  8
M0
100
AcDbCircle
 10
823.589015
 20
1020.632534
 40
3.0
100
AcDbArc
 50
0.0
 51
90.0
  0
LINE
  5
598
100
AcDbEntity
  8
M0
100
AcDbLine
 10
823.589015
 20
1193.632534
 11
794.089015
 21
1193.632534
  0
ARC
  5
599
100
AcDbEntity
  8
M0
100
AcDbCircle
 10
823.589015
 20
1196.632534
 40
3.0
100
AcDbArc
 50
270.0
 51
360.0
  0
ARC
  5
59A
100
AcDbEntity
  8
M0
100
AcDbCircle
 10
823.589015
 20
1224.632534
 40
3.0
100
AcDbArc
 50
0.0
 51
90.0
  0
CIRCLE
  5
59B
100
AcDbEntity
  8
M0
100
AcDbCircle
 10
805.589015
 20
1219.632534
 40
3.5
  0
CIRCLE
  5
59C
100
AcDbEntity
  8
M0
100
AcDbCircle
 10
805.589015
 20
1203.632534
 40
3.5
  0
CIRCLE
  5
59D
100
AcDbEntity
  8
M0
100
AcDbCircle
 10
805.589015
 20
1013.632534
 40
3.5
  0
CIRCLE
  5
59E
100
AcDbEntity
  8
M0
100
AcDbCircle
 10
805.589015
 20
997.632534
 40
3.5
  0
LINE
  5
59F
100
AcDbEntity
  8
M0
100
AcDbLine
 10
791.789015
 20
1227.632534
 11
823.589015
 21
1227.632534
  0
LINE
  5
5A0
100
AcDbEntity
  8
M0
100
AcDbLine
 10
791.789015
 20
989.632534
 11
823.589015
 21
989.632534
  0
LINE
  5
5A1
100
AcDbEntity
  8
M0
100
AcDbLine
 10
826.589015
 20
1196.632534
 11
826.589015
 21
1224.632534
  0
LINE
  5
5A2
100
AcDbEntity
  8
M0
100
AcDbLine
 10
734.389015
 20
983.632534
 11
734.389015
 21
999.632534
  0
LINE
  5
5A3
100
AcDbEntity
  8
M0
100
AcDbLine
 10
705.289015
 20
1203.632534
 11
639.389015
 21
1203.632534
  0
LINE
  5
5A4
100
AcDbEntity
  8
M0
100
AcDbLine
 10
639.389015
 20
1203.632534
 11
639.389015
 21
1133.632534
  0
LINE
  5
5A5
100
AcDbEntity
  8
M0
100
AcDbLine
 10
719.389015
 20
983.632534
 11
734.389015
 21
983.632534
  0
LINE
  5
5A6
100
AcDbEntity
  8
M0
100
AcDbLine
 10
719.389015
 20
1002.065738
 11
719.389015
 21
983.632534
  0
LINE
  5
5A7
100
AcDbEntity
  8
M0
100
AcDbLine
 10
715.289015
 20
1178.632534
 11
676.389015
 21
1178.632534
  0
LINE
  5
5A8
100
AcDbEntity
  8
M0
100
AcDbLine
 10
686.389015
 20
1063.632534
 11
686.389015
 21
1026.632534
  0
LINE
  5
5A9
100
AcDbEntity
  8
M0
100
AcDbLine
 10
676.389015
 20
1178.632534
 11
676.389015
 21
1139.761431
  0
LINE
  5
5AA
100
AcDbEntity
  8
M0
100
AcDbLine
 10
686.389015
 20
1063.632534
 11
676.389015
 21
1063.632534
  0
LINE
  5
5AB
100
AcDbEntity
  8
M0
100
AcDbLine
 10
705.289015
 20
1021.964352
 11
697.389015
 21
1026.632534
  0
LINE
  5
5AC
100
AcDbEntity
  8
M0
100
AcDbLine
 10
697.389015
 20
1026.632534
 11
686.389015
 21
1026.632534
  0
LINE
  5
5AD
100
AcDbEntity
  8
M0
100
AcDbLine
 10
697.389015
 20
1212.132534
 11
701.588952
 21
1212.132534
  0
LINE
  5
5AE
100
AcDbEntity
  8
M0
100
AcDbLine
 10
717.389015
 20
1209.732534
 11
717.389015
 21
1212.132534
  0
LINE
  5
5AF
100
AcDbEntity
  8
M0
100
AcDbLine
 10
665.389015
 20
1217.632534
 11
697.389015
 21
1217.632534
  0
LINE
  5
5B0
100
AcDbEntity
  8
M0
100
AcDbLine
 10
665.389015
 20
1217.632534
 11
665.389015
 21
1203.632534
  0
LINE
  5
5B1
100
AcDbEntity
  8
M0
100
AcDbLine
 10
697.389015
 20
1217.632534
 11
697.389015
 21
1212.132534
  0
LINE
  5
5B2
100
AcDbEntity
  8
M0
100
AcDbLine
 10
705.390035
 20
1013.632534
 11
639.389015
 21
1013.632534
  0
LINE
  5
5B3
100
AcDbEntity
  8
M0
100
AcDbLine
 10
697.389015
 20
1005.132534
 11
701.588952
 21
1005.132534
  0
LINE
  5
5B4
100
AcDbEntity
  8
M0
100
AcDbLine
 10
697.389015
 20
999.632534
 11
697.389015
 21
1005.132534
  0
LINE
  5
5B5
100
AcDbEntity
  8
M0
100
AcDbLine
 10
665.389015
 20
999.632534
 11
697.389015
 21
999.632534
  0
LINE
  5
5B6
100
AcDbEntity
  8
M0
100
AcDbLine
 10
665.389015
 20
999.632534
 11
665.389015
 21
1013.632534
  0
LINE
  5
5B7
100
AcDbEntity
  8
M0
100
AcDbLine
 10
676.389015
 20
1077.503636
 11
676.389015
 21
1063.632534
  0
LINE
  5
5B8
100
AcDbEntity
  8
M0
100
AcDbLine
 10
639.389015
 20
1083.632534
 11
639.389015
 21
1013.632534
  0
LINE
  5
5B9
100
AcDbEntity
  8
M0
100
AcDbLine
 10
711.588952
 20
1212.132534
 11
717.389015
 21
1212.132534
  0
LINE
  5
5BA
100
AcDbEntity
  8
M0
100
AcDbLine
 10
743.864424
 20
1209.732534
 11
771.884813
 21
1219.228332
  0
LINE
  5
5BB
100
AcDbEntity
  8
M0
100
AcDbLine
 10
814.389015
 20
1233.632534
 11
838.589015
 21
1233.632534
  0
LINE
  5
5BC
100
AcDbEntity
  8
M0
100
AcDbLine
 10
734.389015
 20
983.632534
 11
838.589015
 21
983.632534
  0
LINE
  5
5BD
100
AcDbEntity
  8
M0
  6
DOT
100
AcDbLine
 10
835.389015
 20
1233.632534
 11
835.389015
 21
983.632534
  0
LINE
  5
5BE
100
AcDbEntity
  8
M0
100
AcDbLine
 10
838.589015
 20
1233.632534
 11
838.589015
 21
983.632534
  0
LINE
  5
5BF
100
AcDbEntity
  8
M0
100
AcDbLine
 10
796.684097
 20
1227.632534
 11
814.389015
 21
1233.632534
  0
ARC
  5
5C0
100
AcDbEntity
  8
M0
100
AcDbCircle
 10
646.389015
 20
1143.632534
 40
10.0
100
AcDbArc
 50
270.0
 51
360.0
  0
ARC
  5
5C1
100
AcDbEntity
  8
M0
100
AcDbCircle
 10
646.389015
 20
1073.632534
 40
10.0
100
AcDbArc
 50
0.0
 51
90.0
  0
LINE
  5
5C2
100
AcDbEntity
  8
M0
100
AcDbLine
 10
634.389015
 20
1083.632534
 11
646.389015
 21
1083.632534
  0
ARC
  5
5C3
100
AcDbEntity
  8
M0
100
AcDbCircle
 10
634.389015
 20
1086.632534
 40
3.0
100
AcDbArc
 50
180.0
 51
270.0
  0
LINE
  5
5C4
100
AcDbEntity
  8
M0
100
AcDbLine
 10
634.389015
 20
1133.632534
 11
646.389015
 21
1133.632534
  0
LINE
  5
5C5
100
AcDbEntity
  8
M0
100
AcDbLine
 10
631.389015
 20
1130.632534
 11
631.389015
 21
1086.632534
  0
ARC
  5
5C6
100
AcDbEntity
  8
M0
100
AcDbCircle
 10
634.389015
 20
1130.632534
 40
3.0
100
AcDbArc
 50
90.0
 51
180.0
  0
LINE
  5
5C7
100
AcDbEntity
  8
M0
100
AcDbLine
 10
656.389015
 20
1073.632534
 11
656.389015
 21
1068.632534
  0
LINE
  5
5C8
100
AcDbEntity
  8
M0
100
AcDbLine
 10
661.389015
 20
1063.632534
 11
676.389015
 21
1063.632534
  0
ARC
  5
5C9
100
AcDbEntity
  8
M0
100
AcDbCircle
 10
661.389015
 20
1068.632534
 40
5.0
100
AcDbArc
 50
180.0
 51
270.0
  0
LINE
  5
5CA
100
AcDbEntity
  8
M0
100
AcDbLine
 10
676.389015
 20
1153.632534
 11
661.389015
 21
1153.632534
  0
LINE
  5
5CB
100
AcDbEntity
  8
M0
100
AcDbLine
 10
656.389015
 20
1148.632534
 11
656.389015
 21
1143.632534
  0
ARC
  5
5CC
100
AcDbEntity
  8
M0
100
AcDbCircle
 10
661.389015
 20
1148.632534
 40
5.0
100
AcDbArc
 50
90.0
 51
180.0
  0
LINE
  5
5CD
100
AcDbEntity
  8
M0
100
AcDbLine
 10
676.389015
 20
1063.632534
 11
676.389015
 21
1077.503636
  0
LINE
  5
5CE
100
AcDbEntity
  8
M0
100
AcDbLine
 10
676.389015
 20
1139.761431
 11
676.389015
 21
1153.632534
  0
CIRCLE
  5
5CF
100
AcDbEntity
  8
M0
 62
   234
100
AcDbCircle
 10
816.589015
 20
1219.632534
 40
5.25
  0
LINE
  5
5D0
100
AcDbEntity
  8
M0
 62
   234
100
AcDbLine
 10
817.437605
 20
1219.632458
 11
820.701317
 21
1222.89617
  0
LINE
  5
5D1
100
AcDbEntity
  8
M0
 62
   234
100
AcDbLine
 10
813.325367
 20
1215.520221
 11
816.589079
 21
1218.783932
  0
LINE
  5
5D2
100
AcDbEntity
  8
M0
 62
   234
100
AcDbLine
 10
815.740597
 20
1219.632415
 11
812.476863
 21
1216.368682
  0
LINE
  5
5D3
100
AcDbEntity
  8
M0
 62
   234
100
AcDbLine
 10
819.852845
 20
1223.744685
 11
816.589123
 21
1220.480941
  0
LINE
  5
5D4
100
AcDbEntity
  8
M0
 62
   234
100
AcDbLine
 10
816.589112
 20
1220.480952
 11
814.821345
 21
1222.248719
  0
LINE
  5
5D5
100
AcDbEntity
  8
M0
 62
   234
100
AcDbLine
 10
819.205372
 20
1217.864691
 11
817.437605
 21
1219.632458
  0
LINE
  5
5D6
100
AcDbEntity
  8
M0
 62
   234
100
AcDbLine
 10
816.589079
 20
1218.783932
 11
818.356846
 21
1217.016165
  0
LINE
  5
5D7
100
AcDbEntity
  8
M0
 62
   234
100
AcDbLine
 10
813.972819
 20
1221.400193
 11
815.740586
 21
1219.632426
  0
LINE
  5
5D8
100
AcDbEntity
  8
M0
 62
   234
100
AcDbLine
 10
818.356846
 20
1217.016165
 11
819.205372
 21
1217.864691
  0
LINE
  5
5D9
100
AcDbEntity
  8
M0
 62
   234
100
AcDbLine
 10
814.821345
 20
1222.248719
 11
813.972819
 21
1221.400193
  0
CIRCLE
  5
5DA
100
AcDbEntity
  8
M0
 62
   234
100
AcDbCircle
 10
816.589015
 20
1219.632534
 40
5.5
  0
CIRCLE
  5
5DB
100
AcDbEntity
  8
M0
 62
   234
100
AcDbCircle
 10
816.589015
 20
1203.632534
 40
5.25
  0
LINE
  5
5DC
100
AcDbEntity
  8
M0
 62
   234
100
AcDbLine
 10
817.437605
 20
1203.632458
 11
820.701317
 21
1206.89617
  0
LINE
  5
5DD
100
AcDbEntity
  8
M0
 62
   234
100
AcDbLine
 10
813.325367
 20
1199.520221
 11
816.589079
 21
1202.783932
  0
LINE
  5
5DE
100
AcDbEntity
  8
M0
 62
   234
100
AcDbLine
 10
815.740597
 20
1203.632415
 11
812.476863
 21
1200.368682
  0
LINE
  5
5DF
100
AcDbEntity
  8
M0
 62
   234
100
AcDbLine
 10
819.852845
 20
1207.744685
 11
816.589123
 21
1204.480941
  0
LINE
  5
5E0
100
AcDbEntity
  8
M0
 62
   234
100
AcDbLine
 10
816.589112
 20
1204.480952
 11
814.821345
 21
1206.248719
  0
LINE
  5
5E1
100
AcDbEntity
  8
M0
 62
   234
100
AcDbLine
 10
819.205372
 20
1201.864691
 11
817.437605
 21
1203.632458
  0
LINE
  5
5E2
100
AcDbEntity
  8
M0
 62
   234
100
AcDbLine
 10
816.589079
 20
1202.783932
 11
818.356846
 21
1201.016165
  0
LINE
  5
5E3
100
AcDbEntity
  8
M0
 62
   234
100
AcDbLine
 10
813.972819
 20
1205.400193
 11
815.740586
 21
1203.632426
  0
LINE
  5
5E4
100
AcDbEntity
  8
M0
 62
   234
100
AcDbLine
 10
818.356846
 20
1201.016165
 11
819.205372
 21
1201.864691
  0
LINE
  5
5E5
100
AcDbEntity
  8
M0
 62
   234
100
AcDbLine
 10
814.821345
 20
1206.248719
 11
813.972819
 21
1205.400193
  0
CIRCLE
  5
5E6
100
AcDbEntity
  8
M0
 62
   234
100
AcDbCircle
 10
816.589015
 20
1203.632534
 40
5.5
  0
CIRCLE
  5
5E7
100
AcDbEntity
  8
M0
 62
   234
100
AcDbCircle
 10
816.589015
 20
1013.632534
 40
5.25
  0
LINE
  5
5E8
100
AcDbEntity
  8
M0
 62
   234
100
AcDbLine
 10
817.437605
 20
1013.632458
 11
820.701317
 21
1016.89617
  0
LINE
  5
5E9
100
AcDbEntity
  8
M0
 62
   234
100
AcDbLine
 10
813.325367
 20
1009.520221
 11
816.589079
 21
1012.783932
  0
LINE
  5
5EA
100
AcDbEntity
  8
M0
 62
   234
100
AcDbLine
 10
815.740597
 20
1013.632415
 11
812.476863
 21
1010.368682
  0
LINE
  5
5EB
100
AcDbEntity
  8
M0
 62
   234
100
AcDbLine
 10
819.852845
 20
1017.744685
 11
816.589123
 21
1014.480941
  0
LINE
  5
5EC
100
AcDbEntity
  8
M0
 62
   234
100
AcDbLine
 10
816.589112
 20
1014.480952
 11
814.821345
 21
1016.248719
  0
LINE
  5
5ED
100
AcDbEntity
  8
M0
 62
   234
100
AcDbLine
 10
819.205372
 20
1011.864691
 11
817.437605
 21
1013.632458
  0
LINE
  5
5EE
100
AcDbEntity
  8
M0
 62
   234
100
AcDbLine
 10
816.589079
 20
1012.783932
 11
818.356846
 21
1011.016165
  0
LINE
  5
5EF
100
AcDbEntity
  8
M0
 62
   234
100
AcDbLine
 10
813.972819
 20
1015.400193
 11
815.740586
 21
1013.632426
  0
LINE
  5
5F0
100
AcDbEntity
  8
M0
 62
   234
100
AcDbLine
 10
818.356846
 20
1011.016165
 11
819.205372
 21
1011.864691
  0
LINE
  5
5F1
100
AcDbEntity
  8
M0
 62
   234
100
AcDbLine
 10
814.821345
 20
1016.248719
 11
813.972819
 21
1015.400193
  0
CIRCLE
  5
5F2
100
AcDbEntity
  8
M0
 62
   234
100
AcDbCircle
 10
816.589015
 20
1013.632534
 40
5.5
  0
CIRCLE
  5
5F3
100
AcDbEntity
  8
M0
 62
   234
100
AcDbCircle
 10
816.589015
 20
997.632534
 40
5.25
  0
LINE
  5
5F4
100
AcDbEntity
  8
M0
 62
   234
100
AcDbLine
 10
817.437605
 20
997.632458
 11
820.701317
 21
1000.89617
  0
LINE
  5
5F5
100
AcDbEntity
  8
M0
 62
   234
100
AcDbLine
 10
813.325367
 20
993.520221
 11
816.589079
 21
996.783932
  0
LINE
  5
5F6
100
AcDbEntity
  8
M0
 62
   234
100
AcDbLine
 10
815.740597
 20
997.632415
 11
812.476863
 21
994.368682
  0
LINE
  5
5F7
100
AcDbEntity
  8
M0
 62
   234
100
AcDbLine
 10
819.852845
 20
1001.744685
 11
816.589123
 21
998.480941
  0
LINE
  5
5F8
100
AcDbEntity
  8
M0
 62
   234
100
AcDbLine
 10
816.589112
 20
998.480952
 11
814.821345
 21
1000.248719
  0
LINE
  5
5F9
100
AcDbEntity
  8
M0
 62
   234
100
AcDbLine
 10
819.205372
 20
995.864691
 11
817.437605
 21
997.632458
  0
LINE
  5
5FA
100
AcDbEntity
  8
M0
 62
   234
100
AcDbLine
 10
816.589079
 20
996.783932
 11
818.356846
 21
995.016165
  0
LINE
  5
5FB
100
AcDbEntity
  8
M0
 62
   234
100
AcDbLine
 10
813.972819
 20
999.400193
 11
815.740586
 21
997.632426
  0
LINE
  5
5FC
100
AcDbEntity
  8
M0
 62
   234
100
AcDbLine
 10
818.356846
 20
995.016165
 11
819.205372
 21
995.864691
  0
LINE
  5
5FD
100
AcDbEntity
  8
M0
 62
   234
100
AcDbLine
 10
814.821345
 20
1000.248719
 11
813.972819
 21
999.400193
  0
CIRCLE
  5
5FE
100
AcDbEntity
  8
M0
 62
   234
100
AcDbCircle
 10
816.589015
 20
997.632534
 40
5.5
  0
LINE
  5
5FF
100
AcDbEntity
  8
M0
100
AcDbLine
 10
609.589015
 20
1203.632534
 11
639.389015
 21
1203.632534
  0
ARC
  5
600
100
AcDbEntity
  8
M0
100
AcDbCircle
 10
609.589015
 20
1200.632534
 40
3.0
100
AcDbArc
 50
90.0
 51
180.0
  0
LINE
  5
601
100
AcDbEntity
  8
M0
100
AcDbLine
 10
606.589015
 20
1016.632534
 11
606.589015
 21
1200.632534
  0
LINE
  5
602
100
AcDbEntity
  8
M0
100
AcDbLine
 10
609.589015
 20
1013.632534
 11
639.389015
 21
1013.632534
  0
ARC
  5
603
100
AcDbEntity
  8
M0
100
AcDbCircle
 10
609.589015
 20
1016.632534
 40
3.0
100
AcDbArc
 50
180.0
 51
270.0
  0
LINE
  5
604
100
AcDbEntity
  8
M0
 62
   114
100
AcDbLine
 10
709.687553
 20
1185.122444
 11
715.289015
 21
1185.122444
  0
LINE
  5
605
100
AcDbEntity
  8
M0
 62
   114
100
AcDbLine
 10
709.687553
 20
1185.122444
 11
709.687553
 21
1194.632534
  0
LINE
  5
606
100
AcDbEntity
  8
M0
 62
   114
100
AcDbLine
 10
709.687553
 20
1188.879788
 11
715.289015
 21
1188.879788
  0
LINE
  5
607
100
AcDbEntity
  8
M0
 62
   114
100
AcDbLine
 10
709.687553
 20
991.122444
 11
716.189018
 21
991.122444
  0
LINE
  5
608
100
AcDbEntity
  8
M0
 62
   114
100
AcDbLine
 10
716.189018
 20
991.122444
 11
716.189018
 21
1006.274775
  0
LINE
  5
609
100
AcDbEntity
  8
M0
 62
   114
100
AcDbLine
 10
716.247134
 20
1006.142475
 11
709.687553
 21
1006.142168
  0
LINE
  5
60A
100
AcDbEntity
  8
M0
 62
   114
100
AcDbLine
 10
709.687553
 20
991.122444
 11
709.687553
 21
1006.142168
  0
LINE
  5
60B
100
AcDbEntity
  8
M0
 62
   114
100
AcDbLine
 10
709.687553
 20
1002.385434
 11
716.189018
 21
1002.385434
  0
LINE
  5
60C
100
AcDbEntity
  8
M0
 62
   114
100
AcDbLine
 10
709.687553
 20
994.879788
 11
716.189018
 21
994.879788
  0
LINE
  5
60D
100
AcDbEntity
  8
M0
 62
   114
100
AcDbLine
 10
718.189018
 20
990.632544
 11
719.389015
 21
990.632544
  0
LINE
  5
60E
100
AcDbEntity
  8
M0
 62
   114
100
AcDbLine
 10
719.389015
 20
990.632544
 11
719.389015
 21
1002.065738
  0
LINE
  5
60F
100
AcDbEntity
  8
M0
 62
   114
100
AcDbLine
 10
718.189018
 20
1003.190085
 11
718.189018
 21
990.632544
  0
LINE
  5
610
100
AcDbEntity
  8
M0
 62
   114
100
AcDbLine
 10
716.189018
 20
990.932523
 11
718.189018
 21
990.932523
  0
LINE
  5
611
100
AcDbEntity
  8
M0
 62
   114
100
AcDbLine
 10
718.189018
 20
990.932523
 11
718.189018
 21
1003.190085
  0
LINE
  5
612
100
AcDbEntity
  8
M0
 62
   114
100
AcDbLine
 10
716.189018
 20
1006.332532
 11
716.189018
 21
990.932523
  0
LINE
  5
613
100
AcDbEntity
  8
M0
 62
   114
100
AcDbLine
 10
716.189018
 20
998.63252
 11
718.189018
 21
997.477826
  0
LINE
  5
614
100
AcDbEntity
  8
M0
 62
   114
100
AcDbLine
 10
716.189018
 20
999.787213
 11
718.189018
 21
998.63252
  0
LINE
  5
615
100
AcDbEntity
  8
M0
 62
   114
100
AcDbLine
 10
774.289161
 20
1221.63268
 11
770.541058
 21
1221.63268
  0
LINE
  5
616
100
AcDbEntity
  8
M0
 62
   114
100
AcDbLine
 10
770.541058
 20
1221.63268
 11
770.541058
 21
1218.772949
  0
LINE
  5
617
100
AcDbEntity
  8
M0
 62
     6
100
AcDbLine
 10
699.289
 20
1263.632616
 11
701.589003
 21
1263.632617
  0
LINE
  5
618
100
AcDbEntity
  8
M0
 62
     6
100
AcDbLine
 10
701.589003
 20
1263.632617
 11
701.589019
 21
1237.632617
  0
LINE
  5
619
100
AcDbEntity
  8
M0
 62
     6
100
AcDbLine
 10
701.589019
 20
1237.632617
 11
699.289016
 21
1237.632616
  0
LINE
  5
61A
100
AcDbEntity
  8
M0
 62
     6
100
AcDbLine
 10
699.289016
 20
1237.632616
 11
699.289
 21
1263.632616
  0
LINE
  5
61B
100
AcDbEntity
  8
M0
 62
     7
100
AcDbLine
 10
696.288905
 20
1261.382731
 11
699.288905
 21
1261.382731
  0
LINE
  5
61C
100
AcDbEntity
  8
M0
 62
     7
100
AcDbLine
 10
699.288905
 20
1261.382731
 11
699.288905
 21
1239.882731
  0
LINE
  5
61D
100
AcDbEntity
  8
M0
 62
     7
100
AcDbLine
 10
699.288905
 20
1239.882731
 11
696.288905
 21
1239.882731
  0
LINE
  5
61E
100
AcDbEntity
  8
M0
 62
     7
100
AcDbLine
 10
696.288905
 20
1239.882731
 11
696.288905
 21
1261.382731
  0
LINE
  5
61F
100
AcDbEntity
  8
M0
 62
     7
100
AcDbLine
 10
696.288905
 20
1250.632716
 11
699.288905
 21
1252.364757
  0
LINE
  5
620
100
AcDbEntity
  8
M0
 62
     7
100
AcDbLine
 10
696.288905
 20
1248.900691
 11
699.288905
 21
1250.632731
  0
LINE
  5
621
100
AcDbEntity
  8
M0
 62
     6
100
AcDbLine
 10
686.288711
 20
1261.582608
 11
696.288711
 21
1261.582614
  0
LINE
  5
622
100
AcDbEntity
  8
M0
 62
     6
100
AcDbLine
 10
696.288955
 20
1261.582599
 11
696.288969
 21
1239.682605
  0
LINE
  5
623
100
AcDbEntity
  8
M0
 62
     6
100
AcDbLine
 10
686.288969
 20
1239.682645
 11
686.288955
 21
1261.582623
  0
LINE
  5
624
100
AcDbEntity
  8
M0
 62
     6
100
AcDbLine
 10
696.288715
 20
1256.107639
 11
686.288715
 21
1256.107632
  0
LINE
  5
625
100
AcDbEntity
  8
M0
 62
     6
100
AcDbLine
 10
686.288481
 20
1239.682614
 11
696.288725
 21
1239.68262
  0
LINE
  5
626
100
AcDbEntity
  8
M0
 62
     6
100
AcDbLine
 10
696.288722
 20
1245.157627
 11
686.288478
 21
1245.15762
  0
LINE
  5
627
100
AcDbEntity
  8
M0
 62
     6
100
AcDbLine
 10
679.588687
 20
977.582608
 11
689.588687
 21
977.582614
  0
LINE
  5
628
100
AcDbEntity
  8
M0
 62
     6
100
AcDbLine
 10
689.588931
 20
977.582599
 11
689.588945
 21
955.682605
  0
LINE
  5
629
100
AcDbEntity
  8
M0
 62
     6
100
AcDbLine
 10
679.588945
 20
955.682645
 11
679.588931
 21
977.582623
  0
LINE
  5
62A
100
AcDbEntity
  8
M0
 62
     6
100
AcDbLine
 10
689.588691
 20
972.107639
 11
679.588691
 21
972.107632
  0
LINE
  5
62B
100
AcDbEntity
  8
M0
 62
     6
100
AcDbLine
 10
679.588457
 20
955.682614
 11
689.588701
 21
955.68262
  0
LINE
  5
62C
100
AcDbEntity
  8
M0
 62
     6
100
AcDbLine
 10
689.588698
 20
961.157627
 11
679.588453
 21
961.15762
  0
LINE
  5
62D
100
AcDbEntity
  8
M0
 62
     7
100
AcDbLine
 10
689.588931
 20
977.382731
 11
692.588931
 21
977.382731
  0
LINE
  5
62E
100
AcDbEntity
  8
M0
 62
     7
100
AcDbLine
 10
692.588931
 20
977.382731
 11
692.588931
 21
955.882731
  0
LINE
  5
62F
100
AcDbEntity
  8
M0
 62
     7
100
AcDbLine
 10
692.588931
 20
955.882731
 11
689.588931
 21
955.882731
  0
LINE
  5
630
100
AcDbEntity
  8
M0
 62
     7
100
AcDbLine
 10
689.588931
 20
955.882731
 11
689.588931
 21
977.382731
  0
LINE
  5
631
100
AcDbEntity
  8
M0
 62
     7
100
AcDbLine
 10
689.588931
 20
966.632716
 11
692.588931
 21
968.364757
  0
LINE
  5
632
100
AcDbEntity
  8
M0
 62
     7
100
AcDbLine
 10
689.588931
 20
964.900691
 11
692.588931
 21
966.632731
  0
LINE
  5
633
100
AcDbEntity
  8
M0
 62
     6
100
AcDbLine
 10
692.588931
 20
979.632616
 11
694.888934
 21
979.632617
  0
LINE
  5
634
100
AcDbEntity
  8
M0
 62
     6
100
AcDbLine
 10
694.888934
 20
979.632617
 11
694.888951
 21
953.632617
  0
LINE
  5
635
100
AcDbEntity
  8
M0
 62
     6
100
AcDbLine
 10
694.888951
 20
953.632617
 11
692.588948
 21
953.632616
  0
LINE
  5
636
100
AcDbEntity
  8
M0
 62
     6
100
AcDbLine
 10
692.588948
 20
953.632616
 11
692.588931
 21
979.632616
  0
LINE
  5
637
100
AcDbEntity
  8
M0
 62
     2
100
AcDbLine
 10
440.016753
 20
858.632549
 11
440.016753
 21
933.632549
  0
ARC
  5
638
100
AcDbEntity
  8
M0
 62
     2
100
AcDbCircle
 10
435.016753
 20
858.632549
 40
5.0
100
AcDbArc
 50
270.0
 51
360.0
  0
LINE
  5
639
100
AcDbEntity
  8
M0
 62
     2
100
AcDbLine
 10
370.016753
 20
1013.632549
 11
364.016475
 21
1013.632549
  0
LINE
  5
63A
100
AcDbEntity
  8
M0
 62
     2
100
AcDbLine
 10
440.016753
 20
878.632549
 11
415.016753
 21
878.632549
  0
LINE
  5
63B
100
AcDbEntity
  8
M0
 62
     2
100
AcDbLine
 10
345.016753
 20
853.632549
 11
375.016753
 21
853.632549
  0
ARC
  5
63C
100
AcDbEntity
  8
M0
 62
     2
100
AcDbCircle
 10
426.016753
 20
865.632549
 40
4.5
100
AcDbArc
 50
0.0
 51
90.0
  0
LINE
  5
63D
100
AcDbEntity
  8
M0
 62
     2
100
AcDbLine
 10
424.016753
 20
870.132549
 11
426.016753
 21
870.132549
  0
ARC
  5
63E
100
AcDbEntity
  8
M0
 62
     2
100
AcDbCircle
 10
424.016753
 20
865.632549
 40
4.5
100
AcDbArc
 50
90.0
 51
180.0
  0
LINE
  5
63F
100
AcDbEntity
  8
M0
 62
     2
100
AcDbLine
 10
419.516753
 20
862.632549
 11
419.516753
 21
865.632549
  0
ARC
  5
640
100
AcDbEntity
  8
M0
 62
     2
100
AcDbCircle
 10
424.016753
 20
862.632549
 40
4.5
100
AcDbArc
 50
180.0
 51
270.0
  0
LINE
  5
641
100
AcDbEntity
  8
M0
 62
     2
100
AcDbLine
 10
424.016753
 20
858.132549
 11
426.016753
 21
858.132549
  0
LINE
  5
642
100
AcDbEntity
  8
M0
 62
     2
100
AcDbLine
 10
430.516753
 20
862.632549
 11
430.516753
 21
865.632549
  0
ARC
  5
643
100
AcDbEntity
  8
M0
 62
     2
100
AcDbCircle
 10
426.016753
 20
862.632549
 40
4.5
100
AcDbArc
 50
270.0
 51
360.0
  0
ARC
  5
644
100
AcDbEntity
  8
M0
 62
     2
100
AcDbCircle
 10
355.016753
 20
865.632549
 40
3.5
100
AcDbArc
 50
0.0
 51
90.0
  0
ARC
  5
645
100
AcDbEntity
  8
M0
 62
     2
100
AcDbCircle
 10
355.016753
 20
865.632549
 40
3.5
100
AcDbArc
 50
90.0
 51
180.0
  0
LINE
  5
646
100
AcDbEntity
  8
M0
 62
     2
100
AcDbLine
 10
351.516753
 20
863.632549
 11
351.516753
 21
865.632549
  0
ARC
  5
647
100
AcDbEntity
  8
M0
 62
     2
100
AcDbCircle
 10
355.016753
 20
863.632549
 40
3.5
100
AcDbArc
 50
180.0
 51
270.0
  0
LINE
  5
648
100
AcDbEntity
  8
M0
 62
     2
100
AcDbLine
 10
358.516753
 20
863.632549
 11
358.516753
 21
865.632549
  0
ARC
  5
649
100
AcDbEntity
  8
M0
 62
     2
100
AcDbCircle
 10
355.016753
 20
863.632549
 40
3.5
100
AcDbArc
 50
270.0
 51
360.0
  0
LINE
  5
64A
100
AcDbEntity
  8
M0
  6
DASHDOT
 62
     2
100
AcDbLine
 10
430.516753
 20
863.632549
 11
419.516753
 21
863.632549
  0
LINE
  5
64B
100
AcDbEntity
  8
M0
  6
DASHDOT
 62
     2
100
AcDbLine
 10
425.016753
 20
858.245067
 11
425.016753
 21
870.020031
  0
LINE
  5
64C
100
AcDbEntity
  8
M0
  6
DASHDOT
 62
     2
100
AcDbLine
 10
325.016753
 20
824.632549
 11
325.016753
 21
1023.632549
  0
LINE
  5
64D
100
AcDbEntity
  8
M0
 62
     2
100
AcDbLine
 10
210.016753
 20
858.632549
 11
210.016753
 21
933.632549
  0
ARC
  5
64E
100
AcDbEntity
  8
M0
 62
     2
100
AcDbCircle
 10
215.016753
 20
858.632549
 40
5.0
100
AcDbArc
 50
180.0
 51
270.0
  0
LINE
  5
64F
100
AcDbEntity
  8
M0
 62
     2
100
AcDbLine
 10
280.016753
 20
1013.632549
 11
286.016475
 21
1013.632549
  0
LINE
  5
650
100
AcDbEntity
  8
M0
 62
     2
100
AcDbLine
 10
210.016753
 20
878.632549
 11
235.016753
 21
878.632549
  0
LINE
  5
651
100
AcDbEntity
  8
M0
 62
     2
100
AcDbLine
 10
305.016753
 20
853.632549
 11
275.016753
 21
853.632549
  0
ARC
  5
652
100
AcDbEntity
  8
M0
 62
     2
100
AcDbCircle
 10
224.016753
 20
865.632549
 40
4.5
100
AcDbArc
 50
90.0
 51
180.0
  0
LINE
  5
653
100
AcDbEntity
  8
M0
 62
     2
100
AcDbLine
 10
226.016753
 20
870.132549
 11
224.016753
 21
870.132549
  0
ARC
  5
654
100
AcDbEntity
  8
M0
 62
     2
100
AcDbCircle
 10
226.016753
 20
865.632549
 40
4.5
100
AcDbArc
 50
0.0
 51
90.0
  0
LINE
  5
655
100
AcDbEntity
  8
M0
 62
     2
100
AcDbLine
 10
230.516753
 20
862.632549
 11
230.516753
 21
865.632549
  0
ARC
  5
656
100
AcDbEntity
  8
M0
 62
     2
100
AcDbCircle
 10
226.016753
 20
862.632549
 40
4.5
100
AcDbArc
 50
-90.0
 51
0.0
  0
LINE
  5
657
100
AcDbEntity
  8
M0
 62
     2
100
AcDbLine
 10
226.016753
 20
858.132549
 11
224.016753
 21
858.132549
  0
LINE
  5
658
100
AcDbEntity
  8
M0
 62
     2
100
AcDbLine
 10
219.516753
 20
862.632549
 11
219.516753
 21
865.632549
  0
ARC
  5
659
100
AcDbEntity
  8
M0
 62
     2
100
AcDbCircle
 10
224.016753
 20
862.632549
 40
4.5
100
AcDbArc
 50
180.0
 51
270.0
  0
ARC
  5
65A
100
AcDbEntity
  8
M0
 62
     2
100
AcDbCircle
 10
295.016753
 20
865.632549
 40
3.5
100
AcDbArc
 50
90.0
 51
180.0
  0
ARC
  5
65B
100
AcDbEntity
  8
M0
 62
     2
100
AcDbCircle
 10
295.016753
 20
865.632549
 40
3.5
100
AcDbArc
 50
0.0
 51
90.0
  0
LINE
  5
65C
100
AcDbEntity
  8
M0
 62
     2
100
AcDbLine
 10
298.516753
 20
863.632549
 11
298.516753
 21
865.632549
  0
ARC
  5
65D
100
AcDbEntity
  8
M0
 62
     2
100
AcDbCircle
 10
295.016753
 20
863.632549
 40
3.5
100
AcDbArc
 50
-90.0
 51
0.0
  0
LINE
  5
65E
100
AcDbEntity
  8
M0
 62
     2
100
AcDbLine
 10
291.516753
 20
863.632549
 11
291.516753
 21
865.632549
  0
ARC
  5
65F
100
AcDbEntity
  8
M0
 62
     2
100
AcDbCircle
 10
295.016753
 20
863.632549
 40
3.5
100
AcDbArc
 50
180.0
 51
270.0
  0
LINE
  5
660
100
AcDbEntity
  8
M0
  6
DASHDOT
 62
     2
100
AcDbLine
 10
219.516753
 20
863.632549
 11
230.516753
 21
863.632549
  0
LINE
  5
661
100
AcDbEntity
  8
M0
  6
DASHDOT
 62
     2
100
AcDbLine
 10
225.016753
 20
858.245067
 11
225.016753
 21
870.020031
  0
LINE
  5
662
100
AcDbEntity
  8
M0
 62
     2
100
AcDbLine
 10
235.016753
 20
853.632549
 11
215.016753
 21
853.632549
  0
LINE
  5
663
100
AcDbEntity
  8
M0
 62
     2
100
AcDbLine
 10
275.016753
 20
878.632549
 11
305.016753
 21
878.632549
  0
LINE
  5
664
100
AcDbEntity
  8
M0
 62
     2
100
AcDbLine
 10
235.016753
 20
958.632549
 11
210.016753
 21
933.632549
  0
LINE
  5
665
100
AcDbEntity
  8
M0
 62
     2
100
AcDbLine
 10
375.016753
 20
878.632549
 11
365.516736
 21
878.632549
  0
LINE
  5
666
100
AcDbEntity
  8
M0
 62
     2
100
AcDbLine
 10
415.016753
 20
853.632549
 11
435.016753
 21
853.632549
  0
LINE
  5
667
100
AcDbEntity
  8
M0
 62
     2
100
AcDbLine
 10
362.516736
 20
878.632549
 11
354.516736
 21
878.632549
  0
LINE
  5
668
100
AcDbEntity
  8
M0
 62
     2
100
AcDbLine
 10
352.516736
 20
878.632549
 11
345.016753
 21
878.632549
  0
LINE
  5
669
100
AcDbEntity
  8
M0
 62
     2
100
AcDbLine
 10
415.016753
 20
958.632549
 11
440.016753
 21
933.632549
  0
LINE
  5
66A
100
AcDbEntity
  8
M0
 62
     2
100
AcDbLine
 10
351.016475
 20
1013.632549
 11
340.016753
 21
1013.632549
  0
LINE
  5
66B
100
AcDbEntity
  8
M0
 62
     2
100
AcDbLine
 10
299.016475
 20
1013.632549
 11
310.016753
 21
1013.632549
  0
LINE
  5
66C
100
AcDbEntity
  8
M0
 62
     7
100
AcDbLine
 10
299.016753
 20
897.632549
 11
299.016753
 21
921.632549
  0
LINE
  5
66D
100
AcDbEntity
  8
M0
 62
     7
100
AcDbLine
 10
265.016753
 20
934.632549
 11
265.016753
 21
924.632549
  0
LINE
  5
66E
100
AcDbEntity
  8
M0
 62
     7
100
AcDbLine
 10
258.016753
 20
934.632549
 11
258.016753
 21
933.632549
  0
LINE
  5
66F
100
AcDbEntity
  8
M0
 62
     7
100
AcDbLine
 10
265.016753
 20
934.632549
 11
258.016753
 21
934.632549
  0
LINE
  5
670
100
AcDbEntity
  8
M0
 62
     7
100
AcDbLine
 10
259.516753
 20
884.632549
 11
259.516753
 21
885.632549
  0
LINE
  5
671
100
AcDbEntity
  8
M0
 62
     7
100
AcDbLine
 10
265.516753
 20
884.632549
 11
265.516753
 21
885.632549
  0
LINE
  5
672
100
AcDbEntity
  8
M0
 62
     7
100
AcDbLine
 10
274.516753
 20
884.632549
 11
274.516753
 21
891.632549
  0
ARC
  5
673
100
AcDbEntity
  8
M0
 62
     7
100
AcDbCircle
 10
277.516753
 20
891.632549
 40
3.0
100
AcDbArc
 50
90.0
 51
180.0
  0
LINE
  5
674
100
AcDbEntity
  8
M0
 62
     7
100
AcDbLine
 10
268.516753
 20
884.632549
 11
268.516753
 21
891.632549
  0
ARC
  5
675
100
AcDbEntity
  8
M0
 62
     7
100
AcDbCircle
 10
265.516753
 20
891.632549
 40
3.0
100
AcDbArc
 50
0.0
 51
90.0
  0
LINE
  5
676
100
AcDbEntity
  8
M0
 62
     7
100
AcDbLine
 10
274.516753
 20
884.632549
 11
265.516753
 21
884.632549
  0
LINE
  5
677
100
AcDbEntity
  8
M0
 62
     7
100
AcDbLine
 10
292.016753
 20
883.632549
 11
292.016753
 21
894.632549
  0
LINE
  5
678
100
AcDbEntity
  8
M0
 62
     7
100
AcDbLine
 10
286.016753
 20
883.632549
 11
286.016753
 21
891.632549
  0
ARC
  5
679
100
AcDbEntity
  8
M0
 62
     7
100
AcDbCircle
 10
283.016753
 20
891.632549
 40
3.0
100
AcDbArc
 50
0.0
 51
90.0
  0
LINE
  5
67A
100
AcDbEntity
  8
M0
 62
     7
100
AcDbLine
 10
277.016753
 20
883.632549
 11
277.016753
 21
885.632549
  0
LINE
  5
67B
100
AcDbEntity
  8
M0
 62
     7
100
AcDbLine
 10
283.016753
 20
883.632549
 11
283.016753
 21
885.632549
  0
LINE
  5
67C
100
AcDbEntity
  8
M0
 62
     7
100
AcDbLine
 10
292.016753
 20
883.632549
 11
283.016753
 21
883.632549
  0
LINE
  5
67D
100
AcDbEntity
  8
M0
 62
     7
100
AcDbLine
 10
277.016753
 20
883.632549
 11
275.016753
 21
883.632549
  0
LINE
  5
67E
100
AcDbEntity
  8
M0
 62
     7
100
AcDbLine
 10
259.516753
 20
884.632549
 11
255.016753
 21
884.632549
  0
LINE
  5
67F
100
AcDbEntity
  8
M0
 62
     7
100
AcDbLine
 10
299.016753
 20
919.632549
 11
255.016753
 21
919.632549
  0
LINE
  5
680
100
AcDbEntity
  8
M0
 62
     7
100
AcDbLine
 10
255.016753
 20
894.632549
 11
296.016753
 21
894.632549
  0
LINE
  5
681
100
AcDbEntity
  8
M0
 62
     7
100
AcDbLine
 10
211.016753
 20
897.632549
 11
211.016753
 21
921.632549
  0
LINE
  5
682
100
AcDbEntity
  8
M0
 62
     7
100
AcDbLine
 10
245.016753
 20
934.632549
 11
245.016753
 21
924.632549
  0
LINE
  5
683
100
AcDbEntity
  8
M0
 62
     7
100
AcDbLine
 10
252.016753
 20
934.632549
 11
252.016753
 21
933.632549
  0
LINE
  5
684
100
AcDbEntity
  8
M0
 62
     7
100
AcDbLine
 10
245.016753
 20
934.632549
 11
252.016753
 21
934.632549
  0
LINE
  5
685
100
AcDbEntity
  8
M0
 62
     7
100
AcDbLine
 10
250.516753
 20
884.632549
 11
250.516753
 21
885.632549
  0
LINE
  5
686
100
AcDbEntity
  8
M0
 62
     7
100
AcDbLine
 10
244.516753
 20
884.632549
 11
244.516753
 21
885.632549
  0
LINE
  5
687
100
AcDbEntity
  8
M0
 62
     7
100
AcDbLine
 10
235.516753
 20
884.632549
 11
235.516753
 21
891.632549
  0
ARC
  5
688
100
AcDbEntity
  8
M0
 62
     7
100
AcDbCircle
 10
232.516753
 20
891.632549
 40
3.0
100
AcDbArc
 50
0.0
 51
90.0
  0
LINE
  5
689
100
AcDbEntity
  8
M0
 62
     7
100
AcDbLine
 10
241.516753
 20
884.632549
 11
241.516753
 21
891.632549
  0
ARC
  5
68A
100
AcDbEntity
  8
M0
 62
     7
100
AcDbCircle
 10
244.516753
 20
891.632549
 40
3.0
100
AcDbArc
 50
90.0
 51
180.0
  0
LINE
  5
68B
100
AcDbEntity
  8
M0
 62
     7
100
AcDbLine
 10
235.516753
 20
884.632549
 11
244.516753
 21
884.632549
  0
LINE
  5
68C
100
AcDbEntity
  8
M0
 62
     7
100
AcDbLine
 10
218.016753
 20
883.632549
 11
218.016753
 21
894.632549
  0
LINE
  5
68D
100
AcDbEntity
  8
M0
 62
     7
100
AcDbLine
 10
224.016753
 20
883.632549
 11
224.016753
 21
891.632549
  0
ARC
  5
68E
100
AcDbEntity
  8
M0
 62
     7
100
AcDbCircle
 10
227.016753
 20
891.632549
 40
3.0
100
AcDbArc
 50
90.0
 51
180.0
  0
LINE
  5
68F
100
AcDbEntity
  8
M0
 62
     7
100
AcDbLine
 10
233.016753
 20
883.632549
 11
233.016753
 21
885.632549
  0
LINE
  5
690
100
AcDbEntity
  8
M0
 62
     7
100
AcDbLine
 10
227.016753
 20
883.632549
 11
227.016753
 21
885.632549
  0
LINE
  5
691
100
AcDbEntity
  8
M0
 62
     7
100
AcDbLine
 10
218.016753
 20
883.632549
 11
227.016753
 21
883.632549
  0
LINE
  5
692
100
AcDbEntity
  8
M0
 62
     7
100
AcDbLine
 10
233.016753
 20
883.632549
 11
235.016753
 21
883.632549
  0
LINE
  5
693
100
AcDbEntity
  8
M0
 62
     7
100
AcDbLine
 10
250.516753
 20
884.632549
 11
255.016753
 21
884.632549
  0
LINE
  5
694
100
AcDbEntity
  8
M0
 62
     7
100
AcDbLine
 10
211.016753
 20
919.632549
 11
255.016753
 21
919.632549
  0
LINE
  5
695
100
AcDbEntity
  8
M0
 62
     7
100
AcDbLine
 10
255.016753
 20
894.632549
 11
214.016753
 21
894.632549
  0
ARC
  5
696
100
AcDbEntity
  8
M0
 62
     7
100
AcDbCircle
 10
214.016753
 20
897.632549
 40
3.0
100
AcDbArc
 50
180.0
 51
270.0
  0
ARC
  5
697
100
AcDbEntity
  8
M0
 62
     7
100
AcDbCircle
 10
296.016753
 20
897.632549
 40
3.0
100
AcDbArc
 50
270.0
 51
360.0
  0
ARC
  5
698
100
AcDbEntity
  8
M0
 62
     7
100
AcDbCircle
 10
296.016753
 20
921.632549
 40
3.0
100
AcDbArc
 50
0.0
 51
90.0
  0
LINE
  5
699
100
AcDbEntity
  8
M0
 62
     7
100
AcDbLine
 10
224.016753
 20
935.632549
 11
224.016753
 21
924.632549
  0
ARC
  5
69A
100
AcDbEntity
  8
M0
 62
     7
100
AcDbCircle
 10
214.016753
 20
921.632549
 40
3.0
100
AcDbArc
 50
90.0
 51
180.0
  0
LINE
  5
69B
100
AcDbEntity
  8
M0
 62
     7
100
AcDbLine
 10
233.016753
 20
935.632549
 11
233.016753
 21
933.632549
  0
LINE
  5
69C
100
AcDbEntity
  8
M0
 62
     7
100
AcDbLine
 10
227.016753
 20
935.632549
 11
227.016753
 21
933.632549
  0
LINE
  5
69D
100
AcDbEntity
  8
M0
 62
     7
100
AcDbLine
 10
227.016753
 20
935.632549
 11
218.016753
 21
935.632549
  0
LINE
  5
69E
100
AcDbEntity
  8
M0
 62
     7
100
AcDbLine
 10
235.016753
 20
935.632549
 11
233.016753
 21
935.632549
  0
LINE
  5
69F
100
AcDbEntity
  8
M0
 62
     7
100
AcDbLine
 10
218.016753
 20
935.632549
 11
218.016753
 21
927.632549
  0
ARC
  5
6A0
100
AcDbEntity
  8
M0
 62
     7
100
AcDbCircle
 10
215.016753
 20
927.632549
 40
3.0
100
AcDbArc
 50
270.0
 51
360.0
  0
LINE
  5
6A1
100
AcDbEntity
  8
M0
 62
     7
100
AcDbLine
 10
214.016753
 20
924.632549
 11
255.016753
 21
924.632549
  0
LINE
  5
6A2
100
AcDbEntity
  8
M0
 62
     7
100
AcDbLine
 10
255.016753
 20
924.632549
 11
296.016753
 21
924.632549
  0
LINE
  5
6A3
100
AcDbEntity
  8
M0
  6
DASHDOT
 62
     7
100
AcDbLine
 10
255.016753
 20
922.632549
 11
255.016753
 21
936.632549
  0
LINE
  5
6A4
100
AcDbEntity
  8
M0
 62
     7
100
AcDbLine
 10
271.466753
 20
907.632549
 11
271.466753
 21
918.832549
  0
LINE
  5
6A5
100
AcDbEntity
  8
M0
 62
     7
100
AcDbLine
 10
262.566753
 20
907.632549
 11
262.566753
 21
918.832549
  0
LINE
  5
6A6
100
AcDbEntity
  8
M0
 62
     7
100
AcDbLine
 10
271.466753
 20
907.632549
 11
262.566753
 21
907.632549
  0
LINE
  5
6A7
100
AcDbEntity
  8
M0
 62
     7
100
AcDbLine
 10
271.466753
 20
918.832549
 11
262.566753
 21
918.832549
  0
LINE
  5
6A8
100
AcDbEntity
  8
M0
 62
     7
100
AcDbLine
 10
238.566753
 20
907.632549
 11
238.566753
 21
918.832549
  0
LINE
  5
6A9
100
AcDbEntity
  8
M0
 62
     7
100
AcDbLine
 10
247.466753
 20
907.632549
 11
247.466753
 21
918.832549
  0
LINE
  5
6AA
100
AcDbEntity
  8
M0
 62
     7
100
AcDbLine
 10
238.566753
 20
907.632549
 11
247.466753
 21
907.632549
  0
LINE
  5
6AB
100
AcDbEntity
  8
M0
 62
     7
100
AcDbLine
 10
238.566753
 20
918.832549
 11
247.466753
 21
918.832549
  0
LINE
  5
6AC
100
AcDbEntity
  8
M0
 62
   234
100
AcDbLine
 10
275.016753
 20
834.632549
 11
275.016753
 21
893.290862
  0
LINE
  5
6AD
100
AcDbEntity
  8
M0
 62
   234
100
AcDbLine
 10
275.016753
 20
980.632549
 11
235.016753
 21
980.632549
  0
LINE
  5
6AE
100
AcDbEntity
  8
M0
 62
   234
100
AcDbLine
 10
235.016753
 20
980.632549
 11
235.016753
 21
924.632549
  0
LINE
  5
6AF
100
AcDbEntity
  8
M0
 62
   234
100
AcDbLine
 10
235.016753
 20
834.632549
 11
275.016753
 21
834.632549
  0
LINE
  5
6B0
100
AcDbEntity
  8
M0
 62
   234
100
AcDbLine
 10
275.016753
 20
940.632549
 11
235.016753
 21
940.632549
  0
LINE
  5
6B1
100
AcDbEntity
  8
M0
 62
   234
100
AcDbLine
 10
275.016753
 20
924.632549
 11
275.016753
 21
980.632549
  0
LINE
  5
6B2
100
AcDbEntity
  8
M0
 62
   234
100
AcDbLine
 10
235.016753
 20
893.290862
 11
235.016753
 21
834.632549
  0
LINE
  5
6B3
100
AcDbEntity
  8
M0
 62
   234
100
AcDbLine
 10
345.016753
 20
834.632549
 11
345.016753
 21
880.632522
  0
LINE
  5
6B4
100
AcDbEntity
  8
M0
 62
   234
100
AcDbLine
 10
345.016753
 20
980.632549
 11
305.016753
 21
980.632549
  0
LINE
  5
6B5
100
AcDbEntity
  8
M0
 62
   234
100
AcDbLine
 10
305.016753
 20
980.632549
 11
305.016753
 21
918.432297
  0
LINE
  5
6B6
100
AcDbEntity
  8
M0
 62
   234
100
AcDbLine
 10
305.016753
 20
834.632549
 11
345.016753
 21
834.632549
  0
LINE
  5
6B7
100
AcDbEntity
  8
M0
 62
   234
100
AcDbLine
 10
345.016753
 20
940.632549
 11
305.016753
 21
940.632549
  0
LINE
  5
6B8
100
AcDbEntity
  8
M0
 62
   234
100
AcDbLine
 10
305.016753
 20
883.132596
 11
305.016753
 21
834.632549
  0
LINE
  5
6B9
100
AcDbEntity
  8
M0
 62
   234
100
AcDbLine
 10
345.016753
 20
920.127837
 11
345.016753
 21
980.632549
  0
LINE
  5
6BA
100
AcDbEntity
  8
M0
 62
   114
100
AcDbLine
 10
345.016753
 20
937.432549
 11
305.016753
 21
937.432549
  0
LINE
  5
6BB
100
AcDbEntity
  8
M0
 62
   114
100
AcDbLine
 10
325.016753
 20
884.432549
 11
331.266786
 21
884.432549
  0
LINE
  5
6BC
100
AcDbEntity
  8
M0
 62
   114
100
AcDbLine
 10
345.016753
 20
940.632549
 11
305.016753
 21
940.632549
  0
LINE
  5
6BD
100
AcDbEntity
  8
M0
 62
   114
100
AcDbLine
 10
345.016753
 20
920.127837
 11
345.016753
 21
940.632549
  0
LINE
  5
6BE
100
AcDbEntity
  8
M0
 62
   114
100
AcDbLine
 10
305.016753
 20
940.632549
 11
305.016753
 21
918.432297
  0
LINE
  5
6BF
100
AcDbEntity
  8
M0
 62
   253
100
AcDbLine
 10
301.016753
 20
913.632549
 11
303.01681
 21
913.632549
  0
LINE
  5
6C0
100
AcDbEntity
  8
M0
 62
   253
100
AcDbLine
 10
301.016753
 20
901.632549
 11
303.016795
 21
901.632549
  0
LINE
  5
6C1
100
AcDbEntity
  8
M0
 62
   253
100
AcDbLine
 10
302.016753
 20
890.632549
 11
303.01678
 21
890.632549
  0
LINE
  5
6C2
100
AcDbEntity
  8
M0
 62
   253
100
AcDbLine
 10
301.016753
 20
891.632549
 11
301.016753
 21
913.632549
  0
ARC
  5
6C3
100
AcDbEntity
  8
M0
 62
   253
100
AcDbCircle
 10
302.016753
 20
891.632549
 40
1.0
100
AcDbArc
 50
180.0
 51
270.0
  0
CIRCLE
  5
6C4
100
AcDbEntity
  8
M0
 62
   114
100
AcDbCircle
 10
280.016753
 20
889.632549
 40
4.5
  0
LINE
  5
6C5
100
AcDbEntity
  8
M0
 62
   114
100
AcDbLine
 10
280.865355
 20
889.632484
 11
283.594636
 21
892.361766
  0
LINE
  5
6C6
100
AcDbEntity
  8
M0
 62
   114
100
AcDbLine
 10
277.287525
 20
886.054655
 11
280.016818
 21
888.783948
  0
LINE
  5
6C7
100
AcDbEntity
  8
M0
 62
   114
100
AcDbLine
 10
279.168335
 20
889.63243
 11
276.43901
 21
886.903106
  0
LINE
  5
6C8
100
AcDbEntity
  8
M0
 62
   114
100
AcDbLine
 10
282.746175
 20
893.210292
 11
280.016872
 21
890.480967
  0
LINE
  5
6C9
100
AcDbEntity
  8
M0
 62
   114
100
AcDbLine
 10
280.016818
 20
888.783948
 11
281.289644
 21
887.511121
  0
LINE
  5
6CA
100
AcDbEntity
  8
M0
 62
   114
100
AcDbLine
 10
277.895497
 20
890.905268
 11
279.168324
 21
889.632441
  0
LINE
  5
6CB
100
AcDbEntity
  8
M0
 62
   114
100
AcDbLine
 10
280.016861
 20
890.480978
 11
278.744034
 21
891.753805
  0
LINE
  5
6CC
100
AcDbEntity
  8
M0
 62
   114
100
AcDbLine
 10
282.138181
 20
888.359658
 11
280.865355
 21
889.632484
  0
LINE
  5
6CD
100
AcDbEntity
  8
M0
 62
   114
100
AcDbLine
 10
281.289644
 20
887.511121
 11
282.138181
 21
888.359658
  0
LINE
  5
6CE
100
AcDbEntity
  8
M0
 62
   114
100
AcDbLine
 10
278.744034
 20
891.753805
 11
277.895497
 21
890.905268
  0
CIRCLE
  5
6CF
100
AcDbEntity
  8
M0
 62
   114
100
AcDbCircle
 10
280.016753
 20
889.632549
 40
5.0
  0
CIRCLE
  5
6D0
100
AcDbEntity
  8
M0
 62
   114
100
AcDbCircle
 10
230.016753
 20
889.632549
 40
4.5
  0
LINE
  5
6D1
100
AcDbEntity
  8
M0
 62
   114
100
AcDbLine
 10
230.865355
 20
889.632484
 11
233.594636
 21
892.361766
  0
LINE
  5
6D2
100
AcDbEntity
  8
M0
 62
   114
100
AcDbLine
 10
227.287525
 20
886.054655
 11
230.016818
 21
888.783948
  0
LINE
  5
6D3
100
AcDbEntity
  8
M0
 62
   114
100
AcDbLine
 10
229.168335
 20
889.63243
 11
226.43901
 21
886.903106
  0
LINE
  5
6D4
100
AcDbEntity
  8
M0
 62
   114
100
AcDbLine
 10
232.746175
 20
893.210292
 11
230.016872
 21
890.480967
  0
LINE
  5
6D5
100
AcDbEntity
  8
M0
 62
   114
100
AcDbLine
 10
230.016818
 20
888.783948
 11
231.289644
 21
887.511121
  0
LINE
  5
6D6
100
AcDbEntity
  8
M0
 62
   114
100
AcDbLine
 10
227.895497
 20
890.905268
 11
229.168324
 21
889.632441
  0
LINE
  5
6D7
100
AcDbEntity
  8
M0
 62
   114
100
AcDbLine
 10
230.016861
 20
890.480978
 11
228.744034
 21
891.753805
  0
LINE
  5
6D8
100
AcDbEntity
  8
M0
 62
   114
100
AcDbLine
 10
232.138181
 20
888.359658
 11
230.865355
 21
889.632484
  0
LINE
  5
6D9
100
AcDbEntity
  8
M0
 62
   114
100
AcDbLine
 10
231.289644
 20
887.511121
 11
232.138181
 21
888.359658
  0
LINE
  5
6DA
100
AcDbEntity
  8
M0
 62
   114
100
AcDbLine
 10
228.744034
 20
891.753805
 11
227.895497
 21
890.905268
  0
CIRCLE
  5
6DB
100
AcDbEntity
  8
M0
 62
   114
100
AcDbCircle
 10
230.016753
 20
889.632549
 40
5.0
  0
CIRCLE
  5
6DC
100
AcDbEntity
  8
M0
 62
   114
100
AcDbCircle
 10
230.016753
 20
929.632549
 40
4.5
  0
LINE
  5
6DD
100
AcDbEntity
  8
M0
 62
   114
100
AcDbLine
 10
230.865355
 20
929.632484
 11
233.594636
 21
932.361766
  0
LINE
  5
6DE
100
AcDbEntity
  8
M0
 62
   114
100
AcDbLine
 10
227.287525
 20
926.054655
 11
230.016818
 21
928.783948
  0
LINE
  5
6DF
100
AcDbEntity
  8
M0
 62
   114
100
AcDbLine
 10
229.168335
 20
929.63243
 11
226.43901
 21
926.903106
  0
LINE
  5
6E0
100
AcDbEntity
  8
M0
 62
   114
100
AcDbLine
 10
232.746175
 20
933.210292
 11
230.016872
 21
930.480967
  0
LINE
  5
6E1
100
AcDbEntity
  8
M0
 62
   114
100
AcDbLine
 10
230.016818
 20
928.783948
 11
231.289644
 21
927.511121
  0
LINE
  5
6E2
100
AcDbEntity
  8
M0
 62
   114
100
AcDbLine
 10
227.895497
 20
930.905268
 11
229.168324
 21
929.632441
  0
LINE
  5
6E3
100
AcDbEntity
  8
M0
 62
   114
100
AcDbLine
 10
230.016861
 20
930.480978
 11
228.744034
 21
931.753805
  0
LINE
  5
6E4
100
AcDbEntity
  8
M0
 62
   114
100
AcDbLine
 10
232.138181
 20
928.359658
 11
230.865355
 21
929.632484
  0
LINE
  5
6E5
100
AcDbEntity
  8
M0
 62
   114
100
AcDbLine
 10
231.289644
 20
927.511121
 11
232.138181
 21
928.359658
  0
LINE
  5
6E6
100
AcDbEntity
  8
M0
 62
   114
100
AcDbLine
 10
228.744034
 20
931.753805
 11
227.895497
 21
930.905268
  0
CIRCLE
  5
6E7
100
AcDbEntity
  8
M0
 62
   114
100
AcDbCircle
 10
230.016753
 20
929.632549
 40
5.0
  0
CIRCLE
  5
6E8
100
AcDbEntity
  8
M0
 62
   114
100
AcDbCircle
 10
247.516753
 20
889.632549
 40
4.5
  0
LINE
  5
6E9
100
AcDbEntity
  8
M0
 62
   114
100
AcDbLine
 10
248.365355
 20
889.632484
 11
251.094636
 21
892.361766
  0
LINE
  5
6EA
100
AcDbEntity
  8
M0
 62
   114
100
AcDbLine
 10
244.787525
 20
886.054655
 11
247.516818
 21
888.783948
  0
LINE
  5
6EB
100
AcDbEntity
  8
M0
 62
   114
100
AcDbLine
 10
246.668335
 20
889.63243
 11
243.93901
 21
886.903106
  0
LINE
  5
6EC
100
AcDbEntity
  8
M0
 62
   114
100
AcDbLine
 10
250.246175
 20
893.210292
 11
247.516872
 21
890.480967
  0
LINE
  5
6ED
100
AcDbEntity
  8
M0
 62
   114
100
AcDbLine
 10
247.516818
 20
888.783948
 11
248.789644
 21
887.511121
  0
LINE
  5
6EE
100
AcDbEntity
  8
M0
 62
   114
100
AcDbLine
 10
245.395497
 20
890.905268
 11
246.668324
 21
889.632441
  0
LINE
  5
6EF
100
AcDbEntity
  8
M0
 62
   114
100
AcDbLine
 10
247.516861
 20
890.480978
 11
246.244034
 21
891.753805
  0
LINE
  5
6F0
100
AcDbEntity
  8
M0
 62
   114
100
AcDbLine
 10
249.638181
 20
888.359658
 11
248.365355
 21
889.632484
  0
LINE
  5
6F1
100
AcDbEntity
  8
M0
 62
   114
100
AcDbLine
 10
248.789644
 20
887.511121
 11
249.638181
 21
888.359658
  0
LINE
  5
6F2
100
AcDbEntity
  8
M0
 62
   114
100
AcDbLine
 10
246.244034
 20
891.753805
 11
245.395497
 21
890.905268
  0
CIRCLE
  5
6F3
100
AcDbEntity
  8
M0
 62
   114
100
AcDbCircle
 10
247.516753
 20
889.632549
 40
5.0
  0
CIRCLE
  5
6F4
100
AcDbEntity
  8
M0
 62
   114
100
AcDbCircle
 10
262.516753
 20
889.632549
 40
4.5
  0
LINE
  5
6F5
100
AcDbEntity
  8
M0
 62
   114
100
AcDbLine
 10
263.365355
 20
889.632484
 11
266.094636
 21
892.361766
  0
LINE
  5
6F6
100
AcDbEntity
  8
M0
 62
   114
100
AcDbLine
 10
259.787525
 20
886.054655
 11
262.516818
 21
888.783948
  0
LINE
  5
6F7
100
AcDbEntity
  8
M0
 62
   114
100
AcDbLine
 10
261.668335
 20
889.63243
 11
258.93901
 21
886.903106
  0
LINE
  5
6F8
100
AcDbEntity
  8
M0
 62
   114
100
AcDbLine
 10
265.246175
 20
893.210292
 11
262.516872
 21
890.480967
  0
LINE
  5
6F9
100
AcDbEntity
  8
M0
 62
   114
100
AcDbLine
 10
262.516818
 20
888.783948
 11
263.789644
 21
887.511121
  0
LINE
  5
6FA
100
AcDbEntity
  8
M0
 62
   114
100
AcDbLine
 10
260.395497
 20
890.905268
 11
261.668324
 21
889.632441
  0
LINE
  5
6FB
100
AcDbEntity
  8
M0
 62
   114
100
AcDbLine
 10
262.516861
 20
890.480978
 11
261.244034
 21
891.753805
  0
LINE
  5
6FC
100
AcDbEntity
  8
M0
 62
   114
100
AcDbLine
 10
264.638181
 20
888.359658
 11
263.365355
 21
889.632484
  0
LINE
  5
6FD
100
AcDbEntity
  8
M0
 62
   114
100
AcDbLine
 10
263.789644
 20
887.511121
 11
264.638181
 21
888.359658
  0
LINE
  5
6FE
100
AcDbEntity
  8
M0
 62
   114
100
AcDbLine
 10
261.244034
 20
891.753805
 11
260.395497
 21
890.905268
  0
CIRCLE
  5
6FF
100
AcDbEntity
  8
M0
 62
   114
100
AcDbCircle
 10
262.516753
 20
889.632549
 40
5.0
  0
CIRCLE
  5
700
100
AcDbEntity
  8
M0
 62
   114
100
AcDbCircle
 10
255.016753
 20
929.632549
 40
4.5
  0
LINE
  5
701
100
AcDbEntity
  8
M0
 62
   114
100
AcDbLine
 10
255.865355
 20
929.632484
 11
258.594636
 21
932.361766
  0
LINE
  5
702
100
AcDbEntity
  8
M0
 62
   114
100
AcDbLine
 10
252.287525
 20
926.054655
 11
255.016818
 21
928.783948
  0
LINE
  5
703
100
AcDbEntity
  8
M0
 62
   114
100
AcDbLine
 10
254.168335
 20
929.63243
 11
251.43901
 21
926.903106
  0
LINE
  5
704
100
AcDbEntity
  8
M0
 62
   114
100
AcDbLine
 10
257.746175
 20
933.210292
 11
255.016872
 21
930.480967
  0
LINE
  5
705
100
AcDbEntity
  8
M0
 62
   114
100
AcDbLine
 10
255.016818
 20
928.783948
 11
256.289644
 21
927.511121
  0
LINE
  5
706
100
AcDbEntity
  8
M0
 62
   114
100
AcDbLine
 10
252.895497
 20
930.905268
 11
254.168324
 21
929.632441
  0
LINE
  5
707
100
AcDbEntity
  8
M0
 62
   114
100
AcDbLine
 10
255.016861
 20
930.480978
 11
253.744034
 21
931.753805
  0
LINE
  5
708
100
AcDbEntity
  8
M0
 62
   114
100
AcDbLine
 10
257.138181
 20
928.359658
 11
255.865355
 21
929.632484
  0
LINE
  5
709
100
AcDbEntity
  8
M0
 62
   114
100
AcDbLine
 10
256.289644
 20
927.511121
 11
257.138181
 21
928.359658
  0
LINE
  5
70A
100
AcDbEntity
  8
M0
 62
   114
100
AcDbLine
 10
253.744034
 20
931.753805
 11
252.895497
 21
930.905268
  0
CIRCLE
  5
70B
100
AcDbEntity
  8
M0
 62
   114
100
AcDbCircle
 10
255.016753
 20
929.632549
 40
5.0
  0
ARC
  5
70C
100
AcDbEntity
  8
M0
 62
     1
100
AcDbCircle
 10
353.516733
 20
876.632522
 40
1.0
100
AcDbArc
 50
179.999126
 51
270.0
  0
ARC
  5
70D
100
AcDbEntity
  8
M0
 62
     1
100
AcDbCircle
 10
353.516733
 20
876.632522
 40
1.0
100
AcDbArc
 50
270.0
 51
360.0
  0
LINE
  5
70E
100
AcDbEntity
  8
M0
 62
     1
100
AcDbLine
 10
344.516771
 20
876.632538
 11
341.516771
 21
876.632538
  0
LINE
  5
70F
100
AcDbEntity
  8
M0
 62
     1
100
AcDbLine
 10
322.766817
 20
918.132267
 11
322.766817
 21
918.93256
  0
ARC
  5
710
100
AcDbEntity
  8
M0
 62
     1
100
AcDbCircle
 10
321.766817
 20
918.932562
 40
1.0
100
AcDbArc
 50
0.0
 51
89.999126
  0
LINE
  5
711
100
AcDbEntity
  8
M0
 62
     1
100
AcDbLine
 10
365.516781
 20
917.132493
 11
333.516832
 21
917.132299
  0
LINE
  5
712
100
AcDbEntity
  8
M0
 62
     1
100
AcDbLine
 10
303.016817
 20
918.432297
 11
303.016771
 21
883.132507
  0
LINE
  5
713
100
AcDbEntity
  8
M0
 62
     1
100
AcDbLine
 10
344.516755
 20
880.632538
 11
345.574052
 21
880.632538
  0
LINE
  5
714
100
AcDbEntity
  8
M0
 62
     1
100
AcDbLine
 10
365.516735
 20
878.132507
 11
365.516801
 21
920.132492
  0
LINE
  5
715
100
AcDbEntity
  8
M0
 62
     1
100
AcDbLine
 10
361.661794
 20
912.632499
 11
349.866796
 21
912.632517
  0
LINE
  5
716
100
AcDbEntity
  8
M0
 62
     1
100
AcDbLine
 10
328.516786
 20
885.632553
 11
328.516832
 21
919.13255
  0
LINE
  5
717
100
AcDbEntity
  8
M0
 62
     1
100
AcDbLine
 10
331.016786
 20
885.632553
 11
331.016832
 21
919.132546
  0
LINE
  5
718
100
AcDbEntity
  8
M0
 62
     1
100
AcDbLine
 10
318.516786
 20
885.632568
 11
318.516832
 21
919.132566
  0
LINE
  5
719
100
AcDbEntity
  8
M0
 62
     1
100
AcDbLine
 10
316.016786
 20
885.632583
 11
316.016832
 21
919.13257
  0
LINE
  5
71A
100
AcDbEntity
  8
M0
 62
     1
100
AcDbLine
 10
330.016847
 20
920.132548
 11
329.516847
 21
920.132549
  0
ARC
  5
71B
100
AcDbEntity
  8
M0
 62
     1
100
AcDbCircle
 10
330.016832
 20
919.132548
 40
1.0
100
AcDbArc
 50
0.0
 51
89.999126
  0
LINE
  5
71C
100
AcDbEntity
  8
M0
 62
     1
100
AcDbLine
 10
321.766817
 20
919.932561
 11
318.116762
 21
919.932541
  0
ARC
  5
71D
100
AcDbEntity
  8
M0
 62
     1
100
AcDbCircle
 10
329.516832
 20
919.132549
 40
1.0
100
AcDbArc
 50
89.999126
 51
179.999962
  0
LINE
  5
71E
100
AcDbEntity
  8
M0
 62
     1
100
AcDbLine
 10
339.516801
 20
899.632538
 11
332.516801
 21
899.632553
  0
LINE
  5
71F
100
AcDbEntity
  8
M0
 62
     1
100
AcDbLine
 10
339.516817
 20
904.132534
 11
332.516817
 21
904.132544
  0
LINE
  5
720
100
AcDbEntity
  8
M0
 62
     1
100
AcDbLine
 10
339.516817
 20
902.132538
 11
332.516817
 21
902.132553
  0
LINE
  5
721
100
AcDbEntity
  8
M0
 62
     1
100
AcDbLine
 10
333.016817
 20
904.132543
 11
333.016817
 21
904.332495
  0
LINE
  5
722
100
AcDbEntity
  8
M0
 62
     1
100
AcDbLine
 10
339.016817
 20
904.132534
 11
339.016817
 21
904.332485
  0
LINE
  5
723
100
AcDbEntity
  8
M0
 62
     1
100
AcDbLine
 10
338.516832
 20
913.932339
 11
338.516832
 21
917.132535
  0
LINE
  5
724
100
AcDbEntity
  8
M0
 62
     1
100
AcDbLine
 10
333.516832
 20
913.932348
 11
333.516832
 21
917.132543
  0
LINE
  5
725
100
AcDbEntity
  8
M0
 62
     1
100
AcDbLine
 10
326.016832
 20
913.932604
 11
326.016832
 21
917.132555
  0
LINE
  5
726
100
AcDbEntity
  8
M0
 62
     1
100
AcDbLine
 10
321.016832
 20
913.932611
 11
321.016832
 21
917.132562
  0
LINE
  5
727
100
AcDbEntity
  8
M0
 62
     1
100
AcDbLine
 10
308.516832
 20
913.932631
 11
308.516832
 21
917.132582
  0
LINE
  5
728
100
AcDbEntity
  8
M0
 62
     1
100
AcDbLine
 10
313.516832
 20
913.932624
 11
313.516832
 21
917.132575
  0
LINE
  5
729
100
AcDbEntity
  8
M0
 62
     1
100
AcDbLine
 10
320.516817
 20
904.132563
 11
320.516817
 21
904.332759
  0
LINE
  5
72A
100
AcDbEntity
  8
M0
 62
     1
100
AcDbLine
 10
326.516817
 20
904.132554
 11
326.516817
 21
904.332749
  0
LINE
  5
72B
100
AcDbEntity
  8
M0
 62
     1
100
AcDbLine
 10
308.016817
 20
904.132583
 11
308.016817
 21
904.332779
  0
LINE
  5
72C
100
AcDbEntity
  8
M0
 62
     1
100
AcDbLine
 10
314.016817
 20
904.132574
 11
314.016817
 21
904.332769
  0
LINE
  5
72D
100
AcDbEntity
  8
M0
 62
     1
100
AcDbLine
 10
333.516832
 20
917.132543
 11
331.016832
 21
917.132547
  0
LINE
  5
72E
100
AcDbEntity
  8
M0
 62
     1
100
AcDbLine
 10
321.016832
 20
917.132562
 11
318.516832
 21
917.132566
  0
LINE
  5
72F
100
AcDbEntity
  8
M0
 62
     1
100
AcDbLine
 10
308.516832
 20
917.132582
 11
306.016832
 21
917.132586
  0
LINE
  5
730
100
AcDbEntity
  8
M0
 62
     1
100
AcDbLine
 10
327.016817
 20
904.132553
 11
320.016817
 21
904.132564
  0
LINE
  5
731
100
AcDbEntity
  8
M0
 62
     1
100
AcDbLine
 10
314.516817
 20
904.132573
 11
307.516817
 21
904.132584
  0
LINE
  5
732
100
AcDbEntity
  8
M0
 62
     1
100
AcDbLine
 10
340.516817
 20
905.132532
 11
340.516832
 21
916.132532
  0
LINE
  5
733
100
AcDbEntity
  8
M0
 62
     1
100
AcDbLine
 10
331.516817
 20
905.132546
 11
331.516832
 21
916.132546
  0
LINE
  5
734
100
AcDbEntity
  8
M0
 62
     1
100
AcDbLine
 10
328.016817
 20
905.132552
 11
328.016832
 21
916.132552
  0
LINE
  5
735
100
AcDbEntity
  8
M0
 62
     1
100
AcDbLine
 10
319.016817
 20
905.132566
 11
319.016832
 21
916.132566
  0
LINE
  5
736
100
AcDbEntity
  8
M0
 62
     1
100
AcDbLine
 10
315.516817
 20
905.132571
 11
315.516832
 21
916.132571
  0
LINE
  5
737
100
AcDbEntity
  8
M0
 62
     1
100
AcDbLine
 10
306.516817
 20
905.132585
 11
306.516832
 21
916.132585
  0
LINE
  5
738
100
AcDbEntity
  8
M0
 62
     1
100
AcDbLine
 10
328.516832
 20
917.132551
 11
321.016832
 21
917.132318
  0
LINE
  5
739
100
AcDbEntity
  8
M0
 62
     1
100
AcDbLine
 10
316.016832
 20
917.132571
 11
308.516832
 21
917.132338
  0
LINE
  5
73A
100
AcDbEntity
  8
M0
 62
     1
100
AcDbLine
 10
341.016786
 20
882.132538
 11
341.016801
 21
900.632538
  0
ARC
  5
73B
100
AcDbEntity
  8
M0
 62
     1
100
AcDbCircle
 10
341.516832
 20
916.13253
 40
1.0
100
AcDbArc
 50
119.999201
 51
179.999945
  0
ARC
  5
73C
100
AcDbEntity
  8
M0
 62
     1
100
AcDbCircle
 10
329.016832
 20
916.13255
 40
1.0
100
AcDbArc
 50
119.999201
 51
179.999945
  0
ARC
  5
73D
100
AcDbEntity
  8
M0
 62
     1
100
AcDbCircle
 10
316.516832
 20
916.13257
 40
1.0
100
AcDbArc
 50
119.999201
 51
179.999945
  0
ARC
  5
73E
100
AcDbEntity
  8
M0
 62
     1
100
AcDbCircle
 10
330.516832
 20
916.132548
 40
1.0
100
AcDbArc
 50
0.0
 51
59.999258
  0
ARC
  5
73F
100
AcDbEntity
  8
M0
 62
     1
100
AcDbCircle
 10
318.016832
 20
916.132567
 40
1.0
100
AcDbArc
 50
0.0
 51
59.999258
  0
LINE
  5
740
100
AcDbEntity
  8
M0
 62
     1
100
AcDbLine
 10
306.016817
 20
905.132586
 11
306.016832
 21
917.132586
  0
ARC
  5
741
100
AcDbEntity
  8
M0
 62
     1
100
AcDbCircle
 10
305.516832
 20
916.132587
 40
1.0
100
AcDbArc
 50
0.0
 51
59.999258
  0
LINE
  5
742
100
AcDbEntity
  8
M0
 62
     1
100
AcDbLine
 10
313.266847
 20
918.45113
 11
313.266847
 21
918.932575
  0
ARC
  5
743
100
AcDbEntity
  8
M0
 62
     1
100
AcDbCircle
 10
314.266847
 20
918.932573
 40
1.0
100
AcDbArc
 50
89.999126
 51
179.999945
  0
ARC
  5
744
100
AcDbEntity
  8
M0
 62
     1
100
AcDbCircle
 10
317.516832
 20
919.132568
 40
1.0
100
AcDbArc
 50
0.0
 51
89.999126
  0
ARC
  5
745
100
AcDbEntity
  8
M0
 62
     1
100
AcDbCircle
 10
317.016832
 20
919.132569
 40
1.0
100
AcDbArc
 50
89.999126
 51
179.999962
  0
LINE
  5
746
100
AcDbEntity
  8
M0
 62
     1
100
AcDbLine
 10
316.016847
 20
918.432297
 11
303.016817
 21
918.432297
  0
LINE
  5
747
100
AcDbEntity
  8
M0
 62
     1
100
AcDbLine
 10
314.516817
 20
902.132583
 11
303.016786
 21
902.132599
  0
LINE
  5
748
100
AcDbEntity
  8
M0
 62
     1
100
AcDbLine
 10
327.016817
 20
902.132553
 11
320.016817
 21
902.132568
  0
ARC
  5
749
100
AcDbEntity
  8
M0
 62
     1
100
AcDbCircle
 10
327.016817
 20
905.632553
 40
1.499996
100
AcDbArc
 50
270.0
 51
360.0
  0
ARC
  5
74A
100
AcDbEntity
  8
M0
 62
     1
100
AcDbCircle
 10
314.516817
 20
905.632573
 40
1.499996
100
AcDbArc
 50
270.0
 51
360.0
  0
ARC
  5
74B
100
AcDbEntity
  8
M0
 62
     1
100
AcDbCircle
 10
314.516817
 20
905.132573
 40
1.0
100
AcDbArc
 50
270.0
 51
360.0
  0
ARC
  5
74C
100
AcDbEntity
  8
M0
 62
     1
100
AcDbCircle
 10
327.016817
 20
905.132553
 40
1.0
100
AcDbArc
 50
270.0
 51
360.0
  0
ARC
  5
74D
100
AcDbEntity
  8
M0
 62
     1
100
AcDbCircle
 10
339.516817
 20
905.632534
 40
1.499996
100
AcDbArc
 50
270.0
 51
360.0
  0
ARC
  5
74E
100
AcDbEntity
  8
M0
 62
     1
100
AcDbCircle
 10
339.516817
 20
905.132534
 40
1.0
100
AcDbArc
 50
270.0
 51
360.0
  0
ARC
  5
74F
100
AcDbEntity
  8
M0
 62
     1
100
AcDbCircle
 10
332.516817
 20
905.632544
 40
1.499996
100
AcDbArc
 50
179.999964
 51
270.0
  0
ARC
  5
750
100
AcDbEntity
  8
M0
 62
     1
100
AcDbCircle
 10
320.016817
 20
905.632564
 40
1.499996
100
AcDbArc
 50
179.999964
 51
270.0
  0
ARC
  5
751
100
AcDbEntity
  8
M0
 62
     1
100
AcDbCircle
 10
332.516817
 20
905.132544
 40
1.0
100
AcDbArc
 50
179.999945
 51
270.0
  0
ARC
  5
752
100
AcDbEntity
  8
M0
 62
     1
100
AcDbCircle
 10
320.016817
 20
905.132564
 40
1.0
100
AcDbArc
 50
179.999945
 51
270.0
  0
ARC
  5
753
100
AcDbEntity
  8
M0
 62
     1
100
AcDbCircle
 10
307.516817
 20
905.132584
 40
1.0
100
AcDbArc
 50
179.999945
 51
270.0
  0
ARC
  5
754
100
AcDbEntity
  8
M0
 62
     1
100
AcDbCircle
 10
307.516817
 20
905.632584
 40
1.499996
100
AcDbArc
 50
179.999964
 51
270.0
  0
ARC
  5
755
100
AcDbEntity
  8
M0
 62
     1
100
AcDbCircle
 10
305.016817
 20
905.132588
 40
1.0
100
AcDbArc
 50
270.0
 51
360.0
  0
LINE
  5
756
100
AcDbEntity
  8
M0
 62
     1
100
AcDbLine
 10
305.016817
 20
904.132588
 11
303.016786
 21
904.132591
  0
LINE
  5
757
100
AcDbEntity
  8
M0
 62
     1
100
AcDbLine
 10
341.016786
 20
889.632538
 11
331.016786
 21
889.632553
  0
LINE
  5
758
100
AcDbEntity
  8
M0
 62
     1
100
AcDbLine
 10
341.016817
 20
905.632531
 11
341.016832
 21
917.132531
  0
ARC
  5
759
100
AcDbEntity
  8
M0
 62
     1
100
AcDbCircle
 10
332.516801
 20
900.632553
 40
1.499996
100
AcDbArc
 50
89.999417
 51
179.999417
  0
ARC
  5
75A
100
AcDbEntity
  8
M0
 62
     1
100
AcDbCircle
 10
339.516801
 20
900.632538
 40
1.499996
100
AcDbArc
 50
0.0
 51
89.999417
  0
ARC
  5
75B
100
AcDbEntity
  8
M0
 62
     1
100
AcDbCircle
 10
327.016801
 20
900.632553
 40
1.499996
100
AcDbArc
 50
0.0
 51
89.999417
  0
ARC
  5
75C
100
AcDbEntity
  8
M0
 62
     1
100
AcDbCircle
 10
320.016801
 20
900.632568
 40
1.499996
100
AcDbArc
 50
89.999417
 51
179.999417
  0
ARC
  5
75D
100
AcDbEntity
  8
M0
 62
     1
100
AcDbCircle
 10
314.516801
 20
900.632583
 40
1.499996
100
AcDbArc
 50
0.0
 51
89.999417
  0
LINE
  5
75E
100
AcDbEntity
  8
M0
 62
     1
100
AcDbLine
 10
306.016786
 20
889.132599
 11
306.016817
 21
901.132599
  0
ARC
  5
75F
100
AcDbEntity
  8
M0
 62
     1
100
AcDbCircle
 10
307.516801
 20
900.632599
 40
1.499996
100
AcDbArc
 50
89.999417
 51
179.999417
  0
ARC
  5
760
100
AcDbEntity
  8
M0
 62
     1
100
AcDbCircle
 10
305.016817
 20
901.132599
 40
1.0
100
AcDbArc
 50
0.0
 51
89.999126
  0
LINE
  5
761
100
AcDbEntity
  8
M0
 62
     1
100
AcDbLine
 10
328.516786
 20
889.632553
 11
318.516786
 21
889.632568
  0
LINE
  5
762
100
AcDbEntity
  8
M0
 62
     1
100
AcDbLine
 10
316.016786
 20
889.632583
 11
306.016786
 21
889.632599
  0
ARC
  5
763
100
AcDbEntity
  8
M0
 62
     1
100
AcDbCircle
 10
339.516801
 20
898.132538
 40
1.499996
100
AcDbArc
 50
0.0
 51
89.999417
  0
LINE
  5
764
100
AcDbEntity
  8
M0
 62
     1
100
AcDbLine
 10
327.016801
 20
899.632553
 11
320.016801
 21
899.632568
  0
LINE
  5
765
100
AcDbEntity
  8
M0
 62
     1
100
AcDbLine
 10
314.516801
 20
899.632583
 11
307.516801
 21
899.632599
  0
ARC
  5
766
100
AcDbEntity
  8
M0
 62
     1
100
AcDbCircle
 10
332.516801
 20
898.132553
 40
1.499996
100
AcDbArc
 50
89.999417
 51
179.999417
  0
ARC
  5
767
100
AcDbEntity
  8
M0
 62
     1
100
AcDbCircle
 10
320.016801
 20
898.132568
 40
1.499996
100
AcDbArc
 50
89.999417
 51
179.999417
  0
ARC
  5
768
100
AcDbEntity
  8
M0
 62
     1
100
AcDbCircle
 10
307.516801
 20
898.132599
 40
1.499996
100
AcDbArc
 50
89.999417
 51
179.999417
  0
ARC
  5
769
100
AcDbEntity
  8
M0
 62
     1
100
AcDbCircle
 10
327.016801
 20
898.132553
 40
1.499996
100
AcDbArc
 50
0.0
 51
89.999417
  0
ARC
  5
76A
100
AcDbEntity
  8
M0
 62
     1
100
AcDbCircle
 10
314.516801
 20
898.132583
 40
1.499996
100
AcDbArc
 50
0.0
 51
89.999417
  0
LINE
  5
76B
100
AcDbEntity
  8
M0
 62
     1
100
AcDbLine
 10
340.516786
 20
890.632538
 11
340.516801
 21
898.632538
  0
LINE
  5
76C
100
AcDbEntity
  8
M0
 62
     1
100
AcDbLine
 10
331.516786
 20
890.632553
 11
331.516801
 21
898.632553
  0
LINE
  5
76D
100
AcDbEntity
  8
M0
 62
     1
100
AcDbLine
 10
328.016786
 20
890.632553
 11
328.016801
 21
898.632553
  0
LINE
  5
76E
100
AcDbEntity
  8
M0
 62
     1
100
AcDbLine
 10
319.016786
 20
890.632568
 11
319.016801
 21
898.632568
  0
LINE
  5
76F
100
AcDbEntity
  8
M0
 62
     1
100
AcDbLine
 10
315.516786
 20
890.632583
 11
315.516801
 21
898.632583
  0
LINE
  5
770
100
AcDbEntity
  8
M0
 62
     1
100
AcDbLine
 10
306.516786
 20
890.632599
 11
306.516801
 21
898.632599
  0
ARC
  5
771
100
AcDbEntity
  8
M0
 62
     1
100
AcDbCircle
 10
339.516801
 20
898.632538
 40
1.0
100
AcDbArc
 50
0.0
 51
89.999126
  0
ARC
  5
772
100
AcDbEntity
  8
M0
 62
     1
100
AcDbCircle
 10
327.016801
 20
898.632553
 40
1.0
100
AcDbArc
 50
0.0
 51
89.999126
  0
ARC
  5
773
100
AcDbEntity
  8
M0
 62
     1
100
AcDbCircle
 10
314.516801
 20
898.632583
 40
1.0
100
AcDbArc
 50
0.0
 51
89.999126
  0
ARC
  5
774
100
AcDbEntity
  8
M0
 62
     1
100
AcDbCircle
 10
332.516801
 20
898.632553
 40
1.0
100
AcDbArc
 50
89.999126
 51
179.999126
  0
ARC
  5
775
100
AcDbEntity
  8
M0
 62
     1
100
AcDbCircle
 10
320.016801
 20
898.632568
 40
1.0
100
AcDbArc
 50
89.999126
 51
179.999126
  0
ARC
  5
776
100
AcDbEntity
  8
M0
 62
     1
100
AcDbCircle
 10
307.516801
 20
898.632599
 40
1.0
100
AcDbArc
 50
89.999126
 51
179.999126
  0
ARC
  5
777
100
AcDbEntity
  8
M0
 62
     1
100
AcDbCircle
 10
341.516786
 20
890.632538
 40
1.0
100
AcDbArc
 50
179.999126
 51
239.999632
  0
ARC
  5
778
100
AcDbEntity
  8
M0
 62
     1
100
AcDbCircle
 10
329.016786
 20
890.632553
 40
1.0
100
AcDbArc
 50
179.999126
 51
239.999632
  0
ARC
  5
779
100
AcDbEntity
  8
M0
 62
     1
100
AcDbCircle
 10
316.516786
 20
890.632583
 40
1.0
100
AcDbArc
 50
179.999126
 51
239.999632
  0
ARC
  5
77A
100
AcDbEntity
  8
M0
 62
     1
100
AcDbCircle
 10
305.516786
 20
890.632599
 40
1.0
100
AcDbArc
 50
300.001125
 51
360.0
  0
ARC
  5
77B
100
AcDbEntity
  8
M0
 62
     1
100
AcDbCircle
 10
318.016786
 20
890.632568
 40
1.0
100
AcDbArc
 50
300.001125
 51
360.0
  0
ARC
  5
77C
100
AcDbEntity
  8
M0
 62
     1
100
AcDbCircle
 10
330.516786
 20
890.632553
 40
1.0
100
AcDbArc
 50
300.001125
 51
360.0
  0
LINE
  5
77D
100
AcDbEntity
  8
M0
 62
     1
100
AcDbLine
 10
330.016786
 20
884.632553
 11
329.516786
 21
884.632553
  0
LINE
  5
77E
100
AcDbEntity
  8
M0
 62
     1
100
AcDbLine
 10
317.516786
 20
884.632568
 11
317.016786
 21
884.632583
  0
ARC
  5
77F
100
AcDbEntity
  8
M0
 62
     1
100
AcDbCircle
 10
317.016786
 20
885.632583
 40
1.0
100
AcDbArc
 50
179.999126
 51
270.0
  0
ARC
  5
780
100
AcDbEntity
  8
M0
 62
     1
100
AcDbCircle
 10
317.516786
 20
885.632568
 40
1.0
100
AcDbArc
 50
270.0
 51
360.0
  0
ARC
  5
781
100
AcDbEntity
  8
M0
 62
     1
100
AcDbCircle
 10
329.516786
 20
885.632553
 40
1.0
100
AcDbArc
 50
179.999126
 51
270.0
  0
ARC
  5
782
100
AcDbEntity
  8
M0
 62
     1
100
AcDbCircle
 10
330.016786
 20
885.632553
 40
1.0
100
AcDbArc
 50
270.0
 51
360.0
  0
LINE
  5
783
100
AcDbEntity
  8
M0
 62
     1
100
AcDbLine
 10
341.016786
 20
883.132538
 11
331.266786
 21
883.132553
  0
LINE
  5
784
100
AcDbEntity
  8
M0
 62
     1
100
AcDbLine
 10
310.266786
 20
883.132583
 11
310.266786
 21
889.632583
  0
LINE
  5
785
100
AcDbEntity
  8
M0
 62
     1
100
AcDbLine
 10
314.766786
 20
883.132583
 11
314.766786
 21
889.632583
  0
LINE
  5
786
100
AcDbEntity
  8
M0
 62
     1
100
AcDbLine
 10
335.266786
 20
883.132553
 11
335.266786
 21
889.632553
  0
LINE
  5
787
100
AcDbEntity
  8
M0
 62
     1
100
AcDbLine
 10
339.766786
 20
883.132538
 11
339.766786
 21
889.632538
  0
LINE
  5
788
100
AcDbEntity
  8
M0
 62
     1
100
AcDbLine
 10
305.016786
 20
888.132599
 11
303.016755
 21
888.132599
  0
ARC
  5
789
100
AcDbEntity
  8
M0
 62
     1
100
AcDbCircle
 10
305.016786
 20
889.132599
 40
1.0
100
AcDbArc
 50
270.0
 51
360.0
  0
LINE
  5
78A
100
AcDbEntity
  8
M0
 62
     1
100
AcDbLine
 10
362.516736
 20
878.632507
 11
362.516761
 21
894.732544
  0
LINE
  5
78B
100
AcDbEntity
  8
M0
 62
     1
100
AcDbLine
 10
365.016733
 20
886.632507
 11
363.516734
 21
886.632507
  0
ARC
  5
78C
100
AcDbEntity
  8
M0
 62
     1
100
AcDbCircle
 10
365.016734
 20
887.132507
 40
0.5
100
AcDbArc
 50
270.0
 51
360.0
  0
ARC
  5
78D
100
AcDbEntity
  8
M0
 62
     1
100
AcDbCircle
 10
363.516735
 20
887.632507
 40
1.0
100
AcDbArc
 50
179.999126
 51
270.0
  0
LINE
  5
78E
100
AcDbEntity
  8
M0
 62
     1
100
AcDbLine
 10
365.016737
 20
879.632507
 11
363.516737
 21
879.632507
  0
LINE
  5
78F
100
AcDbEntity
  8
M0
 62
     1
100
AcDbLine
 10
365.016734
 20
877.632507
 11
363.516735
 21
877.632507
  0
ARC
  5
790
100
AcDbEntity
  8
M0
 62
     1
100
AcDbCircle
 10
365.016735
 20
878.132507
 40
0.5
100
AcDbArc
 50
270.0
 51
360.0
  0
ARC
  5
791
100
AcDbEntity
  8
M0
 62
     1
100
AcDbCircle
 10
363.516736
 20
878.632507
 40
1.0
100
AcDbArc
 50
179.999126
 51
270.0
  0
ARC
  5
792
100
AcDbEntity
  8
M0
 62
     1
100
AcDbCircle
 10
365.016738
 20
880.132507
 40
0.5
100
AcDbArc
 50
270.0
 51
360.0
  0
ARC
  5
793
100
AcDbEntity
  8
M0
 62
     1
100
AcDbCircle
 10
363.516739
 20
880.632507
 40
1.0
100
AcDbArc
 50
179.999126
 51
270.0
  0
LINE
  5
794
100
AcDbEntity
  8
M0
 62
     1
100
AcDbLine
 10
365.016745
 20
884.632507
 11
363.516746
 21
884.632507
  0
ARC
  5
795
100
AcDbEntity
  8
M0
 62
     1
100
AcDbCircle
 10
363.516747
 20
885.632507
 40
1.0
100
AcDbArc
 50
179.999126
 51
270.0
  0
ARC
  5
796
100
AcDbEntity
  8
M0
 62
     1
100
AcDbCircle
 10
365.016746
 20
885.132507
 40
0.5
100
AcDbArc
 50
270.0
 51
360.0
  0
LINE
  5
797
100
AcDbEntity
  8
M0
 62
     1
100
AcDbLine
 10
354.516733
 20
876.632522
 11
354.516759
 21
893.432541
  0
LINE
  5
798
100
AcDbEntity
  8
M0
 62
     1
100
AcDbLine
 10
361.459
 20
880.632507
 11
362.516709
 21
880.632507
  0
LINE
  5
799
100
AcDbEntity
  8
M0
 62
     1
100
AcDbLine
 10
362.51672
 20
887.632507
 11
361.767407
 21
887.632263
  0
LINE
  5
79A
100
AcDbEntity
  8
M0
 62
     1
100
AcDbLine
 10
355.265789
 20
887.632278
 11
354.51672
 21
887.632522
  0
LINE
  5
79B
100
AcDbEntity
  8
M0
 62
     1
100
AcDbLine
 10
351.516714
 20
883.632522
 11
351.516743
 21
893.432541
  0
LINE
  5
79C
100
AcDbEntity
  8
M0
 62
     1
100
AcDbLine
 10
353.516742
 20
882.632522
 11
352.516742
 21
882.632522
  0
ARC
  5
79D
100
AcDbEntity
  8
M0
 62
     1
100
AcDbCircle
 10
353.516744
 20
883.632522
 40
1.0
100
AcDbArc
 50
270.0
 51
360.0
  0
ARC
  5
79E
100
AcDbEntity
  8
M0
 62
     1
100
AcDbCircle
 10
352.516744
 20
883.632522
 40
1.0
100
AcDbArc
 50
179.999126
 51
270.0
  0
LINE
  5
79F
100
AcDbEntity
  8
M0
 62
     1
100
AcDbLine
 10
343.516786
 20
885.132553
 11
343.516801
 21
896.132538
  0
LINE
  5
7A0
100
AcDbEntity
  8
M0
 62
     1
100
AcDbLine
 10
350.457806
 20
887.632522
 11
351.516751
 21
887.632522
  0
LINE
  5
7A1
100
AcDbEntity
  8
M0
 62
     1
100
AcDbLine
 10
345.516755
 20
880.632538
 11
345.516755
 21
880.818329
  0
LINE
  5
7A2
100
AcDbEntity
  8
M0
 62
     1
100
AcDbLine
 10
344.516771
 20
876.632538
 11
344.516771
 21
887.814422
  0
LINE
  5
7A3
100
AcDbEntity
  8
M0
 62
     1
100
AcDbLine
 10
352.516733
 20
876.632522
 11
352.516742
 21
882.632522
  0
LINE
  5
7A4
100
AcDbEntity
  8
M0
 62
     1
100
AcDbLine
 10
354.516709
 20
880.632522
 11
355.574036
 21
880.632522
  0
LINE
  5
7A5
100
AcDbEntity
  8
M0
 62
     1
100
AcDbLine
 10
344.516786
 20
882.132538
 11
341.016786
 21
882.132538
  0
LINE
  5
7A6
100
AcDbEntity
  8
M0
 62
     1
100
AcDbLine
 10
344.516786
 20
884.132538
 11
341.016786
 21
884.132538
  0
LINE
  5
7A7
100
AcDbEntity
  8
M0
 62
     1
100
AcDbLine
 10
343.516786
 20
885.632538
 11
343.516801
 21
896.132538
  0
ARC
  5
7A8
100
AcDbEntity
  8
M0
 62
     1
100
AcDbCircle
 10
342.016786
 20
885.132538
 40
1.0
100
AcDbArc
 50
179.999126
 51
270.0
  0
ARC
  5
7A9
100
AcDbEntity
  8
M0
 62
     1
100
AcDbCircle
 10
342.516786
 20
885.132538
 40
1.0
100
AcDbArc
 50
270.0
 51
360.0
  0
LINE
  5
7AA
100
AcDbEntity
  8
M0
 62
     1
100
AcDbLine
 10
341.516771
 20
876.632538
 11
341.516786
 21
882.132538
  0
ARC
  5
7AB
100
AcDbEntity
  8
M0
 62
     1
100
AcDbCircle
 10
345.016801
 20
894.632538
 40
1.499996
100
AcDbArc
 50
89.999417
 51
119.925542
  0
LINE
  5
7AC
100
AcDbEntity
  8
M0
 62
     1
100
AcDbLine
 10
343.366792
 20
903.632538
 11
341.866792
 21
902.132553
  0
LINE
  5
7AD
100
AcDbEntity
  8
M0
 62
     1
100
AcDbLine
 10
343.366792
 20
903.632538
 11
341.866792
 21
905.13253
  0
LINE
  5
7AE
100
AcDbEntity
  8
M0
 62
     1
100
AcDbLine
 10
341.016817
 20
902.132538
 11
341.016817
 21
905.632531
  0
LINE
  5
7AF
100
AcDbEntity
  8
M0
 62
     1
100
AcDbLine
 10
349.866796
 20
912.632517
 11
349.866804
 21
917.132517
  0
LINE
  5
7B0
100
AcDbEntity
  8
M0
 62
     1
100
AcDbLine
 10
361.661794
 20
912.632499
 11
361.661802
 21
917.132499
  0
LINE
  5
7B1
100
AcDbEntity
  8
M0
 62
     1
100
AcDbLine
 10
343.366823
 20
917.132493
 11
343.366823
 21
902.132263
  0
LINE
  5
7B2
100
AcDbEntity
  8
M0
 62
     1
100
AcDbLine
 10
341.866792
 20
902.132263
 11
341.016832
 21
902.132507
  0
LINE
  5
7B3
100
AcDbEntity
  8
M0
 62
     1
100
AcDbLine
 10
341.866807
 20
905.132249
 11
341.016832
 21
905.132493
  0
LINE
  5
7B4
100
AcDbEntity
  8
M0
 62
     1
100
AcDbLine
 10
343.366777
 20
900.382538
 11
341.016801
 21
900.382538
  0
LINE
  5
7B5
100
AcDbEntity
  8
M0
 62
     1
100
AcDbLine
 10
343.366792
 20
906.882527
 11
341.016817
 21
906.882531
  0
LINE
  5
7B6
100
AcDbEntity
  8
M0
 62
     1
100
AcDbLine
 10
327.516817
 20
902.046768
 11
327.516817
 21
904.218353
  0
LINE
  5
7B7
100
AcDbEntity
  8
M0
 62
     1
100
AcDbLine
 10
332.016817
 20
902.046768
 11
332.016817
 21
904.218345
  0
LINE
  5
7B8
100
AcDbEntity
  8
M0
 62
     1
100
AcDbLine
 10
338.016817
 20
902.132538
 11
338.016817
 21
904.132536
  0
ARC
  5
7B9
100
AcDbEntity
  8
M0
 62
     1
100
AcDbCircle
 10
312.516786
 20
887.632583
 40
2.249995
100
AcDbArc
 50
179.999611
 51
360.0
  0
LINE
  5
7BA
100
AcDbEntity
  8
M0
 62
     1
100
AcDbLine
 10
325.016786
 20
884.132568
 11
325.016786
 21
886.632568
  0
ARC
  5
7BB
100
AcDbEntity
  8
M0
 62
     1
100
AcDbCircle
 10
337.516786
 20
887.632538
 40
2.249995
100
AcDbArc
 50
179.999611
 51
360.0
  0
LINE
  5
7BC
100
AcDbEntity
  8
M0
 62
     1
100
AcDbLine
 10
328.016801
 20
898.132553
 11
327.615602
 21
898.132309
  0
LINE
  5
7BD
100
AcDbEntity
  8
M0
 62
     1
100
AcDbLine
 10
315.516801
 20
898.132583
 11
315.115602
 21
898.132339
  0
ARC
  5
7BE
100
AcDbEntity
  8
M0
 62
     1
100
AcDbCircle
 10
305.966813
 20
896.632599
 40
1.499996
100
AcDbArc
 50
50.758901
 51
68.48984
  0
ARC
  5
7BF
100
AcDbEntity
  8
M0
 62
     1
100
AcDbCircle
 10
316.066789
 20
896.632583
 40
1.499996
100
AcDbArc
 50
111.509618
 51
129.359081
  0
ARC
  5
7C0
100
AcDbEntity
  8
M0
 62
     1
100
AcDbCircle
 10
318.466844
 20
896.632568
 40
1.499996
100
AcDbArc
 50
50.759721
 51
68.48984
  0
ARC
  5
7C1
100
AcDbEntity
  8
M0
 62
     1
100
AcDbCircle
 10
341.066789
 20
896.632538
 40
1.499996
100
AcDbArc
 50
111.509618
 51
129.359901
  0
ARC
  5
7C2
100
AcDbEntity
  8
M0
 62
     1
100
AcDbCircle
 10
330.966813
 20
896.632553
 40
1.499996
100
AcDbArc
 50
50.759721
 51
68.48984
  0
LINE
  5
7C3
100
AcDbEntity
  8
M0
 62
     1
100
AcDbLine
 10
340.516801
 20
898.132538
 11
340.115571
 21
898.132293
  0
LINE
  5
7C4
100
AcDbEntity
  8
M0
 62
     1
100
AcDbLine
 10
351.459015
 20
880.632522
 11
352.516709
 21
880.632522
  0
LINE
  5
7C5
100
AcDbEntity
  8
M0
 62
     1
100
AcDbLine
 10
331.266786
 20
883.132553
 11
331.266786
 21
887.632553
  0
LINE
  5
7C6
100
AcDbEntity
  8
M0
 62
     1
100
AcDbLine
 10
324.016786
 20
883.132568
 11
303.016755
 21
883.132599
  0
LINE
  5
7C7
100
AcDbEntity
  8
M0
 62
     1
100
AcDbLine
 10
328.516786
 20
888.632553
 11
327.016786
 21
888.632553
  0
ARC
  5
7C8
100
AcDbEntity
  8
M0
 62
     1
100
AcDbCircle
 10
327.016786
 20
886.632553
 40
1.999995
100
AcDbArc
 50
89.999563
 51
179.999563
  0
ARC
  5
7C9
100
AcDbEntity
  8
M0
 62
     1
100
AcDbCircle
 10
324.016786
 20
884.132568
 40
1.0
100
AcDbArc
 50
270.0
 51
360.0
  0
ARC
  5
7CA
100
AcDbEntity
  8
M0
 62
     1
100
AcDbCircle
 10
330.266786
 20
887.632553
 40
1.0
100
AcDbArc
 50
0.0
 51
41.409629
  0
LINE
  5
7CB
100
AcDbEntity
  8
M0
 62
     1
100
AcDbLine
 10
305.016832
 20
918.132588
 11
303.016801
 21
918.132591
  0
ARC
  5
7CC
100
AcDbEntity
  8
M0
 62
     1
100
AcDbCircle
 10
305.016832
 20
917.132588
 40
1.0
100
AcDbArc
 50
0.0
 51
89.999126
  0
LINE
  5
7CD
100
AcDbEntity
  8
M0
 62
     1
100
AcDbLine
 10
365.516801
 20
920.132492
 11
357.016802
 21
920.132505
  0
LINE
  5
7CE
100
AcDbEntity
  8
M0
 62
     1
100
AcDbLine
 10
356.016799
 20
918.332519
 11
356.0168
 21
919.132507
  0
LINE
  5
7CF
100
AcDbEntity
  8
M0
 62
     1
100
AcDbLine
 10
356.016799
 20
918.13252
 11
331.016847
 21
918.13256
  0
ARC
  5
7D0
100
AcDbEntity
  8
M0
 62
     1
100
AcDbCircle
 10
357.0168
 20
919.132505
 40
1.0
100
AcDbArc
 50
90.0
 51
179.999962
  0
LINE
  5
7D1
100
AcDbEntity
  8
M0
 62
     1
100
AcDbLine
 10
328.516847
 20
918.132502
 11
318.516832
 21
918.132273
  0
LINE
  5
7D2
100
AcDbEntity
  8
M0
 62
     1
100
AcDbLine
 10
342.516771
 20
879.632538
 11
342.516786
 21
882.132538
  0
LINE
  5
7D3
100
AcDbEntity
  8
M0
 62
     1
100
AcDbLine
 10
344.516786
 20
878.632538
 11
341.516771
 21
878.632538
  0
ARC
  5
7D4
100
AcDbEntity
  8
M0
 62
     1
100
AcDbCircle
 10
343.516771
 20
879.632538
 40
1.0
100
AcDbArc
 50
179.999126
 51
270.0
  0
ARC
  5
7D5
100
AcDbEntity
  8
M0
 62
     1
100
AcDbCircle
 10
343.516771
 20
879.632538
 40
1.0
100
AcDbArc
 50
270.0
 51
360.0
  0
TEXT
  5
7D6
100
AcDbEntity
  8
M0
 62
     1
100
AcDbText
 10
310.367029
 20
899.482956
 40
2.800003
  1
２
 50
359.999928
 41
0.535719
  7
STANDARD
100
AcDbText
  0
TEXT
  5
7D7
100
AcDbEntity
  8
M0
 62
     1
100
AcDbText
 10
322.867029
 20
899.48294
 40
2.800003
  1
４
 50
359.999928
 41
0.535719
  7
STANDARD
100
AcDbText
  0
TEXT
  5
7D8
100
AcDbEntity
  8
M0
 62
     1
100
AcDbText
 10
335.366861
 20
899.482925
 40
2.800003
  1
６
 50
359.999928
 41
0.535719
  7
STANDARD
100
AcDbText
  0
LINE
  5
7D9
100
AcDbEntity
  8
M0
 62
     1
100
AcDbLine
 10
306.915605
 20
898.132355
 11
306.516801
 21
898.132599
  0
LINE
  5
7DA
100
AcDbEntity
  8
M0
 62
     1
100
AcDbLine
 10
319.415605
 20
898.132324
 11
319.016801
 21
898.132568
  0
LINE
  5
7DB
100
AcDbEntity
  8
M0
 62
     1
100
AcDbLine
 10
331.915574
 20
898.132309
 11
331.516801
 21
898.132553
  0
ARC
  5
7DC
100
AcDbEntity
  8
M0
 62
     1
100
AcDbCircle
 10
328.564317
 20
896.632309
 40
1.499994
100
AcDbArc
 50
111.509618
 51
129.239827
  0
LINE
  5
7DD
100
AcDbEntity
  8
M0
 62
     1
100
AcDbLine
 10
346.017167
 20
920.127835
 11
342.017167
 21
920.127842
  0
ARC
  5
7DE
100
AcDbEntity
  8
M0
 62
     1
100
AcDbCircle
 10
342.017167
 20
919.127842
 40
1.0
100
AcDbArc
 50
89.999126
 51
179.999945
  0
ARC
  5
7DF
100
AcDbEntity
  8
M0
 62
     1
100
AcDbCircle
 10
346.017167
 20
919.127836
 40
1.0
100
AcDbArc
 50
0.0
 51
89.999126
  0
LINE
  5
7E0
100
AcDbEntity
  8
M0
 62
     1
100
AcDbLine
 10
341.017167
 20
919.127844
 11
341.017167
 21
918.127844
  0
LINE
  5
7E1
100
AcDbEntity
  8
M0
 62
     1
100
AcDbLine
 10
347.017167
 20
919.127834
 11
347.017167
 21
918.127834
  0
LINE
  5
7E2
100
AcDbEntity
  8
M0
 62
     1
100
AcDbLine
 10
317.016847
 20
920.132492
 11
317.516847
 21
920.132492
  0
LINE
  5
7E3
100
AcDbEntity
  8
M0
 62
     1
100
AcDbLine
 10
316.416887
 20
919.932541
 11
314.266847
 21
919.932573
  0
LINE
  5
7E4
100
AcDbEntity
  8
M0
 62
     1
100
AcDbLine
 10
343.366823
 20
902.132263
 11
343.366777
 21
896.132538
  0
LINE
  5
7E5
100
AcDbEntity
  8
M0
 62
     1
100
AcDbLine
 10
346.016817
 20
896.132538
 11
341.016801
 21
896.132538
  0
CIRCLE
  5
7E6
100
AcDbEntity
  8
M0
 62
     1
100
AcDbCircle
 10
353.365744
 20
903.632751
 40
8.299999
  0
LINE
  5
7E7
100
AcDbEntity
  8
M0
 62
     1
100
AcDbLine
 10
343.81682
 20
898.632507
 11
343.81682
 21
914.23248
  0
LINE
  5
7E8
100
AcDbEntity
  8
M0
 62
     1
100
AcDbLine
 10
340.516817
 20
918.132477
 11
340.516817
 21
916.932477
  0
LINE
  5
7E9
100
AcDbEntity
  8
M0
 62
     1
100
AcDbLine
 10
340.516817
 20
895.93248
 11
340.516817
 21
894.732483
  0
LINE
  5
7EA
100
AcDbEntity
  8
M0
 62
     1
100
AcDbLine
 10
340.516817
 20
895.93248
 11
346.016817
 21
895.932495
  0
LINE
  5
7EB
100
AcDbEntity
  8
M0
 62
     1
100
AcDbLine
 10
340.516817
 20
916.932477
 11
346.016817
 21
916.932481
  0
LINE
  5
7EC
100
AcDbEntity
  8
M0
 62
     1
100
AcDbLine
 10
351.316818
 20
893.432495
 11
355.316818
 21
893.432495
  0
LINE
  5
7ED
100
AcDbEntity
  8
M0
 62
     1
100
AcDbLine
 10
357.516817
 20
894.732498
 11
355.316818
 21
893.432495
  0
LINE
  5
7EE
100
AcDbEntity
  8
M0
 62
     1
100
AcDbLine
 10
351.316818
 20
893.432495
 11
348.516817
 21
894.732498
  0
LINE
  5
7EF
100
AcDbEntity
  8
M0
 62
     1
100
AcDbLine
 10
348.516817
 20
894.732498
 11
340.516817
 21
894.732483
  0
LINE
  5
7F0
100
AcDbEntity
  8
M0
 62
     1
100
AcDbLine
 10
365.016816
 20
894.732513
 11
357.516817
 21
894.732498
  0
ARC
  5
7F1
100
AcDbEntity
  8
M0
 62
     1
100
AcDbCircle
 10
365.016816
 20
895.232513
 40
0.5
100
AcDbArc
 50
270.0
 51
360.0
  0
LINE
  5
7F2
100
AcDbEntity
  8
M0
 62
     1
100
AcDbLine
 10
353.865713
 20
913.48274
 11
357.865713
 21
913.48274
  0
LINE
  5
7F3
100
AcDbEntity
  8
M0
 62
     1
100
AcDbLine
 10
357.865713
 20
913.48274
 11
357.865713
 21
916.282739
  0
LINE
  5
7F4
100
AcDbEntity
  8
M0
 62
     1
100
AcDbLine
 10
357.865713
 20
916.282739
 11
353.865713
 21
916.282739
  0
LINE
  5
7F5
100
AcDbEntity
  8
M0
 62
     1
100
AcDbLine
 10
353.865713
 20
916.282739
 11
353.865713
 21
913.48274
  0
LINE
  5
7F6
100
AcDbEntity
  8
M0
 62
     1
100
AcDbLine
 10
365.516816
 20
895.232513
 11
365.516802
 21
917.632493
  0
LINE
  5
7F7
100
AcDbEntity
  8
M0
 62
     1
100
AcDbLine
 10
365.016801
 20
918.132493
 11
340.516817
 21
918.132477
  0
ARC
  5
7F8
100
AcDbEntity
  8
M0
 62
     1
100
AcDbCircle
 10
365.016802
 20
917.632493
 40
0.5
100
AcDbArc
 50
0.0
 51
90.0
  0
LINE
  5
7F9
100
AcDbEntity
  8
M0
 62
     1
100
AcDbLine
 10
346.016817
 20
895.932495
 11
346.016817
 21
897.632507
  0
LINE
  5
7FA
100
AcDbEntity
  8
M0
 62
     1
100
AcDbLine
 10
343.81682
 20
898.632507
 11
345.016817
 21
898.632507
  0
ARC
  5
7FB
100
AcDbEntity
  8
M0
 62
     1
100
AcDbCircle
 10
345.016817
 20
897.632507
 40
1.0
100
AcDbArc
 50
0.0
 51
89.999126
  0
LINE
  5
7FC
100
AcDbEntity
  8
M0
 62
     1
100
AcDbLine
 10
343.81682
 20
914.23248
 11
345.016817
 21
914.23248
  0
LINE
  5
7FD
100
AcDbEntity
  8
M0
 62
     1
100
AcDbLine
 10
346.016817
 20
915.232481
 11
346.016817
 21
916.932481
  0
ARC
  5
7FE
100
AcDbEntity
  8
M0
 62
     1
100
AcDbCircle
 10
345.016817
 20
915.23248
 40
1.0
100
AcDbArc
 50
270.0
 51
360.0
  0
CIRCLE
  5
7FF
100
AcDbEntity
  8
M0
 62
     1
100
AcDbCircle
 10
353.316811
 20
903.432495
 40
4.25
  0
CIRCLE
  5
800
100
AcDbEntity
  8
M0
 62
     1
100
AcDbCircle
 10
358.515631
 20
891.632507
 40
2.999997
  0
LINE
  5
801
100
AcDbEntity
  8
M0
 62
     1
100
AcDbLine
 10
355.556647
 20
887.685257
 11
354.740485
 21
890.33258
  0
LINE
  5
802
100
AcDbEntity
  8
M0
 62
     1
100
AcDbLine
 10
361.735436
 20
894.732528
 11
362.290533
 21
892.932556
  0
LINE
  5
803
100
AcDbEntity
  8
M0
 62
     1
100
AcDbLine
 10
361.474127
 20
887.685241
 11
362.290533
 21
890.33258
  0
LINE
  5
804
100
AcDbEntity
  8
M0
 62
     1
100
AcDbLine
 10
356.034674
 20
887.33258
 11
360.996344
 21
887.33258
  0
LINE
  5
805
100
AcDbEntity
  8
M0
 62
     1
100
AcDbLine
 10
362.290533
 20
890.33258
 11
362.290533
 21
892.932556
  0
LINE
  5
806
100
AcDbEntity
  8
M0
 62
     1
100
AcDbLine
 10
354.740485
 20
893.432525
 11
354.740485
 21
890.33258
  0
LINE
  5
807
100
AcDbEntity
  8
M0
 62
     1
100
AcDbLine
 10
360.106207
 20
890.041687
 11
356.924567
 21
893.223449
  0
LINE
  5
808
100
AcDbEntity
  8
M0
 62
     1
100
AcDbLine
 10
358.868903
 20
893.046692
 11
357.101324
 21
891.278991
  0
LINE
  5
809
100
AcDbEntity
  8
M0
 62
     1
100
AcDbLine
 10
359.929449
 20
891.986023
 11
358.161871
 21
890.218445
  0
ARC
  5
80A
100
AcDbEntity
  8
M0
 62
     1
100
AcDbCircle
 10
356.034674
 20
887.83258
 40
0.5
100
AcDbArc
 50
197.127379
 51
270.0
  0
ARC
  5
80B
100
AcDbEntity
  8
M0
 62
     1
100
AcDbCircle
 10
360.996344
 20
887.83258
 40
0.5
100
AcDbArc
 50
270.0
 51
342.861758
  0
ARC
  5
80C
100
AcDbEntity
  8
M0
 62
     1
100
AcDbCircle
 10
358.516837
 20
884.632507
 40
2.999997
100
AcDbArc
 50
115.844027
 51
424.15628
  0
LINE
  5
80D
100
AcDbEntity
  8
M0
 62
     1
100
AcDbLine
 10
355.419348
 20
888.13031
 11
354.74169
 21
885.932556
  0
LINE
  5
80E
100
AcDbEntity
  8
M0
 62
     1
100
AcDbLine
 10
355.557852
 20
880.685257
 11
354.74169
 21
883.33258
  0
LINE
  5
80F
100
AcDbEntity
  8
M0
 62
     1
100
AcDbLine
 10
361.612662
 20
888.13446
 11
362.291739
 21
885.932556
  0
LINE
  5
810
100
AcDbEntity
  8
M0
 62
     1
100
AcDbLine
 10
361.475333
 20
880.685241
 11
362.291739
 21
883.33258
  0
LINE
  5
811
100
AcDbEntity
  8
M0
 62
     1
100
AcDbLine
 10
356.03588
 20
880.33258
 11
360.997549
 21
880.33258
  0
LINE
  5
812
100
AcDbEntity
  8
M0
 62
     1
100
AcDbLine
 10
362.291739
 20
883.33258
 11
362.291739
 21
885.932556
  0
LINE
  5
813
100
AcDbEntity
  8
M0
 62
     1
100
AcDbLine
 10
354.74169
 20
885.932556
 11
354.74169
 21
883.33258
  0
LINE
  5
814
100
AcDbEntity
  8
M0
 62
     1
100
AcDbLine
 10
360.107413
 20
883.041687
 11
356.925772
 21
886.223449
  0
LINE
  5
815
100
AcDbEntity
  8
M0
 62
     1
100
AcDbLine
 10
358.870108
 20
886.046692
 11
357.10253
 21
884.278991
  0
LINE
  5
816
100
AcDbEntity
  8
M0
 62
     1
100
AcDbLine
 10
359.930655
 20
884.986023
 11
358.163077
 21
883.218445
  0
ARC
  5
817
100
AcDbEntity
  8
M0
 62
     1
100
AcDbCircle
 10
356.03588
 20
880.83258
 40
0.5
100
AcDbArc
 50
197.127379
 51
270.0
  0
ARC
  5
818
100
AcDbEntity
  8
M0
 62
     1
100
AcDbCircle
 10
360.997549
 20
880.83258
 40
0.5
100
AcDbArc
 50
270.0
 51
342.861758
  0
ARC
  5
819
100
AcDbEntity
  8
M0
 62
     1
100
AcDbCircle
 10
348.516862
 20
884.632507
 40
2.999997
100
AcDbArc
 50
115.843797
 51
424.156412
  0
LINE
  5
81A
100
AcDbEntity
  8
M0
 62
     1
100
AcDbLine
 10
345.173341
 20
887.332458
 11
344.741716
 21
885.932556
  0
LINE
  5
81B
100
AcDbEntity
  8
M0
 62
     1
100
AcDbLine
 10
345.557878
 20
880.685257
 11
344.741716
 21
883.33258
  0
LINE
  5
81C
100
AcDbEntity
  8
M0
 62
     1
100
AcDbLine
 10
351.475348
 20
880.685241
 11
352.103522
 21
882.722107
  0
LINE
  5
81D
100
AcDbEntity
  8
M0
 62
     1
100
AcDbLine
 10
346.035905
 20
880.33258
 11
350.997565
 21
880.33258
  0
LINE
  5
81E
100
AcDbEntity
  8
M0
 62
     1
100
AcDbLine
 10
344.741716
 20
885.932556
 11
344.741716
 21
883.33258
  0
LINE
  5
81F
100
AcDbEntity
  8
M0
 62
     1
100
AcDbLine
 10
350.107428
 20
883.041687
 11
346.925798
 21
886.223449
  0
LINE
  5
820
100
AcDbEntity
  8
M0
 62
     1
100
AcDbLine
 10
348.870134
 20
886.046692
 11
347.102556
 21
884.278991
  0
LINE
  5
821
100
AcDbEntity
  8
M0
 62
     1
100
AcDbLine
 10
349.93067
 20
884.986023
 11
348.163103
 21
883.218445
  0
ARC
  5
822
100
AcDbEntity
  8
M0
 62
     1
100
AcDbCircle
 10
346.035905
 20
880.83258
 40
0.5
100
AcDbArc
 50
197.127669
 51
270.0
  0
ARC
  5
823
100
AcDbEntity
  8
M0
 62
     1
100
AcDbCircle
 10
350.997565
 20
880.83258
 40
0.5
100
AcDbArc
 50
270.0
 51
342.861758
  0
CIRCLE
  5
824
100
AcDbEntity
  8
M0
 62
     1
100
AcDbCircle
 10
347.515642
 20
891.632507
 40
2.999997
  0
LINE
  5
825
100
AcDbEntity
  8
M0
 62
     1
100
AcDbLine
 10
344.295427
 20
894.732528
 11
343.740495
 21
892.932556
  0
LINE
  5
826
100
AcDbEntity
  8
M0
 62
     1
100
AcDbLine
 10
344.556657
 20
887.685257
 11
343.740495
 21
890.33258
  0
LINE
  5
827
100
AcDbEntity
  8
M0
 62
     1
100
AcDbLine
 10
350.474127
 20
887.685241
 11
351.290533
 21
890.33258
  0
LINE
  5
828
100
AcDbEntity
  8
M0
 62
     1
100
AcDbLine
 10
345.034685
 20
887.33258
 11
349.996344
 21
887.33258
  0
LINE
  5
829
100
AcDbEntity
  8
M0
 62
     1
100
AcDbLine
 10
351.290533
 20
890.33258
 11
351.290533
 21
893.432525
  0
LINE
  5
82A
100
AcDbEntity
  8
M0
 62
     1
100
AcDbLine
 10
343.740495
 20
892.932556
 11
343.740495
 21
890.33258
  0
LINE
  5
82B
100
AcDbEntity
  8
M0
 62
     1
100
AcDbLine
 10
349.106218
 20
890.041687
 11
345.924577
 21
893.223449
  0
LINE
  5
82C
100
AcDbEntity
  8
M0
 62
     1
100
AcDbLine
 10
347.868913
 20
893.046692
 11
346.101335
 21
891.278991
  0
LINE
  5
82D
100
AcDbEntity
  8
M0
 62
     1
100
AcDbLine
 10
348.92946
 20
891.986023
 11
347.161882
 21
890.218445
  0
ARC
  5
82E
100
AcDbEntity
  8
M0
 62
     1
100
AcDbCircle
 10
345.034685
 20
887.83258
 40
0.5
100
AcDbArc
 50
197.127669
 51
270.0
  0
ARC
  5
82F
100
AcDbEntity
  8
M0
 62
     1
100
AcDbCircle
 10
349.996344
 20
887.83258
 40
0.5
100
AcDbArc
 50
270.0
 51
342.861758
  0
LINE
  5
830
100
AcDbEntity
  8
M0
 62
     1
100
AcDbLine
 10
335.05475
 20
895.593597
 11
336.899599
 21
893.748764
  0
LINE
  5
831
100
AcDbEntity
  8
M0
 62
     1
100
AcDbLine
 10
337.026475
 20
896.350708
 11
334.451402
 21
893.775635
  0
LINE
  5
832
100
AcDbEntity
  8
M0
 62
     1
100
AcDbLine
 10
337.733583
 20
895.6436
 11
335.15851
 21
893.068527
  0
LINE
  5
833
100
AcDbEntity
  8
M0
 62
     1
100
AcDbLine
 10
332.91562
 20
889.832748
 11
339.115617
 21
889.832748
  0
LINE
  5
834
100
AcDbEntity
  8
M0
 62
     1
100
AcDbLine
 10
340.115617
 20
890.832733
 11
340.115617
 21
898.432709
  0
LINE
  5
835
100
AcDbEntity
  8
M0
 62
     1
100
AcDbLine
 10
331.91562
 20
898.432724
 11
331.91562
 21
890.832748
  0
CIRCLE
  5
836
100
AcDbEntity
  8
M0
 62
     1
100
AcDbCircle
 10
336.015626
 20
894.632751
 40
3.499993
  0
ARC
  5
837
100
AcDbEntity
  8
M0
 62
     1
100
AcDbCircle
 10
339.115617
 20
890.832748
 40
1.0
100
AcDbArc
 50
270.0
 51
360.0
  0
ARC
  5
838
100
AcDbEntity
  8
M0
 62
     1
100
AcDbCircle
 10
339.115617
 20
898.432556
 40
1.0
100
AcDbArc
 50
0.0
 51
89.999126
  0
ARC
  5
839
100
AcDbEntity
  8
M0
 62
     1
100
AcDbCircle
 10
332.91562
 20
898.432556
 40
1.0
100
AcDbArc
 50
89.999126
 51
179.999126
  0
ARC
  5
83A
100
AcDbEntity
  8
M0
 62
     1
100
AcDbCircle
 10
332.91562
 20
890.832748
 40
1.0
100
AcDbArc
 50
179.999126
 51
270.0
  0
LINE
  5
83B
100
AcDbEntity
  8
M0
 62
     1
100
AcDbLine
 10
332.91562
 20
899.432739
 11
339.115617
 21
899.432739
  0
LINE
  5
83C
100
AcDbEntity
  8
M0
 62
     1
100
AcDbLine
 10
322.55478
 20
895.593597
 11
324.399629
 21
893.748764
  0
LINE
  5
83D
100
AcDbEntity
  8
M0
 62
     1
100
AcDbLine
 10
324.526506
 20
896.350708
 11
321.951433
 21
893.775635
  0
LINE
  5
83E
100
AcDbEntity
  8
M0
 62
     1
100
AcDbLine
 10
325.233613
 20
895.6436
 11
322.65854
 21
893.068527
  0
LINE
  5
83F
100
AcDbEntity
  8
M0
 62
     1
100
AcDbLine
 10
320.415651
 20
889.832748
 11
326.615648
 21
889.832748
  0
LINE
  5
840
100
AcDbEntity
  8
M0
 62
     1
100
AcDbLine
 10
327.615648
 20
890.832733
 11
327.615648
 21
898.432709
  0
LINE
  5
841
100
AcDbEntity
  8
M0
 62
     1
100
AcDbLine
 10
319.415651
 20
898.432724
 11
319.415651
 21
890.832748
  0
CIRCLE
  5
842
100
AcDbEntity
  8
M0
 62
     1
100
AcDbCircle
 10
323.515657
 20
894.632751
 40
3.499993
  0
ARC
  5
843
100
AcDbEntity
  8
M0
 62
     1
100
AcDbCircle
 10
326.615648
 20
890.832748
 40
1.0
100
AcDbArc
 50
270.0
 51
360.0
  0
ARC
  5
844
100
AcDbEntity
  8
M0
 62
     1
100
AcDbCircle
 10
326.615648
 20
898.432556
 40
1.0
100
AcDbArc
 50
0.0
 51
89.999126
  0
ARC
  5
845
100
AcDbEntity
  8
M0
 62
     1
100
AcDbCircle
 10
320.415651
 20
898.432556
 40
1.0
100
AcDbArc
 50
89.999126
 51
179.999126
  0
ARC
  5
846
100
AcDbEntity
  8
M0
 62
     1
100
AcDbCircle
 10
320.415651
 20
890.832748
 40
1.0
100
AcDbArc
 50
179.999126
 51
270.0
  0
LINE
  5
847
100
AcDbEntity
  8
M0
 62
     1
100
AcDbLine
 10
320.415651
 20
899.432739
 11
326.615648
 21
899.432739
  0
ARC
  5
848
100
AcDbEntity
  8
M0
 62
     1
100
AcDbCircle
 10
320.415651
 20
905.332889
 40
1.0
100
AcDbArc
 50
179.999945
 51
270.0
  0
LINE
  5
849
100
AcDbEntity
  8
M0
 62
     1
100
AcDbLine
 10
319.415651
 20
905.332721
 11
319.415651
 21
912.932697
  0
ARC
  5
84A
100
AcDbEntity
  8
M0
 62
     1
100
AcDbCircle
 10
320.415651
 20
912.932697
 40
1.0
100
AcDbArc
 50
89.999126
 51
179.999945
  0
LINE
  5
84B
100
AcDbEntity
  8
M0
 62
     1
100
AcDbLine
 10
320.415651
 20
913.932697
 11
326.615648
 21
913.932697
  0
ARC
  5
84C
100
AcDbEntity
  8
M0
 62
     1
100
AcDbCircle
 10
326.615648
 20
912.932697
 40
1.0
100
AcDbArc
 50
0.0
 51
89.999126
  0
LINE
  5
84D
100
AcDbEntity
  8
M0
 62
     1
100
AcDbLine
 10
327.615648
 20
912.932712
 11
327.615648
 21
905.332737
  0
ARC
  5
84E
100
AcDbEntity
  8
M0
 62
     1
100
AcDbCircle
 10
326.615648
 20
905.332889
 40
1.0
100
AcDbArc
 50
-90.0
 51
0.0
  0
LINE
  5
84F
100
AcDbEntity
  8
M0
 62
     1
100
AcDbLine
 10
320.415651
 20
904.332706
 11
326.615648
 21
904.332706
  0
LINE
  5
850
100
AcDbEntity
  8
M0
 62
     1
100
AcDbLine
 10
310.05478
 20
895.593597
 11
311.899629
 21
893.748764
  0
LINE
  5
851
100
AcDbEntity
  8
M0
 62
     1
100
AcDbLine
 10
312.026506
 20
896.350708
 11
309.451433
 21
893.775635
  0
LINE
  5
852
100
AcDbEntity
  8
M0
 62
     1
100
AcDbLine
 10
312.733613
 20
895.6436
 11
310.15854
 21
893.068527
  0
LINE
  5
853
100
AcDbEntity
  8
M0
 62
     1
100
AcDbLine
 10
315.115648
 20
890.832733
 11
315.115648
 21
898.432709
  0
LINE
  5
854
100
AcDbEntity
  8
M0
 62
     1
100
AcDbLine
 10
306.915651
 20
898.432724
 11
306.915651
 21
890.832748
  0
CIRCLE
  5
855
100
AcDbEntity
  8
M0
 62
     1
100
AcDbCircle
 10
311.015657
 20
894.632751
 40
3.499993
  0
ARC
  5
856
100
AcDbEntity
  8
M0
 62
     1
100
AcDbCircle
 10
314.115648
 20
890.832748
 40
1.0
100
AcDbArc
 50
270.0
 51
360.0
  0
ARC
  5
857
100
AcDbEntity
  8
M0
 62
     1
100
AcDbCircle
 10
314.115648
 20
898.432556
 40
1.0
100
AcDbArc
 50
0.0
 51
89.999126
  0
ARC
  5
858
100
AcDbEntity
  8
M0
 62
     1
100
AcDbCircle
 10
307.915651
 20
898.432556
 40
1.0
100
AcDbArc
 50
89.999126
 51
179.999126
  0
ARC
  5
859
100
AcDbEntity
  8
M0
 62
     1
100
AcDbCircle
 10
307.915651
 20
890.832748
 40
1.0
100
AcDbArc
 50
179.999126
 51
270.0
  0
LINE
  5
85A
100
AcDbEntity
  8
M0
 62
     1
100
AcDbLine
 10
307.915651
 20
899.432739
 11
314.115648
 21
899.432739
  0
ARC
  5
85B
100
AcDbEntity
  8
M0
 62
     1
100
AcDbCircle
 10
307.915651
 20
905.332889
 40
1.0
100
AcDbArc
 50
179.999945
 51
270.0
  0
LINE
  5
85C
100
AcDbEntity
  8
M0
 62
     1
100
AcDbLine
 10
306.915651
 20
905.332721
 11
306.915651
 21
912.932697
  0
ARC
  5
85D
100
AcDbEntity
  8
M0
 62
     1
100
AcDbCircle
 10
307.915651
 20
912.932697
 40
1.0
100
AcDbArc
 50
89.999126
 51
179.999945
  0
LINE
  5
85E
100
AcDbEntity
  8
M0
 62
     1
100
AcDbLine
 10
307.915651
 20
913.932697
 11
314.115648
 21
913.932697
  0
ARC
  5
85F
100
AcDbEntity
  8
M0
 62
     1
100
AcDbCircle
 10
314.115648
 20
912.932697
 40
1.0
100
AcDbArc
 50
0.0
 51
89.999126
  0
LINE
  5
860
100
AcDbEntity
  8
M0
 62
     1
100
AcDbLine
 10
315.115648
 20
912.932712
 11
315.115648
 21
905.332737
  0
ARC
  5
861
100
AcDbEntity
  8
M0
 62
     1
100
AcDbCircle
 10
314.115648
 20
905.332889
 40
1.0
100
AcDbArc
 50
-90.0
 51
0.0
  0
LINE
  5
862
100
AcDbEntity
  8
M0
 62
     1
100
AcDbLine
 10
307.915651
 20
904.332706
 11
314.115648
 21
904.332706
  0
ARC
  5
863
100
AcDbEntity
  8
M0
 62
     1
100
AcDbCircle
 10
339.115571
 20
912.932682
 40
1.0
100
AcDbArc
 50
0.0
 51
89.999126
  0
LINE
  5
864
100
AcDbEntity
  8
M0
 62
     1
100
AcDbLine
 10
340.115571
 20
905.332691
 11
340.115571
 21
912.932667
  0
ARC
  5
865
100
AcDbEntity
  8
M0
 62
     1
100
AcDbCircle
 10
339.115571
 20
905.332874
 40
1.0
100
AcDbArc
 50
270.0
 51
360.0
  0
LINE
  5
866
100
AcDbEntity
  8
M0
 62
     1
100
AcDbLine
 10
339.115571
 20
904.332691
 11
332.915574
 21
904.332691
  0
ARC
  5
867
100
AcDbEntity
  8
M0
 62
     1
100
AcDbCircle
 10
332.915574
 20
905.332874
 40
1.0
100
AcDbArc
 50
179.999945
 51
270.0
  0
LINE
  5
868
100
AcDbEntity
  8
M0
 62
     1
100
AcDbLine
 10
331.915574
 20
912.932697
 11
331.915574
 21
905.332721
  0
ARC
  5
869
100
AcDbEntity
  8
M0
 62
     1
100
AcDbCircle
 10
332.915574
 20
912.932682
 40
1.0
100
AcDbArc
 50
89.999126
 51
179.999945
  0
LINE
  5
86A
100
AcDbEntity
  8
M0
 62
     1
100
AcDbLine
 10
339.115571
 20
913.932682
 11
332.915574
 21
913.932682
  0
LINE
  5
86B
100
AcDbEntity
  8
M0
 62
     1
100
AcDbLine
 10
310.05478
 20
910.093586
 11
311.899629
 21
908.248752
  0
LINE
  5
86C
100
AcDbEntity
  8
M0
 62
     1
100
AcDbLine
 10
312.026506
 20
910.850696
 11
309.451433
 21
908.275623
  0
LINE
  5
86D
100
AcDbEntity
  8
M0
 62
     1
100
AcDbLine
 10
312.733613
 20
910.143589
 11
310.15854
 21
907.568516
  0
CIRCLE
  5
86E
100
AcDbEntity
  8
M0
 62
     1
100
AcDbCircle
 10
311.015657
 20
909.13274
 40
3.499993
  0
LINE
  5
86F
100
AcDbEntity
  8
M0
 62
     1
100
AcDbLine
 10
322.554765
 20
910.093586
 11
324.399614
 21
908.248752
  0
LINE
  5
870
100
AcDbEntity
  8
M0
 62
     1
100
AcDbLine
 10
324.526491
 20
910.850696
 11
321.951417
 21
908.275623
  0
LINE
  5
871
100
AcDbEntity
  8
M0
 62
     1
100
AcDbLine
 10
325.233598
 20
910.143589
 11
322.658525
 21
907.568516
  0
CIRCLE
  5
872
100
AcDbEntity
  8
M0
 62
     1
100
AcDbCircle
 10
323.515642
 20
909.13274
 40
3.499993
  0
LINE
  5
873
100
AcDbEntity
  8
M0
 62
     1
100
AcDbLine
 10
335.054735
 20
910.093586
 11
336.899583
 21
908.248752
  0
LINE
  5
874
100
AcDbEntity
  8
M0
 62
     1
100
AcDbLine
 10
337.02646
 20
910.850696
 11
334.451387
 21
908.275623
  0
LINE
  5
875
100
AcDbEntity
  8
M0
 62
     1
100
AcDbLine
 10
337.733568
 20
910.143589
 11
335.158494
 21
907.568516
  0
CIRCLE
  5
876
100
AcDbEntity
  8
M0
 62
     1
100
AcDbCircle
 10
336.015611
 20
909.13274
 40
3.499993
  0
LINE
  5
877
100
AcDbEntity
  8
M0
 62
     1
100
AcDbLine
 10
354.274612
 20
901.327832
 11
354.274612
 21
905.937426
  0
LINE
  5
878
100
AcDbEntity
  8
M0
 62
     1
100
AcDbLine
 10
354.274627
 20
905.93767
 11
352.571884
 21
905.93767
  0
LINE
  5
879
100
AcDbEntity
  8
M0
 62
     1
100
AcDbLine
 10
352.571884
 20
905.937426
 11
352.571884
 21
901.327832
  0
LINE
  5
87A
100
AcDbEntity
  8
M0
  6
DASHDOT
 62
     1
100
AcDbLine
 10
344.091524
 20
903.632751
 11
362.639974
 21
903.632751
  0
LINE
  5
87B
100
AcDbEntity
  8
M0
  6
DASHDOT
 62
     1
100
AcDbLine
 10
353.365744
 20
894.35852
 11
353.365744
 21
912.90697
  0
LINE
  5
87C
100
AcDbEntity
  8
M0
 62
     1
100
AcDbLine
 10
354.274627
 20
901.327832
 11
352.571884
 21
901.327832
  0
LINE
  5
87D
100
AcDbEntity
  8
M0
 62
   114
100
AcDbLine
 10
320.016723
 20
936.132805
 11
330.016723
 21
936.132805
  0
ARC
  5
87E
100
AcDbEntity
  8
M0
 62
   114
100
AcDbCircle
 10
325.016753
 20
944.832757
 40
11.999989
100
AcDbArc
 50
254.506528
 51
270.0
  0
LINE
  5
87F
100
AcDbEntity
  8
M0
 62
   114
100
AcDbLine
 10
320.516021
 20
936.132805
 11
320.644194
 21
934.671319
  0
LINE
  5
880
100
AcDbEntity
  8
M0
 62
   114
100
AcDbLine
 10
329.516265
 20
936.1325
 11
329.388091
 21
934.671319
  0
ARC
  5
881
100
AcDbEntity
  8
M0
 62
   114
100
AcDbCircle
 10
322.238433
 20
934.810784
 40
1.599998
100
AcDbArc
 50
184.999457
 51
254.513915
  0
ARC
  5
882
100
AcDbEntity
  8
M0
 62
   114
100
AcDbCircle
 10
327.795073
 20
934.810784
 40
1.599998
100
AcDbArc
 50
285.486011
 51
354.996601
  0
LINE
  5
883
100
AcDbEntity
  8
M0
 62
   114
100
AcDbLine
 10
320.016753
 20
937.432549
 11
330.016753
 21
937.432549
  0
ARC
  5
884
100
AcDbEntity
  8
M0
 62
   114
100
AcDbCircle
 10
325.016753
 20
944.832757
 40
11.999989
100
AcDbArc
 50
270.0
 51
285.493401
  0
LINE
  5
885
100
AcDbEntity
  8
M0
 62
   114
100
AcDbLine
 10
330.016723
 20
936.132561
 11
330.016723
 21
937.432549
  0
LINE
  5
886
100
AcDbEntity
  8
M0
 62
   114
100
AcDbLine
 10
320.016723
 20
936.132561
 11
320.016723
 21
937.432549
  0
LINE
  5
887
100
AcDbEntity
  8
M0
 62
   234
100
AcDbLine
 10
415.016753
 20
834.632549
 11
415.016753
 21
893.290862
  0
LINE
  5
888
100
AcDbEntity
  8
M0
 62
   234
100
AcDbLine
 10
415.016753
 20
980.632549
 11
375.016753
 21
980.632549
  0
LINE
  5
889
100
AcDbEntity
  8
M0
 62
   234
100
AcDbLine
 10
375.016753
 20
980.632549
 11
375.016753
 21
924.632549
  0
LINE
  5
88A
100
AcDbEntity
  8
M0
 62
   234
100
AcDbLine
 10
375.016753
 20
834.632549
 11
415.016753
 21
834.632549
  0
LINE
  5
88B
100
AcDbEntity
  8
M0
 62
   234
100
AcDbLine
 10
415.016753
 20
940.632549
 11
375.016753
 21
940.632549
  0
LINE
  5
88C
100
AcDbEntity
  8
M0
 62
   234
100
AcDbLine
 10
415.016753
 20
924.632549
 11
415.016753
 21
980.632549
  0
LINE
  5
88D
100
AcDbEntity
  8
M0
 62
   234
100
AcDbLine
 10
375.016753
 20
893.290862
 11
375.016753
 21
834.632549
  0
CIRCLE
  5
88E
100
AcDbEntity
  8
M0
 62
   114
100
AcDbCircle
 10
420.016753
 20
889.632549
 40
4.5
  0
LINE
  5
88F
100
AcDbEntity
  8
M0
 62
   114
100
AcDbLine
 10
420.865355
 20
889.632484
 11
423.594636
 21
892.361766
  0
LINE
  5
890
100
AcDbEntity
  8
M0
 62
   114
100
AcDbLine
 10
417.287525
 20
886.054655
 11
420.016818
 21
888.783948
  0
LINE
  5
891
100
AcDbEntity
  8
M0
 62
   114
100
AcDbLine
 10
419.168335
 20
889.63243
 11
416.43901
 21
886.903106
  0
LINE
  5
892
100
AcDbEntity
  8
M0
 62
   114
100
AcDbLine
 10
422.746175
 20
893.210292
 11
420.016872
 21
890.480967
  0
LINE
  5
893
100
AcDbEntity
  8
M0
 62
   114
100
AcDbLine
 10
420.016818
 20
888.783948
 11
421.289644
 21
887.511121
  0
LINE
  5
894
100
AcDbEntity
  8
M0
 62
   114
100
AcDbLine
 10
417.895497
 20
890.905268
 11
419.168324
 21
889.632441
  0
LINE
  5
895
100
AcDbEntity
  8
M0
 62
   114
100
AcDbLine
 10
420.016861
 20
890.480978
 11
418.744034
 21
891.753805
  0
LINE
  5
896
100
AcDbEntity
  8
M0
 62
   114
100
AcDbLine
 10
422.138181
 20
888.359658
 11
420.865355
 21
889.632484
  0
LINE
  5
897
100
AcDbEntity
  8
M0
 62
   114
100
AcDbLine
 10
421.289644
 20
887.511121
 11
422.138181
 21
888.359658
  0
LINE
  5
898
100
AcDbEntity
  8
M0
 62
   114
100
AcDbLine
 10
418.744034
 20
891.753805
 11
417.895497
 21
890.905268
  0
CIRCLE
  5
899
100
AcDbEntity
  8
M0
 62
   114
100
AcDbCircle
 10
420.016753
 20
889.632549
 40
5.0
  0
LINE
  5
89A
100
AcDbEntity
  8
M0
 62
     7
100
AcDbLine
 10
439.016753
 20
897.632549
 11
439.016753
 21
921.632549
  0
LINE
  5
89B
100
AcDbEntity
  8
M0
 62
     7
100
AcDbLine
 10
405.016753
 20
934.632549
 11
405.016753
 21
924.632549
  0
LINE
  5
89C
100
AcDbEntity
  8
M0
 62
     7
100
AcDbLine
 10
398.016753
 20
934.632549
 11
398.016753
 21
933.632549
  0
LINE
  5
89D
100
AcDbEntity
  8
M0
 62
     7
100
AcDbLine
 10
405.016753
 20
934.632549
 11
398.016753
 21
934.632549
  0
LINE
  5
89E
100
AcDbEntity
  8
M0
 62
     7
100
AcDbLine
 10
399.516753
 20
884.632549
 11
399.516753
 21
885.632549
  0
LINE
  5
89F
100
AcDbEntity
  8
M0
 62
     7
100
AcDbLine
 10
405.516753
 20
884.632549
 11
405.516753
 21
885.632549
  0
LINE
  5
8A0
100
AcDbEntity
  8
M0
 62
     7
100
AcDbLine
 10
414.516753
 20
884.632549
 11
414.516753
 21
891.632549
  0
ARC
  5
8A1
100
AcDbEntity
  8
M0
 62
     7
100
AcDbCircle
 10
417.516753
 20
891.632549
 40
3.0
100
AcDbArc
 50
90.0
 51
180.0
  0
LINE
  5
8A2
100
AcDbEntity
  8
M0
 62
     7
100
AcDbLine
 10
408.516753
 20
884.632549
 11
408.516753
 21
891.632549
  0
ARC
  5
8A3
100
AcDbEntity
  8
M0
 62
     7
100
AcDbCircle
 10
405.516753
 20
891.632549
 40
3.0
100
AcDbArc
 50
0.0
 51
90.0
  0
LINE
  5
8A4
100
AcDbEntity
  8
M0
 62
     7
100
AcDbLine
 10
414.516753
 20
884.632549
 11
405.516753
 21
884.632549
  0
LINE
  5
8A5
100
AcDbEntity
  8
M0
 62
     7
100
AcDbLine
 10
432.016753
 20
883.632549
 11
432.016753
 21
894.632549
  0
LINE
  5
8A6
100
AcDbEntity
  8
M0
 62
     7
100
AcDbLine
 10
426.016753
 20
883.632549
 11
426.016753
 21
891.632549
  0
ARC
  5
8A7
100
AcDbEntity
  8
M0
 62
     7
100
AcDbCircle
 10
423.016753
 20
891.632549
 40
3.0
100
AcDbArc
 50
0.0
 51
90.0
  0
LINE
  5
8A8
100
AcDbEntity
  8
M0
 62
     7
100
AcDbLine
 10
417.016753
 20
883.632549
 11
417.016753
 21
885.632549
  0
LINE
  5
8A9
100
AcDbEntity
  8
M0
 62
     7
100
AcDbLine
 10
423.016753
 20
883.632549
 11
423.016753
 21
885.632549
  0
LINE
  5
8AA
100
AcDbEntity
  8
M0
 62
     7
100
AcDbLine
 10
432.016753
 20
883.632549
 11
423.016753
 21
883.632549
  0
LINE
  5
8AB
100
AcDbEntity
  8
M0
 62
     7
100
AcDbLine
 10
417.016753
 20
883.632549
 11
415.016753
 21
883.632549
  0
LINE
  5
8AC
100
AcDbEntity
  8
M0
 62
     7
100
AcDbLine
 10
399.516753
 20
884.632549
 11
395.016753
 21
884.632549
  0
LINE
  5
8AD
100
AcDbEntity
  8
M0
 62
     7
100
AcDbLine
 10
439.016753
 20
919.632549
 11
395.016753
 21
919.632549
  0
LINE
  5
8AE
100
AcDbEntity
  8
M0
 62
     7
100
AcDbLine
 10
395.016753
 20
894.632549
 11
436.016753
 21
894.632549
  0
LINE
  5
8AF
100
AcDbEntity
  8
M0
 62
     7
100
AcDbLine
 10
351.016753
 20
918.132528
 11
351.016753
 21
921.632549
  0
LINE
  5
8B0
100
AcDbEntity
  8
M0
 62
     7
100
AcDbLine
 10
385.016753
 20
934.632549
 11
385.016753
 21
924.632549
  0
LINE
  5
8B1
100
AcDbEntity
  8
M0
 62
     7
100
AcDbLine
 10
392.016753
 20
934.632549
 11
392.016753
 21
933.632549
  0
LINE
  5
8B2
100
AcDbEntity
  8
M0
 62
     7
100
AcDbLine
 10
385.016753
 20
934.632549
 11
392.016753
 21
934.632549
  0
LINE
  5
8B3
100
AcDbEntity
  8
M0
 62
     7
100
AcDbLine
 10
390.516753
 20
884.632549
 11
390.516753
 21
885.632549
  0
LINE
  5
8B4
100
AcDbEntity
  8
M0
 62
     7
100
AcDbLine
 10
384.516753
 20
884.632549
 11
384.516753
 21
885.632549
  0
LINE
  5
8B5
100
AcDbEntity
  8
M0
 62
     7
100
AcDbLine
 10
375.516753
 20
884.632549
 11
375.516753
 21
891.632549
  0
ARC
  5
8B6
100
AcDbEntity
  8
M0
 62
     7
100
AcDbCircle
 10
372.516753
 20
891.632549
 40
3.0
100
AcDbArc
 50
0.0
 51
90.0
  0
LINE
  5
8B7
100
AcDbEntity
  8
M0
 62
     7
100
AcDbLine
 10
381.516753
 20
884.632549
 11
381.516753
 21
891.632549
  0
ARC
  5
8B8
100
AcDbEntity
  8
M0
 62
     7
100
AcDbCircle
 10
384.516753
 20
891.632549
 40
3.0
100
AcDbArc
 50
90.0
 51
180.0
  0
LINE
  5
8B9
100
AcDbEntity
  8
M0
 62
     7
100
AcDbLine
 10
375.516753
 20
884.632549
 11
384.516753
 21
884.632549
  0
ARC
  5
8BA
100
AcDbEntity
  8
M0
 62
     7
100
AcDbCircle
 10
367.016753
 20
891.632549
 40
3.0
100
AcDbArc
 50
90.0
 51
119.99984
  0
LINE
  5
8BB
100
AcDbEntity
  8
M0
 62
     7
100
AcDbLine
 10
373.016753
 20
883.632549
 11
373.016753
 21
885.632549
  0
LINE
  5
8BC
100
AcDbEntity
  8
M0
 62
     7
100
AcDbLine
 10
367.016753
 20
883.632549
 11
367.016753
 21
885.632549
  0
LINE
  5
8BD
100
AcDbEntity
  8
M0
 62
     7
100
AcDbLine
 10
365.516744
 20
883.632549
 11
367.016753
 21
883.632549
  0
LINE
  5
8BE
100
AcDbEntity
  8
M0
 62
     7
100
AcDbLine
 10
373.016753
 20
883.632549
 11
375.016753
 21
883.632549
  0
LINE
  5
8BF
100
AcDbEntity
  8
M0
 62
     7
100
AcDbLine
 10
390.516753
 20
884.632549
 11
395.016753
 21
884.632549
  0
LINE
  5
8C0
100
AcDbEntity
  8
M0
 62
     7
100
AcDbLine
 10
351.016753
 20
919.632549
 11
356.1508
 21
919.632549
  0
LINE
  5
8C1
100
AcDbEntity
  8
M0
 62
     7
100
AcDbLine
 10
395.016753
 20
894.632549
 11
365.516761
 21
894.632549
  0
ARC
  5
8C2
100
AcDbEntity
  8
M0
 62
     7
100
AcDbCircle
 10
436.016753
 20
897.632549
 40
3.0
100
AcDbArc
 50
270.0
 51
360.0
  0
ARC
  5
8C3
100
AcDbEntity
  8
M0
 62
     7
100
AcDbCircle
 10
436.016753
 20
921.632549
 40
3.0
100
AcDbArc
 50
0.0
 51
90.0
  0
LINE
  5
8C4
100
AcDbEntity
  8
M0
 62
     7
100
AcDbLine
 10
364.016753
 20
935.632549
 11
364.016753
 21
924.632549
  0
ARC
  5
8C5
100
AcDbEntity
  8
M0
 62
     7
100
AcDbCircle
 10
354.016753
 20
921.632549
 40
3.0
100
AcDbArc
 50
90.0
 51
180.0
  0
LINE
  5
8C6
100
AcDbEntity
  8
M0
 62
     7
100
AcDbLine
 10
373.016753
 20
935.632549
 11
373.016753
 21
933.632549
  0
LINE
  5
8C7
100
AcDbEntity
  8
M0
 62
     7
100
AcDbLine
 10
367.016753
 20
935.632549
 11
367.016753
 21
933.632549
  0
LINE
  5
8C8
100
AcDbEntity
  8
M0
 62
     7
100
AcDbLine
 10
367.016753
 20
935.632549
 11
358.016753
 21
935.632549
  0
LINE
  5
8C9
100
AcDbEntity
  8
M0
 62
     7
100
AcDbLine
 10
375.016753
 20
935.632549
 11
373.016753
 21
935.632549
  0
LINE
  5
8CA
100
AcDbEntity
  8
M0
 62
     7
100
AcDbLine
 10
358.016753
 20
935.632549
 11
358.016753
 21
927.632549
  0
ARC
  5
8CB
100
AcDbEntity
  8
M0
 62
     7
100
AcDbCircle
 10
355.016753
 20
927.632549
 40
3.0
100
AcDbArc
 50
270.0
 51
360.0
  0
LINE
  5
8CC
100
AcDbEntity
  8
M0
 62
     7
100
AcDbLine
 10
354.016753
 20
924.632549
 11
395.016753
 21
924.632549
  0
LINE
  5
8CD
100
AcDbEntity
  8
M0
 62
     7
100
AcDbLine
 10
395.016753
 20
924.632549
 11
436.016753
 21
924.632549
  0
LINE
  5
8CE
100
AcDbEntity
  8
M0
  6
DASHDOT
 62
     7
100
AcDbLine
 10
395.016753
 20
922.632549
 11
395.016753
 21
936.632549
  0
LINE
  5
8CF
100
AcDbEntity
  8
M0
 62
     7
100
AcDbLine
 10
411.466753
 20
907.632549
 11
411.466753
 21
918.832549
  0
LINE
  5
8D0
100
AcDbEntity
  8
M0
 62
     7
100
AcDbLine
 10
402.566753
 20
907.632549
 11
402.566753
 21
918.832549
  0
LINE
  5
8D1
100
AcDbEntity
  8
M0
 62
     7
100
AcDbLine
 10
411.466753
 20
907.632549
 11
402.566753
 21
907.632549
  0
LINE
  5
8D2
100
AcDbEntity
  8
M0
 62
     7
100
AcDbLine
 10
411.466753
 20
918.832549
 11
402.566753
 21
918.832549
  0
LINE
  5
8D3
100
AcDbEntity
  8
M0
 62
     7
100
AcDbLine
 10
378.566753
 20
907.632549
 11
378.566753
 21
918.832549
  0
LINE
  5
8D4
100
AcDbEntity
  8
M0
 62
     7
100
AcDbLine
 10
387.466753
 20
907.632549
 11
387.466753
 21
918.832549
  0
LINE
  5
8D5
100
AcDbEntity
  8
M0
 62
     7
100
AcDbLine
 10
378.566753
 20
907.632549
 11
387.466753
 21
907.632549
  0
LINE
  5
8D6
100
AcDbEntity
  8
M0
 62
     7
100
AcDbLine
 10
378.566753
 20
918.832549
 11
387.466753
 21
918.832549
  0
LINE
  5
8D7
100
AcDbEntity
  8
M0
 62
     7
100
AcDbLine
 10
365.5168
 20
919.632549
 11
395.016753
 21
919.632549
  0
CIRCLE
  5
8D8
100
AcDbEntity
  8
M0
 62
   114
100
AcDbCircle
 10
402.516753
 20
889.632549
 40
4.5
  0
LINE
  5
8D9
100
AcDbEntity
  8
M0
 62
   114
100
AcDbLine
 10
403.365355
 20
889.632484
 11
406.094636
 21
892.361766
  0
LINE
  5
8DA
100
AcDbEntity
  8
M0
 62
   114
100
AcDbLine
 10
399.787525
 20
886.054655
 11
402.516818
 21
888.783948
  0
LINE
  5
8DB
100
AcDbEntity
  8
M0
 62
   114
100
AcDbLine
 10
401.668335
 20
889.63243
 11
398.93901
 21
886.903106
  0
LINE
  5
8DC
100
AcDbEntity
  8
M0
 62
   114
100
AcDbLine
 10
405.246175
 20
893.210292
 11
402.516872
 21
890.480967
  0
LINE
  5
8DD
100
AcDbEntity
  8
M0
 62
   114
100
AcDbLine
 10
402.516818
 20
888.783948
 11
403.789644
 21
887.511121
  0
LINE
  5
8DE
100
AcDbEntity
  8
M0
 62
   114
100
AcDbLine
 10
400.395497
 20
890.905268
 11
401.668324
 21
889.632441
  0
LINE
  5
8DF
100
AcDbEntity
  8
M0
 62
   114
100
AcDbLine
 10
402.516861
 20
890.480978
 11
401.244034
 21
891.753805
  0
LINE
  5
8E0
100
AcDbEntity
  8
M0
 62
   114
100
AcDbLine
 10
404.638181
 20
888.359658
 11
403.365355
 21
889.632484
  0
LINE
  5
8E1
100
AcDbEntity
  8
M0
 62
   114
100
AcDbLine
 10
403.789644
 20
887.511121
 11
404.638181
 21
888.359658
  0
LINE
  5
8E2
100
AcDbEntity
  8
M0
 62
   114
100
AcDbLine
 10
401.244034
 20
891.753805
 11
400.395497
 21
890.905268
  0
CIRCLE
  5
8E3
100
AcDbEntity
  8
M0
 62
   114
100
AcDbCircle
 10
402.516753
 20
889.632549
 40
5.0
  0
CIRCLE
  5
8E4
100
AcDbEntity
  8
M0
 62
   114
100
AcDbCircle
 10
387.516753
 20
889.632549
 40
4.5
  0
LINE
  5
8E5
100
AcDbEntity
  8
M0
 62
   114
100
AcDbLine
 10
388.365355
 20
889.632484
 11
391.094636
 21
892.361766
  0
LINE
  5
8E6
100
AcDbEntity
  8
M0
 62
   114
100
AcDbLine
 10
384.787525
 20
886.054655
 11
387.516818
 21
888.783948
  0
LINE
  5
8E7
100
AcDbEntity
  8
M0
 62
   114
100
AcDbLine
 10
386.668335
 20
889.63243
 11
383.93901
 21
886.903106
  0
LINE
  5
8E8
100
AcDbEntity
  8
M0
 62
   114
100
AcDbLine
 10
390.246175
 20
893.210292
 11
387.516872
 21
890.480967
  0
LINE
  5
8E9
100
AcDbEntity
  8
M0
 62
   114
100
AcDbLine
 10
387.516818
 20
888.783948
 11
388.789644
 21
887.511121
  0
LINE
  5
8EA
100
AcDbEntity
  8
M0
 62
   114
100
AcDbLine
 10
385.395497
 20
890.905268
 11
386.668324
 21
889.632441
  0
LINE
  5
8EB
100
AcDbEntity
  8
M0
 62
   114
100
AcDbLine
 10
387.516861
 20
890.480978
 11
386.244034
 21
891.753805
  0
LINE
  5
8EC
100
AcDbEntity
  8
M0
 62
   114
100
AcDbLine
 10
389.638181
 20
888.359658
 11
388.365355
 21
889.632484
  0
LINE
  5
8ED
100
AcDbEntity
  8
M0
 62
   114
100
AcDbLine
 10
388.789644
 20
887.511121
 11
389.638181
 21
888.359658
  0
LINE
  5
8EE
100
AcDbEntity
  8
M0
 62
   114
100
AcDbLine
 10
386.244034
 20
891.753805
 11
385.395497
 21
890.905268
  0
CIRCLE
  5
8EF
100
AcDbEntity
  8
M0
 62
   114
100
AcDbCircle
 10
387.516753
 20
889.632549
 40
5.0
  0
CIRCLE
  5
8F0
100
AcDbEntity
  8
M0
 62
   114
100
AcDbCircle
 10
370.016753
 20
889.632549
 40
4.5
  0
LINE
  5
8F1
100
AcDbEntity
  8
M0
 62
   114
100
AcDbLine
 10
370.865355
 20
889.632484
 11
373.594636
 21
892.361766
  0
LINE
  5
8F2
100
AcDbEntity
  8
M0
 62
   114
100
AcDbLine
 10
367.287525
 20
886.054655
 11
370.016818
 21
888.783948
  0
LINE
  5
8F3
100
AcDbEntity
  8
M0
 62
   114
100
AcDbLine
 10
369.168335
 20
889.63243
 11
366.43901
 21
886.903106
  0
LINE
  5
8F4
100
AcDbEntity
  8
M0
 62
   114
100
AcDbLine
 10
372.746175
 20
893.210292
 11
370.016872
 21
890.480967
  0
LINE
  5
8F5
100
AcDbEntity
  8
M0
 62
   114
100
AcDbLine
 10
370.016818
 20
888.783948
 11
371.289644
 21
887.511121
  0
LINE
  5
8F6
100
AcDbEntity
  8
M0
 62
   114
100
AcDbLine
 10
367.895497
 20
890.905268
 11
369.168324
 21
889.632441
  0
LINE
  5
8F7
100
AcDbEntity
  8
M0
 62
   114
100
AcDbLine
 10
370.016861
 20
890.480978
 11
368.744034
 21
891.753805
  0
LINE
  5
8F8
100
AcDbEntity
  8
M0
 62
   114
100
AcDbLine
 10
372.138181
 20
888.359658
 11
370.865355
 21
889.632484
  0
LINE
  5
8F9
100
AcDbEntity
  8
M0
 62
   114
100
AcDbLine
 10
371.289644
 20
887.511121
 11
372.138181
 21
888.359658
  0
LINE
  5
8FA
100
AcDbEntity
  8
M0
 62
   114
100
AcDbLine
 10
368.744034
 20
891.753805
 11
367.895497
 21
890.905268
  0
ARC
  5
8FB
100
AcDbEntity
  8
M0
 62
   114
100
AcDbCircle
 10
370.016753
 20
889.632549
 40
5.0
100
AcDbArc
 50
205.841842
 51
514.157977
  0
CIRCLE
  5
8FC
100
AcDbEntity
  8
M0
 62
   114
100
AcDbCircle
 10
370.016753
 20
929.632549
 40
4.5
  0
LINE
  5
8FD
100
AcDbEntity
  8
M0
 62
   114
100
AcDbLine
 10
370.865355
 20
929.632484
 11
373.594636
 21
932.361766
  0
LINE
  5
8FE
100
AcDbEntity
  8
M0
 62
   114
100
AcDbLine
 10
367.287525
 20
926.054655
 11
370.016818
 21
928.783948
  0
LINE
  5
8FF
100
AcDbEntity
  8
M0
 62
   114
100
AcDbLine
 10
369.168335
 20
929.63243
 11
366.43901
 21
926.903106
  0
LINE
  5
900
100
AcDbEntity
  8
M0
 62
   114
100
AcDbLine
 10
372.746175
 20
933.210292
 11
370.016872
 21
930.480967
  0
LINE
  5
901
100
AcDbEntity
  8
M0
 62
   114
100
AcDbLine
 10
370.016818
 20
928.783948
 11
371.289644
 21
927.511121
  0
LINE
  5
902
100
AcDbEntity
  8
M0
 62
   114
100
AcDbLine
 10
367.895497
 20
930.905268
 11
369.168324
 21
929.632441
  0
LINE
  5
903
100
AcDbEntity
  8
M0
 62
   114
100
AcDbLine
 10
370.016861
 20
930.480978
 11
368.744034
 21
931.753805
  0
LINE
  5
904
100
AcDbEntity
  8
M0
 62
   114
100
AcDbLine
 10
372.138181
 20
928.359658
 11
370.865355
 21
929.632484
  0
LINE
  5
905
100
AcDbEntity
  8
M0
 62
   114
100
AcDbLine
 10
371.289644
 20
927.511121
 11
372.138181
 21
928.359658
  0
LINE
  5
906
100
AcDbEntity
  8
M0
 62
   114
100
AcDbLine
 10
368.744034
 20
931.753805
 11
367.895497
 21
930.905268
  0
CIRCLE
  5
907
100
AcDbEntity
  8
M0
 62
   114
100
AcDbCircle
 10
370.016753
 20
929.632549
 40
5.0
  0
CIRCLE
  5
908
100
AcDbEntity
  8
M0
 62
   114
100
AcDbCircle
 10
395.016753
 20
929.632549
 40
4.5
  0
LINE
  5
909
100
AcDbEntity
  8
M0
 62
   114
100
AcDbLine
 10
395.865355
 20
929.632484
 11
398.594636
 21
932.361766
  0
LINE
  5
90A
100
AcDbEntity
  8
M0
 62
   114
100
AcDbLine
 10
392.287525
 20
926.054655
 11
395.016818
 21
928.783948
  0
LINE
  5
90B
100
AcDbEntity
  8
M0
 62
   114
100
AcDbLine
 10
394.168335
 20
929.63243
 11
391.43901
 21
926.903106
  0
LINE
  5
90C
100
AcDbEntity
  8
M0
 62
   114
100
AcDbLine
 10
397.746175
 20
933.210292
 11
395.016872
 21
930.480967
  0
LINE
  5
90D
100
AcDbEntity
  8
M0
 62
   114
100
AcDbLine
 10
395.016818
 20
928.783948
 11
396.289644
 21
927.511121
  0
LINE
  5
90E
100
AcDbEntity
  8
M0
 62
   114
100
AcDbLine
 10
392.895497
 20
930.905268
 11
394.168324
 21
929.632441
  0
LINE
  5
90F
100
AcDbEntity
  8
M0
 62
   114
100
AcDbLine
 10
395.016861
 20
930.480978
 11
393.744034
 21
931.753805
  0
LINE
  5
910
100
AcDbEntity
  8
M0
 62
   114
100
AcDbLine
 10
397.138181
 20
928.359658
 11
395.865355
 21
929.632484
  0
LINE
  5
911
100
AcDbEntity
  8
M0
 62
   114
100
AcDbLine
 10
396.289644
 20
927.511121
 11
397.138181
 21
928.359658
  0
LINE
  5
912
100
AcDbEntity
  8
M0
 62
   114
100
AcDbLine
 10
393.744034
 20
931.753805
 11
392.895497
 21
930.905268
  0
CIRCLE
  5
913
100
AcDbEntity
  8
M0
 62
   114
100
AcDbCircle
 10
395.016753
 20
929.632549
 40
5.0
  0
LINE
  5
914
100
AcDbEntity
  8
M0
 62
   234
100
AcDbLine
 10
407.723852
 20
912.632549
 11
409.819785
 21
914.728481
  0
LINE
  5
915
100
AcDbEntity
  8
M0
 62
   234
100
AcDbLine
 10
404.920802
 20
909.829499
 11
407.016745
 21
911.925442
  0
LINE
  5
916
100
AcDbEntity
  8
M0
 62
   234
100
AcDbLine
 10
406.309639
 20
912.632549
 11
404.213695
 21
910.536606
  0
LINE
  5
917
100
AcDbEntity
  8
M0
 62
   234
100
AcDbLine
 10
409.112678
 20
915.435588
 11
407.016745
 21
913.339656
  0
LINE
  5
918
100
AcDbEntity
  8
M0
 62
   234
100
AcDbLine
 10
407.016745
 20
913.339656
 11
405.920695
 21
914.435706
  0
LINE
  5
919
100
AcDbEntity
  8
M0
 62
   234
100
AcDbLine
 10
408.819902
 20
911.536499
 11
407.723852
 21
912.632549
  0
LINE
  5
91A
100
AcDbEntity
  8
M0
 62
   234
100
AcDbLine
 10
407.016745
 20
911.925442
 11
408.112795
 21
910.829392
  0
LINE
  5
91B
100
AcDbEntity
  8
M0
 62
   234
100
AcDbLine
 10
405.213589
 20
913.728599
 11
406.309639
 21
912.632549
  0
CIRCLE
  5
91C
100
AcDbEntity
  8
M0
 62
   234
100
AcDbCircle
 10
407.016745
 20
912.632549
 40
3.5
  0
LINE
  5
91D
100
AcDbEntity
  8
M0
 62
   234
100
AcDbLine
 10
408.112795
 20
910.829392
 11
408.819902
 21
911.536499
  0
LINE
  5
91E
100
AcDbEntity
  8
M0
 62
   234
100
AcDbLine
 10
405.920695
 20
914.435706
 11
405.213589
 21
913.728599
  0
CIRCLE
  5
91F
100
AcDbEntity
  8
M0
 62
   234
100
AcDbCircle
 10
407.016745
 20
912.632549
 40
4.0
  0
CIRCLE
  5
920
100
AcDbEntity
  8
M0
 62
     7
100
AcDbCircle
 10
407.016753
 20
912.632549
 40
3.799995
  0
LINE
  5
921
100
AcDbEntity
  8
M0
 62
   234
100
AcDbLine
 10
383.723852
 20
912.632549
 11
385.819785
 21
914.728481
  0
LINE
  5
922
100
AcDbEntity
  8
M0
 62
   234
100
AcDbLine
 10
380.920802
 20
909.829499
 11
383.016745
 21
911.925442
  0
LINE
  5
923
100
AcDbEntity
  8
M0
 62
   234
100
AcDbLine
 10
382.309639
 20
912.632549
 11
380.213695
 21
910.536606
  0
LINE
  5
924
100
AcDbEntity
  8
M0
 62
   234
100
AcDbLine
 10
385.112678
 20
915.435588
 11
383.016745
 21
913.339656
  0
LINE
  5
925
100
AcDbEntity
  8
M0
 62
   234
100
AcDbLine
 10
383.016745
 20
913.339656
 11
381.920695
 21
914.435706
  0
LINE
  5
926
100
AcDbEntity
  8
M0
 62
   234
100
AcDbLine
 10
384.819902
 20
911.536499
 11
383.723852
 21
912.632549
  0
LINE
  5
927
100
AcDbEntity
  8
M0
 62
   234
100
AcDbLine
 10
383.016745
 20
911.925442
 11
384.112795
 21
910.829392
  0
LINE
  5
928
100
AcDbEntity
  8
M0
 62
   234
100
AcDbLine
 10
381.213589
 20
913.728599
 11
382.309639
 21
912.632549
  0
CIRCLE
  5
929
100
AcDbEntity
  8
M0
 62
   234
100
AcDbCircle
 10
383.016745
 20
912.632549
 40
3.5
  0
LINE
  5
92A
100
AcDbEntity
  8
M0
 62
   234
100
AcDbLine
 10
384.112795
 20
910.829392
 11
384.819902
 21
911.536499
  0
LINE
  5
92B
100
AcDbEntity
  8
M0
 62
   234
100
AcDbLine
 10
381.920695
 20
914.435706
 11
381.213589
 21
913.728599
  0
CIRCLE
  5
92C
100
AcDbEntity
  8
M0
 62
   234
100
AcDbCircle
 10
383.016745
 20
912.632549
 40
4.0
  0
CIRCLE
  5
92D
100
AcDbEntity
  8
M0
 62
     7
100
AcDbCircle
 10
383.016753
 20
912.632549
 40
3.799995
  0
LINE
  5
92E
100
AcDbEntity
  8
M0
 62
   234
100
AcDbLine
 10
267.72386
 20
912.632549
 11
269.819792
 21
914.728481
  0
LINE
  5
92F
100
AcDbEntity
  8
M0
 62
   234
100
AcDbLine
 10
264.92081
 20
909.829499
 11
267.016753
 21
911.925442
  0
LINE
  5
930
100
AcDbEntity
  8
M0
 62
   234
100
AcDbLine
 10
266.309646
 20
912.632549
 11
264.213703
 21
910.536606
  0
LINE
  5
931
100
AcDbEntity
  8
M0
 62
   234
100
AcDbLine
 10
269.112686
 20
915.435588
 11
267.016753
 21
913.339656
  0
LINE
  5
932
100
AcDbEntity
  8
M0
 62
   234
100
AcDbLine
 10
267.016753
 20
913.339656
 11
265.920703
 21
914.435706
  0
LINE
  5
933
100
AcDbEntity
  8
M0
 62
   234
100
AcDbLine
 10
268.81991
 20
911.536499
 11
267.72386
 21
912.632549
  0
LINE
  5
934
100
AcDbEntity
  8
M0
 62
   234
100
AcDbLine
 10
267.016753
 20
911.925442
 11
268.112803
 21
910.829392
  0
LINE
  5
935
100
AcDbEntity
  8
M0
 62
   234
100
AcDbLine
 10
265.213596
 20
913.728599
 11
266.309646
 21
912.632549
  0
CIRCLE
  5
936
100
AcDbEntity
  8
M0
 62
   234
100
AcDbCircle
 10
267.016753
 20
912.632549
 40
3.5
  0
LINE
  5
937
100
AcDbEntity
  8
M0
 62
   234
100
AcDbLine
 10
268.112803
 20
910.829392
 11
268.81991
 21
911.536499
  0
LINE
  5
938
100
AcDbEntity
  8
M0
 62
   234
100
AcDbLine
 10
265.920703
 20
914.435706
 11
265.213596
 21
913.728599
  0
CIRCLE
  5
939
100
AcDbEntity
  8
M0
 62
   234
100
AcDbCircle
 10
267.016753
 20
912.632549
 40
4.0
  0
CIRCLE
  5
93A
100
AcDbEntity
  8
M0
 62
     7
100
AcDbCircle
 10
267.016761
 20
912.632549
 40
3.799995
  0
LINE
  5
93B
100
AcDbEntity
  8
M0
 62
   234
100
AcDbLine
 10
243.72386
 20
912.632549
 11
245.819792
 21
914.728481
  0
LINE
  5
93C
100
AcDbEntity
  8
M0
 62
   234
100
AcDbLine
 10
240.92081
 20
909.829499
 11
243.016753
 21
911.925442
  0
LINE
  5
93D
100
AcDbEntity
  8
M0
 62
   234
100
AcDbLine
 10
242.309646
 20
912.632549
 11
240.213703
 21
910.536606
  0
LINE
  5
93E
100
AcDbEntity
  8
M0
 62
   234
100
AcDbLine
 10
245.112686
 20
915.435588
 11
243.016753
 21
913.339656
  0
LINE
  5
93F
100
AcDbEntity
  8
M0
 62
   234
100
AcDbLine
 10
243.016753
 20
913.339656
 11
241.920703
 21
914.435706
  0
LINE
  5
940
100
AcDbEntity
  8
M0
 62
   234
100
AcDbLine
 10
244.81991
 20
911.536499
 11
243.72386
 21
912.632549
  0
LINE
  5
941
100
AcDbEntity
  8
M0
 62
   234
100
AcDbLine
 10
243.016753
 20
911.925442
 11
244.112803
 21
910.829392
  0
LINE
  5
942
100
AcDbEntity
  8
M0
 62
   234
100
AcDbLine
 10
241.213596
 20
913.728599
 11
242.309646
 21
912.632549
  0
CIRCLE
  5
943
100
AcDbEntity
  8
M0
 62
   234
100
AcDbCircle
 10
243.016753
 20
912.632549
 40
3.5
  0
LINE
  5
944
100
AcDbEntity
  8
M0
 62
   234
100
AcDbLine
 10
244.112803
 20
910.829392
 11
244.81991
 21
911.536499
  0
LINE
  5
945
100
AcDbEntity
  8
M0
 62
   234
100
AcDbLine
 10
241.920703
 20
914.435706
 11
241.213596
 21
913.728599
  0
CIRCLE
  5
946
100
AcDbEntity
  8
M0
 62
   234
100
AcDbCircle
 10
243.016753
 20
912.632549
 40
4.0
  0
CIRCLE
  5
947
100
AcDbEntity
  8
M0
 62
     7
100
AcDbCircle
 10
243.016761
 20
912.632549
 40
3.799995
  0
LINE
  5
948
100
AcDbEntity
  8
M0
 62
     2
100
AcDbLine
 10
828.888934
 20
983.632534
 11
828.888934
 21
882.732549
  0
LINE
  5
949
100
AcDbEntity
  8
M0
 62
     2
100
AcDbLine
 10
836.288934
 20
853.432549
 11
838.588934
 21
853.432549
  0
LINE
  5
94A
100
AcDbEntity
  8
M0
 62
     2
100
AcDbLine
 10
831.188934
 20
983.632534
 11
831.188934
 21
882.732549
  0
ARC
  5
94B
100
AcDbEntity
  8
M0
 62
     2
100
AcDbCircle
 10
833.188934
 20
882.732549
 40
2.0
100
AcDbArc
 50
180.0
 51
270.0
  0
LINE
  5
94C
100
AcDbEntity
  8
M0
 62
     2
100
AcDbLine
 10
836.288934
 20
876.432549
 11
836.288934
 21
853.432549
  0
ARC
  5
94D
100
AcDbEntity
  8
M0
 62
     2
100
AcDbCircle
 10
834.288934
 20
876.432549
 40
2.0
100
AcDbArc
 50
0.0
 51
90.0
  0
LINE
  5
94E
100
AcDbEntity
  8
M0
 62
     2
100
AcDbLine
 10
833.188934
 20
878.432549
 11
834.288934
 21
878.432549
  0
ARC
  5
94F
100
AcDbEntity
  8
M0
 62
     2
100
AcDbCircle
 10
833.188934
 20
882.732549
 40
4.3
100
AcDbArc
 50
180.0
 51
270.0
  0
LINE
  5
950
100
AcDbEntity
  8
M0
 62
     2
100
AcDbLine
 10
838.588934
 20
876.432549
 11
838.588934
 21
853.432549
  0
LINE
  5
951
100
AcDbEntity
  8
M0
 62
     2
100
AcDbLine
 10
834.288934
 20
880.732549
 11
833.188934
 21
880.732549
  0
ARC
  5
952
100
AcDbEntity
  8
M0
 62
     2
100
AcDbCircle
 10
834.288934
 20
876.432549
 40
4.3
100
AcDbArc
 50
0.0
 51
90.0
  0
LINE
  5
953
100
AcDbEntity
  8
M0
 62
     2
100
AcDbLine
 10
828.888934
 20
933.432549
 11
831.188934
 21
933.432549
  0
LINE
  5
954
100
AcDbEntity
  8
M0
 62
     7
100
AcDbLine
 10
731.888934
 20
919.432549
 11
828.888934
 21
919.432549
  0
LINE
  5
955
100
AcDbEntity
  8
M0
 62
     7
100
AcDbLine
 10
828.888934
 20
894.432549
 11
731.888934
 21
894.432549
  0
LINE
  5
956
100
AcDbEntity
  8
M0
 62
     7
100
AcDbLine
 10
776.888934
 20
884.432549
 11
764.888934
 21
884.432549
  0
LINE
  5
957
100
AcDbEntity
  8
M0
 62
     7
100
AcDbLine
 10
828.888934
 20
883.432549
 11
816.888934
 21
883.432549
  0
LINE
  5
958
100
AcDbEntity
  8
M0
 62
     7
100
AcDbLine
 10
759.981457
 20
892.932549
 11
764.888934
 21
884.432549
  0
ARC
  5
959
100
AcDbEntity
  8
M0
 62
     7
100
AcDbCircle
 10
757.383381
 20
891.432549
 40
3.0
100
AcDbArc
 50
30.0
 51
90.0
  0
LINE
  5
95A
100
AcDbEntity
  8
M0
 62
     7
100
AcDbLine
 10
811.404107
 20
892.932549
 11
816.888934
 21
883.432549
  0
ARC
  5
95B
100
AcDbEntity
  8
M0
 62
     7
100
AcDbCircle
 10
808.806031
 20
891.432549
 40
3.0
100
AcDbArc
 50
30.0
 51
90.0
  0
ARC
  5
95C
100
AcDbEntity
  8
M0
 62
     7
100
AcDbCircle
 10
772.888934
 20
931.432549
 40
3.0
100
AcDbArc
 50
0.0
 51
90.0
  0
LINE
  5
95D
100
AcDbEntity
  8
M0
 62
     7
100
AcDbLine
 10
773.888934
 20
934.432549
 11
768.888934
 21
934.432549
  0
ARC
  5
95E
100
AcDbEntity
  8
M0
 62
     7
100
AcDbCircle
 10
773.888934
 20
931.432549
 40
3.0
100
AcDbArc
 50
0.0
 51
90.0
  0
LINE
  5
95F
100
AcDbEntity
  8
M0
 62
     7
100
AcDbLine
 10
776.888934
 20
894.432549
 11
776.888934
 21
884.432549
  0
LINE
  5
960
100
AcDbEntity
  8
M0
 62
     7
100
AcDbLine
 10
775.888934
 20
894.432549
 11
775.888934
 21
884.432549
  0
LINE
  5
961
100
AcDbEntity
  8
M0
 62
     7
100
AcDbLine
 10
828.888934
 20
924.432549
 11
731.888934
 21
924.432549
  0
LINE
  5
962
100
AcDbEntity
  8
M0
 62
     7
100
AcDbLine
 10
816.888934
 20
935.432549
 11
816.888934
 21
924.432549
  0
LINE
  5
963
100
AcDbEntity
  8
M0
 62
     7
100
AcDbLine
 10
828.888934
 20
935.432549
 11
816.888934
 21
935.432549
  0
LINE
  5
964
100
AcDbEntity
  8
M0
 62
     7
100
AcDbLine
 10
828.888934
 20
883.432549
 11
828.888934
 21
935.432549
  0
LINE
  5
965
100
AcDbEntity
  8
M0
 62
     7
100
AcDbLine
 10
811.404107
 20
925.932549
 11
816.888934
 21
935.432549
  0
ARC
  5
966
100
AcDbEntity
  8
M0
 62
     7
100
AcDbCircle
 10
808.806031
 20
927.432549
 40
3.0
100
AcDbArc
 50
270.0
 51
330.0
  0
LINE
  5
967
100
AcDbEntity
  8
M0
 62
     7
100
AcDbLine
 10
731.888934
 20
894.432549
 11
731.888934
 21
924.432549
  0
LINE
  5
968
100
AcDbEntity
  8
M0
 62
     7
100
AcDbLine
 10
768.888934
 20
934.432549
 11
768.888934
 21
924.432549
  0
LINE
  5
969
100
AcDbEntity
  8
M0
 62
     7
100
AcDbLine
 10
775.888934
 20
931.432549
 11
775.888934
 21
924.432549
  0
LINE
  5
96A
100
AcDbEntity
  8
M0
 62
     7
100
AcDbLine
 10
776.888934
 20
931.432549
 11
776.888934
 21
924.432549
  0
LINE
  5
96B
100
AcDbEntity
  8
M0
 62
     7
100
AcDbLine
 10
730.688934
 20
907.432549
 11
731.888934
 21
907.432549
  0
LINE
  5
96C
100
AcDbEntity
  8
M0
 62
     7
100
AcDbLine
 10
730.688934
 20
918.632549
 11
730.688934
 21
907.432549
  0
LINE
  5
96D
100
AcDbEntity
  8
M0
 62
     7
100
AcDbLine
 10
730.688934
 20
918.632549
 11
731.888934
 21
918.632549
  0
LINE
  5
96E
100
AcDbEntity
  8
M0
 62
   234
100
AcDbLine
 10
694.888934
 20
980.432549
 11
701.388934
 21
980.432549
  0
LINE
  5
96F
100
AcDbEntity
  8
M0
 62
   234
100
AcDbLine
 10
701.388934
 20
949.932549
 11
701.388934
 21
980.432549
  0
ARC
  5
970
100
AcDbEntity
  8
M0
 62
   234
100
AcDbCircle
 10
704.388934
 20
949.932549
 40
3.0
100
AcDbArc
 50
180.0
 51
270.0
  0
LINE
  5
971
100
AcDbEntity
  8
M0
 62
   234
100
AcDbLine
 10
694.888934
 20
949.932549
 11
694.888934
 21
980.432549
  0
ARC
  5
972
100
AcDbEntity
  8
M0
 62
   234
100
AcDbCircle
 10
704.388934
 20
949.932549
 40
9.5
100
AcDbArc
 50
180.0
 51
270.0
  0
LINE
  5
973
100
AcDbEntity
  8
M0
 62
   234
100
AcDbLine
 10
776.888934
 20
834.432549
 11
783.388934
 21
834.432549
  0
LINE
  5
974
100
AcDbEntity
  8
M0
 62
   234
100
AcDbLine
 10
776.888934
 20
834.432549
 11
776.888934
 21
894.432549
  0
ARC
  5
975
100
AcDbEntity
  8
M0
 62
   234
100
AcDbCircle
 10
773.888934
 20
937.432549
 40
3.0
100
AcDbArc
 50
0.0
 51
90.0
  0
LINE
  5
976
100
AcDbEntity
  8
M0
 62
   234
100
AcDbLine
 10
704.388934
 20
940.432549
 11
773.888934
 21
940.432549
  0
LINE
  5
977
100
AcDbEntity
  8
M0
 62
   234
100
AcDbLine
 10
783.388934
 20
834.432549
 11
783.388934
 21
894.432549
  0
LINE
  5
978
100
AcDbEntity
  8
M0
 62
   234
100
AcDbLine
 10
704.388934
 20
946.932549
 11
773.888934
 21
946.932549
  0
ARC
  5
979
100
AcDbEntity
  8
M0
 62
   234
100
AcDbCircle
 10
773.888934
 20
937.432549
 40
9.5
100
AcDbArc
 50
0.0
 51
90.0
  0
LINE
  5
97A
100
AcDbEntity
  8
M0
 62
   234
100
AcDbLine
 10
776.888934
 20
924.432549
 11
776.888934
 21
937.432549
  0
LINE
  5
97B
100
AcDbEntity
  8
M0
 62
   234
100
AcDbLine
 10
783.388934
 20
924.432549
 11
783.388934
 21
937.432549
  0
LINE
  5
97C
100
AcDbEntity
  8
M0
 62
   234
100
AcDbLine
 10
694.888934
 20
980.432549
 11
701.388934
 21
980.432549
  0
LINE
  5
97D
100
AcDbEntity
  8
M0
 62
   234
100
AcDbLine
 10
761.388934
 20
834.432549
 11
767.888934
 21
834.432549
  0
LINE
  5
97E
100
AcDbEntity
  8
M0
 62
   234
100
AcDbLine
 10
761.388934
 20
834.432549
 11
761.388934
 21
890.494727
  0
ARC
  5
97F
100
AcDbEntity
  8
M0
 62
   234
100
AcDbCircle
 10
758.388934
 20
937.432549
 40
3.0
100
AcDbArc
 50
0.0
 51
90.0
  0
LINE
  5
980
100
AcDbEntity
  8
M0
 62
   234
100
AcDbLine
 10
701.388934
 20
949.932549
 11
701.388934
 21
980.432549
  0
ARC
  5
981
100
AcDbEntity
  8
M0
 62
   234
100
AcDbCircle
 10
704.388934
 20
949.932549
 40
3.0
100
AcDbArc
 50
180.0
 51
270.0
  0
LINE
  5
982
100
AcDbEntity
  8
M0
 62
   234
100
AcDbLine
 10
694.888934
 20
949.932549
 11
694.888934
 21
980.432549
  0
LINE
  5
983
100
AcDbEntity
  8
M0
 62
   234
100
AcDbLine
 10
704.388934
 20
940.432549
 11
758.388934
 21
940.432549
  0
ARC
  5
984
100
AcDbEntity
  8
M0
 62
   234
100
AcDbCircle
 10
704.388934
 20
949.932549
 40
9.5
100
AcDbArc
 50
180.0
 51
270.0
  0
LINE
  5
985
100
AcDbEntity
  8
M0
 62
   234
100
AcDbLine
 10
767.888934
 20
834.432549
 11
767.888934
 21
839.482599
  0
LINE
  5
986
100
AcDbEntity
  8
M0
 62
   234
100
AcDbLine
 10
704.388934
 20
946.932549
 11
758.388934
 21
946.932549
  0
ARC
  5
987
100
AcDbEntity
  8
M0
 62
   234
100
AcDbCircle
 10
758.388934
 20
937.432549
 40
9.5
100
AcDbArc
 50
0.0
 51
18.40848
  0
LINE
  5
988
100
AcDbEntity
  8
M0
 62
   234
100
AcDbLine
 10
761.388934
 20
924.432549
 11
761.388934
 21
937.432549
  0
LINE
  5
989
100
AcDbEntity
  8
M0
 62
   234
100
AcDbLine
 10
767.888934
 20
934.43258
 11
767.888934
 21
937.432549
  0
LINE
  5
98A
100
AcDbEntity
  8
M0
 62
   234
100
AcDbLine
 10
767.888934
 20
861.382593
 11
767.888934
 21
884.432549
  0
LINE
  5
98B
100
AcDbEntity
  8
M0
 62
   114
100
AcDbLine
 10
741.088934
 20
884.232549
 11
744.288934
 21
884.232549
  0
LINE
  5
98C
100
AcDbEntity
  8
M0
 62
   114
100
AcDbLine
 10
741.088934
 20
935.232549
 11
741.088934
 21
924.432549
  0
LINE
  5
98D
100
AcDbEntity
  8
M0
 62
   114
100
AcDbLine
 10
711.088934
 20
937.232549
 11
739.088934
 21
937.232549
  0
ARC
  5
98E
100
AcDbEntity
  8
M0
 62
   114
100
AcDbCircle
 10
739.088934
 20
935.232549
 40
2.0
100
AcDbArc
 50
0.0
 51
90.0
  0
LINE
  5
98F
100
AcDbEntity
  8
M0
 62
   114
100
AcDbLine
 10
744.288934
 20
935.132549
 11
744.288934
 21
924.432549
  0
LINE
  5
990
100
AcDbEntity
  8
M0
 62
   114
100
AcDbLine
 10
738.988934
 20
940.432549
 11
711.088934
 21
940.432549
  0
ARC
  5
991
100
AcDbEntity
  8
M0
 62
   114
100
AcDbCircle
 10
738.988934
 20
935.132549
 40
5.3
100
AcDbArc
 50
0.0
 51
90.0
  0
LINE
  5
992
100
AcDbEntity
  8
M0
 62
   114
100
AcDbLine
 10
711.088934
 20
940.432549
 11
711.088934
 21
937.232549
  0
LINE
  5
993
100
AcDbEntity
  8
M0
 62
   114
100
AcDbLine
 10
741.088934
 20
894.432549
 11
741.088934
 21
884.232549
  0
LINE
  5
994
100
AcDbEntity
  8
M0
 62
   114
100
AcDbLine
 10
744.288934
 20
894.432549
 11
744.288934
 21
884.232549
  0
LINE
  5
995
100
AcDbEntity
  8
M0
 62
     1
100
AcDbLine
 10
667.589175
 20
894.732544
 11
667.589175
 21
895.93254
  0
LINE
  5
996
100
AcDbEntity
  8
M0
 62
     1
100
AcDbLine
 10
667.589175
 20
916.93252
 11
667.589175
 21
918.132516
  0
LINE
  5
997
100
AcDbEntity
  8
M0
 62
     1
100
AcDbLine
 10
683.08916
 20
894.732544
 11
667.589175
 21
894.732544
  0
LINE
  5
998
100
AcDbEntity
  8
M0
 62
     1
100
AcDbLine
 10
683.08916
 20
918.132516
 11
667.589175
 21
918.132516
  0
LINE
  5
999
100
AcDbEntity
  8
M0
 62
     1
100
AcDbLine
 10
683.08916
 20
895.93254
 11
679.289156
 21
895.93254
  0
LINE
  5
99A
100
AcDbEntity
  8
M0
 62
     1
100
AcDbLine
 10
683.08916
 20
895.93254
 11
683.08916
 21
894.732544
  0
LINE
  5
99B
100
AcDbEntity
  8
M0
 62
     1
100
AcDbLine
 10
670.58916
 20
896.632537
 11
674.739153
 21
896.632537
  0
LINE
  5
99C
100
AcDbEntity
  8
M0
 62
     1
100
AcDbLine
 10
670.58916
 20
916.232523
 11
674.739153
 21
916.232523
  0
LINE
  5
99D
100
AcDbEntity
  8
M0
 62
     1
100
AcDbLine
 10
670.58916
 20
916.232523
 11
670.58916
 21
896.632537
  0
LINE
  5
99E
100
AcDbEntity
  8
M0
 62
     1
100
AcDbLine
 10
679.289156
 20
918.932519
 11
679.289156
 21
894.732544
  0
LINE
  5
99F
100
AcDbEntity
  8
M0
 62
     1
100
AcDbLine
 10
683.08916
 20
918.132516
 11
683.08916
 21
916.93252
  0
LINE
  5
9A0
100
AcDbEntity
  8
M0
 62
     1
100
AcDbLine
 10
670.289156
 20
918.132516
 11
670.289156
 21
919.432519
  0
LINE
  5
9A1
100
AcDbEntity
  8
M0
 62
     1
100
AcDbLine
 10
670.289156
 20
919.432519
 11
678.789156
 21
919.432519
  0
LINE
  5
9A2
100
AcDbEntity
  8
M0
 62
     1
100
AcDbLine
 10
730.688934
 20
916.93252
 11
679.289156
 21
916.93252
  0
LINE
  5
9A3
100
AcDbEntity
  8
M0
 62
     1
100
AcDbLine
 10
674.739153
 20
895.93254
 11
667.589175
 21
895.93254
  0
LINE
  5
9A4
100
AcDbEntity
  8
M0
 62
     1
100
AcDbLine
 10
674.739153
 20
916.93252
 11
667.589175
 21
916.93252
  0
ARC
  5
9A5
100
AcDbEntity
  8
M0
 62
     1
100
AcDbCircle
 10
674.739153
 20
916.582529
 40
0.35
100
AcDbArc
 50
270.0
 51
360.0
  0
ARC
  5
9A6
100
AcDbEntity
  8
M0
 62
     1
100
AcDbCircle
 10
674.739153
 20
916.582529
 40
0.35
100
AcDbArc
 50
0.0
 51
89.997502
  0
ARC
  5
9A7
100
AcDbEntity
  8
M0
 62
     1
100
AcDbCircle
 10
674.739153
 20
896.282531
 40
0.35
100
AcDbArc
 50
270.0
 51
360.0
  0
ARC
  5
9A8
100
AcDbEntity
  8
M0
 62
     1
100
AcDbCircle
 10
674.739153
 20
896.282531
 40
0.35
100
AcDbArc
 50
0.0
 51
89.997502
  0
ARC
  5
9A9
100
AcDbEntity
  8
M0
 62
     1
100
AcDbCircle
 10
678.789156
 20
918.932519
 40
0.5
100
AcDbArc
 50
0.0
 51
89.998251
  0
LINE
  5
9AA
100
AcDbEntity
  8
M0
 62
     1
100
AcDbLine
 10
669.092516
 20
900.183075
 11
670.58916
 21
900.183075
  0
LINE
  5
9AB
100
AcDbEntity
  8
M0
 62
     1
100
AcDbLine
 10
670.589037
 20
906.683069
 11
669.092516
 21
906.683069
  0
LINE
  5
9AC
100
AcDbEntity
  8
M0
 62
     1
100
AcDbLine
 10
668.592516
 20
906.182824
 11
668.592516
 21
900.683075
  0
ARC
  5
9AD
100
AcDbEntity
  8
M0
 62
     1
100
AcDbCircle
 10
669.092532
 20
906.182824
 40
0.5
100
AcDbArc
 50
89.998251
 51
179.999891
  0
ARC
  5
9AE
100
AcDbEntity
  8
M0
 62
     1
100
AcDbCircle
 10
669.092532
 20
900.683075
 40
0.5
100
AcDbArc
 50
179.998251
 51
270.0
  0
LINE
  5
9AF
100
AcDbEntity
  8
M0
 62
     1
100
AcDbLine
 10
741.088451
 20
881.932952
 11
741.08861
 21
894.432549
  0
LINE
  5
9B0
100
AcDbEntity
  8
M0
 62
     1
100
AcDbLine
 10
666.089099
 20
917.933876
 11
666.088915
 21
901.933807
  0
LINE
  5
9B1
100
AcDbEntity
  8
M0
 62
     1
100
AcDbLine
 10
685.507922
 20
882.433654
 11
709.124545
 21
882.433349
  0
ARC
  5
9B2
100
AcDbEntity
  8
M0
 62
     1
100
AcDbCircle
 10
668.089114
 20
917.933851
 40
2.0
100
AcDbArc
 50
89.999563
 51
179.999962
  0
LINE
  5
9B3
100
AcDbEntity
  8
M0
 62
     1
100
AcDbLine
 10
670.588885
 20
895.933853
 11
670.588915
 21
899.183853
  0
LINE
  5
9B4
100
AcDbEntity
  8
M0
 62
     1
100
AcDbLine
 10
692.389132
 20
919.933561
 11
668.031527
 21
919.93387
  0
LINE
  5
9B5
100
AcDbEntity
  8
M0
 62
     1
100
AcDbLine
 10
682.909869
 20
883.933685
 11
677.606112
 21
883.933761
  0
LINE
  5
9B6
100
AcDbEntity
  8
M0
 62
     1
100
AcDbLine
 10
672.410754
 20
894.732574
 11
674.708361
 21
886.157333
  0
ARC
  5
9B7
100
AcDbEntity
  8
M0
 62
     1
100
AcDbCircle
 10
677.606143
 20
886.933761
 40
3.0
100
AcDbArc
 50
194.999447
 51
270.0
  0
LINE
  5
9B8
100
AcDbEntity
  8
M0
 62
     1
100
AcDbLine
 10
679.910662
 20
894.732574
 11
682.610156
 21
884.657241
  0
ARC
  5
9B9
100
AcDbEntity
  8
M0
 62
     1
100
AcDbCircle
 10
685.507952
 20
885.433654
 40
3.0
100
AcDbArc
 50
194.998884
 51
270.0
  0
LINE
  5
9BA
100
AcDbEntity
  8
M0
 62
     1
100
AcDbLine
 10
670.589037
 20
907.683838
 11
670.589129
 21
915.933838
  0
ARC
  5
9BB
100
AcDbEntity
  8
M0
 62
     1
100
AcDbCircle
 10
671.589129
 20
915.933826
 40
1.0
100
AcDbArc
 50
89.999126
 51
179.999945
  0
LINE
  5
9BC
100
AcDbEntity
  8
M0
 62
     1
100
AcDbLine
 10
666.088946
 20
903.933606
 11
668.592578
 21
903.933574
  0
LINE
  5
9BD
100
AcDbEntity
  8
M0
 62
     1
100
AcDbLine
 10
666.088915
 20
901.933624
 11
668.592578
 21
901.933578
  0
LINE
  5
9BE
100
AcDbEntity
  8
M0
 62
     1
100
AcDbLine
 10
684.43619
 20
886.43367
 11
694.088702
 21
886.433548
  0
ARC
  5
9BF
100
AcDbEntity
  8
M0
 62
     1
100
AcDbCircle
 10
684.436221
 20
889.43367
 40
3.0
100
AcDbArc
 50
194.999447
 51
270.0
  0
LINE
  5
9C0
100
AcDbEntity
  8
M0
 62
     1
100
AcDbLine
 10
697.088687
 20
884.433502
 11
708.588656
 21
884.433364
  0
LINE
  5
9C1
100
AcDbEntity
  8
M0
 62
     1
100
AcDbLine
 10
711.463
 20
879.433334
 11
715.288592
 21
879.433273
  0
LINE
  5
9C2
100
AcDbEntity
  8
M0
 62
     1
100
AcDbLine
 10
712.364901
 20
875.433319
 11
728.682409
 21
875.433105
  0
ARC
  5
9C3
100
AcDbEntity
  8
M0
 62
     1
100
AcDbCircle
 10
692.389102
 20
917.933485
 40
2.0
100
AcDbArc
 50
359.972343
 51
449.999563
  0
LINE
  5
9C4
100
AcDbEntity
  8
M0
 62
     1
100
AcDbLine
 10
730.414454
 20
876.43309
 11
733.589969
 21
881.933044
  0
ARC
  5
9C5
100
AcDbEntity
  8
M0
 62
     1
100
AcDbCircle
 10
728.682426
 20
877.433105
 40
2.0
100
AcDbArc
 50
270.0
 51
329.999445
  0
ARC
  5
9C6
100
AcDbEntity
  8
M0
 62
     1
100
AcDbCircle
 10
711.46303
 20
881.433334
 40
2.0
100
AcDbArc
 50
194.999701
 51
270.0
  0
LINE
  5
9C7
100
AcDbEntity
  8
M0
 62
     1
100
AcDbLine
 10
718.288561
 20
877.433242
 11
729.837143
 21
877.43309
  0
ARC
  5
9C8
100
AcDbEntity
  8
M0
 62
     1
100
AcDbCircle
 10
729.837161
 20
879.43309
 40
2.0
100
AcDbArc
 50
270.0
 51
329.999445
  0
LINE
  5
9C9
100
AcDbEntity
  8
M0
 62
     1
100
AcDbLine
 10
709.088671
 20
881.933349
 11
697.088641
 21
881.933502
  0
LINE
  5
9CA
100
AcDbEntity
  8
M0
 62
     1
100
AcDbLine
 10
696.338656
 20
882.433517
 11
697.088641
 21
881.933502
  0
LINE
  5
9CB
100
AcDbEntity
  8
M0
 62
     1
100
AcDbLine
 10
694.088702
 20
886.433548
 11
697.088687
 21
884.433502
  0
LINE
  5
9CC
100
AcDbEntity
  8
M0
 62
     1
100
AcDbLine
 10
733.589978
 20
881.933044
 11
741.088619
 21
881.932952
  0
LINE
  5
9CD
100
AcDbEntity
  8
M0
 62
     1
100
AcDbLine
 10
730.414478
 20
876.43309
 11
736.08855
 21
876.433014
  0
LINE
  5
9CE
100
AcDbEntity
  8
M0
 62
     1
100
AcDbLine
 10
738.088575
 20
878.432983
 11
738.08862
 21
881.932983
  0
ARC
  5
9CF
100
AcDbEntity
  8
M0
 62
     1
100
AcDbCircle
 10
736.088575
 20
878.433014
 40
2.0
100
AcDbArc
 50
270.0
 51
360.0
  0
LINE
  5
9D0
100
AcDbEntity
  8
M0
 62
     1
100
AcDbLine
 10
715.288592
 20
879.433273
 11
718.288561
 21
877.433242
  0
LINE
  5
9D1
100
AcDbEntity
  8
M0
 62
     1
100
AcDbLine
 10
675.947802
 20
884.433776
 11
673.06972
 21
884.433822
  0
LINE
  5
9D2
100
AcDbEntity
  8
M0
 62
     1
100
AcDbLine
 10
666.0889
 20
901.933822
 11
667.696841
 21
895.932571
  0
ARC
  5
9D3
100
AcDbEntity
  8
M0
 62
     1
100
AcDbCircle
 10
673.07976
 20
887.433792
 40
3.0
100
AcDbArc
 50
194.998884
 51
270.0
  0
LINE
  5
9D4
100
AcDbEntity
  8
M0
 62
     1
100
AcDbLine
 10
709.088641
 20
881.93341
 11
710.433062
 21
876.915695
  0
LINE
  5
9D5
100
AcDbEntity
  8
M0
 62
     1
100
AcDbLine
 10
708.588671
 20
884.433364
 11
709.531176
 21
880.91571
  0
ARC
  5
9D6
100
AcDbEntity
  8
M0
 62
     1
100
AcDbCircle
 10
712.364916
 20
877.433319
 40
2.0
100
AcDbArc
 50
194.999166
 51
270.0
  0
LINE
  5
9D7
100
AcDbEntity
  8
M0
 62
     1
100
AcDbLine
 10
683.588397
 20
916.932575
 11
671.589144
 21
916.933826
  0
LINE
  5
9D8
100
AcDbEntity
  8
M0
 62
     1
100
AcDbLine
 10
668.018374
 20
894.732574
 11
670.181979
 21
886.657379
  0
LINE
  5
9D9
100
AcDbEntity
  8
M0
 62
     1
100
AcDbLine
 10
730.688934
 20
917.93252
 11
683.08916
 21
917.93252
  0
LINE
  5
9DA
100
AcDbEntity
  8
M0
100
AcDbLine
 10
832.789081
 20
886.93258
 11
832.789081
 21
891.93258
  0
LINE
  5
9DB
100
AcDbEntity
  8
M0
100
AcDbLine
 10
831.188934
 20
886.932549
 11
832.789081
 21
886.932549
  0
LINE
  5
9DC
100
AcDbEntity
  8
M0
100
AcDbLine
 10
831.188934
 20
887.332482
 11
832.789081
 21
887.332482
  0
LINE
  5
9DD
100
AcDbEntity
  8
M0
100
AcDbLine
 10
831.188934
 20
891.532433
 11
832.789081
 21
891.532433
  0
LINE
  5
9DE
100
AcDbEntity
  8
M0
100
AcDbLine
 10
831.188934
 20
891.932549
 11
832.789081
 21
891.932549
  0
LINE
  5
9DF
100
AcDbEntity
  8
M0
100
AcDbLine
 10
833.388934
 20
893.432549
 11
833.388934
 21
897.432549
  0
LINE
  5
9E0
100
AcDbEntity
  8
M0
100
AcDbLine
 10
831.188934
 20
897.132546
 11
833.388934
 21
897.132546
  0
LINE
  5
9E1
100
AcDbEntity
  8
M0
100
AcDbLine
 10
833.388934
 20
897.432549
 11
831.188934
 21
897.432549
  0
LINE
  5
9E2
100
AcDbEntity
  8
M0
100
AcDbLine
 10
831.188934
 20
893.732552
 11
833.388934
 21
893.732552
  0
LINE
  5
9E3
100
AcDbEntity
  8
M0
100
AcDbLine
 10
831.188934
 20
893.432549
 11
833.388934
 21
893.432549
  0
LINE
  5
9E4
100
AcDbEntity
  8
M0
 62
   253
100
AcDbLine
 10
828.888934
 20
883.432549
 11
828.888934
 21
913.432549
  0
LINE
  5
9E5
100
AcDbEntity
  8
M0
 62
   253
100
AcDbLine
 10
776.888934
 20
878.432549
 11
767.888934
 21
878.432549
  0
LINE
  5
9E6
100
AcDbEntity
  8
M0
 62
   253
100
AcDbLine
 10
767.888934
 20
884.432549
 11
767.888934
 21
878.432549
  0
LINE
  5
9E7
100
AcDbEntity
  8
M0
 62
   253
100
AcDbLine
 10
816.888934
 20
883.432549
 11
783.388934
 21
883.432549
  0
LINE
  5
9E8
100
AcDbEntity
  8
M0
 62
   253
100
AcDbLine
 10
807.888934
 20
889.432549
 11
807.888934
 21
883.432549
  0
ARC
  5
9E9
100
AcDbEntity
  8
M0
 62
   253
100
AcDbCircle
 10
808.888934
 20
889.432549
 40
1.0
100
AcDbArc
 50
90.0
 51
180.0
  0
LINE
  5
9EA
100
AcDbEntity
  8
M0
 62
   253
100
AcDbLine
 10
812.847483
 20
890.432549
 11
793.888934
 21
890.432549
  0
LINE
  5
9EB
100
AcDbEntity
  8
M0
 62
   253
100
AcDbLine
 10
792.888934
 20
883.432549
 11
792.888934
 21
889.432549
  0
ARC
  5
9EC
100
AcDbEntity
  8
M0
 62
   253
100
AcDbCircle
 10
793.888934
 20
889.432549
 40
1.0
100
AcDbArc
 50
90.0
 51
180.0
  0
LINE
  5
9ED
100
AcDbEntity
  8
M0
100
AcDbLine
 10
832.789081
 20
926.93258
 11
832.789081
 21
931.93258
  0
LINE
  5
9EE
100
AcDbEntity
  8
M0
100
AcDbLine
 10
831.188934
 20
926.932549
 11
832.789081
 21
926.932549
  0
LINE
  5
9EF
100
AcDbEntity
  8
M0
100
AcDbLine
 10
831.188934
 20
927.332482
 11
832.789081
 21
927.332482
  0
LINE
  5
9F0
100
AcDbEntity
  8
M0
100
AcDbLine
 10
831.188934
 20
931.532433
 11
832.789081
 21
931.532433
  0
LINE
  5
9F1
100
AcDbEntity
  8
M0
100
AcDbLine
 10
831.188934
 20
931.932549
 11
832.789081
 21
931.932549
  0
LINE
  5
9F2
100
AcDbEntity
  8
M0
 62
   114
100
AcDbLine
 10
728.088904
 20
935.932805
 11
738.088904
 21
935.932805
  0
ARC
  5
9F3
100
AcDbEntity
  8
M0
 62
   114
100
AcDbCircle
 10
733.088934
 20
944.632757
 40
11.999989
100
AcDbArc
 50
254.506528
 51
267.131175
  0
LINE
  5
9F4
100
AcDbEntity
  8
M0
 62
   114
100
AcDbLine
 10
728.588202
 20
935.932805
 11
728.716376
 21
934.471319
  0
LINE
  5
9F5
100
AcDbEntity
  8
M0
 62
   114
100
AcDbLine
 10
737.588446
 20
935.9325
 11
737.460272
 21
934.471319
  0
ARC
  5
9F6
100
AcDbEntity
  8
M0
 62
   114
100
AcDbCircle
 10
730.310614
 20
934.610784
 40
1.599998
100
AcDbArc
 50
184.999457
 51
254.513915
  0
ARC
  5
9F7
100
AcDbEntity
  8
M0
 62
   114
100
AcDbCircle
 10
735.867255
 20
934.610784
 40
1.599998
100
AcDbArc
 50
285.486011
 51
354.996601
  0
LINE
  5
9F8
100
AcDbEntity
  8
M0
 62
   114
100
AcDbLine
 10
732.488349
 20
934.432561
 11
733.6883
 21
934.432561
  0
LINE
  5
9F9
100
AcDbEntity
  8
M0
 62
   114
100
AcDbLine
 10
732.488349
 20
932.63294
 11
732.488349
 21
934.432561
  0
LINE
  5
9FA
100
AcDbEntity
  8
M0
 62
   114
100
AcDbLine
 10
733.6883
 20
932.647893
 11
733.6883
 21
934.432561
  0
LINE
  5
9FB
100
AcDbEntity
  8
M0
 62
   114
100
AcDbLine
 10
728.088934
 20
937.232549
 11
738.088934
 21
937.232549
  0
ARC
  5
9FC
100
AcDbEntity
  8
M0
 62
   114
100
AcDbCircle
 10
733.088934
 20
944.632757
 40
11.999989
100
AcDbArc
 50
272.862961
 51
285.493401
  0
LINE
  5
9FD
100
AcDbEntity
  8
M0
 62
   114
100
AcDbLine
 10
733.088934
 20
935.932805
 11
732.138202
 21
937.232549
  0
LINE
  5
9FE
100
AcDbEntity
  8
M0
 62
   114
100
AcDbLine
 10
734.038446
 20
935.932805
 11
733.088934
 21
937.232549
  0
LINE
  5
9FF
100
AcDbEntity
  8
M0
 62
   114
100
AcDbLine
 10
738.088904
 20
935.932561
 11
738.088904
 21
937.232549
  0
LINE
  5
A00
100
AcDbEntity
  8
M0
 62
   114
100
AcDbLine
 10
728.088904
 20
935.932561
 11
728.088904
 21
937.232549
  0
LINE
  5
A01
100
AcDbEntity
  8
M0
 62
   114
100
AcDbLine
 10
713.088904
 20
935.932805
 11
723.088904
 21
935.932805
  0
ARC
  5
A02
100
AcDbEntity
  8
M0
 62
   114
100
AcDbCircle
 10
718.088934
 20
944.632757
 40
11.999989
100
AcDbArc
 50
254.506528
 51
267.131175
  0
LINE
  5
A03
100
AcDbEntity
  8
M0
 62
   114
100
AcDbLine
 10
713.588202
 20
935.932805
 11
713.716376
 21
934.471319
  0
LINE
  5
A04
100
AcDbEntity
  8
M0
 62
   114
100
AcDbLine
 10
722.588446
 20
935.9325
 11
722.460272
 21
934.471319
  0
ARC
  5
A05
100
AcDbEntity
  8
M0
 62
   114
100
AcDbCircle
 10
715.310614
 20
934.610784
 40
1.599998
100
AcDbArc
 50
184.999457
 51
254.513915
  0
ARC
  5
A06
100
AcDbEntity
  8
M0
 62
   114
100
AcDbCircle
 10
720.867255
 20
934.610784
 40
1.599998
100
AcDbArc
 50
285.486011
 51
354.996601
  0
LINE
  5
A07
100
AcDbEntity
  8
M0
 62
   114
100
AcDbLine
 10
717.488349
 20
934.432561
 11
718.6883
 21
934.432561
  0
LINE
  5
A08
100
AcDbEntity
  8
M0
 62
   114
100
AcDbLine
 10
717.488349
 20
932.63294
 11
717.488349
 21
934.432561
  0
LINE
  5
A09
100
AcDbEntity
  8
M0
 62
   114
100
AcDbLine
 10
718.6883
 20
932.647893
 11
718.6883
 21
934.432561
  0
LINE
  5
A0A
100
AcDbEntity
  8
M0
 62
   114
100
AcDbLine
 10
713.088934
 20
937.232549
 11
723.088934
 21
937.232549
  0
ARC
  5
A0B
100
AcDbEntity
  8
M0
 62
   114
100
AcDbCircle
 10
718.088934
 20
944.632757
 40
11.999989
100
AcDbArc
 50
272.862961
 51
285.493401
  0
LINE
  5
A0C
100
AcDbEntity
  8
M0
 62
   114
100
AcDbLine
 10
718.088934
 20
935.932805
 11
717.138202
 21
937.232549
  0
LINE
  5
A0D
100
AcDbEntity
  8
M0
 62
   114
100
AcDbLine
 10
719.038446
 20
935.932805
 11
718.088934
 21
937.232549
  0
LINE
  5
A0E
100
AcDbEntity
  8
M0
 62
   114
100
AcDbLine
 10
723.088904
 20
935.932561
 11
723.088904
 21
937.232549
  0
LINE
  5
A0F
100
AcDbEntity
  8
M0
 62
   114
100
AcDbLine
 10
713.088904
 20
935.932561
 11
713.088904
 21
937.232549
  0
LINE
  5
A10
100
AcDbEntity
  8
M0
 62
   114
100
AcDbLine
 10
766.789325
 20
934.43258
 11
766.789325
 21
924.43258
  0
ARC
  5
A11
100
AcDbEntity
  8
M0
 62
   114
100
AcDbCircle
 10
775.489276
 20
929.432549
 40
11.999989
100
AcDbArc
 50
164.506528
 51
177.131175
  0
LINE
  5
A12
100
AcDbEntity
  8
M0
 62
   114
100
AcDbLine
 10
766.789325
 20
933.933282
 11
765.327838
 21
933.805108
  0
LINE
  5
A13
100
AcDbEntity
  8
M0
 62
   114
100
AcDbLine
 10
766.78902
 20
924.933037
 11
765.327838
 21
925.061211
  0
ARC
  5
A14
100
AcDbEntity
  8
M0
 62
   114
100
AcDbCircle
 10
765.467304
 20
932.210869
 40
1.599998
100
AcDbArc
 50
94.999457
 51
164.513915
  0
ARC
  5
A15
100
AcDbEntity
  8
M0
 62
   114
100
AcDbCircle
 10
765.467304
 20
926.654229
 40
1.599998
100
AcDbArc
 50
195.486011
 51
264.996601
  0
LINE
  5
A16
100
AcDbEntity
  8
M0
 62
   114
100
AcDbLine
 10
765.289081
 20
930.033135
 11
765.289081
 21
928.833184
  0
LINE
  5
A17
100
AcDbEntity
  8
M0
 62
   114
100
AcDbLine
 10
763.489459
 20
930.033135
 11
765.289081
 21
930.033135
  0
LINE
  5
A18
100
AcDbEntity
  8
M0
 62
   114
100
AcDbLine
 10
763.504413
 20
928.833184
 11
765.289081
 21
928.833184
  0
LINE
  5
A19
100
AcDbEntity
  8
M0
 62
   114
100
AcDbLine
 10
768.089069
 20
934.432549
 11
768.089069
 21
924.432549
  0
LINE
  5
A1A
100
AcDbEntity
  8
M0
 62
   114
100
AcDbLine
 10
768.888934
 20
934.432549
 11
768.888934
 21
924.432549
  0
LINE
  5
A1B
100
AcDbEntity
  8
M0
 62
   114
100
AcDbLine
 10
768.089069
 20
934.432549
 11
768.888934
 21
934.432549
  0
LINE
  5
A1C
100
AcDbEntity
  8
M0
 62
   114
100
AcDbLine
 10
768.089069
 20
924.432549
 11
768.888934
 21
924.432549
  0
ARC
  5
A1D
100
AcDbEntity
  8
M0
 62
   114
100
AcDbCircle
 10
775.489276
 20
929.432549
 40
11.999989
100
AcDbArc
 50
182.862961
 51
195.493401
  0
LINE
  5
A1E
100
AcDbEntity
  8
M0
 62
   114
100
AcDbLine
 10
766.789325
 20
929.432549
 11
768.089069
 21
930.383282
  0
LINE
  5
A1F
100
AcDbEntity
  8
M0
 62
   114
100
AcDbLine
 10
766.789325
 20
928.483037
 11
768.089069
 21
929.432549
  0
LINE
  5
A20
100
AcDbEntity
  8
M0
 62
   114
100
AcDbLine
 10
766.789081
 20
924.43258
 11
768.089069
 21
924.43258
  0
LINE
  5
A21
100
AcDbEntity
  8
M0
 62
   114
100
AcDbLine
 10
766.789081
 20
934.43258
 11
768.089069
 21
934.43258
  0
LINE
  5
A22
100
AcDbEntity
  8
M0
 62
     7
100
AcDbLine
 10
759.088931
 20
883.332543
 11
760.588931
 21
883.332543
  0
LINE
  5
A23
100
AcDbEntity
  8
M0
 62
     7
100
AcDbLine
 10
760.588931
 20
883.332543
 11
760.588931
 21
891.880373
  0
LINE
  5
A24
100
AcDbEntity
  8
M0
 62
     7
100
AcDbLine
 10
759.088931
 20
893.900564
 11
759.088931
 21
883.332543
  0
LINE
  5
A25
100
AcDbEntity
  8
M0
 62
     7
100
AcDbLine
 10
759.088931
 20
889.432519
 11
760.588931
 21
888.566506
  0
LINE
  5
A26
100
AcDbEntity
  8
M0
 62
     7
100
AcDbLine
 10
759.088931
 20
890.298546
 11
760.588931
 21
889.432534
  0
LINE
  5
A27
100
AcDbEntity
  8
M0
 62
   234
100
AcDbLine
 10
760.588931
 20
883.682558
 11
761.388934
 21
883.682558
  0
LINE
  5
A28
100
AcDbEntity
  8
M0
 62
   234
100
AcDbLine
 10
761.388934
 20
883.682558
 11
761.388934
 21
890.494727
  0
LINE
  5
A29
100
AcDbEntity
  8
M0
 62
   234
100
AcDbLine
 10
760.588931
 20
891.880373
 11
760.588931
 21
883.682558
  0
ARC
  5
A2A
100
AcDbEntity
  8
M0
 62
   234
100
AcDbCircle
 10
769.188922
 20
889.432549
 40
14.0
100
AcDbArc
 50
182.455608
 51
196.072546
  0
ARC
  5
A2B
100
AcDbEntity
  8
M0
 62
   234
100
AcDbCircle
 10
769.188922
 20
889.432549
 40
14.0
100
AcDbArc
 50
163.926345
 51
177.543282
  0
LINE
  5
A2C
100
AcDbEntity
  8
M0
 62
   234
100
AcDbLine
 10
757.301792
 20
888.832696
 11
755.201785
 21
888.832696
  0
LINE
  5
A2D
100
AcDbEntity
  8
M0
 62
   234
100
AcDbLine
 10
757.301792
 20
890.032647
 11
757.301792
 21
888.832696
  0
LINE
  5
A2E
100
AcDbEntity
  8
M0
 62
   234
100
AcDbLine
 10
755.201785
 20
890.032647
 11
757.301792
 21
890.032647
  0
ARC
  5
A2F
100
AcDbEntity
  8
M0
 62
   234
100
AcDbCircle
 10
757.561908
 20
886.082696
 40
1.9
100
AcDbArc
 50
196.075393
 51
270.0
  0
LINE
  5
A30
100
AcDbEntity
  8
M0
 62
   234
100
AcDbLine
 10
757.561908
 20
884.182549
 11
759.088931
 21
884.182549
  0
ARC
  5
A31
100
AcDbEntity
  8
M0
 62
   234
100
AcDbCircle
 10
757.561908
 20
892.782647
 40
1.9
100
AcDbArc
 50
119.730248
 51
163.924489
  0
LINE
  5
A32
100
AcDbEntity
  8
M0
 62
   234
100
AcDbLine
 10
759.088931
 20
884.182549
 11
759.088931
 21
893.900564
  0
CIRCLE
  5
A33
100
AcDbEntity
  8
M0
 62
     2
100
AcDbCircle
 10
395.016753
 20
850.632549
 40
13.0
  0
LINE
  5
A34
100
AcDbEntity
  8
M0
 62
     6
100
AcDbLine
 10
395.016753
 20
839.682503
 11
385.533843
 21
845.157509
  0
LINE
  5
A35
100
AcDbEntity
  8
M0
 62
     6
100
AcDbLine
 10
385.533843
 20
845.157509
 11
385.533843
 21
856.10749
  0
LINE
  5
A36
100
AcDbEntity
  8
M0
 62
     6
100
AcDbLine
 10
385.533843
 20
856.10749
 11
395.016753
 21
861.582497
  0
LINE
  5
A37
100
AcDbEntity
  8
M0
 62
     6
100
AcDbLine
 10
395.016753
 20
861.582497
 11
404.499907
 21
856.10749
  0
LINE
  5
A38
100
AcDbEntity
  8
M0
 62
     6
100
AcDbLine
 10
404.499907
 20
856.10749
 11
404.499907
 21
845.157478
  0
LINE
  5
A39
100
AcDbEntity
  8
M0
 62
     6
100
AcDbLine
 10
404.499907
 20
845.157478
 11
395.016753
 21
839.682503
  0
CIRCLE
  5
A3A
100
AcDbEntity
  8
M0
 62
     6
100
AcDbCircle
 10
395.016753
 20
850.632484
 40
6.0
  0
LINE
  5
A3B
100
AcDbEntity
  8
M0
  6
DASHDOT
 62
     6
100
AcDbLine
 10
379.016752
 20
850.632484
 11
411.016754
 21
850.632484
  0
LINE
  5
A3C
100
AcDbEntity
  8
M0
  6
DASHDOT
 62
     6
100
AcDbLine
 10
395.016753
 20
834.632484
 11
395.016753
 21
866.632485
  0
CIRCLE
  5
A3D
100
AcDbEntity
  8
M0
 62
     7
100
AcDbCircle
 10
395.016753
 20
850.632549
 40
10.75
  0
CIRCLE
  5
A3E
100
AcDbEntity
  8
M0
 62
     2
100
AcDbCircle
 10
325.016753
 20
850.632549
 40
13.0
  0
LINE
  5
A3F
100
AcDbEntity
  8
M0
 62
     6
100
AcDbLine
 10
325.016753
 20
839.682503
 11
315.533843
 21
845.157509
  0
LINE
  5
A40
100
AcDbEntity
  8
M0
 62
     6
100
AcDbLine
 10
315.533843
 20
845.157509
 11
315.533843
 21
856.10749
  0
LINE
  5
A41
100
AcDbEntity
  8
M0
 62
     6
100
AcDbLine
 10
315.533843
 20
856.10749
 11
325.016753
 21
861.582497
  0
LINE
  5
A42
100
AcDbEntity
  8
M0
 62
     6
100
AcDbLine
 10
325.016753
 20
861.582497
 11
334.499907
 21
856.10749
  0
LINE
  5
A43
100
AcDbEntity
  8
M0
 62
     6
100
AcDbLine
 10
334.499907
 20
856.10749
 11
334.499907
 21
845.157478
  0
LINE
  5
A44
100
AcDbEntity
  8
M0
 62
     6
100
AcDbLine
 10
334.499907
 20
845.157478
 11
325.016753
 21
839.682503
  0
CIRCLE
  5
A45
100
AcDbEntity
  8
M0
 62
     6
100
AcDbCircle
 10
325.016753
 20
850.632484
 40
6.0
  0
LINE
  5
A46
100
AcDbEntity
  8
M0
  6
DASHDOT
 62
     6
100
AcDbLine
 10
309.016752
 20
850.632484
 11
341.016754
 21
850.632484
  0
CIRCLE
  5
A47
100
AcDbEntity
  8
M0
 62
     7
100
AcDbCircle
 10
325.016753
 20
850.632549
 40
10.75
  0
CIRCLE
  5
A48
100
AcDbEntity
  8
M0
 62
     2
100
AcDbCircle
 10
255.016753
 20
850.632549
 40
13.0
  0
LINE
  5
A49
100
AcDbEntity
  8
M0
 62
     6
100
AcDbLine
 10
255.016753
 20
839.682503
 11
245.533843
 21
845.157509
  0
LINE
  5
A4A
100
AcDbEntity
  8
M0
 62
     6
100
AcDbLine
 10
245.533843
 20
845.157509
 11
245.533843
 21
856.10749
  0
LINE
  5
A4B
100
AcDbEntity
  8
M0
 62
     6
100
AcDbLine
 10
245.533843
 20
856.10749
 11
255.016753
 21
861.582497
  0
LINE
  5
A4C
100
AcDbEntity
  8
M0
 62
     6
100
AcDbLine
 10
255.016753
 20
861.582497
 11
264.499907
 21
856.10749
  0
LINE
  5
A4D
100
AcDbEntity
  8
M0
 62
     6
100
AcDbLine
 10
264.499907
 20
856.10749
 11
264.499907
 21
845.157478
  0
LINE
  5
A4E
100
AcDbEntity
  8
M0
 62
     6
100
AcDbLine
 10
264.499907
 20
845.157478
 11
255.016753
 21
839.682503
  0
CIRCLE
  5
A4F
100
AcDbEntity
  8
M0
 62
     6
100
AcDbCircle
 10
255.016753
 20
850.632484
 40
6.0
  0
LINE
  5
A50
100
AcDbEntity
  8
M0
  6
DASHDOT
 62
     6
100
AcDbLine
 10
239.016752
 20
850.632484
 11
271.016754
 21
850.632484
  0
LINE
  5
A51
100
AcDbEntity
  8
M0
  6
DASHDOT
 62
     6
100
AcDbLine
 10
255.016753
 20
834.632484
 11
255.016753
 21
866.632485
  0
CIRCLE
  5
A52
100
AcDbEntity
  8
M0
 62
     7
100
AcDbCircle
 10
255.016753
 20
850.632549
 40
10.75
  0
LINE
  5
A53
100
AcDbEntity
  8
M0
 62
     4
100
AcDbLine
 10
748.388938
 20
844.432516
 11
761.588928
 21
844.432514
  0
LINE
  5
A54
100
AcDbEntity
  8
M0
 62
     4
100
AcDbLine
 10
791.388945
 20
856.432495
 11
783.388945
 21
856.4325
  0
LINE
  5
A55
100
AcDbEntity
  8
M0
 62
     4
100
AcDbLine
 10
783.388948
 20
861.395513
 11
783.388934
 21
839.469503
  0
LINE
  5
A56
100
AcDbEntity
  8
M0
 62
     4
100
AcDbLine
 10
783.388934
 20
839.469503
 11
791.388934
 21
839.469498
  0
LINE
  5
A57
100
AcDbEntity
  8
M0
 62
     4
100
AcDbLine
 10
791.388934
 20
839.469498
 11
791.388948
 21
861.395508
  0
LINE
  5
A58
100
AcDbEntity
  8
M0
 62
     4
100
AcDbLine
 10
791.388948
 20
861.395508
 11
783.388948
 21
861.395513
  0
LINE
  5
A59
100
AcDbEntity
  8
M0
 62
     4
100
AcDbLine
 10
748.388938
 20
844.432516
 11
748.388945
 21
856.432516
  0
LINE
  5
A5A
100
AcDbEntity
  8
M0
 62
     4
100
AcDbLine
 10
761.588921
 20
856.432514
 11
748.388945
 21
856.432516
  0
LINE
  5
A5B
100
AcDbEntity
  8
M0
 62
     4
100
AcDbLine
 10
783.388938
 20
844.4325
 11
791.388938
 21
844.432495
  0
LINE
  5
A5C
100
AcDbEntity
  8
M0
  6
DASHDOT
 62
     4
100
AcDbLine
 10
796.388878
 20
850.432549
 11
744.005028
 21
850.432549
  0
LINE
  5
A5D
100
AcDbEntity
  8
M0
 62
     7
100
AcDbLine
 10
771.588931
 20
861.182712
 11
774.588931
 21
861.182712
  0
LINE
  5
A5E
100
AcDbEntity
  8
M0
 62
     7
100
AcDbLine
 10
774.588931
 20
861.182712
 11
774.588931
 21
839.682712
  0
LINE
  5
A5F
100
AcDbEntity
  8
M0
 62
     7
100
AcDbLine
 10
774.588931
 20
839.682712
 11
771.588931
 21
839.682712
  0
LINE
  5
A60
100
AcDbEntity
  8
M0
 62
     7
100
AcDbLine
 10
771.588931
 20
839.682712
 11
771.588931
 21
861.182712
  0
LINE
  5
A61
100
AcDbEntity
  8
M0
 62
     7
100
AcDbLine
 10
771.588931
 20
850.432697
 11
774.588931
 21
852.164737
  0
LINE
  5
A62
100
AcDbEntity
  8
M0
 62
     7
100
AcDbLine
 10
771.588931
 20
848.700672
 11
774.588931
 21
850.432712
  0
LINE
  5
A63
100
AcDbEntity
  8
M0
 62
     6
100
AcDbLine
 10
774.588915
 20
863.432597
 11
776.888918
 21
863.432598
  0
LINE
  5
A64
100
AcDbEntity
  8
M0
 62
     6
100
AcDbLine
 10
776.888918
 20
863.432598
 11
776.888934
 21
837.432598
  0
LINE
  5
A65
100
AcDbEntity
  8
M0
 62
     6
100
AcDbLine
 10
776.888934
 20
837.432598
 11
774.588931
 21
837.432597
  0
LINE
  5
A66
100
AcDbEntity
  8
M0
 62
     6
100
AcDbLine
 10
774.588931
 20
837.432597
 11
774.588915
 21
863.432597
  0
LINE
  5
A67
100
AcDbEntity
  8
M0
 62
     6
100
AcDbLine
 10
761.588674
 20
861.382589
 11
771.588674
 21
861.382595
  0
LINE
  5
A68
100
AcDbEntity
  8
M0
 62
     6
100
AcDbLine
 10
771.588918
 20
861.38258
 11
771.588931
 21
839.482586
  0
LINE
  5
A69
100
AcDbEntity
  8
M0
 62
     6
100
AcDbLine
 10
761.588931
 20
839.482625
 11
761.588918
 21
861.382604
  0
LINE
  5
A6A
100
AcDbEntity
  8
M0
 62
     6
100
AcDbLine
 10
771.588677
 20
855.907619
 11
761.588677
 21
855.907613
  0
LINE
  5
A6B
100
AcDbEntity
  8
M0
 62
     6
100
AcDbLine
 10
761.588443
 20
839.482595
 11
771.588687
 21
839.482601
  0
LINE
  5
A6C
100
AcDbEntity
  8
M0
 62
     6
100
AcDbLine
 10
771.588684
 20
844.957607
 11
761.58844
 21
844.957601
  0
LINE
  5
A6D
100
AcDbEntity
  8
M0
 62
     6
100
AcDbLine
 10
759.088927
 20
863.432597
 11
761.38893
 21
863.432598
  0
LINE
  5
A6E
100
AcDbEntity
  8
M0
 62
     6
100
AcDbLine
 10
761.38893
 20
863.432598
 11
761.388934
 21
856.432519
  0
LINE
  5
A6F
100
AcDbEntity
  8
M0
 62
     6
100
AcDbLine
 10
761.388946
 20
837.432598
 11
759.088943
 21
837.432597
  0
LINE
  5
A70
100
AcDbEntity
  8
M0
 62
     6
100
AcDbLine
 10
759.088943
 20
837.432597
 11
759.088939
 21
844.432519
  0
LINE
  5
A71
100
AcDbEntity
  8
M0
 62
     6
100
AcDbLine
 10
761.388942
 20
844.432519
 11
761.388946
 21
837.432598
  0
LINE
  5
A72
100
AcDbEntity
  8
M0
 62
     6
100
AcDbLine
 10
759.088931
 20
856.432519
 11
759.088927
 21
863.432597
  0
LINE
  5
A73
100
AcDbEntity
  8
M0
 62
     7
100
AcDbLine
 10
756.088927
 20
861.182712
 11
759.088927
 21
861.182712
  0
LINE
  5
A74
100
AcDbEntity
  8
M0
 62
     7
100
AcDbLine
 10
759.088927
 20
861.182712
 11
759.088927
 21
856.432519
  0
LINE
  5
A75
100
AcDbEntity
  8
M0
 62
     7
100
AcDbLine
 10
759.088927
 20
839.682712
 11
756.088927
 21
839.682712
  0
LINE
  5
A76
100
AcDbEntity
  8
M0
 62
     7
100
AcDbLine
 10
756.088927
 20
839.682712
 11
756.088927
 21
844.43252
  0
LINE
  5
A77
100
AcDbEntity
  8
M0
 62
     7
100
AcDbLine
 10
756.088927
 20
856.43252
 11
756.088927
 21
861.182712
  0
LINE
  5
A78
100
AcDbEntity
  8
M0
 62
     7
100
AcDbLine
 10
759.088927
 20
844.432519
 11
759.088927
 21
839.682712
  0
LINE
  5
A79
100
AcDbEntity
  8
M0
 62
     6
100
AcDbLine
 10
746.088683
 20
861.382589
 11
756.088683
 21
861.382595
  0
LINE
  5
A7A
100
AcDbEntity
  8
M0
 62
     6
100
AcDbLine
 10
756.088927
 20
861.38258
 11
756.08893
 21
856.43252
  0
LINE
  5
A7B
100
AcDbEntity
  8
M0
 62
     6
100
AcDbLine
 10
746.088941
 20
839.482625
 11
746.088934
 21
850.432549
  0
LINE
  5
A7C
100
AcDbEntity
  8
M0
 62
     6
100
AcDbLine
 10
748.388945
 20
855.907615
 11
746.088686
 21
855.907613
  0
LINE
  5
A7D
100
AcDbEntity
  8
M0
 62
     6
100
AcDbLine
 10
746.088452
 20
839.482595
 11
756.088697
 21
839.482601
  0
LINE
  5
A7E
100
AcDbEntity
  8
M0
 62
     6
100
AcDbLine
 10
748.388938
 20
844.957602
 11
746.088449
 21
844.957601
  0
LINE
  5
A7F
100
AcDbEntity
  8
M0
 62
     6
100
AcDbLine
 10
746.088934
 20
850.432549
 11
746.088927
 21
861.382604
  0
LINE
  5
A80
100
AcDbEntity
  8
M0
 62
     6
100
AcDbLine
 10
756.088938
 20
844.43252
 11
756.088941
 21
839.482586
  0
LINE
  5
A81
100
AcDbEntity
  8
M0
 62
     4
100
AcDbLine
 10
732.888938
 20
844.432516
 11
746.088928
 21
844.432514
  0
LINE
  5
A82
100
AcDbEntity
  8
M0
 62
     4
100
AcDbLine
 10
732.888938
 20
844.432516
 11
732.888945
 21
856.432516
  0
LINE
  5
A83
100
AcDbEntity
  8
M0
 62
     4
100
AcDbLine
 10
746.088921
 20
856.432514
 11
732.888945
 21
856.432516
  0
LINE
  5
A84
100
AcDbEntity
  8
M0
  6
DASHDOT
 62
     4
100
AcDbLine
 10
780.888878
 20
850.432549
 11
728.505028
 21
850.432549
  0
LINE
  5
A85
100
AcDbEntity
  8
M0
 62
     6
100
AcDbLine
 10
373.12389
 20
987.932549
 11
343.12389
 21
987.932549
  0
LINE
  5
A86
100
AcDbEntity
  8
M0
 62
     6
100
AcDbLine
 10
276.909616
 20
987.932549
 11
306.909616
 21
987.932549
  0
ARC
  5
A87
100
AcDbEntity
  8
M0
 62
     6
100
AcDbCircle
 10
355.016753
 20
999.432549
 40
5.75
100
AcDbArc
 50
134.083159
 51
361.993147
  0
LINE
  5
A88
100
AcDbEntity
  8
M0
  6
DIVIDE
100
AcDbLine
 10
275.016828
 20
683.655473
 11
235.016825
 21
683.655473
  0
LINE
  5
A89
100
AcDbEntity
  8
M0
  6
DIVIDE
100
AcDbLine
 10
275.016828
 20
650.655471
 11
275.016828
 21
683.655473
  0
LINE
  5
A8A
100
AcDbEntity
  8
M0
  6
DIVIDE
100
AcDbLine
 10
305.01683
 20
683.655473
 11
305.01683
 21
650.655471
  0
LINE
  5
A8B
100
AcDbEntity
  8
M0
  6
DIVIDE
100
AcDbLine
 10
305.01683
 20
683.655473
 11
345.016833
 21
683.655473
  0
LINE
  5
A8C
100
AcDbEntity
  8
M0
  6
DIVIDE
100
AcDbLine
 10
345.016833
 20
683.655473
 11
345.016833
 21
650.655471
  0
LINE
  5
A8D
100
AcDbEntity
  8
M0
  6
DIVIDE
100
AcDbLine
 10
375.016836
 20
650.655471
 11
345.016833
 21
650.655471
  0
LINE
  5
A8E
100
AcDbEntity
  8
M0
  6
DIVIDE
100
AcDbLine
 10
375.016836
 20
683.655473
 11
375.016836
 21
650.655471
  0
LINE
  5
A8F
100
AcDbEntity
  8
M0
  6
DIVIDE
100
AcDbLine
 10
375.016836
 20
683.655473
 11
415.016838
 21
683.655473
  0
LINE
  5
A90
100
AcDbEntity
  8
M0
  6
DIVIDE
100
AcDbLine
 10
415.016838
 20
683.655473
 11
415.016838
 21
650.655471
  0
LINE
  5
A91
100
AcDbEntity
  8
M0
  6
DIVIDE
100
AcDbLine
 10
413.945397
 20
400.655467
 11
415.016838
 21
400.655467
  0
LINE
  5
A92
100
AcDbEntity
  8
M0
  6
DIVIDE
100
AcDbLine
 10
440.01684
 20
350.655326
 11
415.016838
 21
375.655176
  0
LINE
  5
A93
100
AcDbEntity
  8
M0
  6
DIVIDE
100
AcDbLine
 10
440.01684
 20
270.655702
 11
440.01684
 21
350.655326
  0
LINE
  5
A94
100
AcDbEntity
  8
M0
  6
DIVIDE
100
AcDbLine
 10
440.01684
 20
270.655702
 11
415.016823
 21
270.655702
  0
LINE
  5
A95
100
AcDbEntity
  8
M0
  6
DIVIDE
100
AcDbLine
 10
415.016823
 20
251.655456
 11
415.016823
 21
270.655702
  0
LINE
  5
A96
100
AcDbEntity
  8
M0
  6
DIVIDE
100
AcDbLine
 10
375.01682
 20
270.655702
 11
375.01682
 21
251.655456
  0
LINE
  5
A97
100
AcDbEntity
  8
M0
  6
DIVIDE
100
AcDbLine
 10
345.016833
 20
270.655702
 11
375.01682
 21
270.655702
  0
LINE
  5
A98
100
AcDbEntity
  8
M0
  6
DIVIDE
100
AcDbLine
 10
345.016833
 20
251.655456
 11
345.016833
 21
270.655702
  0
LINE
  5
A99
100
AcDbEntity
  8
M0
  6
DIVIDE
100
AcDbLine
 10
345.016833
 20
251.655456
 11
344.016833
 21
251.655456
  0
LINE
  5
A9A
100
AcDbEntity
  8
M0
  6
DIVIDE
100
AcDbLine
 10
306.01683
 20
251.655456
 11
305.01683
 21
251.655456
  0
LINE
  5
A9B
100
AcDbEntity
  8
M0
  6
DIVIDE
100
AcDbLine
 10
305.01683
 20
270.655702
 11
305.01683
 21
251.655456
  0
LINE
  5
A9C
100
AcDbEntity
  8
M0
  6
DIVIDE
100
AcDbLine
 10
275.016843
 20
270.655702
 11
305.01683
 21
270.655702
  0
LINE
  5
A9D
100
AcDbEntity
  8
M0
  6
DIVIDE
100
AcDbLine
 10
275.016843
 20
270.655702
 11
275.016843
 21
251.655456
  0
LINE
  5
A9E
100
AcDbEntity
  8
M0
  6
DIVIDE
100
AcDbLine
 10
235.01684
 20
251.655456
 11
275.016843
 21
251.655456
  0
LINE
  5
A9F
100
AcDbEntity
  8
M0
  6
DIVIDE
100
AcDbLine
 10
235.01684
 20
251.655456
 11
235.01684
 21
270.655702
  0
LINE
  5
AA0
100
AcDbEntity
  8
M0
  6
DIVIDE
100
AcDbLine
 10
210.016823
 20
270.655702
 11
235.01684
 21
270.655702
  0
LINE
  5
AA1
100
AcDbEntity
  8
M0
  6
DIVIDE
100
AcDbLine
 10
235.016825
 20
683.655473
 11
235.016825
 21
650.655471
  0
LINE
  5
AA2
100
AcDbEntity
  8
M0
  6
DIVIDE
100
AcDbLine
 10
415.016823
 20
251.655456
 11
375.01682
 21
251.655456
  0
LINE
  5
AA3
100
AcDbEntity
  8
M0
  6
DIVIDE
100
AcDbLine
 10
345.016833
 20
251.655456
 11
305.01683
 21
251.655456
  0
LINE
  5
AA4
100
AcDbEntity
  8
M0
  6
DIVIDE
100
AcDbLine
 10
195.066825
 20
650.655471
 11
235.016825
 21
650.655471
  0
LINE
  5
AA5
100
AcDbEntity
  8
M0
  6
DIVIDE
100
AcDbLine
 10
275.016828
 20
650.655471
 11
305.01683
 21
650.655471
  0
LINE
  5
AA6
100
AcDbEntity
  8
M0
  6
DIVIDE
100
AcDbLine
 10
477.96684
 20
650.655471
 11
415.016838
 21
650.655471
  0
LINE
  5
AA7
100
AcDbEntity
  8
M0
  6
DIVIDE
100
AcDbLine
 10
477.96684
 20
400.655467
 11
477.96684
 21
650.655471
  0
LINE
  5
AA8
100
AcDbEntity
  8
M0
  6
DIVIDE
100
AcDbLine
 10
210.016838
 20
350.655342
 11
235.016825
 21
375.655176
  0
LINE
  5
AA9
100
AcDbEntity
  8
M0
  6
DIVIDE
100
AcDbLine
 10
210.016823
 20
270.655702
 11
210.016838
 21
350.655342
  0
LINE
  5
AAA
100
AcDbEntity
  8
M0
  6
DIVIDE
100
AcDbLine
 10
195.066825
 20
650.655471
 11
195.066825
 21
400.655467
  0
LINE
  5
AAB
100
AcDbEntity
  8
M0
  6
DIVIDE
100
AcDbLine
 10
235.016825
 20
375.655435
 11
235.016825
 21
400.655467
  0
LINE
  5
AAC
100
AcDbEntity
  8
M0
  6
DIVIDE
100
AcDbLine
 10
195.066825
 20
400.655467
 11
235.016825
 21
400.655467
  0
LINE
  5
AAD
100
AcDbEntity
  8
M0
  6
DIVIDE
100
AcDbLine
 10
415.016838
 20
400.655467
 11
477.96684
 21
400.655467
  0
LINE
  5
AAE
100
AcDbEntity
  8
M0
  6
DIVIDE
100
AcDbLine
 10
415.016838
 20
400.655467
 11
415.016838
 21
375.655176
  0
LINE
  5
AAF
100
AcDbEntity
  8
M0
  6
DASHDOT
100
AcDbLine
 10
325.016832
 20
241.920424
 11
325.016832
 21
716.944279
  0
CIRCLE
  5
AB0
100
AcDbEntity
  8
M0
100
AcDbCircle
 10
240.016825
 20
637.65547
 40
5.0
  0
LINE
  5
AB1
100
AcDbEntity
  8
M0
  6
DASHDOT
100
AcDbLine
 10
210.016838
 20
637.65547
 11
270.016828
 21
637.65547
  0
LINE
  5
AB2
100
AcDbEntity
  8
M0
  6
DASHDOT
100
AcDbLine
 10
240.016825
 20
607.655468
 11
240.016825
 21
667.655472
  0
CIRCLE
  5
AB3
100
AcDbEntity
  8
M0
100
AcDbCircle
 10
240.016825
 20
415.655469
 40
5.0
  0
LINE
  5
AB4
100
AcDbEntity
  8
M0
  6
DASHDOT
100
AcDbLine
 10
210.016838
 20
415.655469
 11
270.016828
 21
415.655469
  0
LINE
  5
AB5
100
AcDbEntity
  8
M0
  6
DASHDOT
100
AcDbLine
 10
240.016825
 20
385.655466
 11
240.016825
 21
445.65547
  0
CIRCLE
  5
AB6
100
AcDbEntity
  8
M0
100
AcDbCircle
 10
225.016824
 20
280.655458
 40
5.0
  0
LINE
  5
AB7
100
AcDbEntity
  8
M0
  6
DASHDOT
100
AcDbLine
 10
195.016837
 20
280.655458
 11
255.016827
 21
280.655458
  0
LINE
  5
AB8
100
AcDbEntity
  8
M0
  6
DASHDOT
100
AcDbLine
 10
225.016824
 20
250.655456
 11
225.016824
 21
310.655461
  0
CIRCLE
  5
AB9
100
AcDbEntity
  8
M0
100
AcDbCircle
 10
410.016838
 20
637.65547
 40
5.0
  0
LINE
  5
ABA
100
AcDbEntity
  8
M0
  6
DASHDOT
100
AcDbLine
 10
440.016825
 20
637.65547
 11
380.016836
 21
637.65547
  0
LINE
  5
ABB
100
AcDbEntity
  8
M0
  6
DASHDOT
100
AcDbLine
 10
410.016838
 20
607.655468
 11
410.016838
 21
667.655472
  0
CIRCLE
  5
ABC
100
AcDbEntity
  8
M0
100
AcDbCircle
 10
410.016838
 20
415.655469
 40
5.0
  0
LINE
  5
ABD
100
AcDbEntity
  8
M0
  6
DASHDOT
100
AcDbLine
 10
440.016825
 20
415.655469
 11
380.016836
 21
415.655469
  0
LINE
  5
ABE
100
AcDbEntity
  8
M0
  6
DASHDOT
100
AcDbLine
 10
410.016838
 20
385.655466
 11
410.016838
 21
445.65547
  0
CIRCLE
  5
ABF
100
AcDbEntity
  8
M0
100
AcDbCircle
 10
425.016839
 20
280.655458
 40
5.0
  0
LINE
  5
AC0
100
AcDbEntity
  8
M0
  6
DASHDOT
100
AcDbLine
 10
455.016826
 20
280.655458
 11
395.016837
 21
280.655458
  0
LINE
  5
AC1
100
AcDbEntity
  8
M0
  6
DASHDOT
100
AcDbLine
 10
425.016839
 20
250.655456
 11
425.016839
 21
310.655461
  0
LINE
  5
AC2
100
AcDbEntity
  8
M0
  6
DASHDOT
100
AcDbLine
 10
165.492406
 20
525.655461
 11
508.613159
 21
525.655461
  0
LINE
  5
AC3
100
AcDbEntity
  8
M1
 62
     2
100
AcDbLine
 10
49.999999
 20
49.999999
 11
49.999999
 21
1424.999979
  0
LINE
  5
AC4
100
AcDbEntity
  8
M1
 62
     2
100
AcDbLine
 10
49.999999
 20
1424.999979
 11
999.999985
 21
1424.999979
  0
LINE
  5
AC5
100
AcDbEntity
  8
M1
 62
     2
100
AcDbLine
 10
999.999985
 20
1424.999979
 11
999.999985
 21
49.999999
  0
LINE
  5
AC6
100
AcDbEntity
  8
M1
 62
     2
100
AcDbLine
 10
999.999985
 20
49.999999
 11
49.999999
 21
49.999999
  0
LINE
  5
AC7
100
AcDbEntity
  8
M1
 62
     2
100
AcDbLine
 10
999.999985
 20
99.999999
 11
499.999993
 21
99.999999
  0
LINE
  5
AC8
100
AcDbEntity
  8
M1
 62
     2
100
AcDbLine
 10
999.999985
 20
149.999998
 11
499.999993
 21
149.999998
  0
LINE
  5
AC9
100
AcDbEntity
  8
M1
 62
     2
100
AcDbLine
 10
999.999985
 20
199.999997
 11
499.999993
 21
199.999997
  0
LINE
  5
ACA
100
AcDbEntity
  8
M1
 62
     2
100
AcDbLine
 10
499.999993
 20
49.999999
 11
499.999993
 21
199.999997
  0
TEXT
  5
ACB
100
AcDbEntity
  8
M1
 62
     2
100
AcDbText
 10
512.499992
 20
62.499999
 40
25.0
  1
適　用；
  7
STANDARD
100
AcDbText
  0
TEXT
  5
ACC
100
AcDbEntity
  8
M1
 62
     2
100
AcDbText
 10
512.499992
 20
162.499998
 40
25.0
  1
登録名：
  7
STANDARD
100
AcDbText
  0
TEXT
  5
ACD
100
AcDbEntity
  8
M1
 62
     2
100
AcDbText
 10
632.499991
 20
162.499998
 40
25.0
  1
ＤＭＨ６００ＣＴＲ００
 41
0.5
  7
STANDARD
100
AcDbText
  0
TEXT
  5
ACE
100
AcDbEntity
  8
M1
 62
     2
100
AcDbText
 10
512.499992
 20
112.499998
 40
25.0
  1
形　式；
  7
STANDARD
100
AcDbText
  0
TEXT
  5
ACF
100
AcDbEntity
  8
M1
 62
     2
100
AcDbText
 10
632.499991
 20
112.499998
 40
25.0
  1
Ｈ６００Ｃ－Ｔ，Ｈ６００Ｃ－ＴＫ
 41
0.5
  7
STANDARD
100
AcDbText
  0
LINE
  5
AD0
100
AcDbEntity
  8
DN0
100
AcDbLine
 10
278.972873
 20
145.083896
 11
370.272875
 21
145.083896
  0
TEXT
  5
AD1
100
AcDbEntity
  8
DN0
100
AcDbText
 10
281.497873
 20
147.333896
 40
22.5
  1
せん孔図
 41
0.833333
  7
STANDARD
100
AcDbText
  0
ENDSEC
  0
SECTION
  2
OBJECTS
  0
DICTIONARY
  5
C
100
AcDbDictionary
  3
ACAD_GROUP
350
D
  3
ACAD_MLINESTYLE
350
E
  0
DICTIONARY
  5
D
102
{ACAD_REACTORS
330
C
102
}
100
AcDbDictionary
  0
DICTIONARY
  5
E
102
{ACAD_REACTORS
330
C
102
}
100
AcDbDictionary
  3
STANDARD
350
13
  0
MLINESTYLE
  5
13
102
{ACAD_REACTORS
330
E
102
}
100
AcDbMlineStyle
  2
STANDARD
 70
     0
  3

 62
     0
 51
90.0
 52
90.0
 71
     2
 49
0.5
 62
   256
  6
BYLAYER
 49
-0.5
 62
   256
  6
BYLAYER
  0
ENDSEC
  0
EOF
