  0
SECTION
  2
HEADER
  9
$ACADVER
  1
AC1014
  9
$INSBASE
 10
0.000000
 20
0.000000
 30
0.0
  9
$VIEWCTR
 10
7.531722
 20
4.5
  9
$VIEWSIZE
 40
9.0
  9
$SNAPMODE
 70
     0
  9
$SNAPUNIT
 10
1.0
 20
1.0
  9
$SNAPBASE
 10
0.0
 20
0.0
  9
$SNAPANG
 50
0.0
  9
$SNAPSTYLE
 70
     0
  9
$SNAPISOPAIR
 70
     0
  9
$GRIDMODE
 70
     0
  9
$GRIDUNIT
 10
0.0
 20
0.0
  9
$ORTHOMODE
 70
     0
  9
$REGENMODE
 70
     1
  9
$FILLMODE
 70
     1
  9
$QTEXTMODE
 70
     0
  9
$DRAGMODE
 70
     2
  9
$LTSCALE
  40
     1.000000
  9
$OSMODE
 70
     0
  9
$ATTMODE
 70
     1
  9
$TEXTSIZE
 40
0.2
  9
$TRACEWID
 40
0.05
  9
$TEXTSTYLE
  7
STANDARD
  9
$CELTYPE
  6
BYLAYER
  9
$CECOLOR
 62
   256
  9
$DIMSCALE
 40
1.0
  9
$DIMASZ
 40
0.18
  9
$DIMEXO
 40
0.0625
  9
$DIMDLI
 40
0.38
  9
$DIMRND
 40
0.0
  9
$DIMDLE
 40
0.0
  9
$DIMEXE
 40
0.18
  9
$DIMTP
 40
0.0
  9
$DIMTM
 40
0.0
  9
$DIMTXT
 40
0.18
  9
$DIMCEN
 40
0.09
  9
$DIMTSZ
 40
0.0
  9
$DIMTOL
 70
     0
  9
$DIMLIM
 70
     0
  9
$DIMTIH
 70
     1
  9
$DIMTOH
 70
     1
  9
$DIMSE1
 70
     0
  9
$DIMSE2
 70
     0
  9
$DIMTAD
 70
     0
  9
$DIMZIN
 70
     0
  9
$DIMBLK
  1

  9
$LUNITS
 70
     2
  9
$LUPREC
 70
     4
  9
$AXISMODE
 70
     0
  9
$AXISUNIT
 10
0.0
 20
0.0
  9
$SKETCHINC
 40
0.1
  9
$FILLETRAD
 40
0.0
  9
$AUNITS
 70
     0
  9
$AUPREC
 70
     0
  9
$MENU
  1
ACAD
  9
$ELEVATION
 40
0.0
  9
$THICKNESS
 40
0.0
  9
$VIEWDIR
 10
0.0
 20
0.0
 30
1.0
  9
$LIMCHECK
 70
     0
  9
$BLIPMODE
 70
     1
  9
$CHAMFERA
 40
0.0
  9
$CHAMFERB
 40
0.0
  9
$FASTZOOM
 70
     1
  9
$SKPOLY
 70
     0
  9
$TDCREATE
 40
0000000.0000000000
  9
$TDUPDATE
 40
0000000.0000000000
  9
$TDINDWG
 40
0.0000000000
  9
$TDUSRTIMER
 40
0.0000000000
  9
$USRTIMER
 70
     1
  9
$ANGBASE
 50
0.0
  9
$ANGDIR
 70
     0
  9
$PDMODE
 70
     0
  9
$PDSIZE
 40
0.0
  9
$PLINEWID
 40
0.0
  9
$COORDS
 70
     0
  9
$USERI1
 70
     0
  9
$USERI2
 70
     0
  9
$USERI3
 70
     0
  9
$USERI4
 70
     0
  9
$USERI5
 70
     0
  9
$USERR1
 40
0.0
  9
$USERR2
 40
0.0
  9
$USERR3
 40
0.0
  9
$USERR4
 40
0.0
  9
$USERR5
 40
0.0
  9
$CLAYER
  8
M1
  9
$EXTMIN
 10
20.000038
 20
20.000038
  9
$EXTMAX
 10
400.000763
 20
570.001087
  9
$LIMMIN
 10
0.0
 20
0.0
  9
$LIMMAX
 10
210.0
 20
297.0
  9
$HANDSEED
  5
4CC
  0
ENDSEC
  0
SECTION
  2
CLASSES
  0
CLASS
  1
DICTIONARYVAR
  2
AcDbDictionaryVar
  3
"AutoCAD"
 90
        0
280
     0
281
     0
  0
CLASS
  1
HATCH
  2
AcDbHatch
  3
"ACAD_SEDONA"
 90
        0
280
     0
281
     1
  0
ENDSEC
  0
SECTION
  2
TABLES
  0
TABLE
  2
VPORT
  5
8
100
AcDbSymbolTable
 70
     2
  0
VPORT
  5
14
100
AcDbSymbolTableRecord
100
AcDbViewportTableRecord
  2
*ACTIVE
 70
     0
 10
0.0
 20
0.0
 11
1.0
 21
1.0
 12
484.0
 22
297.0
 13
0.0
 23
0.0
 14
1.0
 24
1.0
 15
0.0
 25
0.0
 16
0.0
 26
0.0
 36
1.0
 17
0.0
 27
0.0
 37
0.0
 40
594.0
 41
2.0
 42
50.0
 43
0.0
 44
0.0
 50
0.0
 51
0.0
 71
     0
 72
   100
 73
     1
 74
     1
 75
     0
 76
     0
 77
     0
 78
     0
  0
ENDTAB
  0
TABLE
  2
LTYPE
  5
5
100
AcDbSymbolTable
 70
     5
  0
LTYPE
  5
15
100
AcDbSymbolTableRecord
100
AcDbLinetypeTableRecord
  2
BYBLOCK
 70
     0
  3

 72
    65
 73
     0
 40
0.0
  0
LTYPE
  5
16
100
AcDbSymbolTableRecord
100
AcDbLinetypeTableRecord
  2
BYLAYER
 70
     0
  3

 72
    65
 73
     0
 40
0.0
  0
LTYPE
  5
17
100
AcDbSymbolTableRecord
100
AcDbLinetypeTableRecord
  2
CONTINUOUS
 70
    64
  3
Solid line
 72
    65
 73
     0
 40
0.0
  0
LTYPE
  5
18
100
AcDbSymbolTableRecord
100
AcDbLinetypeTableRecord
  2
DASHED
 70
    64
  3
__ __ __ __ __ __ __ __ __ __ __ __ __ __ __ __
 72
    65
 73
     2
 40
0.75
 49
0.5
 74
     0
 49
-0.25
 74
     0
  0
LTYPE
  5
19
100
AcDbSymbolTableRecord
100
AcDbLinetypeTableRecord
  2
DASHDOT
 70
    64
  3
__ . __ . __ . __ . __ . __ . __ . __ . __ . __
 72
    65
 73
     4
 40
1.0
 49
0.5
 74
     0
 49
-0.25
 74
     0
 49
0.0
 74
     0
 49
-0.25
 74
     0
  0
LTYPE
  5
1A
100
AcDbSymbolTableRecord
100
AcDbLinetypeTableRecord
  2
DIVIDE
 70
    64
  3
____ . . ____ . . ____ . . ____ . . ____ . . __
 72
    65
 73
     6
 40
1.25
 49
0.5
 74
     0
 49
-0.25
 74
     0
 49
0.0
 74
     0
 49
-0.25
 74
     0
 49
0.0
 74
     0
 49
-0.25
 74
     0
  0
LTYPE
  5
1B
100
AcDbSymbolTableRecord
100
AcDbLinetypeTableRecord
  2
DOT
 70
    64
  3
. . . . . . . . . . . . . . . . . . . . . . . .
 72
    65
 73
     2
 40
0.25
 49
0.0
 74
     0
 49
-0.25
 74
     0
  0
ENDTAB
  0
TABLE
  2
LAYER
  5
2
100
AcDbSymbolTable
 70
   102
  0
LAYER
  5
F
100
AcDbSymbolTableRecord
100
AcDbLayerTableRecord
  2
0
 70
     0
 62
     7
  6
CONTINUOUS
  0
LAYER
  5
1C
100
AcDbSymbolTableRecord
100
AcDbLayerTableRecord
  2
DEFPOINTS
 70
     0
 62
     7
  6
CONTINUOUS
  0
LAYER
  5
1D
100
AcDbSymbolTableRecord
100
AcDbLayerTableRecord
  2
M0
 70
     0
 62
     3
  6
CONTINUOUS
  0
LAYER
  5
1E
100
AcDbSymbolTableRecord
100
AcDbLayerTableRecord
  2
M1
 70
     0
 62
     3
  6
CONTINUOUS
  0
LAYER
  5
1F
100
AcDbSymbolTableRecord
100
AcDbLayerTableRecord
  2
M2
 70
     0
 62
     3
  6
CONTINUOUS
  0
LAYER
  5
20
100
AcDbSymbolTableRecord
100
AcDbLayerTableRecord
  2
DD0
 70
     0
 62
     4
  6
CONTINUOUS
  0
LAYER
  5
21
100
AcDbSymbolTableRecord
100
AcDbLayerTableRecord
  2
DN0
 70
     0
 62
     2
  6
CONTINUOUS
  0
ENDTAB
  0
TABLE
  2
STYLE
  5
3
100
AcDbSymbolTable
 70
     2
  0
STYLE
  5
10
100
AcDbSymbolTableRecord
100
AcDbTextStyleTableRecord
  2
STANDARD
 70
     0
 40
0.0
 41
1.0
 50
0.0
 71
     0
 42
0.2
  3
txt
  4
BIGFONT
  0
ENDTAB
  0
TABLE
  2
VIEW
  5
6
100
AcDbSymbolTable
 70
     0
  0
ENDTAB
  0
TABLE
  2
UCS
  5
7
100
AcDbSymbolTable
 70
     0
  0
ENDTAB
  0
TABLE
  2
APPID
  5
9
100
AcDbSymbolTable
 70
     1
  0
APPID
  5
11
100
AcDbSymbolTableRecord
100
AcDbRegAppTableRecord
  2
ACAD
 70
     0
  0
ENDTAB
  0
TABLE
  2
DIMSTYLE
  5
A
100
AcDbSymbolTable
 70
     2
  0
DIMSTYLE
105
28
100
AcDbSymbolTableRecord
100
AcDbDimStyleTableRecord
  2
STANDARD
 70
     0
  3

  4

  5

  6
_OPEN
  7
_OPEN
 40
1.0
 41
5.00001
 42
1.0
 43
6.0
 44
1.0
 45
0.0
 46
0.0
 47
0.0
 48
0.0
140
6.300011
141
0.09
142
0.0
143
0.03937
144
1.0
145
0.0
146
1.0
147
0.6
 71
     0
 72
     0
 73
     1
 74
     1
 75
     0
 76
     0
 77
     3
 78
     8
170
     0
171
     2
172
     0
173
     1
174
     0
175
     0
176
     0
177
     0
178
     0
270
     2
271
     2
272
     4
273
     2
274
     2
340
10
275
     0
280
     0
281
     0
282
     0
283
     1
284
     0
285
     0
286
     0
287
     3
288
     0
  0
DIMSTYLE
105
29
100
AcDbSymbolTableRecord
100
AcDbDimStyleTableRecord
  2
LEADSTYL
 70
     0
  3

  4

  5

  6
_OPEN
  7
_OPEN
 40
1.0
 41
5.00001
 42
0.0625
 43
0.38
 44
0.18
 45
0.0
 46
0.0
 47
0.0
 48
0.0
140
6.300011
141
0.09
142
0.0
143
25.4
144
1.0
145
0.0
146
1.0
147
0.6
 71
     0
 72
     0
 73
     1
 74
     1
 75
     0
 76
     0
 77
     0
 78
     0
170
     0
171
     2
172
     0
173
     1
174
     0
175
     0
176
     0
177
     0
178
     0
270
     2
271
     4
272
     4
273
     2
274
     2
340
10
275
     0
280
     0
281
     0
282
     0
283
     1
284
     0
285
     0
286
     0
287
     3
288
     0
  0
ENDTAB
  0
TABLE
  2
BLOCK_RECORD
  5
1
100
AcDbSymbolTable
 70
    18
  0
BLOCK_RECORD
  5
22
100
AcDbSymbolTableRecord
100
AcDbBlockTableRecord
  2
*MODEL_SPACE
  0
BLOCK_RECORD
  5
25
100
AcDbSymbolTableRecord
100
AcDbBlockTableRecord
  2
*PAPER_SPACE
  0
BLOCK_RECORD
  5
2A
100
AcDbSymbolTableRecord
100
AcDbBlockTableRecord
  2
_NONE
  0
BLOCK_RECORD
  5
2E
100
AcDbSymbolTableRecord
100
AcDbBlockTableRecord
  2
_OPEN
  0
BLOCK_RECORD
  5
34
100
AcDbSymbolTableRecord
100
AcDbBlockTableRecord
  2
_CLOSED
  0
BLOCK_RECORD
  5
3B
100
AcDbSymbolTableRecord
100
AcDbBlockTableRecord
  2
_ORIGIN
  0
BLOCK_RECORD
  5
40
100
AcDbSymbolTableRecord
100
AcDbBlockTableRecord
  2
_DOT
  0
BLOCK_RECORD
  5
48
100
AcDbSymbolTableRecord
100
AcDbBlockTableRecord
  2
_OBLIQUE
  0
BLOCK_RECORD
  5
4C
100
AcDbSymbolTableRecord
100
AcDbBlockTableRecord
  2
DIMS0
  0
BLOCK_RECORD
  5
59
100
AcDbSymbolTableRecord
100
AcDbBlockTableRecord
  2
DIMS1
  0
BLOCK_RECORD
  5
65
100
AcDbSymbolTableRecord
100
AcDbBlockTableRecord
  2
DIMS2
  0
BLOCK_RECORD
  5
71
100
AcDbSymbolTableRecord
100
AcDbBlockTableRecord
  2
DIMS3
  0
BLOCK_RECORD
  5
7D
100
AcDbSymbolTableRecord
100
AcDbBlockTableRecord
  2
DIMS4
  0
BLOCK_RECORD
  5
89
100
AcDbSymbolTableRecord
100
AcDbBlockTableRecord
  2
DIMS5
  0
BLOCK_RECORD
  5
95
100
AcDbSymbolTableRecord
100
AcDbBlockTableRecord
  2
DIMS6
  0
BLOCK_RECORD
  5
9E
100
AcDbSymbolTableRecord
100
AcDbBlockTableRecord
  2
DIMS7
  0
BLOCK_RECORD
  5
A7
100
AcDbSymbolTableRecord
100
AcDbBlockTableRecord
  2
DIMS8
  0
BLOCK_RECORD
  5
AD
100
AcDbSymbolTableRecord
100
AcDbBlockTableRecord
  2
DIMS9
  0
BLOCK_RECORD
  5
B3
100
AcDbSymbolTableRecord
100
AcDbBlockTableRecord
  2
DIMS10
  0
BLOCK_RECORD
  5
BF
100
AcDbSymbolTableRecord
100
AcDbBlockTableRecord
  2
DIMS11
  0
ENDTAB
  0
ENDSEC
  0
SECTION
  2
BLOCKS
  0
BLOCK
  5
23
100
AcDbEntity
  8
0
100
AcDbBlockBegin
  2
*MODEL_SPACE
 70
     0
 10
0.0
 20
0.0
 30
0.0
  3
*MODEL_SPACE
  1

  0
ENDBLK
  5
24
100
AcDbEntity
  8
0
100
AcDbBlockEnd
  0
BLOCK
  5
26
100
AcDbEntity
 67
     1
  8
0
100
AcDbBlockBegin
  2
*PAPER_SPACE
 70
     0
 10
0.0
 20
0.0
 30
0.0
  3
*PAPER_SPACE
  1

  0
ENDBLK
  5
27
100
AcDbEntity
 67
     1
  8
0
100
AcDbBlockEnd
  0
BLOCK
  5
2B
100
AcDbEntity
  8
0
100
AcDbBlockBegin
  2
_NONE
 70
     0
 10
0.0
 20
0.0
  0
CIRCLE
  5
2C
100
AcDbEntity
  8
0
 62
     0
100
AcDbCircle
 10
0.0
 20
0.0
 40
0.25
  0
ENDBLK
  5
2D
100
AcDbEntity
  8
0
100
AcDbBlockEnd
  0
BLOCK
  5
2F
100
AcDbEntity
  8
0
100
AcDbBlockBegin
  2
_OPEN
 70
     0
 10
0.0
 20
0.0
  0
LINE
  5
30
100
AcDbEntity
  8
0
 62
     0
100
AcDbLine
 10
-0.965926
 20
0.25882
 11
0.0
 21
0.0
  0
LINE
  5
31
100
AcDbEntity
  8
0
 62
     0
100
AcDbLine
 10
0.0
 20
0.0
 11
-0.965926
 21
-0.25882
  0
LINE
  5
32
100
AcDbEntity
  8
0
 62
     0
100
AcDbLine
 10
0.0
 20
0.0
 11
-1.0
 21
0.0
  0
ENDBLK
  5
33
100
AcDbEntity
  8
0
100
AcDbBlockEnd
  0
BLOCK
  5
35
100
AcDbEntity
  8
0
100
AcDbBlockBegin
  2
_CLOSED
 70
     0
 10
0.0
 20
0.0
  0
LINE
  5
36
100
AcDbEntity
  8
0
 62
     0
100
AcDbLine
 10
-0.965926
 20
0.25882
 11
0.0
 21
0.0
  0
LINE
  5
37
100
AcDbEntity
  8
0
 62
     0
100
AcDbLine
 10
0.0
 20
0.0
 11
-0.965926
 21
-0.25882
  0
LINE
  5
38
100
AcDbEntity
  8
0
 62
     0
100
AcDbLine
 10
-0.965926
 20
0.25882
 11
-0.965926
 21
-0.25882
  0
LINE
  5
39
100
AcDbEntity
  8
0
 62
     0
100
AcDbLine
 10
0.0
 20
0.0
 11
-1.0
 21
0.0
  0
ENDBLK
  5
3A
100
AcDbEntity
  8
0
100
AcDbBlockEnd
  0
BLOCK
  5
3C
100
AcDbEntity
  8
0
100
AcDbBlockBegin
  2
_ORIGIN
 70
     0
 10
0.0
 20
0.0
  0
CIRCLE
  5
3D
100
AcDbEntity
  8
0
 62
     0
100
AcDbCircle
 10
0.0
 20
0.0
 40
0.5
  0
LINE
  5
3E
100
AcDbEntity
  8
0
 62
     0
100
AcDbLine
 10
0.0
 20
0.0
 11
-1.0
 21
0.0
  0
ENDBLK
  5
3F
100
AcDbEntity
  8
0
100
AcDbBlockEnd
  0
BLOCK
  5
41
100
AcDbEntity
  8
0
100
AcDbBlockBegin
  2
_DOT
 70
     0
 10
0.0
 20
0.0
  0
POLYLINE
  5
42
100
AcDbEntity
  8
0
 62
     0
100
AcDb2dPolyline
 66
     1
 70
     1
 40
0.5
 41
0.5
  0
VERTEX
  5
43
100
AcDbEntity
  8
0
 62
     0
100
AcDbVertex
100
AcDb2dVertex
 10
-0.25
 20
0.0
 42
1.0
  0
VERTEX
  5
44
100
AcDbEntity
  8
0
 62
     0
100
AcDbVertex
100
AcDb2dVertex
 10
0.25
 20
0.0
 42
1.0
  0
SEQEND
  5
45
100
AcDbEntity
  8
0
 62
     0
  0
LINE
  5
46
100
AcDbEntity
  8
0
 62
     0
100
AcDbLine
 10
-0.5
 20
0.0
 11
-1.0
 21
0.0
  0
ENDBLK
  5
47
100
AcDbEntity
  8
0
100
AcDbBlockEnd
  0
BLOCK
  5
49
100
AcDbEntity
  8
0
100
AcDbBlockBegin
  2
_OBLIQUE
 70
     0
 10
0.0
 20
0.0
  0
LINE
  5
4A
100
AcDbEntity
  8
0
 62
     0
100
AcDbLine
 10
-0.353553
 20
-0.353553
 11
0.353553
 21
0.353553
  0
ENDBLK
  5
4B
100
AcDbEntity
  8
0
100
AcDbBlockEnd
  0
BLOCK
  5
4D
100
AcDbEntity
  8
DD0
100
AcDbBlockBegin
  2
DIMS0
 70
     0
 10
0.0
 20
0.0
  0
LINE
  5
4E
100
AcDbEntity
  8
DD0
100
AcDbLine
 10
93.373477
 20
396.593469
 11
93.373477
 21
439.390151
  0
LINE
  5
4F
100
AcDbEntity
  8
DD0
100
AcDbLine
 10
181.373698
 20
406.593213
 11
181.373698
 21
439.390151
  0
LINE
  5
50
100
AcDbEntity
  8
DD0
100
AcDbLine
 10
98.203114
 20
438.684248
 11
93.373477
 21
437.390147
  0
LINE
  5
51
100
AcDbEntity
  8
DD0
100
AcDbLine
 10
93.373477
 20
437.390147
 11
98.203114
 21
436.096046
  0
LINE
  5
52
100
AcDbEntity
  8
DD0
100
AcDbLine
 10
176.54406
 20
436.096046
 11
181.373698
 21
437.390147
  0
LINE
  5
53
100
AcDbEntity
  8
DD0
100
AcDbLine
 10
181.373698
 20
437.390147
 11
176.54406
 21
438.684248
  0
LINE
  5
54
100
AcDbEntity
  8
DD0
100
AcDbLine
 10
93.373477
 20
437.390147
 11
181.373698
 21
437.390147
  0
TEXT
  5
55
100
AcDbEntity
  8
DD0
100
AcDbText
 10
129.488576
 20
442.370167
 40
3.780007
  1
※
 41
0.833333
  7
STANDARD
100
AcDbText
  0
TEXT
  5
56
100
AcDbEntity
  8
DD0
100
AcDbText
 10
133.658583
 20
438.590161
 40
6.300011
  1
８８
 41
0.833333
  7
STANDARD
100
AcDbText
  0
ENDBLK
  5
57
100
AcDbEntity
  8
DD0
100
AcDbBlockEnd
  0
BLOCK
  5
5A
100
AcDbEntity
  8
DD0
100
AcDbBlockBegin
  2
DIMS1
 70
     0
 10
0.0
 20
0.0
  0
LINE
  5
5B
100
AcDbEntity
  8
DD0
100
AcDbLine
 10
150.623685
 20
420.093941
 11
208.730104
 21
420.093941
  0
LINE
  5
5C
100
AcDbEntity
  8
DD0
100
AcDbLine
 10
150.623685
 20
314.094441
 11
208.730104
 21
314.094441
  0
LINE
  5
5D
100
AcDbEntity
  8
DD0
100
AcDbLine
 10
208.024201
 20
415.264303
 11
206.7301
 21
420.093941
  0
LINE
  5
5E
100
AcDbEntity
  8
DD0
100
AcDbLine
 10
206.7301
 20
420.093941
 11
205.436
 21
415.264303
  0
LINE
  5
5F
100
AcDbEntity
  8
DD0
100
AcDbLine
 10
205.436
 20
318.924078
 11
206.7301
 21
314.094441
  0
LINE
  5
60
100
AcDbEntity
  8
DD0
100
AcDbLine
 10
206.7301
 20
314.094441
 11
208.024201
 21
318.924078
  0
LINE
  5
61
100
AcDbEntity
  8
DD0
100
AcDbLine
 10
206.7301
 20
420.093941
 11
206.7301
 21
314.094441
  0
TEXT
  5
62
100
AcDbEntity
  8
DD0
100
AcDbText
 10
205.530101
 20
358.159179
 40
6.300011
  1
１０６
 50
90.000003
 41
0.833333
  7
STANDARD
100
AcDbText
  0
ENDBLK
  5
63
100
AcDbEntity
  8
DD0
100
AcDbBlockEnd
  0
BLOCK
  5
66
100
AcDbEntity
  8
DD0
100
AcDbBlockBegin
  2
DIMS2
 70
     0
 10
0.0
 20
0.0
  0
LINE
  5
67
100
AcDbEntity
  8
DD0
100
AcDbLine
 10
104.373719
 20
255.640121
 11
104.373719
 21
266.810598
  0
LINE
  5
68
100
AcDbEntity
  8
DD0
100
AcDbLine
 10
170.373723
 20
177.640109
 11
170.373723
 21
266.810598
  0
LINE
  5
69
100
AcDbEntity
  8
DD0
100
AcDbLine
 10
109.203357
 20
266.104695
 11
104.373719
 21
264.810594
  0
LINE
  5
6A
100
AcDbEntity
  8
DD0
100
AcDbLine
 10
104.373719
 20
264.810594
 11
109.203357
 21
263.516494
  0
LINE
  5
6B
100
AcDbEntity
  8
DD0
100
AcDbLine
 10
165.544085
 20
263.516494
 11
170.373723
 21
264.810594
  0
LINE
  5
6C
100
AcDbEntity
  8
DD0
100
AcDbLine
 10
170.373723
 20
264.810594
 11
165.544085
 21
266.104695
  0
LINE
  5
6D
100
AcDbEntity
  8
DD0
100
AcDbLine
 10
104.373719
 20
264.810594
 11
170.373723
 21
264.810594
  0
TEXT
  5
6E
100
AcDbEntity
  8
DD0
100
AcDbText
 10
131.588709
 20
266.010609
 40
6.300011
  1
６６
 41
0.833333
  7
STANDARD
100
AcDbText
  0
ENDBLK
  5
6F
100
AcDbEntity
  8
DD0
100
AcDbBlockEnd
  0
BLOCK
  5
72
100
AcDbEntity
  8
DD0
100
AcDbBlockBegin
  2
DIMS3
 70
     0
 10
0.0
 20
0.0
  0
LINE
  5
73
100
AcDbEntity
  8
DD0
100
AcDbLine
 10
101.873485
 20
249.140108
 11
101.873485
 21
279.742904
  0
LINE
  5
74
100
AcDbEntity
  8
DD0
100
AcDbLine
 10
172.873712
 20
184.140122
 11
172.873712
 21
279.742904
  0
LINE
  5
75
100
AcDbEntity
  8
DD0
100
AcDbLine
 10
106.703123
 20
279.037001
 11
101.873485
 21
277.7429
  0
LINE
  5
76
100
AcDbEntity
  8
DD0
100
AcDbLine
 10
101.873485
 20
277.7429
 11
106.703123
 21
276.4488
  0
LINE
  5
77
100
AcDbEntity
  8
DD0
100
AcDbLine
 10
168.044075
 20
276.4488
 11
172.873712
 21
277.7429
  0
LINE
  5
78
100
AcDbEntity
  8
DD0
100
AcDbLine
 10
172.873712
 20
277.7429
 11
168.044075
 21
279.037001
  0
LINE
  5
79
100
AcDbEntity
  8
DD0
100
AcDbLine
 10
101.873485
 20
277.7429
 11
172.873712
 21
277.7429
  0
TEXT
  5
7A
100
AcDbEntity
  8
DD0
100
AcDbText
 10
109.53855
 20
278.942915
 40
6.300011
  1
７１（６８も可能）
 41
0.833333
  7
STANDARD
100
AcDbText
  0
ENDBLK
  5
7B
100
AcDbEntity
  8
DD0
100
AcDbBlockEnd
  0
BLOCK
  5
7E
100
AcDbEntity
  8
DD0
100
AcDbBlockBegin
  2
DIMS4
 70
     0
 10
0.0
 20
0.0
  0
LINE
  5
7F
100
AcDbEntity
  8
DD0
100
AcDbLine
 10
120.159195
 20
230.854398
 11
209.232165
 21
230.854398
  0
LINE
  5
80
100
AcDbEntity
  8
DD0
100
AcDbLine
 10
191.159422
 20
165.854412
 11
209.232165
 21
165.854412
  0
LINE
  5
81
100
AcDbEntity
  8
DD0
100
AcDbLine
 10
208.526262
 20
226.024761
 11
207.232161
 21
230.854398
  0
LINE
  5
82
100
AcDbEntity
  8
DD0
100
AcDbLine
 10
207.232161
 20
230.854398
 11
205.93806
 21
226.024761
  0
LINE
  5
83
100
AcDbEntity
  8
DD0
100
AcDbLine
 10
205.93806
 20
170.684049
 11
207.232161
 21
165.854412
  0
LINE
  5
84
100
AcDbEntity
  8
DD0
100
AcDbLine
 10
207.232161
 20
165.854412
 11
208.526262
 21
170.684049
  0
LINE
  5
85
100
AcDbEntity
  8
DD0
100
AcDbLine
 10
207.232161
 20
230.854398
 11
207.232161
 21
165.854412
  0
TEXT
  5
86
100
AcDbEntity
  8
DD0
100
AcDbText
 10
206.032162
 20
192.569401
 40
6.300011
  1
６５
 50
90.000003
 41
0.833333
  7
STANDARD
100
AcDbText
  0
ENDBLK
  5
87
100
AcDbEntity
  8
DD0
100
AcDbBlockEnd
  0
BLOCK
  5
8A
100
AcDbEntity
  8
DD0
100
AcDbBlockBegin
  2
DIMS5
 70
     0
 10
0.0
 20
0.0
  0
LINE
  5
8B
100
AcDbEntity
  8
DD0
100
AcDbLine
 10
188.659433
 20
159.354399
 11
224.542893
 21
159.354399
  0
LINE
  5
8C
100
AcDbEntity
  8
DD0
100
AcDbLine
 10
122.659429
 20
237.354411
 11
224.542893
 21
237.354411
  0
LINE
  5
8D
100
AcDbEntity
  8
DD0
100
AcDbLine
 10
221.248789
 20
164.184037
 11
222.54289
 21
159.354399
  0
LINE
  5
8E
100
AcDbEntity
  8
DD0
100
AcDbLine
 10
222.54289
 20
159.354399
 11
223.83699
 21
164.184037
  0
LINE
  5
8F
100
AcDbEntity
  8
DD0
100
AcDbLine
 10
223.83699
 20
232.524773
 11
222.54289
 21
237.354411
  0
LINE
  5
90
100
AcDbEntity
  8
DD0
100
AcDbLine
 10
222.54289
 20
237.354411
 11
221.248789
 21
232.524773
  0
LINE
  5
91
100
AcDbEntity
  8
DD0
100
AcDbLine
 10
222.54289
 20
159.354399
 11
222.54289
 21
237.354411
  0
TEXT
  5
92
100
AcDbEntity
  8
DD0
100
AcDbText
 10
221.34289
 20
192.569401
 40
6.300011
  1
７８
 50
90.000003
 41
0.833333
  7
STANDARD
100
AcDbText
  0
ENDBLK
  5
93
100
AcDbEntity
  8
DD0
100
AcDbBlockEnd
  0
BLOCK
  5
96
100
AcDbEntity
  8
DD0
100
AcDbBlockBegin
  2
DIMS6
 70
     0
 10
0.0
 20
0.0
  0
TEXT
  5
97
100
AcDbEntity
  8
DD0
100
AcDbText
 10
185.679206
 20
150.353574
 40
6.300011
  1
２－Ｍ４ねじ穴
 41
0.833333
  7
STANDARD
100
AcDbText
  0
LINE
  5
98
100
AcDbEntity
  8
DD0
100
AcDbLine
 10
178.007966
 20
161.145007
 11
174.537351
 21
164.744302
  0
LINE
  5
99
100
AcDbEntity
  8
DD0
100
AcDbLine
 10
174.537351
 20
164.744302
 11
175.743339
 21
159.891912
  0
LINE
  5
9A
100
AcDbEntity
  8
DD0
100
AcDbLine
 10
174.537351
 20
164.744302
 11
183.164229
 21
149.153574
  0
LINE
  5
9B
100
AcDbEntity
  8
DD0
100
AcDbLine
 10
183.164229
 20
149.153574
 11
231.264357
 21
149.153574
  0
ENDBLK
  5
9C
100
AcDbEntity
  8
DD0
100
AcDbBlockEnd
  0
BLOCK
  5
9F
100
AcDbEntity
  8
DD0
100
AcDbBlockBegin
  2
DIMS7
 70
     0
 10
0.0
 20
0.0
  0
TEXT
  5
A0
100
AcDbEntity
  8
DD0
100
AcDbText
 10
183.589831
 20
129.819782
 40
6.300011
  1
２－Ｍ４ねじ穴
 41
0.833333
  7
STANDARD
100
AcDbText
  0
LINE
  5
A1
100
AcDbEntity
  8
DD0
100
AcDbLine
 10
173.28912
 20
152.926372
 11
170.373723
 21
156.988459
  0
LINE
  5
A2
100
AcDbEntity
  8
DD0
100
AcDbLine
 10
170.373723
 20
156.988459
 11
170.867482
 21
152.012889
  0
LINE
  5
A3
100
AcDbEntity
  8
DD0
100
AcDbLine
 10
170.373723
 20
156.988459
 11
181.074854
 21
128.619813
  0
LINE
  5
A4
100
AcDbEntity
  8
DD0
100
AcDbLine
 10
181.074854
 20
128.619813
 11
229.174891
 21
128.619783
  0
ENDBLK
  5
A5
100
AcDbEntity
  8
DD0
100
AcDbBlockEnd
  0
BLOCK
  5
A8
100
AcDbEntity
  8
DD0
100
AcDbBlockBegin
  2
DIMS8
 70
     0
 10
0.0
 20
0.0
  0
LINE
  5
A9
100
AcDbEntity
  8
DD0
100
AcDbLine
 10
122.547699
 20
119.379282
 11
155.007769
 21
119.379282
  0
TEXT
  5
AA
100
AcDbEntity
  8
DD0
100
AcDbText
 10
123.444368
 20
120.179283
 40
8.000015
  1
せん孔図
 41
0.833333
  7
STANDARD
100
AcDbText
  0
ENDBLK
  5
AB
100
AcDbEntity
  8
DD0
100
AcDbBlockEnd
  0
BLOCK
  5
AE
100
AcDbEntity
  8
DD0
100
AcDbBlockBegin
  2
DIMS9
 70
     0
 10
0.0
 20
0.0
  0
TEXT
  5
AF
100
AcDbEntity
  8
DD0
100
AcDbText
 10
53.937263
 20
174.648114
 40
6.300011
  1
　印寸法でも
 41
0.833333
  7
STANDARD
100
AcDbText
  0
TEXT
  5
B0
100
AcDbEntity
  8
DD0
100
AcDbText
 10
53.937259
 20
165.548091
 40
6.300011
  1
取付可能
 41
0.833333
  7
STANDARD
100
AcDbText
  0
ENDBLK
  5
B1
100
AcDbEntity
  8
DD0
100
AcDbBlockEnd
  0
BLOCK
  5
B4
100
AcDbEntity
  8
DD0
100
AcDbBlockBegin
  2
DIMS10
 70
     0
 10
0.0
 20
0.0
  0
LINE
  5
B5
100
AcDbEntity
  8
DD0
100
AcDbLine
 10
366.246731
 20
417.093416
 11
366.246731
 21
439.390151
  0
LINE
  5
B6
100
AcDbEntity
  8
DD0
100
AcDbLine
 10
248.947267
 20
401.093416
 11
248.947267
 21
439.390151
  0
LINE
  5
B7
100
AcDbEntity
  8
DD0
100
AcDbLine
 10
361.417094
 20
436.096046
 11
366.246731
 21
437.390147
  0
LINE
  5
B8
100
AcDbEntity
  8
DD0
100
AcDbLine
 10
366.246731
 20
437.390147
 11
361.417094
 21
438.684248
  0
LINE
  5
B9
100
AcDbEntity
  8
DD0
100
AcDbLine
 10
253.776905
 20
438.684248
 11
248.947267
 21
437.390147
  0
LINE
  5
BA
100
AcDbEntity
  8
DD0
100
AcDbLine
 10
248.947267
 20
437.390147
 11
253.776905
 21
436.096046
  0
LINE
  5
BB
100
AcDbEntity
  8
DD0
100
AcDbLine
 10
366.246731
 20
437.390147
 11
248.947267
 21
437.390147
  0
TEXT
  5
BC
100
AcDbEntity
  8
DD0
100
AcDbText
 10
298.661965
 20
438.590161
 40
6.300011
  1
１１７
 41
0.833333
  7
STANDARD
100
AcDbText
  0
ENDBLK
  5
BD
100
AcDbEntity
  8
DD0
100
AcDbBlockEnd
  0
BLOCK
  5
C0
100
AcDbEntity
  8
DD0
100
AcDbBlockBegin
  2
DIMS11
 70
     0
 10
0.0
 20
0.0
  0
LINE
  5
C1
100
AcDbEntity
  8
DD0
100
AcDbLine
 10
366.246731
 20
317.094935
 11
366.246731
 21
303.094908
  0
LINE
  5
C2
100
AcDbEntity
  8
DD0
100
AcDbLine
 10
352.245057
 20
317.094935
 11
352.245057
 21
303.094908
  0
LINE
  5
C3
100
AcDbEntity
  8
DD0
100
AcDbLine
 10
361.417094
 20
303.800811
 11
366.246731
 21
305.094912
  0
LINE
  5
C4
100
AcDbEntity
  8
DD0
100
AcDbLine
 10
366.246731
 20
305.094912
 11
361.417094
 21
306.389012
  0
LINE
  5
C5
100
AcDbEntity
  8
DD0
100
AcDbLine
 10
357.074694
 20
306.389012
 11
352.245057
 21
305.094912
  0
LINE
  5
C6
100
AcDbEntity
  8
DD0
100
AcDbLine
 10
352.245057
 20
305.094912
 11
357.074694
 21
303.800811
  0
LINE
  5
C7
100
AcDbEntity
  8
DD0
100
AcDbLine
 10
366.246731
 20
305.094912
 11
352.245057
 21
305.094912
  0
TEXT
  5
C8
100
AcDbEntity
  8
DD0
100
AcDbText
 10
353.460898
 20
306.294926
 40
6.300011
  1
１４
 41
0.833333
  7
STANDARD
100
AcDbText
  0
ENDBLK
  5
C9
100
AcDbEntity
  8
DD0
100
AcDbBlockEnd
  0
ENDSEC
  0
SECTION
  2
ENTITIES
  0
INSERT
  5
58
100
AcDbEntity
  8
DD0
100
AcDbBlockReference
  2
DIMS0
 10
0.0
 20
0.0
  0
INSERT
  5
64
100
AcDbEntity
  8
DD0
100
AcDbBlockReference
  2
DIMS1
 10
0.0
 20
0.0
  0
INSERT
  5
70
100
AcDbEntity
  8
DD0
100
AcDbBlockReference
  2
DIMS2
 10
0.0
 20
0.0
  0
INSERT
  5
7C
100
AcDbEntity
  8
DD0
100
AcDbBlockReference
  2
DIMS3
 10
0.0
 20
0.0
  0
INSERT
  5
88
100
AcDbEntity
  8
DD0
100
AcDbBlockReference
  2
DIMS4
 10
0.0
 20
0.0
  0
INSERT
  5
94
100
AcDbEntity
  8
DD0
100
AcDbBlockReference
  2
DIMS5
 10
0.0
 20
0.0
  0
INSERT
  5
9D
100
AcDbEntity
  8
DD0
100
AcDbBlockReference
  2
DIMS6
 10
0.0
 20
0.0
  0
INSERT
  5
A6
100
AcDbEntity
  8
DD0
100
AcDbBlockReference
  2
DIMS7
 10
0.0
 20
0.0
  0
INSERT
  5
AC
100
AcDbEntity
  8
DD0
100
AcDbBlockReference
  2
DIMS8
 10
0.0
 20
0.0
  0
INSERT
  5
B2
100
AcDbEntity
  8
DD0
100
AcDbBlockReference
  2
DIMS9
 10
0.0
 20
0.0
  0
INSERT
  5
BE
100
AcDbEntity
  8
DD0
100
AcDbBlockReference
  2
DIMS10
 10
0.0
 20
0.0
  0
INSERT
  5
CA
100
AcDbEntity
  8
DD0
100
AcDbBlockReference
  2
DIMS11
 10
0.0
 20
0.0
  0
LINE
  5
CB
100
AcDbEntity
  8
M0
 62
     7
100
AcDbLine
 10
263.647202
 20
399.593414
 11
263.647202
 21
385.093414
  0
LINE
  5
CC
100
AcDbEntity
  8
M0
 62
     7
100
AcDbLine
 10
263.647202
 20
401.093414
 11
263.680649
 21
401.093414
  0
LINE
  5
CD
100
AcDbEntity
  8
M0
 62
     7
100
AcDbLine
 10
263.647202
 20
333.093735
 11
263.680649
 21
333.093735
  0
LINE
  5
CE
100
AcDbEntity
  8
M0
 62
     7
100
AcDbLine
 10
263.647202
 20
349.094193
 11
263.647202
 21
334.593735
  0
LINE
  5
CF
100
AcDbEntity
  8
M0
  6
DASHDOT
 62
     6
100
AcDbLine
 10
87.924774
 20
367.093948
 11
137.373672
 21
367.093948
  0
LINE
  5
D0
100
AcDbEntity
  8
M0
 62
     6
100
AcDbLine
 10
324.147202
 20
389.843658
 11
328.647202
 21
389.843658
  0
LINE
  5
D1
100
AcDbEntity
  8
M0
 62
     6
100
AcDbLine
 10
324.147202
 20
384.843658
 11
328.647202
 21
384.843658
  0
ARC
  5
D2
100
AcDbEntity
  8
M0
 62
     6
100
AcDbCircle
 10
324.147202
 20
387.343658
 40
2.499996
100
AcDbArc
 50
90.0
 51
180.0
  0
LINE
  5
D3
100
AcDbEntity
  8
M0
 62
     6
100
AcDbLine
 10
324.146957
 20
344.343948
 11
328.646957
 21
344.343948
  0
ARC
  5
D4
100
AcDbEntity
  8
M0
 62
     6
100
AcDbCircle
 10
324.146957
 20
346.843948
 40
2.499996
100
AcDbArc
 50
180.0
 51
269.99965
  0
LINE
  5
D5
100
AcDbEntity
  8
M0
 62
     6
100
AcDbLine
 10
324.146957
 20
349.343948
 11
328.646957
 21
349.343948
  0
LINE
  5
D6
100
AcDbEntity
  8
M0
 62
     6
100
AcDbLine
 10
283.647202
 20
420.093414
 11
300.403549
 21
420.093414
  0
LINE
  5
D7
100
AcDbEntity
  8
M0
 62
     6
100
AcDbLine
 10
278.647202
 20
415.092682
 11
328.647202
 21
415.092682
  0
LINE
  5
D8
100
AcDbEntity
  8
M0
 62
     6
100
AcDbLine
 10
310.147202
 20
396.593414
 11
314.439682
 21
396.593414
  0
LINE
  5
D9
100
AcDbEntity
  8
M0
 62
     6
100
AcDbLine
 10
293.485825
 20
393.593414
 11
309.647202
 21
393.593414
  0
LINE
  5
DA
100
AcDbEntity
  8
M0
 62
     6
100
AcDbLine
 10
260.747055
 20
385.093414
 11
283.447006
 21
385.093414
  0
LINE
  5
DB
100
AcDbEntity
  8
M0
 62
     6
100
AcDbLine
 10
259.747055
 20
370.843704
 11
262.147202
 21
370.843704
  0
LINE
  5
DC
100
AcDbEntity
  8
M0
 62
     6
100
AcDbLine
 10
302.524887
 20
419.214523
 11
306.646957
 21
415.092453
  0
LINE
  5
DD
100
AcDbEntity
  8
M0
 62
     6
100
AcDbLine
 10
263.647202
 20
400.092438
 11
263.647202
 21
385.093414
  0
ARC
  5
DE
100
AcDbEntity
  8
M0
 62
     6
100
AcDbCircle
 10
283.647202
 20
400.093414
 40
19.999939
100
AcDbArc
 50
90.0
 51
177.134052
  0
ARC
  5
DF
100
AcDbEntity
  8
M0
 62
     6
100
AcDbCircle
 10
278.647202
 20
400.092682
 40
14.999996
100
AcDbArc
 50
90.0
 51
180.0
  0
LINE
  5
E0
100
AcDbEntity
  8
M0
 62
     6
100
AcDbLine
 10
309.647202
 20
396.093414
 11
309.647202
 21
393.593414
  0
LINE
  5
E1
100
AcDbEntity
  8
M0
 62
     6
100
AcDbLine
 10
314.793442
 20
396.44693
 11
317.647202
 21
393.593414
  0
LINE
  5
E2
100
AcDbEntity
  8
M0
 62
     6
100
AcDbLine
 10
292.501205
 20
392.766998
 11
291.292953
 21
385.919586
  0
LINE
  5
E3
100
AcDbEntity
  8
M0
 62
     6
100
AcDbLine
 10
317.647202
 20
393.593414
 11
328.647202
 21
393.593414
  0
LINE
  5
E4
100
AcDbEntity
  8
M0
 62
     6
100
AcDbLine
 10
279.547104
 20
384.593414
 11
279.547104
 21
382.593658
  0
LINE
  5
E5
100
AcDbEntity
  8
M0
 62
     6
100
AcDbLine
 10
283.447006
 20
384.593414
 11
283.447006
 21
382.593658
  0
LINE
  5
E6
100
AcDbEntity
  8
M0
 62
     6
100
AcDbLine
 10
280.047104
 20
382.093658
 11
282.947006
 21
382.093658
  0
LINE
  5
E7
100
AcDbEntity
  8
M0
 62
     6
100
AcDbLine
 10
283.447006
 20
385.093414
 11
290.30809
 21
385.093414
  0
LINE
  5
E8
100
AcDbEntity
  8
M0
 62
     6
100
AcDbLine
 10
259.747055
 20
384.093414
 11
259.747055
 21
370.843704
  0
ARC
  5
E9
100
AcDbEntity
  8
M0
 62
     6
100
AcDbCircle
 10
260.747055
 20
384.093414
 40
1.0
100
AcDbArc
 50
90.0
 51
180.0
  0
LINE
  5
EA
100
AcDbEntity
  8
M0
 62
     6
100
AcDbLine
 10
260.247055
 20
370.843704
 11
260.247055
 21
364.093933
  0
LINE
  5
EB
100
AcDbEntity
  8
M0
 62
     6
100
AcDbLine
 10
262.147202
 20
370.843704
 11
262.147202
 21
364.093933
  0
LINE
  5
EC
100
AcDbEntity
  8
M0
 62
     6
100
AcDbLine
 10
283.647202
 20
314.094193
 11
300.403549
 21
314.094193
  0
LINE
  5
ED
100
AcDbEntity
  8
M0
 62
     6
100
AcDbLine
 10
278.647202
 20
319.094925
 11
366.246735
 21
319.094925
  0
LINE
  5
EE
100
AcDbEntity
  8
M0
 62
     6
100
AcDbLine
 10
310.147202
 20
337.594193
 11
314.439926
 21
337.594193
  0
LINE
  5
EF
100
AcDbEntity
  8
M0
 62
     6
100
AcDbLine
 10
293.485825
 20
340.594193
 11
309.647202
 21
340.594193
  0
LINE
  5
F0
100
AcDbEntity
  8
M0
 62
     6
100
AcDbLine
 10
260.747055
 20
349.094193
 11
283.446762
 21
349.094193
  0
LINE
  5
F1
100
AcDbEntity
  8
M0
 62
     6
100
AcDbLine
 10
259.747055
 20
363.344193
 11
262.147202
 21
363.344193
  0
LINE
  5
F2
100
AcDbEntity
  8
M0
 62
     6
100
AcDbLine
 10
302.524643
 20
314.972855
 11
306.646957
 21
319.094925
  0
LINE
  5
F3
100
AcDbEntity
  8
M0
 62
     6
100
AcDbLine
 10
263.647202
 20
334.094925
 11
263.647202
 21
349.094193
  0
ARC
  5
F4
100
AcDbEntity
  8
M0
 62
     6
100
AcDbCircle
 10
283.647202
 20
334.094193
 40
19.999939
100
AcDbArc
 50
182.867304
 51
269.999913
  0
ARC
  5
F5
100
AcDbEntity
  8
M0
 62
     6
100
AcDbCircle
 10
278.647202
 20
334.094925
 40
14.999996
100
AcDbArc
 50
180.0
 51
269.999942
  0
LINE
  5
F6
100
AcDbEntity
  8
M0
 62
     6
100
AcDbLine
 10
309.647202
 20
338.094193
 11
309.647202
 21
340.594193
  0
LINE
  5
F7
100
AcDbEntity
  8
M0
 62
     6
100
AcDbLine
 10
314.793442
 20
337.740631
 11
317.647202
 21
340.594193
  0
LINE
  5
F8
100
AcDbEntity
  8
M0
 62
     6
100
AcDbLine
 10
292.501205
 20
341.420456
 11
291.292953
 21
348.26796
  0
LINE
  5
F9
100
AcDbEntity
  8
M0
 62
     6
100
AcDbLine
 10
317.647202
 20
340.594193
 11
328.647202
 21
340.594193
  0
LINE
  5
FA
100
AcDbEntity
  8
M0
 62
     6
100
AcDbLine
 10
283.447006
 20
349.094193
 11
290.30809
 21
349.094193
  0
LINE
  5
FB
100
AcDbEntity
  8
M0
 62
     6
100
AcDbLine
 10
259.747055
 20
350.094193
 11
259.747055
 21
363.344193
  0
ARC
  5
FC
100
AcDbEntity
  8
M0
 62
     6
100
AcDbCircle
 10
260.747055
 20
350.094193
 40
1.0
100
AcDbArc
 50
180.0
 51
269.999126
  0
LINE
  5
FD
100
AcDbEntity
  8
M0
 62
     6
100
AcDbLine
 10
326.647202
 20
374.093643
 11
326.647202
 21
374.093399
  0
ARC
  5
FE
100
AcDbEntity
  8
M0
 62
     6
100
AcDbCircle
 10
324.147202
 20
387.343658
 40
2.499996
100
AcDbArc
 50
180.0
 51
269.99965
  0
ARC
  5
FF
100
AcDbEntity
  8
M0
 62
     6
100
AcDbCircle
 10
324.146957
 20
346.843948
 40
2.499996
100
AcDbArc
 50
90.0
 51
180.0
  0
LINE
  5
100
100
AcDbEntity
  8
M0
 62
     6
100
AcDbLine
 10
322.647202
 20
415.092682
 11
322.647202
 21
393.593414
  0
LINE
  5
101
100
AcDbEntity
  8
M0
 62
     6
100
AcDbLine
 10
311.646973
 20
337.594193
 11
311.646973
 21
319.094925
  0
LINE
  5
102
100
AcDbEntity
  8
M0
 62
     6
100
AcDbLine
 10
328.646957
 20
374.093643
 11
317.646957
 21
374.093643
  0
LINE
  5
103
100
AcDbEntity
  8
M0
 62
     6
100
AcDbLine
 10
315.646957
 20
372.093216
 11
315.646957
 21
369.093948
  0
ARC
  5
104
100
AcDbEntity
  8
M0
 62
     6
100
AcDbCircle
 10
317.646957
 20
372.09346
 40
1.999996
100
AcDbArc
 50
90.0
 51
180.006994
  0
LINE
  5
105
100
AcDbEntity
  8
M0
 62
     6
100
AcDbLine
 10
326.647202
 20
360.094193
 11
326.647202
 21
360.094437
  0
LINE
  5
106
100
AcDbEntity
  8
M0
 62
     6
100
AcDbLine
 10
328.646957
 20
360.094193
 11
317.646957
 21
360.094193
  0
LINE
  5
107
100
AcDbEntity
  8
M0
 62
     6
100
AcDbLine
 10
315.646957
 20
362.094681
 11
315.646957
 21
365.093948
  0
ARC
  5
108
100
AcDbEntity
  8
M0
 62
     6
100
AcDbCircle
 10
317.646957
 20
362.094437
 40
1.999996
100
AcDbArc
 50
180.0
 51
269.999563
  0
ARC
  5
109
100
AcDbEntity
  8
M0
 62
     6
100
AcDbCircle
 10
293.485825
 20
392.593414
 40
1.0
100
AcDbArc
 50
90.0
 51
170.001997
  0
ARC
  5
10A
100
AcDbEntity
  8
M0
 62
     6
100
AcDbCircle
 10
293.485825
 20
341.594193
 40
1.0
100
AcDbArc
 50
190.006764
 51
269.999126
  0
ARC
  5
10B
100
AcDbEntity
  8
M0
 62
     6
100
AcDbCircle
 10
300.403549
 20
417.093414
 40
2.999996
100
AcDbArc
 50
45.0
 51
90.0
  0
ARC
  5
10C
100
AcDbEntity
  8
M0
 62
     6
100
AcDbCircle
 10
300.403549
 20
317.094193
 40
2.999996
100
AcDbArc
 50
269.999709
 51
314.996497
  0
ARC
  5
10D
100
AcDbEntity
  8
M0
 62
     6
100
AcDbCircle
 10
290.30809
 20
386.093414
 40
1.0
100
AcDbArc
 50
269.999126
 51
349.989488
  0
ARC
  5
10E
100
AcDbEntity
  8
M0
 62
     6
100
AcDbCircle
 10
290.30809
 20
348.094193
 40
1.0
100
AcDbArc
 50
10.006055
 51
90.0
  0
ARC
  5
10F
100
AcDbEntity
  8
M0
 62
     6
100
AcDbCircle
 10
279.047104
 20
384.593414
 40
0.5
100
AcDbArc
 50
0.0
 51
90.0
  0
ARC
  5
110
100
AcDbEntity
  8
M0
 62
     6
100
AcDbCircle
 10
280.047104
 20
382.593658
 40
0.5
100
AcDbArc
 50
180.0
 51
269.998251
  0
ARC
  5
111
100
AcDbEntity
  8
M0
 62
     6
100
AcDbCircle
 10
282.947006
 20
382.593658
 40
0.5
100
AcDbArc
 50
269.998251
 51
360.0
  0
ARC
  5
112
100
AcDbEntity
  8
M0
 62
     6
100
AcDbCircle
 10
283.947006
 20
384.593414
 40
0.5
100
AcDbArc
 50
90.0
 51
180.0
  0
ARC
  5
113
100
AcDbEntity
  8
M0
 62
     6
100
AcDbCircle
 10
279.04686
 20
349.594193
 40
0.5
100
AcDbArc
 50
-90.001749
 51
0.0
  0
LINE
  5
114
100
AcDbEntity
  8
M0
 62
     6
100
AcDbLine
 10
279.54686
 20
349.594193
 11
279.54686
 21
351.593948
  0
LINE
  5
115
100
AcDbEntity
  8
M0
 62
     6
100
AcDbLine
 10
280.04686
 20
352.093948
 11
282.946762
 21
352.093948
  0
ARC
  5
116
100
AcDbEntity
  8
M0
 62
     6
100
AcDbCircle
 10
280.04686
 20
351.593948
 40
0.5
100
AcDbArc
 50
90.0
 51
180.0
  0
ARC
  5
117
100
AcDbEntity
  8
M0
 62
     6
100
AcDbCircle
 10
282.946762
 20
351.593948
 40
0.5
100
AcDbArc
 50
0.0
 51
90.0
  0
LINE
  5
118
100
AcDbEntity
  8
M0
 62
     6
100
AcDbLine
 10
283.446762
 20
349.594193
 11
283.446762
 21
351.593948
  0
ARC
  5
119
100
AcDbEntity
  8
M0
 62
     6
100
AcDbCircle
 10
283.946762
 20
349.594193
 40
0.5
100
AcDbArc
 50
180.0
 51
269.998251
  0
LINE
  5
11A
100
AcDbEntity
  8
M0
 62
     6
100
AcDbLine
 10
328.647202
 20
374.093399
 11
328.647202
 21
385.343658
  0
ARC
  5
11B
100
AcDbEntity
  8
M0
 62
     6
100
AcDbCircle
 10
310.147202
 20
338.094193
 40
0.5
100
AcDbArc
 50
180.0
 51
269.998251
  0
ARC
  5
11C
100
AcDbEntity
  8
M0
 62
     6
100
AcDbCircle
 10
314.439926
 20
338.094193
 40
0.5
100
AcDbArc
 50
269.998251
 51
314.995054
  0
ARC
  5
11D
100
AcDbEntity
  8
M0
 62
     6
100
AcDbCircle
 10
314.439682
 20
396.093414
 40
0.5
100
AcDbArc
 50
44.980217
 51
90.0
  0
ARC
  5
11E
100
AcDbEntity
  8
M0
 62
     6
100
AcDbCircle
 10
310.147202
 20
396.093414
 40
0.5
100
AcDbArc
 50
90.0
 51
180.0
  0
LINE
  5
11F
100
AcDbEntity
  8
M0
 62
     6
100
AcDbLine
 10
301.147202
 20
340.594193
 11
301.147202
 21
320.094925
  0
LINE
  5
120
100
AcDbEntity
  8
M0
 62
     6
100
AcDbLine
 10
297.397202
 20
340.594193
 11
297.397202
 21
320.094925
  0
ARC
  5
121
100
AcDbEntity
  8
M0
 62
     6
100
AcDbCircle
 10
296.397202
 20
320.094925
 40
1.0
100
AcDbArc
 50
269.999126
 51
360.0
  0
ARC
  5
122
100
AcDbEntity
  8
M0
 62
     6
100
AcDbCircle
 10
302.147202
 20
320.094925
 40
1.0
100
AcDbArc
 50
180.0
 51
269.999126
  0
LINE
  5
123
100
AcDbEntity
  8
M0
 62
     6
100
AcDbLine
 10
297.397202
 20
393.59317
 11
297.397202
 21
414.092438
  0
LINE
  5
124
100
AcDbEntity
  8
M0
 62
     6
100
AcDbLine
 10
301.147202
 20
393.59317
 11
301.147202
 21
414.092438
  0
ARC
  5
125
100
AcDbEntity
  8
M0
 62
     6
100
AcDbCircle
 10
296.397202
 20
414.092438
 40
1.0
100
AcDbArc
 50
0.0
 51
90.0
  0
ARC
  5
126
100
AcDbEntity
  8
M0
 62
     6
100
AcDbCircle
 10
302.147202
 20
414.092438
 40
1.0
100
AcDbArc
 50
90.0
 51
180.0
  0
LINE
  5
127
100
AcDbEntity
  8
M0
 62
     6
100
AcDbLine
 10
328.647202
 20
389.343658
 11
328.647202
 21
415.092682
  0
LINE
  5
128
100
AcDbEntity
  8
M0
 62
     6
100
AcDbLine
 10
328.647202
 20
348.844193
 11
328.647202
 21
360.093948
  0
LINE
  5
129
100
AcDbEntity
  8
M0
 62
     6
100
AcDbLine
 10
260.247055
 20
364.093933
 11
260.247055
 21
363.344193
  0
LINE
  5
12A
100
AcDbEntity
  8
M0
 62
     6
100
AcDbLine
 10
262.147202
 20
364.093933
 11
262.147202
 21
363.344193
  0
LINE
  5
12B
100
AcDbEntity
  8
M0
 62
     6
100
AcDbLine
 10
316.846909
 20
366.093948
 11
316.846909
 21
368.093948
  0
LINE
  5
12C
100
AcDbEntity
  8
M0
100
AcDbLine
 10
315.646957
 20
369.093948
 11
316.846909
 21
368.093948
  0
LINE
  5
12D
100
AcDbEntity
  8
M0
100
AcDbLine
 10
315.646957
 20
365.093948
 11
316.846909
 21
366.093948
  0
LINE
  5
12E
100
AcDbEntity
  8
M0
  6
DASHDOT
 62
     6
100
AcDbLine
 10
238.734508
 20
367.093948
 11
374.076965
 21
367.093948
  0
LINE
  5
12F
100
AcDbEntity
  8
M0
 62
     6
100
AcDbLine
 10
328.646729
 20
319.094193
 11
328.646729
 21
319.094925
  0
LINE
  5
130
100
AcDbEntity
  8
M0
 62
     6
100
AcDbLine
 10
328.646576
 20
319.094925
 11
328.646973
 21
344.844193
  0
LINE
  5
131
100
AcDbEntity
  8
M0
  6
DASHDOT
 62
     6
100
AcDbLine
 10
157.873657
 20
367.093948
 11
174.696762
 21
367.093948
  0
LINE
  5
132
100
AcDbEntity
  8
M0
  6
DASHDOT
 62
     6
100
AcDbLine
 10
186.822571
 20
367.093979
 11
137.373672
 21
367.093948
  0
LINE
  5
133
100
AcDbEntity
  8
M0
 62
     6
100
AcDbLine
 10
137.374526
 20
415.091995
 11
129.123931
 21
415.091995
  0
LINE
  5
134
100
AcDbEntity
  8
M0
 62
     6
100
AcDbLine
 10
126.123932
 20
420.093216
 11
128.623932
 21
420.093216
  0
LINE
  5
135
100
AcDbEntity
  8
M0
 62
     6
100
AcDbLine
 10
125.623932
 20
415.091995
 11
105.373932
 21
415.092484
  0
LINE
  5
136
100
AcDbEntity
  8
M0
 62
     6
100
AcDbLine
 10
167.873581
 20
415.092239
 11
169.373917
 21
415.092239
  0
LINE
  5
137
100
AcDbEntity
  8
M0
 62
     5
100
AcDbLine
 10
105.323639
 20
412.308304
 11
97.673981
 21
407.049026
  0
ARC
  5
138
100
AcDbEntity
  8
M0
 62
     5
100
AcDbCircle
 10
99.373688
 20
404.576859
 40
3.0
100
AcDbArc
 50
124.509994
 51
180.0
  0
ARC
  5
139
100
AcDbEntity
  8
M0
 62
     5
100
AcDbCircle
 10
104.373688
 20
406.092972
 40
2.249998
100
AcDbArc
 50
65.0255
 51
294.974336
  0
LINE
  5
13A
100
AcDbEntity
  8
M0
  6
DASHDOT
 62
     5
100
AcDbLine
 10
100.180328
 20
406.092972
 11
108.011597
 21
406.092972
  0
ARC
  5
13B
100
AcDbEntity
  8
M0
 62
     5
100
AcDbCircle
 10
180.873672
 20
404.592972
 40
0.5
100
AcDbArc
 50
0.0
 51
90.0
  0
LINE
  5
13C
100
AcDbEntity
  8
M0
 62
     5
100
AcDbLine
 10
177.373672
 20
405.093216
 11
180.873672
 21
405.093216
  0
LINE
  5
13D
100
AcDbEntity
  8
M0
 62
     5
100
AcDbLine
 10
169.373917
 20
403.593216
 11
177.373672
 21
403.593216
  0
LINE
  5
13E
100
AcDbEntity
  8
M0
100
AcDbLine
 10
174.773575
 20
402.193069
 11
176.593643
 21
402.193069
  0
LINE
  5
13F
100
AcDbEntity
  8
M0
100
AcDbLine
 10
171.973526
 20
402.193069
 11
170.153458
 21
402.193069
  0
LINE
  5
140
100
AcDbEntity
  8
M0
100
AcDbLine
 10
175.854385
 20
403.393265
 11
170.892715
 21
403.393021
  0
ARC
  5
141
100
AcDbEntity
  8
M0
100
AcDbCircle
 10
170.892715
 20
402.893021
 40
0.5
100
AcDbArc
 50
90.0
 51
162.856778
  0
ARC
  5
142
100
AcDbEntity
  8
M0
100
AcDbCircle
 10
175.854385
 20
402.893021
 40
0.5
100
AcDbArc
 50
17.151452
 51
90.0
  0
LINE
  5
143
100
AcDbEntity
  8
M0
 62
     6
100
AcDbLine
 10
129.123931
 20
419.593216
 11
129.123931
 21
399.593216
  0
LINE
  5
144
100
AcDbEntity
  8
M0
 62
     6
100
AcDbLine
 10
93.873932
 20
396.593216
 11
95.373932
 21
396.593216
  0
ARC
  5
145
100
AcDbEntity
  8
M0
 62
     6
100
AcDbCircle
 10
95.373932
 20
396.093216
 40
0.5
100
AcDbArc
 50
0.0
 51
89.998251
  0
ARC
  5
146
100
AcDbEntity
  8
M0
 62
     6
100
AcDbCircle
 10
93.873932
 20
396.093216
 40
0.5
100
AcDbArc
 50
89.998251
 51
180.0
  0
LINE
  5
147
100
AcDbEntity
  8
M0
 62
     6
100
AcDbLine
 10
109.123932
 20
415.093216
 11
109.123932
 21
399.592728
  0
LINE
  5
148
100
AcDbEntity
  8
M0
 62
     6
100
AcDbLine
 10
125.623932
 20
419.593216
 11
125.623932
 21
399.592728
  0
LINE
  5
149
100
AcDbEntity
  8
M0
 62
     6
100
AcDbLine
 10
129.123931
 20
419.593216
 11
129.123931
 21
399.592728
  0
LINE
  5
14A
100
AcDbEntity
  8
M0
 62
     6
100
AcDbLine
 10
180.873917
 20
396.592972
 11
179.373917
 21
396.592972
  0
ARC
  5
14B
100
AcDbEntity
  8
M0
 62
     6
100
AcDbCircle
 10
179.373917
 20
396.092972
 40
0.5
100
AcDbArc
 50
90.0
 51
180.0
  0
ARC
  5
14C
100
AcDbEntity
  8
M0
 62
     6
100
AcDbCircle
 10
180.873917
 20
396.092972
 40
0.5
100
AcDbArc
 50
0.0
 51
90.0
  0
LINE
  5
14D
100
AcDbEntity
  8
M0
 62
     7
100
AcDbLine
 10
131.873931
 20
401.092972
 11
129.873931
 21
401.092972
  0
ARC
  5
14E
100
AcDbEntity
  8
M0
 62
     7
100
AcDbCircle
 10
129.873931
 20
400.592972
 40
0.5
100
AcDbArc
 50
90.0
 51
180.0
  0
LINE
  5
14F
100
AcDbEntity
  8
M0
 62
     7
100
AcDbLine
 10
137.374526
 20
399.592728
 11
105.873932
 21
399.592972
  0
ARC
  5
150
100
AcDbEntity
  8
M0
 62
     7
100
AcDbCircle
 10
105.873932
 20
399.092972
 40
0.5
100
AcDbArc
 50
89.998251
 51
180.0
  0
ARC
  5
151
100
AcDbEntity
  8
M0
 62
     7
100
AcDbCircle
 10
168.873917
 20
399.092972
 40
0.5
100
AcDbArc
 50
0.0
 51
90.0
  0
LINE
  5
152
100
AcDbEntity
  8
M0
 62
     7
100
AcDbLine
 10
132.373931
 20
400.592972
 11
132.373931
 21
399.592972
  0
LINE
  5
153
100
AcDbEntity
  8
M0
 62
     7
100
AcDbLine
 10
129.373931
 20
400.592972
 11
129.373931
 21
399.592972
  0
ARC
  5
154
100
AcDbEntity
  8
M0
 62
     7
100
AcDbCircle
 10
131.873931
 20
400.592972
 40
0.5
100
AcDbArc
 50
0.0
 51
90.0
  0
LINE
  5
155
100
AcDbEntity
  8
M0
 62
     5
100
AcDbLine
 10
96.373688
 20
394.593227
 11
96.373688
 21
404.576859
  0
LINE
  5
156
100
AcDbEntity
  8
M0
  6
DASHDOT
 62
     5
100
AcDbLine
 10
104.373688
 20
401.952347
 11
104.373688
 21
409.566116
  0
LINE
  5
157
100
AcDbEntity
  8
M0
 62
     5
100
AcDbLine
 10
95.873688
 20
394.593227
 11
96.373688
 21
394.593227
  0
LINE
  5
158
100
AcDbEntity
  8
M0
 62
     5
100
AcDbLine
 10
169.373917
 20
394.093227
 11
177.373672
 21
394.093227
  0
CIRCLE
  5
159
100
AcDbEntity
  8
M0
100
AcDbCircle
 10
173.373672
 20
399.093216
 40
3.0
  0
LINE
  5
15A
100
AcDbEntity
  8
M0
100
AcDbLine
 10
170.414688
 20
403.040482
 11
169.598526
 21
400.393265
  0
LINE
  5
15B
100
AcDbEntity
  8
M0
100
AcDbLine
 10
170.414688
 20
395.145962
 11
169.598526
 21
397.793167
  0
LINE
  5
15C
100
AcDbEntity
  8
M0
100
AcDbLine
 10
176.332169
 20
403.040482
 11
177.148575
 21
400.393265
  0
LINE
  5
15D
100
AcDbEntity
  8
M0
100
AcDbLine
 10
176.332169
 20
395.145962
 11
177.148575
 21
397.793167
  0
LINE
  5
15E
100
AcDbEntity
  8
M0
100
AcDbLine
 10
175.695206
 20
400.993118
 11
176.963516
 21
400.993118
  0
LINE
  5
15F
100
AcDbEntity
  8
M0
100
AcDbLine
 10
175.695206
 20
397.193069
 11
176.963516
 21
397.193069
  0
LINE
  5
160
100
AcDbEntity
  8
M0
100
AcDbLine
 10
174.773575
 20
395.993118
 11
176.593643
 21
395.993118
  0
LINE
  5
161
100
AcDbEntity
  8
M0
100
AcDbLine
 10
171.051895
 20
400.993118
 11
169.783585
 21
400.993118
  0
LINE
  5
162
100
AcDbEntity
  8
M0
100
AcDbLine
 10
171.051895
 20
397.193069
 11
169.783585
 21
397.193069
  0
LINE
  5
163
100
AcDbEntity
  8
M0
100
AcDbLine
 10
171.973526
 20
395.993118
 11
170.153458
 21
395.993118
  0
LINE
  5
164
100
AcDbEntity
  8
M0
100
AcDbLine
 10
170.892715
 20
394.793179
 11
175.854385
 21
394.793179
  0
LINE
  5
165
100
AcDbEntity
  8
M0
100
AcDbLine
 10
177.148575
 20
397.793167
 11
177.148575
 21
400.393265
  0
LINE
  5
166
100
AcDbEntity
  8
M0
100
AcDbLine
 10
169.598526
 20
400.393265
 11
169.598526
 21
397.793167
  0
LINE
  5
167
100
AcDbEntity
  8
M0
  6
DASHDOT
100
AcDbLine
 10
167.873642
 20
399.093216
 11
179.648575
 21
399.093216
  0
LINE
  5
168
100
AcDbEntity
  8
M0
100
AcDbLine
 10
174.773575
 20
395.993118
 11
174.773575
 21
396.439896
  0
LINE
  5
169
100
AcDbEntity
  8
M0
100
AcDbLine
 10
174.773575
 20
401.746536
 11
174.773575
 21
402.193069
  0
LINE
  5
16A
100
AcDbEntity
  8
M0
100
AcDbLine
 10
171.973526
 20
401.746536
 11
171.973526
 21
402.193069
  0
LINE
  5
16B
100
AcDbEntity
  8
M0
100
AcDbLine
 10
171.973526
 20
395.993118
 11
171.973526
 21
396.439896
  0
LINE
  5
16C
100
AcDbEntity
  8
M0
100
AcDbLine
 10
174.964249
 20
397.502396
 11
171.782608
 21
400.684036
  0
LINE
  5
16D
100
AcDbEntity
  8
M0
100
AcDbLine
 10
173.726944
 20
400.507278
 11
171.959366
 21
398.7397
  0
LINE
  5
16E
100
AcDbEntity
  8
M0
100
AcDbLine
 10
174.787491
 20
399.446732
 11
173.019913
 21
397.679153
  0
ARC
  5
16F
100
AcDbEntity
  8
M0
100
AcDbCircle
 10
170.892715
 20
395.293179
 40
0.5
100
AcDbArc
 50
197.116934
 51
269.998251
  0
ARC
  5
170
100
AcDbEntity
  8
M0
100
AcDbCircle
 10
175.854385
 20
395.293179
 40
0.5
100
AcDbArc
 50
269.998251
 51
342.874517
  0
LINE
  5
171
100
AcDbEntity
  8
M0
  6
DASHDOT
100
AcDbLine
 10
97.746017
 20
399.593216
 11
115.373444
 21
399.593216
  0
LINE
  5
172
100
AcDbEntity
  8
M0
 62
     7
100
AcDbLine
 10
133.373931
 20
379.093136
 11
134.873931
 21
379.093136
  0
LINE
  5
173
100
AcDbEntity
  8
M0
100
AcDbLine
 10
175.69545
 20
379.492886
 11
176.96376
 21
379.492886
  0
LINE
  5
174
100
AcDbEntity
  8
M0
100
AcDbLine
 10
171.052139
 20
379.492886
 11
169.783829
 21
379.492886
  0
LINE
  5
175
100
AcDbEntity
  8
M0
 62
     6
100
AcDbLine
 10
104.573883
 20
382.593227
 11
104.573883
 21
381.593227
  0
LINE
  5
176
100
AcDbEntity
  8
M0
 62
     6
100
AcDbLine
 10
98.173737
 20
382.593227
 11
98.173737
 21
381.593227
  0
LINE
  5
177
100
AcDbEntity
  8
M0
 62
     6
100
AcDbLine
 10
97.873932
 20
384.592983
 11
97.873932
 21
383.093227
  0
LINE
  5
178
100
AcDbEntity
  8
M0
 62
     6
100
AcDbLine
 10
104.873932
 20
384.593227
 11
104.873932
 21
383.093227
  0
ARC
  5
179
100
AcDbEntity
  8
M0
 62
     6
100
AcDbCircle
 10
97.673737
 20
382.593227
 40
0.5
100
AcDbArc
 50
0.0
 51
89.998251
  0
LINE
  5
17A
100
AcDbEntity
  8
M0
 62
     6
100
AcDbLine
 10
97.373932
 20
381.593227
 11
98.434723
 21
381.593227
  0
LINE
  5
17B
100
AcDbEntity
  8
M0
 62
     6
100
AcDbLine
 10
97.373932
 20
383.093227
 11
97.673737
 21
383.093227
  0
LINE
  5
17C
100
AcDbEntity
  8
M0
 62
     6
100
AcDbLine
 10
105.073883
 20
383.093227
 11
105.373932
 21
383.093227
  0
ARC
  5
17D
100
AcDbEntity
  8
M0
 62
     6
100
AcDbCircle
 10
105.073883
 20
382.593227
 40
0.5
100
AcDbArc
 50
89.998251
 51
180.0
  0
LINE
  5
17E
100
AcDbEntity
  8
M0
 62
     6
100
AcDbLine
 10
170.173721
 20
382.592983
 11
170.173721
 21
381.592983
  0
LINE
  5
17F
100
AcDbEntity
  8
M0
 62
     6
100
AcDbLine
 10
176.573868
 20
382.592983
 11
176.573868
 21
381.592983
  0
LINE
  5
180
100
AcDbEntity
  8
M0
 62
     6
100
AcDbLine
 10
176.873917
 20
384.592739
 11
176.873917
 21
383.092983
  0
LINE
  5
181
100
AcDbEntity
  8
M0
 62
     6
100
AcDbLine
 10
169.873917
 20
384.592983
 11
169.873917
 21
383.092983
  0
ARC
  5
182
100
AcDbEntity
  8
M0
 62
     6
100
AcDbCircle
 10
177.073868
 20
382.592983
 40
0.5
100
AcDbArc
 50
90.0
 51
180.0
  0
LINE
  5
183
100
AcDbEntity
  8
M0
 62
     6
100
AcDbLine
 10
177.373917
 20
381.592983
 11
176.312881
 21
381.592983
  0
LINE
  5
184
100
AcDbEntity
  8
M0
 62
     6
100
AcDbLine
 10
177.373917
 20
383.092983
 11
177.073868
 21
383.092983
  0
LINE
  5
185
100
AcDbEntity
  8
M0
 62
     6
100
AcDbLine
 10
169.673721
 20
383.092983
 11
169.373917
 21
383.092983
  0
ARC
  5
186
100
AcDbEntity
  8
M0
 62
     6
100
AcDbCircle
 10
169.673721
 20
382.592983
 40
0.5
100
AcDbArc
 50
0.0
 51
90.0
  0
LINE
  5
187
100
AcDbEntity
  8
M0
 62
     6
100
AcDbLine
 10
104.312897
 20
381.593227
 11
105.373932
 21
381.593227
  0
LINE
  5
188
100
AcDbEntity
  8
M0
 62
     6
100
AcDbLine
 10
170.434708
 20
381.592983
 11
169.373917
 21
381.592983
  0
LINE
  5
189
100
AcDbEntity
  8
M0
 62
     6
100
AcDbLine
 10
170.173721
 20
382.092983
 11
176.573868
 21
382.092983
  0
LINE
  5
18A
100
AcDbEntity
  8
M0
 62
     6
100
AcDbLine
 10
98.173737
 20
382.093227
 11
104.573883
 21
382.093227
  0
LINE
  5
18B
100
AcDbEntity
  8
M0
 62
     7
100
AcDbLine
 10
137.373672
 20
383.092968
 11
135.873931
 21
383.092983
  0
LINE
  5
18C
100
AcDbEntity
  8
M0
 62
     7
100
AcDbLine
 10
134.873931
 20
382.092983
 11
134.873931
 21
379.093136
  0
LINE
  5
18D
100
AcDbEntity
  8
M0
 62
     7
100
AcDbLine
 10
133.373931
 20
379.792935
 11
134.873931
 21
379.792935
  0
ARC
  5
18E
100
AcDbEntity
  8
M0
 62
     7
100
AcDbCircle
 10
135.873931
 20
382.092983
 40
1.0
100
AcDbArc
 50
90.0
 51
180.0
  0
LINE
  5
18F
100
AcDbEntity
  8
M0
100
AcDbLine
 10
98.414948
 20
381.540493
 11
97.598785
 21
378.89343
  0
LINE
  5
190
100
AcDbEntity
  8
M0
100
AcDbLine
 10
104.332428
 20
381.540493
 11
105.148834
 21
378.89343
  0
LINE
  5
191
100
AcDbEntity
  8
M0
100
AcDbLine
 10
102.773834
 20
380.693081
 11
104.593903
 21
380.693081
  0
LINE
  5
192
100
AcDbEntity
  8
M0
100
AcDbLine
 10
103.695465
 20
379.49313
 11
104.963776
 21
379.49313
  0
LINE
  5
193
100
AcDbEntity
  8
M0
100
AcDbLine
 10
99.973785
 20
380.693081
 11
98.153717
 21
380.693081
  0
LINE
  5
194
100
AcDbEntity
  8
M0
100
AcDbLine
 10
99.052155
 20
379.49313
 11
97.783844
 21
379.49313
  0
LINE
  5
195
100
AcDbEntity
  8
M0
100
AcDbLine
 10
103.854645
 20
381.893276
 11
98.892975
 21
381.893032
  0
LINE
  5
196
100
AcDbEntity
  8
M0
100
AcDbLine
 10
102.773834
 20
380.246548
 11
102.773834
 21
380.693081
  0
LINE
  5
197
100
AcDbEntity
  8
M0
100
AcDbLine
 10
99.973785
 20
380.246548
 11
99.973785
 21
380.693081
  0
ARC
  5
198
100
AcDbEntity
  8
M0
100
AcDbCircle
 10
98.892975
 20
381.393032
 40
0.5
100
AcDbArc
 50
89.998251
 51
162.856158
  0
ARC
  5
199
100
AcDbEntity
  8
M0
100
AcDbCircle
 10
103.854645
 20
381.393032
 40
0.5
100
AcDbArc
 50
17.151876
 51
89.998251
  0
LINE
  5
19A
100
AcDbEntity
  8
M0
100
AcDbLine
 10
102.773834
 20
383.99313
 11
104.593903
 21
383.99313
  0
LINE
  5
19B
100
AcDbEntity
  8
M0
100
AcDbLine
 10
99.973785
 20
383.99313
 11
98.153717
 21
383.99313
  0
LINE
  5
19C
100
AcDbEntity
  8
M0
100
AcDbLine
 10
98.892975
 20
382.793179
 11
103.854645
 21
382.793179
  0
LINE
  5
19D
100
AcDbEntity
  8
M0
100
AcDbLine
 10
102.773834
 20
383.99313
 11
102.773834
 21
384.439907
  0
LINE
  5
19E
100
AcDbEntity
  8
M0
100
AcDbLine
 10
99.973785
 20
383.99313
 11
99.973785
 21
384.439907
  0
ARC
  5
19F
100
AcDbEntity
  8
M0
100
AcDbCircle
 10
98.892975
 20
383.293179
 40
0.5
100
AcDbArc
 50
197.117449
 51
270.0
  0
ARC
  5
1A0
100
AcDbEntity
  8
M0
100
AcDbCircle
 10
103.854645
 20
383.293179
 40
0.5
100
AcDbArc
 50
270.0
 51
342.875032
  0
LINE
  5
1A1
100
AcDbEntity
  8
M0
100
AcDbLine
 10
174.773819
 20
383.992886
 11
176.593887
 21
383.992886
  0
LINE
  5
1A2
100
AcDbEntity
  8
M0
100
AcDbLine
 10
171.97377
 20
383.992886
 11
170.153702
 21
383.992886
  0
LINE
  5
1A3
100
AcDbEntity
  8
M0
100
AcDbLine
 10
170.89296
 20
382.792934
 11
175.85463
 21
382.792934
  0
LINE
  5
1A4
100
AcDbEntity
  8
M0
100
AcDbLine
 10
174.773819
 20
383.992886
 11
174.773819
 21
384.439663
  0
LINE
  5
1A5
100
AcDbEntity
  8
M0
100
AcDbLine
 10
171.97377
 20
383.992886
 11
171.97377
 21
384.439663
  0
ARC
  5
1A6
100
AcDbEntity
  8
M0
100
AcDbCircle
 10
170.89296
 20
383.292934
 40
0.5
100
AcDbArc
 50
197.116934
 51
269.998251
  0
ARC
  5
1A7
100
AcDbEntity
  8
M0
100
AcDbCircle
 10
175.85463
 20
383.292934
 40
0.5
100
AcDbArc
 50
269.998251
 51
342.874517
  0
LINE
  5
1A8
100
AcDbEntity
  8
M0
100
AcDbLine
 10
170.414932
 20
381.540249
 11
169.59877
 21
378.893186
  0
LINE
  5
1A9
100
AcDbEntity
  8
M0
100
AcDbLine
 10
176.332413
 20
381.540249
 11
177.148819
 21
378.893186
  0
LINE
  5
1AA
100
AcDbEntity
  8
M0
100
AcDbLine
 10
174.773819
 20
380.692837
 11
176.593887
 21
380.692837
  0
LINE
  5
1AB
100
AcDbEntity
  8
M0
100
AcDbLine
 10
171.97377
 20
380.692837
 11
170.153702
 21
380.692837
  0
LINE
  5
1AC
100
AcDbEntity
  8
M0
100
AcDbLine
 10
175.85463
 20
381.893032
 11
170.89296
 21
381.892788
  0
LINE
  5
1AD
100
AcDbEntity
  8
M0
100
AcDbLine
 10
174.773819
 20
380.246304
 11
174.773819
 21
380.692837
  0
LINE
  5
1AE
100
AcDbEntity
  8
M0
100
AcDbLine
 10
171.97377
 20
380.246304
 11
171.97377
 21
380.692837
  0
ARC
  5
1AF
100
AcDbEntity
  8
M0
100
AcDbCircle
 10
170.89296
 20
381.392788
 40
0.5
100
AcDbArc
 50
90.0
 51
162.856673
  0
ARC
  5
1B0
100
AcDbEntity
  8
M0
100
AcDbCircle
 10
175.85463
 20
381.392788
 40
0.5
100
AcDbArc
 50
17.152392
 51
90.0
  0
LINE
  5
1B1
100
AcDbEntity
  8
M0
  6
DASHDOT
 62
     6
100
AcDbLine
 10
95.303894
 20
377.593381
 11
108.156631
 21
377.593381
  0
LINE
  5
1B2
100
AcDbEntity
  8
M0
 62
     6
100
AcDbLine
 10
99.115631
 20
372.793363
 11
103.631989
 21
372.793363
  0
LINE
  5
1B3
100
AcDbEntity
  8
M0
 62
     6
100
AcDbLine
 10
98.1586
 20
373.503324
 11
97.373932
 21
376.093381
  0
LINE
  5
1B4
100
AcDbEntity
  8
M0
 62
     6
100
AcDbLine
 10
104.58902
 20
373.503324
 11
105.373932
 21
376.093381
  0
ARC
  5
1B5
100
AcDbEntity
  8
M0
 62
     6
100
AcDbCircle
 10
99.115631
 20
373.793363
 40
1.0
100
AcDbArc
 50
196.859961
 51
270.0
  0
ARC
  5
1B6
100
AcDbEntity
  8
M0
 62
     6
100
AcDbCircle
 10
103.631989
 20
373.793363
 40
1.0
100
AcDbArc
 50
270.0
 51
343.14024
  0
LINE
  5
1B7
100
AcDbEntity
  8
M0
  6
DASHDOT
 62
     6
100
AcDbLine
 10
179.218338
 20
377.593137
 11
167.873642
 21
377.593137
  0
LINE
  5
1B8
100
AcDbEntity
  8
M0
 62
     6
100
AcDbLine
 10
175.631973
 20
372.793118
 11
171.115616
 21
372.793118
  0
LINE
  5
1B9
100
AcDbEntity
  8
M0
 62
     6
100
AcDbLine
 10
176.589005
 20
373.503079
 11
177.373917
 21
376.093137
  0
LINE
  5
1BA
100
AcDbEntity
  8
M0
 62
     6
100
AcDbLine
 10
170.158585
 20
373.503079
 11
169.373917
 21
376.093137
  0
ARC
  5
1BB
100
AcDbEntity
  8
M0
 62
     6
100
AcDbCircle
 10
175.631973
 20
373.793118
 40
1.0
100
AcDbArc
 50
269.999126
 51
343.139986
  0
ARC
  5
1BC
100
AcDbEntity
  8
M0
 62
     6
100
AcDbCircle
 10
171.115616
 20
373.793118
 40
1.0
100
AcDbArc
 50
196.859708
 51
269.999126
  0
LINE
  5
1BD
100
AcDbEntity
  8
M0
 62
     7
100
AcDbLine
 10
98.373932
 20
372.79318
 11
104.873932
 21
372.79318
  0
LINE
  5
1BE
100
AcDbEntity
  8
M0
 62
     7
100
AcDbLine
 10
169.873917
 20
372.79318
 11
176.373917
 21
372.79318
  0
ARC
  5
1BF
100
AcDbEntity
  8
M0
 62
     7
100
AcDbCircle
 10
104.873932
 20
373.29318
 40
0.5
100
AcDbArc
 50
270.0
 51
360.0
  0
ARC
  5
1C0
100
AcDbEntity
  8
M0
 62
     7
100
AcDbCircle
 10
176.373917
 20
372.29318
 40
0.5
100
AcDbArc
 50
0.0
 51
90.0
  0
ARC
  5
1C1
100
AcDbEntity
  8
M0
 62
     7
100
AcDbCircle
 10
98.373932
 20
372.29318
 40
0.5
100
AcDbArc
 50
89.998251
 51
179.999891
  0
ARC
  5
1C2
100
AcDbEntity
  8
M0
 62
     7
100
AcDbCircle
 10
169.873917
 20
373.29318
 40
0.5
100
AcDbArc
 50
179.999891
 51
269.998251
  0
LINE
  5
1C3
100
AcDbEntity
  8
M0
 62
     7
100
AcDbLine
 10
129.073883
 20
377.392941
 11
133.373931
 21
377.392941
  0
ARC
  5
1C4
100
AcDbEntity
  8
M0
 62
     7
100
AcDbCircle
 10
129.073883
 20
374.392941
 40
3.0
100
AcDbArc
 50
90.0
 51
179.999964
  0
LINE
  5
1C5
100
AcDbEntity
  8
M0
100
AcDbLine
 10
98.414948
 20
373.646131
 11
97.598785
 21
376.293332
  0
LINE
  5
1C6
100
AcDbEntity
  8
M0
100
AcDbLine
 10
104.332428
 20
373.646115
 11
105.148834
 21
376.293332
  0
LINE
  5
1C7
100
AcDbEntity
  8
M0
100
AcDbLine
 10
103.695465
 20
375.693234
 11
104.963776
 21
375.693234
  0
LINE
  5
1C8
100
AcDbEntity
  8
M0
100
AcDbLine
 10
102.773834
 20
374.493283
 11
104.593903
 21
374.493283
  0
LINE
  5
1C9
100
AcDbEntity
  8
M0
100
AcDbLine
 10
99.052155
 20
375.693234
 11
97.783844
 21
375.693234
  0
LINE
  5
1CA
100
AcDbEntity
  8
M0
100
AcDbLine
 10
99.973785
 20
374.493283
 11
98.153717
 21
374.493283
  0
LINE
  5
1CB
100
AcDbEntity
  8
M0
100
AcDbLine
 10
98.892975
 20
373.293454
 11
103.854645
 21
373.293454
  0
LINE
  5
1CC
100
AcDbEntity
  8
M0
100
AcDbLine
 10
105.148834
 20
376.293332
 11
105.148834
 21
378.89343
  0
LINE
  5
1CD
100
AcDbEntity
  8
M0
100
AcDbLine
 10
97.598785
 20
378.89343
 11
97.598785
 21
376.293332
  0
LINE
  5
1CE
100
AcDbEntity
  8
M0
100
AcDbLine
 10
102.773834
 20
374.493283
 11
102.773834
 21
374.940061
  0
LINE
  5
1CF
100
AcDbEntity
  8
M0
100
AcDbLine
 10
99.973785
 20
374.493283
 11
99.973785
 21
374.940061
  0
LINE
  5
1D0
100
AcDbEntity
  8
M0
100
AcDbLine
 10
102.964508
 20
376.002561
 11
99.782867
 21
379.184201
  0
LINE
  5
1D1
100
AcDbEntity
  8
M0
100
AcDbLine
 10
101.727203
 20
379.007443
 11
99.959625
 21
377.239865
  0
LINE
  5
1D2
100
AcDbEntity
  8
M0
100
AcDbLine
 10
102.78775
 20
377.946897
 11
101.020172
 21
376.179318
  0
ARC
  5
1D3
100
AcDbEntity
  8
M0
100
AcDbCircle
 10
98.892975
 20
373.793454
 40
0.5
100
AcDbArc
 50
197.129027
 51
270.0
  0
ARC
  5
1D4
100
AcDbEntity
  8
M0
100
AcDbCircle
 10
103.854645
 20
373.793454
 40
0.5
100
AcDbArc
 50
270.0
 51
342.861372
  0
LINE
  5
1D5
100
AcDbEntity
  8
M0
100
AcDbLine
 10
170.414932
 20
373.645886
 11
169.59877
 21
376.293088
  0
LINE
  5
1D6
100
AcDbEntity
  8
M0
100
AcDbLine
 10
176.332413
 20
373.645871
 11
177.148819
 21
376.293088
  0
LINE
  5
1D7
100
AcDbEntity
  8
M0
100
AcDbLine
 10
175.69545
 20
375.69299
 11
176.96376
 21
375.69299
  0
LINE
  5
1D8
100
AcDbEntity
  8
M0
100
AcDbLine
 10
174.773819
 20
374.493039
 11
176.593887
 21
374.493039
  0
LINE
  5
1D9
100
AcDbEntity
  8
M0
100
AcDbLine
 10
171.052139
 20
375.69299
 11
169.783829
 21
375.69299
  0
LINE
  5
1DA
100
AcDbEntity
  8
M0
100
AcDbLine
 10
171.97377
 20
374.493039
 11
170.153702
 21
374.493039
  0
LINE
  5
1DB
100
AcDbEntity
  8
M0
100
AcDbLine
 10
170.89296
 20
373.29321
 11
175.85463
 21
373.29321
  0
LINE
  5
1DC
100
AcDbEntity
  8
M0
100
AcDbLine
 10
177.148819
 20
376.293088
 11
177.148819
 21
378.893186
  0
LINE
  5
1DD
100
AcDbEntity
  8
M0
100
AcDbLine
 10
169.59877
 20
378.893186
 11
169.59877
 21
376.293088
  0
LINE
  5
1DE
100
AcDbEntity
  8
M0
100
AcDbLine
 10
174.773819
 20
374.493039
 11
174.773819
 21
374.939816
  0
LINE
  5
1DF
100
AcDbEntity
  8
M0
100
AcDbLine
 10
171.97377
 20
374.493039
 11
171.97377
 21
374.939816
  0
LINE
  5
1E0
100
AcDbEntity
  8
M0
100
AcDbLine
 10
174.964493
 20
376.002316
 11
171.782852
 21
379.183957
  0
LINE
  5
1E1
100
AcDbEntity
  8
M0
100
AcDbLine
 10
173.727188
 20
379.007199
 11
171.95961
 21
377.239621
  0
LINE
  5
1E2
100
AcDbEntity
  8
M0
100
AcDbLine
 10
174.787735
 20
377.946652
 11
173.020157
 21
376.179074
  0
ARC
  5
1E3
100
AcDbEntity
  8
M0
100
AcDbCircle
 10
170.89296
 20
373.79321
 40
0.5
100
AcDbArc
 50
197.128512
 51
269.998251
  0
ARC
  5
1E4
100
AcDbEntity
  8
M0
100
AcDbCircle
 10
175.85463
 20
373.79321
 40
0.5
100
AcDbArc
 50
269.998251
 51
342.860857
  0
LINE
  5
1E5
100
AcDbEntity
  8
M0
100
AcDbLine
 10
134.373931
 20
371.743085
 11
137.373672
 21
371.743085
  0
LINE
  5
1E6
100
AcDbEntity
  8
M0
 62
     7
100
AcDbLine
 10
133.373931
 20
379.792935
 11
133.373931
 21
377.392941
  0
CIRCLE
  5
1E7
100
AcDbEntity
  8
M0
100
AcDbCircle
 10
101.373932
 20
377.593381
 40
3.0
  0
CIRCLE
  5
1E8
100
AcDbEntity
  8
M0
100
AcDbCircle
 10
173.373917
 20
377.593137
 40
3.0
  0
LINE
  5
1E9
100
AcDbEntity
  8
M0
 62
     6
100
AcDbLine
 10
97.373932
 20
392.593227
 11
105.373932
 21
392.593227
  0
LINE
  5
1EA
100
AcDbEntity
  8
M0
 62
     6
100
AcDbLine
 10
97.373932
 20
391.093227
 11
98.434723
 21
391.093227
  0
LINE
  5
1EB
100
AcDbEntity
  8
M0
 62
     6
100
AcDbLine
 10
93.873932
 20
385.093227
 11
96.873932
 21
385.093227
  0
ARC
  5
1EC
100
AcDbEntity
  8
M0
 62
     6
100
AcDbCircle
 10
93.873932
 20
384.593227
 40
0.5
100
AcDbArc
 50
89.998251
 51
180.0
  0
LINE
  5
1ED
100
AcDbEntity
  8
M0
  6
DASHDOT
 62
     6
100
AcDbLine
 10
95.050095
 20
387.093227
 11
107.485886
 21
387.093227
  0
LINE
  5
1EE
100
AcDbEntity
  8
M0
 62
     6
100
AcDbLine
 10
97.373932
 20
386.093227
 11
97.873932
 21
384.593227
  0
LINE
  5
1EF
100
AcDbEntity
  8
M0
 62
     6
100
AcDbLine
 10
105.373932
 20
386.093227
 11
104.873932
 21
384.593227
  0
ARC
  5
1F0
100
AcDbEntity
  8
M0
 62
     6
100
AcDbCircle
 10
96.873932
 20
384.593227
 40
0.5
100
AcDbArc
 50
0.0
 51
89.998251
  0
LINE
  5
1F1
100
AcDbEntity
  8
M0
 62
     6
100
AcDbLine
 10
181.373917
 20
393.592983
 11
169.373917
 21
393.592983
  0
LINE
  5
1F2
100
AcDbEntity
  8
M0
 62
     6
100
AcDbLine
 10
177.373917
 20
392.592983
 11
169.373917
 21
392.592983
  0
LINE
  5
1F3
100
AcDbEntity
  8
M0
 62
     6
100
AcDbLine
 10
177.373917
 20
391.092983
 11
176.312881
 21
391.092983
  0
LINE
  5
1F4
100
AcDbEntity
  8
M0
 62
     6
100
AcDbLine
 10
181.373917
 20
393.592983
 11
177.373917
 21
393.592983
  0
LINE
  5
1F5
100
AcDbEntity
  8
M0
 62
     6
100
AcDbLine
 10
180.873917
 20
385.092983
 11
177.873917
 21
385.092983
  0
ARC
  5
1F6
100
AcDbEntity
  8
M0
 62
     6
100
AcDbCircle
 10
180.873917
 20
384.592983
 40
0.5
100
AcDbArc
 50
0.0
 51
90.0
  0
LINE
  5
1F7
100
AcDbEntity
  8
M0
  6
DASHDOT
 62
     6
100
AcDbLine
 10
179.816559
 20
387.092983
 11
167.873642
 21
387.092983
  0
ARC
  5
1F8
100
AcDbEntity
  8
M0
 62
     6
100
AcDbCircle
 10
177.873917
 20
393.092983
 40
0.5
100
AcDbArc
 50
90.0
 51
180.0
  0
LINE
  5
1F9
100
AcDbEntity
  8
M0
 62
     6
100
AcDbLine
 10
177.373917
 20
386.092983
 11
176.873917
 21
384.592983
  0
LINE
  5
1FA
100
AcDbEntity
  8
M0
 62
     6
100
AcDbLine
 10
169.373917
 20
386.092983
 11
169.873917
 21
384.592983
  0
ARC
  5
1FB
100
AcDbEntity
  8
M0
 62
     6
100
AcDbCircle
 10
177.873917
 20
384.592983
 40
0.5
100
AcDbArc
 50
90.0
 51
180.0
  0
LINE
  5
1FC
100
AcDbEntity
  8
M0
 62
     6
100
AcDbLine
 10
104.312897
 20
391.093227
 11
105.373932
 21
391.093227
  0
LINE
  5
1FD
100
AcDbEntity
  8
M0
 62
     6
100
AcDbLine
 10
170.434708
 20
391.092983
 11
169.373917
 21
391.092983
  0
CIRCLE
  5
1FE
100
AcDbEntity
  8
M0
100
AcDbCircle
 10
101.373932
 20
387.093227
 40
3.0
  0
LINE
  5
1FF
100
AcDbEntity
  8
M0
100
AcDbLine
 10
98.414948
 20
391.040493
 11
97.598785
 21
388.393276
  0
LINE
  5
200
100
AcDbEntity
  8
M0
100
AcDbLine
 10
98.414948
 20
383.145962
 11
97.598785
 21
385.793179
  0
LINE
  5
201
100
AcDbEntity
  8
M0
100
AcDbLine
 10
104.332428
 20
391.040493
 11
105.148834
 21
388.393276
  0
LINE
  5
202
100
AcDbEntity
  8
M0
100
AcDbLine
 10
104.332428
 20
383.145962
 11
105.148834
 21
385.793179
  0
LINE
  5
203
100
AcDbEntity
  8
M0
100
AcDbLine
 10
102.773834
 20
390.193081
 11
104.593903
 21
390.193081
  0
LINE
  5
204
100
AcDbEntity
  8
M0
100
AcDbLine
 10
103.695465
 20
388.99313
 11
104.963776
 21
388.99313
  0
LINE
  5
205
100
AcDbEntity
  8
M0
100
AcDbLine
 10
103.695465
 20
385.193081
 11
104.963776
 21
385.193081
  0
LINE
  5
206
100
AcDbEntity
  8
M0
100
AcDbLine
 10
99.973785
 20
390.193081
 11
98.153717
 21
390.193081
  0
LINE
  5
207
100
AcDbEntity
  8
M0
100
AcDbLine
 10
99.052155
 20
388.99313
 11
97.783844
 21
388.99313
  0
LINE
  5
208
100
AcDbEntity
  8
M0
100
AcDbLine
 10
99.052155
 20
385.193081
 11
97.783844
 21
385.193081
  0
LINE
  5
209
100
AcDbEntity
  8
M0
100
AcDbLine
 10
105.148834
 20
385.793179
 11
105.148834
 21
388.393276
  0
LINE
  5
20A
100
AcDbEntity
  8
M0
100
AcDbLine
 10
103.854645
 20
391.393276
 11
98.892975
 21
391.393032
  0
LINE
  5
20B
100
AcDbEntity
  8
M0
100
AcDbLine
 10
97.598785
 20
388.393276
 11
97.598785
 21
385.793179
  0
LINE
  5
20C
100
AcDbEntity
  8
M0
100
AcDbLine
 10
102.773834
 20
389.746548
 11
102.773834
 21
390.193081
  0
LINE
  5
20D
100
AcDbEntity
  8
M0
100
AcDbLine
 10
99.973785
 20
389.746548
 11
99.973785
 21
390.193081
  0
LINE
  5
20E
100
AcDbEntity
  8
M0
100
AcDbLine
 10
102.964508
 20
385.502407
 11
99.782867
 21
388.684048
  0
LINE
  5
20F
100
AcDbEntity
  8
M0
100
AcDbLine
 10
101.727203
 20
388.50729
 11
99.959625
 21
386.739712
  0
LINE
  5
210
100
AcDbEntity
  8
M0
100
AcDbLine
 10
102.78775
 20
387.446743
 11
101.020172
 21
385.679165
  0
ARC
  5
211
100
AcDbEntity
  8
M0
100
AcDbCircle
 10
98.892975
 20
390.893032
 40
0.5
100
AcDbArc
 50
89.998251
 51
162.856158
  0
ARC
  5
212
100
AcDbEntity
  8
M0
100
AcDbCircle
 10
103.854645
 20
390.893032
 40
0.5
100
AcDbArc
 50
17.151876
 51
89.998251
  0
CIRCLE
  5
213
100
AcDbEntity
  8
M0
100
AcDbCircle
 10
173.373917
 20
387.092983
 40
3.0
  0
LINE
  5
214
100
AcDbEntity
  8
M0
100
AcDbLine
 10
170.414932
 20
391.040249
 11
169.59877
 21
388.393032
  0
LINE
  5
215
100
AcDbEntity
  8
M0
100
AcDbLine
 10
170.414932
 20
383.145718
 11
169.59877
 21
385.792934
  0
LINE
  5
216
100
AcDbEntity
  8
M0
100
AcDbLine
 10
176.332413
 20
391.040249
 11
177.148819
 21
388.393032
  0
LINE
  5
217
100
AcDbEntity
  8
M0
100
AcDbLine
 10
176.332413
 20
383.145718
 11
177.148819
 21
385.792934
  0
LINE
  5
218
100
AcDbEntity
  8
M0
100
AcDbLine
 10
174.773819
 20
390.192837
 11
176.593887
 21
390.192837
  0
LINE
  5
219
100
AcDbEntity
  8
M0
100
AcDbLine
 10
175.69545
 20
388.992886
 11
176.96376
 21
388.992886
  0
LINE
  5
21A
100
AcDbEntity
  8
M0
100
AcDbLine
 10
175.69545
 20
385.192837
 11
176.96376
 21
385.192837
  0
LINE
  5
21B
100
AcDbEntity
  8
M0
100
AcDbLine
 10
171.97377
 20
390.192837
 11
170.153702
 21
390.192837
  0
LINE
  5
21C
100
AcDbEntity
  8
M0
100
AcDbLine
 10
171.052139
 20
388.992886
 11
169.783829
 21
388.992886
  0
LINE
  5
21D
100
AcDbEntity
  8
M0
100
AcDbLine
 10
171.052139
 20
385.192837
 11
169.783829
 21
385.192837
  0
LINE
  5
21E
100
AcDbEntity
  8
M0
100
AcDbLine
 10
177.148819
 20
385.792934
 11
177.148819
 21
388.393032
  0
LINE
  5
21F
100
AcDbEntity
  8
M0
100
AcDbLine
 10
175.85463
 20
391.393032
 11
170.89296
 21
391.392788
  0
LINE
  5
220
100
AcDbEntity
  8
M0
100
AcDbLine
 10
169.59877
 20
388.393032
 11
169.59877
 21
385.792934
  0
LINE
  5
221
100
AcDbEntity
  8
M0
100
AcDbLine
 10
174.773819
 20
389.746304
 11
174.773819
 21
390.192837
  0
LINE
  5
222
100
AcDbEntity
  8
M0
100
AcDbLine
 10
171.97377
 20
389.746304
 11
171.97377
 21
390.192837
  0
LINE
  5
223
100
AcDbEntity
  8
M0
100
AcDbLine
 10
174.964493
 20
385.502163
 11
171.782852
 21
388.683804
  0
LINE
  5
224
100
AcDbEntity
  8
M0
100
AcDbLine
 10
173.727188
 20
388.507046
 11
171.95961
 21
386.739468
  0
LINE
  5
225
100
AcDbEntity
  8
M0
100
AcDbLine
 10
174.787735
 20
387.446499
 11
173.020157
 21
385.678921
  0
ARC
  5
226
100
AcDbEntity
  8
M0
100
AcDbCircle
 10
170.89296
 20
390.892788
 40
0.5
100
AcDbArc
 50
90.0
 51
162.856673
  0
ARC
  5
227
100
AcDbEntity
  8
M0
100
AcDbCircle
 10
175.85463
 20
390.892788
 40
0.5
100
AcDbArc
 50
17.152392
 51
90.0
  0
LINE
  5
228
100
AcDbEntity
  8
M0
 62
     6
100
AcDbLine
 10
93.373932
 20
393.593227
 11
105.373932
 21
393.593227
  0
LINE
  5
229
100
AcDbEntity
  8
M0
 62
     6
100
AcDbLine
 10
95.873932
 20
396.093216
 11
95.873932
 21
393.593227
  0
LINE
  5
22A
100
AcDbEntity
  8
M0
 62
     6
100
AcDbLine
 10
93.373932
 20
393.593227
 11
97.373932
 21
393.593227
  0
ARC
  5
22B
100
AcDbEntity
  8
M0
 62
     6
100
AcDbCircle
 10
96.873932
 20
393.093227
 40
0.5
100
AcDbArc
 50
0.0
 51
89.998251
  0
LINE
  5
22C
100
AcDbEntity
  8
M0
 62
     6
100
AcDbLine
 10
178.873917
 20
396.092972
 11
178.873917
 21
393.592983
  0
LINE
  5
22D
100
AcDbEntity
  8
M0
 62
     5
100
AcDbLine
 10
93.373444
 20
393.593227
 11
105.373688
 21
393.593227
  0
LINE
  5
22E
100
AcDbEntity
  8
M0
 62
     5
100
AcDbLine
 10
177.373672
 20
393.592739
 11
177.373672
 21
405.093216
  0
LINE
  5
22F
100
AcDbEntity
  8
M0
  6
DASHDOT
100
AcDbLine
 10
101.873444
 20
395.467525
 11
101.873444
 21
403.462067
  0
LINE
  5
230
100
AcDbEntity
  8
M0
 62
     6
100
AcDbLine
 10
105.373932
 20
373.292874
 11
105.373932
 21
415.093216
  0
LINE
  5
231
100
AcDbEntity
  8
M0
 62
     6
100
AcDbLine
 10
169.373917
 20
373.293118
 11
169.373917
 21
415.092972
  0
LINE
  5
232
100
AcDbEntity
  8
M0
 62
     7
100
AcDbLine
 10
105.373932
 20
399.092972
 11
105.373932
 21
373.29318
  0
LINE
  5
233
100
AcDbEntity
  8
M0
 62
     7
100
AcDbLine
 10
169.373917
 20
373.29318
 11
169.373917
 21
399.092972
  0
LINE
  5
234
100
AcDbEntity
  8
M0
  6
DASHDOT
100
AcDbLine
 10
173.373672
 20
371.606229
 11
173.373672
 21
405.893265
  0
LINE
  5
235
100
AcDbEntity
  8
M0
  6
DASHDOT
100
AcDbLine
 10
103.373444
 20
395.666927
 11
103.373444
 21
403.516281
  0
LINE
  5
236
100
AcDbEntity
  8
M0
100
AcDbLine
 10
101.873444
 20
401.893021
 11
103.373444
 21
401.893021
  0
LINE
  5
237
100
AcDbEntity
  8
M0
100
AcDbLine
 10
101.873444
 20
397.293213
 11
103.373444
 21
397.293213
  0
ARC
  5
238
100
AcDbEntity
  8
M0
100
AcDbCircle
 10
101.873444
 20
399.593216
 40
2.299998
100
AcDbArc
 50
89.99962
 51
270.0
  0
ARC
  5
239
100
AcDbEntity
  8
M0
100
AcDbCircle
 10
103.373444
 20
399.593216
 40
2.299998
100
AcDbArc
 50
270.0
 51
449.99962
  0
ARC
  5
23A
100
AcDbEntity
  8
M0
 62
     6
100
AcDbCircle
 10
128.623932
 20
419.593216
 40
0.5
100
AcDbArc
 50
0.0
 51
90.0
  0
ARC
  5
23B
100
AcDbEntity
  8
M0
 62
     6
100
AcDbCircle
 10
126.123932
 20
419.593216
 40
0.5
100
AcDbArc
 50
90.0
 51
180.0
  0
LINE
  5
23C
100
AcDbEntity
  8
M0
 62
     7
100
AcDbLine
 10
141.373406
 20
379.093139
 11
139.873406
 21
379.093138
  0
LINE
  5
23D
100
AcDbEntity
  8
M0
 62
     7
100
AcDbLine
 10
139.873405
 20
382.092984
 11
139.873406
 21
379.093138
  0
LINE
  5
23E
100
AcDbEntity
  8
M0
 62
     7
100
AcDbLine
 10
141.373405
 20
379.792937
 11
139.873405
 21
379.792936
  0
ARC
  5
23F
100
AcDbEntity
  8
M0
 62
     7
100
AcDbCircle
 10
138.873405
 20
382.092984
 40
1.0
100
AcDbArc
 50
0.0
 51
90.0
  0
LINE
  5
240
100
AcDbEntity
  8
M0
 62
     7
100
AcDbLine
 10
137.373663
 20
383.092968
 11
138.873404
 21
383.092984
  0
LINE
  5
241
100
AcDbEntity
  8
M0
 62
     7
100
AcDbLine
 10
145.673447
 20
377.392946
 11
141.373407
 21
377.392943
  0
ARC
  5
242
100
AcDbEntity
  8
M0
 62
     7
100
AcDbCircle
 10
145.673447
 20
374.392946
 40
3.0
100
AcDbArc
 50
0.0
 51
90.0
  0
LINE
  5
243
100
AcDbEntity
  8
M0
 62
     7
100
AcDbLine
 10
141.373405
 20
379.792937
 11
141.373407
 21
377.392943
  0
LINE
  5
244
100
AcDbEntity
  8
M0
100
AcDbLine
 10
140.37341
 20
371.743087
 11
137.37367
 21
371.743085
  0
LINE
  5
245
100
AcDbEntity
  8
M0
 62
     7
100
AcDbLine
 10
137.3728
 20
399.592728
 11
168.873383
 21
399.592987
  0
LINE
  5
246
100
AcDbEntity
  8
M0
 62
     6
100
AcDbLine
 10
93.373962
 20
363.343658
 11
96.573914
 21
363.343658
  0
LINE
  5
247
100
AcDbEntity
  8
M0
 62
     6
100
AcDbLine
 10
181.373947
 20
363.343903
 11
178.173752
 21
363.343903
  0
LINE
  5
248
100
AcDbEntity
  8
M0
 62
     6
100
AcDbLine
 10
93.873962
 20
349.093658
 11
96.873962
 21
349.093658
  0
LINE
  5
249
100
AcDbEntity
  8
M0
 62
     6
100
AcDbLine
 10
96.573914
 20
363.343658
 11
97.373962
 21
362.393707
  0
ARC
  5
24A
100
AcDbEntity
  8
M0
 62
     6
100
AcDbCircle
 10
93.873962
 20
349.593658
 40
0.5
100
AcDbArc
 50
179.998251
 51
270.0
  0
LINE
  5
24B
100
AcDbEntity
  8
M0
 62
     6
100
AcDbLine
 10
104.573914
 20
351.593658
 11
104.573914
 21
352.593658
  0
LINE
  5
24C
100
AcDbEntity
  8
M0
 62
     6
100
AcDbLine
 10
98.173767
 20
351.593658
 11
98.173767
 21
352.593658
  0
LINE
  5
24D
100
AcDbEntity
  8
M0
 62
     6
100
AcDbLine
 10
97.873962
 20
349.593903
 11
97.873962
 21
351.093658
  0
LINE
  5
24E
100
AcDbEntity
  8
M0
 62
     6
100
AcDbLine
 10
104.873962
 20
349.593658
 11
104.873962
 21
351.093658
  0
ARC
  5
24F
100
AcDbEntity
  8
M0
 62
     6
100
AcDbCircle
 10
97.673767
 20
351.593658
 40
0.5
100
AcDbArc
 50
-90.0
 51
0.0
  0
ARC
  5
250
100
AcDbEntity
  8
M0
 62
     6
100
AcDbCircle
 10
96.873962
 20
349.593658
 40
0.5
100
AcDbArc
 50
-90.0
 51
0.0
  0
LINE
  5
251
100
AcDbEntity
  8
M0
  6
DASHDOT
 62
     6
100
AcDbLine
 10
94.977615
 20
356.593658
 11
108.084152
 21
356.593658
  0
LINE
  5
252
100
AcDbEntity
  8
M0
 62
     6
100
AcDbLine
 10
97.373962
 20
352.593658
 11
98.434753
 21
352.593658
  0
LINE
  5
253
100
AcDbEntity
  8
M0
 62
     6
100
AcDbLine
 10
99.115662
 20
361.393707
 11
103.632019
 21
361.393707
  0
LINE
  5
254
100
AcDbEntity
  8
M0
 62
     6
100
AcDbLine
 10
98.15863
 20
360.683746
 11
97.373962
 21
358.093658
  0
LINE
  5
255
100
AcDbEntity
  8
M0
 62
     6
100
AcDbLine
 10
104.58905
 20
360.683746
 11
105.373962
 21
358.093658
  0
ARC
  5
256
100
AcDbEntity
  8
M0
 62
     6
100
AcDbCircle
 10
99.115662
 20
360.393707
 40
1.0
100
AcDbArc
 50
89.999126
 51
163.139725
  0
ARC
  5
257
100
AcDbEntity
  8
M0
 62
     6
100
AcDbCircle
 10
103.632019
 20
360.393707
 40
1.0
100
AcDbArc
 50
16.860021
 51
89.999126
  0
LINE
  5
258
100
AcDbEntity
  8
M0
 62
     6
100
AcDbLine
 10
97.373962
 20
351.093658
 11
97.673767
 21
351.093658
  0
LINE
  5
259
100
AcDbEntity
  8
M0
 62
     6
100
AcDbLine
 10
105.073914
 20
351.093658
 11
105.373962
 21
351.093658
  0
ARC
  5
25A
100
AcDbEntity
  8
M0
 62
     6
100
AcDbCircle
 10
105.073914
 20
351.593658
 40
0.5
100
AcDbArc
 50
179.998251
 51
270.0
  0
LINE
  5
25B
100
AcDbEntity
  8
M0
 62
     6
100
AcDbLine
 10
180.873947
 20
349.093903
 11
177.873947
 21
349.093903
  0
LINE
  5
25C
100
AcDbEntity
  8
M0
 62
     6
100
AcDbLine
 10
178.173752
 20
363.343903
 11
177.373947
 21
362.393951
  0
ARC
  5
25D
100
AcDbEntity
  8
M0
 62
     6
100
AcDbCircle
 10
180.873947
 20
349.593903
 40
0.5
100
AcDbArc
 50
269.998251
 51
360.0
  0
LINE
  5
25E
100
AcDbEntity
  8
M0
 62
     6
100
AcDbLine
 10
170.173752
 20
351.593903
 11
170.173752
 21
352.593903
  0
LINE
  5
25F
100
AcDbEntity
  8
M0
 62
     6
100
AcDbLine
 10
176.573898
 20
351.593903
 11
176.573898
 21
352.593903
  0
LINE
  5
260
100
AcDbEntity
  8
M0
 62
     6
100
AcDbLine
 10
176.873947
 20
349.594147
 11
176.873947
 21
351.093903
  0
LINE
  5
261
100
AcDbEntity
  8
M0
 62
     6
100
AcDbLine
 10
169.873947
 20
349.593903
 11
169.873947
 21
351.093903
  0
ARC
  5
262
100
AcDbEntity
  8
M0
 62
     6
100
AcDbCircle
 10
177.073898
 20
351.593903
 40
0.5
100
AcDbArc
 50
179.998251
 51
269.998251
  0
ARC
  5
263
100
AcDbEntity
  8
M0
 62
     6
100
AcDbCircle
 10
177.873947
 20
349.593903
 40
0.5
100
AcDbArc
 50
179.998251
 51
269.998251
  0
LINE
  5
264
100
AcDbEntity
  8
M0
 62
     6
100
AcDbLine
 10
177.373947
 20
352.593903
 11
176.316086
 21
352.593887
  0
LINE
  5
265
100
AcDbEntity
  8
M0
 62
     6
100
AcDbLine
 10
175.632004
 20
361.393951
 11
171.115646
 21
361.393951
  0
LINE
  5
266
100
AcDbEntity
  8
M0
 62
     6
100
AcDbLine
 10
176.589035
 20
360.68399
 11
177.373947
 21
358.093903
  0
LINE
  5
267
100
AcDbEntity
  8
M0
 62
     6
100
AcDbLine
 10
170.158615
 20
360.68399
 11
169.373947
 21
358.093903
  0
ARC
  5
268
100
AcDbEntity
  8
M0
 62
     6
100
AcDbCircle
 10
175.632004
 20
360.393951
 40
1.0
100
AcDbArc
 50
16.860275
 51
90.0
  0
ARC
  5
269
100
AcDbEntity
  8
M0
 62
     6
100
AcDbCircle
 10
171.115646
 20
360.393951
 40
1.0
100
AcDbArc
 50
90.0
 51
163.139979
  0
LINE
  5
26A
100
AcDbEntity
  8
M0
 62
     6
100
AcDbLine
 10
177.373947
 20
351.093903
 11
177.073898
 21
351.093903
  0
LINE
  5
26B
100
AcDbEntity
  8
M0
 62
     6
100
AcDbLine
 10
169.673752
 20
351.093903
 11
169.373947
 21
351.093903
  0
ARC
  5
26C
100
AcDbEntity
  8
M0
 62
     6
100
AcDbCircle
 10
169.673752
 20
351.593903
 40
0.5
100
AcDbArc
 50
269.998251
 51
360.0
  0
LINE
  5
26D
100
AcDbEntity
  8
M0
 62
     6
100
AcDbLine
 10
104.312927
 20
352.593658
 11
105.373962
 21
352.593658
  0
LINE
  5
26E
100
AcDbEntity
  8
M0
 62
     6
100
AcDbLine
 10
170.431076
 20
352.593887
 11
169.373947
 21
352.593903
  0
LINE
  5
26F
100
AcDbEntity
  8
M0
 62
     6
100
AcDbLine
 10
98.173767
 20
352.093658
 11
104.573914
 21
352.093658
  0
LINE
  5
270
100
AcDbEntity
  8
M0
 62
     6
100
AcDbLine
 10
170.173752
 20
352.093887
 11
176.573898
 21
352.093887
  0
LINE
  5
271
100
AcDbEntity
  8
M0
 62
     7
100
AcDbLine
 10
176.373947
 20
361.393417
 11
169.873947
 21
361.393402
  0
LINE
  5
272
100
AcDbEntity
  8
M0
 62
     7
100
AcDbLine
 10
104.873962
 20
361.393372
 11
98.373962
 21
361.393372
  0
ARC
  5
273
100
AcDbEntity
  8
M0
 62
     7
100
AcDbCircle
 10
169.873947
 20
360.893402
 40
0.5
100
AcDbArc
 50
90.0
 51
179.998251
  0
ARC
  5
274
100
AcDbEntity
  8
M0
 62
     7
100
AcDbCircle
 10
176.373947
 20
361.893402
 40
0.5
100
AcDbArc
 50
269.998251
 51
360.0
  0
ARC
  5
275
100
AcDbEntity
  8
M0
 62
     7
100
AcDbCircle
 10
98.373962
 20
361.893372
 40
0.5
100
AcDbArc
 50
179.998251
 51
270.0
  0
ARC
  5
276
100
AcDbEntity
  8
M0
 62
     7
100
AcDbCircle
 10
104.873962
 20
360.893372
 40
0.5
100
AcDbArc
 50
0.0
 51
89.998251
  0
LINE
  5
277
100
AcDbEntity
  8
M0
 62
     7
100
AcDbLine
 10
129.073913
 20
361.093414
 11
129.373961
 21
361.093414
  0
LINE
  5
278
100
AcDbEntity
  8
M0
 62
     7
100
AcDbLine
 10
129.373961
 20
361.093414
 11
129.373961
 21
357.093414
  0
ARC
  5
279
100
AcDbEntity
  8
M0
 62
     7
100
AcDbCircle
 10
129.073913
 20
364.093411
 40
3.0
100
AcDbArc
 50
179.999964
 51
270.0
  0
LINE
  5
27A
100
AcDbEntity
  8
M0
100
AcDbLine
 10
98.414978
 20
351.041
 11
97.598816
 21
348.393707
  0
LINE
  5
27B
100
AcDbEntity
  8
M0
100
AcDbLine
 10
104.332458
 20
351.041016
 11
105.148865
 21
348.393707
  0
LINE
  5
27C
100
AcDbEntity
  8
M0
100
AcDbLine
 10
102.773865
 20
350.193634
 11
104.593933
 21
350.193634
  0
LINE
  5
27D
100
AcDbEntity
  8
M0
100
AcDbLine
 10
103.695496
 20
348.993683
 11
104.963806
 21
348.993683
  0
LINE
  5
27E
100
AcDbEntity
  8
M0
100
AcDbLine
 10
99.973816
 20
350.193634
 11
98.153748
 21
350.193634
  0
LINE
  5
27F
100
AcDbEntity
  8
M0
100
AcDbLine
 10
99.052185
 20
348.993683
 11
97.783875
 21
348.993683
  0
LINE
  5
280
100
AcDbEntity
  8
M0
100
AcDbLine
 10
103.854675
 20
351.393707
 11
98.893005
 21
351.393692
  0
LINE
  5
281
100
AcDbEntity
  8
M0
100
AcDbLine
 10
102.773865
 20
349.746979
 11
102.773865
 21
350.193634
  0
LINE
  5
282
100
AcDbEntity
  8
M0
100
AcDbLine
 10
99.973816
 20
349.746979
 11
99.973816
 21
350.193634
  0
ARC
  5
283
100
AcDbEntity
  8
M0
100
AcDbCircle
 10
98.893005
 20
350.893692
 40
0.5
100
AcDbArc
 50
89.998251
 51
162.872331
  0
ARC
  5
284
100
AcDbEntity
  8
M0
100
AcDbCircle
 10
103.854675
 20
350.893692
 40
0.5
100
AcDbArc
 50
17.137695
 51
89.998251
  0
CIRCLE
  5
285
100
AcDbEntity
  8
M0
100
AcDbCircle
 10
101.373962
 20
356.593658
 40
3.0
  0
LINE
  5
286
100
AcDbEntity
  8
M0
100
AcDbLine
 10
98.414978
 20
360.541
 11
97.598816
 21
357.893707
  0
LINE
  5
287
100
AcDbEntity
  8
M0
100
AcDbLine
 10
98.414978
 20
352.646408
 11
97.598816
 21
355.293732
  0
LINE
  5
288
100
AcDbEntity
  8
M0
100
AcDbLine
 10
104.332458
 20
360.541016
 11
105.148865
 21
357.893707
  0
LINE
  5
289
100
AcDbEntity
  8
M0
100
AcDbLine
 10
104.332458
 20
352.646393
 11
105.148865
 21
355.293732
  0
LINE
  5
28A
100
AcDbEntity
  8
M0
100
AcDbLine
 10
102.773865
 20
359.693634
 11
104.593933
 21
359.693634
  0
LINE
  5
28B
100
AcDbEntity
  8
M0
100
AcDbLine
 10
103.695496
 20
358.493683
 11
104.963806
 21
358.493683
  0
LINE
  5
28C
100
AcDbEntity
  8
M0
100
AcDbLine
 10
103.695496
 20
354.693634
 11
104.963806
 21
354.693634
  0
LINE
  5
28D
100
AcDbEntity
  8
M0
100
AcDbLine
 10
102.773865
 20
353.493683
 11
104.593933
 21
353.493683
  0
LINE
  5
28E
100
AcDbEntity
  8
M0
100
AcDbLine
 10
99.973816
 20
359.693634
 11
98.153748
 21
359.693634
  0
LINE
  5
28F
100
AcDbEntity
  8
M0
100
AcDbLine
 10
99.052185
 20
358.493683
 11
97.783875
 21
358.493683
  0
LINE
  5
290
100
AcDbEntity
  8
M0
100
AcDbLine
 10
99.052185
 20
354.693634
 11
97.783875
 21
354.693634
  0
LINE
  5
291
100
AcDbEntity
  8
M0
100
AcDbLine
 10
99.973816
 20
353.493683
 11
98.153748
 21
353.493683
  0
LINE
  5
292
100
AcDbEntity
  8
M0
100
AcDbLine
 10
98.893005
 20
352.293732
 11
103.854675
 21
352.293732
  0
LINE
  5
293
100
AcDbEntity
  8
M0
100
AcDbLine
 10
105.148865
 20
355.293732
 11
105.148865
 21
357.893707
  0
LINE
  5
294
100
AcDbEntity
  8
M0
100
AcDbLine
 10
103.854675
 20
360.893707
 11
98.893005
 21
360.893692
  0
LINE
  5
295
100
AcDbEntity
  8
M0
100
AcDbLine
 10
97.598816
 20
357.893707
 11
97.598816
 21
355.293732
  0
LINE
  5
296
100
AcDbEntity
  8
M0
100
AcDbLine
 10
102.773865
 20
353.493683
 11
102.773865
 21
353.940338
  0
LINE
  5
297
100
AcDbEntity
  8
M0
100
AcDbLine
 10
102.773865
 20
359.246979
 11
102.773865
 21
359.693634
  0
LINE
  5
298
100
AcDbEntity
  8
M0
100
AcDbLine
 10
99.973816
 20
359.246979
 11
99.973816
 21
359.693634
  0
LINE
  5
299
100
AcDbEntity
  8
M0
100
AcDbLine
 10
99.973816
 20
353.493683
 11
99.973816
 21
353.940338
  0
LINE
  5
29A
100
AcDbEntity
  8
M0
100
AcDbLine
 10
102.964539
 20
355.002838
 11
99.782898
 21
358.184601
  0
LINE
  5
29B
100
AcDbEntity
  8
M0
100
AcDbLine
 10
101.727234
 20
358.007843
 11
99.959656
 21
356.240143
  0
LINE
  5
29C
100
AcDbEntity
  8
M0
100
AcDbLine
 10
102.787781
 20
356.947174
 11
101.020203
 21
355.179596
  0
ARC
  5
29D
100
AcDbEntity
  8
M0
100
AcDbCircle
 10
98.893005
 20
360.393692
 40
0.5
100
AcDbArc
 50
89.998251
 51
162.872331
  0
ARC
  5
29E
100
AcDbEntity
  8
M0
100
AcDbCircle
 10
98.893005
 20
352.793732
 40
0.5
100
AcDbArc
 50
197.127669
 51
270.0
  0
ARC
  5
29F
100
AcDbEntity
  8
M0
100
AcDbCircle
 10
103.854675
 20
352.793732
 40
0.5
100
AcDbArc
 50
270.0
 51
342.86179
  0
ARC
  5
2A0
100
AcDbEntity
  8
M0
100
AcDbCircle
 10
103.854675
 20
360.393692
 40
0.5
100
AcDbArc
 50
17.137695
 51
89.998251
  0
CIRCLE
  5
2A1
100
AcDbEntity
  8
M0
100
AcDbCircle
 10
173.373947
 20
356.593918
 40
3.0
  0
LINE
  5
2A2
100
AcDbEntity
  8
M0
100
AcDbLine
 10
170.414963
 20
360.54126
 11
169.598801
 21
357.893967
  0
LINE
  5
2A3
100
AcDbEntity
  8
M0
100
AcDbLine
 10
170.414963
 20
352.646667
 11
169.598801
 21
355.293991
  0
LINE
  5
2A4
100
AcDbEntity
  8
M0
100
AcDbLine
 10
176.332443
 20
360.541275
 11
177.148849
 21
357.893967
  0
LINE
  5
2A5
100
AcDbEntity
  8
M0
100
AcDbLine
 10
176.332443
 20
352.646652
 11
177.148849
 21
355.293991
  0
LINE
  5
2A6
100
AcDbEntity
  8
M0
100
AcDbLine
 10
174.773849
 20
359.693893
 11
176.593918
 21
359.693893
  0
LINE
  5
2A7
100
AcDbEntity
  8
M0
100
AcDbLine
 10
175.69548
 20
358.493942
 11
176.963791
 21
358.493942
  0
LINE
  5
2A8
100
AcDbEntity
  8
M0
100
AcDbLine
 10
175.69548
 20
354.693893
 11
176.963791
 21
354.693893
  0
LINE
  5
2A9
100
AcDbEntity
  8
M0
100
AcDbLine
 10
174.773849
 20
353.493942
 11
176.593918
 21
353.493942
  0
LINE
  5
2AA
100
AcDbEntity
  8
M0
100
AcDbLine
 10
171.973801
 20
359.693893
 11
170.153732
 21
359.693893
  0
LINE
  5
2AB
100
AcDbEntity
  8
M0
100
AcDbLine
 10
171.05217
 20
358.493942
 11
169.783859
 21
358.493942
  0
LINE
  5
2AC
100
AcDbEntity
  8
M0
100
AcDbLine
 10
171.05217
 20
354.693893
 11
169.783859
 21
354.693893
  0
LINE
  5
2AD
100
AcDbEntity
  8
M0
100
AcDbLine
 10
171.973801
 20
353.493942
 11
170.153732
 21
353.493942
  0
LINE
  5
2AE
100
AcDbEntity
  8
M0
100
AcDbLine
 10
170.89299
 20
352.293991
 11
175.85466
 21
352.293991
  0
LINE
  5
2AF
100
AcDbEntity
  8
M0
100
AcDbLine
 10
177.148849
 20
355.293991
 11
177.148849
 21
357.893967
  0
LINE
  5
2B0
100
AcDbEntity
  8
M0
100
AcDbLine
 10
175.85466
 20
360.893967
 11
170.89299
 21
360.893951
  0
LINE
  5
2B1
100
AcDbEntity
  8
M0
100
AcDbLine
 10
169.598801
 20
357.893967
 11
169.598801
 21
355.293991
  0
LINE
  5
2B2
100
AcDbEntity
  8
M0
100
AcDbLine
 10
174.773849
 20
353.493942
 11
174.773849
 21
353.940598
  0
LINE
  5
2B3
100
AcDbEntity
  8
M0
100
AcDbLine
 10
174.773849
 20
359.247238
 11
174.773849
 21
359.693893
  0
LINE
  5
2B4
100
AcDbEntity
  8
M0
100
AcDbLine
 10
171.973801
 20
359.247238
 11
171.973801
 21
359.693893
  0
LINE
  5
2B5
100
AcDbEntity
  8
M0
100
AcDbLine
 10
171.973801
 20
353.493942
 11
171.973801
 21
353.940598
  0
LINE
  5
2B6
100
AcDbEntity
  8
M0
100
AcDbLine
 10
174.964523
 20
355.003098
 11
171.782883
 21
358.18486
  0
LINE
  5
2B7
100
AcDbEntity
  8
M0
100
AcDbLine
 10
173.727219
 20
358.008102
 11
171.959641
 21
356.240402
  0
LINE
  5
2B8
100
AcDbEntity
  8
M0
100
AcDbLine
 10
174.787766
 20
356.947433
 11
173.020187
 21
355.179855
  0
ARC
  5
2B9
100
AcDbEntity
  8
M0
100
AcDbCircle
 10
170.89299
 20
360.393951
 40
0.5
100
AcDbArc
 50
90.0
 51
162.872846
  0
ARC
  5
2BA
100
AcDbEntity
  8
M0
100
AcDbCircle
 10
170.89299
 20
352.793991
 40
0.5
100
AcDbArc
 50
197.127154
 51
269.998251
  0
ARC
  5
2BB
100
AcDbEntity
  8
M0
100
AcDbCircle
 10
175.85466
 20
352.793991
 40
0.5
100
AcDbArc
 50
269.998251
 51
342.861275
  0
ARC
  5
2BC
100
AcDbEntity
  8
M0
100
AcDbCircle
 10
175.85466
 20
360.393951
 40
0.5
100
AcDbArc
 50
17.13821
 51
90.0
  0
LINE
  5
2BD
100
AcDbEntity
  8
M0
100
AcDbLine
 10
170.414963
 20
351.041275
 11
169.598801
 21
348.393982
  0
LINE
  5
2BE
100
AcDbEntity
  8
M0
100
AcDbLine
 10
176.332443
 20
351.04129
 11
177.148849
 21
348.393982
  0
LINE
  5
2BF
100
AcDbEntity
  8
M0
100
AcDbLine
 10
174.773849
 20
350.193909
 11
176.593918
 21
350.193909
  0
LINE
  5
2C0
100
AcDbEntity
  8
M0
100
AcDbLine
 10
175.69548
 20
348.993958
 11
176.963791
 21
348.993958
  0
LINE
  5
2C1
100
AcDbEntity
  8
M0
100
AcDbLine
 10
171.973801
 20
350.193909
 11
170.153732
 21
350.193909
  0
LINE
  5
2C2
100
AcDbEntity
  8
M0
100
AcDbLine
 10
171.05217
 20
348.993958
 11
169.783859
 21
348.993958
  0
LINE
  5
2C3
100
AcDbEntity
  8
M0
100
AcDbLine
 10
175.85466
 20
351.393982
 11
170.89299
 21
351.393967
  0
LINE
  5
2C4
100
AcDbEntity
  8
M0
100
AcDbLine
 10
174.773849
 20
349.747253
 11
174.773849
 21
350.193909
  0
LINE
  5
2C5
100
AcDbEntity
  8
M0
100
AcDbLine
 10
171.973801
 20
349.747253
 11
171.973801
 21
350.193909
  0
ARC
  5
2C6
100
AcDbEntity
  8
M0
100
AcDbCircle
 10
170.89299
 20
350.893967
 40
0.5
100
AcDbArc
 50
90.0
 51
162.872846
  0
ARC
  5
2C7
100
AcDbEntity
  8
M0
100
AcDbCircle
 10
175.85466
 20
350.893967
 40
0.5
100
AcDbArc
 50
17.13821
 51
90.0
  0
LINE
  5
2C8
100
AcDbEntity
  8
M0
 62
     5
100
AcDbLine
 10
169.423508
 20
321.878632
 11
177.073166
 21
327.137665
  0
LINE
  5
2C9
100
AcDbEntity
  8
M0
 62
     6
100
AcDbLine
 10
93.873962
 20
337.593658
 11
95.373962
 21
337.593658
  0
LINE
  5
2CA
100
AcDbEntity
  8
M0
 62
     6
100
AcDbLine
 10
93.373962
 20
340.593658
 11
105.373962
 21
340.593658
  0
LINE
  5
2CB
100
AcDbEntity
  8
M0
 62
     6
100
AcDbLine
 10
97.373962
 20
341.593658
 11
105.373962
 21
341.593658
  0
LINE
  5
2CC
100
AcDbEntity
  8
M0
 62
     6
100
AcDbLine
 10
97.373962
 20
343.093658
 11
98.431335
 21
343.093658
  0
LINE
  5
2CD
100
AcDbEntity
  8
M0
 62
     6
100
AcDbLine
 10
95.873962
 20
338.093658
 11
95.873962
 21
340.593658
  0
ARC
  5
2CE
100
AcDbEntity
  8
M0
 62
     6
100
AcDbCircle
 10
95.373962
 20
338.093658
 40
0.5
100
AcDbArc
 50
-90.0
 51
0.0
  0
ARC
  5
2CF
100
AcDbEntity
  8
M0
 62
     6
100
AcDbCircle
 10
93.873962
 20
338.093658
 40
0.5
100
AcDbArc
 50
179.998251
 51
270.0
  0
LINE
  5
2D0
100
AcDbEntity
  8
M0
 62
     6
100
AcDbLine
 10
93.373962
 20
340.593658
 11
97.373962
 21
340.593658
  0
ARC
  5
2D1
100
AcDbEntity
  8
M0
 62
     6
100
AcDbCircle
 10
96.873962
 20
341.093658
 40
0.5
100
AcDbArc
 50
-90.0
 51
0.0
  0
LINE
  5
2D2
100
AcDbEntity
  8
M0
 62
     6
100
AcDbLine
 10
180.873947
 20
337.593903
 11
179.373947
 21
337.593903
  0
LINE
  5
2D3
100
AcDbEntity
  8
M0
 62
     6
100
AcDbLine
 10
177.873947
 20
340.593887
 11
169.373947
 21
340.593903
  0
LINE
  5
2D4
100
AcDbEntity
  8
M0
 62
     6
100
AcDbLine
 10
177.373947
 20
341.593903
 11
169.373947
 21
341.593903
  0
LINE
  5
2D5
100
AcDbEntity
  8
M0
 62
     6
100
AcDbLine
 10
177.373947
 20
343.093903
 11
176.316086
 21
343.093887
  0
LINE
  5
2D6
100
AcDbEntity
  8
M0
 62
     6
100
AcDbLine
 10
178.873947
 20
338.093903
 11
178.873947
 21
340.593903
  0
ARC
  5
2D7
100
AcDbEntity
  8
M0
 62
     6
100
AcDbCircle
 10
179.373947
 20
338.093903
 40
0.5
100
AcDbArc
 50
179.998251
 51
269.998251
  0
ARC
  5
2D8
100
AcDbEntity
  8
M0
 62
     6
100
AcDbCircle
 10
180.873947
 20
338.093903
 40
0.5
100
AcDbArc
 50
269.998251
 51
360.0
  0
LINE
  5
2D9
100
AcDbEntity
  8
M0
 62
     6
100
AcDbLine
 10
181.373947
 20
340.593903
 11
177.373947
 21
340.593903
  0
ARC
  5
2DA
100
AcDbEntity
  8
M0
 62
     6
100
AcDbCircle
 10
177.873947
 20
341.093903
 40
0.5
100
AcDbArc
 50
179.998251
 51
269.998251
  0
LINE
  5
2DB
100
AcDbEntity
  8
M0
 62
     6
100
AcDbLine
 10
104.316345
 20
343.093658
 11
105.373962
 21
343.093658
  0
LINE
  5
2DC
100
AcDbEntity
  8
M0
 62
     6
100
AcDbLine
 10
170.431076
 20
343.093887
 11
169.373947
 21
343.093903
  0
ARC
  5
2DD
100
AcDbEntity
  8
M0
 62
     7
100
AcDbCircle
 10
129.873961
 20
333.59346
 40
0.5
100
AcDbArc
 50
179.998251
 51
270.0
  0
LINE
  5
2DE
100
AcDbEntity
  8
M0
 62
     7
100
AcDbLine
 10
131.873961
 20
333.093445
 11
129.873961
 21
333.093445
  0
LINE
  5
2DF
100
AcDbEntity
  8
M0
 62
     7
100
AcDbLine
 10
105.873962
 20
334.59343
 11
137.374557
 21
334.59343
  0
ARC
  5
2E0
100
AcDbEntity
  8
M0
 62
     7
100
AcDbCircle
 10
105.873962
 20
335.09343
 40
0.5
100
AcDbArc
 50
179.998251
 51
270.0
  0
ARC
  5
2E1
100
AcDbEntity
  8
M0
 62
     7
100
AcDbCircle
 10
168.873947
 20
335.09343
 40
0.5
100
AcDbArc
 50
269.998251
 51
360.0
  0
LINE
  5
2E2
100
AcDbEntity
  8
M0
 62
     7
100
AcDbLine
 10
129.373961
 20
333.59346
 11
129.373961
 21
334.593445
  0
ARC
  5
2E3
100
AcDbEntity
  8
M0
 62
     7
100
AcDbCircle
 10
131.873961
 20
333.59346
 40
0.5
100
AcDbArc
 50
-90.0
 51
0.0
  0
LINE
  5
2E4
100
AcDbEntity
  8
M0
 62
     7
100
AcDbLine
 10
132.373961
 20
333.59346
 11
132.373961
 21
334.593445
  0
LINE
  5
2E5
100
AcDbEntity
  8
M0
100
AcDbLine
 10
102.773865
 20
343.993683
 11
104.593933
 21
343.993683
  0
LINE
  5
2E6
100
AcDbEntity
  8
M0
100
AcDbLine
 10
99.973816
 20
343.993683
 11
98.153748
 21
343.993683
  0
LINE
  5
2E7
100
AcDbEntity
  8
M0
100
AcDbLine
 10
98.893005
 20
342.793732
 11
103.854675
 21
342.793732
  0
LINE
  5
2E8
100
AcDbEntity
  8
M0
100
AcDbLine
 10
102.773865
 20
343.993683
 11
102.773865
 21
344.440338
  0
LINE
  5
2E9
100
AcDbEntity
  8
M0
100
AcDbLine
 10
99.973816
 20
343.993683
 11
99.973816
 21
344.440338
  0
ARC
  5
2EA
100
AcDbEntity
  8
M0
100
AcDbCircle
 10
98.893005
 20
343.293732
 40
0.5
100
AcDbArc
 50
197.127669
 51
270.0
  0
ARC
  5
2EB
100
AcDbEntity
  8
M0
100
AcDbCircle
 10
103.854675
 20
343.293732
 40
0.5
100
AcDbArc
 50
270.0
 51
342.86179
  0
LINE
  5
2EC
100
AcDbEntity
  8
M0
100
AcDbLine
 10
174.773849
 20
343.993958
 11
176.593918
 21
343.993958
  0
LINE
  5
2ED
100
AcDbEntity
  8
M0
100
AcDbLine
 10
171.973801
 20
343.993958
 11
170.153732
 21
343.993958
  0
LINE
  5
2EE
100
AcDbEntity
  8
M0
100
AcDbLine
 10
170.89299
 20
342.794006
 11
175.85466
 21
342.794006
  0
LINE
  5
2EF
100
AcDbEntity
  8
M0
100
AcDbLine
 10
174.773849
 20
343.993958
 11
174.773849
 21
344.440613
  0
LINE
  5
2F0
100
AcDbEntity
  8
M0
100
AcDbLine
 10
171.973801
 20
343.993958
 11
171.973801
 21
344.440613
  0
ARC
  5
2F1
100
AcDbEntity
  8
M0
100
AcDbCircle
 10
170.89299
 20
343.294006
 40
0.5
100
AcDbArc
 50
197.127154
 51
269.998251
  0
ARC
  5
2F2
100
AcDbEntity
  8
M0
100
AcDbCircle
 10
175.85466
 20
343.294006
 40
0.5
100
AcDbArc
 50
269.998251
 51
342.861275
  0
LINE
  5
2F3
100
AcDbEntity
  8
M0
 62
     5
100
AcDbLine
 10
178.373703
 20
339.593689
 11
178.373703
 21
329.60997
  0
ARC
  5
2F4
100
AcDbEntity
  8
M0
 62
     5
100
AcDbCircle
 10
175.373703
 20
329.60997
 40
3.0
100
AcDbArc
 50
304.507247
 51
360.0
  0
ARC
  5
2F5
100
AcDbEntity
  8
M0
 62
     5
100
AcDbCircle
 10
170.373703
 20
328.093857
 40
2.249998
100
AcDbArc
 50
245.020289
 51
474.979547
  0
LINE
  5
2F6
100
AcDbEntity
  8
M0
  6
DASHDOT
 62
     5
100
AcDbLine
 10
175.193954
 20
328.093857
 11
166.293137
 21
328.093857
  0
LINE
  5
2F7
100
AcDbEntity
  8
M0
 62
     5
100
AcDbLine
 10
181.373703
 20
340.593689
 11
169.373703
 21
340.593689
  0
LINE
  5
2F8
100
AcDbEntity
  8
M0
 62
     5
100
AcDbLine
 10
178.873703
 20
339.593674
 11
178.373703
 21
339.593689
  0
ARC
  5
2F9
100
AcDbEntity
  8
M0
 62
     5
100
AcDbCircle
 10
93.873474
 20
329.593689
 40
0.5
100
AcDbArc
 50
179.998251
 51
270.0
  0
LINE
  5
2FA
100
AcDbEntity
  8
M0
 62
     5
100
AcDbLine
 10
97.373718
 20
329.093689
 11
97.373718
 21
340.593658
  0
LINE
  5
2FB
100
AcDbEntity
  8
M0
 62
     5
100
AcDbLine
 10
93.873474
 20
329.093689
 11
97.373718
 21
329.093689
  0
LINE
  5
2FC
100
AcDbEntity
  8
M0
 62
     5
100
AcDbLine
 10
97.373718
 20
340.093689
 11
105.373962
 21
340.093689
  0
LINE
  5
2FD
100
AcDbEntity
  8
M0
 62
     5
100
AcDbLine
 10
97.373718
 20
330.593689
 11
105.373962
 21
330.593689
  0
CIRCLE
  5
2FE
100
AcDbEntity
  8
M0
100
AcDbCircle
 10
101.373718
 20
335.093674
 40
3.0
  0
LINE
  5
2FF
100
AcDbEntity
  8
M0
100
AcDbLine
 10
98.414734
 20
339.041016
 11
97.598572
 21
336.393723
  0
LINE
  5
300
100
AcDbEntity
  8
M0
100
AcDbLine
 10
98.414734
 20
331.146423
 11
97.598572
 21
333.793747
  0
LINE
  5
301
100
AcDbEntity
  8
M0
100
AcDbLine
 10
104.332214
 20
339.041031
 11
105.148621
 21
336.393723
  0
LINE
  5
302
100
AcDbEntity
  8
M0
100
AcDbLine
 10
104.332214
 20
331.146408
 11
105.148621
 21
333.793747
  0
LINE
  5
303
100
AcDbEntity
  8
M0
100
AcDbLine
 10
102.773621
 20
338.193649
 11
104.593689
 21
338.193649
  0
LINE
  5
304
100
AcDbEntity
  8
M0
100
AcDbLine
 10
103.695251
 20
336.993698
 11
104.963562
 21
336.993698
  0
LINE
  5
305
100
AcDbEntity
  8
M0
100
AcDbLine
 10
103.695251
 20
333.193649
 11
104.963562
 21
333.193649
  0
LINE
  5
306
100
AcDbEntity
  8
M0
100
AcDbLine
 10
102.773621
 20
331.993698
 11
104.593689
 21
331.993698
  0
LINE
  5
307
100
AcDbEntity
  8
M0
100
AcDbLine
 10
99.973572
 20
338.193649
 11
98.153503
 21
338.193649
  0
LINE
  5
308
100
AcDbEntity
  8
M0
100
AcDbLine
 10
99.051941
 20
336.993698
 11
97.78363
 21
336.993698
  0
LINE
  5
309
100
AcDbEntity
  8
M0
100
AcDbLine
 10
99.051941
 20
333.193649
 11
97.78363
 21
333.193649
  0
LINE
  5
30A
100
AcDbEntity
  8
M0
100
AcDbLine
 10
99.973572
 20
331.993698
 11
98.153503
 21
331.993698
  0
LINE
  5
30B
100
AcDbEntity
  8
M0
100
AcDbLine
 10
98.892761
 20
330.793747
 11
103.854431
 21
330.793747
  0
LINE
  5
30C
100
AcDbEntity
  8
M0
100
AcDbLine
 10
105.148621
 20
333.793747
 11
105.148621
 21
336.393723
  0
LINE
  5
30D
100
AcDbEntity
  8
M0
100
AcDbLine
 10
103.854431
 20
339.393723
 11
98.892761
 21
339.393707
  0
LINE
  5
30E
100
AcDbEntity
  8
M0
100
AcDbLine
 10
97.598572
 20
336.393723
 11
97.598572
 21
333.793747
  0
LINE
  5
30F
100
AcDbEntity
  8
M0
  6
DASHDOT
100
AcDbLine
 10
95.098572
 20
335.093674
 11
107.648621
 21
335.093674
  0
LINE
  5
310
100
AcDbEntity
  8
M0
100
AcDbLine
 10
102.773621
 20
331.993698
 11
102.773621
 21
332.440353
  0
LINE
  5
311
100
AcDbEntity
  8
M0
100
AcDbLine
 10
102.773621
 20
337.746994
 11
102.773621
 21
338.193649
  0
LINE
  5
312
100
AcDbEntity
  8
M0
100
AcDbLine
 10
99.973572
 20
337.746994
 11
99.973572
 21
338.193649
  0
LINE
  5
313
100
AcDbEntity
  8
M0
100
AcDbLine
 10
99.973572
 20
331.993698
 11
99.973572
 21
332.440353
  0
LINE
  5
314
100
AcDbEntity
  8
M0
100
AcDbLine
 10
102.964294
 20
333.502853
 11
99.782654
 21
336.684616
  0
LINE
  5
315
100
AcDbEntity
  8
M0
100
AcDbLine
 10
101.72699
 20
336.507858
 11
99.959412
 21
334.740158
  0
LINE
  5
316
100
AcDbEntity
  8
M0
100
AcDbLine
 10
102.787537
 20
335.447189
 11
101.019958
 21
333.679611
  0
ARC
  5
317
100
AcDbEntity
  8
M0
100
AcDbCircle
 10
98.892761
 20
338.893707
 40
0.5
100
AcDbArc
 50
89.998251
 51
162.872331
  0
ARC
  5
318
100
AcDbEntity
  8
M0
100
AcDbCircle
 10
98.892761
 20
331.293747
 40
0.5
100
AcDbArc
 50
197.127669
 51
270.0
  0
ARC
  5
319
100
AcDbEntity
  8
M0
100
AcDbCircle
 10
103.854431
 20
331.293747
 40
0.5
100
AcDbArc
 50
270.0
 51
342.86179
  0
ARC
  5
31A
100
AcDbEntity
  8
M0
100
AcDbCircle
 10
103.854431
 20
338.893707
 40
0.5
100
AcDbArc
 50
17.137695
 51
89.998251
  0
LINE
  5
31B
100
AcDbEntity
  8
M0
  6
DASHDOT
100
AcDbLine
 10
159.373703
 20
334.593674
 11
177.509323
 21
334.593674
  0
LINE
  5
31C
100
AcDbEntity
  8
M0
  6
DASHDOT
 62
     6
100
AcDbLine
 10
95.050125
 20
347.093658
 11
108.047897
 21
347.093658
  0
LINE
  5
31D
100
AcDbEntity
  8
M0
 62
     6
100
AcDbLine
 10
97.373962
 20
348.093658
 11
97.873962
 21
349.593658
  0
LINE
  5
31E
100
AcDbEntity
  8
M0
 62
     6
100
AcDbLine
 10
105.373962
 20
348.093658
 11
104.873962
 21
349.593658
  0
LINE
  5
31F
100
AcDbEntity
  8
M0
  6
DASHDOT
 62
     6
100
AcDbLine
 10
179.725952
 20
347.093903
 11
166.474411
 21
347.093903
  0
LINE
  5
320
100
AcDbEntity
  8
M0
 62
     6
100
AcDbLine
 10
177.373947
 20
348.093903
 11
176.873947
 21
349.593903
  0
LINE
  5
321
100
AcDbEntity
  8
M0
 62
     6
100
AcDbLine
 10
169.373947
 20
348.093903
 11
169.873947
 21
349.593903
  0
LINE
  5
322
100
AcDbEntity
  8
M0
 62
     7
100
AcDbLine
 10
169.373947
 20
335.093414
 11
169.373947
 21
360.893402
  0
LINE
  5
323
100
AcDbEntity
  8
M0
 62
     7
100
AcDbLine
 10
105.373962
 20
360.893372
 11
105.373962
 21
335.09343
  0
CIRCLE
  5
324
100
AcDbEntity
  8
M0
100
AcDbCircle
 10
101.373962
 20
347.093658
 40
3.0
  0
LINE
  5
325
100
AcDbEntity
  8
M0
100
AcDbLine
 10
98.414978
 20
343.146408
 11
97.598816
 21
345.793732
  0
LINE
  5
326
100
AcDbEntity
  8
M0
100
AcDbLine
 10
104.332458
 20
343.146393
 11
105.148865
 21
345.793732
  0
LINE
  5
327
100
AcDbEntity
  8
M0
100
AcDbLine
 10
103.695496
 20
345.193634
 11
104.963806
 21
345.193634
  0
LINE
  5
328
100
AcDbEntity
  8
M0
100
AcDbLine
 10
99.052185
 20
345.193634
 11
97.783875
 21
345.193634
  0
LINE
  5
329
100
AcDbEntity
  8
M0
100
AcDbLine
 10
105.148865
 20
345.793732
 11
105.148865
 21
348.393707
  0
LINE
  5
32A
100
AcDbEntity
  8
M0
100
AcDbLine
 10
97.598816
 20
348.393707
 11
97.598816
 21
345.793732
  0
LINE
  5
32B
100
AcDbEntity
  8
M0
100
AcDbLine
 10
102.964539
 20
345.502838
 11
99.782898
 21
348.684601
  0
LINE
  5
32C
100
AcDbEntity
  8
M0
100
AcDbLine
 10
101.727234
 20
348.507843
 11
99.959656
 21
346.740143
  0
LINE
  5
32D
100
AcDbEntity
  8
M0
100
AcDbLine
 10
102.787781
 20
347.447174
 11
101.020203
 21
345.679596
  0
CIRCLE
  5
32E
100
AcDbEntity
  8
M0
100
AcDbCircle
 10
173.373947
 20
347.093933
 40
3.0
  0
LINE
  5
32F
100
AcDbEntity
  8
M0
100
AcDbLine
 10
170.414963
 20
343.146683
 11
169.598801
 21
345.794006
  0
LINE
  5
330
100
AcDbEntity
  8
M0
100
AcDbLine
 10
176.332443
 20
343.146667
 11
177.148849
 21
345.794006
  0
LINE
  5
331
100
AcDbEntity
  8
M0
100
AcDbLine
 10
175.69548
 20
345.193909
 11
176.963791
 21
345.193909
  0
LINE
  5
332
100
AcDbEntity
  8
M0
100
AcDbLine
 10
171.05217
 20
345.193909
 11
169.783859
 21
345.193909
  0
LINE
  5
333
100
AcDbEntity
  8
M0
100
AcDbLine
 10
177.148849
 20
345.794006
 11
177.148849
 21
348.393982
  0
LINE
  5
334
100
AcDbEntity
  8
M0
100
AcDbLine
 10
169.598801
 20
348.393982
 11
169.598801
 21
345.794006
  0
LINE
  5
335
100
AcDbEntity
  8
M0
100
AcDbLine
 10
174.964523
 20
345.503113
 11
171.782883
 21
348.684875
  0
LINE
  5
336
100
AcDbEntity
  8
M0
100
AcDbLine
 10
173.727219
 20
348.508118
 11
171.959641
 21
346.740417
  0
LINE
  5
337
100
AcDbEntity
  8
M0
100
AcDbLine
 10
174.787766
 20
347.447449
 11
173.020187
 21
345.679871
  0
LINE
  5
338
100
AcDbEntity
  8
M0
  6
DASHDOT
100
AcDbLine
 10
101.373718
 20
328.293762
 11
101.373718
 21
362.560486
  0
ARC
  5
339
100
AcDbEntity
  8
M0
 62
     6
100
AcDbCircle
 10
105.873962
 20
319.594376
 40
0.5
100
AcDbArc
 50
179.998251
 51
270.0
  0
ARC
  5
33A
100
AcDbEntity
  8
M0
 62
     6
100
AcDbCircle
 10
108.623962
 20
319.594376
 40
0.5
100
AcDbArc
 50
270.0
 51
360.0
  0
ARC
  5
33B
100
AcDbEntity
  8
M0
 62
     6
100
AcDbCircle
 10
168.873947
 20
319.594635
 40
0.5
100
AcDbArc
 50
269.998251
 51
360.0
  0
LINE
  5
33C
100
AcDbEntity
  8
M0
 62
     6
100
AcDbLine
 10
125.623962
 20
319.09433
 11
105.873962
 21
319.094376
  0
LINE
  5
33D
100
AcDbEntity
  8
M0
 62
     6
100
AcDbLine
 10
109.123962
 20
319.59436
 11
109.123962
 21
334.59343
  0
LINE
  5
33E
100
AcDbEntity
  8
M0
  6
DASHDOT
 62
     5
100
AcDbLine
 10
170.373703
 20
333.102737
 11
170.373703
 21
323.059753
  0
LINE
  5
33F
100
AcDbEntity
  8
M0
 62
     6
100
AcDbLine
 10
105.373962
 20
360.893372
 11
105.373962
 21
319.594376
  0
LINE
  5
340
100
AcDbEntity
  8
M0
 62
     6
100
AcDbLine
 10
169.373947
 20
360.893402
 11
169.373947
 21
319.594635
  0
LINE
  5
341
100
AcDbEntity
  8
M0
  6
DASHDOT
100
AcDbLine
 10
172.873703
 20
329.916748
 11
172.873703
 21
338.980743
  0
LINE
  5
342
100
AcDbEntity
  8
M0
  6
DASHDOT
100
AcDbLine
 10
173.373703
 20
341.31633
 11
173.373703
 21
363.793152
  0
LINE
  5
343
100
AcDbEntity
  8
M0
 62
     6
100
AcDbLine
 10
129.123961
 20
319.094635
 11
137.373672
 21
319.094635
  0
LINE
  5
344
100
AcDbEntity
  8
M0
 62
     6
100
AcDbLine
 10
167.873611
 20
319.094635
 11
168.873947
 21
319.094635
  0
LINE
  5
345
100
AcDbEntity
  8
M0
 62
     6
100
AcDbLine
 10
93.373962
 20
370.843656
 11
96.573914
 21
370.843656
  0
LINE
  5
346
100
AcDbEntity
  8
M0
 62
     6
100
AcDbLine
 10
96.573914
 20
370.843656
 11
96.573914
 21
363.343658
  0
LINE
  5
347
100
AcDbEntity
  8
M0
 62
     6
100
AcDbLine
 10
96.573914
 20
370.843656
 11
97.373962
 21
371.793607
  0
LINE
  5
348
100
AcDbEntity
  8
M0
 62
     6
100
AcDbLine
 10
181.373947
 20
370.843411
 11
178.173752
 21
370.843411
  0
LINE
  5
349
100
AcDbEntity
  8
M0
 62
     6
100
AcDbLine
 10
178.173752
 20
370.843411
 11
178.173752
 21
363.343903
  0
LINE
  5
34A
100
AcDbEntity
  8
M0
 62
     6
100
AcDbLine
 10
178.173752
 20
370.843411
 11
177.373947
 21
371.793363
  0
CIRCLE
  5
34B
100
AcDbEntity
  8
M0
 62
     7
100
AcDbCircle
 10
103.373962
 20
367.093427
 40
3.249996
  0
CIRCLE
  5
34C
100
AcDbEntity
  8
M0
 62
     7
100
AcDbCircle
 10
171.373947
 20
367.093427
 40
3.249996
  0
LINE
  5
34D
100
AcDbEntity
  8
M0
 62
     7
100
AcDbLine
 10
126.073914
 20
374.393186
 11
126.073914
 21
364.093411
  0
CIRCLE
  5
34E
100
AcDbEntity
  8
M0
100
AcDbCircle
 10
171.373459
 20
367.093656
 40
2.749996
  0
CIRCLE
  5
34F
100
AcDbEntity
  8
M0
100
AcDbCircle
 10
171.373459
 20
367.093656
 40
3.0
  0
LINE
  5
350
100
AcDbEntity
  8
M0
100
AcDbLine
 10
169.959152
 20
368.507718
 11
172.787521
 21
365.679349
  0
LINE
  5
351
100
AcDbEntity
  8
M0
100
AcDbLine
 10
171.868088
 20
368.719876
 11
169.74675
 21
366.598538
  0
LINE
  5
352
100
AcDbEntity
  8
M0
100
AcDbLine
 10
172.99968
 20
367.588284
 11
170.878342
 21
365.466947
  0
CIRCLE
  5
353
100
AcDbEntity
  8
M0
100
AcDbCircle
 10
103.373718
 20
367.093656
 40
2.749996
  0
CIRCLE
  5
354
100
AcDbEntity
  8
M0
100
AcDbCircle
 10
103.373718
 20
367.093656
 40
3.0
  0
LINE
  5
355
100
AcDbEntity
  8
M0
100
AcDbLine
 10
101.959412
 20
368.507718
 11
104.787781
 21
365.679349
  0
LINE
  5
356
100
AcDbEntity
  8
M0
100
AcDbLine
 10
103.868347
 20
368.719876
 11
101.747009
 21
366.598538
  0
LINE
  5
357
100
AcDbEntity
  8
M0
100
AcDbLine
 10
104.999939
 20
367.588284
 11
102.878601
 21
365.466947
  0
LINE
  5
358
100
AcDbEntity
  8
M0
100
AcDbLine
 10
134.373961
 20
367.243329
 11
137.373672
 21
367.243329
  0
LINE
  5
359
100
AcDbEntity
  8
M0
100
AcDbLine
 10
134.373961
 20
371.743329
 11
134.373961
 21
367.243329
  0
LINE
  5
35A
100
AcDbEntity
  8
M0
 62
     7
100
AcDbLine
 10
176.873947
 20
361.893387
 11
176.873947
 21
372.293408
  0
LINE
  5
35B
100
AcDbEntity
  8
M0
 62
     7
100
AcDbLine
 10
97.873962
 20
372.293424
 11
97.873962
 21
361.893372
  0
LINE
  5
35C
100
AcDbEntity
  8
M0
  6
DASHDOT
100
AcDbLine
 10
171.373459
 20
361.393539
 11
171.373459
 21
372.792951
  0
LINE
  5
35D
100
AcDbEntity
  8
M0
  6
DASHDOT
100
AcDbLine
 10
103.373718
 20
361.393539
 11
103.373718
 21
372.793439
  0
LINE
  5
35E
100
AcDbEntity
  8
M0
 62
     5
100
AcDbLine
 10
93.373474
 20
394.593472
 11
93.373474
 21
329.593689
  0
LINE
  5
35F
100
AcDbEntity
  8
M0
 62
     5
100
AcDbLine
 10
181.373703
 20
339.593674
 11
181.373703
 21
404.593216
  0
LINE
  5
360
100
AcDbEntity
  8
M0
 62
     6
100
AcDbLine
 10
97.373962
 20
393.093472
 11
97.373962
 21
341.093658
  0
LINE
  5
361
100
AcDbEntity
  8
M0
 62
     6
100
AcDbLine
 10
177.373947
 20
393.093227
 11
177.373947
 21
341.093903
  0
LINE
  5
362
100
AcDbEntity
  8
M0
 62
     6
100
AcDbLine
 10
93.373718
 20
396.093216
 11
93.373718
 21
338.093903
  0
LINE
  5
363
100
AcDbEntity
  8
M0
 62
     6
100
AcDbLine
 10
181.373947
 20
396.092972
 11
181.373947
 21
338.094147
  0
LINE
  5
364
100
AcDbEntity
  8
M0
  6
DASHDOT
100
AcDbLine
 10
101.373718
 20
371.153333
 11
101.373718
 21
394.394253
  0
LINE
  5
365
100
AcDbEntity
  8
M0
  6
DASHDOT
100
AcDbLine
 10
171.373703
 20
330.605606
 11
171.373703
 21
339.016998
  0
LINE
  5
366
100
AcDbEntity
  8
M0
100
AcDbLine
 10
171.373703
 20
336.893661
 11
172.873703
 21
336.893661
  0
LINE
  5
367
100
AcDbEntity
  8
M0
100
AcDbLine
 10
171.373703
 20
332.293671
 11
172.873703
 21
332.293671
  0
ARC
  5
368
100
AcDbEntity
  8
M0
100
AcDbCircle
 10
172.873703
 20
334.593674
 40
2.299998
100
AcDbArc
 50
269.99962
 51
450.0
  0
ARC
  5
369
100
AcDbEntity
  8
M0
100
AcDbCircle
 10
171.373703
 20
334.593674
 40
2.299998
100
AcDbArc
 50
90.0
 51
150.395947
  0
ARC
  5
36A
100
AcDbEntity
  8
M0
100
AcDbCircle
 10
171.373703
 20
334.593674
 40
2.299998
100
AcDbArc
 50
209.60391
 51
269.99962
  0
LINE
  5
36B
100
AcDbEntity
  8
M0
 62
     7
100
AcDbLine
 10
167.873611
 20
334.59343
 11
168.873947
 21
334.59343
  0
LINE
  5
36C
100
AcDbEntity
  8
M0
 62
     7
100
AcDbLine
 10
145.673431
 20
361.09343
 11
145.373383
 21
361.09343
  0
LINE
  5
36D
100
AcDbEntity
  8
M0
 62
     7
100
AcDbLine
 10
145.373383
 20
361.09343
 11
145.373383
 21
357.09343
  0
ARC
  5
36E
100
AcDbEntity
  8
M0
 62
     7
100
AcDbCircle
 10
145.673431
 20
364.093416
 40
3.0
100
AcDbArc
 50
-90.000291
 51
0.0
  0
LINE
  5
36F
100
AcDbEntity
  8
M0
 62
     7
100
AcDbLine
 10
148.673416
 20
374.393191
 11
148.673431
 21
364.093417
  0
LINE
  5
370
100
AcDbEntity
  8
M0
100
AcDbLine
 10
140.37338
 20
371.743331
 11
140.373382
 21
367.243331
  0
LINE
  5
371
100
AcDbEntity
  8
M0
100
AcDbLine
 10
140.373382
 20
367.243331
 11
137.373672
 21
367.243329
  0
LINE
  5
372
100
AcDbEntity
  8
M0
 62
     7
100
AcDbLine
 10
168.873398
 20
334.593445
 11
137.372805
 21
334.59343
  0
LINE
  5
373
100
AcDbEntity
  8
M0
  6
DASHDOT
 62
     6
100
AcDbLine
 10
179.725952
 20
356.59375
 11
166.474411
 21
356.59375
  0
LINE
  5
374
100
AcDbEntity
  8
M0
 62
     6
100
AcDbLine
 10
126.123947
 20
314.094101
 11
128.623947
 21
314.094101
  0
ARC
  5
375
100
AcDbEntity
  8
M0
 62
     6
100
AcDbCircle
 10
126.123947
 20
314.594101
 40
0.5
100
AcDbArc
 50
180.0
 51
269.998251
  0
ARC
  5
376
100
AcDbEntity
  8
M0
 62
     6
100
AcDbCircle
 10
128.623947
 20
314.594101
 40
0.5
100
AcDbArc
 50
269.998251
 51
360.0
  0
LINE
  5
377
100
AcDbEntity
  8
M0
 62
     6
100
AcDbLine
 10
129.123947
 20
314.594086
 11
129.123947
 21
334.593872
  0
LINE
  5
378
100
AcDbEntity
  8
M0
 62
     6
100
AcDbLine
 10
125.623947
 20
314.594101
 11
125.623947
 21
334.593872
  0
LINE
  5
379
100
AcDbEntity
  8
M0
 62
     6
100
AcDbLine
 10
149.123398
 20
314.594116
 11
149.123398
 21
334.593887
  0
LINE
  5
37A
100
AcDbEntity
  8
M0
  6
DASHDOT
100
AcDbLine
 10
167.672662
 20
327.09433
 11
148.23957
 21
327.094342
  0
LINE
  5
37B
100
AcDbEntity
  8
M0
  6
DASHDOT
100
AcDbLine
 10
147.671853
 20
327.09433
 11
128.238762
 21
327.094342
  0
LINE
  5
37C
100
AcDbEntity
  8
M0
 62
     1
100
AcDbLine
 10
145.623688
 20
415.093216
 11
137.373183
 21
415.092972
  0
LINE
  5
37D
100
AcDbEntity
  8
M0
 62
     1
100
AcDbLine
 10
145.623688
 20
419.593689
 11
145.623672
 21
399.593933
  0
LINE
  5
37E
100
AcDbEntity
  8
M0
 62
     1
100
AcDbLine
 10
148.623688
 20
420.093933
 11
146.123688
 21
420.093933
  0
LINE
  5
37F
100
AcDbEntity
  8
M0
 62
     1
100
AcDbLine
 10
149.123688
 20
415.093216
 11
167.873611
 21
415.093155
  0
LINE
  5
380
100
AcDbEntity
  8
M0
 62
     1
100
AcDbLine
 10
165.623688
 20
415.093933
 11
165.623688
 21
399.593201
  0
LINE
  5
381
100
AcDbEntity
  8
M0
 62
     1
100
AcDbLine
 10
149.123688
 20
419.593689
 11
149.123688
 21
399.593201
  0
ARC
  5
382
100
AcDbEntity
  8
M0
 62
     1
100
AcDbCircle
 10
164.623657
 20
399.593948
 40
1.0
100
AcDbArc
 50
-14.520977
 51
0.0
  0
ARC
  5
383
100
AcDbEntity
  8
M0
 62
     1
100
AcDbCircle
 10
150.123672
 20
399.593948
 40
1.0
100
AcDbArc
 50
180.0
 51
194.521604
  0
LINE
  5
384
100
AcDbEntity
  8
M0
 62
     1
100
AcDbLine
 10
145.623688
 20
419.593689
 11
145.623688
 21
399.593201
  0
ARC
  5
385
100
AcDbEntity
  8
M0
 62
     1
100
AcDbCircle
 10
144.623672
 20
399.593948
 40
1.0
100
AcDbArc
 50
-14.520977
 51
0.0
  0
LINE
  5
386
100
AcDbEntity
  8
M0
 62
     1
100
AcDbLine
 10
145.623688
 20
319.095169
 11
137.373183
 21
319.094681
  0
LINE
  5
387
100
AcDbEntity
  8
M0
 62
     1
100
AcDbLine
 10
145.623688
 20
314.594421
 11
145.623672
 21
334.594437
  0
LINE
  5
388
100
AcDbEntity
  8
M0
 62
     1
100
AcDbLine
 10
148.623688
 20
314.094437
 11
146.123688
 21
314.094421
  0
LINE
  5
389
100
AcDbEntity
  8
M0
 62
     1
100
AcDbLine
 10
149.123688
 20
319.095169
 11
167.873611
 21
319.095108
  0
ARC
  5
38A
100
AcDbEntity
  8
M0
 62
     1
100
AcDbCircle
 10
164.623657
 20
334.594437
 40
1.0
100
AcDbArc
 50
0.0
 51
29.967834
  0
LINE
  5
38B
100
AcDbEntity
  8
M0
  6
DASHDOT
 62
     1
100
AcDbLine
 10
137.373658
 20
420.140045
 11
137.373672
 21
367.093948
  0
LINE
  5
38C
100
AcDbEntity
  8
M0
  6
DASHDOT
 62
     1
100
AcDbLine
 10
137.373672
 20
367.094193
 11
137.373183
 21
367.093704
  0
ARC
  5
38D
100
AcDbEntity
  8
M0
 62
     1
100
AcDbCircle
 10
146.123688
 20
314.594421
 40
0.5
100
AcDbArc
 50
180.0
 51
269.998251
  0
ARC
  5
38E
100
AcDbEntity
  8
M0
 62
     1
100
AcDbCircle
 10
148.623688
 20
314.594421
 40
0.5
100
AcDbArc
 50
269.998251
 51
360.0
  0
LINE
  5
38F
100
AcDbEntity
  8
M0
  6
DIVIDE
 62
     1
100
AcDbLine
 10
137.373183
 20
367.093704
 11
137.373672
 21
367.094193
  0
LINE
  5
390
100
AcDbEntity
  8
M0
  6
DASHDOT
 62
     1
100
AcDbLine
 10
167.873611
 20
347.094376
 11
165.623657
 21
347.094437
  0
ARC
  5
391
100
AcDbEntity
  8
M0
 62
     1
100
AcDbCircle
 10
148.623688
 20
419.593689
 40
0.5
100
AcDbArc
 50
0.0
 51
90.0
  0
ARC
  5
392
100
AcDbEntity
  8
M0
 62
     1
100
AcDbCircle
 10
146.123688
 20
419.593689
 40
0.5
100
AcDbArc
 50
90.0
 51
180.0
  0
LINE
  5
393
100
AcDbEntity
  8
M0
  6
DASHDOT
 62
     1
100
AcDbLine
 10
137.373672
 20
367.093948
 11
137.373686
 21
313.633331
  0
LINE
  5
394
100
AcDbEntity
  8
M0
 62
     7
100
AcDbLine
 10
150.223784
 20
319.094437
 11
164.523819
 21
319.094437
  0
LINE
  5
395
100
AcDbEntity
  8
M0
 62
     7
100
AcDbLine
 10
165.523819
 20
320.094437
 11
165.523819
 21
334.594437
  0
LINE
  5
396
100
AcDbEntity
  8
M0
 62
     7
100
AcDbLine
 10
149.223784
 20
334.594437
 11
149.223784
 21
320.094437
  0
ARC
  5
397
100
AcDbEntity
  8
M0
 62
     7
100
AcDbCircle
 10
164.523819
 20
320.094437
 40
1.0
100
AcDbArc
 50
269.999126
 51
360.0
  0
ARC
  5
398
100
AcDbEntity
  8
M0
 62
     7
100
AcDbCircle
 10
150.223784
 20
320.094437
 40
1.0
100
AcDbArc
 50
180.0
 51
270.0
  0
LINE
  5
399
100
AcDbEntity
  8
M0
 62
     4
100
AcDbLine
 10
110.223769
 20
319.093704
 11
124.523804
 21
319.093704
  0
LINE
  5
39A
100
AcDbEntity
  8
M0
 62
     4
100
AcDbLine
 10
125.523804
 20
320.093704
 11
125.523804
 21
334.593704
  0
LINE
  5
39B
100
AcDbEntity
  8
M0
 62
     4
100
AcDbLine
 10
109.223769
 20
334.593704
 11
109.223769
 21
320.093704
  0
ARC
  5
39C
100
AcDbEntity
  8
M0
 62
     4
100
AcDbCircle
 10
124.523804
 20
320.093704
 40
1.0
100
AcDbArc
 50
269.999126
 51
360.0
  0
ARC
  5
39D
100
AcDbEntity
  8
M0
 62
     4
100
AcDbCircle
 10
110.223769
 20
320.093704
 40
1.0
100
AcDbArc
 50
180.0
 51
270.0
  0
LINE
  5
39E
100
AcDbEntity
  8
M0
 62
     7
100
AcDbLine
 10
164.523618
 20
415.093691
 11
150.223584
 21
415.0937
  0
LINE
  5
39F
100
AcDbEntity
  8
M0
 62
     7
100
AcDbLine
 10
149.223583
 20
414.093701
 11
149.223574
 21
399.593701
  0
LINE
  5
3A0
100
AcDbEntity
  8
M0
 62
     7
100
AcDbLine
 10
165.523608
 20
399.593691
 11
165.523617
 21
414.093691
  0
ARC
  5
3A1
100
AcDbEntity
  8
M0
 62
     7
100
AcDbCircle
 10
150.223583
 20
414.0937
 40
1.0
100
AcDbArc
 50
90.0
 51
179.999964
  0
ARC
  5
3A2
100
AcDbEntity
  8
M0
 62
     7
100
AcDbCircle
 10
150.223574
 20
399.5937
 40
1.0
100
AcDbArc
 50
179.999964
 51
194.507219
  0
ARC
  5
3A3
100
AcDbEntity
  8
M0
 62
     7
100
AcDbCircle
 10
164.523608
 20
399.593691
 40
1.0
100
AcDbArc
 50
345.494252
 51
359.99909
  0
ARC
  5
3A4
100
AcDbEntity
  8
M0
 62
     7
100
AcDbCircle
 10
164.523617
 20
414.093691
 40
1.0
100
AcDbArc
 50
359.99909
 51
450.0
  0
LINE
  5
3A5
100
AcDbEntity
  8
M0
 62
     4
100
AcDbLine
 10
124.524503
 20
415.093203
 11
110.224469
 21
415.093212
  0
LINE
  5
3A6
100
AcDbEntity
  8
M0
 62
     4
100
AcDbLine
 10
109.224468
 20
414.093213
 11
109.224459
 21
399.593213
  0
LINE
  5
3A7
100
AcDbEntity
  8
M0
 62
     4
100
AcDbLine
 10
125.524493
 20
399.593202
 11
125.524502
 21
414.093202
  0
ARC
  5
3A8
100
AcDbEntity
  8
M0
 62
     4
100
AcDbCircle
 10
110.224468
 20
414.093212
 40
1.0
100
AcDbArc
 50
90.0
 51
179.999964
  0
ARC
  5
3A9
100
AcDbEntity
  8
M0
 62
     4
100
AcDbCircle
 10
124.524502
 20
414.093203
 40
1.0
100
AcDbArc
 50
359.99909
 51
450.0
  0
LINE
  5
3AA
100
AcDbEntity
  8
M0
100
AcDbLine
 10
114.54552
 20
329.922485
 11
120.202362
 21
324.26564
  0
LINE
  5
3AB
100
AcDbEntity
  8
M0
100
AcDbLine
 10
116.66684
 20
324.972733
 11
119.495266
 21
327.801163
  0
LINE
  5
3AC
100
AcDbEntity
  8
M0
100
AcDbLine
 10
115.252626
 20
326.386948
 11
118.081054
 21
329.215378
  0
LINE
  5
3AD
100
AcDbEntity
  8
M0
  6
DASHDOT
100
AcDbLine
 10
117.373946
 20
337.098511
 11
117.373946
 21
315.88385
  0
CIRCLE
  5
3AE
100
AcDbEntity
  8
M0
100
AcDbCircle
 10
117.373946
 20
327.094055
 40
5.949995
  0
LINE
  5
3AF
100
AcDbEntity
  8
M0
100
AcDbLine
 10
116.62419
 20
332.996643
 11
116.62419
 21
334.594543
  0
LINE
  5
3B0
100
AcDbEntity
  8
M0
100
AcDbLine
 10
118.123946
 20
332.996643
 11
118.123946
 21
334.594543
  0
LINE
  5
3B1
100
AcDbEntity
  8
M0
100
AcDbLine
 10
122.373932
 20
334.594543
 11
125.124176
 21
331.844055
  0
LINE
  5
3B2
100
AcDbEntity
  8
M0
100
AcDbLine
 10
109.62419
 20
331.844055
 11
112.374434
 21
334.594543
  0
ARC
  5
3B3
100
AcDbEntity
  8
M0
100
AcDbCircle
 10
124.123932
 20
333.844055
 40
1.0
100
AcDbArc
 50
0.0
 51
48.611504
  0
ARC
  5
3B4
100
AcDbEntity
  8
M0
100
AcDbCircle
 10
110.62419
 20
333.844055
 40
1.0
100
AcDbArc
 50
131.378543
 51
180.0
  0
LINE
  5
3B5
100
AcDbEntity
  8
M0
100
AcDbLine
 10
125.123932
 20
333.844055
 11
125.123932
 21
320.344055
  0
LINE
  5
3B6
100
AcDbEntity
  8
M0
100
AcDbLine
 10
109.62419
 20
320.344055
 11
109.62419
 21
333.844055
  0
LINE
  5
3B7
100
AcDbEntity
  8
M0
100
AcDbLine
 10
111.471602
 20
327.844055
 11
109.62419
 21
327.844055
  0
LINE
  5
3B8
100
AcDbEntity
  8
M0
100
AcDbLine
 10
111.471602
 20
326.344055
 11
109.62419
 21
326.344055
  0
LINE
  5
3B9
100
AcDbEntity
  8
M0
100
AcDbLine
 10
125.123932
 20
326.344055
 11
123.27652
 21
326.344055
  0
LINE
  5
3BA
100
AcDbEntity
  8
M0
100
AcDbLine
 10
125.123932
 20
327.844055
 11
123.27652
 21
327.844055
  0
LINE
  5
3BB
100
AcDbEntity
  8
M0
100
AcDbLine
 10
116.62419
 20
319.344055
 11
116.62419
 21
321.191711
  0
LINE
  5
3BC
100
AcDbEntity
  8
M0
100
AcDbLine
 10
118.123946
 20
319.344055
 11
118.123946
 21
321.191711
  0
LINE
  5
3BD
100
AcDbEntity
  8
M0
100
AcDbLine
 10
125.123932
 20
322.344055
 11
122.123932
 21
319.344055
  0
LINE
  5
3BE
100
AcDbEntity
  8
M0
100
AcDbLine
 10
112.62419
 20
319.344055
 11
109.62419
 21
322.344055
  0
ARC
  5
3BF
100
AcDbEntity
  8
M0
100
AcDbCircle
 10
124.123932
 20
320.344055
 40
1.0
100
AcDbArc
 50
-90.000874
 51
0.0
  0
ARC
  5
3C0
100
AcDbEntity
  8
M0
100
AcDbCircle
 10
110.62419
 20
320.344055
 40
1.0
100
AcDbArc
 50
180.0
 51
270.0
  0
LINE
  5
3C1
100
AcDbEntity
  8
M0
100
AcDbLine
 10
124.123932
 20
319.344055
 11
110.62419
 21
319.344055
  0
LINE
  5
3C2
100
AcDbEntity
  8
M0
  6
DASHDOT
100
AcDbLine
 10
127.672028
 20
327.094055
 11
108.238936
 21
327.094055
  0
LINE
  5
3C3
100
AcDbEntity
  8
M0
  6
DASHDOT
100
AcDbLine
 10
157.373932
 20
337.098389
 11
157.373932
 21
315.883789
  0
LINE
  5
3C4
100
AcDbEntity
  8
M0
100
AcDbLine
 10
162.374832
 20
334.593658
 11
165.123917
 21
331.84433
  0
LINE
  5
3C5
100
AcDbEntity
  8
M0
100
AcDbLine
 10
149.623931
 20
331.84433
 11
152.373016
 21
334.593658
  0
LINE
  5
3C6
100
AcDbEntity
  8
M0
100
AcDbLine
 10
156.623931
 20
332.996918
 11
156.623931
 21
334.593658
  0
LINE
  5
3C7
100
AcDbEntity
  8
M0
100
AcDbLine
 10
158.123687
 20
332.996918
 11
158.123687
 21
334.593658
  0
ARC
  5
3C8
100
AcDbEntity
  8
M0
100
AcDbCircle
 10
164.123672
 20
333.84433
 40
1.0
100
AcDbArc
 50
0.0
 51
48.532218
  0
ARC
  5
3C9
100
AcDbEntity
  8
M0
100
AcDbCircle
 10
150.623931
 20
333.84433
 40
1.0
100
AcDbArc
 50
131.546201
 51
180.0
  0
LINE
  5
3CA
100
AcDbEntity
  8
M0
  6
DASHDOT
100
AcDbLine
 10
167.671768
 20
327.09433
 11
148.238677
 21
327.09433
  0
LINE
  5
3CB
100
AcDbEntity
  8
M0
100
AcDbLine
 10
164.123672
 20
319.34433
 11
150.623931
 21
319.34433
  0
ARC
  5
3CC
100
AcDbEntity
  8
M0
100
AcDbCircle
 10
150.623931
 20
320.34433
 40
1.0
100
AcDbArc
 50
180.0
 51
270.0
  0
ARC
  5
3CD
100
AcDbEntity
  8
M0
100
AcDbCircle
 10
164.123672
 20
320.34433
 40
1.0
100
AcDbArc
 50
-90.000874
 51
0.0
  0
LINE
  5
3CE
100
AcDbEntity
  8
M0
100
AcDbLine
 10
152.623931
 20
319.34433
 11
149.623931
 21
322.34433
  0
LINE
  5
3CF
100
AcDbEntity
  8
M0
100
AcDbLine
 10
165.123672
 20
322.34433
 11
162.123672
 21
319.34433
  0
LINE
  5
3D0
100
AcDbEntity
  8
M0
100
AcDbLine
 10
158.123687
 20
319.34433
 11
158.123687
 21
321.191986
  0
LINE
  5
3D1
100
AcDbEntity
  8
M0
100
AcDbLine
 10
156.623931
 20
319.34433
 11
156.623931
 21
321.191986
  0
LINE
  5
3D2
100
AcDbEntity
  8
M0
100
AcDbLine
 10
165.123672
 20
327.84433
 11
163.27626
 21
327.84433
  0
LINE
  5
3D3
100
AcDbEntity
  8
M0
100
AcDbLine
 10
165.123672
 20
326.34433
 11
163.27626
 21
326.34433
  0
LINE
  5
3D4
100
AcDbEntity
  8
M0
100
AcDbLine
 10
151.471343
 20
326.34433
 11
149.623931
 21
326.34433
  0
LINE
  5
3D5
100
AcDbEntity
  8
M0
100
AcDbLine
 10
151.471343
 20
327.84433
 11
149.623931
 21
327.84433
  0
LINE
  5
3D6
100
AcDbEntity
  8
M0
100
AcDbLine
 10
149.623931
 20
320.34433
 11
149.623931
 21
333.84433
  0
LINE
  5
3D7
100
AcDbEntity
  8
M0
100
AcDbLine
 10
165.123672
 20
333.84433
 11
165.123672
 21
320.34433
  0
CIRCLE
  5
3D8
100
AcDbEntity
  8
M0
100
AcDbCircle
 10
157.373687
 20
327.09433
 40
5.949995
  0
LINE
  5
3D9
100
AcDbEntity
  8
M0
100
AcDbLine
 10
155.252367
 20
326.387222
 11
158.080794
 21
329.215652
  0
LINE
  5
3DA
100
AcDbEntity
  8
M0
100
AcDbLine
 10
156.66658
 20
324.973007
 11
159.495007
 21
327.801437
  0
LINE
  5
3DB
100
AcDbEntity
  8
M0
100
AcDbLine
 10
154.54526
 20
329.92276
 11
160.202103
 21
324.265915
  0
LINE
  5
3DC
100
AcDbEntity
  8
M0
100
AcDbLine
 10
142.375061
 20
334.593414
 11
145.123901
 21
331.84433
  0
LINE
  5
3DD
100
AcDbEntity
  8
M0
100
AcDbLine
 10
129.623916
 20
331.84433
 11
130.873355
 21
333.093887
  0
LINE
  5
3DE
100
AcDbEntity
  8
M0
100
AcDbLine
 10
136.623916
 20
332.996918
 11
136.623916
 21
334.593872
  0
LINE
  5
3DF
100
AcDbEntity
  8
M0
100
AcDbLine
 10
138.123672
 20
332.996918
 11
138.123672
 21
334.647964
  0
ARC
  5
3E0
100
AcDbEntity
  8
M0
100
AcDbCircle
 10
144.123657
 20
333.84433
 40
1.0
100
AcDbArc
 50
0.0
 51
48.511742
  0
LINE
  5
3E1
100
AcDbEntity
  8
M0
  6
DASHDOT
100
AcDbLine
 10
147.671753
 20
327.09433
 11
128.238662
 21
327.09433
  0
LINE
  5
3E2
100
AcDbEntity
  8
M0
100
AcDbLine
 10
144.123657
 20
319.34433
 11
130.623916
 21
319.34433
  0
ARC
  5
3E3
100
AcDbEntity
  8
M0
100
AcDbCircle
 10
130.623916
 20
320.34433
 40
1.0
100
AcDbArc
 50
180.0
 51
270.0
  0
ARC
  5
3E4
100
AcDbEntity
  8
M0
100
AcDbCircle
 10
144.123657
 20
320.34433
 40
1.0
100
AcDbArc
 50
-90.000874
 51
0.0
  0
LINE
  5
3E5
100
AcDbEntity
  8
M0
100
AcDbLine
 10
132.623916
 20
319.34433
 11
129.623916
 21
322.34433
  0
LINE
  5
3E6
100
AcDbEntity
  8
M0
100
AcDbLine
 10
145.123657
 20
322.34433
 11
142.123657
 21
319.34433
  0
LINE
  5
3E7
100
AcDbEntity
  8
M0
100
AcDbLine
 10
138.123672
 20
319.34433
 11
138.123672
 21
321.191986
  0
LINE
  5
3E8
100
AcDbEntity
  8
M0
100
AcDbLine
 10
136.623916
 20
319.34433
 11
136.623916
 21
321.191986
  0
LINE
  5
3E9
100
AcDbEntity
  8
M0
100
AcDbLine
 10
145.123657
 20
327.84433
 11
143.276245
 21
327.84433
  0
LINE
  5
3EA
100
AcDbEntity
  8
M0
100
AcDbLine
 10
145.123657
 20
326.34433
 11
143.276245
 21
326.34433
  0
LINE
  5
3EB
100
AcDbEntity
  8
M0
100
AcDbLine
 10
131.471328
 20
326.34433
 11
129.623916
 21
326.34433
  0
LINE
  5
3EC
100
AcDbEntity
  8
M0
100
AcDbLine
 10
131.471328
 20
327.84433
 11
129.623916
 21
327.84433
  0
LINE
  5
3ED
100
AcDbEntity
  8
M0
100
AcDbLine
 10
129.623916
 20
320.34433
 11
129.623916
 21
333.160904
  0
LINE
  5
3EE
100
AcDbEntity
  8
M0
100
AcDbLine
 10
145.123657
 20
333.84433
 11
145.123657
 21
320.34433
  0
CIRCLE
  5
3EF
100
AcDbEntity
  8
M0
100
AcDbCircle
 10
137.373672
 20
327.09433
 40
5.949995
  0
LINE
  5
3F0
100
AcDbEntity
  8
M0
100
AcDbLine
 10
135.252352
 20
326.387222
 11
138.080779
 21
329.215652
  0
LINE
  5
3F1
100
AcDbEntity
  8
M0
100
AcDbLine
 10
136.666565
 20
324.973007
 11
139.494991
 21
327.801437
  0
LINE
  5
3F2
100
AcDbEntity
  8
M0
100
AcDbLine
 10
134.545245
 20
329.92276
 11
140.202087
 21
324.265915
  0
LINE
  5
3F3
100
AcDbEntity
  8
M0
100
AcDbLine
 10
162.124191
 20
414.843216
 11
165.123917
 21
411.843216
  0
LINE
  5
3F4
100
AcDbEntity
  8
M0
100
AcDbLine
 10
149.623931
 20
411.843216
 11
152.623665
 21
414.843216
  0
LINE
  5
3F5
100
AcDbEntity
  8
M0
100
AcDbLine
 10
156.623931
 20
412.995804
 11
156.623931
 21
414.843216
  0
LINE
  5
3F6
100
AcDbEntity
  8
M0
100
AcDbLine
 10
158.123687
 20
412.995804
 11
158.123687
 21
414.843216
  0
LINE
  5
3F7
100
AcDbEntity
  8
M0
100
AcDbLine
 10
150.623931
 20
414.843216
 11
164.123672
 21
414.843216
  0
ARC
  5
3F8
100
AcDbEntity
  8
M0
100
AcDbCircle
 10
164.123672
 20
413.843216
 40
1.0
100
AcDbArc
 50
0.0
 51
90.0
  0
ARC
  5
3F9
100
AcDbEntity
  8
M0
100
AcDbCircle
 10
150.623931
 20
413.843216
 40
1.0
100
AcDbArc
 50
90.0
 51
180.0
  0
LINE
  5
3FA
100
AcDbEntity
  8
M0
  6
DASHDOT
100
AcDbLine
 10
167.671768
 20
407.093216
 11
148.238677
 21
407.093216
  0
ARC
  5
3FB
100
AcDbEntity
  8
M0
100
AcDbCircle
 10
150.623931
 20
400.343216
 40
1.0
100
AcDbArc
 50
180.0
 51
270.0
  0
ARC
  5
3FC
100
AcDbEntity
  8
M0
100
AcDbCircle
 10
164.123672
 20
400.343216
 40
1.0
100
AcDbArc
 50
-90.000874
 51
0.0
  0
LINE
  5
3FD
100
AcDbEntity
  8
M0
100
AcDbLine
 10
152.623931
 20
399.343216
 11
149.623931
 21
402.343216
  0
LINE
  5
3FE
100
AcDbEntity
  8
M0
100
AcDbLine
 10
165.123672
 20
402.343216
 11
162.123672
 21
399.343216
  0
LINE
  5
3FF
100
AcDbEntity
  8
M0
100
AcDbLine
 10
158.123687
 20
399.343216
 11
158.123687
 21
401.190872
  0
LINE
  5
400
100
AcDbEntity
  8
M0
100
AcDbLine
 10
156.623931
 20
399.343216
 11
156.623931
 21
401.190872
  0
LINE
  5
401
100
AcDbEntity
  8
M0
100
AcDbLine
 10
165.123672
 20
407.843216
 11
163.27626
 21
407.843216
  0
LINE
  5
402
100
AcDbEntity
  8
M0
100
AcDbLine
 10
165.123672
 20
406.343216
 11
163.27626
 21
406.343216
  0
LINE
  5
403
100
AcDbEntity
  8
M0
100
AcDbLine
 10
151.471343
 20
406.343216
 11
149.623931
 21
406.343216
  0
LINE
  5
404
100
AcDbEntity
  8
M0
100
AcDbLine
 10
151.471343
 20
407.843216
 11
149.623931
 21
407.843216
  0
LINE
  5
405
100
AcDbEntity
  8
M0
100
AcDbLine
 10
149.623931
 20
400.343216
 11
149.623931
 21
413.843216
  0
LINE
  5
406
100
AcDbEntity
  8
M0
100
AcDbLine
 10
165.123672
 20
413.843216
 11
165.123672
 21
400.343216
  0
CIRCLE
  5
407
100
AcDbEntity
  8
M0
100
AcDbCircle
 10
157.373687
 20
407.093216
 40
5.949995
  0
LINE
  5
408
100
AcDbEntity
  8
M0
100
AcDbLine
 10
155.252367
 20
406.386108
 11
158.080794
 21
409.214539
  0
LINE
  5
409
100
AcDbEntity
  8
M0
100
AcDbLine
 10
156.66658
 20
404.971893
 11
159.495007
 21
407.800323
  0
LINE
  5
40A
100
AcDbEntity
  8
M0
100
AcDbLine
 10
154.54526
 20
409.921646
 11
160.202103
 21
404.264801
  0
LINE
  5
40B
100
AcDbEntity
  8
M0
100
AcDbLine
 10
142.124161
 20
414.843216
 11
145.123886
 21
411.843216
  0
LINE
  5
40C
100
AcDbEntity
  8
M0
100
AcDbLine
 10
129.6239
 20
411.843216
 11
132.623634
 21
414.843216
  0
LINE
  5
40D
100
AcDbEntity
  8
M0
100
AcDbLine
 10
136.6239
 20
412.995804
 11
136.6239
 21
414.843216
  0
LINE
  5
40E
100
AcDbEntity
  8
M0
100
AcDbLine
 10
138.123656
 20
412.995804
 11
138.123656
 21
414.843216
  0
LINE
  5
40F
100
AcDbEntity
  8
M0
100
AcDbLine
 10
130.6239
 20
414.843216
 11
144.123642
 21
414.843216
  0
ARC
  5
410
100
AcDbEntity
  8
M0
100
AcDbCircle
 10
144.123642
 20
413.843216
 40
1.0
100
AcDbArc
 50
0.0
 51
90.0
  0
ARC
  5
411
100
AcDbEntity
  8
M0
100
AcDbCircle
 10
130.6239
 20
413.843216
 40
1.0
100
AcDbArc
 50
90.0
 51
180.0
  0
LINE
  5
412
100
AcDbEntity
  8
M0
  6
DASHDOT
100
AcDbLine
 10
147.671738
 20
407.093216
 11
128.238647
 21
407.093216
  0
ARC
  5
413
100
AcDbEntity
  8
M0
100
AcDbCircle
 10
144.123642
 20
400.343216
 40
1.0
100
AcDbArc
 50
-90.000874
 51
0.0
  0
LINE
  5
414
100
AcDbEntity
  8
M0
100
AcDbLine
 10
130.874024
 20
401.093094
 11
129.6239
 21
402.343216
  0
LINE
  5
415
100
AcDbEntity
  8
M0
100
AcDbLine
 10
145.123642
 20
402.343216
 11
142.123642
 21
399.343216
  0
LINE
  5
416
100
AcDbEntity
  8
M0
100
AcDbLine
 10
138.123656
 20
399.343216
 11
138.123656
 21
401.190872
  0
LINE
  5
417
100
AcDbEntity
  8
M0
100
AcDbLine
 10
136.6239
 20
399.592865
 11
136.6239
 21
401.190872
  0
LINE
  5
418
100
AcDbEntity
  8
M0
100
AcDbLine
 10
145.123642
 20
407.843216
 11
143.27623
 21
407.843216
  0
LINE
  5
419
100
AcDbEntity
  8
M0
100
AcDbLine
 10
145.123642
 20
406.343216
 11
143.27623
 21
406.343216
  0
LINE
  5
41A
100
AcDbEntity
  8
M0
100
AcDbLine
 10
131.471313
 20
406.343216
 11
129.6239
 21
406.343216
  0
LINE
  5
41B
100
AcDbEntity
  8
M0
100
AcDbLine
 10
131.471313
 20
407.843216
 11
129.6239
 21
407.843216
  0
LINE
  5
41C
100
AcDbEntity
  8
M0
100
AcDbLine
 10
129.6239
 20
401.026077
 11
129.6239
 21
413.843216
  0
LINE
  5
41D
100
AcDbEntity
  8
M0
100
AcDbLine
 10
145.123642
 20
413.843216
 11
145.123642
 21
400.343216
  0
CIRCLE
  5
41E
100
AcDbEntity
  8
M0
100
AcDbCircle
 10
137.373656
 20
407.093216
 40
5.949995
  0
LINE
  5
41F
100
AcDbEntity
  8
M0
100
AcDbLine
 10
135.252337
 20
406.386108
 11
138.080764
 21
409.214539
  0
LINE
  5
420
100
AcDbEntity
  8
M0
100
AcDbLine
 10
136.66655
 20
404.971893
 11
139.494976
 21
407.800323
  0
LINE
  5
421
100
AcDbEntity
  8
M0
100
AcDbLine
 10
134.54523
 20
409.921646
 11
140.202072
 21
404.264801
  0
LINE
  5
422
100
AcDbEntity
  8
M0
  6
DASHDOT
100
AcDbLine
 10
97.373992
 20
397.09816
 11
97.373992
 21
377.211731
  0
LINE
  5
423
100
AcDbEntity
  8
M0
100
AcDbLine
 10
122.124466
 20
414.84346
 11
125.124191
 21
411.84346
  0
LINE
  5
424
100
AcDbEntity
  8
M0
100
AcDbLine
 10
109.624206
 20
411.84346
 11
112.62394
 21
414.84346
  0
LINE
  5
425
100
AcDbEntity
  8
M0
100
AcDbLine
 10
116.624206
 20
412.996048
 11
116.624206
 21
414.84346
  0
LINE
  5
426
100
AcDbEntity
  8
M0
100
AcDbLine
 10
118.123961
 20
412.996048
 11
118.123961
 21
414.84346
  0
LINE
  5
427
100
AcDbEntity
  8
M0
100
AcDbLine
 10
110.624206
 20
414.84346
 11
124.123947
 21
414.84346
  0
ARC
  5
428
100
AcDbEntity
  8
M0
100
AcDbCircle
 10
124.123947
 20
413.84346
 40
1.0
100
AcDbArc
 50
0.0
 51
90.0
  0
ARC
  5
429
100
AcDbEntity
  8
M0
100
AcDbCircle
 10
110.624206
 20
413.84346
 40
1.0
100
AcDbArc
 50
90.0
 51
180.0
  0
LINE
  5
42A
100
AcDbEntity
  8
M0
  6
DASHDOT
100
AcDbLine
 10
127.672043
 20
407.09346
 11
108.238952
 21
407.09346
  0
ARC
  5
42B
100
AcDbEntity
  8
M0
100
AcDbCircle
 10
110.624206
 20
400.34346
 40
1.0
100
AcDbArc
 50
180.0
 51
228.614759
  0
ARC
  5
42C
100
AcDbEntity
  8
M0
100
AcDbCircle
 10
124.123947
 20
400.34346
 40
1.0
100
AcDbArc
 50
-48.624421
 51
0.0
  0
LINE
  5
42D
100
AcDbEntity
  8
M0
100
AcDbLine
 10
112.3745
 20
399.59317
 11
109.624206
 21
402.34346
  0
LINE
  5
42E
100
AcDbEntity
  8
M0
100
AcDbLine
 10
125.123947
 20
402.34346
 11
122.373581
 21
399.593094
  0
LINE
  5
42F
100
AcDbEntity
  8
M0
100
AcDbLine
 10
118.123961
 20
399.593124
 11
118.123961
 21
401.191116
  0
LINE
  5
430
100
AcDbEntity
  8
M0
100
AcDbLine
 10
116.624206
 20
399.59314
 11
116.624206
 21
401.191116
  0
LINE
  5
431
100
AcDbEntity
  8
M0
100
AcDbLine
 10
125.123947
 20
407.84346
 11
123.276535
 21
407.84346
  0
LINE
  5
432
100
AcDbEntity
  8
M0
100
AcDbLine
 10
125.123947
 20
406.34346
 11
123.276535
 21
406.34346
  0
LINE
  5
433
100
AcDbEntity
  8
M0
100
AcDbLine
 10
111.471618
 20
406.34346
 11
109.624206
 21
406.34346
  0
LINE
  5
434
100
AcDbEntity
  8
M0
100
AcDbLine
 10
111.471618
 20
407.84346
 11
109.624206
 21
407.84346
  0
LINE
  5
435
100
AcDbEntity
  8
M0
100
AcDbLine
 10
109.624206
 20
400.34346
 11
109.624206
 21
413.84346
  0
LINE
  5
436
100
AcDbEntity
  8
M0
100
AcDbLine
 10
125.123947
 20
413.84346
 11
125.123947
 21
400.34346
  0
CIRCLE
  5
437
100
AcDbEntity
  8
M0
100
AcDbCircle
 10
117.373961
 20
407.09346
 40
5.949995
  0
LINE
  5
438
100
AcDbEntity
  8
M0
  6
DASHDOT
100
AcDbLine
 10
117.373961
 20
417.097916
 11
117.373961
 21
397.211487
  0
LINE
  5
439
100
AcDbEntity
  8
M0
100
AcDbLine
 10
115.252642
 20
406.386353
 11
118.081069
 21
409.214783
  0
LINE
  5
43A
100
AcDbEntity
  8
M0
100
AcDbLine
 10
116.666855
 20
404.972137
 11
119.495281
 21
407.800568
  0
LINE
  5
43B
100
AcDbEntity
  8
M0
100
AcDbLine
 10
114.545535
 20
409.92189
 11
120.202377
 21
404.265045
  0
LINE
  5
43C
100
AcDbEntity
  8
M0
  6
DASHDOT
100
AcDbLine
 10
157.373947
 20
417.0979
 11
157.373947
 21
397.211426
  0
LINE
  5
43D
100
AcDbEntity
  8
M0
100
AcDbLine
 10
129.373947
 20
357.093262
 11
145.373383
 21
357.093262
  0
LINE
  5
43E
100
AcDbEntity
  8
M0
 62
     5
100
AcDbLine
 10
366.246744
 20
415.093414
 11
366.246744
 21
319.094925
  0
ARC
  5
43F
100
AcDbEntity
  8
M0
 62
     5
100
AcDbCircle
 10
335.746521
 20
371.094162
 40
1.999996
100
AcDbArc
 50
0.0
 51
89.999563
  0
ARC
  5
440
100
AcDbEntity
  8
M0
 62
     5
100
AcDbCircle
 10
335.746521
 20
363.094177
 40
1.999996
100
AcDbArc
 50
270.0
 51
360.0
  0
LINE
  5
441
100
AcDbEntity
  8
M0
 62
     5
100
AcDbLine
 10
335.746521
 20
373.094177
 11
328.746521
 21
373.094177
  0
LINE
  5
442
100
AcDbEntity
  8
M0
 62
     5
100
AcDbLine
 10
337.746506
 20
363.094162
 11
337.746506
 21
371.094147
  0
LINE
  5
443
100
AcDbEntity
  8
M0
 62
     5
100
AcDbLine
 10
328.746521
 20
361.094177
 11
335.746521
 21
361.094177
  0
LINE
  5
444
100
AcDbEntity
  8
M0
 62
     5
100
AcDbLine
 10
328.746765
 20
385.343903
 11
328.746765
 21
373.094162
  0
LINE
  5
445
100
AcDbEntity
  8
M0
 62
     5
100
AcDbLine
 10
327.646912
 20
389.343903
 11
328.746765
 21
389.343903
  0
LINE
  5
446
100
AcDbEntity
  8
M0
 62
     5
100
AcDbLine
 10
326.646912
 20
388.343903
 11
327.646912
 21
389.343903
  0
LINE
  5
447
100
AcDbEntity
  8
M0
 62
     5
100
AcDbLine
 10
326.646912
 20
388.343903
 11
326.646912
 21
386.343903
  0
LINE
  5
448
100
AcDbEntity
  8
M0
 62
     5
100
AcDbLine
 10
326.646912
 20
386.343903
 11
327.646912
 21
385.343903
  0
LINE
  5
449
100
AcDbEntity
  8
M0
 62
     5
100
AcDbLine
 10
327.646912
 20
385.343903
 11
328.746765
 21
385.343903
  0
LINE
  5
44A
100
AcDbEntity
  8
M0
 62
     5
100
AcDbLine
 10
328.746765
 20
344.844193
 11
328.746765
 21
335.093948
  0
LINE
  5
44B
100
AcDbEntity
  8
M0
 62
     5
100
AcDbLine
 10
326.646912
 20
345.844193
 11
327.646912
 21
344.844193
  0
LINE
  5
44C
100
AcDbEntity
  8
M0
 62
     5
100
AcDbLine
 10
326.646912
 20
347.844193
 11
327.646912
 21
348.844193
  0
LINE
  5
44D
100
AcDbEntity
  8
M0
 62
     5
100
AcDbLine
 10
327.646912
 20
344.844193
 11
328.746765
 21
344.844193
  0
LINE
  5
44E
100
AcDbEntity
  8
M0
 62
     5
100
AcDbLine
 10
327.646912
 20
348.844193
 11
328.746765
 21
348.844193
  0
LINE
  5
44F
100
AcDbEntity
  8
M0
 62
     5
100
AcDbLine
 10
326.646912
 20
345.844193
 11
326.646912
 21
347.844193
  0
ARC
  5
450
100
AcDbEntity
  8
M0
 62
     5
100
AcDbCircle
 10
352.246746
 20
396.093903
 40
1.999996
100
AcDbArc
 50
180.0
 51
270.0
  0
ARC
  5
451
100
AcDbEntity
  8
M0
 62
     5
100
AcDbCircle
 10
348.246746
 20
403.093658
 40
1.999996
100
AcDbArc
 50
0.0
 51
90.0
  0
LINE
  5
452
100
AcDbEntity
  8
M0
 62
     5
100
AcDbLine
 10
350.246746
 20
403.093658
 11
350.246746
 21
396.093903
  0
LINE
  5
453
100
AcDbEntity
  8
M0
 62
     5
100
AcDbLine
 10
352.246746
 20
394.093903
 11
366.246744
 21
394.093903
  0
ARC
  5
454
100
AcDbEntity
  8
M0
 62
     5
100
AcDbCircle
 10
330.746765
 20
403.093658
 40
1.999996
100
AcDbArc
 50
89.999563
 51
180.0
  0
LINE
  5
455
100
AcDbEntity
  8
M0
 62
     5
100
AcDbLine
 10
330.746765
 20
405.093658
 11
348.246746
 21
405.093658
  0
LINE
  5
456
100
AcDbEntity
  8
M0
 62
     5
100
AcDbLine
 10
328.746765
 20
361.094177
 11
328.746765
 21
348.844193
  0
ARC
  5
457
100
AcDbEntity
  8
M0
 62
     5
100
AcDbCircle
 10
351.246746
 20
339.594193
 40
1.0
100
AcDbArc
 50
0.0
 51
90.0
  0
LINE
  5
458
100
AcDbEntity
  8
M0
 62
     5
100
AcDbLine
 10
352.246623
 20
339.594193
 11
352.245047
 21
319.094925
  0
LINE
  5
459
100
AcDbEntity
  8
M0
 62
     5
100
AcDbLine
 10
328.746765
 20
403.093658
 11
328.746765
 21
389.343903
  0
LINE
  5
45A
100
AcDbEntity
  8
M0
 62
     5
100
AcDbLine
 10
366.246744
 20
415.093414
 11
328.646912
 21
415.093658
  0
LINE
  5
45B
100
AcDbEntity
  8
M0
 62
     5
100
AcDbLine
 10
328.646912
 20
319.094193
 11
366.246744
 21
319.094193
  0
LINE
  5
45C
100
AcDbEntity
  8
M0
 62
     5
100
AcDbLine
 10
328.746765
 20
340.594193
 11
351.246746
 21
340.594193
  0
LINE
  5
45D
100
AcDbEntity
  8
M0
 62
     5
100
AcDbLine
 10
352.246746
 20
339.594193
 11
366.246744
 21
339.594193
  0
LINE
  5
45E
100
AcDbEntity
  8
M0
 62
     7
100
AcDbLine
 10
249.44726
 20
399.593414
 11
263.647202
 21
399.593414
  0
LINE
  5
45F
100
AcDbEntity
  8
M0
 62
     7
100
AcDbLine
 10
249.44726
 20
372.793655
 11
259.747299
 21
372.793655
  0
LINE
  5
460
100
AcDbEntity
  8
M0
 62
     7
100
AcDbLine
 10
249.44726
 20
334.593735
 11
263.647202
 21
334.593735
  0
LINE
  5
461
100
AcDbEntity
  8
M0
 62
     7
100
AcDbLine
 10
249.44726
 20
361.393738
 11
259.747299
 21
361.393738
  0
LINE
  5
462
100
AcDbEntity
  8
M0
 62
     7
100
AcDbLine
 10
263.647202
 20
399.593414
 11
263.647202
 21
385.093414
  0
LINE
  5
463
100
AcDbEntity
  8
M0
 62
     7
100
AcDbLine
 10
248.94726
 20
399.093414
 11
248.94726
 21
370.093918
  0
ARC
  5
464
100
AcDbEntity
  8
M0
 62
     7
100
AcDbCircle
 10
249.44726
 20
399.093414
 40
0.5
100
AcDbArc
 50
90.0
 51
180.0
  0
ARC
  5
465
100
AcDbEntity
  8
M0
 62
     7
100
AcDbCircle
 10
249.44726
 20
335.093735
 40
0.5
100
AcDbArc
 50
180.0
 51
270.0
  0
ARC
  5
466
100
AcDbEntity
  8
M0
 62
     7
100
AcDbCircle
 10
249.44726
 20
361.893738
 40
0.5
100
AcDbArc
 50
180.0
 51
270.0
  0
ARC
  5
467
100
AcDbEntity
  8
M0
 62
     7
100
AcDbCircle
 10
249.44726
 20
372.293732
 40
0.5
100
AcDbArc
 50
90.0
 51
180.0
  0
LINE
  5
468
100
AcDbEntity
  8
M0
 62
     7
100
AcDbLine
 10
263.647202
 20
401.093414
 11
263.680649
 21
401.093414
  0
LINE
  5
469
100
AcDbEntity
  8
M0
 62
     7
100
AcDbLine
 10
261.647202
 20
399.593414
 11
263.647202
 21
401.093414
  0
LINE
  5
46A
100
AcDbEntity
  8
M0
 62
     7
100
AcDbLine
 10
263.647202
 20
333.093735
 11
263.680649
 21
333.093735
  0
LINE
  5
46B
100
AcDbEntity
  8
M0
 62
     7
100
AcDbLine
 10
261.647202
 20
334.593735
 11
263.647202
 21
333.093735
  0
LINE
  5
46C
100
AcDbEntity
  8
M0
 62
     7
100
AcDbLine
 10
263.647202
 20
349.094193
 11
263.647202
 21
334.593735
  0
LINE
  5
46D
100
AcDbEntity
  8
M0
 62
     7
100
AcDbLine
 10
248.94726
 20
370.093918
 11
248.94726
 21
335.093735
  0
LINE
  5
46E
100
AcDbEntity
  8
M0
 62
     4
100
AcDbLine
 10
144.524473
 20
415.092959
 11
130.224438
 21
415.092968
  0
LINE
  5
46F
100
AcDbEntity
  8
M0
 62
     4
100
AcDbLine
 10
129.224437
 20
414.092969
 11
129.224428
 21
399.592969
  0
LINE
  5
470
100
AcDbEntity
  8
M0
 62
     4
100
AcDbLine
 10
145.524463
 20
399.592958
 11
145.524472
 21
414.092958
  0
ARC
  5
471
100
AcDbEntity
  8
M0
 62
     4
100
AcDbCircle
 10
130.224437
 20
414.092968
 40
1.0
100
AcDbArc
 50
90.0
 51
179.999964
  0
ARC
  5
472
100
AcDbEntity
  8
M0
 62
     4
100
AcDbCircle
 10
144.524463
 20
399.592959
 40
1.0
100
AcDbArc
 50
345.537726
 51
359.99909
  0
ARC
  5
473
100
AcDbEntity
  8
M0
 62
     4
100
AcDbCircle
 10
144.524472
 20
414.092959
 40
1.0
100
AcDbArc
 50
359.99909
 51
450.0
  0
LINE
  5
474
100
AcDbEntity
  8
M0
 62
     4
100
AcDbLine
 10
130.223723
 20
319.093704
 11
144.523758
 21
319.093704
  0
LINE
  5
475
100
AcDbEntity
  8
M0
 62
     4
100
AcDbLine
 10
145.523758
 20
320.093704
 11
145.523758
 21
334.593704
  0
LINE
  5
476
100
AcDbEntity
  8
M0
 62
     4
100
AcDbLine
 10
129.223723
 20
334.593704
 11
129.223723
 21
320.093704
  0
ARC
  5
477
100
AcDbEntity
  8
M0
 62
     4
100
AcDbCircle
 10
144.523758
 20
320.093704
 40
1.0
100
AcDbArc
 50
269.999126
 51
360.0
  0
ARC
  5
478
100
AcDbEntity
  8
M0
 62
     4
100
AcDbCircle
 10
130.223723
 20
320.093704
 40
1.0
100
AcDbArc
 50
180.0
 51
270.0
  0
LINE
  5
479
100
AcDbEntity
  8
M0
 62
     1
100
AcDbLine
 10
137.373642
 20
399.093948
 11
105.873672
 21
399.093948
  0
LINE
  5
47A
100
AcDbEntity
  8
M0
 62
     1
100
AcDbLine
 10
105.873672
 20
335.093948
 11
137.373657
 21
335.093948
  0
LINE
  5
47B
100
AcDbEntity
  8
M0
 62
     1
100
AcDbLine
 10
105.873672
 20
399.093948
 11
105.873672
 21
371.424072
  0
LINE
  5
47C
100
AcDbEntity
  8
M0
 62
     1
100
AcDbLine
 10
105.873672
 20
362.763824
 11
105.873672
 21
335.093948
  0
ARC
  5
47D
100
AcDbEntity
  8
M0
 62
     1
100
AcDbCircle
 10
103.373672
 20
367.093948
 40
5.0
100
AcDbArc
 50
299.99993
 51
419.999925
  0
LINE
  5
47E
100
AcDbEntity
  8
M0
 62
     1
100
AcDbLine
 10
137.373694
 20
399.093948
 11
168.873657
 21
399.093948
  0
LINE
  5
47F
100
AcDbEntity
  8
M0
 62
     1
100
AcDbLine
 10
168.873657
 20
335.093948
 11
137.373678
 21
335.093948
  0
LINE
  5
480
100
AcDbEntity
  8
M0
 62
     1
100
AcDbLine
 10
168.873657
 20
399.093948
 11
168.873657
 21
371.424072
  0
LINE
  5
481
100
AcDbEntity
  8
M0
 62
     1
100
AcDbLine
 10
168.873657
 20
362.763824
 11
168.873657
 21
335.093948
  0
ARC
  5
482
100
AcDbEntity
  8
M0
 62
     1
100
AcDbCircle
 10
171.373657
 20
367.093948
 40
5.0
100
AcDbArc
 50
120.000018
 51
239.999918
  0
LINE
  5
483
100
AcDbEntity
  8
M0
  6
DIVIDE
100
AcDbLine
 10
125.623838
 20
246.353291
 11
105.373891
 21
246.353779
  0
LINE
  5
484
100
AcDbEntity
  8
M0
  6
DIVIDE
100
AcDbLine
 10
125.623838
 20
251.354496
 11
125.623838
 21
246.353291
  0
LINE
  5
485
100
AcDbEntity
  8
M0
  6
DIVIDE
100
AcDbLine
 10
125.623838
 20
251.354496
 11
129.123838
 21
251.354496
  0
LINE
  5
486
100
AcDbEntity
  8
M0
  6
DIVIDE
100
AcDbLine
 10
129.123838
 20
251.354496
 11
129.123838
 21
246.353291
  0
LINE
  5
487
100
AcDbEntity
  8
M0
  6
DIVIDE
100
AcDbLine
 10
145.623579
 20
246.353291
 11
129.123838
 21
246.353291
  0
LINE
  5
488
100
AcDbEntity
  8
M0
  6
DIVIDE
100
AcDbLine
 10
145.623579
 20
251.355214
 11
145.623579
 21
246.353291
  0
LINE
  5
489
100
AcDbEntity
  8
M0
  6
DIVIDE
100
AcDbLine
 10
149.123579
 20
251.355214
 11
145.623579
 21
251.355214
  0
LINE
  5
48A
100
AcDbEntity
  8
M0
  6
DIVIDE
100
AcDbLine
 10
149.123579
 20
251.355214
 11
149.123579
 21
246.354512
  0
LINE
  5
48B
100
AcDbEntity
  8
M0
  6
DIVIDE
100
AcDbLine
 10
167.873487
 20
234.854527
 11
181.373518
 21
234.854527
  0
LINE
  5
48C
100
AcDbEntity
  8
M0
  6
DIVIDE
100
AcDbLine
 10
181.373518
 20
168.855337
 11
181.373518
 21
234.854527
  0
LINE
  5
48D
100
AcDbEntity
  8
M0
  6
DIVIDE
100
AcDbLine
 10
169.423353
 20
150.104187
 11
169.423353
 21
150.356589
  0
LINE
  5
48E
100
AcDbEntity
  8
M0
  6
DIVIDE
100
AcDbLine
 10
149.123274
 20
145.355946
 11
149.123274
 21
150.356655
  0
LINE
  5
48F
100
AcDbEntity
  8
M0
  6
DIVIDE
100
AcDbLine
 10
145.623579
 20
145.355915
 11
149.123274
 21
145.355946
  0
LINE
  5
490
100
AcDbEntity
  8
M0
  6
DIVIDE
100
AcDbLine
 10
129.123869
 20
145.35561
 11
129.123869
 21
150.35519
  0
LINE
  5
491
100
AcDbEntity
  8
M0
  6
DIVIDE
100
AcDbLine
 10
129.123869
 20
145.35561
 11
125.623869
 21
145.35561
  0
LINE
  5
492
100
AcDbEntity
  8
M0
  6
DIVIDE
100
AcDbLine
 10
125.623869
 20
145.35561
 11
125.623869
 21
150.3558
  0
LINE
  5
493
100
AcDbEntity
  8
M0
  6
DIVIDE
100
AcDbLine
 10
93.373457
 20
225.854802
 11
93.373457
 21
161.855137
  0
LINE
  5
494
100
AcDbEntity
  8
M0
  6
DIVIDE
100
AcDbLine
 10
167.873487
 20
234.854527
 11
167.873487
 21
246.354451
  0
LINE
  5
495
100
AcDbEntity
  8
M0
  6
DIVIDE
100
AcDbLine
 10
149.123579
 20
246.354512
 11
167.873487
 21
246.354451
  0
LINE
  5
496
100
AcDbEntity
  8
M0
  6
DIVIDE
100
AcDbLine
 10
181.373518
 20
168.855337
 11
178.373533
 21
168.855337
  0
LINE
  5
497
100
AcDbEntity
  8
M0
  6
DIVIDE
100
AcDbLine
 10
178.373533
 20
168.855337
 11
178.373533
 21
159.29322
  0
LINE
  5
498
100
AcDbEntity
  8
M0
  6
DIVIDE
100
AcDbLine
 10
93.373457
 20
225.854802
 11
105.373891
 21
246.353779
  0
LINE
  5
499
100
AcDbEntity
  8
M0
  6
DIVIDE
100
AcDbLine
 10
93.373457
 20
161.855137
 11
106.873457
 21
161.855137
  0
LINE
  5
49A
100
AcDbEntity
  8
M0
  6
DIVIDE
100
AcDbLine
 10
106.873457
 20
161.855137
 11
106.873457
 21
150.355844
  0
LINE
  5
49B
100
AcDbEntity
  8
M0
  6
DIVIDE
100
AcDbLine
 10
125.623869
 20
150.3558
 11
106.873457
 21
150.355844
  0
LINE
  5
49C
100
AcDbEntity
  8
M0
  6
DIVIDE
100
AcDbLine
 10
145.623579
 20
150.35519
 11
129.123869
 21
150.35519
  0
LINE
  5
49D
100
AcDbEntity
  8
M0
  6
DIVIDE
100
AcDbLine
 10
145.623579
 20
145.355915
 11
145.623579
 21
150.35519
  0
LINE
  5
49E
100
AcDbEntity
  8
M0
  6
DIVIDE
100
AcDbLine
 10
165.374555
 20
150.356602
 11
149.123274
 21
150.356655
  0
LINE
  5
49F
100
AcDbEntity
  8
M0
  6
DIVIDE
100
AcDbLine
 10
178.373533
 20
159.29322
 11
165.374555
 21
150.356602
  0
LINE
  5
4A0
100
AcDbEntity
  8
M0
  6
DASHDOT
100
AcDbLine
 10
137.373701
 20
255.96337
 11
137.373731
 21
140.355366
  0
LINE
  5
4A1
100
AcDbEntity
  8
M0
  6
DASHDOT
100
AcDbLine
 10
83.373457
 20
198.354405
 11
191.373533
 21
198.354405
  0
CIRCLE
  5
4A2
100
AcDbEntity
  8
M0
100
AcDbCircle
 10
170.373716
 20
159.354405
 40
2.0
  0
LINE
  5
4A3
100
AcDbEntity
  8
M0
  6
DASHDOT
100
AcDbLine
 10
154.088011
 20
159.354405
 11
186.659422
 21
159.354405
  0
LINE
  5
4A4
100
AcDbEntity
  8
M0
  6
DASHDOT
100
AcDbLine
 10
170.373716
 20
143.068699
 11
170.373716
 21
175.64011
  0
CIRCLE
  5
4A5
100
AcDbEntity
  8
M0
100
AcDbCircle
 10
172.873716
 20
165.854405
 40
2.0
  0
LINE
  5
4A6
100
AcDbEntity
  8
M0
  6
DASHDOT
100
AcDbLine
 10
156.588011
 20
165.854405
 11
189.159422
 21
165.854405
  0
LINE
  5
4A7
100
AcDbEntity
  8
M0
  6
DASHDOT
100
AcDbLine
 10
172.873716
 20
149.568699
 11
172.873716
 21
182.14011
  0
CIRCLE
  5
4A8
100
AcDbEntity
  8
M0
100
AcDbCircle
 10
101.873487
 20
230.854405
 40
2.0
  0
LINE
  5
4A9
100
AcDbEntity
  8
M0
  6
DASHDOT
100
AcDbLine
 10
85.587782
 20
230.854405
 11
118.159193
 21
230.854405
  0
LINE
  5
4AA
100
AcDbEntity
  8
M0
  6
DASHDOT
100
AcDbLine
 10
101.873487
 20
214.568699
 11
101.873487
 21
247.14011
  0
LINE
  5
4AB
100
AcDbEntity
  8
M0
  6
DASHDOT
100
AcDbLine
 10
88.088011
 20
237.354405
 11
120.659422
 21
237.354405
  0
LINE
  5
4AC
100
AcDbEntity
  8
M0
  6
DASHDOT
100
AcDbLine
 10
104.373716
 20
221.068699
 11
104.373716
 21
253.64011
  0
CIRCLE
  5
4AD
100
AcDbEntity
  8
M0
100
AcDbCircle
 10
101.873487
 20
230.854405
 40
1.1
  0
LINE
  5
4AE
100
AcDbEntity
  8
M0
  6
DASHDOT
100
AcDbLine
 10
98.773487
 20
230.854405
 11
104.973487
 21
230.854405
  0
LINE
  5
4AF
100
AcDbEntity
  8
M0
  6
DASHDOT
100
AcDbLine
 10
101.873487
 20
227.754405
 11
101.873487
 21
233.954405
  0
CIRCLE
  5
4B0
100
AcDbEntity
  8
M0
100
AcDbCircle
 10
52.98237
 20
177.902827
 40
2.42
  0
CIRCLE
  5
4B1
100
AcDbEntity
  8
M0
100
AcDbCircle
 10
172.873716
 20
165.854405
 40
1.1
  0
LINE
  5
4B2
100
AcDbEntity
  8
M0
  6
DASHDOT
100
AcDbLine
 10
169.773716
 20
165.854405
 11
175.973716
 21
165.854405
  0
LINE
  5
4B3
100
AcDbEntity
  8
M0
  6
DASHDOT
100
AcDbLine
 10
172.873716
 20
162.754405
 11
172.873716
 21
168.954405
  0
HATCH
  5
4B4
100
AcDbEntity
  8
M0
 62
     6
100
AcDbHatch
 10
0.0
 20
0.0
210
0.0
220
0.0
230
1.0
  2
SOLID
 70
     1
 71
     0
 91
        1
 92
        1
 93
        1
 72
     2
 10
52.98237
 20
177.902827
 40
1.54
 50
0.0
 51
360.0
 73
     0
 97
        0
 75
     0
 76
     1
 98
        1
 10
0.0
 20
0.0
  0
LINE
  5
4B7
100
AcDbEntity
  8
M1
 62
     2
100
AcDbLine
 10
20.000038
 20
20.000038
 11
20.000038
 21
570.001087
  0
LINE
  5
4B8
100
AcDbEntity
  8
M1
 62
     2
100
AcDbLine
 10
20.000038
 20
570.001087
 11
400.000763
 21
570.001087
  0
LINE
  5
4B9
100
AcDbEntity
  8
M1
 62
     2
100
AcDbLine
 10
400.000763
 20
570.001087
 11
400.000763
 21
20.000038
  0
LINE
  5
4BA
100
AcDbEntity
  8
M1
 62
     2
100
AcDbLine
 10
400.000763
 20
20.000038
 11
20.000038
 21
20.000038
  0
LINE
  5
4BB
100
AcDbEntity
  8
M1
 62
     2
100
AcDbLine
 10
400.000763
 20
40.000076
 11
200.000381
 21
40.000076
  0
LINE
  5
4BC
100
AcDbEntity
  8
M1
 62
     2
100
AcDbLine
 10
400.000763
 20
60.000114
 11
200.000381
 21
60.000114
  0
LINE
  5
4BD
100
AcDbEntity
  8
M1
 62
     2
100
AcDbLine
 10
400.000763
 20
80.000153
 11
200.000381
 21
80.000153
  0
LINE
  5
4BE
100
AcDbEntity
  8
M1
 62
     2
100
AcDbLine
 10
200.000381
 20
20.000038
 11
200.000381
 21
80.000153
  0
TEXT
  5
4BF
100
AcDbEntity
  8
M1
 62
     2
100
AcDbText
 10
205.000391
 20
25.000048
 40
10.000019
  1
適　用；
  7
STANDARD
100
AcDbText
  0
TEXT
  5
4C0
100
AcDbEntity
  8
M1
 62
     2
100
AcDbText
 10
205.000391
 20
65.000124
 40
10.000019
  1
登録名：
  7
STANDARD
100
AcDbText
  0
TEXT
  5
4C1
100
AcDbEntity
  8
M1
 62
     2
100
AcDbText
 10
253.000483
 20
65.000124
 40
10.000019
  1
ＤＭＨ６５ＣＲ００
 41
0.5
  7
STANDARD
100
AcDbText
  0
TEXT
  5
4C2
100
AcDbEntity
  8
M1
 62
     2
100
AcDbText
 10
205.000391
 20
45.000086
 40
10.000019
  1
形　式；
  7
STANDARD
100
AcDbText
  0
TEXT
  5
4C3
100
AcDbEntity
  8
M1
 62
     2
100
AcDbText
 10
253.000483
 20
45.000086
 40
10.000019
  1
Ｈ６５Ｃ
 41
0.5
  7
STANDARD
100
AcDbText
  0
CIRCLE
  5
4C4
100
AcDbEntity
  8
M2
100
AcDbCircle
 10
170.373716
 20
159.354405
 40
2.000004
  0
CIRCLE
  5
4C5
100
AcDbEntity
  8
M2
100
AcDbCircle
 10
170.373716
 20
159.354405
 40
1.300002
  0
HATCH
  5
4C6
100
AcDbEntity
  8
M2
 62
     6
100
AcDbHatch
 10
0.0
 20
0.0
210
0.0
220
0.0
230
1.0
  2
SOLID
 70
     1
 71
     0
 91
        1
 92
        1
 93
        1
 72
     2
 10
170.373716
 20
159.354405
 40
1.300002
 50
0.0
 51
360.0
 73
     0
 97
        0
 75
     0
 76
     1
 98
        1
 10
0.0
 20
0.0
  0
HATCH
  5
4C7
100
AcDbEntity
  8
M2
 62
     6
100
AcDbHatch
 10
0.0
 20
0.0
210
0.0
220
0.0
230
1.0
  2
SOLID
 70
     1
 71
     0
 91
        1
 92
        1
 93
        1
 72
     2
 10
104.373716
 20
237.354405
 40
1.300002
 50
0.0
 51
360.0
 73
     0
 97
        0
 75
     0
 76
     1
 98
        1
 10
0.0
 20
0.0
  0
CIRCLE
  5
4C8
100
AcDbEntity
  8
M2
100
AcDbCircle
 10
104.373716
 20
237.354405
 40
2.000004
  0
LINE
  5
4C9
100
AcDbEntity
  8
DN0
100
AcDbLine
 10
70.652564
 20
491.3517
 11
224.172858
 21
491.3517
  0
TEXT
  5
4CA
100
AcDbEntity
  8
DN0
100
AcDbText
 10
71.662566
 20
492.251702
 40
9.000017
  1
※補助接点４ａ４ｂ付の場合は１１２
 41
0.833333
  7
STANDARD
100
AcDbText
  0
ENDSEC
  0
SECTION
  2
OBJECTS
  0
DICTIONARY
  5
C
100
AcDbDictionary
  3
ACAD_GROUP
350
D
  3
ACAD_MLINESTYLE
350
E
  3
ACDBVARIABLEDICTIONARY
350
4B5
  0
DICTIONARY
  5
D
102
{ACAD_REACTORS
330
C
102
}
100
AcDbDictionary
  0
DICTIONARY
  5
E
102
{ACAD_REACTORS
330
C
102
}
100
AcDbDictionary
  3
STANDARD
350
13
  0
DICTIONARY
  5
4B5
102
{ACAD_REACTORS
330
C
102
}
100
AcDbDictionary
  3
SORTENTS
350
4B6
  0
MLINESTYLE
  5
13
102
{ACAD_REACTORS
330
E
102
}
100
AcDbMlineStyle
  2
STANDARD
 70
     0
  3

 62
     0
 51
90.0
 52
90.0
 71
     2
 49
0.5
 62
   256
  6
BYLAYER
 49
-0.5
 62
   256
  6
BYLAYER
  0
DICTIONARYVAR
  5
4B6
102
{ACAD_REACTORS
330
4B5
102
}
100
DictionaryVariables
280
     0
  1
96
  0
ENDSEC
  0
EOF
