  0
SECTION
  2
HEADER
  9
$ACADVER
  1
AC1014
  9
$INSBASE
 10
0.000000
 20
0.000000
 30
0.0
  9
$VIEWCTR
 10
7.531722
 20
4.5
  9
$VIEWSIZE
 40
9.0
  9
$SNAPMODE
 70
     0
  9
$SNAPUNIT
 10
1.0
 20
1.0
  9
$SNAPBASE
 10
0.0
 20
0.0
  9
$SNAPANG
 50
0.0
  9
$SNAPSTYLE
 70
     0
  9
$SNAPISOPAIR
 70
     0
  9
$GRIDMODE
 70
     0
  9
$GRIDUNIT
 10
0.0
 20
0.0
  9
$ORTHOMODE
 70
     0
  9
$REGENMODE
 70
     1
  9
$FILLMODE
 70
     1
  9
$QTEXTMODE
 70
     0
  9
$DRAGMODE
 70
     2
  9
$LTSCALE
  40
     1.000000
  9
$OSMODE
 70
     0
  9
$ATTMODE
 70
     1
  9
$TEXTSIZE
 40
0.2
  9
$TRACEWID
 40
0.05
  9
$TEXTSTYLE
  7
STANDARD
  9
$CELTYPE
  6
BYLAYER
  9
$CECOLOR
 62
   256
  9
$DIMSCALE
 40
1.0
  9
$DIMASZ
 40
0.18
  9
$DIMEXO
 40
0.0625
  9
$DIMDLI
 40
0.38
  9
$DIMRND
 40
0.0
  9
$DIMDLE
 40
0.0
  9
$DIMEXE
 40
0.18
  9
$DIMTP
 40
0.0
  9
$DIMTM
 40
0.0
  9
$DIMTXT
 40
0.18
  9
$DIMCEN
 40
0.09
  9
$DIMTSZ
 40
0.0
  9
$DIMTOL
 70
     0
  9
$DIMLIM
 70
     0
  9
$DIMTIH
 70
     1
  9
$DIMTOH
 70
     1
  9
$DIMSE1
 70
     0
  9
$DIMSE2
 70
     0
  9
$DIMTAD
 70
     0
  9
$DIMZIN
 70
     0
  9
$DIMBLK
  1

  9
$LUNITS
 70
     2
  9
$LUPREC
 70
     4
  9
$AXISMODE
 70
     0
  9
$AXISUNIT
 10
0.0
 20
0.0
  9
$SKETCHINC
 40
0.1
  9
$FILLETRAD
 40
0.0
  9
$AUNITS
 70
     0
  9
$AUPREC
 70
     0
  9
$MENU
  1
ACAD
  9
$ELEVATION
 40
0.0
  9
$THICKNESS
 40
0.0
  9
$VIEWDIR
 10
0.0
 20
0.0
 30
1.0
  9
$LIMCHECK
 70
     0
  9
$BLIPMODE
 70
     1
  9
$CHAMFERA
 40
0.0
  9
$CHAMFERB
 40
0.0
  9
$FASTZOOM
 70
     1
  9
$SKPOLY
 70
     0
  9
$TDCREATE
 40
0000000.0000000000
  9
$TDUPDATE
 40
0000000.0000000000
  9
$TDINDWG
 40
0.0000000000
  9
$TDUSRTIMER
 40
0.0000000000
  9
$USRTIMER
 70
     1
  9
$ANGBASE
 50
0.0
  9
$ANGDIR
 70
     0
  9
$PDMODE
 70
     0
  9
$PDSIZE
 40
0.0
  9
$PLINEWID
 40
0.0
  9
$COORDS
 70
     0
  9
$USERI1
 70
     0
  9
$USERI2
 70
     0
  9
$USERI3
 70
     0
  9
$USERI4
 70
     0
  9
$USERI5
 70
     0
  9
$USERR1
 40
0.0
  9
$USERR2
 40
0.0
  9
$USERR3
 40
0.0
  9
$USERR4
 40
0.0
  9
$USERR5
 40
0.0
  9
$CLAYER
  8
M0
  9
$EXTMIN
 10
20.0
 20
20.0
  9
$EXTMAX
 10
400.0
 20
570.0
  9
$LIMMIN
 10
0.0
 20
0.0
  9
$LIMMAX
 10
210.0
 20
297.0
  9
$HANDSEED
  5
4B1
  0
ENDSEC
  0
SECTION
  2
CLASSES
  0
ENDSEC
  0
SECTION
  2
TABLES
  0
TABLE
  2
VPORT
  5
8
100
AcDbSymbolTable
 70
     2
  0
VPORT
  5
14
100
AcDbSymbolTableRecord
100
AcDbViewportTableRecord
  2
*ACTIVE
 70
     0
 10
0.0
 20
0.0
 11
1.0
 21
1.0
 12
484.0
 22
297.0
 13
0.0
 23
0.0
 14
1.0
 24
1.0
 15
0.0
 25
0.0
 16
0.0
 26
0.0
 36
1.0
 17
0.0
 27
0.0
 37
0.0
 40
594.0
 41
2.0
 42
50.0
 43
0.0
 44
0.0
 50
0.0
 51
0.0
 71
     0
 72
   100
 73
     1
 74
     1
 75
     0
 76
     0
 77
     0
 78
     0
  0
ENDTAB
  0
TABLE
  2
LTYPE
  5
5
100
AcDbSymbolTable
 70
     5
  0
LTYPE
  5
15
100
AcDbSymbolTableRecord
100
AcDbLinetypeTableRecord
  2
BYBLOCK
 70
     0
  3

 72
    65
 73
     0
 40
0.0
  0
LTYPE
  5
16
100
AcDbSymbolTableRecord
100
AcDbLinetypeTableRecord
  2
BYLAYER
 70
     0
  3

 72
    65
 73
     0
 40
0.0
  0
LTYPE
  5
17
100
AcDbSymbolTableRecord
100
AcDbLinetypeTableRecord
  2
CONTINUOUS
 70
    64
  3
Solid line
 72
    65
 73
     0
 40
0.0
  0
LTYPE
  5
18
100
AcDbSymbolTableRecord
100
AcDbLinetypeTableRecord
  2
DASHED
 70
    64
  3
__ __ __ __ __ __ __ __ __ __ __ __ __ __ __ __
 72
    65
 73
     2
 40
0.75
 49
0.5
 74
     0
 49
-0.25
 74
     0
  0
LTYPE
  5
19
100
AcDbSymbolTableRecord
100
AcDbLinetypeTableRecord
  2
DASHDOT
 70
    64
  3
__ . __ . __ . __ . __ . __ . __ . __ . __ . __
 72
    65
 73
     4
 40
1.0
 49
0.5
 74
     0
 49
-0.25
 74
     0
 49
0.0
 74
     0
 49
-0.25
 74
     0
  0
LTYPE
  5
1A
100
AcDbSymbolTableRecord
100
AcDbLinetypeTableRecord
  2
DIVIDE
 70
    64
  3
____ . . ____ . . ____ . . ____ . . ____ . . __
 72
    65
 73
     6
 40
1.25
 49
0.5
 74
     0
 49
-0.25
 74
     0
 49
0.0
 74
     0
 49
-0.25
 74
     0
 49
0.0
 74
     0
 49
-0.25
 74
     0
  0
LTYPE
  5
1B
100
AcDbSymbolTableRecord
100
AcDbLinetypeTableRecord
  2
DOT
 70
    64
  3
. . . . . . . . . . . . . . . . . . . . . . . .
 72
    65
 73
     2
 40
0.25
 49
0.0
 74
     0
 49
-0.25
 74
     0
  0
ENDTAB
  0
TABLE
  2
LAYER
  5
2
100
AcDbSymbolTable
 70
   102
  0
LAYER
  5
F
100
AcDbSymbolTableRecord
100
AcDbLayerTableRecord
  2
0
 70
     0
 62
     7
  6
CONTINUOUS
  0
LAYER
  5
1C
100
AcDbSymbolTableRecord
100
AcDbLayerTableRecord
  2
DEFPOINTS
 70
     0
 62
     7
  6
CONTINUOUS
  0
LAYER
  5
1D
100
AcDbSymbolTableRecord
100
AcDbLayerTableRecord
  2
M0
 70
     0
 62
     3
  6
CONTINUOUS
  0
LAYER
  5
1E
100
AcDbSymbolTableRecord
100
AcDbLayerTableRecord
  2
M1
 70
     0
 62
     3
  6
CONTINUOUS
  0
LAYER
  5
1F
100
AcDbSymbolTableRecord
100
AcDbLayerTableRecord
  2
DD0
 70
     0
 62
     4
  6
CONTINUOUS
  0
LAYER
  5
20
100
AcDbSymbolTableRecord
100
AcDbLayerTableRecord
  2
DN0
 70
     0
 62
     2
  6
CONTINUOUS
  0
ENDTAB
  0
TABLE
  2
STYLE
  5
3
100
AcDbSymbolTable
 70
     2
  0
STYLE
  5
10
100
AcDbSymbolTableRecord
100
AcDbTextStyleTableRecord
  2
STANDARD
 70
     0
 40
0.0
 41
1.0
 50
0.0
 71
     0
 42
0.2
  3
txt
  4
BIGFONT
  0
ENDTAB
  0
TABLE
  2
VIEW
  5
6
100
AcDbSymbolTable
 70
     0
  0
ENDTAB
  0
TABLE
  2
UCS
  5
7
100
AcDbSymbolTable
 70
     0
  0
ENDTAB
  0
TABLE
  2
APPID
  5
9
100
AcDbSymbolTable
 70
     1
  0
APPID
  5
11
100
AcDbSymbolTableRecord
100
AcDbRegAppTableRecord
  2
ACAD
 70
     0
  0
ENDTAB
  0
TABLE
  2
DIMSTYLE
  5
A
100
AcDbSymbolTable
 70
     2
  0
DIMSTYLE
105
27
100
AcDbSymbolTableRecord
100
AcDbDimStyleTableRecord
  2
STANDARD
 70
     0
  3

  4

  5

  6
_OPEN
  7
_OPEN
 40
1.0
 41
6.0
 42
1.0
 43
8.0
 44
1.0
 45
0.0
 46
0.0
 47
0.0
 48
0.0
140
6.3
141
0.09
142
0.0
143
0.03937
144
1.0
145
0.0
146
1.0
147
0.6
 71
     0
 72
     0
 73
     1
 74
     1
 75
     0
 76
     0
 77
     3
 78
     8
170
     0
171
     2
172
     0
173
     1
174
     0
175
     0
176
     0
177
     0
178
     0
270
     2
271
     2
272
     4
273
     2
274
     2
340
10
275
     0
280
     0
281
     0
282
     0
283
     1
284
     0
285
     0
286
     0
287
     3
288
     0
  0
DIMSTYLE
105
28
100
AcDbSymbolTableRecord
100
AcDbDimStyleTableRecord
  2
LEADSTYL
 70
     0
  3

  4

  5

  6
_OPEN
  7
_OPEN
 40
1.0
 41
6.0
 42
0.0625
 43
0.38
 44
0.18
 45
0.0
 46
0.0
 47
0.0
 48
0.0
140
6.3
141
0.09
142
0.0
143
25.4
144
1.0
145
0.0
146
1.0
147
0.6
 71
     0
 72
     0
 73
     1
 74
     1
 75
     0
 76
     0
 77
     0
 78
     0
170
     0
171
     2
172
     0
173
     1
174
     0
175
     0
176
     0
177
     0
178
     0
270
     2
271
     4
272
     4
273
     2
274
     2
340
10
275
     0
280
     0
281
     0
282
     0
283
     1
284
     0
285
     0
286
     0
287
     3
288
     0
  0
ENDTAB
  0
TABLE
  2
BLOCK_RECORD
  5
1
100
AcDbSymbolTable
 70
    17
  0
BLOCK_RECORD
  5
21
100
AcDbSymbolTableRecord
100
AcDbBlockTableRecord
  2
*MODEL_SPACE
  0
BLOCK_RECORD
  5
24
100
AcDbSymbolTableRecord
100
AcDbBlockTableRecord
  2
*PAPER_SPACE
  0
BLOCK_RECORD
  5
29
100
AcDbSymbolTableRecord
100
AcDbBlockTableRecord
  2
_NONE
  0
BLOCK_RECORD
  5
2D
100
AcDbSymbolTableRecord
100
AcDbBlockTableRecord
  2
_OPEN
  0
BLOCK_RECORD
  5
33
100
AcDbSymbolTableRecord
100
AcDbBlockTableRecord
  2
_CLOSED
  0
BLOCK_RECORD
  5
3A
100
AcDbSymbolTableRecord
100
AcDbBlockTableRecord
  2
_ORIGIN
  0
BLOCK_RECORD
  5
3F
100
AcDbSymbolTableRecord
100
AcDbBlockTableRecord
  2
_DOT
  0
BLOCK_RECORD
  5
47
100
AcDbSymbolTableRecord
100
AcDbBlockTableRecord
  2
_OBLIQUE
  0
BLOCK_RECORD
  5
4B
100
AcDbSymbolTableRecord
100
AcDbBlockTableRecord
  2
DIMS0
  0
BLOCK_RECORD
  5
57
100
AcDbSymbolTableRecord
100
AcDbBlockTableRecord
  2
DIMS1
  0
BLOCK_RECORD
  5
63
100
AcDbSymbolTableRecord
100
AcDbBlockTableRecord
  2
DIMS2
  0
BLOCK_RECORD
  5
69
100
AcDbSymbolTableRecord
100
AcDbBlockTableRecord
  2
DIMS3
  0
BLOCK_RECORD
  5
75
100
AcDbSymbolTableRecord
100
AcDbBlockTableRecord
  2
DIMS4
  0
BLOCK_RECORD
  5
81
100
AcDbSymbolTableRecord
100
AcDbBlockTableRecord
  2
DIMS5
  0
BLOCK_RECORD
  5
8D
100
AcDbSymbolTableRecord
100
AcDbBlockTableRecord
  2
DIMS6
  0
BLOCK_RECORD
  5
99
100
AcDbSymbolTableRecord
100
AcDbBlockTableRecord
  2
DIMS7
  0
BLOCK_RECORD
  5
A2
100
AcDbSymbolTableRecord
100
AcDbBlockTableRecord
  2
DIMS8
  0
BLOCK_RECORD
  5
AB
100
AcDbSymbolTableRecord
100
AcDbBlockTableRecord
  2
DIMS9
  0
BLOCK_RECORD
  5
B7
100
AcDbSymbolTableRecord
100
AcDbBlockTableRecord
  2
DIMS10
  0
ENDTAB
  0
ENDSEC
  0
SECTION
  2
BLOCKS
  0
BLOCK
  5
22
100
AcDbEntity
  8
0
100
AcDbBlockBegin
  2
*MODEL_SPACE
 70
     0
 10
0.0
 20
0.0
 30
0.0
  3
*MODEL_SPACE
  1

  0
ENDBLK
  5
23
100
AcDbEntity
  8
0
100
AcDbBlockEnd
  0
BLOCK
  5
25
100
AcDbEntity
 67
     1
  8
0
100
AcDbBlockBegin
  2
*PAPER_SPACE
 70
     0
 10
0.0
 20
0.0
 30
0.0
  3
*PAPER_SPACE
  1

  0
ENDBLK
  5
26
100
AcDbEntity
 67
     1
  8
0
100
AcDbBlockEnd
  0
BLOCK
  5
2A
100
AcDbEntity
  8
0
100
AcDbBlockBegin
  2
_NONE
 70
     0
 10
0.0
 20
0.0
  0
CIRCLE
  5
2B
100
AcDbEntity
  8
0
 62
     0
100
AcDbCircle
 10
0.0
 20
0.0
 40
0.25
  0
ENDBLK
  5
2C
100
AcDbEntity
  8
0
100
AcDbBlockEnd
  0
BLOCK
  5
2E
100
AcDbEntity
  8
0
100
AcDbBlockBegin
  2
_OPEN
 70
     0
 10
0.0
 20
0.0
  0
LINE
  5
2F
100
AcDbEntity
  8
0
 62
     0
100
AcDbLine
 10
-0.965926
 20
0.258819
 11
0.0
 21
0.0
  0
LINE
  5
30
100
AcDbEntity
  8
0
 62
     0
100
AcDbLine
 10
0.0
 20
0.0
 11
-0.965926
 21
-0.258819
  0
LINE
  5
31
100
AcDbEntity
  8
0
 62
     0
100
AcDbLine
 10
0.0
 20
0.0
 11
-1.0
 21
0.0
  0
ENDBLK
  5
32
100
AcDbEntity
  8
0
100
AcDbBlockEnd
  0
BLOCK
  5
34
100
AcDbEntity
  8
0
100
AcDbBlockBegin
  2
_CLOSED
 70
     0
 10
0.0
 20
0.0
  0
LINE
  5
35
100
AcDbEntity
  8
0
 62
     0
100
AcDbLine
 10
-0.965926
 20
0.258819
 11
0.0
 21
0.0
  0
LINE
  5
36
100
AcDbEntity
  8
0
 62
     0
100
AcDbLine
 10
0.0
 20
0.0
 11
-0.965926
 21
-0.258819
  0
LINE
  5
37
100
AcDbEntity
  8
0
 62
     0
100
AcDbLine
 10
-0.965926
 20
0.258819
 11
-0.965926
 21
-0.258819
  0
LINE
  5
38
100
AcDbEntity
  8
0
 62
     0
100
AcDbLine
 10
0.0
 20
0.0
 11
-1.0
 21
0.0
  0
ENDBLK
  5
39
100
AcDbEntity
  8
0
100
AcDbBlockEnd
  0
BLOCK
  5
3B
100
AcDbEntity
  8
0
100
AcDbBlockBegin
  2
_ORIGIN
 70
     0
 10
0.0
 20
0.0
  0
CIRCLE
  5
3C
100
AcDbEntity
  8
0
 62
     0
100
AcDbCircle
 10
0.0
 20
0.0
 40
0.5
  0
LINE
  5
3D
100
AcDbEntity
  8
0
 62
     0
100
AcDbLine
 10
0.0
 20
0.0
 11
-1.0
 21
0.0
  0
ENDBLK
  5
3E
100
AcDbEntity
  8
0
100
AcDbBlockEnd
  0
BLOCK
  5
40
100
AcDbEntity
  8
0
100
AcDbBlockBegin
  2
_DOT
 70
     0
 10
0.0
 20
0.0
  0
POLYLINE
  5
41
100
AcDbEntity
  8
0
 62
     0
100
AcDb2dPolyline
 66
     1
 70
     1
 40
0.5
 41
0.5
  0
VERTEX
  5
42
100
AcDbEntity
  8
0
 62
     0
100
AcDbVertex
100
AcDb2dVertex
 10
-0.25
 20
0.0
 42
1.0
  0
VERTEX
  5
43
100
AcDbEntity
  8
0
 62
     0
100
AcDbVertex
100
AcDb2dVertex
 10
0.25
 20
0.0
 42
1.0
  0
SEQEND
  5
44
100
AcDbEntity
  8
0
 62
     0
  0
LINE
  5
45
100
AcDbEntity
  8
0
 62
     0
100
AcDbLine
 10
-0.5
 20
0.0
 11
-1.0
 21
0.0
  0
ENDBLK
  5
46
100
AcDbEntity
  8
0
100
AcDbBlockEnd
  0
BLOCK
  5
48
100
AcDbEntity
  8
0
100
AcDbBlockBegin
  2
_OBLIQUE
 70
     0
 10
0.0
 20
0.0
  0
LINE
  5
49
100
AcDbEntity
  8
0
 62
     0
100
AcDbLine
 10
-0.353553
 20
-0.353553
 11
0.353553
 21
0.353553
  0
ENDBLK
  5
4A
100
AcDbEntity
  8
0
100
AcDbBlockEnd
  0
BLOCK
  5
4C
100
AcDbEntity
  8
DD0
100
AcDbBlockBegin
  2
DIMS0
 70
     0
 10
0.0
 20
0.0
  0
LINE
  5
4D
100
AcDbEntity
  8
DD0
100
AcDbLine
 10
72.055481
 20
445.573242
 11
72.055481
 21
494.071899
  0
LINE
  5
4E
100
AcDbEntity
  8
DD0
100
AcDbLine
 10
160.05571
 20
455.572968
 11
160.05571
 21
494.071899
  0
LINE
  5
4F
100
AcDbEntity
  8
DD0
100
AcDbLine
 10
77.851036
 20
493.624814
 11
72.055481
 21
492.071899
  0
LINE
  5
50
100
AcDbEntity
  8
DD0
100
AcDbLine
 10
72.055481
 20
492.071899
 11
77.851036
 21
490.518985
  0
LINE
  5
51
100
AcDbEntity
  8
DD0
100
AcDbLine
 10
154.260155
 20
490.518985
 11
160.05571
 21
492.071899
  0
LINE
  5
52
100
AcDbEntity
  8
DD0
100
AcDbLine
 10
160.05571
 20
492.071899
 11
154.260155
 21
493.624814
  0
LINE
  5
53
100
AcDbEntity
  8
DD0
100
AcDbLine
 10
72.055481
 20
492.071899
 11
160.05571
 21
492.071899
  0
TEXT
  5
54
100
AcDbEntity
  8
DD0
100
AcDbText
 10
110.270595
 20
493.271912
 40
6.3
  1
８８
 41
0.833333
  7
STANDARD
100
AcDbText
  0
ENDBLK
  5
55
100
AcDbEntity
  8
DD0
100
AcDbBlockEnd
  0
BLOCK
  5
58
100
AcDbEntity
  8
DD0
100
AcDbBlockBegin
  2
DIMS1
 70
     0
 10
0.0
 20
0.0
  0
LINE
  5
59
100
AcDbEntity
  8
DD0
100
AcDbLine
 10
129.305695
 20
469.0737
 11
182.216904
 21
469.0737
  0
LINE
  5
5A
100
AcDbEntity
  8
DD0
100
AcDbLine
 10
129.305695
 20
363.074188
 11
182.216904
 21
363.074188
  0
LINE
  5
5B
100
AcDbEntity
  8
DD0
100
AcDbLine
 10
181.769818
 20
463.278145
 11
180.216904
 21
469.0737
  0
LINE
  5
5C
100
AcDbEntity
  8
DD0
100
AcDbLine
 10
180.216904
 20
469.0737
 11
178.663989
 21
463.278145
  0
LINE
  5
5D
100
AcDbEntity
  8
DD0
100
AcDbLine
 10
178.663989
 20
368.869743
 11
180.216904
 21
363.074188
  0
LINE
  5
5E
100
AcDbEntity
  8
DD0
100
AcDbLine
 10
180.216904
 20
363.074188
 11
181.769818
 21
368.869743
  0
LINE
  5
5F
100
AcDbEntity
  8
DD0
100
AcDbLine
 10
180.216904
 20
469.0737
 11
180.216904
 21
363.074188
  0
TEXT
  5
60
100
AcDbEntity
  8
DD0
100
AcDbText
 10
179.016907
 20
407.138934
 40
6.3
  1
１０６
 50
90.000003
 41
0.833333
  7
STANDARD
100
AcDbText
  0
ENDBLK
  5
61
100
AcDbEntity
  8
DD0
100
AcDbBlockEnd
  0
BLOCK
  5
64
100
AcDbEntity
  8
DD0
100
AcDbBlockBegin
  2
DIMS2
 70
     0
 10
0.0
 20
0.0
  0
TEXT
  5
65
100
AcDbEntity
  8
DD0
100
AcDbText
 10
37.53947
 20
121.136597
 40
6.3
  1
　印寸法でも
 41
0.833333
  7
STANDARD
100
AcDbText
  0
TEXT
  5
66
100
AcDbEntity
  8
DD0
100
AcDbText
 10
37.539466
 20
112.036598
 40
6.3
  1
取付可能
 41
0.833333
  7
STANDARD
100
AcDbText
  0
ENDBLK
  5
67
100
AcDbEntity
  8
DD0
100
AcDbBlockEnd
  0
BLOCK
  5
6A
100
AcDbEntity
  8
DD0
100
AcDbBlockBegin
  2
DIMS3
 70
     0
 10
0.0
 20
0.0
  0
LINE
  5
6B
100
AcDbEntity
  8
DD0
100
AcDbLine
 10
98.840294
 20
229.121704
 11
182.370865
 21
229.121704
  0
LINE
  5
6C
100
AcDbEntity
  8
DD0
100
AcDbLine
 10
169.840515
 20
164.121704
 11
182.370865
 21
164.121704
  0
LINE
  5
6D
100
AcDbEntity
  8
DD0
100
AcDbLine
 10
181.923779
 20
223.326149
 11
180.370865
 21
229.121704
  0
LINE
  5
6E
100
AcDbEntity
  8
DD0
100
AcDbLine
 10
180.370865
 20
229.121704
 11
178.817951
 21
223.326149
  0
LINE
  5
6F
100
AcDbEntity
  8
DD0
100
AcDbLine
 10
178.817951
 20
169.917259
 11
180.370865
 21
164.121704
  0
LINE
  5
70
100
AcDbEntity
  8
DD0
100
AcDbLine
 10
180.370865
 20
164.121704
 11
181.923779
 21
169.917259
  0
LINE
  5
71
100
AcDbEntity
  8
DD0
100
AcDbLine
 10
180.370865
 20
229.121704
 11
180.370865
 21
164.121704
  0
TEXT
  5
72
100
AcDbEntity
  8
DD0
100
AcDbText
 10
179.170868
 20
190.836703
 40
6.3
  1
６５
 50
90.000003
 41
0.833333
  7
STANDARD
100
AcDbText
  0
ENDBLK
  5
73
100
AcDbEntity
  8
DD0
100
AcDbBlockEnd
  0
BLOCK
  5
76
100
AcDbEntity
  8
DD0
100
AcDbBlockBegin
  2
DIMS4
 70
     0
 10
0.0
 20
0.0
  0
LINE
  5
77
100
AcDbEntity
  8
DD0
100
AcDbLine
 10
80.554588
 20
247.40741
 11
80.554588
 21
272.885223
  0
LINE
  5
78
100
AcDbEntity
  8
DD0
100
AcDbLine
 10
151.55481
 20
182.40741
 11
151.55481
 21
272.885223
  0
LINE
  5
79
100
AcDbEntity
  8
DD0
100
AcDbLine
 10
86.350143
 20
272.438138
 11
80.554588
 21
270.885223
  0
LINE
  5
7A
100
AcDbEntity
  8
DD0
100
AcDbLine
 10
80.554588
 20
270.885223
 11
86.350143
 21
269.332309
  0
LINE
  5
7B
100
AcDbEntity
  8
DD0
100
AcDbLine
 10
145.759255
 20
269.332309
 11
151.55481
 21
270.885223
  0
LINE
  5
7C
100
AcDbEntity
  8
DD0
100
AcDbLine
 10
151.55481
 20
270.885223
 11
145.759255
 21
272.438138
  0
LINE
  5
7D
100
AcDbEntity
  8
DD0
100
AcDbLine
 10
80.554588
 20
270.885223
 11
151.55481
 21
270.885223
  0
TEXT
  5
7E
100
AcDbEntity
  8
DD0
100
AcDbText
 10
88.219707
 20
272.085236
 40
6.3
  1
７１（６８も可能）
 41
0.833333
  7
STANDARD
100
AcDbText
  0
ENDBLK
  5
7F
100
AcDbEntity
  8
DD0
100
AcDbBlockEnd
  0
BLOCK
  5
82
100
AcDbEntity
  8
DD0
100
AcDbBlockBegin
  2
DIMS5
 70
     0
 10
0.0
 20
0.0
  0
LINE
  5
83
100
AcDbEntity
  8
DD0
100
AcDbLine
 10
167.340515
 20
157.621704
 11
192.973236
 21
157.621704
  0
LINE
  5
84
100
AcDbEntity
  8
DD0
100
AcDbLine
 10
101.340523
 20
235.621704
 11
192.973236
 21
235.621704
  0
LINE
  5
85
100
AcDbEntity
  8
DD0
100
AcDbLine
 10
189.420322
 20
163.417259
 11
190.973236
 21
157.621704
  0
LINE
  5
86
100
AcDbEntity
  8
DD0
100
AcDbLine
 10
190.973236
 20
157.621704
 11
192.52615
 21
163.417259
  0
LINE
  5
87
100
AcDbEntity
  8
DD0
100
AcDbLine
 10
192.52615
 20
229.826149
 11
190.973236
 21
235.621704
  0
LINE
  5
88
100
AcDbEntity
  8
DD0
100
AcDbLine
 10
190.973236
 20
235.621704
 11
189.420322
 21
229.826149
  0
LINE
  5
89
100
AcDbEntity
  8
DD0
100
AcDbLine
 10
190.973236
 20
157.621704
 11
190.973236
 21
235.621704
  0
TEXT
  5
8A
100
AcDbEntity
  8
DD0
100
AcDbText
 10
189.773239
 20
190.836703
 40
6.3
  1
７８
 50
90.000003
 41
0.833333
  7
STANDARD
100
AcDbText
  0
ENDBLK
  5
8B
100
AcDbEntity
  8
DD0
100
AcDbBlockEnd
  0
BLOCK
  5
8E
100
AcDbEntity
  8
DD0
100
AcDbBlockBegin
  2
DIMS6
 70
     0
 10
0.0
 20
0.0
  0
LINE
  5
8F
100
AcDbEntity
  8
DD0
100
AcDbLine
 10
83.054817
 20
253.90741
 11
83.054817
 21
260.507507
  0
LINE
  5
90
100
AcDbEntity
  8
DD0
100
AcDbLine
 10
149.05481
 20
175.90741
 11
149.05481
 21
260.507507
  0
LINE
  5
91
100
AcDbEntity
  8
DD0
100
AcDbLine
 10
88.850372
 20
260.060422
 11
83.054817
 21
258.507507
  0
LINE
  5
92
100
AcDbEntity
  8
DD0
100
AcDbLine
 10
83.054817
 20
258.507507
 11
88.850372
 21
256.954593
  0
LINE
  5
93
100
AcDbEntity
  8
DD0
100
AcDbLine
 10
143.259255
 20
256.954593
 11
149.05481
 21
258.507507
  0
LINE
  5
94
100
AcDbEntity
  8
DD0
100
AcDbLine
 10
149.05481
 20
258.507507
 11
143.259255
 21
260.060422
  0
LINE
  5
95
100
AcDbEntity
  8
DD0
100
AcDbLine
 10
83.054817
 20
258.507507
 11
149.05481
 21
258.507507
  0
TEXT
  5
96
100
AcDbEntity
  8
DD0
100
AcDbText
 10
110.269809
 20
259.70752
 40
6.3
  1
６６
 41
0.833333
  7
STANDARD
100
AcDbText
  0
ENDBLK
  5
97
100
AcDbEntity
  8
DD0
100
AcDbBlockEnd
  0
BLOCK
  5
9A
100
AcDbEntity
  8
DD0
100
AcDbBlockBegin
  2
DIMS7
 70
     0
 10
0.0
 20
0.0
  0
TEXT
  5
9B
100
AcDbEntity
  8
DD0
100
AcDbText
 10
162.270892
 20
128.087143
 40
6.3
  1
２－Ｍ４ねじ穴
 41
0.833333
  7
STANDARD
100
AcDbText
  0
LINE
  5
9C
100
AcDbEntity
  8
DD0
100
AcDbLine
 10
152.553278
 20
150.381256
 11
149.05481
 21
155.255753
  0
LINE
  5
9D
100
AcDbEntity
  8
DD0
100
AcDbLine
 10
149.05481
 20
155.255753
 11
149.647323
 21
149.28508
  0
LINE
  5
9E
100
AcDbEntity
  8
DD0
100
AcDbLine
 10
149.05481
 20
155.255753
 11
159.75592
 21
126.887169
  0
LINE
  5
9F
100
AcDbEntity
  8
DD0
100
AcDbLine
 10
159.75592
 20
126.887169
 11
207.855865
 21
126.887131
  0
ENDBLK
  5
A0
100
AcDbEntity
  8
DD0
100
AcDbBlockEnd
  0
BLOCK
  5
A3
100
AcDbEntity
  8
DD0
100
AcDbBlockBegin
  2
DIMS8
 70
     0
 10
0.0
 20
0.0
  0
TEXT
  5
A4
100
AcDbEntity
  8
DD0
100
AcDbText
 10
164.360278
 20
148.620911
 40
6.3
  1
２－Ｍ４ねじ穴
 41
0.833333
  7
STANDARD
100
AcDbText
  0
LINE
  5
A5
100
AcDbEntity
  8
DD0
100
AcDbLine
 10
157.383173
 20
158.692464
 11
153.218445
 21
163.011612
  0
LINE
  5
A6
100
AcDbEntity
  8
DD0
100
AcDbLine
 10
153.218445
 20
163.011612
 11
154.665631
 21
157.188756
  0
LINE
  5
A7
100
AcDbEntity
  8
DD0
100
AcDbLine
 10
153.218445
 20
163.011612
 11
161.845306
 21
147.420914
  0
LINE
  5
A8
100
AcDbEntity
  8
DD0
100
AcDbLine
 10
161.845306
 20
147.420914
 11
209.945313
 21
147.420883
  0
ENDBLK
  5
A9
100
AcDbEntity
  8
DD0
100
AcDbBlockEnd
  0
BLOCK
  5
AC
100
AcDbEntity
  8
DD0
100
AcDbBlockBegin
  2
DIMS9
 70
     0
 10
0.0
 20
0.0
  0
LINE
  5
AD
100
AcDbEntity
  8
DD0
100
AcDbLine
 10
354.928741
 20
366.073944
 11
354.928741
 21
341.593384
  0
LINE
  5
AE
100
AcDbEntity
  8
DD0
100
AcDbLine
 10
352.628754
 20
366.074677
 11
352.628754
 21
341.593384
  0
LINE
  5
AF
100
AcDbEntity
  8
DD0
100
AcDbLine
 10
360.724296
 20
345.146298
 11
354.928741
 21
343.593384
  0
LINE
  5
B0
100
AcDbEntity
  8
DD0
100
AcDbLine
 10
354.928741
 20
343.593384
 11
360.724296
 21
342.040469
  0
LINE
  5
B1
100
AcDbEntity
  8
DD0
100
AcDbLine
 10
346.833199
 20
342.040469
 11
352.628754
 21
343.593384
  0
LINE
  5
B2
100
AcDbEntity
  8
DD0
100
AcDbLine
 10
352.628754
 20
343.593384
 11
346.833199
 21
345.146298
  0
LINE
  5
B3
100
AcDbEntity
  8
DD0
100
AcDbLine
 10
361.528741
 20
343.593384
 11
325.128752
 21
343.593384
  0
TEXT
  5
B4
100
AcDbEntity
  8
DD0
100
AcDbText
 10
326.743762
 20
344.793396
 40
6.3
  1
２．３
 41
0.833333
  7
STANDARD
100
AcDbText
  0
ENDBLK
  5
B5
100
AcDbEntity
  8
DD0
100
AcDbBlockEnd
  0
BLOCK
  5
B8
100
AcDbEntity
  8
DD0
100
AcDbBlockBegin
  2
DIMS10
 70
     0
 10
0.0
 20
0.0
  0
LINE
  5
B9
100
AcDbEntity
  8
DD0
100
AcDbLine
 10
354.928741
 20
466.073181
 11
354.928741
 21
494.071899
  0
LINE
  5
BA
100
AcDbEntity
  8
DD0
100
AcDbLine
 10
215.229263
 20
450.073181
 11
215.229263
 21
494.071899
  0
LINE
  5
BB
100
AcDbEntity
  8
DD0
100
AcDbLine
 10
349.133187
 20
490.518985
 11
354.928741
 21
492.071899
  0
LINE
  5
BC
100
AcDbEntity
  8
DD0
100
AcDbLine
 10
354.928741
 20
492.071899
 11
349.133187
 21
493.624814
  0
LINE
  5
BD
100
AcDbEntity
  8
DD0
100
AcDbLine
 10
221.024818
 20
493.624814
 11
215.229263
 21
492.071899
  0
LINE
  5
BE
100
AcDbEntity
  8
DD0
100
AcDbLine
 10
215.229263
 20
492.071899
 11
221.024818
 21
490.518985
  0
LINE
  5
BF
100
AcDbEntity
  8
DD0
100
AcDbLine
 10
354.928741
 20
492.071899
 11
215.229263
 21
492.071899
  0
TEXT
  5
C0
100
AcDbEntity
  8
DD0
100
AcDbText
 10
276.144
 20
493.271912
 40
6.3
  1
１４７
 41
0.833333
  7
STANDARD
100
AcDbText
  0
ENDBLK
  5
C1
100
AcDbEntity
  8
DD0
100
AcDbBlockEnd
  0
ENDSEC
  0
SECTION
  2
ENTITIES
  0
INSERT
  5
56
100
AcDbEntity
  8
DD0
100
AcDbBlockReference
  2
DIMS0
 10
0.0
 20
0.0
  0
INSERT
  5
62
100
AcDbEntity
  8
DD0
100
AcDbBlockReference
  2
DIMS1
 10
0.0
 20
0.0
  0
INSERT
  5
68
100
AcDbEntity
  8
DD0
100
AcDbBlockReference
  2
DIMS2
 10
0.0
 20
0.0
  0
INSERT
  5
74
100
AcDbEntity
  8
DD0
100
AcDbBlockReference
  2
DIMS3
 10
0.0
 20
0.0
  0
INSERT
  5
80
100
AcDbEntity
  8
DD0
100
AcDbBlockReference
  2
DIMS4
 10
0.0
 20
0.0
  0
INSERT
  5
8C
100
AcDbEntity
  8
DD0
100
AcDbBlockReference
  2
DIMS5
 10
0.0
 20
0.0
  0
INSERT
  5
98
100
AcDbEntity
  8
DD0
100
AcDbBlockReference
  2
DIMS6
 10
0.0
 20
0.0
  0
INSERT
  5
A1
100
AcDbEntity
  8
DD0
100
AcDbBlockReference
  2
DIMS7
 10
0.0
 20
0.0
  0
INSERT
  5
AA
100
AcDbEntity
  8
DD0
100
AcDbBlockReference
  2
DIMS8
 10
0.0
 20
0.0
  0
INSERT
  5
B6
100
AcDbEntity
  8
DD0
100
AcDbBlockReference
  2
DIMS9
 10
0.0
 20
0.0
  0
INSERT
  5
C2
100
AcDbEntity
  8
DD0
100
AcDbBlockReference
  2
DIMS10
 10
0.0
 20
0.0
  0
LINE
  5
C3
100
AcDbEntity
  8
M0
100
AcDbLine
 10
302.02853
 20
377.073618
 11
306.628539
 21
377.073618
  0
LINE
  5
C4
100
AcDbEntity
  8
M0
100
AcDbLine
 10
302.02853
 20
380.94932
 11
343.228755
 21
388.573954
  0
LINE
  5
C5
100
AcDbEntity
  8
M0
100
AcDbLine
 10
306.628539
 20
381.850944
 11
306.628539
 21
377.073618
  0
LINE
  5
C6
100
AcDbEntity
  8
M0
100
AcDbLine
 10
302.02853
 20
380.94932
 11
302.02853
 21
377.073618
  0
LINE
  5
C7
100
AcDbEntity
  8
M0
100
AcDbLine
 10
348.028736
 20
377.073618
 11
348.028736
 21
388.573954
  0
LINE
  5
C8
100
AcDbEntity
  8
M0
100
AcDbLine
 10
352.628744
 20
388.573954
 11
352.628744
 21
368.074686
  0
LINE
  5
C9
100
AcDbEntity
  8
M0
100
AcDbLine
 10
294.928783
 20
380.94932
 11
302.02853
 21
380.94932
  0
LINE
  5
CA
100
AcDbEntity
  8
M0
100
AcDbLine
 10
348.028736
 20
377.073618
 11
352.628744
 21
377.073618
  0
LINE
  5
CB
100
AcDbEntity
  8
M0
100
AcDbLine
 10
306.628539
 20
379.168119
 11
348.028736
 21
379.168119
  0
LINE
  5
CC
100
AcDbEntity
  8
M0
100
AcDbLine
 10
297.328774
 20
464.07341
 11
297.328774
 21
368.073954
  0
LINE
  5
CD
100
AcDbEntity
  8
M0
 62
     7
100
AcDbLine
 10
229.929211
 20
448.573176
 11
229.929211
 21
434.073176
  0
LINE
  5
CE
100
AcDbEntity
  8
M0
 62
     7
100
AcDbLine
 10
229.929211
 20
450.073176
 11
229.962658
 21
450.073176
  0
LINE
  5
CF
100
AcDbEntity
  8
M0
 62
     7
100
AcDbLine
 10
229.929211
 20
382.073496
 11
229.962658
 21
382.073496
  0
LINE
  5
D0
100
AcDbEntity
  8
M0
 62
     7
100
AcDbLine
 10
229.929211
 20
398.073954
 11
229.929211
 21
383.573496
  0
LINE
  5
D1
100
AcDbEntity
  8
M0
  6
DASHDOT
 62
     6
100
AcDbLine
 10
66.606783
 20
416.07371
 11
116.055681
 21
416.07371
  0
LINE
  5
D2
100
AcDbEntity
  8
M0
 62
     6
100
AcDbLine
 10
290.429211
 20
438.82342
 11
294.929211
 21
438.82342
  0
LINE
  5
D3
100
AcDbEntity
  8
M0
 62
     6
100
AcDbLine
 10
290.429211
 20
433.82342
 11
294.929211
 21
433.82342
  0
ARC
  5
D4
100
AcDbEntity
  8
M0
 62
     6
100
AcDbCircle
 10
290.429211
 20
436.32342
 40
2.499996
100
AcDbArc
 50
90.0
 51
180.0
  0
LINE
  5
D5
100
AcDbEntity
  8
M0
 62
     6
100
AcDbLine
 10
290.428966
 20
393.32371
 11
294.928966
 21
393.32371
  0
ARC
  5
D6
100
AcDbEntity
  8
M0
 62
     6
100
AcDbCircle
 10
290.428966
 20
395.82371
 40
2.499996
100
AcDbArc
 50
180.0
 51
269.99965
  0
LINE
  5
D7
100
AcDbEntity
  8
M0
 62
     6
100
AcDbLine
 10
290.428966
 20
398.32371
 11
294.928966
 21
398.32371
  0
LINE
  5
D8
100
AcDbEntity
  8
M0
 62
     6
100
AcDbLine
 10
249.929211
 20
469.073176
 11
266.685558
 21
469.073176
  0
LINE
  5
D9
100
AcDbEntity
  8
M0
 62
     6
100
AcDbLine
 10
244.929211
 20
464.072443
 11
294.929211
 21
464.072443
  0
LINE
  5
DA
100
AcDbEntity
  8
M0
 62
     6
100
AcDbLine
 10
276.429211
 20
445.573176
 11
280.721691
 21
445.573176
  0
LINE
  5
DB
100
AcDbEntity
  8
M0
 62
     6
100
AcDbLine
 10
259.767834
 20
442.573176
 11
275.929211
 21
442.573176
  0
LINE
  5
DC
100
AcDbEntity
  8
M0
 62
     6
100
AcDbLine
 10
227.029064
 20
434.073176
 11
249.729015
 21
434.073176
  0
LINE
  5
DD
100
AcDbEntity
  8
M0
 62
     6
100
AcDbLine
 10
226.029064
 20
419.823466
 11
228.429211
 21
419.823466
  0
LINE
  5
DE
100
AcDbEntity
  8
M0
 62
     6
100
AcDbLine
 10
268.806896
 20
468.194285
 11
272.928966
 21
464.072214
  0
LINE
  5
DF
100
AcDbEntity
  8
M0
 62
     6
100
AcDbLine
 10
229.929211
 20
449.072199
 11
229.929211
 21
434.073176
  0
ARC
  5
E0
100
AcDbEntity
  8
M0
 62
     6
100
AcDbCircle
 10
249.929211
 20
449.073176
 40
19.999939
100
AcDbArc
 50
90.0
 51
177.134052
  0
ARC
  5
E1
100
AcDbEntity
  8
M0
 62
     6
100
AcDbCircle
 10
244.929211
 20
449.072443
 40
14.999996
100
AcDbArc
 50
90.0
 51
180.0
  0
LINE
  5
E2
100
AcDbEntity
  8
M0
 62
     6
100
AcDbLine
 10
275.929211
 20
445.073176
 11
275.929211
 21
442.573176
  0
LINE
  5
E3
100
AcDbEntity
  8
M0
 62
     6
100
AcDbLine
 10
281.075451
 20
445.426691
 11
283.929211
 21
442.573176
  0
LINE
  5
E4
100
AcDbEntity
  8
M0
 62
     6
100
AcDbLine
 10
258.783214
 20
441.74676
 11
257.574962
 21
434.899348
  0
LINE
  5
E5
100
AcDbEntity
  8
M0
 62
     6
100
AcDbLine
 10
283.929211
 20
442.573176
 11
294.929211
 21
442.573176
  0
LINE
  5
E6
100
AcDbEntity
  8
M0
 62
     6
100
AcDbLine
 10
245.829113
 20
433.573176
 11
245.829113
 21
431.57342
  0
LINE
  5
E7
100
AcDbEntity
  8
M0
 62
     6
100
AcDbLine
 10
249.729015
 20
433.573176
 11
249.729015
 21
431.57342
  0
LINE
  5
E8
100
AcDbEntity
  8
M0
 62
     6
100
AcDbLine
 10
246.329113
 20
431.07342
 11
249.229015
 21
431.07342
  0
LINE
  5
E9
100
AcDbEntity
  8
M0
 62
     6
100
AcDbLine
 10
249.729015
 20
434.073176
 11
256.590099
 21
434.073176
  0
LINE
  5
EA
100
AcDbEntity
  8
M0
 62
     6
100
AcDbLine
 10
226.029064
 20
433.073176
 11
226.029064
 21
419.823466
  0
ARC
  5
EB
100
AcDbEntity
  8
M0
 62
     6
100
AcDbCircle
 10
227.029064
 20
433.073176
 40
1.0
100
AcDbArc
 50
90.0
 51
180.0
  0
LINE
  5
EC
100
AcDbEntity
  8
M0
 62
     6
100
AcDbLine
 10
226.529064
 20
419.823466
 11
226.529064
 21
413.073694
  0
LINE
  5
ED
100
AcDbEntity
  8
M0
 62
     6
100
AcDbLine
 10
228.429211
 20
419.823466
 11
228.429211
 21
413.073694
  0
LINE
  5
EE
100
AcDbEntity
  8
M0
 62
     6
100
AcDbLine
 10
249.929211
 20
363.073954
 11
266.685558
 21
363.073954
  0
LINE
  5
EF
100
AcDbEntity
  8
M0
 62
     6
100
AcDbLine
 10
244.929211
 20
368.074686
 11
330.792477
 21
368.074686
  0
LINE
  5
F0
100
AcDbEntity
  8
M0
 62
     6
100
AcDbLine
 10
276.429211
 20
386.573954
 11
280.721935
 21
386.573954
  0
LINE
  5
F1
100
AcDbEntity
  8
M0
 62
     6
100
AcDbLine
 10
259.767834
 20
389.573954
 11
275.929211
 21
389.573954
  0
LINE
  5
F2
100
AcDbEntity
  8
M0
 62
     6
100
AcDbLine
 10
227.029064
 20
398.073954
 11
249.728771
 21
398.073954
  0
LINE
  5
F3
100
AcDbEntity
  8
M0
 62
     6
100
AcDbLine
 10
226.029064
 20
412.323954
 11
228.429211
 21
412.323954
  0
LINE
  5
F4
100
AcDbEntity
  8
M0
 62
     6
100
AcDbLine
 10
268.806652
 20
363.952616
 11
272.928966
 21
368.074686
  0
LINE
  5
F5
100
AcDbEntity
  8
M0
 62
     6
100
AcDbLine
 10
229.929211
 20
383.074686
 11
229.929211
 21
398.073954
  0
ARC
  5
F6
100
AcDbEntity
  8
M0
 62
     6
100
AcDbCircle
 10
249.929211
 20
383.073954
 40
19.999939
100
AcDbArc
 50
182.867304
 51
269.999913
  0
ARC
  5
F7
100
AcDbEntity
  8
M0
 62
     6
100
AcDbCircle
 10
244.929211
 20
383.074686
 40
14.999996
100
AcDbArc
 50
180.0
 51
269.999942
  0
LINE
  5
F8
100
AcDbEntity
  8
M0
 62
     6
100
AcDbLine
 10
275.929211
 20
387.073954
 11
275.929211
 21
389.573954
  0
LINE
  5
F9
100
AcDbEntity
  8
M0
 62
     6
100
AcDbLine
 10
281.075451
 20
386.720392
 11
283.929211
 21
389.573954
  0
LINE
  5
FA
100
AcDbEntity
  8
M0
 62
     6
100
AcDbLine
 10
258.783214
 20
390.400217
 11
257.574962
 21
397.247721
  0
LINE
  5
FB
100
AcDbEntity
  8
M0
 62
     6
100
AcDbLine
 10
283.929211
 20
389.573954
 11
294.929211
 21
389.573954
  0
LINE
  5
FC
100
AcDbEntity
  8
M0
 62
     6
100
AcDbLine
 10
249.729015
 20
398.073954
 11
256.590099
 21
398.073954
  0
LINE
  5
FD
100
AcDbEntity
  8
M0
 62
     6
100
AcDbLine
 10
226.029064
 20
399.073954
 11
226.029064
 21
412.323954
  0
ARC
  5
FE
100
AcDbEntity
  8
M0
 62
     6
100
AcDbCircle
 10
227.029064
 20
399.073954
 40
1.0
100
AcDbArc
 50
180.0
 51
269.999126
  0
LINE
  5
FF
100
AcDbEntity
  8
M0
 62
     6
100
AcDbLine
 10
292.929211
 20
423.073405
 11
292.929211
 21
423.07316
  0
ARC
  5
100
100
AcDbEntity
  8
M0
 62
     6
100
AcDbCircle
 10
290.429211
 20
436.32342
 40
2.499996
100
AcDbArc
 50
180.0
 51
269.99965
  0
ARC
  5
101
100
AcDbEntity
  8
M0
 62
     6
100
AcDbCircle
 10
290.428966
 20
395.82371
 40
2.499996
100
AcDbArc
 50
90.0
 51
180.0
  0
LINE
  5
102
100
AcDbEntity
  8
M0
 62
     6
100
AcDbLine
 10
288.929211
 20
464.072443
 11
288.929211
 21
442.573176
  0
LINE
  5
103
100
AcDbEntity
  8
M0
 62
     6
100
AcDbLine
 10
277.928982
 20
386.573954
 11
277.928982
 21
368.074686
  0
LINE
  5
104
100
AcDbEntity
  8
M0
 62
     6
100
AcDbLine
 10
294.928966
 20
423.073405
 11
283.928966
 21
423.073405
  0
LINE
  5
105
100
AcDbEntity
  8
M0
 62
     6
100
AcDbLine
 10
281.928966
 20
421.072977
 11
281.928966
 21
418.07371
  0
ARC
  5
106
100
AcDbEntity
  8
M0
 62
     6
100
AcDbCircle
 10
283.928966
 20
421.073221
 40
1.999996
100
AcDbArc
 50
90.0
 51
180.006994
  0
LINE
  5
107
100
AcDbEntity
  8
M0
 62
     6
100
AcDbLine
 10
292.929211
 20
409.073954
 11
292.929211
 21
409.074198
  0
LINE
  5
108
100
AcDbEntity
  8
M0
 62
     6
100
AcDbLine
 10
294.928966
 20
409.073954
 11
283.928966
 21
409.073954
  0
LINE
  5
109
100
AcDbEntity
  8
M0
 62
     6
100
AcDbLine
 10
281.928966
 20
411.074442
 11
281.928966
 21
414.07371
  0
ARC
  5
10A
100
AcDbEntity
  8
M0
 62
     6
100
AcDbCircle
 10
283.928966
 20
411.074198
 40
1.999996
100
AcDbArc
 50
180.0
 51
269.999563
  0
ARC
  5
10B
100
AcDbEntity
  8
M0
 62
     6
100
AcDbCircle
 10
259.767834
 20
441.573176
 40
1.0
100
AcDbArc
 50
90.0
 51
170.001997
  0
ARC
  5
10C
100
AcDbEntity
  8
M0
 62
     6
100
AcDbCircle
 10
259.767834
 20
390.573954
 40
1.0
100
AcDbArc
 50
190.006764
 51
269.999126
  0
ARC
  5
10D
100
AcDbEntity
  8
M0
 62
     6
100
AcDbCircle
 10
266.685558
 20
466.073176
 40
2.999996
100
AcDbArc
 50
45.0
 51
90.0
  0
ARC
  5
10E
100
AcDbEntity
  8
M0
 62
     6
100
AcDbCircle
 10
266.685558
 20
366.073954
 40
2.999996
100
AcDbArc
 50
269.999709
 51
314.996497
  0
ARC
  5
10F
100
AcDbEntity
  8
M0
 62
     6
100
AcDbCircle
 10
256.590099
 20
435.073176
 40
1.0
100
AcDbArc
 50
269.999126
 51
349.989488
  0
ARC
  5
110
100
AcDbEntity
  8
M0
 62
     6
100
AcDbCircle
 10
256.590099
 20
397.073954
 40
1.0
100
AcDbArc
 50
10.006055
 51
90.0
  0
ARC
  5
111
100
AcDbEntity
  8
M0
 62
     6
100
AcDbCircle
 10
245.329113
 20
433.573176
 40
0.5
100
AcDbArc
 50
0.0
 51
90.0
  0
ARC
  5
112
100
AcDbEntity
  8
M0
 62
     6
100
AcDbCircle
 10
246.329113
 20
431.57342
 40
0.5
100
AcDbArc
 50
180.0
 51
269.998251
  0
ARC
  5
113
100
AcDbEntity
  8
M0
 62
     6
100
AcDbCircle
 10
249.229015
 20
431.57342
 40
0.5
100
AcDbArc
 50
269.998251
 51
360.0
  0
ARC
  5
114
100
AcDbEntity
  8
M0
 62
     6
100
AcDbCircle
 10
250.229015
 20
433.573176
 40
0.5
100
AcDbArc
 50
90.0
 51
180.0
  0
ARC
  5
115
100
AcDbEntity
  8
M0
 62
     6
100
AcDbCircle
 10
245.328869
 20
398.573954
 40
0.5
100
AcDbArc
 50
-90.001749
 51
0.0
  0
LINE
  5
116
100
AcDbEntity
  8
M0
 62
     6
100
AcDbLine
 10
245.828869
 20
398.573954
 11
245.828869
 21
400.57371
  0
LINE
  5
117
100
AcDbEntity
  8
M0
 62
     6
100
AcDbLine
 10
246.328869
 20
401.07371
 11
249.228771
 21
401.07371
  0
ARC
  5
118
100
AcDbEntity
  8
M0
 62
     6
100
AcDbCircle
 10
246.328869
 20
400.57371
 40
0.5
100
AcDbArc
 50
90.0
 51
180.0
  0
ARC
  5
119
100
AcDbEntity
  8
M0
 62
     6
100
AcDbCircle
 10
249.228771
 20
400.57371
 40
0.5
100
AcDbArc
 50
0.0
 51
90.0
  0
LINE
  5
11A
100
AcDbEntity
  8
M0
 62
     6
100
AcDbLine
 10
249.728771
 20
398.573954
 11
249.728771
 21
400.57371
  0
ARC
  5
11B
100
AcDbEntity
  8
M0
 62
     6
100
AcDbCircle
 10
250.228771
 20
398.573954
 40
0.5
100
AcDbArc
 50
180.0
 51
269.998251
  0
LINE
  5
11C
100
AcDbEntity
  8
M0
 62
     6
100
AcDbLine
 10
294.929211
 20
423.07316
 11
294.929211
 21
438.82342
  0
ARC
  5
11D
100
AcDbEntity
  8
M0
 62
     6
100
AcDbCircle
 10
276.429211
 20
387.073954
 40
0.5
100
AcDbArc
 50
180.0
 51
269.998251
  0
ARC
  5
11E
100
AcDbEntity
  8
M0
 62
     6
100
AcDbCircle
 10
280.721935
 20
387.073954
 40
0.5
100
AcDbArc
 50
269.998251
 51
314.995054
  0
ARC
  5
11F
100
AcDbEntity
  8
M0
 62
     6
100
AcDbCircle
 10
280.721691
 20
445.073176
 40
0.5
100
AcDbArc
 50
44.980217
 51
90.0
  0
ARC
  5
120
100
AcDbEntity
  8
M0
 62
     6
100
AcDbCircle
 10
276.429211
 20
445.073176
 40
0.5
100
AcDbArc
 50
90.0
 51
180.0
  0
LINE
  5
121
100
AcDbEntity
  8
M0
 62
     6
100
AcDbLine
 10
267.429211
 20
389.573954
 11
267.429211
 21
369.074686
  0
LINE
  5
122
100
AcDbEntity
  8
M0
 62
     6
100
AcDbLine
 10
263.679211
 20
389.573954
 11
263.679211
 21
369.074686
  0
ARC
  5
123
100
AcDbEntity
  8
M0
 62
     6
100
AcDbCircle
 10
262.679211
 20
369.074686
 40
1.0
100
AcDbArc
 50
269.999126
 51
360.0
  0
ARC
  5
124
100
AcDbEntity
  8
M0
 62
     6
100
AcDbCircle
 10
268.429211
 20
369.074686
 40
1.0
100
AcDbArc
 50
180.0
 51
269.999126
  0
LINE
  5
125
100
AcDbEntity
  8
M0
 62
     6
100
AcDbLine
 10
263.679211
 20
442.572931
 11
263.679211
 21
463.072199
  0
LINE
  5
126
100
AcDbEntity
  8
M0
 62
     6
100
AcDbLine
 10
267.429211
 20
442.572931
 11
267.429211
 21
463.072199
  0
ARC
  5
127
100
AcDbEntity
  8
M0
 62
     6
100
AcDbCircle
 10
262.679211
 20
463.072199
 40
1.0
100
AcDbArc
 50
0.0
 51
90.0
  0
ARC
  5
128
100
AcDbEntity
  8
M0
 62
     6
100
AcDbCircle
 10
268.429211
 20
463.072199
 40
1.0
100
AcDbArc
 50
90.0
 51
180.0
  0
LINE
  5
129
100
AcDbEntity
  8
M0
 62
     6
100
AcDbLine
 10
294.929211
 20
438.32342
 11
294.929211
 21
464.072443
  0
LINE
  5
12A
100
AcDbEntity
  8
M0
 62
     6
100
AcDbLine
 10
294.929211
 20
397.823954
 11
294.929211
 21
409.07371
  0
LINE
  5
12B
100
AcDbEntity
  8
M0
 62
     6
100
AcDbLine
 10
226.529064
 20
413.073694
 11
226.529064
 21
412.323954
  0
LINE
  5
12C
100
AcDbEntity
  8
M0
 62
     6
100
AcDbLine
 10
228.429211
 20
413.073694
 11
228.429211
 21
412.323954
  0
LINE
  5
12D
100
AcDbEntity
  8
M0
 62
     6
100
AcDbLine
 10
283.128918
 20
415.07371
 11
283.128918
 21
417.07371
  0
LINE
  5
12E
100
AcDbEntity
  8
M0
100
AcDbLine
 10
281.928966
 20
418.07371
 11
283.128918
 21
417.07371
  0
LINE
  5
12F
100
AcDbEntity
  8
M0
100
AcDbLine
 10
281.928966
 20
414.07371
 11
283.128918
 21
415.07371
  0
LINE
  5
130
100
AcDbEntity
  8
M0
  6
DASHDOT
 62
     6
100
AcDbLine
 10
205.016517
 20
416.07371
 11
362.758974
 21
416.07371
  0
LINE
  5
131
100
AcDbEntity
  8
M0
 62
     6
100
AcDbLine
 10
294.928738
 20
368.073954
 11
294.928738
 21
368.074686
  0
LINE
  5
132
100
AcDbEntity
  8
M0
 62
     6
100
AcDbLine
 10
294.928585
 20
368.074686
 11
294.929051
 21
398.32371
  0
LINE
  5
133
100
AcDbEntity
  8
M0
  6
DASHDOT
 62
     6
100
AcDbLine
 10
146.555666
 20
416.07371
 11
163.378771
 21
416.07371
  0
LINE
  5
134
100
AcDbEntity
  8
M0
  6
DASHDOT
 62
     6
100
AcDbLine
 10
165.50458
 20
416.07374
 11
116.055681
 21
416.07371
  0
LINE
  5
135
100
AcDbEntity
  8
M0
 62
     6
100
AcDbLine
 10
334.232601
 20
368.074686
 11
354.928744
 21
368.074686
  0
LINE
  5
136
100
AcDbEntity
  8
M0
 62
     6
100
AcDbLine
 10
116.056535
 20
464.071757
 11
107.80594
 21
464.071757
  0
LINE
  5
137
100
AcDbEntity
  8
M0
 62
     6
100
AcDbLine
 10
104.805941
 20
469.072977
 11
107.305941
 21
469.072977
  0
LINE
  5
138
100
AcDbEntity
  8
M0
 62
     6
100
AcDbLine
 10
104.305941
 20
464.071757
 11
84.055941
 21
464.072245
  0
LINE
  5
139
100
AcDbEntity
  8
M0
 62
     6
100
AcDbLine
 10
146.55559
 20
464.072001
 11
148.055926
 21
464.072001
  0
LINE
  5
13A
100
AcDbEntity
  8
M0
 62
     5
100
AcDbLine
 10
84.005648
 20
461.288065
 11
76.35599
 21
456.028788
  0
ARC
  5
13B
100
AcDbEntity
  8
M0
 62
     5
100
AcDbCircle
 10
78.055697
 20
453.55662
 40
3.0
100
AcDbArc
 50
124.509994
 51
180.0
  0
ARC
  5
13C
100
AcDbEntity
  8
M0
 62
     5
100
AcDbCircle
 10
83.055697
 20
455.072733
 40
2.249998
100
AcDbArc
 50
65.0255
 51
294.974336
  0
LINE
  5
13D
100
AcDbEntity
  8
M0
  6
DASHDOT
 62
     5
100
AcDbLine
 10
78.862337
 20
455.072733
 11
86.693606
 21
455.072733
  0
ARC
  5
13E
100
AcDbEntity
  8
M0
 62
     5
100
AcDbCircle
 10
159.555681
 20
453.572733
 40
0.5
100
AcDbArc
 50
0.0
 51
90.0
  0
LINE
  5
13F
100
AcDbEntity
  8
M0
 62
     5
100
AcDbLine
 10
156.055681
 20
454.072977
 11
159.555681
 21
454.072977
  0
LINE
  5
140
100
AcDbEntity
  8
M0
 62
     5
100
AcDbLine
 10
148.055926
 20
452.572977
 11
156.055681
 21
452.572977
  0
LINE
  5
141
100
AcDbEntity
  8
M0
 62
     6
100
AcDbLine
 10
107.80594
 20
468.572977
 11
107.80594
 21
448.572977
  0
LINE
  5
142
100
AcDbEntity
  8
M0
 62
     6
100
AcDbLine
 10
72.555941
 20
445.572977
 11
74.055941
 21
445.572977
  0
ARC
  5
143
100
AcDbEntity
  8
M0
 62
     6
100
AcDbCircle
 10
74.055941
 20
445.072977
 40
0.5
100
AcDbArc
 50
0.0
 51
89.998251
  0
ARC
  5
144
100
AcDbEntity
  8
M0
 62
     6
100
AcDbCircle
 10
72.555941
 20
445.072977
 40
0.5
100
AcDbArc
 50
89.998251
 51
180.0
  0
LINE
  5
145
100
AcDbEntity
  8
M0
 62
     6
100
AcDbLine
 10
87.805941
 20
464.072977
 11
87.805941
 21
448.572489
  0
LINE
  5
146
100
AcDbEntity
  8
M0
 62
     6
100
AcDbLine
 10
104.305941
 20
468.572977
 11
104.305941
 21
448.572489
  0
LINE
  5
147
100
AcDbEntity
  8
M0
 62
     6
100
AcDbLine
 10
107.80594
 20
468.572977
 11
107.80594
 21
448.572489
  0
LINE
  5
148
100
AcDbEntity
  8
M0
 62
     6
100
AcDbLine
 10
159.555926
 20
445.572733
 11
158.055926
 21
445.572733
  0
ARC
  5
149
100
AcDbEntity
  8
M0
 62
     6
100
AcDbCircle
 10
158.055926
 20
445.072733
 40
0.5
100
AcDbArc
 50
90.0
 51
180.0
  0
ARC
  5
14A
100
AcDbEntity
  8
M0
 62
     6
100
AcDbCircle
 10
159.555926
 20
445.072733
 40
0.5
100
AcDbArc
 50
0.0
 51
90.0
  0
LINE
  5
14B
100
AcDbEntity
  8
M0
 62
     7
100
AcDbLine
 10
110.55594
 20
450.072733
 11
108.55594
 21
450.072733
  0
ARC
  5
14C
100
AcDbEntity
  8
M0
 62
     7
100
AcDbCircle
 10
108.55594
 20
449.572733
 40
0.5
100
AcDbArc
 50
90.0
 51
180.0
  0
LINE
  5
14D
100
AcDbEntity
  8
M0
 62
     7
100
AcDbLine
 10
116.056535
 20
448.572489
 11
84.555941
 21
448.572733
  0
ARC
  5
14E
100
AcDbEntity
  8
M0
 62
     7
100
AcDbCircle
 10
84.555941
 20
448.072733
 40
0.5
100
AcDbArc
 50
89.998251
 51
180.0
  0
ARC
  5
14F
100
AcDbEntity
  8
M0
 62
     7
100
AcDbCircle
 10
147.555926
 20
448.072733
 40
0.5
100
AcDbArc
 50
0.0
 51
90.0
  0
LINE
  5
150
100
AcDbEntity
  8
M0
 62
     7
100
AcDbLine
 10
111.05594
 20
449.572733
 11
111.05594
 21
448.572733
  0
LINE
  5
151
100
AcDbEntity
  8
M0
 62
     7
100
AcDbLine
 10
108.05594
 20
449.572733
 11
108.05594
 21
448.572733
  0
ARC
  5
152
100
AcDbEntity
  8
M0
 62
     7
100
AcDbCircle
 10
110.55594
 20
449.572733
 40
0.5
100
AcDbArc
 50
0.0
 51
90.0
  0
LINE
  5
153
100
AcDbEntity
  8
M0
 62
     5
100
AcDbLine
 10
75.055697
 20
443.572989
 11
75.055697
 21
453.55662
  0
LINE
  5
154
100
AcDbEntity
  8
M0
  6
DASHDOT
 62
     5
100
AcDbLine
 10
83.055697
 20
450.932108
 11
83.055697
 21
458.545878
  0
LINE
  5
155
100
AcDbEntity
  8
M0
 62
     5
100
AcDbLine
 10
74.555697
 20
443.572989
 11
75.055697
 21
443.572989
  0
LINE
  5
156
100
AcDbEntity
  8
M0
 62
     5
100
AcDbLine
 10
148.055926
 20
443.072989
 11
156.055681
 21
443.072989
  0
LINE
  5
157
100
AcDbEntity
  8
M0
  6
DASHDOT
100
AcDbLine
 10
76.428026
 20
448.572977
 11
94.055453
 21
448.572977
  0
LINE
  5
158
100
AcDbEntity
  8
M0
 62
     7
100
AcDbLine
 10
112.05594
 20
428.072898
 11
113.55594
 21
428.072898
  0
LINE
  5
159
100
AcDbEntity
  8
M0
100
AcDbLine
 10
154.377459
 20
428.472648
 11
155.645769
 21
428.472648
  0
LINE
  5
15A
100
AcDbEntity
  8
M0
100
AcDbLine
 10
149.734148
 20
428.472648
 11
148.465838
 21
428.472648
  0
LINE
  5
15B
100
AcDbEntity
  8
M0
 62
     6
100
AcDbLine
 10
83.255892
 20
431.572989
 11
83.255892
 21
430.572989
  0
LINE
  5
15C
100
AcDbEntity
  8
M0
 62
     6
100
AcDbLine
 10
76.855746
 20
431.572989
 11
76.855746
 21
430.572989
  0
LINE
  5
15D
100
AcDbEntity
  8
M0
 62
     6
100
AcDbLine
 10
76.555941
 20
433.572745
 11
76.555941
 21
432.072989
  0
LINE
  5
15E
100
AcDbEntity
  8
M0
 62
     6
100
AcDbLine
 10
83.555941
 20
433.572989
 11
83.555941
 21
432.072989
  0
ARC
  5
15F
100
AcDbEntity
  8
M0
 62
     6
100
AcDbCircle
 10
76.355746
 20
431.572989
 40
0.5
100
AcDbArc
 50
0.0
 51
89.998251
  0
LINE
  5
160
100
AcDbEntity
  8
M0
 62
     6
100
AcDbLine
 10
76.055941
 20
430.572989
 11
77.116732
 21
430.572989
  0
LINE
  5
161
100
AcDbEntity
  8
M0
 62
     6
100
AcDbLine
 10
76.055941
 20
432.072989
 11
76.355746
 21
432.072989
  0
LINE
  5
162
100
AcDbEntity
  8
M0
 62
     6
100
AcDbLine
 10
83.755892
 20
432.072989
 11
84.055941
 21
432.072989
  0
ARC
  5
163
100
AcDbEntity
  8
M0
 62
     6
100
AcDbCircle
 10
83.755892
 20
431.572989
 40
0.5
100
AcDbArc
 50
89.998251
 51
180.0
  0
LINE
  5
164
100
AcDbEntity
  8
M0
 62
     6
100
AcDbLine
 10
148.85573
 20
431.572745
 11
148.85573
 21
430.572745
  0
LINE
  5
165
100
AcDbEntity
  8
M0
 62
     6
100
AcDbLine
 10
155.255877
 20
431.572745
 11
155.255877
 21
430.572745
  0
LINE
  5
166
100
AcDbEntity
  8
M0
 62
     6
100
AcDbLine
 10
155.555926
 20
433.5725
 11
155.555926
 21
432.072745
  0
LINE
  5
167
100
AcDbEntity
  8
M0
 62
     6
100
AcDbLine
 10
148.555926
 20
433.572745
 11
148.555926
 21
432.072745
  0
ARC
  5
168
100
AcDbEntity
  8
M0
 62
     6
100
AcDbCircle
 10
155.755877
 20
431.572745
 40
0.5
100
AcDbArc
 50
90.0
 51
180.0
  0
LINE
  5
169
100
AcDbEntity
  8
M0
 62
     6
100
AcDbLine
 10
156.055926
 20
430.572745
 11
154.99489
 21
430.572745
  0
LINE
  5
16A
100
AcDbEntity
  8
M0
 62
     6
100
AcDbLine
 10
156.055926
 20
432.072745
 11
155.755877
 21
432.072745
  0
LINE
  5
16B
100
AcDbEntity
  8
M0
 62
     6
100
AcDbLine
 10
148.35573
 20
432.072745
 11
148.055926
 21
432.072745
  0
ARC
  5
16C
100
AcDbEntity
  8
M0
 62
     6
100
AcDbCircle
 10
148.35573
 20
431.572745
 40
0.5
100
AcDbArc
 50
0.0
 51
90.0
  0
LINE
  5
16D
100
AcDbEntity
  8
M0
 62
     6
100
AcDbLine
 10
82.994906
 20
430.572989
 11
84.055941
 21
430.572989
  0
LINE
  5
16E
100
AcDbEntity
  8
M0
 62
     6
100
AcDbLine
 10
149.116717
 20
430.572745
 11
148.055926
 21
430.572745
  0
LINE
  5
16F
100
AcDbEntity
  8
M0
 62
     6
100
AcDbLine
 10
148.85573
 20
431.072745
 11
155.255877
 21
431.072745
  0
LINE
  5
170
100
AcDbEntity
  8
M0
 62
     6
100
AcDbLine
 10
76.855746
 20
431.072989
 11
83.255892
 21
431.072989
  0
LINE
  5
171
100
AcDbEntity
  8
M0
 62
     7
100
AcDbLine
 10
116.055681
 20
432.072729
 11
114.55594
 21
432.072745
  0
LINE
  5
172
100
AcDbEntity
  8
M0
 62
     7
100
AcDbLine
 10
113.55594
 20
431.072745
 11
113.55594
 21
428.072898
  0
LINE
  5
173
100
AcDbEntity
  8
M0
 62
     7
100
AcDbLine
 10
112.05594
 20
428.772696
 11
113.55594
 21
428.772696
  0
ARC
  5
174
100
AcDbEntity
  8
M0
 62
     7
100
AcDbCircle
 10
114.55594
 20
431.072745
 40
1.0
100
AcDbArc
 50
90.0
 51
180.0
  0
LINE
  5
175
100
AcDbEntity
  8
M0
100
AcDbLine
 10
77.096956
 20
430.520254
 11
76.280794
 21
427.873191
  0
LINE
  5
176
100
AcDbEntity
  8
M0
100
AcDbLine
 10
83.014437
 20
430.520254
 11
83.830843
 21
427.873191
  0
LINE
  5
177
100
AcDbEntity
  8
M0
100
AcDbLine
 10
81.455843
 20
429.672843
 11
83.275912
 21
429.672843
  0
LINE
  5
178
100
AcDbEntity
  8
M0
100
AcDbLine
 10
82.377474
 20
428.472892
 11
83.645785
 21
428.472892
  0
LINE
  5
179
100
AcDbEntity
  8
M0
100
AcDbLine
 10
78.655794
 20
429.672843
 11
76.835726
 21
429.672843
  0
LINE
  5
17A
100
AcDbEntity
  8
M0
100
AcDbLine
 10
77.734164
 20
428.472892
 11
76.465853
 21
428.472892
  0
LINE
  5
17B
100
AcDbEntity
  8
M0
100
AcDbLine
 10
82.536654
 20
430.873038
 11
77.574984
 21
430.872793
  0
LINE
  5
17C
100
AcDbEntity
  8
M0
100
AcDbLine
 10
81.455843
 20
429.22631
 11
81.455843
 21
429.672843
  0
LINE
  5
17D
100
AcDbEntity
  8
M0
100
AcDbLine
 10
78.655794
 20
429.22631
 11
78.655794
 21
429.672843
  0
ARC
  5
17E
100
AcDbEntity
  8
M0
100
AcDbCircle
 10
77.574984
 20
430.372793
 40
0.5
100
AcDbArc
 50
89.998251
 51
162.856158
  0
ARC
  5
17F
100
AcDbEntity
  8
M0
100
AcDbCircle
 10
82.536654
 20
430.372793
 40
0.5
100
AcDbArc
 50
17.151876
 51
89.998251
  0
LINE
  5
180
100
AcDbEntity
  8
M0
100
AcDbLine
 10
81.455843
 20
432.972891
 11
83.275912
 21
432.972891
  0
LINE
  5
181
100
AcDbEntity
  8
M0
100
AcDbLine
 10
78.655794
 20
432.972891
 11
76.835726
 21
432.972891
  0
LINE
  5
182
100
AcDbEntity
  8
M0
100
AcDbLine
 10
77.574984
 20
431.77294
 11
82.536654
 21
431.77294
  0
LINE
  5
183
100
AcDbEntity
  8
M0
100
AcDbLine
 10
81.455843
 20
432.972891
 11
81.455843
 21
433.419668
  0
LINE
  5
184
100
AcDbEntity
  8
M0
100
AcDbLine
 10
78.655794
 20
432.972891
 11
78.655794
 21
433.419668
  0
ARC
  5
185
100
AcDbEntity
  8
M0
100
AcDbCircle
 10
77.574984
 20
432.27294
 40
0.5
100
AcDbArc
 50
197.117449
 51
270.0
  0
ARC
  5
186
100
AcDbEntity
  8
M0
100
AcDbCircle
 10
82.536654
 20
432.27294
 40
0.5
100
AcDbArc
 50
270.0
 51
342.875032
  0
LINE
  5
187
100
AcDbEntity
  8
M0
100
AcDbLine
 10
153.455828
 20
432.972647
 11
155.275896
 21
432.972647
  0
LINE
  5
188
100
AcDbEntity
  8
M0
100
AcDbLine
 10
150.655779
 20
432.972647
 11
148.835711
 21
432.972647
  0
LINE
  5
189
100
AcDbEntity
  8
M0
100
AcDbLine
 10
149.574969
 20
431.772696
 11
154.536639
 21
431.772696
  0
LINE
  5
18A
100
AcDbEntity
  8
M0
100
AcDbLine
 10
153.455828
 20
432.972647
 11
153.455828
 21
433.419424
  0
LINE
  5
18B
100
AcDbEntity
  8
M0
100
AcDbLine
 10
150.655779
 20
432.972647
 11
150.655779
 21
433.419424
  0
ARC
  5
18C
100
AcDbEntity
  8
M0
100
AcDbCircle
 10
149.574969
 20
432.272696
 40
0.5
100
AcDbArc
 50
197.116934
 51
269.998251
  0
ARC
  5
18D
100
AcDbEntity
  8
M0
100
AcDbCircle
 10
154.536639
 20
432.272696
 40
0.5
100
AcDbArc
 50
269.998251
 51
342.874517
  0
LINE
  5
18E
100
AcDbEntity
  8
M0
100
AcDbLine
 10
149.096941
 20
430.52001
 11
148.280779
 21
427.872947
  0
LINE
  5
18F
100
AcDbEntity
  8
M0
100
AcDbLine
 10
155.014422
 20
430.52001
 11
155.830828
 21
427.872947
  0
LINE
  5
190
100
AcDbEntity
  8
M0
100
AcDbLine
 10
153.455828
 20
429.672599
 11
155.275896
 21
429.672599
  0
LINE
  5
191
100
AcDbEntity
  8
M0
100
AcDbLine
 10
150.655779
 20
429.672599
 11
148.835711
 21
429.672599
  0
LINE
  5
192
100
AcDbEntity
  8
M0
100
AcDbLine
 10
154.536639
 20
430.872793
 11
149.574969
 21
430.872549
  0
LINE
  5
193
100
AcDbEntity
  8
M0
100
AcDbLine
 10
153.455828
 20
429.226065
 11
153.455828
 21
429.672599
  0
LINE
  5
194
100
AcDbEntity
  8
M0
100
AcDbLine
 10
150.655779
 20
429.226065
 11
150.655779
 21
429.672599
  0
ARC
  5
195
100
AcDbEntity
  8
M0
100
AcDbCircle
 10
149.574969
 20
430.372549
 40
0.5
100
AcDbArc
 50
90.0
 51
162.856673
  0
ARC
  5
196
100
AcDbEntity
  8
M0
100
AcDbCircle
 10
154.536639
 20
430.372549
 40
0.5
100
AcDbArc
 50
17.152392
 51
90.0
  0
LINE
  5
197
100
AcDbEntity
  8
M0
  6
DASHDOT
 62
     6
100
AcDbLine
 10
73.985903
 20
426.573142
 11
86.83864
 21
426.573142
  0
LINE
  5
198
100
AcDbEntity
  8
M0
 62
     6
100
AcDbLine
 10
77.79764
 20
421.773124
 11
82.313998
 21
421.773124
  0
LINE
  5
199
100
AcDbEntity
  8
M0
 62
     6
100
AcDbLine
 10
76.840609
 20
422.483085
 11
76.055941
 21
425.073142
  0
LINE
  5
19A
100
AcDbEntity
  8
M0
 62
     6
100
AcDbLine
 10
83.271029
 20
422.483085
 11
84.055941
 21
425.073142
  0
ARC
  5
19B
100
AcDbEntity
  8
M0
 62
     6
100
AcDbCircle
 10
77.79764
 20
422.773124
 40
1.0
100
AcDbArc
 50
196.859961
 51
270.0
  0
ARC
  5
19C
100
AcDbEntity
  8
M0
 62
     6
100
AcDbCircle
 10
82.313998
 20
422.773124
 40
1.0
100
AcDbArc
 50
270.0
 51
343.14024
  0
LINE
  5
19D
100
AcDbEntity
  8
M0
  6
DASHDOT
 62
     6
100
AcDbLine
 10
157.900347
 20
426.572898
 11
146.555651
 21
426.572898
  0
LINE
  5
19E
100
AcDbEntity
  8
M0
 62
     6
100
AcDbLine
 10
154.313982
 20
421.77288
 11
149.797625
 21
421.77288
  0
LINE
  5
19F
100
AcDbEntity
  8
M0
 62
     6
100
AcDbLine
 10
155.271014
 20
422.482841
 11
156.055926
 21
425.072898
  0
LINE
  5
1A0
100
AcDbEntity
  8
M0
 62
     6
100
AcDbLine
 10
148.840594
 20
422.482841
 11
148.055926
 21
425.072898
  0
ARC
  5
1A1
100
AcDbEntity
  8
M0
 62
     6
100
AcDbCircle
 10
154.313982
 20
422.77288
 40
1.0
100
AcDbArc
 50
269.999126
 51
343.139986
  0
ARC
  5
1A2
100
AcDbEntity
  8
M0
 62
     6
100
AcDbCircle
 10
149.797625
 20
422.77288
 40
1.0
100
AcDbArc
 50
196.859708
 51
269.999126
  0
LINE
  5
1A3
100
AcDbEntity
  8
M0
 62
     7
100
AcDbLine
 10
77.055941
 20
421.772941
 11
83.555941
 21
421.772941
  0
LINE
  5
1A4
100
AcDbEntity
  8
M0
 62
     7
100
AcDbLine
 10
148.555926
 20
421.772941
 11
155.055926
 21
421.772941
  0
ARC
  5
1A5
100
AcDbEntity
  8
M0
 62
     7
100
AcDbCircle
 10
83.555941
 20
422.272941
 40
0.5
100
AcDbArc
 50
270.0
 51
360.0
  0
ARC
  5
1A6
100
AcDbEntity
  8
M0
 62
     7
100
AcDbCircle
 10
155.055926
 20
421.272941
 40
0.5
100
AcDbArc
 50
0.0
 51
90.0
  0
ARC
  5
1A7
100
AcDbEntity
  8
M0
 62
     7
100
AcDbCircle
 10
77.055941
 20
421.272941
 40
0.5
100
AcDbArc
 50
89.998251
 51
179.999891
  0
ARC
  5
1A8
100
AcDbEntity
  8
M0
 62
     7
100
AcDbCircle
 10
148.555926
 20
422.272941
 40
0.5
100
AcDbArc
 50
179.999891
 51
269.998251
  0
LINE
  5
1A9
100
AcDbEntity
  8
M0
 62
     7
100
AcDbLine
 10
107.755892
 20
426.372703
 11
112.05594
 21
426.372703
  0
ARC
  5
1AA
100
AcDbEntity
  8
M0
 62
     7
100
AcDbCircle
 10
107.755892
 20
423.372703
 40
3.0
100
AcDbArc
 50
90.0
 51
179.999964
  0
LINE
  5
1AB
100
AcDbEntity
  8
M0
100
AcDbLine
 10
77.096956
 20
422.625892
 11
76.280794
 21
425.273093
  0
LINE
  5
1AC
100
AcDbEntity
  8
M0
100
AcDbLine
 10
83.014437
 20
422.625877
 11
83.830843
 21
425.273093
  0
LINE
  5
1AD
100
AcDbEntity
  8
M0
100
AcDbLine
 10
82.377474
 20
424.672996
 11
83.645785
 21
424.672996
  0
LINE
  5
1AE
100
AcDbEntity
  8
M0
100
AcDbLine
 10
81.455843
 20
423.473045
 11
83.275912
 21
423.473045
  0
LINE
  5
1AF
100
AcDbEntity
  8
M0
100
AcDbLine
 10
77.734164
 20
424.672996
 11
76.465853
 21
424.672996
  0
LINE
  5
1B0
100
AcDbEntity
  8
M0
100
AcDbLine
 10
78.655794
 20
423.473045
 11
76.835726
 21
423.473045
  0
LINE
  5
1B1
100
AcDbEntity
  8
M0
100
AcDbLine
 10
77.574984
 20
422.273215
 11
82.536654
 21
422.273215
  0
LINE
  5
1B2
100
AcDbEntity
  8
M0
100
AcDbLine
 10
83.830843
 20
425.273093
 11
83.830843
 21
427.873191
  0
LINE
  5
1B3
100
AcDbEntity
  8
M0
100
AcDbLine
 10
76.280794
 20
427.873191
 11
76.280794
 21
425.273093
  0
LINE
  5
1B4
100
AcDbEntity
  8
M0
100
AcDbLine
 10
81.455843
 20
423.473045
 11
81.455843
 21
423.919822
  0
LINE
  5
1B5
100
AcDbEntity
  8
M0
100
AcDbLine
 10
78.655794
 20
423.473045
 11
78.655794
 21
423.919822
  0
LINE
  5
1B6
100
AcDbEntity
  8
M0
100
AcDbLine
 10
81.646517
 20
424.982322
 11
78.464876
 21
428.163962
  0
LINE
  5
1B7
100
AcDbEntity
  8
M0
100
AcDbLine
 10
80.409212
 20
427.987204
 11
78.641634
 21
426.219627
  0
LINE
  5
1B8
100
AcDbEntity
  8
M0
100
AcDbLine
 10
81.469759
 20
426.926658
 11
79.702181
 21
425.15908
  0
ARC
  5
1B9
100
AcDbEntity
  8
M0
100
AcDbCircle
 10
77.574984
 20
422.773215
 40
0.5
100
AcDbArc
 50
197.129027
 51
270.0
  0
ARC
  5
1BA
100
AcDbEntity
  8
M0
100
AcDbCircle
 10
82.536654
 20
422.773215
 40
0.5
100
AcDbArc
 50
270.0
 51
342.861372
  0
LINE
  5
1BB
100
AcDbEntity
  8
M0
100
AcDbLine
 10
149.096941
 20
422.625648
 11
148.280779
 21
425.272849
  0
LINE
  5
1BC
100
AcDbEntity
  8
M0
100
AcDbLine
 10
155.014422
 20
422.625632
 11
155.830828
 21
425.272849
  0
LINE
  5
1BD
100
AcDbEntity
  8
M0
100
AcDbLine
 10
154.377459
 20
424.672752
 11
155.645769
 21
424.672752
  0
LINE
  5
1BE
100
AcDbEntity
  8
M0
100
AcDbLine
 10
153.455828
 20
423.4728
 11
155.275896
 21
423.4728
  0
LINE
  5
1BF
100
AcDbEntity
  8
M0
100
AcDbLine
 10
149.734148
 20
424.672752
 11
148.465838
 21
424.672752
  0
LINE
  5
1C0
100
AcDbEntity
  8
M0
100
AcDbLine
 10
150.655779
 20
423.4728
 11
148.835711
 21
423.4728
  0
LINE
  5
1C1
100
AcDbEntity
  8
M0
100
AcDbLine
 10
149.574969
 20
422.272971
 11
154.536639
 21
422.272971
  0
LINE
  5
1C2
100
AcDbEntity
  8
M0
100
AcDbLine
 10
155.830828
 20
425.272849
 11
155.830828
 21
427.872947
  0
LINE
  5
1C3
100
AcDbEntity
  8
M0
100
AcDbLine
 10
148.280779
 20
427.872947
 11
148.280779
 21
425.272849
  0
LINE
  5
1C4
100
AcDbEntity
  8
M0
100
AcDbLine
 10
153.455828
 20
423.4728
 11
153.455828
 21
423.919578
  0
LINE
  5
1C5
100
AcDbEntity
  8
M0
100
AcDbLine
 10
150.655779
 20
423.4728
 11
150.655779
 21
423.919578
  0
LINE
  5
1C6
100
AcDbEntity
  8
M0
100
AcDbLine
 10
153.646502
 20
424.982078
 11
150.464861
 21
428.163718
  0
LINE
  5
1C7
100
AcDbEntity
  8
M0
100
AcDbLine
 10
152.409197
 20
427.98696
 11
150.641619
 21
426.219382
  0
LINE
  5
1C8
100
AcDbEntity
  8
M0
100
AcDbLine
 10
153.469744
 20
426.926414
 11
151.702166
 21
425.158836
  0
ARC
  5
1C9
100
AcDbEntity
  8
M0
100
AcDbCircle
 10
149.574969
 20
422.772971
 40
0.5
100
AcDbArc
 50
197.128512
 51
269.998251
  0
ARC
  5
1CA
100
AcDbEntity
  8
M0
100
AcDbCircle
 10
154.536639
 20
422.772971
 40
0.5
100
AcDbArc
 50
269.998251
 51
342.860857
  0
LINE
  5
1CB
100
AcDbEntity
  8
M0
100
AcDbLine
 10
113.05594
 20
420.722846
 11
116.055681
 21
420.722846
  0
LINE
  5
1CC
100
AcDbEntity
  8
M0
 62
     7
100
AcDbLine
 10
112.05594
 20
428.772696
 11
112.05594
 21
426.372703
  0
CIRCLE
  5
1CD
100
AcDbEntity
  8
M0
100
AcDbCircle
 10
80.055941
 20
426.573142
 40
3.0
  0
CIRCLE
  5
1CE
100
AcDbEntity
  8
M0
100
AcDbCircle
 10
152.055926
 20
426.572898
 40
3.0
  0
LINE
  5
1CF
100
AcDbEntity
  8
M0
 62
     6
100
AcDbLine
 10
76.055941
 20
441.572989
 11
84.055941
 21
441.572989
  0
LINE
  5
1D0
100
AcDbEntity
  8
M0
 62
     6
100
AcDbLine
 10
76.055941
 20
440.072989
 11
77.116732
 21
440.072989
  0
LINE
  5
1D1
100
AcDbEntity
  8
M0
 62
     6
100
AcDbLine
 10
72.555941
 20
434.072989
 11
75.555941
 21
434.072989
  0
ARC
  5
1D2
100
AcDbEntity
  8
M0
 62
     6
100
AcDbCircle
 10
72.555941
 20
433.572989
 40
0.5
100
AcDbArc
 50
89.998251
 51
180.0
  0
LINE
  5
1D3
100
AcDbEntity
  8
M0
  6
DASHDOT
 62
     6
100
AcDbLine
 10
73.732104
 20
436.072989
 11
86.167895
 21
436.072989
  0
LINE
  5
1D4
100
AcDbEntity
  8
M0
 62
     6
100
AcDbLine
 10
76.055941
 20
435.072989
 11
76.555941
 21
433.572989
  0
LINE
  5
1D5
100
AcDbEntity
  8
M0
 62
     6
100
AcDbLine
 10
84.055941
 20
435.072989
 11
83.555941
 21
433.572989
  0
ARC
  5
1D6
100
AcDbEntity
  8
M0
 62
     6
100
AcDbCircle
 10
75.555941
 20
433.572989
 40
0.5
100
AcDbArc
 50
0.0
 51
89.998251
  0
LINE
  5
1D7
100
AcDbEntity
  8
M0
 62
     6
100
AcDbLine
 10
160.055926
 20
442.572745
 11
148.055926
 21
442.572745
  0
LINE
  5
1D8
100
AcDbEntity
  8
M0
 62
     6
100
AcDbLine
 10
156.055926
 20
441.572745
 11
148.055926
 21
441.572745
  0
LINE
  5
1D9
100
AcDbEntity
  8
M0
 62
     6
100
AcDbLine
 10
156.055926
 20
440.072745
 11
154.99489
 21
440.072745
  0
LINE
  5
1DA
100
AcDbEntity
  8
M0
 62
     6
100
AcDbLine
 10
160.055926
 20
442.572745
 11
156.055926
 21
442.572745
  0
LINE
  5
1DB
100
AcDbEntity
  8
M0
 62
     6
100
AcDbLine
 10
159.555926
 20
434.072745
 11
156.555926
 21
434.072745
  0
ARC
  5
1DC
100
AcDbEntity
  8
M0
 62
     6
100
AcDbCircle
 10
159.555926
 20
433.572745
 40
0.5
100
AcDbArc
 50
0.0
 51
90.0
  0
LINE
  5
1DD
100
AcDbEntity
  8
M0
  6
DASHDOT
 62
     6
100
AcDbLine
 10
158.498568
 20
436.072745
 11
146.555651
 21
436.072745
  0
ARC
  5
1DE
100
AcDbEntity
  8
M0
 62
     6
100
AcDbCircle
 10
156.555926
 20
442.072745
 40
0.5
100
AcDbArc
 50
90.0
 51
180.0
  0
LINE
  5
1DF
100
AcDbEntity
  8
M0
 62
     6
100
AcDbLine
 10
156.055926
 20
435.072745
 11
155.555926
 21
433.572745
  0
LINE
  5
1E0
100
AcDbEntity
  8
M0
 62
     6
100
AcDbLine
 10
148.055926
 20
435.072745
 11
148.555926
 21
433.572745
  0
ARC
  5
1E1
100
AcDbEntity
  8
M0
 62
     6
100
AcDbCircle
 10
156.555926
 20
433.572745
 40
0.5
100
AcDbArc
 50
90.0
 51
180.0
  0
LINE
  5
1E2
100
AcDbEntity
  8
M0
 62
     6
100
AcDbLine
 10
82.994906
 20
440.072989
 11
84.055941
 21
440.072989
  0
LINE
  5
1E3
100
AcDbEntity
  8
M0
 62
     6
100
AcDbLine
 10
149.116717
 20
440.072745
 11
148.055926
 21
440.072745
  0
CIRCLE
  5
1E4
100
AcDbEntity
  8
M0
100
AcDbCircle
 10
80.055941
 20
436.072989
 40
3.0
  0
LINE
  5
1E5
100
AcDbEntity
  8
M0
100
AcDbLine
 10
77.096956
 20
440.020254
 11
76.280794
 21
437.373038
  0
LINE
  5
1E6
100
AcDbEntity
  8
M0
100
AcDbLine
 10
77.096956
 20
432.125723
 11
76.280794
 21
434.77294
  0
LINE
  5
1E7
100
AcDbEntity
  8
M0
100
AcDbLine
 10
83.014437
 20
440.020254
 11
83.830843
 21
437.373038
  0
LINE
  5
1E8
100
AcDbEntity
  8
M0
100
AcDbLine
 10
83.014437
 20
432.125723
 11
83.830843
 21
434.77294
  0
LINE
  5
1E9
100
AcDbEntity
  8
M0
100
AcDbLine
 10
81.455843
 20
439.172842
 11
83.275912
 21
439.172842
  0
LINE
  5
1EA
100
AcDbEntity
  8
M0
100
AcDbLine
 10
82.377474
 20
437.972891
 11
83.645785
 21
437.972891
  0
LINE
  5
1EB
100
AcDbEntity
  8
M0
100
AcDbLine
 10
82.377474
 20
434.172842
 11
83.645785
 21
434.172842
  0
LINE
  5
1EC
100
AcDbEntity
  8
M0
100
AcDbLine
 10
78.655794
 20
439.172842
 11
76.835726
 21
439.172842
  0
LINE
  5
1ED
100
AcDbEntity
  8
M0
100
AcDbLine
 10
77.734164
 20
437.972891
 11
76.465853
 21
437.972891
  0
LINE
  5
1EE
100
AcDbEntity
  8
M0
100
AcDbLine
 10
77.734164
 20
434.172842
 11
76.465853
 21
434.172842
  0
LINE
  5
1EF
100
AcDbEntity
  8
M0
100
AcDbLine
 10
83.830843
 20
434.77294
 11
83.830843
 21
437.373038
  0
LINE
  5
1F0
100
AcDbEntity
  8
M0
100
AcDbLine
 10
82.536654
 20
440.373038
 11
77.574984
 21
440.372793
  0
LINE
  5
1F1
100
AcDbEntity
  8
M0
100
AcDbLine
 10
76.280794
 20
437.373038
 11
76.280794
 21
434.77294
  0
LINE
  5
1F2
100
AcDbEntity
  8
M0
100
AcDbLine
 10
81.455843
 20
438.726309
 11
81.455843
 21
439.172842
  0
LINE
  5
1F3
100
AcDbEntity
  8
M0
100
AcDbLine
 10
78.655794
 20
438.726309
 11
78.655794
 21
439.172842
  0
LINE
  5
1F4
100
AcDbEntity
  8
M0
100
AcDbLine
 10
81.646517
 20
434.482168
 11
78.464876
 21
437.663809
  0
LINE
  5
1F5
100
AcDbEntity
  8
M0
100
AcDbLine
 10
80.409212
 20
437.487051
 11
78.641634
 21
435.719473
  0
LINE
  5
1F6
100
AcDbEntity
  8
M0
100
AcDbLine
 10
81.469759
 20
436.426504
 11
79.702181
 21
434.658926
  0
ARC
  5
1F7
100
AcDbEntity
  8
M0
100
AcDbCircle
 10
77.574984
 20
439.872793
 40
0.5
100
AcDbArc
 50
89.998251
 51
162.856158
  0
ARC
  5
1F8
100
AcDbEntity
  8
M0
100
AcDbCircle
 10
82.536654
 20
439.872793
 40
0.5
100
AcDbArc
 50
17.151876
 51
89.998251
  0
CIRCLE
  5
1F9
100
AcDbEntity
  8
M0
100
AcDbCircle
 10
152.055926
 20
436.072745
 40
3.0
  0
LINE
  5
1FA
100
AcDbEntity
  8
M0
100
AcDbLine
 10
149.096941
 20
440.02001
 11
148.280779
 21
437.372793
  0
LINE
  5
1FB
100
AcDbEntity
  8
M0
100
AcDbLine
 10
149.096941
 20
432.125479
 11
148.280779
 21
434.772696
  0
LINE
  5
1FC
100
AcDbEntity
  8
M0
100
AcDbLine
 10
155.014422
 20
440.02001
 11
155.830828
 21
437.372793
  0
LINE
  5
1FD
100
AcDbEntity
  8
M0
100
AcDbLine
 10
155.014422
 20
432.125479
 11
155.830828
 21
434.772696
  0
LINE
  5
1FE
100
AcDbEntity
  8
M0
100
AcDbLine
 10
153.455828
 20
439.172598
 11
155.275896
 21
439.172598
  0
LINE
  5
1FF
100
AcDbEntity
  8
M0
100
AcDbLine
 10
154.377459
 20
437.972647
 11
155.645769
 21
437.972647
  0
LINE
  5
200
100
AcDbEntity
  8
M0
100
AcDbLine
 10
154.377459
 20
434.172598
 11
155.645769
 21
434.172598
  0
LINE
  5
201
100
AcDbEntity
  8
M0
100
AcDbLine
 10
150.655779
 20
439.172598
 11
148.835711
 21
439.172598
  0
LINE
  5
202
100
AcDbEntity
  8
M0
100
AcDbLine
 10
149.734148
 20
437.972647
 11
148.465838
 21
437.972647
  0
LINE
  5
203
100
AcDbEntity
  8
M0
100
AcDbLine
 10
149.734148
 20
434.172598
 11
148.465838
 21
434.172598
  0
LINE
  5
204
100
AcDbEntity
  8
M0
100
AcDbLine
 10
155.830828
 20
434.772696
 11
155.830828
 21
437.372793
  0
LINE
  5
205
100
AcDbEntity
  8
M0
100
AcDbLine
 10
154.536639
 20
440.372793
 11
149.574969
 21
440.372549
  0
LINE
  5
206
100
AcDbEntity
  8
M0
100
AcDbLine
 10
148.280779
 20
437.372793
 11
148.280779
 21
434.772696
  0
LINE
  5
207
100
AcDbEntity
  8
M0
100
AcDbLine
 10
153.455828
 20
438.726065
 11
153.455828
 21
439.172598
  0
LINE
  5
208
100
AcDbEntity
  8
M0
100
AcDbLine
 10
150.655779
 20
438.726065
 11
150.655779
 21
439.172598
  0
LINE
  5
209
100
AcDbEntity
  8
M0
100
AcDbLine
 10
153.646502
 20
434.481924
 11
150.464861
 21
437.663565
  0
LINE
  5
20A
100
AcDbEntity
  8
M0
100
AcDbLine
 10
152.409197
 20
437.486807
 11
150.641619
 21
435.719229
  0
LINE
  5
20B
100
AcDbEntity
  8
M0
100
AcDbLine
 10
153.469744
 20
436.42626
 11
151.702166
 21
434.658682
  0
ARC
  5
20C
100
AcDbEntity
  8
M0
100
AcDbCircle
 10
149.574969
 20
439.872549
 40
0.5
100
AcDbArc
 50
90.0
 51
162.856673
  0
ARC
  5
20D
100
AcDbEntity
  8
M0
100
AcDbCircle
 10
154.536639
 20
439.872549
 40
0.5
100
AcDbArc
 50
17.152392
 51
90.0
  0
LINE
  5
20E
100
AcDbEntity
  8
M0
 62
     6
100
AcDbLine
 10
72.055941
 20
442.572989
 11
84.055941
 21
442.572989
  0
LINE
  5
20F
100
AcDbEntity
  8
M0
 62
     6
100
AcDbLine
 10
74.555941
 20
445.072977
 11
74.555941
 21
442.572989
  0
LINE
  5
210
100
AcDbEntity
  8
M0
 62
     6
100
AcDbLine
 10
72.055941
 20
442.572989
 11
76.055941
 21
442.572989
  0
ARC
  5
211
100
AcDbEntity
  8
M0
 62
     6
100
AcDbCircle
 10
75.555941
 20
442.072989
 40
0.5
100
AcDbArc
 50
0.0
 51
89.998251
  0
LINE
  5
212
100
AcDbEntity
  8
M0
 62
     6
100
AcDbLine
 10
157.555926
 20
445.072733
 11
157.555926
 21
442.572745
  0
LINE
  5
213
100
AcDbEntity
  8
M0
 62
     5
100
AcDbLine
 10
72.055453
 20
442.572989
 11
84.055697
 21
442.572989
  0
LINE
  5
214
100
AcDbEntity
  8
M0
 62
     5
100
AcDbLine
 10
156.055681
 20
442.5725
 11
156.055681
 21
454.072977
  0
LINE
  5
215
100
AcDbEntity
  8
M0
  6
DASHDOT
100
AcDbLine
 10
80.555453
 20
444.447287
 11
80.555453
 21
452.441828
  0
LINE
  5
216
100
AcDbEntity
  8
M0
 62
     6
100
AcDbLine
 10
84.055941
 20
422.272636
 11
84.055941
 21
464.072977
  0
LINE
  5
217
100
AcDbEntity
  8
M0
 62
     6
100
AcDbLine
 10
148.055926
 20
422.27288
 11
148.055926
 21
464.072733
  0
LINE
  5
218
100
AcDbEntity
  8
M0
 62
     7
100
AcDbLine
 10
84.055941
 20
448.072733
 11
84.055941
 21
422.272941
  0
LINE
  5
219
100
AcDbEntity
  8
M0
 62
     7
100
AcDbLine
 10
148.055926
 20
422.272941
 11
148.055926
 21
448.072733
  0
LINE
  5
21A
100
AcDbEntity
  8
M0
  6
DASHDOT
100
AcDbLine
 10
82.055453
 20
444.646689
 11
82.055453
 21
452.496042
  0
LINE
  5
21B
100
AcDbEntity
  8
M0
100
AcDbLine
 10
80.555453
 20
450.872782
 11
82.055453
 21
450.872782
  0
LINE
  5
21C
100
AcDbEntity
  8
M0
100
AcDbLine
 10
80.555453
 20
446.272974
 11
82.055453
 21
446.272974
  0
ARC
  5
21D
100
AcDbEntity
  8
M0
100
AcDbCircle
 10
80.555453
 20
448.572977
 40
2.299998
100
AcDbArc
 50
89.99962
 51
270.0
  0
ARC
  5
21E
100
AcDbEntity
  8
M0
100
AcDbCircle
 10
82.055453
 20
448.572977
 40
2.299998
100
AcDbArc
 50
270.0
 51
449.99962
  0
ARC
  5
21F
100
AcDbEntity
  8
M0
 62
     6
100
AcDbCircle
 10
107.305941
 20
468.572977
 40
0.5
100
AcDbArc
 50
0.0
 51
90.0
  0
ARC
  5
220
100
AcDbEntity
  8
M0
 62
     6
100
AcDbCircle
 10
104.805941
 20
468.572977
 40
0.5
100
AcDbArc
 50
90.0
 51
180.0
  0
LINE
  5
221
100
AcDbEntity
  8
M0
 62
     7
100
AcDbLine
 10
120.055415
 20
428.0729
 11
118.555415
 21
428.072899
  0
LINE
  5
222
100
AcDbEntity
  8
M0
 62
     7
100
AcDbLine
 10
118.555413
 20
431.072746
 11
118.555415
 21
428.072899
  0
LINE
  5
223
100
AcDbEntity
  8
M0
 62
     7
100
AcDbLine
 10
120.055414
 20
428.772698
 11
118.555414
 21
428.772698
  0
ARC
  5
224
100
AcDbEntity
  8
M0
 62
     7
100
AcDbCircle
 10
117.555413
 20
431.072746
 40
1.0
100
AcDbArc
 50
0.0
 51
90.0
  0
LINE
  5
225
100
AcDbEntity
  8
M0
 62
     7
100
AcDbLine
 10
116.055672
 20
432.072729
 11
117.555413
 21
432.072746
  0
LINE
  5
226
100
AcDbEntity
  8
M0
 62
     7
100
AcDbLine
 10
124.355456
 20
426.372708
 11
120.055416
 21
426.372705
  0
ARC
  5
227
100
AcDbEntity
  8
M0
 62
     7
100
AcDbCircle
 10
124.355456
 20
423.372708
 40
3.0
100
AcDbArc
 50
0.0
 51
90.0
  0
LINE
  5
228
100
AcDbEntity
  8
M0
 62
     7
100
AcDbLine
 10
120.055414
 20
428.772698
 11
120.055416
 21
426.372705
  0
LINE
  5
229
100
AcDbEntity
  8
M0
100
AcDbLine
 10
119.055419
 20
420.722848
 11
116.055679
 21
420.722846
  0
LINE
  5
22A
100
AcDbEntity
  8
M0
 62
     7
100
AcDbLine
 10
116.054809
 20
448.572489
 11
147.555392
 21
448.572748
  0
LINE
  5
22B
100
AcDbEntity
  8
M0
 62
     6
100
AcDbLine
 10
72.055971
 20
412.32342
 11
75.255923
 21
412.32342
  0
LINE
  5
22C
100
AcDbEntity
  8
M0
 62
     6
100
AcDbLine
 10
160.055956
 20
412.323664
 11
156.855761
 21
412.323664
  0
LINE
  5
22D
100
AcDbEntity
  8
M0
 62
     6
100
AcDbLine
 10
72.555971
 20
398.07342
 11
75.555971
 21
398.07342
  0
LINE
  5
22E
100
AcDbEntity
  8
M0
 62
     6
100
AcDbLine
 10
75.255923
 20
412.32342
 11
76.055971
 21
411.373469
  0
ARC
  5
22F
100
AcDbEntity
  8
M0
 62
     6
100
AcDbCircle
 10
72.555971
 20
398.57342
 40
0.5
100
AcDbArc
 50
179.998251
 51
270.0
  0
LINE
  5
230
100
AcDbEntity
  8
M0
 62
     6
100
AcDbLine
 10
83.255923
 20
400.57342
 11
83.255923
 21
401.57342
  0
LINE
  5
231
100
AcDbEntity
  8
M0
 62
     6
100
AcDbLine
 10
76.855776
 20
400.57342
 11
76.855776
 21
401.57342
  0
LINE
  5
232
100
AcDbEntity
  8
M0
 62
     6
100
AcDbLine
 10
76.555971
 20
398.573664
 11
76.555971
 21
400.07342
  0
LINE
  5
233
100
AcDbEntity
  8
M0
 62
     6
100
AcDbLine
 10
83.555971
 20
398.57342
 11
83.555971
 21
400.07342
  0
ARC
  5
234
100
AcDbEntity
  8
M0
 62
     6
100
AcDbCircle
 10
76.355776
 20
400.57342
 40
0.5
100
AcDbArc
 50
-90.0
 51
0.0
  0
ARC
  5
235
100
AcDbEntity
  8
M0
 62
     6
100
AcDbCircle
 10
75.555971
 20
398.57342
 40
0.5
100
AcDbArc
 50
-90.0
 51
0.0
  0
LINE
  5
236
100
AcDbEntity
  8
M0
  6
DASHDOT
 62
     6
100
AcDbLine
 10
73.659624
 20
405.57342
 11
86.766161
 21
405.57342
  0
LINE
  5
237
100
AcDbEntity
  8
M0
 62
     6
100
AcDbLine
 10
76.055971
 20
401.57342
 11
77.116762
 21
401.57342
  0
LINE
  5
238
100
AcDbEntity
  8
M0
 62
     6
100
AcDbLine
 10
77.797671
 20
410.373469
 11
82.314028
 21
410.373469
  0
LINE
  5
239
100
AcDbEntity
  8
M0
 62
     6
100
AcDbLine
 10
76.840639
 20
409.663508
 11
76.055971
 21
407.07342
  0
LINE
  5
23A
100
AcDbEntity
  8
M0
 62
     6
100
AcDbLine
 10
83.271059
 20
409.663508
 11
84.055971
 21
407.07342
  0
ARC
  5
23B
100
AcDbEntity
  8
M0
 62
     6
100
AcDbCircle
 10
77.797671
 20
409.373469
 40
1.0
100
AcDbArc
 50
89.999126
 51
163.139725
  0
ARC
  5
23C
100
AcDbEntity
  8
M0
 62
     6
100
AcDbCircle
 10
82.314028
 20
409.373469
 40
1.0
100
AcDbArc
 50
16.860021
 51
89.999126
  0
LINE
  5
23D
100
AcDbEntity
  8
M0
 62
     6
100
AcDbLine
 10
76.055971
 20
400.07342
 11
76.355776
 21
400.07342
  0
LINE
  5
23E
100
AcDbEntity
  8
M0
 62
     6
100
AcDbLine
 10
83.755923
 20
400.07342
 11
84.055971
 21
400.07342
  0
ARC
  5
23F
100
AcDbEntity
  8
M0
 62
     6
100
AcDbCircle
 10
83.755923
 20
400.57342
 40
0.5
100
AcDbArc
 50
179.998251
 51
270.0
  0
LINE
  5
240
100
AcDbEntity
  8
M0
 62
     6
100
AcDbLine
 10
159.555956
 20
398.073664
 11
156.555956
 21
398.073664
  0
LINE
  5
241
100
AcDbEntity
  8
M0
 62
     6
100
AcDbLine
 10
156.855761
 20
412.323664
 11
156.055956
 21
411.373713
  0
ARC
  5
242
100
AcDbEntity
  8
M0
 62
     6
100
AcDbCircle
 10
159.555956
 20
398.573664
 40
0.5
100
AcDbArc
 50
269.998251
 51
360.0
  0
LINE
  5
243
100
AcDbEntity
  8
M0
 62
     6
100
AcDbLine
 10
148.855761
 20
400.573664
 11
148.855761
 21
401.573664
  0
LINE
  5
244
100
AcDbEntity
  8
M0
 62
     6
100
AcDbLine
 10
155.255907
 20
400.573664
 11
155.255907
 21
401.573664
  0
LINE
  5
245
100
AcDbEntity
  8
M0
 62
     6
100
AcDbLine
 10
155.555956
 20
398.573908
 11
155.555956
 21
400.073664
  0
LINE
  5
246
100
AcDbEntity
  8
M0
 62
     6
100
AcDbLine
 10
148.555956
 20
398.573664
 11
148.555956
 21
400.073664
  0
ARC
  5
247
100
AcDbEntity
  8
M0
 62
     6
100
AcDbCircle
 10
155.755907
 20
400.573664
 40
0.5
100
AcDbArc
 50
179.998251
 51
269.998251
  0
ARC
  5
248
100
AcDbEntity
  8
M0
 62
     6
100
AcDbCircle
 10
156.555956
 20
398.573664
 40
0.5
100
AcDbArc
 50
179.998251
 51
269.998251
  0
LINE
  5
249
100
AcDbEntity
  8
M0
 62
     6
100
AcDbLine
 10
156.055956
 20
401.573664
 11
154.998095
 21
401.573649
  0
LINE
  5
24A
100
AcDbEntity
  8
M0
 62
     6
100
AcDbLine
 10
154.314013
 20
410.373713
 11
149.797655
 21
410.373713
  0
LINE
  5
24B
100
AcDbEntity
  8
M0
 62
     6
100
AcDbLine
 10
155.271044
 20
409.663752
 11
156.055956
 21
407.073664
  0
LINE
  5
24C
100
AcDbEntity
  8
M0
 62
     6
100
AcDbLine
 10
148.840624
 20
409.663752
 11
148.055956
 21
407.073664
  0
ARC
  5
24D
100
AcDbEntity
  8
M0
 62
     6
100
AcDbCircle
 10
154.314013
 20
409.373713
 40
1.0
100
AcDbArc
 50
16.860275
 51
90.0
  0
ARC
  5
24E
100
AcDbEntity
  8
M0
 62
     6
100
AcDbCircle
 10
149.797655
 20
409.373713
 40
1.0
100
AcDbArc
 50
90.0
 51
163.139979
  0
LINE
  5
24F
100
AcDbEntity
  8
M0
 62
     6
100
AcDbLine
 10
156.055956
 20
400.073664
 11
155.755907
 21
400.073664
  0
LINE
  5
250
100
AcDbEntity
  8
M0
 62
     6
100
AcDbLine
 10
148.355761
 20
400.073664
 11
148.055956
 21
400.073664
  0
ARC
  5
251
100
AcDbEntity
  8
M0
 62
     6
100
AcDbCircle
 10
148.355761
 20
400.573664
 40
0.5
100
AcDbArc
 50
269.998251
 51
360.0
  0
LINE
  5
252
100
AcDbEntity
  8
M0
 62
     6
100
AcDbLine
 10
82.994936
 20
401.57342
 11
84.055971
 21
401.57342
  0
LINE
  5
253
100
AcDbEntity
  8
M0
 62
     6
100
AcDbLine
 10
149.113085
 20
401.573649
 11
148.055956
 21
401.573664
  0
LINE
  5
254
100
AcDbEntity
  8
M0
 62
     6
100
AcDbLine
 10
76.855776
 20
401.07342
 11
83.255923
 21
401.07342
  0
LINE
  5
255
100
AcDbEntity
  8
M0
 62
     6
100
AcDbLine
 10
148.855761
 20
401.073649
 11
155.255907
 21
401.073649
  0
LINE
  5
256
100
AcDbEntity
  8
M0
 62
     7
100
AcDbLine
 10
155.055956
 20
410.373179
 11
148.555956
 21
410.373163
  0
LINE
  5
257
100
AcDbEntity
  8
M0
 62
     7
100
AcDbLine
 10
83.555971
 20
410.373133
 11
77.055971
 21
410.373133
  0
ARC
  5
258
100
AcDbEntity
  8
M0
 62
     7
100
AcDbCircle
 10
148.555956
 20
409.873163
 40
0.5
100
AcDbArc
 50
90.0
 51
179.998251
  0
ARC
  5
259
100
AcDbEntity
  8
M0
 62
     7
100
AcDbCircle
 10
155.055956
 20
410.873163
 40
0.5
100
AcDbArc
 50
269.998251
 51
360.0
  0
ARC
  5
25A
100
AcDbEntity
  8
M0
 62
     7
100
AcDbCircle
 10
77.055971
 20
410.873133
 40
0.5
100
AcDbArc
 50
179.998251
 51
270.0
  0
ARC
  5
25B
100
AcDbEntity
  8
M0
 62
     7
100
AcDbCircle
 10
83.555971
 20
409.873133
 40
0.5
100
AcDbArc
 50
0.0
 51
89.998251
  0
LINE
  5
25C
100
AcDbEntity
  8
M0
 62
     7
100
AcDbLine
 10
107.755922
 20
410.073176
 11
108.05597
 21
410.073176
  0
LINE
  5
25D
100
AcDbEntity
  8
M0
 62
     7
100
AcDbLine
 10
108.05597
 20
410.073176
 11
108.05597
 21
406.073176
  0
ARC
  5
25E
100
AcDbEntity
  8
M0
 62
     7
100
AcDbCircle
 10
107.755922
 20
413.073173
 40
3.0
100
AcDbArc
 50
179.999964
 51
270.0
  0
LINE
  5
25F
100
AcDbEntity
  8
M0
100
AcDbLine
 10
77.096987
 20
400.020762
 11
76.280825
 21
397.373469
  0
LINE
  5
260
100
AcDbEntity
  8
M0
100
AcDbLine
 10
83.014467
 20
400.020777
 11
83.830874
 21
397.373469
  0
LINE
  5
261
100
AcDbEntity
  8
M0
100
AcDbLine
 10
81.455874
 20
399.173395
 11
83.275942
 21
399.173395
  0
LINE
  5
262
100
AcDbEntity
  8
M0
100
AcDbLine
 10
82.377505
 20
397.973444
 11
83.645815
 21
397.973444
  0
LINE
  5
263
100
AcDbEntity
  8
M0
100
AcDbLine
 10
78.655825
 20
399.173395
 11
76.835757
 21
399.173395
  0
LINE
  5
264
100
AcDbEntity
  8
M0
100
AcDbLine
 10
77.734194
 20
397.973444
 11
76.465883
 21
397.973444
  0
LINE
  5
265
100
AcDbEntity
  8
M0
100
AcDbLine
 10
82.536684
 20
400.373469
 11
77.575014
 21
400.373453
  0
LINE
  5
266
100
AcDbEntity
  8
M0
100
AcDbLine
 10
81.455874
 20
398.72674
 11
81.455874
 21
399.173395
  0
LINE
  5
267
100
AcDbEntity
  8
M0
100
AcDbLine
 10
78.655825
 20
398.72674
 11
78.655825
 21
399.173395
  0
ARC
  5
268
100
AcDbEntity
  8
M0
100
AcDbCircle
 10
77.575014
 20
399.873453
 40
0.5
100
AcDbArc
 50
89.998251
 51
162.872331
  0
ARC
  5
269
100
AcDbEntity
  8
M0
100
AcDbCircle
 10
82.536684
 20
399.873453
 40
0.5
100
AcDbArc
 50
17.137695
 51
89.998251
  0
CIRCLE
  5
26A
100
AcDbEntity
  8
M0
100
AcDbCircle
 10
80.055971
 20
405.57342
 40
3.0
  0
LINE
  5
26B
100
AcDbEntity
  8
M0
100
AcDbLine
 10
77.096987
 20
409.520762
 11
76.280825
 21
406.873469
  0
LINE
  5
26C
100
AcDbEntity
  8
M0
100
AcDbLine
 10
77.096987
 20
401.626169
 11
76.280825
 21
404.273493
  0
LINE
  5
26D
100
AcDbEntity
  8
M0
100
AcDbLine
 10
83.014467
 20
409.520777
 11
83.830874
 21
406.873469
  0
LINE
  5
26E
100
AcDbEntity
  8
M0
100
AcDbLine
 10
83.014467
 20
401.626154
 11
83.830874
 21
404.273493
  0
LINE
  5
26F
100
AcDbEntity
  8
M0
100
AcDbLine
 10
81.455874
 20
408.673395
 11
83.275942
 21
408.673395
  0
LINE
  5
270
100
AcDbEntity
  8
M0
100
AcDbLine
 10
82.377505
 20
407.473444
 11
83.645815
 21
407.473444
  0
LINE
  5
271
100
AcDbEntity
  8
M0
100
AcDbLine
 10
82.377505
 20
403.673395
 11
83.645815
 21
403.673395
  0
LINE
  5
272
100
AcDbEntity
  8
M0
100
AcDbLine
 10
81.455874
 20
402.473444
 11
83.275942
 21
402.473444
  0
LINE
  5
273
100
AcDbEntity
  8
M0
100
AcDbLine
 10
78.655825
 20
408.673395
 11
76.835757
 21
408.673395
  0
LINE
  5
274
100
AcDbEntity
  8
M0
100
AcDbLine
 10
77.734194
 20
407.473444
 11
76.465883
 21
407.473444
  0
LINE
  5
275
100
AcDbEntity
  8
M0
100
AcDbLine
 10
77.734194
 20
403.673395
 11
76.465883
 21
403.673395
  0
LINE
  5
276
100
AcDbEntity
  8
M0
100
AcDbLine
 10
78.655825
 20
402.473444
 11
76.835757
 21
402.473444
  0
LINE
  5
277
100
AcDbEntity
  8
M0
100
AcDbLine
 10
77.575014
 20
401.273493
 11
82.536684
 21
401.273493
  0
LINE
  5
278
100
AcDbEntity
  8
M0
100
AcDbLine
 10
83.830874
 20
404.273493
 11
83.830874
 21
406.873469
  0
LINE
  5
279
100
AcDbEntity
  8
M0
100
AcDbLine
 10
82.536684
 20
409.873469
 11
77.575014
 21
409.873453
  0
LINE
  5
27A
100
AcDbEntity
  8
M0
100
AcDbLine
 10
76.280825
 20
406.873469
 11
76.280825
 21
404.273493
  0
LINE
  5
27B
100
AcDbEntity
  8
M0
100
AcDbLine
 10
81.455874
 20
402.473444
 11
81.455874
 21
402.920099
  0
LINE
  5
27C
100
AcDbEntity
  8
M0
100
AcDbLine
 10
81.455874
 20
408.22674
 11
81.455874
 21
408.673395
  0
LINE
  5
27D
100
AcDbEntity
  8
M0
100
AcDbLine
 10
78.655825
 20
408.22674
 11
78.655825
 21
408.673395
  0
LINE
  5
27E
100
AcDbEntity
  8
M0
100
AcDbLine
 10
78.655825
 20
402.473444
 11
78.655825
 21
402.920099
  0
LINE
  5
27F
100
AcDbEntity
  8
M0
100
AcDbLine
 10
81.646548
 20
403.982599
 11
78.464907
 21
407.164362
  0
LINE
  5
280
100
AcDbEntity
  8
M0
100
AcDbLine
 10
80.409243
 20
406.987604
 11
78.641665
 21
405.219904
  0
LINE
  5
281
100
AcDbEntity
  8
M0
100
AcDbLine
 10
81.46979
 20
405.926935
 11
79.702212
 21
404.159357
  0
ARC
  5
282
100
AcDbEntity
  8
M0
100
AcDbCircle
 10
77.575014
 20
409.373453
 40
0.5
100
AcDbArc
 50
89.998251
 51
162.872331
  0
ARC
  5
283
100
AcDbEntity
  8
M0
100
AcDbCircle
 10
77.575014
 20
401.773493
 40
0.5
100
AcDbArc
 50
197.127669
 51
270.0
  0
ARC
  5
284
100
AcDbEntity
  8
M0
100
AcDbCircle
 10
82.536684
 20
401.773493
 40
0.5
100
AcDbArc
 50
270.0
 51
342.86179
  0
ARC
  5
285
100
AcDbEntity
  8
M0
100
AcDbCircle
 10
82.536684
 20
409.373453
 40
0.5
100
AcDbArc
 50
17.137695
 51
89.998251
  0
CIRCLE
  5
286
100
AcDbEntity
  8
M0
100
AcDbCircle
 10
152.055956
 20
405.573679
 40
3.0
  0
LINE
  5
287
100
AcDbEntity
  8
M0
100
AcDbLine
 10
149.096972
 20
409.521021
 11
148.28081
 21
406.873728
  0
LINE
  5
288
100
AcDbEntity
  8
M0
100
AcDbLine
 10
149.096972
 20
401.626429
 11
148.28081
 21
404.273752
  0
LINE
  5
289
100
AcDbEntity
  8
M0
100
AcDbLine
 10
155.014452
 20
409.521036
 11
155.830858
 21
406.873728
  0
LINE
  5
28A
100
AcDbEntity
  8
M0
100
AcDbLine
 10
155.014452
 20
401.626414
 11
155.830858
 21
404.273752
  0
LINE
  5
28B
100
AcDbEntity
  8
M0
100
AcDbLine
 10
153.455858
 20
408.673655
 11
155.275927
 21
408.673655
  0
LINE
  5
28C
100
AcDbEntity
  8
M0
100
AcDbLine
 10
154.377489
 20
407.473704
 11
155.6458
 21
407.473704
  0
LINE
  5
28D
100
AcDbEntity
  8
M0
100
AcDbLine
 10
154.377489
 20
403.673655
 11
155.6458
 21
403.673655
  0
LINE
  5
28E
100
AcDbEntity
  8
M0
100
AcDbLine
 10
153.455858
 20
402.473704
 11
155.275927
 21
402.473704
  0
LINE
  5
28F
100
AcDbEntity
  8
M0
100
AcDbLine
 10
150.65581
 20
408.673655
 11
148.835741
 21
408.673655
  0
LINE
  5
290
100
AcDbEntity
  8
M0
100
AcDbLine
 10
149.734179
 20
407.473704
 11
148.465868
 21
407.473704
  0
LINE
  5
291
100
AcDbEntity
  8
M0
100
AcDbLine
 10
149.734179
 20
403.673655
 11
148.465868
 21
403.673655
  0
LINE
  5
292
100
AcDbEntity
  8
M0
100
AcDbLine
 10
150.65581
 20
402.473704
 11
148.835741
 21
402.473704
  0
LINE
  5
293
100
AcDbEntity
  8
M0
100
AcDbLine
 10
149.574999
 20
401.273752
 11
154.536669
 21
401.273752
  0
LINE
  5
294
100
AcDbEntity
  8
M0
100
AcDbLine
 10
155.830858
 20
404.273752
 11
155.830858
 21
406.873728
  0
LINE
  5
295
100
AcDbEntity
  8
M0
100
AcDbLine
 10
154.536669
 20
409.873728
 11
149.574999
 21
409.873713
  0
LINE
  5
296
100
AcDbEntity
  8
M0
100
AcDbLine
 10
148.28081
 20
406.873728
 11
148.28081
 21
404.273752
  0
LINE
  5
297
100
AcDbEntity
  8
M0
100
AcDbLine
 10
153.455858
 20
402.473704
 11
153.455858
 21
402.920359
  0
LINE
  5
298
100
AcDbEntity
  8
M0
100
AcDbLine
 10
153.455858
 20
408.226999
 11
153.455858
 21
408.673655
  0
LINE
  5
299
100
AcDbEntity
  8
M0
100
AcDbLine
 10
150.65581
 20
408.226999
 11
150.65581
 21
408.673655
  0
LINE
  5
29A
100
AcDbEntity
  8
M0
100
AcDbLine
 10
150.65581
 20
402.473704
 11
150.65581
 21
402.920359
  0
LINE
  5
29B
100
AcDbEntity
  8
M0
100
AcDbLine
 10
153.646532
 20
403.982859
 11
150.464892
 21
407.164622
  0
LINE
  5
29C
100
AcDbEntity
  8
M0
100
AcDbLine
 10
152.409228
 20
406.987864
 11
150.641649
 21
405.220164
  0
LINE
  5
29D
100
AcDbEntity
  8
M0
100
AcDbLine
 10
153.469774
 20
405.927195
 11
151.702196
 21
404.159617
  0
ARC
  5
29E
100
AcDbEntity
  8
M0
100
AcDbCircle
 10
149.574999
 20
409.373713
 40
0.5
100
AcDbArc
 50
90.0
 51
162.872846
  0
ARC
  5
29F
100
AcDbEntity
  8
M0
100
AcDbCircle
 10
149.574999
 20
401.773752
 40
0.5
100
AcDbArc
 50
197.127154
 51
269.998251
  0
ARC
  5
2A0
100
AcDbEntity
  8
M0
100
AcDbCircle
 10
154.536669
 20
401.773752
 40
0.5
100
AcDbArc
 50
269.998251
 51
342.861275
  0
ARC
  5
2A1
100
AcDbEntity
  8
M0
100
AcDbCircle
 10
154.536669
 20
409.373713
 40
0.5
100
AcDbArc
 50
17.13821
 51
90.0
  0
LINE
  5
2A2
100
AcDbEntity
  8
M0
100
AcDbLine
 10
149.096972
 20
400.021036
 11
148.28081
 21
397.373743
  0
LINE
  5
2A3
100
AcDbEntity
  8
M0
100
AcDbLine
 10
155.014452
 20
400.021052
 11
155.830858
 21
397.373743
  0
LINE
  5
2A4
100
AcDbEntity
  8
M0
100
AcDbLine
 10
153.455858
 20
399.17367
 11
155.275927
 21
399.17367
  0
LINE
  5
2A5
100
AcDbEntity
  8
M0
100
AcDbLine
 10
154.377489
 20
397.973719
 11
155.6458
 21
397.973719
  0
LINE
  5
2A6
100
AcDbEntity
  8
M0
100
AcDbLine
 10
150.65581
 20
399.17367
 11
148.835741
 21
399.17367
  0
LINE
  5
2A7
100
AcDbEntity
  8
M0
100
AcDbLine
 10
149.734179
 20
397.973719
 11
148.465868
 21
397.973719
  0
LINE
  5
2A8
100
AcDbEntity
  8
M0
100
AcDbLine
 10
154.536669
 20
400.373743
 11
149.574999
 21
400.373728
  0
LINE
  5
2A9
100
AcDbEntity
  8
M0
100
AcDbLine
 10
153.455858
 20
398.727015
 11
153.455858
 21
399.17367
  0
LINE
  5
2AA
100
AcDbEntity
  8
M0
100
AcDbLine
 10
150.65581
 20
398.727015
 11
150.65581
 21
399.17367
  0
ARC
  5
2AB
100
AcDbEntity
  8
M0
100
AcDbCircle
 10
149.574999
 20
399.873728
 40
0.5
100
AcDbArc
 50
90.0
 51
162.872846
  0
ARC
  5
2AC
100
AcDbEntity
  8
M0
100
AcDbCircle
 10
154.536669
 20
399.873728
 40
0.5
100
AcDbArc
 50
17.13821
 51
90.0
  0
LINE
  5
2AD
100
AcDbEntity
  8
M0
 62
     5
100
AcDbLine
 10
148.105517
 20
370.858393
 11
155.755175
 21
376.117426
  0
LINE
  5
2AE
100
AcDbEntity
  8
M0
 62
     6
100
AcDbLine
 10
72.555971
 20
386.57342
 11
74.055971
 21
386.57342
  0
LINE
  5
2AF
100
AcDbEntity
  8
M0
 62
     6
100
AcDbLine
 10
72.055971
 20
389.57342
 11
84.055971
 21
389.57342
  0
LINE
  5
2B0
100
AcDbEntity
  8
M0
 62
     6
100
AcDbLine
 10
76.055971
 20
390.57342
 11
84.055971
 21
390.57342
  0
LINE
  5
2B1
100
AcDbEntity
  8
M0
 62
     6
100
AcDbLine
 10
76.055971
 20
392.07342
 11
77.113344
 21
392.07342
  0
LINE
  5
2B2
100
AcDbEntity
  8
M0
 62
     6
100
AcDbLine
 10
74.555971
 20
387.07342
 11
74.555971
 21
389.57342
  0
ARC
  5
2B3
100
AcDbEntity
  8
M0
 62
     6
100
AcDbCircle
 10
74.055971
 20
387.07342
 40
0.5
100
AcDbArc
 50
-90.0
 51
0.0
  0
ARC
  5
2B4
100
AcDbEntity
  8
M0
 62
     6
100
AcDbCircle
 10
72.555971
 20
387.07342
 40
0.5
100
AcDbArc
 50
179.998251
 51
270.0
  0
LINE
  5
2B5
100
AcDbEntity
  8
M0
 62
     6
100
AcDbLine
 10
72.055971
 20
389.57342
 11
76.055971
 21
389.57342
  0
ARC
  5
2B6
100
AcDbEntity
  8
M0
 62
     6
100
AcDbCircle
 10
75.555971
 20
390.07342
 40
0.5
100
AcDbArc
 50
-90.0
 51
0.0
  0
LINE
  5
2B7
100
AcDbEntity
  8
M0
 62
     6
100
AcDbLine
 10
159.555956
 20
386.573664
 11
158.055956
 21
386.573664
  0
LINE
  5
2B8
100
AcDbEntity
  8
M0
 62
     6
100
AcDbLine
 10
156.555956
 20
389.573649
 11
148.055956
 21
389.573664
  0
LINE
  5
2B9
100
AcDbEntity
  8
M0
 62
     6
100
AcDbLine
 10
156.055956
 20
390.573664
 11
148.055956
 21
390.573664
  0
LINE
  5
2BA
100
AcDbEntity
  8
M0
 62
     6
100
AcDbLine
 10
156.055956
 20
392.073664
 11
154.998095
 21
392.073649
  0
LINE
  5
2BB
100
AcDbEntity
  8
M0
 62
     6
100
AcDbLine
 10
157.555956
 20
387.073664
 11
157.555956
 21
389.573664
  0
ARC
  5
2BC
100
AcDbEntity
  8
M0
 62
     6
100
AcDbCircle
 10
158.055956
 20
387.073664
 40
0.5
100
AcDbArc
 50
179.998251
 51
269.998251
  0
ARC
  5
2BD
100
AcDbEntity
  8
M0
 62
     6
100
AcDbCircle
 10
159.555956
 20
387.073664
 40
0.5
100
AcDbArc
 50
269.998251
 51
360.0
  0
LINE
  5
2BE
100
AcDbEntity
  8
M0
 62
     6
100
AcDbLine
 10
160.055956
 20
389.573664
 11
156.055956
 21
389.573664
  0
ARC
  5
2BF
100
AcDbEntity
  8
M0
 62
     6
100
AcDbCircle
 10
156.555956
 20
390.073664
 40
0.5
100
AcDbArc
 50
179.998251
 51
269.998251
  0
LINE
  5
2C0
100
AcDbEntity
  8
M0
 62
     6
100
AcDbLine
 10
82.998354
 20
392.07342
 11
84.055971
 21
392.07342
  0
LINE
  5
2C1
100
AcDbEntity
  8
M0
 62
     6
100
AcDbLine
 10
149.113085
 20
392.073649
 11
148.055956
 21
392.073664
  0
ARC
  5
2C2
100
AcDbEntity
  8
M0
 62
     7
100
AcDbCircle
 10
108.55597
 20
382.573221
 40
0.5
100
AcDbArc
 50
179.998251
 51
270.0
  0
LINE
  5
2C3
100
AcDbEntity
  8
M0
 62
     7
100
AcDbLine
 10
110.55597
 20
382.073206
 11
108.55597
 21
382.073206
  0
LINE
  5
2C4
100
AcDbEntity
  8
M0
 62
     7
100
AcDbLine
 10
84.555971
 20
383.573191
 11
116.056566
 21
383.573191
  0
ARC
  5
2C5
100
AcDbEntity
  8
M0
 62
     7
100
AcDbCircle
 10
84.555971
 20
384.073191
 40
0.5
100
AcDbArc
 50
179.998251
 51
270.0
  0
ARC
  5
2C6
100
AcDbEntity
  8
M0
 62
     7
100
AcDbCircle
 10
147.555956
 20
384.073191
 40
0.5
100
AcDbArc
 50
269.998251
 51
360.0
  0
LINE
  5
2C7
100
AcDbEntity
  8
M0
 62
     7
100
AcDbLine
 10
108.05597
 20
382.573221
 11
108.05597
 21
383.573206
  0
ARC
  5
2C8
100
AcDbEntity
  8
M0
 62
     7
100
AcDbCircle
 10
110.55597
 20
382.573221
 40
0.5
100
AcDbArc
 50
-90.0
 51
0.0
  0
LINE
  5
2C9
100
AcDbEntity
  8
M0
 62
     7
100
AcDbLine
 10
111.05597
 20
382.573221
 11
111.05597
 21
383.573206
  0
LINE
  5
2CA
100
AcDbEntity
  8
M0
100
AcDbLine
 10
81.455874
 20
392.973444
 11
83.275942
 21
392.973444
  0
LINE
  5
2CB
100
AcDbEntity
  8
M0
100
AcDbLine
 10
78.655825
 20
392.973444
 11
76.835757
 21
392.973444
  0
LINE
  5
2CC
100
AcDbEntity
  8
M0
100
AcDbLine
 10
77.575014
 20
391.773493
 11
82.536684
 21
391.773493
  0
LINE
  5
2CD
100
AcDbEntity
  8
M0
100
AcDbLine
 10
81.455874
 20
392.973444
 11
81.455874
 21
393.420099
  0
LINE
  5
2CE
100
AcDbEntity
  8
M0
100
AcDbLine
 10
78.655825
 20
392.973444
 11
78.655825
 21
393.420099
  0
ARC
  5
2CF
100
AcDbEntity
  8
M0
100
AcDbCircle
 10
77.575014
 20
392.273493
 40
0.5
100
AcDbArc
 50
197.127669
 51
270.0
  0
ARC
  5
2D0
100
AcDbEntity
  8
M0
100
AcDbCircle
 10
82.536684
 20
392.273493
 40
0.5
100
AcDbArc
 50
270.0
 51
342.86179
  0
LINE
  5
2D1
100
AcDbEntity
  8
M0
100
AcDbLine
 10
153.455858
 20
392.973719
 11
155.275927
 21
392.973719
  0
LINE
  5
2D2
100
AcDbEntity
  8
M0
100
AcDbLine
 10
150.65581
 20
392.973719
 11
148.835741
 21
392.973719
  0
LINE
  5
2D3
100
AcDbEntity
  8
M0
100
AcDbLine
 10
149.574999
 20
391.773768
 11
154.536669
 21
391.773768
  0
LINE
  5
2D4
100
AcDbEntity
  8
M0
100
AcDbLine
 10
153.455858
 20
392.973719
 11
153.455858
 21
393.420374
  0
LINE
  5
2D5
100
AcDbEntity
  8
M0
100
AcDbLine
 10
150.65581
 20
392.973719
 11
150.65581
 21
393.420374
  0
ARC
  5
2D6
100
AcDbEntity
  8
M0
100
AcDbCircle
 10
149.574999
 20
392.273768
 40
0.5
100
AcDbArc
 50
197.127154
 51
269.998251
  0
ARC
  5
2D7
100
AcDbEntity
  8
M0
100
AcDbCircle
 10
154.536669
 20
392.273768
 40
0.5
100
AcDbArc
 50
269.998251
 51
342.861275
  0
LINE
  5
2D8
100
AcDbEntity
  8
M0
 62
     5
100
AcDbLine
 10
157.055712
 20
388.57345
 11
157.055712
 21
378.589731
  0
ARC
  5
2D9
100
AcDbEntity
  8
M0
 62
     5
100
AcDbCircle
 10
154.055712
 20
378.589731
 40
3.0
100
AcDbArc
 50
304.507247
 51
360.0
  0
ARC
  5
2DA
100
AcDbEntity
  8
M0
 62
     5
100
AcDbCircle
 10
149.055712
 20
377.073618
 40
2.249998
100
AcDbArc
 50
245.020289
 51
474.979547
  0
LINE
  5
2DB
100
AcDbEntity
  8
M0
  6
DASHDOT
 62
     5
100
AcDbLine
 10
153.875963
 20
377.073618
 11
144.975146
 21
377.073618
  0
LINE
  5
2DC
100
AcDbEntity
  8
M0
 62
     5
100
AcDbLine
 10
160.055712
 20
389.57345
 11
148.055712
 21
389.57345
  0
LINE
  5
2DD
100
AcDbEntity
  8
M0
 62
     5
100
AcDbLine
 10
157.555712
 20
388.573435
 11
157.055712
 21
388.57345
  0
ARC
  5
2DE
100
AcDbEntity
  8
M0
 62
     5
100
AcDbCircle
 10
72.555483
 20
378.57345
 40
0.5
100
AcDbArc
 50
179.998251
 51
270.0
  0
LINE
  5
2DF
100
AcDbEntity
  8
M0
 62
     5
100
AcDbLine
 10
76.055727
 20
378.07345
 11
76.055727
 21
389.57342
  0
LINE
  5
2E0
100
AcDbEntity
  8
M0
 62
     5
100
AcDbLine
 10
72.555483
 20
378.07345
 11
76.055727
 21
378.07345
  0
LINE
  5
2E1
100
AcDbEntity
  8
M0
 62
     5
100
AcDbLine
 10
76.055727
 20
389.07345
 11
84.055971
 21
389.07345
  0
LINE
  5
2E2
100
AcDbEntity
  8
M0
 62
     5
100
AcDbLine
 10
76.055727
 20
379.57345
 11
84.055971
 21
379.57345
  0
LINE
  5
2E3
100
AcDbEntity
  8
M0
  6
DASHDOT
100
AcDbLine
 10
138.055712
 20
383.573435
 11
156.191332
 21
383.573435
  0
LINE
  5
2E4
100
AcDbEntity
  8
M0
  6
DASHDOT
 62
     6
100
AcDbLine
 10
73.732134
 20
396.07342
 11
86.729906
 21
396.07342
  0
LINE
  5
2E5
100
AcDbEntity
  8
M0
 62
     6
100
AcDbLine
 10
76.055971
 20
397.07342
 11
76.555971
 21
398.57342
  0
LINE
  5
2E6
100
AcDbEntity
  8
M0
 62
     6
100
AcDbLine
 10
84.055971
 20
397.07342
 11
83.555971
 21
398.57342
  0
LINE
  5
2E7
100
AcDbEntity
  8
M0
  6
DASHDOT
 62
     6
100
AcDbLine
 10
158.407961
 20
396.073664
 11
145.15642
 21
396.073664
  0
LINE
  5
2E8
100
AcDbEntity
  8
M0
 62
     6
100
AcDbLine
 10
156.055956
 20
397.073664
 11
155.555956
 21
398.573664
  0
LINE
  5
2E9
100
AcDbEntity
  8
M0
 62
     6
100
AcDbLine
 10
148.055956
 20
397.073664
 11
148.555956
 21
398.573664
  0
LINE
  5
2EA
100
AcDbEntity
  8
M0
 62
     7
100
AcDbLine
 10
148.055956
 20
384.073176
 11
148.055956
 21
409.873163
  0
LINE
  5
2EB
100
AcDbEntity
  8
M0
 62
     7
100
AcDbLine
 10
84.055971
 20
409.873133
 11
84.055971
 21
384.073191
  0
CIRCLE
  5
2EC
100
AcDbEntity
  8
M0
100
AcDbCircle
 10
80.055971
 20
396.07342
 40
3.0
  0
LINE
  5
2ED
100
AcDbEntity
  8
M0
100
AcDbLine
 10
77.096987
 20
392.126169
 11
76.280825
 21
394.773493
  0
LINE
  5
2EE
100
AcDbEntity
  8
M0
100
AcDbLine
 10
83.014467
 20
392.126154
 11
83.830874
 21
394.773493
  0
LINE
  5
2EF
100
AcDbEntity
  8
M0
100
AcDbLine
 10
82.377505
 20
394.173395
 11
83.645815
 21
394.173395
  0
LINE
  5
2F0
100
AcDbEntity
  8
M0
100
AcDbLine
 10
77.734194
 20
394.173395
 11
76.465883
 21
394.173395
  0
LINE
  5
2F1
100
AcDbEntity
  8
M0
100
AcDbLine
 10
83.830874
 20
394.773493
 11
83.830874
 21
397.373469
  0
LINE
  5
2F2
100
AcDbEntity
  8
M0
100
AcDbLine
 10
76.280825
 20
397.373469
 11
76.280825
 21
394.773493
  0
LINE
  5
2F3
100
AcDbEntity
  8
M0
100
AcDbLine
 10
81.646548
 20
394.482599
 11
78.464907
 21
397.664362
  0
LINE
  5
2F4
100
AcDbEntity
  8
M0
100
AcDbLine
 10
80.409243
 20
397.487604
 11
78.641665
 21
395.719904
  0
LINE
  5
2F5
100
AcDbEntity
  8
M0
100
AcDbLine
 10
81.46979
 20
396.426935
 11
79.702212
 21
394.659357
  0
CIRCLE
  5
2F6
100
AcDbEntity
  8
M0
100
AcDbCircle
 10
152.055956
 20
396.073694
 40
3.0
  0
LINE
  5
2F7
100
AcDbEntity
  8
M0
100
AcDbLine
 10
149.096972
 20
392.126444
 11
148.28081
 21
394.773768
  0
LINE
  5
2F8
100
AcDbEntity
  8
M0
100
AcDbLine
 10
155.014452
 20
392.126429
 11
155.830858
 21
394.773768
  0
LINE
  5
2F9
100
AcDbEntity
  8
M0
100
AcDbLine
 10
154.377489
 20
394.17367
 11
155.6458
 21
394.17367
  0
LINE
  5
2FA
100
AcDbEntity
  8
M0
100
AcDbLine
 10
149.734179
 20
394.17367
 11
148.465868
 21
394.17367
  0
LINE
  5
2FB
100
AcDbEntity
  8
M0
100
AcDbLine
 10
155.830858
 20
394.773768
 11
155.830858
 21
397.373743
  0
LINE
  5
2FC
100
AcDbEntity
  8
M0
100
AcDbLine
 10
148.28081
 20
397.373743
 11
148.28081
 21
394.773768
  0
LINE
  5
2FD
100
AcDbEntity
  8
M0
100
AcDbLine
 10
153.646532
 20
394.482874
 11
150.464892
 21
397.664637
  0
LINE
  5
2FE
100
AcDbEntity
  8
M0
100
AcDbLine
 10
152.409228
 20
397.487879
 11
150.641649
 21
395.720179
  0
LINE
  5
2FF
100
AcDbEntity
  8
M0
100
AcDbLine
 10
153.469774
 20
396.42721
 11
151.702196
 21
394.659632
  0
ARC
  5
300
100
AcDbEntity
  8
M0
 62
     6
100
AcDbCircle
 10
84.555971
 20
368.574137
 40
0.5
100
AcDbArc
 50
179.998251
 51
270.0
  0
ARC
  5
301
100
AcDbEntity
  8
M0
 62
     6
100
AcDbCircle
 10
87.305971
 20
368.574137
 40
0.5
100
AcDbArc
 50
270.0
 51
360.0
  0
ARC
  5
302
100
AcDbEntity
  8
M0
 62
     6
100
AcDbCircle
 10
147.555956
 20
368.574396
 40
0.5
100
AcDbArc
 50
269.998251
 51
360.0
  0
LINE
  5
303
100
AcDbEntity
  8
M0
 62
     6
100
AcDbLine
 10
104.305971
 20
368.074091
 11
84.555971
 21
368.074137
  0
LINE
  5
304
100
AcDbEntity
  8
M0
 62
     6
100
AcDbLine
 10
87.805971
 20
368.574122
 11
87.805971
 21
383.573191
  0
LINE
  5
305
100
AcDbEntity
  8
M0
  6
DASHDOT
 62
     5
100
AcDbLine
 10
149.055712
 20
382.082499
 11
149.055712
 21
372.039515
  0
LINE
  5
306
100
AcDbEntity
  8
M0
 62
     6
100
AcDbLine
 10
84.055971
 20
409.873133
 11
84.055971
 21
368.574137
  0
LINE
  5
307
100
AcDbEntity
  8
M0
 62
     6
100
AcDbLine
 10
148.055956
 20
409.873163
 11
148.055956
 21
368.574396
  0
LINE
  5
308
100
AcDbEntity
  8
M0
  6
DASHDOT
100
AcDbLine
 10
151.555712
 20
378.896509
 11
151.555712
 21
387.960505
  0
LINE
  5
309
100
AcDbEntity
  8
M0
  6
DASHDOT
100
AcDbLine
 10
152.055712
 20
390.296091
 11
152.055712
 21
412.772913
  0
LINE
  5
30A
100
AcDbEntity
  8
M0
 62
     6
100
AcDbLine
 10
107.80597
 20
368.074396
 11
116.055681
 21
368.074396
  0
LINE
  5
30B
100
AcDbEntity
  8
M0
 62
     6
100
AcDbLine
 10
146.55562
 20
368.074396
 11
147.555956
 21
368.074396
  0
LINE
  5
30C
100
AcDbEntity
  8
M0
 62
     6
100
AcDbLine
 10
72.055971
 20
419.823417
 11
75.255923
 21
419.823417
  0
LINE
  5
30D
100
AcDbEntity
  8
M0
 62
     6
100
AcDbLine
 10
75.255923
 20
419.823417
 11
75.255923
 21
412.32342
  0
LINE
  5
30E
100
AcDbEntity
  8
M0
 62
     6
100
AcDbLine
 10
75.255923
 20
419.823417
 11
76.055971
 21
420.773368
  0
LINE
  5
30F
100
AcDbEntity
  8
M0
 62
     6
100
AcDbLine
 10
160.055956
 20
419.823173
 11
156.855761
 21
419.823173
  0
LINE
  5
310
100
AcDbEntity
  8
M0
 62
     6
100
AcDbLine
 10
156.855761
 20
419.823173
 11
156.855761
 21
412.323664
  0
LINE
  5
311
100
AcDbEntity
  8
M0
 62
     6
100
AcDbLine
 10
156.855761
 20
419.823173
 11
156.055956
 21
420.773124
  0
CIRCLE
  5
312
100
AcDbEntity
  8
M0
 62
     7
100
AcDbCircle
 10
82.055971
 20
416.073188
 40
3.249996
  0
CIRCLE
  5
313
100
AcDbEntity
  8
M0
 62
     7
100
AcDbCircle
 10
150.055956
 20
416.073188
 40
3.249996
  0
LINE
  5
314
100
AcDbEntity
  8
M0
 62
     7
100
AcDbLine
 10
104.755923
 20
423.372947
 11
104.755923
 21
413.073173
  0
CIRCLE
  5
315
100
AcDbEntity
  8
M0
100
AcDbCircle
 10
150.055468
 20
416.073417
 40
2.749996
  0
CIRCLE
  5
316
100
AcDbEntity
  8
M0
100
AcDbCircle
 10
150.055468
 20
416.073417
 40
3.0
  0
LINE
  5
317
100
AcDbEntity
  8
M0
100
AcDbLine
 10
148.641161
 20
417.487479
 11
151.46953
 21
414.65911
  0
LINE
  5
318
100
AcDbEntity
  8
M0
100
AcDbLine
 10
150.550097
 20
417.699638
 11
148.428759
 21
415.5783
  0
LINE
  5
319
100
AcDbEntity
  8
M0
100
AcDbLine
 10
151.681689
 20
416.568046
 11
149.560351
 21
414.446708
  0
CIRCLE
  5
31A
100
AcDbEntity
  8
M0
100
AcDbCircle
 10
82.055727
 20
416.073417
 40
2.749996
  0
CIRCLE
  5
31B
100
AcDbEntity
  8
M0
100
AcDbCircle
 10
82.055727
 20
416.073417
 40
3.0
  0
LINE
  5
31C
100
AcDbEntity
  8
M0
100
AcDbLine
 10
80.641421
 20
417.487479
 11
83.46979
 21
414.65911
  0
LINE
  5
31D
100
AcDbEntity
  8
M0
100
AcDbLine
 10
82.550356
 20
417.699638
 11
80.429018
 21
415.5783
  0
LINE
  5
31E
100
AcDbEntity
  8
M0
100
AcDbLine
 10
83.681948
 20
416.568046
 11
81.56061
 21
414.446708
  0
LINE
  5
31F
100
AcDbEntity
  8
M0
100
AcDbLine
 10
113.05597
 20
416.22309
 11
116.055681
 21
416.22309
  0
LINE
  5
320
100
AcDbEntity
  8
M0
100
AcDbLine
 10
113.05597
 20
420.72309
 11
113.05597
 21
416.22309
  0
LINE
  5
321
100
AcDbEntity
  8
M0
 62
     7
100
AcDbLine
 10
155.555956
 20
410.873148
 11
155.555956
 21
421.27317
  0
LINE
  5
322
100
AcDbEntity
  8
M0
 62
     7
100
AcDbLine
 10
76.555971
 20
421.273185
 11
76.555971
 21
410.873133
  0
LINE
  5
323
100
AcDbEntity
  8
M0
  6
DASHDOT
100
AcDbLine
 10
150.055468
 20
410.373301
 11
150.055468
 21
421.772712
  0
LINE
  5
324
100
AcDbEntity
  8
M0
  6
DASHDOT
100
AcDbLine
 10
82.055727
 20
410.373301
 11
82.055727
 21
421.7732
  0
LINE
  5
325
100
AcDbEntity
  8
M0
 62
     5
100
AcDbLine
 10
72.055483
 20
443.573233
 11
72.055483
 21
378.57345
  0
LINE
  5
326
100
AcDbEntity
  8
M0
 62
     5
100
AcDbLine
 10
160.055712
 20
388.573435
 11
160.055712
 21
453.572977
  0
LINE
  5
327
100
AcDbEntity
  8
M0
 62
     6
100
AcDbLine
 10
76.055971
 20
442.073233
 11
76.055971
 21
390.07342
  0
LINE
  5
328
100
AcDbEntity
  8
M0
 62
     6
100
AcDbLine
 10
156.055956
 20
442.072989
 11
156.055956
 21
390.073664
  0
LINE
  5
329
100
AcDbEntity
  8
M0
 62
     6
100
AcDbLine
 10
72.055727
 20
445.072977
 11
72.055727
 21
387.073664
  0
LINE
  5
32A
100
AcDbEntity
  8
M0
 62
     6
100
AcDbLine
 10
160.055956
 20
445.072733
 11
160.055956
 21
387.073908
  0
LINE
  5
32B
100
AcDbEntity
  8
M0
  6
DASHDOT
100
AcDbLine
 10
80.055727
 20
420.133094
 11
80.055727
 21
443.374014
  0
LINE
  5
32C
100
AcDbEntity
  8
M0
  6
DASHDOT
100
AcDbLine
 10
150.055712
 20
379.585367
 11
150.055712
 21
387.99676
  0
LINE
  5
32D
100
AcDbEntity
  8
M0
100
AcDbLine
 10
150.055712
 20
385.873423
 11
151.555712
 21
385.873423
  0
LINE
  5
32E
100
AcDbEntity
  8
M0
100
AcDbLine
 10
150.055712
 20
381.273432
 11
151.555712
 21
381.273432
  0
ARC
  5
32F
100
AcDbEntity
  8
M0
100
AcDbCircle
 10
151.555712
 20
383.573435
 40
2.299998
100
AcDbArc
 50
269.99962
 51
450.0
  0
ARC
  5
330
100
AcDbEntity
  8
M0
100
AcDbCircle
 10
150.055712
 20
383.573435
 40
2.299998
100
AcDbArc
 50
90.0
 51
150.395947
  0
ARC
  5
331
100
AcDbEntity
  8
M0
100
AcDbCircle
 10
150.055712
 20
383.573435
 40
2.299998
100
AcDbArc
 50
209.60391
 51
269.99962
  0
LINE
  5
332
100
AcDbEntity
  8
M0
 62
     7
100
AcDbLine
 10
146.55562
 20
383.573191
 11
147.555956
 21
383.573191
  0
LINE
  5
333
100
AcDbEntity
  8
M0
 62
     7
100
AcDbLine
 10
124.35544
 20
410.073191
 11
124.055392
 21
410.073191
  0
LINE
  5
334
100
AcDbEntity
  8
M0
 62
     7
100
AcDbLine
 10
124.055392
 20
410.073191
 11
124.055392
 21
406.073191
  0
ARC
  5
335
100
AcDbEntity
  8
M0
 62
     7
100
AcDbCircle
 10
124.35544
 20
413.073178
 40
3.0
100
AcDbArc
 50
-90.000291
 51
0.0
  0
LINE
  5
336
100
AcDbEntity
  8
M0
 62
     7
100
AcDbLine
 10
127.355425
 20
423.372953
 11
127.35544
 21
413.073178
  0
LINE
  5
337
100
AcDbEntity
  8
M0
100
AcDbLine
 10
119.055389
 20
420.723092
 11
119.055391
 21
416.223092
  0
LINE
  5
338
100
AcDbEntity
  8
M0
100
AcDbLine
 10
119.055391
 20
416.223092
 11
116.055681
 21
416.22309
  0
LINE
  5
339
100
AcDbEntity
  8
M0
 62
     7
100
AcDbLine
 10
147.555407
 20
383.573206
 11
116.054814
 21
383.573191
  0
LINE
  5
33A
100
AcDbEntity
  8
M0
  6
DASHDOT
 62
     6
100
AcDbLine
 10
158.407961
 20
405.573511
 11
145.15642
 21
405.573511
  0
LINE
  5
33B
100
AcDbEntity
  8
M0
  6
DASHDOT
100
AcDbLine
 10
80.055727
 20
412.014325
 11
80.055727
 21
388.773405
  0
LINE
  5
33C
100
AcDbEntity
  8
M0
  6
DASHDOT
100
AcDbLine
 10
152.055712
 20
441.851328
 11
152.055712
 21
419.374506
  0
LINE
  5
33D
100
AcDbEntity
  8
M0
 62
     6
100
AcDbLine
 10
104.805956
 20
363.073862
 11
107.305956
 21
363.073862
  0
ARC
  5
33E
100
AcDbEntity
  8
M0
 62
     6
100
AcDbCircle
 10
104.805956
 20
363.573862
 40
0.5
100
AcDbArc
 50
180.0
 51
269.998251
  0
ARC
  5
33F
100
AcDbEntity
  8
M0
 62
     6
100
AcDbCircle
 10
107.305956
 20
363.573862
 40
0.5
100
AcDbArc
 50
269.998251
 51
360.0
  0
LINE
  5
340
100
AcDbEntity
  8
M0
 62
     6
100
AcDbLine
 10
107.805956
 20
363.573847
 11
107.805956
 21
383.573633
  0
LINE
  5
341
100
AcDbEntity
  8
M0
 62
     6
100
AcDbLine
 10
104.305956
 20
363.573862
 11
104.305956
 21
383.573633
  0
LINE
  5
342
100
AcDbEntity
  8
M0
 62
     6
100
AcDbLine
 10
127.805407
 20
363.573878
 11
127.805407
 21
383.573649
  0
LINE
  5
343
100
AcDbEntity
  8
M0
  6
DASHDOT
100
AcDbLine
 10
146.354671
 20
376.074092
 11
126.921579
 21
376.074104
  0
LINE
  5
344
100
AcDbEntity
  8
M0
  6
DASHDOT
100
AcDbLine
 10
126.353862
 20
376.074092
 11
106.920771
 21
376.074104
  0
LINE
  5
345
100
AcDbEntity
  8
M0
 62
     1
100
AcDbLine
 10
124.305697
 20
464.072977
 11
116.055192
 21
464.072733
  0
LINE
  5
346
100
AcDbEntity
  8
M0
 62
     1
100
AcDbLine
 10
124.305697
 20
468.57345
 11
124.305681
 21
448.573694
  0
LINE
  5
347
100
AcDbEntity
  8
M0
 62
     1
100
AcDbLine
 10
127.305697
 20
469.073694
 11
124.805697
 21
469.073694
  0
LINE
  5
348
100
AcDbEntity
  8
M0
 62
     1
100
AcDbLine
 10
127.805697
 20
464.072977
 11
146.55562
 21
464.072916
  0
LINE
  5
349
100
AcDbEntity
  8
M0
 62
     1
100
AcDbLine
 10
144.305697
 20
464.073694
 11
144.305697
 21
448.572962
  0
LINE
  5
34A
100
AcDbEntity
  8
M0
 62
     1
100
AcDbLine
 10
127.805697
 20
468.57345
 11
127.805697
 21
448.572962
  0
ARC
  5
34B
100
AcDbEntity
  8
M0
 62
     1
100
AcDbCircle
 10
143.305666
 20
448.57371
 40
1.0
100
AcDbArc
 50
-14.520977
 51
0.0
  0
ARC
  5
34C
100
AcDbEntity
  8
M0
 62
     1
100
AcDbCircle
 10
128.805681
 20
448.57371
 40
1.0
100
AcDbArc
 50
180.0
 51
194.521604
  0
LINE
  5
34D
100
AcDbEntity
  8
M0
 62
     1
100
AcDbLine
 10
124.305697
 20
468.57345
 11
124.305697
 21
448.572962
  0
ARC
  5
34E
100
AcDbEntity
  8
M0
 62
     1
100
AcDbCircle
 10
123.305681
 20
448.57371
 40
1.0
100
AcDbArc
 50
-14.520977
 51
0.0
  0
LINE
  5
34F
100
AcDbEntity
  8
M0
 62
     1
100
AcDbLine
 10
124.305697
 20
368.07493
 11
116.055192
 21
368.074442
  0
LINE
  5
350
100
AcDbEntity
  8
M0
 62
     1
100
AcDbLine
 10
124.305697
 20
363.574183
 11
124.305681
 21
383.574198
  0
LINE
  5
351
100
AcDbEntity
  8
M0
 62
     1
100
AcDbLine
 10
127.305697
 20
363.074198
 11
124.805697
 21
363.074183
  0
LINE
  5
352
100
AcDbEntity
  8
M0
 62
     1
100
AcDbLine
 10
127.805697
 20
368.07493
 11
146.55562
 21
368.074869
  0
ARC
  5
353
100
AcDbEntity
  8
M0
 62
     1
100
AcDbCircle
 10
143.305666
 20
383.574198
 40
1.0
100
AcDbArc
 50
0.0
 51
29.967834
  0
LINE
  5
354
100
AcDbEntity
  8
M0
  6
DASHDOT
 62
     1
100
AcDbLine
 10
116.055667
 20
469.119806
 11
116.055681
 21
416.07371
  0
LINE
  5
355
100
AcDbEntity
  8
M0
  6
DASHDOT
 62
     1
100
AcDbLine
 10
116.055681
 20
416.073954
 11
116.055192
 21
416.073466
  0
ARC
  5
356
100
AcDbEntity
  8
M0
 62
     1
100
AcDbCircle
 10
124.805697
 20
363.574183
 40
0.5
100
AcDbArc
 50
180.0
 51
269.998251
  0
ARC
  5
357
100
AcDbEntity
  8
M0
 62
     1
100
AcDbCircle
 10
127.305697
 20
363.574183
 40
0.5
100
AcDbArc
 50
269.998251
 51
360.0
  0
LINE
  5
358
100
AcDbEntity
  8
M0
  6
DIVIDE
 62
     1
100
AcDbLine
 10
116.055192
 20
416.073466
 11
116.055681
 21
416.073954
  0
LINE
  5
359
100
AcDbEntity
  8
M0
  6
DASHDOT
 62
     1
100
AcDbLine
 10
146.55562
 20
396.074137
 11
144.305666
 21
396.074198
  0
ARC
  5
35A
100
AcDbEntity
  8
M0
 62
     1
100
AcDbCircle
 10
127.305697
 20
468.57345
 40
0.5
100
AcDbArc
 50
0.0
 51
90.0
  0
ARC
  5
35B
100
AcDbEntity
  8
M0
 62
     1
100
AcDbCircle
 10
124.805697
 20
468.57345
 40
0.5
100
AcDbArc
 50
90.0
 51
180.0
  0
LINE
  5
35C
100
AcDbEntity
  8
M0
  6
DASHDOT
 62
     1
100
AcDbLine
 10
116.055681
 20
416.07371
 11
116.055695
 21
362.613093
  0
LINE
  5
35D
100
AcDbEntity
  8
M0
 62
     7
100
AcDbLine
 10
128.905793
 20
368.074198
 11
143.205828
 21
368.074198
  0
LINE
  5
35E
100
AcDbEntity
  8
M0
 62
     7
100
AcDbLine
 10
144.205828
 20
369.074198
 11
144.205828
 21
383.574198
  0
LINE
  5
35F
100
AcDbEntity
  8
M0
 62
     7
100
AcDbLine
 10
127.905793
 20
383.574198
 11
127.905793
 21
369.074198
  0
ARC
  5
360
100
AcDbEntity
  8
M0
 62
     7
100
AcDbCircle
 10
143.205828
 20
369.074198
 40
1.0
100
AcDbArc
 50
269.999126
 51
360.0
  0
ARC
  5
361
100
AcDbEntity
  8
M0
 62
     7
100
AcDbCircle
 10
128.905793
 20
369.074198
 40
1.0
100
AcDbArc
 50
180.0
 51
270.0
  0
LINE
  5
362
100
AcDbEntity
  8
M0
 62
     4
100
AcDbLine
 10
88.905778
 20
368.073466
 11
103.205813
 21
368.073466
  0
LINE
  5
363
100
AcDbEntity
  8
M0
 62
     4
100
AcDbLine
 10
104.205813
 20
369.073466
 11
104.205813
 21
383.573466
  0
LINE
  5
364
100
AcDbEntity
  8
M0
 62
     4
100
AcDbLine
 10
87.905778
 20
383.573466
 11
87.905778
 21
369.073466
  0
ARC
  5
365
100
AcDbEntity
  8
M0
 62
     4
100
AcDbCircle
 10
103.205813
 20
369.073466
 40
1.0
100
AcDbArc
 50
269.999126
 51
360.0
  0
ARC
  5
366
100
AcDbEntity
  8
M0
 62
     4
100
AcDbCircle
 10
88.905778
 20
369.073466
 40
1.0
100
AcDbArc
 50
180.0
 51
270.0
  0
LINE
  5
367
100
AcDbEntity
  8
M0
 62
     7
100
AcDbLine
 10
143.205627
 20
464.073453
 11
128.905593
 21
464.073462
  0
LINE
  5
368
100
AcDbEntity
  8
M0
 62
     7
100
AcDbLine
 10
127.905592
 20
463.073462
 11
127.905583
 21
448.573462
  0
LINE
  5
369
100
AcDbEntity
  8
M0
 62
     7
100
AcDbLine
 10
144.205617
 20
448.573452
 11
144.205626
 21
463.073452
  0
ARC
  5
36A
100
AcDbEntity
  8
M0
 62
     7
100
AcDbCircle
 10
128.905592
 20
463.073462
 40
1.0
100
AcDbArc
 50
90.0
 51
179.999964
  0
ARC
  5
36B
100
AcDbEntity
  8
M0
 62
     7
100
AcDbCircle
 10
128.905583
 20
448.573462
 40
1.0
100
AcDbArc
 50
179.999964
 51
194.507219
  0
ARC
  5
36C
100
AcDbEntity
  8
M0
 62
     7
100
AcDbCircle
 10
143.205617
 20
448.573453
 40
1.0
100
AcDbArc
 50
345.494252
 51
359.99909
  0
ARC
  5
36D
100
AcDbEntity
  8
M0
 62
     7
100
AcDbCircle
 10
143.205626
 20
463.073453
 40
1.0
100
AcDbArc
 50
359.99909
 51
450.0
  0
LINE
  5
36E
100
AcDbEntity
  8
M0
 62
     4
100
AcDbLine
 10
103.206512
 20
464.072964
 11
88.906478
 21
464.072973
  0
LINE
  5
36F
100
AcDbEntity
  8
M0
 62
     4
100
AcDbLine
 10
87.906477
 20
463.072974
 11
87.906468
 21
448.572974
  0
LINE
  5
370
100
AcDbEntity
  8
M0
 62
     4
100
AcDbLine
 10
104.206502
 20
448.572964
 11
104.206511
 21
463.072964
  0
ARC
  5
371
100
AcDbEntity
  8
M0
 62
     4
100
AcDbCircle
 10
88.906477
 20
463.072973
 40
1.0
100
AcDbArc
 50
90.0
 51
179.999964
  0
ARC
  5
372
100
AcDbEntity
  8
M0
 62
     4
100
AcDbCircle
 10
103.206511
 20
463.072964
 40
1.0
100
AcDbArc
 50
359.99909
 51
450.0
  0
LINE
  5
373
100
AcDbEntity
  8
M0
100
AcDbLine
 10
93.227529
 20
378.902247
 11
98.884371
 21
373.245402
  0
LINE
  5
374
100
AcDbEntity
  8
M0
100
AcDbLine
 10
95.348849
 20
373.952494
 11
98.177275
 21
376.780924
  0
LINE
  5
375
100
AcDbEntity
  8
M0
100
AcDbLine
 10
93.934635
 20
375.366709
 11
96.763063
 21
378.195139
  0
LINE
  5
376
100
AcDbEntity
  8
M0
  6
DASHDOT
100
AcDbLine
 10
96.055955
 20
386.078272
 11
96.055955
 21
364.863611
  0
CIRCLE
  5
377
100
AcDbEntity
  8
M0
100
AcDbCircle
 10
96.055955
 20
376.073816
 40
5.949995
  0
LINE
  5
378
100
AcDbEntity
  8
M0
100
AcDbLine
 10
95.306199
 20
381.976404
 11
95.306199
 21
383.574305
  0
LINE
  5
379
100
AcDbEntity
  8
M0
100
AcDbLine
 10
96.805955
 20
381.976404
 11
96.805955
 21
383.574305
  0
LINE
  5
37A
100
AcDbEntity
  8
M0
100
AcDbLine
 10
101.055941
 20
383.574305
 11
103.806185
 21
380.823816
  0
LINE
  5
37B
100
AcDbEntity
  8
M0
100
AcDbLine
 10
88.306199
 20
380.823816
 11
91.056443
 21
383.574305
  0
ARC
  5
37C
100
AcDbEntity
  8
M0
100
AcDbCircle
 10
102.805941
 20
382.823816
 40
1.0
100
AcDbArc
 50
0.0
 51
48.611504
  0
ARC
  5
37D
100
AcDbEntity
  8
M0
100
AcDbCircle
 10
89.306199
 20
382.823816
 40
1.0
100
AcDbArc
 50
131.378543
 51
180.0
  0
LINE
  5
37E
100
AcDbEntity
  8
M0
100
AcDbLine
 10
103.805941
 20
382.823816
 11
103.805941
 21
369.323816
  0
LINE
  5
37F
100
AcDbEntity
  8
M0
100
AcDbLine
 10
88.306199
 20
369.323816
 11
88.306199
 21
382.823816
  0
LINE
  5
380
100
AcDbEntity
  8
M0
100
AcDbLine
 10
90.153611
 20
376.823816
 11
88.306199
 21
376.823816
  0
LINE
  5
381
100
AcDbEntity
  8
M0
100
AcDbLine
 10
90.153611
 20
375.323816
 11
88.306199
 21
375.323816
  0
LINE
  5
382
100
AcDbEntity
  8
M0
100
AcDbLine
 10
103.805941
 20
375.323816
 11
101.958529
 21
375.323816
  0
LINE
  5
383
100
AcDbEntity
  8
M0
100
AcDbLine
 10
103.805941
 20
376.823816
 11
101.958529
 21
376.823816
  0
LINE
  5
384
100
AcDbEntity
  8
M0
100
AcDbLine
 10
95.306199
 20
368.323816
 11
95.306199
 21
370.171473
  0
LINE
  5
385
100
AcDbEntity
  8
M0
100
AcDbLine
 10
96.805955
 20
368.323816
 11
96.805955
 21
370.171473
  0
LINE
  5
386
100
AcDbEntity
  8
M0
100
AcDbLine
 10
103.805941
 20
371.323816
 11
100.805941
 21
368.323816
  0
LINE
  5
387
100
AcDbEntity
  8
M0
100
AcDbLine
 10
91.306199
 20
368.323816
 11
88.306199
 21
371.323816
  0
ARC
  5
388
100
AcDbEntity
  8
M0
100
AcDbCircle
 10
102.805941
 20
369.323816
 40
1.0
100
AcDbArc
 50
-90.000874
 51
0.0
  0
ARC
  5
389
100
AcDbEntity
  8
M0
100
AcDbCircle
 10
89.306199
 20
369.323816
 40
1.0
100
AcDbArc
 50
180.0
 51
270.0
  0
LINE
  5
38A
100
AcDbEntity
  8
M0
100
AcDbLine
 10
102.805941
 20
368.323816
 11
89.306199
 21
368.323816
  0
LINE
  5
38B
100
AcDbEntity
  8
M0
  6
DASHDOT
100
AcDbLine
 10
106.354037
 20
376.073816
 11
86.920945
 21
376.073816
  0
LINE
  5
38C
100
AcDbEntity
  8
M0
  6
DASHDOT
100
AcDbLine
 10
136.055941
 20
386.07815
 11
136.055941
 21
364.86355
  0
LINE
  5
38D
100
AcDbEntity
  8
M0
100
AcDbLine
 10
141.056841
 20
383.57342
 11
143.805926
 21
380.824091
  0
LINE
  5
38E
100
AcDbEntity
  8
M0
100
AcDbLine
 10
128.30594
 20
380.824091
 11
131.055025
 21
383.57342
  0
LINE
  5
38F
100
AcDbEntity
  8
M0
100
AcDbLine
 10
135.30594
 20
381.976679
 11
135.30594
 21
383.57342
  0
LINE
  5
390
100
AcDbEntity
  8
M0
100
AcDbLine
 10
136.805696
 20
381.976679
 11
136.805696
 21
383.57342
  0
ARC
  5
391
100
AcDbEntity
  8
M0
100
AcDbCircle
 10
142.805681
 20
382.824091
 40
1.0
100
AcDbArc
 50
0.0
 51
48.532218
  0
ARC
  5
392
100
AcDbEntity
  8
M0
100
AcDbCircle
 10
129.30594
 20
382.824091
 40
1.0
100
AcDbArc
 50
131.546201
 51
180.0
  0
LINE
  5
393
100
AcDbEntity
  8
M0
  6
DASHDOT
100
AcDbLine
 10
146.353777
 20
376.074091
 11
126.920686
 21
376.074091
  0
LINE
  5
394
100
AcDbEntity
  8
M0
100
AcDbLine
 10
142.805681
 20
368.324091
 11
129.30594
 21
368.324091
  0
ARC
  5
395
100
AcDbEntity
  8
M0
100
AcDbCircle
 10
129.30594
 20
369.324091
 40
1.0
100
AcDbArc
 50
180.0
 51
270.0
  0
ARC
  5
396
100
AcDbEntity
  8
M0
100
AcDbCircle
 10
142.805681
 20
369.324091
 40
1.0
100
AcDbArc
 50
-90.000874
 51
0.0
  0
LINE
  5
397
100
AcDbEntity
  8
M0
100
AcDbLine
 10
131.30594
 20
368.324091
 11
128.30594
 21
371.324091
  0
LINE
  5
398
100
AcDbEntity
  8
M0
100
AcDbLine
 10
143.805681
 20
371.324091
 11
140.805681
 21
368.324091
  0
LINE
  5
399
100
AcDbEntity
  8
M0
100
AcDbLine
 10
136.805696
 20
368.324091
 11
136.805696
 21
370.171747
  0
LINE
  5
39A
100
AcDbEntity
  8
M0
100
AcDbLine
 10
135.30594
 20
368.324091
 11
135.30594
 21
370.171747
  0
LINE
  5
39B
100
AcDbEntity
  8
M0
100
AcDbLine
 10
143.805681
 20
376.824091
 11
141.958269
 21
376.824091
  0
LINE
  5
39C
100
AcDbEntity
  8
M0
100
AcDbLine
 10
143.805681
 20
375.324091
 11
141.958269
 21
375.324091
  0
LINE
  5
39D
100
AcDbEntity
  8
M0
100
AcDbLine
 10
130.153352
 20
375.324091
 11
128.30594
 21
375.324091
  0
LINE
  5
39E
100
AcDbEntity
  8
M0
100
AcDbLine
 10
130.153352
 20
376.824091
 11
128.30594
 21
376.824091
  0
LINE
  5
39F
100
AcDbEntity
  8
M0
100
AcDbLine
 10
128.30594
 20
369.324091
 11
128.30594
 21
382.824091
  0
LINE
  5
3A0
100
AcDbEntity
  8
M0
100
AcDbLine
 10
143.805681
 20
382.824091
 11
143.805681
 21
369.324091
  0
CIRCLE
  5
3A1
100
AcDbEntity
  8
M0
100
AcDbCircle
 10
136.055696
 20
376.074091
 40
5.949995
  0
LINE
  5
3A2
100
AcDbEntity
  8
M0
100
AcDbLine
 10
133.934376
 20
375.366984
 11
136.762803
 21
378.195414
  0
LINE
  5
3A3
100
AcDbEntity
  8
M0
100
AcDbLine
 10
135.348589
 20
373.952769
 11
138.177016
 21
376.781199
  0
LINE
  5
3A4
100
AcDbEntity
  8
M0
100
AcDbLine
 10
133.227269
 20
378.902521
 11
138.884112
 21
373.245676
  0
LINE
  5
3A5
100
AcDbEntity
  8
M0
100
AcDbLine
 10
121.05707
 20
383.573176
 11
123.80591
 21
380.824091
  0
LINE
  5
3A6
100
AcDbEntity
  8
M0
100
AcDbLine
 10
108.305925
 20
380.824091
 11
109.555364
 21
382.073649
  0
LINE
  5
3A7
100
AcDbEntity
  8
M0
100
AcDbLine
 10
115.305925
 20
381.976679
 11
115.305925
 21
383.573633
  0
LINE
  5
3A8
100
AcDbEntity
  8
M0
100
AcDbLine
 10
116.805681
 20
381.976679
 11
116.805681
 21
383.627726
  0
ARC
  5
3A9
100
AcDbEntity
  8
M0
100
AcDbCircle
 10
122.805666
 20
382.824091
 40
1.0
100
AcDbArc
 50
0.0
 51
48.511742
  0
LINE
  5
3AA
100
AcDbEntity
  8
M0
  6
DASHDOT
100
AcDbLine
 10
126.353762
 20
376.074091
 11
106.920671
 21
376.074091
  0
LINE
  5
3AB
100
AcDbEntity
  8
M0
100
AcDbLine
 10
122.805666
 20
368.324091
 11
109.305925
 21
368.324091
  0
ARC
  5
3AC
100
AcDbEntity
  8
M0
100
AcDbCircle
 10
109.305925
 20
369.324091
 40
1.0
100
AcDbArc
 50
180.0
 51
270.0
  0
ARC
  5
3AD
100
AcDbEntity
  8
M0
100
AcDbCircle
 10
122.805666
 20
369.324091
 40
1.0
100
AcDbArc
 50
-90.000874
 51
0.0
  0
LINE
  5
3AE
100
AcDbEntity
  8
M0
100
AcDbLine
 10
111.305925
 20
368.324091
 11
108.305925
 21
371.324091
  0
LINE
  5
3AF
100
AcDbEntity
  8
M0
100
AcDbLine
 10
123.805666
 20
371.324091
 11
120.805666
 21
368.324091
  0
LINE
  5
3B0
100
AcDbEntity
  8
M0
100
AcDbLine
 10
116.805681
 20
368.324091
 11
116.805681
 21
370.171747
  0
LINE
  5
3B1
100
AcDbEntity
  8
M0
100
AcDbLine
 10
115.305925
 20
368.324091
 11
115.305925
 21
370.171747
  0
LINE
  5
3B2
100
AcDbEntity
  8
M0
100
AcDbLine
 10
123.805666
 20
376.824091
 11
121.958254
 21
376.824091
  0
LINE
  5
3B3
100
AcDbEntity
  8
M0
100
AcDbLine
 10
123.805666
 20
375.324091
 11
121.958254
 21
375.324091
  0
LINE
  5
3B4
100
AcDbEntity
  8
M0
100
AcDbLine
 10
110.153337
 20
375.324091
 11
108.305925
 21
375.324091
  0
LINE
  5
3B5
100
AcDbEntity
  8
M0
100
AcDbLine
 10
110.153337
 20
376.824091
 11
108.305925
 21
376.824091
  0
LINE
  5
3B6
100
AcDbEntity
  8
M0
100
AcDbLine
 10
108.305925
 20
369.324091
 11
108.305925
 21
382.140665
  0
LINE
  5
3B7
100
AcDbEntity
  8
M0
100
AcDbLine
 10
123.805666
 20
382.824091
 11
123.805666
 21
369.324091
  0
CIRCLE
  5
3B8
100
AcDbEntity
  8
M0
100
AcDbCircle
 10
116.055681
 20
376.074091
 40
5.949995
  0
LINE
  5
3B9
100
AcDbEntity
  8
M0
100
AcDbLine
 10
113.934361
 20
375.366984
 11
116.762788
 21
378.195414
  0
LINE
  5
3BA
100
AcDbEntity
  8
M0
100
AcDbLine
 10
115.348574
 20
373.952769
 11
118.177
 21
376.781199
  0
LINE
  5
3BB
100
AcDbEntity
  8
M0
100
AcDbLine
 10
113.227254
 20
378.902521
 11
118.884096
 21
373.245676
  0
LINE
  5
3BC
100
AcDbEntity
  8
M0
100
AcDbLine
 10
140.8062
 20
463.822977
 11
143.805926
 21
460.822977
  0
LINE
  5
3BD
100
AcDbEntity
  8
M0
100
AcDbLine
 10
128.30594
 20
460.822977
 11
131.305674
 21
463.822977
  0
LINE
  5
3BE
100
AcDbEntity
  8
M0
100
AcDbLine
 10
135.30594
 20
461.975565
 11
135.30594
 21
463.822977
  0
LINE
  5
3BF
100
AcDbEntity
  8
M0
100
AcDbLine
 10
136.805696
 20
461.975565
 11
136.805696
 21
463.822977
  0
LINE
  5
3C0
100
AcDbEntity
  8
M0
100
AcDbLine
 10
129.30594
 20
463.822977
 11
142.805681
 21
463.822977
  0
ARC
  5
3C1
100
AcDbEntity
  8
M0
100
AcDbCircle
 10
142.805681
 20
462.822977
 40
1.0
100
AcDbArc
 50
0.0
 51
90.0
  0
ARC
  5
3C2
100
AcDbEntity
  8
M0
100
AcDbCircle
 10
129.30594
 20
462.822977
 40
1.0
100
AcDbArc
 50
90.0
 51
180.0
  0
LINE
  5
3C3
100
AcDbEntity
  8
M0
  6
DASHDOT
100
AcDbLine
 10
146.353777
 20
456.072977
 11
126.920686
 21
456.072977
  0
ARC
  5
3C4
100
AcDbEntity
  8
M0
100
AcDbCircle
 10
129.30594
 20
449.322977
 40
1.0
100
AcDbArc
 50
180.0
 51
270.0
  0
ARC
  5
3C5
100
AcDbEntity
  8
M0
100
AcDbCircle
 10
142.805681
 20
449.322977
 40
1.0
100
AcDbArc
 50
-90.000874
 51
0.0
  0
LINE
  5
3C6
100
AcDbEntity
  8
M0
100
AcDbLine
 10
131.30594
 20
448.322977
 11
128.30594
 21
451.322977
  0
LINE
  5
3C7
100
AcDbEntity
  8
M0
100
AcDbLine
 10
143.805681
 20
451.322977
 11
140.805681
 21
448.322977
  0
LINE
  5
3C8
100
AcDbEntity
  8
M0
100
AcDbLine
 10
136.805696
 20
448.322977
 11
136.805696
 21
450.170634
  0
LINE
  5
3C9
100
AcDbEntity
  8
M0
100
AcDbLine
 10
135.30594
 20
448.322977
 11
135.30594
 21
450.170634
  0
LINE
  5
3CA
100
AcDbEntity
  8
M0
100
AcDbLine
 10
143.805681
 20
456.822977
 11
141.958269
 21
456.822977
  0
LINE
  5
3CB
100
AcDbEntity
  8
M0
100
AcDbLine
 10
143.805681
 20
455.322977
 11
141.958269
 21
455.322977
  0
LINE
  5
3CC
100
AcDbEntity
  8
M0
100
AcDbLine
 10
130.153352
 20
455.322977
 11
128.30594
 21
455.322977
  0
LINE
  5
3CD
100
AcDbEntity
  8
M0
100
AcDbLine
 10
130.153352
 20
456.822977
 11
128.30594
 21
456.822977
  0
LINE
  5
3CE
100
AcDbEntity
  8
M0
100
AcDbLine
 10
128.30594
 20
449.322977
 11
128.30594
 21
462.822977
  0
LINE
  5
3CF
100
AcDbEntity
  8
M0
100
AcDbLine
 10
143.805681
 20
462.822977
 11
143.805681
 21
449.322977
  0
CIRCLE
  5
3D0
100
AcDbEntity
  8
M0
100
AcDbCircle
 10
136.055696
 20
456.072977
 40
5.949995
  0
LINE
  5
3D1
100
AcDbEntity
  8
M0
100
AcDbLine
 10
133.934376
 20
455.36587
 11
136.762803
 21
458.1943
  0
LINE
  5
3D2
100
AcDbEntity
  8
M0
100
AcDbLine
 10
135.348589
 20
453.951655
 11
138.177016
 21
456.780085
  0
LINE
  5
3D3
100
AcDbEntity
  8
M0
100
AcDbLine
 10
133.227269
 20
458.901407
 11
138.884112
 21
453.244562
  0
LINE
  5
3D4
100
AcDbEntity
  8
M0
100
AcDbLine
 10
120.80617
 20
463.822977
 11
123.805895
 21
460.822977
  0
LINE
  5
3D5
100
AcDbEntity
  8
M0
100
AcDbLine
 10
108.305909
 20
460.822977
 11
111.305643
 21
463.822977
  0
LINE
  5
3D6
100
AcDbEntity
  8
M0
100
AcDbLine
 10
115.305909
 20
461.975565
 11
115.305909
 21
463.822977
  0
LINE
  5
3D7
100
AcDbEntity
  8
M0
100
AcDbLine
 10
116.805665
 20
461.975565
 11
116.805665
 21
463.822977
  0
LINE
  5
3D8
100
AcDbEntity
  8
M0
100
AcDbLine
 10
109.305909
 20
463.822977
 11
122.805651
 21
463.822977
  0
ARC
  5
3D9
100
AcDbEntity
  8
M0
100
AcDbCircle
 10
122.805651
 20
462.822977
 40
1.0
100
AcDbArc
 50
0.0
 51
90.0
  0
ARC
  5
3DA
100
AcDbEntity
  8
M0
100
AcDbCircle
 10
109.305909
 20
462.822977
 40
1.0
100
AcDbArc
 50
90.0
 51
180.0
  0
LINE
  5
3DB
100
AcDbEntity
  8
M0
  6
DASHDOT
100
AcDbLine
 10
126.353747
 20
456.072977
 11
106.920655
 21
456.072977
  0
ARC
  5
3DC
100
AcDbEntity
  8
M0
100
AcDbCircle
 10
122.805651
 20
449.322977
 40
1.0
100
AcDbArc
 50
-90.000874
 51
0.0
  0
LINE
  5
3DD
100
AcDbEntity
  8
M0
100
AcDbLine
 10
109.556033
 20
450.072855
 11
108.305909
 21
451.322977
  0
LINE
  5
3DE
100
AcDbEntity
  8
M0
100
AcDbLine
 10
123.805651
 20
451.322977
 11
120.805651
 21
448.322977
  0
LINE
  5
3DF
100
AcDbEntity
  8
M0
100
AcDbLine
 10
116.805665
 20
448.322977
 11
116.805665
 21
450.170634
  0
LINE
  5
3E0
100
AcDbEntity
  8
M0
100
AcDbLine
 10
115.305909
 20
448.572626
 11
115.305909
 21
450.170634
  0
LINE
  5
3E1
100
AcDbEntity
  8
M0
100
AcDbLine
 10
123.805651
 20
456.822977
 11
121.958239
 21
456.822977
  0
LINE
  5
3E2
100
AcDbEntity
  8
M0
100
AcDbLine
 10
123.805651
 20
455.322977
 11
121.958239
 21
455.322977
  0
LINE
  5
3E3
100
AcDbEntity
  8
M0
100
AcDbLine
 10
110.153322
 20
455.322977
 11
108.305909
 21
455.322977
  0
LINE
  5
3E4
100
AcDbEntity
  8
M0
100
AcDbLine
 10
110.153322
 20
456.822977
 11
108.305909
 21
456.822977
  0
LINE
  5
3E5
100
AcDbEntity
  8
M0
100
AcDbLine
 10
108.305909
 20
450.005839
 11
108.305909
 21
462.822977
  0
LINE
  5
3E6
100
AcDbEntity
  8
M0
100
AcDbLine
 10
123.805651
 20
462.822977
 11
123.805651
 21
449.322977
  0
CIRCLE
  5
3E7
100
AcDbEntity
  8
M0
100
AcDbCircle
 10
116.055665
 20
456.072977
 40
5.949995
  0
LINE
  5
3E8
100
AcDbEntity
  8
M0
100
AcDbLine
 10
113.934345
 20
455.36587
 11
116.762773
 21
458.1943
  0
LINE
  5
3E9
100
AcDbEntity
  8
M0
100
AcDbLine
 10
115.348559
 20
453.951655
 11
118.176985
 21
456.780085
  0
LINE
  5
3EA
100
AcDbEntity
  8
M0
100
AcDbLine
 10
113.227239
 20
458.901407
 11
118.884081
 21
453.244562
  0
LINE
  5
3EB
100
AcDbEntity
  8
M0
  6
DASHDOT
100
AcDbLine
 10
76.056001
 20
446.077921
 11
76.056001
 21
426.191492
  0
LINE
  5
3EC
100
AcDbEntity
  8
M0
100
AcDbLine
 10
100.806475
 20
463.823221
 11
103.8062
 21
460.823221
  0
LINE
  5
3ED
100
AcDbEntity
  8
M0
100
AcDbLine
 10
88.306215
 20
460.823221
 11
91.305949
 21
463.823221
  0
LINE
  5
3EE
100
AcDbEntity
  8
M0
100
AcDbLine
 10
95.306215
 20
461.975809
 11
95.306215
 21
463.823221
  0
LINE
  5
3EF
100
AcDbEntity
  8
M0
100
AcDbLine
 10
96.80597
 20
461.975809
 11
96.80597
 21
463.823221
  0
LINE
  5
3F0
100
AcDbEntity
  8
M0
100
AcDbLine
 10
89.306215
 20
463.823221
 11
102.805956
 21
463.823221
  0
ARC
  5
3F1
100
AcDbEntity
  8
M0
100
AcDbCircle
 10
102.805956
 20
462.823221
 40
1.0
100
AcDbArc
 50
0.0
 51
90.0
  0
ARC
  5
3F2
100
AcDbEntity
  8
M0
100
AcDbCircle
 10
89.306215
 20
462.823221
 40
1.0
100
AcDbArc
 50
90.0
 51
180.0
  0
LINE
  5
3F3
100
AcDbEntity
  8
M0
  6
DASHDOT
100
AcDbLine
 10
106.354052
 20
456.073221
 11
86.920961
 21
456.073221
  0
ARC
  5
3F4
100
AcDbEntity
  8
M0
100
AcDbCircle
 10
89.306215
 20
449.323221
 40
1.0
100
AcDbArc
 50
180.0
 51
228.614759
  0
ARC
  5
3F5
100
AcDbEntity
  8
M0
100
AcDbCircle
 10
102.805956
 20
449.323221
 40
1.0
100
AcDbArc
 50
-48.624421
 51
0.0
  0
LINE
  5
3F6
100
AcDbEntity
  8
M0
100
AcDbLine
 10
91.056509
 20
448.572931
 11
88.306215
 21
451.323221
  0
LINE
  5
3F7
100
AcDbEntity
  8
M0
100
AcDbLine
 10
103.805956
 20
451.323221
 11
101.05559
 21
448.572855
  0
LINE
  5
3F8
100
AcDbEntity
  8
M0
100
AcDbLine
 10
96.80597
 20
448.572886
 11
96.80597
 21
450.170878
  0
LINE
  5
3F9
100
AcDbEntity
  8
M0
100
AcDbLine
 10
95.306215
 20
448.572901
 11
95.306215
 21
450.170878
  0
LINE
  5
3FA
100
AcDbEntity
  8
M0
100
AcDbLine
 10
103.805956
 20
456.823221
 11
101.958544
 21
456.823221
  0
LINE
  5
3FB
100
AcDbEntity
  8
M0
100
AcDbLine
 10
103.805956
 20
455.323221
 11
101.958544
 21
455.323221
  0
LINE
  5
3FC
100
AcDbEntity
  8
M0
100
AcDbLine
 10
90.153627
 20
455.323221
 11
88.306215
 21
455.323221
  0
LINE
  5
3FD
100
AcDbEntity
  8
M0
100
AcDbLine
 10
90.153627
 20
456.823221
 11
88.306215
 21
456.823221
  0
LINE
  5
3FE
100
AcDbEntity
  8
M0
100
AcDbLine
 10
88.306215
 20
449.323221
 11
88.306215
 21
462.823221
  0
LINE
  5
3FF
100
AcDbEntity
  8
M0
100
AcDbLine
 10
103.805956
 20
462.823221
 11
103.805956
 21
449.323221
  0
CIRCLE
  5
400
100
AcDbEntity
  8
M0
100
AcDbCircle
 10
96.05597
 20
456.073221
 40
5.949995
  0
LINE
  5
401
100
AcDbEntity
  8
M0
  6
DASHDOT
100
AcDbLine
 10
96.05597
 20
466.077677
 11
96.05597
 21
446.191248
  0
LINE
  5
402
100
AcDbEntity
  8
M0
100
AcDbLine
 10
93.934651
 20
455.366114
 11
96.763078
 21
458.194544
  0
LINE
  5
403
100
AcDbEntity
  8
M0
100
AcDbLine
 10
95.348864
 20
453.951899
 11
98.17729
 21
456.780329
  0
LINE
  5
404
100
AcDbEntity
  8
M0
100
AcDbLine
 10
93.227544
 20
458.901652
 11
98.884386
 21
453.244806
  0
LINE
  5
405
100
AcDbEntity
  8
M0
  6
DASHDOT
100
AcDbLine
 10
136.055956
 20
466.077662
 11
136.055956
 21
446.191187
  0
LINE
  5
406
100
AcDbEntity
  8
M0
100
AcDbLine
 10
108.055956
 20
406.073023
 11
124.055392
 21
406.073023
  0
LINE
  5
407
100
AcDbEntity
  8
M0
 62
     5
100
AcDbLine
 10
354.928753
 20
464.073176
 11
354.928753
 21
368.073954
  0
LINE
  5
408
100
AcDbEntity
  8
M0
 62
     5
100
AcDbLine
 10
295.028774
 20
438.82342
 11
295.028774
 21
410.073939
  0
LINE
  5
409
100
AcDbEntity
  8
M0
 62
     5
100
AcDbLine
 10
295.028774
 20
398.32371
 11
295.028774
 21
384.07371
  0
LINE
  5
40A
100
AcDbEntity
  8
M0
 62
     5
100
AcDbLine
 10
295.028774
 20
410.073939
 11
295.028774
 21
397.823954
  0
LINE
  5
40B
100
AcDbEntity
  8
M0
 62
     5
100
AcDbLine
 10
295.028774
 20
452.07342
 11
295.028774
 21
438.323664
  0
LINE
  5
40C
100
AcDbEntity
  8
M0
 62
     5
100
AcDbLine
 10
354.928753
 20
464.073176
 11
294.928921
 21
464.07342
  0
LINE
  5
40D
100
AcDbEntity
  8
M0
 62
     5
100
AcDbLine
 10
294.928921
 20
368.073954
 11
330.792887
 21
368.073954
  0
LINE
  5
40E
100
AcDbEntity
  8
M0
 62
     5
100
AcDbLine
 10
343.228755
 20
388.573954
 11
354.928753
 21
388.573954
  0
LINE
  5
40F
100
AcDbEntity
  8
M0
 62
     5
100
AcDbLine
 10
334.232797
 20
368.073954
 11
354.928753
 21
368.073954
  0
LINE
  5
410
100
AcDbEntity
  8
M0
 62
     7
100
AcDbLine
 10
215.729269
 20
448.573176
 11
229.929211
 21
448.573176
  0
LINE
  5
411
100
AcDbEntity
  8
M0
 62
     7
100
AcDbLine
 10
215.729269
 20
421.773417
 11
226.029308
 21
421.773417
  0
LINE
  5
412
100
AcDbEntity
  8
M0
 62
     7
100
AcDbLine
 10
215.729269
 20
383.573496
 11
229.929211
 21
383.573496
  0
LINE
  5
413
100
AcDbEntity
  8
M0
 62
     7
100
AcDbLine
 10
215.729269
 20
410.373499
 11
226.029308
 21
410.373499
  0
LINE
  5
414
100
AcDbEntity
  8
M0
 62
     7
100
AcDbLine
 10
229.929211
 20
448.573176
 11
229.929211
 21
434.073176
  0
LINE
  5
415
100
AcDbEntity
  8
M0
 62
     7
100
AcDbLine
 10
215.229269
 20
448.073176
 11
215.229269
 21
419.073679
  0
ARC
  5
416
100
AcDbEntity
  8
M0
 62
     7
100
AcDbCircle
 10
215.729269
 20
448.073176
 40
0.5
100
AcDbArc
 50
90.0
 51
180.0
  0
ARC
  5
417
100
AcDbEntity
  8
M0
 62
     7
100
AcDbCircle
 10
215.729269
 20
384.073496
 40
0.5
100
AcDbArc
 50
180.0
 51
270.0
  0
ARC
  5
418
100
AcDbEntity
  8
M0
 62
     7
100
AcDbCircle
 10
215.729269
 20
410.873499
 40
0.5
100
AcDbArc
 50
180.0
 51
270.0
  0
ARC
  5
419
100
AcDbEntity
  8
M0
 62
     7
100
AcDbCircle
 10
215.729269
 20
421.273493
 40
0.5
100
AcDbArc
 50
90.0
 51
180.0
  0
LINE
  5
41A
100
AcDbEntity
  8
M0
 62
     7
100
AcDbLine
 10
229.929211
 20
450.073176
 11
229.962658
 21
450.073176
  0
LINE
  5
41B
100
AcDbEntity
  8
M0
 62
     7
100
AcDbLine
 10
227.929211
 20
448.573176
 11
229.929211
 21
450.073176
  0
LINE
  5
41C
100
AcDbEntity
  8
M0
 62
     7
100
AcDbLine
 10
229.929211
 20
382.073496
 11
229.962658
 21
382.073496
  0
LINE
  5
41D
100
AcDbEntity
  8
M0
 62
     7
100
AcDbLine
 10
227.929211
 20
383.573496
 11
229.929211
 21
382.073496
  0
LINE
  5
41E
100
AcDbEntity
  8
M0
 62
     7
100
AcDbLine
 10
229.929211
 20
398.073954
 11
229.929211
 21
383.573496
  0
LINE
  5
41F
100
AcDbEntity
  8
M0
 62
     7
100
AcDbLine
 10
215.229269
 20
419.073679
 11
215.229269
 21
384.073496
  0
LINE
  5
420
100
AcDbEntity
  8
M0
 62
     4
100
AcDbLine
 10
123.206482
 20
464.07272
 11
108.906447
 21
464.072729
  0
LINE
  5
421
100
AcDbEntity
  8
M0
 62
     4
100
AcDbLine
 10
107.906446
 20
463.07273
 11
107.906437
 21
448.57273
  0
LINE
  5
422
100
AcDbEntity
  8
M0
 62
     4
100
AcDbLine
 10
124.206472
 20
448.57272
 11
124.206481
 21
463.07272
  0
ARC
  5
423
100
AcDbEntity
  8
M0
 62
     4
100
AcDbCircle
 10
108.906446
 20
463.072729
 40
1.0
100
AcDbArc
 50
90.0
 51
179.999964
  0
ARC
  5
424
100
AcDbEntity
  8
M0
 62
     4
100
AcDbCircle
 10
123.206472
 20
448.57272
 40
1.0
100
AcDbArc
 50
345.537726
 51
359.99909
  0
ARC
  5
425
100
AcDbEntity
  8
M0
 62
     4
100
AcDbCircle
 10
123.206481
 20
463.07272
 40
1.0
100
AcDbArc
 50
359.99909
 51
450.0
  0
LINE
  5
426
100
AcDbEntity
  8
M0
 62
     4
100
AcDbLine
 10
108.905732
 20
368.073466
 11
123.205767
 21
368.073466
  0
LINE
  5
427
100
AcDbEntity
  8
M0
 62
     4
100
AcDbLine
 10
124.205767
 20
369.073466
 11
124.205767
 21
383.573466
  0
LINE
  5
428
100
AcDbEntity
  8
M0
 62
     4
100
AcDbLine
 10
107.905732
 20
383.573466
 11
107.905732
 21
369.073466
  0
ARC
  5
429
100
AcDbEntity
  8
M0
 62
     4
100
AcDbCircle
 10
123.205767
 20
369.073466
 40
1.0
100
AcDbArc
 50
269.999126
 51
360.0
  0
ARC
  5
42A
100
AcDbEntity
  8
M0
 62
     4
100
AcDbCircle
 10
108.905732
 20
369.073466
 40
1.0
100
AcDbArc
 50
180.0
 51
270.0
  0
LINE
  5
42B
100
AcDbEntity
  8
M0
 62
     1
100
AcDbLine
 10
116.055651
 20
448.07371
 11
84.555681
 21
448.07371
  0
LINE
  5
42C
100
AcDbEntity
  8
M0
 62
     1
100
AcDbLine
 10
84.555681
 20
384.07371
 11
116.055666
 21
384.07371
  0
LINE
  5
42D
100
AcDbEntity
  8
M0
 62
     1
100
AcDbLine
 10
84.555681
 20
448.07371
 11
84.555681
 21
420.403834
  0
LINE
  5
42E
100
AcDbEntity
  8
M0
 62
     1
100
AcDbLine
 10
84.555681
 20
411.743586
 11
84.555681
 21
384.07371
  0
ARC
  5
42F
100
AcDbEntity
  8
M0
 62
     1
100
AcDbCircle
 10
82.055681
 20
416.07371
 40
5.0
100
AcDbArc
 50
299.99993
 51
419.999925
  0
LINE
  5
430
100
AcDbEntity
  8
M0
 62
     1
100
AcDbLine
 10
116.055703
 20
448.07371
 11
147.555666
 21
448.07371
  0
LINE
  5
431
100
AcDbEntity
  8
M0
 62
     1
100
AcDbLine
 10
147.555666
 20
384.07371
 11
116.055687
 21
384.07371
  0
LINE
  5
432
100
AcDbEntity
  8
M0
 62
     1
100
AcDbLine
 10
147.555666
 20
448.07371
 11
147.555666
 21
420.403834
  0
LINE
  5
433
100
AcDbEntity
  8
M0
 62
     1
100
AcDbLine
 10
147.555666
 20
411.743586
 11
147.555666
 21
384.07371
  0
ARC
  5
434
100
AcDbEntity
  8
M0
 62
     1
100
AcDbCircle
 10
150.055666
 20
416.07371
 40
5.0
100
AcDbArc
 50
120.000018
 51
239.999918
  0
LINE
  5
435
100
AcDbEntity
  8
M0
  6
DASHDOT
100
AcDbLine
 10
72.055468
 20
386.073511
 11
72.055468
 21
446.073511
  0
LINE
  5
436
100
AcDbEntity
  8
M0
100
AcDbLine
 10
293.829647
 20
447.822977
 11
294.829647
 21
447.245585
  0
LINE
  5
437
100
AcDbEntity
  8
M0
100
AcDbLine
 10
294.829647
 20
448.322977
 11
293.829647
 21
448.900126
  0
LINE
  5
438
100
AcDbEntity
  8
M0
100
AcDbLine
 10
292.629452
 20
448.572977
 11
292.629452
 21
447.572977
  0
ARC
  5
439
100
AcDbEntity
  8
M0
100
AcDbCircle
 10
292.823543
 20
450.179667
 40
1.299994
100
AcDbArc
 50
95.01061
 51
164.131739
  0
ARC
  5
43A
100
AcDbEntity
  8
M0
100
AcDbCircle
 10
300.229793
 20
448.072977
 40
8.999993
100
AcDbArc
 50
164.123189
 51
176.815358
  0
ARC
  5
43B
100
AcDbEntity
  8
M0
100
AcDbCircle
 10
300.229793
 20
448.072977
 40
8.999993
100
AcDbArc
 50
183.184642
 51
195.882843
  0
LINE
  5
43C
100
AcDbEntity
  8
M0
  6
DASHDOT
100
AcDbLine
 10
287.890926
 20
448.072977
 11
303.829647
 21
448.072977
  0
LINE
  5
43D
100
AcDbEntity
  8
M0
100
AcDbLine
 10
293.829647
 20
444.572977
 11
293.829647
 21
451.572977
  0
LINE
  5
43E
100
AcDbEntity
  8
M0
100
AcDbLine
 10
293.829647
 20
451.572733
 11
292.710018
 21
451.474589
  0
LINE
  5
43F
100
AcDbEntity
  8
M0
100
AcDbLine
 10
291.229793
 20
447.572977
 11
292.629452
 21
447.572977
  0
LINE
  5
440
100
AcDbEntity
  8
M0
100
AcDbLine
 10
291.229793
 20
448.572977
 11
292.629452
 21
448.572977
  0
LINE
  5
441
100
AcDbEntity
  8
M0
100
AcDbLine
 10
293.829647
 20
451.572977
 11
294.829647
 21
451.572977
  0
ARC
  5
442
100
AcDbEntity
  8
M0
100
AcDbCircle
 10
292.823543
 20
445.9658
 40
1.299994
100
AcDbArc
 50
195.889139
 51
264.990118
  0
LINE
  5
443
100
AcDbEntity
  8
M0
100
AcDbLine
 10
293.829647
 20
444.572733
 11
292.710018
 21
444.670634
  0
LINE
  5
444
100
AcDbEntity
  8
M0
 62
     7
100
AcDbLine
 10
293.829647
 20
444.572977
 11
294.829647
 21
444.572977
  0
LINE
  5
445
100
AcDbEntity
  8
M0
100
AcDbLine
 10
293.829647
 20
384.324442
 11
294.829647
 21
384.901835
  0
LINE
  5
446
100
AcDbEntity
  8
M0
100
AcDbLine
 10
294.829647
 20
383.824442
 11
293.829647
 21
383.247294
  0
LINE
  5
447
100
AcDbEntity
  8
M0
100
AcDbLine
 10
292.629452
 20
383.574442
 11
292.629452
 21
384.574442
  0
ARC
  5
448
100
AcDbEntity
  8
M0
100
AcDbCircle
 10
292.823543
 20
381.967753
 40
1.299994
100
AcDbArc
 50
195.868261
 51
264.98939
  0
ARC
  5
449
100
AcDbEntity
  8
M0
100
AcDbCircle
 10
300.229793
 20
384.074442
 40
8.999993
100
AcDbArc
 50
183.184642
 51
195.876811
  0
ARC
  5
44A
100
AcDbEntity
  8
M0
100
AcDbCircle
 10
300.229793
 20
384.074442
 40
8.999993
100
AcDbArc
 50
164.117157
 51
176.815358
  0
LINE
  5
44B
100
AcDbEntity
  8
M0
  6
DASHDOT
100
AcDbLine
 10
287.890926
 20
384.074442
 11
303.829647
 21
384.074442
  0
LINE
  5
44C
100
AcDbEntity
  8
M0
100
AcDbLine
 10
293.829647
 20
387.574442
 11
293.829647
 21
380.574442
  0
LINE
  5
44D
100
AcDbEntity
  8
M0
100
AcDbLine
 10
293.829647
 20
380.574686
 11
292.710018
 21
380.672831
  0
LINE
  5
44E
100
AcDbEntity
  8
M0
100
AcDbLine
 10
291.229793
 20
384.574442
 11
292.629452
 21
384.574442
  0
LINE
  5
44F
100
AcDbEntity
  8
M0
100
AcDbLine
 10
291.229793
 20
383.574442
 11
292.629452
 21
383.574442
  0
LINE
  5
450
100
AcDbEntity
  8
M0
100
AcDbLine
 10
293.829647
 20
380.574442
 11
294.829647
 21
380.574442
  0
ARC
  5
451
100
AcDbEntity
  8
M0
100
AcDbCircle
 10
292.823543
 20
386.18162
 40
1.299994
100
AcDbArc
 50
95.009882
 51
164.110861
  0
LINE
  5
452
100
AcDbEntity
  8
M0
100
AcDbLine
 10
293.829647
 20
387.574686
 11
292.710018
 21
387.476786
  0
LINE
  5
453
100
AcDbEntity
  8
M0
 62
     7
100
AcDbLine
 10
293.829647
 20
387.574442
 11
294.829647
 21
387.574442
  0
LINE
  5
454
100
AcDbEntity
  8
M0
100
AcDbLine
 10
298.327816
 20
374.574164
 11
297.327798
 21
373.996802
  0
LINE
  5
455
100
AcDbEntity
  8
M0
100
AcDbLine
 10
297.327831
 20
375.074195
 11
298.327849
 21
375.651313
  0
LINE
  5
456
100
AcDbEntity
  8
M0
100
AcDbLine
 10
299.528034
 20
375.324127
 11
299.528003
 21
374.324127
  0
ARC
  5
457
100
AcDbEntity
  8
M0
100
AcDbCircle
 10
299.333992
 20
376.930823
 40
1.299994
100
AcDbArc
 50
15.866496
 51
84.987624
  0
ARC
  5
458
100
AcDbEntity
  8
M0
100
AcDbCircle
 10
291.927677
 20
374.824361
 40
8.999993
100
AcDbArc
 50
3.182876
 51
15.875046
  0
ARC
  5
459
100
AcDbEntity
  8
M0
100
AcDbCircle
 10
291.927677
 20
374.824361
 40
8.999993
100
AcDbArc
 50
344.115392
 51
356.813592
  0
LINE
  5
45A
100
AcDbEntity
  8
M0
  6
DASHDOT
100
AcDbLine
 10
304.266544
 20
374.823981
 11
288.327823
 21
374.824472
  0
LINE
  5
45B
100
AcDbEntity
  8
M0
100
AcDbLine
 10
298.327715
 20
371.324164
 11
298.327931
 21
378.324164
  0
LINE
  5
45C
100
AcDbEntity
  8
M0
100
AcDbLine
 10
298.327931
 20
378.32392
 11
299.447557
 21
378.225741
  0
LINE
  5
45D
100
AcDbEntity
  8
M0
100
AcDbLine
 10
300.927661
 20
374.324084
 11
299.528003
 21
374.324127
  0
LINE
  5
45E
100
AcDbEntity
  8
M0
100
AcDbLine
 10
300.927692
 20
375.324084
 11
299.528034
 21
375.324127
  0
LINE
  5
45F
100
AcDbEntity
  8
M0
100
AcDbLine
 10
298.327931
 20
378.324164
 11
297.327931
 21
378.324195
  0
ARC
  5
460
100
AcDbEntity
  8
M0
100
AcDbCircle
 10
299.333862
 20
372.716955
 40
1.299994
100
AcDbArc
 50
275.008116
 51
344.109096
  0
LINE
  5
461
100
AcDbEntity
  8
M0
100
AcDbLine
 10
298.327715
 20
371.32392
 11
299.447347
 21
371.421786
  0
LINE
  5
462
100
AcDbEntity
  8
M0
 62
     7
100
AcDbLine
 10
298.327715
 20
371.324164
 11
297.327715
 21
371.324195
  0
LINE
  5
463
100
AcDbEntity
  8
M0
100
AcDbLine
 10
331.260124
 20
379.168119
 11
334.33462
 21
367.693946
  0
LINE
  5
464
100
AcDbEntity
  8
M0
100
AcDbLine
 10
331.174118
 20
370.988197
 11
331.432937
 21
370.022271
  0
ARC
  5
465
100
AcDbEntity
  8
M0
100
AcDbCircle
 10
330.945755
 20
372.590374
 40
1.299994
100
AcDbArc
 50
110.01061
 51
179.131739
  0
ARC
  5
466
100
AcDbEntity
  8
M0
100
AcDbCircle
 10
338.644894
 20
372.472347
 40
8.999993
100
AcDbArc
 50
179.123189
 51
191.815358
  0
ARC
  5
467
100
AcDbEntity
  8
M0
100
AcDbCircle
 10
338.644894
 20
372.472347
 40
8.999993
100
AcDbArc
 50
198.184642
 51
210.882843
  0
LINE
  5
468
100
AcDbEntity
  8
M0
  6
DASHDOT
100
AcDbLine
 10
326.726464
 20
369.278813
 11
342.122086
 21
373.404058
  0
LINE
  5
469
100
AcDbEntity
  8
M0
100
AcDbLine
 10
333.368694
 20
367.435127
 11
330.224848
 21
379.168119
  0
LINE
  5
46A
100
AcDbEntity
  8
M0
100
AcDbLine
 10
331.557024
 20
374.196372
 11
330.500947
 21
373.81179
  0
LINE
  5
46B
100
AcDbEntity
  8
M0
100
AcDbLine
 10
330.080971
 20
369.660013
 11
331.432937
 21
370.022271
  0
LINE
  5
46C
100
AcDbEntity
  8
M0
100
AcDbLine
 10
329.822152
 20
370.625939
 11
331.174118
 21
370.988197
  0
ARC
  5
46D
100
AcDbEntity
  8
M0
100
AcDbCircle
 10
332.036384
 20
368.520091
 40
1.299994
100
AcDbArc
 50
210.889139
 51
279.990118
  0
LINE
  5
46E
100
AcDbEntity
  8
M0
100
AcDbLine
 10
333.368757
 20
367.434891
 11
332.26194
 21
367.239674
  0
LINE
  5
46F
100
AcDbEntity
  8
M0
 62
     7
100
AcDbLine
 10
333.368694
 20
367.435127
 11
334.33462
 21
367.693946
  0
LINE
  5
470
100
AcDbEntity
  8
M0
100
AcDbLine
 10
332.911115
 20
373.006538
 11
337.740744
 21
374.300633
  0
LINE
  5
471
100
AcDbEntity
  8
M0
100
AcDbLine
 10
333.040525
 20
372.523575
 11
337.870154
 21
373.81767
  0
LINE
  5
472
100
AcDbEntity
  8
M0
100
AcDbLine
 10
333.816982
 20
369.625798
 11
338.646611
 21
370.919893
  0
LINE
  5
473
100
AcDbEntity
  8
M0
100
AcDbLine
 10
333.946391
 20
369.142835
 11
338.77602
 21
370.43693
  0
LINE
  5
474
100
AcDbEntity
  8
M0
100
AcDbLine
 10
337.740744
 20
374.300633
 11
338.77602
 21
370.43693
  0
LINE
  5
475
100
AcDbEntity
  8
M0
  6
DIVIDE
100
AcDbLine
 10
104.304936
 20
244.620594
 11
84.054988
 21
244.621082
  0
LINE
  5
476
100
AcDbEntity
  8
M0
  6
DIVIDE
100
AcDbLine
 10
104.304936
 20
249.6218
 11
104.304936
 21
244.620594
  0
LINE
  5
477
100
AcDbEntity
  8
M0
  6
DIVIDE
100
AcDbLine
 10
104.304936
 20
249.6218
 11
107.804936
 21
249.6218
  0
LINE
  5
478
100
AcDbEntity
  8
M0
  6
DIVIDE
100
AcDbLine
 10
107.804936
 20
249.6218
 11
107.804936
 21
244.620594
  0
LINE
  5
479
100
AcDbEntity
  8
M0
  6
DIVIDE
100
AcDbLine
 10
124.304676
 20
244.620594
 11
107.804936
 21
244.620594
  0
LINE
  5
47A
100
AcDbEntity
  8
M0
  6
DIVIDE
100
AcDbLine
 10
124.304676
 20
249.622517
 11
124.304676
 21
244.620594
  0
LINE
  5
47B
100
AcDbEntity
  8
M0
  6
DIVIDE
100
AcDbLine
 10
127.804676
 20
249.622517
 11
124.304676
 21
249.622517
  0
LINE
  5
47C
100
AcDbEntity
  8
M0
  6
DIVIDE
100
AcDbLine
 10
127.804676
 20
249.622517
 11
127.804676
 21
244.621815
  0
LINE
  5
47D
100
AcDbEntity
  8
M0
  6
DIVIDE
100
AcDbLine
 10
146.554585
 20
233.12183
 11
160.054615
 21
233.12183
  0
LINE
  5
47E
100
AcDbEntity
  8
M0
  6
DIVIDE
100
AcDbLine
 10
160.054615
 20
167.12264
 11
160.054615
 21
233.12183
  0
LINE
  5
47F
100
AcDbEntity
  8
M0
  6
DIVIDE
100
AcDbLine
 10
148.10445
 20
148.371491
 11
148.10445
 21
148.623892
  0
LINE
  5
480
100
AcDbEntity
  8
M0
  6
DIVIDE
100
AcDbLine
 10
127.804371
 20
143.623249
 11
127.804371
 21
148.623958
  0
LINE
  5
481
100
AcDbEntity
  8
M0
  6
DIVIDE
100
AcDbLine
 10
124.304676
 20
143.623219
 11
127.804371
 21
143.623249
  0
LINE
  5
482
100
AcDbEntity
  8
M0
  6
DIVIDE
100
AcDbLine
 10
107.804966
 20
143.622914
 11
107.804966
 21
148.622493
  0
LINE
  5
483
100
AcDbEntity
  8
M0
  6
DIVIDE
100
AcDbLine
 10
107.804966
 20
143.622914
 11
104.304966
 21
143.622914
  0
LINE
  5
484
100
AcDbEntity
  8
M0
  6
DIVIDE
100
AcDbLine
 10
104.304966
 20
143.622914
 11
104.304966
 21
148.623103
  0
LINE
  5
485
100
AcDbEntity
  8
M0
  6
DIVIDE
100
AcDbLine
 10
72.054554
 20
224.122105
 11
72.054554
 21
160.12244
  0
LINE
  5
486
100
AcDbEntity
  8
M0
  6
DIVIDE
100
AcDbLine
 10
146.554585
 20
233.12183
 11
146.554585
 21
244.621754
  0
LINE
  5
487
100
AcDbEntity
  8
M0
  6
DIVIDE
100
AcDbLine
 10
127.804676
 20
244.621815
 11
146.554585
 21
244.621754
  0
LINE
  5
488
100
AcDbEntity
  8
M0
  6
DIVIDE
100
AcDbLine
 10
160.054615
 20
167.12264
 11
157.054631
 21
167.12264
  0
LINE
  5
489
100
AcDbEntity
  8
M0
  6
DIVIDE
100
AcDbLine
 10
157.054631
 20
167.12264
 11
157.054631
 21
157.560523
  0
LINE
  5
48A
100
AcDbEntity
  8
M0
  6
DIVIDE
100
AcDbLine
 10
72.054554
 20
224.122105
 11
84.054988
 21
244.621082
  0
LINE
  5
48B
100
AcDbEntity
  8
M0
  6
DIVIDE
100
AcDbLine
 10
72.054554
 20
160.12244
 11
85.554554
 21
160.12244
  0
LINE
  5
48C
100
AcDbEntity
  8
M0
  6
DIVIDE
100
AcDbLine
 10
85.554554
 20
160.12244
 11
85.554554
 21
148.623147
  0
LINE
  5
48D
100
AcDbEntity
  8
M0
  6
DIVIDE
100
AcDbLine
 10
104.304966
 20
148.623103
 11
85.554554
 21
148.623147
  0
LINE
  5
48E
100
AcDbEntity
  8
M0
  6
DIVIDE
100
AcDbLine
 10
124.304676
 20
148.622493
 11
107.804966
 21
148.622493
  0
LINE
  5
48F
100
AcDbEntity
  8
M0
  6
DIVIDE
100
AcDbLine
 10
124.304676
 20
143.623219
 11
124.304676
 21
148.622493
  0
LINE
  5
490
100
AcDbEntity
  8
M0
  6
DIVIDE
100
AcDbLine
 10
144.055653
 20
148.623905
 11
127.804371
 21
148.623958
  0
LINE
  5
491
100
AcDbEntity
  8
M0
  6
DIVIDE
100
AcDbLine
 10
157.054631
 20
157.560523
 11
144.055653
 21
148.623905
  0
CIRCLE
  5
492
100
AcDbEntity
  8
M0
100
AcDbCircle
 10
151.554814
 20
164.121708
 40
2.0
  0
LINE
  5
493
100
AcDbEntity
  8
M0
  6
DASHDOT
100
AcDbLine
 10
135.269108
 20
164.121708
 11
167.840519
 21
164.121708
  0
LINE
  5
494
100
AcDbEntity
  8
M0
  6
DASHDOT
100
AcDbLine
 10
151.554814
 20
147.836002
 11
151.554814
 21
180.407414
  0
CIRCLE
  5
495
100
AcDbEntity
  8
M0
100
AcDbCircle
 10
149.054814
 20
157.621708
 40
2.0
  0
LINE
  5
496
100
AcDbEntity
  8
M0
  6
DASHDOT
100
AcDbLine
 10
132.769108
 20
157.621708
 11
165.340519
 21
157.621708
  0
LINE
  5
497
100
AcDbEntity
  8
M0
  6
DASHDOT
100
AcDbLine
 10
149.054814
 20
141.336002
 11
149.054814
 21
173.907414
  0
LINE
  5
498
100
AcDbEntity
  8
M0
  6
DASHDOT
100
AcDbLine
 10
62.054554
 20
196.621708
 11
170.054631
 21
196.621708
  0
LINE
  5
499
100
AcDbEntity
  8
M0
  6
DASHDOT
100
AcDbLine
 10
116.054798
 20
254.620732
 11
116.054829
 21
138.622669
  0
LINE
  5
49A
100
AcDbEntity
  8
M0
  6
DASHDOT
100
AcDbLine
 10
66.769108
 20
235.621708
 11
99.340519
 21
235.621708
  0
LINE
  5
49B
100
AcDbEntity
  8
M0
  6
DASHDOT
100
AcDbLine
 10
83.054814
 20
219.336002
 11
83.054814
 21
251.907414
  0
LINE
  5
49C
100
AcDbEntity
  8
M0
  6
DASHDOT
100
AcDbLine
 10
80.554585
 20
212.836002
 11
80.554585
 21
245.407414
  0
LINE
  5
49D
100
AcDbEntity
  8
M0
  6
DASHDOT
100
AcDbLine
 10
64.268879
 20
229.121708
 11
96.84029
 21
229.121708
  0
CIRCLE
  5
49E
100
AcDbEntity
  8
M0
100
AcDbCircle
 10
80.554585
 20
229.121708
 40
2.0
  0
CIRCLE
  5
49F
100
AcDbEntity
  8
M0
100
AcDbCircle
 10
83.054814
 20
235.621708
 40
2.0
  0
CIRCLE
  5
4A0
100
AcDbEntity
  8
M0
100
AcDbCircle
 10
39.024611
 20
123.724268
 40
2.0
  0
LINE
  5
4A1
100
AcDbEntity
  8
M1
 62
     2
100
AcDbLine
 10
20.0
 20
20.0
 11
20.0
 21
570.0
  0
LINE
  5
4A2
100
AcDbEntity
  8
M1
 62
     2
100
AcDbLine
 10
20.0
 20
570.0
 11
400.0
 21
570.0
  0
LINE
  5
4A3
100
AcDbEntity
  8
M1
 62
     2
100
AcDbLine
 10
400.0
 20
570.0
 11
400.0
 21
20.0
  0
LINE
  5
4A4
100
AcDbEntity
  8
M1
 62
     2
100
AcDbLine
 10
400.0
 20
20.0
 11
20.0
 21
20.0
  0
LINE
  5
4A5
100
AcDbEntity
  8
M1
 62
     2
100
AcDbLine
 10
400.0
 20
40.0
 11
200.0
 21
40.0
  0
LINE
  5
4A6
100
AcDbEntity
  8
M1
 62
     2
100
AcDbLine
 10
400.0
 20
60.0
 11
200.0
 21
60.0
  0
LINE
  5
4A7
100
AcDbEntity
  8
M1
 62
     2
100
AcDbLine
 10
400.0
 20
80.0
 11
200.0
 21
80.0
  0
LINE
  5
4A8
100
AcDbEntity
  8
M1
 62
     2
100
AcDbLine
 10
200.0
 20
20.0
 11
200.0
 21
80.0
  0
TEXT
  5
4A9
100
AcDbEntity
  8
M1
 62
     2
100
AcDbText
 10
205.0
 20
25.0
 40
10.0
  1
適　用；
  7
STANDARD
100
AcDbText
  0
TEXT
  5
4AA
100
AcDbEntity
  8
M1
 62
     2
100
AcDbText
 10
205.0
 20
65.0
 40
10.0
  1
登録名：
  7
STANDARD
100
AcDbText
  0
TEXT
  5
4AB
100
AcDbEntity
  8
M1
 62
     2
100
AcDbText
 10
253.0
 20
65.0
 40
10.0
  1
ＤＭＨ６５ＣＧＲ００
 41
0.5
  7
STANDARD
100
AcDbText
  0
TEXT
  5
4AC
100
AcDbEntity
  8
M1
 62
     2
100
AcDbText
 10
205.0
 20
45.0
 40
10.0
  1
形　式；
  7
STANDARD
100
AcDbText
  0
TEXT
  5
4AD
100
AcDbEntity
  8
M1
 62
     2
100
AcDbText
 10
253.0
 20
45.0
 40
10.0
  1
Ｈ６５Ｃ－Ｇ
 41
0.5
  7
STANDARD
100
AcDbText
  0
LINE
  5
4AE
100
AcDbEntity
  8
DN0
100
AcDbLine
 10
98.818559
 20
112.911539
 11
135.338568
 21
112.911539
  0
TEXT
  5
4AF
100
AcDbEntity
  8
DN0
100
AcDbText
 10
99.828559
 20
113.811539
 40
9.0
  1
せん孔図
 41
0.833333
  7
STANDARD
100
AcDbText
  0
ENDSEC
  0
SECTION
  2
OBJECTS
  0
DICTIONARY
  5
C
100
AcDbDictionary
  3
ACAD_GROUP
350
D
  3
ACAD_MLINESTYLE
350
E
  0
DICTIONARY
  5
D
102
{ACAD_REACTORS
330
C
102
}
100
AcDbDictionary
  0
DICTIONARY
  5
E
102
{ACAD_REACTORS
330
C
102
}
100
AcDbDictionary
  3
STANDARD
350
13
  0
MLINESTYLE
  5
13
102
{ACAD_REACTORS
330
E
102
}
100
AcDbMlineStyle
  2
STANDARD
 70
     0
  3

 62
     0
 51
90.0
 52
90.0
 71
     2
 49
0.5
 62
   256
  6
BYLAYER
 49
-0.5
 62
   256
  6
BYLAYER
  0
ENDSEC
  0
EOF
