  0
SECTION
  2
HEADER
  9
$ACADVER
  1
AC1014
  9
$INSBASE
 10
0.000000
 20
0.000000
 30
0.0
  9
$VIEWCTR
 10
7.531722
 20
4.5
  9
$VIEWSIZE
 40
9.0
  9
$SNAPMODE
 70
     0
  9
$SNAPUNIT
 10
1.0
 20
1.0
  9
$SNAPBASE
 10
0.0
 20
0.0
  9
$SNAPANG
 50
0.0
  9
$SNAPSTYLE
 70
     0
  9
$SNAPISOPAIR
 70
     0
  9
$GRIDMODE
 70
     0
  9
$GRIDUNIT
 10
0.0
 20
0.0
  9
$ORTHOMODE
 70
     0
  9
$REGENMODE
 70
     1
  9
$FILLMODE
 70
     1
  9
$QTEXTMODE
 70
     0
  9
$DRAGMODE
 70
     2
  9
$LTSCALE
  40
     1.000000
  9
$OSMODE
 70
     0
  9
$ATTMODE
 70
     1
  9
$TEXTSIZE
 40
0.2
  9
$TRACEWID
 40
0.05
  9
$TEXTSTYLE
  7
STANDARD
  9
$CELTYPE
  6
BYLAYER
  9
$CECOLOR
 62
   256
  9
$DIMSCALE
 40
1.0
  9
$DIMASZ
 40
0.18
  9
$DIMEXO
 40
0.0625
  9
$DIMDLI
 40
0.38
  9
$DIMRND
 40
0.0
  9
$DIMDLE
 40
0.0
  9
$DIMEXE
 40
0.18
  9
$DIMTP
 40
0.0
  9
$DIMTM
 40
0.0
  9
$DIMTXT
 40
0.18
  9
$DIMCEN
 40
0.09
  9
$DIMTSZ
 40
0.0
  9
$DIMTOL
 70
     0
  9
$DIMLIM
 70
     0
  9
$DIMTIH
 70
     1
  9
$DIMTOH
 70
     1
  9
$DIMSE1
 70
     0
  9
$DIMSE2
 70
     0
  9
$DIMTAD
 70
     0
  9
$DIMZIN
 70
     0
  9
$DIMBLK
  1

  9
$LUNITS
 70
     2
  9
$LUPREC
 70
     4
  9
$AXISMODE
 70
     0
  9
$AXISUNIT
 10
0.0
 20
0.0
  9
$SKETCHINC
 40
0.1
  9
$FILLETRAD
 40
0.0
  9
$AUNITS
 70
     0
  9
$AUPREC
 70
     0
  9
$MENU
  1
ACAD
  9
$ELEVATION
 40
0.0
  9
$THICKNESS
 40
0.0
  9
$VIEWDIR
 10
0.0
 20
0.0
 30
1.0
  9
$LIMCHECK
 70
     0
  9
$BLIPMODE
 70
     1
  9
$CHAMFERA
 40
0.0
  9
$CHAMFERB
 40
0.0
  9
$FASTZOOM
 70
     1
  9
$SKPOLY
 70
     0
  9
$TDCREATE
 40
0000000.0000000000
  9
$TDUPDATE
 40
0000000.0000000000
  9
$TDINDWG
 40
0.0000000000
  9
$TDUSRTIMER
 40
0.0000000000
  9
$USRTIMER
 70
     1
  9
$ANGBASE
 50
0.0
  9
$ANGDIR
 70
     0
  9
$PDMODE
 70
     0
  9
$PDSIZE
 40
0.0
  9
$PLINEWID
 40
0.0
  9
$COORDS
 70
     0
  9
$USERI1
 70
     0
  9
$USERI2
 70
     0
  9
$USERI3
 70
     0
  9
$USERI4
 70
     0
  9
$USERI5
 70
     0
  9
$USERR1
 40
0.0
  9
$USERR2
 40
0.0
  9
$USERR3
 40
0.0
  9
$USERR4
 40
0.0
  9
$USERR5
 40
0.0
  9
$CLAYER
  8
M0
  9
$EXTMIN
 10
16.666666
 20
16.666666
  9
$EXTMAX
 10
333.33332
 20
474.999981
  9
$LIMMIN
 10
0.0
 20
0.0
  9
$LIMMAX
 10
210.0
 20
297.0
  9
$HANDSEED
  5
51C
  0
ENDSEC
  0
SECTION
  2
CLASSES
  0
ENDSEC
  0
SECTION
  2
TABLES
  0
TABLE
  2
VPORT
  5
8
100
AcDbSymbolTable
 70
     2
  0
VPORT
  5
14
100
AcDbSymbolTableRecord
100
AcDbViewportTableRecord
  2
*ACTIVE
 70
     0
 10
0.0
 20
0.0
 11
1.0
 21
1.0
 12
484.0
 22
297.0
 13
0.0
 23
0.0
 14
1.0
 24
1.0
 15
0.0
 25
0.0
 16
0.0
 26
0.0
 36
1.0
 17
0.0
 27
0.0
 37
0.0
 40
594.0
 41
2.0
 42
50.0
 43
0.0
 44
0.0
 50
0.0
 51
0.0
 71
     0
 72
   100
 73
     1
 74
     1
 75
     0
 76
     0
 77
     0
 78
     0
  0
ENDTAB
  0
TABLE
  2
LTYPE
  5
5
100
AcDbSymbolTable
 70
     5
  0
LTYPE
  5
15
100
AcDbSymbolTableRecord
100
AcDbLinetypeTableRecord
  2
BYBLOCK
 70
     0
  3

 72
    65
 73
     0
 40
0.0
  0
LTYPE
  5
16
100
AcDbSymbolTableRecord
100
AcDbLinetypeTableRecord
  2
BYLAYER
 70
     0
  3

 72
    65
 73
     0
 40
0.0
  0
LTYPE
  5
17
100
AcDbSymbolTableRecord
100
AcDbLinetypeTableRecord
  2
CONTINUOUS
 70
    64
  3
Solid line
 72
    65
 73
     0
 40
0.0
  0
LTYPE
  5
18
100
AcDbSymbolTableRecord
100
AcDbLinetypeTableRecord
  2
DASHED
 70
    64
  3
__ __ __ __ __ __ __ __ __ __ __ __ __ __ __ __
 72
    65
 73
     2
 40
0.75
 49
0.5
 74
     0
 49
-0.25
 74
     0
  0
LTYPE
  5
19
100
AcDbSymbolTableRecord
100
AcDbLinetypeTableRecord
  2
DASHDOT
 70
    64
  3
__ . __ . __ . __ . __ . __ . __ . __ . __ . __
 72
    65
 73
     4
 40
1.0
 49
0.5
 74
     0
 49
-0.25
 74
     0
 49
0.0
 74
     0
 49
-0.25
 74
     0
  0
LTYPE
  5
1A
100
AcDbSymbolTableRecord
100
AcDbLinetypeTableRecord
  2
DIVIDE
 70
    64
  3
____ . . ____ . . ____ . . ____ . . ____ . . __
 72
    65
 73
     6
 40
1.25
 49
0.5
 74
     0
 49
-0.25
 74
     0
 49
0.0
 74
     0
 49
-0.25
 74
     0
 49
0.0
 74
     0
 49
-0.25
 74
     0
  0
LTYPE
  5
1B
100
AcDbSymbolTableRecord
100
AcDbLinetypeTableRecord
  2
DOT
 70
    64
  3
. . . . . . . . . . . . . . . . . . . . . . . .
 72
    65
 73
     2
 40
0.25
 49
0.0
 74
     0
 49
-0.25
 74
     0
  0
ENDTAB
  0
TABLE
  2
LAYER
  5
2
100
AcDbSymbolTable
 70
   102
  0
LAYER
  5
F
100
AcDbSymbolTableRecord
100
AcDbLayerTableRecord
  2
0
 70
     0
 62
     7
  6
CONTINUOUS
  0
LAYER
  5
1C
100
AcDbSymbolTableRecord
100
AcDbLayerTableRecord
  2
DEFPOINTS
 70
     0
 62
     7
  6
CONTINUOUS
  0
LAYER
  5
1D
100
AcDbSymbolTableRecord
100
AcDbLayerTableRecord
  2
M0
 70
     0
 62
     3
  6
CONTINUOUS
  0
LAYER
  5
1E
100
AcDbSymbolTableRecord
100
AcDbLayerTableRecord
  2
M1
 70
     0
 62
     3
  6
CONTINUOUS
  0
LAYER
  5
1F
100
AcDbSymbolTableRecord
100
AcDbLayerTableRecord
  2
DD0
 70
     0
 62
     4
  6
CONTINUOUS
  0
LAYER
  5
20
100
AcDbSymbolTableRecord
100
AcDbLayerTableRecord
  2
DN0
 70
     0
 62
     2
  6
CONTINUOUS
  0
ENDTAB
  0
TABLE
  2
STYLE
  5
3
100
AcDbSymbolTable
 70
     2
  0
STYLE
  5
10
100
AcDbSymbolTableRecord
100
AcDbTextStyleTableRecord
  2
STANDARD
 70
     0
 40
0.0
 41
1.0
 50
0.0
 71
     0
 42
0.2
  3
txt
  4
BIGFONT
  0
ENDTAB
  0
TABLE
  2
VIEW
  5
6
100
AcDbSymbolTable
 70
     0
  0
ENDTAB
  0
TABLE
  2
UCS
  5
7
100
AcDbSymbolTable
 70
     0
  0
ENDTAB
  0
TABLE
  2
APPID
  5
9
100
AcDbSymbolTable
 70
     1
  0
APPID
  5
11
100
AcDbSymbolTableRecord
100
AcDbRegAppTableRecord
  2
ACAD
 70
     0
  0
ENDTAB
  0
TABLE
  2
DIMSTYLE
  5
A
100
AcDbSymbolTable
 70
     2
  0
DIMSTYLE
105
27
100
AcDbSymbolTableRecord
100
AcDbDimStyleTableRecord
  2
STANDARD
 70
     0
  3

  4

  5

  6
_OPEN
  7
_OPEN
 40
1.0
 41
5.0
 42
1.0
 43
8.0
 44
1.0
 45
0.0
 46
0.0
 47
0.0
 48
0.0
140
5.25
141
0.09
142
0.0
143
0.03937
144
1.0
145
0.0
146
1.0
147
0.6
 71
     0
 72
     0
 73
     1
 74
     1
 75
     0
 76
     0
 77
     3
 78
     8
170
     0
171
     2
172
     0
173
     1
174
     0
175
     0
176
     0
177
     0
178
     0
270
     2
271
     2
272
     4
273
     2
274
     2
340
10
275
     0
280
     0
281
     0
282
     0
283
     1
284
     0
285
     0
286
     0
287
     3
288
     0
  0
DIMSTYLE
105
28
100
AcDbSymbolTableRecord
100
AcDbDimStyleTableRecord
  2
LEADSTYL
 70
     0
  3

  4

  5

  6
_OPEN
  7
_OPEN
 40
1.0
 41
5.0
 42
0.0625
 43
0.38
 44
0.18
 45
0.0
 46
0.0
 47
0.0
 48
0.0
140
5.25
141
0.09
142
0.0
143
25.4
144
1.0
145
0.0
146
1.0
147
0.6
 71
     0
 72
     0
 73
     1
 74
     1
 75
     0
 76
     0
 77
     0
 78
     0
170
     0
171
     2
172
     0
173
     1
174
     0
175
     0
176
     0
177
     0
178
     0
270
     2
271
     4
272
     4
273
     2
274
     2
340
10
275
     0
280
     0
281
     0
282
     0
283
     1
284
     0
285
     0
286
     0
287
     3
288
     0
  0
ENDTAB
  0
TABLE
  2
BLOCK_RECORD
  5
1
100
AcDbSymbolTable
 70
    17
  0
BLOCK_RECORD
  5
21
100
AcDbSymbolTableRecord
100
AcDbBlockTableRecord
  2
*MODEL_SPACE
  0
BLOCK_RECORD
  5
24
100
AcDbSymbolTableRecord
100
AcDbBlockTableRecord
  2
*PAPER_SPACE
  0
BLOCK_RECORD
  5
29
100
AcDbSymbolTableRecord
100
AcDbBlockTableRecord
  2
_NONE
  0
BLOCK_RECORD
  5
2D
100
AcDbSymbolTableRecord
100
AcDbBlockTableRecord
  2
_OPEN
  0
BLOCK_RECORD
  5
33
100
AcDbSymbolTableRecord
100
AcDbBlockTableRecord
  2
_CLOSED
  0
BLOCK_RECORD
  5
3A
100
AcDbSymbolTableRecord
100
AcDbBlockTableRecord
  2
_ORIGIN
  0
BLOCK_RECORD
  5
3F
100
AcDbSymbolTableRecord
100
AcDbBlockTableRecord
  2
_DOT
  0
BLOCK_RECORD
  5
47
100
AcDbSymbolTableRecord
100
AcDbBlockTableRecord
  2
_OBLIQUE
  0
BLOCK_RECORD
  5
4B
100
AcDbSymbolTableRecord
100
AcDbBlockTableRecord
  2
DIMS0
  0
BLOCK_RECORD
  5
57
100
AcDbSymbolTableRecord
100
AcDbBlockTableRecord
  2
DIMS1
  0
BLOCK_RECORD
  5
61
100
AcDbSymbolTableRecord
100
AcDbBlockTableRecord
  2
DIMS2
  0
BLOCK_RECORD
  5
6D
100
AcDbSymbolTableRecord
100
AcDbBlockTableRecord
  2
DIMS3
  0
BLOCK_RECORD
  5
79
100
AcDbSymbolTableRecord
100
AcDbBlockTableRecord
  2
DIMS4
  0
BLOCK_RECORD
  5
85
100
AcDbSymbolTableRecord
100
AcDbBlockTableRecord
  2
DIMS5
  0
BLOCK_RECORD
  5
91
100
AcDbSymbolTableRecord
100
AcDbBlockTableRecord
  2
DIMS6
  0
BLOCK_RECORD
  5
9D
100
AcDbSymbolTableRecord
100
AcDbBlockTableRecord
  2
DIMS7
  0
BLOCK_RECORD
  5
A9
100
AcDbSymbolTableRecord
100
AcDbBlockTableRecord
  2
DIMS8
  0
BLOCK_RECORD
  5
B5
100
AcDbSymbolTableRecord
100
AcDbBlockTableRecord
  2
DIMS9
  0
BLOCK_RECORD
  5
BE
100
AcDbSymbolTableRecord
100
AcDbBlockTableRecord
  2
DIMS10
  0
ENDTAB
  0
ENDSEC
  0
SECTION
  2
BLOCKS
  0
BLOCK
  5
22
100
AcDbEntity
  8
0
100
AcDbBlockBegin
  2
*MODEL_SPACE
 70
     0
 10
0.0
 20
0.0
 30
0.0
  3
*MODEL_SPACE
  1

  0
ENDBLK
  5
23
100
AcDbEntity
  8
0
100
AcDbBlockEnd
  0
BLOCK
  5
25
100
AcDbEntity
 67
     1
  8
0
100
AcDbBlockBegin
  2
*PAPER_SPACE
 70
     0
 10
0.0
 20
0.0
 30
0.0
  3
*PAPER_SPACE
  1

  0
ENDBLK
  5
26
100
AcDbEntity
 67
     1
  8
0
100
AcDbBlockEnd
  0
BLOCK
  5
2A
100
AcDbEntity
  8
0
100
AcDbBlockBegin
  2
_NONE
 70
     0
 10
0.0
 20
0.0
  0
CIRCLE
  5
2B
100
AcDbEntity
  8
0
 62
     0
100
AcDbCircle
 10
0.0
 20
0.0
 40
0.25
  0
ENDBLK
  5
2C
100
AcDbEntity
  8
0
100
AcDbBlockEnd
  0
BLOCK
  5
2E
100
AcDbEntity
  8
0
100
AcDbBlockBegin
  2
_OPEN
 70
     0
 10
0.0
 20
0.0
  0
LINE
  5
2F
100
AcDbEntity
  8
0
 62
     0
100
AcDbLine
 10
-0.965926
 20
0.258819
 11
0.0
 21
0.0
  0
LINE
  5
30
100
AcDbEntity
  8
0
 62
     0
100
AcDbLine
 10
0.0
 20
0.0
 11
-0.965926
 21
-0.258819
  0
LINE
  5
31
100
AcDbEntity
  8
0
 62
     0
100
AcDbLine
 10
0.0
 20
0.0
 11
-1.0
 21
0.0
  0
ENDBLK
  5
32
100
AcDbEntity
  8
0
100
AcDbBlockEnd
  0
BLOCK
  5
34
100
AcDbEntity
  8
0
100
AcDbBlockBegin
  2
_CLOSED
 70
     0
 10
0.0
 20
0.0
  0
LINE
  5
35
100
AcDbEntity
  8
0
 62
     0
100
AcDbLine
 10
-0.965926
 20
0.258819
 11
0.0
 21
0.0
  0
LINE
  5
36
100
AcDbEntity
  8
0
 62
     0
100
AcDbLine
 10
0.0
 20
0.0
 11
-0.965926
 21
-0.258819
  0
LINE
  5
37
100
AcDbEntity
  8
0
 62
     0
100
AcDbLine
 10
-0.965926
 20
0.258819
 11
-0.965926
 21
-0.258819
  0
LINE
  5
38
100
AcDbEntity
  8
0
 62
     0
100
AcDbLine
 10
0.0
 20
0.0
 11
-1.0
 21
0.0
  0
ENDBLK
  5
39
100
AcDbEntity
  8
0
100
AcDbBlockEnd
  0
BLOCK
  5
3B
100
AcDbEntity
  8
0
100
AcDbBlockBegin
  2
_ORIGIN
 70
     0
 10
0.0
 20
0.0
  0
CIRCLE
  5
3C
100
AcDbEntity
  8
0
 62
     0
100
AcDbCircle
 10
0.0
 20
0.0
 40
0.5
  0
LINE
  5
3D
100
AcDbEntity
  8
0
 62
     0
100
AcDbLine
 10
0.0
 20
0.0
 11
-1.0
 21
0.0
  0
ENDBLK
  5
3E
100
AcDbEntity
  8
0
100
AcDbBlockEnd
  0
BLOCK
  5
40
100
AcDbEntity
  8
0
100
AcDbBlockBegin
  2
_DOT
 70
     0
 10
0.0
 20
0.0
  0
POLYLINE
  5
41
100
AcDbEntity
  8
0
 62
     0
100
AcDb2dPolyline
 66
     1
 70
     1
 40
0.5
 41
0.5
  0
VERTEX
  5
42
100
AcDbEntity
  8
0
 62
     0
100
AcDbVertex
100
AcDb2dVertex
 10
-0.25
 20
0.0
 42
1.0
  0
VERTEX
  5
43
100
AcDbEntity
  8
0
 62
     0
100
AcDbVertex
100
AcDb2dVertex
 10
0.25
 20
0.0
 42
1.0
  0
SEQEND
  5
44
100
AcDbEntity
  8
0
 62
     0
  0
LINE
  5
45
100
AcDbEntity
  8
0
 62
     0
100
AcDbLine
 10
-0.5
 20
0.0
 11
-1.0
 21
0.0
  0
ENDBLK
  5
46
100
AcDbEntity
  8
0
100
AcDbBlockEnd
  0
BLOCK
  5
48
100
AcDbEntity
  8
0
100
AcDbBlockBegin
  2
_OBLIQUE
 70
     0
 10
0.0
 20
0.0
  0
LINE
  5
49
100
AcDbEntity
  8
0
 62
     0
100
AcDbLine
 10
-0.353553
 20
-0.353553
 11
0.353553
 21
0.353553
  0
ENDBLK
  5
4A
100
AcDbEntity
  8
0
100
AcDbBlockEnd
  0
BLOCK
  5
4C
100
AcDbEntity
  8
DD0
100
AcDbBlockBegin
  2
DIMS0
 70
     0
 10
0.0
 20
0.0
  0
LINE
  5
4D
100
AcDbEntity
  8
DD0
100
AcDbLine
 10
88.856573
 20
415.865259
 11
145.963994
 21
415.865259
  0
LINE
  5
4E
100
AcDbEntity
  8
DD0
 60
     1
100
AcDbLine
 10
109.856576
 20
401.865244
 11
145.963994
 21
401.865244
  0
LINE
  5
4F
100
AcDbEntity
  8
DD0
100
AcDbLine
 10
145.591422
 20
411.03563
 11
144.297327
 21
415.865259
  0
LINE
  5
50
100
AcDbEntity
  8
DD0
100
AcDbLine
 10
144.297327
 20
415.865259
 11
143.003232
 21
411.03563
  0
LINE
  5
51
100
AcDbEntity
  8
DD0
100
AcDbLine
 10
143.003232
 20
406.694873
 11
144.297327
 21
401.865244
  0
LINE
  5
52
100
AcDbEntity
  8
DD0
100
AcDbLine
 10
144.297327
 20
401.865244
 11
145.591422
 21
406.694873
  0
LINE
  5
53
100
AcDbEntity
  8
DD0
100
AcDbLine
 10
144.297327
 20
415.865259
 11
144.297327
 21
401.865244
  0
TEXT
  5
54
100
AcDbEntity
  8
DD0
100
AcDbText
 10
143.29733
 20
404.044418
 40
5.25
  1
１４
 50
90.000003
 41
0.833333
  7
STANDARD
100
AcDbText
  0
ENDBLK
  5
55
100
AcDbEntity
  8
DD0
100
AcDbBlockEnd
  0
BLOCK
  5
58
100
AcDbEntity
  8
DD0
100
AcDbBlockBegin
  2
DIMS1
 70
     0
 10
0.0
 20
0.0
  0
TEXT
  5
59
100
AcDbEntity
  8
DD0
100
AcDbText
 10
44.770614
 20
448.396996
 40
4.166667
  1
サージアブソーバ
 41
0.833333
  7
STANDARD
100
AcDbText
  0
TEXT
  5
5A
100
AcDbEntity
  8
DD0
100
AcDbText
 10
44.770614
 20
441.897006
 40
4.166667
  1
（直流操作の場合）
 41
0.833333
  7
STANDARD
100
AcDbText
  0
LINE
  5
5B
100
AcDbEntity
  8
DD0
100
AcDbLine
 10
47.930324
 20
419.924782
 11
50.849274
 21
415.865259
  0
LINE
  5
5C
100
AcDbEntity
  8
DD0
100
AcDbLine
 10
50.849274
 20
415.865259
 11
50.351152
 21
420.840384
  0
LINE
  5
5D
100
AcDbEntity
  8
DD0
100
AcDbLine
 10
50.849274
 20
415.865259
 11
38.923392
 21
447.396985
  0
LINE
  5
5E
100
AcDbEntity
  8
DD0
100
AcDbLine
 10
38.923392
 20
447.396985
 11
87.423391
 21
447.396985
  0
ENDBLK
  5
5F
100
AcDbEntity
  8
DD0
100
AcDbBlockEnd
  0
BLOCK
  5
62
100
AcDbEntity
  8
DD0
100
AcDbBlockBegin
  2
DIMS2
 70
     0
 10
0.0
 20
0.0
  0
LINE
  5
63
100
AcDbEntity
  8
DD0
100
AcDbLine
 10
109.856576
 20
401.865244
 11
145.963994
 21
401.865244
  0
LINE
  5
64
100
AcDbEntity
  8
DD0
100
AcDbLine
 10
91.106615
 20
281.866215
 11
145.963994
 21
281.866215
  0
LINE
  5
65
100
AcDbEntity
  8
DD0
100
AcDbLine
 10
145.591422
 20
397.035615
 11
144.297327
 21
401.865244
  0
LINE
  5
66
100
AcDbEntity
  8
DD0
100
AcDbLine
 10
144.297327
 20
401.865244
 11
143.003232
 21
397.035615
  0
LINE
  5
67
100
AcDbEntity
  8
DD0
100
AcDbLine
 10
143.003232
 20
286.695844
 11
144.297327
 21
281.866215
  0
LINE
  5
68
100
AcDbEntity
  8
DD0
100
AcDbLine
 10
144.297327
 20
281.866215
 11
145.591422
 21
286.695844
  0
LINE
  5
69
100
AcDbEntity
  8
DD0
100
AcDbLine
 10
144.297327
 20
401.865244
 11
144.297327
 21
281.866215
  0
TEXT
  5
6A
100
AcDbEntity
  8
DD0
100
AcDbText
 10
143.29733
 20
334.419888
 40
5.25
  1
１２０
 50
90.000003
 41
0.833333
  7
STANDARD
100
AcDbText
  0
ENDBLK
  5
6B
100
AcDbEntity
  8
DD0
100
AcDbBlockEnd
  0
BLOCK
  5
6E
100
AcDbEntity
  8
DD0
100
AcDbBlockBegin
  2
DIMS3
 70
     0
 10
0.0
 20
0.0
  0
LINE
  5
6F
100
AcDbEntity
  8
DD0
100
AcDbLine
 10
69.856609
 20
274.866093
 11
145.963994
 21
274.866093
  0
LINE
  5
70
100
AcDbEntity
  8
DD0
100
AcDbLine
 10
91.106615
 20
281.866215
 11
145.963994
 21
281.866215
  0
LINE
  5
71
100
AcDbEntity
  8
DD0
100
AcDbLine
 10
145.591422
 20
270.036464
 11
144.297327
 21
274.866093
  0
LINE
  5
72
100
AcDbEntity
  8
DD0
100
AcDbLine
 10
144.297327
 20
274.866093
 11
143.003232
 21
270.036464
  0
LINE
  5
73
100
AcDbEntity
  8
DD0
100
AcDbLine
 10
143.003232
 20
286.695844
 11
144.297327
 21
281.866215
  0
LINE
  5
74
100
AcDbEntity
  8
DD0
100
AcDbLine
 10
144.297327
 20
281.866215
 11
145.591422
 21
286.695844
  0
LINE
  5
75
100
AcDbEntity
  8
DD0
100
AcDbLine
 10
144.297327
 20
269.366094
 11
144.297327
 21
287.366215
  0
TEXT
  5
76
100
AcDbEntity
  8
DD0
100
AcDbText
 10
143.29733
 20
276.170328
 40
5.25
  1
７
 50
90.000003
 41
0.833333
  7
STANDARD
100
AcDbText
  0
ENDBLK
  5
77
100
AcDbEntity
  8
DD0
100
AcDbBlockEnd
  0
BLOCK
  5
7A
100
AcDbEntity
  8
DD0
100
AcDbBlockBegin
  2
DIMS4
 70
     0
 10
0.0
 20
0.0
  0
LINE
  5
7B
100
AcDbEntity
  8
DD0
100
AcDbLine
 10
125.189954
 20
388.532445
 11
125.189954
 21
429.950138
  0
LINE
  5
7C
100
AcDbEntity
  8
DD0
100
AcDbLine
 10
34.189916
 20
388.532369
 11
34.189916
 21
429.950138
  0
LINE
  5
7D
100
AcDbEntity
  8
DD0
100
AcDbLine
 10
120.360325
 20
426.989376
 11
125.189954
 21
428.283471
  0
LINE
  5
7E
100
AcDbEntity
  8
DD0
100
AcDbLine
 10
125.189954
 20
428.283471
 11
120.360325
 21
429.577566
  0
LINE
  5
7F
100
AcDbEntity
  8
DD0
100
AcDbLine
 10
39.019545
 20
429.577566
 11
34.189916
 21
428.283471
  0
LINE
  5
80
100
AcDbEntity
  8
DD0
100
AcDbLine
 10
34.189916
 20
428.283471
 11
39.019545
 21
426.989376
  0
LINE
  5
81
100
AcDbEntity
  8
DD0
100
AcDbLine
 10
125.189954
 20
428.283471
 11
34.189916
 21
428.283471
  0
TEXT
  5
82
100
AcDbEntity
  8
DD0
100
AcDbText
 10
74.869105
 20
429.283481
 40
5.25
  1
９１
 41
0.833333
  7
STANDARD
100
AcDbText
  0
ENDBLK
  5
83
100
AcDbEntity
  8
DD0
100
AcDbBlockEnd
  0
BLOCK
  5
86
100
AcDbEntity
  8
DD0
100
AcDbBlockBegin
  2
DIMS5
 70
     0
 10
0.0
 20
0.0
  0
LINE
  5
87
100
AcDbEntity
  8
DD0
100
AcDbLine
 10
172.063516
 20
368.531861
 11
172.063516
 21
429.950138
  0
LINE
  5
88
100
AcDbEntity
  8
DD0
100
AcDbLine
 10
317.063001
 20
387.532435
 11
317.063001
 21
429.950138
  0
LINE
  5
89
100
AcDbEntity
  8
DD0
100
AcDbLine
 10
176.893144
 20
429.577566
 11
172.063516
 21
428.283471
  0
LINE
  5
8A
100
AcDbEntity
  8
DD0
100
AcDbLine
 10
172.063516
 20
428.283471
 11
176.893144
 21
426.989376
  0
LINE
  5
8B
100
AcDbEntity
  8
DD0
100
AcDbLine
 10
312.233372
 20
426.989376
 11
317.063001
 21
428.283471
  0
LINE
  5
8C
100
AcDbEntity
  8
DD0
100
AcDbLine
 10
317.063001
 20
428.283471
 11
312.233372
 21
429.577566
  0
LINE
  5
8D
100
AcDbEntity
  8
DD0
100
AcDbLine
 10
172.063516
 20
428.283471
 11
317.063001
 21
428.283471
  0
TEXT
  5
8E
100
AcDbEntity
  8
DD0
100
AcDbText
 10
237.117417
 20
429.283481
 40
5.25
  1
１４５
 41
0.833333
  7
STANDARD
100
AcDbText
  0
ENDBLK
  5
8F
100
AcDbEntity
  8
DD0
100
AcDbBlockEnd
  0
BLOCK
  5
92
100
AcDbEntity
  8
DD0
100
AcDbBlockBegin
  2
DIMS6
 70
     0
 10
0.0
 20
0.0
  0
LINE
  5
93
100
AcDbEntity
  8
DD0
100
AcDbLine
 10
109.856716
 20
211.152946
 11
145.964998
 21
211.152946
  0
LINE
  5
94
100
AcDbEntity
  8
DD0
100
AcDbLine
 10
56.856719
 20
176.652939
 11
145.964998
 21
176.652939
  0
LINE
  5
95
100
AcDbEntity
  8
DD0
100
AcDbLine
 10
145.592427
 20
206.323317
 11
144.298332
 21
211.152946
  0
LINE
  5
96
100
AcDbEntity
  8
DD0
100
AcDbLine
 10
144.298332
 20
211.152946
 11
143.004236
 21
206.323317
  0
LINE
  5
97
100
AcDbEntity
  8
DD0
100
AcDbLine
 10
143.004236
 20
181.482568
 11
144.298332
 21
176.652939
  0
LINE
  5
98
100
AcDbEntity
  8
DD0
100
AcDbLine
 10
144.298332
 20
176.652939
 11
145.592427
 21
181.482568
  0
LINE
  5
99
100
AcDbEntity
  8
DD0
100
AcDbLine
 10
144.298332
 20
211.152946
 11
144.298332
 21
176.652939
  0
TEXT
  5
9A
100
AcDbEntity
  8
DD0
100
AcDbText
 10
143.13167
 20
185.852936
 40
5.25
  1
３４．５
 50
90.000003
 41
0.666667
  7
STANDARD
100
AcDbText
  0
ENDBLK
  5
9B
100
AcDbEntity
  8
DD0
100
AcDbBlockEnd
  0
BLOCK
  5
9E
100
AcDbEntity
  8
DD0
100
AcDbBlockBegin
  2
DIMS7
 70
     0
 10
0.0
 20
0.0
  0
LINE
  5
9F
100
AcDbEntity
  8
DD0
100
AcDbLine
 10
56.856719
 20
176.652939
 11
145.964998
 21
176.652939
  0
LINE
  5
A0
100
AcDbEntity
  8
DD0
100
AcDbLine
 10
126.856735
 20
111.652942
 11
145.964998
 21
111.652942
  0
LINE
  5
A1
100
AcDbEntity
  8
DD0
100
AcDbLine
 10
145.592427
 20
171.823311
 11
144.298332
 21
176.652939
  0
LINE
  5
A2
100
AcDbEntity
  8
DD0
100
AcDbLine
 10
144.298332
 20
176.652939
 11
143.004236
 21
171.823311
  0
LINE
  5
A3
100
AcDbEntity
  8
DD0
100
AcDbLine
 10
143.004236
 20
116.482571
 11
144.298332
 21
111.652942
  0
LINE
  5
A4
100
AcDbEntity
  8
DD0
100
AcDbLine
 10
144.298332
 20
111.652942
 11
145.592427
 21
116.482571
  0
LINE
  5
A5
100
AcDbEntity
  8
DD0
100
AcDbLine
 10
144.298332
 20
176.652939
 11
144.298332
 21
111.652942
  0
TEXT
  5
A6
100
AcDbEntity
  8
DD0
100
AcDbText
 10
143.298334
 20
139.332107
 40
5.25
  1
６５
 50
90.000003
 41
0.833333
  7
STANDARD
100
AcDbText
  0
ENDBLK
  5
A7
100
AcDbEntity
  8
DD0
100
AcDbBlockEnd
  0
BLOCK
  5
AA
100
AcDbEntity
  8
DD0
100
AcDbBlockBegin
  2
DIMS8
 70
     0
 10
0.0
 20
0.0
  0
LINE
  5
AB
100
AcDbEntity
  8
DD0
100
AcDbLine
 10
43.190055
 20
190.319613
 11
43.190055
 21
233.39914
  0
LINE
  5
AC
100
AcDbEntity
  8
DD0
100
AcDbLine
 10
113.190074
 20
125.319616
 11
113.190074
 21
233.39914
  0
LINE
  5
AD
100
AcDbEntity
  8
DD0
100
AcDbLine
 10
48.019684
 20
233.026569
 11
43.190055
 21
231.732474
  0
LINE
  5
AE
100
AcDbEntity
  8
DD0
100
AcDbLine
 10
43.190055
 20
231.732474
 11
48.019684
 21
230.438378
  0
LINE
  5
AF
100
AcDbEntity
  8
DD0
100
AcDbLine
 10
108.360445
 20
230.438378
 11
113.190074
 21
231.732474
  0
LINE
  5
B0
100
AcDbEntity
  8
DD0
100
AcDbLine
 10
113.190074
 20
231.732474
 11
108.360445
 21
233.026569
  0
LINE
  5
B1
100
AcDbEntity
  8
DD0
100
AcDbLine
 10
43.190055
 20
231.732474
 11
113.190074
 21
231.732474
  0
TEXT
  5
B2
100
AcDbEntity
  8
DD0
100
AcDbText
 10
73.369229
 20
232.732484
 40
5.25
  1
７０
 41
0.833333
  7
STANDARD
100
AcDbText
  0
ENDBLK
  5
B3
100
AcDbEntity
  8
DD0
100
AcDbBlockEnd
  0
BLOCK
  5
B6
100
AcDbEntity
  8
DD0
100
AcDbBlockBegin
  2
DIMS9
 70
     0
 10
0.0
 20
0.0
  0
TEXT
  5
B7
100
AcDbEntity
  8
DD0
100
AcDbText
 10
108.321709
 20
81.286427
 40
5.25
  1
２－Ｍ４ねじ穴
 41
0.833333
  7
STANDARD
100
AcDbText
  0
LINE
  5
B8
100
AcDbEntity
  8
DD0
100
AcDbLine
 10
110.205749
 20
103.961648
 11
110.230912
 21
108.961584
  0
LINE
  5
B9
100
AcDbEntity
  8
DD0
100
AcDbLine
 10
110.230912
 20
108.961584
 11
107.709152
 21
104.644094
  0
LINE
  5
BA
100
AcDbEntity
  8
DD0
100
AcDbLine
 10
110.230912
 20
108.961584
 11
102.392542
 21
80.28643
  0
LINE
  5
BB
100
AcDbEntity
  8
DD0
100
AcDbLine
 10
102.392542
 20
80.28643
 11
150.142537
 21
80.28643
  0
ENDBLK
  5
BC
100
AcDbEntity
  8
DD0
100
AcDbBlockEnd
  0
BLOCK
  5
BF
100
AcDbEntity
  8
DD0
100
AcDbBlockBegin
  2
DIMS10
 70
     0
 10
0.0
 20
0.0
  0
LINE
  5
C0
100
AcDbEntity
  8
DD0
100
AcDbLine
 10
317.063001
 20
292.199111
 11
317.063001
 21
251.295512
  0
LINE
  5
C1
100
AcDbEntity
  8
DD0
100
AcDbLine
 10
273.063013
 20
285.200057
 11
273.063013
 21
251.295512
  0
LINE
  5
C2
100
AcDbEntity
  8
DD0
100
AcDbLine
 10
312.233372
 20
251.668083
 11
317.063001
 21
252.962179
  0
LINE
  5
C3
100
AcDbEntity
  8
DD0
100
AcDbLine
 10
317.063001
 20
252.962179
 11
312.233372
 21
254.256274
  0
LINE
  5
C4
100
AcDbEntity
  8
DD0
100
AcDbLine
 10
277.892642
 20
254.256274
 11
273.063013
 21
252.962179
  0
LINE
  5
C5
100
AcDbEntity
  8
DD0
100
AcDbLine
 10
273.063013
 20
252.962179
 11
277.892642
 21
251.668083
  0
LINE
  5
C6
100
AcDbEntity
  8
DD0
100
AcDbLine
 10
317.063001
 20
252.962179
 11
273.063013
 21
252.962179
  0
TEXT
  5
C7
100
AcDbEntity
  8
DD0
100
AcDbText
 10
279.742181
 20
253.962189
 40
5.25
  1
４４（取付）
 41
0.833333
  7
STANDARD
100
AcDbText
  0
ENDBLK
  5
C8
100
AcDbEntity
  8
DD0
100
AcDbBlockEnd
  0
ENDSEC
  0
SECTION
  2
ENTITIES
  0
INSERT
  5
56
100
AcDbEntity
  8
DD0
100
AcDbBlockReference
  2
DIMS0
 10
0.0
 20
0.0
  0
INSERT
  5
60
100
AcDbEntity
  8
DD0
100
AcDbBlockReference
  2
DIMS1
 10
0.0
 20
0.0
  0
INSERT
  5
6C
100
AcDbEntity
  8
DD0
100
AcDbBlockReference
  2
DIMS2
 10
0.0
 20
0.0
  0
INSERT
  5
78
100
AcDbEntity
  8
DD0
100
AcDbBlockReference
  2
DIMS3
 10
0.0
 20
0.0
  0
INSERT
  5
84
100
AcDbEntity
  8
DD0
100
AcDbBlockReference
  2
DIMS4
 10
0.0
 20
0.0
  0
INSERT
  5
90
100
AcDbEntity
  8
DD0
100
AcDbBlockReference
  2
DIMS5
 10
0.0
 20
0.0
  0
INSERT
  5
9C
100
AcDbEntity
  8
DD0
100
AcDbBlockReference
  2
DIMS6
 10
0.0
 20
0.0
  0
INSERT
  5
A8
100
AcDbEntity
  8
DD0
100
AcDbBlockReference
  2
DIMS7
 10
0.0
 20
0.0
  0
INSERT
  5
B4
100
AcDbEntity
  8
DD0
100
AcDbBlockReference
  2
DIMS8
 10
0.0
 20
0.0
  0
INSERT
  5
BD
100
AcDbEntity
  8
DD0
100
AcDbBlockReference
  2
DIMS9
 10
0.0
 20
0.0
  0
INSERT
  5
C9
100
AcDbEntity
  8
DD0
100
AcDbBlockReference
  2
DIMS10
 10
0.0
 20
0.0
  0
LINE
  5
CA
100
AcDbEntity
  8
M0
100
AcDbLine
 10
108.189912
 20
401.865249
 11
48.189912
 21
401.865249
  0
LINE
  5
CB
100
AcDbEntity
  8
M0
100
AcDbLine
 10
48.189909
 20
415.865249
 11
48.189917
 21
382.864224
  0
LINE
  5
CC
100
AcDbEntity
  8
M0
100
AcDbLine
 10
87.189904
 20
415.865249
 11
48.189912
 21
415.865249
  0
LINE
  5
CD
100
AcDbEntity
  8
M0
100
AcDbLine
 10
68.189943
 20
281.866096
 11
68.189945
 21
274.866096
  0
LINE
  5
CE
100
AcDbEntity
  8
M0
100
AcDbLine
 10
64.189942
 20
286.865493
 11
64.189945
 21
274.866071
  0
LINE
  5
CF
100
AcDbEntity
  8
M0
100
AcDbLine
 10
108.189912
 20
401.865249
 11
108.189916
 21
386.865756
  0
LINE
  5
D0
100
AcDbEntity
  8
M0
100
AcDbLine
 10
68.189945
 20
274.866096
 11
64.189945
 21
274.866071
  0
LINE
  5
D1
100
AcDbEntity
  8
M0
100
AcDbLine
 10
125.189961
 20
386.865766
 11
125.189961
 21
292.865766
  0
LINE
  5
D2
100
AcDbEntity
  8
M0
100
AcDbLine
 10
114.916718
 20
292.86576
 11
125.189961
 21
292.865766
  0
LINE
  5
D3
100
AcDbEntity
  8
M0
100
AcDbLine
 10
34.189916
 20
386.86571
 11
66.440189
 21
386.86573
  0
LINE
  5
D4
100
AcDbEntity
  8
M0
100
AcDbLine
 10
125.189961
 20
385.865766
 11
89.939945
 21
385.865744
  0
LINE
  5
D5
100
AcDbEntity
  8
M0
100
AcDbLine
 10
34.189916
 20
386.86571
 11
34.189922
 21
364.365005
  0
LINE
  5
D6
100
AcDbEntity
  8
M0
100
AcDbLine
 10
89.939945
 20
386.865744
 11
125.189961
 21
386.865766
  0
LINE
  5
D7
100
AcDbEntity
  8
M0
100
AcDbLine
 10
86.439945
 20
385.865742
 11
69.940188
 21
385.865732
  0
LINE
  5
D8
100
AcDbEntity
  8
M0
100
AcDbLine
 10
69.940188
 20
386.865732
 11
86.439945
 21
386.865742
  0
LINE
  5
D9
100
AcDbEntity
  8
M0
100
AcDbLine
 10
66.440189
 20
385.86573
 11
34.189916
 21
385.86571
  0
LINE
  5
DA
100
AcDbEntity
  8
M0
100
AcDbLine
 10
125.189961
 20
336.865766
 11
128.189961
 21
336.865768
  0
LINE
  5
DB
100
AcDbEntity
  8
M0
100
AcDbLine
 10
128.189961
 20
344.865768
 11
125.189961
 21
344.865766
  0
LINE
  5
DC
100
AcDbEntity
  8
M0
100
AcDbLine
 10
128.189961
 20
344.865768
 11
128.189961
 21
336.865768
  0
LINE
  5
DD
100
AcDbEntity
  8
M0
100
AcDbLine
 10
127.189961
 20
344.865768
 11
127.189961
 21
336.865768
  0
LINE
  5
DE
100
AcDbEntity
  8
M0
100
AcDbLine
 10
287.763459
 20
415.865249
 11
299.763459
 21
415.865249
  0
LINE
  5
DF
100
AcDbEntity
  8
M0
100
AcDbLine
 10
261.763459
 20
401.865249
 11
283.763459
 21
401.865249
  0
LINE
  5
E0
100
AcDbEntity
  8
M0
100
AcDbLine
 10
257.763459
 20
386.865766
 11
316.063002
 21
386.865766
  0
LINE
  5
E1
100
AcDbEntity
  8
M0
100
AcDbLine
 10
257.763459
 20
385.865766
 11
316.063002
 21
385.865766
  0
LINE
  5
E2
100
AcDbEntity
  8
M0
100
AcDbLine
 10
289.763459
 20
385.865766
 11
289.763459
 21
286.866714
  0
LINE
  5
E3
100
AcDbEntity
  8
M0
100
AcDbLine
 10
316.063002
 20
385.865766
 11
316.063002
 21
293.865766
  0
LINE
  5
E4
100
AcDbEntity
  8
M0
100
AcDbLine
 10
257.763459
 20
397.865249
 11
257.763459
 21
385.865766
  0
LINE
  5
E5
100
AcDbEntity
  8
M0
100
AcDbLine
 10
287.763459
 20
386.865766
 11
287.763459
 21
415.865249
  0
LINE
  5
E6
100
AcDbEntity
  8
M0
100
AcDbLine
 10
299.763459
 20
415.865249
 11
299.763459
 21
393.865249
  0
LINE
  5
E7
100
AcDbEntity
  8
M0
100
AcDbLine
 10
299.763459
 20
393.865249
 11
287.763459
 21
393.865249
  0
LINE
  5
E8
100
AcDbEntity
  8
M0
100
AcDbLine
 10
308.063002
 20
389.865766
 11
294.063002
 21
389.865766
  0
LINE
  5
E9
100
AcDbEntity
  8
M0
100
AcDbLine
 10
307.063002
 20
404.865766
 11
307.063002
 21
389.865766
  0
LINE
  5
EA
100
AcDbEntity
  8
M0
100
AcDbLine
 10
301.063002
 20
401.865766
 11
301.063002
 21
389.865766
  0
LINE
  5
EB
100
AcDbEntity
  8
M0
100
AcDbLine
 10
299.763459
 20
401.865766
 11
307.063002
 21
401.865766
  0
LINE
  5
EC
100
AcDbEntity
  8
M0
100
AcDbLine
 10
306.063002
 20
405.865766
 11
299.763459
 21
405.865766
  0
ARC
  5
ED
100
AcDbEntity
  8
M0
100
AcDbCircle
 10
304.063002
 20
401.865766
 40
2.0
100
AcDbArc
 50
0.0
 51
180.0
  0
ARC
  5
EE
100
AcDbEntity
  8
M0
100
AcDbCircle
 10
304.063002
 20
405.865766
 40
2.0
100
AcDbArc
 50
0.0
 51
180.0
  0
ARC
  5
EF
100
AcDbEntity
  8
M0
100
AcDbCircle
 10
306.063002
 20
404.865766
 40
1.0
100
AcDbArc
 50
0.0
 51
90.0
  0
ARC
  5
F0
100
AcDbEntity
  8
M0
100
AcDbCircle
 10
308.063002
 20
386.865766
 40
3.0
100
AcDbArc
 50
0.0
 51
90.0
  0
ARC
  5
F1
100
AcDbEntity
  8
M0
100
AcDbCircle
 10
294.063002
 20
386.865766
 40
3.0
100
AcDbArc
 50
90.0
 51
180.0
  0
LINE
  5
F2
100
AcDbEntity
  8
M0
100
AcDbLine
 10
289.763459
 20
292.865766
 11
316.063002
 21
292.865766
  0
LINE
  5
F3
100
AcDbEntity
  8
M0
100
AcDbLine
 10
289.763459
 20
293.865766
 11
316.063002
 21
293.865766
  0
LINE
  5
F4
100
AcDbEntity
  8
M0
100
AcDbLine
 10
301.913459
 20
274.866071
 11
304.913459
 21
274.866071
  0
LINE
  5
F5
100
AcDbEntity
  8
M0
100
AcDbLine
 10
304.913459
 20
292.865766
 11
304.913459
 21
274.866071
  0
LINE
  5
F6
100
AcDbEntity
  8
M0
100
AcDbLine
 10
301.913459
 20
292.865766
 11
301.913459
 21
274.866071
  0
ARC
  5
F7
100
AcDbEntity
  8
M0
100
AcDbCircle
 10
316.063002
 20
293.865766
 40
1.0
100
AcDbArc
 50
270.0
 51
360.0
  0
LINE
  5
F8
100
AcDbEntity
  8
M0
100
AcDbLine
 10
267.763459
 20
329.865981
 11
267.763459
 21
339.865432
  0
ARC
  5
F9
100
AcDbEntity
  8
M0
100
AcDbCircle
 10
265.763459
 20
339.865432
 40
2.0
100
AcDbArc
 50
0.0
 51
90.0
  0
LINE
  5
FA
100
AcDbEntity
  8
M0
100
AcDbLine
 10
247.763459
 20
357.615447
 11
247.763459
 21
352.615447
  0
LINE
  5
FB
100
AcDbEntity
  8
M0
100
AcDbLine
 10
247.7633
 20
317.115737
 11
247.763223
 21
312.115737
  0
LINE
  5
FC
100
AcDbEntity
  8
M0
100
AcDbLine
 10
273.063002
 20
286.866714
 11
273.063002
 21
308.365981
  0
LINE
  5
FD
100
AcDbEntity
  8
M0
100
AcDbLine
 10
273.063002
 20
305.365691
 11
289.763459
 21
305.365691
  0
LINE
  5
FE
100
AcDbEntity
  8
M0
100
AcDbLine
 10
273.063002
 20
295.803555
 11
289.763459
 21
295.803555
  0
LINE
  5
FF
100
AcDbEntity
  8
M0
100
AcDbLine
 10
314.063002
 20
344.865737
 11
314.063002
 21
336.865737
  0
LINE
  5
100
100
AcDbEntity
  8
M0
100
AcDbLine
 10
304.063002
 20
344.865737
 11
304.063002
 21
336.865737
  0
LINE
  5
101
100
AcDbEntity
  8
M0
100
AcDbLine
 10
304.063002
 20
336.865737
 11
314.063002
 21
336.865737
  0
LINE
  5
102
100
AcDbEntity
  8
M0
100
AcDbLine
 10
304.063002
 20
344.865737
 11
314.063002
 21
344.865737
  0
LINE
  5
103
100
AcDbEntity
  8
M0
100
AcDbLine
 10
249.763126
 20
370.865447
 11
265.763459
 21
370.865389
  0
LINE
  5
104
100
AcDbEntity
  8
M0
100
AcDbLine
 10
289.763379
 20
360.865302
 11
265.763459
 21
360.865389
  0
LINE
  5
105
100
AcDbEntity
  8
M0
100
AcDbLine
 10
265.763459
 20
370.865418
 11
265.763459
 21
360.865418
  0
ARC
  5
106
100
AcDbEntity
  8
M0
100
AcDbCircle
 10
261.763459
 20
397.865249
 40
4.0
100
AcDbArc
 50
90.0
 51
180.0
  0
ARC
  5
107
100
AcDbEntity
  8
M0
100
AcDbCircle
 10
283.763459
 20
397.865249
 40
4.0
100
AcDbArc
 50
8.14222E-012
 51
90.0
  0
LINE
  5
108
100
AcDbEntity
  8
M0
 62
     7
100
AcDbLine
 10
184.763459
 20
367.365203
 11
184.763459
 21
352.865203
  0
LINE
  5
109
100
AcDbEntity
  8
M0
 62
     7
100
AcDbLine
 10
184.763459
 20
368.865203
 11
184.796906
 21
368.865203
  0
LINE
  5
10A
100
AcDbEntity
  8
M0
 62
     7
100
AcDbLine
 10
184.763459
 20
300.865524
 11
184.796906
 21
300.865524
  0
LINE
  5
10B
100
AcDbEntity
  8
M0
 62
     7
100
AcDbLine
 10
184.763459
 20
316.865981
 11
184.763459
 21
302.365524
  0
LINE
  5
10C
100
AcDbEntity
  8
M0
  6
DASHDOT
 62
     6
100
AcDbLine
 10
28.741032
 20
334.865737
 11
78.18993
 21
334.865737
  0
LINE
  5
10D
100
AcDbEntity
  8
M0
 62
     6
100
AcDbLine
 10
245.263459
 20
357.615447
 11
249.763459
 21
357.615447
  0
LINE
  5
10E
100
AcDbEntity
  8
M0
 62
     6
100
AcDbLine
 10
245.263459
 20
352.615447
 11
249.763459
 21
352.615447
  0
ARC
  5
10F
100
AcDbEntity
  8
M0
 62
     6
100
AcDbCircle
 10
245.263459
 20
355.115447
 40
2.499996
100
AcDbArc
 50
90.0
 51
180.0
  0
LINE
  5
110
100
AcDbEntity
  8
M0
 62
     6
100
AcDbLine
 10
245.263215
 20
312.115737
 11
249.763215
 21
312.115737
  0
ARC
  5
111
100
AcDbEntity
  8
M0
 62
     6
100
AcDbCircle
 10
245.263215
 20
314.615737
 40
2.499996
100
AcDbArc
 50
180.0
 51
269.99965
  0
LINE
  5
112
100
AcDbEntity
  8
M0
 62
     6
100
AcDbLine
 10
245.263215
 20
317.115737
 11
249.763215
 21
317.115737
  0
LINE
  5
113
100
AcDbEntity
  8
M0
 62
     6
100
AcDbLine
 10
204.763459
 20
387.865203
 11
221.519807
 21
387.865203
  0
LINE
  5
114
100
AcDbEntity
  8
M0
 62
     6
100
AcDbLine
 10
199.763459
 20
382.864471
 11
249.763459
 21
382.864471
  0
LINE
  5
115
100
AcDbEntity
  8
M0
 62
     6
100
AcDbLine
 10
231.263459
 20
364.365203
 11
235.55594
 21
364.365203
  0
LINE
  5
116
100
AcDbEntity
  8
M0
 62
     6
100
AcDbLine
 10
214.602082
 20
361.365203
 11
230.763459
 21
361.365203
  0
LINE
  5
117
100
AcDbEntity
  8
M0
 62
     6
100
AcDbLine
 10
181.863313
 20
352.865203
 11
204.563264
 21
352.865203
  0
LINE
  5
118
100
AcDbEntity
  8
M0
 62
     6
100
AcDbLine
 10
223.641145
 20
386.986312
 11
227.763215
 21
382.864242
  0
LINE
  5
119
100
AcDbEntity
  8
M0
 62
     6
100
AcDbLine
 10
184.763459
 20
367.864227
 11
184.763459
 21
352.865203
  0
ARC
  5
11A
100
AcDbEntity
  8
M0
 62
     6
100
AcDbCircle
 10
204.763459
 20
367.865203
 40
19.999939
100
AcDbArc
 50
90.0
 51
177.134052
  0
ARC
  5
11B
100
AcDbEntity
  8
M0
 62
     6
100
AcDbCircle
 10
199.763459
 20
367.864471
 40
14.999996
100
AcDbArc
 50
90.0
 51
180.0
  0
LINE
  5
11C
100
AcDbEntity
  8
M0
 62
     6
100
AcDbLine
 10
230.763459
 20
363.865203
 11
230.763459
 21
361.365203
  0
LINE
  5
11D
100
AcDbEntity
  8
M0
 62
     6
100
AcDbLine
 10
235.909699
 20
364.218719
 11
238.763459
 21
361.365203
  0
LINE
  5
11E
100
AcDbEntity
  8
M0
 62
     6
100
AcDbLine
 10
213.617463
 20
360.538787
 11
212.409211
 21
353.691375
  0
LINE
  5
11F
100
AcDbEntity
  8
M0
 62
     6
100
AcDbLine
 10
238.763459
 20
361.365203
 11
249.763459
 21
361.365203
  0
LINE
  5
120
100
AcDbEntity
  8
M0
 62
     6
100
AcDbLine
 10
200.663361
 20
352.365203
 11
200.663361
 21
350.365447
  0
LINE
  5
121
100
AcDbEntity
  8
M0
 62
     6
100
AcDbLine
 10
204.563264
 20
352.365203
 11
204.563264
 21
350.365447
  0
LINE
  5
122
100
AcDbEntity
  8
M0
 62
     6
100
AcDbLine
 10
201.163361
 20
349.865447
 11
204.063264
 21
349.865447
  0
LINE
  5
123
100
AcDbEntity
  8
M0
 62
     6
100
AcDbLine
 10
204.563264
 20
352.865203
 11
211.424348
 21
352.865203
  0
LINE
  5
124
100
AcDbEntity
  8
M0
 62
     6
100
AcDbLine
 10
180.863313
 20
351.865203
 11
180.863313
 21
334.865737
  0
ARC
  5
125
100
AcDbEntity
  8
M0
 62
     6
100
AcDbCircle
 10
181.863313
 20
351.865203
 40
1.0
100
AcDbArc
 50
90.0
 51
180.0
  0
LINE
  5
126
100
AcDbEntity
  8
M0
 62
     6
100
AcDbLine
 10
204.763459
 20
281.865981
 11
221.519807
 21
281.865981
  0
LINE
  5
127
100
AcDbEntity
  8
M0
 62
     6
100
AcDbLine
 10
199.763459
 20
286.866714
 11
289.763459
 21
286.866714
  0
LINE
  5
128
100
AcDbEntity
  8
M0
 62
     6
100
AcDbLine
 10
231.263459
 20
305.365981
 11
235.556184
 21
305.365981
  0
LINE
  5
129
100
AcDbEntity
  8
M0
 62
     6
100
AcDbLine
 10
214.602082
 20
308.365981
 11
230.763459
 21
308.365981
  0
LINE
  5
12A
100
AcDbEntity
  8
M0
 62
     6
100
AcDbLine
 10
181.863313
 20
316.865981
 11
204.56302
 21
316.865981
  0
LINE
  5
12B
100
AcDbEntity
  8
M0
 62
     6
100
AcDbLine
 10
223.640901
 20
282.744643
 11
227.763215
 21
286.866714
  0
LINE
  5
12C
100
AcDbEntity
  8
M0
 62
     6
100
AcDbLine
 10
184.763459
 20
301.866714
 11
184.763459
 21
316.865981
  0
ARC
  5
12D
100
AcDbEntity
  8
M0
 62
     6
100
AcDbCircle
 10
204.763459
 20
301.865981
 40
19.999939
100
AcDbArc
 50
182.867304
 51
269.999913
  0
ARC
  5
12E
100
AcDbEntity
  8
M0
 62
     6
100
AcDbCircle
 10
199.763459
 20
301.866714
 40
14.999996
100
AcDbArc
 50
180.0
 51
269.999942
  0
LINE
  5
12F
100
AcDbEntity
  8
M0
 62
     6
100
AcDbLine
 10
230.763459
 20
305.865981
 11
230.763459
 21
308.365981
  0
LINE
  5
130
100
AcDbEntity
  8
M0
 62
     6
100
AcDbLine
 10
235.909699
 20
305.51242
 11
238.763459
 21
308.365981
  0
LINE
  5
131
100
AcDbEntity
  8
M0
 62
     6
100
AcDbLine
 10
213.617463
 20
309.192245
 11
212.409211
 21
316.039748
  0
LINE
  5
132
100
AcDbEntity
  8
M0
 62
     6
100
AcDbLine
 10
238.763459
 20
308.365981
 11
273.063002
 21
308.365981
  0
LINE
  5
133
100
AcDbEntity
  8
M0
 62
     6
100
AcDbLine
 10
204.563264
 20
316.865981
 11
211.424348
 21
316.865981
  0
LINE
  5
134
100
AcDbEntity
  8
M0
 62
     6
100
AcDbLine
 10
180.863313
 20
317.865981
 11
180.863313
 21
334.865737
  0
ARC
  5
135
100
AcDbEntity
  8
M0
 62
     6
100
AcDbCircle
 10
181.863313
 20
317.865981
 40
1.0
100
AcDbArc
 50
180.0
 51
269.999126
  0
LINE
  5
136
100
AcDbEntity
  8
M0
 62
     6
100
AcDbLine
 10
247.763459
 20
341.865432
 11
247.763459
 21
341.865188
  0
ARC
  5
137
100
AcDbEntity
  8
M0
 62
     6
100
AcDbCircle
 10
245.263459
 20
355.115447
 40
2.499996
100
AcDbArc
 50
180.0
 51
269.99965
  0
ARC
  5
138
100
AcDbEntity
  8
M0
 62
     6
100
AcDbCircle
 10
245.263215
 20
314.615737
 40
2.499996
100
AcDbArc
 50
90.0
 51
180.0
  0
LINE
  5
139
100
AcDbEntity
  8
M0
 62
     6
100
AcDbLine
 10
265.763459
 20
341.865432
 11
238.763215
 21
341.865432
  0
LINE
  5
13A
100
AcDbEntity
  8
M0
 62
     6
100
AcDbLine
 10
236.763215
 20
339.865005
 11
236.763215
 21
334.865737
  0
ARC
  5
13B
100
AcDbEntity
  8
M0
 62
     6
100
AcDbCircle
 10
238.763215
 20
339.865249
 40
1.999996
100
AcDbArc
 50
90.0
 51
180.006994
  0
LINE
  5
13C
100
AcDbEntity
  8
M0
 62
     6
100
AcDbLine
 10
247.763459
 20
327.865981
 11
247.763459
 21
327.866226
  0
LINE
  5
13D
100
AcDbEntity
  8
M0
 62
     6
100
AcDbLine
 10
265.763459
 20
327.865981
 11
238.763215
 21
327.865981
  0
LINE
  5
13E
100
AcDbEntity
  8
M0
 62
     6
100
AcDbLine
 10
236.763215
 20
329.86647
 11
236.763215
 21
334.865737
  0
ARC
  5
13F
100
AcDbEntity
  8
M0
 62
     6
100
AcDbCircle
 10
238.763215
 20
329.866226
 40
1.999996
100
AcDbArc
 50
180.0
 51
269.999563
  0
ARC
  5
140
100
AcDbEntity
  8
M0
 62
     6
100
AcDbCircle
 10
214.602082
 20
360.365203
 40
1.0
100
AcDbArc
 50
90.0
 51
170.001997
  0
ARC
  5
141
100
AcDbEntity
  8
M0
 62
     6
100
AcDbCircle
 10
214.602082
 20
309.365981
 40
1.0
100
AcDbArc
 50
190.006764
 51
269.999126
  0
ARC
  5
142
100
AcDbEntity
  8
M0
 62
     6
100
AcDbCircle
 10
221.519807
 20
384.865203
 40
2.999996
100
AcDbArc
 50
45.0
 51
90.0
  0
ARC
  5
143
100
AcDbEntity
  8
M0
 62
     6
100
AcDbCircle
 10
221.519807
 20
284.865981
 40
2.999996
100
AcDbArc
 50
269.999709
 51
314.996497
  0
ARC
  5
144
100
AcDbEntity
  8
M0
 62
     6
100
AcDbCircle
 10
211.424348
 20
353.865203
 40
1.0
100
AcDbArc
 50
269.999126
 51
349.989488
  0
ARC
  5
145
100
AcDbEntity
  8
M0
 62
     6
100
AcDbCircle
 10
211.424348
 20
315.865981
 40
1.0
100
AcDbArc
 50
10.006055
 51
90.0
  0
ARC
  5
146
100
AcDbEntity
  8
M0
 62
     6
100
AcDbCircle
 10
200.163361
 20
352.365203
 40
0.5
100
AcDbArc
 50
0.0
 51
90.0
  0
ARC
  5
147
100
AcDbEntity
  8
M0
 62
     6
100
AcDbCircle
 10
201.163361
 20
350.365447
 40
0.5
100
AcDbArc
 50
180.0
 51
269.998251
  0
ARC
  5
148
100
AcDbEntity
  8
M0
 62
     6
100
AcDbCircle
 10
204.063264
 20
350.365447
 40
0.5
100
AcDbArc
 50
269.998251
 51
360.0
  0
ARC
  5
149
100
AcDbEntity
  8
M0
 62
     6
100
AcDbCircle
 10
205.063264
 20
352.365203
 40
0.5
100
AcDbArc
 50
90.0
 51
180.0
  0
ARC
  5
14A
100
AcDbEntity
  8
M0
 62
     6
100
AcDbCircle
 10
200.163117
 20
317.365981
 40
0.5
100
AcDbArc
 50
-90.001749
 51
0.0
  0
LINE
  5
14B
100
AcDbEntity
  8
M0
 62
     6
100
AcDbLine
 10
200.663117
 20
317.365981
 11
200.663117
 21
319.365737
  0
LINE
  5
14C
100
AcDbEntity
  8
M0
 62
     6
100
AcDbLine
 10
201.163117
 20
319.865737
 11
204.06302
 21
319.865737
  0
ARC
  5
14D
100
AcDbEntity
  8
M0
 62
     6
100
AcDbCircle
 10
201.163117
 20
319.365737
 40
0.5
100
AcDbArc
 50
90.0
 51
180.0
  0
ARC
  5
14E
100
AcDbEntity
  8
M0
 62
     6
100
AcDbCircle
 10
204.06302
 20
319.365737
 40
0.5
100
AcDbArc
 50
0.0
 51
90.0
  0
LINE
  5
14F
100
AcDbEntity
  8
M0
 62
     6
100
AcDbLine
 10
204.56302
 20
317.365981
 11
204.56302
 21
319.365737
  0
ARC
  5
150
100
AcDbEntity
  8
M0
 62
     6
100
AcDbCircle
 10
205.06302
 20
317.365981
 40
0.5
100
AcDbArc
 50
180.0
 51
269.998251
  0
LINE
  5
151
100
AcDbEntity
  8
M0
 62
     6
100
AcDbLine
 10
249.763459
 20
341.865188
 11
249.763459
 21
352.615447
  0
ARC
  5
152
100
AcDbEntity
  8
M0
 62
     6
100
AcDbCircle
 10
231.263459
 20
305.865981
 40
0.5
100
AcDbArc
 50
180.0
 51
269.998251
  0
ARC
  5
153
100
AcDbEntity
  8
M0
 62
     6
100
AcDbCircle
 10
235.556184
 20
305.865981
 40
0.5
100
AcDbArc
 50
269.998251
 51
314.995054
  0
ARC
  5
154
100
AcDbEntity
  8
M0
 62
     6
100
AcDbCircle
 10
235.55594
 20
363.865203
 40
0.5
100
AcDbArc
 50
44.980217
 51
90.0
  0
ARC
  5
155
100
AcDbEntity
  8
M0
 62
     6
100
AcDbCircle
 10
231.263459
 20
363.865203
 40
0.5
100
AcDbArc
 50
90.0
 51
180.0
  0
LINE
  5
156
100
AcDbEntity
  8
M0
 62
     6
100
AcDbLine
 10
249.763459
 20
357.615447
 11
249.763459
 21
382.864471
  0
LINE
  5
157
100
AcDbEntity
  8
M0
 62
     6
100
AcDbLine
 10
249.763459
 20
317.115737
 11
249.763459
 21
327.865737
  0
LINE
  5
158
100
AcDbEntity
  8
M0
  6
DASHDOT
 62
     6
100
AcDbLine
 10
161.850765
 20
334.865737
 11
324.893223
 21
334.865737
  0
LINE
  5
159
100
AcDbEntity
  8
M0
 62
     6
100
AcDbLine
 10
249.762986
 20
286.865981
 11
249.762986
 21
286.866714
  0
LINE
  5
15A
100
AcDbEntity
  8
M0
 62
     6
100
AcDbLine
 10
249.762833
 20
286.866714
 11
249.763223
 21
312.115737
  0
LINE
  5
15B
100
AcDbEntity
  8
M0
  6
DASHDOT
 62
     6
100
AcDbLine
 10
108.689915
 20
334.865737
 11
125.51302
 21
334.865737
  0
LINE
  5
15C
100
AcDbEntity
  8
M0
  6
DASHDOT
 62
     6
100
AcDbLine
 10
127.638828
 20
334.865768
 11
78.18993
 21
334.865737
  0
ARC
  5
15D
100
AcDbEntity
  8
M0
 62
     6
100
AcDbCircle
 10
265.763459
 20
329.865981
 40
2.0
100
AcDbArc
 50
270.0
 51
360.0
  0
LINE
  5
15E
100
AcDbEntity
  8
M0
 62
     6
100
AcDbLine
 10
78.190784
 20
382.863784
 11
69.940188
 21
382.863784
  0
LINE
  5
15F
100
AcDbEntity
  8
M0
 62
     6
100
AcDbLine
 10
66.940189
 20
387.865005
 11
69.440189
 21
387.865005
  0
LINE
  5
160
100
AcDbEntity
  8
M0
 62
     6
100
AcDbLine
 10
66.440189
 20
382.863784
 11
46.190189
 21
382.864272
  0
LINE
  5
161
100
AcDbEntity
  8
M0
 62
     6
100
AcDbLine
 10
108.689838
 20
382.864028
 11
110.190174
 21
382.864028
  0
LINE
  5
162
100
AcDbEntity
  8
M0
 62
     5
100
AcDbLine
 10
46.139896
 20
380.080093
 11
38.490238
 21
374.820815
  0
ARC
  5
163
100
AcDbEntity
  8
M0
 62
     5
100
AcDbCircle
 10
40.189945
 20
372.348647
 40
3.0
100
AcDbArc
 50
124.509994
 51
180.0
  0
ARC
  5
164
100
AcDbEntity
  8
M0
 62
     5
100
AcDbCircle
 10
121.68993
 20
372.364761
 40
0.5
100
AcDbArc
 50
0.0
 51
90.0
  0
LINE
  5
165
100
AcDbEntity
  8
M0
 62
     5
100
AcDbLine
 10
118.18993
 20
372.865005
 11
121.68993
 21
372.865005
  0
LINE
  5
166
100
AcDbEntity
  8
M0
 62
     5
100
AcDbLine
 10
110.190174
 20
371.365005
 11
118.18993
 21
371.365005
  0
LINE
  5
167
100
AcDbEntity
  8
M0
 62
     6
100
AcDbLine
 10
69.940188
 20
387.365005
 11
69.940188
 21
367.365005
  0
LINE
  5
168
100
AcDbEntity
  8
M0
 62
     6
100
AcDbLine
 10
34.690189
 20
364.365005
 11
36.190189
 21
364.365005
  0
ARC
  5
169
100
AcDbEntity
  8
M0
 62
     6
100
AcDbCircle
 10
36.190189
 20
363.865005
 40
0.5
100
AcDbArc
 50
0.0
 51
89.998251
  0
ARC
  5
16A
100
AcDbEntity
  8
M0
 62
     6
100
AcDbCircle
 10
34.690189
 20
363.865005
 40
0.5
100
AcDbArc
 50
89.998251
 51
180.0
  0
LINE
  5
16B
100
AcDbEntity
  8
M0
 62
     6
100
AcDbLine
 10
49.940189
 20
382.865005
 11
49.940189
 21
367.364517
  0
LINE
  5
16C
100
AcDbEntity
  8
M0
 62
     6
100
AcDbLine
 10
66.440189
 20
387.365005
 11
66.440189
 21
367.364517
  0
LINE
  5
16D
100
AcDbEntity
  8
M0
 62
     6
100
AcDbLine
 10
69.940188
 20
387.365005
 11
69.940188
 21
367.364517
  0
LINE
  5
16E
100
AcDbEntity
  8
M0
 62
     6
100
AcDbLine
 10
121.690174
 20
364.364761
 11
120.190174
 21
364.364761
  0
ARC
  5
16F
100
AcDbEntity
  8
M0
 62
     6
100
AcDbCircle
 10
120.190174
 20
363.864761
 40
0.5
100
AcDbArc
 50
90.0
 51
180.0
  0
ARC
  5
170
100
AcDbEntity
  8
M0
 62
     6
100
AcDbCircle
 10
121.690174
 20
363.864761
 40
0.5
100
AcDbArc
 50
0.0
 51
90.0
  0
LINE
  5
171
100
AcDbEntity
  8
M0
 62
     7
100
AcDbLine
 10
72.690188
 20
368.864761
 11
70.690188
 21
368.864761
  0
ARC
  5
172
100
AcDbEntity
  8
M0
 62
     7
100
AcDbCircle
 10
70.690188
 20
368.364761
 40
0.5
100
AcDbArc
 50
90.0
 51
180.0
  0
LINE
  5
173
100
AcDbEntity
  8
M0
 62
     7
100
AcDbLine
 10
78.190784
 20
367.364517
 11
46.690189
 21
367.364761
  0
ARC
  5
174
100
AcDbEntity
  8
M0
 62
     7
100
AcDbCircle
 10
46.690189
 20
366.864761
 40
0.5
100
AcDbArc
 50
89.998251
 51
180.0
  0
ARC
  5
175
100
AcDbEntity
  8
M0
 62
     7
100
AcDbCircle
 10
109.690174
 20
366.864761
 40
0.5
100
AcDbArc
 50
0.0
 51
90.0
  0
LINE
  5
176
100
AcDbEntity
  8
M0
 62
     7
100
AcDbLine
 10
73.190188
 20
368.364761
 11
73.190188
 21
367.364761
  0
LINE
  5
177
100
AcDbEntity
  8
M0
 62
     7
100
AcDbLine
 10
70.190188
 20
368.364761
 11
70.190188
 21
367.364761
  0
ARC
  5
178
100
AcDbEntity
  8
M0
 62
     7
100
AcDbCircle
 10
72.690188
 20
368.364761
 40
0.5
100
AcDbArc
 50
0.0
 51
90.0
  0
LINE
  5
179
100
AcDbEntity
  8
M0
 62
     5
100
AcDbLine
 10
37.189945
 20
362.365016
 11
37.189945
 21
372.348647
  0
LINE
  5
17A
100
AcDbEntity
  8
M0
 62
     5
100
AcDbLine
 10
36.689945
 20
362.365016
 11
37.189945
 21
362.365016
  0
LINE
  5
17B
100
AcDbEntity
  8
M0
 62
     5
100
AcDbLine
 10
110.190174
 20
361.865016
 11
118.18993
 21
361.865016
  0
LINE
  5
17C
100
AcDbEntity
  8
M0
  6
DASHDOT
100
AcDbLine
 10
38.562275
 20
367.365005
 11
56.189701
 21
367.365005
  0
LINE
  5
17D
100
AcDbEntity
  8
M0
 62
     7
100
AcDbLine
 10
74.190188
 20
346.864925
 11
75.690188
 21
346.864925
  0
LINE
  5
17E
100
AcDbEntity
  8
M0
100
AcDbLine
 10
116.511707
 20
347.264675
 11
117.780018
 21
347.264675
  0
LINE
  5
17F
100
AcDbEntity
  8
M0
100
AcDbLine
 10
111.868397
 20
347.264675
 11
110.600086
 21
347.264675
  0
LINE
  5
180
100
AcDbEntity
  8
M0
 62
     6
100
AcDbLine
 10
45.390141
 20
350.365016
 11
45.390141
 21
349.365016
  0
LINE
  5
181
100
AcDbEntity
  8
M0
 62
     6
100
AcDbLine
 10
38.989994
 20
350.365016
 11
38.989994
 21
349.365016
  0
LINE
  5
182
100
AcDbEntity
  8
M0
 62
     6
100
AcDbLine
 10
38.690189
 20
352.364772
 11
38.690189
 21
350.865016
  0
LINE
  5
183
100
AcDbEntity
  8
M0
 62
     6
100
AcDbLine
 10
45.690189
 20
352.365016
 11
45.690189
 21
350.865016
  0
ARC
  5
184
100
AcDbEntity
  8
M0
 62
     6
100
AcDbCircle
 10
38.489994
 20
350.365016
 40
0.5
100
AcDbArc
 50
0.0
 51
89.998251
  0
LINE
  5
185
100
AcDbEntity
  8
M0
 62
     6
100
AcDbLine
 10
38.190189
 20
349.365016
 11
39.25098
 21
349.365016
  0
LINE
  5
186
100
AcDbEntity
  8
M0
 62
     6
100
AcDbLine
 10
38.190189
 20
350.865016
 11
38.489994
 21
350.865016
  0
LINE
  5
187
100
AcDbEntity
  8
M0
 62
     6
100
AcDbLine
 10
45.890141
 20
350.865016
 11
46.190189
 21
350.865016
  0
ARC
  5
188
100
AcDbEntity
  8
M0
 62
     6
100
AcDbCircle
 10
45.890141
 20
350.365016
 40
0.5
100
AcDbArc
 50
89.998251
 51
180.0
  0
LINE
  5
189
100
AcDbEntity
  8
M0
 62
     6
100
AcDbLine
 10
110.989979
 20
350.364772
 11
110.989979
 21
349.364772
  0
LINE
  5
18A
100
AcDbEntity
  8
M0
 62
     6
100
AcDbLine
 10
117.390125
 20
350.364772
 11
117.390125
 21
349.364772
  0
LINE
  5
18B
100
AcDbEntity
  8
M0
 62
     6
100
AcDbLine
 10
117.690174
 20
352.364528
 11
117.690174
 21
350.864772
  0
LINE
  5
18C
100
AcDbEntity
  8
M0
 62
     6
100
AcDbLine
 10
110.690174
 20
352.364772
 11
110.690174
 21
350.864772
  0
ARC
  5
18D
100
AcDbEntity
  8
M0
 62
     6
100
AcDbCircle
 10
117.890125
 20
350.364772
 40
0.5
100
AcDbArc
 50
90.0
 51
180.0
  0
LINE
  5
18E
100
AcDbEntity
  8
M0
 62
     6
100
AcDbLine
 10
118.190174
 20
349.364772
 11
117.129139
 21
349.364772
  0
LINE
  5
18F
100
AcDbEntity
  8
M0
 62
     6
100
AcDbLine
 10
118.190174
 20
350.864772
 11
117.890125
 21
350.864772
  0
LINE
  5
190
100
AcDbEntity
  8
M0
 62
     6
100
AcDbLine
 10
110.489979
 20
350.864772
 11
110.190174
 21
350.864772
  0
ARC
  5
191
100
AcDbEntity
  8
M0
 62
     6
100
AcDbCircle
 10
110.489979
 20
350.364772
 40
0.5
100
AcDbArc
 50
0.0
 51
90.0
  0
LINE
  5
192
100
AcDbEntity
  8
M0
 62
     6
100
AcDbLine
 10
45.129154
 20
349.365016
 11
46.190189
 21
349.365016
  0
LINE
  5
193
100
AcDbEntity
  8
M0
 62
     6
100
AcDbLine
 10
111.250965
 20
349.364772
 11
110.190174
 21
349.364772
  0
LINE
  5
194
100
AcDbEntity
  8
M0
 62
     6
100
AcDbLine
 10
110.989979
 20
349.864772
 11
117.390125
 21
349.864772
  0
LINE
  5
195
100
AcDbEntity
  8
M0
 62
     6
100
AcDbLine
 10
38.989994
 20
349.865016
 11
45.390141
 21
349.865016
  0
LINE
  5
196
100
AcDbEntity
  8
M0
 62
     7
100
AcDbLine
 10
78.189929
 20
350.864757
 11
76.690188
 21
350.864772
  0
LINE
  5
197
100
AcDbEntity
  8
M0
 62
     7
100
AcDbLine
 10
75.690188
 20
349.864772
 11
75.690188
 21
346.864925
  0
LINE
  5
198
100
AcDbEntity
  8
M0
 62
     7
100
AcDbLine
 10
74.190188
 20
347.564724
 11
75.690188
 21
347.564724
  0
ARC
  5
199
100
AcDbEntity
  8
M0
 62
     7
100
AcDbCircle
 10
76.690188
 20
349.864772
 40
1.0
100
AcDbArc
 50
90.0
 51
180.0
  0
LINE
  5
19A
100
AcDbEntity
  8
M0
100
AcDbLine
 10
39.231205
 20
349.312282
 11
38.415043
 21
346.665219
  0
LINE
  5
19B
100
AcDbEntity
  8
M0
100
AcDbLine
 10
45.148686
 20
349.312282
 11
45.965092
 21
346.665219
  0
LINE
  5
19C
100
AcDbEntity
  8
M0
100
AcDbLine
 10
43.590092
 20
348.46487
 11
45.41016
 21
348.46487
  0
LINE
  5
19D
100
AcDbEntity
  8
M0
100
AcDbLine
 10
44.511723
 20
347.264919
 11
45.780033
 21
347.264919
  0
LINE
  5
19E
100
AcDbEntity
  8
M0
100
AcDbLine
 10
40.790043
 20
348.46487
 11
38.969975
 21
348.46487
  0
LINE
  5
19F
100
AcDbEntity
  8
M0
100
AcDbLine
 10
39.868412
 20
347.264919
 11
38.600102
 21
347.264919
  0
LINE
  5
1A0
100
AcDbEntity
  8
M0
100
AcDbLine
 10
44.670902
 20
349.665065
 11
39.709232
 21
349.664821
  0
LINE
  5
1A1
100
AcDbEntity
  8
M0
100
AcDbLine
 10
43.590092
 20
348.018337
 11
43.590092
 21
348.46487
  0
LINE
  5
1A2
100
AcDbEntity
  8
M0
100
AcDbLine
 10
40.790043
 20
348.018337
 11
40.790043
 21
348.46487
  0
ARC
  5
1A3
100
AcDbEntity
  8
M0
100
AcDbCircle
 10
39.709232
 20
349.164821
 40
0.5
100
AcDbArc
 50
89.998251
 51
162.856158
  0
ARC
  5
1A4
100
AcDbEntity
  8
M0
100
AcDbCircle
 10
44.670902
 20
349.164821
 40
0.5
100
AcDbArc
 50
17.151876
 51
89.998251
  0
LINE
  5
1A5
100
AcDbEntity
  8
M0
100
AcDbLine
 10
43.590092
 20
351.764919
 11
45.41016
 21
351.764919
  0
LINE
  5
1A6
100
AcDbEntity
  8
M0
100
AcDbLine
 10
40.790043
 20
351.764919
 11
38.969975
 21
351.764919
  0
LINE
  5
1A7
100
AcDbEntity
  8
M0
100
AcDbLine
 10
39.709232
 20
350.564967
 11
44.670902
 21
350.564967
  0
LINE
  5
1A8
100
AcDbEntity
  8
M0
100
AcDbLine
 10
43.590092
 20
351.764919
 11
43.590092
 21
352.211696
  0
LINE
  5
1A9
100
AcDbEntity
  8
M0
100
AcDbLine
 10
40.790043
 20
351.764919
 11
40.790043
 21
352.211696
  0
ARC
  5
1AA
100
AcDbEntity
  8
M0
100
AcDbCircle
 10
39.709232
 20
351.064967
 40
0.5
100
AcDbArc
 50
197.117449
 51
270.0
  0
ARC
  5
1AB
100
AcDbEntity
  8
M0
100
AcDbCircle
 10
44.670902
 20
351.064967
 40
0.5
100
AcDbArc
 50
270.0
 51
342.875032
  0
LINE
  5
1AC
100
AcDbEntity
  8
M0
100
AcDbLine
 10
115.590077
 20
351.764674
 11
117.410145
 21
351.764674
  0
LINE
  5
1AD
100
AcDbEntity
  8
M0
100
AcDbLine
 10
112.790028
 20
351.764674
 11
110.969959
 21
351.764674
  0
LINE
  5
1AE
100
AcDbEntity
  8
M0
100
AcDbLine
 10
111.709217
 20
350.564723
 11
116.670887
 21
350.564723
  0
LINE
  5
1AF
100
AcDbEntity
  8
M0
100
AcDbLine
 10
115.590077
 20
351.764674
 11
115.590077
 21
352.211452
  0
LINE
  5
1B0
100
AcDbEntity
  8
M0
100
AcDbLine
 10
112.790028
 20
351.764674
 11
112.790028
 21
352.211452
  0
ARC
  5
1B1
100
AcDbEntity
  8
M0
100
AcDbCircle
 10
111.709217
 20
351.064723
 40
0.5
100
AcDbArc
 50
197.116934
 51
269.998251
  0
ARC
  5
1B2
100
AcDbEntity
  8
M0
100
AcDbCircle
 10
116.670887
 20
351.064723
 40
0.5
100
AcDbArc
 50
269.998251
 51
342.874517
  0
LINE
  5
1B3
100
AcDbEntity
  8
M0
100
AcDbLine
 10
111.23119
 20
349.312038
 11
110.415028
 21
346.664974
  0
LINE
  5
1B4
100
AcDbEntity
  8
M0
100
AcDbLine
 10
117.14867
 20
349.312038
 11
117.965077
 21
346.664974
  0
LINE
  5
1B5
100
AcDbEntity
  8
M0
100
AcDbLine
 10
115.590077
 20
348.464626
 11
117.410145
 21
348.464626
  0
LINE
  5
1B6
100
AcDbEntity
  8
M0
100
AcDbLine
 10
112.790028
 20
348.464626
 11
110.969959
 21
348.464626
  0
LINE
  5
1B7
100
AcDbEntity
  8
M0
100
AcDbLine
 10
116.670887
 20
349.664821
 11
111.709217
 21
349.664577
  0
LINE
  5
1B8
100
AcDbEntity
  8
M0
100
AcDbLine
 10
115.590077
 20
348.018093
 11
115.590077
 21
348.464626
  0
LINE
  5
1B9
100
AcDbEntity
  8
M0
100
AcDbLine
 10
112.790028
 20
348.018093
 11
112.790028
 21
348.464626
  0
ARC
  5
1BA
100
AcDbEntity
  8
M0
100
AcDbCircle
 10
111.709217
 20
349.164577
 40
0.5
100
AcDbArc
 50
90.0
 51
162.856673
  0
ARC
  5
1BB
100
AcDbEntity
  8
M0
100
AcDbCircle
 10
116.670887
 20
349.164577
 40
0.5
100
AcDbArc
 50
17.152392
 51
90.0
  0
LINE
  5
1BC
100
AcDbEntity
  8
M0
  6
DASHDOT
 62
     6
100
AcDbLine
 10
36.120152
 20
345.36517
 11
48.972889
 21
345.36517
  0
LINE
  5
1BD
100
AcDbEntity
  8
M0
 62
     6
100
AcDbLine
 10
39.931889
 20
340.565151
 11
44.448246
 21
340.565151
  0
LINE
  5
1BE
100
AcDbEntity
  8
M0
 62
     6
100
AcDbLine
 10
38.974857
 20
341.275112
 11
38.190189
 21
343.86517
  0
LINE
  5
1BF
100
AcDbEntity
  8
M0
 62
     6
100
AcDbLine
 10
45.405277
 20
341.275112
 11
46.190189
 21
343.86517
  0
ARC
  5
1C0
100
AcDbEntity
  8
M0
 62
     6
100
AcDbCircle
 10
39.931889
 20
341.565151
 40
1.0
100
AcDbArc
 50
196.859961
 51
270.0
  0
ARC
  5
1C1
100
AcDbEntity
  8
M0
 62
     6
100
AcDbCircle
 10
44.448246
 20
341.565151
 40
1.0
100
AcDbArc
 50
270.0
 51
343.14024
  0
LINE
  5
1C2
100
AcDbEntity
  8
M0
  6
DASHDOT
 62
     6
100
AcDbLine
 10
120.034596
 20
345.364926
 11
108.6899
 21
345.364926
  0
LINE
  5
1C3
100
AcDbEntity
  8
M0
 62
     6
100
AcDbLine
 10
116.448231
 20
340.564907
 11
111.931873
 21
340.564907
  0
LINE
  5
1C4
100
AcDbEntity
  8
M0
 62
     6
100
AcDbLine
 10
117.405262
 20
341.274868
 11
118.190174
 21
343.864926
  0
LINE
  5
1C5
100
AcDbEntity
  8
M0
 62
     6
100
AcDbLine
 10
110.974842
 20
341.274868
 11
110.190174
 21
343.864926
  0
ARC
  5
1C6
100
AcDbEntity
  8
M0
 62
     6
100
AcDbCircle
 10
116.448231
 20
341.564907
 40
1.0
100
AcDbArc
 50
269.999126
 51
343.139986
  0
ARC
  5
1C7
100
AcDbEntity
  8
M0
 62
     6
100
AcDbCircle
 10
111.931873
 20
341.564907
 40
1.0
100
AcDbArc
 50
196.859708
 51
269.999126
  0
LINE
  5
1C8
100
AcDbEntity
  8
M0
 62
     7
100
AcDbLine
 10
39.190189
 20
340.564968
 11
45.690189
 21
340.564968
  0
LINE
  5
1C9
100
AcDbEntity
  8
M0
 62
     7
100
AcDbLine
 10
110.690174
 20
340.564968
 11
117.190174
 21
340.564968
  0
ARC
  5
1CA
100
AcDbEntity
  8
M0
 62
     7
100
AcDbCircle
 10
45.690189
 20
341.064968
 40
0.5
100
AcDbArc
 50
270.0
 51
360.0
  0
ARC
  5
1CB
100
AcDbEntity
  8
M0
 62
     7
100
AcDbCircle
 10
117.190174
 20
340.064968
 40
0.5
100
AcDbArc
 50
0.0
 51
90.0
  0
ARC
  5
1CC
100
AcDbEntity
  8
M0
 62
     7
100
AcDbCircle
 10
39.190189
 20
340.064968
 40
0.5
100
AcDbArc
 50
89.998251
 51
179.999891
  0
ARC
  5
1CD
100
AcDbEntity
  8
M0
 62
     7
100
AcDbCircle
 10
110.690174
 20
341.064968
 40
0.5
100
AcDbArc
 50
179.999891
 51
269.998251
  0
LINE
  5
1CE
100
AcDbEntity
  8
M0
 62
     7
100
AcDbLine
 10
69.890141
 20
345.16473
 11
74.190188
 21
345.16473
  0
ARC
  5
1CF
100
AcDbEntity
  8
M0
 62
     7
100
AcDbCircle
 10
69.890141
 20
342.16473
 40
3.0
100
AcDbArc
 50
90.0
 51
179.999964
  0
LINE
  5
1D0
100
AcDbEntity
  8
M0
100
AcDbLine
 10
39.231205
 20
341.417919
 11
38.415043
 21
344.065121
  0
LINE
  5
1D1
100
AcDbEntity
  8
M0
100
AcDbLine
 10
45.148686
 20
341.417904
 11
45.965092
 21
344.065121
  0
LINE
  5
1D2
100
AcDbEntity
  8
M0
100
AcDbLine
 10
44.511723
 20
343.465023
 11
45.780033
 21
343.465023
  0
LINE
  5
1D3
100
AcDbEntity
  8
M0
100
AcDbLine
 10
43.590092
 20
342.265072
 11
45.41016
 21
342.265072
  0
LINE
  5
1D4
100
AcDbEntity
  8
M0
100
AcDbLine
 10
39.868412
 20
343.465023
 11
38.600102
 21
343.465023
  0
LINE
  5
1D5
100
AcDbEntity
  8
M0
100
AcDbLine
 10
40.790043
 20
342.265072
 11
38.969975
 21
342.265072
  0
LINE
  5
1D6
100
AcDbEntity
  8
M0
100
AcDbLine
 10
39.709232
 20
341.065243
 11
44.670902
 21
341.065243
  0
LINE
  5
1D7
100
AcDbEntity
  8
M0
100
AcDbLine
 10
45.965092
 20
344.065121
 11
45.965092
 21
346.665219
  0
LINE
  5
1D8
100
AcDbEntity
  8
M0
100
AcDbLine
 10
38.415043
 20
346.665219
 11
38.415043
 21
344.065121
  0
LINE
  5
1D9
100
AcDbEntity
  8
M0
100
AcDbLine
 10
43.590092
 20
342.265072
 11
43.590092
 21
342.711849
  0
LINE
  5
1DA
100
AcDbEntity
  8
M0
100
AcDbLine
 10
40.790043
 20
342.265072
 11
40.790043
 21
342.711849
  0
LINE
  5
1DB
100
AcDbEntity
  8
M0
100
AcDbLine
 10
43.780766
 20
343.774349
 11
40.599125
 21
346.95599
  0
LINE
  5
1DC
100
AcDbEntity
  8
M0
100
AcDbLine
 10
42.543461
 20
346.779232
 11
40.775883
 21
345.011654
  0
LINE
  5
1DD
100
AcDbEntity
  8
M0
100
AcDbLine
 10
43.604008
 20
345.718685
 11
41.83643
 21
343.951107
  0
ARC
  5
1DE
100
AcDbEntity
  8
M0
100
AcDbCircle
 10
39.709232
 20
341.565243
 40
0.5
100
AcDbArc
 50
197.129027
 51
270.0
  0
ARC
  5
1DF
100
AcDbEntity
  8
M0
100
AcDbCircle
 10
44.670902
 20
341.565243
 40
0.5
100
AcDbArc
 50
270.0
 51
342.861372
  0
LINE
  5
1E0
100
AcDbEntity
  8
M0
100
AcDbLine
 10
111.23119
 20
341.417675
 11
110.415028
 21
344.064877
  0
LINE
  5
1E1
100
AcDbEntity
  8
M0
100
AcDbLine
 10
117.14867
 20
341.41766
 11
117.965077
 21
344.064877
  0
LINE
  5
1E2
100
AcDbEntity
  8
M0
100
AcDbLine
 10
116.511707
 20
343.464779
 11
117.780018
 21
343.464779
  0
LINE
  5
1E3
100
AcDbEntity
  8
M0
100
AcDbLine
 10
115.590077
 20
342.264828
 11
117.410145
 21
342.264828
  0
LINE
  5
1E4
100
AcDbEntity
  8
M0
100
AcDbLine
 10
111.868397
 20
343.464779
 11
110.600086
 21
343.464779
  0
LINE
  5
1E5
100
AcDbEntity
  8
M0
100
AcDbLine
 10
112.790028
 20
342.264828
 11
110.969959
 21
342.264828
  0
LINE
  5
1E6
100
AcDbEntity
  8
M0
100
AcDbLine
 10
111.709217
 20
341.064999
 11
116.670887
 21
341.064999
  0
LINE
  5
1E7
100
AcDbEntity
  8
M0
100
AcDbLine
 10
117.965077
 20
344.064877
 11
117.965077
 21
346.664974
  0
LINE
  5
1E8
100
AcDbEntity
  8
M0
100
AcDbLine
 10
110.415028
 20
346.664974
 11
110.415028
 21
344.064877
  0
LINE
  5
1E9
100
AcDbEntity
  8
M0
100
AcDbLine
 10
115.590077
 20
342.264828
 11
115.590077
 21
342.711605
  0
LINE
  5
1EA
100
AcDbEntity
  8
M0
100
AcDbLine
 10
112.790028
 20
342.264828
 11
112.790028
 21
342.711605
  0
LINE
  5
1EB
100
AcDbEntity
  8
M0
100
AcDbLine
 10
115.78075
 20
343.774105
 11
112.59911
 21
346.955746
  0
LINE
  5
1EC
100
AcDbEntity
  8
M0
100
AcDbLine
 10
114.543446
 20
346.778988
 11
112.775868
 21
345.01141
  0
LINE
  5
1ED
100
AcDbEntity
  8
M0
100
AcDbLine
 10
115.603993
 20
345.718441
 11
113.836414
 21
343.950863
  0
ARC
  5
1EE
100
AcDbEntity
  8
M0
100
AcDbCircle
 10
111.709217
 20
341.564999
 40
0.5
100
AcDbArc
 50
197.128512
 51
269.998251
  0
ARC
  5
1EF
100
AcDbEntity
  8
M0
100
AcDbCircle
 10
116.670887
 20
341.564999
 40
0.5
100
AcDbArc
 50
269.998251
 51
342.860857
  0
LINE
  5
1F0
100
AcDbEntity
  8
M0
100
AcDbLine
 10
75.190188
 20
339.514874
 11
78.189929
 21
339.514874
  0
LINE
  5
1F1
100
AcDbEntity
  8
M0
 62
     7
100
AcDbLine
 10
74.190188
 20
347.564724
 11
74.190188
 21
345.16473
  0
CIRCLE
  5
1F2
100
AcDbEntity
  8
M0
100
AcDbCircle
 10
42.190189
 20
345.36517
 40
3.0
  0
CIRCLE
  5
1F3
100
AcDbEntity
  8
M0
100
AcDbCircle
 10
114.190174
 20
345.364926
 40
3.0
  0
LINE
  5
1F4
100
AcDbEntity
  8
M0
 62
     6
100
AcDbLine
 10
38.190189
 20
360.365016
 11
46.190189
 21
360.365016
  0
LINE
  5
1F5
100
AcDbEntity
  8
M0
 62
     6
100
AcDbLine
 10
38.190189
 20
358.865016
 11
39.25098
 21
358.865016
  0
LINE
  5
1F6
100
AcDbEntity
  8
M0
 62
     6
100
AcDbLine
 10
34.690189
 20
352.865016
 11
37.690189
 21
352.865016
  0
ARC
  5
1F7
100
AcDbEntity
  8
M0
 62
     6
100
AcDbCircle
 10
34.690189
 20
352.365016
 40
0.5
100
AcDbArc
 50
89.998251
 51
180.0
  0
LINE
  5
1F8
100
AcDbEntity
  8
M0
  6
DASHDOT
 62
     6
100
AcDbLine
 10
35.866352
 20
354.865016
 11
48.302143
 21
354.865016
  0
LINE
  5
1F9
100
AcDbEntity
  8
M0
 62
     6
100
AcDbLine
 10
38.190189
 20
353.865016
 11
38.690189
 21
352.365016
  0
LINE
  5
1FA
100
AcDbEntity
  8
M0
 62
     6
100
AcDbLine
 10
46.190189
 20
353.865016
 11
45.690189
 21
352.365016
  0
ARC
  5
1FB
100
AcDbEntity
  8
M0
 62
     6
100
AcDbCircle
 10
37.690189
 20
352.365016
 40
0.5
100
AcDbArc
 50
0.0
 51
89.998251
  0
LINE
  5
1FC
100
AcDbEntity
  8
M0
 62
     6
100
AcDbLine
 10
122.190174
 20
361.364772
 11
110.190174
 21
361.364772
  0
LINE
  5
1FD
100
AcDbEntity
  8
M0
 62
     6
100
AcDbLine
 10
118.190174
 20
360.364772
 11
110.190174
 21
360.364772
  0
LINE
  5
1FE
100
AcDbEntity
  8
M0
 62
     6
100
AcDbLine
 10
118.190174
 20
358.864772
 11
117.129139
 21
358.864772
  0
LINE
  5
1FF
100
AcDbEntity
  8
M0
 62
     6
100
AcDbLine
 10
122.190174
 20
361.364772
 11
118.190174
 21
361.364772
  0
LINE
  5
200
100
AcDbEntity
  8
M0
 62
     6
100
AcDbLine
 10
121.690174
 20
352.864772
 11
118.690174
 21
352.864772
  0
ARC
  5
201
100
AcDbEntity
  8
M0
 62
     6
100
AcDbCircle
 10
121.690174
 20
352.364772
 40
0.5
100
AcDbArc
 50
0.0
 51
90.0
  0
LINE
  5
202
100
AcDbEntity
  8
M0
  6
DASHDOT
 62
     6
100
AcDbLine
 10
120.632816
 20
354.864772
 11
108.6899
 21
354.864772
  0
ARC
  5
203
100
AcDbEntity
  8
M0
 62
     6
100
AcDbCircle
 10
118.690174
 20
360.864772
 40
0.5
100
AcDbArc
 50
90.0
 51
180.0
  0
LINE
  5
204
100
AcDbEntity
  8
M0
 62
     6
100
AcDbLine
 10
118.190174
 20
353.864772
 11
117.690174
 21
352.364772
  0
LINE
  5
205
100
AcDbEntity
  8
M0
 62
     6
100
AcDbLine
 10
110.190174
 20
353.864772
 11
110.690174
 21
352.364772
  0
ARC
  5
206
100
AcDbEntity
  8
M0
 62
     6
100
AcDbCircle
 10
118.690174
 20
352.364772
 40
0.5
100
AcDbArc
 50
90.0
 51
180.0
  0
LINE
  5
207
100
AcDbEntity
  8
M0
 62
     6
100
AcDbLine
 10
45.129154
 20
358.865016
 11
46.190189
 21
358.865016
  0
LINE
  5
208
100
AcDbEntity
  8
M0
 62
     6
100
AcDbLine
 10
111.250965
 20
358.864772
 11
110.190174
 21
358.864772
  0
CIRCLE
  5
209
100
AcDbEntity
  8
M0
100
AcDbCircle
 10
42.190189
 20
354.865016
 40
3.0
  0
LINE
  5
20A
100
AcDbEntity
  8
M0
100
AcDbLine
 10
39.231205
 20
358.812282
 11
38.415043
 21
356.165065
  0
LINE
  5
20B
100
AcDbEntity
  8
M0
100
AcDbLine
 10
39.231205
 20
350.917751
 11
38.415043
 21
353.564967
  0
LINE
  5
20C
100
AcDbEntity
  8
M0
100
AcDbLine
 10
45.148686
 20
358.812282
 11
45.965092
 21
356.165065
  0
LINE
  5
20D
100
AcDbEntity
  8
M0
100
AcDbLine
 10
45.148686
 20
350.917751
 11
45.965092
 21
353.564967
  0
LINE
  5
20E
100
AcDbEntity
  8
M0
100
AcDbLine
 10
43.590092
 20
357.96487
 11
45.41016
 21
357.96487
  0
LINE
  5
20F
100
AcDbEntity
  8
M0
100
AcDbLine
 10
44.511723
 20
356.764919
 11
45.780033
 21
356.764919
  0
LINE
  5
210
100
AcDbEntity
  8
M0
100
AcDbLine
 10
44.511723
 20
352.96487
 11
45.780033
 21
352.96487
  0
LINE
  5
211
100
AcDbEntity
  8
M0
100
AcDbLine
 10
40.790043
 20
357.96487
 11
38.969975
 21
357.96487
  0
LINE
  5
212
100
AcDbEntity
  8
M0
100
AcDbLine
 10
39.868412
 20
356.764919
 11
38.600102
 21
356.764919
  0
LINE
  5
213
100
AcDbEntity
  8
M0
100
AcDbLine
 10
39.868412
 20
352.96487
 11
38.600102
 21
352.96487
  0
LINE
  5
214
100
AcDbEntity
  8
M0
100
AcDbLine
 10
45.965092
 20
353.564967
 11
45.965092
 21
356.165065
  0
LINE
  5
215
100
AcDbEntity
  8
M0
100
AcDbLine
 10
44.670902
 20
359.165065
 11
39.709232
 21
359.164821
  0
LINE
  5
216
100
AcDbEntity
  8
M0
100
AcDbLine
 10
38.415043
 20
356.165065
 11
38.415043
 21
353.564967
  0
LINE
  5
217
100
AcDbEntity
  8
M0
100
AcDbLine
 10
43.590092
 20
357.518337
 11
43.590092
 21
357.96487
  0
LINE
  5
218
100
AcDbEntity
  8
M0
100
AcDbLine
 10
40.790043
 20
357.518337
 11
40.790043
 21
357.96487
  0
LINE
  5
219
100
AcDbEntity
  8
M0
100
AcDbLine
 10
43.780766
 20
353.274196
 11
40.599125
 21
356.455837
  0
LINE
  5
21A
100
AcDbEntity
  8
M0
100
AcDbLine
 10
42.543461
 20
356.279079
 11
40.775883
 21
354.511501
  0
LINE
  5
21B
100
AcDbEntity
  8
M0
100
AcDbLine
 10
43.604008
 20
355.218532
 11
41.83643
 21
353.450954
  0
ARC
  5
21C
100
AcDbEntity
  8
M0
100
AcDbCircle
 10
39.709232
 20
358.664821
 40
0.5
100
AcDbArc
 50
89.998251
 51
162.856158
  0
ARC
  5
21D
100
AcDbEntity
  8
M0
100
AcDbCircle
 10
44.670902
 20
358.664821
 40
0.5
100
AcDbArc
 50
17.151876
 51
89.998251
  0
CIRCLE
  5
21E
100
AcDbEntity
  8
M0
100
AcDbCircle
 10
114.190174
 20
354.864772
 40
3.0
  0
LINE
  5
21F
100
AcDbEntity
  8
M0
100
AcDbLine
 10
111.23119
 20
358.812038
 11
110.415028
 21
356.164821
  0
LINE
  5
220
100
AcDbEntity
  8
M0
100
AcDbLine
 10
111.23119
 20
350.917506
 11
110.415028
 21
353.564723
  0
LINE
  5
221
100
AcDbEntity
  8
M0
100
AcDbLine
 10
117.14867
 20
358.812038
 11
117.965077
 21
356.164821
  0
LINE
  5
222
100
AcDbEntity
  8
M0
100
AcDbLine
 10
117.14867
 20
350.917506
 11
117.965077
 21
353.564723
  0
LINE
  5
223
100
AcDbEntity
  8
M0
100
AcDbLine
 10
115.590077
 20
357.964626
 11
117.410145
 21
357.964626
  0
LINE
  5
224
100
AcDbEntity
  8
M0
100
AcDbLine
 10
116.511707
 20
356.764674
 11
117.780018
 21
356.764674
  0
LINE
  5
225
100
AcDbEntity
  8
M0
100
AcDbLine
 10
116.511707
 20
352.964626
 11
117.780018
 21
352.964626
  0
LINE
  5
226
100
AcDbEntity
  8
M0
100
AcDbLine
 10
112.790028
 20
357.964626
 11
110.969959
 21
357.964626
  0
LINE
  5
227
100
AcDbEntity
  8
M0
100
AcDbLine
 10
111.868397
 20
356.764674
 11
110.600086
 21
356.764674
  0
LINE
  5
228
100
AcDbEntity
  8
M0
100
AcDbLine
 10
111.868397
 20
352.964626
 11
110.600086
 21
352.964626
  0
LINE
  5
229
100
AcDbEntity
  8
M0
100
AcDbLine
 10
117.965077
 20
353.564723
 11
117.965077
 21
356.164821
  0
LINE
  5
22A
100
AcDbEntity
  8
M0
100
AcDbLine
 10
116.670887
 20
359.164821
 11
111.709217
 21
359.164577
  0
LINE
  5
22B
100
AcDbEntity
  8
M0
100
AcDbLine
 10
110.415028
 20
356.164821
 11
110.415028
 21
353.564723
  0
LINE
  5
22C
100
AcDbEntity
  8
M0
100
AcDbLine
 10
115.590077
 20
357.518092
 11
115.590077
 21
357.964626
  0
LINE
  5
22D
100
AcDbEntity
  8
M0
100
AcDbLine
 10
112.790028
 20
357.518092
 11
112.790028
 21
357.964626
  0
LINE
  5
22E
100
AcDbEntity
  8
M0
100
AcDbLine
 10
115.78075
 20
353.273952
 11
112.59911
 21
356.455592
  0
LINE
  5
22F
100
AcDbEntity
  8
M0
100
AcDbLine
 10
114.543446
 20
356.278835
 11
112.775868
 21
354.511256
  0
LINE
  5
230
100
AcDbEntity
  8
M0
100
AcDbLine
 10
115.603993
 20
355.218288
 11
113.836414
 21
353.45071
  0
ARC
  5
231
100
AcDbEntity
  8
M0
100
AcDbCircle
 10
111.709217
 20
358.664577
 40
0.5
100
AcDbArc
 50
90.0
 51
162.856673
  0
ARC
  5
232
100
AcDbEntity
  8
M0
100
AcDbCircle
 10
116.670887
 20
358.664577
 40
0.5
100
AcDbArc
 50
17.152392
 51
90.0
  0
LINE
  5
233
100
AcDbEntity
  8
M0
 62
     6
100
AcDbLine
 10
34.190189
 20
361.365016
 11
46.190189
 21
361.365016
  0
LINE
  5
234
100
AcDbEntity
  8
M0
 62
     6
100
AcDbLine
 10
36.690189
 20
363.865005
 11
36.690189
 21
361.365016
  0
LINE
  5
235
100
AcDbEntity
  8
M0
 62
     6
100
AcDbLine
 10
34.190189
 20
361.365016
 11
38.190189
 21
361.365016
  0
ARC
  5
236
100
AcDbEntity
  8
M0
 62
     6
100
AcDbCircle
 10
37.690189
 20
360.865016
 40
0.5
100
AcDbArc
 50
0.0
 51
89.998251
  0
LINE
  5
237
100
AcDbEntity
  8
M0
 62
     6
100
AcDbLine
 10
119.690174
 20
363.864761
 11
119.690174
 21
361.364772
  0
LINE
  5
238
100
AcDbEntity
  8
M0
 62
     5
100
AcDbLine
 10
34.189701
 20
361.365016
 11
46.189945
 21
361.365016
  0
LINE
  5
239
100
AcDbEntity
  8
M0
 62
     5
100
AcDbLine
 10
118.18993
 20
361.364528
 11
118.18993
 21
372.865005
  0
LINE
  5
23A
100
AcDbEntity
  8
M0
  6
DASHDOT
100
AcDbLine
 10
42.689701
 20
363.239314
 11
42.689701
 21
371.233856
  0
LINE
  5
23B
100
AcDbEntity
  8
M0
 62
     6
100
AcDbLine
 10
46.190189
 20
341.064663
 11
46.190189
 21
382.865005
  0
LINE
  5
23C
100
AcDbEntity
  8
M0
 62
     6
100
AcDbLine
 10
110.190174
 20
341.064907
 11
110.190174
 21
382.864761
  0
LINE
  5
23D
100
AcDbEntity
  8
M0
 62
     7
100
AcDbLine
 10
46.190189
 20
366.864761
 11
46.190189
 21
341.064968
  0
LINE
  5
23E
100
AcDbEntity
  8
M0
 62
     7
100
AcDbLine
 10
110.190174
 20
341.064968
 11
110.190174
 21
366.864761
  0
LINE
  5
23F
100
AcDbEntity
  8
M0
  6
DASHDOT
100
AcDbLine
 10
44.189701
 20
363.438716
 11
44.189701
 21
371.28807
  0
LINE
  5
240
100
AcDbEntity
  8
M0
100
AcDbLine
 10
42.689701
 20
369.664809
 11
44.189701
 21
369.664809
  0
LINE
  5
241
100
AcDbEntity
  8
M0
100
AcDbLine
 10
42.689701
 20
365.065002
 11
44.189701
 21
365.065002
  0
ARC
  5
242
100
AcDbEntity
  8
M0
100
AcDbCircle
 10
42.689701
 20
367.365005
 40
2.299998
100
AcDbArc
 50
89.99962
 51
270.0
  0
ARC
  5
243
100
AcDbEntity
  8
M0
100
AcDbCircle
 10
44.189701
 20
367.365005
 40
2.299998
100
AcDbArc
 50
270.0
 51
449.99962
  0
ARC
  5
244
100
AcDbEntity
  8
M0
 62
     6
100
AcDbCircle
 10
69.440189
 20
387.365005
 40
0.5
100
AcDbArc
 50
0.0
 51
90.0
  0
ARC
  5
245
100
AcDbEntity
  8
M0
 62
     6
100
AcDbCircle
 10
66.940189
 20
387.365005
 40
0.5
100
AcDbArc
 50
90.0
 51
180.0
  0
LINE
  5
246
100
AcDbEntity
  8
M0
 62
     7
100
AcDbLine
 10
82.189664
 20
346.864927
 11
80.689664
 21
346.864927
  0
LINE
  5
247
100
AcDbEntity
  8
M0
 62
     7
100
AcDbLine
 10
80.689662
 20
349.864773
 11
80.689664
 21
346.864927
  0
LINE
  5
248
100
AcDbEntity
  8
M0
 62
     7
100
AcDbLine
 10
82.189663
 20
347.564726
 11
80.689663
 21
347.564725
  0
ARC
  5
249
100
AcDbEntity
  8
M0
 62
     7
100
AcDbCircle
 10
79.689662
 20
349.864773
 40
1.0
100
AcDbArc
 50
0.0
 51
90.0
  0
LINE
  5
24A
100
AcDbEntity
  8
M0
 62
     7
100
AcDbLine
 10
78.189921
 20
350.864757
 11
79.689661
 21
350.864773
  0
LINE
  5
24B
100
AcDbEntity
  8
M0
 62
     7
100
AcDbLine
 10
86.489704
 20
345.164735
 11
82.189665
 21
345.164732
  0
ARC
  5
24C
100
AcDbEntity
  8
M0
 62
     7
100
AcDbCircle
 10
86.489704
 20
342.164735
 40
3.0
100
AcDbArc
 50
0.0
 51
90.0
  0
LINE
  5
24D
100
AcDbEntity
  8
M0
 62
     7
100
AcDbLine
 10
82.189663
 20
347.564726
 11
82.189665
 21
345.164732
  0
LINE
  5
24E
100
AcDbEntity
  8
M0
100
AcDbLine
 10
81.189668
 20
339.514876
 11
78.189927
 21
339.514874
  0
LINE
  5
24F
100
AcDbEntity
  8
M0
 62
     7
100
AcDbLine
 10
78.189057
 20
367.364517
 11
109.68964
 21
367.364776
  0
LINE
  5
250
100
AcDbEntity
  8
M0
 62
     6
100
AcDbLine
 10
34.19022
 20
331.115447
 11
37.390171
 21
331.115447
  0
LINE
  5
251
100
AcDbEntity
  8
M0
 62
     6
100
AcDbLine
 10
122.190205
 20
331.115691
 11
118.990009
 21
331.115691
  0
LINE
  5
252
100
AcDbEntity
  8
M0
 62
     6
100
AcDbLine
 10
34.69022
 20
316.865447
 11
37.69022
 21
316.865447
  0
LINE
  5
253
100
AcDbEntity
  8
M0
 62
     6
100
AcDbLine
 10
37.390171
 20
331.115447
 11
38.19022
 21
330.165496
  0
ARC
  5
254
100
AcDbEntity
  8
M0
 62
     6
100
AcDbCircle
 10
34.69022
 20
317.365447
 40
0.5
100
AcDbArc
 50
179.998251
 51
270.0
  0
LINE
  5
255
100
AcDbEntity
  8
M0
 62
     6
100
AcDbLine
 10
45.390171
 20
319.365447
 11
45.390171
 21
320.365447
  0
LINE
  5
256
100
AcDbEntity
  8
M0
 62
     6
100
AcDbLine
 10
38.990025
 20
319.365447
 11
38.990025
 21
320.365447
  0
LINE
  5
257
100
AcDbEntity
  8
M0
 62
     6
100
AcDbLine
 10
38.69022
 20
317.365691
 11
38.69022
 21
318.865447
  0
LINE
  5
258
100
AcDbEntity
  8
M0
 62
     6
100
AcDbLine
 10
45.69022
 20
317.365447
 11
45.69022
 21
318.865447
  0
ARC
  5
259
100
AcDbEntity
  8
M0
 62
     6
100
AcDbCircle
 10
38.490025
 20
319.365447
 40
0.5
100
AcDbArc
 50
-90.0
 51
0.0
  0
ARC
  5
25A
100
AcDbEntity
  8
M0
 62
     6
100
AcDbCircle
 10
37.69022
 20
317.365447
 40
0.5
100
AcDbArc
 50
-90.0
 51
0.0
  0
LINE
  5
25B
100
AcDbEntity
  8
M0
  6
DASHDOT
 62
     6
100
AcDbLine
 10
35.793873
 20
324.365447
 11
48.90041
 21
324.365447
  0
LINE
  5
25C
100
AcDbEntity
  8
M0
 62
     6
100
AcDbLine
 10
38.19022
 20
320.365447
 11
39.251011
 21
320.365447
  0
LINE
  5
25D
100
AcDbEntity
  8
M0
 62
     6
100
AcDbLine
 10
39.931919
 20
329.165496
 11
44.448277
 21
329.165496
  0
LINE
  5
25E
100
AcDbEntity
  8
M0
 62
     6
100
AcDbLine
 10
38.974888
 20
328.455535
 11
38.19022
 21
325.865447
  0
LINE
  5
25F
100
AcDbEntity
  8
M0
 62
     6
100
AcDbLine
 10
45.405308
 20
328.455535
 11
46.19022
 21
325.865447
  0
ARC
  5
260
100
AcDbEntity
  8
M0
 62
     6
100
AcDbCircle
 10
39.931919
 20
328.165496
 40
1.0
100
AcDbArc
 50
89.999126
 51
163.139725
  0
ARC
  5
261
100
AcDbEntity
  8
M0
 62
     6
100
AcDbCircle
 10
44.448277
 20
328.165496
 40
1.0
100
AcDbArc
 50
16.860021
 51
89.999126
  0
LINE
  5
262
100
AcDbEntity
  8
M0
 62
     6
100
AcDbLine
 10
38.19022
 20
318.865447
 11
38.490025
 21
318.865447
  0
LINE
  5
263
100
AcDbEntity
  8
M0
 62
     6
100
AcDbLine
 10
45.890171
 20
318.865447
 11
46.19022
 21
318.865447
  0
ARC
  5
264
100
AcDbEntity
  8
M0
 62
     6
100
AcDbCircle
 10
45.890171
 20
319.365447
 40
0.5
100
AcDbArc
 50
179.998251
 51
270.0
  0
LINE
  5
265
100
AcDbEntity
  8
M0
 62
     6
100
AcDbLine
 10
121.690205
 20
316.865691
 11
118.690205
 21
316.865691
  0
LINE
  5
266
100
AcDbEntity
  8
M0
 62
     6
100
AcDbLine
 10
118.990009
 20
331.115691
 11
118.190205
 21
330.16574
  0
ARC
  5
267
100
AcDbEntity
  8
M0
 62
     6
100
AcDbCircle
 10
121.690205
 20
317.365691
 40
0.5
100
AcDbArc
 50
269.998251
 51
360.0
  0
LINE
  5
268
100
AcDbEntity
  8
M0
 62
     6
100
AcDbLine
 10
110.990009
 20
319.365691
 11
110.990009
 21
320.365691
  0
LINE
  5
269
100
AcDbEntity
  8
M0
 62
     6
100
AcDbLine
 10
117.390156
 20
319.365691
 11
117.390156
 21
320.365691
  0
LINE
  5
26A
100
AcDbEntity
  8
M0
 62
     6
100
AcDbLine
 10
117.690205
 20
317.365936
 11
117.690205
 21
318.865691
  0
LINE
  5
26B
100
AcDbEntity
  8
M0
 62
     6
100
AcDbLine
 10
110.690205
 20
317.365691
 11
110.690205
 21
318.865691
  0
ARC
  5
26C
100
AcDbEntity
  8
M0
 62
     6
100
AcDbCircle
 10
117.890156
 20
319.365691
 40
0.5
100
AcDbArc
 50
179.998251
 51
269.998251
  0
ARC
  5
26D
100
AcDbEntity
  8
M0
 62
     6
100
AcDbCircle
 10
118.690205
 20
317.365691
 40
0.5
100
AcDbArc
 50
179.998251
 51
269.998251
  0
LINE
  5
26E
100
AcDbEntity
  8
M0
 62
     6
100
AcDbLine
 10
118.190205
 20
320.365691
 11
117.132343
 21
320.365676
  0
LINE
  5
26F
100
AcDbEntity
  8
M0
 62
     6
100
AcDbLine
 10
116.448261
 20
329.16574
 11
111.931904
 21
329.16574
  0
LINE
  5
270
100
AcDbEntity
  8
M0
 62
     6
100
AcDbLine
 10
117.405293
 20
328.455779
 11
118.190205
 21
325.865691
  0
LINE
  5
271
100
AcDbEntity
  8
M0
 62
     6
100
AcDbLine
 10
110.974873
 20
328.455779
 11
110.190205
 21
325.865691
  0
ARC
  5
272
100
AcDbEntity
  8
M0
 62
     6
100
AcDbCircle
 10
116.448261
 20
328.16574
 40
1.0
100
AcDbArc
 50
16.860275
 51
90.0
  0
ARC
  5
273
100
AcDbEntity
  8
M0
 62
     6
100
AcDbCircle
 10
111.931904
 20
328.16574
 40
1.0
100
AcDbArc
 50
90.0
 51
163.139979
  0
LINE
  5
274
100
AcDbEntity
  8
M0
 62
     6
100
AcDbLine
 10
118.190205
 20
318.865691
 11
117.890156
 21
318.865691
  0
LINE
  5
275
100
AcDbEntity
  8
M0
 62
     6
100
AcDbLine
 10
110.490009
 20
318.865691
 11
110.190205
 21
318.865691
  0
ARC
  5
276
100
AcDbEntity
  8
M0
 62
     6
100
AcDbCircle
 10
110.490009
 20
319.365691
 40
0.5
100
AcDbArc
 50
269.998251
 51
360.0
  0
LINE
  5
277
100
AcDbEntity
  8
M0
 62
     6
100
AcDbLine
 10
45.129185
 20
320.365447
 11
46.19022
 21
320.365447
  0
LINE
  5
278
100
AcDbEntity
  8
M0
 62
     6
100
AcDbLine
 10
111.247334
 20
320.365676
 11
110.190205
 21
320.365691
  0
LINE
  5
279
100
AcDbEntity
  8
M0
 62
     6
100
AcDbLine
 10
38.990025
 20
319.865447
 11
45.390171
 21
319.865447
  0
LINE
  5
27A
100
AcDbEntity
  8
M0
 62
     6
100
AcDbLine
 10
110.990009
 20
319.865676
 11
117.390156
 21
319.865676
  0
LINE
  5
27B
100
AcDbEntity
  8
M0
 62
     7
100
AcDbLine
 10
117.190205
 20
329.165206
 11
110.690205
 21
329.165191
  0
LINE
  5
27C
100
AcDbEntity
  8
M0
 62
     7
100
AcDbLine
 10
45.69022
 20
329.16516
 11
39.19022
 21
329.16516
  0
ARC
  5
27D
100
AcDbEntity
  8
M0
 62
     7
100
AcDbCircle
 10
110.690205
 20
328.665191
 40
0.5
100
AcDbArc
 50
90.0
 51
179.998251
  0
ARC
  5
27E
100
AcDbEntity
  8
M0
 62
     7
100
AcDbCircle
 10
117.190205
 20
329.665191
 40
0.5
100
AcDbArc
 50
269.998251
 51
360.0
  0
ARC
  5
27F
100
AcDbEntity
  8
M0
 62
     7
100
AcDbCircle
 10
39.19022
 20
329.66516
 40
0.5
100
AcDbArc
 50
179.998251
 51
270.0
  0
ARC
  5
280
100
AcDbEntity
  8
M0
 62
     7
100
AcDbCircle
 10
45.69022
 20
328.66516
 40
0.5
100
AcDbArc
 50
0.0
 51
89.998251
  0
LINE
  5
281
100
AcDbEntity
  8
M0
 62
     7
100
AcDbLine
 10
69.890171
 20
328.865203
 11
70.190219
 21
328.865203
  0
LINE
  5
282
100
AcDbEntity
  8
M0
 62
     7
100
AcDbLine
 10
70.190219
 20
328.865203
 11
70.190219
 21
324.865203
  0
ARC
  5
283
100
AcDbEntity
  8
M0
 62
     7
100
AcDbCircle
 10
69.890171
 20
331.8652
 40
3.0
100
AcDbArc
 50
179.999964
 51
270.0
  0
LINE
  5
284
100
AcDbEntity
  8
M0
100
AcDbLine
 10
39.231236
 20
318.812789
 11
38.415073
 21
316.165496
  0
LINE
  5
285
100
AcDbEntity
  8
M0
100
AcDbLine
 10
45.148716
 20
318.812804
 11
45.965122
 21
316.165496
  0
LINE
  5
286
100
AcDbEntity
  8
M0
100
AcDbLine
 10
43.590122
 20
317.965423
 11
45.410191
 21
317.965423
  0
LINE
  5
287
100
AcDbEntity
  8
M0
100
AcDbLine
 10
44.511753
 20
316.765472
 11
45.780064
 21
316.765472
  0
LINE
  5
288
100
AcDbEntity
  8
M0
100
AcDbLine
 10
40.790073
 20
317.965423
 11
38.970005
 21
317.965423
  0
LINE
  5
289
100
AcDbEntity
  8
M0
100
AcDbLine
 10
39.868443
 20
316.765472
 11
38.600132
 21
316.765472
  0
LINE
  5
28A
100
AcDbEntity
  8
M0
100
AcDbLine
 10
44.670933
 20
319.165496
 11
39.709263
 21
319.165481
  0
LINE
  5
28B
100
AcDbEntity
  8
M0
100
AcDbLine
 10
43.590122
 20
317.518768
 11
43.590122
 21
317.965423
  0
LINE
  5
28C
100
AcDbEntity
  8
M0
100
AcDbLine
 10
40.790073
 20
317.518768
 11
40.790073
 21
317.965423
  0
ARC
  5
28D
100
AcDbEntity
  8
M0
100
AcDbCircle
 10
39.709263
 20
318.665481
 40
0.5
100
AcDbArc
 50
89.998251
 51
162.872331
  0
ARC
  5
28E
100
AcDbEntity
  8
M0
100
AcDbCircle
 10
44.670933
 20
318.665481
 40
0.5
100
AcDbArc
 50
17.137695
 51
89.998251
  0
CIRCLE
  5
28F
100
AcDbEntity
  8
M0
100
AcDbCircle
 10
42.19022
 20
324.365447
 40
3.0
  0
LINE
  5
290
100
AcDbEntity
  8
M0
100
AcDbLine
 10
39.231236
 20
328.312789
 11
38.415073
 21
325.665496
  0
LINE
  5
291
100
AcDbEntity
  8
M0
100
AcDbLine
 10
39.231236
 20
320.418197
 11
38.415073
 21
323.065521
  0
LINE
  5
292
100
AcDbEntity
  8
M0
100
AcDbLine
 10
45.148716
 20
328.312804
 11
45.965122
 21
325.665496
  0
LINE
  5
293
100
AcDbEntity
  8
M0
100
AcDbLine
 10
45.148716
 20
320.418182
 11
45.965122
 21
323.065521
  0
LINE
  5
294
100
AcDbEntity
  8
M0
100
AcDbLine
 10
43.590122
 20
327.465423
 11
45.410191
 21
327.465423
  0
LINE
  5
295
100
AcDbEntity
  8
M0
100
AcDbLine
 10
44.511753
 20
326.265472
 11
45.780064
 21
326.265472
  0
LINE
  5
296
100
AcDbEntity
  8
M0
100
AcDbLine
 10
44.511753
 20
322.465423
 11
45.780064
 21
322.465423
  0
LINE
  5
297
100
AcDbEntity
  8
M0
100
AcDbLine
 10
43.590122
 20
321.265472
 11
45.410191
 21
321.265472
  0
LINE
  5
298
100
AcDbEntity
  8
M0
100
AcDbLine
 10
40.790073
 20
327.465423
 11
38.970005
 21
327.465423
  0
LINE
  5
299
100
AcDbEntity
  8
M0
100
AcDbLine
 10
39.868443
 20
326.265472
 11
38.600132
 21
326.265472
  0
LINE
  5
29A
100
AcDbEntity
  8
M0
100
AcDbLine
 10
39.868443
 20
322.465423
 11
38.600132
 21
322.465423
  0
LINE
  5
29B
100
AcDbEntity
  8
M0
100
AcDbLine
 10
40.790073
 20
321.265472
 11
38.970005
 21
321.265472
  0
LINE
  5
29C
100
AcDbEntity
  8
M0
100
AcDbLine
 10
39.709263
 20
320.065521
 11
44.670933
 21
320.065521
  0
LINE
  5
29D
100
AcDbEntity
  8
M0
100
AcDbLine
 10
45.965122
 20
323.065521
 11
45.965122
 21
325.665496
  0
LINE
  5
29E
100
AcDbEntity
  8
M0
100
AcDbLine
 10
44.670933
 20
328.665496
 11
39.709263
 21
328.665481
  0
LINE
  5
29F
100
AcDbEntity
  8
M0
100
AcDbLine
 10
38.415073
 20
325.665496
 11
38.415073
 21
323.065521
  0
LINE
  5
2A0
100
AcDbEntity
  8
M0
100
AcDbLine
 10
43.590122
 20
321.265472
 11
43.590122
 21
321.712127
  0
LINE
  5
2A1
100
AcDbEntity
  8
M0
100
AcDbLine
 10
43.590122
 20
327.018768
 11
43.590122
 21
327.465423
  0
LINE
  5
2A2
100
AcDbEntity
  8
M0
100
AcDbLine
 10
40.790073
 20
327.018768
 11
40.790073
 21
327.465423
  0
LINE
  5
2A3
100
AcDbEntity
  8
M0
100
AcDbLine
 10
40.790073
 20
321.265472
 11
40.790073
 21
321.712127
  0
LINE
  5
2A4
100
AcDbEntity
  8
M0
100
AcDbLine
 10
43.780796
 20
322.774627
 11
40.599156
 21
325.95639
  0
LINE
  5
2A5
100
AcDbEntity
  8
M0
100
AcDbLine
 10
42.543491
 20
325.779632
 11
40.775913
 21
324.011932
  0
LINE
  5
2A6
100
AcDbEntity
  8
M0
100
AcDbLine
 10
43.604038
 20
324.718963
 11
41.83646
 21
322.951385
  0
ARC
  5
2A7
100
AcDbEntity
  8
M0
100
AcDbCircle
 10
39.709263
 20
328.165481
 40
0.5
100
AcDbArc
 50
89.998251
 51
162.872331
  0
ARC
  5
2A8
100
AcDbEntity
  8
M0
100
AcDbCircle
 10
39.709263
 20
320.565521
 40
0.5
100
AcDbArc
 50
197.127669
 51
270.0
  0
ARC
  5
2A9
100
AcDbEntity
  8
M0
100
AcDbCircle
 10
44.670933
 20
320.565521
 40
0.5
100
AcDbArc
 50
270.0
 51
342.86179
  0
ARC
  5
2AA
100
AcDbEntity
  8
M0
100
AcDbCircle
 10
44.670933
 20
328.165481
 40
0.5
100
AcDbArc
 50
17.137695
 51
89.998251
  0
CIRCLE
  5
2AB
100
AcDbEntity
  8
M0
100
AcDbCircle
 10
114.190205
 20
324.365707
 40
3.0
  0
LINE
  5
2AC
100
AcDbEntity
  8
M0
100
AcDbLine
 10
111.23122
 20
328.313049
 11
110.415058
 21
325.665756
  0
LINE
  5
2AD
100
AcDbEntity
  8
M0
100
AcDbLine
 10
111.23122
 20
320.418456
 11
110.415058
 21
323.06578
  0
LINE
  5
2AE
100
AcDbEntity
  8
M0
100
AcDbLine
 10
117.148701
 20
328.313064
 11
117.965107
 21
325.665756
  0
LINE
  5
2AF
100
AcDbEntity
  8
M0
100
AcDbLine
 10
117.148701
 20
320.418441
 11
117.965107
 21
323.06578
  0
LINE
  5
2B0
100
AcDbEntity
  8
M0
100
AcDbLine
 10
115.590107
 20
327.465682
 11
117.410175
 21
327.465682
  0
LINE
  5
2B1
100
AcDbEntity
  8
M0
100
AcDbLine
 10
116.511738
 20
326.265731
 11
117.780048
 21
326.265731
  0
LINE
  5
2B2
100
AcDbEntity
  8
M0
100
AcDbLine
 10
116.511738
 20
322.465682
 11
117.780048
 21
322.465682
  0
LINE
  5
2B3
100
AcDbEntity
  8
M0
100
AcDbLine
 10
115.590107
 20
321.265731
 11
117.410175
 21
321.265731
  0
LINE
  5
2B4
100
AcDbEntity
  8
M0
100
AcDbLine
 10
112.790058
 20
327.465682
 11
110.96999
 21
327.465682
  0
LINE
  5
2B5
100
AcDbEntity
  8
M0
100
AcDbLine
 10
111.868427
 20
326.265731
 11
110.600117
 21
326.265731
  0
LINE
  5
2B6
100
AcDbEntity
  8
M0
100
AcDbLine
 10
111.868427
 20
322.465682
 11
110.600117
 21
322.465682
  0
LINE
  5
2B7
100
AcDbEntity
  8
M0
100
AcDbLine
 10
112.790058
 20
321.265731
 11
110.96999
 21
321.265731
  0
LINE
  5
2B8
100
AcDbEntity
  8
M0
100
AcDbLine
 10
111.709248
 20
320.06578
 11
116.670918
 21
320.06578
  0
LINE
  5
2B9
100
AcDbEntity
  8
M0
100
AcDbLine
 10
117.965107
 20
323.06578
 11
117.965107
 21
325.665756
  0
LINE
  5
2BA
100
AcDbEntity
  8
M0
100
AcDbLine
 10
116.670918
 20
328.665756
 11
111.709248
 21
328.66574
  0
LINE
  5
2BB
100
AcDbEntity
  8
M0
100
AcDbLine
 10
110.415058
 20
325.665756
 11
110.415058
 21
323.06578
  0
LINE
  5
2BC
100
AcDbEntity
  8
M0
100
AcDbLine
 10
115.590107
 20
321.265731
 11
115.590107
 21
321.712386
  0
LINE
  5
2BD
100
AcDbEntity
  8
M0
100
AcDbLine
 10
115.590107
 20
327.019027
 11
115.590107
 21
327.465682
  0
LINE
  5
2BE
100
AcDbEntity
  8
M0
100
AcDbLine
 10
112.790058
 20
327.019027
 11
112.790058
 21
327.465682
  0
LINE
  5
2BF
100
AcDbEntity
  8
M0
100
AcDbLine
 10
112.790058
 20
321.265731
 11
112.790058
 21
321.712386
  0
LINE
  5
2C0
100
AcDbEntity
  8
M0
100
AcDbLine
 10
115.780781
 20
322.774886
 11
112.59914
 21
325.956649
  0
LINE
  5
2C1
100
AcDbEntity
  8
M0
100
AcDbLine
 10
114.543476
 20
325.779891
 11
112.775898
 21
324.012191
  0
LINE
  5
2C2
100
AcDbEntity
  8
M0
100
AcDbLine
 10
115.604023
 20
324.719222
 11
113.836445
 21
322.951644
  0
ARC
  5
2C3
100
AcDbEntity
  8
M0
100
AcDbCircle
 10
111.709248
 20
328.16574
 40
0.5
100
AcDbArc
 50
90.0
 51
162.872846
  0
ARC
  5
2C4
100
AcDbEntity
  8
M0
100
AcDbCircle
 10
111.709248
 20
320.56578
 40
0.5
100
AcDbArc
 50
197.127154
 51
269.998251
  0
ARC
  5
2C5
100
AcDbEntity
  8
M0
100
AcDbCircle
 10
116.670918
 20
320.56578
 40
0.5
100
AcDbArc
 50
269.998251
 51
342.861275
  0
ARC
  5
2C6
100
AcDbEntity
  8
M0
100
AcDbCircle
 10
116.670918
 20
328.16574
 40
0.5
100
AcDbArc
 50
17.13821
 51
90.0
  0
LINE
  5
2C7
100
AcDbEntity
  8
M0
100
AcDbLine
 10
111.23122
 20
318.813064
 11
110.415058
 21
316.165771
  0
LINE
  5
2C8
100
AcDbEntity
  8
M0
100
AcDbLine
 10
117.148701
 20
318.813079
 11
117.965107
 21
316.165771
  0
LINE
  5
2C9
100
AcDbEntity
  8
M0
100
AcDbLine
 10
115.590107
 20
317.965698
 11
117.410175
 21
317.965698
  0
LINE
  5
2CA
100
AcDbEntity
  8
M0
100
AcDbLine
 10
116.511738
 20
316.765746
 11
117.780048
 21
316.765746
  0
LINE
  5
2CB
100
AcDbEntity
  8
M0
100
AcDbLine
 10
112.790058
 20
317.965698
 11
110.96999
 21
317.965698
  0
LINE
  5
2CC
100
AcDbEntity
  8
M0
100
AcDbLine
 10
111.868427
 20
316.765746
 11
110.600117
 21
316.765746
  0
LINE
  5
2CD
100
AcDbEntity
  8
M0
100
AcDbLine
 10
116.670918
 20
319.165771
 11
111.709248
 21
319.165756
  0
LINE
  5
2CE
100
AcDbEntity
  8
M0
100
AcDbLine
 10
115.590107
 20
317.519042
 11
115.590107
 21
317.965698
  0
LINE
  5
2CF
100
AcDbEntity
  8
M0
100
AcDbLine
 10
112.790058
 20
317.519042
 11
112.790058
 21
317.965698
  0
ARC
  5
2D0
100
AcDbEntity
  8
M0
100
AcDbCircle
 10
111.709248
 20
318.665756
 40
0.5
100
AcDbArc
 50
90.0
 51
162.872846
  0
ARC
  5
2D1
100
AcDbEntity
  8
M0
100
AcDbCircle
 10
116.670918
 20
318.665756
 40
0.5
100
AcDbArc
 50
17.13821
 51
90.0
  0
LINE
  5
2D2
100
AcDbEntity
  8
M0
 62
     5
100
AcDbLine
 10
110.239765
 20
289.65042
 11
119.189961
 21
295.803555
  0
LINE
  5
2D3
100
AcDbEntity
  8
M0
 62
     6
100
AcDbLine
 10
34.69022
 20
305.365447
 11
36.19022
 21
305.365447
  0
LINE
  5
2D4
100
AcDbEntity
  8
M0
 62
     6
100
AcDbLine
 10
34.19022
 20
308.365447
 11
46.19022
 21
308.365447
  0
LINE
  5
2D5
100
AcDbEntity
  8
M0
 62
     6
100
AcDbLine
 10
38.19022
 20
309.365447
 11
46.19022
 21
309.365447
  0
LINE
  5
2D6
100
AcDbEntity
  8
M0
 62
     6
100
AcDbLine
 10
38.19022
 20
310.865447
 11
39.247593
 21
310.865447
  0
LINE
  5
2D7
100
AcDbEntity
  8
M0
 62
     6
100
AcDbLine
 10
36.69022
 20
305.865447
 11
36.69022
 21
308.365447
  0
ARC
  5
2D8
100
AcDbEntity
  8
M0
 62
     6
100
AcDbCircle
 10
36.19022
 20
305.865447
 40
0.5
100
AcDbArc
 50
-90.0
 51
0.0
  0
ARC
  5
2D9
100
AcDbEntity
  8
M0
 62
     6
100
AcDbCircle
 10
34.69022
 20
305.865447
 40
0.5
100
AcDbArc
 50
179.998251
 51
270.0
  0
LINE
  5
2DA
100
AcDbEntity
  8
M0
 62
     6
100
AcDbLine
 10
34.19022
 20
308.365447
 11
38.19022
 21
308.365447
  0
ARC
  5
2DB
100
AcDbEntity
  8
M0
 62
     6
100
AcDbCircle
 10
37.69022
 20
308.865447
 40
0.5
100
AcDbArc
 50
-90.0
 51
0.0
  0
LINE
  5
2DC
100
AcDbEntity
  8
M0
 62
     6
100
AcDbLine
 10
121.690205
 20
305.365691
 11
120.190205
 21
305.365691
  0
LINE
  5
2DD
100
AcDbEntity
  8
M0
 62
     6
100
AcDbLine
 10
118.690205
 20
308.365676
 11
110.190205
 21
308.365691
  0
LINE
  5
2DE
100
AcDbEntity
  8
M0
 62
     6
100
AcDbLine
 10
118.190205
 20
309.365691
 11
110.190205
 21
309.365691
  0
LINE
  5
2DF
100
AcDbEntity
  8
M0
 62
     6
100
AcDbLine
 10
118.190205
 20
310.865691
 11
117.132343
 21
310.865676
  0
LINE
  5
2E0
100
AcDbEntity
  8
M0
 62
     6
100
AcDbLine
 10
119.690205
 20
305.865691
 11
119.690205
 21
308.365691
  0
ARC
  5
2E1
100
AcDbEntity
  8
M0
 62
     6
100
AcDbCircle
 10
120.190205
 20
305.865691
 40
0.5
100
AcDbArc
 50
179.998251
 51
269.998251
  0
ARC
  5
2E2
100
AcDbEntity
  8
M0
 62
     6
100
AcDbCircle
 10
121.690205
 20
305.865691
 40
0.5
100
AcDbArc
 50
269.998251
 51
360.0
  0
LINE
  5
2E3
100
AcDbEntity
  8
M0
 62
     6
100
AcDbLine
 10
122.190205
 20
308.365691
 11
118.190205
 21
308.365691
  0
ARC
  5
2E4
100
AcDbEntity
  8
M0
 62
     6
100
AcDbCircle
 10
118.690205
 20
308.865691
 40
0.5
100
AcDbArc
 50
179.998251
 51
269.998251
  0
LINE
  5
2E5
100
AcDbEntity
  8
M0
 62
     6
100
AcDbLine
 10
45.132603
 20
310.865447
 11
46.19022
 21
310.865447
  0
LINE
  5
2E6
100
AcDbEntity
  8
M0
 62
     6
100
AcDbLine
 10
111.247334
 20
310.865676
 11
110.190205
 21
310.865691
  0
ARC
  5
2E7
100
AcDbEntity
  8
M0
 62
     7
100
AcDbCircle
 10
70.690219
 20
301.365249
 40
0.5
100
AcDbArc
 50
179.998251
 51
270.0
  0
LINE
  5
2E8
100
AcDbEntity
  8
M0
 62
     7
100
AcDbLine
 10
72.690219
 20
300.865234
 11
70.690219
 21
300.865234
  0
LINE
  5
2E9
100
AcDbEntity
  8
M0
 62
     7
100
AcDbLine
 10
46.69022
 20
302.365218
 11
78.190814
 21
302.365218
  0
ARC
  5
2EA
100
AcDbEntity
  8
M0
 62
     7
100
AcDbCircle
 10
46.69022
 20
302.865218
 40
0.5
100
AcDbArc
 50
179.998251
 51
270.0
  0
ARC
  5
2EB
100
AcDbEntity
  8
M0
 62
     7
100
AcDbCircle
 10
109.690205
 20
302.865218
 40
0.5
100
AcDbArc
 50
269.998251
 51
360.0
  0
LINE
  5
2EC
100
AcDbEntity
  8
M0
 62
     7
100
AcDbLine
 10
70.190219
 20
301.365249
 11
70.190219
 21
302.365234
  0
ARC
  5
2ED
100
AcDbEntity
  8
M0
 62
     7
100
AcDbCircle
 10
72.690219
 20
301.365249
 40
0.5
100
AcDbArc
 50
-90.0
 51
0.0
  0
LINE
  5
2EE
100
AcDbEntity
  8
M0
 62
     7
100
AcDbLine
 10
73.190219
 20
301.365249
 11
73.190219
 21
302.365234
  0
LINE
  5
2EF
100
AcDbEntity
  8
M0
100
AcDbLine
 10
43.590122
 20
311.765472
 11
45.410191
 21
311.765472
  0
LINE
  5
2F0
100
AcDbEntity
  8
M0
100
AcDbLine
 10
40.790073
 20
311.765472
 11
38.970005
 21
311.765472
  0
LINE
  5
2F1
100
AcDbEntity
  8
M0
100
AcDbLine
 10
39.709263
 20
310.565521
 11
44.670933
 21
310.565521
  0
LINE
  5
2F2
100
AcDbEntity
  8
M0
100
AcDbLine
 10
43.590122
 20
311.765472
 11
43.590122
 21
312.212127
  0
LINE
  5
2F3
100
AcDbEntity
  8
M0
100
AcDbLine
 10
40.790073
 20
311.765472
 11
40.790073
 21
312.212127
  0
ARC
  5
2F4
100
AcDbEntity
  8
M0
100
AcDbCircle
 10
39.709263
 20
311.065521
 40
0.5
100
AcDbArc
 50
197.127669
 51
270.0
  0
ARC
  5
2F5
100
AcDbEntity
  8
M0
100
AcDbCircle
 10
44.670933
 20
311.065521
 40
0.5
100
AcDbArc
 50
270.0
 51
342.86179
  0
LINE
  5
2F6
100
AcDbEntity
  8
M0
100
AcDbLine
 10
115.590107
 20
311.765746
 11
117.410175
 21
311.765746
  0
LINE
  5
2F7
100
AcDbEntity
  8
M0
100
AcDbLine
 10
112.790058
 20
311.765746
 11
110.96999
 21
311.765746
  0
LINE
  5
2F8
100
AcDbEntity
  8
M0
100
AcDbLine
 10
111.709248
 20
310.565795
 11
116.670918
 21
310.565795
  0
LINE
  5
2F9
100
AcDbEntity
  8
M0
100
AcDbLine
 10
115.590107
 20
311.765746
 11
115.590107
 21
312.212402
  0
LINE
  5
2FA
100
AcDbEntity
  8
M0
100
AcDbLine
 10
112.790058
 20
311.765746
 11
112.790058
 21
312.212402
  0
ARC
  5
2FB
100
AcDbEntity
  8
M0
100
AcDbCircle
 10
111.709248
 20
311.065795
 40
0.5
100
AcDbArc
 50
197.127154
 51
269.998251
  0
ARC
  5
2FC
100
AcDbEntity
  8
M0
100
AcDbCircle
 10
116.670918
 20
311.065795
 40
0.5
100
AcDbArc
 50
269.998251
 51
342.861275
  0
LINE
  5
2FD
100
AcDbEntity
  8
M0
 62
     5
100
AcDbLine
 10
119.189961
 20
307.365478
 11
119.189961
 21
295.803555
  0
ARC
  5
2FE
100
AcDbEntity
  8
M0
 62
     5
100
AcDbCircle
 10
116.189961
 20
297.381759
 40
3.0
100
AcDbArc
 50
304.507247
 51
360.0
  0
LINE
  5
2FF
100
AcDbEntity
  8
M0
 62
     5
100
AcDbLine
 10
122.189961
 20
308.365478
 11
110.189961
 21
308.365478
  0
LINE
  5
300
100
AcDbEntity
  8
M0
 62
     5
100
AcDbLine
 10
119.689961
 20
307.365463
 11
119.189961
 21
307.365478
  0
ARC
  5
301
100
AcDbEntity
  8
M0
 62
     5
100
AcDbCircle
 10
34.689732
 20
297.365478
 40
0.5
100
AcDbArc
 50
179.998251
 51
270.0
  0
LINE
  5
302
100
AcDbEntity
  8
M0
 62
     5
100
AcDbLine
 10
38.189976
 20
296.865478
 11
38.189976
 21
308.365447
  0
LINE
  5
303
100
AcDbEntity
  8
M0
 62
     5
100
AcDbLine
 10
34.689732
 20
296.865478
 11
38.189976
 21
296.865478
  0
LINE
  5
304
100
AcDbEntity
  8
M0
 62
     5
100
AcDbLine
 10
38.189976
 20
307.865478
 11
46.19022
 21
307.865478
  0
LINE
  5
305
100
AcDbEntity
  8
M0
 62
     5
100
AcDbLine
 10
38.189976
 20
298.365478
 11
46.19022
 21
298.365478
  0
CIRCLE
  5
306
100
AcDbEntity
  8
M0
100
AcDbCircle
 10
42.189976
 20
302.865463
 40
3.0
  0
LINE
  5
307
100
AcDbEntity
  8
M0
100
AcDbLine
 10
39.230991
 20
306.812804
 11
38.414829
 21
304.165511
  0
LINE
  5
308
100
AcDbEntity
  8
M0
100
AcDbLine
 10
39.230991
 20
298.918212
 11
38.414829
 21
301.565536
  0
LINE
  5
309
100
AcDbEntity
  8
M0
100
AcDbLine
 10
45.148472
 20
306.81282
 11
45.964878
 21
304.165511
  0
LINE
  5
30A
100
AcDbEntity
  8
M0
100
AcDbLine
 10
45.148472
 20
298.918197
 11
45.964878
 21
301.565536
  0
LINE
  5
30B
100
AcDbEntity
  8
M0
100
AcDbLine
 10
43.589878
 20
305.965438
 11
45.409947
 21
305.965438
  0
LINE
  5
30C
100
AcDbEntity
  8
M0
100
AcDbLine
 10
44.511509
 20
304.765487
 11
45.77982
 21
304.765487
  0
LINE
  5
30D
100
AcDbEntity
  8
M0
100
AcDbLine
 10
44.511509
 20
300.965438
 11
45.77982
 21
300.965438
  0
LINE
  5
30E
100
AcDbEntity
  8
M0
100
AcDbLine
 10
43.589878
 20
299.765487
 11
45.409947
 21
299.765487
  0
LINE
  5
30F
100
AcDbEntity
  8
M0
100
AcDbLine
 10
40.789829
 20
305.965438
 11
38.969761
 21
305.965438
  0
LINE
  5
310
100
AcDbEntity
  8
M0
100
AcDbLine
 10
39.868198
 20
304.765487
 11
38.599888
 21
304.765487
  0
LINE
  5
311
100
AcDbEntity
  8
M0
100
AcDbLine
 10
39.868198
 20
300.965438
 11
38.599888
 21
300.965438
  0
LINE
  5
312
100
AcDbEntity
  8
M0
100
AcDbLine
 10
40.789829
 20
299.765487
 11
38.969761
 21
299.765487
  0
LINE
  5
313
100
AcDbEntity
  8
M0
100
AcDbLine
 10
39.709019
 20
298.565536
 11
44.670689
 21
298.565536
  0
LINE
  5
314
100
AcDbEntity
  8
M0
100
AcDbLine
 10
45.964878
 20
301.565536
 11
45.964878
 21
304.165511
  0
LINE
  5
315
100
AcDbEntity
  8
M0
100
AcDbLine
 10
44.670689
 20
307.165511
 11
39.709019
 21
307.165496
  0
LINE
  5
316
100
AcDbEntity
  8
M0
100
AcDbLine
 10
38.414829
 20
304.165511
 11
38.414829
 21
301.565536
  0
LINE
  5
317
100
AcDbEntity
  8
M0
  6
DASHDOT
100
AcDbLine
 10
35.914829
 20
302.865463
 11
48.464878
 21
302.865463
  0
LINE
  5
318
100
AcDbEntity
  8
M0
100
AcDbLine
 10
43.589878
 20
299.765487
 11
43.589878
 21
300.212142
  0
LINE
  5
319
100
AcDbEntity
  8
M0
100
AcDbLine
 10
43.589878
 20
305.518783
 11
43.589878
 21
305.965438
  0
LINE
  5
31A
100
AcDbEntity
  8
M0
100
AcDbLine
 10
40.789829
 20
305.518783
 11
40.789829
 21
305.965438
  0
LINE
  5
31B
100
AcDbEntity
  8
M0
100
AcDbLine
 10
40.789829
 20
299.765487
 11
40.789829
 21
300.212142
  0
LINE
  5
31C
100
AcDbEntity
  8
M0
100
AcDbLine
 10
43.780552
 20
301.274642
 11
40.598911
 21
304.456405
  0
LINE
  5
31D
100
AcDbEntity
  8
M0
100
AcDbLine
 10
42.543247
 20
304.279647
 11
40.775669
 21
302.511947
  0
LINE
  5
31E
100
AcDbEntity
  8
M0
100
AcDbLine
 10
43.603794
 20
303.218978
 11
41.836216
 21
301.4514
  0
ARC
  5
31F
100
AcDbEntity
  8
M0
100
AcDbCircle
 10
39.709019
 20
306.665496
 40
0.5
100
AcDbArc
 50
89.998251
 51
162.872331
  0
ARC
  5
320
100
AcDbEntity
  8
M0
100
AcDbCircle
 10
39.709019
 20
299.065536
 40
0.5
100
AcDbArc
 50
197.127669
 51
270.0
  0
ARC
  5
321
100
AcDbEntity
  8
M0
100
AcDbCircle
 10
44.670689
 20
299.065536
 40
0.5
100
AcDbArc
 50
270.0
 51
342.86179
  0
ARC
  5
322
100
AcDbEntity
  8
M0
100
AcDbCircle
 10
44.670689
 20
306.665496
 40
0.5
100
AcDbArc
 50
17.137695
 51
89.998251
  0
LINE
  5
323
100
AcDbEntity
  8
M0
  6
DASHDOT
100
AcDbLine
 10
100.189961
 20
302.365463
 11
118.325581
 21
302.365463
  0
LINE
  5
324
100
AcDbEntity
  8
M0
  6
DASHDOT
 62
     6
100
AcDbLine
 10
35.866383
 20
314.865447
 11
48.864155
 21
314.865447
  0
LINE
  5
325
100
AcDbEntity
  8
M0
 62
     6
100
AcDbLine
 10
38.19022
 20
315.865447
 11
38.69022
 21
317.365447
  0
LINE
  5
326
100
AcDbEntity
  8
M0
 62
     6
100
AcDbLine
 10
46.19022
 20
315.865447
 11
45.69022
 21
317.365447
  0
LINE
  5
327
100
AcDbEntity
  8
M0
  6
DASHDOT
 62
     6
100
AcDbLine
 10
120.54221
 20
314.865691
 11
107.290669
 21
314.865691
  0
LINE
  5
328
100
AcDbEntity
  8
M0
 62
     6
100
AcDbLine
 10
118.190205
 20
315.865691
 11
117.690205
 21
317.365691
  0
LINE
  5
329
100
AcDbEntity
  8
M0
 62
     6
100
AcDbLine
 10
110.190205
 20
315.865691
 11
110.690205
 21
317.365691
  0
LINE
  5
32A
100
AcDbEntity
  8
M0
 62
     7
100
AcDbLine
 10
110.190205
 20
302.865203
 11
110.190205
 21
328.665191
  0
LINE
  5
32B
100
AcDbEntity
  8
M0
 62
     7
100
AcDbLine
 10
46.19022
 20
328.66516
 11
46.19022
 21
302.865218
  0
CIRCLE
  5
32C
100
AcDbEntity
  8
M0
100
AcDbCircle
 10
42.19022
 20
314.865447
 40
3.0
  0
LINE
  5
32D
100
AcDbEntity
  8
M0
100
AcDbLine
 10
39.231236
 20
310.918197
 11
38.415073
 21
313.565521
  0
LINE
  5
32E
100
AcDbEntity
  8
M0
100
AcDbLine
 10
45.148716
 20
310.918182
 11
45.965122
 21
313.565521
  0
LINE
  5
32F
100
AcDbEntity
  8
M0
100
AcDbLine
 10
44.511753
 20
312.965423
 11
45.780064
 21
312.965423
  0
LINE
  5
330
100
AcDbEntity
  8
M0
100
AcDbLine
 10
39.868443
 20
312.965423
 11
38.600132
 21
312.965423
  0
LINE
  5
331
100
AcDbEntity
  8
M0
100
AcDbLine
 10
45.965122
 20
313.565521
 11
45.965122
 21
316.165496
  0
LINE
  5
332
100
AcDbEntity
  8
M0
100
AcDbLine
 10
38.415073
 20
316.165496
 11
38.415073
 21
313.565521
  0
LINE
  5
333
100
AcDbEntity
  8
M0
100
AcDbLine
 10
43.780796
 20
313.274627
 11
40.599156
 21
316.45639
  0
LINE
  5
334
100
AcDbEntity
  8
M0
100
AcDbLine
 10
42.543491
 20
316.279632
 11
40.775913
 21
314.511932
  0
LINE
  5
335
100
AcDbEntity
  8
M0
100
AcDbLine
 10
43.604038
 20
315.218963
 11
41.83646
 21
313.451385
  0
CIRCLE
  5
336
100
AcDbEntity
  8
M0
100
AcDbCircle
 10
114.190205
 20
314.865722
 40
3.0
  0
LINE
  5
337
100
AcDbEntity
  8
M0
100
AcDbLine
 10
111.23122
 20
310.918472
 11
110.415058
 21
313.565795
  0
LINE
  5
338
100
AcDbEntity
  8
M0
100
AcDbLine
 10
117.148701
 20
310.918456
 11
117.965107
 21
313.565795
  0
LINE
  5
339
100
AcDbEntity
  8
M0
100
AcDbLine
 10
116.511738
 20
312.965698
 11
117.780048
 21
312.965698
  0
LINE
  5
33A
100
AcDbEntity
  8
M0
100
AcDbLine
 10
111.868427
 20
312.965698
 11
110.600117
 21
312.965698
  0
LINE
  5
33B
100
AcDbEntity
  8
M0
100
AcDbLine
 10
117.965107
 20
313.565795
 11
117.965107
 21
316.165771
  0
LINE
  5
33C
100
AcDbEntity
  8
M0
100
AcDbLine
 10
110.415058
 20
316.165771
 11
110.415058
 21
313.565795
  0
LINE
  5
33D
100
AcDbEntity
  8
M0
100
AcDbLine
 10
115.780781
 20
313.274902
 11
112.59914
 21
316.456664
  0
LINE
  5
33E
100
AcDbEntity
  8
M0
100
AcDbLine
 10
114.543476
 20
316.279907
 11
112.775898
 21
314.512206
  0
LINE
  5
33F
100
AcDbEntity
  8
M0
100
AcDbLine
 10
115.604023
 20
315.219238
 11
113.836445
 21
313.451659
  0
LINE
  5
340
100
AcDbEntity
  8
M0
  6
DASHDOT
100
AcDbLine
 10
42.189976
 20
296.065551
 11
42.189976
 21
330.332275
  0
ARC
  5
341
100
AcDbEntity
  8
M0
 62
     6
100
AcDbCircle
 10
46.69022
 20
287.366164
 40
0.5
100
AcDbArc
 50
179.998251
 51
270.0
  0
ARC
  5
342
100
AcDbEntity
  8
M0
 62
     6
100
AcDbCircle
 10
49.44022
 20
287.366164
 40
0.5
100
AcDbArc
 50
270.0
 51
360.0
  0
ARC
  5
343
100
AcDbEntity
  8
M0
 62
     6
100
AcDbCircle
 10
109.690205
 20
287.366424
 40
0.5
100
AcDbArc
 50
269.998251
 51
360.0
  0
LINE
  5
344
100
AcDbEntity
  8
M0
 62
     6
100
AcDbLine
 10
66.44022
 20
286.866119
 11
46.69022
 21
286.866164
  0
LINE
  5
345
100
AcDbEntity
  8
M0
 62
     6
100
AcDbLine
 10
49.94022
 20
287.366149
 11
49.94022
 21
302.365218
  0
LINE
  5
346
100
AcDbEntity
  8
M0
 62
     6
100
AcDbLine
 10
46.19022
 20
328.66516
 11
46.19022
 21
287.366164
  0
LINE
  5
347
100
AcDbEntity
  8
M0
 62
     6
100
AcDbLine
 10
110.190205
 20
328.665191
 11
110.190205
 21
287.366424
  0
LINE
  5
348
100
AcDbEntity
  8
M0
  6
DASHDOT
100
AcDbLine
 10
113.689961
 20
297.688537
 11
113.689961
 21
306.752532
  0
LINE
  5
349
100
AcDbEntity
  8
M0
  6
DASHDOT
100
AcDbLine
 10
114.189961
 20
309.088119
 11
114.189961
 21
331.564941
  0
LINE
  5
34A
100
AcDbEntity
  8
M0
 62
     6
100
AcDbLine
 10
69.940219
 20
286.866424
 11
78.189929
 21
286.866424
  0
LINE
  5
34B
100
AcDbEntity
  8
M0
 62
     6
100
AcDbLine
 10
108.689869
 20
286.866424
 11
109.690205
 21
286.866424
  0
LINE
  5
34C
100
AcDbEntity
  8
M0
 62
     6
100
AcDbLine
 10
34.19022
 20
338.615444
 11
37.390171
 21
338.615444
  0
LINE
  5
34D
100
AcDbEntity
  8
M0
 62
     6
100
AcDbLine
 10
37.390171
 20
338.615444
 11
37.390171
 21
331.115447
  0
LINE
  5
34E
100
AcDbEntity
  8
M0
 62
     6
100
AcDbLine
 10
37.390171
 20
338.615444
 11
38.19022
 21
339.565396
  0
LINE
  5
34F
100
AcDbEntity
  8
M0
 62
     6
100
AcDbLine
 10
122.190205
 20
338.6152
 11
118.990009
 21
338.6152
  0
LINE
  5
350
100
AcDbEntity
  8
M0
 62
     6
100
AcDbLine
 10
118.990009
 20
338.6152
 11
118.990009
 21
331.115691
  0
LINE
  5
351
100
AcDbEntity
  8
M0
 62
     6
100
AcDbLine
 10
118.990009
 20
338.6152
 11
118.190205
 21
339.565151
  0
CIRCLE
  5
352
100
AcDbEntity
  8
M0
 62
     7
100
AcDbCircle
 10
44.19022
 20
334.865216
 40
3.249996
  0
CIRCLE
  5
353
100
AcDbEntity
  8
M0
 62
     7
100
AcDbCircle
 10
112.190205
 20
334.865216
 40
3.249996
  0
LINE
  5
354
100
AcDbEntity
  8
M0
 62
     7
100
AcDbLine
 10
66.890171
 20
342.164974
 11
66.890171
 21
331.8652
  0
CIRCLE
  5
355
100
AcDbEntity
  8
M0
100
AcDbCircle
 10
112.189716
 20
334.865444
 40
2.749996
  0
CIRCLE
  5
356
100
AcDbEntity
  8
M0
100
AcDbCircle
 10
112.189716
 20
334.865444
 40
3.0
  0
LINE
  5
357
100
AcDbEntity
  8
M0
100
AcDbLine
 10
110.77541
 20
336.279507
 11
113.603779
 21
333.451138
  0
LINE
  5
358
100
AcDbEntity
  8
M0
100
AcDbLine
 10
112.684345
 20
336.491665
 11
110.563007
 21
334.370327
  0
LINE
  5
359
100
AcDbEntity
  8
M0
100
AcDbLine
 10
113.815937
 20
335.360073
 11
111.694599
 21
333.238735
  0
CIRCLE
  5
35A
100
AcDbEntity
  8
M0
100
AcDbCircle
 10
44.189976
 20
334.865444
 40
2.749996
  0
CIRCLE
  5
35B
100
AcDbEntity
  8
M0
100
AcDbCircle
 10
44.189976
 20
334.865444
 40
3.0
  0
LINE
  5
35C
100
AcDbEntity
  8
M0
100
AcDbLine
 10
42.775669
 20
336.279507
 11
45.604038
 21
333.451138
  0
LINE
  5
35D
100
AcDbEntity
  8
M0
100
AcDbLine
 10
44.684605
 20
336.491665
 11
42.563267
 21
334.370327
  0
LINE
  5
35E
100
AcDbEntity
  8
M0
100
AcDbLine
 10
45.816197
 20
335.360073
 11
43.694859
 21
333.238735
  0
LINE
  5
35F
100
AcDbEntity
  8
M0
100
AcDbLine
 10
75.190219
 20
335.015118
 11
78.189929
 21
335.015118
  0
LINE
  5
360
100
AcDbEntity
  8
M0
100
AcDbLine
 10
75.190219
 20
339.515118
 11
75.190219
 21
335.015118
  0
LINE
  5
361
100
AcDbEntity
  8
M0
 62
     7
100
AcDbLine
 10
117.690205
 20
329.665176
 11
117.690205
 21
340.065197
  0
LINE
  5
362
100
AcDbEntity
  8
M0
 62
     7
100
AcDbLine
 10
38.69022
 20
340.065213
 11
38.69022
 21
329.66516
  0
LINE
  5
363
100
AcDbEntity
  8
M0
  6
DASHDOT
100
AcDbLine
 10
112.189716
 20
329.165328
 11
112.189716
 21
340.564739
  0
LINE
  5
364
100
AcDbEntity
  8
M0
  6
DASHDOT
100
AcDbLine
 10
44.189976
 20
329.165328
 11
44.189976
 21
340.565228
  0
LINE
  5
365
100
AcDbEntity
  8
M0
 62
     5
100
AcDbLine
 10
34.189732
 20
362.36526
 11
34.189732
 21
297.365478
  0
LINE
  5
366
100
AcDbEntity
  8
M0
 62
     5
100
AcDbLine
 10
122.189961
 20
307.365463
 11
122.189961
 21
372.365005
  0
LINE
  5
367
100
AcDbEntity
  8
M0
 62
     6
100
AcDbLine
 10
38.19022
 20
360.86526
 11
38.19022
 21
308.865447
  0
LINE
  5
368
100
AcDbEntity
  8
M0
 62
     6
100
AcDbLine
 10
118.190205
 20
360.865016
 11
118.190205
 21
308.865691
  0
LINE
  5
369
100
AcDbEntity
  8
M0
 62
     6
100
AcDbLine
 10
34.189976
 20
363.865005
 11
34.189976
 21
305.865691
  0
LINE
  5
36A
100
AcDbEntity
  8
M0
 62
     6
100
AcDbLine
 10
122.190205
 20
363.864761
 11
122.190205
 21
305.865936
  0
LINE
  5
36B
100
AcDbEntity
  8
M0
  6
DASHDOT
100
AcDbLine
 10
42.189976
 20
338.925122
 11
42.189976
 21
362.166042
  0
LINE
  5
36C
100
AcDbEntity
  8
M0
  6
DASHDOT
100
AcDbLine
 10
112.189961
 20
298.377395
 11
112.189961
 21
306.788787
  0
LINE
  5
36D
100
AcDbEntity
  8
M0
100
AcDbLine
 10
112.189961
 20
304.66545
 11
113.689961
 21
304.66545
  0
LINE
  5
36E
100
AcDbEntity
  8
M0
100
AcDbLine
 10
112.189961
 20
300.06546
 11
113.689961
 21
300.06546
  0
ARC
  5
36F
100
AcDbEntity
  8
M0
100
AcDbCircle
 10
113.689961
 20
302.365463
 40
2.299998
100
AcDbArc
 50
269.99962
 51
450.0
  0
ARC
  5
370
100
AcDbEntity
  8
M0
100
AcDbCircle
 10
112.189961
 20
302.365463
 40
2.299998
100
AcDbArc
 50
90.0
 51
150.395947
  0
ARC
  5
371
100
AcDbEntity
  8
M0
100
AcDbCircle
 10
112.189961
 20
302.365463
 40
2.299998
100
AcDbArc
 50
209.60391
 51
269.99962
  0
LINE
  5
372
100
AcDbEntity
  8
M0
 62
     7
100
AcDbLine
 10
108.689869
 20
302.365218
 11
109.690205
 21
302.365218
  0
LINE
  5
373
100
AcDbEntity
  8
M0
 62
     7
100
AcDbLine
 10
86.489689
 20
328.865218
 11
86.18964
 21
328.865218
  0
LINE
  5
374
100
AcDbEntity
  8
M0
 62
     7
100
AcDbLine
 10
86.18964
 20
328.865218
 11
86.18964
 21
324.865218
  0
ARC
  5
375
100
AcDbEntity
  8
M0
 62
     7
100
AcDbCircle
 10
86.489689
 20
331.865205
 40
3.0
100
AcDbArc
 50
-90.000291
 51
0.0
  0
LINE
  5
376
100
AcDbEntity
  8
M0
 62
     7
100
AcDbLine
 10
89.489674
 20
342.16498
 11
89.489689
 21
331.865206
  0
LINE
  5
377
100
AcDbEntity
  8
M0
100
AcDbLine
 10
81.189637
 20
339.51512
 11
81.189639
 21
335.01512
  0
LINE
  5
378
100
AcDbEntity
  8
M0
100
AcDbLine
 10
81.189639
 20
335.01512
 11
78.189929
 21
335.015118
  0
LINE
  5
379
100
AcDbEntity
  8
M0
 62
     7
100
AcDbLine
 10
109.689655
 20
302.365234
 11
78.189062
 21
302.365218
  0
LINE
  5
37A
100
AcDbEntity
  8
M0
  6
DASHDOT
 62
     6
100
AcDbLine
 10
120.54221
 20
324.365539
 11
107.290669
 21
324.365539
  0
LINE
  5
37B
100
AcDbEntity
  8
M0
 62
     6
100
AcDbLine
 10
66.940205
 20
281.86589
 11
69.440205
 21
281.86589
  0
ARC
  5
37C
100
AcDbEntity
  8
M0
 62
     6
100
AcDbCircle
 10
66.940205
 20
282.36589
 40
0.5
100
AcDbArc
 50
180.0
 51
269.998251
  0
ARC
  5
37D
100
AcDbEntity
  8
M0
 62
     6
100
AcDbCircle
 10
69.440205
 20
282.36589
 40
0.5
100
AcDbArc
 50
269.998251
 51
360.0
  0
LINE
  5
37E
100
AcDbEntity
  8
M0
 62
     6
100
AcDbLine
 10
69.940205
 20
282.365875
 11
69.940205
 21
302.365661
  0
LINE
  5
37F
100
AcDbEntity
  8
M0
 62
     6
100
AcDbLine
 10
66.440205
 20
282.36589
 11
66.440205
 21
302.365661
  0
LINE
  5
380
100
AcDbEntity
  8
M0
 62
     6
100
AcDbLine
 10
89.939655
 20
282.365905
 11
89.939655
 21
302.365676
  0
LINE
  5
381
100
AcDbEntity
  8
M0
  6
DASHDOT
100
AcDbLine
 10
108.488919
 20
294.866119
 11
89.055828
 21
294.866131
  0
LINE
  5
382
100
AcDbEntity
  8
M0
  6
DASHDOT
100
AcDbLine
 10
88.48811
 20
294.866119
 11
69.055019
 21
294.866131
  0
LINE
  5
383
100
AcDbEntity
  8
M0
 62
     1
100
AcDbLine
 10
86.439945
 20
382.865005
 11
78.189441
 21
382.864761
  0
LINE
  5
384
100
AcDbEntity
  8
M0
 62
     1
100
AcDbLine
 10
86.439945
 20
387.365478
 11
86.43993
 21
367.365722
  0
LINE
  5
385
100
AcDbEntity
  8
M0
 62
     1
100
AcDbLine
 10
89.439945
 20
387.865722
 11
86.939945
 21
387.865722
  0
LINE
  5
386
100
AcDbEntity
  8
M0
 62
     1
100
AcDbLine
 10
89.939945
 20
382.865005
 11
108.689869
 21
382.864944
  0
LINE
  5
387
100
AcDbEntity
  8
M0
 62
     1
100
AcDbLine
 10
106.439945
 20
382.865722
 11
106.439945
 21
367.36499
  0
LINE
  5
388
100
AcDbEntity
  8
M0
 62
     1
100
AcDbLine
 10
89.939945
 20
387.365478
 11
89.939945
 21
367.36499
  0
ARC
  5
389
100
AcDbEntity
  8
M0
 62
     1
100
AcDbCircle
 10
105.439915
 20
367.365737
 40
1.0
100
AcDbArc
 50
-14.520977
 51
0.0
  0
ARC
  5
38A
100
AcDbEntity
  8
M0
 62
     1
100
AcDbCircle
 10
90.93993
 20
367.365737
 40
1.0
100
AcDbArc
 50
180.0
 51
194.521604
  0
LINE
  5
38B
100
AcDbEntity
  8
M0
 62
     1
100
AcDbLine
 10
86.439945
 20
387.365478
 11
86.439945
 21
367.36499
  0
ARC
  5
38C
100
AcDbEntity
  8
M0
 62
     1
100
AcDbCircle
 10
85.43993
 20
367.365737
 40
1.0
100
AcDbArc
 50
-14.520977
 51
0.0
  0
LINE
  5
38D
100
AcDbEntity
  8
M0
 62
     1
100
AcDbLine
 10
86.439945
 20
286.866958
 11
78.189441
 21
286.86647
  0
LINE
  5
38E
100
AcDbEntity
  8
M0
 62
     1
100
AcDbLine
 10
86.439945
 20
282.36621
 11
86.43993
 21
302.366226
  0
LINE
  5
38F
100
AcDbEntity
  8
M0
 62
     1
100
AcDbLine
 10
89.439945
 20
281.866226
 11
86.939945
 21
281.86621
  0
LINE
  5
390
100
AcDbEntity
  8
M0
 62
     1
100
AcDbLine
 10
89.939945
 20
286.866958
 11
108.689869
 21
286.866897
  0
ARC
  5
391
100
AcDbEntity
  8
M0
 62
     1
100
AcDbCircle
 10
105.439915
 20
302.366226
 40
1.0
100
AcDbArc
 50
0.0
 51
29.967834
  0
LINE
  5
392
100
AcDbEntity
  8
M0
  6
DASHDOT
 62
     1
100
AcDbLine
 10
78.189907
 20
422.194284
 11
78.189929
 21
334.865737
  0
LINE
  5
393
100
AcDbEntity
  8
M0
  6
DASHDOT
 62
     1
100
AcDbLine
 10
78.189929
 20
334.865981
 11
78.189441
 21
334.865493
  0
ARC
  5
394
100
AcDbEntity
  8
M0
 62
     1
100
AcDbCircle
 10
86.939945
 20
282.36621
 40
0.5
100
AcDbArc
 50
180.0
 51
269.998251
  0
ARC
  5
395
100
AcDbEntity
  8
M0
 62
     1
100
AcDbCircle
 10
89.439945
 20
282.36621
 40
0.5
100
AcDbArc
 50
269.998251
 51
360.0
  0
LINE
  5
396
100
AcDbEntity
  8
M0
  6
DIVIDE
 62
     1
100
AcDbLine
 10
78.189441
 20
334.865493
 11
78.189929
 21
334.865981
  0
LINE
  5
397
100
AcDbEntity
  8
M0
  6
DASHDOT
 62
     1
100
AcDbLine
 10
108.689869
 20
314.866164
 11
106.439915
 21
314.866226
  0
ARC
  5
398
100
AcDbEntity
  8
M0
 62
     1
100
AcDbCircle
 10
89.439945
 20
387.365478
 40
0.5
100
AcDbArc
 50
0.0
 51
90.0
  0
ARC
  5
399
100
AcDbEntity
  8
M0
 62
     1
100
AcDbCircle
 10
86.939945
 20
387.365478
 40
0.5
100
AcDbArc
 50
90.0
 51
180.0
  0
LINE
  5
39A
100
AcDbEntity
  8
M0
  6
DASHDOT
 62
     1
100
AcDbLine
 10
78.189929
 20
334.865737
 11
78.189943
 21
281.40512
  0
LINE
  5
39B
100
AcDbEntity
  8
M0
 62
     7
100
AcDbLine
 10
91.040042
 20
286.866226
 11
105.340077
 21
286.866226
  0
LINE
  5
39C
100
AcDbEntity
  8
M0
 62
     7
100
AcDbLine
 10
106.340077
 20
287.866226
 11
106.340077
 21
302.366226
  0
LINE
  5
39D
100
AcDbEntity
  8
M0
 62
     7
100
AcDbLine
 10
90.040042
 20
302.366226
 11
90.040042
 21
287.866226
  0
ARC
  5
39E
100
AcDbEntity
  8
M0
 62
     7
100
AcDbCircle
 10
105.340077
 20
287.866226
 40
1.0
100
AcDbArc
 50
269.999126
 51
360.0
  0
ARC
  5
39F
100
AcDbEntity
  8
M0
 62
     7
100
AcDbCircle
 10
91.040042
 20
287.866226
 40
1.0
100
AcDbArc
 50
180.0
 51
270.0
  0
LINE
  5
3A0
100
AcDbEntity
  8
M0
 62
     4
100
AcDbLine
 10
51.040027
 20
286.865493
 11
65.340061
 21
286.865493
  0
LINE
  5
3A1
100
AcDbEntity
  8
M0
 62
     4
100
AcDbLine
 10
66.340061
 20
287.865493
 11
66.340061
 21
302.365493
  0
LINE
  5
3A2
100
AcDbEntity
  8
M0
 62
     4
100
AcDbLine
 10
50.040027
 20
302.365493
 11
50.040027
 21
287.865493
  0
ARC
  5
3A3
100
AcDbEntity
  8
M0
 62
     4
100
AcDbCircle
 10
65.340061
 20
287.865493
 40
1.0
100
AcDbArc
 50
269.999126
 51
360.0
  0
ARC
  5
3A4
100
AcDbEntity
  8
M0
 62
     4
100
AcDbCircle
 10
51.040027
 20
287.865493
 40
1.0
100
AcDbArc
 50
180.0
 51
270.0
  0
LINE
  5
3A5
100
AcDbEntity
  8
M0
 62
     7
100
AcDbLine
 10
105.339876
 20
382.86548
 11
91.039841
 21
382.865489
  0
LINE
  5
3A6
100
AcDbEntity
  8
M0
 62
     7
100
AcDbLine
 10
90.039841
 20
381.86549
 11
90.039831
 21
367.36549
  0
LINE
  5
3A7
100
AcDbEntity
  8
M0
 62
     7
100
AcDbLine
 10
106.339866
 20
367.36548
 11
106.339875
 21
381.86548
  0
ARC
  5
3A8
100
AcDbEntity
  8
M0
 62
     7
100
AcDbCircle
 10
91.039841
 20
381.865489
 40
1.0
100
AcDbArc
 50
90.0
 51
179.999964
  0
ARC
  5
3A9
100
AcDbEntity
  8
M0
 62
     7
100
AcDbCircle
 10
91.039831
 20
367.365489
 40
1.0
100
AcDbArc
 50
179.999964
 51
194.507219
  0
ARC
  5
3AA
100
AcDbEntity
  8
M0
 62
     7
100
AcDbCircle
 10
105.339866
 20
367.36548
 40
1.0
100
AcDbArc
 50
345.494252
 51
359.99909
  0
ARC
  5
3AB
100
AcDbEntity
  8
M0
 62
     7
100
AcDbCircle
 10
105.339875
 20
381.86548
 40
1.0
100
AcDbArc
 50
359.99909
 51
450.0
  0
LINE
  5
3AC
100
AcDbEntity
  8
M0
 62
     4
100
AcDbLine
 10
65.340761
 20
382.864992
 11
51.040726
 21
382.865001
  0
LINE
  5
3AD
100
AcDbEntity
  8
M0
 62
     4
100
AcDbLine
 10
50.040726
 20
381.865002
 11
50.040716
 21
367.365002
  0
LINE
  5
3AE
100
AcDbEntity
  8
M0
 62
     4
100
AcDbLine
 10
66.340751
 20
367.364991
 11
66.34076
 21
381.864991
  0
ARC
  5
3AF
100
AcDbEntity
  8
M0
 62
     4
100
AcDbCircle
 10
51.040726
 20
381.865001
 40
1.0
100
AcDbArc
 50
90.0
 51
179.999964
  0
ARC
  5
3B0
100
AcDbEntity
  8
M0
 62
     4
100
AcDbCircle
 10
65.34076
 20
381.864992
 40
1.0
100
AcDbArc
 50
359.99909
 51
450.0
  0
LINE
  5
3B1
100
AcDbEntity
  8
M0
100
AcDbLine
 10
55.361777
 20
297.694274
 11
61.01862
 21
292.037429
  0
LINE
  5
3B2
100
AcDbEntity
  8
M0
100
AcDbLine
 10
57.483097
 20
292.744521
 11
60.311524
 21
295.572952
  0
LINE
  5
3B3
100
AcDbEntity
  8
M0
100
AcDbLine
 10
56.068884
 20
294.158736
 11
58.897311
 21
296.987167
  0
LINE
  5
3B4
100
AcDbEntity
  8
M0
  6
DASHDOT
100
AcDbLine
 10
58.190204
 20
304.8703
 11
58.190204
 21
283.655639
  0
CIRCLE
  5
3B5
100
AcDbEntity
  8
M0
100
AcDbCircle
 10
58.190204
 20
294.865844
 40
5.949995
  0
LINE
  5
3B6
100
AcDbEntity
  8
M0
100
AcDbLine
 10
57.440448
 20
300.768432
 11
57.440448
 21
302.366332
  0
LINE
  5
3B7
100
AcDbEntity
  8
M0
100
AcDbLine
 10
58.940204
 20
300.768432
 11
58.940204
 21
302.366332
  0
LINE
  5
3B8
100
AcDbEntity
  8
M0
100
AcDbLine
 10
63.190189
 20
302.366332
 11
65.940434
 21
299.615844
  0
LINE
  5
3B9
100
AcDbEntity
  8
M0
100
AcDbLine
 10
50.440448
 20
299.615844
 11
53.190692
 21
302.366332
  0
ARC
  5
3BA
100
AcDbEntity
  8
M0
100
AcDbCircle
 10
64.940189
 20
301.615844
 40
1.0
100
AcDbArc
 50
0.0
 51
48.611504
  0
ARC
  5
3BB
100
AcDbEntity
  8
M0
100
AcDbCircle
 10
51.440448
 20
301.615844
 40
1.0
100
AcDbArc
 50
131.378543
 51
180.0
  0
LINE
  5
3BC
100
AcDbEntity
  8
M0
100
AcDbLine
 10
65.940189
 20
301.615844
 11
65.940189
 21
288.115844
  0
LINE
  5
3BD
100
AcDbEntity
  8
M0
100
AcDbLine
 10
50.440448
 20
288.115844
 11
50.440448
 21
301.615844
  0
LINE
  5
3BE
100
AcDbEntity
  8
M0
100
AcDbLine
 10
52.28786
 20
295.615844
 11
50.440448
 21
295.615844
  0
LINE
  5
3BF
100
AcDbEntity
  8
M0
100
AcDbLine
 10
52.28786
 20
294.115844
 11
50.440448
 21
294.115844
  0
LINE
  5
3C0
100
AcDbEntity
  8
M0
100
AcDbLine
 10
65.940189
 20
294.115844
 11
64.092777
 21
294.115844
  0
LINE
  5
3C1
100
AcDbEntity
  8
M0
100
AcDbLine
 10
65.940189
 20
295.615844
 11
64.092777
 21
295.615844
  0
LINE
  5
3C2
100
AcDbEntity
  8
M0
100
AcDbLine
 10
57.440448
 20
287.115844
 11
57.440448
 21
288.9635
  0
LINE
  5
3C3
100
AcDbEntity
  8
M0
100
AcDbLine
 10
58.940204
 20
287.115844
 11
58.940204
 21
288.9635
  0
LINE
  5
3C4
100
AcDbEntity
  8
M0
100
AcDbLine
 10
65.940189
 20
290.115844
 11
62.940189
 21
287.115844
  0
LINE
  5
3C5
100
AcDbEntity
  8
M0
100
AcDbLine
 10
53.440448
 20
287.115844
 11
50.440448
 21
290.115844
  0
ARC
  5
3C6
100
AcDbEntity
  8
M0
100
AcDbCircle
 10
64.940189
 20
288.115844
 40
1.0
100
AcDbArc
 50
-90.000874
 51
0.0
  0
ARC
  5
3C7
100
AcDbEntity
  8
M0
100
AcDbCircle
 10
51.440448
 20
288.115844
 40
1.0
100
AcDbArc
 50
180.0
 51
270.0
  0
LINE
  5
3C8
100
AcDbEntity
  8
M0
100
AcDbLine
 10
64.940189
 20
287.115844
 11
51.440448
 21
287.115844
  0
LINE
  5
3C9
100
AcDbEntity
  8
M0
  6
DASHDOT
100
AcDbLine
 10
68.488285
 20
294.865844
 11
49.055194
 21
294.865844
  0
LINE
  5
3CA
100
AcDbEntity
  8
M0
  6
DASHDOT
100
AcDbLine
 10
98.190189
 20
304.870178
 11
98.190189
 21
283.655578
  0
LINE
  5
3CB
100
AcDbEntity
  8
M0
100
AcDbLine
 10
103.19109
 20
302.365447
 11
105.940174
 21
299.616119
  0
LINE
  5
3CC
100
AcDbEntity
  8
M0
100
AcDbLine
 10
90.440188
 20
299.616119
 11
93.189274
 21
302.365447
  0
LINE
  5
3CD
100
AcDbEntity
  8
M0
100
AcDbLine
 10
97.440188
 20
300.768707
 11
97.440188
 21
302.365447
  0
LINE
  5
3CE
100
AcDbEntity
  8
M0
100
AcDbLine
 10
98.939944
 20
300.768707
 11
98.939944
 21
302.365447
  0
ARC
  5
3CF
100
AcDbEntity
  8
M0
100
AcDbCircle
 10
104.93993
 20
301.616119
 40
1.0
100
AcDbArc
 50
0.0
 51
48.532218
  0
ARC
  5
3D0
100
AcDbEntity
  8
M0
100
AcDbCircle
 10
91.440188
 20
301.616119
 40
1.0
100
AcDbArc
 50
131.546201
 51
180.0
  0
LINE
  5
3D1
100
AcDbEntity
  8
M0
  6
DASHDOT
100
AcDbLine
 10
108.488026
 20
294.866119
 11
89.054935
 21
294.866119
  0
LINE
  5
3D2
100
AcDbEntity
  8
M0
100
AcDbLine
 10
104.93993
 20
287.116119
 11
91.440188
 21
287.116119
  0
ARC
  5
3D3
100
AcDbEntity
  8
M0
100
AcDbCircle
 10
91.440188
 20
288.116119
 40
1.0
100
AcDbArc
 50
180.0
 51
270.0
  0
ARC
  5
3D4
100
AcDbEntity
  8
M0
100
AcDbCircle
 10
104.93993
 20
288.116119
 40
1.0
100
AcDbArc
 50
-90.000874
 51
0.0
  0
LINE
  5
3D5
100
AcDbEntity
  8
M0
100
AcDbLine
 10
93.440188
 20
287.116119
 11
90.440188
 21
290.116119
  0
LINE
  5
3D6
100
AcDbEntity
  8
M0
100
AcDbLine
 10
105.93993
 20
290.116119
 11
102.93993
 21
287.116119
  0
LINE
  5
3D7
100
AcDbEntity
  8
M0
100
AcDbLine
 10
98.939944
 20
287.116119
 11
98.939944
 21
288.963775
  0
LINE
  5
3D8
100
AcDbEntity
  8
M0
100
AcDbLine
 10
97.440188
 20
287.116119
 11
97.440188
 21
288.963775
  0
LINE
  5
3D9
100
AcDbEntity
  8
M0
100
AcDbLine
 10
105.93993
 20
295.616119
 11
104.092518
 21
295.616119
  0
LINE
  5
3DA
100
AcDbEntity
  8
M0
100
AcDbLine
 10
105.93993
 20
294.116119
 11
104.092518
 21
294.116119
  0
LINE
  5
3DB
100
AcDbEntity
  8
M0
100
AcDbLine
 10
92.287601
 20
294.116119
 11
90.440188
 21
294.116119
  0
LINE
  5
3DC
100
AcDbEntity
  8
M0
100
AcDbLine
 10
92.287601
 20
295.616119
 11
90.440188
 21
295.616119
  0
LINE
  5
3DD
100
AcDbEntity
  8
M0
100
AcDbLine
 10
90.440188
 20
288.116119
 11
90.440188
 21
301.616119
  0
LINE
  5
3DE
100
AcDbEntity
  8
M0
100
AcDbLine
 10
105.93993
 20
301.616119
 11
105.93993
 21
288.116119
  0
CIRCLE
  5
3DF
100
AcDbEntity
  8
M0
100
AcDbCircle
 10
98.189944
 20
294.866119
 40
5.949995
  0
LINE
  5
3E0
100
AcDbEntity
  8
M0
100
AcDbLine
 10
96.068625
 20
294.159011
 11
98.897052
 21
296.987441
  0
LINE
  5
3E1
100
AcDbEntity
  8
M0
100
AcDbLine
 10
97.482838
 20
292.744796
 11
100.311264
 21
295.573226
  0
LINE
  5
3E2
100
AcDbEntity
  8
M0
100
AcDbLine
 10
95.361518
 20
297.694549
 11
101.01836
 21
292.037704
  0
LINE
  5
3E3
100
AcDbEntity
  8
M0
100
AcDbLine
 10
83.191319
 20
302.365203
 11
85.940159
 21
299.616119
  0
LINE
  5
3E4
100
AcDbEntity
  8
M0
100
AcDbLine
 10
70.440173
 20
299.616119
 11
71.689612
 21
300.865676
  0
LINE
  5
3E5
100
AcDbEntity
  8
M0
100
AcDbLine
 10
77.440173
 20
300.768707
 11
77.440173
 21
302.365661
  0
LINE
  5
3E6
100
AcDbEntity
  8
M0
100
AcDbLine
 10
78.939929
 20
300.768707
 11
78.939929
 21
302.419753
  0
ARC
  5
3E7
100
AcDbEntity
  8
M0
100
AcDbCircle
 10
84.939915
 20
301.616119
 40
1.0
100
AcDbArc
 50
0.0
 51
48.511742
  0
LINE
  5
3E8
100
AcDbEntity
  8
M0
  6
DASHDOT
100
AcDbLine
 10
88.48801
 20
294.866119
 11
69.054919
 21
294.866119
  0
LINE
  5
3E9
100
AcDbEntity
  8
M0
100
AcDbLine
 10
84.939915
 20
287.116119
 11
71.440173
 21
287.116119
  0
ARC
  5
3EA
100
AcDbEntity
  8
M0
100
AcDbCircle
 10
71.440173
 20
288.116119
 40
1.0
100
AcDbArc
 50
180.0
 51
270.0
  0
ARC
  5
3EB
100
AcDbEntity
  8
M0
100
AcDbCircle
 10
84.939915
 20
288.116119
 40
1.0
100
AcDbArc
 50
-90.000874
 51
0.0
  0
LINE
  5
3EC
100
AcDbEntity
  8
M0
100
AcDbLine
 10
73.440173
 20
287.116119
 11
70.440173
 21
290.116119
  0
LINE
  5
3ED
100
AcDbEntity
  8
M0
100
AcDbLine
 10
85.939915
 20
290.116119
 11
82.939915
 21
287.116119
  0
LINE
  5
3EE
100
AcDbEntity
  8
M0
100
AcDbLine
 10
78.939929
 20
287.116119
 11
78.939929
 21
288.963775
  0
LINE
  5
3EF
100
AcDbEntity
  8
M0
100
AcDbLine
 10
77.440173
 20
287.116119
 11
77.440173
 21
288.963775
  0
LINE
  5
3F0
100
AcDbEntity
  8
M0
100
AcDbLine
 10
85.939915
 20
295.616119
 11
84.092503
 21
295.616119
  0
LINE
  5
3F1
100
AcDbEntity
  8
M0
100
AcDbLine
 10
85.939915
 20
294.116119
 11
84.092503
 21
294.116119
  0
LINE
  5
3F2
100
AcDbEntity
  8
M0
100
AcDbLine
 10
72.287585
 20
294.116119
 11
70.440173
 21
294.116119
  0
LINE
  5
3F3
100
AcDbEntity
  8
M0
100
AcDbLine
 10
72.287585
 20
295.616119
 11
70.440173
 21
295.616119
  0
LINE
  5
3F4
100
AcDbEntity
  8
M0
100
AcDbLine
 10
70.440173
 20
288.116119
 11
70.440173
 21
300.932693
  0
LINE
  5
3F5
100
AcDbEntity
  8
M0
100
AcDbLine
 10
85.939915
 20
301.616119
 11
85.939915
 21
288.116119
  0
CIRCLE
  5
3F6
100
AcDbEntity
  8
M0
100
AcDbCircle
 10
78.189929
 20
294.866119
 40
5.949995
  0
LINE
  5
3F7
100
AcDbEntity
  8
M0
100
AcDbLine
 10
76.068609
 20
294.159011
 11
78.897037
 21
296.987441
  0
LINE
  5
3F8
100
AcDbEntity
  8
M0
100
AcDbLine
 10
77.482823
 20
292.744796
 11
80.311249
 21
295.573226
  0
LINE
  5
3F9
100
AcDbEntity
  8
M0
100
AcDbLine
 10
75.361503
 20
297.694549
 11
81.018345
 21
292.037704
  0
LINE
  5
3FA
100
AcDbEntity
  8
M0
100
AcDbLine
 10
102.940449
 20
382.615005
 11
105.940174
 21
379.615005
  0
LINE
  5
3FB
100
AcDbEntity
  8
M0
100
AcDbLine
 10
90.440188
 20
379.615005
 11
93.439922
 21
382.615005
  0
LINE
  5
3FC
100
AcDbEntity
  8
M0
100
AcDbLine
 10
97.440188
 20
380.767593
 11
97.440188
 21
382.615005
  0
LINE
  5
3FD
100
AcDbEntity
  8
M0
100
AcDbLine
 10
98.939944
 20
380.767593
 11
98.939944
 21
382.615005
  0
LINE
  5
3FE
100
AcDbEntity
  8
M0
100
AcDbLine
 10
91.440188
 20
382.615005
 11
104.93993
 21
382.615005
  0
ARC
  5
3FF
100
AcDbEntity
  8
M0
100
AcDbCircle
 10
104.93993
 20
381.615005
 40
1.0
100
AcDbArc
 50
0.0
 51
90.0
  0
ARC
  5
400
100
AcDbEntity
  8
M0
100
AcDbCircle
 10
91.440188
 20
381.615005
 40
1.0
100
AcDbArc
 50
90.0
 51
180.0
  0
LINE
  5
401
100
AcDbEntity
  8
M0
  6
DASHDOT
100
AcDbLine
 10
108.488026
 20
374.865005
 11
89.054935
 21
374.865005
  0
ARC
  5
402
100
AcDbEntity
  8
M0
100
AcDbCircle
 10
91.440188
 20
368.115005
 40
1.0
100
AcDbArc
 50
180.0
 51
270.0
  0
ARC
  5
403
100
AcDbEntity
  8
M0
100
AcDbCircle
 10
104.93993
 20
368.115005
 40
1.0
100
AcDbArc
 50
-90.000874
 51
0.0
  0
LINE
  5
404
100
AcDbEntity
  8
M0
100
AcDbLine
 10
93.440188
 20
367.115005
 11
90.440188
 21
370.115005
  0
LINE
  5
405
100
AcDbEntity
  8
M0
100
AcDbLine
 10
105.93993
 20
370.115005
 11
102.93993
 21
367.115005
  0
LINE
  5
406
100
AcDbEntity
  8
M0
100
AcDbLine
 10
98.939944
 20
367.115005
 11
98.939944
 21
368.962661
  0
LINE
  5
407
100
AcDbEntity
  8
M0
100
AcDbLine
 10
97.440188
 20
367.115005
 11
97.440188
 21
368.962661
  0
LINE
  5
408
100
AcDbEntity
  8
M0
100
AcDbLine
 10
105.93993
 20
375.615005
 11
104.092518
 21
375.615005
  0
LINE
  5
409
100
AcDbEntity
  8
M0
100
AcDbLine
 10
105.93993
 20
374.115005
 11
104.092518
 21
374.115005
  0
LINE
  5
40A
100
AcDbEntity
  8
M0
100
AcDbLine
 10
92.287601
 20
374.115005
 11
90.440188
 21
374.115005
  0
LINE
  5
40B
100
AcDbEntity
  8
M0
100
AcDbLine
 10
92.287601
 20
375.615005
 11
90.440188
 21
375.615005
  0
LINE
  5
40C
100
AcDbEntity
  8
M0
100
AcDbLine
 10
90.440188
 20
368.115005
 11
90.440188
 21
381.615005
  0
LINE
  5
40D
100
AcDbEntity
  8
M0
100
AcDbLine
 10
105.93993
 20
381.615005
 11
105.93993
 21
368.115005
  0
CIRCLE
  5
40E
100
AcDbEntity
  8
M0
100
AcDbCircle
 10
98.189944
 20
374.865005
 40
5.949995
  0
LINE
  5
40F
100
AcDbEntity
  8
M0
100
AcDbLine
 10
96.068625
 20
374.157897
 11
98.897052
 21
376.986327
  0
LINE
  5
410
100
AcDbEntity
  8
M0
100
AcDbLine
 10
97.482838
 20
372.743682
 11
100.311264
 21
375.572112
  0
LINE
  5
411
100
AcDbEntity
  8
M0
100
AcDbLine
 10
95.361518
 20
377.693435
 11
101.01836
 21
372.03659
  0
LINE
  5
412
100
AcDbEntity
  8
M0
100
AcDbLine
 10
82.940418
 20
382.615005
 11
85.940144
 21
379.615005
  0
LINE
  5
413
100
AcDbEntity
  8
M0
100
AcDbLine
 10
70.440158
 20
379.615005
 11
73.439892
 21
382.615005
  0
LINE
  5
414
100
AcDbEntity
  8
M0
100
AcDbLine
 10
77.440158
 20
380.767593
 11
77.440158
 21
382.615005
  0
LINE
  5
415
100
AcDbEntity
  8
M0
100
AcDbLine
 10
78.939914
 20
380.767593
 11
78.939914
 21
382.615005
  0
LINE
  5
416
100
AcDbEntity
  8
M0
100
AcDbLine
 10
71.440158
 20
382.615005
 11
84.9399
 21
382.615005
  0
ARC
  5
417
100
AcDbEntity
  8
M0
100
AcDbCircle
 10
84.9399
 20
381.615005
 40
1.0
100
AcDbArc
 50
0.0
 51
90.0
  0
ARC
  5
418
100
AcDbEntity
  8
M0
100
AcDbCircle
 10
71.440158
 20
381.615005
 40
1.0
100
AcDbArc
 50
90.0
 51
180.0
  0
LINE
  5
419
100
AcDbEntity
  8
M0
  6
DASHDOT
100
AcDbLine
 10
88.487995
 20
374.865005
 11
69.054904
 21
374.865005
  0
ARC
  5
41A
100
AcDbEntity
  8
M0
100
AcDbCircle
 10
84.9399
 20
368.115005
 40
1.0
100
AcDbArc
 50
-90.000874
 51
0.0
  0
LINE
  5
41B
100
AcDbEntity
  8
M0
100
AcDbLine
 10
71.690282
 20
368.864883
 11
70.440158
 21
370.115005
  0
LINE
  5
41C
100
AcDbEntity
  8
M0
100
AcDbLine
 10
85.9399
 20
370.115005
 11
82.9399
 21
367.115005
  0
LINE
  5
41D
100
AcDbEntity
  8
M0
100
AcDbLine
 10
78.939914
 20
367.115005
 11
78.939914
 21
368.962661
  0
LINE
  5
41E
100
AcDbEntity
  8
M0
100
AcDbLine
 10
77.440158
 20
367.364654
 11
77.440158
 21
368.962661
  0
LINE
  5
41F
100
AcDbEntity
  8
M0
100
AcDbLine
 10
85.9399
 20
375.615005
 11
84.092487
 21
375.615005
  0
LINE
  5
420
100
AcDbEntity
  8
M0
100
AcDbLine
 10
85.9399
 20
374.115005
 11
84.092487
 21
374.115005
  0
LINE
  5
421
100
AcDbEntity
  8
M0
100
AcDbLine
 10
72.28757
 20
374.115005
 11
70.440158
 21
374.115005
  0
LINE
  5
422
100
AcDbEntity
  8
M0
100
AcDbLine
 10
72.28757
 20
375.615005
 11
70.440158
 21
375.615005
  0
LINE
  5
423
100
AcDbEntity
  8
M0
100
AcDbLine
 10
70.440158
 20
368.797866
 11
70.440158
 21
381.615005
  0
LINE
  5
424
100
AcDbEntity
  8
M0
100
AcDbLine
 10
85.9399
 20
381.615005
 11
85.9399
 21
368.115005
  0
CIRCLE
  5
425
100
AcDbEntity
  8
M0
100
AcDbCircle
 10
78.189914
 20
374.865005
 40
5.949995
  0
LINE
  5
426
100
AcDbEntity
  8
M0
100
AcDbLine
 10
76.068594
 20
374.157897
 11
78.897021
 21
376.986327
  0
LINE
  5
427
100
AcDbEntity
  8
M0
100
AcDbLine
 10
77.482807
 20
372.743682
 11
80.311234
 21
375.572112
  0
LINE
  5
428
100
AcDbEntity
  8
M0
100
AcDbLine
 10
75.361487
 20
377.693435
 11
81.01833
 21
372.03659
  0
LINE
  5
429
100
AcDbEntity
  8
M0
  6
DASHDOT
100
AcDbLine
 10
38.19025
 20
364.869949
 11
38.19025
 21
344.98352
  0
LINE
  5
42A
100
AcDbEntity
  8
M0
100
AcDbLine
 10
62.940724
 20
382.615249
 11
65.940449
 21
379.615249
  0
LINE
  5
42B
100
AcDbEntity
  8
M0
100
AcDbLine
 10
50.440463
 20
379.615249
 11
53.440197
 21
382.615249
  0
LINE
  5
42C
100
AcDbEntity
  8
M0
100
AcDbLine
 10
57.440463
 20
380.767837
 11
57.440463
 21
382.615249
  0
LINE
  5
42D
100
AcDbEntity
  8
M0
100
AcDbLine
 10
58.940219
 20
380.767837
 11
58.940219
 21
382.615249
  0
LINE
  5
42E
100
AcDbEntity
  8
M0
100
AcDbLine
 10
51.440463
 20
382.615249
 11
64.940205
 21
382.615249
  0
ARC
  5
42F
100
AcDbEntity
  8
M0
100
AcDbCircle
 10
64.940205
 20
381.615249
 40
1.0
100
AcDbArc
 50
0.0
 51
90.0
  0
ARC
  5
430
100
AcDbEntity
  8
M0
100
AcDbCircle
 10
51.440463
 20
381.615249
 40
1.0
100
AcDbArc
 50
90.0
 51
180.0
  0
LINE
  5
431
100
AcDbEntity
  8
M0
  6
DASHDOT
100
AcDbLine
 10
68.4883
 20
374.865249
 11
49.055209
 21
374.865249
  0
ARC
  5
432
100
AcDbEntity
  8
M0
100
AcDbCircle
 10
51.440463
 20
368.115249
 40
1.0
100
AcDbArc
 50
180.0
 51
228.614759
  0
ARC
  5
433
100
AcDbEntity
  8
M0
100
AcDbCircle
 10
64.940205
 20
368.115249
 40
1.0
100
AcDbArc
 50
-48.624421
 51
0.0
  0
LINE
  5
434
100
AcDbEntity
  8
M0
100
AcDbLine
 10
53.190758
 20
367.364959
 11
50.440463
 21
370.115249
  0
LINE
  5
435
100
AcDbEntity
  8
M0
100
AcDbLine
 10
65.940205
 20
370.115249
 11
63.189838
 21
367.364883
  0
LINE
  5
436
100
AcDbEntity
  8
M0
100
AcDbLine
 10
58.940219
 20
367.364913
 11
58.940219
 21
368.962905
  0
LINE
  5
437
100
AcDbEntity
  8
M0
100
AcDbLine
 10
57.440463
 20
367.364929
 11
57.440463
 21
368.962905
  0
LINE
  5
438
100
AcDbEntity
  8
M0
100
AcDbLine
 10
65.940205
 20
375.615249
 11
64.092793
 21
375.615249
  0
LINE
  5
439
100
AcDbEntity
  8
M0
100
AcDbLine
 10
65.940205
 20
374.115249
 11
64.092793
 21
374.115249
  0
LINE
  5
43A
100
AcDbEntity
  8
M0
100
AcDbLine
 10
52.287875
 20
374.115249
 11
50.440463
 21
374.115249
  0
LINE
  5
43B
100
AcDbEntity
  8
M0
100
AcDbLine
 10
52.287875
 20
375.615249
 11
50.440463
 21
375.615249
  0
LINE
  5
43C
100
AcDbEntity
  8
M0
100
AcDbLine
 10
50.440463
 20
368.115249
 11
50.440463
 21
381.615249
  0
LINE
  5
43D
100
AcDbEntity
  8
M0
100
AcDbLine
 10
65.940205
 20
381.615249
 11
65.940205
 21
368.115249
  0
CIRCLE
  5
43E
100
AcDbEntity
  8
M0
100
AcDbCircle
 10
58.190219
 20
374.865249
 40
5.949995
  0
LINE
  5
43F
100
AcDbEntity
  8
M0
  6
DASHDOT
100
AcDbLine
 10
58.190219
 20
384.869705
 11
58.190219
 21
364.983276
  0
LINE
  5
440
100
AcDbEntity
  8
M0
100
AcDbLine
 10
56.068899
 20
374.158141
 11
58.897327
 21
376.986572
  0
LINE
  5
441
100
AcDbEntity
  8
M0
100
AcDbLine
 10
57.483112
 20
372.743926
 11
60.311539
 21
375.572356
  0
LINE
  5
442
100
AcDbEntity
  8
M0
100
AcDbLine
 10
55.361793
 20
377.693679
 11
61.018635
 21
372.036834
  0
LINE
  5
443
100
AcDbEntity
  8
M0
  6
DASHDOT
100
AcDbLine
 10
98.190205
 20
384.869689
 11
98.190205
 21
364.983215
  0
LINE
  5
444
100
AcDbEntity
  8
M0
100
AcDbLine
 10
70.190205
 20
324.865051
 11
86.18964
 21
324.865051
  0
LINE
  5
445
100
AcDbEntity
  8
M0
 62
     5
100
AcDbLine
 10
317.063002
 20
385.865766
 11
317.063002
 21
293.865766
  0
LINE
  5
446
100
AcDbEntity
  8
M0
 62
     5
100
AcDbLine
 10
289.763459
 20
382.865302
 11
249.763169
 21
382.865447
  0
ARC
  5
447
100
AcDbEntity
  8
M0
 62
     5
100
AcDbCircle
 10
316.063002
 20
385.865766
 40
1.0
100
AcDbArc
 50
0.0
 51
90.0
  0
LINE
  5
448
100
AcDbEntity
  8
M0
 62
     7
100
AcDbLine
 10
172.563517
 20
367.365203
 11
184.763459
 21
367.365203
  0
LINE
  5
449
100
AcDbEntity
  8
M0
 62
     7
100
AcDbLine
 10
172.563517
 20
302.365524
 11
184.763459
 21
302.365524
  0
LINE
  5
44A
100
AcDbEntity
  8
M0
 62
     7
100
AcDbLine
 10
184.763459
 20
367.365203
 11
184.763459
 21
352.865203
  0
LINE
  5
44B
100
AcDbEntity
  8
M0
 62
     7
100
AcDbLine
 10
172.063517
 20
366.865203
 11
172.063517
 21
337.865707
  0
ARC
  5
44C
100
AcDbEntity
  8
M0
 62
     7
100
AcDbCircle
 10
172.563517
 20
366.865203
 40
0.5
100
AcDbArc
 50
90.0
 51
180.0
  0
ARC
  5
44D
100
AcDbEntity
  8
M0
 62
     7
100
AcDbCircle
 10
172.563517
 20
302.865524
 40
0.5
100
AcDbArc
 50
180.0
 51
270.0
  0
LINE
  5
44E
100
AcDbEntity
  8
M0
 62
     7
100
AcDbLine
 10
184.763459
 20
368.865203
 11
184.796906
 21
368.865203
  0
LINE
  5
44F
100
AcDbEntity
  8
M0
 62
     7
100
AcDbLine
 10
182.763459
 20
367.365203
 11
184.763459
 21
368.865203
  0
LINE
  5
450
100
AcDbEntity
  8
M0
 62
     7
100
AcDbLine
 10
184.763459
 20
300.865524
 11
184.796906
 21
300.865524
  0
LINE
  5
451
100
AcDbEntity
  8
M0
 62
     7
100
AcDbLine
 10
182.763459
 20
302.365524
 11
184.763459
 21
300.865524
  0
LINE
  5
452
100
AcDbEntity
  8
M0
 62
     7
100
AcDbLine
 10
184.763459
 20
316.865981
 11
184.763459
 21
302.365524
  0
LINE
  5
453
100
AcDbEntity
  8
M0
 62
     7
100
AcDbLine
 10
172.063517
 20
337.865707
 11
172.063517
 21
302.865524
  0
LINE
  5
454
100
AcDbEntity
  8
M0
 62
     4
100
AcDbLine
 10
85.34073
 20
382.864748
 11
71.040696
 21
382.864757
  0
LINE
  5
455
100
AcDbEntity
  8
M0
 62
     4
100
AcDbLine
 10
70.040695
 20
381.864757
 11
70.040686
 21
367.364757
  0
LINE
  5
456
100
AcDbEntity
  8
M0
 62
     4
100
AcDbLine
 10
86.34072
 20
367.364747
 11
86.34073
 21
381.864747
  0
ARC
  5
457
100
AcDbEntity
  8
M0
 62
     4
100
AcDbCircle
 10
71.040695
 20
381.864757
 40
1.0
100
AcDbArc
 50
90.0
 51
179.999964
  0
ARC
  5
458
100
AcDbEntity
  8
M0
 62
     4
100
AcDbCircle
 10
85.34072
 20
367.364748
 40
1.0
100
AcDbArc
 50
345.537726
 51
359.99909
  0
ARC
  5
459
100
AcDbEntity
  8
M0
 62
     4
100
AcDbCircle
 10
85.34073
 20
381.864748
 40
1.0
100
AcDbArc
 50
359.99909
 51
450.0
  0
LINE
  5
45A
100
AcDbEntity
  8
M0
 62
     4
100
AcDbLine
 10
71.039981
 20
286.865493
 11
85.340015
 21
286.865493
  0
LINE
  5
45B
100
AcDbEntity
  8
M0
 62
     4
100
AcDbLine
 10
86.340015
 20
287.865493
 11
86.340015
 21
302.365493
  0
LINE
  5
45C
100
AcDbEntity
  8
M0
 62
     4
100
AcDbLine
 10
70.039981
 20
302.365493
 11
70.039981
 21
287.865493
  0
ARC
  5
45D
100
AcDbEntity
  8
M0
 62
     4
100
AcDbCircle
 10
85.340015
 20
287.865493
 40
1.0
100
AcDbArc
 50
269.999126
 51
360.0
  0
ARC
  5
45E
100
AcDbEntity
  8
M0
 62
     4
100
AcDbCircle
 10
71.039981
 20
287.865493
 40
1.0
100
AcDbArc
 50
180.0
 51
270.0
  0
LINE
  5
45F
100
AcDbEntity
  8
M0
 62
     1
100
AcDbLine
 10
78.1899
 20
366.865737
 11
46.68993
 21
366.865737
  0
LINE
  5
460
100
AcDbEntity
  8
M0
 62
     1
100
AcDbLine
 10
46.68993
 20
302.865737
 11
78.189915
 21
302.865737
  0
LINE
  5
461
100
AcDbEntity
  8
M0
 62
     1
100
AcDbLine
 10
46.68993
 20
366.865737
 11
46.68993
 21
339.195861
  0
LINE
  5
462
100
AcDbEntity
  8
M0
 62
     1
100
AcDbLine
 10
46.68993
 20
330.535613
 11
46.68993
 21
302.865737
  0
ARC
  5
463
100
AcDbEntity
  8
M0
 62
     1
100
AcDbCircle
 10
44.18993
 20
334.865737
 40
5.0
100
AcDbArc
 50
299.99993
 51
419.999925
  0
LINE
  5
464
100
AcDbEntity
  8
M0
 62
     1
100
AcDbLine
 10
78.189952
 20
366.865737
 11
109.689915
 21
366.865737
  0
LINE
  5
465
100
AcDbEntity
  8
M0
 62
     1
100
AcDbLine
 10
109.689915
 20
302.865737
 11
78.189936
 21
302.865737
  0
LINE
  5
466
100
AcDbEntity
  8
M0
 62
     1
100
AcDbLine
 10
109.689915
 20
366.865737
 11
109.689915
 21
339.195861
  0
LINE
  5
467
100
AcDbEntity
  8
M0
 62
     1
100
AcDbLine
 10
109.689915
 20
330.535613
 11
109.689915
 21
302.865737
  0
ARC
  5
468
100
AcDbEntity
  8
M0
 62
     1
100
AcDbCircle
 10
112.189915
 20
334.865737
 40
5.0
100
AcDbArc
 50
120.000018
 51
239.999918
  0
LINE
  5
469
100
AcDbEntity
  8
M0
  6
DASHDOT
100
AcDbLine
 10
34.189716
 20
304.865539
 11
34.189716
 21
364.865539
  0
LINE
  5
46A
100
AcDbEntity
  8
M0
100
AcDbLine
 10
112.789784
 20
363.764907
 11
112.789784
 21
364.211684
  0
LINE
  5
46B
100
AcDbEntity
  8
M0
100
AcDbLine
 10
112.789784
 20
369.518325
 11
112.789784
 21
369.964858
  0
LINE
  5
46C
100
AcDbEntity
  8
M0
100
AcDbLine
 10
114.543202
 20
368.279067
 11
112.775623
 21
366.511489
  0
LINE
  5
46D
100
AcDbEntity
  8
M0
100
AcDbLine
 10
115.780506
 20
365.274184
 11
112.598866
 21
368.455825
  0
LINE
  5
46E
100
AcDbEntity
  8
M0
  6
DASHDOT
100
AcDbLine
 10
108.6899
 20
366.865005
 11
120.464832
 21
366.865005
  0
LINE
  5
46F
100
AcDbEntity
  8
M0
100
AcDbLine
 10
110.414784
 20
368.165054
 11
110.414784
 21
365.564956
  0
LINE
  5
470
100
AcDbEntity
  8
M0
100
AcDbLine
 10
115.589832
 20
369.518325
 11
115.589832
 21
369.964858
  0
ARC
  5
471
100
AcDbEntity
  8
M0
100
AcDbCircle
 10
111.708973
 20
363.064967
 40
0.5
100
AcDbArc
 50
197.116934
 51
269.998251
  0
ARC
  5
472
100
AcDbEntity
  8
M0
100
AcDbCircle
 10
116.670643
 20
370.664809
 40
0.5
100
AcDbArc
 50
17.151452
 51
90.0
  0
LINE
  5
473
100
AcDbEntity
  8
M0
  6
DASHDOT
100
AcDbLine
 10
114.18993
 20
339.378018
 11
114.18993
 21
373.665054
  0
ARC
  5
474
100
AcDbEntity
  8
M0
100
AcDbCircle
 10
116.670643
 20
363.064967
 40
0.5
100
AcDbArc
 50
269.998251
 51
342.874517
  0
LINE
  5
475
100
AcDbEntity
  8
M0
100
AcDbLine
 10
115.603748
 20
367.21852
 11
113.83617
 21
365.450942
  0
LINE
  5
476
100
AcDbEntity
  8
M0
100
AcDbLine
 10
115.589832
 20
363.764907
 11
115.589832
 21
364.211684
  0
ARC
  5
477
100
AcDbEntity
  8
M0
100
AcDbCircle
 10
111.708973
 20
370.664809
 40
0.5
100
AcDbArc
 50
90.0
 51
162.856778
  0
CIRCLE
  5
478
100
AcDbEntity
  8
M0
100
AcDbCircle
 10
114.18993
 20
366.865005
 40
3.0
  0
LINE
  5
479
100
AcDbEntity
  8
M0
100
AcDbLine
 10
117.148426
 20
370.81227
 11
117.964832
 21
368.165054
  0
LINE
  5
47A
100
AcDbEntity
  8
M0
100
AcDbLine
 10
111.230946
 20
362.917751
 11
110.414784
 21
365.564956
  0
LINE
  5
47B
100
AcDbEntity
  8
M0
100
AcDbLine
 10
116.511463
 20
368.764907
 11
117.779774
 21
368.764907
  0
LINE
  5
47C
100
AcDbEntity
  8
M0
100
AcDbLine
 10
117.148426
 20
362.917751
 11
117.964832
 21
365.564956
  0
LINE
  5
47D
100
AcDbEntity
  8
M0
100
AcDbLine
 10
112.789784
 20
369.964858
 11
110.969715
 21
369.964858
  0
LINE
  5
47E
100
AcDbEntity
  8
M0
100
AcDbLine
 10
115.589832
 20
369.964858
 11
117.409901
 21
369.964858
  0
LINE
  5
47F
100
AcDbEntity
  8
M0
100
AcDbLine
 10
111.230946
 20
370.81227
 11
110.414784
 21
368.165054
  0
LINE
  5
480
100
AcDbEntity
  8
M0
100
AcDbLine
 10
112.789784
 20
363.764907
 11
110.969715
 21
363.764907
  0
LINE
  5
481
100
AcDbEntity
  8
M0
100
AcDbLine
 10
111.868153
 20
364.964858
 11
110.599842
 21
364.964858
  0
LINE
  5
482
100
AcDbEntity
  8
M0
100
AcDbLine
 10
117.964832
 20
365.564956
 11
117.964832
 21
368.165054
  0
LINE
  5
483
100
AcDbEntity
  8
M0
100
AcDbLine
 10
111.708973
 20
362.564967
 11
116.670643
 21
362.564967
  0
LINE
  5
484
100
AcDbEntity
  8
M0
100
AcDbLine
 10
116.511463
 20
364.964858
 11
117.779774
 21
364.964858
  0
LINE
  5
485
100
AcDbEntity
  8
M0
100
AcDbLine
 10
116.670643
 20
371.165054
 11
111.708973
 21
371.164809
  0
LINE
  5
486
100
AcDbEntity
  8
M0
100
AcDbLine
 10
111.868153
 20
368.764907
 11
110.599842
 21
368.764907
  0
LINE
  5
487
100
AcDbEntity
  8
M0
100
AcDbLine
 10
115.589832
 20
363.764907
 11
117.409901
 21
363.764907
  0
LINE
  5
488
100
AcDbEntity
  8
M0
100
AcDbLine
 10
69.189914
 20
401.865249
 11
69.189914
 21
387.865005
  0
LINE
  5
489
100
AcDbEntity
  8
M0
100
AcDbLine
 10
57.189914
 20
401.865249
 11
57.189914
 21
386.865724
  0
LINE
  5
48A
100
AcDbEntity
  8
M0
100
AcDbLine
 10
67.189914
 20
401.865249
 11
67.189914
 21
387.865005
  0
LINE
  5
48B
100
AcDbEntity
  8
M0
100
AcDbLine
 10
59.189914
 20
401.865249
 11
59.189914
 21
386.865725
  0
LINE
  5
48C
100
AcDbEntity
  8
M0
100
AcDbLine
 10
61.789767
 20
392.765395
 11
61.789767
 21
393.212173
  0
LINE
  5
48D
100
AcDbEntity
  8
M0
100
AcDbLine
 10
61.789767
 20
398.518813
 11
61.789767
 21
398.965347
  0
LINE
  5
48E
100
AcDbEntity
  8
M0
100
AcDbLine
 10
63.543185
 20
397.279556
 11
61.775607
 21
395.511977
  0
LINE
  5
48F
100
AcDbEntity
  8
M0
100
AcDbLine
 10
64.78049
 20
394.274673
 11
61.598849
 21
397.456313
  0
LINE
  5
490
100
AcDbEntity
  8
M0
  6
DASHDOT
100
AcDbLine
 10
57.689883
 20
395.865493
 11
69.464816
 21
395.865493
  0
LINE
  5
491
100
AcDbEntity
  8
M0
100
AcDbLine
 10
59.414767
 20
397.165542
 11
59.414767
 21
394.565444
  0
LINE
  5
492
100
AcDbEntity
  8
M0
100
AcDbLine
 10
64.589816
 20
398.518813
 11
64.589816
 21
398.965347
  0
ARC
  5
493
100
AcDbEntity
  8
M0
100
AcDbCircle
 10
60.708957
 20
392.065456
 40
0.5
100
AcDbArc
 50
197.116934
 51
269.998251
  0
ARC
  5
494
100
AcDbEntity
  8
M0
100
AcDbCircle
 10
65.670627
 20
399.665298
 40
0.5
100
AcDbArc
 50
17.151452
 51
90.0
  0
LINE
  5
495
100
AcDbEntity
  8
M0
  6
DASHDOT
100
AcDbLine
 10
63.189914
 20
389.407475
 11
63.189914
 21
402.665542
  0
ARC
  5
496
100
AcDbEntity
  8
M0
100
AcDbCircle
 10
65.670627
 20
392.065456
 40
0.5
100
AcDbArc
 50
269.998251
 51
342.874517
  0
LINE
  5
497
100
AcDbEntity
  8
M0
100
AcDbLine
 10
64.603732
 20
396.219009
 11
62.836154
 21
394.451431
  0
LINE
  5
498
100
AcDbEntity
  8
M0
100
AcDbLine
 10
64.589816
 20
392.765395
 11
64.589816
 21
393.212173
  0
ARC
  5
499
100
AcDbEntity
  8
M0
100
AcDbCircle
 10
60.708957
 20
399.665298
 40
0.5
100
AcDbArc
 50
90.0
 51
162.856778
  0
CIRCLE
  5
49A
100
AcDbEntity
  8
M0
100
AcDbCircle
 10
63.189914
 20
395.865493
 40
3.0
  0
LINE
  5
49B
100
AcDbEntity
  8
M0
100
AcDbLine
 10
66.14841
 20
399.812759
 11
66.964816
 21
397.165542
  0
LINE
  5
49C
100
AcDbEntity
  8
M0
100
AcDbLine
 10
60.230929
 20
391.918239
 11
59.414767
 21
394.565444
  0
LINE
  5
49D
100
AcDbEntity
  8
M0
100
AcDbLine
 10
65.511447
 20
397.765395
 11
66.779757
 21
397.765395
  0
LINE
  5
49E
100
AcDbEntity
  8
M0
100
AcDbLine
 10
66.14841
 20
391.918239
 11
66.964816
 21
394.565444
  0
LINE
  5
49F
100
AcDbEntity
  8
M0
100
AcDbLine
 10
61.789767
 20
398.965347
 11
59.969699
 21
398.965347
  0
LINE
  5
4A0
100
AcDbEntity
  8
M0
100
AcDbLine
 10
64.589816
 20
398.965347
 11
66.409884
 21
398.965347
  0
LINE
  5
4A1
100
AcDbEntity
  8
M0
100
AcDbLine
 10
60.230929
 20
399.812759
 11
59.414767
 21
397.165542
  0
LINE
  5
4A2
100
AcDbEntity
  8
M0
100
AcDbLine
 10
61.789767
 20
392.765395
 11
59.969699
 21
392.765395
  0
LINE
  5
4A3
100
AcDbEntity
  8
M0
100
AcDbLine
 10
60.868136
 20
393.965347
 11
59.599826
 21
393.965347
  0
LINE
  5
4A4
100
AcDbEntity
  8
M0
100
AcDbLine
 10
66.964816
 20
394.565444
 11
66.964816
 21
397.165542
  0
LINE
  5
4A5
100
AcDbEntity
  8
M0
100
AcDbLine
 10
60.708957
 20
391.565456
 11
65.670627
 21
391.565456
  0
LINE
  5
4A6
100
AcDbEntity
  8
M0
100
AcDbLine
 10
65.511447
 20
393.965347
 11
66.779757
 21
393.965347
  0
LINE
  5
4A7
100
AcDbEntity
  8
M0
100
AcDbLine
 10
65.670627
 20
400.165542
 11
60.708957
 21
400.165298
  0
LINE
  5
4A8
100
AcDbEntity
  8
M0
100
AcDbLine
 10
60.868136
 20
397.765395
 11
59.599826
 21
397.765395
  0
LINE
  5
4A9
100
AcDbEntity
  8
M0
100
AcDbLine
 10
64.589816
 20
392.765395
 11
66.409884
 21
392.765395
  0
LINE
  5
4AA
100
AcDbEntity
  8
M0
100
AcDbLine
 10
87.189904
 20
415.865249
 11
87.189918
 21
387.865009
  0
LINE
  5
4AB
100
AcDbEntity
  8
M0
100
AcDbLine
 10
99.189911
 20
401.86526
 11
99.189918
 21
386.86575
  0
LINE
  5
4AC
100
AcDbEntity
  8
M0
100
AcDbLine
 10
89.189911
 20
401.865254
 11
89.189918
 21
387.86501
  0
LINE
  5
4AD
100
AcDbEntity
  8
M0
100
AcDbLine
 10
97.189911
 20
401.865259
 11
97.189918
 21
386.865749
  0
LINE
  5
4AE
100
AcDbEntity
  8
M0
100
AcDbLine
 10
94.590062
 20
392.765404
 11
94.590062
 21
393.212181
  0
LINE
  5
4AF
100
AcDbEntity
  8
M0
100
AcDbLine
 10
94.590059
 20
398.518822
 11
94.590059
 21
398.965355
  0
LINE
  5
4B0
100
AcDbEntity
  8
M0
100
AcDbLine
 10
92.836642
 20
397.279563
 11
94.604221
 21
395.511986
  0
LINE
  5
4B1
100
AcDbEntity
  8
M0
100
AcDbLine
 10
91.599338
 20
394.27468
 11
94.780977
 21
397.456322
  0
LINE
  5
4B2
100
AcDbEntity
  8
M0
  6
DASHDOT
100
AcDbLine
 10
98.689944
 20
395.865503
 11
86.915011
 21
395.865497
  0
LINE
  5
4B3
100
AcDbEntity
  8
M0
100
AcDbLine
 10
96.96506
 20
397.165551
 11
96.965061
 21
394.565454
  0
LINE
  5
4B4
100
AcDbEntity
  8
M0
100
AcDbLine
 10
91.79001
 20
398.51882
 11
91.79001
 21
398.965353
  0
ARC
  5
4B5
100
AcDbEntity
  8
M0
100
AcDbCircle
 10
95.670873
 20
392.065464
 40
0.5
100
AcDbArc
 50
270.001777
 51
342.883095
  0
ARC
  5
4B6
100
AcDbEntity
  8
M0
100
AcDbCircle
 10
90.709199
 20
399.665304
 40
0.5
100
AcDbArc
 50
90.0
 51
162.848577
  0
LINE
  5
4B7
100
AcDbEntity
  8
M0
  6
DASHDOT
100
AcDbLine
 10
93.189917
 20
389.407483
 11
93.18991
 21
402.665549
  0
ARC
  5
4B8
100
AcDbEntity
  8
M0
100
AcDbCircle
 10
90.709203
 20
392.065462
 40
0.5
100
AcDbArc
 50
197.125512
 51
270.001777
  0
LINE
  5
4B9
100
AcDbEntity
  8
M0
100
AcDbLine
 10
91.776095
 20
396.219016
 11
93.543674
 21
394.451438
  0
LINE
  5
4BA
100
AcDbEntity
  8
M0
100
AcDbLine
 10
91.790013
 20
392.765402
 11
91.790013
 21
393.21218
  0
ARC
  5
4BB
100
AcDbEntity
  8
M0
100
AcDbCircle
 10
95.670869
 20
399.665307
 40
0.5
100
AcDbArc
 50
17.143251
 51
90.0
  0
CIRCLE
  5
4BC
100
AcDbEntity
  8
M0
100
AcDbCircle
 10
93.189914
 20
395.865501
 40
3.0
  0
LINE
  5
4BD
100
AcDbEntity
  8
M0
100
AcDbLine
 10
90.231416
 20
399.812765
 11
89.415011
 21
397.165548
  0
LINE
  5
4BE
100
AcDbEntity
  8
M0
100
AcDbLine
 10
96.1489
 20
391.918248
 11
96.965061
 21
394.565454
  0
LINE
  5
4BF
100
AcDbEntity
  8
M0
100
AcDbLine
 10
90.86838
 20
397.765402
 11
89.600069
 21
397.765401
  0
LINE
  5
4C0
100
AcDbEntity
  8
M0
100
AcDbLine
 10
90.23142
 20
391.918245
 11
89.415012
 21
394.56545
  0
LINE
  5
4C1
100
AcDbEntity
  8
M0
100
AcDbLine
 10
94.590059
 20
398.965355
 11
96.410127
 21
398.965356
  0
LINE
  5
4C2
100
AcDbEntity
  8
M0
100
AcDbLine
 10
91.79001
 20
398.965353
 11
89.969941
 21
398.965353
  0
LINE
  5
4C3
100
AcDbEntity
  8
M0
100
AcDbLine
 10
96.148896
 20
399.812768
 11
96.96506
 21
397.165551
  0
LINE
  5
4C4
100
AcDbEntity
  8
M0
100
AcDbLine
 10
94.590062
 20
392.765404
 11
96.41013
 21
392.765405
  0
LINE
  5
4C5
100
AcDbEntity
  8
M0
100
AcDbLine
 10
95.511692
 20
393.965355
 11
96.780003
 21
393.965356
  0
LINE
  5
4C6
100
AcDbEntity
  8
M0
100
AcDbLine
 10
89.415012
 20
394.56545
 11
89.415011
 21
397.165548
  0
LINE
  5
4C7
100
AcDbEntity
  8
M0
100
AcDbLine
 10
95.670873
 20
391.565464
 11
90.709203
 21
391.565462
  0
LINE
  5
4C8
100
AcDbEntity
  8
M0
100
AcDbLine
 10
90.868381
 20
393.965353
 11
89.600071
 21
393.965352
  0
LINE
  5
4C9
100
AcDbEntity
  8
M0
100
AcDbLine
 10
90.709199
 20
400.165548
 11
95.670869
 21
400.165307
  0
LINE
  5
4CA
100
AcDbEntity
  8
M0
100
AcDbLine
 10
95.51169
 20
397.765404
 11
96.780001
 21
397.765405
  0
LINE
  5
4CB
100
AcDbEntity
  8
M0
100
AcDbLine
 10
91.790013
 20
392.765402
 11
89.969945
 21
392.765401
  0
LINE
  5
4CC
100
AcDbEntity
  8
M0
100
AcDbLine
 10
84.361484
 20
401.865249
 11
87.189909
 21
404.693675
  0
LINE
  5
4CD
100
AcDbEntity
  8
M0
100
AcDbLine
 10
81.533056
 20
401.865249
 11
87.189908
 21
407.5221
  0
LINE
  5
4CE
100
AcDbEntity
  8
M0
100
AcDbLine
 10
78.704629
 20
401.865249
 11
87.189906
 21
410.350526
  0
LINE
  5
4CF
100
AcDbEntity
  8
M0
100
AcDbLine
 10
75.876202
 20
401.865249
 11
87.189905
 21
413.178952
  0
LINE
  5
4D0
100
AcDbEntity
  8
M0
100
AcDbLine
 10
73.047775
 20
401.865249
 11
87.047775
 21
415.865249
  0
LINE
  5
4D1
100
AcDbEntity
  8
M0
100
AcDbLine
 10
70.219348
 20
401.865249
 11
84.219348
 21
415.865249
  0
LINE
  5
4D2
100
AcDbEntity
  8
M0
100
AcDbLine
 10
67.390921
 20
401.865249
 11
81.390921
 21
415.865249
  0
LINE
  5
4D3
100
AcDbEntity
  8
M0
100
AcDbLine
 10
64.562494
 20
401.865249
 11
78.562494
 21
415.865249
  0
LINE
  5
4D4
100
AcDbEntity
  8
M0
100
AcDbLine
 10
61.734067
 20
401.865249
 11
75.734067
 21
415.865249
  0
LINE
  5
4D5
100
AcDbEntity
  8
M0
100
AcDbLine
 10
58.905639
 20
401.865249
 11
72.905639
 21
415.865249
  0
LINE
  5
4D6
100
AcDbEntity
  8
M0
100
AcDbLine
 10
56.077212
 20
401.865249
 11
70.077212
 21
415.865249
  0
LINE
  5
4D7
100
AcDbEntity
  8
M0
100
AcDbLine
 10
53.248785
 20
401.865249
 11
67.248785
 21
415.865249
  0
LINE
  5
4D8
100
AcDbEntity
  8
M0
100
AcDbLine
 10
50.420358
 20
401.865249
 11
64.420358
 21
415.865249
  0
LINE
  5
4D9
100
AcDbEntity
  8
M0
100
AcDbLine
 10
48.189912
 20
402.46323
 11
61.591931
 21
415.865249
  0
LINE
  5
4DA
100
AcDbEntity
  8
M0
100
AcDbLine
 10
48.189911
 20
405.291656
 11
58.763504
 21
415.865249
  0
LINE
  5
4DB
100
AcDbEntity
  8
M0
100
AcDbLine
 10
48.189911
 20
408.120083
 11
55.935077
 21
415.865249
  0
LINE
  5
4DC
100
AcDbEntity
  8
M0
100
AcDbLine
 10
48.18991
 20
410.948509
 11
53.10665
 21
415.865249
  0
LINE
  5
4DD
100
AcDbEntity
  8
M0
100
AcDbLine
 10
48.189909
 20
413.776936
 11
50.278222
 21
415.865249
  0
LINE
  5
4DE
100
AcDbEntity
  8
M0
100
AcDbLine
 10
296.935032
 20
393.865249
 11
299.763459
 21
396.693676
  0
LINE
  5
4DF
100
AcDbEntity
  8
M0
100
AcDbLine
 10
294.106605
 20
393.865249
 11
299.763459
 21
399.522103
  0
LINE
  5
4E0
100
AcDbEntity
  8
M0
100
AcDbLine
 10
291.278178
 20
393.865249
 11
299.763459
 21
402.35053
  0
LINE
  5
4E1
100
AcDbEntity
  8
M0
100
AcDbLine
 10
288.449751
 20
393.865249
 11
299.763459
 21
405.178957
  0
LINE
  5
4E2
100
AcDbEntity
  8
M0
100
AcDbLine
 10
287.763459
 20
396.007385
 11
299.763459
 21
408.007385
  0
LINE
  5
4E3
100
AcDbEntity
  8
M0
100
AcDbLine
 10
287.763459
 20
398.835812
 11
299.763459
 21
410.835812
  0
LINE
  5
4E4
100
AcDbEntity
  8
M0
100
AcDbLine
 10
287.763459
 20
401.664239
 11
299.763459
 21
413.664239
  0
LINE
  5
4E5
100
AcDbEntity
  8
M0
100
AcDbLine
 10
287.763459
 20
404.492666
 11
299.136042
 21
415.865249
  0
LINE
  5
4E6
100
AcDbEntity
  8
M0
100
AcDbLine
 10
287.763459
 20
407.321093
 11
296.307615
 21
415.865249
  0
LINE
  5
4E7
100
AcDbEntity
  8
M0
100
AcDbLine
 10
287.763459
 20
410.14952
 11
293.479188
 21
415.865249
  0
LINE
  5
4E8
100
AcDbEntity
  8
M0
100
AcDbLine
 10
287.763459
 20
412.977947
 11
290.650761
 21
415.865249
  0
LINE
  5
4E9
100
AcDbEntity
  8
M0
100
AcDbLine
 10
287.763459
 20
415.806374
 11
287.822334
 21
415.865249
  0
LINE
  5
4EA
100
AcDbEntity
  8
M0
100
AcDbLine
 10
304.234575
 20
389.865766
 11
307.063002
 21
392.694193
  0
LINE
  5
4EB
100
AcDbEntity
  8
M0
100
AcDbLine
 10
301.406147
 20
389.865766
 11
307.063002
 21
395.52262
  0
LINE
  5
4EC
100
AcDbEntity
  8
M0
100
AcDbLine
 10
301.063002
 20
392.351048
 11
307.063002
 21
398.351048
  0
LINE
  5
4ED
100
AcDbEntity
  8
M0
100
AcDbLine
 10
301.063002
 20
395.179475
 11
307.063002
 21
401.179475
  0
LINE
  5
4EE
100
AcDbEntity
  8
M0
100
AcDbLine
 10
301.063002
 20
398.007902
 11
304.920866
 21
401.865766
  0
LINE
  5
4EF
100
AcDbEntity
  8
M0
100
AcDbLine
 10
301.063002
 20
400.836329
 11
302.092439
 21
401.865766
  0
LINE
  5
4F0
100
AcDbEntity
  8
M0
  6
DIVIDE
100
AcDbLine
 10
108.190045
 20
211.152944
 11
48.190045
 21
211.152944
  0
LINE
  5
4F1
100
AcDbEntity
  8
M0
  6
DIVIDE
100
AcDbLine
 10
48.190045
 20
211.152944
 11
48.190049
 21
196.153414
  0
LINE
  5
4F2
100
AcDbEntity
  8
M0
  6
DIVIDE
100
AcDbLine
 10
68.190075
 20
96.15381
 11
68.190078
 21
84.153791
  0
LINE
  5
4F3
100
AcDbEntity
  8
M0
  6
DIVIDE
100
AcDbLine
 10
64.190075
 20
96.153188
 11
64.190078
 21
84.153767
  0
LINE
  5
4F4
100
AcDbEntity
  8
M0
  6
DIVIDE
100
AcDbLine
 10
108.190045
 20
211.152944
 11
108.190049
 21
196.153451
  0
LINE
  5
4F5
100
AcDbEntity
  8
M0
  6
DIVIDE
100
AcDbLine
 10
68.190078
 20
84.153791
 11
64.190078
 21
84.153767
  0
LINE
  5
4F6
100
AcDbEntity
  8
M0
  6
DIVIDE
100
AcDbLine
 10
34.190049
 20
196.153405
 11
48.190049
 21
196.153414
  0
LINE
  5
4F7
100
AcDbEntity
  8
M0
  6
DIVIDE
100
AcDbLine
 10
34.190049
 20
196.153405
 11
34.190074
 21
96.153889
  0
LINE
  5
4F8
100
AcDbEntity
  8
M0
  6
DASHDOT
 62
     6
100
AcDbLine
 10
28.741165
 20
144.153432
 11
78.190063
 21
144.153432
  0
LINE
  5
4F9
100
AcDbEntity
  8
M0
  6
DASHDOT
 62
     6
100
AcDbLine
 10
127.638961
 20
144.153463
 11
78.190063
 21
144.153432
  0
ARC
  5
4FA
100
AcDbEntity
  8
M0
 62
     5
100
AcDbCircle
 10
121.690063
 20
181.652456
 40
0.5
100
AcDbArc
 50
0.0
 51
90.0
  0
ARC
  5
4FB
100
AcDbEntity
  8
M0
 62
     5
100
AcDbCircle
 10
34.689865
 20
106.653173
 40
0.5
100
AcDbArc
 50
179.998251
 51
270.0
  0
LINE
  5
4FC
100
AcDbEntity
  8
M0
  6
DIVIDE
 62
     6
100
AcDbLine
 10
122.190338
 20
96.153685
 11
68.190075
 21
96.15381
  0
LINE
  5
4FD
100
AcDbEntity
  8
M0
  6
DIVIDE
 62
     6
100
AcDbLine
 10
122.190338
 20
196.153459
 11
122.190338
 21
96.153685
  0
LINE
  5
4FE
100
AcDbEntity
  8
M0
  6
DASHDOT
 62
     1
100
AcDbLine
 10
78.190043
 20
220.492043
 11
78.190062
 21
144.153432
  0
LINE
  5
4FF
100
AcDbEntity
  8
M0
  6
DASHDOT
 62
     1
100
AcDbLine
 10
78.190062
 20
144.153676
 11
78.189574
 21
144.153188
  0
LINE
  5
500
100
AcDbEntity
  8
M0
  6
DIVIDE
 62
     1
100
AcDbLine
 10
78.189574
 20
144.153188
 11
78.190062
 21
144.153676
  0
LINE
  5
501
100
AcDbEntity
  8
M0
  6
DASHDOT
 62
     1
100
AcDbLine
 10
78.190062
 20
144.153432
 11
78.190078
 21
86.014941
  0
LINE
  5
502
100
AcDbEntity
  8
M0
  6
DIVIDE
100
AcDbLine
 10
108.190049
 20
196.153451
 11
122.190338
 21
196.153459
  0
LINE
  5
503
100
AcDbEntity
  8
M0
  6
DIVIDE
 62
     6
100
AcDbLine
 10
64.190075
 20
96.153819
 11
34.190074
 21
96.153889
  0
CIRCLE
  5
504
100
AcDbEntity
  8
M0
100
AcDbCircle
 10
43.190054
 20
176.652944
 40
4.0
  0
CIRCLE
  5
505
100
AcDbEntity
  8
M0
100
AcDbCircle
 10
43.190054
 20
176.652944
 40
2.799999
  0
LINE
  5
506
100
AcDbEntity
  8
M0
  6
DASHDOT
100
AcDbLine
 10
55.190054
 20
176.652944
 11
31.190054
 21
176.652944
  0
LINE
  5
507
100
AcDbEntity
  8
M0
  6
DASHDOT
100
AcDbLine
 10
43.190054
 20
164.652944
 11
43.190054
 21
188.652944
  0
CIRCLE
  5
508
100
AcDbEntity
  8
M0
100
AcDbCircle
 10
113.19007
 20
111.652944
 40
4.0
  0
CIRCLE
  5
509
100
AcDbEntity
  8
M0
100
AcDbCircle
 10
113.19007
 20
111.652944
 40
2.799999
  0
LINE
  5
50A
100
AcDbEntity
  8
M0
  6
DASHDOT
100
AcDbLine
 10
125.19007
 20
111.652944
 11
101.19007
 21
111.652944
  0
LINE
  5
50B
100
AcDbEntity
  8
M0
  6
DASHDOT
100
AcDbLine
 10
113.19007
 20
99.652944
 11
113.19007
 21
123.652944
  0
LINE
  5
50C
100
AcDbEntity
  8
M1
 62
     2
100
AcDbLine
 10
16.666666
 20
16.666666
 11
16.666666
 21
474.999981
  0
LINE
  5
50D
100
AcDbEntity
  8
M1
 62
     2
100
AcDbLine
 10
16.666666
 20
474.999981
 11
333.33332
 21
474.999981
  0
LINE
  5
50E
100
AcDbEntity
  8
M1
 62
     2
100
AcDbLine
 10
333.33332
 20
474.999981
 11
333.33332
 21
16.666666
  0
LINE
  5
50F
100
AcDbEntity
  8
M1
 62
     2
100
AcDbLine
 10
333.33332
 20
16.666666
 11
16.666666
 21
16.666666
  0
LINE
  5
510
100
AcDbEntity
  8
M1
 62
     2
100
AcDbLine
 10
333.33332
 20
33.333332
 11
166.66666
 21
33.333332
  0
LINE
  5
511
100
AcDbEntity
  8
M1
 62
     2
100
AcDbLine
 10
333.33332
 20
49.999998
 11
166.66666
 21
49.999998
  0
LINE
  5
512
100
AcDbEntity
  8
M1
 62
     2
100
AcDbLine
 10
333.33332
 20
66.666664
 11
166.66666
 21
66.666664
  0
LINE
  5
513
100
AcDbEntity
  8
M1
 62
     2
100
AcDbLine
 10
166.66666
 20
16.666666
 11
166.66666
 21
66.666664
  0
TEXT
  5
514
100
AcDbEntity
  8
M1
 62
     2
100
AcDbText
 10
170.833327
 20
20.833333
 40
8.333333
  1
適　用；
 41
1.0
  7
STANDARD
100
AcDbText
  0
TEXT
  5
515
100
AcDbEntity
  8
M1
 62
     2
100
AcDbText
 10
170.833327
 20
54.166665
 40
8.333333
  1
登録名：
 41
1.0
  7
STANDARD
100
AcDbText
  0
TEXT
  5
516
100
AcDbEntity
  8
M1
 62
     2
100
AcDbText
 10
210.833325
 20
54.166665
 40
8.333333
  1
ＤＭＨ６５ＣＬＲ００
 41
0.5
  7
STANDARD
100
AcDbText
  0
TEXT
  5
517
100
AcDbEntity
  8
M1
 62
     2
100
AcDbText
 10
170.833327
 20
37.499999
 40
8.333333
  1
形　式；
 41
1.0
  7
STANDARD
100
AcDbText
  0
TEXT
  5
518
100
AcDbEntity
  8
M1
 62
     2
100
AcDbText
 10
210.833325
 20
37.499999
 40
8.333333
  1
Ｈ６５Ｃ－Ｌ，Ｈ６５Ｃ－ＬＧ
 41
0.5
  7
STANDARD
100
AcDbText
  0
LINE
  5
519
100
AcDbEntity
  8
DN0
100
AcDbLine
 10
64.379036
 20
64.815361
 11
94.812369
 21
64.815361
  0
TEXT
  5
51A
100
AcDbEntity
  8
DN0
100
AcDbText
 10
65.220702
 20
65.565361
 40
7.5
  1
せん孔図
 41
0.833333
  7
STANDARD
100
AcDbText
  0
ENDSEC
  0
SECTION
  2
OBJECTS
  0
DICTIONARY
  5
C
100
AcDbDictionary
  3
ACAD_GROUP
350
D
  3
ACAD_MLINESTYLE
350
E
  0
DICTIONARY
  5
D
102
{ACAD_REACTORS
330
C
102
}
100
AcDbDictionary
  0
DICTIONARY
  5
E
102
{ACAD_REACTORS
330
C
102
}
100
AcDbDictionary
  3
STANDARD
350
13
  0
MLINESTYLE
  5
13
102
{ACAD_REACTORS
330
E
102
}
100
AcDbMlineStyle
  2
STANDARD
 70
     0
  3

 62
     0
 51
90.0
 52
90.0
 71
     2
 49
0.5
 62
   256
  6
BYLAYER
 49
-0.5
 62
   256
  6
BYLAYER
  0
ENDSEC
  0
EOF
