  0
SECTION
  2
HEADER
  9
$ACADVER
  1
AC1014
  9
$INSBASE
 10
0.000000
 20
0.000000
 30
0.0
  9
$VIEWCTR
 10
7.531722
 20
4.5
  9
$VIEWSIZE
 40
9.0
  9
$SNAPMODE
 70
     0
  9
$SNAPUNIT
 10
1.0
 20
1.0
  9
$SNAPBASE
 10
0.0
 20
0.0
  9
$SNAPANG
 50
0.0
  9
$SNAPSTYLE
 70
     0
  9
$SNAPISOPAIR
 70
     0
  9
$GRIDMODE
 70
     0
  9
$GRIDUNIT
 10
0.0
 20
0.0
  9
$ORTHOMODE
 70
     0
  9
$REGENMODE
 70
     1
  9
$FILLMODE
 70
     1
  9
$QTEXTMODE
 70
     0
  9
$DRAGMODE
 70
     2
  9
$LTSCALE
  40
     1.000000
  9
$OSMODE
 70
     0
  9
$ATTMODE
 70
     1
  9
$TEXTSIZE
 40
0.2
  9
$TRACEWID
 40
0.05
  9
$TEXTSTYLE
  7
STANDARD
  9
$CELTYPE
  6
BYLAYER
  9
$CECOLOR
 62
   256
  9
$DIMSCALE
 40
1.0
  9
$DIMASZ
 40
0.18
  9
$DIMEXO
 40
0.0625
  9
$DIMDLI
 40
0.38
  9
$DIMRND
 40
0.0
  9
$DIMDLE
 40
0.0
  9
$DIMEXE
 40
0.18
  9
$DIMTP
 40
0.0
  9
$DIMTM
 40
0.0
  9
$DIMTXT
 40
0.18
  9
$DIMCEN
 40
0.09
  9
$DIMTSZ
 40
0.0
  9
$DIMTOL
 70
     0
  9
$DIMLIM
 70
     0
  9
$DIMTIH
 70
     1
  9
$DIMTOH
 70
     1
  9
$DIMSE1
 70
     0
  9
$DIMSE2
 70
     0
  9
$DIMTAD
 70
     0
  9
$DIMZIN
 70
     0
  9
$DIMBLK
  1

  9
$LUNITS
 70
     2
  9
$LUPREC
 70
     4
  9
$AXISMODE
 70
     0
  9
$AXISUNIT
 10
0.0
 20
0.0
  9
$SKETCHINC
 40
0.1
  9
$FILLETRAD
 40
0.0
  9
$AUNITS
 70
     0
  9
$AUPREC
 70
     0
  9
$MENU
  1
ACAD
  9
$ELEVATION
 40
0.0
  9
$THICKNESS
 40
0.0
  9
$VIEWDIR
 10
0.0
 20
0.0
 30
1.0
  9
$LIMCHECK
 70
     0
  9
$BLIPMODE
 70
     1
  9
$CHAMFERA
 40
0.0
  9
$CHAMFERB
 40
0.0
  9
$FASTZOOM
 70
     1
  9
$SKPOLY
 70
     0
  9
$TDCREATE
 40
0000000.0000000000
  9
$TDUPDATE
 40
0000000.0000000000
  9
$TDINDWG
 40
0.0000000000
  9
$TDUSRTIMER
 40
0.0000000000
  9
$USRTIMER
 70
     1
  9
$ANGBASE
 50
0.0
  9
$ANGDIR
 70
     0
  9
$PDMODE
 70
     0
  9
$PDSIZE
 40
0.0
  9
$PLINEWID
 40
0.0
  9
$COORDS
 70
     0
  9
$USERI1
 70
     0
  9
$USERI2
 70
     0
  9
$USERI3
 70
     0
  9
$USERI4
 70
     0
  9
$USERI5
 70
     0
  9
$USERR1
 40
0.0
  9
$USERR2
 40
0.0
  9
$USERR3
 40
0.0
  9
$USERR4
 40
0.0
  9
$USERR5
 40
0.0
  9
$CLAYER
  8
M0
  9
$EXTMIN
 10
30.03003
 20
30.03003
  9
$EXTMAX
 10
600.600593
 20
855.855845
  9
$LIMMIN
 10
0.0
 20
0.0
  9
$LIMMAX
 10
210.0
 20
297.0
  9
$HANDSEED
  5
5C2
  0
ENDSEC
  0
SECTION
  2
CLASSES
  0
ENDSEC
  0
SECTION
  2
TABLES
  0
TABLE
  2
VPORT
  5
8
100
AcDbSymbolTable
 70
     2
  0
VPORT
  5
14
100
AcDbSymbolTableRecord
100
AcDbViewportTableRecord
  2
*ACTIVE
 70
     0
 10
0.0
 20
0.0
 11
1.0
 21
1.0
 12
484.0
 22
297.0
 13
0.0
 23
0.0
 14
1.0
 24
1.0
 15
0.0
 25
0.0
 16
0.0
 26
0.0
 36
1.0
 17
0.0
 27
0.0
 37
0.0
 40
594.0
 41
2.0
 42
50.0
 43
0.0
 44
0.0
 50
0.0
 51
0.0
 71
     0
 72
   100
 73
     1
 74
     1
 75
     0
 76
     0
 77
     0
 78
     0
  0
ENDTAB
  0
TABLE
  2
LTYPE
  5
5
100
AcDbSymbolTable
 70
     5
  0
LTYPE
  5
15
100
AcDbSymbolTableRecord
100
AcDbLinetypeTableRecord
  2
BYBLOCK
 70
     0
  3

 72
    65
 73
     0
 40
0.0
  0
LTYPE
  5
16
100
AcDbSymbolTableRecord
100
AcDbLinetypeTableRecord
  2
BYLAYER
 70
     0
  3

 72
    65
 73
     0
 40
0.0
  0
LTYPE
  5
17
100
AcDbSymbolTableRecord
100
AcDbLinetypeTableRecord
  2
CONTINUOUS
 70
    64
  3
Solid line
 72
    65
 73
     0
 40
0.0
  0
LTYPE
  5
18
100
AcDbSymbolTableRecord
100
AcDbLinetypeTableRecord
  2
DASHED
 70
    64
  3
__ __ __ __ __ __ __ __ __ __ __ __ __ __ __ __
 72
    65
 73
     2
 40
0.75
 49
0.5
 74
     0
 49
-0.25
 74
     0
  0
LTYPE
  5
19
100
AcDbSymbolTableRecord
100
AcDbLinetypeTableRecord
  2
DASHDOT
 70
    64
  3
__ . __ . __ . __ . __ . __ . __ . __ . __ . __
 72
    65
 73
     4
 40
1.0
 49
0.5
 74
     0
 49
-0.25
 74
     0
 49
0.0
 74
     0
 49
-0.25
 74
     0
  0
LTYPE
  5
1A
100
AcDbSymbolTableRecord
100
AcDbLinetypeTableRecord
  2
DIVIDE
 70
    64
  3
____ . . ____ . . ____ . . ____ . . ____ . . __
 72
    65
 73
     6
 40
1.25
 49
0.5
 74
     0
 49
-0.25
 74
     0
 49
0.0
 74
     0
 49
-0.25
 74
     0
 49
0.0
 74
     0
 49
-0.25
 74
     0
  0
LTYPE
  5
1B
100
AcDbSymbolTableRecord
100
AcDbLinetypeTableRecord
  2
DOT
 70
    64
  3
. . . . . . . . . . . . . . . . . . . . . . . .
 72
    65
 73
     2
 40
0.25
 49
0.0
 74
     0
 49
-0.25
 74
     0
  0
ENDTAB
  0
TABLE
  2
LAYER
  5
2
100
AcDbSymbolTable
 70
   102
  0
LAYER
  5
F
100
AcDbSymbolTableRecord
100
AcDbLayerTableRecord
  2
0
 70
     0
 62
     7
  6
CONTINUOUS
  0
LAYER
  5
1C
100
AcDbSymbolTableRecord
100
AcDbLayerTableRecord
  2
DEFPOINTS
 70
     0
 62
     7
  6
CONTINUOUS
  0
LAYER
  5
1D
100
AcDbSymbolTableRecord
100
AcDbLayerTableRecord
  2
M0
 70
     0
 62
     3
  6
CONTINUOUS
  0
LAYER
  5
1E
100
AcDbSymbolTableRecord
100
AcDbLayerTableRecord
  2
M1
 70
     0
 62
     3
  6
CONTINUOUS
  0
LAYER
  5
1F
100
AcDbSymbolTableRecord
100
AcDbLayerTableRecord
  2
DD0
 70
     0
 62
     4
  6
CONTINUOUS
  0
LAYER
  5
20
100
AcDbSymbolTableRecord
100
AcDbLayerTableRecord
  2
DN0
 70
     0
 62
     2
  6
CONTINUOUS
  0
ENDTAB
  0
TABLE
  2
STYLE
  5
3
100
AcDbSymbolTable
 70
     2
  0
STYLE
  5
10
100
AcDbSymbolTableRecord
100
AcDbTextStyleTableRecord
  2
STANDARD
 70
     0
 40
0.0
 41
1.0
 50
0.0
 71
     0
 42
0.2
  3
txt
  4
BIGFONT
  0
ENDTAB
  0
TABLE
  2
VIEW
  5
6
100
AcDbSymbolTable
 70
     0
  0
ENDTAB
  0
TABLE
  2
UCS
  5
7
100
AcDbSymbolTable
 70
     0
  0
ENDTAB
  0
TABLE
  2
APPID
  5
9
100
AcDbSymbolTable
 70
     1
  0
APPID
  5
11
100
AcDbSymbolTableRecord
100
AcDbRegAppTableRecord
  2
ACAD
 70
     0
  0
ENDTAB
  0
TABLE
  2
DIMSTYLE
  5
A
100
AcDbSymbolTable
 70
     2
  0
DIMSTYLE
105
27
100
AcDbSymbolTableRecord
100
AcDbDimStyleTableRecord
  2
STANDARD
 70
     0
  3

  4

  5

  6
_OPEN
  7
_OPEN
 40
1.0
 41
9.009009
 42
1.0
 43
8.0
 44
1.0
 45
0.0
 46
0.0
 47
0.0
 48
0.0
140
9.45946
141
0.09
142
0.0
143
0.03937
144
1.0
145
0.0
146
1.0
147
0.6
 71
     0
 72
     0
 73
     1
 74
     1
 75
     0
 76
     0
 77
     3
 78
     8
170
     0
171
     2
172
     0
173
     1
174
     0
175
     0
176
     0
177
     0
178
     0
270
     2
271
     2
272
     4
273
     2
274
     2
340
10
275
     0
280
     0
281
     0
282
     0
283
     1
284
     0
285
     0
286
     0
287
     3
288
     0
  0
DIMSTYLE
105
28
100
AcDbSymbolTableRecord
100
AcDbDimStyleTableRecord
  2
LEADSTYL
 70
     0
  3

  4

  5

  6
_OPEN
  7
_OPEN
 40
1.0
 41
9.009009
 42
0.0625
 43
0.38
 44
0.18
 45
0.0
 46
0.0
 47
0.0
 48
0.0
140
9.45946
141
0.09
142
0.0
143
25.4
144
1.0
145
0.0
146
1.0
147
0.6
 71
     0
 72
     0
 73
     1
 74
     1
 75
     0
 76
     0
 77
     0
 78
     0
170
     0
171
     2
172
     0
173
     1
174
     0
175
     0
176
     0
177
     0
178
     0
270
     2
271
     4
272
     4
273
     2
274
     2
340
10
275
     0
280
     0
281
     0
282
     0
283
     1
284
     0
285
     0
286
     0
287
     3
288
     0
  0
ENDTAB
  0
TABLE
  2
BLOCK_RECORD
  5
1
100
AcDbSymbolTable
 70
    15
  0
BLOCK_RECORD
  5
21
100
AcDbSymbolTableRecord
100
AcDbBlockTableRecord
  2
*MODEL_SPACE
  0
BLOCK_RECORD
  5
24
100
AcDbSymbolTableRecord
100
AcDbBlockTableRecord
  2
*PAPER_SPACE
  0
BLOCK_RECORD
  5
29
100
AcDbSymbolTableRecord
100
AcDbBlockTableRecord
  2
_NONE
  0
BLOCK_RECORD
  5
2D
100
AcDbSymbolTableRecord
100
AcDbBlockTableRecord
  2
_OPEN
  0
BLOCK_RECORD
  5
33
100
AcDbSymbolTableRecord
100
AcDbBlockTableRecord
  2
_CLOSED
  0
BLOCK_RECORD
  5
3A
100
AcDbSymbolTableRecord
100
AcDbBlockTableRecord
  2
_ORIGIN
  0
BLOCK_RECORD
  5
3F
100
AcDbSymbolTableRecord
100
AcDbBlockTableRecord
  2
_DOT
  0
BLOCK_RECORD
  5
47
100
AcDbSymbolTableRecord
100
AcDbBlockTableRecord
  2
_OBLIQUE
  0
BLOCK_RECORD
  5
4B
100
AcDbSymbolTableRecord
100
AcDbBlockTableRecord
  2
DIMS0
  0
BLOCK_RECORD
  5
57
100
AcDbSymbolTableRecord
100
AcDbBlockTableRecord
  2
DIMS1
  0
BLOCK_RECORD
  5
63
100
AcDbSymbolTableRecord
100
AcDbBlockTableRecord
  2
DIMS2
  0
BLOCK_RECORD
  5
6F
100
AcDbSymbolTableRecord
100
AcDbBlockTableRecord
  2
DIMS3
  0
BLOCK_RECORD
  5
7B
100
AcDbSymbolTableRecord
100
AcDbBlockTableRecord
  2
DIMS4
  0
BLOCK_RECORD
  5
87
100
AcDbSymbolTableRecord
100
AcDbBlockTableRecord
  2
DIMS5
  0
BLOCK_RECORD
  5
93
100
AcDbSymbolTableRecord
100
AcDbBlockTableRecord
  2
DIMS6
  0
BLOCK_RECORD
  5
9C
100
AcDbSymbolTableRecord
100
AcDbBlockTableRecord
  2
DIMS7
  0
BLOCK_RECORD
  5
A8
100
AcDbSymbolTableRecord
100
AcDbBlockTableRecord
  2
DIMS8
  0
ENDTAB
  0
ENDSEC
  0
SECTION
  2
BLOCKS
  0
BLOCK
  5
22
100
AcDbEntity
  8
0
100
AcDbBlockBegin
  2
*MODEL_SPACE
 70
     0
 10
0.0
 20
0.0
 30
0.0
  3
*MODEL_SPACE
  1

  0
ENDBLK
  5
23
100
AcDbEntity
  8
0
100
AcDbBlockEnd
  0
BLOCK
  5
25
100
AcDbEntity
 67
     1
  8
0
100
AcDbBlockBegin
  2
*PAPER_SPACE
 70
     0
 10
0.0
 20
0.0
 30
0.0
  3
*PAPER_SPACE
  1

  0
ENDBLK
  5
26
100
AcDbEntity
 67
     1
  8
0
100
AcDbBlockEnd
  0
BLOCK
  5
2A
100
AcDbEntity
  8
0
100
AcDbBlockBegin
  2
_NONE
 70
     0
 10
0.0
 20
0.0
  0
CIRCLE
  5
2B
100
AcDbEntity
  8
0
 62
     0
100
AcDbCircle
 10
0.0
 20
0.0
 40
0.25
  0
ENDBLK
  5
2C
100
AcDbEntity
  8
0
100
AcDbBlockEnd
  0
BLOCK
  5
2E
100
AcDbEntity
  8
0
100
AcDbBlockBegin
  2
_OPEN
 70
     0
 10
0.0
 20
0.0
  0
LINE
  5
2F
100
AcDbEntity
  8
0
 62
     0
100
AcDbLine
 10
-0.965926
 20
0.258819
 11
0.0
 21
0.0
  0
LINE
  5
30
100
AcDbEntity
  8
0
 62
     0
100
AcDbLine
 10
0.0
 20
0.0
 11
-0.965926
 21
-0.258819
  0
LINE
  5
31
100
AcDbEntity
  8
0
 62
     0
100
AcDbLine
 10
0.0
 20
0.0
 11
-1.0
 21
0.0
  0
ENDBLK
  5
32
100
AcDbEntity
  8
0
100
AcDbBlockEnd
  0
BLOCK
  5
34
100
AcDbEntity
  8
0
100
AcDbBlockBegin
  2
_CLOSED
 70
     0
 10
0.0
 20
0.0
  0
LINE
  5
35
100
AcDbEntity
  8
0
 62
     0
100
AcDbLine
 10
-0.965926
 20
0.258819
 11
0.0
 21
0.0
  0
LINE
  5
36
100
AcDbEntity
  8
0
 62
     0
100
AcDbLine
 10
0.0
 20
0.0
 11
-0.965926
 21
-0.258819
  0
LINE
  5
37
100
AcDbEntity
  8
0
 62
     0
100
AcDbLine
 10
-0.965926
 20
0.258819
 11
-0.965926
 21
-0.258819
  0
LINE
  5
38
100
AcDbEntity
  8
0
 62
     0
100
AcDbLine
 10
0.0
 20
0.0
 11
-1.0
 21
0.0
  0
ENDBLK
  5
39
100
AcDbEntity
  8
0
100
AcDbBlockEnd
  0
BLOCK
  5
3B
100
AcDbEntity
  8
0
100
AcDbBlockBegin
  2
_ORIGIN
 70
     0
 10
0.0
 20
0.0
  0
CIRCLE
  5
3C
100
AcDbEntity
  8
0
 62
     0
100
AcDbCircle
 10
0.0
 20
0.0
 40
0.5
  0
LINE
  5
3D
100
AcDbEntity
  8
0
 62
     0
100
AcDbLine
 10
0.0
 20
0.0
 11
-1.0
 21
0.0
  0
ENDBLK
  5
3E
100
AcDbEntity
  8
0
100
AcDbBlockEnd
  0
BLOCK
  5
40
100
AcDbEntity
  8
0
100
AcDbBlockBegin
  2
_DOT
 70
     0
 10
0.0
 20
0.0
  0
POLYLINE
  5
41
100
AcDbEntity
  8
0
 62
     0
100
AcDb2dPolyline
 66
     1
 70
     1
 40
0.5
 41
0.5
  0
VERTEX
  5
42
100
AcDbEntity
  8
0
 62
     0
100
AcDbVertex
100
AcDb2dVertex
 10
-0.25
 20
0.0
 42
1.0
  0
VERTEX
  5
43
100
AcDbEntity
  8
0
 62
     0
100
AcDbVertex
100
AcDb2dVertex
 10
0.25
 20
0.0
 42
1.0
  0
SEQEND
  5
44
100
AcDbEntity
  8
0
 62
     0
  0
LINE
  5
45
100
AcDbEntity
  8
0
 62
     0
100
AcDbLine
 10
-0.5
 20
0.0
 11
-1.0
 21
0.0
  0
ENDBLK
  5
46
100
AcDbEntity
  8
0
100
AcDbBlockEnd
  0
BLOCK
  5
48
100
AcDbEntity
  8
0
100
AcDbBlockBegin
  2
_OBLIQUE
 70
     0
 10
0.0
 20
0.0
  0
LINE
  5
49
100
AcDbEntity
  8
0
 62
     0
100
AcDbLine
 10
-0.353553
 20
-0.353553
 11
0.353553
 21
0.353553
  0
ENDBLK
  5
4A
100
AcDbEntity
  8
0
100
AcDbBlockEnd
  0
BLOCK
  5
4C
100
AcDbEntity
  8
DD0
100
AcDbBlockBegin
  2
DIMS0
 70
     0
 10
0.0
 20
0.0
  0
LINE
  5
4D
100
AcDbEntity
  8
DD0
100
AcDbLine
 10
309.724683
 20
690.563617
 11
309.724683
 21
726.599561
  0
LINE
  5
4E
100
AcDbEntity
  8
DD0
100
AcDbLine
 10
109.724702
 20
690.563754
 11
109.724702
 21
726.599561
  0
LINE
  5
4F
100
AcDbEntity
  8
DD0
100
AcDbLine
 10
301.022649
 20
721.264855
 11
309.724683
 21
723.596558
  0
LINE
  5
50
100
AcDbEntity
  8
DD0
100
AcDbLine
 10
309.724683
 20
723.596558
 11
301.022649
 21
725.928261
  0
LINE
  5
51
100
AcDbEntity
  8
DD0
100
AcDbLine
 10
118.426736
 20
725.928261
 11
109.724702
 21
723.596558
  0
LINE
  5
52
100
AcDbEntity
  8
DD0
100
AcDbLine
 10
109.724702
 20
723.596558
 11
118.426736
 21
721.264855
  0
LINE
  5
53
100
AcDbEntity
  8
DD0
100
AcDbLine
 10
309.724683
 20
723.596558
 11
109.724702
 21
723.596558
  0
TEXT
  5
54
100
AcDbEntity
  8
DD0
100
AcDbText
 10
199.003983
 20
725.698651
 40
9.45946
  1
２００
 41
0.666667
  7
STANDARD
100
AcDbText
  0
ENDBLK
  5
55
100
AcDbEntity
  8
DD0
100
AcDbBlockEnd
  0
BLOCK
  5
58
100
AcDbEntity
  8
DD0
100
AcDbBlockBegin
  2
DIMS1
 70
     0
 10
0.0
 20
0.0
  0
LINE
  5
59
100
AcDbEntity
  8
DD0
100
AcDbLine
 10
312.727686
 20
687.560614
 11
343.220864
 21
687.560614
  0
LINE
  5
5A
100
AcDbEntity
  8
DD0
100
AcDbLine
 10
312.727618
 20
567.560641
 11
343.220864
 21
567.560641
  0
LINE
  5
5B
100
AcDbEntity
  8
DD0
100
AcDbLine
 10
342.549564
 20
678.85858
 11
340.217861
 21
687.560614
  0
LINE
  5
5C
100
AcDbEntity
  8
DD0
100
AcDbLine
 10
340.217861
 20
687.560614
 11
337.886158
 21
678.85858
  0
LINE
  5
5D
100
AcDbEntity
  8
DD0
100
AcDbLine
 10
337.886158
 20
576.262675
 11
340.217861
 21
567.560641
  0
LINE
  5
5E
100
AcDbEntity
  8
DD0
100
AcDbLine
 10
340.217861
 20
567.560641
 11
342.549564
 21
576.262675
  0
LINE
  5
5F
100
AcDbEntity
  8
DD0
100
AcDbLine
 10
340.217861
 20
687.560614
 11
340.217861
 21
567.560641
  0
TEXT
  5
60
100
AcDbEntity
  8
DD0
100
AcDbText
 10
338.115768
 20
616.839889
 40
9.45946
  1
１２０
 50
90.000003
 41
0.666667
  7
STANDARD
100
AcDbText
  0
ENDBLK
  5
61
100
AcDbEntity
  8
DD0
100
AcDbBlockEnd
  0
BLOCK
  5
64
100
AcDbEntity
  8
DD0
100
AcDbBlockBegin
  2
DIMS2
 70
     0
 10
0.0
 20
0.0
  0
LINE
  5
65
100
AcDbEntity
  8
DD0
100
AcDbLine
 10
105.224688
 20
655.563758
 11
105.224791
 21
762.635642
  0
LINE
  5
66
100
AcDbEntity
  8
DD0
100
AcDbLine
 10
314.224674
 20
655.563621
 11
314.224766
 21
762.635459
  0
LINE
  5
67
100
AcDbEntity
  8
DD0
100
AcDbLine
 10
113.926816
 20
761.964335
 11
105.22478
 21
759.632639
  0
LINE
  5
68
100
AcDbEntity
  8
DD0
100
AcDbLine
 10
105.22478
 20
759.632639
 11
113.926812
 21
757.300928
  0
LINE
  5
69
100
AcDbEntity
  8
DD0
100
AcDbLine
 10
305.52273
 20
757.30076
 11
314.224766
 21
759.632456
  0
LINE
  5
6A
100
AcDbEntity
  8
DD0
100
AcDbLine
 10
314.224766
 20
759.632456
 11
305.522734
 21
761.964167
  0
LINE
  5
6B
100
AcDbEntity
  8
DD0
100
AcDbLine
 10
105.22478
 20
759.632639
 11
314.224766
 21
759.632456
  0
TEXT
  5
6C
100
AcDbEntity
  8
DD0
100
AcDbText
 10
138.463501
 20
761.734686
 40
9.45946
  1
２０９（追加補助接点ユニット付の場合）
 50
-5.024724E-005
 41
0.666667
  7
STANDARD
100
AcDbText
  0
ENDBLK
  5
6D
100
AcDbEntity
  8
DD0
100
AcDbBlockEnd
  0
BLOCK
  5
70
100
AcDbEntity
  8
DD0
100
AcDbBlockBegin
  2
DIMS3
 70
     0
 10
0.0
 20
0.0
  0
LINE
  5
71
100
AcDbEntity
  8
DD0
100
AcDbLine
 10
312.727641
 20
470.147021
 11
343.757465
 21
470.147021
  0
LINE
  5
72
100
AcDbEntity
  8
DD0
100
AcDbLine
 10
314.727619
 20
462.646982
 11
343.757465
 21
462.646982
  0
LINE
  5
73
100
AcDbEntity
  8
DD0
100
AcDbLine
 10
338.422758
 20
478.849055
 11
340.754462
 21
470.147021
  0
LINE
  5
74
100
AcDbEntity
  8
DD0
100
AcDbLine
 10
340.754462
 20
470.147021
 11
343.086165
 21
478.849055
  0
LINE
  5
75
100
AcDbEntity
  8
DD0
100
AcDbLine
 10
343.086165
 20
453.944948
 11
340.754462
 21
462.646982
  0
LINE
  5
76
100
AcDbEntity
  8
DD0
100
AcDbLine
 10
340.754462
 20
462.646982
 11
338.422758
 21
453.944948
  0
LINE
  5
77
100
AcDbEntity
  8
DD0
100
AcDbLine
 10
340.754462
 20
505.762635
 11
340.754462
 21
452.737073
  0
TEXT
  5
78
100
AcDbEntity
  8
DD0
100
AcDbText
 10
338.652369
 20
480.687549
 40
9.45946
  1
７．５
 50
90.000003
 41
0.666667
  7
STANDARD
100
AcDbText
  0
ENDBLK
  5
79
100
AcDbEntity
  8
DD0
100
AcDbBlockEnd
  0
BLOCK
  5
7C
100
AcDbEntity
  8
DD0
100
AcDbBlockBegin
  2
DIMS4
 70
     0
 10
0.0
 20
0.0
  0
LINE
  5
7D
100
AcDbEntity
  8
DD0
100
AcDbLine
 10
314.727619
 20
462.646982
 11
343.757442
 21
462.646982
  0
LINE
  5
7E
100
AcDbEntity
  8
DD0
100
AcDbLine
 10
224.727639
 20
362.646997
 11
343.757442
 21
362.646997
  0
LINE
  5
7F
100
AcDbEntity
  8
DD0
100
AcDbLine
 10
343.086142
 20
453.944948
 11
340.754439
 21
462.646982
  0
LINE
  5
80
100
AcDbEntity
  8
DD0
100
AcDbLine
 10
340.754439
 20
462.646982
 11
338.422736
 21
453.944948
  0
LINE
  5
81
100
AcDbEntity
  8
DD0
100
AcDbLine
 10
338.422736
 20
371.349032
 11
340.754439
 21
362.646997
  0
LINE
  5
82
100
AcDbEntity
  8
DD0
100
AcDbLine
 10
340.754439
 20
362.646997
 11
343.086142
 21
371.349032
  0
LINE
  5
83
100
AcDbEntity
  8
DD0
100
AcDbLine
 10
340.754439
 20
462.646982
 11
340.754439
 21
362.646997
  0
TEXT
  5
84
100
AcDbEntity
  8
DD0
100
AcDbText
 10
338.652346
 20
401.926263
 40
9.45946
  1
１００
 50
90.000003
 41
0.666667
  7
STANDARD
100
AcDbText
  0
ENDBLK
  5
85
100
AcDbEntity
  8
DD0
100
AcDbBlockEnd
  0
BLOCK
  5
88
100
AcDbEntity
  8
DD0
100
AcDbBlockBegin
  2
DIMS5
 70
     0
 10
0.0
 20
0.0
  0
LINE
  5
89
100
AcDbEntity
  8
DD0
100
AcDbLine
 10
119.724627
 20
477.649992
 11
119.724627
 21
504.301552
  0
LINE
  5
8A
100
AcDbEntity
  8
DD0
100
AcDbLine
 10
299.724632
 20
477.649992
 11
299.724632
 21
504.301552
  0
LINE
  5
8B
100
AcDbEntity
  8
DD0
100
AcDbLine
 10
128.426662
 20
503.630252
 11
119.724627
 21
501.298549
  0
LINE
  5
8C
100
AcDbEntity
  8
DD0
100
AcDbLine
 10
119.724627
 20
501.298549
 11
128.426662
 21
498.966845
  0
LINE
  5
8D
100
AcDbEntity
  8
DD0
100
AcDbLine
 10
291.022598
 20
498.966845
 11
299.724632
 21
501.298549
  0
LINE
  5
8E
100
AcDbEntity
  8
DD0
100
AcDbLine
 10
299.724632
 20
501.298549
 11
291.022598
 21
503.630252
  0
LINE
  5
8F
100
AcDbEntity
  8
DD0
100
AcDbLine
 10
119.724627
 20
501.298549
 11
299.724632
 21
501.298549
  0
TEXT
  5
90
100
AcDbEntity
  8
DD0
100
AcDbText
 10
199.003914
 20
503.400641
 40
9.45946
  1
１８０
 41
0.666667
  7
STANDARD
100
AcDbText
  0
ENDBLK
  5
91
100
AcDbEntity
  8
DD0
100
AcDbBlockEnd
  0
BLOCK
  5
94
100
AcDbEntity
  8
DD0
100
AcDbBlockBegin
  2
DIMS6
 70
     0
 10
0.0
 20
0.0
  0
TEXT
  5
95
100
AcDbEntity
  8
DD0
100
AcDbText
 10
235.823349
 20
320.027734
 40
9.45946
  1
３－Ｍ５ねじ穴
 41
0.666667
  7
STANDARD
100
AcDbText
  0
LINE
  5
96
100
AcDbEntity
  8
DD0
100
AcDbLine
 10
217.430044
 20
352.310735
 11
211.424748
 21
359.026289
  0
LINE
  5
97
100
AcDbEntity
  8
DD0
100
AcDbLine
 10
211.424748
 20
359.026289
 11
213.26771
 21
350.2078
  0
LINE
  5
98
100
AcDbEntity
  8
DD0
100
AcDbLine
 10
211.424748
 20
359.026289
 11
232.18992
 21
317.925824
  0
LINE
  5
99
100
AcDbEntity
  8
DD0
100
AcDbLine
 10
232.189897
 20
317.925824
 11
291.168828
 21
317.925733
  0
ENDBLK
  5
9A
100
AcDbEntity
  8
DD0
100
AcDbBlockEnd
  0
BLOCK
  5
9D
100
AcDbEntity
  8
DD0
100
AcDbBlockBegin
  2
DIMS7
 70
     0
 10
0.0
 20
0.0
  0
LINE
  5
9E
100
AcDbEntity
  8
DD0
100
AcDbLine
 10
538.797412
 20
690.563709
 11
538.797412
 21
762.635459
  0
LINE
  5
9F
100
AcDbEntity
  8
DD0
100
AcDbLine
 10
416.997864
 20
662.563189
 11
416.997864
 21
762.635459
  0
LINE
  5
A0
100
AcDbEntity
  8
DD0
100
AcDbLine
 10
530.095377
 20
757.300753
 11
538.797412
 21
759.632456
  0
LINE
  5
A1
100
AcDbEntity
  8
DD0
100
AcDbLine
 10
538.797412
 20
759.632456
 11
530.095377
 21
761.964159
  0
LINE
  5
A2
100
AcDbEntity
  8
DD0
100
AcDbLine
 10
425.699898
 20
761.964159
 11
416.997864
 21
759.632456
  0
LINE
  5
A3
100
AcDbEntity
  8
DD0
100
AcDbLine
 10
416.997864
 20
759.632456
 11
425.699898
 21
757.300753
  0
LINE
  5
A4
100
AcDbEntity
  8
DD0
100
AcDbLine
 10
538.797412
 20
759.632456
 11
416.997864
 21
759.632456
  0
TEXT
  5
A5
100
AcDbEntity
  8
DD0
100
AcDbText
 10
464.48173
 20
761.434276
 40
9.45946
  1
１２３
 41
0.833333
  7
STANDARD
100
AcDbText
  0
ENDBLK
  5
A6
100
AcDbEntity
  8
DD0
100
AcDbBlockEnd
  0
BLOCK
  5
A9
100
AcDbEntity
  8
DD0
100
AcDbBlockBegin
  2
DIMS8
 70
     0
 10
0.0
 20
0.0
  0
LINE
  5
AA
100
AcDbEntity
  8
DD0
100
AcDbLine
 10
538.797412
 20
690.563709
 11
538.797412
 21
726.599561
  0
LINE
  5
AB
100
AcDbEntity
  8
DD0
100
AcDbLine
 10
540.397385
 20
690.563709
 11
540.397385
 21
726.599561
  0
LINE
  5
AC
100
AcDbEntity
  8
DD0
100
AcDbLine
 10
530.095377
 20
721.264855
 11
538.797412
 21
723.596558
  0
LINE
  5
AD
100
AcDbEntity
  8
DD0
100
AcDbLine
 10
538.797412
 20
723.596558
 11
530.095377
 21
725.928261
  0
LINE
  5
AE
100
AcDbEntity
  8
DD0
100
AcDbLine
 10
549.099419
 20
725.928261
 11
540.397385
 21
723.596558
  0
LINE
  5
AF
100
AcDbEntity
  8
DD0
100
AcDbLine
 10
540.397385
 20
723.596558
 11
549.099419
 21
721.264855
  0
LINE
  5
B0
100
AcDbEntity
  8
DD0
100
AcDbLine
 10
528.887502
 20
723.596558
 11
581.688679
 21
723.596558
  0
TEXT
  5
B1
100
AcDbEntity
  8
DD0
100
AcDbText
 10
551.080581
 20
725.398378
 40
9.45946
  1
１．６
 41
0.833333
  7
STANDARD
100
AcDbText
  0
ENDBLK
  5
B2
100
AcDbEntity
  8
DD0
100
AcDbBlockEnd
  0
ENDSEC
  0
SECTION
  2
ENTITIES
  0
INSERT
  5
56
100
AcDbEntity
  8
DD0
100
AcDbBlockReference
  2
DIMS0
 10
0.0
 20
0.0
  0
INSERT
  5
62
100
AcDbEntity
  8
DD0
100
AcDbBlockReference
  2
DIMS1
 10
0.0
 20
0.0
  0
INSERT
  5
6E
100
AcDbEntity
  8
DD0
100
AcDbBlockReference
  2
DIMS2
 10
0.0
 20
0.0
  0
INSERT
  5
7A
100
AcDbEntity
  8
DD0
100
AcDbBlockReference
  2
DIMS3
 10
0.0
 20
0.0
  0
INSERT
  5
86
100
AcDbEntity
  8
DD0
100
AcDbBlockReference
  2
DIMS4
 10
0.0
 20
0.0
  0
INSERT
  5
92
100
AcDbEntity
  8
DD0
100
AcDbBlockReference
  2
DIMS5
 10
0.0
 20
0.0
  0
INSERT
  5
9B
100
AcDbEntity
  8
DD0
100
AcDbBlockReference
  2
DIMS6
 10
0.0
 20
0.0
  0
INSERT
  5
A7
100
AcDbEntity
  8
DD0
100
AcDbBlockReference
  2
DIMS7
 10
0.0
 20
0.0
  0
INSERT
  5
B3
100
AcDbEntity
  8
DD0
100
AcDbBlockReference
  2
DIMS8
 10
0.0
 20
0.0
  0
LINE
  5
B4
100
AcDbEntity
  8
M0
100
AcDbLine
 10
218.724672
 20
656.56046
 11
218.724626
 21
598.56046
  0
LINE
  5
B5
100
AcDbEntity
  8
M0
100
AcDbLine
 10
200.724672
 20
656.560704
 11
200.724626
 21
598.560704
  0
LINE
  5
B6
100
AcDbEntity
  8
M0
100
AcDbLine
 10
218.724626
 20
598.56046
 11
200.724626
 21
598.560704
  0
LINE
  5
B7
100
AcDbEntity
  8
M0
100
AcDbLine
 10
218.724672
 20
656.56046
 11
200.724672
 21
656.560704
  0
LINE
  5
B8
100
AcDbEntity
  8
M0
 62
   154
100
AcDbLine
 10
540.397326
 20
567.560704
 11
534.297327
 21
567.560719
  0
LINE
  5
B9
100
AcDbEntity
  8
M0
 62
   154
100
AcDbLine
 10
534.297403
 20
687.560688
 11
540.397402
 21
687.560688
  0
LINE
  5
BA
100
AcDbEntity
  8
M0
 62
   154
100
AcDbLine
 10
538.797327
 20
567.560704
 11
538.797337
 21
584.060704
  0
ARC
  5
BB
100
AcDbEntity
  8
M0
 62
   154
100
AcDbCircle
 10
537.797337
 20
584.060704
 40
1.0
100
AcDbArc
 50
0.0
 51
90.0
  0
ARC
  5
BC
100
AcDbEntity
  8
M0
 62
   154
100
AcDbCircle
 10
536.897339
 20
587.66071
 40
1.0
100
AcDbArc
 50
179.999126
 51
270.0
  0
ARC
  5
BD
100
AcDbEntity
  8
M0
 62
   154
100
AcDbCircle
 10
536.897389
 20
667.460682
 40
1.0
100
AcDbArc
 50
90.0
 51
180.0
  0
LINE
  5
BE
100
AcDbEntity
  8
M0
 62
   154
100
AcDbLine
 10
538.797392
 20
671.060688
 11
538.797402
 21
687.560688
  0
ARC
  5
BF
100
AcDbEntity
  8
M0
 62
   154
100
AcDbCircle
 10
537.797392
 20
671.060688
 40
1.0
100
AcDbArc
 50
-90.0
 51
0.0
  0
LINE
  5
C0
100
AcDbEntity
  8
M0
 62
   154
100
AcDbLine
 10
537.79739
 20
668.460682
 11
536.897389
 21
668.460682
  0
ARC
  5
C1
100
AcDbEntity
  8
M0
 62
   154
100
AcDbCircle
 10
537.797392
 20
671.060688
 40
2.599999
100
AcDbArc
 50
-90.0
 51
0.0
  0
LINE
  5
C2
100
AcDbEntity
  8
M0
 62
   154
100
AcDbLine
 10
536.89739
 20
670.060688
 11
537.797391
 21
670.060688
  0
ARC
  5
C3
100
AcDbEntity
  8
M0
 62
   154
100
AcDbCircle
 10
536.897389
 20
667.460682
 40
2.599999
100
AcDbArc
 50
90.0
 51
180.0
  0
LINE
  5
C4
100
AcDbEntity
  8
M0
 62
   154
100
AcDbLine
 10
536.897338
 20
585.060704
 11
537.797338
 21
585.060704
  0
ARC
  5
C5
100
AcDbEntity
  8
M0
 62
   154
100
AcDbCircle
 10
536.897339
 20
587.66071
 40
2.599999
100
AcDbArc
 50
179.999664
 51
270.0
  0
LINE
  5
C6
100
AcDbEntity
  8
M0
 62
   154
100
AcDbLine
 10
536.897339
 20
586.66071
 11
537.797339
 21
586.66071
  0
ARC
  5
C7
100
AcDbEntity
  8
M0
 62
   154
100
AcDbCircle
 10
537.797337
 20
584.060704
 40
2.599999
100
AcDbArc
 50
0.0
 51
90.0
  0
LINE
  5
C8
100
AcDbEntity
  8
M0
 62
   154
100
AcDbLine
 10
540.39734
 20
588.433018
 11
540.39734
 21
589.060704
  0
ARC
  5
C9
100
AcDbEntity
  8
M0
 62
   154
100
AcDbCircle
 10
537.79734
 20
589.060704
 40
2.599999
100
AcDbArc
 50
0.0
 51
90.0
  0
LINE
  5
CA
100
AcDbEntity
  8
M0
 62
   154
100
AcDbLine
 10
537.797342
 20
591.66071
 11
536.897341
 21
591.66071
  0
ARC
  5
CB
100
AcDbEntity
  8
M0
 62
   154
100
AcDbCircle
 10
536.897342
 20
592.66071
 40
1.0
100
AcDbArc
 50
179.999126
 51
270.0
  0
ARC
  5
CC
100
AcDbEntity
  8
M0
 62
   154
100
AcDbCircle
 10
536.897385
 20
662.460682
 40
1.0
100
AcDbArc
 50
90.0
 51
180.0
  0
ARC
  5
CD
100
AcDbEntity
  8
M0
 62
   154
100
AcDbCircle
 10
537.797389
 20
666.060688
 40
2.599999
100
AcDbArc
 50
270.0
 51
360.0
  0
LINE
  5
CE
100
AcDbEntity
  8
M0
 62
   154
100
AcDbLine
 10
537.797387
 20
663.460682
 11
536.897386
 21
663.460682
  0
LINE
  5
CF
100
AcDbEntity
  8
M0
 62
   154
100
AcDbLine
 10
540.39734
 20
589.060704
 11
540.397326
 21
567.560704
  0
LINE
  5
D0
100
AcDbEntity
  8
M0
 62
   154
100
AcDbLine
 10
540.397402
 20
687.560688
 11
540.397388
 21
666.060673
  0
LINE
  5
D1
100
AcDbEntity
  8
M0
 62
   154
100
AcDbLine
 10
535.897339
 20
587.66071
 11
535.897389
 21
667.460682
  0
ARC
  5
D2
100
AcDbEntity
  8
M0
 62
   154
100
AcDbCircle
 10
536.897359
 20
619.960703
 40
1.0
100
AcDbArc
 50
90.0
 51
179.999945
  0
ARC
  5
D3
100
AcDbEntity
  8
M0
 62
   154
100
AcDbCircle
 10
536.897369
 20
635.160701
 40
1.0
100
AcDbArc
 50
180.0
 51
270.0
  0
LINE
  5
D4
100
AcDbEntity
  8
M0
 62
   154
100
AcDbLine
 10
534.297327
 20
567.560719
 11
534.297403
 21
687.560688
  0
ARC
  5
D5
100
AcDbEntity
  8
M0
  6
DASHED
 62
   154
100
AcDbCircle
 10
536.897359
 20
619.960703
 40
2.599999
100
AcDbArc
 50
90.0
 51
179.999958
  0
ARC
  5
D6
100
AcDbEntity
  8
M0
  6
DASHED
 62
   154
100
AcDbCircle
 10
536.897369
 20
635.160701
 40
2.599999
100
AcDbArc
 50
179.999979
 51
270.0
  0
ARC
  5
D7
100
AcDbEntity
  8
M0
  6
DASHED
 62
   154
100
AcDbCircle
 10
536.797367
 20
631.560701
 40
1.0
100
AcDbArc
 50
0.0
 51
90.0
  0
LINE
  5
D8
100
AcDbEntity
  8
M0
  6
DASHED
 62
   154
100
AcDbLine
 10
537.797362
 20
623.560703
 11
537.797367
 21
631.5607
  0
ARC
  5
D9
100
AcDbEntity
  8
M0
  6
DASHED
 62
   154
100
AcDbCircle
 10
536.797362
 20
623.560704
 40
1.0
100
AcDbArc
 50
-90.0
 51
0.0
  0
ARC
  5
DA
100
AcDbEntity
  8
M0
 62
   154
100
AcDbCircle
 10
536.797362
 20
623.560704
 40
2.599999
100
AcDbArc
 50
-90.0
 51
0.0
  0
LINE
  5
DB
100
AcDbEntity
  8
M0
 62
   154
100
AcDbLine
 10
539.397366
 20
631.5607
 11
539.397361
 21
623.560702
  0
ARC
  5
DC
100
AcDbEntity
  8
M0
 62
   154
100
AcDbCircle
 10
536.797367
 20
631.560702
 40
2.599999
100
AcDbArc
 50
0.0
 51
90.0
  0
LINE
  5
DD
100
AcDbEntity
  8
M0
 62
   154
100
AcDbLine
 10
536.897342
 20
593.060704
 11
536.897344
 21
597.060704
  0
LINE
  5
DE
100
AcDbEntity
  8
M0
 62
   154
100
AcDbLine
 10
535.897342
 20
593.060704
 11
536.897342
 21
593.060704
  0
LINE
  5
DF
100
AcDbEntity
  8
M0
 62
   154
100
AcDbLine
 10
535.897344
 20
597.060704
 11
536.897344
 21
597.060704
  0
LINE
  5
E0
100
AcDbEntity
  8
M0
 62
   154
100
AcDbLine
 10
535.897385
 20
662.060688
 11
536.897385
 21
662.060688
  0
LINE
  5
E1
100
AcDbEntity
  8
M0
 62
   154
100
AcDbLine
 10
536.897385
 20
662.060688
 11
536.897383
 21
658.060688
  0
LINE
  5
E2
100
AcDbEntity
  8
M0
 62
   154
100
AcDbLine
 10
535.897383
 20
658.060688
 11
536.897383
 21
658.060688
  0
LINE
  5
E3
100
AcDbEntity
  8
M0
 62
   154
100
AcDbLine
 10
109.724703
 20
687.560765
 11
109.724626
 21
567.56078
  0
LINE
  5
E4
100
AcDbEntity
  8
M0
 62
   154
100
AcDbLine
 10
109.724626
 20
567.56078
 11
309.724611
 21
567.560643
  0
LINE
  5
E5
100
AcDbEntity
  8
M0
 62
   154
100
AcDbLine
 10
309.724611
 20
567.560643
 11
309.724687
 21
687.560627
  0
LINE
  5
E6
100
AcDbEntity
  8
M0
 62
   154
100
AcDbLine
 10
309.724687
 20
687.560627
 11
109.724703
 21
687.560765
  0
LINE
  5
E7
100
AcDbEntity
  8
M0
  6
DASHDOT
 62
   154
100
AcDbLine
 10
320.308122
 20
627.560631
 11
98.999407
 21
627.560776
  0
LINE
  5
E8
100
AcDbEntity
  8
M0
  6
DASHDOT
 62
   154
100
AcDbLine
 10
209.724701
 20
697.560688
 11
209.724613
 21
557.560719
  0
CIRCLE
  5
E9
100
AcDbEntity
  8
M0
 62
   154
100
AcDbCircle
 10
117.224642
 20
575.060765
 40
3.0
  0
LINE
  5
EA
100
AcDbEntity
  8
M0
  6
DASHDOT
 62
   154
100
AcDbLine
 10
124.224642
 20
575.060765
 11
110.224642
 21
575.06078
  0
LINE
  5
EB
100
AcDbEntity
  8
M0
  6
DASHDOT
 62
   154
100
AcDbLine
 10
117.224657
 20
582.060765
 11
117.224642
 21
568.060765
  0
CIRCLE
  5
EC
100
AcDbEntity
  8
M0
 62
   154
100
AcDbCircle
 10
302.224611
 20
575.060658
 40
3.0
  0
LINE
  5
ED
100
AcDbEntity
  8
M0
  6
DASHDOT
 62
   154
100
AcDbLine
 10
309.224611
 20
575.060643
 11
295.224611
 21
575.060658
  0
LINE
  5
EE
100
AcDbEntity
  8
M0
  6
DASHDOT
 62
   154
100
AcDbLine
 10
302.224626
 20
582.060658
 11
302.224611
 21
568.060658
  0
LINE
  5
EF
100
AcDbEntity
  8
M0
 62
   154
100
AcDbLine
 10
127.224642
 20
567.560765
 11
127.224642
 21
575.060765
  0
LINE
  5
F0
100
AcDbEntity
  8
M0
 62
   154
100
AcDbLine
 10
292.224596
 20
567.560658
 11
292.224596
 21
575.060658
  0
LINE
  5
F1
100
AcDbEntity
  8
M0
  6
DASHDOT
 62
   154
100
AcDbLine
 10
131.224642
 20
575.060765
 11
103.224642
 21
575.06078
  0
LINE
  5
F2
100
AcDbEntity
  8
M0
  6
DASHDOT
 62
   154
100
AcDbLine
 10
117.224657
 20
589.060765
 11
117.224642
 21
561.060765
  0
LINE
  5
F3
100
AcDbEntity
  8
M0
 62
   154
100
AcDbLine
 10
109.724642
 20
585.06078
 11
117.224657
 21
585.060765
  0
ARC
  5
F4
100
AcDbEntity
  8
M0
 62
   154
100
AcDbCircle
 10
117.224642
 20
575.060765
 40
10.0
100
AcDbArc
 50
0.0
 51
26.746311
  0
LINE
  5
F5
100
AcDbEntity
  8
M0
 62
   154
100
AcDbLine
 10
309.724626
 20
585.060643
 11
302.224611
 21
585.060658
  0
ARC
  5
F6
100
AcDbEntity
  8
M0
 62
   154
100
AcDbCircle
 10
302.224596
 20
575.060658
 40
10.0
100
AcDbArc
 50
153.248684
 51
179.999913
  0
LINE
  5
F7
100
AcDbEntity
  8
M0
 62
   154
100
AcDbLine
 10
119.724703
 20
670.06075
 11
109.724687
 21
670.060765
  0
LINE
  5
F8
100
AcDbEntity
  8
M0
 62
   154
100
AcDbLine
 10
299.724657
 20
670.060643
 11
309.724672
 21
670.060627
  0
LINE
  5
F9
100
AcDbEntity
  8
M0
 62
   154
100
AcDbLine
 10
129.724718
 20
680.06075
 11
129.724718
 21
687.56075
  0
LINE
  5
FA
100
AcDbEntity
  8
M0
 62
   154
100
AcDbLine
 10
289.724672
 20
680.060643
 11
289.724672
 21
687.560643
  0
LINE
  5
FB
100
AcDbEntity
  8
M0
  6
DASHDOT
 62
   154
100
AcDbLine
 10
124.224718
 20
680.06075
 11
110.224718
 21
680.060765
  0
LINE
  5
FC
100
AcDbEntity
  8
M0
  6
DASHDOT
 62
   154
100
AcDbLine
 10
117.224718
 20
687.06075
 11
117.224703
 21
673.06075
  0
ARC
  5
FD
100
AcDbEntity
  8
M0
 62
   154
100
AcDbCircle
 10
117.224718
 20
680.06075
 40
3.0
100
AcDbArc
 50
89.999709
 51
270.0
  0
LINE
  5
FE
100
AcDbEntity
  8
M0
  6
DASHDOT
 62
   154
100
AcDbLine
 10
126.724718
 20
680.06075
 11
112.724718
 21
680.06075
  0
LINE
  5
FF
100
AcDbEntity
  8
M0
  6
DASHDOT
 62
   154
100
AcDbLine
 10
119.724718
 20
687.06075
 11
119.724703
 21
673.06075
  0
LINE
  5
100
100
AcDbEntity
  8
M0
 62
   154
100
AcDbLine
 10
119.724718
 20
677.06075
 11
117.224718
 21
677.06075
  0
LINE
  5
101
100
AcDbEntity
  8
M0
 62
   154
100
AcDbLine
 10
119.724718
 20
683.06075
 11
117.224718
 21
683.06075
  0
ARC
  5
102
100
AcDbEntity
  8
M0
 62
   154
100
AcDbCircle
 10
119.724718
 20
680.06075
 40
3.0
100
AcDbArc
 50
270.0
 51
449.999709
  0
LINE
  5
103
100
AcDbEntity
  8
M0
  6
DASHDOT
 62
   154
100
AcDbLine
 10
295.224672
 20
680.060643
 11
309.224672
 21
680.060627
  0
LINE
  5
104
100
AcDbEntity
  8
M0
  6
DASHDOT
 62
   154
100
AcDbLine
 10
302.224672
 20
687.060643
 11
302.224657
 21
673.060643
  0
ARC
  5
105
100
AcDbEntity
  8
M0
 62
   154
100
AcDbCircle
 10
302.224672
 20
680.060643
 40
3.0
100
AcDbArc
 50
-90.000291
 51
90.0
  0
LINE
  5
106
100
AcDbEntity
  8
M0
  6
DASHDOT
 62
   154
100
AcDbLine
 10
292.724672
 20
680.060643
 11
306.724672
 21
680.060643
  0
LINE
  5
107
100
AcDbEntity
  8
M0
  6
DASHDOT
 62
   154
100
AcDbLine
 10
299.724672
 20
687.060643
 11
299.724657
 21
673.060643
  0
LINE
  5
108
100
AcDbEntity
  8
M0
 62
   154
100
AcDbLine
 10
299.724672
 20
677.060643
 11
302.224672
 21
677.060643
  0
LINE
  5
109
100
AcDbEntity
  8
M0
 62
   154
100
AcDbLine
 10
299.724672
 20
683.060643
 11
302.224672
 21
683.060643
  0
ARC
  5
10A
100
AcDbEntity
  8
M0
 62
   154
100
AcDbCircle
 10
299.724672
 20
680.060643
 40
3.0
100
AcDbArc
 50
90.0
 51
269.999709
  0
ARC
  5
10B
100
AcDbEntity
  8
M0
 62
   154
100
AcDbCircle
 10
119.724718
 20
680.06075
 40
10.0
100
AcDbArc
 50
270.0
 51
272.990465
  0
ARC
  5
10C
100
AcDbEntity
  8
M0
 62
   154
100
AcDbCircle
 10
299.724672
 20
680.060643
 40
10.0
100
AcDbArc
 50
243.257794
 51
269.999913
  0
LINE
  5
10D
100
AcDbEntity
  8
M0
  6
DASHDOT
 62
   154
100
AcDbLine
 10
223.724686
 20
675.060688
 11
195.724687
 21
675.060704
  0
ARC
  5
10E
100
AcDbEntity
  8
M0
 62
   154
100
AcDbCircle
 10
209.724687
 20
675.060688
 40
10.0
100
AcDbArc
 50
180.0
 51
360.0
  0
LINE
  5
10F
100
AcDbEntity
  8
M0
  6
DASHDOT
 62
   154
100
AcDbLine
 10
223.724626
 20
580.060704
 11
195.724627
 21
580.060719
  0
LINE
  5
110
100
AcDbEntity
  8
M0
 62
   154
100
AcDbLine
 10
199.724627
 20
580.060719
 11
199.72462
 21
567.560719
  0
LINE
  5
111
100
AcDbEntity
  8
M0
 62
   154
100
AcDbLine
 10
219.724626
 20
580.060704
 11
219.724619
 21
567.560704
  0
LINE
  5
112
100
AcDbEntity
  8
M0
 62
   154
100
AcDbLine
 10
199.724695
 20
687.560704
 11
199.724687
 21
675.060704
  0
LINE
  5
113
100
AcDbEntity
  8
M0
 62
   154
100
AcDbLine
 10
219.724694
 20
687.560688
 11
219.724686
 21
675.060688
  0
ARC
  5
114
100
AcDbEntity
  8
M0
 62
   154
100
AcDbCircle
 10
209.724627
 20
580.060719
 40
10.0
100
AcDbArc
 50
0.0
 51
179.999913
  0
CIRCLE
  5
115
100
AcDbEntity
  8
M0
 62
   154
100
AcDbCircle
 10
209.724627
 20
580.060719
 40
3.0
  0
CIRCLE
  5
116
100
AcDbEntity
  8
M0
 62
   154
100
AcDbCircle
 10
189.724626
 20
572.560719
 40
2.5
  0
LINE
  5
117
100
AcDbEntity
  8
M0
  6
DASHDOT
 62
   154
100
AcDbLine
 10
196.224622
 20
572.560719
 11
183.224626
 21
572.560734
  0
LINE
  5
118
100
AcDbEntity
  8
M0
  6
DASHDOT
 62
   154
100
AcDbLine
 10
189.724642
 20
579.060719
 11
189.724626
 21
566.060719
  0
CIRCLE
  5
119
100
AcDbEntity
  8
M0
 62
   154
100
AcDbCircle
 10
139.724626
 20
572.56075
 40
2.5
  0
LINE
  5
11A
100
AcDbEntity
  8
M0
  6
DASHDOT
 62
   154
100
AcDbLine
 10
146.224626
 20
572.56075
 11
133.224626
 21
572.560765
  0
LINE
  5
11B
100
AcDbEntity
  8
M0
  6
DASHDOT
 62
   154
100
AcDbLine
 10
139.724642
 20
579.06075
 11
139.724626
 21
566.06075
  0
CIRCLE
  5
11C
100
AcDbEntity
  8
M0
 62
   154
100
AcDbCircle
 10
190.224642
 20
595.060719
 40
2.0
  0
CIRCLE
  5
11D
100
AcDbEntity
  8
M0
 62
   154
100
AcDbCircle
 10
119.224703
 20
660.06075
 40
2.0
  0
CIRCLE
  5
11E
100
AcDbEntity
  8
M0
 62
   154
100
AcDbCircle
 10
298.724626
 20
595.060658
 40
2.0
  0
CIRCLE
  5
11F
100
AcDbEntity
  8
M0
 62
   154
100
AcDbCircle
 10
227.724672
 20
660.060688
 40
2.0
  0
ARC
  5
120
100
AcDbEntity
  8
M0
 62
   154
100
AcDbCircle
 10
119.724718
 20
680.06075
 40
10.0
100
AcDbArc
 50
333.245869
 51
360.0
  0
ARC
  5
121
100
AcDbEntity
  8
M0
 62
   154
100
AcDbCircle
 10
302.224596
 20
575.060658
 40
10.0
100
AcDbArc
 50
90.0
 51
118.245694
  0
ARC
  5
122
100
AcDbEntity
  8
M0
 62
   154
100
AcDbCircle
 10
299.724672
 20
680.060643
 40
10.0
100
AcDbArc
 50
180.0
 51
206.748539
  0
ARC
  5
123
100
AcDbEntity
  8
M0
 62
   154
100
AcDbCircle
 10
117.224642
 20
575.060765
 40
10.0
100
AcDbArc
 50
45.570482
 51
89.999913
  0
LINE
  5
124
100
AcDbEntity
  8
M0
 62
     6
100
AcDbLine
 10
156.225511
 20
675.558751
 11
147.974916
 21
675.558751
  0
LINE
  5
125
100
AcDbEntity
  8
M0
 62
     6
100
AcDbLine
 10
144.974917
 20
680.559971
 11
147.474917
 21
680.559971
  0
LINE
  5
126
100
AcDbEntity
  8
M0
 62
     6
100
AcDbLine
 10
144.474917
 20
675.558751
 11
124.224931
 21
675.559239
  0
LINE
  5
127
100
AcDbEntity
  8
M0
 62
     6
100
AcDbLine
 10
186.724565
 20
675.558995
 11
188.224901
 21
675.558995
  0
LINE
  5
128
100
AcDbEntity
  8
M0
 62
     6
100
AcDbLine
 10
124.174638
 20
672.775059
 11
116.52498
 21
667.515782
  0
ARC
  5
129
100
AcDbEntity
  8
M0
 62
     6
100
AcDbCircle
 10
118.224687
 20
665.043614
 40
3.0
100
AcDbArc
 50
124.509994
 51
180.0
  0
ARC
  5
12A
100
AcDbEntity
  8
M0
 62
     6
100
AcDbCircle
 10
123.224687
 20
666.559727
 40
2.249998
100
AcDbArc
 50
65.024116
 51
294.974336
  0
ARC
  5
12B
100
AcDbEntity
  8
M0
 62
     6
100
AcDbCircle
 10
199.724657
 20
665.059727
 40
0.5
100
AcDbArc
 50
0.0
 51
90.0
  0
LINE
  5
12C
100
AcDbEntity
  8
M0
 62
     6
100
AcDbLine
 10
196.224657
 20
665.559971
 11
199.724657
 21
665.559971
  0
LINE
  5
12D
100
AcDbEntity
  8
M0
 62
     6
100
AcDbLine
 10
188.224901
 20
664.059971
 11
196.224657
 21
664.059971
  0
LINE
  5
12E
100
AcDbEntity
  8
M0
 62
     6
100
AcDbLine
 10
147.974916
 20
680.059971
 11
147.974916
 21
660.059971
  0
LINE
  5
12F
100
AcDbEntity
  8
M0
 62
     6
100
AcDbLine
 10
112.724931
 20
657.059971
 11
114.224931
 21
657.059971
  0
ARC
  5
130
100
AcDbEntity
  8
M0
 62
     6
100
AcDbCircle
 10
114.224931
 20
656.559971
 40
0.5
100
AcDbArc
 50
0.0
 51
89.998251
  0
ARC
  5
131
100
AcDbEntity
  8
M0
 62
     6
100
AcDbCircle
 10
112.724931
 20
656.559971
 40
0.5
100
AcDbArc
 50
89.998251
 51
180.0
  0
LINE
  5
132
100
AcDbEntity
  8
M0
 62
     6
100
AcDbLine
 10
127.974931
 20
675.559971
 11
127.974931
 21
660.059483
  0
LINE
  5
133
100
AcDbEntity
  8
M0
 62
     6
100
AcDbLine
 10
144.474917
 20
680.059971
 11
144.474917
 21
660.059483
  0
LINE
  5
134
100
AcDbEntity
  8
M0
 62
     6
100
AcDbLine
 10
147.974916
 20
680.059971
 11
147.974916
 21
660.059483
  0
LINE
  5
135
100
AcDbEntity
  8
M0
 62
     6
100
AcDbLine
 10
199.724901
 20
657.059727
 11
198.224901
 21
657.059727
  0
ARC
  5
136
100
AcDbEntity
  8
M0
 62
     6
100
AcDbCircle
 10
198.224901
 20
656.559727
 40
0.5
100
AcDbArc
 50
90.0
 51
180.0
  0
ARC
  5
137
100
AcDbEntity
  8
M0
 62
     6
100
AcDbCircle
 10
199.724901
 20
656.559727
 40
0.5
100
AcDbArc
 50
0.0
 51
90.0
  0
LINE
  5
138
100
AcDbEntity
  8
M0
 62
     6
100
AcDbLine
 10
150.724916
 20
661.559727
 11
148.724916
 21
661.559727
  0
ARC
  5
139
100
AcDbEntity
  8
M0
 62
     6
100
AcDbCircle
 10
148.724916
 20
661.059727
 40
0.5
100
AcDbArc
 50
90.0
 51
180.0
  0
LINE
  5
13A
100
AcDbEntity
  8
M0
 62
     6
100
AcDbLine
 10
156.225511
 20
660.059483
 11
124.724931
 21
660.059727
  0
ARC
  5
13B
100
AcDbEntity
  8
M0
 62
     6
100
AcDbCircle
 10
124.724931
 20
659.559727
 40
0.5
100
AcDbArc
 50
89.998251
 51
180.0
  0
ARC
  5
13C
100
AcDbEntity
  8
M0
 62
     6
100
AcDbCircle
 10
187.724901
 20
659.559727
 40
0.5
100
AcDbArc
 50
0.0
 51
90.0
  0
LINE
  5
13D
100
AcDbEntity
  8
M0
 62
     6
100
AcDbLine
 10
151.224916
 20
661.059727
 11
151.224916
 21
660.059727
  0
LINE
  5
13E
100
AcDbEntity
  8
M0
 62
     6
100
AcDbLine
 10
148.224916
 20
661.059727
 11
148.224916
 21
660.059727
  0
ARC
  5
13F
100
AcDbEntity
  8
M0
 62
     6
100
AcDbCircle
 10
150.724916
 20
661.059727
 40
0.5
100
AcDbArc
 50
0.0
 51
90.0
  0
LINE
  5
140
100
AcDbEntity
  8
M0
 62
     6
100
AcDbLine
 10
115.224687
 20
655.059971
 11
115.224687
 21
665.043614
  0
LINE
  5
141
100
AcDbEntity
  8
M0
 62
     6
100
AcDbLine
 10
114.724687
 20
655.059971
 11
115.224687
 21
655.059971
  0
LINE
  5
142
100
AcDbEntity
  8
M0
 62
     6
100
AcDbLine
 10
188.224901
 20
654.559971
 11
196.224657
 21
654.559971
  0
LINE
  5
143
100
AcDbEntity
  8
M0
 62
     6
100
AcDbLine
 10
152.224916
 20
639.559891
 11
153.724916
 21
639.559891
  0
LINE
  5
144
100
AcDbEntity
  8
M0
 62
     6
100
AcDbLine
 10
123.424883
 20
643.059983
 11
123.424883
 21
642.059983
  0
LINE
  5
145
100
AcDbEntity
  8
M0
 62
     6
100
AcDbLine
 10
117.024736
 20
643.059983
 11
117.024736
 21
642.059983
  0
LINE
  5
146
100
AcDbEntity
  8
M0
 62
     6
100
AcDbLine
 10
116.724931
 20
651.559971
 11
116.724931
 21
643.559983
  0
LINE
  5
147
100
AcDbEntity
  8
M0
 62
     6
100
AcDbLine
 10
123.724931
 20
645.059971
 11
123.724931
 21
643.559983
  0
ARC
  5
148
100
AcDbEntity
  8
M0
 62
     6
100
AcDbCircle
 10
116.524736
 20
643.059983
 40
0.5
100
AcDbArc
 50
0.0
 51
89.998251
  0
LINE
  5
149
100
AcDbEntity
  8
M0
 62
     6
100
AcDbLine
 10
116.224931
 20
642.059983
 11
117.285722
 21
642.059983
  0
LINE
  5
14A
100
AcDbEntity
  8
M0
 62
     6
100
AcDbLine
 10
116.224931
 20
643.559983
 11
116.524736
 21
643.559983
  0
LINE
  5
14B
100
AcDbEntity
  8
M0
 62
     6
100
AcDbLine
 10
123.924883
 20
643.559983
 11
124.224931
 21
643.559983
  0
ARC
  5
14C
100
AcDbEntity
  8
M0
 62
     6
100
AcDbCircle
 10
123.924883
 20
643.059983
 40
0.5
100
AcDbArc
 50
89.998251
 51
180.0
  0
LINE
  5
14D
100
AcDbEntity
  8
M0
 62
     6
100
AcDbLine
 10
189.024706
 20
643.059739
 11
189.024706
 21
642.059739
  0
LINE
  5
14E
100
AcDbEntity
  8
M0
 62
     6
100
AcDbLine
 10
195.424852
 20
643.059739
 11
195.424852
 21
642.059739
  0
LINE
  5
14F
100
AcDbEntity
  8
M0
 62
     6
100
AcDbLine
 10
195.724901
 20
645.059483
 11
195.724901
 21
643.559739
  0
LINE
  5
150
100
AcDbEntity
  8
M0
 62
     6
100
AcDbLine
 10
188.724901
 20
645.059727
 11
188.724901
 21
643.559739
  0
ARC
  5
151
100
AcDbEntity
  8
M0
 62
     6
100
AcDbCircle
 10
195.924852
 20
643.059739
 40
0.5
100
AcDbArc
 50
90.0
 51
180.0
  0
LINE
  5
152
100
AcDbEntity
  8
M0
 62
     6
100
AcDbLine
 10
196.224901
 20
642.059739
 11
195.163866
 21
642.059739
  0
LINE
  5
153
100
AcDbEntity
  8
M0
 62
     6
100
AcDbLine
 10
196.224901
 20
643.559739
 11
195.924852
 21
643.559739
  0
LINE
  5
154
100
AcDbEntity
  8
M0
 62
     6
100
AcDbLine
 10
188.524706
 20
643.559739
 11
188.224901
 21
643.559739
  0
ARC
  5
155
100
AcDbEntity
  8
M0
 62
     6
100
AcDbCircle
 10
188.524706
 20
643.059739
 40
0.5
100
AcDbArc
 50
0.0
 51
90.0
  0
LINE
  5
156
100
AcDbEntity
  8
M0
 62
     6
100
AcDbLine
 10
123.163896
 20
642.059983
 11
124.224931
 21
642.059983
  0
LINE
  5
157
100
AcDbEntity
  8
M0
 62
     6
100
AcDbLine
 10
189.285692
 20
642.059739
 11
188.224901
 21
642.059739
  0
LINE
  5
158
100
AcDbEntity
  8
M0
 62
     6
100
AcDbLine
 10
189.024706
 20
642.559739
 11
195.424852
 21
642.559739
  0
LINE
  5
159
100
AcDbEntity
  8
M0
 62
     6
100
AcDbLine
 10
117.024736
 20
642.559983
 11
123.424883
 21
642.559983
  0
LINE
  5
15A
100
AcDbEntity
  8
M0
 62
     6
100
AcDbLine
 10
156.224657
 20
643.559723
 11
154.724916
 21
643.559739
  0
LINE
  5
15B
100
AcDbEntity
  8
M0
 62
     6
100
AcDbLine
 10
153.724916
 20
642.559739
 11
153.724916
 21
639.559891
  0
LINE
  5
15C
100
AcDbEntity
  8
M0
 62
     6
100
AcDbLine
 10
152.224916
 20
640.25969
 11
153.724916
 21
640.25969
  0
ARC
  5
15D
100
AcDbEntity
  8
M0
 62
     6
100
AcDbCircle
 10
154.724916
 20
642.559739
 40
1.0
100
AcDbArc
 50
90.0
 51
180.0
  0
LINE
  5
15E
100
AcDbEntity
  8
M0
 62
     6
100
AcDbLine
 10
117.966631
 20
633.260118
 11
122.482988
 21
633.260118
  0
LINE
  5
15F
100
AcDbEntity
  8
M0
 62
     6
100
AcDbLine
 10
117.009599
 20
633.970079
 11
116.224931
 21
636.560136
  0
LINE
  5
160
100
AcDbEntity
  8
M0
 62
     6
100
AcDbLine
 10
123.440019
 20
633.970079
 11
124.224931
 21
636.560136
  0
ARC
  5
161
100
AcDbEntity
  8
M0
 62
     6
100
AcDbCircle
 10
117.966631
 20
634.260118
 40
1.0
100
AcDbArc
 50
196.859961
 51
270.0
  0
LINE
  5
162
100
AcDbEntity
  8
M0
 62
     6
100
AcDbLine
 10
153.224916
 20
632.20984
 11
156.224657
 21
632.20984
  0
ARC
  5
163
100
AcDbEntity
  8
M0
 62
     6
100
AcDbCircle
 10
122.482988
 20
634.260118
 40
1.0
100
AcDbArc
 50
270.0
 51
343.140868
  0
LINE
  5
164
100
AcDbEntity
  8
M0
 62
     6
100
AcDbLine
 10
194.482958
 20
633.259874
 11
189.9666
 21
633.259874
  0
LINE
  5
165
100
AcDbEntity
  8
M0
 62
     6
100
AcDbLine
 10
195.439989
 20
633.969835
 11
196.224901
 21
636.559892
  0
LINE
  5
166
100
AcDbEntity
  8
M0
 62
     6
100
AcDbLine
 10
189.009569
 20
633.969835
 11
188.224901
 21
636.559892
  0
ARC
  5
167
100
AcDbEntity
  8
M0
 62
     6
100
AcDbCircle
 10
194.482958
 20
634.259874
 40
1.0
100
AcDbArc
 50
269.999126
 51
343.139053
  0
ARC
  5
168
100
AcDbEntity
  8
M0
 62
     6
100
AcDbCircle
 10
189.9666
 20
634.259874
 40
1.0
100
AcDbArc
 50
196.858976
 51
269.999126
  0
LINE
  5
169
100
AcDbEntity
  8
M0
 62
     6
100
AcDbLine
 10
117.224931
 20
633.259935
 11
123.724931
 21
633.259935
  0
LINE
  5
16A
100
AcDbEntity
  8
M0
 62
     6
100
AcDbLine
 10
188.724901
 20
633.259935
 11
195.224901
 21
633.259935
  0
ARC
  5
16B
100
AcDbEntity
  8
M0
 62
     6
100
AcDbCircle
 10
123.724931
 20
633.759935
 40
0.5
100
AcDbArc
 50
270.0
 51
360.0
  0
ARC
  5
16C
100
AcDbEntity
  8
M0
 62
     6
100
AcDbCircle
 10
195.224901
 20
632.759935
 40
0.5
100
AcDbArc
 50
0.0
 51
90.0
  0
ARC
  5
16D
100
AcDbEntity
  8
M0
 62
     6
100
AcDbCircle
 10
117.224931
 20
632.759935
 40
0.5
100
AcDbArc
 50
89.998251
 51
180.0
  0
ARC
  5
16E
100
AcDbEntity
  8
M0
 62
     6
100
AcDbCircle
 10
188.724901
 20
633.759935
 40
0.5
100
AcDbArc
 50
180.0
 51
269.998251
  0
LINE
  5
16F
100
AcDbEntity
  8
M0
 62
     6
100
AcDbLine
 10
147.924868
 20
637.859697
 11
152.224916
 21
637.859697
  0
ARC
  5
170
100
AcDbEntity
  8
M0
 62
     6
100
AcDbCircle
 10
147.924868
 20
634.859697
 40
3.0
100
AcDbArc
 50
90.0
 51
179.999982
  0
LINE
  5
171
100
AcDbEntity
  8
M0
 62
     6
100
AcDbLine
 10
152.224916
 20
640.25969
 11
152.224916
 21
637.859697
  0
CIRCLE
  5
172
100
AcDbEntity
  8
M0
 62
     6
100
AcDbCircle
 10
120.224931
 20
638.060136
 40
3.0
  0
LINE
  5
173
100
AcDbEntity
  8
M0
 62
     6
100
AcDbLine
 10
116.224931
 20
653.059971
 11
124.224931
 21
653.059971
  0
LINE
  5
174
100
AcDbEntity
  8
M0
 62
     6
100
AcDbLine
 10
112.724931
 20
645.559971
 11
115.724931
 21
645.559971
  0
ARC
  5
175
100
AcDbEntity
  8
M0
 62
     6
100
AcDbCircle
 10
112.724931
 20
645.059971
 40
0.5
100
AcDbArc
 50
89.998251
 51
180.0
  0
LINE
  5
176
100
AcDbEntity
  8
M0
 62
     6
100
AcDbLine
 10
124.224931
 20
646.559971
 11
123.724931
 21
645.059971
  0
ARC
  5
177
100
AcDbEntity
  8
M0
 62
     6
100
AcDbCircle
 10
115.724931
 20
645.059971
 40
0.5
100
AcDbArc
 50
0.0
 51
89.998251
  0
LINE
  5
178
100
AcDbEntity
  8
M0
 62
     6
100
AcDbLine
 10
200.224901
 20
654.059727
 11
188.224901
 21
654.059727
  0
LINE
  5
179
100
AcDbEntity
  8
M0
 62
     6
100
AcDbLine
 10
196.224901
 20
653.059727
 11
188.224901
 21
653.059727
  0
LINE
  5
17A
100
AcDbEntity
  8
M0
 62
     6
100
AcDbLine
 10
196.224901
 20
651.559727
 11
195.163866
 21
651.559727
  0
LINE
  5
17B
100
AcDbEntity
  8
M0
 62
     6
100
AcDbLine
 10
200.224901
 20
654.059727
 11
196.224901
 21
654.059727
  0
LINE
  5
17C
100
AcDbEntity
  8
M0
 62
     6
100
AcDbLine
 10
199.724901
 20
645.559727
 11
196.724901
 21
645.559727
  0
ARC
  5
17D
100
AcDbEntity
  8
M0
 62
     6
100
AcDbCircle
 10
199.724901
 20
645.059727
 40
0.5
100
AcDbArc
 50
0.0
 51
90.0
  0
ARC
  5
17E
100
AcDbEntity
  8
M0
 62
     6
100
AcDbCircle
 10
120.724443
 20
660.059971
 40
2.299998
100
AcDbArc
 50
89.99962
 51
270.0
  0
ARC
  5
17F
100
AcDbEntity
  8
M0
 62
     6
100
AcDbCircle
 10
122.224443
 20
660.059971
 40
2.299998
100
AcDbArc
 50
270.0
 51
330.432534
  0
ARC
  5
180
100
AcDbEntity
  8
M0
 62
     6
100
AcDbCircle
 10
196.724901
 20
653.559727
 40
0.5
100
AcDbArc
 50
90.0
 51
180.0
  0
LINE
  5
181
100
AcDbEntity
  8
M0
 62
     6
100
AcDbLine
 10
196.224901
 20
646.559727
 11
195.724901
 21
645.059727
  0
ARC
  5
182
100
AcDbEntity
  8
M0
 62
     6
100
AcDbCircle
 10
196.724901
 20
645.059727
 40
0.5
100
AcDbArc
 50
90.0
 51
180.0
  0
LINE
  5
183
100
AcDbEntity
  8
M0
 62
     6
100
AcDbLine
 10
116.224962
 20
651.559971
 11
124.224931
 21
651.559971
  0
LINE
  5
184
100
AcDbEntity
  8
M0
 62
     6
100
AcDbLine
 10
189.285692
 20
651.559727
 11
188.224901
 21
651.559727
  0
CIRCLE
  5
185
100
AcDbEntity
  8
M0
 62
     6
100
AcDbCircle
 10
120.224931
 20
647.559971
 40
3.0
  0
LINE
  5
186
100
AcDbEntity
  8
M0
 62
     6
100
AcDbLine
 10
112.224931
 20
654.059971
 11
124.224931
 21
654.059971
  0
LINE
  5
187
100
AcDbEntity
  8
M0
 62
     6
100
AcDbLine
 10
114.724931
 20
656.559971
 11
114.724931
 21
654.059971
  0
LINE
  5
188
100
AcDbEntity
  8
M0
 62
     6
100
AcDbLine
 10
112.224931
 20
654.059971
 11
116.224931
 21
654.059971
  0
ARC
  5
189
100
AcDbEntity
  8
M0
 62
     6
100
AcDbCircle
 10
115.724931
 20
653.559971
 40
0.5
100
AcDbArc
 50
0.0
 51
89.998251
  0
LINE
  5
18A
100
AcDbEntity
  8
M0
 62
     6
100
AcDbLine
 10
197.724901
 20
656.559727
 11
197.724901
 21
654.059727
  0
LINE
  5
18B
100
AcDbEntity
  8
M0
 62
     6
100
AcDbLine
 10
112.224443
 20
654.059971
 11
124.224687
 21
654.059971
  0
LINE
  5
18C
100
AcDbEntity
  8
M0
 62
     6
100
AcDbLine
 10
196.224657
 20
654.059483
 11
196.224657
 21
665.559971
  0
LINE
  5
18D
100
AcDbEntity
  8
M0
 62
     6
100
AcDbLine
 10
124.224931
 20
633.75963
 11
124.224931
 21
675.559971
  0
LINE
  5
18E
100
AcDbEntity
  8
M0
 62
     6
100
AcDbLine
 10
188.224901
 20
633.759874
 11
188.224901
 21
675.559727
  0
LINE
  5
18F
100
AcDbEntity
  8
M0
 62
     6
100
AcDbLine
 10
124.224931
 20
659.559727
 11
124.224931
 21
633.759935
  0
LINE
  5
190
100
AcDbEntity
  8
M0
 62
     6
100
AcDbLine
 10
188.224901
 20
633.759935
 11
188.224901
 21
659.559727
  0
LINE
  5
191
100
AcDbEntity
  8
M0
 62
     6
100
AcDbLine
 10
120.724443
 20
662.359776
 11
122.224443
 21
662.359776
  0
LINE
  5
192
100
AcDbEntity
  8
M0
 62
     6
100
AcDbLine
 10
120.724443
 20
657.759968
 11
122.224443
 21
657.759968
  0
ARC
  5
193
100
AcDbEntity
  8
M0
 62
     6
100
AcDbCircle
 10
147.474917
 20
680.059971
 40
0.5
100
AcDbArc
 50
0.0
 51
90.0
  0
ARC
  5
194
100
AcDbEntity
  8
M0
 62
     6
100
AcDbCircle
 10
144.974917
 20
680.059971
 40
0.5
100
AcDbArc
 50
90.0
 51
180.0
  0
LINE
  5
195
100
AcDbEntity
  8
M0
 62
     6
100
AcDbLine
 10
159.224395
 20
632.209842
 11
156.224655
 21
632.20984
  0
LINE
  5
196
100
AcDbEntity
  8
M0
 62
     6
100
AcDbLine
 10
160.224391
 20
639.559893
 11
158.724391
 21
639.559893
  0
LINE
  5
197
100
AcDbEntity
  8
M0
 62
     6
100
AcDbLine
 10
158.724389
 20
642.55974
 11
158.724391
 21
639.559893
  0
LINE
  5
198
100
AcDbEntity
  8
M0
 62
     6
100
AcDbLine
 10
160.22439
 20
640.259692
 11
158.72439
 21
640.259692
  0
ARC
  5
199
100
AcDbEntity
  8
M0
 62
     6
100
AcDbCircle
 10
157.724389
 20
642.55974
 40
1.0
100
AcDbArc
 50
0.0
 51
90.0
  0
LINE
  5
19A
100
AcDbEntity
  8
M0
 62
     6
100
AcDbLine
 10
156.224648
 20
643.559723
 11
157.724388
 21
643.55974
  0
LINE
  5
19B
100
AcDbEntity
  8
M0
 62
     6
100
AcDbLine
 10
164.524431
 20
637.859702
 11
160.224392
 21
637.859699
  0
ARC
  5
19C
100
AcDbEntity
  8
M0
 62
     6
100
AcDbCircle
 10
164.524431
 20
634.859702
 40
3.0
100
AcDbArc
 50
0.0
 51
90.0
  0
LINE
  5
19D
100
AcDbEntity
  8
M0
 62
     6
100
AcDbLine
 10
160.22439
 20
640.259692
 11
160.224392
 21
637.859699
  0
LINE
  5
19E
100
AcDbEntity
  8
M0
 62
     6
100
AcDbLine
 10
156.223785
 20
660.059483
 11
187.724367
 21
660.059742
  0
CIRCLE
  5
19F
100
AcDbEntity
  8
M0
 62
     6
100
AcDbCircle
 10
120.224962
 20
617.060415
 40
3.0
  0
LINE
  5
1A0
100
AcDbEntity
  8
M0
 62
     6
100
AcDbLine
 10
112.224962
 20
623.810415
 11
115.424913
 21
623.810415
  0
LINE
  5
1A1
100
AcDbEntity
  8
M0
 62
     6
100
AcDbLine
 10
200.224931
 20
623.810659
 11
197.024736
 21
623.810659
  0
LINE
  5
1A2
100
AcDbEntity
  8
M0
 62
     6
100
AcDbLine
 10
112.724962
 20
609.560429
 11
115.724962
 21
609.560429
  0
LINE
  5
1A3
100
AcDbEntity
  8
M0
 62
     6
100
AcDbLine
 10
115.424913
 20
623.810415
 11
116.224962
 21
622.860464
  0
ARC
  5
1A4
100
AcDbEntity
  8
M0
 62
     6
100
AcDbCircle
 10
112.724962
 20
610.060429
 40
0.5
100
AcDbArc
 50
179.998251
 51
270.0
  0
LINE
  5
1A5
100
AcDbEntity
  8
M0
 62
     6
100
AcDbLine
 10
123.424913
 20
612.060415
 11
123.424913
 21
613.060415
  0
LINE
  5
1A6
100
AcDbEntity
  8
M0
 62
     6
100
AcDbLine
 10
117.024767
 20
612.060415
 11
117.024767
 21
613.060415
  0
LINE
  5
1A7
100
AcDbEntity
  8
M0
 62
     6
100
AcDbLine
 10
116.724962
 20
610.060673
 11
116.724962
 21
611.560429
  0
LINE
  5
1A8
100
AcDbEntity
  8
M0
 62
     6
100
AcDbLine
 10
123.724962
 20
610.060429
 11
123.724962
 21
611.560429
  0
ARC
  5
1A9
100
AcDbEntity
  8
M0
 62
     6
100
AcDbCircle
 10
116.524767
 20
612.060415
 40
0.5
100
AcDbArc
 50
-90.0
 51
0.0
  0
ARC
  5
1AA
100
AcDbEntity
  8
M0
 62
     6
100
AcDbCircle
 10
115.724962
 20
610.060429
 40
0.5
100
AcDbArc
 50
-90.0
 51
0.0
  0
LINE
  5
1AB
100
AcDbEntity
  8
M0
 62
     6
100
AcDbLine
 10
116.224962
 20
613.060415
 11
117.285753
 21
613.060415
  0
LINE
  5
1AC
100
AcDbEntity
  8
M0
 62
     6
100
AcDbLine
 10
117.966661
 20
621.860464
 11
122.483019
 21
621.860464
  0
LINE
  5
1AD
100
AcDbEntity
  8
M0
 62
     6
100
AcDbLine
 10
117.00963
 20
621.150503
 11
116.224962
 21
618.560415
  0
LINE
  5
1AE
100
AcDbEntity
  8
M0
 62
     6
100
AcDbLine
 10
123.44005
 20
621.150503
 11
124.224962
 21
618.560415
  0
ARC
  5
1AF
100
AcDbEntity
  8
M0
 62
     6
100
AcDbCircle
 10
117.966661
 20
620.860464
 40
1.0
100
AcDbArc
 50
89.999126
 51
163.138687
  0
ARC
  5
1B0
100
AcDbEntity
  8
M0
 62
     6
100
AcDbCircle
 10
122.483019
 20
620.860464
 40
1.0
100
AcDbArc
 50
16.859237
 51
89.999126
  0
LINE
  5
1B1
100
AcDbEntity
  8
M0
 62
     6
100
AcDbLine
 10
116.224962
 20
611.560429
 11
116.524767
 21
611.560429
  0
LINE
  5
1B2
100
AcDbEntity
  8
M0
 62
     6
100
AcDbLine
 10
123.924913
 20
611.560429
 11
124.224962
 21
611.560429
  0
ARC
  5
1B3
100
AcDbEntity
  8
M0
 62
     6
100
AcDbCircle
 10
123.924913
 20
612.060415
 40
0.5
100
AcDbArc
 50
179.999891
 51
270.0
  0
LINE
  5
1B4
100
AcDbEntity
  8
M0
 62
     6
100
AcDbLine
 10
199.724931
 20
609.560673
 11
196.724931
 21
609.560673
  0
LINE
  5
1B5
100
AcDbEntity
  8
M0
 62
     6
100
AcDbLine
 10
197.024736
 20
623.810659
 11
196.224931
 21
622.860708
  0
ARC
  5
1B6
100
AcDbEntity
  8
M0
 62
     6
100
AcDbCircle
 10
199.724931
 20
610.060673
 40
0.5
100
AcDbArc
 50
269.998251
 51
360.0
  0
LINE
  5
1B7
100
AcDbEntity
  8
M0
 62
     6
100
AcDbLine
 10
189.024736
 20
612.060659
 11
189.024736
 21
613.060659
  0
LINE
  5
1B8
100
AcDbEntity
  8
M0
 62
     6
100
AcDbLine
 10
195.424883
 20
612.060659
 11
195.424883
 21
613.060659
  0
LINE
  5
1B9
100
AcDbEntity
  8
M0
 62
     6
100
AcDbLine
 10
195.724931
 20
610.060917
 11
195.724931
 21
611.560673
  0
LINE
  5
1BA
100
AcDbEntity
  8
M0
 62
     6
100
AcDbLine
 10
188.724931
 20
610.060673
 11
188.724931
 21
611.560673
  0
ARC
  5
1BB
100
AcDbEntity
  8
M0
 62
     6
100
AcDbCircle
 10
195.924883
 20
612.060659
 40
0.5
100
AcDbArc
 50
179.999891
 51
269.998251
  0
ARC
  5
1BC
100
AcDbEntity
  8
M0
 62
     6
100
AcDbCircle
 10
196.724931
 20
610.060673
 40
0.5
100
AcDbArc
 50
179.998251
 51
269.998251
  0
LINE
  5
1BD
100
AcDbEntity
  8
M0
 62
     6
100
AcDbLine
 10
196.224931
 20
613.060659
 11
195.16707
 21
613.060644
  0
LINE
  5
1BE
100
AcDbEntity
  8
M0
 62
     6
100
AcDbLine
 10
194.482988
 20
621.860708
 11
189.966631
 21
621.860708
  0
LINE
  5
1BF
100
AcDbEntity
  8
M0
 62
     6
100
AcDbLine
 10
195.440019
 20
621.150747
 11
196.224931
 21
618.560659
  0
LINE
  5
1C0
100
AcDbEntity
  8
M0
 62
     6
100
AcDbLine
 10
189.009599
 20
621.150747
 11
188.224931
 21
618.560659
  0
ARC
  5
1C1
100
AcDbEntity
  8
M0
 62
     6
100
AcDbCircle
 10
194.482988
 20
620.860708
 40
1.0
100
AcDbArc
 50
16.861208
 51
90.0
  0
ARC
  5
1C2
100
AcDbEntity
  8
M0
 62
     6
100
AcDbCircle
 10
189.966631
 20
620.860708
 40
1.0
100
AcDbArc
 50
90.0
 51
163.140658
  0
LINE
  5
1C3
100
AcDbEntity
  8
M0
 62
     6
100
AcDbLine
 10
196.224931
 20
611.560673
 11
195.924883
 21
611.560673
  0
LINE
  5
1C4
100
AcDbEntity
  8
M0
 62
     6
100
AcDbLine
 10
188.524736
 20
611.560673
 11
188.224931
 21
611.560673
  0
ARC
  5
1C5
100
AcDbEntity
  8
M0
 62
     6
100
AcDbCircle
 10
188.524736
 20
612.060659
 40
0.5
100
AcDbArc
 50
269.998251
 51
360.0
  0
LINE
  5
1C6
100
AcDbEntity
  8
M0
 62
     6
100
AcDbLine
 10
123.163927
 20
613.060415
 11
124.224962
 21
613.060415
  0
LINE
  5
1C7
100
AcDbEntity
  8
M0
 62
     6
100
AcDbLine
 10
189.28206
 20
613.060644
 11
188.224931
 21
613.060659
  0
LINE
  5
1C8
100
AcDbEntity
  8
M0
 62
     6
100
AcDbLine
 10
117.024767
 20
612.560415
 11
123.424913
 21
612.560415
  0
LINE
  5
1C9
100
AcDbEntity
  8
M0
 62
     6
100
AcDbLine
 10
189.024736
 20
612.560644
 11
195.424883
 21
612.560644
  0
LINE
  5
1CA
100
AcDbEntity
  8
M0
 62
     6
100
AcDbLine
 10
195.224931
 20
621.860174
 11
188.724931
 21
621.860158
  0
LINE
  5
1CB
100
AcDbEntity
  8
M0
 62
     6
100
AcDbLine
 10
123.724962
 20
621.860128
 11
117.224962
 21
621.860128
  0
ARC
  5
1CC
100
AcDbEntity
  8
M0
 62
     6
100
AcDbCircle
 10
188.724931
 20
621.360158
 40
0.5
100
AcDbArc
 50
90.0
 51
179.999891
  0
ARC
  5
1CD
100
AcDbEntity
  8
M0
 62
     6
100
AcDbCircle
 10
195.224931
 20
622.360158
 40
0.5
100
AcDbArc
 50
269.998251
 51
360.0
  0
ARC
  5
1CE
100
AcDbEntity
  8
M0
 62
     6
100
AcDbCircle
 10
117.224962
 20
622.360128
 40
0.5
100
AcDbArc
 50
179.999891
 51
270.0
  0
ARC
  5
1CF
100
AcDbEntity
  8
M0
 62
     6
100
AcDbCircle
 10
123.724962
 20
621.360128
 40
0.5
100
AcDbArc
 50
0.0
 51
89.998251
  0
LINE
  5
1D0
100
AcDbEntity
  8
M0
 62
     6
100
AcDbLine
 10
147.924899
 20
621.560171
 11
148.224947
 21
621.560171
  0
LINE
  5
1D1
100
AcDbEntity
  8
M0
 62
     6
100
AcDbLine
 10
148.224947
 20
621.560171
 11
148.224947
 21
617.560171
  0
ARC
  5
1D2
100
AcDbEntity
  8
M0
 62
     6
100
AcDbCircle
 10
147.924899
 20
624.560168
 40
3.0
100
AcDbArc
 50
179.999964
 51
270.0
  0
LINE
  5
1D3
100
AcDbEntity
  8
M0
 62
     6
100
AcDbLine
 10
188.274492
 20
582.345402
 11
195.92415
 21
587.604435
  0
LINE
  5
1D4
100
AcDbEntity
  8
M0
 62
     6
100
AcDbLine
 10
112.724962
 20
598.060429
 11
114.224962
 21
598.060429
  0
LINE
  5
1D5
100
AcDbEntity
  8
M0
 62
     6
100
AcDbLine
 10
112.224962
 20
601.060429
 11
124.224962
 21
601.060429
  0
LINE
  5
1D6
100
AcDbEntity
  8
M0
 62
     6
100
AcDbLine
 10
116.224962
 20
602.060429
 11
124.224962
 21
602.060429
  0
LINE
  5
1D7
100
AcDbEntity
  8
M0
 62
     6
100
AcDbLine
 10
114.724962
 20
598.560429
 11
114.724962
 21
601.060429
  0
ARC
  5
1D8
100
AcDbEntity
  8
M0
 62
     6
100
AcDbCircle
 10
114.224962
 20
598.560429
 40
0.5
100
AcDbArc
 50
-90.0
 51
0.0
  0
ARC
  5
1D9
100
AcDbEntity
  8
M0
 62
     6
100
AcDbCircle
 10
112.724962
 20
598.560429
 40
0.5
100
AcDbArc
 50
179.998251
 51
270.0
  0
LINE
  5
1DA
100
AcDbEntity
  8
M0
 62
     6
100
AcDbLine
 10
112.224962
 20
601.060429
 11
116.224962
 21
601.060429
  0
ARC
  5
1DB
100
AcDbEntity
  8
M0
 62
     6
100
AcDbCircle
 10
115.724962
 20
601.560429
 40
0.5
100
AcDbArc
 50
-90.0
 51
0.0
  0
LINE
  5
1DC
100
AcDbEntity
  8
M0
 62
     6
100
AcDbLine
 10
199.724931
 20
598.060673
 11
198.224931
 21
598.060673
  0
LINE
  5
1DD
100
AcDbEntity
  8
M0
 62
     6
100
AcDbLine
 10
196.724931
 20
601.060658
 11
188.224931
 21
601.060673
  0
LINE
  5
1DE
100
AcDbEntity
  8
M0
 62
     6
100
AcDbLine
 10
196.224931
 20
602.060673
 11
188.224931
 21
602.060673
  0
LINE
  5
1DF
100
AcDbEntity
  8
M0
 62
     6
100
AcDbLine
 10
196.224931
 20
603.560673
 11
195.16707
 21
603.560658
  0
LINE
  5
1E0
100
AcDbEntity
  8
M0
 62
     6
100
AcDbLine
 10
197.724931
 20
598.560673
 11
197.724931
 21
601.060673
  0
ARC
  5
1E1
100
AcDbEntity
  8
M0
 62
     6
100
AcDbCircle
 10
198.224931
 20
598.560673
 40
0.5
100
AcDbArc
 50
179.998251
 51
269.998251
  0
ARC
  5
1E2
100
AcDbEntity
  8
M0
 62
     6
100
AcDbCircle
 10
199.724931
 20
598.560673
 40
0.5
100
AcDbArc
 50
269.998251
 51
360.0
  0
LINE
  5
1E3
100
AcDbEntity
  8
M0
 62
     6
100
AcDbLine
 10
200.224931
 20
601.060673
 11
196.224931
 21
601.060673
  0
ARC
  5
1E4
100
AcDbEntity
  8
M0
 62
     6
100
AcDbCircle
 10
196.724931
 20
601.560673
 40
0.5
100
AcDbArc
 50
179.998251
 51
269.998251
  0
LINE
  5
1E5
100
AcDbEntity
  8
M0
 62
     6
100
AcDbLine
 10
116.224962
 20
603.560429
 11
124.224962
 21
603.560429
  0
LINE
  5
1E6
100
AcDbEntity
  8
M0
 62
     6
100
AcDbLine
 10
189.28206
 20
603.560658
 11
188.224931
 21
603.560673
  0
ARC
  5
1E7
100
AcDbEntity
  8
M0
 62
     6
100
AcDbCircle
 10
148.724947
 20
594.060231
 40
0.5
100
AcDbArc
 50
179.998251
 51
270.0
  0
LINE
  5
1E8
100
AcDbEntity
  8
M0
 62
     6
100
AcDbLine
 10
150.724947
 20
593.560215
 11
148.724947
 21
593.560215
  0
LINE
  5
1E9
100
AcDbEntity
  8
M0
 62
     6
100
AcDbLine
 10
124.724962
 20
595.0602
 11
156.225542
 21
595.0602
  0
ARC
  5
1EA
100
AcDbEntity
  8
M0
 62
     6
100
AcDbCircle
 10
124.724962
 20
595.5602
 40
0.5
100
AcDbArc
 50
179.998251
 51
270.0
  0
ARC
  5
1EB
100
AcDbEntity
  8
M0
 62
     6
100
AcDbCircle
 10
187.724931
 20
595.5602
 40
0.5
100
AcDbArc
 50
269.998251
 51
360.0
  0
LINE
  5
1EC
100
AcDbEntity
  8
M0
 62
     6
100
AcDbLine
 10
148.224947
 20
594.060231
 11
148.224947
 21
595.060215
  0
ARC
  5
1ED
100
AcDbEntity
  8
M0
 62
     6
100
AcDbCircle
 10
150.724947
 20
594.060231
 40
0.5
100
AcDbArc
 50
-90.0
 51
0.0
  0
LINE
  5
1EE
100
AcDbEntity
  8
M0
 62
     6
100
AcDbLine
 10
151.224947
 20
594.060231
 11
151.224947
 21
595.060215
  0
LINE
  5
1EF
100
AcDbEntity
  8
M0
 62
     6
100
AcDbLine
 10
197.224687
 20
600.06046
 11
197.224687
 21
590.076741
  0
ARC
  5
1F0
100
AcDbEntity
  8
M0
 62
     6
100
AcDbCircle
 10
194.224687
 20
590.076741
 40
3.0
100
AcDbArc
 50
304.507247
 51
360.0
  0
ARC
  5
1F1
100
AcDbEntity
  8
M0
 62
     6
100
AcDbCircle
 10
189.224687
 20
588.560627
 40
2.249998
100
AcDbArc
 50
245.019069
 51
474.979547
  0
LINE
  5
1F2
100
AcDbEntity
  8
M0
 62
     6
100
AcDbLine
 10
200.224687
 20
601.06046
 11
188.224687
 21
601.06046
  0
LINE
  5
1F3
100
AcDbEntity
  8
M0
 62
     6
100
AcDbLine
 10
197.724687
 20
600.060444
 11
197.224687
 21
600.06046
  0
ARC
  5
1F4
100
AcDbEntity
  8
M0
 62
     6
100
AcDbCircle
 10
112.724474
 20
590.06046
 40
0.5
100
AcDbArc
 50
179.998251
 51
270.0
  0
LINE
  5
1F5
100
AcDbEntity
  8
M0
 62
     6
100
AcDbLine
 10
116.224718
 20
589.56046
 11
116.224718
 21
601.060429
  0
LINE
  5
1F6
100
AcDbEntity
  8
M0
 62
     6
100
AcDbLine
 10
112.724474
 20
589.56046
 11
116.224718
 21
589.56046
  0
LINE
  5
1F7
100
AcDbEntity
  8
M0
 62
     6
100
AcDbLine
 10
116.224718
 20
600.56046
 11
124.224962
 21
600.56046
  0
LINE
  5
1F8
100
AcDbEntity
  8
M0
 62
     6
100
AcDbLine
 10
116.224718
 20
591.06046
 11
124.224962
 21
591.06046
  0
CIRCLE
  5
1F9
100
AcDbEntity
  8
M0
 62
     6
100
AcDbCircle
 10
120.224718
 20
595.560444
 40
3.0
  0
LINE
  5
1FA
100
AcDbEntity
  8
M0
 62
     6
100
AcDbLine
 10
116.224962
 20
608.560429
 11
116.724962
 21
610.060429
  0
LINE
  5
1FB
100
AcDbEntity
  8
M0
 62
     6
100
AcDbLine
 10
124.224962
 20
608.560429
 11
123.724962
 21
610.060429
  0
LINE
  5
1FC
100
AcDbEntity
  8
M0
 62
     6
100
AcDbLine
 10
196.224931
 20
608.560673
 11
195.724931
 21
610.060673
  0
LINE
  5
1FD
100
AcDbEntity
  8
M0
 62
     6
100
AcDbLine
 10
188.224931
 20
608.560673
 11
188.724931
 21
610.060673
  0
LINE
  5
1FE
100
AcDbEntity
  8
M0
 62
     6
100
AcDbLine
 10
188.224931
 20
595.560185
 11
188.224931
 21
621.360158
  0
LINE
  5
1FF
100
AcDbEntity
  8
M0
 62
     6
100
AcDbLine
 10
124.224962
 20
621.360128
 11
124.224962
 21
595.5602
  0
CIRCLE
  5
200
100
AcDbEntity
  8
M0
 62
     6
100
AcDbCircle
 10
120.224962
 20
607.560429
 40
3.0
  0
ARC
  5
201
100
AcDbEntity
  8
M0
 62
     6
100
AcDbCircle
 10
124.724962
 20
580.061146
 40
0.5
100
AcDbArc
 50
179.998251
 51
270.0
  0
ARC
  5
202
100
AcDbEntity
  8
M0
 62
     6
100
AcDbCircle
 10
127.474962
 20
580.061146
 40
0.5
100
AcDbArc
 50
270.0
 51
360.0
  0
ARC
  5
203
100
AcDbEntity
  8
M0
 62
     6
100
AcDbCircle
 10
187.724931
 20
580.061406
 40
0.5
100
AcDbArc
 50
269.998251
 51
360.0
  0
LINE
  5
204
100
AcDbEntity
  8
M0
 62
     6
100
AcDbLine
 10
144.474948
 20
579.5611
 11
124.724962
 21
579.561146
  0
LINE
  5
205
100
AcDbEntity
  8
M0
 62
     6
100
AcDbLine
 10
127.974962
 20
580.061131
 11
127.974962
 21
595.0602
  0
LINE
  5
206
100
AcDbEntity
  8
M0
 62
     6
100
AcDbLine
 10
124.224962
 20
621.360128
 11
124.224962
 21
580.061146
  0
LINE
  5
207
100
AcDbEntity
  8
M0
 62
     6
100
AcDbLine
 10
188.224931
 20
621.360158
 11
188.224931
 21
580.061406
  0
LINE
  5
208
100
AcDbEntity
  8
M0
 62
     6
100
AcDbLine
 10
147.974947
 20
579.561406
 11
156.224657
 21
579.561406
  0
LINE
  5
209
100
AcDbEntity
  8
M0
 62
     6
100
AcDbLine
 10
186.724596
 20
579.561406
 11
187.724931
 21
579.561406
  0
LINE
  5
20A
100
AcDbEntity
  8
M0
 62
     6
100
AcDbLine
 10
112.224962
 20
631.310411
 11
115.424913
 21
631.310411
  0
LINE
  5
20B
100
AcDbEntity
  8
M0
 62
     6
100
AcDbLine
 10
115.424913
 20
631.310411
 11
115.424913
 21
623.810415
  0
LINE
  5
20C
100
AcDbEntity
  8
M0
 62
     6
100
AcDbLine
 10
115.424913
 20
631.310411
 11
116.224962
 21
632.260362
  0
LINE
  5
20D
100
AcDbEntity
  8
M0
 62
     6
100
AcDbLine
 10
200.224931
 20
631.310167
 11
197.024736
 21
631.310167
  0
LINE
  5
20E
100
AcDbEntity
  8
M0
 62
     6
100
AcDbLine
 10
197.024736
 20
631.310167
 11
197.024736
 21
623.810659
  0
LINE
  5
20F
100
AcDbEntity
  8
M0
 62
     6
100
AcDbLine
 10
197.024736
 20
631.310167
 11
196.224931
 21
632.260118
  0
CIRCLE
  5
210
100
AcDbEntity
  8
M0
 62
     6
100
AcDbCircle
 10
122.224962
 20
627.560182
 40
3.249996
  0
CIRCLE
  5
211
100
AcDbEntity
  8
M0
 62
     6
100
AcDbCircle
 10
190.224931
 20
627.560182
 40
3.249996
  0
LINE
  5
212
100
AcDbEntity
  8
M0
 62
     6
100
AcDbLine
 10
144.924899
 20
634.859941
 11
144.924899
 21
624.560168
  0
CIRCLE
  5
213
100
AcDbEntity
  8
M0
 62
     6
100
AcDbCircle
 10
190.224443
 20
627.560411
 40
2.749996
  0
CIRCLE
  5
214
100
AcDbEntity
  8
M0
 62
     6
100
AcDbCircle
 10
190.224443
 20
627.560411
 40
3.0
  0
CIRCLE
  5
215
100
AcDbEntity
  8
M0
 62
     6
100
AcDbCircle
 10
122.224718
 20
627.560411
 40
2.749996
  0
LINE
  5
216
100
AcDbEntity
  8
M0
 62
     6
100
AcDbLine
 10
153.224947
 20
627.710084
 11
156.224657
 21
627.710084
  0
LINE
  5
217
100
AcDbEntity
  8
M0
 62
     6
100
AcDbLine
 10
153.224947
 20
632.210084
 11
153.224947
 21
627.710084
  0
ARC
  5
218
100
AcDbEntity
  8
M0
 62
     6
100
AcDbCircle
 10
191.724687
 20
595.060444
 40
2.299998
100
AcDbArc
 50
269.99962
 51
450.0
  0
ARC
  5
219
100
AcDbEntity
  8
M0
 62
     6
100
AcDbCircle
 10
190.224687
 20
595.060444
 40
2.299998
100
AcDbArc
 50
90.0
 51
150.39576
  0
ARC
  5
21A
100
AcDbEntity
  8
M0
 62
     6
100
AcDbCircle
 10
190.224687
 20
595.060444
 40
2.299998
100
AcDbArc
 50
209.602873
 51
269.99962
  0
LINE
  5
21B
100
AcDbEntity
  8
M0
 62
     6
100
AcDbLine
 10
159.224364
 20
632.210086
 11
159.224366
 21
627.710086
  0
LINE
  5
21C
100
AcDbEntity
  8
M0
 62
     6
100
AcDbLine
 10
159.224366
 20
627.710086
 11
156.224657
 21
627.710084
  0
CIRCLE
  5
21D
100
AcDbEntity
  8
M0
 62
     6
100
AcDbCircle
 10
122.224718
 20
627.560411
 40
3.0
  0
LINE
  5
21E
100
AcDbEntity
  8
M0
 62
     6
100
AcDbLine
 10
195.724931
 20
622.360143
 11
195.724931
 21
632.760164
  0
LINE
  5
21F
100
AcDbEntity
  8
M0
 62
     6
100
AcDbLine
 10
116.724962
 20
632.760179
 11
116.724962
 21
622.360128
  0
LINE
  5
220
100
AcDbEntity
  8
M0
 62
     6
100
AcDbLine
 10
112.224474
 20
655.060215
 11
112.224474
 21
590.06046
  0
LINE
  5
221
100
AcDbEntity
  8
M0
 62
     6
100
AcDbLine
 10
200.224687
 20
600.060444
 11
200.224687
 21
665.059971
  0
LINE
  5
222
100
AcDbEntity
  8
M0
 62
     6
100
AcDbLine
 10
116.224962
 20
653.560215
 11
116.224962
 21
601.560429
  0
LINE
  5
223
100
AcDbEntity
  8
M0
 62
     6
100
AcDbLine
 10
196.224931
 20
653.559971
 11
196.224931
 21
601.560673
  0
LINE
  5
224
100
AcDbEntity
  8
M0
 62
     6
100
AcDbLine
 10
112.224718
 20
656.559971
 11
112.224718
 21
598.560673
  0
LINE
  5
225
100
AcDbEntity
  8
M0
 62
     6
100
AcDbLine
 10
200.224931
 20
656.559727
 11
200.224931
 21
598.560917
  0
LINE
  5
226
100
AcDbEntity
  8
M0
 62
     6
100
AcDbLine
 10
190.224687
 20
597.360432
 11
191.724687
 21
597.360432
  0
LINE
  5
227
100
AcDbEntity
  8
M0
 62
     6
100
AcDbLine
 10
190.224687
 20
592.760441
 11
191.724687
 21
592.760441
  0
LINE
  5
228
100
AcDbEntity
  8
M0
 62
     6
100
AcDbLine
 10
186.724596
 20
595.0602
 11
187.724931
 21
595.0602
  0
LINE
  5
229
100
AcDbEntity
  8
M0
 62
     6
100
AcDbLine
 10
164.524416
 20
621.560186
 11
164.224367
 21
621.560186
  0
LINE
  5
22A
100
AcDbEntity
  8
M0
 62
     6
100
AcDbLine
 10
164.224367
 20
621.560186
 11
164.224367
 21
617.560186
  0
ARC
  5
22B
100
AcDbEntity
  8
M0
 62
     6
100
AcDbCircle
 10
164.524416
 20
624.560173
 40
3.0
100
AcDbArc
 50
-90.0
 51
0.0
  0
LINE
  5
22C
100
AcDbEntity
  8
M0
 62
     6
100
AcDbLine
 10
167.5244
 20
634.859947
 11
167.524416
 21
624.560174
  0
LINE
  5
22D
100
AcDbEntity
  8
M0
 62
     6
100
AcDbLine
 10
187.724382
 20
595.060215
 11
156.22379
 21
595.0602
  0
LINE
  5
22E
100
AcDbEntity
  8
M0
 62
     6
100
AcDbLine
 10
144.974932
 20
574.560872
 11
147.474932
 21
574.560872
  0
ARC
  5
22F
100
AcDbEntity
  8
M0
 62
     6
100
AcDbCircle
 10
144.974932
 20
575.060872
 40
0.5
100
AcDbArc
 50
179.998251
 51
270.0
  0
ARC
  5
230
100
AcDbEntity
  8
M0
 62
     6
100
AcDbCircle
 10
147.474932
 20
575.060872
 40
0.5
100
AcDbArc
 50
270.0
 51
360.0
  0
LINE
  5
231
100
AcDbEntity
  8
M0
 62
     6
100
AcDbLine
 10
147.974932
 20
575.060856
 11
147.974932
 21
595.060643
  0
LINE
  5
232
100
AcDbEntity
  8
M0
 62
     6
100
AcDbLine
 10
144.474932
 20
575.060872
 11
144.474932
 21
595.060643
  0
LINE
  5
233
100
AcDbEntity
  8
M0
 62
     6
100
AcDbLine
 10
167.974382
 20
575.060887
 11
167.974382
 21
595.060658
  0
LINE
  5
234
100
AcDbEntity
  8
M0
  6
DASHDOT
 62
     6
100
AcDbLine
 10
186.523637
 20
587.5611
 11
167.090555
 21
587.5611
  0
LINE
  5
235
100
AcDbEntity
  8
M0
  6
DASHDOT
 62
     6
100
AcDbLine
 10
166.522837
 20
587.5611
 11
147.089747
 21
587.5611
  0
LINE
  5
236
100
AcDbEntity
  8
M0
 62
     6
100
AcDbLine
 10
164.474672
 20
675.559971
 11
156.224168
 21
675.559727
  0
LINE
  5
237
100
AcDbEntity
  8
M0
 62
     6
100
AcDbLine
 10
164.474672
 20
680.060444
 11
164.474657
 21
660.060688
  0
LINE
  5
238
100
AcDbEntity
  8
M0
 62
     6
100
AcDbLine
 10
167.474672
 20
680.560688
 11
164.974672
 21
680.560688
  0
LINE
  5
239
100
AcDbEntity
  8
M0
 62
     6
100
AcDbLine
 10
167.974672
 20
675.559971
 11
186.724596
 21
675.55991
  0
LINE
  5
23A
100
AcDbEntity
  8
M0
 62
     6
100
AcDbLine
 10
184.474672
 20
675.560688
 11
184.474672
 21
660.059956
  0
LINE
  5
23B
100
AcDbEntity
  8
M0
 62
     6
100
AcDbLine
 10
167.974672
 20
680.060444
 11
167.974672
 21
660.059956
  0
ARC
  5
23C
100
AcDbEntity
  8
M0
 62
     6
100
AcDbCircle
 10
183.474642
 20
660.060704
 40
1.0
100
AcDbArc
 50
-14.524582
 51
0.0
  0
ARC
  5
23D
100
AcDbEntity
  8
M0
 62
     6
100
AcDbCircle
 10
168.974657
 20
660.060704
 40
1.0
100
AcDbArc
 50
180.0
 51
194.521755
  0
LINE
  5
23E
100
AcDbEntity
  8
M0
 62
     6
100
AcDbLine
 10
164.474672
 20
680.060444
 11
164.474672
 21
660.059956
  0
ARC
  5
23F
100
AcDbEntity
  8
M0
 62
     6
100
AcDbCircle
 10
163.474657
 20
660.060704
 40
1.0
100
AcDbArc
 50
-14.523516
 51
0.0
  0
LINE
  5
240
100
AcDbEntity
  8
M0
 62
     6
100
AcDbLine
 10
164.474672
 20
579.56194
 11
156.224168
 21
579.561451
  0
LINE
  5
241
100
AcDbEntity
  8
M0
 62
     6
100
AcDbLine
 10
164.474672
 20
575.061192
 11
164.474657
 21
595.061207
  0
LINE
  5
242
100
AcDbEntity
  8
M0
 62
     6
100
AcDbLine
 10
167.474672
 20
574.561207
 11
164.974672
 21
574.561192
  0
LINE
  5
243
100
AcDbEntity
  8
M0
 62
     6
100
AcDbLine
 10
167.974672
 20
579.56194
 11
186.724596
 21
579.561879
  0
ARC
  5
244
100
AcDbEntity
  8
M0
 62
     6
100
AcDbCircle
 10
183.474642
 20
595.061207
 40
1.0
100
AcDbArc
 50
0.0
 51
29.970542
  0
LINE
  5
245
100
AcDbEntity
  8
M0
  6
DASHDOT
 62
     6
100
AcDbLine
 10
156.224643
 20
680.606801
 11
156.224657
 21
627.560704
  0
LINE
  5
246
100
AcDbEntity
  8
M0
  6
DASHDOT
 62
     6
100
AcDbLine
 10
156.224657
 20
627.560948
 11
156.224168
 21
627.56046
  0
ARC
  5
247
100
AcDbEntity
  8
M0
 62
     6
100
AcDbCircle
 10
164.974672
 20
575.061192
 40
0.5
100
AcDbArc
 50
179.998251
 51
270.0
  0
ARC
  5
248
100
AcDbEntity
  8
M0
 62
     6
100
AcDbCircle
 10
167.474672
 20
575.061192
 40
0.5
100
AcDbArc
 50
270.0
 51
360.0
  0
LINE
  5
249
100
AcDbEntity
  8
M0
  6
DIVIDE
 62
     6
100
AcDbLine
 10
156.224168
 20
627.56046
 11
156.224657
 21
627.560948
  0
ARC
  5
24A
100
AcDbEntity
  8
M0
 62
     6
100
AcDbCircle
 10
167.474672
 20
680.060444
 40
0.5
100
AcDbArc
 50
0.0
 51
90.0
  0
ARC
  5
24B
100
AcDbEntity
  8
M0
 62
     6
100
AcDbCircle
 10
164.974672
 20
680.060444
 40
0.5
100
AcDbArc
 50
90.0
 51
180.0
  0
LINE
  5
24C
100
AcDbEntity
  8
M0
  6
DASHDOT
 62
     6
100
AcDbLine
 10
156.224657
 20
627.560704
 11
156.224671
 21
574.100102
  0
LINE
  5
24D
100
AcDbEntity
  8
M0
 62
     6
100
AcDbLine
 10
169.074769
 20
579.561207
 11
183.374803
 21
579.561207
  0
LINE
  5
24E
100
AcDbEntity
  8
M0
 62
     6
100
AcDbLine
 10
184.374803
 20
580.561207
 11
184.374803
 21
595.061207
  0
LINE
  5
24F
100
AcDbEntity
  8
M0
 62
     6
100
AcDbLine
 10
168.074769
 20
595.061207
 11
168.074769
 21
580.561207
  0
ARC
  5
250
100
AcDbEntity
  8
M0
 62
     6
100
AcDbCircle
 10
183.374803
 20
580.561207
 40
1.0
100
AcDbArc
 50
269.999126
 51
360.0
  0
ARC
  5
251
100
AcDbEntity
  8
M0
 62
     6
100
AcDbCircle
 10
169.074769
 20
580.561207
 40
1.0
100
AcDbArc
 50
179.999126
 51
270.0
  0
LINE
  5
252
100
AcDbEntity
  8
M0
 62
     6
100
AcDbLine
 10
129.074754
 20
579.560475
 11
143.374789
 21
579.560475
  0
LINE
  5
253
100
AcDbEntity
  8
M0
 62
     6
100
AcDbLine
 10
144.374789
 20
580.560475
 11
144.374789
 21
595.060475
  0
LINE
  5
254
100
AcDbEntity
  8
M0
 62
     6
100
AcDbLine
 10
128.074754
 20
595.060475
 11
128.074754
 21
580.560475
  0
ARC
  5
255
100
AcDbEntity
  8
M0
 62
     6
100
AcDbCircle
 10
143.374789
 20
580.560475
 40
1.0
100
AcDbArc
 50
270.0
 51
360.0
  0
ARC
  5
256
100
AcDbEntity
  8
M0
 62
     6
100
AcDbCircle
 10
129.074754
 20
580.560475
 40
1.0
100
AcDbArc
 50
179.999126
 51
270.0
  0
LINE
  5
257
100
AcDbEntity
  8
M0
 62
     6
100
AcDbLine
 10
183.37459
 20
675.560444
 11
169.074568
 21
675.560444
  0
LINE
  5
258
100
AcDbEntity
  8
M0
 62
     6
100
AcDbLine
 10
168.074568
 20
674.560444
 11
168.074559
 21
660.060444
  0
LINE
  5
259
100
AcDbEntity
  8
M0
 62
     6
100
AcDbLine
 10
184.37459
 20
660.060444
 11
184.37459
 21
674.560444
  0
ARC
  5
25A
100
AcDbEntity
  8
M0
 62
     6
100
AcDbCircle
 10
169.074568
 20
674.560444
 40
1.0
100
AcDbArc
 50
90.0
 51
180.0
  0
ARC
  5
25B
100
AcDbEntity
  8
M0
 62
     6
100
AcDbCircle
 10
169.074559
 20
660.060444
 40
1.0
100
AcDbArc
 50
180.0
 51
194.507309
  0
ARC
  5
25C
100
AcDbEntity
  8
M0
 62
     6
100
AcDbCircle
 10
183.37459
 20
660.060444
 40
1.0
100
AcDbArc
 50
345.490902
 51
360.0
  0
ARC
  5
25D
100
AcDbEntity
  8
M0
 62
     6
100
AcDbCircle
 10
183.37459
 20
674.560444
 40
1.0
100
AcDbArc
 50
0.0
 51
90.0
  0
LINE
  5
25E
100
AcDbEntity
  8
M0
 62
     6
100
AcDbLine
 10
143.375489
 20
675.559956
 11
129.075456
 21
675.559956
  0
LINE
  5
25F
100
AcDbEntity
  8
M0
 62
     6
100
AcDbLine
 10
128.075456
 20
674.559956
 11
128.075456
 21
660.059956
  0
LINE
  5
260
100
AcDbEntity
  8
M0
 62
     6
100
AcDbLine
 10
144.375479
 20
660.059956
 11
144.375488
 21
674.559956
  0
ARC
  5
261
100
AcDbEntity
  8
M0
 62
     6
100
AcDbCircle
 10
129.075456
 20
674.559956
 40
1.0
100
AcDbArc
 50
89.999126
 51
180.0
  0
ARC
  5
262
100
AcDbEntity
  8
M0
 62
     6
100
AcDbCircle
 10
143.375488
 20
674.559956
 40
1.0
100
AcDbArc
 50
0.0
 51
90.0
  0
LINE
  5
263
100
AcDbEntity
  8
M0
 62
     6
100
AcDbLine
 10
133.396517
 20
590.389256
 11
139.053362
 21
584.732411
  0
LINE
  5
264
100
AcDbEntity
  8
M0
 62
     6
100
AcDbLine
 10
135.517839
 20
585.439503
 11
138.346254
 21
588.267933
  0
LINE
  5
265
100
AcDbEntity
  8
M0
 62
     6
100
AcDbLine
 10
134.103624
 20
586.853718
 11
136.932039
 21
589.682148
  0
LINE
  5
266
100
AcDbEntity
  8
M0
  6
DASHDOT
 62
     6
100
AcDbLine
 10
136.224931
 20
597.565281
 11
136.224931
 21
576.350621
  0
CIRCLE
  5
267
100
AcDbEntity
  8
M0
 62
     6
100
AcDbCircle
 10
136.224931
 20
587.560826
 40
5.949995
  0
LINE
  5
268
100
AcDbEntity
  8
M0
 62
     6
100
AcDbLine
 10
135.475176
 20
593.463414
 11
135.475176
 21
595.061314
  0
LINE
  5
269
100
AcDbEntity
  8
M0
 62
     6
100
AcDbLine
 10
136.974931
 20
593.463414
 11
136.974931
 21
595.061314
  0
LINE
  5
26A
100
AcDbEntity
  8
M0
 62
     6
100
AcDbLine
 10
141.224917
 20
595.061314
 11
143.975161
 21
592.310826
  0
LINE
  5
26B
100
AcDbEntity
  8
M0
 62
     6
100
AcDbLine
 10
128.475176
 20
592.310826
 11
131.22542
 21
595.061314
  0
ARC
  5
26C
100
AcDbEntity
  8
M0
 62
     6
100
AcDbCircle
 10
142.974917
 20
594.310826
 40
1.0
100
AcDbArc
 50
0.0
 51
48.611508
  0
ARC
  5
26D
100
AcDbEntity
  8
M0
 62
     6
100
AcDbCircle
 10
129.475176
 20
594.310826
 40
1.0
100
AcDbArc
 50
131.375579
 51
179.999126
  0
LINE
  5
26E
100
AcDbEntity
  8
M0
 62
     6
100
AcDbLine
 10
143.974917
 20
594.310826
 11
143.974917
 21
580.810826
  0
LINE
  5
26F
100
AcDbEntity
  8
M0
 62
     6
100
AcDbLine
 10
128.475176
 20
580.810826
 11
128.475176
 21
594.310826
  0
LINE
  5
270
100
AcDbEntity
  8
M0
 62
     6
100
AcDbLine
 10
130.322588
 20
588.310826
 11
128.475176
 21
588.310826
  0
LINE
  5
271
100
AcDbEntity
  8
M0
 62
     6
100
AcDbLine
 10
130.322588
 20
586.810826
 11
128.475176
 21
586.810826
  0
LINE
  5
272
100
AcDbEntity
  8
M0
 62
     6
100
AcDbLine
 10
143.974917
 20
586.810826
 11
142.127505
 21
586.810826
  0
LINE
  5
273
100
AcDbEntity
  8
M0
 62
     6
100
AcDbLine
 10
143.974917
 20
588.310826
 11
142.127505
 21
588.310826
  0
LINE
  5
274
100
AcDbEntity
  8
M0
 62
     6
100
AcDbLine
 10
135.475176
 20
579.810826
 11
135.475176
 21
581.658482
  0
LINE
  5
275
100
AcDbEntity
  8
M0
 62
     6
100
AcDbLine
 10
136.974931
 20
579.810826
 11
136.974931
 21
581.658482
  0
LINE
  5
276
100
AcDbEntity
  8
M0
 62
     6
100
AcDbLine
 10
143.974917
 20
582.810826
 11
140.974917
 21
579.810826
  0
LINE
  5
277
100
AcDbEntity
  8
M0
 62
     6
100
AcDbLine
 10
131.475176
 20
579.810826
 11
128.475176
 21
582.810826
  0
ARC
  5
278
100
AcDbEntity
  8
M0
 62
     6
100
AcDbCircle
 10
142.974917
 20
580.810826
 40
1.0
100
AcDbArc
 50
-90.0
 51
0.0
  0
ARC
  5
279
100
AcDbEntity
  8
M0
 62
     6
100
AcDbCircle
 10
129.475176
 20
580.810826
 40
1.0
100
AcDbArc
 50
179.999126
 51
270.0
  0
LINE
  5
27A
100
AcDbEntity
  8
M0
 62
     6
100
AcDbLine
 10
142.974917
 20
579.810826
 11
129.475176
 21
579.810826
  0
LINE
  5
27B
100
AcDbEntity
  8
M0
  6
DASHDOT
 62
     6
100
AcDbLine
 10
146.523013
 20
587.560826
 11
127.089922
 21
587.560826
  0
LINE
  5
27C
100
AcDbEntity
  8
M0
  6
DASHDOT
 62
     6
100
AcDbLine
 10
176.224916
 20
597.565159
 11
176.224916
 21
576.35056
  0
LINE
  5
27D
100
AcDbEntity
  8
M0
 62
     6
100
AcDbLine
 10
174.103349
 20
586.853993
 11
176.931764
 21
589.682423
  0
LINE
  5
27E
100
AcDbEntity
  8
M0
 62
     6
100
AcDbLine
 10
175.517564
 20
585.439778
 11
178.345979
 21
588.268208
  0
LINE
  5
27F
100
AcDbEntity
  8
M0
 62
     6
100
AcDbLine
 10
173.396242
 20
590.389531
 11
179.053087
 21
584.732686
  0
LINE
  5
280
100
AcDbEntity
  8
M0
 62
     6
100
AcDbLine
 10
181.225816
 20
595.060429
 11
183.974901
 21
592.3111
  0
LINE
  5
281
100
AcDbEntity
  8
M0
 62
     6
100
AcDbLine
 10
168.474915
 20
592.3111
 11
171.224001
 21
595.060429
  0
LINE
  5
282
100
AcDbEntity
  8
M0
 62
     6
100
AcDbLine
 10
175.474901
 20
593.463688
 11
175.474901
 21
595.060429
  0
LINE
  5
283
100
AcDbEntity
  8
M0
 62
     6
100
AcDbLine
 10
176.974657
 20
593.463688
 11
176.974657
 21
595.060429
  0
ARC
  5
284
100
AcDbEntity
  8
M0
 62
     6
100
AcDbCircle
 10
182.974657
 20
594.3111
 40
1.0
100
AcDbArc
 50
0.0
 51
48.53461
  0
ARC
  5
285
100
AcDbEntity
  8
M0
 62
     6
100
AcDbCircle
 10
169.474915
 20
594.3111
 40
1.0
100
AcDbArc
 50
131.545662
 51
179.999126
  0
LINE
  5
286
100
AcDbEntity
  8
M0
  6
DASHDOT
 62
     6
100
AcDbLine
 10
186.522752
 20
587.5611
 11
167.089661
 21
587.5611
  0
LINE
  5
287
100
AcDbEntity
  8
M0
 62
     6
100
AcDbLine
 10
182.974657
 20
579.8111
 11
169.474915
 21
579.8111
  0
ARC
  5
288
100
AcDbEntity
  8
M0
 62
     6
100
AcDbCircle
 10
169.474915
 20
580.8111
 40
1.0
100
AcDbArc
 50
179.999126
 51
270.0
  0
ARC
  5
289
100
AcDbEntity
  8
M0
 62
     6
100
AcDbCircle
 10
182.974657
 20
580.8111
 40
1.0
100
AcDbArc
 50
-90.000874
 51
0.0
  0
LINE
  5
28A
100
AcDbEntity
  8
M0
 62
     6
100
AcDbLine
 10
171.474915
 20
579.8111
 11
168.474915
 21
582.8111
  0
LINE
  5
28B
100
AcDbEntity
  8
M0
 62
     6
100
AcDbLine
 10
183.974657
 20
582.8111
 11
180.974657
 21
579.8111
  0
LINE
  5
28C
100
AcDbEntity
  8
M0
 62
     6
100
AcDbLine
 10
176.974657
 20
579.8111
 11
176.974657
 21
581.658757
  0
LINE
  5
28D
100
AcDbEntity
  8
M0
 62
     6
100
AcDbLine
 10
175.474901
 20
579.8111
 11
175.474901
 21
581.658757
  0
LINE
  5
28E
100
AcDbEntity
  8
M0
 62
     6
100
AcDbLine
 10
183.974657
 20
588.3111
 11
182.127245
 21
588.3111
  0
LINE
  5
28F
100
AcDbEntity
  8
M0
 62
     6
100
AcDbLine
 10
183.974657
 20
586.8111
 11
182.127245
 21
586.8111
  0
LINE
  5
290
100
AcDbEntity
  8
M0
 62
     6
100
AcDbLine
 10
170.322327
 20
586.8111
 11
168.474915
 21
586.8111
  0
LINE
  5
291
100
AcDbEntity
  8
M0
 62
     6
100
AcDbLine
 10
170.322327
 20
588.3111
 11
168.474915
 21
588.3111
  0
LINE
  5
292
100
AcDbEntity
  8
M0
 62
     6
100
AcDbLine
 10
168.474915
 20
580.8111
 11
168.474915
 21
594.3111
  0
LINE
  5
293
100
AcDbEntity
  8
M0
 62
     6
100
AcDbLine
 10
183.974657
 20
594.3111
 11
183.974657
 21
580.8111
  0
CIRCLE
  5
294
100
AcDbEntity
  8
M0
 62
     6
100
AcDbCircle
 10
176.224657
 20
587.5611
 40
5.949995
  0
LINE
  5
295
100
AcDbEntity
  8
M0
 62
     6
100
AcDbLine
 10
154.103337
 20
586.853993
 11
156.931764
 21
589.682423
  0
LINE
  5
296
100
AcDbEntity
  8
M0
 62
     6
100
AcDbLine
 10
155.51755
 20
585.439778
 11
158.345976
 21
588.268208
  0
LINE
  5
297
100
AcDbEntity
  8
M0
 62
     6
100
AcDbLine
 10
153.39623
 20
590.389531
 11
159.053072
 21
584.732686
  0
LINE
  5
298
100
AcDbEntity
  8
M0
 62
     6
100
AcDbLine
 10
161.226045
 20
595.060185
 11
163.974886
 21
592.3111
  0
LINE
  5
299
100
AcDbEntity
  8
M0
 62
     6
100
AcDbLine
 10
148.474901
 20
592.3111
 11
149.72434
 21
593.560658
  0
LINE
  5
29A
100
AcDbEntity
  8
M0
 62
     6
100
AcDbLine
 10
155.474901
 20
593.463688
 11
155.474901
 21
595.060643
  0
LINE
  5
29B
100
AcDbEntity
  8
M0
 62
     6
100
AcDbLine
 10
156.974657
 20
593.463688
 11
156.974657
 21
595.114735
  0
ARC
  5
29C
100
AcDbEntity
  8
M0
 62
     6
100
AcDbCircle
 10
162.974642
 20
594.3111
 40
1.0
100
AcDbArc
 50
0.0
 51
48.512403
  0
LINE
  5
29D
100
AcDbEntity
  8
M0
  6
DASHDOT
 62
     6
100
AcDbLine
 10
166.522737
 20
587.5611
 11
147.089647
 21
587.5611
  0
LINE
  5
29E
100
AcDbEntity
  8
M0
 62
     6
100
AcDbLine
 10
162.974642
 20
579.8111
 11
149.474901
 21
579.8111
  0
ARC
  5
29F
100
AcDbEntity
  8
M0
 62
     6
100
AcDbCircle
 10
149.474901
 20
580.8111
 40
1.0
100
AcDbArc
 50
179.999126
 51
270.0
  0
ARC
  5
2A0
100
AcDbEntity
  8
M0
 62
     6
100
AcDbCircle
 10
162.974642
 20
580.8111
 40
1.0
100
AcDbArc
 50
-90.0
 51
0.0
  0
LINE
  5
2A1
100
AcDbEntity
  8
M0
 62
     6
100
AcDbLine
 10
151.474901
 20
579.8111
 11
148.474901
 21
582.8111
  0
LINE
  5
2A2
100
AcDbEntity
  8
M0
 62
     6
100
AcDbLine
 10
163.974642
 20
582.8111
 11
160.974642
 21
579.8111
  0
LINE
  5
2A3
100
AcDbEntity
  8
M0
 62
     6
100
AcDbLine
 10
156.974657
 20
579.8111
 11
156.974657
 21
581.658757
  0
LINE
  5
2A4
100
AcDbEntity
  8
M0
 62
     6
100
AcDbLine
 10
155.474901
 20
579.8111
 11
155.474901
 21
581.658757
  0
LINE
  5
2A5
100
AcDbEntity
  8
M0
 62
     6
100
AcDbLine
 10
163.974642
 20
588.3111
 11
162.127229
 21
588.3111
  0
LINE
  5
2A6
100
AcDbEntity
  8
M0
 62
     6
100
AcDbLine
 10
163.974642
 20
586.8111
 11
162.127229
 21
586.8111
  0
LINE
  5
2A7
100
AcDbEntity
  8
M0
 62
     6
100
AcDbLine
 10
150.322313
 20
586.8111
 11
148.474901
 21
586.8111
  0
LINE
  5
2A8
100
AcDbEntity
  8
M0
 62
     6
100
AcDbLine
 10
150.322313
 20
588.3111
 11
148.474901
 21
588.3111
  0
LINE
  5
2A9
100
AcDbEntity
  8
M0
 62
     6
100
AcDbLine
 10
148.474901
 20
580.8111
 11
148.474901
 21
593.627675
  0
LINE
  5
2AA
100
AcDbEntity
  8
M0
 62
     6
100
AcDbLine
 10
163.974642
 20
594.3111
 11
163.974642
 21
580.8111
  0
CIRCLE
  5
2AB
100
AcDbEntity
  8
M0
 62
     6
100
AcDbCircle
 10
156.224657
 20
587.5611
 40
5.949995
  0
LINE
  5
2AC
100
AcDbEntity
  8
M0
 62
     6
100
AcDbLine
 10
169.474915
 20
675.309971
 11
182.974657
 21
675.309971
  0
LINE
  5
2AD
100
AcDbEntity
  8
M0
 62
     6
100
AcDbLine
 10
174.103349
 20
666.852864
 11
176.931764
 21
669.681294
  0
LINE
  5
2AE
100
AcDbEntity
  8
M0
 62
     6
100
AcDbLine
 10
175.517564
 20
665.438649
 11
178.345979
 21
668.267079
  0
LINE
  5
2AF
100
AcDbEntity
  8
M0
 62
     6
100
AcDbLine
 10
173.396242
 20
670.388402
 11
179.053087
 21
664.731556
  0
LINE
  5
2B0
100
AcDbEntity
  8
M0
 62
     6
100
AcDbLine
 10
180.975176
 20
675.309971
 11
183.974901
 21
672.309971
  0
LINE
  5
2B1
100
AcDbEntity
  8
M0
 62
     6
100
AcDbLine
 10
168.474915
 20
672.309971
 11
171.474649
 21
675.309971
  0
LINE
  5
2B2
100
AcDbEntity
  8
M0
 62
     6
100
AcDbLine
 10
175.474901
 20
673.462559
 11
175.474901
 21
675.309971
  0
LINE
  5
2B3
100
AcDbEntity
  8
M0
 62
     6
100
AcDbLine
 10
176.974657
 20
673.462559
 11
176.974657
 21
675.309971
  0
ARC
  5
2B4
100
AcDbEntity
  8
M0
 62
     6
100
AcDbCircle
 10
182.974657
 20
674.309971
 40
1.0
100
AcDbArc
 50
0.0
 51
90.0
  0
ARC
  5
2B5
100
AcDbEntity
  8
M0
 62
     6
100
AcDbCircle
 10
169.474915
 20
674.309971
 40
1.0
100
AcDbArc
 50
90.0
 51
180.0
  0
LINE
  5
2B6
100
AcDbEntity
  8
M0
  6
DASHDOT
 62
     6
100
AcDbLine
 10
186.522752
 20
667.559971
 11
167.089661
 21
667.559971
  0
ARC
  5
2B7
100
AcDbEntity
  8
M0
 62
     6
100
AcDbCircle
 10
169.474915
 20
660.809971
 40
1.0
100
AcDbArc
 50
180.0
 51
270.0
  0
ARC
  5
2B8
100
AcDbEntity
  8
M0
 62
     6
100
AcDbCircle
 10
182.974657
 20
660.809971
 40
1.0
100
AcDbArc
 50
-90.000874
 51
0.0
  0
LINE
  5
2B9
100
AcDbEntity
  8
M0
 62
     6
100
AcDbLine
 10
171.474915
 20
659.809971
 11
168.474915
 21
662.809971
  0
LINE
  5
2BA
100
AcDbEntity
  8
M0
 62
     6
100
AcDbLine
 10
183.974657
 20
662.809971
 11
180.974657
 21
659.809971
  0
LINE
  5
2BB
100
AcDbEntity
  8
M0
 62
     6
100
AcDbLine
 10
176.974657
 20
659.809971
 11
176.974657
 21
661.657628
  0
LINE
  5
2BC
100
AcDbEntity
  8
M0
 62
     6
100
AcDbLine
 10
175.474901
 20
659.809971
 11
175.474901
 21
661.657628
  0
LINE
  5
2BD
100
AcDbEntity
  8
M0
 62
     6
100
AcDbLine
 10
183.974657
 20
668.309971
 11
182.127245
 21
668.309971
  0
LINE
  5
2BE
100
AcDbEntity
  8
M0
 62
     6
100
AcDbLine
 10
183.974657
 20
666.809971
 11
182.127245
 21
666.809971
  0
LINE
  5
2BF
100
AcDbEntity
  8
M0
 62
     6
100
AcDbLine
 10
170.322327
 20
666.809971
 11
168.474915
 21
666.809971
  0
LINE
  5
2C0
100
AcDbEntity
  8
M0
 62
     6
100
AcDbLine
 10
170.322327
 20
668.309971
 11
168.474915
 21
668.309971
  0
LINE
  5
2C1
100
AcDbEntity
  8
M0
 62
     6
100
AcDbLine
 10
168.474915
 20
660.809971
 11
168.474915
 21
674.309971
  0
LINE
  5
2C2
100
AcDbEntity
  8
M0
 62
     6
100
AcDbLine
 10
183.974657
 20
674.309971
 11
183.974657
 21
660.809971
  0
CIRCLE
  5
2C3
100
AcDbEntity
  8
M0
 62
     6
100
AcDbCircle
 10
176.224657
 20
667.559971
 40
5.949995
  0
LINE
  5
2C4
100
AcDbEntity
  8
M0
 62
     6
100
AcDbLine
 10
149.474886
 20
675.309971
 11
162.974626
 21
675.309971
  0
LINE
  5
2C5
100
AcDbEntity
  8
M0
 62
     6
100
AcDbLine
 10
154.103322
 20
666.852864
 11
156.931749
 21
669.681294
  0
LINE
  5
2C6
100
AcDbEntity
  8
M0
 62
     6
100
AcDbLine
 10
155.517535
 20
665.438649
 11
158.34596
 21
668.267079
  0
LINE
  5
2C7
100
AcDbEntity
  8
M0
 62
     6
100
AcDbLine
 10
153.396215
 20
670.388402
 11
159.053056
 21
664.731556
  0
LINE
  5
2C8
100
AcDbEntity
  8
M0
 62
     6
100
AcDbLine
 10
160.975145
 20
675.309971
 11
163.97487
 21
672.309971
  0
LINE
  5
2C9
100
AcDbEntity
  8
M0
 62
     6
100
AcDbLine
 10
148.474886
 20
672.309971
 11
151.47462
 21
675.309971
  0
LINE
  5
2CA
100
AcDbEntity
  8
M0
 62
     6
100
AcDbLine
 10
155.474886
 20
673.462559
 11
155.474886
 21
675.309971
  0
LINE
  5
2CB
100
AcDbEntity
  8
M0
 62
     6
100
AcDbLine
 10
156.974641
 20
673.462559
 11
156.974641
 21
675.309971
  0
ARC
  5
2CC
100
AcDbEntity
  8
M0
 62
     6
100
AcDbCircle
 10
162.974626
 20
674.309971
 40
1.0
100
AcDbArc
 50
0.0
 51
90.0
  0
ARC
  5
2CD
100
AcDbEntity
  8
M0
 62
     6
100
AcDbCircle
 10
149.474886
 20
674.309971
 40
1.0
100
AcDbArc
 50
90.0
 51
180.0
  0
LINE
  5
2CE
100
AcDbEntity
  8
M0
  6
DASHDOT
 62
     6
100
AcDbLine
 10
166.522722
 20
667.559971
 11
147.089632
 21
667.559971
  0
ARC
  5
2CF
100
AcDbEntity
  8
M0
 62
     6
100
AcDbCircle
 10
162.974626
 20
660.809971
 40
1.0
100
AcDbArc
 50
-90.0
 51
0.0
  0
LINE
  5
2D0
100
AcDbEntity
  8
M0
 62
     6
100
AcDbLine
 10
149.72501
 20
661.559849
 11
148.474886
 21
662.809971
  0
LINE
  5
2D1
100
AcDbEntity
  8
M0
 62
     6
100
AcDbLine
 10
163.974626
 20
662.809971
 11
160.974626
 21
659.809971
  0
LINE
  5
2D2
100
AcDbEntity
  8
M0
 62
     6
100
AcDbLine
 10
156.974641
 20
659.809971
 11
156.974641
 21
661.657628
  0
LINE
  5
2D3
100
AcDbEntity
  8
M0
 62
     6
100
AcDbLine
 10
155.474886
 20
660.05962
 11
155.474886
 21
661.657628
  0
LINE
  5
2D4
100
AcDbEntity
  8
M0
 62
     6
100
AcDbLine
 10
163.974626
 20
668.309971
 11
162.127214
 21
668.309971
  0
LINE
  5
2D5
100
AcDbEntity
  8
M0
 62
     6
100
AcDbLine
 10
163.974626
 20
666.809971
 11
162.127214
 21
666.809971
  0
LINE
  5
2D6
100
AcDbEntity
  8
M0
 62
     6
100
AcDbLine
 10
150.322298
 20
666.809971
 11
148.474886
 21
666.809971
  0
LINE
  5
2D7
100
AcDbEntity
  8
M0
 62
     6
100
AcDbLine
 10
150.322298
 20
668.309971
 11
148.474886
 21
668.309971
  0
LINE
  5
2D8
100
AcDbEntity
  8
M0
 62
     6
100
AcDbLine
 10
148.474886
 20
661.492833
 11
148.474886
 21
674.309971
  0
LINE
  5
2D9
100
AcDbEntity
  8
M0
 62
     6
100
AcDbLine
 10
163.974626
 20
674.309971
 11
163.974626
 21
660.809971
  0
CIRCLE
  5
2DA
100
AcDbEntity
  8
M0
 62
     6
100
AcDbCircle
 10
156.224642
 20
667.559971
 40
5.949995
  0
LINE
  5
2DB
100
AcDbEntity
  8
M0
 62
     6
100
AcDbLine
 10
129.475191
 20
675.310215
 11
142.974932
 21
675.310215
  0
LINE
  5
2DC
100
AcDbEntity
  8
M0
 62
     6
100
AcDbLine
 10
134.103639
 20
666.853108
 11
136.932054
 21
669.681538
  0
LINE
  5
2DD
100
AcDbEntity
  8
M0
 62
     6
100
AcDbLine
 10
135.517854
 20
665.438893
 11
138.346269
 21
668.267323
  0
LINE
  5
2DE
100
AcDbEntity
  8
M0
 62
     6
100
AcDbLine
 10
133.396532
 20
670.388646
 11
139.053377
 21
664.731801
  0
LINE
  5
2DF
100
AcDbEntity
  8
M0
 62
     6
100
AcDbLine
 10
148.224932
 20
617.560018
 11
164.224367
 21
617.560018
  0
LINE
  5
2E0
100
AcDbEntity
  8
M0
 62
     6
100
AcDbLine
 10
140.975451
 20
675.310215
 11
143.975177
 21
672.310215
  0
LINE
  5
2E1
100
AcDbEntity
  8
M0
 62
     6
100
AcDbLine
 10
128.475191
 20
672.310215
 11
131.474931
 21
675.310215
  0
LINE
  5
2E2
100
AcDbEntity
  8
M0
 62
     6
100
AcDbLine
 10
135.475191
 20
673.462803
 11
135.475191
 21
675.310215
  0
LINE
  5
2E3
100
AcDbEntity
  8
M0
 62
     6
100
AcDbLine
 10
136.974947
 20
673.462803
 11
136.974947
 21
675.310215
  0
ARC
  5
2E4
100
AcDbEntity
  8
M0
 62
     6
100
AcDbCircle
 10
142.974932
 20
674.310215
 40
1.0
100
AcDbArc
 50
0.0
 51
90.0
  0
ARC
  5
2E5
100
AcDbEntity
  8
M0
 62
     6
100
AcDbCircle
 10
129.475191
 20
674.310215
 40
1.0
100
AcDbArc
 50
89.999126
 51
180.0
  0
LINE
  5
2E6
100
AcDbEntity
  8
M0
  6
DASHDOT
 62
     6
100
AcDbLine
 10
146.523028
 20
667.560215
 11
127.089937
 21
667.560215
  0
ARC
  5
2E7
100
AcDbEntity
  8
M0
 62
     6
100
AcDbCircle
 10
129.475191
 20
660.810215
 40
1.0
100
AcDbArc
 50
180.0
 51
228.617596
  0
ARC
  5
2E8
100
AcDbEntity
  8
M0
 62
     6
100
AcDbCircle
 10
142.974932
 20
660.810215
 40
1.0
100
AcDbArc
 50
-48.624708
 51
0.0
  0
LINE
  5
2E9
100
AcDbEntity
  8
M0
 62
     6
100
AcDbLine
 10
131.225496
 20
660.059926
 11
128.475191
 21
662.810215
  0
LINE
  5
2EA
100
AcDbEntity
  8
M0
 62
     6
100
AcDbLine
 10
143.974932
 20
662.810215
 11
141.224566
 21
660.059849
  0
LINE
  5
2EB
100
AcDbEntity
  8
M0
 62
     6
100
AcDbLine
 10
136.974947
 20
660.05988
 11
136.974947
 21
661.657872
  0
LINE
  5
2EC
100
AcDbEntity
  8
M0
 62
     6
100
AcDbLine
 10
135.475191
 20
660.059895
 11
135.475191
 21
661.657872
  0
LINE
  5
2ED
100
AcDbEntity
  8
M0
 62
     6
100
AcDbLine
 10
143.974932
 20
668.310215
 11
142.12752
 21
668.310215
  0
LINE
  5
2EE
100
AcDbEntity
  8
M0
 62
     6
100
AcDbLine
 10
143.974932
 20
666.810215
 11
142.12752
 21
666.810215
  0
LINE
  5
2EF
100
AcDbEntity
  8
M0
 62
     6
100
AcDbLine
 10
130.322603
 20
666.810215
 11
128.475191
 21
666.810215
  0
LINE
  5
2F0
100
AcDbEntity
  8
M0
 62
     6
100
AcDbLine
 10
130.322603
 20
668.310215
 11
128.475191
 21
668.310215
  0
LINE
  5
2F1
100
AcDbEntity
  8
M0
 62
     6
100
AcDbLine
 10
128.475191
 20
660.810215
 11
128.475191
 21
674.310215
  0
LINE
  5
2F2
100
AcDbEntity
  8
M0
 62
     6
100
AcDbLine
 10
143.974932
 20
674.310215
 11
143.974932
 21
660.810215
  0
CIRCLE
  5
2F3
100
AcDbEntity
  8
M0
 62
     6
100
AcDbCircle
 10
136.224947
 20
667.560215
 40
5.949995
  0
LINE
  5
2F4
100
AcDbEntity
  8
M0
  6
DASHDOT
 62
     6
100
AcDbLine
 10
136.224947
 20
677.564671
 11
136.224947
 21
657.678242
  0
LINE
  5
2F5
100
AcDbEntity
  8
M0
  6
DASHDOT
 62
     6
100
AcDbLine
 10
176.224931
 20
677.564656
 11
176.224931
 21
657.678181
  0
LINE
  5
2F6
100
AcDbEntity
  8
M0
 62
     6
100
AcDbLine
 10
163.375457
 20
675.559712
 11
149.075424
 21
675.559712
  0
LINE
  5
2F7
100
AcDbEntity
  8
M0
 62
     6
100
AcDbLine
 10
148.075423
 20
674.559712
 11
148.075414
 21
660.059712
  0
LINE
  5
2F8
100
AcDbEntity
  8
M0
 62
     6
100
AcDbLine
 10
164.375448
 20
660.059712
 11
164.375457
 21
674.559712
  0
ARC
  5
2F9
100
AcDbEntity
  8
M0
 62
     6
100
AcDbCircle
 10
149.075423
 20
674.559712
 40
1.0
100
AcDbArc
 50
90.0
 51
180.0
  0
ARC
  5
2FA
100
AcDbEntity
  8
M0
 62
     6
100
AcDbCircle
 10
163.375448
 20
660.059712
 40
1.0
100
AcDbArc
 50
345.536028
 51
360.0
  0
ARC
  5
2FB
100
AcDbEntity
  8
M0
 62
     6
100
AcDbCircle
 10
163.375457
 20
674.559712
 40
1.0
100
AcDbArc
 50
0.0
 51
90.0
  0
LINE
  5
2FC
100
AcDbEntity
  8
M0
 62
     6
100
AcDbLine
 10
149.074709
 20
579.560475
 11
163.374742
 21
579.560475
  0
LINE
  5
2FD
100
AcDbEntity
  8
M0
 62
     6
100
AcDbLine
 10
164.374742
 20
580.560475
 11
164.374742
 21
595.060475
  0
LINE
  5
2FE
100
AcDbEntity
  8
M0
 62
     6
100
AcDbLine
 10
148.074709
 20
595.060475
 11
148.074709
 21
580.560475
  0
ARC
  5
2FF
100
AcDbEntity
  8
M0
 62
     6
100
AcDbCircle
 10
163.374742
 20
580.560475
 40
1.0
100
AcDbArc
 50
270.0
 51
360.0
  0
ARC
  5
300
100
AcDbEntity
  8
M0
 62
     6
100
AcDbCircle
 10
149.074709
 20
580.560475
 40
1.0
100
AcDbArc
 50
179.999126
 51
270.0
  0
LINE
  5
301
100
AcDbEntity
  8
M0
 62
     6
100
AcDbLine
 10
156.224627
 20
659.560704
 11
124.724672
 21
659.560704
  0
LINE
  5
302
100
AcDbEntity
  8
M0
 62
     6
100
AcDbLine
 10
124.724672
 20
595.560719
 11
156.224642
 21
595.560719
  0
LINE
  5
303
100
AcDbEntity
  8
M0
 62
     6
100
AcDbLine
 10
124.724672
 20
659.560704
 11
124.724672
 21
631.890828
  0
LINE
  5
304
100
AcDbEntity
  8
M0
 62
     6
100
AcDbLine
 10
124.724672
 20
623.230581
 11
124.724672
 21
595.560719
  0
ARC
  5
305
100
AcDbEntity
  8
M0
 62
     6
100
AcDbCircle
 10
122.224672
 20
627.560704
 40
5.0
100
AcDbArc
 50
299.999985
 51
419.999597
  0
LINE
  5
306
100
AcDbEntity
  8
M0
 62
     6
100
AcDbLine
 10
156.22468
 20
659.560704
 11
187.724642
 21
659.560704
  0
LINE
  5
307
100
AcDbEntity
  8
M0
 62
     6
100
AcDbLine
 10
187.724642
 20
595.560719
 11
156.224663
 21
595.560719
  0
LINE
  5
308
100
AcDbEntity
  8
M0
 62
     6
100
AcDbLine
 10
187.724642
 20
659.560704
 11
187.724642
 21
631.890828
  0
LINE
  5
309
100
AcDbEntity
  8
M0
 62
     6
100
AcDbLine
 10
187.724642
 20
623.230581
 11
187.724642
 21
595.560719
  0
ARC
  5
30A
100
AcDbEntity
  8
M0
 62
     6
100
AcDbCircle
 10
190.224642
 20
627.560704
 40
5.0
100
AcDbArc
 50
119.999996
 51
239.999435
  0
ARC
  5
30B
100
AcDbEntity
  8
M0
 62
     6
100
AcDbCircle
 10
122.224443
 20
660.059971
 40
2.299998
100
AcDbArc
 50
29.565768
 51
89.99962
  0
CIRCLE
  5
30C
100
AcDbEntity
  8
M0
 62
     6
100
AcDbCircle
 10
192.224367
 20
647.559987
 40
3.0
  0
CIRCLE
  5
30D
100
AcDbEntity
  8
M0
 62
     6
100
AcDbCircle
 10
192.224367
 20
638.060154
 40
3.0
  0
CIRCLE
  5
30E
100
AcDbEntity
  8
M0
 62
     6
100
AcDbCircle
 10
192.224352
 20
617.060434
 40
3.0
  0
CIRCLE
  5
30F
100
AcDbEntity
  8
M0
 62
     6
100
AcDbCircle
 10
192.224352
 20
607.56046
 40
3.0
  0
CIRCLE
  5
310
100
AcDbEntity
  8
M0
 62
     6
100
AcDbCircle
 10
192.224642
 20
659.560963
 40
3.0
  0
LINE
  5
311
100
AcDbEntity
  8
M0
 62
     6
100
AcDbLine
 10
263.225465
 20
675.558751
 11
254.97487
 21
675.558751
  0
LINE
  5
312
100
AcDbEntity
  8
M0
 62
     6
100
AcDbLine
 10
251.974871
 20
680.559971
 11
254.474871
 21
680.559971
  0
LINE
  5
313
100
AcDbEntity
  8
M0
 62
     6
100
AcDbLine
 10
251.474871
 20
675.558751
 11
231.224886
 21
675.559239
  0
LINE
  5
314
100
AcDbEntity
  8
M0
 62
     6
100
AcDbLine
 10
293.724519
 20
675.558995
 11
295.224855
 21
675.558995
  0
LINE
  5
315
100
AcDbEntity
  8
M0
 62
     6
100
AcDbLine
 10
231.174593
 20
672.775059
 11
223.524934
 21
667.515782
  0
ARC
  5
316
100
AcDbEntity
  8
M0
 62
     6
100
AcDbCircle
 10
225.224642
 20
665.043614
 40
3.0
100
AcDbArc
 50
124.509994
 51
180.0
  0
ARC
  5
317
100
AcDbEntity
  8
M0
 62
     6
100
AcDbCircle
 10
230.224642
 20
666.559727
 40
2.249998
100
AcDbArc
 50
65.024116
 51
294.974336
  0
ARC
  5
318
100
AcDbEntity
  8
M0
 62
     6
100
AcDbCircle
 10
306.724611
 20
665.059727
 40
0.5
100
AcDbArc
 50
0.0
 51
90.0
  0
LINE
  5
319
100
AcDbEntity
  8
M0
 62
     6
100
AcDbLine
 10
303.224611
 20
665.559971
 11
306.724611
 21
665.559971
  0
LINE
  5
31A
100
AcDbEntity
  8
M0
 62
     6
100
AcDbLine
 10
295.224855
 20
664.059971
 11
303.224611
 21
664.059971
  0
LINE
  5
31B
100
AcDbEntity
  8
M0
 62
     6
100
AcDbLine
 10
254.97487
 20
680.059971
 11
254.97487
 21
660.059971
  0
LINE
  5
31C
100
AcDbEntity
  8
M0
 62
     6
100
AcDbLine
 10
219.724886
 20
657.059971
 11
221.224886
 21
657.059971
  0
ARC
  5
31D
100
AcDbEntity
  8
M0
 62
     6
100
AcDbCircle
 10
221.224886
 20
656.559971
 40
0.5
100
AcDbArc
 50
0.0
 51
89.998251
  0
ARC
  5
31E
100
AcDbEntity
  8
M0
 62
     6
100
AcDbCircle
 10
219.724886
 20
656.559971
 40
0.5
100
AcDbArc
 50
89.998251
 51
180.0
  0
LINE
  5
31F
100
AcDbEntity
  8
M0
 62
     6
100
AcDbLine
 10
234.974886
 20
675.559971
 11
234.974886
 21
660.059483
  0
LINE
  5
320
100
AcDbEntity
  8
M0
 62
     6
100
AcDbLine
 10
251.474871
 20
680.059971
 11
251.474871
 21
660.059483
  0
LINE
  5
321
100
AcDbEntity
  8
M0
 62
     6
100
AcDbLine
 10
254.97487
 20
680.059971
 11
254.97487
 21
660.059483
  0
LINE
  5
322
100
AcDbEntity
  8
M0
 62
     6
100
AcDbLine
 10
306.724855
 20
657.059727
 11
305.224855
 21
657.059727
  0
ARC
  5
323
100
AcDbEntity
  8
M0
 62
     6
100
AcDbCircle
 10
305.224855
 20
656.559727
 40
0.5
100
AcDbArc
 50
90.0
 51
180.0
  0
ARC
  5
324
100
AcDbEntity
  8
M0
 62
     6
100
AcDbCircle
 10
306.724855
 20
656.559727
 40
0.5
100
AcDbArc
 50
0.0
 51
90.0
  0
LINE
  5
325
100
AcDbEntity
  8
M0
 62
     6
100
AcDbLine
 10
257.72487
 20
661.559727
 11
255.72487
 21
661.559727
  0
ARC
  5
326
100
AcDbEntity
  8
M0
 62
     6
100
AcDbCircle
 10
255.72487
 20
661.059727
 40
0.5
100
AcDbArc
 50
90.0
 51
180.0
  0
LINE
  5
327
100
AcDbEntity
  8
M0
 62
     6
100
AcDbLine
 10
263.225465
 20
660.059483
 11
231.724886
 21
660.059727
  0
ARC
  5
328
100
AcDbEntity
  8
M0
 62
     6
100
AcDbCircle
 10
231.724886
 20
659.559727
 40
0.5
100
AcDbArc
 50
89.998251
 51
180.0
  0
ARC
  5
329
100
AcDbEntity
  8
M0
 62
     6
100
AcDbCircle
 10
294.724855
 20
659.559727
 40
0.5
100
AcDbArc
 50
0.0
 51
90.0
  0
LINE
  5
32A
100
AcDbEntity
  8
M0
 62
     6
100
AcDbLine
 10
258.22487
 20
661.059727
 11
258.22487
 21
660.059727
  0
LINE
  5
32B
100
AcDbEntity
  8
M0
 62
     6
100
AcDbLine
 10
255.22487
 20
661.059727
 11
255.22487
 21
660.059727
  0
ARC
  5
32C
100
AcDbEntity
  8
M0
 62
     6
100
AcDbCircle
 10
257.72487
 20
661.059727
 40
0.5
100
AcDbArc
 50
0.0
 51
90.0
  0
LINE
  5
32D
100
AcDbEntity
  8
M0
 62
     6
100
AcDbLine
 10
222.224642
 20
655.059971
 11
222.224642
 21
665.043614
  0
LINE
  5
32E
100
AcDbEntity
  8
M0
 62
     6
100
AcDbLine
 10
221.724642
 20
655.059971
 11
222.224642
 21
655.059971
  0
LINE
  5
32F
100
AcDbEntity
  8
M0
 62
     6
100
AcDbLine
 10
295.224855
 20
654.559971
 11
303.224611
 21
654.559971
  0
CIRCLE
  5
330
100
AcDbEntity
  8
M0
 62
     6
100
AcDbCircle
 10
299.224611
 20
659.559971
 40
3.0
  0
LINE
  5
331
100
AcDbEntity
  8
M0
 62
     6
100
AcDbLine
 10
259.22487
 20
639.559891
 11
260.72487
 21
639.559891
  0
LINE
  5
332
100
AcDbEntity
  8
M0
 62
     6
100
AcDbLine
 10
230.424837
 20
643.059983
 11
230.424837
 21
642.059983
  0
LINE
  5
333
100
AcDbEntity
  8
M0
 62
     6
100
AcDbLine
 10
224.02469
 20
643.059983
 11
224.02469
 21
642.059983
  0
LINE
  5
334
100
AcDbEntity
  8
M0
 62
     6
100
AcDbLine
 10
223.724886
 20
645.059727
 11
223.724886
 21
643.559983
  0
LINE
  5
335
100
AcDbEntity
  8
M0
 62
     6
100
AcDbLine
 10
230.724886
 20
645.059971
 11
230.724886
 21
643.559983
  0
ARC
  5
336
100
AcDbEntity
  8
M0
 62
     6
100
AcDbCircle
 10
223.52469
 20
643.059983
 40
0.5
100
AcDbArc
 50
0.0
 51
89.998251
  0
LINE
  5
337
100
AcDbEntity
  8
M0
 62
     6
100
AcDbLine
 10
223.224886
 20
642.059983
 11
224.285677
 21
642.059983
  0
LINE
  5
338
100
AcDbEntity
  8
M0
 62
     6
100
AcDbLine
 10
223.224886
 20
643.559983
 11
223.52469
 21
643.559983
  0
LINE
  5
339
100
AcDbEntity
  8
M0
 62
     6
100
AcDbLine
 10
230.924837
 20
643.559983
 11
231.224886
 21
643.559983
  0
ARC
  5
33A
100
AcDbEntity
  8
M0
 62
     6
100
AcDbCircle
 10
230.924837
 20
643.059983
 40
0.5
100
AcDbArc
 50
89.998251
 51
180.0
  0
LINE
  5
33B
100
AcDbEntity
  8
M0
 62
     6
100
AcDbLine
 10
296.02466
 20
643.059739
 11
296.02466
 21
642.059739
  0
LINE
  5
33C
100
AcDbEntity
  8
M0
 62
     6
100
AcDbLine
 10
302.424806
 20
643.059739
 11
302.424806
 21
642.059739
  0
LINE
  5
33D
100
AcDbEntity
  8
M0
 62
     6
100
AcDbLine
 10
302.724855
 20
645.059483
 11
302.724855
 21
643.559739
  0
LINE
  5
33E
100
AcDbEntity
  8
M0
 62
     6
100
AcDbLine
 10
295.724855
 20
645.059727
 11
295.724855
 21
643.559739
  0
ARC
  5
33F
100
AcDbEntity
  8
M0
 62
     6
100
AcDbCircle
 10
302.924806
 20
643.059739
 40
0.5
100
AcDbArc
 50
90.0
 51
180.0
  0
LINE
  5
340
100
AcDbEntity
  8
M0
 62
     6
100
AcDbLine
 10
303.224855
 20
642.059739
 11
302.16382
 21
642.059739
  0
LINE
  5
341
100
AcDbEntity
  8
M0
 62
     6
100
AcDbLine
 10
303.224855
 20
643.559739
 11
302.924806
 21
643.559739
  0
LINE
  5
342
100
AcDbEntity
  8
M0
 62
     6
100
AcDbLine
 10
295.52466
 20
643.559739
 11
295.224855
 21
643.559739
  0
ARC
  5
343
100
AcDbEntity
  8
M0
 62
     6
100
AcDbCircle
 10
295.52466
 20
643.059739
 40
0.5
100
AcDbArc
 50
0.0
 51
90.0
  0
LINE
  5
344
100
AcDbEntity
  8
M0
 62
     6
100
AcDbLine
 10
230.163851
 20
642.059983
 11
231.224886
 21
642.059983
  0
LINE
  5
345
100
AcDbEntity
  8
M0
 62
     6
100
AcDbLine
 10
296.285646
 20
642.059739
 11
295.224855
 21
642.059739
  0
LINE
  5
346
100
AcDbEntity
  8
M0
 62
     6
100
AcDbLine
 10
296.02466
 20
642.559739
 11
302.424806
 21
642.559739
  0
LINE
  5
347
100
AcDbEntity
  8
M0
 62
     6
100
AcDbLine
 10
224.02469
 20
642.559983
 11
230.424837
 21
642.559983
  0
LINE
  5
348
100
AcDbEntity
  8
M0
 62
     6
100
AcDbLine
 10
263.224611
 20
643.559723
 11
261.72487
 21
643.559739
  0
LINE
  5
349
100
AcDbEntity
  8
M0
 62
     6
100
AcDbLine
 10
260.72487
 20
642.559739
 11
260.72487
 21
639.559891
  0
LINE
  5
34A
100
AcDbEntity
  8
M0
 62
     6
100
AcDbLine
 10
259.22487
 20
640.25969
 11
260.72487
 21
640.25969
  0
ARC
  5
34B
100
AcDbEntity
  8
M0
 62
     6
100
AcDbCircle
 10
261.72487
 20
642.559739
 40
1.0
100
AcDbArc
 50
90.0
 51
180.0
  0
LINE
  5
34C
100
AcDbEntity
  8
M0
 62
     6
100
AcDbLine
 10
229.705599
 20
642.360032
 11
224.743929
 21
642.359787
  0
ARC
  5
34D
100
AcDbEntity
  8
M0
 62
     6
100
AcDbCircle
 10
224.743929
 20
641.859787
 40
0.5
100
AcDbArc
 50
89.998251
 51
162.856158
  0
ARC
  5
34E
100
AcDbEntity
  8
M0
 62
     6
100
AcDbCircle
 10
229.705599
 20
641.859787
 40
0.5
100
AcDbArc
 50
17.151041
 51
89.998251
  0
LINE
  5
34F
100
AcDbEntity
  8
M0
 62
     6
100
AcDbLine
 10
301.705568
 20
642.359787
 11
296.743898
 21
642.359543
  0
ARC
  5
350
100
AcDbEntity
  8
M0
 62
     6
100
AcDbCircle
 10
296.743898
 20
641.859543
 40
0.5
100
AcDbArc
 50
90.0
 51
162.858239
  0
ARC
  5
351
100
AcDbEntity
  8
M0
 62
     6
100
AcDbCircle
 10
301.705568
 20
641.859543
 40
0.5
100
AcDbArc
 50
17.153227
 51
90.0
  0
LINE
  5
352
100
AcDbEntity
  8
M0
 62
     6
100
AcDbLine
 10
224.966585
 20
633.260118
 11
229.482942
 21
633.260118
  0
LINE
  5
353
100
AcDbEntity
  8
M0
 62
     6
100
AcDbLine
 10
224.009554
 20
633.970079
 11
223.224886
 21
636.560136
  0
LINE
  5
354
100
AcDbEntity
  8
M0
 62
     6
100
AcDbLine
 10
230.439974
 20
633.970079
 11
231.224886
 21
636.560136
  0
ARC
  5
355
100
AcDbEntity
  8
M0
 62
     6
100
AcDbCircle
 10
224.966585
 20
634.260118
 40
1.0
100
AcDbArc
 50
196.859961
 51
270.0
  0
LINE
  5
356
100
AcDbEntity
  8
M0
 62
     6
100
AcDbLine
 10
260.22487
 20
632.20984
 11
263.224611
 21
632.20984
  0
ARC
  5
357
100
AcDbEntity
  8
M0
 62
     6
100
AcDbCircle
 10
229.482942
 20
634.260118
 40
1.0
100
AcDbArc
 50
270.0
 51
343.140868
  0
LINE
  5
358
100
AcDbEntity
  8
M0
 62
     6
100
AcDbLine
 10
301.482912
 20
633.259874
 11
296.966554
 21
633.259874
  0
LINE
  5
359
100
AcDbEntity
  8
M0
 62
     6
100
AcDbLine
 10
302.439943
 20
633.969835
 11
303.224855
 21
636.559892
  0
LINE
  5
35A
100
AcDbEntity
  8
M0
 62
     6
100
AcDbLine
 10
296.009523
 20
633.969835
 11
295.224855
 21
636.559892
  0
ARC
  5
35B
100
AcDbEntity
  8
M0
 62
     6
100
AcDbCircle
 10
301.482912
 20
634.259874
 40
1.0
100
AcDbArc
 50
269.999126
 51
343.139053
  0
ARC
  5
35C
100
AcDbEntity
  8
M0
 62
     6
100
AcDbCircle
 10
296.966554
 20
634.259874
 40
1.0
100
AcDbArc
 50
196.858976
 51
269.999126
  0
LINE
  5
35D
100
AcDbEntity
  8
M0
 62
     6
100
AcDbLine
 10
224.224886
 20
633.259935
 11
230.724886
 21
633.259935
  0
LINE
  5
35E
100
AcDbEntity
  8
M0
 62
     6
100
AcDbLine
 10
295.724855
 20
633.259935
 11
302.224855
 21
633.259935
  0
ARC
  5
35F
100
AcDbEntity
  8
M0
 62
     6
100
AcDbCircle
 10
230.724886
 20
633.759935
 40
0.5
100
AcDbArc
 50
270.0
 51
360.0
  0
ARC
  5
360
100
AcDbEntity
  8
M0
 62
     6
100
AcDbCircle
 10
302.224855
 20
632.759935
 40
0.5
100
AcDbArc
 50
0.0
 51
90.0
  0
ARC
  5
361
100
AcDbEntity
  8
M0
 62
     6
100
AcDbCircle
 10
224.224886
 20
632.759935
 40
0.5
100
AcDbArc
 50
89.998251
 51
180.0
  0
ARC
  5
362
100
AcDbEntity
  8
M0
 62
     6
100
AcDbCircle
 10
295.724855
 20
633.759935
 40
0.5
100
AcDbArc
 50
180.0
 51
269.998251
  0
LINE
  5
363
100
AcDbEntity
  8
M0
 62
     6
100
AcDbLine
 10
254.924823
 20
637.859697
 11
259.22487
 21
637.859697
  0
ARC
  5
364
100
AcDbEntity
  8
M0
 62
     6
100
AcDbCircle
 10
254.924823
 20
634.859697
 40
3.0
100
AcDbArc
 50
90.0
 51
179.999982
  0
LINE
  5
365
100
AcDbEntity
  8
M0
 62
     6
100
AcDbLine
 10
259.22487
 20
640.25969
 11
259.22487
 21
637.859697
  0
CIRCLE
  5
366
100
AcDbEntity
  8
M0
 62
     6
100
AcDbCircle
 10
299.224855
 20
638.059892
 40
3.0
  0
LINE
  5
367
100
AcDbEntity
  8
M0
 62
     6
100
AcDbLine
 10
223.224886
 20
653.059971
 11
231.224886
 21
653.059971
  0
LINE
  5
368
100
AcDbEntity
  8
M0
 62
     6
100
AcDbLine
 10
219.724886
 20
645.559971
 11
222.724886
 21
645.559971
  0
ARC
  5
369
100
AcDbEntity
  8
M0
 62
     6
100
AcDbCircle
 10
219.724886
 20
645.059971
 40
0.5
100
AcDbArc
 50
89.998251
 51
180.0
  0
LINE
  5
36A
100
AcDbEntity
  8
M0
 62
     6
100
AcDbLine
 10
223.224886
 20
646.559971
 11
223.724886
 21
645.059971
  0
LINE
  5
36B
100
AcDbEntity
  8
M0
 62
     6
100
AcDbLine
 10
231.224886
 20
646.559971
 11
230.724886
 21
645.059971
  0
ARC
  5
36C
100
AcDbEntity
  8
M0
 62
     6
100
AcDbCircle
 10
222.724886
 20
645.059971
 40
0.5
100
AcDbArc
 50
0.0
 51
89.998251
  0
LINE
  5
36D
100
AcDbEntity
  8
M0
 62
     6
100
AcDbLine
 10
307.224855
 20
654.059727
 11
295.224855
 21
654.059727
  0
LINE
  5
36E
100
AcDbEntity
  8
M0
 62
     6
100
AcDbLine
 10
303.224855
 20
653.059727
 11
295.224855
 21
653.059727
  0
LINE
  5
36F
100
AcDbEntity
  8
M0
 62
     6
100
AcDbLine
 10
307.224855
 20
654.059727
 11
303.224855
 21
654.059727
  0
LINE
  5
370
100
AcDbEntity
  8
M0
 62
     6
100
AcDbLine
 10
306.724855
 20
645.559727
 11
303.724855
 21
645.559727
  0
ARC
  5
371
100
AcDbEntity
  8
M0
 62
     6
100
AcDbCircle
 10
306.724855
 20
645.059727
 40
0.5
100
AcDbArc
 50
0.0
 51
90.0
  0
ARC
  5
372
100
AcDbEntity
  8
M0
 62
     6
100
AcDbCircle
 10
227.724397
 20
660.059971
 40
2.299998
100
AcDbArc
 50
89.99962
 51
270.0
  0
ARC
  5
373
100
AcDbEntity
  8
M0
 62
     6
100
AcDbCircle
 10
229.224397
 20
660.059971
 40
2.299998
100
AcDbArc
 50
270.0
 51
330.432534
  0
ARC
  5
374
100
AcDbEntity
  8
M0
 62
     6
100
AcDbCircle
 10
303.724855
 20
653.559727
 40
0.5
100
AcDbArc
 50
90.0
 51
180.0
  0
LINE
  5
375
100
AcDbEntity
  8
M0
 62
     6
100
AcDbLine
 10
303.224855
 20
646.559727
 11
302.724855
 21
645.059727
  0
LINE
  5
376
100
AcDbEntity
  8
M0
 62
     6
100
AcDbLine
 10
295.224855
 20
646.559727
 11
295.724855
 21
645.059727
  0
ARC
  5
377
100
AcDbEntity
  8
M0
 62
     6
100
AcDbCircle
 10
303.724855
 20
645.059727
 40
0.5
100
AcDbArc
 50
90.0
 51
180.0
  0
CIRCLE
  5
378
100
AcDbEntity
  8
M0
 62
     6
100
AcDbCircle
 10
299.224855
 20
647.559727
 40
3.0
  0
LINE
  5
379
100
AcDbEntity
  8
M0
 62
     6
100
AcDbLine
 10
219.224886
 20
654.059971
 11
231.224886
 21
654.059971
  0
LINE
  5
37A
100
AcDbEntity
  8
M0
 62
     6
100
AcDbLine
 10
221.724886
 20
656.559971
 11
221.724886
 21
654.059971
  0
LINE
  5
37B
100
AcDbEntity
  8
M0
 62
     6
100
AcDbLine
 10
219.224886
 20
654.059971
 11
223.224886
 21
654.059971
  0
ARC
  5
37C
100
AcDbEntity
  8
M0
 62
     6
100
AcDbCircle
 10
222.724886
 20
653.559971
 40
0.5
100
AcDbArc
 50
0.0
 51
89.998251
  0
LINE
  5
37D
100
AcDbEntity
  8
M0
 62
     6
100
AcDbLine
 10
304.724855
 20
656.559727
 11
304.724855
 21
654.059727
  0
LINE
  5
37E
100
AcDbEntity
  8
M0
 62
     6
100
AcDbLine
 10
219.224397
 20
654.059971
 11
231.224642
 21
654.059971
  0
LINE
  5
37F
100
AcDbEntity
  8
M0
 62
     6
100
AcDbLine
 10
303.224611
 20
654.059483
 11
303.224611
 21
665.559971
  0
LINE
  5
380
100
AcDbEntity
  8
M0
 62
     6
100
AcDbLine
 10
231.224886
 20
633.75963
 11
231.224886
 21
675.559971
  0
LINE
  5
381
100
AcDbEntity
  8
M0
 62
     6
100
AcDbLine
 10
295.224855
 20
633.759874
 11
295.224855
 21
675.559727
  0
LINE
  5
382
100
AcDbEntity
  8
M0
 62
     6
100
AcDbLine
 10
231.224886
 20
659.559727
 11
231.224886
 21
633.759935
  0
LINE
  5
383
100
AcDbEntity
  8
M0
 62
     6
100
AcDbLine
 10
295.224855
 20
633.759935
 11
295.224855
 21
659.559727
  0
LINE
  5
384
100
AcDbEntity
  8
M0
 62
     6
100
AcDbLine
 10
227.724397
 20
662.359776
 11
229.224397
 21
662.359776
  0
LINE
  5
385
100
AcDbEntity
  8
M0
 62
     6
100
AcDbLine
 10
227.724397
 20
657.759968
 11
229.224397
 21
657.759968
  0
ARC
  5
386
100
AcDbEntity
  8
M0
 62
     6
100
AcDbCircle
 10
254.474871
 20
680.059971
 40
0.5
100
AcDbArc
 50
0.0
 51
90.0
  0
ARC
  5
387
100
AcDbEntity
  8
M0
 62
     6
100
AcDbCircle
 10
251.974871
 20
680.059971
 40
0.5
100
AcDbArc
 50
90.0
 51
180.0
  0
LINE
  5
388
100
AcDbEntity
  8
M0
 62
     6
100
AcDbLine
 10
266.224349
 20
632.209842
 11
263.224609
 21
632.20984
  0
LINE
  5
389
100
AcDbEntity
  8
M0
 62
     6
100
AcDbLine
 10
267.224345
 20
639.559893
 11
265.724345
 21
639.559893
  0
LINE
  5
38A
100
AcDbEntity
  8
M0
 62
     6
100
AcDbLine
 10
265.724343
 20
642.55974
 11
265.724345
 21
639.559893
  0
LINE
  5
38B
100
AcDbEntity
  8
M0
 62
     6
100
AcDbLine
 10
267.224344
 20
640.259692
 11
265.724344
 21
640.259692
  0
ARC
  5
38C
100
AcDbEntity
  8
M0
 62
     6
100
AcDbCircle
 10
264.724343
 20
642.55974
 40
1.0
100
AcDbArc
 50
0.0
 51
90.0
  0
LINE
  5
38D
100
AcDbEntity
  8
M0
 62
     6
100
AcDbLine
 10
263.224602
 20
643.559723
 11
264.724342
 21
643.55974
  0
LINE
  5
38E
100
AcDbEntity
  8
M0
 62
     6
100
AcDbLine
 10
271.524385
 20
637.859702
 11
267.224346
 21
637.859699
  0
ARC
  5
38F
100
AcDbEntity
  8
M0
 62
     6
100
AcDbCircle
 10
271.524385
 20
634.859702
 40
3.0
100
AcDbArc
 50
0.0
 51
90.0
  0
LINE
  5
390
100
AcDbEntity
  8
M0
 62
     6
100
AcDbLine
 10
267.224344
 20
640.259692
 11
267.224346
 21
637.859699
  0
LINE
  5
391
100
AcDbEntity
  8
M0
 62
     6
100
AcDbLine
 10
263.223739
 20
660.059483
 11
294.724321
 21
660.059742
  0
LINE
  5
392
100
AcDbEntity
  8
M0
 62
     6
100
AcDbLine
 10
219.224916
 20
623.810415
 11
222.424867
 21
623.810415
  0
LINE
  5
393
100
AcDbEntity
  8
M0
 62
     6
100
AcDbLine
 10
307.224886
 20
623.810659
 11
304.02469
 21
623.810659
  0
LINE
  5
394
100
AcDbEntity
  8
M0
 62
     6
100
AcDbLine
 10
219.724916
 20
609.560429
 11
222.724916
 21
609.560429
  0
LINE
  5
395
100
AcDbEntity
  8
M0
 62
     6
100
AcDbLine
 10
222.424867
 20
623.810415
 11
223.224916
 21
622.860464
  0
ARC
  5
396
100
AcDbEntity
  8
M0
 62
     6
100
AcDbCircle
 10
219.724916
 20
610.060429
 40
0.5
100
AcDbArc
 50
179.998251
 51
270.0
  0
LINE
  5
397
100
AcDbEntity
  8
M0
 62
     6
100
AcDbLine
 10
230.424867
 20
612.060415
 11
230.424867
 21
613.060415
  0
LINE
  5
398
100
AcDbEntity
  8
M0
 62
     6
100
AcDbLine
 10
224.024721
 20
612.060415
 11
224.024721
 21
613.060415
  0
LINE
  5
399
100
AcDbEntity
  8
M0
 62
     6
100
AcDbLine
 10
223.724916
 20
610.060673
 11
223.724916
 21
611.560429
  0
LINE
  5
39A
100
AcDbEntity
  8
M0
 62
     6
100
AcDbLine
 10
230.724916
 20
610.060429
 11
230.724916
 21
611.560429
  0
ARC
  5
39B
100
AcDbEntity
  8
M0
 62
     6
100
AcDbCircle
 10
223.524721
 20
612.060415
 40
0.5
100
AcDbArc
 50
-90.0
 51
0.0
  0
ARC
  5
39C
100
AcDbEntity
  8
M0
 62
     6
100
AcDbCircle
 10
222.724916
 20
610.060429
 40
0.5
100
AcDbArc
 50
-90.0
 51
0.0
  0
LINE
  5
39D
100
AcDbEntity
  8
M0
 62
     6
100
AcDbLine
 10
223.224916
 20
613.060415
 11
224.285707
 21
613.060415
  0
LINE
  5
39E
100
AcDbEntity
  8
M0
 62
     6
100
AcDbLine
 10
224.966615
 20
621.860464
 11
229.482973
 21
621.860464
  0
LINE
  5
39F
100
AcDbEntity
  8
M0
 62
     6
100
AcDbLine
 10
224.009584
 20
621.150503
 11
223.224916
 21
618.560415
  0
LINE
  5
3A0
100
AcDbEntity
  8
M0
 62
     6
100
AcDbLine
 10
230.440004
 20
621.150503
 11
231.224916
 21
618.560415
  0
ARC
  5
3A1
100
AcDbEntity
  8
M0
 62
     6
100
AcDbCircle
 10
224.966615
 20
620.860464
 40
1.0
100
AcDbArc
 50
89.999126
 51
163.138687
  0
ARC
  5
3A2
100
AcDbEntity
  8
M0
 62
     6
100
AcDbCircle
 10
229.482973
 20
620.860464
 40
1.0
100
AcDbArc
 50
16.859237
 51
89.999126
  0
LINE
  5
3A3
100
AcDbEntity
  8
M0
 62
     6
100
AcDbLine
 10
223.224916
 20
611.560429
 11
223.524721
 21
611.560429
  0
LINE
  5
3A4
100
AcDbEntity
  8
M0
 62
     6
100
AcDbLine
 10
230.924867
 20
611.560429
 11
231.224916
 21
611.560429
  0
ARC
  5
3A5
100
AcDbEntity
  8
M0
 62
     6
100
AcDbCircle
 10
230.924867
 20
612.060415
 40
0.5
100
AcDbArc
 50
179.999891
 51
270.0
  0
LINE
  5
3A6
100
AcDbEntity
  8
M0
 62
     6
100
AcDbLine
 10
306.724886
 20
609.560673
 11
303.724886
 21
609.560673
  0
LINE
  5
3A7
100
AcDbEntity
  8
M0
 62
     6
100
AcDbLine
 10
304.02469
 20
623.810659
 11
303.224886
 21
622.860708
  0
ARC
  5
3A8
100
AcDbEntity
  8
M0
 62
     6
100
AcDbCircle
 10
306.724886
 20
610.060673
 40
0.5
100
AcDbArc
 50
269.998251
 51
360.0
  0
LINE
  5
3A9
100
AcDbEntity
  8
M0
 62
     6
100
AcDbLine
 10
296.02469
 20
612.060659
 11
296.02469
 21
613.060659
  0
LINE
  5
3AA
100
AcDbEntity
  8
M0
 62
     6
100
AcDbLine
 10
302.424837
 20
612.060659
 11
302.424837
 21
613.060659
  0
LINE
  5
3AB
100
AcDbEntity
  8
M0
 62
     6
100
AcDbLine
 10
302.724886
 20
610.060917
 11
302.724886
 21
611.560673
  0
LINE
  5
3AC
100
AcDbEntity
  8
M0
 62
     6
100
AcDbLine
 10
295.724886
 20
610.060673
 11
295.724886
 21
611.560673
  0
ARC
  5
3AD
100
AcDbEntity
  8
M0
 62
     6
100
AcDbCircle
 10
302.924837
 20
612.060659
 40
0.5
100
AcDbArc
 50
179.999891
 51
269.998251
  0
ARC
  5
3AE
100
AcDbEntity
  8
M0
 62
     6
100
AcDbCircle
 10
303.724886
 20
610.060673
 40
0.5
100
AcDbArc
 50
179.998251
 51
269.998251
  0
LINE
  5
3AF
100
AcDbEntity
  8
M0
 62
     6
100
AcDbLine
 10
303.224886
 20
613.060659
 11
302.167024
 21
613.060644
  0
LINE
  5
3B0
100
AcDbEntity
  8
M0
 62
     6
100
AcDbLine
 10
301.482942
 20
621.860708
 11
296.966585
 21
621.860708
  0
LINE
  5
3B1
100
AcDbEntity
  8
M0
 62
     6
100
AcDbLine
 10
303.224886
 20
611.560673
 11
302.924837
 21
611.560673
  0
LINE
  5
3B2
100
AcDbEntity
  8
M0
 62
     6
100
AcDbLine
 10
295.52469
 20
611.560673
 11
295.224886
 21
611.560673
  0
ARC
  5
3B3
100
AcDbEntity
  8
M0
 62
     6
100
AcDbCircle
 10
295.52469
 20
612.060659
 40
0.5
100
AcDbArc
 50
269.998251
 51
360.0
  0
LINE
  5
3B4
100
AcDbEntity
  8
M0
 62
     6
100
AcDbLine
 10
230.163881
 20
613.060415
 11
231.224916
 21
613.060415
  0
LINE
  5
3B5
100
AcDbEntity
  8
M0
 62
     6
100
AcDbLine
 10
296.282015
 20
613.060644
 11
295.224886
 21
613.060659
  0
LINE
  5
3B6
100
AcDbEntity
  8
M0
 62
     6
100
AcDbLine
 10
224.024721
 20
612.560415
 11
230.424867
 21
612.560415
  0
LINE
  5
3B7
100
AcDbEntity
  8
M0
 62
     6
100
AcDbLine
 10
296.02469
 20
612.560644
 11
302.424837
 21
612.560644
  0
LINE
  5
3B8
100
AcDbEntity
  8
M0
 62
     6
100
AcDbLine
 10
302.224886
 20
621.860174
 11
295.724886
 21
621.860158
  0
LINE
  5
3B9
100
AcDbEntity
  8
M0
 62
     6
100
AcDbLine
 10
230.724916
 20
621.860128
 11
224.224916
 21
621.860128
  0
ARC
  5
3BA
100
AcDbEntity
  8
M0
 62
     6
100
AcDbCircle
 10
295.724886
 20
621.360158
 40
0.5
100
AcDbArc
 50
90.0
 51
179.999891
  0
ARC
  5
3BB
100
AcDbEntity
  8
M0
 62
     6
100
AcDbCircle
 10
302.224886
 20
622.360158
 40
0.5
100
AcDbArc
 50
269.998251
 51
360.0
  0
ARC
  5
3BC
100
AcDbEntity
  8
M0
 62
     6
100
AcDbCircle
 10
224.224916
 20
622.360128
 40
0.5
100
AcDbArc
 50
179.999891
 51
270.0
  0
ARC
  5
3BD
100
AcDbEntity
  8
M0
 62
     6
100
AcDbCircle
 10
230.724916
 20
621.360128
 40
0.5
100
AcDbArc
 50
0.0
 51
89.998251
  0
LINE
  5
3BE
100
AcDbEntity
  8
M0
 62
     6
100
AcDbLine
 10
254.924853
 20
621.560171
 11
255.224901
 21
621.560171
  0
LINE
  5
3BF
100
AcDbEntity
  8
M0
 62
     6
100
AcDbLine
 10
255.224901
 20
621.560171
 11
255.224901
 21
617.560171
  0
ARC
  5
3C0
100
AcDbEntity
  8
M0
 62
     6
100
AcDbCircle
 10
254.924853
 20
624.560168
 40
3.0
100
AcDbArc
 50
179.999964
 51
270.0
  0
LINE
  5
3C1
100
AcDbEntity
  8
M0
 62
     6
100
AcDbLine
 10
224.743959
 20
612.760488
 11
229.705629
 21
612.760488
  0
ARC
  5
3C2
100
AcDbEntity
  8
M0
 62
     6
100
AcDbCircle
 10
224.743959
 20
613.260488
 40
0.5
100
AcDbArc
 50
197.128818
 51
270.0
  0
ARC
  5
3C3
100
AcDbEntity
  8
M0
 62
     6
100
AcDbCircle
 10
229.705629
 20
613.260488
 40
0.5
100
AcDbArc
 50
270.0
 51
342.86179
  0
CIRCLE
  5
3C4
100
AcDbEntity
  8
M0
 62
     6
100
AcDbCircle
 10
299.224886
 20
617.060674
 40
3.0
  0
LINE
  5
3C5
100
AcDbEntity
  8
M0
 62
     6
100
AcDbLine
 10
296.743929
 20
612.760747
 11
301.705599
 21
612.760747
  0
ARC
  5
3C6
100
AcDbEntity
  8
M0
 62
     6
100
AcDbCircle
 10
296.743929
 20
613.260747
 40
0.5
100
AcDbArc
 50
197.126736
 51
269.998251
  0
ARC
  5
3C7
100
AcDbEntity
  8
M0
 62
     6
100
AcDbCircle
 10
301.705599
 20
613.260747
 40
0.5
100
AcDbArc
 50
269.998251
 51
342.859813
  0
LINE
  5
3C8
100
AcDbEntity
  8
M0
 62
     6
100
AcDbLine
 10
295.274446
 20
582.345402
 11
302.924104
 21
587.604435
  0
LINE
  5
3C9
100
AcDbEntity
  8
M0
 62
     6
100
AcDbLine
 10
219.724916
 20
598.060429
 11
221.224916
 21
598.060429
  0
LINE
  5
3CA
100
AcDbEntity
  8
M0
 62
     6
100
AcDbLine
 10
219.224916
 20
601.060429
 11
231.224916
 21
601.060429
  0
LINE
  5
3CB
100
AcDbEntity
  8
M0
 62
     6
100
AcDbLine
 10
223.224916
 20
602.060429
 11
231.224916
 21
602.060429
  0
LINE
  5
3CC
100
AcDbEntity
  8
M0
 62
     6
100
AcDbLine
 10
223.224916
 20
603.560429
 11
224.282289
 21
603.560429
  0
LINE
  5
3CD
100
AcDbEntity
  8
M0
 62
     6
100
AcDbLine
 10
221.724916
 20
598.560429
 11
221.724916
 21
601.060429
  0
ARC
  5
3CE
100
AcDbEntity
  8
M0
 62
     6
100
AcDbCircle
 10
221.224916
 20
598.560429
 40
0.5
100
AcDbArc
 50
-90.0
 51
0.0
  0
ARC
  5
3CF
100
AcDbEntity
  8
M0
 62
     6
100
AcDbCircle
 10
219.724916
 20
598.560429
 40
0.5
100
AcDbArc
 50
179.998251
 51
270.0
  0
LINE
  5
3D0
100
AcDbEntity
  8
M0
 62
     6
100
AcDbLine
 10
219.224916
 20
601.060429
 11
223.224916
 21
601.060429
  0
ARC
  5
3D1
100
AcDbEntity
  8
M0
 62
     6
100
AcDbCircle
 10
222.724916
 20
601.560429
 40
0.5
100
AcDbArc
 50
-90.0
 51
0.0
  0
LINE
  5
3D2
100
AcDbEntity
  8
M0
 62
     6
100
AcDbLine
 10
306.724886
 20
598.060673
 11
305.224886
 21
598.060673
  0
LINE
  5
3D3
100
AcDbEntity
  8
M0
 62
     6
100
AcDbLine
 10
303.724886
 20
601.060658
 11
295.224886
 21
601.060673
  0
LINE
  5
3D4
100
AcDbEntity
  8
M0
 62
     6
100
AcDbLine
 10
303.224886
 20
602.060673
 11
295.224886
 21
602.060673
  0
LINE
  5
3D5
100
AcDbEntity
  8
M0
 62
     6
100
AcDbLine
 10
304.724886
 20
598.560673
 11
304.724886
 21
601.060673
  0
ARC
  5
3D6
100
AcDbEntity
  8
M0
 62
     6
100
AcDbCircle
 10
305.224886
 20
598.560673
 40
0.5
100
AcDbArc
 50
179.998251
 51
269.998251
  0
ARC
  5
3D7
100
AcDbEntity
  8
M0
 62
     6
100
AcDbCircle
 10
306.724886
 20
598.560673
 40
0.5
100
AcDbArc
 50
269.998251
 51
360.0
  0
LINE
  5
3D8
100
AcDbEntity
  8
M0
 62
     6
100
AcDbLine
 10
307.224886
 20
601.060673
 11
303.224886
 21
601.060673
  0
ARC
  5
3D9
100
AcDbEntity
  8
M0
 62
     6
100
AcDbCircle
 10
303.724886
 20
601.560673
 40
0.5
100
AcDbArc
 50
179.998251
 51
269.998251
  0
LINE
  5
3DA
100
AcDbEntity
  8
M0
 62
     6
100
AcDbLine
 10
230.167299
 20
603.560429
 11
231.224916
 21
603.560429
  0
ARC
  5
3DB
100
AcDbEntity
  8
M0
 62
     6
100
AcDbCircle
 10
255.724901
 20
594.060231
 40
0.5
100
AcDbArc
 50
179.998251
 51
270.0
  0
LINE
  5
3DC
100
AcDbEntity
  8
M0
 62
     6
100
AcDbLine
 10
257.724901
 20
593.560215
 11
255.724901
 21
593.560215
  0
LINE
  5
3DD
100
AcDbEntity
  8
M0
 62
     6
100
AcDbLine
 10
231.724916
 20
595.0602
 11
263.225496
 21
595.0602
  0
ARC
  5
3DE
100
AcDbEntity
  8
M0
 62
     6
100
AcDbCircle
 10
231.724916
 20
595.5602
 40
0.5
100
AcDbArc
 50
179.998251
 51
270.0
  0
ARC
  5
3DF
100
AcDbEntity
  8
M0
 62
     6
100
AcDbCircle
 10
294.724886
 20
595.5602
 40
0.5
100
AcDbArc
 50
269.998251
 51
360.0
  0
LINE
  5
3E0
100
AcDbEntity
  8
M0
 62
     6
100
AcDbLine
 10
255.224901
 20
594.060231
 11
255.224901
 21
595.060215
  0
ARC
  5
3E1
100
AcDbEntity
  8
M0
 62
     6
100
AcDbCircle
 10
257.724901
 20
594.060231
 40
0.5
100
AcDbArc
 50
-90.0
 51
0.0
  0
LINE
  5
3E2
100
AcDbEntity
  8
M0
 62
     6
100
AcDbLine
 10
258.224901
 20
594.060231
 11
258.224901
 21
595.060215
  0
LINE
  5
3E3
100
AcDbEntity
  8
M0
 62
     6
100
AcDbLine
 10
224.743959
 20
603.260502
 11
229.705629
 21
603.260502
  0
LINE
  5
3E4
100
AcDbEntity
  8
M0
 62
     6
100
AcDbLine
 10
225.82477
 20
604.460454
 11
225.82477
 21
604.907109
  0
ARC
  5
3E5
100
AcDbEntity
  8
M0
 62
     6
100
AcDbCircle
 10
224.743959
 20
603.760502
 40
0.5
100
AcDbArc
 50
197.127669
 51
270.0
  0
ARC
  5
3E6
100
AcDbEntity
  8
M0
 62
     6
100
AcDbCircle
 10
229.705629
 20
603.760502
 40
0.5
100
AcDbArc
 50
270.0
 51
342.86179
  0
LINE
  5
3E7
100
AcDbEntity
  8
M0
 62
     6
100
AcDbLine
 10
304.224642
 20
600.06046
 11
304.224642
 21
590.076741
  0
ARC
  5
3E8
100
AcDbEntity
  8
M0
 62
     6
100
AcDbCircle
 10
301.224642
 20
590.076741
 40
3.0
100
AcDbArc
 50
304.507247
 51
360.0
  0
ARC
  5
3E9
100
AcDbEntity
  8
M0
 62
     6
100
AcDbCircle
 10
296.224642
 20
588.560627
 40
2.249998
100
AcDbArc
 50
245.019069
 51
474.979547
  0
LINE
  5
3EA
100
AcDbEntity
  8
M0
 62
     6
100
AcDbLine
 10
307.224642
 20
601.06046
 11
295.224642
 21
601.06046
  0
LINE
  5
3EB
100
AcDbEntity
  8
M0
 62
     6
100
AcDbLine
 10
304.724642
 20
600.060444
 11
304.224642
 21
600.06046
  0
ARC
  5
3EC
100
AcDbEntity
  8
M0
 62
     6
100
AcDbCircle
 10
219.724428
 20
590.06046
 40
0.5
100
AcDbArc
 50
179.998251
 51
270.0
  0
LINE
  5
3ED
100
AcDbEntity
  8
M0
 62
     6
100
AcDbLine
 10
223.224672
 20
589.56046
 11
223.224672
 21
601.060429
  0
LINE
  5
3EE
100
AcDbEntity
  8
M0
 62
     6
100
AcDbLine
 10
219.724428
 20
589.56046
 11
223.224672
 21
589.56046
  0
LINE
  5
3EF
100
AcDbEntity
  8
M0
 62
     6
100
AcDbLine
 10
223.224672
 20
600.56046
 11
231.224916
 21
600.56046
  0
LINE
  5
3F0
100
AcDbEntity
  8
M0
 62
     6
100
AcDbLine
 10
223.224672
 20
591.06046
 11
231.224916
 21
591.06046
  0
CIRCLE
  5
3F1
100
AcDbEntity
  8
M0
 62
     6
100
AcDbCircle
 10
227.224672
 20
595.560444
 40
3.0
  0
LINE
  5
3F2
100
AcDbEntity
  8
M0
 62
     6
100
AcDbLine
 10
223.224916
 20
608.560429
 11
223.724916
 21
610.060429
  0
LINE
  5
3F3
100
AcDbEntity
  8
M0
 62
     6
100
AcDbLine
 10
231.224916
 20
608.560429
 11
230.724916
 21
610.060429
  0
LINE
  5
3F4
100
AcDbEntity
  8
M0
 62
     6
100
AcDbLine
 10
303.224886
 20
608.560673
 11
302.724886
 21
610.060673
  0
LINE
  5
3F5
100
AcDbEntity
  8
M0
 62
     6
100
AcDbLine
 10
295.224886
 20
608.560673
 11
295.724886
 21
610.060673
  0
LINE
  5
3F6
100
AcDbEntity
  8
M0
 62
     6
100
AcDbLine
 10
295.224886
 20
595.560185
 11
295.224886
 21
621.360158
  0
LINE
  5
3F7
100
AcDbEntity
  8
M0
 62
     6
100
AcDbLine
 10
231.224916
 20
621.360128
 11
231.224916
 21
595.5602
  0
CIRCLE
  5
3F8
100
AcDbEntity
  8
M0
 62
     6
100
AcDbCircle
 10
227.224916
 20
607.560429
 40
3.0
  0
CIRCLE
  5
3F9
100
AcDbEntity
  8
M0
 62
     6
100
AcDbCircle
 10
299.224886
 20
607.560704
 40
3.0
  0
ARC
  5
3FA
100
AcDbEntity
  8
M0
 62
     6
100
AcDbCircle
 10
231.724916
 20
580.061146
 40
0.5
100
AcDbArc
 50
179.998251
 51
270.0
  0
ARC
  5
3FB
100
AcDbEntity
  8
M0
 62
     6
100
AcDbCircle
 10
234.474916
 20
580.061146
 40
0.5
100
AcDbArc
 50
270.0
 51
360.0
  0
ARC
  5
3FC
100
AcDbEntity
  8
M0
 62
     6
100
AcDbCircle
 10
294.724886
 20
580.061406
 40
0.5
100
AcDbArc
 50
269.998251
 51
360.0
  0
LINE
  5
3FD
100
AcDbEntity
  8
M0
 62
     6
100
AcDbLine
 10
251.474902
 20
579.5611
 11
231.724916
 21
579.561146
  0
LINE
  5
3FE
100
AcDbEntity
  8
M0
 62
     6
100
AcDbLine
 10
234.974916
 20
580.061131
 11
234.974916
 21
595.0602
  0
LINE
  5
3FF
100
AcDbEntity
  8
M0
 62
     6
100
AcDbLine
 10
231.224916
 20
621.360128
 11
231.224916
 21
580.061146
  0
LINE
  5
400
100
AcDbEntity
  8
M0
 62
     6
100
AcDbLine
 10
295.224886
 20
621.360158
 11
295.224886
 21
580.061406
  0
LINE
  5
401
100
AcDbEntity
  8
M0
 62
     6
100
AcDbLine
 10
254.974901
 20
579.561406
 11
263.224611
 21
579.561406
  0
LINE
  5
402
100
AcDbEntity
  8
M0
 62
     6
100
AcDbLine
 10
293.72455
 20
579.561406
 11
294.724886
 21
579.561406
  0
LINE
  5
403
100
AcDbEntity
  8
M0
 62
     6
100
AcDbLine
 10
219.224916
 20
631.310411
 11
222.424867
 21
631.310411
  0
LINE
  5
404
100
AcDbEntity
  8
M0
 62
     6
100
AcDbLine
 10
222.424867
 20
631.310411
 11
222.424867
 21
623.810415
  0
LINE
  5
405
100
AcDbEntity
  8
M0
 62
     6
100
AcDbLine
 10
222.424867
 20
631.310411
 11
223.224916
 21
632.260362
  0
LINE
  5
406
100
AcDbEntity
  8
M0
 62
     6
100
AcDbLine
 10
307.224886
 20
631.310167
 11
304.02469
 21
631.310167
  0
LINE
  5
407
100
AcDbEntity
  8
M0
 62
     6
100
AcDbLine
 10
304.02469
 20
631.310167
 11
304.02469
 21
623.810659
  0
LINE
  5
408
100
AcDbEntity
  8
M0
 62
     6
100
AcDbLine
 10
304.02469
 20
631.310167
 11
303.224886
 21
632.260118
  0
CIRCLE
  5
409
100
AcDbEntity
  8
M0
 62
     6
100
AcDbCircle
 10
229.224916
 20
627.560182
 40
3.249996
  0
CIRCLE
  5
40A
100
AcDbEntity
  8
M0
 62
     6
100
AcDbCircle
 10
297.224886
 20
627.560182
 40
3.249996
  0
LINE
  5
40B
100
AcDbEntity
  8
M0
 62
     6
100
AcDbLine
 10
251.924853
 20
634.859941
 11
251.924853
 21
624.560168
  0
CIRCLE
  5
40C
100
AcDbEntity
  8
M0
 62
     6
100
AcDbCircle
 10
297.224397
 20
627.560411
 40
2.749996
  0
CIRCLE
  5
40D
100
AcDbEntity
  8
M0
 62
     6
100
AcDbCircle
 10
297.224397
 20
627.560411
 40
3.0
  0
CIRCLE
  5
40E
100
AcDbEntity
  8
M0
 62
     6
100
AcDbCircle
 10
229.224672
 20
627.560411
 40
2.749996
  0
LINE
  5
40F
100
AcDbEntity
  8
M0
 62
     6
100
AcDbLine
 10
260.224901
 20
627.710084
 11
263.224611
 21
627.710084
  0
LINE
  5
410
100
AcDbEntity
  8
M0
 62
     6
100
AcDbLine
 10
260.224901
 20
632.210084
 11
260.224901
 21
627.710084
  0
ARC
  5
411
100
AcDbEntity
  8
M0
 62
     6
100
AcDbCircle
 10
298.724642
 20
595.060444
 40
2.299998
100
AcDbArc
 50
269.99962
 51
450.0
  0
ARC
  5
412
100
AcDbEntity
  8
M0
 62
     6
100
AcDbCircle
 10
297.224642
 20
595.060444
 40
2.299998
100
AcDbArc
 50
90.0
 51
150.39576
  0
ARC
  5
413
100
AcDbEntity
  8
M0
 62
     6
100
AcDbCircle
 10
297.224642
 20
595.060444
 40
2.299998
100
AcDbArc
 50
209.602873
 51
269.99962
  0
LINE
  5
414
100
AcDbEntity
  8
M0
 62
     6
100
AcDbLine
 10
266.224318
 20
632.210086
 11
266.22432
 21
627.710086
  0
LINE
  5
415
100
AcDbEntity
  8
M0
 62
     6
100
AcDbLine
 10
266.22432
 20
627.710086
 11
263.224611
 21
627.710084
  0
CIRCLE
  5
416
100
AcDbEntity
  8
M0
 62
     6
100
AcDbCircle
 10
229.224672
 20
627.560411
 40
3.0
  0
LINE
  5
417
100
AcDbEntity
  8
M0
 62
     6
100
AcDbLine
 10
302.724886
 20
622.360143
 11
302.724886
 21
632.760164
  0
LINE
  5
418
100
AcDbEntity
  8
M0
 62
     6
100
AcDbLine
 10
223.724916
 20
632.760179
 11
223.724916
 21
622.360128
  0
LINE
  5
419
100
AcDbEntity
  8
M0
 62
     6
100
AcDbLine
 10
219.224428
 20
655.060215
 11
219.224428
 21
590.06046
  0
LINE
  5
41A
100
AcDbEntity
  8
M0
 62
     6
100
AcDbLine
 10
307.224642
 20
600.060444
 11
307.224642
 21
665.059971
  0
LINE
  5
41B
100
AcDbEntity
  8
M0
 62
     6
100
AcDbLine
 10
223.224916
 20
653.560215
 11
223.224916
 21
601.560429
  0
LINE
  5
41C
100
AcDbEntity
  8
M0
 62
     6
100
AcDbLine
 10
303.224886
 20
653.559971
 11
303.224886
 21
601.560673
  0
LINE
  5
41D
100
AcDbEntity
  8
M0
 62
     6
100
AcDbLine
 10
219.224672
 20
656.559971
 11
219.224672
 21
598.560673
  0
LINE
  5
41E
100
AcDbEntity
  8
M0
 62
     6
100
AcDbLine
 10
307.224886
 20
656.559727
 11
307.224886
 21
598.560917
  0
LINE
  5
41F
100
AcDbEntity
  8
M0
 62
     6
100
AcDbLine
 10
297.224642
 20
597.360432
 11
298.724642
 21
597.360432
  0
LINE
  5
420
100
AcDbEntity
  8
M0
 62
     6
100
AcDbLine
 10
297.224642
 20
592.760441
 11
298.724642
 21
592.760441
  0
LINE
  5
421
100
AcDbEntity
  8
M0
 62
     6
100
AcDbLine
 10
293.72455
 20
595.0602
 11
294.724886
 21
595.0602
  0
LINE
  5
422
100
AcDbEntity
  8
M0
 62
     6
100
AcDbLine
 10
271.52437
 20
621.560186
 11
271.224321
 21
621.560186
  0
LINE
  5
423
100
AcDbEntity
  8
M0
 62
     6
100
AcDbLine
 10
271.224321
 20
621.560186
 11
271.224321
 21
617.560186
  0
ARC
  5
424
100
AcDbEntity
  8
M0
 62
     6
100
AcDbCircle
 10
271.52437
 20
624.560173
 40
3.0
100
AcDbArc
 50
-90.0
 51
0.0
  0
LINE
  5
425
100
AcDbEntity
  8
M0
 62
     6
100
AcDbLine
 10
274.524355
 20
634.859947
 11
274.52437
 21
624.560174
  0
LINE
  5
426
100
AcDbEntity
  8
M0
 62
     6
100
AcDbLine
 10
294.724336
 20
595.060215
 11
263.223744
 21
595.0602
  0
LINE
  5
427
100
AcDbEntity
  8
M0
 62
     6
100
AcDbLine
 10
251.974887
 20
574.560872
 11
254.474887
 21
574.560872
  0
ARC
  5
428
100
AcDbEntity
  8
M0
 62
     6
100
AcDbCircle
 10
251.974887
 20
575.060872
 40
0.5
100
AcDbArc
 50
179.998251
 51
270.0
  0
ARC
  5
429
100
AcDbEntity
  8
M0
 62
     6
100
AcDbCircle
 10
254.474887
 20
575.060872
 40
0.5
100
AcDbArc
 50
270.0
 51
360.0
  0
LINE
  5
42A
100
AcDbEntity
  8
M0
 62
     6
100
AcDbLine
 10
254.974887
 20
575.060856
 11
254.974887
 21
595.060643
  0
LINE
  5
42B
100
AcDbEntity
  8
M0
 62
     6
100
AcDbLine
 10
251.474887
 20
575.060872
 11
251.474887
 21
595.060643
  0
LINE
  5
42C
100
AcDbEntity
  8
M0
 62
     6
100
AcDbLine
 10
274.974336
 20
575.060887
 11
274.974336
 21
595.060658
  0
LINE
  5
42D
100
AcDbEntity
  8
M0
  6
DASHDOT
 62
     6
100
AcDbLine
 10
293.523592
 20
587.5611
 11
274.090509
 21
587.5611
  0
LINE
  5
42E
100
AcDbEntity
  8
M0
  6
DASHDOT
 62
     6
100
AcDbLine
 10
273.522792
 20
587.5611
 11
254.089701
 21
587.5611
  0
LINE
  5
42F
100
AcDbEntity
  8
M0
 62
     6
100
AcDbLine
 10
271.474626
 20
675.559971
 11
263.224123
 21
675.559727
  0
LINE
  5
430
100
AcDbEntity
  8
M0
 62
     6
100
AcDbLine
 10
271.474626
 20
680.060444
 11
271.474611
 21
660.060688
  0
LINE
  5
431
100
AcDbEntity
  8
M0
 62
     6
100
AcDbLine
 10
274.474626
 20
680.560688
 11
271.974626
 21
680.560688
  0
LINE
  5
432
100
AcDbEntity
  8
M0
 62
     6
100
AcDbLine
 10
274.974626
 20
675.559971
 11
293.72455
 21
675.55991
  0
LINE
  5
433
100
AcDbEntity
  8
M0
 62
     6
100
AcDbLine
 10
291.474626
 20
675.560688
 11
291.474626
 21
660.059956
  0
LINE
  5
434
100
AcDbEntity
  8
M0
 62
     6
100
AcDbLine
 10
274.974626
 20
680.060444
 11
274.974626
 21
660.059956
  0
ARC
  5
435
100
AcDbEntity
  8
M0
 62
     6
100
AcDbCircle
 10
290.474596
 20
660.060704
 40
1.0
100
AcDbArc
 50
-14.524582
 51
0.0
  0
ARC
  5
436
100
AcDbEntity
  8
M0
 62
     6
100
AcDbCircle
 10
275.974611
 20
660.060704
 40
1.0
100
AcDbArc
 50
180.0
 51
194.521755
  0
LINE
  5
437
100
AcDbEntity
  8
M0
 62
     6
100
AcDbLine
 10
271.474626
 20
680.060444
 11
271.474626
 21
660.059956
  0
ARC
  5
438
100
AcDbEntity
  8
M0
 62
     6
100
AcDbCircle
 10
270.474611
 20
660.060704
 40
1.0
100
AcDbArc
 50
-14.523516
 51
0.0
  0
LINE
  5
439
100
AcDbEntity
  8
M0
 62
     6
100
AcDbLine
 10
271.474626
 20
579.56194
 11
263.224123
 21
579.561451
  0
LINE
  5
43A
100
AcDbEntity
  8
M0
 62
     6
100
AcDbLine
 10
271.474626
 20
575.061192
 11
271.474611
 21
595.061207
  0
LINE
  5
43B
100
AcDbEntity
  8
M0
 62
     6
100
AcDbLine
 10
274.474626
 20
574.561207
 11
271.974626
 21
574.561192
  0
LINE
  5
43C
100
AcDbEntity
  8
M0
 62
     6
100
AcDbLine
 10
274.974626
 20
579.56194
 11
293.72455
 21
579.561879
  0
ARC
  5
43D
100
AcDbEntity
  8
M0
 62
     6
100
AcDbCircle
 10
290.474596
 20
595.061207
 40
1.0
100
AcDbArc
 50
0.0
 51
29.970542
  0
LINE
  5
43E
100
AcDbEntity
  8
M0
  6
DASHDOT
 62
     6
100
AcDbLine
 10
263.224598
 20
680.606801
 11
263.224611
 21
627.560704
  0
LINE
  5
43F
100
AcDbEntity
  8
M0
  6
DASHDOT
 62
     6
100
AcDbLine
 10
263.224611
 20
627.560948
 11
263.224123
 21
627.56046
  0
ARC
  5
440
100
AcDbEntity
  8
M0
 62
     6
100
AcDbCircle
 10
271.974626
 20
575.061192
 40
0.5
100
AcDbArc
 50
179.998251
 51
270.0
  0
ARC
  5
441
100
AcDbEntity
  8
M0
 62
     6
100
AcDbCircle
 10
274.474626
 20
575.061192
 40
0.5
100
AcDbArc
 50
270.0
 51
360.0
  0
LINE
  5
442
100
AcDbEntity
  8
M0
  6
DIVIDE
 62
     6
100
AcDbLine
 10
263.224123
 20
627.56046
 11
263.224611
 21
627.560948
  0
ARC
  5
443
100
AcDbEntity
  8
M0
 62
     6
100
AcDbCircle
 10
274.474626
 20
680.060444
 40
0.5
100
AcDbArc
 50
0.0
 51
90.0
  0
ARC
  5
444
100
AcDbEntity
  8
M0
 62
     6
100
AcDbCircle
 10
271.974626
 20
680.060444
 40
0.5
100
AcDbArc
 50
90.0
 51
180.0
  0
LINE
  5
445
100
AcDbEntity
  8
M0
  6
DASHDOT
 62
     6
100
AcDbLine
 10
263.224611
 20
627.560704
 11
263.224625
 21
574.100102
  0
LINE
  5
446
100
AcDbEntity
  8
M0
 62
     6
100
AcDbLine
 10
276.074723
 20
579.561207
 11
290.374757
 21
579.561207
  0
LINE
  5
447
100
AcDbEntity
  8
M0
 62
     6
100
AcDbLine
 10
291.374757
 20
580.561207
 11
291.374757
 21
595.061207
  0
LINE
  5
448
100
AcDbEntity
  8
M0
 62
     6
100
AcDbLine
 10
275.074723
 20
595.061207
 11
275.074723
 21
580.561207
  0
ARC
  5
449
100
AcDbEntity
  8
M0
 62
     6
100
AcDbCircle
 10
290.374757
 20
580.561207
 40
1.0
100
AcDbArc
 50
269.999126
 51
360.0
  0
ARC
  5
44A
100
AcDbEntity
  8
M0
 62
     6
100
AcDbCircle
 10
276.074723
 20
580.561207
 40
1.0
100
AcDbArc
 50
179.999126
 51
270.0
  0
LINE
  5
44B
100
AcDbEntity
  8
M0
 62
     6
100
AcDbLine
 10
236.074709
 20
579.560475
 11
250.374743
 21
579.560475
  0
LINE
  5
44C
100
AcDbEntity
  8
M0
 62
     6
100
AcDbLine
 10
251.374743
 20
580.560475
 11
251.374743
 21
595.060475
  0
LINE
  5
44D
100
AcDbEntity
  8
M0
 62
     6
100
AcDbLine
 10
235.074709
 20
595.060475
 11
235.074709
 21
580.560475
  0
ARC
  5
44E
100
AcDbEntity
  8
M0
 62
     6
100
AcDbCircle
 10
250.374743
 20
580.560475
 40
1.0
100
AcDbArc
 50
270.0
 51
360.0
  0
ARC
  5
44F
100
AcDbEntity
  8
M0
 62
     6
100
AcDbCircle
 10
236.074709
 20
580.560475
 40
1.0
100
AcDbArc
 50
179.999126
 51
270.0
  0
LINE
  5
450
100
AcDbEntity
  8
M0
 62
     6
100
AcDbLine
 10
290.374544
 20
675.560444
 11
276.074523
 21
675.560444
  0
LINE
  5
451
100
AcDbEntity
  8
M0
 62
     6
100
AcDbLine
 10
275.074522
 20
674.560444
 11
275.074513
 21
660.060444
  0
LINE
  5
452
100
AcDbEntity
  8
M0
 62
     6
100
AcDbLine
 10
291.374544
 20
660.060444
 11
291.374544
 21
674.560444
  0
ARC
  5
453
100
AcDbEntity
  8
M0
 62
     6
100
AcDbCircle
 10
276.074522
 20
674.560444
 40
1.0
100
AcDbArc
 50
90.0
 51
180.0
  0
ARC
  5
454
100
AcDbEntity
  8
M0
 62
     6
100
AcDbCircle
 10
276.074513
 20
660.060444
 40
1.0
100
AcDbArc
 50
180.0
 51
194.507309
  0
ARC
  5
455
100
AcDbEntity
  8
M0
 62
     6
100
AcDbCircle
 10
290.374544
 20
660.060444
 40
1.0
100
AcDbArc
 50
345.490902
 51
360.0
  0
ARC
  5
456
100
AcDbEntity
  8
M0
 62
     6
100
AcDbCircle
 10
290.374544
 20
674.560444
 40
1.0
100
AcDbArc
 50
0.0
 51
90.0
  0
LINE
  5
457
100
AcDbEntity
  8
M0
 62
     6
100
AcDbLine
 10
250.375443
 20
675.559956
 11
236.075411
 21
675.559956
  0
LINE
  5
458
100
AcDbEntity
  8
M0
 62
     6
100
AcDbLine
 10
235.075411
 20
674.559956
 11
235.075411
 21
660.059956
  0
LINE
  5
459
100
AcDbEntity
  8
M0
 62
     6
100
AcDbLine
 10
251.375434
 20
660.059956
 11
251.375442
 21
674.559956
  0
ARC
  5
45A
100
AcDbEntity
  8
M0
 62
     6
100
AcDbCircle
 10
236.075411
 20
674.559956
 40
1.0
100
AcDbArc
 50
89.999126
 51
180.0
  0
ARC
  5
45B
100
AcDbEntity
  8
M0
 62
     6
100
AcDbCircle
 10
250.375442
 20
674.559956
 40
1.0
100
AcDbArc
 50
0.0
 51
90.0
  0
LINE
  5
45C
100
AcDbEntity
  8
M0
 62
     6
100
AcDbLine
 10
240.396471
 20
590.389256
 11
246.053316
 21
584.732411
  0
LINE
  5
45D
100
AcDbEntity
  8
M0
 62
     6
100
AcDbLine
 10
242.517793
 20
585.439503
 11
245.346208
 21
588.267933
  0
LINE
  5
45E
100
AcDbEntity
  8
M0
 62
     6
100
AcDbLine
 10
241.103578
 20
586.853718
 11
243.931993
 21
589.682148
  0
LINE
  5
45F
100
AcDbEntity
  8
M0
  6
DASHDOT
 62
     6
100
AcDbLine
 10
243.224886
 20
597.565281
 11
243.224886
 21
576.350621
  0
CIRCLE
  5
460
100
AcDbEntity
  8
M0
 62
     6
100
AcDbCircle
 10
243.224886
 20
587.560826
 40
5.949995
  0
LINE
  5
461
100
AcDbEntity
  8
M0
 62
     6
100
AcDbLine
 10
242.47513
 20
593.463414
 11
242.47513
 21
595.061314
  0
LINE
  5
462
100
AcDbEntity
  8
M0
 62
     6
100
AcDbLine
 10
243.974886
 20
593.463414
 11
243.974886
 21
595.061314
  0
LINE
  5
463
100
AcDbEntity
  8
M0
 62
     6
100
AcDbLine
 10
248.224871
 20
595.061314
 11
250.975115
 21
592.310826
  0
LINE
  5
464
100
AcDbEntity
  8
M0
 62
     6
100
AcDbLine
 10
235.47513
 20
592.310826
 11
238.225374
 21
595.061314
  0
ARC
  5
465
100
AcDbEntity
  8
M0
 62
     6
100
AcDbCircle
 10
249.974871
 20
594.310826
 40
1.0
100
AcDbArc
 50
0.0
 51
48.611508
  0
ARC
  5
466
100
AcDbEntity
  8
M0
 62
     6
100
AcDbCircle
 10
236.47513
 20
594.310826
 40
1.0
100
AcDbArc
 50
131.375579
 51
179.999126
  0
LINE
  5
467
100
AcDbEntity
  8
M0
 62
     6
100
AcDbLine
 10
250.974871
 20
594.310826
 11
250.974871
 21
580.810826
  0
LINE
  5
468
100
AcDbEntity
  8
M0
 62
     6
100
AcDbLine
 10
235.47513
 20
580.810826
 11
235.47513
 21
594.310826
  0
LINE
  5
469
100
AcDbEntity
  8
M0
 62
     6
100
AcDbLine
 10
237.322542
 20
588.310826
 11
235.47513
 21
588.310826
  0
LINE
  5
46A
100
AcDbEntity
  8
M0
 62
     6
100
AcDbLine
 10
237.322542
 20
586.810826
 11
235.47513
 21
586.810826
  0
LINE
  5
46B
100
AcDbEntity
  8
M0
 62
     6
100
AcDbLine
 10
250.974871
 20
586.810826
 11
249.127459
 21
586.810826
  0
LINE
  5
46C
100
AcDbEntity
  8
M0
 62
     6
100
AcDbLine
 10
250.974871
 20
588.310826
 11
249.127459
 21
588.310826
  0
LINE
  5
46D
100
AcDbEntity
  8
M0
 62
     6
100
AcDbLine
 10
242.47513
 20
579.810826
 11
242.47513
 21
581.658482
  0
LINE
  5
46E
100
AcDbEntity
  8
M0
 62
     6
100
AcDbLine
 10
243.974886
 20
579.810826
 11
243.974886
 21
581.658482
  0
LINE
  5
46F
100
AcDbEntity
  8
M0
 62
     6
100
AcDbLine
 10
250.974871
 20
582.810826
 11
247.974871
 21
579.810826
  0
LINE
  5
470
100
AcDbEntity
  8
M0
 62
     6
100
AcDbLine
 10
238.47513
 20
579.810826
 11
235.47513
 21
582.810826
  0
ARC
  5
471
100
AcDbEntity
  8
M0
 62
     6
100
AcDbCircle
 10
249.974871
 20
580.810826
 40
1.0
100
AcDbArc
 50
-90.0
 51
0.0
  0
ARC
  5
472
100
AcDbEntity
  8
M0
 62
     6
100
AcDbCircle
 10
236.47513
 20
580.810826
 40
1.0
100
AcDbArc
 50
179.999126
 51
270.0
  0
LINE
  5
473
100
AcDbEntity
  8
M0
 62
     6
100
AcDbLine
 10
249.974871
 20
579.810826
 11
236.47513
 21
579.810826
  0
LINE
  5
474
100
AcDbEntity
  8
M0
  6
DASHDOT
 62
     6
100
AcDbLine
 10
253.522967
 20
587.560826
 11
234.089876
 21
587.560826
  0
LINE
  5
475
100
AcDbEntity
  8
M0
  6
DASHDOT
 62
     6
100
AcDbLine
 10
283.22487
 20
597.565159
 11
283.22487
 21
576.35056
  0
LINE
  5
476
100
AcDbEntity
  8
M0
 62
     6
100
AcDbLine
 10
281.103304
 20
586.853993
 11
283.931719
 21
589.682423
  0
LINE
  5
477
100
AcDbEntity
  8
M0
 62
     6
100
AcDbLine
 10
282.517519
 20
585.439778
 11
285.345934
 21
588.268208
  0
LINE
  5
478
100
AcDbEntity
  8
M0
 62
     6
100
AcDbLine
 10
280.396196
 20
590.389531
 11
286.053041
 21
584.732686
  0
LINE
  5
479
100
AcDbEntity
  8
M0
 62
     6
100
AcDbLine
 10
288.225771
 20
595.060429
 11
290.974855
 21
592.3111
  0
LINE
  5
47A
100
AcDbEntity
  8
M0
 62
     6
100
AcDbLine
 10
275.474869
 20
592.3111
 11
278.223955
 21
595.060429
  0
LINE
  5
47B
100
AcDbEntity
  8
M0
 62
     6
100
AcDbLine
 10
282.474855
 20
593.463688
 11
282.474855
 21
595.060429
  0
LINE
  5
47C
100
AcDbEntity
  8
M0
 62
     6
100
AcDbLine
 10
283.974611
 20
593.463688
 11
283.974611
 21
595.060429
  0
ARC
  5
47D
100
AcDbEntity
  8
M0
 62
     6
100
AcDbCircle
 10
289.974611
 20
594.3111
 40
1.0
100
AcDbArc
 50
0.0
 51
48.53461
  0
ARC
  5
47E
100
AcDbEntity
  8
M0
 62
     6
100
AcDbCircle
 10
276.474869
 20
594.3111
 40
1.0
100
AcDbArc
 50
131.545662
 51
179.999126
  0
LINE
  5
47F
100
AcDbEntity
  8
M0
  6
DASHDOT
 62
     6
100
AcDbLine
 10
293.522707
 20
587.5611
 11
274.089616
 21
587.5611
  0
LINE
  5
480
100
AcDbEntity
  8
M0
 62
     6
100
AcDbLine
 10
289.974611
 20
579.8111
 11
276.474869
 21
579.8111
  0
ARC
  5
481
100
AcDbEntity
  8
M0
 62
     6
100
AcDbCircle
 10
276.474869
 20
580.8111
 40
1.0
100
AcDbArc
 50
179.999126
 51
270.0
  0
ARC
  5
482
100
AcDbEntity
  8
M0
 62
     6
100
AcDbCircle
 10
289.974611
 20
580.8111
 40
1.0
100
AcDbArc
 50
-90.000874
 51
0.0
  0
LINE
  5
483
100
AcDbEntity
  8
M0
 62
     6
100
AcDbLine
 10
278.474869
 20
579.8111
 11
275.474869
 21
582.8111
  0
LINE
  5
484
100
AcDbEntity
  8
M0
 62
     6
100
AcDbLine
 10
290.974611
 20
582.8111
 11
287.974611
 21
579.8111
  0
LINE
  5
485
100
AcDbEntity
  8
M0
 62
     6
100
AcDbLine
 10
283.974611
 20
579.8111
 11
283.974611
 21
581.658757
  0
LINE
  5
486
100
AcDbEntity
  8
M0
 62
     6
100
AcDbLine
 10
282.474855
 20
579.8111
 11
282.474855
 21
581.658757
  0
LINE
  5
487
100
AcDbEntity
  8
M0
 62
     6
100
AcDbLine
 10
290.974611
 20
588.3111
 11
289.127199
 21
588.3111
  0
LINE
  5
488
100
AcDbEntity
  8
M0
 62
     6
100
AcDbLine
 10
290.974611
 20
586.8111
 11
289.127199
 21
586.8111
  0
LINE
  5
489
100
AcDbEntity
  8
M0
 62
     6
100
AcDbLine
 10
277.322282
 20
586.8111
 11
275.474869
 21
586.8111
  0
LINE
  5
48A
100
AcDbEntity
  8
M0
 62
     6
100
AcDbLine
 10
277.322282
 20
588.3111
 11
275.474869
 21
588.3111
  0
LINE
  5
48B
100
AcDbEntity
  8
M0
 62
     6
100
AcDbLine
 10
275.474869
 20
580.8111
 11
275.474869
 21
594.3111
  0
LINE
  5
48C
100
AcDbEntity
  8
M0
 62
     6
100
AcDbLine
 10
290.974611
 20
594.3111
 11
290.974611
 21
580.8111
  0
CIRCLE
  5
48D
100
AcDbEntity
  8
M0
 62
     6
100
AcDbCircle
 10
283.224611
 20
587.5611
 40
5.949995
  0
LINE
  5
48E
100
AcDbEntity
  8
M0
 62
     6
100
AcDbLine
 10
261.103291
 20
586.853993
 11
263.931718
 21
589.682423
  0
LINE
  5
48F
100
AcDbEntity
  8
M0
 62
     6
100
AcDbLine
 10
262.517504
 20
585.439778
 11
265.34593
 21
588.268208
  0
LINE
  5
490
100
AcDbEntity
  8
M0
 62
     6
100
AcDbLine
 10
260.396185
 20
590.389531
 11
266.053026
 21
584.732686
  0
LINE
  5
491
100
AcDbEntity
  8
M0
 62
     6
100
AcDbLine
 10
268.226
 20
595.060185
 11
270.97484
 21
592.3111
  0
LINE
  5
492
100
AcDbEntity
  8
M0
 62
     6
100
AcDbLine
 10
255.474855
 20
592.3111
 11
256.724294
 21
593.560658
  0
LINE
  5
493
100
AcDbEntity
  8
M0
 62
     6
100
AcDbLine
 10
262.474855
 20
593.463688
 11
262.474855
 21
595.060643
  0
LINE
  5
494
100
AcDbEntity
  8
M0
 62
     6
100
AcDbLine
 10
263.974611
 20
593.463688
 11
263.974611
 21
595.114735
  0
ARC
  5
495
100
AcDbEntity
  8
M0
 62
     6
100
AcDbCircle
 10
269.974596
 20
594.3111
 40
1.0
100
AcDbArc
 50
0.0
 51
48.512403
  0
LINE
  5
496
100
AcDbEntity
  8
M0
  6
DASHDOT
 62
     6
100
AcDbLine
 10
273.522691
 20
587.5611
 11
254.089601
 21
587.5611
  0
LINE
  5
497
100
AcDbEntity
  8
M0
 62
     6
100
AcDbLine
 10
269.974596
 20
579.8111
 11
256.474855
 21
579.8111
  0
ARC
  5
498
100
AcDbEntity
  8
M0
 62
     6
100
AcDbCircle
 10
256.474855
 20
580.8111
 40
1.0
100
AcDbArc
 50
179.999126
 51
270.0
  0
ARC
  5
499
100
AcDbEntity
  8
M0
 62
     6
100
AcDbCircle
 10
269.974596
 20
580.8111
 40
1.0
100
AcDbArc
 50
-90.0
 51
0.0
  0
LINE
  5
49A
100
AcDbEntity
  8
M0
 62
     6
100
AcDbLine
 10
258.474855
 20
579.8111
 11
255.474855
 21
582.8111
  0
LINE
  5
49B
100
AcDbEntity
  8
M0
 62
     6
100
AcDbLine
 10
270.974596
 20
582.8111
 11
267.974596
 21
579.8111
  0
LINE
  5
49C
100
AcDbEntity
  8
M0
 62
     6
100
AcDbLine
 10
263.974611
 20
579.8111
 11
263.974611
 21
581.658757
  0
LINE
  5
49D
100
AcDbEntity
  8
M0
 62
     6
100
AcDbLine
 10
262.474855
 20
579.8111
 11
262.474855
 21
581.658757
  0
LINE
  5
49E
100
AcDbEntity
  8
M0
 62
     6
100
AcDbLine
 10
270.974596
 20
588.3111
 11
269.127184
 21
588.3111
  0
LINE
  5
49F
100
AcDbEntity
  8
M0
 62
     6
100
AcDbLine
 10
270.974596
 20
586.8111
 11
269.127184
 21
586.8111
  0
LINE
  5
4A0
100
AcDbEntity
  8
M0
 62
     6
100
AcDbLine
 10
257.322267
 20
586.8111
 11
255.474855
 21
586.8111
  0
LINE
  5
4A1
100
AcDbEntity
  8
M0
 62
     6
100
AcDbLine
 10
257.322267
 20
588.3111
 11
255.474855
 21
588.3111
  0
LINE
  5
4A2
100
AcDbEntity
  8
M0
 62
     6
100
AcDbLine
 10
255.474855
 20
580.8111
 11
255.474855
 21
593.627675
  0
LINE
  5
4A3
100
AcDbEntity
  8
M0
 62
     6
100
AcDbLine
 10
270.974596
 20
594.3111
 11
270.974596
 21
580.8111
  0
CIRCLE
  5
4A4
100
AcDbEntity
  8
M0
 62
     6
100
AcDbCircle
 10
263.224611
 20
587.5611
 40
5.949995
  0
LINE
  5
4A5
100
AcDbEntity
  8
M0
 62
     6
100
AcDbLine
 10
276.474869
 20
675.309971
 11
289.974611
 21
675.309971
  0
LINE
  5
4A6
100
AcDbEntity
  8
M0
 62
     6
100
AcDbLine
 10
281.103304
 20
666.852864
 11
283.931719
 21
669.681294
  0
LINE
  5
4A7
100
AcDbEntity
  8
M0
 62
     6
100
AcDbLine
 10
282.517519
 20
665.438649
 11
285.345934
 21
668.267079
  0
LINE
  5
4A8
100
AcDbEntity
  8
M0
 62
     6
100
AcDbLine
 10
280.396196
 20
670.388402
 11
286.053041
 21
664.731556
  0
LINE
  5
4A9
100
AcDbEntity
  8
M0
 62
     6
100
AcDbLine
 10
287.97513
 20
675.309971
 11
290.974855
 21
672.309971
  0
LINE
  5
4AA
100
AcDbEntity
  8
M0
 62
     6
100
AcDbLine
 10
275.474869
 20
672.309971
 11
278.474603
 21
675.309971
  0
LINE
  5
4AB
100
AcDbEntity
  8
M0
 62
     6
100
AcDbLine
 10
282.474855
 20
673.462559
 11
282.474855
 21
675.309971
  0
LINE
  5
4AC
100
AcDbEntity
  8
M0
 62
     6
100
AcDbLine
 10
283.974611
 20
673.462559
 11
283.974611
 21
675.309971
  0
ARC
  5
4AD
100
AcDbEntity
  8
M0
 62
     6
100
AcDbCircle
 10
289.974611
 20
674.309971
 40
1.0
100
AcDbArc
 50
0.0
 51
90.0
  0
ARC
  5
4AE
100
AcDbEntity
  8
M0
 62
     6
100
AcDbCircle
 10
276.474869
 20
674.309971
 40
1.0
100
AcDbArc
 50
90.0
 51
180.0
  0
LINE
  5
4AF
100
AcDbEntity
  8
M0
  6
DASHDOT
 62
     6
100
AcDbLine
 10
293.522707
 20
667.559971
 11
274.089616
 21
667.559971
  0
ARC
  5
4B0
100
AcDbEntity
  8
M0
 62
     6
100
AcDbCircle
 10
276.474869
 20
660.809971
 40
1.0
100
AcDbArc
 50
180.0
 51
270.0
  0
ARC
  5
4B1
100
AcDbEntity
  8
M0
 62
     6
100
AcDbCircle
 10
289.974611
 20
660.809971
 40
1.0
100
AcDbArc
 50
-90.000874
 51
0.0
  0
LINE
  5
4B2
100
AcDbEntity
  8
M0
 62
     6
100
AcDbLine
 10
278.474869
 20
659.809971
 11
275.474869
 21
662.809971
  0
LINE
  5
4B3
100
AcDbEntity
  8
M0
 62
     6
100
AcDbLine
 10
290.974611
 20
662.809971
 11
287.974611
 21
659.809971
  0
LINE
  5
4B4
100
AcDbEntity
  8
M0
 62
     6
100
AcDbLine
 10
283.974611
 20
659.809971
 11
283.974611
 21
661.657628
  0
LINE
  5
4B5
100
AcDbEntity
  8
M0
 62
     6
100
AcDbLine
 10
282.474855
 20
659.809971
 11
282.474855
 21
661.657628
  0
LINE
  5
4B6
100
AcDbEntity
  8
M0
 62
     6
100
AcDbLine
 10
290.974611
 20
668.309971
 11
289.127199
 21
668.309971
  0
LINE
  5
4B7
100
AcDbEntity
  8
M0
 62
     6
100
AcDbLine
 10
290.974611
 20
666.809971
 11
289.127199
 21
666.809971
  0
LINE
  5
4B8
100
AcDbEntity
  8
M0
 62
     6
100
AcDbLine
 10
277.322282
 20
666.809971
 11
275.474869
 21
666.809971
  0
LINE
  5
4B9
100
AcDbEntity
  8
M0
 62
     6
100
AcDbLine
 10
277.322282
 20
668.309971
 11
275.474869
 21
668.309971
  0
LINE
  5
4BA
100
AcDbEntity
  8
M0
 62
     6
100
AcDbLine
 10
275.474869
 20
660.809971
 11
275.474869
 21
674.309971
  0
LINE
  5
4BB
100
AcDbEntity
  8
M0
 62
     6
100
AcDbLine
 10
290.974611
 20
674.309971
 11
290.974611
 21
660.809971
  0
CIRCLE
  5
4BC
100
AcDbEntity
  8
M0
 62
     6
100
AcDbCircle
 10
283.224611
 20
667.559971
 40
5.949995
  0
LINE
  5
4BD
100
AcDbEntity
  8
M0
 62
     6
100
AcDbLine
 10
256.47484
 20
675.309971
 11
269.97458
 21
675.309971
  0
LINE
  5
4BE
100
AcDbEntity
  8
M0
 62
     6
100
AcDbLine
 10
261.103276
 20
666.852864
 11
263.931703
 21
669.681294
  0
LINE
  5
4BF
100
AcDbEntity
  8
M0
 62
     6
100
AcDbLine
 10
262.517489
 20
665.438649
 11
265.345915
 21
668.267079
  0
LINE
  5
4C0
100
AcDbEntity
  8
M0
 62
     6
100
AcDbLine
 10
260.396169
 20
670.388402
 11
266.053011
 21
664.731556
  0
LINE
  5
4C1
100
AcDbEntity
  8
M0
 62
     6
100
AcDbLine
 10
267.975099
 20
675.309971
 11
270.974825
 21
672.309971
  0
LINE
  5
4C2
100
AcDbEntity
  8
M0
 62
     6
100
AcDbLine
 10
255.47484
 20
672.309971
 11
258.474574
 21
675.309971
  0
LINE
  5
4C3
100
AcDbEntity
  8
M0
 62
     6
100
AcDbLine
 10
262.47484
 20
673.462559
 11
262.47484
 21
675.309971
  0
LINE
  5
4C4
100
AcDbEntity
  8
M0
 62
     6
100
AcDbLine
 10
263.974596
 20
673.462559
 11
263.974596
 21
675.309971
  0
ARC
  5
4C5
100
AcDbEntity
  8
M0
 62
     6
100
AcDbCircle
 10
269.97458
 20
674.309971
 40
1.0
100
AcDbArc
 50
0.0
 51
90.0
  0
ARC
  5
4C6
100
AcDbEntity
  8
M0
 62
     6
100
AcDbCircle
 10
256.47484
 20
674.309971
 40
1.0
100
AcDbArc
 50
90.0
 51
180.0
  0
LINE
  5
4C7
100
AcDbEntity
  8
M0
  6
DASHDOT
 62
     6
100
AcDbLine
 10
273.522676
 20
667.559971
 11
254.089586
 21
667.559971
  0
ARC
  5
4C8
100
AcDbEntity
  8
M0
 62
     6
100
AcDbCircle
 10
269.97458
 20
660.809971
 40
1.0
100
AcDbArc
 50
-90.0
 51
0.0
  0
LINE
  5
4C9
100
AcDbEntity
  8
M0
 62
     6
100
AcDbLine
 10
256.724964
 20
661.559849
 11
255.47484
 21
662.809971
  0
LINE
  5
4CA
100
AcDbEntity
  8
M0
 62
     6
100
AcDbLine
 10
270.97458
 20
662.809971
 11
267.97458
 21
659.809971
  0
LINE
  5
4CB
100
AcDbEntity
  8
M0
 62
     6
100
AcDbLine
 10
263.974596
 20
659.809971
 11
263.974596
 21
661.657628
  0
LINE
  5
4CC
100
AcDbEntity
  8
M0
 62
     6
100
AcDbLine
 10
262.47484
 20
660.05962
 11
262.47484
 21
661.657628
  0
LINE
  5
4CD
100
AcDbEntity
  8
M0
 62
     6
100
AcDbLine
 10
270.97458
 20
668.309971
 11
269.127168
 21
668.309971
  0
LINE
  5
4CE
100
AcDbEntity
  8
M0
 62
     6
100
AcDbLine
 10
270.97458
 20
666.809971
 11
269.127168
 21
666.809971
  0
LINE
  5
4CF
100
AcDbEntity
  8
M0
 62
     6
100
AcDbLine
 10
257.322252
 20
666.809971
 11
255.47484
 21
666.809971
  0
LINE
  5
4D0
100
AcDbEntity
  8
M0
 62
     6
100
AcDbLine
 10
257.322252
 20
668.309971
 11
255.47484
 21
668.309971
  0
LINE
  5
4D1
100
AcDbEntity
  8
M0
 62
     6
100
AcDbLine
 10
255.47484
 20
661.492833
 11
255.47484
 21
674.309971
  0
LINE
  5
4D2
100
AcDbEntity
  8
M0
 62
     6
100
AcDbLine
 10
270.97458
 20
674.309971
 11
270.97458
 21
660.809971
  0
CIRCLE
  5
4D3
100
AcDbEntity
  8
M0
 62
     6
100
AcDbCircle
 10
263.224596
 20
667.559971
 40
5.949995
  0
LINE
  5
4D4
100
AcDbEntity
  8
M0
 62
     6
100
AcDbLine
 10
236.475145
 20
675.310215
 11
249.974887
 21
675.310215
  0
LINE
  5
4D5
100
AcDbEntity
  8
M0
 62
     6
100
AcDbLine
 10
241.103594
 20
666.853108
 11
243.932008
 21
669.681538
  0
LINE
  5
4D6
100
AcDbEntity
  8
M0
 62
     6
100
AcDbLine
 10
242.517809
 20
665.438893
 11
245.346224
 21
668.267323
  0
LINE
  5
4D7
100
AcDbEntity
  8
M0
 62
     6
100
AcDbLine
 10
240.396486
 20
670.388646
 11
246.053331
 21
664.731801
  0
LINE
  5
4D8
100
AcDbEntity
  8
M0
 62
     6
100
AcDbLine
 10
255.224887
 20
617.560018
 11
271.224321
 21
617.560018
  0
LINE
  5
4D9
100
AcDbEntity
  8
M0
 62
     6
100
AcDbLine
 10
247.975405
 20
675.310215
 11
250.975131
 21
672.310215
  0
LINE
  5
4DA
100
AcDbEntity
  8
M0
 62
     6
100
AcDbLine
 10
235.475145
 20
672.310215
 11
238.474886
 21
675.310215
  0
LINE
  5
4DB
100
AcDbEntity
  8
M0
 62
     6
100
AcDbLine
 10
242.475145
 20
673.462803
 11
242.475145
 21
675.310215
  0
LINE
  5
4DC
100
AcDbEntity
  8
M0
 62
     6
100
AcDbLine
 10
243.974901
 20
673.462803
 11
243.974901
 21
675.310215
  0
ARC
  5
4DD
100
AcDbEntity
  8
M0
 62
     6
100
AcDbCircle
 10
249.974887
 20
674.310215
 40
1.0
100
AcDbArc
 50
0.0
 51
90.0
  0
ARC
  5
4DE
100
AcDbEntity
  8
M0
 62
     6
100
AcDbCircle
 10
236.475145
 20
674.310215
 40
1.0
100
AcDbArc
 50
89.999126
 51
180.0
  0
LINE
  5
4DF
100
AcDbEntity
  8
M0
  6
DASHDOT
 62
     6
100
AcDbLine
 10
253.522982
 20
667.560215
 11
234.089891
 21
667.560215
  0
ARC
  5
4E0
100
AcDbEntity
  8
M0
 62
     6
100
AcDbCircle
 10
236.475145
 20
660.810215
 40
1.0
100
AcDbArc
 50
180.0
 51
228.617596
  0
ARC
  5
4E1
100
AcDbEntity
  8
M0
 62
     6
100
AcDbCircle
 10
249.974887
 20
660.810215
 40
1.0
100
AcDbArc
 50
-48.624708
 51
0.0
  0
LINE
  5
4E2
100
AcDbEntity
  8
M0
 62
     6
100
AcDbLine
 10
238.22545
 20
660.059926
 11
235.475145
 21
662.810215
  0
LINE
  5
4E3
100
AcDbEntity
  8
M0
 62
     6
100
AcDbLine
 10
250.974887
 20
662.810215
 11
248.22452
 21
660.059849
  0
LINE
  5
4E4
100
AcDbEntity
  8
M0
 62
     6
100
AcDbLine
 10
243.974901
 20
660.05988
 11
243.974901
 21
661.657872
  0
LINE
  5
4E5
100
AcDbEntity
  8
M0
 62
     6
100
AcDbLine
 10
242.475145
 20
660.059895
 11
242.475145
 21
661.657872
  0
LINE
  5
4E6
100
AcDbEntity
  8
M0
 62
     6
100
AcDbLine
 10
250.974887
 20
668.310215
 11
249.127475
 21
668.310215
  0
LINE
  5
4E7
100
AcDbEntity
  8
M0
 62
     6
100
AcDbLine
 10
250.974887
 20
666.810215
 11
249.127475
 21
666.810215
  0
LINE
  5
4E8
100
AcDbEntity
  8
M0
 62
     6
100
AcDbLine
 10
237.322557
 20
666.810215
 11
235.475145
 21
666.810215
  0
LINE
  5
4E9
100
AcDbEntity
  8
M0
 62
     6
100
AcDbLine
 10
237.322557
 20
668.310215
 11
235.475145
 21
668.310215
  0
LINE
  5
4EA
100
AcDbEntity
  8
M0
 62
     6
100
AcDbLine
 10
235.475145
 20
660.810215
 11
235.475145
 21
674.310215
  0
LINE
  5
4EB
100
AcDbEntity
  8
M0
 62
     6
100
AcDbLine
 10
250.974887
 20
674.310215
 11
250.974887
 21
660.810215
  0
CIRCLE
  5
4EC
100
AcDbEntity
  8
M0
 62
     6
100
AcDbCircle
 10
243.224901
 20
667.560215
 40
5.949995
  0
LINE
  5
4ED
100
AcDbEntity
  8
M0
  6
DASHDOT
 62
     6
100
AcDbLine
 10
243.224901
 20
677.564671
 11
243.224901
 21
657.678242
  0
LINE
  5
4EE
100
AcDbEntity
  8
M0
  6
DASHDOT
 62
     6
100
AcDbLine
 10
283.224886
 20
677.564656
 11
283.224886
 21
657.678181
  0
LINE
  5
4EF
100
AcDbEntity
  8
M0
 62
     6
100
AcDbLine
 10
270.375412
 20
675.559712
 11
256.075378
 21
675.559712
  0
LINE
  5
4F0
100
AcDbEntity
  8
M0
 62
     6
100
AcDbLine
 10
255.075377
 20
674.559712
 11
255.075369
 21
660.059712
  0
LINE
  5
4F1
100
AcDbEntity
  8
M0
 62
     6
100
AcDbLine
 10
271.375402
 20
660.059712
 11
271.375411
 21
674.559712
  0
ARC
  5
4F2
100
AcDbEntity
  8
M0
 62
     6
100
AcDbCircle
 10
256.075377
 20
674.559712
 40
1.0
100
AcDbArc
 50
90.0
 51
180.0
  0
ARC
  5
4F3
100
AcDbEntity
  8
M0
 62
     6
100
AcDbCircle
 10
270.375402
 20
660.059712
 40
1.0
100
AcDbArc
 50
345.536028
 51
360.0
  0
ARC
  5
4F4
100
AcDbEntity
  8
M0
 62
     6
100
AcDbCircle
 10
270.375411
 20
674.559712
 40
1.0
100
AcDbArc
 50
0.0
 51
90.0
  0
LINE
  5
4F5
100
AcDbEntity
  8
M0
 62
     6
100
AcDbLine
 10
256.074663
 20
579.560475
 11
270.374696
 21
579.560475
  0
LINE
  5
4F6
100
AcDbEntity
  8
M0
 62
     6
100
AcDbLine
 10
271.374696
 20
580.560475
 11
271.374696
 21
595.060475
  0
LINE
  5
4F7
100
AcDbEntity
  8
M0
 62
     6
100
AcDbLine
 10
255.074663
 20
595.060475
 11
255.074663
 21
580.560475
  0
ARC
  5
4F8
100
AcDbEntity
  8
M0
 62
     6
100
AcDbCircle
 10
270.374696
 20
580.560475
 40
1.0
100
AcDbArc
 50
270.0
 51
360.0
  0
ARC
  5
4F9
100
AcDbEntity
  8
M0
 62
     6
100
AcDbCircle
 10
256.074663
 20
580.560475
 40
1.0
100
AcDbArc
 50
179.999126
 51
270.0
  0
LINE
  5
4FA
100
AcDbEntity
  8
M0
 62
     6
100
AcDbLine
 10
263.224581
 20
659.560704
 11
231.724626
 21
659.560704
  0
LINE
  5
4FB
100
AcDbEntity
  8
M0
 62
     6
100
AcDbLine
 10
231.724626
 20
595.560719
 11
263.224597
 21
595.560719
  0
LINE
  5
4FC
100
AcDbEntity
  8
M0
 62
     6
100
AcDbLine
 10
231.724626
 20
659.560704
 11
231.724626
 21
631.890828
  0
LINE
  5
4FD
100
AcDbEntity
  8
M0
 62
     6
100
AcDbLine
 10
231.724626
 20
623.230581
 11
231.724626
 21
595.560719
  0
ARC
  5
4FE
100
AcDbEntity
  8
M0
 62
     6
100
AcDbCircle
 10
229.224626
 20
627.560704
 40
5.0
100
AcDbArc
 50
299.999985
 51
419.999597
  0
LINE
  5
4FF
100
AcDbEntity
  8
M0
 62
     6
100
AcDbLine
 10
263.224634
 20
659.560704
 11
294.724596
 21
659.560704
  0
LINE
  5
500
100
AcDbEntity
  8
M0
 62
     6
100
AcDbLine
 10
294.724596
 20
595.560719
 11
263.224618
 21
595.560719
  0
LINE
  5
501
100
AcDbEntity
  8
M0
 62
     6
100
AcDbLine
 10
294.724596
 20
659.560704
 11
294.724596
 21
631.890828
  0
LINE
  5
502
100
AcDbEntity
  8
M0
 62
     6
100
AcDbLine
 10
294.724596
 20
623.230581
 11
294.724596
 21
595.560719
  0
ARC
  5
503
100
AcDbEntity
  8
M0
 62
     6
100
AcDbCircle
 10
297.224596
 20
627.560704
 40
5.0
100
AcDbArc
 50
119.999996
 51
239.999435
  0
ARC
  5
504
100
AcDbEntity
  8
M0
 62
     6
100
AcDbCircle
 10
229.224397
 20
660.059971
 40
2.299998
100
AcDbArc
 50
29.565768
 51
89.99962
  0
CIRCLE
  5
505
100
AcDbEntity
  8
M0
 62
     6
100
AcDbCircle
 10
227.224367
 20
647.559697
 40
3.0
  0
CIRCLE
  5
506
100
AcDbEntity
  8
M0
 62
     6
100
AcDbCircle
 10
227.224367
 20
638.059872
 40
3.0
  0
CIRCLE
  5
507
100
AcDbEntity
  8
M0
 62
     6
100
AcDbCircle
 10
227.224352
 20
617.060655
 40
3.0
  0
LINE
  5
508
100
AcDbEntity
  8
M0
 62
     6
100
AcDbLine
 10
431.697832
 20
660.06017
 11
431.697832
 21
645.56017
  0
LINE
  5
509
100
AcDbEntity
  8
M0
 62
     6
100
AcDbLine
 10
431.697832
 20
661.56017
 11
431.731279
 21
661.56017
  0
LINE
  5
50A
100
AcDbEntity
  8
M0
 62
     6
100
AcDbLine
 10
431.697832
 20
593.56049
 11
431.731279
 21
593.56049
  0
LINE
  5
50B
100
AcDbEntity
  8
M0
 62
     6
100
AcDbLine
 10
431.697832
 20
609.560948
 11
431.697832
 21
595.06049
  0
LINE
  5
50C
100
AcDbEntity
  8
M0
 62
     6
100
AcDbLine
 10
492.197832
 20
650.310414
 11
496.697832
 21
650.310414
  0
LINE
  5
50D
100
AcDbEntity
  8
M0
 62
     6
100
AcDbLine
 10
492.197832
 20
645.310414
 11
496.697832
 21
645.310414
  0
ARC
  5
50E
100
AcDbEntity
  8
M0
 62
     6
100
AcDbCircle
 10
492.197832
 20
647.810414
 40
2.499996
100
AcDbArc
 50
89.99965
 51
180.0
  0
LINE
  5
50F
100
AcDbEntity
  8
M0
 62
     6
100
AcDbLine
 10
492.197588
 20
604.810704
 11
496.697588
 21
604.810704
  0
ARC
  5
510
100
AcDbEntity
  8
M0
 62
     6
100
AcDbCircle
 10
492.197588
 20
607.310704
 40
2.499996
100
AcDbArc
 50
179.99965
 51
270.0
  0
LINE
  5
511
100
AcDbEntity
  8
M0
 62
     6
100
AcDbLine
 10
492.197588
 20
609.810704
 11
496.697588
 21
609.810704
  0
LINE
  5
512
100
AcDbEntity
  8
M0
 62
     6
100
AcDbLine
 10
451.697832
 20
680.56017
 11
468.454179
 21
680.56017
  0
LINE
  5
513
100
AcDbEntity
  8
M0
 62
     6
100
AcDbLine
 10
446.697832
 20
675.559437
 11
496.697832
 21
675.559437
  0
LINE
  5
514
100
AcDbEntity
  8
M0
 62
     6
100
AcDbLine
 10
478.197832
 20
657.06017
 11
482.490312
 21
657.06017
  0
LINE
  5
515
100
AcDbEntity
  8
M0
 62
     6
100
AcDbLine
 10
461.536455
 20
654.06017
 11
477.697832
 21
654.06017
  0
LINE
  5
516
100
AcDbEntity
  8
M0
 62
     6
100
AcDbLine
 10
428.797685
 20
645.56017
 11
451.497637
 21
645.56017
  0
LINE
  5
517
100
AcDbEntity
  8
M0
 62
     6
100
AcDbLine
 10
427.797685
 20
631.31046
 11
430.197832
 21
631.31046
  0
LINE
  5
518
100
AcDbEntity
  8
M0
 62
     6
100
AcDbLine
 10
470.575517
 20
679.681279
 11
474.697588
 21
675.559208
  0
LINE
  5
519
100
AcDbEntity
  8
M0
 62
     6
100
AcDbLine
 10
431.697832
 20
660.559193
 11
431.697832
 21
645.56017
  0
ARC
  5
51A
100
AcDbEntity
  8
M0
 62
     6
100
AcDbCircle
 10
451.697832
 20
660.56017
 40
19.999939
100
AcDbArc
 50
89.999956
 51
177.13405
  0
ARC
  5
51B
100
AcDbEntity
  8
M0
 62
     6
100
AcDbCircle
 10
446.697832
 20
660.559437
 40
14.999996
100
AcDbArc
 50
89.999942
 51
180.0
  0
LINE
  5
51C
100
AcDbEntity
  8
M0
 62
     6
100
AcDbLine
 10
477.697832
 20
656.56017
 11
477.697832
 21
654.06017
  0
LINE
  5
51D
100
AcDbEntity
  8
M0
 62
     6
100
AcDbLine
 10
482.844072
 20
656.913685
 11
485.697832
 21
654.06017
  0
LINE
  5
51E
100
AcDbEntity
  8
M0
 62
     6
100
AcDbLine
 10
460.551836
 20
653.233754
 11
459.343584
 21
646.386342
  0
LINE
  5
51F
100
AcDbEntity
  8
M0
 62
     6
100
AcDbLine
 10
485.697832
 20
654.06017
 11
496.697832
 21
654.06017
  0
LINE
  5
520
100
AcDbEntity
  8
M0
 62
     6
100
AcDbLine
 10
447.597734
 20
645.06017
 11
447.597734
 21
643.060414
  0
LINE
  5
521
100
AcDbEntity
  8
M0
 62
     6
100
AcDbLine
 10
451.497637
 20
645.06017
 11
451.497637
 21
643.060414
  0
LINE
  5
522
100
AcDbEntity
  8
M0
 62
     6
100
AcDbLine
 10
448.097734
 20
642.560414
 11
450.997637
 21
642.560414
  0
LINE
  5
523
100
AcDbEntity
  8
M0
 62
     6
100
AcDbLine
 10
451.497637
 20
645.56017
 11
458.358721
 21
645.56017
  0
LINE
  5
524
100
AcDbEntity
  8
M0
 62
     6
100
AcDbLine
 10
427.797685
 20
644.56017
 11
427.797685
 21
631.31046
  0
ARC
  5
525
100
AcDbEntity
  8
M0
 62
     6
100
AcDbCircle
 10
428.797685
 20
644.56017
 40
1.0
100
AcDbArc
 50
89.999126
 51
180.0
  0
LINE
  5
526
100
AcDbEntity
  8
M0
 62
     6
100
AcDbLine
 10
428.297685
 20
631.31046
 11
428.297685
 21
624.560688
  0
LINE
  5
527
100
AcDbEntity
  8
M0
 62
     6
100
AcDbLine
 10
430.197832
 20
631.31046
 11
430.197832
 21
624.560688
  0
LINE
  5
528
100
AcDbEntity
  8
M0
 62
     6
100
AcDbLine
 10
451.697832
 20
574.560948
 11
468.454179
 21
574.560948
  0
LINE
  5
529
100
AcDbEntity
  8
M0
 62
     6
100
AcDbLine
 10
446.697832
 20
579.56168
 11
534.297355
 21
579.56168
  0
LINE
  5
52A
100
AcDbEntity
  8
M0
 62
     6
100
AcDbLine
 10
478.197832
 20
598.060948
 11
482.490556
 21
598.060948
  0
LINE
  5
52B
100
AcDbEntity
  8
M0
 62
     6
100
AcDbLine
 10
461.536455
 20
601.060948
 11
477.697832
 21
601.060948
  0
LINE
  5
52C
100
AcDbEntity
  8
M0
 62
     6
100
AcDbLine
 10
428.797685
 20
609.560948
 11
451.497392
 21
609.560948
  0
LINE
  5
52D
100
AcDbEntity
  8
M0
 62
     6
100
AcDbLine
 10
427.797685
 20
623.810948
 11
430.197832
 21
623.810948
  0
LINE
  5
52E
100
AcDbEntity
  8
M0
 62
     6
100
AcDbLine
 10
470.575273
 20
575.43961
 11
474.697588
 21
579.56168
  0
LINE
  5
52F
100
AcDbEntity
  8
M0
 62
     6
100
AcDbLine
 10
431.697832
 20
594.56168
 11
431.697832
 21
609.560948
  0
ARC
  5
530
100
AcDbEntity
  8
M0
 62
     6
100
AcDbCircle
 10
451.697832
 20
594.560948
 40
19.999939
100
AcDbArc
 50
182.867088
 51
269.999956
  0
ARC
  5
531
100
AcDbEntity
  8
M0
 62
     6
100
AcDbCircle
 10
446.697832
 20
594.56168
 40
14.999996
100
AcDbArc
 50
179.999942
 51
270.0
  0
LINE
  5
532
100
AcDbEntity
  8
M0
 62
     6
100
AcDbLine
 10
477.697832
 20
598.560948
 11
477.697832
 21
601.060948
  0
LINE
  5
533
100
AcDbEntity
  8
M0
 62
     6
100
AcDbLine
 10
482.844072
 20
598.207386
 11
485.697832
 21
601.060948
  0
LINE
  5
534
100
AcDbEntity
  8
M0
 62
     6
100
AcDbLine
 10
460.551836
 20
601.887211
 11
459.343584
 21
608.734715
  0
LINE
  5
535
100
AcDbEntity
  8
M0
 62
     6
100
AcDbLine
 10
485.697832
 20
601.060948
 11
496.697832
 21
601.060948
  0
LINE
  5
536
100
AcDbEntity
  8
M0
 62
     6
100
AcDbLine
 10
451.497637
 20
609.560948
 11
458.358721
 21
609.560948
  0
LINE
  5
537
100
AcDbEntity
  8
M0
 62
     6
100
AcDbLine
 10
427.797685
 20
610.560948
 11
427.797685
 21
623.810948
  0
ARC
  5
538
100
AcDbEntity
  8
M0
 62
     6
100
AcDbCircle
 10
428.797685
 20
610.560948
 40
1.0
100
AcDbArc
 50
179.999126
 51
270.0
  0
LINE
  5
539
100
AcDbEntity
  8
M0
 62
     6
100
AcDbLine
 10
494.697832
 20
634.560399
 11
494.697832
 21
634.560154
  0
ARC
  5
53A
100
AcDbEntity
  8
M0
 62
     6
100
AcDbCircle
 10
492.197832
 20
647.810414
 40
2.499996
100
AcDbArc
 50
180.0
 51
270.0
  0
ARC
  5
53B
100
AcDbEntity
  8
M0
 62
     6
100
AcDbCircle
 10
492.197588
 20
607.310704
 40
2.499996
100
AcDbArc
 50
89.99965
 51
179.99965
  0
LINE
  5
53C
100
AcDbEntity
  8
M0
 62
     6
100
AcDbLine
 10
490.697832
 20
675.559437
 11
490.697832
 21
654.06017
  0
LINE
  5
53D
100
AcDbEntity
  8
M0
 62
     6
100
AcDbLine
 10
479.697603
 20
598.060948
 11
479.697603
 21
579.56168
  0
LINE
  5
53E
100
AcDbEntity
  8
M0
 62
     6
100
AcDbLine
 10
496.697588
 20
634.560399
 11
485.697588
 21
634.560399
  0
LINE
  5
53F
100
AcDbEntity
  8
M0
 62
     6
100
AcDbLine
 10
483.697588
 20
632.559971
 11
483.697588
 21
629.560704
  0
ARC
  5
540
100
AcDbEntity
  8
M0
 62
     6
100
AcDbCircle
 10
485.697588
 20
632.560215
 40
1.999996
100
AcDbArc
 50
89.999563
 51
180.006967
  0
LINE
  5
541
100
AcDbEntity
  8
M0
 62
     6
100
AcDbLine
 10
494.697832
 20
620.560948
 11
494.697832
 21
620.561192
  0
LINE
  5
542
100
AcDbEntity
  8
M0
 62
     6
100
AcDbLine
 10
496.697588
 20
620.560948
 11
485.697588
 21
620.560948
  0
LINE
  5
543
100
AcDbEntity
  8
M0
 62
     6
100
AcDbLine
 10
483.697588
 20
622.561436
 11
483.697588
 21
625.560704
  0
ARC
  5
544
100
AcDbEntity
  8
M0
 62
     6
100
AcDbCircle
 10
485.697588
 20
622.561192
 40
1.999996
100
AcDbArc
 50
179.999945
 51
270.0
  0
ARC
  5
545
100
AcDbEntity
  8
M0
 62
     6
100
AcDbCircle
 10
461.536455
 20
653.06017
 40
1.0
100
AcDbArc
 50
89.999126
 51
170.002706
  0
ARC
  5
546
100
AcDbEntity
  8
M0
 62
     6
100
AcDbCircle
 10
461.536455
 20
602.060948
 40
1.0
100
AcDbArc
 50
190.005194
 51
270.0
  0
ARC
  5
547
100
AcDbEntity
  8
M0
 62
     6
100
AcDbCircle
 10
468.454179
 20
677.56017
 40
2.999996
100
AcDbArc
 50
44.999176
 51
89.999709
  0
LINE
  5
548
100
AcDbEntity
  8
M0
 62
     6
100
AcDbLine
 10
483.697588
 20
629.560704
 11
484.897539
 21
628.560704
  0
LINE
  5
549
100
AcDbEntity
  8
M0
 62
     6
100
AcDbLine
 10
483.697588
 20
625.560704
 11
484.897539
 21
626.560704
  0
ARC
  5
54A
100
AcDbEntity
  8
M0
 62
     6
100
AcDbCircle
 10
468.454179
 20
577.560948
 40
2.999996
100
AcDbArc
 50
270.0
 51
314.997321
  0
ARC
  5
54B
100
AcDbEntity
  8
M0
 62
     6
100
AcDbCircle
 10
458.358721
 20
646.56017
 40
1.0
100
AcDbArc
 50
270.0
 51
349.988779
  0
ARC
  5
54C
100
AcDbEntity
  8
M0
 62
     6
100
AcDbCircle
 10
458.358721
 20
608.560948
 40
1.0
100
AcDbArc
 50
10.006764
 51
89.999126
  0
ARC
  5
54D
100
AcDbEntity
  8
M0
 62
     6
100
AcDbCircle
 10
447.097734
 20
645.06017
 40
0.5
100
AcDbArc
 50
0.0
 51
89.998251
  0
ARC
  5
54E
100
AcDbEntity
  8
M0
 62
     6
100
AcDbCircle
 10
448.097734
 20
643.060414
 40
0.5
100
AcDbArc
 50
180.0
 51
270.0
  0
ARC
  5
54F
100
AcDbEntity
  8
M0
 62
     6
100
AcDbCircle
 10
450.997637
 20
643.060414
 40
0.5
100
AcDbArc
 50
270.0
 51
360.0
  0
ARC
  5
550
100
AcDbEntity
  8
M0
 62
     6
100
AcDbCircle
 10
451.997637
 20
645.06017
 40
0.5
100
AcDbArc
 50
89.998251
 51
180.0
  0
ARC
  5
551
100
AcDbEntity
  8
M0
 62
     6
100
AcDbCircle
 10
447.09749
 20
610.060948
 40
0.5
100
AcDbArc
 50
-90.0
 51
0.0
  0
LINE
  5
552
100
AcDbEntity
  8
M0
 62
     6
100
AcDbLine
 10
447.59749
 20
610.060948
 11
447.59749
 21
612.060704
  0
LINE
  5
553
100
AcDbEntity
  8
M0
 62
     6
100
AcDbLine
 10
448.09749
 20
612.560704
 11
450.997392
 21
612.560704
  0
ARC
  5
554
100
AcDbEntity
  8
M0
 62
     6
100
AcDbCircle
 10
448.09749
 20
612.060704
 40
0.5
100
AcDbArc
 50
89.998251
 51
179.999891
  0
ARC
  5
555
100
AcDbEntity
  8
M0
 62
     6
100
AcDbCircle
 10
450.997392
 20
612.060704
 40
0.5
100
AcDbArc
 50
0.0
 51
89.998251
  0
LINE
  5
556
100
AcDbEntity
  8
M0
 62
     6
100
AcDbLine
 10
451.497392
 20
610.060948
 11
451.497392
 21
612.060704
  0
ARC
  5
557
100
AcDbEntity
  8
M0
 62
     6
100
AcDbCircle
 10
451.997392
 20
610.060948
 40
0.5
100
AcDbArc
 50
179.998251
 51
270.0
  0
LINE
  5
558
100
AcDbEntity
  8
M0
 62
     6
100
AcDbLine
 10
496.697832
 20
634.560154
 11
496.697832
 21
645.810414
  0
ARC
  5
559
100
AcDbEntity
  8
M0
 62
     6
100
AcDbCircle
 10
478.197832
 20
598.560948
 40
0.5
100
AcDbArc
 50
179.998251
 51
270.0
  0
ARC
  5
55A
100
AcDbEntity
  8
M0
 62
     6
100
AcDbCircle
 10
482.490556
 20
598.560948
 40
0.5
100
AcDbArc
 50
270.0
 51
315.0
  0
ARC
  5
55B
100
AcDbEntity
  8
M0
 62
     6
100
AcDbCircle
 10
482.490312
 20
656.56017
 40
0.5
100
AcDbArc
 50
44.975272
 51
89.998251
  0
ARC
  5
55C
100
AcDbEntity
  8
M0
 62
     6
100
AcDbCircle
 10
478.197832
 20
656.56017
 40
0.5
100
AcDbArc
 50
89.998251
 51
180.0
  0
LINE
  5
55D
100
AcDbEntity
  8
M0
 62
     6
100
AcDbLine
 10
469.197832
 20
601.060948
 11
469.197832
 21
580.56168
  0
LINE
  5
55E
100
AcDbEntity
  8
M0
 62
     6
100
AcDbLine
 10
465.447832
 20
601.060948
 11
465.447832
 21
580.56168
  0
ARC
  5
55F
100
AcDbEntity
  8
M0
 62
     6
100
AcDbCircle
 10
464.447832
 20
580.56168
 40
1.0
100
AcDbArc
 50
270.0
 51
360.0
  0
ARC
  5
560
100
AcDbEntity
  8
M0
 62
     6
100
AcDbCircle
 10
470.197832
 20
580.56168
 40
1.0
100
AcDbArc
 50
179.999126
 51
270.0
  0
LINE
  5
561
100
AcDbEntity
  8
M0
 62
     6
100
AcDbLine
 10
465.447832
 20
654.059926
 11
465.447832
 21
674.559193
  0
LINE
  5
562
100
AcDbEntity
  8
M0
 62
     6
100
AcDbLine
 10
469.197832
 20
654.059926
 11
469.197832
 21
674.559193
  0
ARC
  5
563
100
AcDbEntity
  8
M0
 62
     6
100
AcDbCircle
 10
464.447832
 20
674.559193
 40
1.0
100
AcDbArc
 50
0.0
 51
89.999126
  0
ARC
  5
564
100
AcDbEntity
  8
M0
 62
     6
100
AcDbCircle
 10
470.197832
 20
674.559193
 40
1.0
100
AcDbArc
 50
89.999126
 51
180.0
  0
LINE
  5
565
100
AcDbEntity
  8
M0
 62
     6
100
AcDbLine
 10
496.697832
 20
649.810414
 11
496.697832
 21
675.559437
  0
LINE
  5
566
100
AcDbEntity
  8
M0
 62
     6
100
AcDbLine
 10
496.697832
 20
609.310948
 11
496.697832
 21
620.560704
  0
LINE
  5
567
100
AcDbEntity
  8
M0
 62
     6
100
AcDbLine
 10
428.297685
 20
624.560688
 11
428.297685
 21
623.810948
  0
LINE
  5
568
100
AcDbEntity
  8
M0
 62
     6
100
AcDbLine
 10
430.197832
 20
624.560688
 11
430.197832
 21
623.810948
  0
LINE
  5
569
100
AcDbEntity
  8
M0
 62
     6
100
AcDbLine
 10
484.897539
 20
626.560704
 11
484.897539
 21
628.560704
  0
LINE
  5
56A
100
AcDbEntity
  8
M0
  6
DASHDOT
 62
     6
100
AcDbLine
 10
406.785143
 20
627.560704
 11
554.304537
 21
627.560704
  0
LINE
  5
56B
100
AcDbEntity
  8
M0
 62
     6
100
AcDbLine
 10
496.697359
 20
579.560948
 11
496.697359
 21
579.56168
  0
LINE
  5
56C
100
AcDbEntity
  8
M0
 62
     6
100
AcDbLine
 10
496.697206
 20
579.56168
 11
496.697603
 21
605.310948
  0
ARC
  5
56D
100
AcDbEntity
  8
M0
 62
     6
100
AcDbCircle
 10
503.797151
 20
631.560917
 40
1.999996
100
AcDbArc
 50
0.0
 51
89.999563
  0
ARC
  5
56E
100
AcDbEntity
  8
M0
 62
     6
100
AcDbCircle
 10
503.797151
 20
623.560933
 40
1.999996
100
AcDbArc
 50
270.0
 51
360.0
  0
LINE
  5
56F
100
AcDbEntity
  8
M0
 62
     6
100
AcDbLine
 10
503.797151
 20
633.560933
 11
496.797151
 21
633.560933
  0
LINE
  5
570
100
AcDbEntity
  8
M0
 62
     6
100
AcDbLine
 10
505.797136
 20
623.560917
 11
505.797136
 21
631.560902
  0
LINE
  5
571
100
AcDbEntity
  8
M0
 62
     6
100
AcDbLine
 10
496.797151
 20
621.560933
 11
503.797151
 21
621.560933
  0
LINE
  5
572
100
AcDbEntity
  8
M0
 62
     6
100
AcDbLine
 10
496.797395
 20
645.810658
 11
496.797395
 21
633.560917
  0
LINE
  5
573
100
AcDbEntity
  8
M0
 62
     6
100
AcDbLine
 10
495.697542
 20
649.810658
 11
496.797395
 21
649.810658
  0
LINE
  5
574
100
AcDbEntity
  8
M0
 62
     6
100
AcDbLine
 10
494.697542
 20
648.810658
 11
495.697542
 21
649.810658
  0
LINE
  5
575
100
AcDbEntity
  8
M0
 62
     6
100
AcDbLine
 10
494.697542
 20
648.810658
 11
494.697542
 21
646.810658
  0
LINE
  5
576
100
AcDbEntity
  8
M0
 62
     6
100
AcDbLine
 10
494.697542
 20
646.810658
 11
495.697542
 21
645.810658
  0
LINE
  5
577
100
AcDbEntity
  8
M0
 62
     6
100
AcDbLine
 10
495.697542
 20
645.810658
 11
496.797395
 21
645.810658
  0
LINE
  5
578
100
AcDbEntity
  8
M0
 62
     6
100
AcDbLine
 10
496.797395
 20
605.310948
 11
496.797395
 21
595.560704
  0
LINE
  5
579
100
AcDbEntity
  8
M0
 62
     6
100
AcDbLine
 10
494.697542
 20
606.310948
 11
495.697542
 21
605.310948
  0
LINE
  5
57A
100
AcDbEntity
  8
M0
 62
     6
100
AcDbLine
 10
494.697542
 20
608.310948
 11
495.697542
 21
609.310948
  0
LINE
  5
57B
100
AcDbEntity
  8
M0
 62
     6
100
AcDbLine
 10
495.697542
 20
605.310948
 11
496.797395
 21
605.310948
  0
LINE
  5
57C
100
AcDbEntity
  8
M0
 62
     6
100
AcDbLine
 10
495.697542
 20
609.310948
 11
496.797395
 21
609.310948
  0
LINE
  5
57D
100
AcDbEntity
  8
M0
 62
     6
100
AcDbLine
 10
494.697542
 20
606.310948
 11
494.697542
 21
608.310948
  0
ARC
  5
57E
100
AcDbEntity
  8
M0
 62
     6
100
AcDbCircle
 10
520.297367
 20
656.560658
 40
1.999996
100
AcDbArc
 50
180.0
 51
270.0
  0
ARC
  5
57F
100
AcDbEntity
  8
M0
 62
     6
100
AcDbCircle
 10
516.29738
 20
663.560414
 40
1.999996
100
AcDbArc
 50
0.0
 51
89.999563
  0
LINE
  5
580
100
AcDbEntity
  8
M0
 62
     6
100
AcDbLine
 10
518.297367
 20
663.560414
 11
518.297367
 21
656.560658
  0
LINE
  5
581
100
AcDbEntity
  8
M0
 62
     6
100
AcDbLine
 10
520.297367
 20
654.560658
 11
534.297365
 21
654.560658
  0
ARC
  5
582
100
AcDbEntity
  8
M0
 62
     6
100
AcDbCircle
 10
498.797395
 20
663.560414
 40
1.999996
100
AcDbArc
 50
89.999563
 51
180.0
  0
LINE
  5
583
100
AcDbEntity
  8
M0
 62
     6
100
AcDbLine
 10
498.797395
 20
665.560414
 11
516.29738
 21
665.560414
  0
LINE
  5
584
100
AcDbEntity
  8
M0
 62
     6
100
AcDbLine
 10
496.797395
 20
621.560933
 11
496.797395
 21
609.310948
  0
ARC
  5
585
100
AcDbEntity
  8
M0
 62
     6
100
AcDbCircle
 10
519.297367
 20
600.060948
 40
1.0
100
AcDbArc
 50
0.0
 51
90.0
  0
LINE
  5
586
100
AcDbEntity
  8
M0
 62
     6
100
AcDbLine
 10
520.297244
 20
600.060948
 11
520.295667
 21
579.56168
  0
LINE
  5
587
100
AcDbEntity
  8
M0
 62
     6
100
AcDbLine
 10
496.797395
 20
663.560414
 11
496.797395
 21
649.810658
  0
LINE
  5
588
100
AcDbEntity
  8
M0
 62
     6
100
AcDbLine
 10
534.297365
 20
675.56017
 11
496.697542
 21
675.560414
  0
LINE
  5
589
100
AcDbEntity
  8
M0
 62
     6
100
AcDbLine
 10
496.697542
 20
579.560948
 11
534.297365
 21
579.560948
  0
LINE
  5
58A
100
AcDbEntity
  8
M0
 62
     6
100
AcDbLine
 10
496.797395
 20
601.060948
 11
519.297367
 21
601.060948
  0
LINE
  5
58B
100
AcDbEntity
  8
M0
 62
     6
100
AcDbLine
 10
520.297367
 20
600.060948
 11
534.297365
 21
600.060948
  0
LINE
  5
58C
100
AcDbEntity
  8
M0
 62
     6
100
AcDbLine
 10
417.497881
 20
660.06017
 11
431.697832
 21
660.06017
  0
LINE
  5
58D
100
AcDbEntity
  8
M0
 62
     6
100
AcDbLine
 10
417.497881
 20
633.260411
 11
427.797929
 21
633.260411
  0
LINE
  5
58E
100
AcDbEntity
  8
M0
 62
     6
100
AcDbLine
 10
417.497881
 20
595.06049
 11
431.697832
 21
595.06049
  0
LINE
  5
58F
100
AcDbEntity
  8
M0
 62
     6
100
AcDbLine
 10
417.497881
 20
621.860493
 11
427.797929
 21
621.860493
  0
LINE
  5
590
100
AcDbEntity
  8
M0
 62
     6
100
AcDbLine
 10
431.697832
 20
660.06017
 11
431.697832
 21
645.56017
  0
LINE
  5
591
100
AcDbEntity
  8
M0
 62
     6
100
AcDbLine
 10
416.997881
 20
659.56017
 11
416.997881
 21
630.560673
  0
ARC
  5
592
100
AcDbEntity
  8
M0
 62
     6
100
AcDbCircle
 10
417.497881
 20
659.56017
 40
0.5
100
AcDbArc
 50
89.998251
 51
180.0
  0
ARC
  5
593
100
AcDbEntity
  8
M0
 62
     6
100
AcDbCircle
 10
417.497881
 20
595.56049
 40
0.5
100
AcDbArc
 50
179.998251
 51
270.0
  0
ARC
  5
594
100
AcDbEntity
  8
M0
 62
     6
100
AcDbCircle
 10
417.497881
 20
622.360493
 40
0.5
100
AcDbArc
 50
179.999891
 51
270.0
  0
ARC
  5
595
100
AcDbEntity
  8
M0
 62
     6
100
AcDbCircle
 10
417.497881
 20
632.760487
 40
0.5
100
AcDbArc
 50
89.998251
 51
180.0
  0
LINE
  5
596
100
AcDbEntity
  8
M0
 62
     6
100
AcDbLine
 10
431.697832
 20
661.56017
 11
431.731279
 21
661.56017
  0
LINE
  5
597
100
AcDbEntity
  8
M0
 62
     6
100
AcDbLine
 10
429.697832
 20
660.06017
 11
431.697832
 21
661.56017
  0
LINE
  5
598
100
AcDbEntity
  8
M0
 62
     6
100
AcDbLine
 10
431.697832
 20
593.56049
 11
431.731279
 21
593.56049
  0
LINE
  5
599
100
AcDbEntity
  8
M0
 62
     6
100
AcDbLine
 10
429.697832
 20
595.06049
 11
431.697832
 21
593.56049
  0
LINE
  5
59A
100
AcDbEntity
  8
M0
 62
     6
100
AcDbLine
 10
431.697832
 20
609.560948
 11
431.697832
 21
595.06049
  0
LINE
  5
59B
100
AcDbEntity
  8
M0
 62
     6
100
AcDbLine
 10
416.997881
 20
630.560673
 11
416.997881
 21
595.56049
  0
LINE
  5
59C
100
AcDbEntity
  8
M0
  6
DIVIDE
 62
     2
100
AcDbLine
 10
105.224642
 20
602.56078
 11
112.224474
 21
602.56078
  0
LINE
  5
59D
100
AcDbEntity
  8
M0
  6
DIVIDE
 62
     2
100
AcDbLine
 10
105.224687
 20
652.560765
 11
105.224642
 21
602.56078
  0
LINE
  5
59E
100
AcDbEntity
  8
M0
  6
DIVIDE
 62
     2
100
AcDbLine
 10
105.224687
 20
652.560765
 11
112.224474
 21
652.560765
  0
LINE
  5
59F
100
AcDbEntity
  8
M0
  6
DIVIDE
 62
     2
100
AcDbLine
 10
314.224672
 20
652.560627
 11
307.224642
 21
652.560627
  0
LINE
  5
5A0
100
AcDbEntity
  8
M0
  6
DIVIDE
 62
     2
100
AcDbLine
 10
314.224672
 20
652.560627
 11
314.224626
 21
602.560643
  0
LINE
  5
5A1
100
AcDbEntity
  8
M0
  6
DIVIDE
 62
     2
100
AcDbLine
 10
314.224626
 20
602.560643
 11
307.224642
 21
602.560643
  0
LINE
  5
5A2
100
AcDbEntity
  8
M0
  6
DIVIDE
 62
   154
100
AcDbLine
 10
309.724627
 20
350.147004
 11
309.724627
 21
470.147004
  0
LINE
  5
5A3
100
AcDbEntity
  8
M0
  6
DIVIDE
 62
   154
100
AcDbLine
 10
309.724627
 20
470.147004
 11
109.724627
 21
470.147004
  0
LINE
  5
5A4
100
AcDbEntity
  8
M0
  6
DIVIDE
 62
   154
100
AcDbLine
 10
109.724627
 20
470.147004
 11
109.724627
 21
350.147004
  0
LINE
  5
5A5
100
AcDbEntity
  8
M0
  6
DIVIDE
 62
   154
100
AcDbLine
 10
109.724627
 20
350.147004
 11
309.724627
 21
350.147004
  0
LINE
  5
5A6
100
AcDbEntity
  8
M0
  6
DASHDOT
 62
   154
100
AcDbLine
 10
209.724627
 20
330.147004
 11
209.724627
 21
490.147004
  0
LINE
  5
5A7
100
AcDbEntity
  8
M0
  6
DASHDOT
 62
   154
100
AcDbLine
 10
107.724627
 20
462.647004
 11
131.724627
 21
462.647004
  0
LINE
  5
5A8
100
AcDbEntity
  8
M0
  6
DASHDOT
 62
   154
100
AcDbLine
 10
119.724627
 20
450.647004
 11
119.724627
 21
474.647004
  0
CIRCLE
  5
5A9
100
AcDbEntity
  8
M0
 62
   154
100
AcDbCircle
 10
119.724627
 20
462.647004
 40
4.0
  0
CIRCLE
  5
5AA
100
AcDbEntity
  8
M0
 62
   154
100
AcDbCircle
 10
119.724627
 20
462.647004
 40
2.799999
  0
CIRCLE
  5
5AB
100
AcDbEntity
  8
M0
 62
   154
100
AcDbCircle
 10
299.724627
 20
462.647004
 40
4.0
  0
LINE
  5
5AC
100
AcDbEntity
  8
M0
  6
DASHDOT
 62
   154
100
AcDbLine
 10
311.724627
 20
462.647004
 11
287.724627
 21
462.647004
  0
LINE
  5
5AD
100
AcDbEntity
  8
M0
  6
DASHDOT
 62
   154
100
AcDbLine
 10
299.724627
 20
450.647004
 11
299.724627
 21
474.647004
  0
CIRCLE
  5
5AE
100
AcDbEntity
  8
M0
 62
   154
100
AcDbCircle
 10
299.724627
 20
462.647004
 40
2.799999
  0
CIRCLE
  5
5AF
100
AcDbEntity
  8
M0
 62
   154
100
AcDbCircle
 10
209.724627
 20
362.647004
 40
4.0
  0
LINE
  5
5B0
100
AcDbEntity
  8
M0
  6
DASHDOT
 62
   154
100
AcDbLine
 10
221.724627
 20
362.647004
 11
197.724627
 21
362.647004
  0
CIRCLE
  5
5B1
100
AcDbEntity
  8
M0
 62
   154
100
AcDbCircle
 10
209.724627
 20
362.647004
 40
2.799999
  0
LINE
  5
5B2
100
AcDbEntity
  8
M1
 62
     2
100
AcDbLine
 10
30.03003
 20
30.03003
 11
30.03003
 21
855.855845
  0
LINE
  5
5B3
100
AcDbEntity
  8
M1
 62
     2
100
AcDbLine
 10
30.03003
 20
855.855845
 11
600.600593
 21
855.855845
  0
LINE
  5
5B4
100
AcDbEntity
  8
M1
 62
     2
100
AcDbLine
 10
600.600593
 20
855.855845
 11
600.600593
 21
30.03003
  0
LINE
  5
5B5
100
AcDbEntity
  8
M1
 62
     2
100
AcDbLine
 10
600.600593
 20
30.03003
 11
30.03003
 21
30.03003
  0
LINE
  5
5B6
100
AcDbEntity
  8
M1
 62
     2
100
AcDbLine
 10
600.600593
 20
60.060059
 11
300.300296
 21
60.060059
  0
LINE
  5
5B7
100
AcDbEntity
  8
M1
 62
     2
100
AcDbLine
 10
600.600593
 20
90.090089
 11
300.300296
 21
90.090089
  0
LINE
  5
5B8
100
AcDbEntity
  8
M1
 62
     2
100
AcDbLine
 10
600.600593
 20
120.120119
 11
300.300296
 21
120.120119
  0
LINE
  5
5B9
100
AcDbEntity
  8
M1
 62
     2
100
AcDbLine
 10
300.300296
 20
30.03003
 11
300.300296
 21
120.120119
  0
TEXT
  5
5BA
100
AcDbEntity
  8
M1
 62
     2
100
AcDbText
 10
307.807804
 20
37.537537
 40
15.015015
  1
適　用；
 41
1.0
  7
STANDARD
100
AcDbText
  0
TEXT
  5
5BB
100
AcDbEntity
  8
M1
 62
     2
100
AcDbText
 10
307.807804
 20
97.597596
 40
15.015015
  1
登録名：
 41
1.0
  7
STANDARD
100
AcDbText
  0
TEXT
  5
5BC
100
AcDbEntity
  8
M1
 62
     2
100
AcDbText
 10
379.879875
 20
97.597596
 40
15.015015
  1
ＤＭＨ６５ＣＲＲ００
 41
0.5
  7
STANDARD
100
AcDbText
  0
TEXT
  5
5BD
100
AcDbEntity
  8
M1
 62
     2
100
AcDbText
 10
307.807804
 20
67.567567
 40
15.015015
  1
形　式；
 41
1.0
  7
STANDARD
100
AcDbText
  0
TEXT
  5
5BE
100
AcDbEntity
  8
M1
 62
     2
100
AcDbText
 10
379.879875
 20
67.567567
 40
15.015015
  1
Ｈ６５Ｃ－Ｒ
 41
0.5
  7
STANDARD
100
AcDbText
  0
LINE
  5
5BF
100
AcDbEntity
  8
DN0
100
AcDbLine
 10
187.8448
 20
283.624837
 11
242.679636
 21
283.624837
  0
TEXT
  5
5C0
100
AcDbEntity
  8
DN0
100
AcDbText
 10
189.361317
 20
284.976188
 40
13.513513
  1
せん孔図
 41
0.833333
  7
STANDARD
100
AcDbText
  0
ENDSEC
  0
SECTION
  2
OBJECTS
  0
DICTIONARY
  5
C
100
AcDbDictionary
  3
ACAD_GROUP
350
D
  3
ACAD_MLINESTYLE
350
E
  0
DICTIONARY
  5
D
102
{ACAD_REACTORS
330
C
102
}
100
AcDbDictionary
  0
DICTIONARY
  5
E
102
{ACAD_REACTORS
330
C
102
}
100
AcDbDictionary
  3
STANDARD
350
13
  0
MLINESTYLE
  5
13
102
{ACAD_REACTORS
330
E
102
}
100
AcDbMlineStyle
  2
STANDARD
 70
     0
  3

 62
     0
 51
90.0
 52
90.0
 71
     2
 49
0.5
 62
   256
  6
BYLAYER
 49
-0.5
 62
   256
  6
BYLAYER
  0
ENDSEC
  0
EOF
