  0
SECTION
  2
HEADER
  9
$ACADVER
  1
AC1014
  9
$INSBASE
 10
0.000000
 20
0.000000
 30
0.0
  9
$VIEWCTR
 10
7.531722
 20
4.5
  9
$VIEWSIZE
 40
9.0
  9
$SNAPMODE
 70
     0
  9
$SNAPUNIT
 10
1.0
 20
1.0
  9
$SNAPBASE
 10
0.0
 20
0.0
  9
$SNAPANG
 50
0.0
  9
$SNAPSTYLE
 70
     0
  9
$SNAPISOPAIR
 70
     0
  9
$GRIDMODE
 70
     0
  9
$GRIDUNIT
 10
0.0
 20
0.0
  9
$ORTHOMODE
 70
     0
  9
$REGENMODE
 70
     1
  9
$FILLMODE
 70
     1
  9
$QTEXTMODE
 70
     0
  9
$DRAGMODE
 70
     2
  9
$LTSCALE
  40
     1.000000
  9
$OSMODE
 70
     0
  9
$ATTMODE
 70
     1
  9
$TEXTSIZE
 40
0.2
  9
$TRACEWID
 40
0.05
  9
$TEXTSTYLE
  7
STANDARD
  9
$CELTYPE
  6
BYLAYER
  9
$CECOLOR
 62
   256
  9
$DIMSCALE
 40
1.0
  9
$DIMASZ
 40
0.18
  9
$DIMEXO
 40
0.0625
  9
$DIMDLI
 40
0.38
  9
$DIMRND
 40
0.0
  9
$DIMDLE
 40
0.0
  9
$DIMEXE
 40
0.18
  9
$DIMTP
 40
0.0
  9
$DIMTM
 40
0.0
  9
$DIMTXT
 40
0.18
  9
$DIMCEN
 40
0.09
  9
$DIMTSZ
 40
0.0
  9
$DIMTOL
 70
     0
  9
$DIMLIM
 70
     0
  9
$DIMTIH
 70
     1
  9
$DIMTOH
 70
     1
  9
$DIMSE1
 70
     0
  9
$DIMSE2
 70
     0
  9
$DIMTAD
 70
     0
  9
$DIMZIN
 70
     0
  9
$DIMBLK
  1

  9
$LUNITS
 70
     2
  9
$LUPREC
 70
     4
  9
$AXISMODE
 70
     0
  9
$AXISUNIT
 10
0.0
 20
0.0
  9
$SKETCHINC
 40
0.1
  9
$FILLETRAD
 40
0.0
  9
$AUNITS
 70
     0
  9
$AUPREC
 70
     0
  9
$MENU
  1
ACAD
  9
$ELEVATION
 40
0.0
  9
$THICKNESS
 40
0.0
  9
$VIEWDIR
 10
0.0
 20
0.0
 30
1.0
  9
$LIMCHECK
 70
     0
  9
$BLIPMODE
 70
     1
  9
$CHAMFERA
 40
0.0
  9
$CHAMFERB
 40
0.0
  9
$FASTZOOM
 70
     1
  9
$SKPOLY
 70
     0
  9
$TDCREATE
 40
0000000.0000000000
  9
$TDUPDATE
 40
0000000.0000000000
  9
$TDINDWG
 40
0.0000000000
  9
$TDUSRTIMER
 40
0.0000000000
  9
$USRTIMER
 70
     1
  9
$ANGBASE
 50
0.0
  9
$ANGDIR
 70
     0
  9
$PDMODE
 70
     0
  9
$PDSIZE
 40
0.0
  9
$PLINEWID
 40
0.0
  9
$COORDS
 70
     0
  9
$USERI1
 70
     0
  9
$USERI2
 70
     0
  9
$USERI3
 70
     0
  9
$USERI4
 70
     0
  9
$USERI5
 70
     0
  9
$USERR1
 40
0.0
  9
$USERR2
 40
0.0
  9
$USERR3
 40
0.0
  9
$USERR4
 40
0.0
  9
$USERR5
 40
0.0
  9
$CLAYER
  8
M0
  9
$EXTMIN
 10
23.529411
 20
23.529411
  9
$EXTMAX
 10
470.588222
 20
670.588216
  9
$LIMMIN
 10
0.0
 20
0.0
  9
$LIMMAX
 10
210.0
 20
297.0
  9
$HANDSEED
  5
8B2
  0
ENDSEC
  0
SECTION
  2
CLASSES
  0
ENDSEC
  0
SECTION
  2
TABLES
  0
TABLE
  2
VPORT
  5
8
100
AcDbSymbolTable
 70
     2
  0
VPORT
  5
14
100
AcDbSymbolTableRecord
100
AcDbViewportTableRecord
  2
*ACTIVE
 70
     0
 10
0.0
 20
0.0
 11
1.0
 21
1.0
 12
484.0
 22
297.0
 13
0.0
 23
0.0
 14
1.0
 24
1.0
 15
0.0
 25
0.0
 16
0.0
 26
0.0
 36
1.0
 17
0.0
 27
0.0
 37
0.0
 40
594.0
 41
2.0
 42
50.0
 43
0.0
 44
0.0
 50
0.0
 51
0.0
 71
     0
 72
   100
 73
     1
 74
     1
 75
     0
 76
     0
 77
     0
 78
     0
  0
ENDTAB
  0
TABLE
  2
LTYPE
  5
5
100
AcDbSymbolTable
 70
     5
  0
LTYPE
  5
15
100
AcDbSymbolTableRecord
100
AcDbLinetypeTableRecord
  2
BYBLOCK
 70
     0
  3

 72
    65
 73
     0
 40
0.0
  0
LTYPE
  5
16
100
AcDbSymbolTableRecord
100
AcDbLinetypeTableRecord
  2
BYLAYER
 70
     0
  3

 72
    65
 73
     0
 40
0.0
  0
LTYPE
  5
17
100
AcDbSymbolTableRecord
100
AcDbLinetypeTableRecord
  2
CONTINUOUS
 70
    64
  3
Solid line
 72
    65
 73
     0
 40
0.0
  0
LTYPE
  5
18
100
AcDbSymbolTableRecord
100
AcDbLinetypeTableRecord
  2
DASHED
 70
    64
  3
__ __ __ __ __ __ __ __ __ __ __ __ __ __ __ __
 72
    65
 73
     2
 40
0.75
 49
0.5
 74
     0
 49
-0.25
 74
     0
  0
LTYPE
  5
19
100
AcDbSymbolTableRecord
100
AcDbLinetypeTableRecord
  2
DASHDOT
 70
    64
  3
__ . __ . __ . __ . __ . __ . __ . __ . __ . __
 72
    65
 73
     4
 40
1.0
 49
0.5
 74
     0
 49
-0.25
 74
     0
 49
0.0
 74
     0
 49
-0.25
 74
     0
  0
LTYPE
  5
1A
100
AcDbSymbolTableRecord
100
AcDbLinetypeTableRecord
  2
DIVIDE
 70
    64
  3
____ . . ____ . . ____ . . ____ . . ____ . . __
 72
    65
 73
     6
 40
1.25
 49
0.5
 74
     0
 49
-0.25
 74
     0
 49
0.0
 74
     0
 49
-0.25
 74
     0
 49
0.0
 74
     0
 49
-0.25
 74
     0
  0
LTYPE
  5
1B
100
AcDbSymbolTableRecord
100
AcDbLinetypeTableRecord
  2
DOT
 70
    64
  3
. . . . . . . . . . . . . . . . . . . . . . . .
 72
    65
 73
     2
 40
0.25
 49
0.0
 74
     0
 49
-0.25
 74
     0
  0
ENDTAB
  0
TABLE
  2
LAYER
  5
2
100
AcDbSymbolTable
 70
   102
  0
LAYER
  5
F
100
AcDbSymbolTableRecord
100
AcDbLayerTableRecord
  2
0
 70
     0
 62
     7
  6
CONTINUOUS
  0
LAYER
  5
1C
100
AcDbSymbolTableRecord
100
AcDbLayerTableRecord
  2
DEFPOINTS
 70
     0
 62
     7
  6
CONTINUOUS
  0
LAYER
  5
1D
100
AcDbSymbolTableRecord
100
AcDbLayerTableRecord
  2
M0
 70
     0
 62
     3
  6
CONTINUOUS
  0
LAYER
  5
1E
100
AcDbSymbolTableRecord
100
AcDbLayerTableRecord
  2
M1
 70
     0
 62
     3
  6
CONTINUOUS
  0
LAYER
  5
1F
100
AcDbSymbolTableRecord
100
AcDbLayerTableRecord
  2
DD0
 70
     0
 62
     4
  6
CONTINUOUS
  0
LAYER
  5
20
100
AcDbSymbolTableRecord
100
AcDbLayerTableRecord
  2
DN0
 70
     0
 62
     2
  6
CONTINUOUS
  0
ENDTAB
  0
TABLE
  2
STYLE
  5
3
100
AcDbSymbolTable
 70
     2
  0
STYLE
  5
10
100
AcDbSymbolTableRecord
100
AcDbTextStyleTableRecord
  2
STANDARD
 70
     0
 40
0.0
 41
1.0
 50
0.0
 71
     0
 42
0.2
  3
txt
  4
BIGFONT
  0
ENDTAB
  0
TABLE
  2
VIEW
  5
6
100
AcDbSymbolTable
 70
     0
  0
ENDTAB
  0
TABLE
  2
UCS
  5
7
100
AcDbSymbolTable
 70
     0
  0
ENDTAB
  0
TABLE
  2
APPID
  5
9
100
AcDbSymbolTable
 70
     1
  0
APPID
  5
11
100
AcDbSymbolTableRecord
100
AcDbRegAppTableRecord
  2
ACAD
 70
     0
  0
ENDTAB
  0
TABLE
  2
DIMSTYLE
  5
A
100
AcDbSymbolTable
 70
     2
  0
DIMSTYLE
105
27
100
AcDbSymbolTableRecord
100
AcDbDimStyleTableRecord
  2
STANDARD
 70
     0
  3

  4

  5

  6
_OPEN
  7
_OPEN
 40
1.0
 41
7.058823
 42
1.0
 43
8.0
 44
1.0
 45
0.0
 46
0.0
 47
0.0
 48
0.0
140
7.411765
141
0.09
142
0.0
143
0.03937
144
1.0
145
0.0
146
1.0
147
0.6
 71
     0
 72
     0
 73
     1
 74
     1
 75
     0
 76
     0
 77
     3
 78
     8
170
     0
171
     2
172
     0
173
     1
174
     0
175
     0
176
     0
177
     0
178
     0
270
     2
271
     2
272
     4
273
     2
274
     2
340
10
275
     0
280
     0
281
     0
282
     0
283
     1
284
     0
285
     0
286
     0
287
     3
288
     0
  0
DIMSTYLE
105
28
100
AcDbSymbolTableRecord
100
AcDbDimStyleTableRecord
  2
LEADSTYL
 70
     0
  3

  4

  5

  6
_OPEN
  7
_OPEN
 40
1.0
 41
7.058823
 42
0.0625
 43
0.38
 44
0.18
 45
0.0
 46
0.0
 47
0.0
 48
0.0
140
7.411765
141
0.09
142
0.0
143
25.4
144
1.0
145
0.0
146
1.0
147
0.6
 71
     0
 72
     0
 73
     1
 74
     1
 75
     0
 76
     0
 77
     0
 78
     0
170
     0
171
     2
172
     0
173
     1
174
     0
175
     0
176
     0
177
     0
178
     0
270
     2
271
     4
272
     4
273
     2
274
     2
340
10
275
     0
280
     0
281
     0
282
     0
283
     1
284
     0
285
     0
286
     0
287
     3
288
     0
  0
ENDTAB
  0
TABLE
  2
BLOCK_RECORD
  5
1
100
AcDbSymbolTable
 70
    16
  0
BLOCK_RECORD
  5
21
100
AcDbSymbolTableRecord
100
AcDbBlockTableRecord
  2
*MODEL_SPACE
  0
BLOCK_RECORD
  5
24
100
AcDbSymbolTableRecord
100
AcDbBlockTableRecord
  2
*PAPER_SPACE
  0
BLOCK_RECORD
  5
29
100
AcDbSymbolTableRecord
100
AcDbBlockTableRecord
  2
_NONE
  0
BLOCK_RECORD
  5
2D
100
AcDbSymbolTableRecord
100
AcDbBlockTableRecord
  2
_OPEN
  0
BLOCK_RECORD
  5
33
100
AcDbSymbolTableRecord
100
AcDbBlockTableRecord
  2
_CLOSED
  0
BLOCK_RECORD
  5
3A
100
AcDbSymbolTableRecord
100
AcDbBlockTableRecord
  2
_ORIGIN
  0
BLOCK_RECORD
  5
3F
100
AcDbSymbolTableRecord
100
AcDbBlockTableRecord
  2
_DOT
  0
BLOCK_RECORD
  5
47
100
AcDbSymbolTableRecord
100
AcDbBlockTableRecord
  2
_OBLIQUE
  0
BLOCK_RECORD
  5
4B
100
AcDbSymbolTableRecord
100
AcDbBlockTableRecord
  2
DIMS0
  0
BLOCK_RECORD
  5
57
100
AcDbSymbolTableRecord
100
AcDbBlockTableRecord
  2
DIMS1
  0
BLOCK_RECORD
  5
63
100
AcDbSymbolTableRecord
100
AcDbBlockTableRecord
  2
DIMS2
  0
BLOCK_RECORD
  5
6F
100
AcDbSymbolTableRecord
100
AcDbBlockTableRecord
  2
DIMS3
  0
BLOCK_RECORD
  5
7B
100
AcDbSymbolTableRecord
100
AcDbBlockTableRecord
  2
DIMS4
  0
BLOCK_RECORD
  5
87
100
AcDbSymbolTableRecord
100
AcDbBlockTableRecord
  2
DIMS5
  0
BLOCK_RECORD
  5
93
100
AcDbSymbolTableRecord
100
AcDbBlockTableRecord
  2
DIMS6
  0
BLOCK_RECORD
  5
9C
100
AcDbSymbolTableRecord
100
AcDbBlockTableRecord
  2
DIMS7
  0
BLOCK_RECORD
  5
A8
100
AcDbSymbolTableRecord
100
AcDbBlockTableRecord
  2
DIMS8
  0
BLOCK_RECORD
  5
B4
100
AcDbSymbolTableRecord
100
AcDbBlockTableRecord
  2
DIMS9
  0
ENDTAB
  0
ENDSEC
  0
SECTION
  2
BLOCKS
  0
BLOCK
  5
22
100
AcDbEntity
  8
0
100
AcDbBlockBegin
  2
*MODEL_SPACE
 70
     0
 10
0.0
 20
0.0
 30
0.0
  3
*MODEL_SPACE
  1

  0
ENDBLK
  5
23
100
AcDbEntity
  8
0
100
AcDbBlockEnd
  0
BLOCK
  5
25
100
AcDbEntity
 67
     1
  8
0
100
AcDbBlockBegin
  2
*PAPER_SPACE
 70
     0
 10
0.0
 20
0.0
 30
0.0
  3
*PAPER_SPACE
  1

  0
ENDBLK
  5
26
100
AcDbEntity
 67
     1
  8
0
100
AcDbBlockEnd
  0
BLOCK
  5
2A
100
AcDbEntity
  8
0
100
AcDbBlockBegin
  2
_NONE
 70
     0
 10
0.0
 20
0.0
  0
CIRCLE
  5
2B
100
AcDbEntity
  8
0
 62
     0
100
AcDbCircle
 10
0.0
 20
0.0
 40
0.25
  0
ENDBLK
  5
2C
100
AcDbEntity
  8
0
100
AcDbBlockEnd
  0
BLOCK
  5
2E
100
AcDbEntity
  8
0
100
AcDbBlockBegin
  2
_OPEN
 70
     0
 10
0.0
 20
0.0
  0
LINE
  5
2F
100
AcDbEntity
  8
0
 62
     0
100
AcDbLine
 10
-0.965926
 20
0.258819
 11
0.0
 21
0.0
  0
LINE
  5
30
100
AcDbEntity
  8
0
 62
     0
100
AcDbLine
 10
0.0
 20
0.0
 11
-0.965926
 21
-0.258819
  0
LINE
  5
31
100
AcDbEntity
  8
0
 62
     0
100
AcDbLine
 10
0.0
 20
0.0
 11
-1.0
 21
0.0
  0
ENDBLK
  5
32
100
AcDbEntity
  8
0
100
AcDbBlockEnd
  0
BLOCK
  5
34
100
AcDbEntity
  8
0
100
AcDbBlockBegin
  2
_CLOSED
 70
     0
 10
0.0
 20
0.0
  0
LINE
  5
35
100
AcDbEntity
  8
0
 62
     0
100
AcDbLine
 10
-0.965926
 20
0.258819
 11
0.0
 21
0.0
  0
LINE
  5
36
100
AcDbEntity
  8
0
 62
     0
100
AcDbLine
 10
0.0
 20
0.0
 11
-0.965926
 21
-0.258819
  0
LINE
  5
37
100
AcDbEntity
  8
0
 62
     0
100
AcDbLine
 10
-0.965926
 20
0.258819
 11
-0.965926
 21
-0.258819
  0
LINE
  5
38
100
AcDbEntity
  8
0
 62
     0
100
AcDbLine
 10
0.0
 20
0.0
 11
-1.0
 21
0.0
  0
ENDBLK
  5
39
100
AcDbEntity
  8
0
100
AcDbBlockEnd
  0
BLOCK
  5
3B
100
AcDbEntity
  8
0
100
AcDbBlockBegin
  2
_ORIGIN
 70
     0
 10
0.0
 20
0.0
  0
CIRCLE
  5
3C
100
AcDbEntity
  8
0
 62
     0
100
AcDbCircle
 10
0.0
 20
0.0
 40
0.5
  0
LINE
  5
3D
100
AcDbEntity
  8
0
 62
     0
100
AcDbLine
 10
0.0
 20
0.0
 11
-1.0
 21
0.0
  0
ENDBLK
  5
3E
100
AcDbEntity
  8
0
100
AcDbBlockEnd
  0
BLOCK
  5
40
100
AcDbEntity
  8
0
100
AcDbBlockBegin
  2
_DOT
 70
     0
 10
0.0
 20
0.0
  0
POLYLINE
  5
41
100
AcDbEntity
  8
0
 62
     0
100
AcDb2dPolyline
 66
     1
 70
     1
 40
0.5
 41
0.5
  0
VERTEX
  5
42
100
AcDbEntity
  8
0
 62
     0
100
AcDbVertex
100
AcDb2dVertex
 10
-0.25
 20
0.0
 42
1.0
  0
VERTEX
  5
43
100
AcDbEntity
  8
0
 62
     0
100
AcDbVertex
100
AcDb2dVertex
 10
0.25
 20
0.0
 42
1.0
  0
SEQEND
  5
44
100
AcDbEntity
  8
0
 62
     0
  0
LINE
  5
45
100
AcDbEntity
  8
0
 62
     0
100
AcDbLine
 10
-0.5
 20
0.0
 11
-1.0
 21
0.0
  0
ENDBLK
  5
46
100
AcDbEntity
  8
0
100
AcDbBlockEnd
  0
BLOCK
  5
48
100
AcDbEntity
  8
0
100
AcDbBlockBegin
  2
_OBLIQUE
 70
     0
 10
0.0
 20
0.0
  0
LINE
  5
49
100
AcDbEntity
  8
0
 62
     0
100
AcDbLine
 10
-0.353553
 20
-0.353553
 11
0.353553
 21
0.353553
  0
ENDBLK
  5
4A
100
AcDbEntity
  8
0
100
AcDbBlockEnd
  0
BLOCK
  5
4C
100
AcDbEntity
  8
DD0
100
AcDbBlockBegin
  2
DIMS0
 70
     0
 10
0.0
 20
0.0
  0
LINE
  5
4D
100
AcDbEntity
  8
DD0
100
AcDbLine
 10
248.239973
 20
525.507439
 11
271.874849
 21
525.507439
  0
LINE
  5
4E
100
AcDbEntity
  8
DD0
100
AcDbLine
 10
231.74016
 20
529.108262
 11
271.874849
 21
529.108262
  0
LINE
  5
4F
100
AcDbEntity
  8
DD0
100
AcDbLine
 10
271.348866
 20
518.689139
 11
269.521908
 21
525.507439
  0
LINE
  5
50
100
AcDbEntity
  8
DD0
100
AcDbLine
 10
269.521908
 20
525.507439
 11
267.69495
 21
518.689139
  0
LINE
  5
51
100
AcDbEntity
  8
DD0
100
AcDbLine
 10
267.69495
 20
535.926561
 11
269.521908
 21
529.108262
  0
LINE
  5
52
100
AcDbEntity
  8
DD0
100
AcDbLine
 10
269.521908
 20
529.108262
 11
271.348866
 21
535.926561
  0
LINE
  5
53
100
AcDbEntity
  8
DD0
100
AcDbLine
 10
269.521908
 20
517.742733
 11
269.521908
 21
554.825909
  0
TEXT
  5
54
100
AcDbEntity
  8
DD0
100
AcDbText
 10
267.874856
 20
537.306316
 40
7.411765
  1
３．５
 50
90.000003
 41
0.584656
  7
STANDARD
100
AcDbText
  0
ENDBLK
  5
55
100
AcDbEntity
  8
DD0
100
AcDbBlockEnd
  0
BLOCK
  5
58
100
AcDbEntity
  8
DD0
100
AcDbBlockBegin
  2
DIMS1
 70
     0
 10
0.0
 20
0.0
  0
LINE
  5
59
100
AcDbEntity
  8
DD0
100
AcDbLine
 10
45.887046
 20
527.860523
 11
45.887046
 21
562.547915
  0
LINE
  5
5A
100
AcDbEntity
  8
DD0
100
AcDbLine
 10
245.887031
 20
527.86038
 11
245.887031
 21
562.547915
  0
LINE
  5
5B
100
AcDbEntity
  8
DD0
100
AcDbLine
 10
52.705346
 20
562.021932
 11
45.887046
 21
560.194974
  0
LINE
  5
5C
100
AcDbEntity
  8
DD0
100
AcDbLine
 10
45.887046
 20
560.194974
 11
52.705346
 21
558.368016
  0
LINE
  5
5D
100
AcDbEntity
  8
DD0
100
AcDbLine
 10
239.068732
 20
558.368016
 11
245.887031
 21
560.194974
  0
LINE
  5
5E
100
AcDbEntity
  8
DD0
100
AcDbLine
 10
245.887031
 20
560.194974
 11
239.068732
 21
562.021932
  0
LINE
  5
5F
100
AcDbEntity
  8
DD0
100
AcDbLine
 10
45.887046
 20
560.194974
 11
245.887031
 21
560.194974
  0
TEXT
  5
60
100
AcDbEntity
  8
DD0
100
AcDbText
 10
138.520371
 20
561.842025
 40
7.411765
  1
２００
 41
0.584656
  7
STANDARD
100
AcDbText
  0
ENDBLK
  5
61
100
AcDbEntity
  8
DD0
100
AcDbBlockEnd
  0
BLOCK
  5
64
100
AcDbEntity
  8
DD0
100
AcDbBlockBegin
  2
DIMS2
 70
     0
 10
0.0
 20
0.0
  0
LINE
  5
65
100
AcDbEntity
  8
DD0
 60
     1
100
AcDbLine
 10
248.239973
 20
525.507439
 11
271.874849
 21
525.507439
  0
LINE
  5
66
100
AcDbEntity
  8
DD0
100
AcDbLine
 10
248.239901
 20
405.507478
 11
271.874849
 21
405.507478
  0
LINE
  5
67
100
AcDbEntity
  8
DD0
100
AcDbLine
 10
271.348866
 20
518.689139
 11
269.521908
 21
525.507439
  0
LINE
  5
68
100
AcDbEntity
  8
DD0
100
AcDbLine
 10
269.521908
 20
525.507439
 11
267.69495
 21
518.689139
  0
LINE
  5
69
100
AcDbEntity
  8
DD0
100
AcDbLine
 10
267.69495
 20
412.325778
 11
269.521908
 21
405.507478
  0
LINE
  5
6A
100
AcDbEntity
  8
DD0
100
AcDbLine
 10
269.521908
 20
405.507478
 11
271.348866
 21
412.325778
  0
LINE
  5
6B
100
AcDbEntity
  8
DD0
100
AcDbLine
 10
269.521908
 20
525.507439
 11
269.521908
 21
405.507478
  0
TEXT
  5
6C
100
AcDbEntity
  8
DD0
100
AcDbText
 10
267.874856
 20
458.140777
 40
7.411765
  1
１２０
 50
90.000003
 41
0.584656
  7
STANDARD
100
AcDbText
  0
ENDBLK
  5
6D
100
AcDbEntity
  8
DD0
100
AcDbBlockEnd
  0
BLOCK
  5
70
100
AcDbEntity
  8
DD0
100
AcDbBlockBegin
  2
DIMS3
 70
     0
 10
0.0
 20
0.0
  0
LINE
  5
71
100
AcDbEntity
  8
DD0
100
AcDbLine
 10
248.239901
 20
405.507478
 11
271.874867
 21
405.507478
  0
LINE
  5
72
100
AcDbEntity
  8
DD0
100
AcDbLine
 10
191.740197
 20
402.008584
 11
271.874867
 21
402.008584
  0
LINE
  5
73
100
AcDbEntity
  8
DD0
100
AcDbLine
 10
267.694968
 20
412.325778
 11
269.521926
 21
405.507478
  0
LINE
  5
74
100
AcDbEntity
  8
DD0
100
AcDbLine
 10
269.521926
 20
405.507478
 11
271.348884
 21
412.325778
  0
LINE
  5
75
100
AcDbEntity
  8
DD0
100
AcDbLine
 10
271.348884
 20
395.190284
 11
269.521926
 21
402.008584
  0
LINE
  5
76
100
AcDbEntity
  8
DD0
100
AcDbLine
 10
269.521926
 20
402.008584
 11
267.694968
 21
395.190284
  0
LINE
  5
77
100
AcDbEntity
  8
DD0
100
AcDbLine
 10
269.521926
 20
413.272184
 11
269.521926
 21
379.498711
  0
TEXT
  5
78
100
AcDbEntity
  8
DD0
100
AcDbText
 10
267.874874
 20
382.284994
 40
7.411765
  1
３．５
 50
90.000003
 41
0.584656
  7
STANDARD
100
AcDbText
  0
ENDBLK
  5
79
100
AcDbEntity
  8
DD0
100
AcDbBlockEnd
  0
BLOCK
  5
7C
100
AcDbEntity
  8
DD0
100
AcDbBlockBegin
  2
DIMS4
 70
     0
 10
0.0
 20
0.0
  0
LINE
  5
7D
100
AcDbEntity
  8
DD0
100
AcDbLine
 10
446.559759
 20
527.860452
 11
446.559759
 21
541.978098
  0
LINE
  5
7E
100
AcDbEntity
  8
DD0
100
AcDbLine
 10
444.95974
 20
527.860452
 11
444.95974
 21
541.978098
  0
LINE
  5
7F
100
AcDbEntity
  8
DD0
100
AcDbLine
 10
453.378059
 20
541.452115
 11
446.559759
 21
539.625157
  0
LINE
  5
80
100
AcDbEntity
  8
DD0
100
AcDbLine
 10
446.559759
 20
539.625157
 11
453.378059
 21
537.798199
  0
LINE
  5
81
100
AcDbEntity
  8
DD0
100
AcDbLine
 10
438.14144
 20
537.798199
 11
444.95974
 21
539.625157
  0
LINE
  5
82
100
AcDbEntity
  8
DD0
100
AcDbLine
 10
444.95974
 20
539.625157
 11
438.14144
 21
541.452115
  0
LINE
  5
83
100
AcDbEntity
  8
DD0
100
AcDbLine
 10
454.324464
 20
539.625157
 11
414.042093
 21
539.625157
  0
TEXT
  5
84
100
AcDbEntity
  8
DD0
100
AcDbText
 10
416.07542
 20
541.272209
 40
7.411765
  1
ｔ１．６
 41
0.584656
  7
STANDARD
100
AcDbText
  0
ENDBLK
  5
85
100
AcDbEntity
  8
DD0
100
AcDbBlockEnd
  0
BLOCK
  5
88
100
AcDbEntity
  8
DD0
100
AcDbBlockBegin
  2
DIMS5
 70
     0
 10
0.0
 20
0.0
  0
LINE
  5
89
100
AcDbEntity
  8
DD0
100
AcDbLine
 10
251.739926
 20
310.947867
 11
271.874867
 21
310.947867
  0
LINE
  5
8A
100
AcDbEntity
  8
DD0
100
AcDbLine
 10
231.740142
 20
321.948161
 11
271.874867
 21
321.948161
  0
LINE
  5
8B
100
AcDbEntity
  8
DD0
100
AcDbLine
 10
271.348884
 20
304.129568
 11
269.521926
 21
310.947867
  0
LINE
  5
8C
100
AcDbEntity
  8
DD0
100
AcDbLine
 10
269.521926
 20
310.947867
 11
267.694968
 21
304.129568
  0
LINE
  5
8D
100
AcDbEntity
  8
DD0
100
AcDbLine
 10
267.694968
 20
328.766461
 11
269.521926
 21
321.948161
  0
LINE
  5
8E
100
AcDbEntity
  8
DD0
100
AcDbLine
 10
269.521926
 20
321.948161
 11
271.348884
 21
328.766461
  0
LINE
  5
8F
100
AcDbEntity
  8
DD0
100
AcDbLine
 10
269.521926
 20
303.183162
 11
269.521926
 21
342.465808
  0
TEXT
  5
90
100
AcDbEntity
  8
DD0
100
AcDbText
 10
267.874874
 20
330.146216
 40
7.411765
  1
１１
 50
90.000003
 41
0.584656
  7
STANDARD
100
AcDbText
  0
ENDBLK
  5
91
100
AcDbEntity
  8
DD0
100
AcDbBlockEnd
  0
BLOCK
  5
94
100
AcDbEntity
  8
DD0
100
AcDbBlockBegin
  2
DIMS6
 70
     0
 10
0.0
 20
0.0
  0
TEXT
  5
95
100
AcDbEntity
  8
DD0
100
AcDbText
 10
270.371689
 20
180.94823
 40
7.411765
  1
４－Ｍ５ねじ穴
 41
0.584656
  7
STANDARD
100
AcDbText
  0
LINE
  5
96
100
AcDbEntity
  8
DD0
100
AcDbLine
 10
246.155756
 20
199.746433
 11
240.228319
 21
203.579509
  0
LINE
  5
97
100
AcDbEntity
  8
DD0
100
AcDbLine
 10
240.228319
 20
203.579509
 11
243.445092
 21
197.296249
  0
LINE
  5
98
100
AcDbEntity
  8
DD0
100
AcDbLine
 10
240.228319
 20
203.579509
 11
262.173634
 21
179.301178
  0
LINE
  5
99
100
AcDbEntity
  8
DD0
100
AcDbLine
 10
262.173634
 20
179.301178
 11
314.103062
 21
179.301178
  0
ENDBLK
  5
9A
100
AcDbEntity
  8
DD0
100
AcDbBlockEnd
  0
BLOCK
  5
9D
100
AcDbEntity
  8
DD0
100
AcDbBlockBegin
  2
DIMS7
 70
     0
 10
0.0
 20
0.0
  0
LINE
  5
9E
100
AcDbEntity
  8
DD0
100
AcDbLine
 10
251.739926
 20
310.947867
 11
271.874867
 21
310.947867
  0
LINE
  5
9F
100
AcDbEntity
  8
DD0
100
AcDbLine
 10
251.739854
 20
205.947888
 11
271.874867
 21
205.947888
  0
LINE
  5
A0
100
AcDbEntity
  8
DD0
100
AcDbLine
 10
271.348884
 20
304.129568
 11
269.521926
 21
310.947867
  0
LINE
  5
A1
100
AcDbEntity
  8
DD0
100
AcDbLine
 10
269.521926
 20
310.947867
 11
267.694968
 21
304.129568
  0
LINE
  5
A2
100
AcDbEntity
  8
DD0
100
AcDbLine
 10
267.694968
 20
212.766188
 11
269.521926
 21
205.947888
  0
LINE
  5
A3
100
AcDbEntity
  8
DD0
100
AcDbLine
 10
269.521926
 20
205.947888
 11
271.348884
 21
212.766188
  0
LINE
  5
A4
100
AcDbEntity
  8
DD0
100
AcDbLine
 10
269.521926
 20
310.947867
 11
269.521926
 21
205.947888
  0
TEXT
  5
A5
100
AcDbEntity
  8
DD0
100
AcDbText
 10
267.874874
 20
251.081205
 40
7.411765
  1
１０５
 50
90.000003
 41
0.584656
  7
STANDARD
100
AcDbText
  0
ENDBLK
  5
A6
100
AcDbEntity
  8
DD0
100
AcDbBlockEnd
  0
BLOCK
  5
A9
100
AcDbEntity
  8
DD0
100
AcDbBlockBegin
  2
DIMS8
 70
     0
 10
0.0
 20
0.0
  0
LINE
  5
AA
100
AcDbEntity
  8
DD0
100
AcDbLine
 10
53.387019
 20
324.300923
 11
53.387019
 21
351.489894
  0
LINE
  5
AB
100
AcDbEntity
  8
DD0
100
AcDbLine
 10
238.386978
 20
324.300815
 11
238.386978
 21
351.489894
  0
LINE
  5
AC
100
AcDbEntity
  8
DD0
100
AcDbLine
 10
60.205319
 20
350.963911
 11
53.387019
 21
349.136953
  0
LINE
  5
AD
100
AcDbEntity
  8
DD0
100
AcDbLine
 10
53.387019
 20
349.136953
 11
60.205319
 21
347.309995
  0
LINE
  5
AE
100
AcDbEntity
  8
DD0
100
AcDbLine
 10
231.568678
 20
347.309995
 11
238.386978
 21
349.136953
  0
LINE
  5
AF
100
AcDbEntity
  8
DD0
100
AcDbLine
 10
238.386978
 20
349.136953
 11
231.568678
 21
350.963911
  0
LINE
  5
B0
100
AcDbEntity
  8
DD0
100
AcDbLine
 10
53.387019
 20
349.136953
 11
238.386978
 21
349.136953
  0
TEXT
  5
B1
100
AcDbEntity
  8
DD0
100
AcDbText
 10
138.520335
 20
350.784005
 40
7.411765
  1
１８５
 41
0.584656
  7
STANDARD
100
AcDbText
  0
ENDBLK
  5
B2
100
AcDbEntity
  8
DD0
100
AcDbBlockEnd
  0
BLOCK
  5
B5
100
AcDbEntity
  8
DD0
100
AcDbBlockBegin
  2
DIMS9
 70
     0
 10
0.0
 20
0.0
  0
LINE
  5
B6
100
AcDbEntity
  8
DD0
100
AcDbLine
 10
446.559759
 20
527.860452
 11
446.559759
 21
562.547915
  0
LINE
  5
B7
100
AcDbEntity
  8
DD0
100
AcDbLine
 10
295.460233
 20
496.359706
 11
295.460233
 21
562.547915
  0
LINE
  5
B8
100
AcDbEntity
  8
DD0
100
AcDbLine
 10
439.741459
 20
558.368016
 11
446.559759
 21
560.194974
  0
LINE
  5
B9
100
AcDbEntity
  8
DD0
100
AcDbLine
 10
446.559759
 20
560.194974
 11
439.741459
 21
562.021932
  0
LINE
  5
BA
100
AcDbEntity
  8
DD0
100
AcDbLine
 10
302.278532
 20
562.021932
 11
295.460233
 21
560.194974
  0
LINE
  5
BB
100
AcDbEntity
  8
DD0
100
AcDbLine
 10
295.460233
 20
560.194974
 11
302.278532
 21
558.368016
  0
LINE
  5
BC
100
AcDbEntity
  8
DD0
100
AcDbLine
 10
446.559759
 20
560.194974
 11
295.460233
 21
560.194974
  0
TEXT
  5
BD
100
AcDbEntity
  8
DD0
100
AcDbText
 10
360.498238
 20
561.606753
 40
7.411765
  1
１５１
 41
0.833333
  7
STANDARD
100
AcDbText
  0
ENDBLK
  5
BE
100
AcDbEntity
  8
DD0
100
AcDbBlockEnd
  0
ENDSEC
  0
SECTION
  2
ENTITIES
  0
INSERT
  5
56
100
AcDbEntity
  8
DD0
100
AcDbBlockReference
  2
DIMS0
 10
0.0
 20
0.0
  0
INSERT
  5
62
100
AcDbEntity
  8
DD0
100
AcDbBlockReference
  2
DIMS1
 10
0.0
 20
0.0
  0
INSERT
  5
6E
100
AcDbEntity
  8
DD0
100
AcDbBlockReference
  2
DIMS2
 10
0.0
 20
0.0
  0
INSERT
  5
7A
100
AcDbEntity
  8
DD0
100
AcDbBlockReference
  2
DIMS3
 10
0.0
 20
0.0
  0
INSERT
  5
86
100
AcDbEntity
  8
DD0
100
AcDbBlockReference
  2
DIMS4
 10
0.0
 20
0.0
  0
INSERT
  5
92
100
AcDbEntity
  8
DD0
100
AcDbBlockReference
  2
DIMS5
 10
0.0
 20
0.0
  0
INSERT
  5
9B
100
AcDbEntity
  8
DD0
100
AcDbBlockReference
  2
DIMS6
 10
0.0
 20
0.0
  0
INSERT
  5
A7
100
AcDbEntity
  8
DD0
100
AcDbBlockReference
  2
DIMS7
 10
0.0
 20
0.0
  0
INSERT
  5
B3
100
AcDbEntity
  8
DD0
100
AcDbBlockReference
  2
DIMS8
 10
0.0
 20
0.0
  0
INSERT
  5
BF
100
AcDbEntity
  8
DD0
100
AcDbBlockReference
  2
DIMS9
 10
0.0
 20
0.0
  0
LINE
  5
C0
100
AcDbEntity
  8
M0
100
AcDbLine
 10
229.387227
 20
529.108257
 11
169.387227
 21
529.10822
  0
LINE
  5
C1
100
AcDbEntity
  8
M0
 62
   154
100
AcDbLine
 10
245.886955
 20
405.50746
 11
245.887031
 21
525.507445
  0
LINE
  5
C2
100
AcDbEntity
  8
M0
 62
   154
100
AcDbLine
 10
245.887031
 20
525.507445
 11
229.387227
 21
525.507456
  0
LINE
  5
C3
100
AcDbEntity
  8
M0
 62
   154
100
AcDbLine
 10
45.887046
 20
525.507582
 11
45.88697
 21
405.507598
  0
LINE
  5
C4
100
AcDbEntity
  8
M0
 62
   154
100
AcDbLine
 10
45.88697
 20
405.507598
 11
78.387274
 21
405.507575
  0
LINE
  5
C5
100
AcDbEntity
  8
M0
  6
DASHDOT
 62
   154
100
AcDbLine
 10
35.303535
 20
465.507594
 11
256.612251
 21
465.507449
  0
LINE
  5
C6
100
AcDbEntity
  8
M0
  6
DASHDOT
 62
   154
100
AcDbLine
 10
145.886957
 20
395.507537
 11
145.887045
 21
535.507506
  0
CIRCLE
  5
C7
100
AcDbEntity
  8
M0
 62
   154
100
AcDbCircle
 10
238.387016
 20
518.00746
 40
3.0
  0
LINE
  5
C8
100
AcDbEntity
  8
M0
  6
DASHDOT
 62
   154
100
AcDbLine
 10
231.387016
 20
518.00746
 11
245.387016
 21
518.007445
  0
LINE
  5
C9
100
AcDbEntity
  8
M0
  6
DASHDOT
 62
   154
100
AcDbLine
 10
238.387001
 20
511.00746
 11
238.387016
 21
525.00746
  0
CIRCLE
  5
CA
100
AcDbEntity
  8
M0
 62
   154
100
AcDbCircle
 10
53.387046
 20
518.007567
 40
3.0
  0
LINE
  5
CB
100
AcDbEntity
  8
M0
  6
DASHDOT
 62
   154
100
AcDbLine
 10
46.387046
 20
518.007582
 11
60.387046
 21
518.007567
  0
LINE
  5
CC
100
AcDbEntity
  8
M0
  6
DASHDOT
 62
   154
100
AcDbLine
 10
53.387031
 20
511.007567
 11
53.387046
 21
525.007567
  0
LINE
  5
CD
100
AcDbEntity
  8
M0
  6
DASHDOT
 62
   154
100
AcDbLine
 10
224.387016
 20
518.00746
 11
252.387016
 21
518.007445
  0
LINE
  5
CE
100
AcDbEntity
  8
M0
  6
DASHDOT
 62
   154
100
AcDbLine
 10
238.387001
 20
504.00746
 11
238.387016
 21
532.00746
  0
LINE
  5
CF
100
AcDbEntity
  8
M0
 62
   154
100
AcDbLine
 10
45.887031
 20
508.007582
 11
48.387247
 21
508.007577
  0
LINE
  5
D0
100
AcDbEntity
  8
M0
 62
   154
100
AcDbLine
 10
48.387062
 20
423.007594
 11
45.886985
 21
423.007598
  0
LINE
  5
D1
100
AcDbEntity
  8
M0
 62
   154
100
AcDbLine
 10
225.88694
 20
414.009411
 11
225.88694
 21
405.507476
  0
LINE
  5
D2
100
AcDbEntity
  8
M0
 62
   154
100
AcDbLine
 10
65.886985
 20
411.508715
 11
65.886985
 21
405.507582
  0
LINE
  5
D3
100
AcDbEntity
  8
M0
  6
DASHDOT
 62
   154
100
AcDbLine
 10
231.38694
 20
413.007476
 11
245.38694
 21
413.00746
  0
LINE
  5
D4
100
AcDbEntity
  8
M0
  6
DASHDOT
 62
   154
100
AcDbLine
 10
238.38694
 20
406.007476
 11
238.386955
 21
420.007476
  0
ARC
  5
D5
100
AcDbEntity
  8
M0
 62
   154
100
AcDbCircle
 10
238.38694
 20
413.007476
 40
3.0
100
AcDbArc
 50
269.999709
 51
450.0
  0
LINE
  5
D6
100
AcDbEntity
  8
M0
  6
DASHDOT
 62
   154
100
AcDbLine
 10
228.88694
 20
413.007476
 11
242.88694
 21
413.007476
  0
LINE
  5
D7
100
AcDbEntity
  8
M0
  6
DASHDOT
 62
   154
100
AcDbLine
 10
235.88694
 20
406.007476
 11
235.886955
 21
420.007476
  0
LINE
  5
D8
100
AcDbEntity
  8
M0
 62
   154
100
AcDbLine
 10
235.88694
 20
416.007476
 11
238.38694
 21
416.007476
  0
LINE
  5
D9
100
AcDbEntity
  8
M0
 62
   154
100
AcDbLine
 10
235.88694
 20
410.007476
 11
238.38694
 21
410.007476
  0
ARC
  5
DA
100
AcDbEntity
  8
M0
 62
   154
100
AcDbCircle
 10
235.88694
 20
413.007476
 40
3.0
100
AcDbArc
 50
90.0
 51
269.999709
  0
LINE
  5
DB
100
AcDbEntity
  8
M0
  6
DASHDOT
 62
   154
100
AcDbLine
 10
60.386985
 20
413.007582
 11
46.386985
 21
413.007598
  0
LINE
  5
DC
100
AcDbEntity
  8
M0
  6
DASHDOT
 62
   154
100
AcDbLine
 10
53.386985
 20
406.007582
 11
53.387001
 21
420.007582
  0
ARC
  5
DD
100
AcDbEntity
  8
M0
 62
   154
100
AcDbCircle
 10
53.386985
 20
413.007582
 40
3.0
100
AcDbArc
 50
89.999709
 51
270.0
  0
LINE
  5
DE
100
AcDbEntity
  8
M0
  6
DASHDOT
 62
   154
100
AcDbLine
 10
62.886985
 20
413.007582
 11
48.886985
 21
413.007582
  0
LINE
  5
DF
100
AcDbEntity
  8
M0
  6
DASHDOT
 62
   154
100
AcDbLine
 10
55.886985
 20
406.007582
 11
55.887001
 21
420.007582
  0
LINE
  5
E0
100
AcDbEntity
  8
M0
 62
   154
100
AcDbLine
 10
55.886985
 20
416.007582
 11
53.386985
 21
416.007582
  0
LINE
  5
E1
100
AcDbEntity
  8
M0
 62
   154
100
AcDbLine
 10
55.886985
 20
410.007582
 11
53.386985
 21
410.007582
  0
ARC
  5
E2
100
AcDbEntity
  8
M0
 62
   154
100
AcDbCircle
 10
55.886985
 20
413.007582
 40
3.0
100
AcDbArc
 50
-90.0
 51
89.999709
  0
LINE
  5
E3
100
AcDbEntity
  8
M0
  6
DASHDOT
 62
   154
100
AcDbLine
 10
131.886971
 20
418.007537
 11
159.88697
 21
418.007521
  0
ARC
  5
E4
100
AcDbEntity
  8
M0
 62
   154
100
AcDbCircle
 10
145.886971
 20
418.007537
 40
10.0
100
AcDbArc
 50
0.0
 51
130.539191
  0
LINE
  5
E5
100
AcDbEntity
  8
M0
  6
DASHDOT
 62
   154
100
AcDbLine
 10
131.887031
 20
513.007521
 11
159.88703
 21
513.007506
  0
LINE
  5
E6
100
AcDbEntity
  8
M0
 62
   154
100
AcDbLine
 10
155.88703
 20
513.108212
 11
155.887038
 21
525.507506
  0
LINE
  5
E7
100
AcDbEntity
  8
M0
 62
   154
100
AcDbLine
 10
135.887031
 20
513.108326
 11
135.887039
 21
525.507521
  0
LINE
  5
E8
100
AcDbEntity
  8
M0
 62
   154
100
AcDbLine
 10
155.886963
 20
405.507521
 11
155.88697
 21
418.007521
  0
LINE
  5
E9
100
AcDbEntity
  8
M0
 62
   154
100
AcDbLine
 10
135.886964
 20
405.507537
 11
135.886971
 21
417.908326
  0
CIRCLE
  5
EA
100
AcDbEntity
  8
M0
 62
   154
100
AcDbCircle
 10
145.887031
 20
513.007506
 40
3.0
  0
CIRCLE
  5
EB
100
AcDbEntity
  8
M0
 62
   154
100
AcDbCircle
 10
56.887031
 20
498.007567
 40
2.0
  0
CIRCLE
  5
EC
100
AcDbEntity
  8
M0
 62
   154
100
AcDbCircle
 10
127.886985
 20
433.007537
 40
2.0
  0
LINE
  5
ED
100
AcDbEntity
  8
M0
 62
   154
100
AcDbLine
 10
62.387243
 20
525.507571
 11
45.887046
 21
525.507582
  0
LINE
  5
EE
100
AcDbEntity
  8
M0
 62
   154
100
AcDbLine
 10
169.387227
 20
525.507498
 11
122.387243
 21
525.50753
  0
ARC
  5
EF
100
AcDbEntity
  8
M0
 62
   154
100
AcDbCircle
 10
145.887031
 20
513.007506
 40
10.0
100
AcDbArc
 50
229.460359
 51
341.80881
  0
LINE
  5
F0
100
AcDbEntity
  8
M0
 62
   154
100
AcDbLine
 10
82.387274
 20
405.507573
 11
185.387258
 21
405.507502
  0
LINE
  5
F1
100
AcDbEntity
  8
M0
 62
   154
100
AcDbLine
 10
189.387258
 20
405.507499
 11
245.886955
 21
405.50746
  0
LINE
  5
F2
100
AcDbEntity
  8
M0
100
AcDbLine
 10
154.887016
 20
491.007277
 11
154.88697
 21
433.007277
  0
LINE
  5
F3
100
AcDbEntity
  8
M0
100
AcDbLine
 10
136.887016
 20
491.007521
 11
136.88697
 21
433.007521
  0
LINE
  5
F4
100
AcDbEntity
  8
M0
100
AcDbLine
 10
154.88697
 20
433.007277
 11
136.88697
 21
433.007521
  0
LINE
  5
F5
100
AcDbEntity
  8
M0
100
AcDbLine
 10
154.887016
 20
491.007277
 11
136.887016
 21
491.007521
  0
LINE
  5
F6
100
AcDbEntity
  8
M0
 62
   154
100
AcDbLine
 10
446.55967
 20
405.507521
 11
440.459671
 21
405.507537
  0
LINE
  5
F7
100
AcDbEntity
  8
M0
 62
   154
100
AcDbLine
 10
440.459747
 20
525.507506
 11
446.559745
 21
525.507506
  0
LINE
  5
F8
100
AcDbEntity
  8
M0
 62
   154
100
AcDbLine
 10
444.959671
 20
405.507521
 11
444.959681
 21
422.007521
  0
ARC
  5
F9
100
AcDbEntity
  8
M0
 62
   154
100
AcDbCircle
 10
443.959681
 20
422.007521
 40
1.0
100
AcDbArc
 50
0.0
 51
90.0
  0
ARC
  5
FA
100
AcDbEntity
  8
M0
 62
   154
100
AcDbCircle
 10
443.059683
 20
425.607528
 40
1.0
100
AcDbArc
 50
179.999126
 51
270.0
  0
ARC
  5
FB
100
AcDbEntity
  8
M0
 62
   154
100
AcDbCircle
 10
443.059733
 20
505.4075
 40
1.0
100
AcDbArc
 50
90.0
 51
180.0
  0
LINE
  5
FC
100
AcDbEntity
  8
M0
 62
   154
100
AcDbLine
 10
444.959736
 20
509.007506
 11
444.959746
 21
525.507506
  0
ARC
  5
FD
100
AcDbEntity
  8
M0
 62
   154
100
AcDbCircle
 10
443.959736
 20
509.007506
 40
1.0
100
AcDbArc
 50
-90.0
 51
0.0
  0
LINE
  5
FE
100
AcDbEntity
  8
M0
 62
   154
100
AcDbLine
 10
443.959734
 20
506.4075
 11
443.059733
 21
506.4075
  0
ARC
  5
FF
100
AcDbEntity
  8
M0
 62
   154
100
AcDbCircle
 10
443.959736
 20
509.007506
 40
2.599999
100
AcDbArc
 50
-90.0
 51
0.0
  0
LINE
  5
100
100
AcDbEntity
  8
M0
 62
   154
100
AcDbLine
 10
443.059734
 20
508.007506
 11
443.959735
 21
508.007506
  0
ARC
  5
101
100
AcDbEntity
  8
M0
 62
   154
100
AcDbCircle
 10
443.059733
 20
505.4075
 40
2.599999
100
AcDbArc
 50
90.0
 51
180.0
  0
LINE
  5
102
100
AcDbEntity
  8
M0
 62
   154
100
AcDbLine
 10
443.059682
 20
423.007521
 11
443.959682
 21
423.007521
  0
ARC
  5
103
100
AcDbEntity
  8
M0
 62
   154
100
AcDbCircle
 10
443.059683
 20
425.607528
 40
2.599999
100
AcDbArc
 50
179.999664
 51
270.0
  0
LINE
  5
104
100
AcDbEntity
  8
M0
 62
   154
100
AcDbLine
 10
443.059683
 20
424.607528
 11
443.959683
 21
424.607528
  0
ARC
  5
105
100
AcDbEntity
  8
M0
 62
   154
100
AcDbCircle
 10
443.959681
 20
422.007521
 40
2.599999
100
AcDbArc
 50
0.0
 51
90.0
  0
LINE
  5
106
100
AcDbEntity
  8
M0
 62
   154
100
AcDbLine
 10
446.559683
 20
426.379836
 11
446.559683
 21
427.007521
  0
ARC
  5
107
100
AcDbEntity
  8
M0
 62
   154
100
AcDbCircle
 10
443.959684
 20
427.007521
 40
2.599999
100
AcDbArc
 50
0.0
 51
90.0
  0
LINE
  5
108
100
AcDbEntity
  8
M0
 62
   154
100
AcDbLine
 10
443.959686
 20
429.607528
 11
443.059685
 21
429.607528
  0
ARC
  5
109
100
AcDbEntity
  8
M0
 62
   154
100
AcDbCircle
 10
443.059686
 20
430.607528
 40
1.0
100
AcDbArc
 50
179.999126
 51
270.0
  0
ARC
  5
10A
100
AcDbEntity
  8
M0
 62
   154
100
AcDbCircle
 10
443.059729
 20
500.4075
 40
1.0
100
AcDbArc
 50
90.0
 51
180.0
  0
ARC
  5
10B
100
AcDbEntity
  8
M0
 62
   154
100
AcDbCircle
 10
443.959733
 20
504.007506
 40
2.599999
100
AcDbArc
 50
270.0
 51
360.0
  0
LINE
  5
10C
100
AcDbEntity
  8
M0
 62
   154
100
AcDbLine
 10
443.959731
 20
501.4075
 11
443.05973
 21
501.4075
  0
LINE
  5
10D
100
AcDbEntity
  8
M0
 62
   154
100
AcDbLine
 10
446.559683
 20
427.007521
 11
446.55967
 21
405.507521
  0
LINE
  5
10E
100
AcDbEntity
  8
M0
 62
   154
100
AcDbLine
 10
446.559745
 20
525.507506
 11
446.559732
 21
504.007491
  0
LINE
  5
10F
100
AcDbEntity
  8
M0
 62
   154
100
AcDbLine
 10
442.059683
 20
425.607528
 11
442.059733
 21
505.4075
  0
ARC
  5
110
100
AcDbEntity
  8
M0
 62
   154
100
AcDbCircle
 10
443.059703
 20
457.907521
 40
1.0
100
AcDbArc
 50
90.0
 51
179.999945
  0
ARC
  5
111
100
AcDbEntity
  8
M0
 62
   154
100
AcDbCircle
 10
443.059713
 20
473.107519
 40
1.0
100
AcDbArc
 50
180.0
 51
270.0
  0
LINE
  5
112
100
AcDbEntity
  8
M0
 62
   154
100
AcDbLine
 10
440.459671
 20
405.507537
 11
440.459747
 21
525.507506
  0
ARC
  5
113
100
AcDbEntity
  8
M0
  6
DASHED
 62
   154
100
AcDbCircle
 10
443.059703
 20
457.907521
 40
2.599999
100
AcDbArc
 50
90.0
 51
179.999958
  0
ARC
  5
114
100
AcDbEntity
  8
M0
  6
DASHED
 62
   154
100
AcDbCircle
 10
443.059713
 20
473.107519
 40
2.599999
100
AcDbArc
 50
179.999979
 51
270.0
  0
ARC
  5
115
100
AcDbEntity
  8
M0
  6
DASHED
 62
   154
100
AcDbCircle
 10
442.959711
 20
469.507519
 40
1.0
100
AcDbArc
 50
0.0
 51
90.0
  0
LINE
  5
116
100
AcDbEntity
  8
M0
  6
DASHED
 62
   154
100
AcDbLine
 10
443.959706
 20
461.50752
 11
443.959711
 21
469.507518
  0
ARC
  5
117
100
AcDbEntity
  8
M0
  6
DASHED
 62
   154
100
AcDbCircle
 10
442.959706
 20
461.507521
 40
1.0
100
AcDbArc
 50
-90.0
 51
0.0
  0
ARC
  5
118
100
AcDbEntity
  8
M0
 62
   154
100
AcDbCircle
 10
442.959706
 20
461.507521
 40
2.599999
100
AcDbArc
 50
-90.0
 51
0.0
  0
LINE
  5
119
100
AcDbEntity
  8
M0
 62
   154
100
AcDbLine
 10
445.55971
 20
469.507518
 11
445.559705
 21
461.507519
  0
ARC
  5
11A
100
AcDbEntity
  8
M0
 62
   154
100
AcDbCircle
 10
442.959711
 20
469.507519
 40
2.599999
100
AcDbArc
 50
0.0
 51
90.0
  0
LINE
  5
11B
100
AcDbEntity
  8
M0
 62
   154
100
AcDbLine
 10
443.059686
 20
431.007521
 11
443.059688
 21
435.007521
  0
LINE
  5
11C
100
AcDbEntity
  8
M0
 62
   154
100
AcDbLine
 10
442.059686
 20
431.007521
 11
443.059686
 21
431.007521
  0
LINE
  5
11D
100
AcDbEntity
  8
M0
 62
   154
100
AcDbLine
 10
442.059688
 20
435.007521
 11
443.059688
 21
435.007521
  0
LINE
  5
11E
100
AcDbEntity
  8
M0
 62
   154
100
AcDbLine
 10
442.059729
 20
500.007506
 11
443.059729
 21
500.007506
  0
LINE
  5
11F
100
AcDbEntity
  8
M0
 62
   154
100
AcDbLine
 10
443.059729
 20
500.007506
 11
443.059727
 21
496.007506
  0
LINE
  5
120
100
AcDbEntity
  8
M0
 62
   154
100
AcDbLine
 10
442.059727
 20
496.007506
 11
443.059727
 21
496.007506
  0
LINE
  5
121
100
AcDbEntity
  8
M0
100
AcDbLine
 10
48.387246
 20
513.108272
 11
48.387252
 21
491.507567
  0
LINE
  5
122
100
AcDbEntity
  8
M0
100
AcDbLine
 10
82.387273
 20
409.008658
 11
82.387275
 21
402.008658
  0
LINE
  5
123
100
AcDbEntity
  8
M0
100
AcDbLine
 10
78.387272
 20
414.008055
 11
78.387275
 21
402.008634
  0
LINE
  5
124
100
AcDbEntity
  8
M0
100
AcDbLine
 10
62.387242
 20
529.007811
 11
62.387247
 21
510.006787
  0
LINE
  5
125
100
AcDbEntity
  8
M0
100
AcDbLine
 10
82.387275
 20
402.008658
 11
78.387275
 21
402.008634
  0
LINE
  5
126
100
AcDbEntity
  8
M0
100
AcDbLine
 10
139.387291
 20
513.108329
 11
139.387291
 21
491.007487
  0
LINE
  5
127
100
AcDbEntity
  8
M0
100
AcDbLine
 10
122.387242
 20
529.007811
 11
122.387246
 21
513.108318
  0
LINE
  5
128
100
AcDbEntity
  8
M0
  6
DASHDOT
 62
     6
100
AcDbLine
 10
122.887245
 20
462.0083
 11
139.71035
 21
462.0083
  0
LINE
  5
129
100
AcDbEntity
  8
M0
  6
DASHDOT
 62
     6
100
AcDbLine
 10
42.938362
 20
462.0083
 11
92.38726
 21
462.0083
  0
LINE
  5
12A
100
AcDbEntity
  8
M0
  6
DASHDOT
 62
     6
100
AcDbLine
 10
141.836158
 20
462.00833
 11
92.38726
 21
462.0083
  0
LINE
  5
12B
100
AcDbEntity
  8
M0
 62
     6
100
AcDbLine
 10
92.388114
 20
510.006346
 11
84.137519
 21
510.006346
  0
LINE
  5
12C
100
AcDbEntity
  8
M0
 62
     6
100
AcDbLine
 10
81.13752
 20
515.007567
 11
83.637519
 21
515.007567
  0
LINE
  5
12D
100
AcDbEntity
  8
M0
 62
     6
100
AcDbLine
 10
80.63752
 20
510.006346
 11
60.38752
 21
510.006835
  0
LINE
  5
12E
100
AcDbEntity
  8
M0
 62
     6
100
AcDbLine
 10
122.887169
 20
510.006591
 11
124.387504
 21
510.006591
  0
LINE
  5
12F
100
AcDbEntity
  8
M0
 62
     5
100
AcDbLine
 10
60.337227
 20
507.222655
 11
52.687568
 21
501.963378
  0
ARC
  5
130
100
AcDbEntity
  8
M0
 62
     5
100
AcDbCircle
 10
54.387275
 20
499.49121
 40
3.0
100
AcDbArc
 50
124.509994
 51
180.0
  0
ARC
  5
131
100
AcDbEntity
  8
M0
 62
     5
100
AcDbCircle
 10
135.88726
 20
499.507323
 40
0.5
100
AcDbArc
 50
0.0
 51
90.0
  0
LINE
  5
132
100
AcDbEntity
  8
M0
 62
     5
100
AcDbLine
 10
132.38726
 20
500.007567
 11
135.88726
 21
500.007567
  0
LINE
  5
133
100
AcDbEntity
  8
M0
 62
     5
100
AcDbLine
 10
124.387504
 20
498.507567
 11
132.38726
 21
498.507567
  0
LINE
  5
134
100
AcDbEntity
  8
M0
 62
     6
100
AcDbLine
 10
84.137519
 20
514.507567
 11
84.137519
 21
494.507567
  0
LINE
  5
135
100
AcDbEntity
  8
M0
 62
     6
100
AcDbLine
 10
48.88752
 20
491.507567
 11
50.38752
 21
491.507567
  0
ARC
  5
136
100
AcDbEntity
  8
M0
 62
     6
100
AcDbCircle
 10
50.38752
 20
491.007567
 40
0.5
100
AcDbArc
 50
0.0
 51
89.998251
  0
ARC
  5
137
100
AcDbEntity
  8
M0
 62
     6
100
AcDbCircle
 10
48.88752
 20
491.007567
 40
0.5
100
AcDbArc
 50
89.998251
 51
180.0
  0
LINE
  5
138
100
AcDbEntity
  8
M0
 62
     6
100
AcDbLine
 10
64.13752
 20
510.007567
 11
64.13752
 21
494.507079
  0
LINE
  5
139
100
AcDbEntity
  8
M0
 62
     6
100
AcDbLine
 10
80.63752
 20
514.507567
 11
80.63752
 21
494.507079
  0
LINE
  5
13A
100
AcDbEntity
  8
M0
 62
     6
100
AcDbLine
 10
84.137519
 20
514.507567
 11
84.137519
 21
494.507079
  0
LINE
  5
13B
100
AcDbEntity
  8
M0
 62
     6
100
AcDbLine
 10
135.887504
 20
491.507323
 11
134.387504
 21
491.507323
  0
ARC
  5
13C
100
AcDbEntity
  8
M0
 62
     6
100
AcDbCircle
 10
134.387504
 20
491.007323
 40
0.5
100
AcDbArc
 50
90.0
 51
180.0
  0
ARC
  5
13D
100
AcDbEntity
  8
M0
 62
     6
100
AcDbCircle
 10
135.887504
 20
491.007323
 40
0.5
100
AcDbArc
 50
0.0
 51
90.0
  0
LINE
  5
13E
100
AcDbEntity
  8
M0
 62
     7
100
AcDbLine
 10
86.887519
 20
496.007323
 11
84.887519
 21
496.007323
  0
ARC
  5
13F
100
AcDbEntity
  8
M0
 62
     7
100
AcDbCircle
 10
84.887519
 20
495.507323
 40
0.5
100
AcDbArc
 50
90.0
 51
180.0
  0
LINE
  5
140
100
AcDbEntity
  8
M0
 62
     7
100
AcDbLine
 10
92.388114
 20
494.507079
 11
60.88752
 21
494.507323
  0
ARC
  5
141
100
AcDbEntity
  8
M0
 62
     7
100
AcDbCircle
 10
60.88752
 20
494.007323
 40
0.5
100
AcDbArc
 50
89.998251
 51
180.0
  0
ARC
  5
142
100
AcDbEntity
  8
M0
 62
     7
100
AcDbCircle
 10
123.887504
 20
494.007323
 40
0.5
100
AcDbArc
 50
0.0
 51
90.0
  0
LINE
  5
143
100
AcDbEntity
  8
M0
 62
     7
100
AcDbLine
 10
87.387519
 20
495.507323
 11
87.387519
 21
494.507323
  0
LINE
  5
144
100
AcDbEntity
  8
M0
 62
     7
100
AcDbLine
 10
84.387519
 20
495.507323
 11
84.387519
 21
494.507323
  0
ARC
  5
145
100
AcDbEntity
  8
M0
 62
     7
100
AcDbCircle
 10
86.887519
 20
495.507323
 40
0.5
100
AcDbArc
 50
0.0
 51
90.0
  0
LINE
  5
146
100
AcDbEntity
  8
M0
 62
     5
100
AcDbLine
 10
51.387275
 20
489.507579
 11
51.387275
 21
499.49121
  0
LINE
  5
147
100
AcDbEntity
  8
M0
 62
     5
100
AcDbLine
 10
50.887275
 20
489.507579
 11
51.387275
 21
489.507579
  0
LINE
  5
148
100
AcDbEntity
  8
M0
 62
     5
100
AcDbLine
 10
124.387504
 20
489.007579
 11
132.38726
 21
489.007579
  0
LINE
  5
149
100
AcDbEntity
  8
M0
  6
DASHDOT
100
AcDbLine
 10
52.759605
 20
494.507567
 11
70.387031
 21
494.507567
  0
LINE
  5
14A
100
AcDbEntity
  8
M0
 62
     7
100
AcDbLine
 10
88.387519
 20
474.007488
 11
89.887519
 21
474.007488
  0
LINE
  5
14B
100
AcDbEntity
  8
M0
100
AcDbLine
 10
130.709037
 20
474.407237
 11
131.977348
 21
474.407237
  0
LINE
  5
14C
100
AcDbEntity
  8
M0
100
AcDbLine
 10
126.065727
 20
474.407237
 11
124.797416
 21
474.407237
  0
LINE
  5
14D
100
AcDbEntity
  8
M0
 62
     6
100
AcDbLine
 10
59.587471
 20
477.507579
 11
59.587471
 21
476.507579
  0
LINE
  5
14E
100
AcDbEntity
  8
M0
 62
     6
100
AcDbLine
 10
53.187324
 20
477.507579
 11
53.187324
 21
476.507579
  0
LINE
  5
14F
100
AcDbEntity
  8
M0
 62
     6
100
AcDbLine
 10
52.88752
 20
479.507334
 11
52.88752
 21
478.007579
  0
LINE
  5
150
100
AcDbEntity
  8
M0
 62
     6
100
AcDbLine
 10
59.88752
 20
479.507579
 11
59.88752
 21
478.007579
  0
ARC
  5
151
100
AcDbEntity
  8
M0
 62
     6
100
AcDbCircle
 10
52.687324
 20
477.507579
 40
0.5
100
AcDbArc
 50
0.0
 51
89.998251
  0
LINE
  5
152
100
AcDbEntity
  8
M0
 62
     6
100
AcDbLine
 10
52.38752
 20
476.507579
 11
53.448311
 21
476.507579
  0
LINE
  5
153
100
AcDbEntity
  8
M0
 62
     6
100
AcDbLine
 10
52.38752
 20
478.007579
 11
52.687324
 21
478.007579
  0
LINE
  5
154
100
AcDbEntity
  8
M0
 62
     6
100
AcDbLine
 10
60.087471
 20
478.007579
 11
60.38752
 21
478.007579
  0
ARC
  5
155
100
AcDbEntity
  8
M0
 62
     6
100
AcDbCircle
 10
60.087471
 20
477.507579
 40
0.5
100
AcDbArc
 50
89.998251
 51
180.0
  0
LINE
  5
156
100
AcDbEntity
  8
M0
 62
     6
100
AcDbLine
 10
125.187309
 20
477.507334
 11
125.187309
 21
476.507334
  0
LINE
  5
157
100
AcDbEntity
  8
M0
 62
     6
100
AcDbLine
 10
131.587455
 20
477.507334
 11
131.587455
 21
476.507334
  0
LINE
  5
158
100
AcDbEntity
  8
M0
 62
     6
100
AcDbLine
 10
131.887504
 20
479.50709
 11
131.887504
 21
478.007334
  0
LINE
  5
159
100
AcDbEntity
  8
M0
 62
     6
100
AcDbLine
 10
124.887504
 20
479.507334
 11
124.887504
 21
478.007334
  0
ARC
  5
15A
100
AcDbEntity
  8
M0
 62
     6
100
AcDbCircle
 10
132.087455
 20
477.507334
 40
0.5
100
AcDbArc
 50
90.0
 51
180.0
  0
LINE
  5
15B
100
AcDbEntity
  8
M0
 62
     6
100
AcDbLine
 10
132.387504
 20
476.507334
 11
131.326469
 21
476.507334
  0
LINE
  5
15C
100
AcDbEntity
  8
M0
 62
     6
100
AcDbLine
 10
132.387504
 20
478.007334
 11
132.087455
 21
478.007334
  0
LINE
  5
15D
100
AcDbEntity
  8
M0
 62
     6
100
AcDbLine
 10
124.687309
 20
478.007334
 11
124.387504
 21
478.007334
  0
ARC
  5
15E
100
AcDbEntity
  8
M0
 62
     6
100
AcDbCircle
 10
124.687309
 20
477.507334
 40
0.5
100
AcDbArc
 50
0.0
 51
90.0
  0
LINE
  5
15F
100
AcDbEntity
  8
M0
 62
     6
100
AcDbLine
 10
59.326484
 20
476.507579
 11
60.38752
 21
476.507579
  0
LINE
  5
160
100
AcDbEntity
  8
M0
 62
     6
100
AcDbLine
 10
125.448295
 20
476.507334
 11
124.387504
 21
476.507334
  0
LINE
  5
161
100
AcDbEntity
  8
M0
 62
     6
100
AcDbLine
 10
125.187309
 20
477.007334
 11
131.587455
 21
477.007334
  0
LINE
  5
162
100
AcDbEntity
  8
M0
 62
     6
100
AcDbLine
 10
53.187324
 20
477.007579
 11
59.587471
 21
477.007579
  0
LINE
  5
163
100
AcDbEntity
  8
M0
 62
     7
100
AcDbLine
 10
92.387259
 20
478.007319
 11
90.887519
 21
478.007334
  0
LINE
  5
164
100
AcDbEntity
  8
M0
 62
     7
100
AcDbLine
 10
89.887519
 20
477.007334
 11
89.887519
 21
474.007488
  0
LINE
  5
165
100
AcDbEntity
  8
M0
 62
     7
100
AcDbLine
 10
88.387519
 20
474.707286
 11
89.887519
 21
474.707286
  0
ARC
  5
166
100
AcDbEntity
  8
M0
 62
     7
100
AcDbCircle
 10
90.887519
 20
477.007334
 40
1.0
100
AcDbArc
 50
90.0
 51
180.0
  0
LINE
  5
167
100
AcDbEntity
  8
M0
100
AcDbLine
 10
53.428535
 20
476.454844
 11
52.612373
 21
473.807781
  0
LINE
  5
168
100
AcDbEntity
  8
M0
100
AcDbLine
 10
59.346016
 20
476.454844
 11
60.162422
 21
473.807781
  0
LINE
  5
169
100
AcDbEntity
  8
M0
100
AcDbLine
 10
57.787422
 20
475.607433
 11
59.60749
 21
475.607433
  0
LINE
  5
16A
100
AcDbEntity
  8
M0
100
AcDbLine
 10
58.709053
 20
474.407482
 11
59.977363
 21
474.407482
  0
LINE
  5
16B
100
AcDbEntity
  8
M0
100
AcDbLine
 10
54.987373
 20
475.607433
 11
53.167305
 21
475.607433
  0
LINE
  5
16C
100
AcDbEntity
  8
M0
100
AcDbLine
 10
54.065742
 20
474.407482
 11
52.797432
 21
474.407482
  0
LINE
  5
16D
100
AcDbEntity
  8
M0
100
AcDbLine
 10
58.868232
 20
476.807627
 11
53.906562
 21
476.807383
  0
LINE
  5
16E
100
AcDbEntity
  8
M0
100
AcDbLine
 10
57.787422
 20
475.160899
 11
57.787422
 21
475.607433
  0
LINE
  5
16F
100
AcDbEntity
  8
M0
100
AcDbLine
 10
54.987373
 20
475.160899
 11
54.987373
 21
475.607433
  0
ARC
  5
170
100
AcDbEntity
  8
M0
100
AcDbCircle
 10
53.906562
 20
476.307383
 40
0.5
100
AcDbArc
 50
89.998251
 51
162.856158
  0
ARC
  5
171
100
AcDbEntity
  8
M0
100
AcDbCircle
 10
58.868232
 20
476.307383
 40
0.5
100
AcDbArc
 50
17.151876
 51
89.998251
  0
LINE
  5
172
100
AcDbEntity
  8
M0
100
AcDbLine
 10
57.787422
 20
478.907481
 11
59.60749
 21
478.907481
  0
LINE
  5
173
100
AcDbEntity
  8
M0
100
AcDbLine
 10
54.987373
 20
478.907481
 11
53.167305
 21
478.907481
  0
LINE
  5
174
100
AcDbEntity
  8
M0
100
AcDbLine
 10
53.906562
 20
477.70753
 11
58.868232
 21
477.70753
  0
LINE
  5
175
100
AcDbEntity
  8
M0
100
AcDbLine
 10
57.787422
 20
478.907481
 11
57.787422
 21
479.354258
  0
LINE
  5
176
100
AcDbEntity
  8
M0
100
AcDbLine
 10
54.987373
 20
478.907481
 11
54.987373
 21
479.354258
  0
ARC
  5
177
100
AcDbEntity
  8
M0
100
AcDbCircle
 10
53.906562
 20
478.20753
 40
0.5
100
AcDbArc
 50
197.117449
 51
270.0
  0
ARC
  5
178
100
AcDbEntity
  8
M0
100
AcDbCircle
 10
58.868232
 20
478.20753
 40
0.5
100
AcDbArc
 50
270.0
 51
342.875032
  0
LINE
  5
179
100
AcDbEntity
  8
M0
100
AcDbLine
 10
129.787407
 20
478.907237
 11
131.607475
 21
478.907237
  0
LINE
  5
17A
100
AcDbEntity
  8
M0
100
AcDbLine
 10
126.987358
 20
478.907237
 11
125.167289
 21
478.907237
  0
LINE
  5
17B
100
AcDbEntity
  8
M0
100
AcDbLine
 10
125.906547
 20
477.707286
 11
130.868217
 21
477.707286
  0
LINE
  5
17C
100
AcDbEntity
  8
M0
100
AcDbLine
 10
129.787407
 20
478.907237
 11
129.787407
 21
479.354014
  0
LINE
  5
17D
100
AcDbEntity
  8
M0
100
AcDbLine
 10
126.987358
 20
478.907237
 11
126.987358
 21
479.354014
  0
ARC
  5
17E
100
AcDbEntity
  8
M0
100
AcDbCircle
 10
125.906547
 20
478.207286
 40
0.5
100
AcDbArc
 50
197.116934
 51
269.998251
  0
ARC
  5
17F
100
AcDbEntity
  8
M0
100
AcDbCircle
 10
130.868217
 20
478.207286
 40
0.5
100
AcDbArc
 50
269.998251
 51
342.874517
  0
LINE
  5
180
100
AcDbEntity
  8
M0
100
AcDbLine
 10
125.42852
 20
476.4546
 11
124.612358
 21
473.807537
  0
LINE
  5
181
100
AcDbEntity
  8
M0
100
AcDbLine
 10
131.346
 20
476.4546
 11
132.162407
 21
473.807537
  0
LINE
  5
182
100
AcDbEntity
  8
M0
100
AcDbLine
 10
129.787407
 20
475.607189
 11
131.607475
 21
475.607189
  0
LINE
  5
183
100
AcDbEntity
  8
M0
100
AcDbLine
 10
126.987358
 20
475.607189
 11
125.167289
 21
475.607189
  0
LINE
  5
184
100
AcDbEntity
  8
M0
100
AcDbLine
 10
130.868217
 20
476.807383
 11
125.906547
 21
476.807139
  0
LINE
  5
185
100
AcDbEntity
  8
M0
100
AcDbLine
 10
129.787407
 20
475.160655
 11
129.787407
 21
475.607189
  0
LINE
  5
186
100
AcDbEntity
  8
M0
100
AcDbLine
 10
126.987358
 20
475.160655
 11
126.987358
 21
475.607189
  0
ARC
  5
187
100
AcDbEntity
  8
M0
100
AcDbCircle
 10
125.906547
 20
476.307139
 40
0.5
100
AcDbArc
 50
90.0
 51
162.856673
  0
ARC
  5
188
100
AcDbEntity
  8
M0
100
AcDbCircle
 10
130.868217
 20
476.307139
 40
0.5
100
AcDbArc
 50
17.152392
 51
90.0
  0
LINE
  5
189
100
AcDbEntity
  8
M0
  6
DASHDOT
 62
     6
100
AcDbLine
 10
50.317482
 20
472.507732
 11
63.170219
 21
472.507732
  0
LINE
  5
18A
100
AcDbEntity
  8
M0
 62
     6
100
AcDbLine
 10
54.129219
 20
467.707714
 11
58.645576
 21
467.707714
  0
LINE
  5
18B
100
AcDbEntity
  8
M0
 62
     6
100
AcDbLine
 10
53.172187
 20
468.417675
 11
52.38752
 21
471.007732
  0
LINE
  5
18C
100
AcDbEntity
  8
M0
 62
     6
100
AcDbLine
 10
59.602607
 20
468.417675
 11
60.38752
 21
471.007732
  0
ARC
  5
18D
100
AcDbEntity
  8
M0
 62
     6
100
AcDbCircle
 10
54.129219
 20
468.707714
 40
1.0
100
AcDbArc
 50
196.859961
 51
270.0
  0
ARC
  5
18E
100
AcDbEntity
  8
M0
 62
     6
100
AcDbCircle
 10
58.645576
 20
468.707714
 40
1.0
100
AcDbArc
 50
270.0
 51
343.14024
  0
LINE
  5
18F
100
AcDbEntity
  8
M0
  6
DASHDOT
 62
     6
100
AcDbLine
 10
134.231926
 20
472.507488
 11
122.88723
 21
472.507488
  0
LINE
  5
190
100
AcDbEntity
  8
M0
 62
     6
100
AcDbLine
 10
130.645561
 20
467.70747
 11
126.129203
 21
467.70747
  0
LINE
  5
191
100
AcDbEntity
  8
M0
 62
     6
100
AcDbLine
 10
131.602592
 20
468.417431
 11
132.387504
 21
471.007488
  0
LINE
  5
192
100
AcDbEntity
  8
M0
 62
     6
100
AcDbLine
 10
125.172172
 20
468.417431
 11
124.387504
 21
471.007488
  0
ARC
  5
193
100
AcDbEntity
  8
M0
 62
     6
100
AcDbCircle
 10
130.645561
 20
468.70747
 40
1.0
100
AcDbArc
 50
269.999126
 51
343.139986
  0
ARC
  5
194
100
AcDbEntity
  8
M0
 62
     6
100
AcDbCircle
 10
126.129203
 20
468.70747
 40
1.0
100
AcDbArc
 50
196.859708
 51
269.999126
  0
LINE
  5
195
100
AcDbEntity
  8
M0
 62
     7
100
AcDbLine
 10
53.38752
 20
467.707531
 11
59.88752
 21
467.707531
  0
LINE
  5
196
100
AcDbEntity
  8
M0
 62
     7
100
AcDbLine
 10
124.887504
 20
467.707531
 11
131.387504
 21
467.707531
  0
ARC
  5
197
100
AcDbEntity
  8
M0
 62
     7
100
AcDbCircle
 10
59.88752
 20
468.207531
 40
0.5
100
AcDbArc
 50
270.0
 51
360.0
  0
ARC
  5
198
100
AcDbEntity
  8
M0
 62
     7
100
AcDbCircle
 10
131.387504
 20
467.207531
 40
0.5
100
AcDbArc
 50
0.0
 51
90.0
  0
ARC
  5
199
100
AcDbEntity
  8
M0
 62
     7
100
AcDbCircle
 10
53.38752
 20
467.207531
 40
0.5
100
AcDbArc
 50
89.998251
 51
179.999891
  0
ARC
  5
19A
100
AcDbEntity
  8
M0
 62
     7
100
AcDbCircle
 10
124.887504
 20
468.207531
 40
0.5
100
AcDbArc
 50
179.999891
 51
269.998251
  0
LINE
  5
19B
100
AcDbEntity
  8
M0
 62
     7
100
AcDbLine
 10
84.087471
 20
472.307293
 11
88.387519
 21
472.307293
  0
ARC
  5
19C
100
AcDbEntity
  8
M0
 62
     7
100
AcDbCircle
 10
84.087471
 20
469.307293
 40
3.0
100
AcDbArc
 50
90.0
 51
179.999964
  0
LINE
  5
19D
100
AcDbEntity
  8
M0
100
AcDbLine
 10
53.428535
 20
468.560482
 11
52.612373
 21
471.207683
  0
LINE
  5
19E
100
AcDbEntity
  8
M0
100
AcDbLine
 10
59.346016
 20
468.560467
 11
60.162422
 21
471.207683
  0
LINE
  5
19F
100
AcDbEntity
  8
M0
100
AcDbLine
 10
58.709053
 20
470.607586
 11
59.977363
 21
470.607586
  0
LINE
  5
1A0
100
AcDbEntity
  8
M0
100
AcDbLine
 10
57.787422
 20
469.407635
 11
59.60749
 21
469.407635
  0
LINE
  5
1A1
100
AcDbEntity
  8
M0
100
AcDbLine
 10
54.065742
 20
470.607586
 11
52.797432
 21
470.607586
  0
LINE
  5
1A2
100
AcDbEntity
  8
M0
100
AcDbLine
 10
54.987373
 20
469.407635
 11
53.167305
 21
469.407635
  0
LINE
  5
1A3
100
AcDbEntity
  8
M0
100
AcDbLine
 10
53.906562
 20
468.207805
 11
58.868232
 21
468.207805
  0
LINE
  5
1A4
100
AcDbEntity
  8
M0
100
AcDbLine
 10
60.162422
 20
471.207683
 11
60.162422
 21
473.807781
  0
LINE
  5
1A5
100
AcDbEntity
  8
M0
100
AcDbLine
 10
52.612373
 20
473.807781
 11
52.612373
 21
471.207683
  0
LINE
  5
1A6
100
AcDbEntity
  8
M0
100
AcDbLine
 10
57.787422
 20
469.407635
 11
57.787422
 21
469.854412
  0
LINE
  5
1A7
100
AcDbEntity
  8
M0
100
AcDbLine
 10
54.987373
 20
469.407635
 11
54.987373
 21
469.854412
  0
LINE
  5
1A8
100
AcDbEntity
  8
M0
100
AcDbLine
 10
57.978096
 20
470.916912
 11
54.796455
 21
474.098552
  0
LINE
  5
1A9
100
AcDbEntity
  8
M0
100
AcDbLine
 10
56.740791
 20
473.921794
 11
54.973213
 21
472.154217
  0
LINE
  5
1AA
100
AcDbEntity
  8
M0
100
AcDbLine
 10
57.801338
 20
472.861248
 11
56.03376
 21
471.09367
  0
ARC
  5
1AB
100
AcDbEntity
  8
M0
100
AcDbCircle
 10
53.906562
 20
468.707805
 40
0.5
100
AcDbArc
 50
197.129027
 51
270.0
  0
ARC
  5
1AC
100
AcDbEntity
  8
M0
100
AcDbCircle
 10
58.868232
 20
468.707805
 40
0.5
100
AcDbArc
 50
270.0
 51
342.861372
  0
LINE
  5
1AD
100
AcDbEntity
  8
M0
100
AcDbLine
 10
125.42852
 20
468.560238
 11
124.612358
 21
471.207439
  0
LINE
  5
1AE
100
AcDbEntity
  8
M0
100
AcDbLine
 10
131.346
 20
468.560222
 11
132.162407
 21
471.207439
  0
LINE
  5
1AF
100
AcDbEntity
  8
M0
100
AcDbLine
 10
130.709037
 20
470.607342
 11
131.977348
 21
470.607342
  0
LINE
  5
1B0
100
AcDbEntity
  8
M0
100
AcDbLine
 10
129.787407
 20
469.40739
 11
131.607475
 21
469.40739
  0
LINE
  5
1B1
100
AcDbEntity
  8
M0
100
AcDbLine
 10
126.065727
 20
470.607342
 11
124.797416
 21
470.607342
  0
LINE
  5
1B2
100
AcDbEntity
  8
M0
100
AcDbLine
 10
126.987358
 20
469.40739
 11
125.167289
 21
469.40739
  0
LINE
  5
1B3
100
AcDbEntity
  8
M0
100
AcDbLine
 10
125.906547
 20
468.207561
 11
130.868217
 21
468.207561
  0
LINE
  5
1B4
100
AcDbEntity
  8
M0
100
AcDbLine
 10
132.162407
 20
471.207439
 11
132.162407
 21
473.807537
  0
LINE
  5
1B5
100
AcDbEntity
  8
M0
100
AcDbLine
 10
124.612358
 20
473.807537
 11
124.612358
 21
471.207439
  0
LINE
  5
1B6
100
AcDbEntity
  8
M0
100
AcDbLine
 10
129.787407
 20
469.40739
 11
129.787407
 21
469.854168
  0
LINE
  5
1B7
100
AcDbEntity
  8
M0
100
AcDbLine
 10
126.987358
 20
469.40739
 11
126.987358
 21
469.854168
  0
LINE
  5
1B8
100
AcDbEntity
  8
M0
100
AcDbLine
 10
129.97808
 20
470.916668
 11
126.79644
 21
474.098308
  0
LINE
  5
1B9
100
AcDbEntity
  8
M0
100
AcDbLine
 10
128.740776
 20
473.92155
 11
126.973198
 21
472.153972
  0
LINE
  5
1BA
100
AcDbEntity
  8
M0
100
AcDbLine
 10
129.801323
 20
472.861004
 11
128.033744
 21
471.093426
  0
ARC
  5
1BB
100
AcDbEntity
  8
M0
100
AcDbCircle
 10
125.906547
 20
468.707561
 40
0.5
100
AcDbArc
 50
197.128512
 51
269.998251
  0
ARC
  5
1BC
100
AcDbEntity
  8
M0
100
AcDbCircle
 10
130.868217
 20
468.707561
 40
0.5
100
AcDbArc
 50
269.998251
 51
342.860857
  0
LINE
  5
1BD
100
AcDbEntity
  8
M0
100
AcDbLine
 10
89.387519
 20
466.657436
 11
92.387259
 21
466.657436
  0
LINE
  5
1BE
100
AcDbEntity
  8
M0
 62
     7
100
AcDbLine
 10
88.387519
 20
474.707286
 11
88.387519
 21
472.307293
  0
CIRCLE
  5
1BF
100
AcDbEntity
  8
M0
100
AcDbCircle
 10
56.38752
 20
472.507732
 40
3.0
  0
CIRCLE
  5
1C0
100
AcDbEntity
  8
M0
100
AcDbCircle
 10
128.387504
 20
472.507488
 40
3.0
  0
LINE
  5
1C1
100
AcDbEntity
  8
M0
 62
     6
100
AcDbLine
 10
52.38752
 20
487.507579
 11
60.38752
 21
487.507579
  0
LINE
  5
1C2
100
AcDbEntity
  8
M0
 62
     6
100
AcDbLine
 10
52.38752
 20
486.007579
 11
53.448311
 21
486.007579
  0
LINE
  5
1C3
100
AcDbEntity
  8
M0
 62
     6
100
AcDbLine
 10
48.88752
 20
480.007579
 11
51.88752
 21
480.007579
  0
ARC
  5
1C4
100
AcDbEntity
  8
M0
 62
     6
100
AcDbCircle
 10
48.88752
 20
479.507579
 40
0.5
100
AcDbArc
 50
89.998251
 51
180.0
  0
LINE
  5
1C5
100
AcDbEntity
  8
M0
  6
DASHDOT
 62
     6
100
AcDbLine
 10
50.063682
 20
482.007579
 11
62.499473
 21
482.007579
  0
LINE
  5
1C6
100
AcDbEntity
  8
M0
 62
     6
100
AcDbLine
 10
52.38752
 20
481.007579
 11
52.88752
 21
479.507579
  0
LINE
  5
1C7
100
AcDbEntity
  8
M0
 62
     6
100
AcDbLine
 10
60.38752
 20
481.007579
 11
59.88752
 21
479.507579
  0
ARC
  5
1C8
100
AcDbEntity
  8
M0
 62
     6
100
AcDbCircle
 10
51.88752
 20
479.507579
 40
0.5
100
AcDbArc
 50
0.0
 51
89.998251
  0
LINE
  5
1C9
100
AcDbEntity
  8
M0
 62
     6
100
AcDbLine
 10
136.387504
 20
488.507334
 11
124.387504
 21
488.507334
  0
LINE
  5
1CA
100
AcDbEntity
  8
M0
 62
     6
100
AcDbLine
 10
132.387504
 20
487.507334
 11
124.387504
 21
487.507334
  0
LINE
  5
1CB
100
AcDbEntity
  8
M0
 62
     6
100
AcDbLine
 10
132.387504
 20
486.007334
 11
131.326469
 21
486.007334
  0
LINE
  5
1CC
100
AcDbEntity
  8
M0
 62
     6
100
AcDbLine
 10
136.387504
 20
488.507334
 11
132.387504
 21
488.507334
  0
LINE
  5
1CD
100
AcDbEntity
  8
M0
 62
     6
100
AcDbLine
 10
135.887504
 20
480.007334
 11
132.887504
 21
480.007334
  0
ARC
  5
1CE
100
AcDbEntity
  8
M0
 62
     6
100
AcDbCircle
 10
135.887504
 20
479.507334
 40
0.5
100
AcDbArc
 50
0.0
 51
90.0
  0
LINE
  5
1CF
100
AcDbEntity
  8
M0
  6
DASHDOT
 62
     6
100
AcDbLine
 10
134.830146
 20
482.007334
 11
122.88723
 21
482.007334
  0
ARC
  5
1D0
100
AcDbEntity
  8
M0
 62
     6
100
AcDbCircle
 10
132.887504
 20
488.007334
 40
0.5
100
AcDbArc
 50
90.0
 51
180.0
  0
LINE
  5
1D1
100
AcDbEntity
  8
M0
 62
     6
100
AcDbLine
 10
132.387504
 20
481.007334
 11
131.887504
 21
479.507334
  0
LINE
  5
1D2
100
AcDbEntity
  8
M0
 62
     6
100
AcDbLine
 10
124.387504
 20
481.007334
 11
124.887504
 21
479.507334
  0
ARC
  5
1D3
100
AcDbEntity
  8
M0
 62
     6
100
AcDbCircle
 10
132.887504
 20
479.507334
 40
0.5
100
AcDbArc
 50
90.0
 51
180.0
  0
LINE
  5
1D4
100
AcDbEntity
  8
M0
 62
     6
100
AcDbLine
 10
59.326484
 20
486.007579
 11
60.38752
 21
486.007579
  0
LINE
  5
1D5
100
AcDbEntity
  8
M0
 62
     6
100
AcDbLine
 10
125.448295
 20
486.007334
 11
124.387504
 21
486.007334
  0
CIRCLE
  5
1D6
100
AcDbEntity
  8
M0
100
AcDbCircle
 10
56.38752
 20
482.007579
 40
3.0
  0
LINE
  5
1D7
100
AcDbEntity
  8
M0
100
AcDbLine
 10
53.428535
 20
485.954844
 11
52.612373
 21
483.307627
  0
LINE
  5
1D8
100
AcDbEntity
  8
M0
100
AcDbLine
 10
53.428535
 20
478.060313
 11
52.612373
 21
480.70753
  0
LINE
  5
1D9
100
AcDbEntity
  8
M0
100
AcDbLine
 10
59.346016
 20
485.954844
 11
60.162422
 21
483.307627
  0
LINE
  5
1DA
100
AcDbEntity
  8
M0
100
AcDbLine
 10
59.346016
 20
478.060313
 11
60.162422
 21
480.70753
  0
LINE
  5
1DB
100
AcDbEntity
  8
M0
100
AcDbLine
 10
57.787422
 20
485.107432
 11
59.60749
 21
485.107432
  0
LINE
  5
1DC
100
AcDbEntity
  8
M0
100
AcDbLine
 10
58.709053
 20
483.907481
 11
59.977363
 21
483.907481
  0
LINE
  5
1DD
100
AcDbEntity
  8
M0
100
AcDbLine
 10
58.709053
 20
480.107432
 11
59.977363
 21
480.107432
  0
LINE
  5
1DE
100
AcDbEntity
  8
M0
100
AcDbLine
 10
54.987373
 20
485.107432
 11
53.167305
 21
485.107432
  0
LINE
  5
1DF
100
AcDbEntity
  8
M0
100
AcDbLine
 10
54.065742
 20
483.907481
 11
52.797432
 21
483.907481
  0
LINE
  5
1E0
100
AcDbEntity
  8
M0
100
AcDbLine
 10
54.065742
 20
480.107432
 11
52.797432
 21
480.107432
  0
LINE
  5
1E1
100
AcDbEntity
  8
M0
100
AcDbLine
 10
60.162422
 20
480.70753
 11
60.162422
 21
483.307627
  0
LINE
  5
1E2
100
AcDbEntity
  8
M0
100
AcDbLine
 10
58.868232
 20
486.307627
 11
53.906562
 21
486.307383
  0
LINE
  5
1E3
100
AcDbEntity
  8
M0
100
AcDbLine
 10
52.612373
 20
483.307627
 11
52.612373
 21
480.70753
  0
LINE
  5
1E4
100
AcDbEntity
  8
M0
100
AcDbLine
 10
57.787422
 20
484.660899
 11
57.787422
 21
485.107432
  0
LINE
  5
1E5
100
AcDbEntity
  8
M0
100
AcDbLine
 10
54.987373
 20
484.660899
 11
54.987373
 21
485.107432
  0
LINE
  5
1E6
100
AcDbEntity
  8
M0
100
AcDbLine
 10
57.978096
 20
480.416758
 11
54.796455
 21
483.598399
  0
LINE
  5
1E7
100
AcDbEntity
  8
M0
100
AcDbLine
 10
56.740791
 20
483.421641
 11
54.973213
 21
481.654063
  0
LINE
  5
1E8
100
AcDbEntity
  8
M0
100
AcDbLine
 10
57.801338
 20
482.361094
 11
56.03376
 21
480.593516
  0
ARC
  5
1E9
100
AcDbEntity
  8
M0
100
AcDbCircle
 10
53.906562
 20
485.807383
 40
0.5
100
AcDbArc
 50
89.998251
 51
162.856158
  0
ARC
  5
1EA
100
AcDbEntity
  8
M0
100
AcDbCircle
 10
58.868232
 20
485.807383
 40
0.5
100
AcDbArc
 50
17.151876
 51
89.998251
  0
CIRCLE
  5
1EB
100
AcDbEntity
  8
M0
100
AcDbCircle
 10
128.387504
 20
482.007334
 40
3.0
  0
LINE
  5
1EC
100
AcDbEntity
  8
M0
100
AcDbLine
 10
125.42852
 20
485.9546
 11
124.612358
 21
483.307383
  0
LINE
  5
1ED
100
AcDbEntity
  8
M0
100
AcDbLine
 10
125.42852
 20
478.060069
 11
124.612358
 21
480.707286
  0
LINE
  5
1EE
100
AcDbEntity
  8
M0
100
AcDbLine
 10
131.346
 20
485.9546
 11
132.162407
 21
483.307383
  0
LINE
  5
1EF
100
AcDbEntity
  8
M0
100
AcDbLine
 10
131.346
 20
478.060069
 11
132.162407
 21
480.707286
  0
LINE
  5
1F0
100
AcDbEntity
  8
M0
100
AcDbLine
 10
129.787407
 20
485.107188
 11
131.607475
 21
485.107188
  0
LINE
  5
1F1
100
AcDbEntity
  8
M0
100
AcDbLine
 10
130.709037
 20
483.907237
 11
131.977348
 21
483.907237
  0
LINE
  5
1F2
100
AcDbEntity
  8
M0
100
AcDbLine
 10
130.709037
 20
480.107188
 11
131.977348
 21
480.107188
  0
LINE
  5
1F3
100
AcDbEntity
  8
M0
100
AcDbLine
 10
126.987358
 20
485.107188
 11
125.167289
 21
485.107188
  0
LINE
  5
1F4
100
AcDbEntity
  8
M0
100
AcDbLine
 10
126.065727
 20
483.907237
 11
124.797416
 21
483.907237
  0
LINE
  5
1F5
100
AcDbEntity
  8
M0
100
AcDbLine
 10
126.065727
 20
480.107188
 11
124.797416
 21
480.107188
  0
LINE
  5
1F6
100
AcDbEntity
  8
M0
100
AcDbLine
 10
132.162407
 20
480.707286
 11
132.162407
 21
483.307383
  0
LINE
  5
1F7
100
AcDbEntity
  8
M0
100
AcDbLine
 10
130.868217
 20
486.307383
 11
125.906547
 21
486.307139
  0
LINE
  5
1F8
100
AcDbEntity
  8
M0
100
AcDbLine
 10
124.612358
 20
483.307383
 11
124.612358
 21
480.707286
  0
LINE
  5
1F9
100
AcDbEntity
  8
M0
100
AcDbLine
 10
129.787407
 20
484.660655
 11
129.787407
 21
485.107188
  0
LINE
  5
1FA
100
AcDbEntity
  8
M0
100
AcDbLine
 10
126.987358
 20
484.660655
 11
126.987358
 21
485.107188
  0
LINE
  5
1FB
100
AcDbEntity
  8
M0
100
AcDbLine
 10
129.97808
 20
480.416514
 11
126.79644
 21
483.598155
  0
LINE
  5
1FC
100
AcDbEntity
  8
M0
100
AcDbLine
 10
128.740776
 20
483.421397
 11
126.973198
 21
481.653819
  0
LINE
  5
1FD
100
AcDbEntity
  8
M0
100
AcDbLine
 10
129.801323
 20
482.36085
 11
128.033744
 21
480.593272
  0
ARC
  5
1FE
100
AcDbEntity
  8
M0
100
AcDbCircle
 10
125.906547
 20
485.807139
 40
0.5
100
AcDbArc
 50
90.0
 51
162.856673
  0
ARC
  5
1FF
100
AcDbEntity
  8
M0
100
AcDbCircle
 10
130.868217
 20
485.807139
 40
0.5
100
AcDbArc
 50
17.152392
 51
90.0
  0
LINE
  5
200
100
AcDbEntity
  8
M0
 62
     6
100
AcDbLine
 10
48.38752
 20
488.507579
 11
60.38752
 21
488.507579
  0
LINE
  5
201
100
AcDbEntity
  8
M0
 62
     6
100
AcDbLine
 10
50.88752
 20
491.007567
 11
50.88752
 21
488.507579
  0
LINE
  5
202
100
AcDbEntity
  8
M0
 62
     6
100
AcDbLine
 10
48.38752
 20
488.507579
 11
52.38752
 21
488.507579
  0
ARC
  5
203
100
AcDbEntity
  8
M0
 62
     6
100
AcDbCircle
 10
51.88752
 20
488.007579
 40
0.5
100
AcDbArc
 50
0.0
 51
89.998251
  0
LINE
  5
204
100
AcDbEntity
  8
M0
 62
     6
100
AcDbLine
 10
133.887504
 20
491.007323
 11
133.887504
 21
488.507334
  0
LINE
  5
205
100
AcDbEntity
  8
M0
 62
     5
100
AcDbLine
 10
48.387031
 20
488.507579
 11
60.387275
 21
488.507579
  0
LINE
  5
206
100
AcDbEntity
  8
M0
 62
     5
100
AcDbLine
 10
132.38726
 20
488.50709
 11
132.38726
 21
500.007567
  0
LINE
  5
207
100
AcDbEntity
  8
M0
  6
DASHDOT
100
AcDbLine
 10
56.887031
 20
490.381877
 11
56.887031
 21
498.376418
  0
LINE
  5
208
100
AcDbEntity
  8
M0
 62
     6
100
AcDbLine
 10
60.38752
 20
468.207226
 11
60.38752
 21
510.007567
  0
LINE
  5
209
100
AcDbEntity
  8
M0
 62
     6
100
AcDbLine
 10
124.387504
 20
468.20747
 11
124.387504
 21
510.007323
  0
LINE
  5
20A
100
AcDbEntity
  8
M0
 62
     7
100
AcDbLine
 10
60.38752
 20
494.007323
 11
60.38752
 21
468.207531
  0
LINE
  5
20B
100
AcDbEntity
  8
M0
 62
     7
100
AcDbLine
 10
124.387504
 20
468.207531
 11
124.387504
 21
494.007323
  0
LINE
  5
20C
100
AcDbEntity
  8
M0
  6
DASHDOT
100
AcDbLine
 10
58.387031
 20
490.581279
 11
58.387031
 21
498.430632
  0
LINE
  5
20D
100
AcDbEntity
  8
M0
100
AcDbLine
 10
56.887031
 20
496.807372
 11
58.387031
 21
496.807372
  0
LINE
  5
20E
100
AcDbEntity
  8
M0
100
AcDbLine
 10
56.887031
 20
492.207564
 11
58.387031
 21
492.207564
  0
ARC
  5
20F
100
AcDbEntity
  8
M0
100
AcDbCircle
 10
56.887031
 20
494.507567
 40
2.299998
100
AcDbArc
 50
89.99962
 51
270.0
  0
ARC
  5
210
100
AcDbEntity
  8
M0
100
AcDbCircle
 10
58.387031
 20
494.507567
 40
2.299998
100
AcDbArc
 50
270.0
 51
449.99962
  0
ARC
  5
211
100
AcDbEntity
  8
M0
 62
     6
100
AcDbCircle
 10
83.637519
 20
514.507567
 40
0.5
100
AcDbArc
 50
0.0
 51
90.0
  0
ARC
  5
212
100
AcDbEntity
  8
M0
 62
     6
100
AcDbCircle
 10
81.13752
 20
514.507567
 40
0.5
100
AcDbArc
 50
90.0
 51
180.0
  0
LINE
  5
213
100
AcDbEntity
  8
M0
 62
     7
100
AcDbLine
 10
96.386994
 20
474.00749
 11
94.886994
 21
474.007489
  0
LINE
  5
214
100
AcDbEntity
  8
M0
 62
     7
100
AcDbLine
 10
94.886992
 20
477.007335
 11
94.886994
 21
474.007489
  0
LINE
  5
215
100
AcDbEntity
  8
M0
 62
     7
100
AcDbLine
 10
96.386993
 20
474.707288
 11
94.886993
 21
474.707288
  0
ARC
  5
216
100
AcDbEntity
  8
M0
 62
     7
100
AcDbCircle
 10
93.886992
 20
477.007335
 40
1.0
100
AcDbArc
 50
0.0
 51
90.0
  0
LINE
  5
217
100
AcDbEntity
  8
M0
 62
     7
100
AcDbLine
 10
92.387251
 20
478.007319
 11
93.886991
 21
478.007335
  0
LINE
  5
218
100
AcDbEntity
  8
M0
 62
     7
100
AcDbLine
 10
100.687034
 20
472.307297
 11
96.386995
 21
472.307295
  0
ARC
  5
219
100
AcDbEntity
  8
M0
 62
     7
100
AcDbCircle
 10
100.687034
 20
469.307297
 40
3.0
100
AcDbArc
 50
0.0
 51
90.0
  0
LINE
  5
21A
100
AcDbEntity
  8
M0
 62
     7
100
AcDbLine
 10
96.386993
 20
474.707288
 11
96.386995
 21
472.307295
  0
LINE
  5
21B
100
AcDbEntity
  8
M0
100
AcDbLine
 10
95.386998
 20
466.657438
 11
92.387257
 21
466.657436
  0
LINE
  5
21C
100
AcDbEntity
  8
M0
 62
     7
100
AcDbLine
 10
92.386387
 20
494.507079
 11
123.88697
 21
494.507338
  0
LINE
  5
21D
100
AcDbEntity
  8
M0
 62
     6
100
AcDbLine
 10
48.38755
 20
458.25801
 11
51.587501
 21
458.25801
  0
LINE
  5
21E
100
AcDbEntity
  8
M0
 62
     6
100
AcDbLine
 10
136.387535
 20
458.258254
 11
133.187339
 21
458.258254
  0
LINE
  5
21F
100
AcDbEntity
  8
M0
 62
     6
100
AcDbLine
 10
48.88755
 20
444.00801
 11
51.88755
 21
444.00801
  0
LINE
  5
220
100
AcDbEntity
  8
M0
 62
     6
100
AcDbLine
 10
51.587501
 20
458.25801
 11
52.38755
 21
457.308059
  0
ARC
  5
221
100
AcDbEntity
  8
M0
 62
     6
100
AcDbCircle
 10
48.88755
 20
444.50801
 40
0.5
100
AcDbArc
 50
179.998251
 51
270.0
  0
LINE
  5
222
100
AcDbEntity
  8
M0
 62
     6
100
AcDbLine
 10
59.587501
 20
446.50801
 11
59.587501
 21
447.50801
  0
LINE
  5
223
100
AcDbEntity
  8
M0
 62
     6
100
AcDbLine
 10
53.187355
 20
446.50801
 11
53.187355
 21
447.50801
  0
LINE
  5
224
100
AcDbEntity
  8
M0
 62
     6
100
AcDbLine
 10
52.88755
 20
444.508254
 11
52.88755
 21
446.00801
  0
LINE
  5
225
100
AcDbEntity
  8
M0
 62
     6
100
AcDbLine
 10
59.88755
 20
444.50801
 11
59.88755
 21
446.00801
  0
ARC
  5
226
100
AcDbEntity
  8
M0
 62
     6
100
AcDbCircle
 10
52.687355
 20
446.50801
 40
0.5
100
AcDbArc
 50
-90.0
 51
0.0
  0
ARC
  5
227
100
AcDbEntity
  8
M0
 62
     6
100
AcDbCircle
 10
51.88755
 20
444.50801
 40
0.5
100
AcDbArc
 50
-90.0
 51
0.0
  0
LINE
  5
228
100
AcDbEntity
  8
M0
  6
DASHDOT
 62
     6
100
AcDbLine
 10
49.991203
 20
451.50801
 11
63.09774
 21
451.50801
  0
LINE
  5
229
100
AcDbEntity
  8
M0
 62
     6
100
AcDbLine
 10
52.38755
 20
447.50801
 11
53.448341
 21
447.50801
  0
LINE
  5
22A
100
AcDbEntity
  8
M0
 62
     6
100
AcDbLine
 10
54.129249
 20
456.308059
 11
58.645607
 21
456.308059
  0
LINE
  5
22B
100
AcDbEntity
  8
M0
 62
     6
100
AcDbLine
 10
53.172218
 20
455.598098
 11
52.38755
 21
453.00801
  0
LINE
  5
22C
100
AcDbEntity
  8
M0
 62
     6
100
AcDbLine
 10
59.602638
 20
455.598098
 11
60.38755
 21
453.00801
  0
ARC
  5
22D
100
AcDbEntity
  8
M0
 62
     6
100
AcDbCircle
 10
54.129249
 20
455.308059
 40
1.0
100
AcDbArc
 50
89.999126
 51
163.139725
  0
ARC
  5
22E
100
AcDbEntity
  8
M0
 62
     6
100
AcDbCircle
 10
58.645607
 20
455.308059
 40
1.0
100
AcDbArc
 50
16.860021
 51
89.999126
  0
LINE
  5
22F
100
AcDbEntity
  8
M0
 62
     6
100
AcDbLine
 10
52.38755
 20
446.00801
 11
52.687355
 21
446.00801
  0
LINE
  5
230
100
AcDbEntity
  8
M0
 62
     6
100
AcDbLine
 10
60.087501
 20
446.00801
 11
60.38755
 21
446.00801
  0
ARC
  5
231
100
AcDbEntity
  8
M0
 62
     6
100
AcDbCircle
 10
60.087501
 20
446.50801
 40
0.5
100
AcDbArc
 50
179.998251
 51
270.0
  0
LINE
  5
232
100
AcDbEntity
  8
M0
 62
     6
100
AcDbLine
 10
135.887535
 20
444.008254
 11
132.887535
 21
444.008254
  0
LINE
  5
233
100
AcDbEntity
  8
M0
 62
     6
100
AcDbLine
 10
133.187339
 20
458.258254
 11
132.387535
 21
457.308303
  0
ARC
  5
234
100
AcDbEntity
  8
M0
 62
     6
100
AcDbCircle
 10
135.887535
 20
444.508254
 40
0.5
100
AcDbArc
 50
269.998251
 51
360.0
  0
LINE
  5
235
100
AcDbEntity
  8
M0
 62
     6
100
AcDbLine
 10
125.187339
 20
446.508254
 11
125.187339
 21
447.508254
  0
LINE
  5
236
100
AcDbEntity
  8
M0
 62
     6
100
AcDbLine
 10
131.587486
 20
446.508254
 11
131.587486
 21
447.508254
  0
LINE
  5
237
100
AcDbEntity
  8
M0
 62
     6
100
AcDbLine
 10
131.887535
 20
444.508498
 11
131.887535
 21
446.008254
  0
LINE
  5
238
100
AcDbEntity
  8
M0
 62
     6
100
AcDbLine
 10
124.887535
 20
444.508254
 11
124.887535
 21
446.008254
  0
ARC
  5
239
100
AcDbEntity
  8
M0
 62
     6
100
AcDbCircle
 10
132.087486
 20
446.508254
 40
0.5
100
AcDbArc
 50
179.998251
 51
269.998251
  0
ARC
  5
23A
100
AcDbEntity
  8
M0
 62
     6
100
AcDbCircle
 10
132.887535
 20
444.508254
 40
0.5
100
AcDbArc
 50
179.998251
 51
269.998251
  0
LINE
  5
23B
100
AcDbEntity
  8
M0
 62
     6
100
AcDbLine
 10
132.387535
 20
447.508254
 11
131.329673
 21
447.508239
  0
LINE
  5
23C
100
AcDbEntity
  8
M0
 62
     6
100
AcDbLine
 10
130.645591
 20
456.308303
 11
126.129234
 21
456.308303
  0
LINE
  5
23D
100
AcDbEntity
  8
M0
 62
     6
100
AcDbLine
 10
131.602623
 20
455.598342
 11
132.387535
 21
453.008254
  0
LINE
  5
23E
100
AcDbEntity
  8
M0
 62
     6
100
AcDbLine
 10
125.172203
 20
455.598342
 11
124.387535
 21
453.008254
  0
ARC
  5
23F
100
AcDbEntity
  8
M0
 62
     6
100
AcDbCircle
 10
130.645591
 20
455.308303
 40
1.0
100
AcDbArc
 50
16.860275
 51
90.0
  0
ARC
  5
240
100
AcDbEntity
  8
M0
 62
     6
100
AcDbCircle
 10
126.129234
 20
455.308303
 40
1.0
100
AcDbArc
 50
90.0
 51
163.139979
  0
LINE
  5
241
100
AcDbEntity
  8
M0
 62
     6
100
AcDbLine
 10
132.387535
 20
446.008254
 11
132.087486
 21
446.008254
  0
LINE
  5
242
100
AcDbEntity
  8
M0
 62
     6
100
AcDbLine
 10
124.687339
 20
446.008254
 11
124.387535
 21
446.008254
  0
ARC
  5
243
100
AcDbEntity
  8
M0
 62
     6
100
AcDbCircle
 10
124.687339
 20
446.508254
 40
0.5
100
AcDbArc
 50
269.998251
 51
360.0
  0
LINE
  5
244
100
AcDbEntity
  8
M0
 62
     6
100
AcDbLine
 10
59.326515
 20
447.50801
 11
60.38755
 21
447.50801
  0
LINE
  5
245
100
AcDbEntity
  8
M0
 62
     6
100
AcDbLine
 10
125.444664
 20
447.508239
 11
124.387535
 21
447.508254
  0
LINE
  5
246
100
AcDbEntity
  8
M0
 62
     6
100
AcDbLine
 10
53.187355
 20
447.00801
 11
59.587501
 21
447.00801
  0
LINE
  5
247
100
AcDbEntity
  8
M0
 62
     6
100
AcDbLine
 10
125.187339
 20
447.008239
 11
131.587486
 21
447.008239
  0
LINE
  5
248
100
AcDbEntity
  8
M0
 62
     7
100
AcDbLine
 10
131.387535
 20
456.307769
 11
124.887535
 21
456.307753
  0
LINE
  5
249
100
AcDbEntity
  8
M0
 62
     7
100
AcDbLine
 10
59.88755
 20
456.307723
 11
53.38755
 21
456.307723
  0
ARC
  5
24A
100
AcDbEntity
  8
M0
 62
     7
100
AcDbCircle
 10
124.887535
 20
455.807753
 40
0.5
100
AcDbArc
 50
90.0
 51
179.998251
  0
ARC
  5
24B
100
AcDbEntity
  8
M0
 62
     7
100
AcDbCircle
 10
131.387535
 20
456.807753
 40
0.5
100
AcDbArc
 50
269.998251
 51
360.0
  0
ARC
  5
24C
100
AcDbEntity
  8
M0
 62
     7
100
AcDbCircle
 10
53.38755
 20
456.807723
 40
0.5
100
AcDbArc
 50
179.998251
 51
270.0
  0
ARC
  5
24D
100
AcDbEntity
  8
M0
 62
     7
100
AcDbCircle
 10
59.88755
 20
455.807723
 40
0.5
100
AcDbArc
 50
0.0
 51
89.998251
  0
LINE
  5
24E
100
AcDbEntity
  8
M0
 62
     7
100
AcDbLine
 10
84.087501
 20
456.007766
 11
84.387549
 21
456.007766
  0
LINE
  5
24F
100
AcDbEntity
  8
M0
 62
     7
100
AcDbLine
 10
84.387549
 20
456.007766
 11
84.387549
 21
452.007766
  0
ARC
  5
250
100
AcDbEntity
  8
M0
 62
     7
100
AcDbCircle
 10
84.087501
 20
459.007763
 40
3.0
100
AcDbArc
 50
179.999964
 51
270.0
  0
LINE
  5
251
100
AcDbEntity
  8
M0
100
AcDbLine
 10
53.428566
 20
445.955352
 11
52.612404
 21
443.308059
  0
LINE
  5
252
100
AcDbEntity
  8
M0
100
AcDbLine
 10
59.346046
 20
445.955367
 11
60.162452
 21
443.308059
  0
LINE
  5
253
100
AcDbEntity
  8
M0
100
AcDbLine
 10
57.787452
 20
445.107985
 11
59.607521
 21
445.107985
  0
LINE
  5
254
100
AcDbEntity
  8
M0
100
AcDbLine
 10
58.709083
 20
443.908034
 11
59.977394
 21
443.908034
  0
LINE
  5
255
100
AcDbEntity
  8
M0
100
AcDbLine
 10
54.987404
 20
445.107985
 11
53.167335
 21
445.107985
  0
LINE
  5
256
100
AcDbEntity
  8
M0
100
AcDbLine
 10
54.065773
 20
443.908034
 11
52.797462
 21
443.908034
  0
LINE
  5
257
100
AcDbEntity
  8
M0
100
AcDbLine
 10
58.868263
 20
446.308059
 11
53.906593
 21
446.308043
  0
LINE
  5
258
100
AcDbEntity
  8
M0
100
AcDbLine
 10
57.787452
 20
444.66133
 11
57.787452
 21
445.107985
  0
LINE
  5
259
100
AcDbEntity
  8
M0
100
AcDbLine
 10
54.987404
 20
444.66133
 11
54.987404
 21
445.107985
  0
ARC
  5
25A
100
AcDbEntity
  8
M0
100
AcDbCircle
 10
53.906593
 20
445.808043
 40
0.5
100
AcDbArc
 50
89.998251
 51
162.872331
  0
ARC
  5
25B
100
AcDbEntity
  8
M0
100
AcDbCircle
 10
58.868263
 20
445.808043
 40
0.5
100
AcDbArc
 50
17.137695
 51
89.998251
  0
CIRCLE
  5
25C
100
AcDbEntity
  8
M0
100
AcDbCircle
 10
56.38755
 20
451.50801
 40
3.0
  0
LINE
  5
25D
100
AcDbEntity
  8
M0
100
AcDbLine
 10
53.428566
 20
455.455352
 11
52.612404
 21
452.808059
  0
LINE
  5
25E
100
AcDbEntity
  8
M0
100
AcDbLine
 10
53.428566
 20
447.560759
 11
52.612404
 21
450.208083
  0
LINE
  5
25F
100
AcDbEntity
  8
M0
100
AcDbLine
 10
59.346046
 20
455.455367
 11
60.162452
 21
452.808059
  0
LINE
  5
260
100
AcDbEntity
  8
M0
100
AcDbLine
 10
59.346046
 20
447.560744
 11
60.162452
 21
450.208083
  0
LINE
  5
261
100
AcDbEntity
  8
M0
100
AcDbLine
 10
57.787452
 20
454.607985
 11
59.607521
 21
454.607985
  0
LINE
  5
262
100
AcDbEntity
  8
M0
100
AcDbLine
 10
58.709083
 20
453.408034
 11
59.977394
 21
453.408034
  0
LINE
  5
263
100
AcDbEntity
  8
M0
100
AcDbLine
 10
58.709083
 20
449.607985
 11
59.977394
 21
449.607985
  0
LINE
  5
264
100
AcDbEntity
  8
M0
100
AcDbLine
 10
57.787452
 20
448.408034
 11
59.607521
 21
448.408034
  0
LINE
  5
265
100
AcDbEntity
  8
M0
100
AcDbLine
 10
54.987404
 20
454.607985
 11
53.167335
 21
454.607985
  0
LINE
  5
266
100
AcDbEntity
  8
M0
100
AcDbLine
 10
54.065773
 20
453.408034
 11
52.797462
 21
453.408034
  0
LINE
  5
267
100
AcDbEntity
  8
M0
100
AcDbLine
 10
54.065773
 20
449.607985
 11
52.797462
 21
449.607985
  0
LINE
  5
268
100
AcDbEntity
  8
M0
100
AcDbLine
 10
54.987404
 20
448.408034
 11
53.167335
 21
448.408034
  0
LINE
  5
269
100
AcDbEntity
  8
M0
100
AcDbLine
 10
53.906593
 20
447.208083
 11
58.868263
 21
447.208083
  0
LINE
  5
26A
100
AcDbEntity
  8
M0
100
AcDbLine
 10
60.162452
 20
450.208083
 11
60.162452
 21
452.808059
  0
LINE
  5
26B
100
AcDbEntity
  8
M0
100
AcDbLine
 10
58.868263
 20
455.808059
 11
53.906593
 21
455.808043
  0
LINE
  5
26C
100
AcDbEntity
  8
M0
100
AcDbLine
 10
52.612404
 20
452.808059
 11
52.612404
 21
450.208083
  0
LINE
  5
26D
100
AcDbEntity
  8
M0
100
AcDbLine
 10
57.787452
 20
448.408034
 11
57.787452
 21
448.854689
  0
LINE
  5
26E
100
AcDbEntity
  8
M0
100
AcDbLine
 10
57.787452
 20
454.16133
 11
57.787452
 21
454.607985
  0
LINE
  5
26F
100
AcDbEntity
  8
M0
100
AcDbLine
 10
54.987404
 20
454.16133
 11
54.987404
 21
454.607985
  0
LINE
  5
270
100
AcDbEntity
  8
M0
100
AcDbLine
 10
54.987404
 20
448.408034
 11
54.987404
 21
448.854689
  0
LINE
  5
271
100
AcDbEntity
  8
M0
100
AcDbLine
 10
57.978126
 20
449.917189
 11
54.796486
 21
453.098952
  0
LINE
  5
272
100
AcDbEntity
  8
M0
100
AcDbLine
 10
56.740822
 20
452.922194
 11
54.973243
 21
451.154494
  0
LINE
  5
273
100
AcDbEntity
  8
M0
100
AcDbLine
 10
57.801368
 20
451.861525
 11
56.03379
 21
450.093947
  0
ARC
  5
274
100
AcDbEntity
  8
M0
100
AcDbCircle
 10
53.906593
 20
455.308043
 40
0.5
100
AcDbArc
 50
89.998251
 51
162.872331
  0
ARC
  5
275
100
AcDbEntity
  8
M0
100
AcDbCircle
 10
53.906593
 20
447.708083
 40
0.5
100
AcDbArc
 50
197.127669
 51
270.0
  0
ARC
  5
276
100
AcDbEntity
  8
M0
100
AcDbCircle
 10
58.868263
 20
447.708083
 40
0.5
100
AcDbArc
 50
270.0
 51
342.86179
  0
ARC
  5
277
100
AcDbEntity
  8
M0
100
AcDbCircle
 10
58.868263
 20
455.308043
 40
0.5
100
AcDbArc
 50
17.137695
 51
89.998251
  0
CIRCLE
  5
278
100
AcDbEntity
  8
M0
100
AcDbCircle
 10
128.387535
 20
451.508269
 40
3.0
  0
LINE
  5
279
100
AcDbEntity
  8
M0
100
AcDbLine
 10
125.42855
 20
455.455611
 11
124.612388
 21
452.808318
  0
LINE
  5
27A
100
AcDbEntity
  8
M0
100
AcDbLine
 10
125.42855
 20
447.561019
 11
124.612388
 21
450.208342
  0
LINE
  5
27B
100
AcDbEntity
  8
M0
100
AcDbLine
 10
131.346031
 20
455.455626
 11
132.162437
 21
452.808318
  0
LINE
  5
27C
100
AcDbEntity
  8
M0
100
AcDbLine
 10
131.346031
 20
447.561003
 11
132.162437
 21
450.208342
  0
LINE
  5
27D
100
AcDbEntity
  8
M0
100
AcDbLine
 10
129.787437
 20
454.608245
 11
131.607505
 21
454.608245
  0
LINE
  5
27E
100
AcDbEntity
  8
M0
100
AcDbLine
 10
130.709068
 20
453.408293
 11
131.977379
 21
453.408293
  0
LINE
  5
27F
100
AcDbEntity
  8
M0
100
AcDbLine
 10
130.709068
 20
449.608245
 11
131.977379
 21
449.608245
  0
LINE
  5
280
100
AcDbEntity
  8
M0
100
AcDbLine
 10
129.787437
 20
448.408293
 11
131.607505
 21
448.408293
  0
LINE
  5
281
100
AcDbEntity
  8
M0
100
AcDbLine
 10
126.987388
 20
454.608245
 11
125.16732
 21
454.608245
  0
LINE
  5
282
100
AcDbEntity
  8
M0
100
AcDbLine
 10
126.065757
 20
453.408293
 11
124.797447
 21
453.408293
  0
LINE
  5
283
100
AcDbEntity
  8
M0
100
AcDbLine
 10
126.065757
 20
449.608245
 11
124.797447
 21
449.608245
  0
LINE
  5
284
100
AcDbEntity
  8
M0
100
AcDbLine
 10
126.987388
 20
448.408293
 11
125.16732
 21
448.408293
  0
LINE
  5
285
100
AcDbEntity
  8
M0
100
AcDbLine
 10
125.906578
 20
447.208342
 11
130.868248
 21
447.208342
  0
LINE
  5
286
100
AcDbEntity
  8
M0
100
AcDbLine
 10
132.162437
 20
450.208342
 11
132.162437
 21
452.808318
  0
LINE
  5
287
100
AcDbEntity
  8
M0
100
AcDbLine
 10
130.868248
 20
455.808318
 11
125.906578
 21
455.808303
  0
LINE
  5
288
100
AcDbEntity
  8
M0
100
AcDbLine
 10
124.612388
 20
452.808318
 11
124.612388
 21
450.208342
  0
LINE
  5
289
100
AcDbEntity
  8
M0
100
AcDbLine
 10
129.787437
 20
448.408293
 11
129.787437
 21
448.854949
  0
LINE
  5
28A
100
AcDbEntity
  8
M0
100
AcDbLine
 10
129.787437
 20
454.161589
 11
129.787437
 21
454.608245
  0
LINE
  5
28B
100
AcDbEntity
  8
M0
100
AcDbLine
 10
126.987388
 20
454.161589
 11
126.987388
 21
454.608245
  0
LINE
  5
28C
100
AcDbEntity
  8
M0
100
AcDbLine
 10
126.987388
 20
448.408293
 11
126.987388
 21
448.854949
  0
LINE
  5
28D
100
AcDbEntity
  8
M0
100
AcDbLine
 10
129.978111
 20
449.917449
 11
126.79647
 21
453.099211
  0
LINE
  5
28E
100
AcDbEntity
  8
M0
100
AcDbLine
 10
128.740806
 20
452.922454
 11
126.973228
 21
451.154753
  0
LINE
  5
28F
100
AcDbEntity
  8
M0
100
AcDbLine
 10
129.801353
 20
451.861785
 11
128.033775
 21
450.094207
  0
ARC
  5
290
100
AcDbEntity
  8
M0
100
AcDbCircle
 10
125.906578
 20
455.308303
 40
0.5
100
AcDbArc
 50
90.0
 51
162.872846
  0
ARC
  5
291
100
AcDbEntity
  8
M0
100
AcDbCircle
 10
125.906578
 20
447.708342
 40
0.5
100
AcDbArc
 50
197.127154
 51
269.998251
  0
ARC
  5
292
100
AcDbEntity
  8
M0
100
AcDbCircle
 10
130.868248
 20
447.708342
 40
0.5
100
AcDbArc
 50
269.998251
 51
342.861275
  0
ARC
  5
293
100
AcDbEntity
  8
M0
100
AcDbCircle
 10
130.868248
 20
455.308303
 40
0.5
100
AcDbArc
 50
17.13821
 51
90.0
  0
LINE
  5
294
100
AcDbEntity
  8
M0
100
AcDbLine
 10
125.42855
 20
445.955626
 11
124.612388
 21
443.308333
  0
LINE
  5
295
100
AcDbEntity
  8
M0
100
AcDbLine
 10
131.346031
 20
445.955642
 11
132.162437
 21
443.308333
  0
LINE
  5
296
100
AcDbEntity
  8
M0
100
AcDbLine
 10
129.787437
 20
445.10826
 11
131.607505
 21
445.10826
  0
LINE
  5
297
100
AcDbEntity
  8
M0
100
AcDbLine
 10
130.709068
 20
443.908309
 11
131.977379
 21
443.908309
  0
LINE
  5
298
100
AcDbEntity
  8
M0
100
AcDbLine
 10
126.987388
 20
445.10826
 11
125.16732
 21
445.10826
  0
LINE
  5
299
100
AcDbEntity
  8
M0
100
AcDbLine
 10
126.065757
 20
443.908309
 11
124.797447
 21
443.908309
  0
LINE
  5
29A
100
AcDbEntity
  8
M0
100
AcDbLine
 10
130.868248
 20
446.308333
 11
125.906578
 21
446.308318
  0
LINE
  5
29B
100
AcDbEntity
  8
M0
100
AcDbLine
 10
129.787437
 20
444.661605
 11
129.787437
 21
445.10826
  0
LINE
  5
29C
100
AcDbEntity
  8
M0
100
AcDbLine
 10
126.987388
 20
444.661605
 11
126.987388
 21
445.10826
  0
ARC
  5
29D
100
AcDbEntity
  8
M0
100
AcDbCircle
 10
125.906578
 20
445.808318
 40
0.5
100
AcDbArc
 50
90.0
 51
162.872846
  0
ARC
  5
29E
100
AcDbEntity
  8
M0
100
AcDbCircle
 10
130.868248
 20
445.808318
 40
0.5
100
AcDbArc
 50
17.13821
 51
90.0
  0
LINE
  5
29F
100
AcDbEntity
  8
M0
 62
     5
100
AcDbLine
 10
124.437095
 20
416.792983
 11
133.387291
 21
422.946117
  0
LINE
  5
2A0
100
AcDbEntity
  8
M0
 62
     6
100
AcDbLine
 10
48.88755
 20
432.50801
 11
50.38755
 21
432.50801
  0
LINE
  5
2A1
100
AcDbEntity
  8
M0
 62
     6
100
AcDbLine
 10
48.38755
 20
435.50801
 11
60.38755
 21
435.50801
  0
LINE
  5
2A2
100
AcDbEntity
  8
M0
 62
     6
100
AcDbLine
 10
52.38755
 20
436.50801
 11
60.38755
 21
436.50801
  0
LINE
  5
2A3
100
AcDbEntity
  8
M0
 62
     6
100
AcDbLine
 10
52.38755
 20
438.00801
 11
53.444923
 21
438.00801
  0
LINE
  5
2A4
100
AcDbEntity
  8
M0
 62
     6
100
AcDbLine
 10
50.88755
 20
433.00801
 11
50.88755
 21
435.50801
  0
ARC
  5
2A5
100
AcDbEntity
  8
M0
 62
     6
100
AcDbCircle
 10
50.38755
 20
433.00801
 40
0.5
100
AcDbArc
 50
-90.0
 51
0.0
  0
ARC
  5
2A6
100
AcDbEntity
  8
M0
 62
     6
100
AcDbCircle
 10
48.88755
 20
433.00801
 40
0.5
100
AcDbArc
 50
179.998251
 51
270.0
  0
LINE
  5
2A7
100
AcDbEntity
  8
M0
 62
     6
100
AcDbLine
 10
48.38755
 20
435.50801
 11
52.38755
 21
435.50801
  0
ARC
  5
2A8
100
AcDbEntity
  8
M0
 62
     6
100
AcDbCircle
 10
51.88755
 20
436.00801
 40
0.5
100
AcDbArc
 50
-90.0
 51
0.0
  0
LINE
  5
2A9
100
AcDbEntity
  8
M0
 62
     6
100
AcDbLine
 10
135.887535
 20
432.508254
 11
134.387535
 21
432.508254
  0
LINE
  5
2AA
100
AcDbEntity
  8
M0
 62
     6
100
AcDbLine
 10
132.887535
 20
435.508239
 11
124.387535
 21
435.508254
  0
LINE
  5
2AB
100
AcDbEntity
  8
M0
 62
     6
100
AcDbLine
 10
132.387535
 20
436.508254
 11
124.387535
 21
436.508254
  0
LINE
  5
2AC
100
AcDbEntity
  8
M0
 62
     6
100
AcDbLine
 10
132.387535
 20
438.008254
 11
131.329673
 21
438.008239
  0
LINE
  5
2AD
100
AcDbEntity
  8
M0
 62
     6
100
AcDbLine
 10
133.887535
 20
433.008254
 11
133.887535
 21
435.508254
  0
ARC
  5
2AE
100
AcDbEntity
  8
M0
 62
     6
100
AcDbCircle
 10
134.387535
 20
433.008254
 40
0.5
100
AcDbArc
 50
179.998251
 51
269.998251
  0
ARC
  5
2AF
100
AcDbEntity
  8
M0
 62
     6
100
AcDbCircle
 10
135.887535
 20
433.008254
 40
0.5
100
AcDbArc
 50
269.998251
 51
360.0
  0
LINE
  5
2B0
100
AcDbEntity
  8
M0
 62
     6
100
AcDbLine
 10
136.387535
 20
435.508254
 11
132.387535
 21
435.508254
  0
ARC
  5
2B1
100
AcDbEntity
  8
M0
 62
     6
100
AcDbCircle
 10
132.887535
 20
436.008254
 40
0.5
100
AcDbArc
 50
179.998251
 51
269.998251
  0
LINE
  5
2B2
100
AcDbEntity
  8
M0
 62
     6
100
AcDbLine
 10
59.329933
 20
438.00801
 11
60.38755
 21
438.00801
  0
LINE
  5
2B3
100
AcDbEntity
  8
M0
 62
     6
100
AcDbLine
 10
125.444664
 20
438.008239
 11
124.387535
 21
438.008254
  0
ARC
  5
2B4
100
AcDbEntity
  8
M0
 62
     7
100
AcDbCircle
 10
84.887549
 20
428.507811
 40
0.5
100
AcDbArc
 50
179.998251
 51
270.0
  0
LINE
  5
2B5
100
AcDbEntity
  8
M0
 62
     7
100
AcDbLine
 10
86.887549
 20
428.007796
 11
84.887549
 21
428.007796
  0
LINE
  5
2B6
100
AcDbEntity
  8
M0
 62
     7
100
AcDbLine
 10
60.88755
 20
429.507781
 11
92.388144
 21
429.507781
  0
ARC
  5
2B7
100
AcDbEntity
  8
M0
 62
     7
100
AcDbCircle
 10
60.88755
 20
430.007781
 40
0.5
100
AcDbArc
 50
179.998251
 51
270.0
  0
ARC
  5
2B8
100
AcDbEntity
  8
M0
 62
     7
100
AcDbCircle
 10
123.887535
 20
430.007781
 40
0.5
100
AcDbArc
 50
269.998251
 51
360.0
  0
LINE
  5
2B9
100
AcDbEntity
  8
M0
 62
     7
100
AcDbLine
 10
84.387549
 20
428.507811
 11
84.387549
 21
429.507796
  0
ARC
  5
2BA
100
AcDbEntity
  8
M0
 62
     7
100
AcDbCircle
 10
86.887549
 20
428.507811
 40
0.5
100
AcDbArc
 50
-90.0
 51
0.0
  0
LINE
  5
2BB
100
AcDbEntity
  8
M0
 62
     7
100
AcDbLine
 10
87.387549
 20
428.507811
 11
87.387549
 21
429.507796
  0
LINE
  5
2BC
100
AcDbEntity
  8
M0
100
AcDbLine
 10
57.787452
 20
438.908034
 11
59.607521
 21
438.908034
  0
LINE
  5
2BD
100
AcDbEntity
  8
M0
100
AcDbLine
 10
54.987404
 20
438.908034
 11
53.167335
 21
438.908034
  0
LINE
  5
2BE
100
AcDbEntity
  8
M0
100
AcDbLine
 10
53.906593
 20
437.708083
 11
58.868263
 21
437.708083
  0
LINE
  5
2BF
100
AcDbEntity
  8
M0
100
AcDbLine
 10
57.787452
 20
438.908034
 11
57.787452
 21
439.354689
  0
LINE
  5
2C0
100
AcDbEntity
  8
M0
100
AcDbLine
 10
54.987404
 20
438.908034
 11
54.987404
 21
439.354689
  0
ARC
  5
2C1
100
AcDbEntity
  8
M0
100
AcDbCircle
 10
53.906593
 20
438.208083
 40
0.5
100
AcDbArc
 50
197.127669
 51
270.0
  0
ARC
  5
2C2
100
AcDbEntity
  8
M0
100
AcDbCircle
 10
58.868263
 20
438.208083
 40
0.5
100
AcDbArc
 50
270.0
 51
342.86179
  0
LINE
  5
2C3
100
AcDbEntity
  8
M0
100
AcDbLine
 10
129.787437
 20
438.908309
 11
131.607505
 21
438.908309
  0
LINE
  5
2C4
100
AcDbEntity
  8
M0
100
AcDbLine
 10
126.987388
 20
438.908309
 11
125.16732
 21
438.908309
  0
LINE
  5
2C5
100
AcDbEntity
  8
M0
100
AcDbLine
 10
125.906578
 20
437.708358
 11
130.868248
 21
437.708358
  0
LINE
  5
2C6
100
AcDbEntity
  8
M0
100
AcDbLine
 10
129.787437
 20
438.908309
 11
129.787437
 21
439.354964
  0
LINE
  5
2C7
100
AcDbEntity
  8
M0
100
AcDbLine
 10
126.987388
 20
438.908309
 11
126.987388
 21
439.354964
  0
ARC
  5
2C8
100
AcDbEntity
  8
M0
100
AcDbCircle
 10
125.906578
 20
438.208358
 40
0.5
100
AcDbArc
 50
197.127154
 51
269.998251
  0
ARC
  5
2C9
100
AcDbEntity
  8
M0
100
AcDbCircle
 10
130.868248
 20
438.208358
 40
0.5
100
AcDbArc
 50
269.998251
 51
342.861275
  0
LINE
  5
2CA
100
AcDbEntity
  8
M0
 62
     5
100
AcDbLine
 10
133.387291
 20
434.50804
 11
133.387291
 21
422.946117
  0
ARC
  5
2CB
100
AcDbEntity
  8
M0
 62
     5
100
AcDbCircle
 10
130.387291
 20
424.524321
 40
3.0
100
AcDbArc
 50
304.507247
 51
360.0
  0
LINE
  5
2CC
100
AcDbEntity
  8
M0
 62
     5
100
AcDbLine
 10
136.387291
 20
435.50804
 11
124.387291
 21
435.50804
  0
LINE
  5
2CD
100
AcDbEntity
  8
M0
 62
     5
100
AcDbLine
 10
133.887291
 20
434.508025
 11
133.387291
 21
434.50804
  0
ARC
  5
2CE
100
AcDbEntity
  8
M0
 62
     5
100
AcDbCircle
 10
48.887062
 20
424.50804
 40
0.5
100
AcDbArc
 50
179.998251
 51
270.0
  0
LINE
  5
2CF
100
AcDbEntity
  8
M0
 62
     5
100
AcDbLine
 10
52.387306
 20
424.00804
 11
52.387306
 21
435.50801
  0
LINE
  5
2D0
100
AcDbEntity
  8
M0
 62
     5
100
AcDbLine
 10
48.887062
 20
424.00804
 11
52.387306
 21
424.00804
  0
LINE
  5
2D1
100
AcDbEntity
  8
M0
 62
     5
100
AcDbLine
 10
52.387306
 20
435.00804
 11
60.38755
 21
435.00804
  0
LINE
  5
2D2
100
AcDbEntity
  8
M0
 62
     5
100
AcDbLine
 10
52.387306
 20
425.50804
 11
60.38755
 21
425.50804
  0
CIRCLE
  5
2D3
100
AcDbEntity
  8
M0
100
AcDbCircle
 10
56.387306
 20
430.008025
 40
3.0
  0
LINE
  5
2D4
100
AcDbEntity
  8
M0
100
AcDbLine
 10
53.428322
 20
433.955367
 11
52.612159
 21
431.308074
  0
LINE
  5
2D5
100
AcDbEntity
  8
M0
100
AcDbLine
 10
53.428322
 20
426.060775
 11
52.612159
 21
428.708098
  0
LINE
  5
2D6
100
AcDbEntity
  8
M0
100
AcDbLine
 10
59.345802
 20
433.955382
 11
60.162208
 21
431.308074
  0
LINE
  5
2D7
100
AcDbEntity
  8
M0
100
AcDbLine
 10
59.345802
 20
426.060759
 11
60.162208
 21
428.708098
  0
LINE
  5
2D8
100
AcDbEntity
  8
M0
100
AcDbLine
 10
57.787208
 20
433.108001
 11
59.607277
 21
433.108001
  0
LINE
  5
2D9
100
AcDbEntity
  8
M0
100
AcDbLine
 10
58.708839
 20
431.908049
 11
59.97715
 21
431.908049
  0
LINE
  5
2DA
100
AcDbEntity
  8
M0
100
AcDbLine
 10
58.708839
 20
428.108001
 11
59.97715
 21
428.108001
  0
LINE
  5
2DB
100
AcDbEntity
  8
M0
100
AcDbLine
 10
57.787208
 20
426.908049
 11
59.607277
 21
426.908049
  0
LINE
  5
2DC
100
AcDbEntity
  8
M0
100
AcDbLine
 10
54.987159
 20
433.108001
 11
53.167091
 21
433.108001
  0
LINE
  5
2DD
100
AcDbEntity
  8
M0
100
AcDbLine
 10
54.065529
 20
431.908049
 11
52.797218
 21
431.908049
  0
LINE
  5
2DE
100
AcDbEntity
  8
M0
100
AcDbLine
 10
54.065529
 20
428.108001
 11
52.797218
 21
428.108001
  0
LINE
  5
2DF
100
AcDbEntity
  8
M0
100
AcDbLine
 10
54.987159
 20
426.908049
 11
53.167091
 21
426.908049
  0
LINE
  5
2E0
100
AcDbEntity
  8
M0
100
AcDbLine
 10
53.906349
 20
425.708098
 11
58.868019
 21
425.708098
  0
LINE
  5
2E1
100
AcDbEntity
  8
M0
100
AcDbLine
 10
60.162208
 20
428.708098
 11
60.162208
 21
431.308074
  0
LINE
  5
2E2
100
AcDbEntity
  8
M0
100
AcDbLine
 10
58.868019
 20
434.308074
 11
53.906349
 21
434.308059
  0
LINE
  5
2E3
100
AcDbEntity
  8
M0
100
AcDbLine
 10
52.612159
 20
431.308074
 11
52.612159
 21
428.708098
  0
LINE
  5
2E4
100
AcDbEntity
  8
M0
  6
DASHDOT
100
AcDbLine
 10
50.112159
 20
430.008025
 11
62.662208
 21
430.008025
  0
LINE
  5
2E5
100
AcDbEntity
  8
M0
100
AcDbLine
 10
57.787208
 20
426.908049
 11
57.787208
 21
427.354705
  0
LINE
  5
2E6
100
AcDbEntity
  8
M0
100
AcDbLine
 10
57.787208
 20
432.661345
 11
57.787208
 21
433.108001
  0
LINE
  5
2E7
100
AcDbEntity
  8
M0
100
AcDbLine
 10
54.987159
 20
432.661345
 11
54.987159
 21
433.108001
  0
LINE
  5
2E8
100
AcDbEntity
  8
M0
100
AcDbLine
 10
54.987159
 20
426.908049
 11
54.987159
 21
427.354705
  0
LINE
  5
2E9
100
AcDbEntity
  8
M0
100
AcDbLine
 10
57.977882
 20
428.417205
 11
54.796241
 21
431.598967
  0
LINE
  5
2EA
100
AcDbEntity
  8
M0
100
AcDbLine
 10
56.740577
 20
431.42221
 11
54.972999
 21
429.654509
  0
LINE
  5
2EB
100
AcDbEntity
  8
M0
100
AcDbLine
 10
57.801124
 20
430.361541
 11
56.033546
 21
428.593962
  0
ARC
  5
2EC
100
AcDbEntity
  8
M0
100
AcDbCircle
 10
53.906349
 20
433.808059
 40
0.5
100
AcDbArc
 50
89.998251
 51
162.872331
  0
ARC
  5
2ED
100
AcDbEntity
  8
M0
100
AcDbCircle
 10
53.906349
 20
426.208098
 40
0.5
100
AcDbArc
 50
197.127669
 51
270.0
  0
ARC
  5
2EE
100
AcDbEntity
  8
M0
100
AcDbCircle
 10
58.868019
 20
426.208098
 40
0.5
100
AcDbArc
 50
270.0
 51
342.86179
  0
ARC
  5
2EF
100
AcDbEntity
  8
M0
100
AcDbCircle
 10
58.868019
 20
433.808059
 40
0.5
100
AcDbArc
 50
17.137695
 51
89.998251
  0
LINE
  5
2F0
100
AcDbEntity
  8
M0
  6
DASHDOT
100
AcDbLine
 10
114.387291
 20
429.508025
 11
132.522911
 21
429.508025
  0
LINE
  5
2F1
100
AcDbEntity
  8
M0
  6
DASHDOT
 62
     6
100
AcDbLine
 10
50.063713
 20
442.00801
 11
63.061485
 21
442.00801
  0
LINE
  5
2F2
100
AcDbEntity
  8
M0
 62
     6
100
AcDbLine
 10
52.38755
 20
443.00801
 11
52.88755
 21
444.50801
  0
LINE
  5
2F3
100
AcDbEntity
  8
M0
 62
     6
100
AcDbLine
 10
60.38755
 20
443.00801
 11
59.88755
 21
444.50801
  0
LINE
  5
2F4
100
AcDbEntity
  8
M0
  6
DASHDOT
 62
     6
100
AcDbLine
 10
134.73954
 20
442.008254
 11
121.487999
 21
442.008254
  0
LINE
  5
2F5
100
AcDbEntity
  8
M0
 62
     6
100
AcDbLine
 10
132.387535
 20
443.008254
 11
131.887535
 21
444.508254
  0
LINE
  5
2F6
100
AcDbEntity
  8
M0
 62
     6
100
AcDbLine
 10
124.387535
 20
443.008254
 11
124.887535
 21
444.508254
  0
LINE
  5
2F7
100
AcDbEntity
  8
M0
 62
     7
100
AcDbLine
 10
124.387535
 20
430.007766
 11
124.387535
 21
455.807753
  0
LINE
  5
2F8
100
AcDbEntity
  8
M0
 62
     7
100
AcDbLine
 10
60.38755
 20
455.807723
 11
60.38755
 21
430.007781
  0
CIRCLE
  5
2F9
100
AcDbEntity
  8
M0
100
AcDbCircle
 10
56.38755
 20
442.00801
 40
3.0
  0
LINE
  5
2FA
100
AcDbEntity
  8
M0
100
AcDbLine
 10
53.428566
 20
438.060759
 11
52.612404
 21
440.708083
  0
LINE
  5
2FB
100
AcDbEntity
  8
M0
100
AcDbLine
 10
59.346046
 20
438.060744
 11
60.162452
 21
440.708083
  0
LINE
  5
2FC
100
AcDbEntity
  8
M0
100
AcDbLine
 10
58.709083
 20
440.107985
 11
59.977394
 21
440.107985
  0
LINE
  5
2FD
100
AcDbEntity
  8
M0
100
AcDbLine
 10
54.065773
 20
440.107985
 11
52.797462
 21
440.107985
  0
LINE
  5
2FE
100
AcDbEntity
  8
M0
100
AcDbLine
 10
60.162452
 20
440.708083
 11
60.162452
 21
443.308059
  0
LINE
  5
2FF
100
AcDbEntity
  8
M0
100
AcDbLine
 10
52.612404
 20
443.308059
 11
52.612404
 21
440.708083
  0
LINE
  5
300
100
AcDbEntity
  8
M0
100
AcDbLine
 10
57.978126
 20
440.417189
 11
54.796486
 21
443.598952
  0
LINE
  5
301
100
AcDbEntity
  8
M0
100
AcDbLine
 10
56.740822
 20
443.422194
 11
54.973243
 21
441.654494
  0
LINE
  5
302
100
AcDbEntity
  8
M0
100
AcDbLine
 10
57.801368
 20
442.361525
 11
56.03379
 21
440.593947
  0
CIRCLE
  5
303
100
AcDbEntity
  8
M0
100
AcDbCircle
 10
128.387535
 20
442.008284
 40
3.0
  0
LINE
  5
304
100
AcDbEntity
  8
M0
100
AcDbLine
 10
125.42855
 20
438.061034
 11
124.612388
 21
440.708358
  0
LINE
  5
305
100
AcDbEntity
  8
M0
100
AcDbLine
 10
131.346031
 20
438.061019
 11
132.162437
 21
440.708358
  0
LINE
  5
306
100
AcDbEntity
  8
M0
100
AcDbLine
 10
130.709068
 20
440.10826
 11
131.977379
 21
440.10826
  0
LINE
  5
307
100
AcDbEntity
  8
M0
100
AcDbLine
 10
126.065757
 20
440.10826
 11
124.797447
 21
440.10826
  0
LINE
  5
308
100
AcDbEntity
  8
M0
100
AcDbLine
 10
132.162437
 20
440.708358
 11
132.162437
 21
443.308333
  0
LINE
  5
309
100
AcDbEntity
  8
M0
100
AcDbLine
 10
124.612388
 20
443.308333
 11
124.612388
 21
440.708358
  0
LINE
  5
30A
100
AcDbEntity
  8
M0
100
AcDbLine
 10
129.978111
 20
440.417464
 11
126.79647
 21
443.599227
  0
LINE
  5
30B
100
AcDbEntity
  8
M0
100
AcDbLine
 10
128.740806
 20
443.422469
 11
126.973228
 21
441.654769
  0
LINE
  5
30C
100
AcDbEntity
  8
M0
100
AcDbLine
 10
129.801353
 20
442.3618
 11
128.033775
 21
440.594222
  0
LINE
  5
30D
100
AcDbEntity
  8
M0
  6
DASHDOT
100
AcDbLine
 10
56.387306
 20
423.208113
 11
56.387306
 21
457.474837
  0
ARC
  5
30E
100
AcDbEntity
  8
M0
 62
     6
100
AcDbCircle
 10
60.88755
 20
414.508727
 40
0.5
100
AcDbArc
 50
179.998251
 51
270.0
  0
ARC
  5
30F
100
AcDbEntity
  8
M0
 62
     6
100
AcDbCircle
 10
63.63755
 20
414.508727
 40
0.5
100
AcDbArc
 50
270.0
 51
360.0
  0
ARC
  5
310
100
AcDbEntity
  8
M0
 62
     6
100
AcDbCircle
 10
123.887535
 20
414.508986
 40
0.5
100
AcDbArc
 50
269.998251
 51
360.0
  0
LINE
  5
311
100
AcDbEntity
  8
M0
 62
     6
100
AcDbLine
 10
80.63755
 20
414.008681
 11
60.88755
 21
414.008727
  0
LINE
  5
312
100
AcDbEntity
  8
M0
 62
     6
100
AcDbLine
 10
64.13755
 20
414.508712
 11
64.13755
 21
429.507781
  0
LINE
  5
313
100
AcDbEntity
  8
M0
 62
     6
100
AcDbLine
 10
60.38755
 20
455.807723
 11
60.38755
 21
414.508727
  0
LINE
  5
314
100
AcDbEntity
  8
M0
 62
     6
100
AcDbLine
 10
124.387535
 20
455.807753
 11
124.387535
 21
414.508986
  0
LINE
  5
315
100
AcDbEntity
  8
M0
  6
DASHDOT
100
AcDbLine
 10
127.887291
 20
424.831099
 11
127.887291
 21
433.895095
  0
LINE
  5
316
100
AcDbEntity
  8
M0
  6
DASHDOT
100
AcDbLine
 10
128.387291
 20
436.230681
 11
128.387291
 21
458.707503
  0
LINE
  5
317
100
AcDbEntity
  8
M0
 62
     6
100
AcDbLine
 10
84.137549
 20
414.008986
 11
92.387259
 21
414.008986
  0
LINE
  5
318
100
AcDbEntity
  8
M0
 62
     6
100
AcDbLine
 10
122.887199
 20
414.008986
 11
123.887535
 21
414.008986
  0
LINE
  5
319
100
AcDbEntity
  8
M0
 62
     6
100
AcDbLine
 10
48.38755
 20
465.758007
 11
51.587501
 21
465.758007
  0
LINE
  5
31A
100
AcDbEntity
  8
M0
 62
     6
100
AcDbLine
 10
51.587501
 20
465.758007
 11
51.587501
 21
458.25801
  0
LINE
  5
31B
100
AcDbEntity
  8
M0
 62
     6
100
AcDbLine
 10
51.587501
 20
465.758007
 11
52.38755
 21
466.707958
  0
LINE
  5
31C
100
AcDbEntity
  8
M0
 62
     6
100
AcDbLine
 10
136.387535
 20
465.757763
 11
133.187339
 21
465.757763
  0
LINE
  5
31D
100
AcDbEntity
  8
M0
 62
     6
100
AcDbLine
 10
133.187339
 20
465.757763
 11
133.187339
 21
458.258254
  0
LINE
  5
31E
100
AcDbEntity
  8
M0
 62
     6
100
AcDbLine
 10
133.187339
 20
465.757763
 11
132.387535
 21
466.707714
  0
CIRCLE
  5
31F
100
AcDbEntity
  8
M0
 62
     7
100
AcDbCircle
 10
58.38755
 20
462.007778
 40
3.249996
  0
CIRCLE
  5
320
100
AcDbEntity
  8
M0
 62
     7
100
AcDbCircle
 10
126.387535
 20
462.007778
 40
3.249996
  0
LINE
  5
321
100
AcDbEntity
  8
M0
 62
     7
100
AcDbLine
 10
81.087501
 20
469.307537
 11
81.087501
 21
459.007763
  0
CIRCLE
  5
322
100
AcDbEntity
  8
M0
100
AcDbCircle
 10
126.387046
 20
462.008007
 40
2.749996
  0
CIRCLE
  5
323
100
AcDbEntity
  8
M0
100
AcDbCircle
 10
126.387046
 20
462.008007
 40
3.0
  0
LINE
  5
324
100
AcDbEntity
  8
M0
100
AcDbLine
 10
124.97274
 20
463.422069
 11
127.801109
 21
460.5937
  0
LINE
  5
325
100
AcDbEntity
  8
M0
100
AcDbLine
 10
126.881675
 20
463.634228
 11
124.760338
 21
461.51289
  0
LINE
  5
326
100
AcDbEntity
  8
M0
100
AcDbLine
 10
128.013267
 20
462.502636
 11
125.891929
 21
460.381298
  0
CIRCLE
  5
327
100
AcDbEntity
  8
M0
100
AcDbCircle
 10
58.387306
 20
462.008007
 40
2.749996
  0
CIRCLE
  5
328
100
AcDbEntity
  8
M0
100
AcDbCircle
 10
58.387306
 20
462.008007
 40
3.0
  0
LINE
  5
329
100
AcDbEntity
  8
M0
100
AcDbLine
 10
56.972999
 20
463.422069
 11
59.801368
 21
460.5937
  0
LINE
  5
32A
100
AcDbEntity
  8
M0
100
AcDbLine
 10
58.881935
 20
463.634228
 11
56.760597
 21
461.51289
  0
LINE
  5
32B
100
AcDbEntity
  8
M0
100
AcDbLine
 10
60.013527
 20
462.502636
 11
57.892189
 21
460.381298
  0
LINE
  5
32C
100
AcDbEntity
  8
M0
100
AcDbLine
 10
89.387549
 20
462.15768
 11
92.387259
 21
462.15768
  0
LINE
  5
32D
100
AcDbEntity
  8
M0
100
AcDbLine
 10
89.387549
 20
466.65768
 11
89.387549
 21
462.15768
  0
LINE
  5
32E
100
AcDbEntity
  8
M0
 62
     7
100
AcDbLine
 10
131.887535
 20
456.807738
 11
131.887535
 21
467.20776
  0
LINE
  5
32F
100
AcDbEntity
  8
M0
 62
     7
100
AcDbLine
 10
52.88755
 20
467.207775
 11
52.88755
 21
456.807723
  0
LINE
  5
330
100
AcDbEntity
  8
M0
  6
DASHDOT
100
AcDbLine
 10
126.387046
 20
456.307891
 11
126.387046
 21
467.707302
  0
LINE
  5
331
100
AcDbEntity
  8
M0
  6
DASHDOT
100
AcDbLine
 10
58.387306
 20
456.307891
 11
58.387306
 21
467.70779
  0
LINE
  5
332
100
AcDbEntity
  8
M0
 62
     5
100
AcDbLine
 10
48.387062
 20
489.507823
 11
48.387062
 21
424.50804
  0
LINE
  5
333
100
AcDbEntity
  8
M0
 62
     5
100
AcDbLine
 10
136.387291
 20
434.508025
 11
136.387291
 21
499.507567
  0
LINE
  5
334
100
AcDbEntity
  8
M0
 62
     6
100
AcDbLine
 10
52.38755
 20
488.007823
 11
52.38755
 21
436.00801
  0
LINE
  5
335
100
AcDbEntity
  8
M0
 62
     6
100
AcDbLine
 10
132.387535
 20
488.007579
 11
132.387535
 21
436.008254
  0
LINE
  5
336
100
AcDbEntity
  8
M0
 62
     6
100
AcDbLine
 10
48.387306
 20
491.007567
 11
48.387306
 21
433.008254
  0
LINE
  5
337
100
AcDbEntity
  8
M0
 62
     6
100
AcDbLine
 10
136.387535
 20
491.007323
 11
136.387535
 21
433.008498
  0
LINE
  5
338
100
AcDbEntity
  8
M0
  6
DASHDOT
100
AcDbLine
 10
56.387306
 20
466.067684
 11
56.387306
 21
489.308604
  0
LINE
  5
339
100
AcDbEntity
  8
M0
  6
DASHDOT
100
AcDbLine
 10
126.387291
 20
425.519957
 11
126.387291
 21
433.93135
  0
LINE
  5
33A
100
AcDbEntity
  8
M0
100
AcDbLine
 10
126.387291
 20
431.808013
 11
127.887291
 21
431.808013
  0
LINE
  5
33B
100
AcDbEntity
  8
M0
100
AcDbLine
 10
126.387291
 20
427.208022
 11
127.887291
 21
427.208022
  0
ARC
  5
33C
100
AcDbEntity
  8
M0
100
AcDbCircle
 10
127.887291
 20
429.508025
 40
2.299998
100
AcDbArc
 50
269.99962
 51
450.0
  0
ARC
  5
33D
100
AcDbEntity
  8
M0
100
AcDbCircle
 10
126.387291
 20
429.508025
 40
2.299998
100
AcDbArc
 50
90.0
 51
150.395947
  0
ARC
  5
33E
100
AcDbEntity
  8
M0
100
AcDbCircle
 10
126.387291
 20
429.508025
 40
2.299998
100
AcDbArc
 50
209.60391
 51
269.99962
  0
LINE
  5
33F
100
AcDbEntity
  8
M0
 62
     7
100
AcDbLine
 10
122.887199
 20
429.507781
 11
123.887535
 21
429.507781
  0
LINE
  5
340
100
AcDbEntity
  8
M0
 62
     7
100
AcDbLine
 10
100.687019
 20
456.007781
 11
100.38697
 21
456.007781
  0
LINE
  5
341
100
AcDbEntity
  8
M0
 62
     7
100
AcDbLine
 10
100.38697
 20
456.007781
 11
100.38697
 21
452.007781
  0
ARC
  5
342
100
AcDbEntity
  8
M0
 62
     7
100
AcDbCircle
 10
100.687019
 20
459.007767
 40
3.0
100
AcDbArc
 50
-90.000291
 51
0.0
  0
LINE
  5
343
100
AcDbEntity
  8
M0
 62
     7
100
AcDbLine
 10
103.687004
 20
469.307543
 11
103.687019
 21
459.007768
  0
LINE
  5
344
100
AcDbEntity
  8
M0
100
AcDbLine
 10
95.386967
 20
466.657682
 11
95.386969
 21
462.157682
  0
LINE
  5
345
100
AcDbEntity
  8
M0
100
AcDbLine
 10
95.386969
 20
462.157682
 11
92.387259
 21
462.15768
  0
LINE
  5
346
100
AcDbEntity
  8
M0
 62
     7
100
AcDbLine
 10
123.886985
 20
429.507796
 11
92.386392
 21
429.507781
  0
LINE
  5
347
100
AcDbEntity
  8
M0
  6
DASHDOT
 62
     6
100
AcDbLine
 10
134.73954
 20
451.508101
 11
121.487999
 21
451.508101
  0
LINE
  5
348
100
AcDbEntity
  8
M0
 62
     6
100
AcDbLine
 10
81.137535
 20
409.008452
 11
83.637535
 21
409.008452
  0
ARC
  5
349
100
AcDbEntity
  8
M0
 62
     6
100
AcDbCircle
 10
81.137535
 20
409.508452
 40
0.5
100
AcDbArc
 50
180.0
 51
269.998251
  0
ARC
  5
34A
100
AcDbEntity
  8
M0
 62
     6
100
AcDbCircle
 10
83.637535
 20
409.508452
 40
0.5
100
AcDbArc
 50
269.998251
 51
360.0
  0
LINE
  5
34B
100
AcDbEntity
  8
M0
 62
     6
100
AcDbLine
 10
84.137535
 20
409.508437
 11
84.137535
 21
429.508223
  0
LINE
  5
34C
100
AcDbEntity
  8
M0
 62
     6
100
AcDbLine
 10
80.637535
 20
409.508452
 11
80.637535
 21
429.508223
  0
LINE
  5
34D
100
AcDbEntity
  8
M0
 62
     6
100
AcDbLine
 10
104.136985
 20
409.508467
 11
104.136985
 21
429.508239
  0
LINE
  5
34E
100
AcDbEntity
  8
M0
  6
DASHDOT
100
AcDbLine
 10
122.686249
 20
422.008682
 11
103.253158
 21
422.008694
  0
LINE
  5
34F
100
AcDbEntity
  8
M0
  6
DASHDOT
100
AcDbLine
 10
102.68544
 20
422.008682
 11
83.252349
 21
422.008694
  0
LINE
  5
350
100
AcDbEntity
  8
M0
 62
     1
100
AcDbLine
 10
100.637275
 20
510.007567
 11
92.386771
 21
510.007323
  0
LINE
  5
351
100
AcDbEntity
  8
M0
 62
     1
100
AcDbLine
 10
100.637275
 20
514.50804
 11
100.63726
 21
494.508284
  0
LINE
  5
352
100
AcDbEntity
  8
M0
 62
     1
100
AcDbLine
 10
103.637275
 20
515.008284
 11
101.137275
 21
515.008284
  0
LINE
  5
353
100
AcDbEntity
  8
M0
 62
     1
100
AcDbLine
 10
104.137275
 20
510.007567
 11
122.887199
 21
510.007506
  0
LINE
  5
354
100
AcDbEntity
  8
M0
 62
     1
100
AcDbLine
 10
120.637275
 20
510.008284
 11
120.637275
 21
494.507552
  0
LINE
  5
355
100
AcDbEntity
  8
M0
 62
     1
100
AcDbLine
 10
104.137275
 20
514.50804
 11
104.137275
 21
494.507552
  0
ARC
  5
356
100
AcDbEntity
  8
M0
 62
     1
100
AcDbCircle
 10
119.637245
 20
494.5083
 40
1.0
100
AcDbArc
 50
-14.520977
 51
0.0
  0
ARC
  5
357
100
AcDbEntity
  8
M0
 62
     1
100
AcDbCircle
 10
105.13726
 20
494.5083
 40
1.0
100
AcDbArc
 50
180.0
 51
194.521604
  0
LINE
  5
358
100
AcDbEntity
  8
M0
 62
     1
100
AcDbLine
 10
100.637275
 20
514.50804
 11
100.637275
 21
494.507552
  0
ARC
  5
359
100
AcDbEntity
  8
M0
 62
     1
100
AcDbCircle
 10
99.63726
 20
494.5083
 40
1.0
100
AcDbArc
 50
-14.520977
 51
0.0
  0
LINE
  5
35A
100
AcDbEntity
  8
M0
 62
     1
100
AcDbLine
 10
100.637275
 20
414.00952
 11
92.386771
 21
414.009032
  0
LINE
  5
35B
100
AcDbEntity
  8
M0
 62
     1
100
AcDbLine
 10
100.637275
 20
409.508773
 11
100.63726
 21
429.508788
  0
LINE
  5
35C
100
AcDbEntity
  8
M0
 62
     1
100
AcDbLine
 10
103.637275
 20
409.008788
 11
101.137275
 21
409.008773
  0
LINE
  5
35D
100
AcDbEntity
  8
M0
 62
     1
100
AcDbLine
 10
104.137275
 20
414.00952
 11
122.887199
 21
414.009459
  0
ARC
  5
35E
100
AcDbEntity
  8
M0
 62
     1
100
AcDbCircle
 10
119.637245
 20
429.508788
 40
1.0
100
AcDbArc
 50
0.0
 51
29.967834
  0
LINE
  5
35F
100
AcDbEntity
  8
M0
  6
DASHDOT
 62
     1
100
AcDbLine
 10
92.387237
 20
549.336846
 11
92.387259
 21
462.0083
  0
LINE
  5
360
100
AcDbEntity
  8
M0
  6
DASHDOT
 62
     1
100
AcDbLine
 10
92.387259
 20
462.008544
 11
92.386771
 21
462.008055
  0
ARC
  5
361
100
AcDbEntity
  8
M0
 62
     1
100
AcDbCircle
 10
101.137275
 20
409.508773
 40
0.5
100
AcDbArc
 50
180.0
 51
269.998251
  0
ARC
  5
362
100
AcDbEntity
  8
M0
 62
     1
100
AcDbCircle
 10
103.637275
 20
409.508773
 40
0.5
100
AcDbArc
 50
269.998251
 51
360.0
  0
LINE
  5
363
100
AcDbEntity
  8
M0
  6
DIVIDE
 62
     1
100
AcDbLine
 10
92.386771
 20
462.008055
 11
92.387259
 21
462.008544
  0
LINE
  5
364
100
AcDbEntity
  8
M0
  6
DASHDOT
 62
     1
100
AcDbLine
 10
122.887199
 20
442.008727
 11
120.637245
 21
442.008788
  0
ARC
  5
365
100
AcDbEntity
  8
M0
 62
     1
100
AcDbCircle
 10
103.637275
 20
514.50804
 40
0.5
100
AcDbArc
 50
0.0
 51
90.0
  0
ARC
  5
366
100
AcDbEntity
  8
M0
 62
     1
100
AcDbCircle
 10
101.137275
 20
514.50804
 40
0.5
100
AcDbArc
 50
90.0
 51
180.0
  0
LINE
  5
367
100
AcDbEntity
  8
M0
  6
DASHDOT
 62
     1
100
AcDbLine
 10
92.387259
 20
462.0083
 11
92.387273
 21
408.547683
  0
LINE
  5
368
100
AcDbEntity
  8
M0
 62
     7
100
AcDbLine
 10
105.237372
 20
414.008788
 11
119.537407
 21
414.008788
  0
LINE
  5
369
100
AcDbEntity
  8
M0
 62
     7
100
AcDbLine
 10
120.537407
 20
415.008788
 11
120.537407
 21
429.508788
  0
LINE
  5
36A
100
AcDbEntity
  8
M0
 62
     7
100
AcDbLine
 10
104.237372
 20
429.508788
 11
104.237372
 21
415.008788
  0
ARC
  5
36B
100
AcDbEntity
  8
M0
 62
     7
100
AcDbCircle
 10
119.537407
 20
415.008788
 40
1.0
100
AcDbArc
 50
269.999126
 51
360.0
  0
ARC
  5
36C
100
AcDbEntity
  8
M0
 62
     7
100
AcDbCircle
 10
105.237372
 20
415.008788
 40
1.0
100
AcDbArc
 50
180.0
 51
270.0
  0
LINE
  5
36D
100
AcDbEntity
  8
M0
 62
     4
100
AcDbLine
 10
65.237357
 20
414.008055
 11
79.537391
 21
414.008055
  0
LINE
  5
36E
100
AcDbEntity
  8
M0
 62
     4
100
AcDbLine
 10
80.537391
 20
415.008055
 11
80.537391
 21
429.508055
  0
LINE
  5
36F
100
AcDbEntity
  8
M0
 62
     4
100
AcDbLine
 10
64.237357
 20
429.508055
 11
64.237357
 21
415.008055
  0
ARC
  5
370
100
AcDbEntity
  8
M0
 62
     4
100
AcDbCircle
 10
79.537391
 20
415.008055
 40
1.0
100
AcDbArc
 50
269.999126
 51
360.0
  0
ARC
  5
371
100
AcDbEntity
  8
M0
 62
     4
100
AcDbCircle
 10
65.237357
 20
415.008055
 40
1.0
100
AcDbArc
 50
180.0
 51
270.0
  0
LINE
  5
372
100
AcDbEntity
  8
M0
 62
     7
100
AcDbLine
 10
119.537206
 20
510.008043
 11
105.237171
 21
510.008052
  0
LINE
  5
373
100
AcDbEntity
  8
M0
 62
     7
100
AcDbLine
 10
104.237171
 20
509.008052
 11
104.237161
 21
494.508052
  0
LINE
  5
374
100
AcDbEntity
  8
M0
 62
     7
100
AcDbLine
 10
120.537196
 20
494.508042
 11
120.537205
 21
509.008042
  0
ARC
  5
375
100
AcDbEntity
  8
M0
 62
     7
100
AcDbCircle
 10
105.237171
 20
509.008052
 40
1.0
100
AcDbArc
 50
90.0
 51
179.999964
  0
ARC
  5
376
100
AcDbEntity
  8
M0
 62
     7
100
AcDbCircle
 10
105.237161
 20
494.508052
 40
1.0
100
AcDbArc
 50
179.999964
 51
194.507219
  0
ARC
  5
377
100
AcDbEntity
  8
M0
 62
     7
100
AcDbCircle
 10
119.537196
 20
494.508043
 40
1.0
100
AcDbArc
 50
345.494252
 51
359.99909
  0
ARC
  5
378
100
AcDbEntity
  8
M0
 62
     7
100
AcDbCircle
 10
119.537205
 20
509.008043
 40
1.0
100
AcDbArc
 50
359.99909
 51
450.0
  0
LINE
  5
379
100
AcDbEntity
  8
M0
 62
     4
100
AcDbLine
 10
79.538091
 20
510.007554
 11
65.238056
 21
510.007563
  0
LINE
  5
37A
100
AcDbEntity
  8
M0
 62
     4
100
AcDbLine
 10
64.238056
 20
509.007564
 11
64.238046
 21
494.507564
  0
LINE
  5
37B
100
AcDbEntity
  8
M0
 62
     4
100
AcDbLine
 10
80.538081
 20
494.507554
 11
80.53809
 21
509.007554
  0
ARC
  5
37C
100
AcDbEntity
  8
M0
 62
     4
100
AcDbCircle
 10
65.238056
 20
509.007563
 40
1.0
100
AcDbArc
 50
90.0
 51
179.999964
  0
ARC
  5
37D
100
AcDbEntity
  8
M0
 62
     4
100
AcDbCircle
 10
79.53809
 20
509.007554
 40
1.0
100
AcDbArc
 50
359.99909
 51
450.0
  0
LINE
  5
37E
100
AcDbEntity
  8
M0
100
AcDbLine
 10
69.559107
 20
424.836837
 11
75.21595
 21
419.179991
  0
LINE
  5
37F
100
AcDbEntity
  8
M0
100
AcDbLine
 10
71.680427
 20
419.887084
 11
74.508854
 21
422.715514
  0
LINE
  5
380
100
AcDbEntity
  8
M0
100
AcDbLine
 10
70.266214
 20
421.301299
 11
73.094641
 21
424.129729
  0
LINE
  5
381
100
AcDbEntity
  8
M0
  6
DASHDOT
100
AcDbLine
 10
72.387534
 20
432.012862
 11
72.387534
 21
410.798201
  0
CIRCLE
  5
382
100
AcDbEntity
  8
M0
100
AcDbCircle
 10
72.387534
 20
422.008406
 40
5.949995
  0
LINE
  5
383
100
AcDbEntity
  8
M0
100
AcDbLine
 10
71.637778
 20
427.910994
 11
71.637778
 21
429.508895
  0
LINE
  5
384
100
AcDbEntity
  8
M0
100
AcDbLine
 10
73.137534
 20
427.910994
 11
73.137534
 21
429.508895
  0
LINE
  5
385
100
AcDbEntity
  8
M0
100
AcDbLine
 10
77.38752
 20
429.508895
 11
80.137764
 21
426.758406
  0
LINE
  5
386
100
AcDbEntity
  8
M0
100
AcDbLine
 10
64.637778
 20
426.758406
 11
67.388022
 21
429.508895
  0
ARC
  5
387
100
AcDbEntity
  8
M0
100
AcDbCircle
 10
79.13752
 20
428.758406
 40
1.0
100
AcDbArc
 50
0.0
 51
48.611504
  0
ARC
  5
388
100
AcDbEntity
  8
M0
100
AcDbCircle
 10
65.637778
 20
428.758406
 40
1.0
100
AcDbArc
 50
131.378543
 51
180.0
  0
LINE
  5
389
100
AcDbEntity
  8
M0
100
AcDbLine
 10
80.13752
 20
428.758406
 11
80.13752
 21
415.258406
  0
LINE
  5
38A
100
AcDbEntity
  8
M0
100
AcDbLine
 10
64.637778
 20
415.258406
 11
64.637778
 21
428.758406
  0
LINE
  5
38B
100
AcDbEntity
  8
M0
100
AcDbLine
 10
66.48519
 20
422.758406
 11
64.637778
 21
422.758406
  0
LINE
  5
38C
100
AcDbEntity
  8
M0
100
AcDbLine
 10
66.48519
 20
421.258406
 11
64.637778
 21
421.258406
  0
LINE
  5
38D
100
AcDbEntity
  8
M0
100
AcDbLine
 10
80.13752
 20
421.258406
 11
78.290107
 21
421.258406
  0
LINE
  5
38E
100
AcDbEntity
  8
M0
100
AcDbLine
 10
80.13752
 20
422.758406
 11
78.290107
 21
422.758406
  0
LINE
  5
38F
100
AcDbEntity
  8
M0
100
AcDbLine
 10
71.637778
 20
414.258406
 11
71.637778
 21
416.106063
  0
LINE
  5
390
100
AcDbEntity
  8
M0
100
AcDbLine
 10
73.137534
 20
414.258406
 11
73.137534
 21
416.106063
  0
LINE
  5
391
100
AcDbEntity
  8
M0
100
AcDbLine
 10
80.13752
 20
417.258406
 11
77.13752
 21
414.258406
  0
LINE
  5
392
100
AcDbEntity
  8
M0
100
AcDbLine
 10
67.637778
 20
414.258406
 11
64.637778
 21
417.258406
  0
ARC
  5
393
100
AcDbEntity
  8
M0
100
AcDbCircle
 10
79.13752
 20
415.258406
 40
1.0
100
AcDbArc
 50
-90.000874
 51
0.0
  0
ARC
  5
394
100
AcDbEntity
  8
M0
100
AcDbCircle
 10
65.637778
 20
415.258406
 40
1.0
100
AcDbArc
 50
180.0
 51
270.0
  0
LINE
  5
395
100
AcDbEntity
  8
M0
100
AcDbLine
 10
79.13752
 20
414.258406
 11
65.637778
 21
414.258406
  0
LINE
  5
396
100
AcDbEntity
  8
M0
  6
DASHDOT
100
AcDbLine
 10
82.685615
 20
422.008406
 11
63.252524
 21
422.008406
  0
LINE
  5
397
100
AcDbEntity
  8
M0
  6
DASHDOT
100
AcDbLine
 10
112.38752
 20
432.01274
 11
112.38752
 21
410.79814
  0
LINE
  5
398
100
AcDbEntity
  8
M0
100
AcDbLine
 10
117.38842
 20
429.50801
 11
120.137504
 21
426.758681
  0
LINE
  5
399
100
AcDbEntity
  8
M0
100
AcDbLine
 10
104.637519
 20
426.758681
 11
107.386604
 21
429.50801
  0
LINE
  5
39A
100
AcDbEntity
  8
M0
100
AcDbLine
 10
111.637519
 20
427.911269
 11
111.637519
 21
429.50801
  0
LINE
  5
39B
100
AcDbEntity
  8
M0
100
AcDbLine
 10
113.137274
 20
427.911269
 11
113.137274
 21
429.50801
  0
ARC
  5
39C
100
AcDbEntity
  8
M0
100
AcDbCircle
 10
119.13726
 20
428.758681
 40
1.0
100
AcDbArc
 50
0.0
 51
48.532218
  0
ARC
  5
39D
100
AcDbEntity
  8
M0
100
AcDbCircle
 10
105.637519
 20
428.758681
 40
1.0
100
AcDbArc
 50
131.546201
 51
180.0
  0
LINE
  5
39E
100
AcDbEntity
  8
M0
  6
DASHDOT
100
AcDbLine
 10
122.685356
 20
422.008681
 11
103.252265
 21
422.008681
  0
LINE
  5
39F
100
AcDbEntity
  8
M0
100
AcDbLine
 10
119.13726
 20
414.258681
 11
105.637519
 21
414.258681
  0
ARC
  5
3A0
100
AcDbEntity
  8
M0
100
AcDbCircle
 10
105.637519
 20
415.258681
 40
1.0
100
AcDbArc
 50
180.0
 51
270.0
  0
ARC
  5
3A1
100
AcDbEntity
  8
M0
100
AcDbCircle
 10
119.13726
 20
415.258681
 40
1.0
100
AcDbArc
 50
-90.000874
 51
0.0
  0
LINE
  5
3A2
100
AcDbEntity
  8
M0
100
AcDbLine
 10
107.637519
 20
414.258681
 11
104.637519
 21
417.258681
  0
LINE
  5
3A3
100
AcDbEntity
  8
M0
100
AcDbLine
 10
120.13726
 20
417.258681
 11
117.13726
 21
414.258681
  0
LINE
  5
3A4
100
AcDbEntity
  8
M0
100
AcDbLine
 10
113.137274
 20
414.258681
 11
113.137274
 21
416.106337
  0
LINE
  5
3A5
100
AcDbEntity
  8
M0
100
AcDbLine
 10
111.637519
 20
414.258681
 11
111.637519
 21
416.106337
  0
LINE
  5
3A6
100
AcDbEntity
  8
M0
100
AcDbLine
 10
120.13726
 20
422.758681
 11
118.289848
 21
422.758681
  0
LINE
  5
3A7
100
AcDbEntity
  8
M0
100
AcDbLine
 10
120.13726
 20
421.258681
 11
118.289848
 21
421.258681
  0
LINE
  5
3A8
100
AcDbEntity
  8
M0
100
AcDbLine
 10
106.484931
 20
421.258681
 11
104.637519
 21
421.258681
  0
LINE
  5
3A9
100
AcDbEntity
  8
M0
100
AcDbLine
 10
106.484931
 20
422.758681
 11
104.637519
 21
422.758681
  0
LINE
  5
3AA
100
AcDbEntity
  8
M0
100
AcDbLine
 10
104.637519
 20
415.258681
 11
104.637519
 21
428.758681
  0
LINE
  5
3AB
100
AcDbEntity
  8
M0
100
AcDbLine
 10
120.13726
 20
428.758681
 11
120.13726
 21
415.258681
  0
CIRCLE
  5
3AC
100
AcDbEntity
  8
M0
100
AcDbCircle
 10
112.387274
 20
422.008681
 40
5.949995
  0
LINE
  5
3AD
100
AcDbEntity
  8
M0
100
AcDbLine
 10
110.265955
 20
421.301574
 11
113.094382
 21
424.130004
  0
LINE
  5
3AE
100
AcDbEntity
  8
M0
100
AcDbLine
 10
111.680168
 20
419.887358
 11
114.508594
 21
422.715789
  0
LINE
  5
3AF
100
AcDbEntity
  8
M0
100
AcDbLine
 10
109.558848
 20
424.837111
 11
115.21569
 21
419.180266
  0
LINE
  5
3B0
100
AcDbEntity
  8
M0
100
AcDbLine
 10
97.388649
 20
429.507766
 11
100.137489
 21
426.758681
  0
LINE
  5
3B1
100
AcDbEntity
  8
M0
100
AcDbLine
 10
84.637503
 20
426.758681
 11
85.886943
 21
428.008239
  0
LINE
  5
3B2
100
AcDbEntity
  8
M0
100
AcDbLine
 10
91.637503
 20
427.911269
 11
91.637503
 21
429.508223
  0
LINE
  5
3B3
100
AcDbEntity
  8
M0
100
AcDbLine
 10
93.137259
 20
427.911269
 11
93.137259
 21
429.562316
  0
ARC
  5
3B4
100
AcDbEntity
  8
M0
100
AcDbCircle
 10
99.137245
 20
428.758681
 40
1.0
100
AcDbArc
 50
0.0
 51
48.511742
  0
LINE
  5
3B5
100
AcDbEntity
  8
M0
  6
DASHDOT
100
AcDbLine
 10
102.685341
 20
422.008681
 11
83.252249
 21
422.008681
  0
LINE
  5
3B6
100
AcDbEntity
  8
M0
100
AcDbLine
 10
99.137245
 20
414.258681
 11
85.637503
 21
414.258681
  0
ARC
  5
3B7
100
AcDbEntity
  8
M0
100
AcDbCircle
 10
85.637503
 20
415.258681
 40
1.0
100
AcDbArc
 50
180.0
 51
270.0
  0
ARC
  5
3B8
100
AcDbEntity
  8
M0
100
AcDbCircle
 10
99.137245
 20
415.258681
 40
1.0
100
AcDbArc
 50
-90.000874
 51
0.0
  0
LINE
  5
3B9
100
AcDbEntity
  8
M0
100
AcDbLine
 10
87.637503
 20
414.258681
 11
84.637503
 21
417.258681
  0
LINE
  5
3BA
100
AcDbEntity
  8
M0
100
AcDbLine
 10
100.137245
 20
417.258681
 11
97.137245
 21
414.258681
  0
LINE
  5
3BB
100
AcDbEntity
  8
M0
100
AcDbLine
 10
93.137259
 20
414.258681
 11
93.137259
 21
416.106337
  0
LINE
  5
3BC
100
AcDbEntity
  8
M0
100
AcDbLine
 10
91.637503
 20
414.258681
 11
91.637503
 21
416.106337
  0
LINE
  5
3BD
100
AcDbEntity
  8
M0
100
AcDbLine
 10
100.137245
 20
422.758681
 11
98.289833
 21
422.758681
  0
LINE
  5
3BE
100
AcDbEntity
  8
M0
100
AcDbLine
 10
100.137245
 20
421.258681
 11
98.289833
 21
421.258681
  0
LINE
  5
3BF
100
AcDbEntity
  8
M0
100
AcDbLine
 10
86.484915
 20
421.258681
 11
84.637503
 21
421.258681
  0
LINE
  5
3C0
100
AcDbEntity
  8
M0
100
AcDbLine
 10
86.484915
 20
422.758681
 11
84.637503
 21
422.758681
  0
LINE
  5
3C1
100
AcDbEntity
  8
M0
100
AcDbLine
 10
84.637503
 20
415.258681
 11
84.637503
 21
428.075255
  0
LINE
  5
3C2
100
AcDbEntity
  8
M0
100
AcDbLine
 10
100.137245
 20
428.758681
 11
100.137245
 21
415.258681
  0
CIRCLE
  5
3C3
100
AcDbEntity
  8
M0
100
AcDbCircle
 10
92.387259
 20
422.008681
 40
5.949995
  0
LINE
  5
3C4
100
AcDbEntity
  8
M0
100
AcDbLine
 10
90.265939
 20
421.301574
 11
93.094367
 21
424.130004
  0
LINE
  5
3C5
100
AcDbEntity
  8
M0
100
AcDbLine
 10
91.680153
 20
419.887358
 11
94.508579
 21
422.715789
  0
LINE
  5
3C6
100
AcDbEntity
  8
M0
100
AcDbLine
 10
89.558833
 20
424.837111
 11
95.215675
 21
419.180266
  0
LINE
  5
3C7
100
AcDbEntity
  8
M0
100
AcDbLine
 10
117.137779
 20
509.757567
 11
120.137504
 21
506.757567
  0
LINE
  5
3C8
100
AcDbEntity
  8
M0
100
AcDbLine
 10
104.637519
 20
506.757567
 11
107.637252
 21
509.757567
  0
LINE
  5
3C9
100
AcDbEntity
  8
M0
100
AcDbLine
 10
111.637519
 20
507.910155
 11
111.637519
 21
509.757567
  0
LINE
  5
3CA
100
AcDbEntity
  8
M0
100
AcDbLine
 10
113.137274
 20
507.910155
 11
113.137274
 21
509.757567
  0
LINE
  5
3CB
100
AcDbEntity
  8
M0
100
AcDbLine
 10
105.637519
 20
509.757567
 11
119.13726
 21
509.757567
  0
ARC
  5
3CC
100
AcDbEntity
  8
M0
100
AcDbCircle
 10
119.13726
 20
508.757567
 40
1.0
100
AcDbArc
 50
0.0
 51
90.0
  0
ARC
  5
3CD
100
AcDbEntity
  8
M0
100
AcDbCircle
 10
105.637519
 20
508.757567
 40
1.0
100
AcDbArc
 50
90.0
 51
180.0
  0
LINE
  5
3CE
100
AcDbEntity
  8
M0
  6
DASHDOT
100
AcDbLine
 10
122.685356
 20
502.007567
 11
103.252265
 21
502.007567
  0
ARC
  5
3CF
100
AcDbEntity
  8
M0
100
AcDbCircle
 10
105.637519
 20
495.257567
 40
1.0
100
AcDbArc
 50
180.0
 51
270.0
  0
ARC
  5
3D0
100
AcDbEntity
  8
M0
100
AcDbCircle
 10
119.13726
 20
495.257567
 40
1.0
100
AcDbArc
 50
-90.000874
 51
0.0
  0
LINE
  5
3D1
100
AcDbEntity
  8
M0
100
AcDbLine
 10
107.637519
 20
494.257567
 11
104.637519
 21
497.257567
  0
LINE
  5
3D2
100
AcDbEntity
  8
M0
100
AcDbLine
 10
120.13726
 20
497.257567
 11
117.13726
 21
494.257567
  0
LINE
  5
3D3
100
AcDbEntity
  8
M0
100
AcDbLine
 10
113.137274
 20
494.257567
 11
113.137274
 21
496.105223
  0
LINE
  5
3D4
100
AcDbEntity
  8
M0
100
AcDbLine
 10
111.637519
 20
494.257567
 11
111.637519
 21
496.105223
  0
LINE
  5
3D5
100
AcDbEntity
  8
M0
100
AcDbLine
 10
120.13726
 20
502.757567
 11
118.289848
 21
502.757567
  0
LINE
  5
3D6
100
AcDbEntity
  8
M0
100
AcDbLine
 10
120.13726
 20
501.257567
 11
118.289848
 21
501.257567
  0
LINE
  5
3D7
100
AcDbEntity
  8
M0
100
AcDbLine
 10
106.484931
 20
501.257567
 11
104.637519
 21
501.257567
  0
LINE
  5
3D8
100
AcDbEntity
  8
M0
100
AcDbLine
 10
106.484931
 20
502.757567
 11
104.637519
 21
502.757567
  0
LINE
  5
3D9
100
AcDbEntity
  8
M0
100
AcDbLine
 10
104.637519
 20
495.257567
 11
104.637519
 21
508.757567
  0
LINE
  5
3DA
100
AcDbEntity
  8
M0
100
AcDbLine
 10
120.13726
 20
508.757567
 11
120.13726
 21
495.257567
  0
CIRCLE
  5
3DB
100
AcDbEntity
  8
M0
100
AcDbCircle
 10
112.387274
 20
502.007567
 40
5.949995
  0
LINE
  5
3DC
100
AcDbEntity
  8
M0
100
AcDbLine
 10
110.265955
 20
501.30046
 11
113.094382
 21
504.12889
  0
LINE
  5
3DD
100
AcDbEntity
  8
M0
100
AcDbLine
 10
111.680168
 20
499.886245
 11
114.508594
 21
502.714675
  0
LINE
  5
3DE
100
AcDbEntity
  8
M0
100
AcDbLine
 10
109.558848
 20
504.835997
 11
115.21569
 21
499.179152
  0
LINE
  5
3DF
100
AcDbEntity
  8
M0
100
AcDbLine
 10
97.137748
 20
509.757567
 11
100.137474
 21
506.757567
  0
LINE
  5
3E0
100
AcDbEntity
  8
M0
100
AcDbLine
 10
84.637488
 20
506.757567
 11
87.637222
 21
509.757567
  0
LINE
  5
3E1
100
AcDbEntity
  8
M0
100
AcDbLine
 10
91.637488
 20
507.910155
 11
91.637488
 21
509.757567
  0
LINE
  5
3E2
100
AcDbEntity
  8
M0
100
AcDbLine
 10
93.137244
 20
507.910155
 11
93.137244
 21
509.757567
  0
LINE
  5
3E3
100
AcDbEntity
  8
M0
100
AcDbLine
 10
85.637488
 20
509.757567
 11
99.13723
 21
509.757567
  0
ARC
  5
3E4
100
AcDbEntity
  8
M0
100
AcDbCircle
 10
99.13723
 20
508.757567
 40
1.0
100
AcDbArc
 50
0.0
 51
90.0
  0
ARC
  5
3E5
100
AcDbEntity
  8
M0
100
AcDbCircle
 10
85.637488
 20
508.757567
 40
1.0
100
AcDbArc
 50
90.0
 51
180.0
  0
LINE
  5
3E6
100
AcDbEntity
  8
M0
  6
DASHDOT
100
AcDbLine
 10
102.685325
 20
502.007567
 11
83.252234
 21
502.007567
  0
ARC
  5
3E7
100
AcDbEntity
  8
M0
100
AcDbCircle
 10
99.13723
 20
495.257567
 40
1.0
100
AcDbArc
 50
-90.000874
 51
0.0
  0
LINE
  5
3E8
100
AcDbEntity
  8
M0
100
AcDbLine
 10
85.887612
 20
496.007445
 11
84.637488
 21
497.257567
  0
LINE
  5
3E9
100
AcDbEntity
  8
M0
100
AcDbLine
 10
100.13723
 20
497.257567
 11
97.13723
 21
494.257567
  0
LINE
  5
3EA
100
AcDbEntity
  8
M0
100
AcDbLine
 10
93.137244
 20
494.257567
 11
93.137244
 21
496.105223
  0
LINE
  5
3EB
100
AcDbEntity
  8
M0
100
AcDbLine
 10
91.637488
 20
494.507216
 11
91.637488
 21
496.105223
  0
LINE
  5
3EC
100
AcDbEntity
  8
M0
100
AcDbLine
 10
100.13723
 20
502.757567
 11
98.289817
 21
502.757567
  0
LINE
  5
3ED
100
AcDbEntity
  8
M0
100
AcDbLine
 10
100.13723
 20
501.257567
 11
98.289817
 21
501.257567
  0
LINE
  5
3EE
100
AcDbEntity
  8
M0
100
AcDbLine
 10
86.4849
 20
501.257567
 11
84.637488
 21
501.257567
  0
LINE
  5
3EF
100
AcDbEntity
  8
M0
100
AcDbLine
 10
86.4849
 20
502.757567
 11
84.637488
 21
502.757567
  0
LINE
  5
3F0
100
AcDbEntity
  8
M0
100
AcDbLine
 10
84.637488
 20
495.940429
 11
84.637488
 21
508.757567
  0
LINE
  5
3F1
100
AcDbEntity
  8
M0
100
AcDbLine
 10
100.13723
 20
508.757567
 11
100.13723
 21
495.257567
  0
CIRCLE
  5
3F2
100
AcDbEntity
  8
M0
100
AcDbCircle
 10
92.387244
 20
502.007567
 40
5.949995
  0
LINE
  5
3F3
100
AcDbEntity
  8
M0
100
AcDbLine
 10
90.265924
 20
501.30046
 11
93.094351
 21
504.12889
  0
LINE
  5
3F4
100
AcDbEntity
  8
M0
100
AcDbLine
 10
91.680137
 20
499.886245
 11
94.508564
 21
502.714675
  0
LINE
  5
3F5
100
AcDbEntity
  8
M0
100
AcDbLine
 10
89.558818
 20
504.835997
 11
95.21566
 21
499.179152
  0
LINE
  5
3F6
100
AcDbEntity
  8
M0
  6
DASHDOT
100
AcDbLine
 10
52.38758
 20
492.012511
 11
52.38758
 21
472.126082
  0
LINE
  5
3F7
100
AcDbEntity
  8
M0
100
AcDbLine
 10
77.138054
 20
509.757811
 11
80.137779
 21
506.757811
  0
LINE
  5
3F8
100
AcDbEntity
  8
M0
100
AcDbLine
 10
64.637793
 20
506.757811
 11
67.637527
 21
509.757811
  0
LINE
  5
3F9
100
AcDbEntity
  8
M0
100
AcDbLine
 10
71.637793
 20
507.910399
 11
71.637793
 21
509.757811
  0
LINE
  5
3FA
100
AcDbEntity
  8
M0
100
AcDbLine
 10
73.137549
 20
507.910399
 11
73.137549
 21
509.757811
  0
LINE
  5
3FB
100
AcDbEntity
  8
M0
100
AcDbLine
 10
65.637793
 20
509.757811
 11
79.137535
 21
509.757811
  0
ARC
  5
3FC
100
AcDbEntity
  8
M0
100
AcDbCircle
 10
79.137535
 20
508.757811
 40
1.0
100
AcDbArc
 50
0.0
 51
90.0
  0
ARC
  5
3FD
100
AcDbEntity
  8
M0
100
AcDbCircle
 10
65.637793
 20
508.757811
 40
1.0
100
AcDbArc
 50
90.0
 51
180.0
  0
LINE
  5
3FE
100
AcDbEntity
  8
M0
  6
DASHDOT
100
AcDbLine
 10
82.68563
 20
502.007811
 11
63.252539
 21
502.007811
  0
ARC
  5
3FF
100
AcDbEntity
  8
M0
100
AcDbCircle
 10
65.637793
 20
495.257811
 40
1.0
100
AcDbArc
 50
180.0
 51
228.614759
  0
ARC
  5
400
100
AcDbEntity
  8
M0
100
AcDbCircle
 10
79.137535
 20
495.257811
 40
1.0
100
AcDbArc
 50
-48.624421
 51
0.0
  0
LINE
  5
401
100
AcDbEntity
  8
M0
100
AcDbLine
 10
67.388088
 20
494.507521
 11
64.637793
 21
497.257811
  0
LINE
  5
402
100
AcDbEntity
  8
M0
100
AcDbLine
 10
80.137535
 20
497.257811
 11
77.387169
 21
494.507445
  0
LINE
  5
403
100
AcDbEntity
  8
M0
100
AcDbLine
 10
73.137549
 20
494.507476
 11
73.137549
 21
496.105468
  0
LINE
  5
404
100
AcDbEntity
  8
M0
100
AcDbLine
 10
71.637793
 20
494.507491
 11
71.637793
 21
496.105468
  0
LINE
  5
405
100
AcDbEntity
  8
M0
100
AcDbLine
 10
80.137535
 20
502.757811
 11
78.290123
 21
502.757811
  0
LINE
  5
406
100
AcDbEntity
  8
M0
100
AcDbLine
 10
80.137535
 20
501.257811
 11
78.290123
 21
501.257811
  0
LINE
  5
407
100
AcDbEntity
  8
M0
100
AcDbLine
 10
66.485205
 20
501.257811
 11
64.637793
 21
501.257811
  0
LINE
  5
408
100
AcDbEntity
  8
M0
100
AcDbLine
 10
66.485205
 20
502.757811
 11
64.637793
 21
502.757811
  0
LINE
  5
409
100
AcDbEntity
  8
M0
100
AcDbLine
 10
64.637793
 20
495.257811
 11
64.637793
 21
508.757811
  0
LINE
  5
40A
100
AcDbEntity
  8
M0
100
AcDbLine
 10
80.137535
 20
508.757811
 11
80.137535
 21
495.257811
  0
CIRCLE
  5
40B
100
AcDbEntity
  8
M0
100
AcDbCircle
 10
72.387549
 20
502.007811
 40
5.949995
  0
LINE
  5
40C
100
AcDbEntity
  8
M0
  6
DASHDOT
100
AcDbLine
 10
72.387549
 20
512.012267
 11
72.387549
 21
492.125838
  0
LINE
  5
40D
100
AcDbEntity
  8
M0
100
AcDbLine
 10
70.266229
 20
501.300704
 11
73.094657
 21
504.129134
  0
LINE
  5
40E
100
AcDbEntity
  8
M0
100
AcDbLine
 10
71.680442
 20
499.886489
 11
74.508869
 21
502.714919
  0
LINE
  5
40F
100
AcDbEntity
  8
M0
100
AcDbLine
 10
69.559123
 20
504.836241
 11
75.215965
 21
499.179396
  0
LINE
  5
410
100
AcDbEntity
  8
M0
  6
DASHDOT
100
AcDbLine
 10
112.387535
 20
512.012252
 11
112.387535
 21
492.125777
  0
LINE
  5
411
100
AcDbEntity
  8
M0
100
AcDbLine
 10
84.387535
 20
452.007613
 11
100.38697
 21
452.007613
  0
LINE
  5
412
100
AcDbEntity
  8
M0
 62
     4
100
AcDbLine
 10
99.53806
 20
510.00731
 11
85.238026
 21
510.007319
  0
LINE
  5
413
100
AcDbEntity
  8
M0
 62
     4
100
AcDbLine
 10
84.238025
 20
509.00732
 11
84.238016
 21
494.50732
  0
LINE
  5
414
100
AcDbEntity
  8
M0
 62
     4
100
AcDbLine
 10
100.538051
 20
494.50731
 11
100.53806
 21
509.00731
  0
ARC
  5
415
100
AcDbEntity
  8
M0
 62
     4
100
AcDbCircle
 10
85.238025
 20
509.007319
 40
1.0
100
AcDbArc
 50
90.0
 51
179.999964
  0
ARC
  5
416
100
AcDbEntity
  8
M0
 62
     4
100
AcDbCircle
 10
99.538051
 20
494.50731
 40
1.0
100
AcDbArc
 50
345.537726
 51
359.99909
  0
ARC
  5
417
100
AcDbEntity
  8
M0
 62
     4
100
AcDbCircle
 10
99.53806
 20
509.00731
 40
1.0
100
AcDbArc
 50
359.99909
 51
450.0
  0
LINE
  5
418
100
AcDbEntity
  8
M0
 62
     4
100
AcDbLine
 10
85.237311
 20
414.008055
 11
99.537346
 21
414.008055
  0
LINE
  5
419
100
AcDbEntity
  8
M0
 62
     4
100
AcDbLine
 10
100.537346
 20
415.008055
 11
100.537346
 21
429.508055
  0
LINE
  5
41A
100
AcDbEntity
  8
M0
 62
     4
100
AcDbLine
 10
84.237311
 20
429.508055
 11
84.237311
 21
415.008055
  0
ARC
  5
41B
100
AcDbEntity
  8
M0
 62
     4
100
AcDbCircle
 10
99.537346
 20
415.008055
 40
1.0
100
AcDbArc
 50
269.999126
 51
360.0
  0
ARC
  5
41C
100
AcDbEntity
  8
M0
 62
     4
100
AcDbCircle
 10
85.237311
 20
415.008055
 40
1.0
100
AcDbArc
 50
180.0
 51
270.0
  0
LINE
  5
41D
100
AcDbEntity
  8
M0
 62
     1
100
AcDbLine
 10
92.38723
 20
494.0083
 11
60.88726
 21
494.0083
  0
LINE
  5
41E
100
AcDbEntity
  8
M0
 62
     1
100
AcDbLine
 10
60.88726
 20
430.0083
 11
92.387245
 21
430.0083
  0
LINE
  5
41F
100
AcDbEntity
  8
M0
 62
     1
100
AcDbLine
 10
60.88726
 20
494.0083
 11
60.88726
 21
466.338424
  0
LINE
  5
420
100
AcDbEntity
  8
M0
 62
     1
100
AcDbLine
 10
60.88726
 20
457.678176
 11
60.88726
 21
430.0083
  0
ARC
  5
421
100
AcDbEntity
  8
M0
 62
     1
100
AcDbCircle
 10
58.38726
 20
462.0083
 40
5.0
100
AcDbArc
 50
299.99993
 51
419.999925
  0
LINE
  5
422
100
AcDbEntity
  8
M0
 62
     1
100
AcDbLine
 10
92.387282
 20
494.0083
 11
123.887245
 21
494.0083
  0
LINE
  5
423
100
AcDbEntity
  8
M0
 62
     1
100
AcDbLine
 10
123.887245
 20
430.0083
 11
92.387266
 21
430.0083
  0
LINE
  5
424
100
AcDbEntity
  8
M0
 62
     1
100
AcDbLine
 10
123.887245
 20
494.0083
 11
123.887245
 21
466.338424
  0
LINE
  5
425
100
AcDbEntity
  8
M0
 62
     1
100
AcDbLine
 10
123.887245
 20
457.678176
 11
123.887245
 21
430.0083
  0
ARC
  5
426
100
AcDbEntity
  8
M0
 62
     1
100
AcDbCircle
 10
126.387245
 20
462.0083
 40
5.0
100
AcDbArc
 50
120.000018
 51
239.999918
  0
LINE
  5
427
100
AcDbEntity
  8
M0
  6
DASHDOT
100
AcDbLine
 10
48.387046
 20
432.008101
 11
48.387046
 21
492.008101
  0
LINE
  5
428
100
AcDbEntity
  8
M0
100
AcDbLine
 10
126.987114
 20
490.90747
 11
126.987114
 21
491.354247
  0
LINE
  5
429
100
AcDbEntity
  8
M0
100
AcDbLine
 10
126.987114
 20
496.660887
 11
126.987114
 21
497.107421
  0
LINE
  5
42A
100
AcDbEntity
  8
M0
100
AcDbLine
 10
128.740532
 20
495.42163
 11
126.972953
 21
493.654052
  0
LINE
  5
42B
100
AcDbEntity
  8
M0
100
AcDbLine
 10
129.977836
 20
492.416747
 11
126.796196
 21
495.598387
  0
LINE
  5
42C
100
AcDbEntity
  8
M0
  6
DASHDOT
100
AcDbLine
 10
122.88723
 20
494.007567
 11
134.662162
 21
494.007567
  0
LINE
  5
42D
100
AcDbEntity
  8
M0
100
AcDbLine
 10
124.612114
 20
495.307616
 11
124.612114
 21
492.707518
  0
LINE
  5
42E
100
AcDbEntity
  8
M0
100
AcDbLine
 10
129.787162
 20
496.660887
 11
129.787162
 21
497.107421
  0
ARC
  5
42F
100
AcDbEntity
  8
M0
100
AcDbCircle
 10
125.906303
 20
490.20753
 40
0.5
100
AcDbArc
 50
197.116934
 51
269.998251
  0
ARC
  5
430
100
AcDbEntity
  8
M0
100
AcDbCircle
 10
130.867973
 20
497.807372
 40
0.5
100
AcDbArc
 50
17.151452
 51
90.0
  0
LINE
  5
431
100
AcDbEntity
  8
M0
  6
DASHDOT
100
AcDbLine
 10
128.38726
 20
466.52058
 11
128.38726
 21
500.807616
  0
ARC
  5
432
100
AcDbEntity
  8
M0
100
AcDbCircle
 10
130.867973
 20
490.20753
 40
0.5
100
AcDbArc
 50
269.998251
 51
342.874517
  0
LINE
  5
433
100
AcDbEntity
  8
M0
100
AcDbLine
 10
129.801078
 20
494.361083
 11
128.0335
 21
492.593505
  0
LINE
  5
434
100
AcDbEntity
  8
M0
100
AcDbLine
 10
129.787162
 20
490.90747
 11
129.787162
 21
491.354247
  0
ARC
  5
435
100
AcDbEntity
  8
M0
100
AcDbCircle
 10
125.906303
 20
497.807372
 40
0.5
100
AcDbArc
 50
90.0
 51
162.856778
  0
CIRCLE
  5
436
100
AcDbEntity
  8
M0
100
AcDbCircle
 10
128.38726
 20
494.007567
 40
3.0
  0
LINE
  5
437
100
AcDbEntity
  8
M0
100
AcDbLine
 10
131.345756
 20
497.954833
 11
132.162162
 21
495.307616
  0
LINE
  5
438
100
AcDbEntity
  8
M0
100
AcDbLine
 10
125.428276
 20
490.060313
 11
124.612114
 21
492.707518
  0
LINE
  5
439
100
AcDbEntity
  8
M0
100
AcDbLine
 10
130.708793
 20
495.90747
 11
131.977104
 21
495.90747
  0
LINE
  5
43A
100
AcDbEntity
  8
M0
100
AcDbLine
 10
131.345756
 20
490.060313
 11
132.162162
 21
492.707518
  0
LINE
  5
43B
100
AcDbEntity
  8
M0
100
AcDbLine
 10
126.987114
 20
497.107421
 11
125.167045
 21
497.107421
  0
LINE
  5
43C
100
AcDbEntity
  8
M0
100
AcDbLine
 10
129.787162
 20
497.107421
 11
131.607231
 21
497.107421
  0
LINE
  5
43D
100
AcDbEntity
  8
M0
100
AcDbLine
 10
125.428276
 20
497.954833
 11
124.612114
 21
495.307616
  0
LINE
  5
43E
100
AcDbEntity
  8
M0
100
AcDbLine
 10
126.987114
 20
490.90747
 11
125.167045
 21
490.90747
  0
LINE
  5
43F
100
AcDbEntity
  8
M0
100
AcDbLine
 10
126.065483
 20
492.107421
 11
124.797172
 21
492.107421
  0
LINE
  5
440
100
AcDbEntity
  8
M0
100
AcDbLine
 10
132.162162
 20
492.707518
 11
132.162162
 21
495.307616
  0
LINE
  5
441
100
AcDbEntity
  8
M0
100
AcDbLine
 10
125.906303
 20
489.70753
 11
130.867973
 21
489.70753
  0
LINE
  5
442
100
AcDbEntity
  8
M0
100
AcDbLine
 10
130.708793
 20
492.107421
 11
131.977104
 21
492.107421
  0
LINE
  5
443
100
AcDbEntity
  8
M0
100
AcDbLine
 10
130.867973
 20
498.307616
 11
125.906303
 21
498.307372
  0
LINE
  5
444
100
AcDbEntity
  8
M0
100
AcDbLine
 10
126.065483
 20
495.90747
 11
124.797172
 21
495.90747
  0
LINE
  5
445
100
AcDbEntity
  8
M0
100
AcDbLine
 10
129.787162
 20
490.90747
 11
131.607231
 21
490.90747
  0
LINE
  5
446
100
AcDbEntity
  8
M0
100
AcDbLine
 10
83.387244
 20
529.007811
 11
83.387244
 21
515.007567
  0
LINE
  5
447
100
AcDbEntity
  8
M0
100
AcDbLine
 10
71.387244
 20
529.007811
 11
71.387244
 21
513.108287
  0
LINE
  5
448
100
AcDbEntity
  8
M0
100
AcDbLine
 10
81.387244
 20
529.007811
 11
81.387244
 21
515.007567
  0
LINE
  5
449
100
AcDbEntity
  8
M0
100
AcDbLine
 10
73.387244
 20
529.007811
 11
73.387244
 21
513.108288
  0
LINE
  5
44A
100
AcDbEntity
  8
M0
100
AcDbLine
 10
75.987097
 20
519.907958
 11
75.987097
 21
520.354735
  0
LINE
  5
44B
100
AcDbEntity
  8
M0
100
AcDbLine
 10
75.987097
 20
525.661376
 11
75.987097
 21
526.107909
  0
LINE
  5
44C
100
AcDbEntity
  8
M0
100
AcDbLine
 10
77.740515
 20
524.422118
 11
75.972937
 21
522.65454
  0
LINE
  5
44D
100
AcDbEntity
  8
M0
100
AcDbLine
 10
78.97782
 20
521.417235
 11
75.796179
 21
524.598876
  0
LINE
  5
44E
100
AcDbEntity
  8
M0
  6
DASHDOT
100
AcDbLine
 10
71.887213
 20
523.008055
 11
83.662146
 21
523.008055
  0
LINE
  5
44F
100
AcDbEntity
  8
M0
100
AcDbLine
 10
73.612097
 20
524.308104
 11
73.612097
 21
521.708007
  0
LINE
  5
450
100
AcDbEntity
  8
M0
100
AcDbLine
 10
78.787146
 20
525.661376
 11
78.787146
 21
526.107909
  0
ARC
  5
451
100
AcDbEntity
  8
M0
100
AcDbCircle
 10
74.906287
 20
519.208018
 40
0.5
100
AcDbArc
 50
197.116934
 51
269.998251
  0
ARC
  5
452
100
AcDbEntity
  8
M0
100
AcDbCircle
 10
79.867957
 20
526.80786
 40
0.5
100
AcDbArc
 50
17.151452
 51
90.0
  0
LINE
  5
453
100
AcDbEntity
  8
M0
  6
DASHDOT
100
AcDbLine
 10
77.387244
 20
516.550037
 11
77.387244
 21
529.808104
  0
ARC
  5
454
100
AcDbEntity
  8
M0
100
AcDbCircle
 10
79.867957
 20
519.208018
 40
0.5
100
AcDbArc
 50
269.998251
 51
342.874517
  0
LINE
  5
455
100
AcDbEntity
  8
M0
100
AcDbLine
 10
78.801062
 20
523.361571
 11
77.033484
 21
521.593993
  0
LINE
  5
456
100
AcDbEntity
  8
M0
100
AcDbLine
 10
78.787146
 20
519.907958
 11
78.787146
 21
520.354735
  0
ARC
  5
457
100
AcDbEntity
  8
M0
100
AcDbCircle
 10
74.906287
 20
526.80786
 40
0.5
100
AcDbArc
 50
90.0
 51
162.856778
  0
CIRCLE
  5
458
100
AcDbEntity
  8
M0
100
AcDbCircle
 10
77.387244
 20
523.008055
 40
3.0
  0
LINE
  5
459
100
AcDbEntity
  8
M0
100
AcDbLine
 10
80.34574
 20
526.955321
 11
81.162146
 21
524.308104
  0
LINE
  5
45A
100
AcDbEntity
  8
M0
100
AcDbLine
 10
74.428259
 20
519.060801
 11
73.612097
 21
521.708007
  0
LINE
  5
45B
100
AcDbEntity
  8
M0
100
AcDbLine
 10
79.708777
 20
524.907958
 11
80.977088
 21
524.907958
  0
LINE
  5
45C
100
AcDbEntity
  8
M0
100
AcDbLine
 10
80.34574
 20
519.060801
 11
81.162146
 21
521.708007
  0
LINE
  5
45D
100
AcDbEntity
  8
M0
100
AcDbLine
 10
75.987097
 20
526.107909
 11
74.167029
 21
526.107909
  0
LINE
  5
45E
100
AcDbEntity
  8
M0
100
AcDbLine
 10
78.787146
 20
526.107909
 11
80.607215
 21
526.107909
  0
LINE
  5
45F
100
AcDbEntity
  8
M0
100
AcDbLine
 10
74.428259
 20
526.955321
 11
73.612097
 21
524.308104
  0
LINE
  5
460
100
AcDbEntity
  8
M0
100
AcDbLine
 10
75.987097
 20
519.907958
 11
74.167029
 21
519.907958
  0
LINE
  5
461
100
AcDbEntity
  8
M0
100
AcDbLine
 10
75.065466
 20
521.107909
 11
73.797156
 21
521.107909
  0
LINE
  5
462
100
AcDbEntity
  8
M0
100
AcDbLine
 10
81.162146
 20
521.708007
 11
81.162146
 21
524.308104
  0
LINE
  5
463
100
AcDbEntity
  8
M0
100
AcDbLine
 10
74.906287
 20
518.708018
 11
79.867957
 21
518.708018
  0
LINE
  5
464
100
AcDbEntity
  8
M0
100
AcDbLine
 10
79.708777
 20
521.107909
 11
80.977088
 21
521.107909
  0
LINE
  5
465
100
AcDbEntity
  8
M0
100
AcDbLine
 10
79.867957
 20
527.308104
 11
74.906287
 21
527.30786
  0
LINE
  5
466
100
AcDbEntity
  8
M0
100
AcDbLine
 10
75.065466
 20
524.907958
 11
73.797156
 21
524.907958
  0
LINE
  5
467
100
AcDbEntity
  8
M0
100
AcDbLine
 10
78.787146
 20
519.907958
 11
80.607215
 21
519.907958
  0
LINE
  5
468
100
AcDbEntity
  8
M0
100
AcDbLine
 10
101.387241
 20
529.007811
 11
101.387248
 21
515.007572
  0
LINE
  5
469
100
AcDbEntity
  8
M0
100
AcDbLine
 10
113.387241
 20
529.007822
 11
113.387249
 21
513.108313
  0
LINE
  5
46A
100
AcDbEntity
  8
M0
100
AcDbLine
 10
103.387241
 20
529.007817
 11
103.387248
 21
515.007573
  0
LINE
  5
46B
100
AcDbEntity
  8
M0
100
AcDbLine
 10
111.387241
 20
529.007821
 11
111.387249
 21
513.108311
  0
LINE
  5
46C
100
AcDbEntity
  8
M0
100
AcDbLine
 10
108.787392
 20
519.907966
 11
108.787392
 21
520.354743
  0
LINE
  5
46D
100
AcDbEntity
  8
M0
100
AcDbLine
 10
108.787389
 20
525.661384
 11
108.787389
 21
526.107917
  0
LINE
  5
46E
100
AcDbEntity
  8
M0
100
AcDbLine
 10
107.033972
 20
524.422125
 11
108.801551
 21
522.654548
  0
LINE
  5
46F
100
AcDbEntity
  8
M0
100
AcDbLine
 10
105.796668
 20
521.417242
 11
108.978307
 21
524.598884
  0
LINE
  5
470
100
AcDbEntity
  8
M0
  6
DASHDOT
100
AcDbLine
 10
112.887274
 20
523.008066
 11
101.112341
 21
523.00806
  0
LINE
  5
471
100
AcDbEntity
  8
M0
100
AcDbLine
 10
111.16239
 20
524.308114
 11
111.162391
 21
521.708016
  0
LINE
  5
472
100
AcDbEntity
  8
M0
100
AcDbLine
 10
105.98734
 20
525.661383
 11
105.98734
 21
526.107916
  0
ARC
  5
473
100
AcDbEntity
  8
M0
100
AcDbCircle
 10
109.868203
 20
519.208027
 40
0.5
100
AcDbArc
 50
270.001777
 51
342.883095
  0
ARC
  5
474
100
AcDbEntity
  8
M0
100
AcDbCircle
 10
104.906529
 20
526.807866
 40
0.5
100
AcDbArc
 50
90.0
 51
162.848577
  0
LINE
  5
475
100
AcDbEntity
  8
M0
  6
DASHDOT
100
AcDbLine
 10
107.387247
 20
516.550045
 11
107.38724
 21
529.808112
  0
ARC
  5
476
100
AcDbEntity
  8
M0
100
AcDbCircle
 10
104.906533
 20
519.208024
 40
0.5
100
AcDbArc
 50
197.125512
 51
270.001777
  0
LINE
  5
477
100
AcDbEntity
  8
M0
100
AcDbLine
 10
105.973425
 20
523.361578
 11
107.741004
 21
521.594001
  0
LINE
  5
478
100
AcDbEntity
  8
M0
100
AcDbLine
 10
105.987343
 20
519.907965
 11
105.987343
 21
520.354742
  0
ARC
  5
479
100
AcDbEntity
  8
M0
100
AcDbCircle
 10
109.868199
 20
526.807869
 40
0.5
100
AcDbArc
 50
17.143251
 51
90.0
  0
CIRCLE
  5
47A
100
AcDbEntity
  8
M0
100
AcDbCircle
 10
107.387244
 20
523.008063
 40
3.0
  0
LINE
  5
47B
100
AcDbEntity
  8
M0
100
AcDbLine
 10
104.428746
 20
526.955327
 11
103.612341
 21
524.30811
  0
LINE
  5
47C
100
AcDbEntity
  8
M0
100
AcDbLine
 10
110.34623
 20
519.06081
 11
111.162391
 21
521.708016
  0
LINE
  5
47D
100
AcDbEntity
  8
M0
100
AcDbLine
 10
105.06571
 20
524.907964
 11
103.797399
 21
524.907964
  0
LINE
  5
47E
100
AcDbEntity
  8
M0
100
AcDbLine
 10
104.42875
 20
519.060807
 11
103.612342
 21
521.708012
  0
LINE
  5
47F
100
AcDbEntity
  8
M0
100
AcDbLine
 10
108.787389
 20
526.107917
 11
110.607457
 21
526.107918
  0
LINE
  5
480
100
AcDbEntity
  8
M0
100
AcDbLine
 10
105.98734
 20
526.107916
 11
104.167272
 21
526.107915
  0
LINE
  5
481
100
AcDbEntity
  8
M0
100
AcDbLine
 10
110.346226
 20
526.95533
 11
111.16239
 21
524.308114
  0
LINE
  5
482
100
AcDbEntity
  8
M0
100
AcDbLine
 10
108.787392
 20
519.907966
 11
110.60746
 21
519.907967
  0
LINE
  5
483
100
AcDbEntity
  8
M0
100
AcDbLine
 10
109.709022
 20
521.107918
 11
110.977333
 21
521.107918
  0
LINE
  5
484
100
AcDbEntity
  8
M0
100
AcDbLine
 10
103.612342
 20
521.708012
 11
103.612341
 21
524.30811
  0
LINE
  5
485
100
AcDbEntity
  8
M0
100
AcDbLine
 10
109.868203
 20
518.708027
 11
104.906533
 21
518.708024
  0
LINE
  5
486
100
AcDbEntity
  8
M0
100
AcDbLine
 10
105.065712
 20
521.107915
 11
103.797401
 21
521.107915
  0
LINE
  5
487
100
AcDbEntity
  8
M0
100
AcDbLine
 10
104.906529
 20
527.308111
 11
109.868199
 21
527.307869
  0
LINE
  5
488
100
AcDbEntity
  8
M0
100
AcDbLine
 10
109.70902
 20
524.907967
 11
110.977331
 21
524.907967
  0
LINE
  5
489
100
AcDbEntity
  8
M0
100
AcDbLine
 10
105.987343
 20
519.907965
 11
104.167275
 21
519.907964
  0
LINE
  5
48A
100
AcDbEntity
  8
M0
100
AcDbLine
 10
139.387291
 20
433.007487
 11
139.387291
 21
417.908329
  0
LINE
  5
48B
100
AcDbEntity
  8
M0
100
AcDbLine
 10
60.38755
 20
417.90828
 11
48.38727
 21
417.908272
  0
LINE
  5
48C
100
AcDbEntity
  8
M0
100
AcDbLine
 10
48.387062
 20
424.50804
 11
48.387062
 21
417.908272
  0
LINE
  5
48D
100
AcDbEntity
  8
M0
100
AcDbLine
 10
80.63752
 20
513.108292
 11
48.387246
 21
513.108272
  0
LINE
  5
48E
100
AcDbEntity
  8
M0
100
AcDbLine
 10
122.387242
 20
529.108318
 11
62.387242
 21
529.108318
  0
LINE
  5
48F
100
AcDbEntity
  8
M0
100
AcDbLine
 10
100.637275
 20
513.108305
 11
84.137519
 21
513.108295
  0
LINE
  5
490
100
AcDbEntity
  8
M0
100
AcDbLine
 10
139.387291
 20
513.108329
 11
104.137275
 21
513.108307
  0
LINE
  5
491
100
AcDbEntity
  8
M0
100
AcDbLine
 10
126.059437
 20
417.90832
 11
139.387291
 21
417.908329
  0
LINE
  5
492
100
AcDbEntity
  8
M0
100
AcDbLine
 10
385.160166
 20
529.006816
 11
407.160166
 21
529.006816
  0
LINE
  5
493
100
AcDbEntity
  8
M0
100
AcDbLine
 10
381.160166
 20
514.007333
 11
439.459708
 21
514.007333
  0
LINE
  5
494
100
AcDbEntity
  8
M0
100
AcDbLine
 10
381.160166
 20
513.007333
 11
439.459708
 21
513.007333
  0
LINE
  5
495
100
AcDbEntity
  8
M0
100
AcDbLine
 10
413.160166
 20
513.007333
 11
413.160166
 21
414.008281
  0
LINE
  5
496
100
AcDbEntity
  8
M0
100
AcDbLine
 10
439.459708
 20
513.007333
 11
439.459708
 21
418.908387
  0
LINE
  5
497
100
AcDbEntity
  8
M0
100
AcDbLine
 10
381.160166
 20
525.006816
 11
381.160166
 21
513.007333
  0
LINE
  5
498
100
AcDbEntity
  8
M0
100
AcDbLine
 10
411.160166
 20
514.007333
 11
411.160166
 21
525.006816
  0
LINE
  5
499
100
AcDbEntity
  8
M0
100
AcDbLine
 10
431.459708
 20
517.007333
 11
417.459708
 21
517.007333
  0
ARC
  5
49A
100
AcDbEntity
  8
M0
100
AcDbCircle
 10
431.459708
 20
514.007333
 40
3.0
100
AcDbArc
 50
0.0
 51
90.0
  0
ARC
  5
49B
100
AcDbEntity
  8
M0
100
AcDbCircle
 10
417.459708
 20
514.007333
 40
3.0
100
AcDbArc
 50
90.0
 51
180.0
  0
LINE
  5
49C
100
AcDbEntity
  8
M0
100
AcDbLine
 10
413.160166
 20
417.908387
 11
439.459708
 21
417.908387
  0
LINE
  5
49D
100
AcDbEntity
  8
M0
100
AcDbLine
 10
413.160166
 20
418.908387
 11
439.459708
 21
418.908387
  0
LINE
  5
49E
100
AcDbEntity
  8
M0
100
AcDbLine
 10
425.310166
 20
402.007639
 11
428.310166
 21
402.007639
  0
LINE
  5
49F
100
AcDbEntity
  8
M0
100
AcDbLine
 10
428.310166
 20
417.908387
 11
428.310166
 21
402.007639
  0
LINE
  5
4A0
100
AcDbEntity
  8
M0
100
AcDbLine
 10
425.310166
 20
417.908387
 11
425.310166
 21
402.007639
  0
ARC
  5
4A1
100
AcDbEntity
  8
M0
100
AcDbCircle
 10
439.459708
 20
418.908387
 40
1.0
100
AcDbArc
 50
270.0
 51
360.0
  0
LINE
  5
4A2
100
AcDbEntity
  8
M0
100
AcDbLine
 10
391.160166
 20
457.007549
 11
391.160166
 21
467.006999
  0
ARC
  5
4A3
100
AcDbEntity
  8
M0
100
AcDbCircle
 10
389.160166
 20
467.006999
 40
2.0
100
AcDbArc
 50
0.0
 51
90.0
  0
LINE
  5
4A4
100
AcDbEntity
  8
M0
100
AcDbLine
 10
371.160166
 20
484.757014
 11
371.160166
 21
479.757014
  0
LINE
  5
4A5
100
AcDbEntity
  8
M0
100
AcDbLine
 10
371.160006
 20
444.257304
 11
371.159929
 21
439.257304
  0
LINE
  5
4A6
100
AcDbEntity
  8
M0
100
AcDbLine
 10
396.459708
 20
414.008281
 11
396.459708
 21
435.507549
  0
LINE
  5
4A7
100
AcDbEntity
  8
M0
100
AcDbLine
 10
396.459708
 20
432.507259
 11
413.160166
 21
432.507259
  0
LINE
  5
4A8
100
AcDbEntity
  8
M0
100
AcDbLine
 10
396.459708
 20
422.945122
 11
413.160166
 21
422.945122
  0
LINE
  5
4A9
100
AcDbEntity
  8
M0
100
AcDbLine
 10
437.459708
 20
472.007304
 11
437.459708
 21
464.007304
  0
LINE
  5
4AA
100
AcDbEntity
  8
M0
100
AcDbLine
 10
427.459708
 20
472.007304
 11
427.459708
 21
464.007304
  0
LINE
  5
4AB
100
AcDbEntity
  8
M0
100
AcDbLine
 10
427.459708
 20
464.007304
 11
437.459708
 21
464.007304
  0
LINE
  5
4AC
100
AcDbEntity
  8
M0
100
AcDbLine
 10
427.459708
 20
472.007304
 11
437.459708
 21
472.007304
  0
LINE
  5
4AD
100
AcDbEntity
  8
M0
100
AcDbLine
 10
373.159832
 20
498.007014
 11
389.160166
 21
498.006956
  0
LINE
  5
4AE
100
AcDbEntity
  8
M0
100
AcDbLine
 10
413.160086
 20
488.006869
 11
389.160166
 21
488.006956
  0
LINE
  5
4AF
100
AcDbEntity
  8
M0
100
AcDbLine
 10
389.160166
 20
498.006985
 11
389.160166
 21
488.006985
  0
ARC
  5
4B0
100
AcDbEntity
  8
M0
100
AcDbCircle
 10
385.160166
 20
525.006816
 40
4.0
100
AcDbArc
 50
90.0
 51
180.0
  0
ARC
  5
4B1
100
AcDbEntity
  8
M0
100
AcDbCircle
 10
407.160166
 20
525.006816
 40
4.0
100
AcDbArc
 50
9.770664E-012
 51
90.0
  0
LINE
  5
4B2
100
AcDbEntity
  8
M0
 62
     7
100
AcDbLine
 10
308.160166
 20
494.50677
 11
308.160166
 21
480.00677
  0
LINE
  5
4B3
100
AcDbEntity
  8
M0
 62
     7
100
AcDbLine
 10
308.160166
 20
496.00677
 11
308.193613
 21
496.00677
  0
LINE
  5
4B4
100
AcDbEntity
  8
M0
 62
     7
100
AcDbLine
 10
308.160166
 20
428.007091
 11
308.193613
 21
428.007091
  0
LINE
  5
4B5
100
AcDbEntity
  8
M0
 62
     7
100
AcDbLine
 10
308.160166
 20
444.007549
 11
308.160166
 21
429.507091
  0
LINE
  5
4B6
100
AcDbEntity
  8
M0
 62
     6
100
AcDbLine
 10
368.660166
 20
484.757014
 11
373.160166
 21
484.757014
  0
LINE
  5
4B7
100
AcDbEntity
  8
M0
 62
     6
100
AcDbLine
 10
368.660166
 20
479.757014
 11
373.160166
 21
479.757014
  0
ARC
  5
4B8
100
AcDbEntity
  8
M0
 62
     6
100
AcDbCircle
 10
368.660166
 20
482.257014
 40
2.499996
100
AcDbArc
 50
90.0
 51
180.0
  0
LINE
  5
4B9
100
AcDbEntity
  8
M0
 62
     6
100
AcDbLine
 10
368.659921
 20
439.257304
 11
373.159921
 21
439.257304
  0
ARC
  5
4BA
100
AcDbEntity
  8
M0
 62
     6
100
AcDbCircle
 10
368.659921
 20
441.757304
 40
2.499996
100
AcDbArc
 50
180.0
 51
269.99965
  0
LINE
  5
4BB
100
AcDbEntity
  8
M0
 62
     6
100
AcDbLine
 10
368.659921
 20
444.257304
 11
373.159921
 21
444.257304
  0
LINE
  5
4BC
100
AcDbEntity
  8
M0
 62
     6
100
AcDbLine
 10
328.160166
 20
515.00677
 11
344.916513
 21
515.00677
  0
LINE
  5
4BD
100
AcDbEntity
  8
M0
 62
     6
100
AcDbLine
 10
323.160166
 20
510.006038
 11
373.160166
 21
510.006038
  0
LINE
  5
4BE
100
AcDbEntity
  8
M0
 62
     6
100
AcDbLine
 10
354.660166
 20
491.50677
 11
358.952646
 21
491.50677
  0
LINE
  5
4BF
100
AcDbEntity
  8
M0
 62
     6
100
AcDbLine
 10
337.998789
 20
488.50677
 11
354.160166
 21
488.50677
  0
LINE
  5
4C0
100
AcDbEntity
  8
M0
 62
     6
100
AcDbLine
 10
305.260019
 20
480.00677
 11
327.95997
 21
480.00677
  0
LINE
  5
4C1
100
AcDbEntity
  8
M0
 62
     6
100
AcDbLine
 10
347.037851
 20
514.127879
 11
351.159921
 21
510.005809
  0
LINE
  5
4C2
100
AcDbEntity
  8
M0
 62
     6
100
AcDbLine
 10
308.160166
 20
495.005794
 11
308.160166
 21
480.00677
  0
ARC
  5
4C3
100
AcDbEntity
  8
M0
 62
     6
100
AcDbCircle
 10
328.160166
 20
495.00677
 40
19.999939
100
AcDbArc
 50
90.0
 51
177.134052
  0
ARC
  5
4C4
100
AcDbEntity
  8
M0
 62
     6
100
AcDbCircle
 10
323.160166
 20
495.006038
 40
14.999996
100
AcDbArc
 50
90.0
 51
180.0
  0
LINE
  5
4C5
100
AcDbEntity
  8
M0
 62
     6
100
AcDbLine
 10
354.160166
 20
491.00677
 11
354.160166
 21
488.50677
  0
LINE
  5
4C6
100
AcDbEntity
  8
M0
 62
     6
100
AcDbLine
 10
359.306406
 20
491.360286
 11
362.160166
 21
488.50677
  0
LINE
  5
4C7
100
AcDbEntity
  8
M0
 62
     6
100
AcDbLine
 10
337.014169
 20
487.680354
 11
335.805918
 21
480.832942
  0
LINE
  5
4C8
100
AcDbEntity
  8
M0
 62
     6
100
AcDbLine
 10
362.160166
 20
488.50677
 11
373.160166
 21
488.50677
  0
LINE
  5
4C9
100
AcDbEntity
  8
M0
 62
     6
100
AcDbLine
 10
324.060068
 20
479.50677
 11
324.060068
 21
477.507014
  0
LINE
  5
4CA
100
AcDbEntity
  8
M0
 62
     6
100
AcDbLine
 10
327.95997
 20
479.50677
 11
327.95997
 21
477.507014
  0
LINE
  5
4CB
100
AcDbEntity
  8
M0
 62
     6
100
AcDbLine
 10
324.560068
 20
477.007014
 11
327.45997
 21
477.007014
  0
LINE
  5
4CC
100
AcDbEntity
  8
M0
 62
     6
100
AcDbLine
 10
327.95997
 20
480.00677
 11
334.821054
 21
480.00677
  0
LINE
  5
4CD
100
AcDbEntity
  8
M0
 62
     6
100
AcDbLine
 10
304.260019
 20
479.00677
 11
304.260019
 21
462.007304
  0
ARC
  5
4CE
100
AcDbEntity
  8
M0
 62
     6
100
AcDbCircle
 10
305.260019
 20
479.00677
 40
1.0
100
AcDbArc
 50
90.0
 51
180.0
  0
LINE
  5
4CF
100
AcDbEntity
  8
M0
 62
     6
100
AcDbLine
 10
328.160166
 20
409.007549
 11
344.916513
 21
409.007549
  0
LINE
  5
4D0
100
AcDbEntity
  8
M0
 62
     6
100
AcDbLine
 10
323.160166
 20
414.008281
 11
413.160166
 21
414.008281
  0
LINE
  5
4D1
100
AcDbEntity
  8
M0
 62
     6
100
AcDbLine
 10
354.660166
 20
432.507549
 11
358.95289
 21
432.507549
  0
LINE
  5
4D2
100
AcDbEntity
  8
M0
 62
     6
100
AcDbLine
 10
337.998789
 20
435.507549
 11
354.160166
 21
435.507549
  0
LINE
  5
4D3
100
AcDbEntity
  8
M0
 62
     6
100
AcDbLine
 10
305.260019
 20
444.007549
 11
327.959726
 21
444.007549
  0
LINE
  5
4D4
100
AcDbEntity
  8
M0
 62
     6
100
AcDbLine
 10
347.037607
 20
409.886211
 11
351.159921
 21
414.008281
  0
LINE
  5
4D5
100
AcDbEntity
  8
M0
 62
     6
100
AcDbLine
 10
308.160166
 20
429.008281
 11
308.160166
 21
444.007549
  0
ARC
  5
4D6
100
AcDbEntity
  8
M0
 62
     6
100
AcDbCircle
 10
328.160166
 20
429.007549
 40
19.999939
100
AcDbArc
 50
182.867304
 51
269.999913
  0
ARC
  5
4D7
100
AcDbEntity
  8
M0
 62
     6
100
AcDbCircle
 10
323.160166
 20
429.008281
 40
14.999996
100
AcDbArc
 50
180.0
 51
269.999942
  0
LINE
  5
4D8
100
AcDbEntity
  8
M0
 62
     6
100
AcDbLine
 10
354.160166
 20
433.007549
 11
354.160166
 21
435.507549
  0
LINE
  5
4D9
100
AcDbEntity
  8
M0
 62
     6
100
AcDbLine
 10
359.306406
 20
432.653987
 11
362.160166
 21
435.507549
  0
LINE
  5
4DA
100
AcDbEntity
  8
M0
 62
     6
100
AcDbLine
 10
337.014169
 20
436.333812
 11
335.805918
 21
443.181316
  0
LINE
  5
4DB
100
AcDbEntity
  8
M0
 62
     6
100
AcDbLine
 10
362.160166
 20
435.507549
 11
396.459708
 21
435.507549
  0
LINE
  5
4DC
100
AcDbEntity
  8
M0
 62
     6
100
AcDbLine
 10
327.95997
 20
444.007549
 11
334.821054
 21
444.007549
  0
LINE
  5
4DD
100
AcDbEntity
  8
M0
 62
     6
100
AcDbLine
 10
304.260019
 20
445.007549
 11
304.260019
 21
462.007304
  0
ARC
  5
4DE
100
AcDbEntity
  8
M0
 62
     6
100
AcDbCircle
 10
305.260019
 20
445.007549
 40
1.0
100
AcDbArc
 50
180.0
 51
269.999126
  0
LINE
  5
4DF
100
AcDbEntity
  8
M0
 62
     6
100
AcDbLine
 10
371.160166
 20
469.006999
 11
371.160166
 21
469.006755
  0
ARC
  5
4E0
100
AcDbEntity
  8
M0
 62
     6
100
AcDbCircle
 10
368.660166
 20
482.257014
 40
2.499996
100
AcDbArc
 50
180.0
 51
269.99965
  0
ARC
  5
4E1
100
AcDbEntity
  8
M0
 62
     6
100
AcDbCircle
 10
368.659921
 20
441.757304
 40
2.499996
100
AcDbArc
 50
90.0
 51
180.0
  0
LINE
  5
4E2
100
AcDbEntity
  8
M0
 62
     6
100
AcDbLine
 10
389.160166
 20
469.006999
 11
362.159921
 21
469.006999
  0
LINE
  5
4E3
100
AcDbEntity
  8
M0
 62
     6
100
AcDbLine
 10
360.159921
 20
467.006572
 11
360.159921
 21
462.007304
  0
ARC
  5
4E4
100
AcDbEntity
  8
M0
 62
     6
100
AcDbCircle
 10
362.159921
 20
467.006816
 40
1.999996
100
AcDbArc
 50
90.0
 51
180.006994
  0
LINE
  5
4E5
100
AcDbEntity
  8
M0
 62
     6
100
AcDbLine
 10
371.160166
 20
455.007549
 11
371.160166
 21
455.007793
  0
LINE
  5
4E6
100
AcDbEntity
  8
M0
 62
     6
100
AcDbLine
 10
389.160166
 20
455.007549
 11
362.159921
 21
455.007549
  0
LINE
  5
4E7
100
AcDbEntity
  8
M0
 62
     6
100
AcDbLine
 10
360.159921
 20
457.008037
 11
360.159921
 21
462.007304
  0
ARC
  5
4E8
100
AcDbEntity
  8
M0
 62
     6
100
AcDbCircle
 10
362.159921
 20
457.007793
 40
1.999996
100
AcDbArc
 50
180.0
 51
269.999563
  0
ARC
  5
4E9
100
AcDbEntity
  8
M0
 62
     6
100
AcDbCircle
 10
337.998789
 20
487.50677
 40
1.0
100
AcDbArc
 50
90.0
 51
170.001997
  0
ARC
  5
4EA
100
AcDbEntity
  8
M0
 62
     6
100
AcDbCircle
 10
337.998789
 20
436.507549
 40
1.0
100
AcDbArc
 50
190.006764
 51
269.999126
  0
ARC
  5
4EB
100
AcDbEntity
  8
M0
 62
     6
100
AcDbCircle
 10
344.916513
 20
512.00677
 40
2.999996
100
AcDbArc
 50
45.0
 51
90.0
  0
ARC
  5
4EC
100
AcDbEntity
  8
M0
 62
     6
100
AcDbCircle
 10
344.916513
 20
412.007549
 40
2.999996
100
AcDbArc
 50
269.999709
 51
314.996497
  0
ARC
  5
4ED
100
AcDbEntity
  8
M0
 62
     6
100
AcDbCircle
 10
334.821054
 20
481.00677
 40
1.0
100
AcDbArc
 50
269.999126
 51
349.989488
  0
ARC
  5
4EE
100
AcDbEntity
  8
M0
 62
     6
100
AcDbCircle
 10
334.821054
 20
443.007549
 40
1.0
100
AcDbArc
 50
10.006055
 51
90.0
  0
ARC
  5
4EF
100
AcDbEntity
  8
M0
 62
     6
100
AcDbCircle
 10
323.560068
 20
479.50677
 40
0.5
100
AcDbArc
 50
0.0
 51
90.0
  0
ARC
  5
4F0
100
AcDbEntity
  8
M0
 62
     6
100
AcDbCircle
 10
324.560068
 20
477.507014
 40
0.5
100
AcDbArc
 50
180.0
 51
269.998251
  0
ARC
  5
4F1
100
AcDbEntity
  8
M0
 62
     6
100
AcDbCircle
 10
327.45997
 20
477.507014
 40
0.5
100
AcDbArc
 50
269.998251
 51
360.0
  0
ARC
  5
4F2
100
AcDbEntity
  8
M0
 62
     6
100
AcDbCircle
 10
328.45997
 20
479.50677
 40
0.5
100
AcDbArc
 50
90.0
 51
180.0
  0
ARC
  5
4F3
100
AcDbEntity
  8
M0
 62
     6
100
AcDbCircle
 10
323.559824
 20
444.507549
 40
0.5
100
AcDbArc
 50
-90.001749
 51
0.0
  0
LINE
  5
4F4
100
AcDbEntity
  8
M0
 62
     6
100
AcDbLine
 10
324.059824
 20
444.507549
 11
324.059824
 21
446.507304
  0
LINE
  5
4F5
100
AcDbEntity
  8
M0
 62
     6
100
AcDbLine
 10
324.559824
 20
447.007304
 11
327.459726
 21
447.007304
  0
ARC
  5
4F6
100
AcDbEntity
  8
M0
 62
     6
100
AcDbCircle
 10
324.559824
 20
446.507304
 40
0.5
100
AcDbArc
 50
90.0
 51
180.0
  0
ARC
  5
4F7
100
AcDbEntity
  8
M0
 62
     6
100
AcDbCircle
 10
327.459726
 20
446.507304
 40
0.5
100
AcDbArc
 50
0.0
 51
90.0
  0
LINE
  5
4F8
100
AcDbEntity
  8
M0
 62
     6
100
AcDbLine
 10
327.959726
 20
444.507549
 11
327.959726
 21
446.507304
  0
ARC
  5
4F9
100
AcDbEntity
  8
M0
 62
     6
100
AcDbCircle
 10
328.459726
 20
444.507549
 40
0.5
100
AcDbArc
 50
180.0
 51
269.998251
  0
LINE
  5
4FA
100
AcDbEntity
  8
M0
 62
     6
100
AcDbLine
 10
373.160166
 20
469.006755
 11
373.160166
 21
479.757014
  0
ARC
  5
4FB
100
AcDbEntity
  8
M0
 62
     6
100
AcDbCircle
 10
354.660166
 20
433.007549
 40
0.5
100
AcDbArc
 50
180.0
 51
269.998251
  0
ARC
  5
4FC
100
AcDbEntity
  8
M0
 62
     6
100
AcDbCircle
 10
358.95289
 20
433.007549
 40
0.5
100
AcDbArc
 50
269.998251
 51
314.995054
  0
ARC
  5
4FD
100
AcDbEntity
  8
M0
 62
     6
100
AcDbCircle
 10
358.952646
 20
491.00677
 40
0.5
100
AcDbArc
 50
44.980217
 51
90.0
  0
ARC
  5
4FE
100
AcDbEntity
  8
M0
 62
     6
100
AcDbCircle
 10
354.660166
 20
491.00677
 40
0.5
100
AcDbArc
 50
90.0
 51
180.0
  0
LINE
  5
4FF
100
AcDbEntity
  8
M0
 62
     6
100
AcDbLine
 10
373.160166
 20
484.757014
 11
373.160166
 21
510.006038
  0
LINE
  5
500
100
AcDbEntity
  8
M0
 62
     6
100
AcDbLine
 10
373.160166
 20
444.257304
 11
373.160166
 21
455.007304
  0
LINE
  5
501
100
AcDbEntity
  8
M0
  6
DASHDOT
 62
     6
100
AcDbLine
 10
288.247472
 20
462.007304
 11
448.289929
 21
462.007304
  0
LINE
  5
502
100
AcDbEntity
  8
M0
 62
     6
100
AcDbLine
 10
373.159693
 20
414.007549
 11
373.159693
 21
414.008281
  0
LINE
  5
503
100
AcDbEntity
  8
M0
 62
     6
100
AcDbLine
 10
373.15954
 20
414.008281
 11
373.159929
 21
439.257304
  0
ARC
  5
504
100
AcDbEntity
  8
M0
 62
     6
100
AcDbCircle
 10
389.160166
 20
457.007549
 40
2.0
100
AcDbArc
 50
270.0
 51
360.0
  0
LINE
  5
505
100
AcDbEntity
  8
M0
 62
     5
100
AcDbLine
 10
413.160166
 20
510.006869
 11
373.159876
 21
510.007014
  0
ARC
  5
506
100
AcDbEntity
  8
M0
 62
     5
100
AcDbCircle
 10
439.459708
 20
513.007333
 40
1.0
100
AcDbArc
 50
0.0
 51
90.0
  0
LINE
  5
507
100
AcDbEntity
  8
M0
 62
     7
100
AcDbLine
 10
295.960224
 20
494.50677
 11
308.160166
 21
494.50677
  0
LINE
  5
508
100
AcDbEntity
  8
M0
 62
     7
100
AcDbLine
 10
295.960224
 20
429.507091
 11
308.160166
 21
429.507091
  0
LINE
  5
509
100
AcDbEntity
  8
M0
 62
     7
100
AcDbLine
 10
308.160166
 20
494.50677
 11
308.160166
 21
480.00677
  0
LINE
  5
50A
100
AcDbEntity
  8
M0
 62
     7
100
AcDbLine
 10
295.460224
 20
494.00677
 11
295.460224
 21
465.007274
  0
ARC
  5
50B
100
AcDbEntity
  8
M0
 62
     7
100
AcDbCircle
 10
295.960224
 20
494.00677
 40
0.5
100
AcDbArc
 50
90.0
 51
180.0
  0
ARC
  5
50C
100
AcDbEntity
  8
M0
 62
     7
100
AcDbCircle
 10
295.960224
 20
430.007091
 40
0.5
100
AcDbArc
 50
180.0
 51
270.0
  0
LINE
  5
50D
100
AcDbEntity
  8
M0
 62
     7
100
AcDbLine
 10
308.160166
 20
496.00677
 11
308.193613
 21
496.00677
  0
LINE
  5
50E
100
AcDbEntity
  8
M0
 62
     7
100
AcDbLine
 10
306.160166
 20
494.50677
 11
308.160166
 21
496.00677
  0
LINE
  5
50F
100
AcDbEntity
  8
M0
 62
     7
100
AcDbLine
 10
308.160166
 20
428.007091
 11
308.193613
 21
428.007091
  0
LINE
  5
510
100
AcDbEntity
  8
M0
 62
     7
100
AcDbLine
 10
306.160166
 20
429.507091
 11
308.160166
 21
428.007091
  0
LINE
  5
511
100
AcDbEntity
  8
M0
 62
     7
100
AcDbLine
 10
308.160166
 20
444.007549
 11
308.160166
 21
429.507091
  0
LINE
  5
512
100
AcDbEntity
  8
M0
 62
     7
100
AcDbLine
 10
295.460224
 20
465.007274
 11
295.460224
 21
430.007091
  0
LINE
  5
513
100
AcDbEntity
  8
M0
100
AcDbLine
 10
411.160166
 20
542.947942
 11
411.21904
 21
543.006816
  0
LINE
  5
514
100
AcDbEntity
  8
M0
100
AcDbLine
 10
155.387231
 20
513.108211
 11
155.387236
 21
491.507506
  0
LINE
  5
515
100
AcDbEntity
  8
M0
100
AcDbLine
 10
249.387275
 20
472.008269
 11
249.387275
 21
464.008269
  0
LINE
  5
516
100
AcDbEntity
  8
M0
100
AcDbLine
 10
248.387275
 20
472.008269
 11
248.387275
 21
464.008269
  0
LINE
  5
517
100
AcDbEntity
  8
M0
100
AcDbLine
 10
246.387275
 20
464.008268
 11
249.387275
 21
464.008269
  0
LINE
  5
518
100
AcDbEntity
  8
M0
100
AcDbLine
 10
249.387275
 20
472.008269
 11
246.387275
 21
472.008268
  0
LINE
  5
519
100
AcDbEntity
  8
M0
100
AcDbLine
 10
189.387258
 20
409.008597
 11
189.38726
 21
402.008597
  0
LINE
  5
51A
100
AcDbEntity
  8
M0
100
AcDbLine
 10
185.387257
 20
414.007994
 11
185.38726
 21
402.008573
  0
LINE
  5
51B
100
AcDbEntity
  8
M0
100
AcDbLine
 10
169.387227
 20
529.10822
 11
169.387231
 21
513.10822
  0
LINE
  5
51C
100
AcDbEntity
  8
M0
100
AcDbLine
 10
229.387227
 20
529.108257
 11
169.387227
 21
529.108257
  0
LINE
  5
51D
100
AcDbEntity
  8
M0
100
AcDbLine
 10
233.059422
 20
417.908259
 11
246.387275
 21
417.908268
  0
LINE
  5
51E
100
AcDbEntity
  8
M0
100
AcDbLine
 10
189.38726
 20
402.008597
 11
185.38726
 21
402.008573
  0
LINE
  5
51F
100
AcDbEntity
  8
M0
100
AcDbLine
 10
246.387275
 20
513.108268
 11
246.387275
 21
417.908268
  0
LINE
  5
520
100
AcDbEntity
  8
M0
100
AcDbLine
 10
229.387227
 20
529.108257
 11
229.387231
 21
513.108257
  0
LINE
  5
521
100
AcDbEntity
  8
M0
  6
DASHDOT
 62
     6
100
AcDbLine
 10
229.88723
 20
462.008239
 11
246.710334
 21
462.008239
  0
LINE
  5
522
100
AcDbEntity
  8
M0
  6
DASHDOT
 62
     6
100
AcDbLine
 10
149.938347
 20
462.008239
 11
199.387245
 21
462.008239
  0
LINE
  5
523
100
AcDbEntity
  8
M0
  6
DASHDOT
 62
     6
100
AcDbLine
 10
248.836143
 20
462.008269
 11
199.387245
 21
462.008239
  0
LINE
  5
524
100
AcDbEntity
  8
M0
 62
     6
100
AcDbLine
 10
199.388098
 20
510.006285
 11
191.137503
 21
510.006285
  0
LINE
  5
525
100
AcDbEntity
  8
M0
 62
     6
100
AcDbLine
 10
188.137504
 20
515.007506
 11
190.637504
 21
515.007506
  0
LINE
  5
526
100
AcDbEntity
  8
M0
 62
     6
100
AcDbLine
 10
187.637504
 20
510.006285
 11
167.387504
 21
510.006774
  0
LINE
  5
527
100
AcDbEntity
  8
M0
 62
     6
100
AcDbLine
 10
229.887153
 20
510.00653
 11
231.387489
 21
510.00653
  0
LINE
  5
528
100
AcDbEntity
  8
M0
 62
     5
100
AcDbLine
 10
167.337211
 20
507.222594
 11
159.687553
 21
501.963317
  0
ARC
  5
529
100
AcDbEntity
  8
M0
 62
     5
100
AcDbCircle
 10
161.38726
 20
499.491149
 40
3.0
100
AcDbArc
 50
124.509994
 51
180.0
  0
ARC
  5
52A
100
AcDbEntity
  8
M0
 62
     5
100
AcDbCircle
 10
242.887245
 20
499.507262
 40
0.5
100
AcDbArc
 50
0.0
 51
90.0
  0
LINE
  5
52B
100
AcDbEntity
  8
M0
 62
     5
100
AcDbLine
 10
239.387245
 20
500.007506
 11
242.887245
 21
500.007506
  0
LINE
  5
52C
100
AcDbEntity
  8
M0
 62
     5
100
AcDbLine
 10
231.387489
 20
498.507506
 11
239.387245
 21
498.507506
  0
LINE
  5
52D
100
AcDbEntity
  8
M0
 62
     6
100
AcDbLine
 10
191.137503
 20
514.507506
 11
191.137503
 21
494.507506
  0
LINE
  5
52E
100
AcDbEntity
  8
M0
 62
     6
100
AcDbLine
 10
155.887504
 20
491.507506
 11
157.387504
 21
491.507506
  0
ARC
  5
52F
100
AcDbEntity
  8
M0
 62
     6
100
AcDbCircle
 10
157.387504
 20
491.007506
 40
0.5
100
AcDbArc
 50
0.0
 51
89.998251
  0
ARC
  5
530
100
AcDbEntity
  8
M0
 62
     6
100
AcDbCircle
 10
155.887504
 20
491.007506
 40
0.5
100
AcDbArc
 50
89.998251
 51
180.0
  0
LINE
  5
531
100
AcDbEntity
  8
M0
 62
     6
100
AcDbLine
 10
171.137504
 20
510.007506
 11
171.137504
 21
494.507018
  0
LINE
  5
532
100
AcDbEntity
  8
M0
 62
     6
100
AcDbLine
 10
187.637504
 20
514.507506
 11
187.637504
 21
494.507018
  0
LINE
  5
533
100
AcDbEntity
  8
M0
 62
     6
100
AcDbLine
 10
191.137503
 20
514.507506
 11
191.137503
 21
494.507018
  0
LINE
  5
534
100
AcDbEntity
  8
M0
 62
     6
100
AcDbLine
 10
242.887489
 20
491.507262
 11
241.387489
 21
491.507262
  0
ARC
  5
535
100
AcDbEntity
  8
M0
 62
     6
100
AcDbCircle
 10
241.387489
 20
491.007262
 40
0.5
100
AcDbArc
 50
90.0
 51
180.0
  0
ARC
  5
536
100
AcDbEntity
  8
M0
 62
     6
100
AcDbCircle
 10
242.887489
 20
491.007262
 40
0.5
100
AcDbArc
 50
0.0
 51
90.0
  0
LINE
  5
537
100
AcDbEntity
  8
M0
 62
     7
100
AcDbLine
 10
193.887503
 20
496.007262
 11
191.887503
 21
496.007262
  0
ARC
  5
538
100
AcDbEntity
  8
M0
 62
     7
100
AcDbCircle
 10
191.887503
 20
495.507262
 40
0.5
100
AcDbArc
 50
90.0
 51
180.0
  0
LINE
  5
539
100
AcDbEntity
  8
M0
 62
     7
100
AcDbLine
 10
199.388098
 20
494.507018
 11
167.887504
 21
494.507262
  0
ARC
  5
53A
100
AcDbEntity
  8
M0
 62
     7
100
AcDbCircle
 10
167.887504
 20
494.007262
 40
0.5
100
AcDbArc
 50
89.998251
 51
180.0
  0
ARC
  5
53B
100
AcDbEntity
  8
M0
 62
     7
100
AcDbCircle
 10
230.887489
 20
494.007262
 40
0.5
100
AcDbArc
 50
0.0
 51
90.0
  0
LINE
  5
53C
100
AcDbEntity
  8
M0
 62
     7
100
AcDbLine
 10
194.387503
 20
495.507262
 11
194.387503
 21
494.507262
  0
LINE
  5
53D
100
AcDbEntity
  8
M0
 62
     7
100
AcDbLine
 10
191.387503
 20
495.507262
 11
191.387503
 21
494.507262
  0
ARC
  5
53E
100
AcDbEntity
  8
M0
 62
     7
100
AcDbCircle
 10
193.887503
 20
495.507262
 40
0.5
100
AcDbArc
 50
0.0
 51
90.0
  0
LINE
  5
53F
100
AcDbEntity
  8
M0
 62
     5
100
AcDbLine
 10
158.38726
 20
489.507518
 11
158.38726
 21
499.491149
  0
LINE
  5
540
100
AcDbEntity
  8
M0
 62
     5
100
AcDbLine
 10
157.88726
 20
489.507518
 11
158.38726
 21
489.507518
  0
LINE
  5
541
100
AcDbEntity
  8
M0
 62
     5
100
AcDbLine
 10
231.387489
 20
489.007518
 11
239.387245
 21
489.007518
  0
LINE
  5
542
100
AcDbEntity
  8
M0
  6
DASHDOT
100
AcDbLine
 10
159.75959
 20
494.507506
 11
177.387016
 21
494.507506
  0
LINE
  5
543
100
AcDbEntity
  8
M0
 62
     7
100
AcDbLine
 10
195.387503
 20
474.007427
 11
196.887503
 21
474.007427
  0
LINE
  5
544
100
AcDbEntity
  8
M0
100
AcDbLine
 10
237.709022
 20
474.407176
 11
238.977333
 21
474.407176
  0
LINE
  5
545
100
AcDbEntity
  8
M0
100
AcDbLine
 10
233.065712
 20
474.407176
 11
231.797401
 21
474.407176
  0
LINE
  5
546
100
AcDbEntity
  8
M0
 62
     6
100
AcDbLine
 10
166.587455
 20
477.507518
 11
166.587455
 21
476.507518
  0
LINE
  5
547
100
AcDbEntity
  8
M0
 62
     6
100
AcDbLine
 10
160.187309
 20
477.507518
 11
160.187309
 21
476.507518
  0
LINE
  5
548
100
AcDbEntity
  8
M0
 62
     6
100
AcDbLine
 10
159.887504
 20
479.507273
 11
159.887504
 21
478.007518
  0
LINE
  5
549
100
AcDbEntity
  8
M0
 62
     6
100
AcDbLine
 10
166.887504
 20
479.507518
 11
166.887504
 21
478.007518
  0
ARC
  5
54A
100
AcDbEntity
  8
M0
 62
     6
100
AcDbCircle
 10
159.687309
 20
477.507518
 40
0.5
100
AcDbArc
 50
0.0
 51
89.998251
  0
LINE
  5
54B
100
AcDbEntity
  8
M0
 62
     6
100
AcDbLine
 10
159.387504
 20
476.507518
 11
160.448295
 21
476.507518
  0
LINE
  5
54C
100
AcDbEntity
  8
M0
 62
     6
100
AcDbLine
 10
159.387504
 20
478.007518
 11
159.687309
 21
478.007518
  0
LINE
  5
54D
100
AcDbEntity
  8
M0
 62
     6
100
AcDbLine
 10
167.087455
 20
478.007518
 11
167.387504
 21
478.007518
  0
ARC
  5
54E
100
AcDbEntity
  8
M0
 62
     6
100
AcDbCircle
 10
167.087455
 20
477.507518
 40
0.5
100
AcDbArc
 50
89.998251
 51
180.0
  0
LINE
  5
54F
100
AcDbEntity
  8
M0
 62
     6
100
AcDbLine
 10
232.187294
 20
477.507273
 11
232.187294
 21
476.507273
  0
LINE
  5
550
100
AcDbEntity
  8
M0
 62
     6
100
AcDbLine
 10
238.58744
 20
477.507273
 11
238.58744
 21
476.507273
  0
LINE
  5
551
100
AcDbEntity
  8
M0
 62
     6
100
AcDbLine
 10
238.887489
 20
479.507029
 11
238.887489
 21
478.007273
  0
LINE
  5
552
100
AcDbEntity
  8
M0
 62
     6
100
AcDbLine
 10
231.887489
 20
479.507273
 11
231.887489
 21
478.007273
  0
ARC
  5
553
100
AcDbEntity
  8
M0
 62
     6
100
AcDbCircle
 10
239.08744
 20
477.507273
 40
0.5
100
AcDbArc
 50
90.0
 51
180.0
  0
LINE
  5
554
100
AcDbEntity
  8
M0
 62
     6
100
AcDbLine
 10
239.387489
 20
476.507273
 11
238.326454
 21
476.507273
  0
LINE
  5
555
100
AcDbEntity
  8
M0
 62
     6
100
AcDbLine
 10
239.387489
 20
478.007273
 11
239.08744
 21
478.007273
  0
LINE
  5
556
100
AcDbEntity
  8
M0
 62
     6
100
AcDbLine
 10
231.687294
 20
478.007273
 11
231.387489
 21
478.007273
  0
ARC
  5
557
100
AcDbEntity
  8
M0
 62
     6
100
AcDbCircle
 10
231.687294
 20
477.507273
 40
0.5
100
AcDbArc
 50
0.0
 51
90.0
  0
LINE
  5
558
100
AcDbEntity
  8
M0
 62
     6
100
AcDbLine
 10
166.326469
 20
476.507518
 11
167.387504
 21
476.507518
  0
LINE
  5
559
100
AcDbEntity
  8
M0
 62
     6
100
AcDbLine
 10
232.44828
 20
476.507273
 11
231.387489
 21
476.507273
  0
LINE
  5
55A
100
AcDbEntity
  8
M0
 62
     6
100
AcDbLine
 10
232.187294
 20
477.007273
 11
238.58744
 21
477.007273
  0
LINE
  5
55B
100
AcDbEntity
  8
M0
 62
     6
100
AcDbLine
 10
160.187309
 20
477.007518
 11
166.587455
 21
477.007518
  0
LINE
  5
55C
100
AcDbEntity
  8
M0
 62
     7
100
AcDbLine
 10
199.387244
 20
478.007258
 11
197.887503
 21
478.007273
  0
LINE
  5
55D
100
AcDbEntity
  8
M0
 62
     7
100
AcDbLine
 10
196.887503
 20
477.007273
 11
196.887503
 21
474.007427
  0
LINE
  5
55E
100
AcDbEntity
  8
M0
 62
     7
100
AcDbLine
 10
195.387503
 20
474.707225
 11
196.887503
 21
474.707225
  0
ARC
  5
55F
100
AcDbEntity
  8
M0
 62
     7
100
AcDbCircle
 10
197.887503
 20
477.007273
 40
1.0
100
AcDbArc
 50
90.0
 51
180.0
  0
LINE
  5
560
100
AcDbEntity
  8
M0
100
AcDbLine
 10
160.42852
 20
476.454783
 11
159.612358
 21
473.80772
  0
LINE
  5
561
100
AcDbEntity
  8
M0
100
AcDbLine
 10
166.346
 20
476.454783
 11
167.162407
 21
473.80772
  0
LINE
  5
562
100
AcDbEntity
  8
M0
100
AcDbLine
 10
164.787407
 20
475.607372
 11
166.607475
 21
475.607372
  0
LINE
  5
563
100
AcDbEntity
  8
M0
100
AcDbLine
 10
165.709037
 20
474.407421
 11
166.977348
 21
474.407421
  0
LINE
  5
564
100
AcDbEntity
  8
M0
100
AcDbLine
 10
161.987358
 20
475.607372
 11
160.167289
 21
475.607372
  0
LINE
  5
565
100
AcDbEntity
  8
M0
100
AcDbLine
 10
161.065727
 20
474.407421
 11
159.797416
 21
474.407421
  0
LINE
  5
566
100
AcDbEntity
  8
M0
100
AcDbLine
 10
165.868217
 20
476.807566
 11
160.906547
 21
476.807322
  0
LINE
  5
567
100
AcDbEntity
  8
M0
100
AcDbLine
 10
164.787407
 20
475.160838
 11
164.787407
 21
475.607372
  0
LINE
  5
568
100
AcDbEntity
  8
M0
100
AcDbLine
 10
161.987358
 20
475.160838
 11
161.987358
 21
475.607372
  0
ARC
  5
569
100
AcDbEntity
  8
M0
100
AcDbCircle
 10
160.906547
 20
476.307322
 40
0.5
100
AcDbArc
 50
89.998251
 51
162.856158
  0
ARC
  5
56A
100
AcDbEntity
  8
M0
100
AcDbCircle
 10
165.868217
 20
476.307322
 40
0.5
100
AcDbArc
 50
17.151876
 51
89.998251
  0
LINE
  5
56B
100
AcDbEntity
  8
M0
100
AcDbLine
 10
164.787407
 20
478.90742
 11
166.607475
 21
478.90742
  0
LINE
  5
56C
100
AcDbEntity
  8
M0
100
AcDbLine
 10
161.987358
 20
478.90742
 11
160.167289
 21
478.90742
  0
LINE
  5
56D
100
AcDbEntity
  8
M0
100
AcDbLine
 10
160.906547
 20
477.707469
 11
165.868217
 21
477.707469
  0
LINE
  5
56E
100
AcDbEntity
  8
M0
100
AcDbLine
 10
164.787407
 20
478.90742
 11
164.787407
 21
479.354197
  0
LINE
  5
56F
100
AcDbEntity
  8
M0
100
AcDbLine
 10
161.987358
 20
478.90742
 11
161.987358
 21
479.354197
  0
ARC
  5
570
100
AcDbEntity
  8
M0
100
AcDbCircle
 10
160.906547
 20
478.207469
 40
0.5
100
AcDbArc
 50
197.117449
 51
270.0
  0
ARC
  5
571
100
AcDbEntity
  8
M0
100
AcDbCircle
 10
165.868217
 20
478.207469
 40
0.5
100
AcDbArc
 50
270.0
 51
342.875032
  0
LINE
  5
572
100
AcDbEntity
  8
M0
100
AcDbLine
 10
236.787391
 20
478.907176
 11
238.60746
 21
478.907176
  0
LINE
  5
573
100
AcDbEntity
  8
M0
100
AcDbLine
 10
233.987343
 20
478.907176
 11
232.167274
 21
478.907176
  0
LINE
  5
574
100
AcDbEntity
  8
M0
100
AcDbLine
 10
232.906532
 20
477.707225
 11
237.868202
 21
477.707225
  0
LINE
  5
575
100
AcDbEntity
  8
M0
100
AcDbLine
 10
236.787391
 20
478.907176
 11
236.787391
 21
479.353953
  0
LINE
  5
576
100
AcDbEntity
  8
M0
100
AcDbLine
 10
233.987343
 20
478.907176
 11
233.987343
 21
479.353953
  0
ARC
  5
577
100
AcDbEntity
  8
M0
100
AcDbCircle
 10
232.906532
 20
478.207225
 40
0.5
100
AcDbArc
 50
197.116934
 51
269.998251
  0
ARC
  5
578
100
AcDbEntity
  8
M0
100
AcDbCircle
 10
237.868202
 20
478.207225
 40
0.5
100
AcDbArc
 50
269.998251
 51
342.874517
  0
LINE
  5
579
100
AcDbEntity
  8
M0
100
AcDbLine
 10
232.428505
 20
476.454539
 11
231.612343
 21
473.807476
  0
LINE
  5
57A
100
AcDbEntity
  8
M0
100
AcDbLine
 10
238.345985
 20
476.454539
 11
239.162391
 21
473.807476
  0
LINE
  5
57B
100
AcDbEntity
  8
M0
100
AcDbLine
 10
236.787391
 20
475.607127
 11
238.60746
 21
475.607127
  0
LINE
  5
57C
100
AcDbEntity
  8
M0
100
AcDbLine
 10
233.987343
 20
475.607127
 11
232.167274
 21
475.607127
  0
LINE
  5
57D
100
AcDbEntity
  8
M0
100
AcDbLine
 10
237.868202
 20
476.807322
 11
232.906532
 21
476.807078
  0
LINE
  5
57E
100
AcDbEntity
  8
M0
100
AcDbLine
 10
236.787391
 20
475.160594
 11
236.787391
 21
475.607127
  0
LINE
  5
57F
100
AcDbEntity
  8
M0
100
AcDbLine
 10
233.987343
 20
475.160594
 11
233.987343
 21
475.607127
  0
ARC
  5
580
100
AcDbEntity
  8
M0
100
AcDbCircle
 10
232.906532
 20
476.307078
 40
0.5
100
AcDbArc
 50
90.0
 51
162.856673
  0
ARC
  5
581
100
AcDbEntity
  8
M0
100
AcDbCircle
 10
237.868202
 20
476.307078
 40
0.5
100
AcDbArc
 50
17.152392
 51
90.0
  0
LINE
  5
582
100
AcDbEntity
  8
M0
  6
DASHDOT
 62
     6
100
AcDbLine
 10
157.317466
 20
472.507671
 11
170.170204
 21
472.507671
  0
LINE
  5
583
100
AcDbEntity
  8
M0
 62
     6
100
AcDbLine
 10
161.129203
 20
467.707653
 11
165.645561
 21
467.707653
  0
LINE
  5
584
100
AcDbEntity
  8
M0
 62
     6
100
AcDbLine
 10
160.172172
 20
468.417614
 11
159.387504
 21
471.007671
  0
LINE
  5
585
100
AcDbEntity
  8
M0
 62
     6
100
AcDbLine
 10
166.602592
 20
468.417614
 11
167.387504
 21
471.007671
  0
ARC
  5
586
100
AcDbEntity
  8
M0
 62
     6
100
AcDbCircle
 10
161.129203
 20
468.707653
 40
1.0
100
AcDbArc
 50
196.859961
 51
270.0
  0
ARC
  5
587
100
AcDbEntity
  8
M0
 62
     6
100
AcDbCircle
 10
165.645561
 20
468.707653
 40
1.0
100
AcDbArc
 50
270.0
 51
343.14024
  0
LINE
  5
588
100
AcDbEntity
  8
M0
  6
DASHDOT
 62
     6
100
AcDbLine
 10
241.23191
 20
472.507427
 11
229.887214
 21
472.507427
  0
LINE
  5
589
100
AcDbEntity
  8
M0
 62
     6
100
AcDbLine
 10
237.645546
 20
467.707409
 11
233.129188
 21
467.707409
  0
LINE
  5
58A
100
AcDbEntity
  8
M0
 62
     6
100
AcDbLine
 10
238.602577
 20
468.41737
 11
239.387489
 21
471.007427
  0
LINE
  5
58B
100
AcDbEntity
  8
M0
 62
     6
100
AcDbLine
 10
232.172157
 20
468.41737
 11
231.387489
 21
471.007427
  0
ARC
  5
58C
100
AcDbEntity
  8
M0
 62
     6
100
AcDbCircle
 10
237.645546
 20
468.707409
 40
1.0
100
AcDbArc
 50
269.999126
 51
343.139986
  0
ARC
  5
58D
100
AcDbEntity
  8
M0
 62
     6
100
AcDbCircle
 10
233.129188
 20
468.707409
 40
1.0
100
AcDbArc
 50
196.859708
 51
269.999126
  0
LINE
  5
58E
100
AcDbEntity
  8
M0
 62
     7
100
AcDbLine
 10
160.387504
 20
467.70747
 11
166.887504
 21
467.70747
  0
LINE
  5
58F
100
AcDbEntity
  8
M0
 62
     7
100
AcDbLine
 10
231.887489
 20
467.70747
 11
238.387489
 21
467.70747
  0
ARC
  5
590
100
AcDbEntity
  8
M0
 62
     7
100
AcDbCircle
 10
166.887504
 20
468.20747
 40
0.5
100
AcDbArc
 50
270.0
 51
360.0
  0
ARC
  5
591
100
AcDbEntity
  8
M0
 62
     7
100
AcDbCircle
 10
238.387489
 20
467.20747
 40
0.5
100
AcDbArc
 50
0.0
 51
90.0
  0
ARC
  5
592
100
AcDbEntity
  8
M0
 62
     7
100
AcDbCircle
 10
160.387504
 20
467.20747
 40
0.5
100
AcDbArc
 50
89.998251
 51
179.999891
  0
ARC
  5
593
100
AcDbEntity
  8
M0
 62
     7
100
AcDbCircle
 10
231.887489
 20
468.20747
 40
0.5
100
AcDbArc
 50
179.999891
 51
269.998251
  0
LINE
  5
594
100
AcDbEntity
  8
M0
 62
     7
100
AcDbLine
 10
191.087455
 20
472.307232
 11
195.387503
 21
472.307232
  0
ARC
  5
595
100
AcDbEntity
  8
M0
 62
     7
100
AcDbCircle
 10
191.087455
 20
469.307232
 40
3.0
100
AcDbArc
 50
90.0
 51
179.999964
  0
LINE
  5
596
100
AcDbEntity
  8
M0
100
AcDbLine
 10
160.42852
 20
468.560421
 11
159.612358
 21
471.207622
  0
LINE
  5
597
100
AcDbEntity
  8
M0
100
AcDbLine
 10
166.346
 20
468.560406
 11
167.162407
 21
471.207622
  0
LINE
  5
598
100
AcDbEntity
  8
M0
100
AcDbLine
 10
165.709037
 20
470.607525
 11
166.977348
 21
470.607525
  0
LINE
  5
599
100
AcDbEntity
  8
M0
100
AcDbLine
 10
164.787407
 20
469.407573
 11
166.607475
 21
469.407573
  0
LINE
  5
59A
100
AcDbEntity
  8
M0
100
AcDbLine
 10
161.065727
 20
470.607525
 11
159.797416
 21
470.607525
  0
LINE
  5
59B
100
AcDbEntity
  8
M0
100
AcDbLine
 10
161.987358
 20
469.407573
 11
160.167289
 21
469.407573
  0
LINE
  5
59C
100
AcDbEntity
  8
M0
100
AcDbLine
 10
160.906547
 20
468.207744
 11
165.868217
 21
468.207744
  0
LINE
  5
59D
100
AcDbEntity
  8
M0
100
AcDbLine
 10
167.162407
 20
471.207622
 11
167.162407
 21
473.80772
  0
LINE
  5
59E
100
AcDbEntity
  8
M0
100
AcDbLine
 10
159.612358
 20
473.80772
 11
159.612358
 21
471.207622
  0
LINE
  5
59F
100
AcDbEntity
  8
M0
100
AcDbLine
 10
164.787407
 20
469.407573
 11
164.787407
 21
469.854351
  0
LINE
  5
5A0
100
AcDbEntity
  8
M0
100
AcDbLine
 10
161.987358
 20
469.407573
 11
161.987358
 21
469.854351
  0
LINE
  5
5A1
100
AcDbEntity
  8
M0
100
AcDbLine
 10
164.97808
 20
470.916851
 11
161.79644
 21
474.098491
  0
LINE
  5
5A2
100
AcDbEntity
  8
M0
100
AcDbLine
 10
163.740776
 20
473.921733
 11
161.973198
 21
472.154156
  0
LINE
  5
5A3
100
AcDbEntity
  8
M0
100
AcDbLine
 10
164.801323
 20
472.861187
 11
163.033744
 21
471.093609
  0
ARC
  5
5A4
100
AcDbEntity
  8
M0
100
AcDbCircle
 10
160.906547
 20
468.707744
 40
0.5
100
AcDbArc
 50
197.129027
 51
270.0
  0
ARC
  5
5A5
100
AcDbEntity
  8
M0
100
AcDbCircle
 10
165.868217
 20
468.707744
 40
0.5
100
AcDbArc
 50
270.0
 51
342.861372
  0
LINE
  5
5A6
100
AcDbEntity
  8
M0
100
AcDbLine
 10
232.428505
 20
468.560177
 11
231.612343
 21
471.207378
  0
LINE
  5
5A7
100
AcDbEntity
  8
M0
100
AcDbLine
 10
238.345985
 20
468.560161
 11
239.162391
 21
471.207378
  0
LINE
  5
5A8
100
AcDbEntity
  8
M0
100
AcDbLine
 10
237.709022
 20
470.607281
 11
238.977333
 21
470.607281
  0
LINE
  5
5A9
100
AcDbEntity
  8
M0
100
AcDbLine
 10
236.787391
 20
469.407329
 11
238.60746
 21
469.407329
  0
LINE
  5
5AA
100
AcDbEntity
  8
M0
100
AcDbLine
 10
233.065712
 20
470.607281
 11
231.797401
 21
470.607281
  0
LINE
  5
5AB
100
AcDbEntity
  8
M0
100
AcDbLine
 10
233.987343
 20
469.407329
 11
232.167274
 21
469.407329
  0
LINE
  5
5AC
100
AcDbEntity
  8
M0
100
AcDbLine
 10
232.906532
 20
468.2075
 11
237.868202
 21
468.2075
  0
LINE
  5
5AD
100
AcDbEntity
  8
M0
100
AcDbLine
 10
239.162391
 20
471.207378
 11
239.162391
 21
473.807476
  0
LINE
  5
5AE
100
AcDbEntity
  8
M0
100
AcDbLine
 10
231.612343
 20
473.807476
 11
231.612343
 21
471.207378
  0
LINE
  5
5AF
100
AcDbEntity
  8
M0
100
AcDbLine
 10
236.787391
 20
469.407329
 11
236.787391
 21
469.854107
  0
LINE
  5
5B0
100
AcDbEntity
  8
M0
100
AcDbLine
 10
233.987343
 20
469.407329
 11
233.987343
 21
469.854107
  0
LINE
  5
5B1
100
AcDbEntity
  8
M0
100
AcDbLine
 10
236.978065
 20
470.916607
 11
233.796425
 21
474.098247
  0
LINE
  5
5B2
100
AcDbEntity
  8
M0
100
AcDbLine
 10
235.74076
 20
473.921489
 11
233.973182
 21
472.153911
  0
LINE
  5
5B3
100
AcDbEntity
  8
M0
100
AcDbLine
 10
236.801307
 20
472.860943
 11
235.033729
 21
471.093364
  0
ARC
  5
5B4
100
AcDbEntity
  8
M0
100
AcDbCircle
 10
232.906532
 20
468.7075
 40
0.5
100
AcDbArc
 50
197.128512
 51
269.998251
  0
ARC
  5
5B5
100
AcDbEntity
  8
M0
100
AcDbCircle
 10
237.868202
 20
468.7075
 40
0.5
100
AcDbArc
 50
269.998251
 51
342.860857
  0
LINE
  5
5B6
100
AcDbEntity
  8
M0
100
AcDbLine
 10
196.387503
 20
466.657375
 11
199.387244
 21
466.657375
  0
LINE
  5
5B7
100
AcDbEntity
  8
M0
 62
     7
100
AcDbLine
 10
195.387503
 20
474.707225
 11
195.387503
 21
472.307232
  0
CIRCLE
  5
5B8
100
AcDbEntity
  8
M0
100
AcDbCircle
 10
163.387504
 20
472.507671
 40
3.0
  0
CIRCLE
  5
5B9
100
AcDbEntity
  8
M0
100
AcDbCircle
 10
235.387489
 20
472.507427
 40
3.0
  0
LINE
  5
5BA
100
AcDbEntity
  8
M0
 62
     6
100
AcDbLine
 10
159.387504
 20
487.507518
 11
167.387504
 21
487.507518
  0
LINE
  5
5BB
100
AcDbEntity
  8
M0
 62
     6
100
AcDbLine
 10
159.387504
 20
486.007518
 11
160.448295
 21
486.007518
  0
LINE
  5
5BC
100
AcDbEntity
  8
M0
 62
     6
100
AcDbLine
 10
155.887504
 20
480.007518
 11
158.887504
 21
480.007518
  0
ARC
  5
5BD
100
AcDbEntity
  8
M0
 62
     6
100
AcDbCircle
 10
155.887504
 20
479.507518
 40
0.5
100
AcDbArc
 50
89.998251
 51
180.0
  0
LINE
  5
5BE
100
AcDbEntity
  8
M0
  6
DASHDOT
 62
     6
100
AcDbLine
 10
157.063667
 20
482.007518
 11
169.499458
 21
482.007518
  0
LINE
  5
5BF
100
AcDbEntity
  8
M0
 62
     6
100
AcDbLine
 10
159.387504
 20
481.007518
 11
159.887504
 21
479.507518
  0
LINE
  5
5C0
100
AcDbEntity
  8
M0
 62
     6
100
AcDbLine
 10
167.387504
 20
481.007518
 11
166.887504
 21
479.507518
  0
ARC
  5
5C1
100
AcDbEntity
  8
M0
 62
     6
100
AcDbCircle
 10
158.887504
 20
479.507518
 40
0.5
100
AcDbArc
 50
0.0
 51
89.998251
  0
LINE
  5
5C2
100
AcDbEntity
  8
M0
 62
     6
100
AcDbLine
 10
243.387489
 20
488.507273
 11
231.387489
 21
488.507273
  0
LINE
  5
5C3
100
AcDbEntity
  8
M0
 62
     6
100
AcDbLine
 10
239.387489
 20
487.507273
 11
231.387489
 21
487.507273
  0
LINE
  5
5C4
100
AcDbEntity
  8
M0
 62
     6
100
AcDbLine
 10
239.387489
 20
486.007273
 11
238.326454
 21
486.007273
  0
LINE
  5
5C5
100
AcDbEntity
  8
M0
 62
     6
100
AcDbLine
 10
243.387489
 20
488.507273
 11
239.387489
 21
488.507273
  0
LINE
  5
5C6
100
AcDbEntity
  8
M0
 62
     6
100
AcDbLine
 10
242.887489
 20
480.007273
 11
239.887489
 21
480.007273
  0
ARC
  5
5C7
100
AcDbEntity
  8
M0
 62
     6
100
AcDbCircle
 10
242.887489
 20
479.507273
 40
0.5
100
AcDbArc
 50
0.0
 51
90.0
  0
LINE
  5
5C8
100
AcDbEntity
  8
M0
  6
DASHDOT
 62
     6
100
AcDbLine
 10
241.830131
 20
482.007273
 11
229.887214
 21
482.007273
  0
ARC
  5
5C9
100
AcDbEntity
  8
M0
 62
     6
100
AcDbCircle
 10
239.887489
 20
488.007273
 40
0.5
100
AcDbArc
 50
90.0
 51
180.0
  0
LINE
  5
5CA
100
AcDbEntity
  8
M0
 62
     6
100
AcDbLine
 10
239.387489
 20
481.007273
 11
238.887489
 21
479.507273
  0
LINE
  5
5CB
100
AcDbEntity
  8
M0
 62
     6
100
AcDbLine
 10
231.387489
 20
481.007273
 11
231.887489
 21
479.507273
  0
ARC
  5
5CC
100
AcDbEntity
  8
M0
 62
     6
100
AcDbCircle
 10
239.887489
 20
479.507273
 40
0.5
100
AcDbArc
 50
90.0
 51
180.0
  0
LINE
  5
5CD
100
AcDbEntity
  8
M0
 62
     6
100
AcDbLine
 10
166.326469
 20
486.007518
 11
167.387504
 21
486.007518
  0
LINE
  5
5CE
100
AcDbEntity
  8
M0
 62
     6
100
AcDbLine
 10
232.44828
 20
486.007273
 11
231.387489
 21
486.007273
  0
CIRCLE
  5
5CF
100
AcDbEntity
  8
M0
100
AcDbCircle
 10
163.387504
 20
482.007518
 40
3.0
  0
LINE
  5
5D0
100
AcDbEntity
  8
M0
100
AcDbLine
 10
160.42852
 20
485.954783
 11
159.612358
 21
483.307566
  0
LINE
  5
5D1
100
AcDbEntity
  8
M0
100
AcDbLine
 10
160.42852
 20
478.060252
 11
159.612358
 21
480.707469
  0
LINE
  5
5D2
100
AcDbEntity
  8
M0
100
AcDbLine
 10
166.346
 20
485.954783
 11
167.162407
 21
483.307566
  0
LINE
  5
5D3
100
AcDbEntity
  8
M0
100
AcDbLine
 10
166.346
 20
478.060252
 11
167.162407
 21
480.707469
  0
LINE
  5
5D4
100
AcDbEntity
  8
M0
100
AcDbLine
 10
164.787407
 20
485.107371
 11
166.607475
 21
485.107371
  0
LINE
  5
5D5
100
AcDbEntity
  8
M0
100
AcDbLine
 10
165.709037
 20
483.90742
 11
166.977348
 21
483.90742
  0
LINE
  5
5D6
100
AcDbEntity
  8
M0
100
AcDbLine
 10
165.709037
 20
480.107371
 11
166.977348
 21
480.107371
  0
LINE
  5
5D7
100
AcDbEntity
  8
M0
100
AcDbLine
 10
161.987358
 20
485.107371
 11
160.167289
 21
485.107371
  0
LINE
  5
5D8
100
AcDbEntity
  8
M0
100
AcDbLine
 10
161.065727
 20
483.90742
 11
159.797416
 21
483.90742
  0
LINE
  5
5D9
100
AcDbEntity
  8
M0
100
AcDbLine
 10
161.065727
 20
480.107371
 11
159.797416
 21
480.107371
  0
LINE
  5
5DA
100
AcDbEntity
  8
M0
100
AcDbLine
 10
167.162407
 20
480.707469
 11
167.162407
 21
483.307566
  0
LINE
  5
5DB
100
AcDbEntity
  8
M0
100
AcDbLine
 10
165.868217
 20
486.307566
 11
160.906547
 21
486.307322
  0
LINE
  5
5DC
100
AcDbEntity
  8
M0
100
AcDbLine
 10
159.612358
 20
483.307566
 11
159.612358
 21
480.707469
  0
LINE
  5
5DD
100
AcDbEntity
  8
M0
100
AcDbLine
 10
164.787407
 20
484.660838
 11
164.787407
 21
485.107371
  0
LINE
  5
5DE
100
AcDbEntity
  8
M0
100
AcDbLine
 10
161.987358
 20
484.660838
 11
161.987358
 21
485.107371
  0
LINE
  5
5DF
100
AcDbEntity
  8
M0
100
AcDbLine
 10
164.97808
 20
480.416697
 11
161.79644
 21
483.598338
  0
LINE
  5
5E0
100
AcDbEntity
  8
M0
100
AcDbLine
 10
163.740776
 20
483.42158
 11
161.973198
 21
481.654002
  0
LINE
  5
5E1
100
AcDbEntity
  8
M0
100
AcDbLine
 10
164.801323
 20
482.361033
 11
163.033744
 21
480.593455
  0
ARC
  5
5E2
100
AcDbEntity
  8
M0
100
AcDbCircle
 10
160.906547
 20
485.807322
 40
0.5
100
AcDbArc
 50
89.998251
 51
162.856158
  0
ARC
  5
5E3
100
AcDbEntity
  8
M0
100
AcDbCircle
 10
165.868217
 20
485.807322
 40
0.5
100
AcDbArc
 50
17.151876
 51
89.998251
  0
CIRCLE
  5
5E4
100
AcDbEntity
  8
M0
100
AcDbCircle
 10
235.387489
 20
482.007273
 40
3.0
  0
LINE
  5
5E5
100
AcDbEntity
  8
M0
100
AcDbLine
 10
232.428505
 20
485.954539
 11
231.612343
 21
483.307322
  0
LINE
  5
5E6
100
AcDbEntity
  8
M0
100
AcDbLine
 10
232.428505
 20
478.060008
 11
231.612343
 21
480.707225
  0
LINE
  5
5E7
100
AcDbEntity
  8
M0
100
AcDbLine
 10
238.345985
 20
485.954539
 11
239.162391
 21
483.307322
  0
LINE
  5
5E8
100
AcDbEntity
  8
M0
100
AcDbLine
 10
238.345985
 20
478.060008
 11
239.162391
 21
480.707225
  0
LINE
  5
5E9
100
AcDbEntity
  8
M0
100
AcDbLine
 10
236.787391
 20
485.107127
 11
238.60746
 21
485.107127
  0
LINE
  5
5EA
100
AcDbEntity
  8
M0
100
AcDbLine
 10
237.709022
 20
483.907176
 11
238.977333
 21
483.907176
  0
LINE
  5
5EB
100
AcDbEntity
  8
M0
100
AcDbLine
 10
237.709022
 20
480.107127
 11
238.977333
 21
480.107127
  0
LINE
  5
5EC
100
AcDbEntity
  8
M0
100
AcDbLine
 10
233.987343
 20
485.107127
 11
232.167274
 21
485.107127
  0
LINE
  5
5ED
100
AcDbEntity
  8
M0
100
AcDbLine
 10
233.065712
 20
483.907176
 11
231.797401
 21
483.907176
  0
LINE
  5
5EE
100
AcDbEntity
  8
M0
100
AcDbLine
 10
233.065712
 20
480.107127
 11
231.797401
 21
480.107127
  0
LINE
  5
5EF
100
AcDbEntity
  8
M0
100
AcDbLine
 10
239.162391
 20
480.707225
 11
239.162391
 21
483.307322
  0
LINE
  5
5F0
100
AcDbEntity
  8
M0
100
AcDbLine
 10
237.868202
 20
486.307322
 11
232.906532
 21
486.307078
  0
LINE
  5
5F1
100
AcDbEntity
  8
M0
100
AcDbLine
 10
231.612343
 20
483.307322
 11
231.612343
 21
480.707225
  0
LINE
  5
5F2
100
AcDbEntity
  8
M0
100
AcDbLine
 10
236.787391
 20
484.660594
 11
236.787391
 21
485.107127
  0
LINE
  5
5F3
100
AcDbEntity
  8
M0
100
AcDbLine
 10
233.987343
 20
484.660594
 11
233.987343
 21
485.107127
  0
LINE
  5
5F4
100
AcDbEntity
  8
M0
100
AcDbLine
 10
236.978065
 20
480.416453
 11
233.796425
 21
483.598094
  0
LINE
  5
5F5
100
AcDbEntity
  8
M0
100
AcDbLine
 10
235.74076
 20
483.421336
 11
233.973182
 21
481.653758
  0
LINE
  5
5F6
100
AcDbEntity
  8
M0
100
AcDbLine
 10
236.801307
 20
482.360789
 11
235.033729
 21
480.593211
  0
ARC
  5
5F7
100
AcDbEntity
  8
M0
100
AcDbCircle
 10
232.906532
 20
485.807078
 40
0.5
100
AcDbArc
 50
90.0
 51
162.856673
  0
ARC
  5
5F8
100
AcDbEntity
  8
M0
100
AcDbCircle
 10
237.868202
 20
485.807078
 40
0.5
100
AcDbArc
 50
17.152392
 51
90.0
  0
LINE
  5
5F9
100
AcDbEntity
  8
M0
 62
     6
100
AcDbLine
 10
155.387504
 20
488.507518
 11
167.387504
 21
488.507518
  0
LINE
  5
5FA
100
AcDbEntity
  8
M0
 62
     6
100
AcDbLine
 10
157.887504
 20
491.007506
 11
157.887504
 21
488.507518
  0
LINE
  5
5FB
100
AcDbEntity
  8
M0
 62
     6
100
AcDbLine
 10
155.387504
 20
488.507518
 11
159.387504
 21
488.507518
  0
ARC
  5
5FC
100
AcDbEntity
  8
M0
 62
     6
100
AcDbCircle
 10
158.887504
 20
488.007518
 40
0.5
100
AcDbArc
 50
0.0
 51
89.998251
  0
LINE
  5
5FD
100
AcDbEntity
  8
M0
 62
     6
100
AcDbLine
 10
240.887489
 20
491.007262
 11
240.887489
 21
488.507273
  0
LINE
  5
5FE
100
AcDbEntity
  8
M0
 62
     5
100
AcDbLine
 10
155.387016
 20
488.507518
 11
167.38726
 21
488.507518
  0
LINE
  5
5FF
100
AcDbEntity
  8
M0
 62
     5
100
AcDbLine
 10
239.387245
 20
488.507029
 11
239.387245
 21
500.007506
  0
LINE
  5
600
100
AcDbEntity
  8
M0
  6
DASHDOT
100
AcDbLine
 10
163.887016
 20
490.381816
 11
163.887016
 21
498.376357
  0
LINE
  5
601
100
AcDbEntity
  8
M0
 62
     6
100
AcDbLine
 10
167.387504
 20
468.207165
 11
167.387504
 21
510.007506
  0
LINE
  5
602
100
AcDbEntity
  8
M0
 62
     6
100
AcDbLine
 10
231.387489
 20
468.207409
 11
231.387489
 21
510.007262
  0
LINE
  5
603
100
AcDbEntity
  8
M0
 62
     7
100
AcDbLine
 10
167.387504
 20
494.007262
 11
167.387504
 21
468.20747
  0
LINE
  5
604
100
AcDbEntity
  8
M0
 62
     7
100
AcDbLine
 10
231.387489
 20
468.20747
 11
231.387489
 21
494.007262
  0
LINE
  5
605
100
AcDbEntity
  8
M0
  6
DASHDOT
100
AcDbLine
 10
165.387016
 20
490.581218
 11
165.387016
 21
498.430571
  0
LINE
  5
606
100
AcDbEntity
  8
M0
100
AcDbLine
 10
163.887016
 20
496.807311
 11
165.387016
 21
496.807311
  0
LINE
  5
607
100
AcDbEntity
  8
M0
100
AcDbLine
 10
163.887016
 20
492.207503
 11
165.387016
 21
492.207503
  0
ARC
  5
608
100
AcDbEntity
  8
M0
100
AcDbCircle
 10
163.887016
 20
494.507506
 40
2.299998
100
AcDbArc
 50
89.99962
 51
270.0
  0
ARC
  5
609
100
AcDbEntity
  8
M0
100
AcDbCircle
 10
165.387016
 20
494.507506
 40
2.299998
100
AcDbArc
 50
270.0
 51
449.99962
  0
ARC
  5
60A
100
AcDbEntity
  8
M0
 62
     6
100
AcDbCircle
 10
190.637504
 20
514.507506
 40
0.5
100
AcDbArc
 50
0.0
 51
90.0
  0
ARC
  5
60B
100
AcDbEntity
  8
M0
 62
     6
100
AcDbCircle
 10
188.137504
 20
514.507506
 40
0.5
100
AcDbArc
 50
90.0
 51
180.0
  0
LINE
  5
60C
100
AcDbEntity
  8
M0
 62
     7
100
AcDbLine
 10
203.386979
 20
474.007429
 11
201.886979
 21
474.007428
  0
LINE
  5
60D
100
AcDbEntity
  8
M0
 62
     7
100
AcDbLine
 10
201.886977
 20
477.007274
 11
201.886979
 21
474.007428
  0
LINE
  5
60E
100
AcDbEntity
  8
M0
 62
     7
100
AcDbLine
 10
203.386978
 20
474.707227
 11
201.886978
 21
474.707227
  0
ARC
  5
60F
100
AcDbEntity
  8
M0
 62
     7
100
AcDbCircle
 10
200.886977
 20
477.007274
 40
1.0
100
AcDbArc
 50
0.0
 51
90.0
  0
LINE
  5
610
100
AcDbEntity
  8
M0
 62
     7
100
AcDbLine
 10
199.387235
 20
478.007258
 11
200.886976
 21
478.007274
  0
LINE
  5
611
100
AcDbEntity
  8
M0
 62
     7
100
AcDbLine
 10
207.687019
 20
472.307236
 11
203.38698
 21
472.307234
  0
ARC
  5
612
100
AcDbEntity
  8
M0
 62
     7
100
AcDbCircle
 10
207.687019
 20
469.307236
 40
3.0
100
AcDbArc
 50
0.0
 51
90.0
  0
LINE
  5
613
100
AcDbEntity
  8
M0
 62
     7
100
AcDbLine
 10
203.386978
 20
474.707227
 11
203.38698
 21
472.307234
  0
LINE
  5
614
100
AcDbEntity
  8
M0
100
AcDbLine
 10
202.386983
 20
466.657377
 11
199.387242
 21
466.657375
  0
LINE
  5
615
100
AcDbEntity
  8
M0
 62
     7
100
AcDbLine
 10
199.386372
 20
494.507018
 11
230.886955
 21
494.507277
  0
LINE
  5
616
100
AcDbEntity
  8
M0
 62
     6
100
AcDbLine
 10
155.387535
 20
458.257949
 11
158.587486
 21
458.257949
  0
LINE
  5
617
100
AcDbEntity
  8
M0
 62
     6
100
AcDbLine
 10
243.38752
 20
458.258193
 11
240.187324
 21
458.258193
  0
LINE
  5
618
100
AcDbEntity
  8
M0
 62
     6
100
AcDbLine
 10
155.887535
 20
444.007949
 11
158.887535
 21
444.007949
  0
LINE
  5
619
100
AcDbEntity
  8
M0
 62
     6
100
AcDbLine
 10
158.587486
 20
458.257949
 11
159.387535
 21
457.307997
  0
ARC
  5
61A
100
AcDbEntity
  8
M0
 62
     6
100
AcDbCircle
 10
155.887535
 20
444.507949
 40
0.5
100
AcDbArc
 50
179.998251
 51
270.0
  0
LINE
  5
61B
100
AcDbEntity
  8
M0
 62
     6
100
AcDbLine
 10
166.587486
 20
446.507949
 11
166.587486
 21
447.507949
  0
LINE
  5
61C
100
AcDbEntity
  8
M0
 62
     6
100
AcDbLine
 10
160.187339
 20
446.507949
 11
160.187339
 21
447.507949
  0
LINE
  5
61D
100
AcDbEntity
  8
M0
 62
     6
100
AcDbLine
 10
159.887535
 20
444.508193
 11
159.887535
 21
446.007949
  0
LINE
  5
61E
100
AcDbEntity
  8
M0
 62
     6
100
AcDbLine
 10
166.887535
 20
444.507949
 11
166.887535
 21
446.007949
  0
ARC
  5
61F
100
AcDbEntity
  8
M0
 62
     6
100
AcDbCircle
 10
159.687339
 20
446.507949
 40
0.5
100
AcDbArc
 50
-90.0
 51
0.0
  0
ARC
  5
620
100
AcDbEntity
  8
M0
 62
     6
100
AcDbCircle
 10
158.887535
 20
444.507949
 40
0.5
100
AcDbArc
 50
-90.0
 51
0.0
  0
LINE
  5
621
100
AcDbEntity
  8
M0
  6
DASHDOT
 62
     6
100
AcDbLine
 10
156.991188
 20
451.507949
 11
170.097725
 21
451.507949
  0
LINE
  5
622
100
AcDbEntity
  8
M0
 62
     6
100
AcDbLine
 10
159.387535
 20
447.507949
 11
160.448326
 21
447.507949
  0
LINE
  5
623
100
AcDbEntity
  8
M0
 62
     6
100
AcDbLine
 10
161.129234
 20
456.307997
 11
165.645591
 21
456.307997
  0
LINE
  5
624
100
AcDbEntity
  8
M0
 62
     6
100
AcDbLine
 10
160.172203
 20
455.598037
 11
159.387535
 21
453.007949
  0
LINE
  5
625
100
AcDbEntity
  8
M0
 62
     6
100
AcDbLine
 10
166.602623
 20
455.598037
 11
167.387535
 21
453.007949
  0
ARC
  5
626
100
AcDbEntity
  8
M0
 62
     6
100
AcDbCircle
 10
161.129234
 20
455.307997
 40
1.0
100
AcDbArc
 50
89.999126
 51
163.139725
  0
ARC
  5
627
100
AcDbEntity
  8
M0
 62
     6
100
AcDbCircle
 10
165.645591
 20
455.307997
 40
1.0
100
AcDbArc
 50
16.860021
 51
89.999126
  0
LINE
  5
628
100
AcDbEntity
  8
M0
 62
     6
100
AcDbLine
 10
159.387535
 20
446.007949
 11
159.687339
 21
446.007949
  0
LINE
  5
629
100
AcDbEntity
  8
M0
 62
     6
100
AcDbLine
 10
167.087486
 20
446.007949
 11
167.387535
 21
446.007949
  0
ARC
  5
62A
100
AcDbEntity
  8
M0
 62
     6
100
AcDbCircle
 10
167.087486
 20
446.507949
 40
0.5
100
AcDbArc
 50
179.998251
 51
270.0
  0
LINE
  5
62B
100
AcDbEntity
  8
M0
 62
     6
100
AcDbLine
 10
242.88752
 20
444.008193
 11
239.88752
 21
444.008193
  0
LINE
  5
62C
100
AcDbEntity
  8
M0
 62
     6
100
AcDbLine
 10
240.187324
 20
458.258193
 11
239.38752
 21
457.308242
  0
ARC
  5
62D
100
AcDbEntity
  8
M0
 62
     6
100
AcDbCircle
 10
242.88752
 20
444.508193
 40
0.5
100
AcDbArc
 50
269.998251
 51
360.0
  0
LINE
  5
62E
100
AcDbEntity
  8
M0
 62
     6
100
AcDbLine
 10
232.187324
 20
446.508193
 11
232.187324
 21
447.508193
  0
LINE
  5
62F
100
AcDbEntity
  8
M0
 62
     6
100
AcDbLine
 10
238.587471
 20
446.508193
 11
238.587471
 21
447.508193
  0
LINE
  5
630
100
AcDbEntity
  8
M0
 62
     6
100
AcDbLine
 10
238.88752
 20
444.508437
 11
238.88752
 21
446.008193
  0
LINE
  5
631
100
AcDbEntity
  8
M0
 62
     6
100
AcDbLine
 10
231.88752
 20
444.508193
 11
231.88752
 21
446.008193
  0
ARC
  5
632
100
AcDbEntity
  8
M0
 62
     6
100
AcDbCircle
 10
239.087471
 20
446.508193
 40
0.5
100
AcDbArc
 50
179.998251
 51
269.998251
  0
ARC
  5
633
100
AcDbEntity
  8
M0
 62
     6
100
AcDbCircle
 10
239.88752
 20
444.508193
 40
0.5
100
AcDbArc
 50
179.998251
 51
269.998251
  0
LINE
  5
634
100
AcDbEntity
  8
M0
 62
     6
100
AcDbLine
 10
239.38752
 20
447.508193
 11
238.329658
 21
447.508178
  0
LINE
  5
635
100
AcDbEntity
  8
M0
 62
     6
100
AcDbLine
 10
237.645576
 20
456.308242
 11
233.129219
 21
456.308242
  0
LINE
  5
636
100
AcDbEntity
  8
M0
 62
     6
100
AcDbLine
 10
238.602607
 20
455.598281
 11
239.38752
 21
453.008193
  0
LINE
  5
637
100
AcDbEntity
  8
M0
 62
     6
100
AcDbLine
 10
232.172187
 20
455.598281
 11
231.38752
 21
453.008193
  0
ARC
  5
638
100
AcDbEntity
  8
M0
 62
     6
100
AcDbCircle
 10
237.645576
 20
455.308242
 40
1.0
100
AcDbArc
 50
16.860275
 51
90.0
  0
ARC
  5
639
100
AcDbEntity
  8
M0
 62
     6
100
AcDbCircle
 10
233.129219
 20
455.308242
 40
1.0
100
AcDbArc
 50
90.0
 51
163.139979
  0
LINE
  5
63A
100
AcDbEntity
  8
M0
 62
     6
100
AcDbLine
 10
239.38752
 20
446.008193
 11
239.087471
 21
446.008193
  0
LINE
  5
63B
100
AcDbEntity
  8
M0
 62
     6
100
AcDbLine
 10
231.687324
 20
446.008193
 11
231.38752
 21
446.008193
  0
ARC
  5
63C
100
AcDbEntity
  8
M0
 62
     6
100
AcDbCircle
 10
231.687324
 20
446.508193
 40
0.5
100
AcDbArc
 50
269.998251
 51
360.0
  0
LINE
  5
63D
100
AcDbEntity
  8
M0
 62
     6
100
AcDbLine
 10
166.3265
 20
447.507949
 11
167.387535
 21
447.507949
  0
LINE
  5
63E
100
AcDbEntity
  8
M0
 62
     6
100
AcDbLine
 10
232.444648
 20
447.508178
 11
231.38752
 21
447.508193
  0
LINE
  5
63F
100
AcDbEntity
  8
M0
 62
     6
100
AcDbLine
 10
160.187339
 20
447.007949
 11
166.587486
 21
447.007949
  0
LINE
  5
640
100
AcDbEntity
  8
M0
 62
     6
100
AcDbLine
 10
232.187324
 20
447.008178
 11
238.587471
 21
447.008178
  0
LINE
  5
641
100
AcDbEntity
  8
M0
 62
     7
100
AcDbLine
 10
238.38752
 20
456.307708
 11
231.88752
 21
456.307692
  0
LINE
  5
642
100
AcDbEntity
  8
M0
 62
     7
100
AcDbLine
 10
166.887535
 20
456.307662
 11
160.387535
 21
456.307662
  0
ARC
  5
643
100
AcDbEntity
  8
M0
 62
     7
100
AcDbCircle
 10
231.88752
 20
455.807692
 40
0.5
100
AcDbArc
 50
90.0
 51
179.998251
  0
ARC
  5
644
100
AcDbEntity
  8
M0
 62
     7
100
AcDbCircle
 10
238.38752
 20
456.807692
 40
0.5
100
AcDbArc
 50
269.998251
 51
360.0
  0
ARC
  5
645
100
AcDbEntity
  8
M0
 62
     7
100
AcDbCircle
 10
160.387535
 20
456.807662
 40
0.5
100
AcDbArc
 50
179.998251
 51
270.0
  0
ARC
  5
646
100
AcDbEntity
  8
M0
 62
     7
100
AcDbCircle
 10
166.887535
 20
455.807662
 40
0.5
100
AcDbArc
 50
0.0
 51
89.998251
  0
LINE
  5
647
100
AcDbEntity
  8
M0
 62
     7
100
AcDbLine
 10
191.087486
 20
456.007705
 11
191.387534
 21
456.007705
  0
LINE
  5
648
100
AcDbEntity
  8
M0
 62
     7
100
AcDbLine
 10
191.387534
 20
456.007705
 11
191.387534
 21
452.007705
  0
ARC
  5
649
100
AcDbEntity
  8
M0
 62
     7
100
AcDbCircle
 10
191.087486
 20
459.007702
 40
3.0
100
AcDbArc
 50
179.999964
 51
270.0
  0
LINE
  5
64A
100
AcDbEntity
  8
M0
100
AcDbLine
 10
160.42855
 20
445.955291
 11
159.612388
 21
443.307997
  0
LINE
  5
64B
100
AcDbEntity
  8
M0
100
AcDbLine
 10
166.346031
 20
445.955306
 11
167.162437
 21
443.307997
  0
LINE
  5
64C
100
AcDbEntity
  8
M0
100
AcDbLine
 10
164.787437
 20
445.107924
 11
166.607505
 21
445.107924
  0
LINE
  5
64D
100
AcDbEntity
  8
M0
100
AcDbLine
 10
165.709068
 20
443.907973
 11
166.977379
 21
443.907973
  0
LINE
  5
64E
100
AcDbEntity
  8
M0
100
AcDbLine
 10
161.987388
 20
445.107924
 11
160.16732
 21
445.107924
  0
LINE
  5
64F
100
AcDbEntity
  8
M0
100
AcDbLine
 10
161.065757
 20
443.907973
 11
159.797447
 21
443.907973
  0
LINE
  5
650
100
AcDbEntity
  8
M0
100
AcDbLine
 10
165.868248
 20
446.307997
 11
160.906578
 21
446.307982
  0
LINE
  5
651
100
AcDbEntity
  8
M0
100
AcDbLine
 10
164.787437
 20
444.661269
 11
164.787437
 21
445.107924
  0
LINE
  5
652
100
AcDbEntity
  8
M0
100
AcDbLine
 10
161.987388
 20
444.661269
 11
161.987388
 21
445.107924
  0
ARC
  5
653
100
AcDbEntity
  8
M0
100
AcDbCircle
 10
160.906578
 20
445.807982
 40
0.5
100
AcDbArc
 50
89.998251
 51
162.872331
  0
ARC
  5
654
100
AcDbEntity
  8
M0
100
AcDbCircle
 10
165.868248
 20
445.807982
 40
0.5
100
AcDbArc
 50
17.137695
 51
89.998251
  0
CIRCLE
  5
655
100
AcDbEntity
  8
M0
100
AcDbCircle
 10
163.387535
 20
451.507949
 40
3.0
  0
LINE
  5
656
100
AcDbEntity
  8
M0
100
AcDbLine
 10
160.42855
 20
455.455291
 11
159.612388
 21
452.807997
  0
LINE
  5
657
100
AcDbEntity
  8
M0
100
AcDbLine
 10
160.42855
 20
447.560698
 11
159.612388
 21
450.208022
  0
LINE
  5
658
100
AcDbEntity
  8
M0
100
AcDbLine
 10
166.346031
 20
455.455306
 11
167.162437
 21
452.807997
  0
LINE
  5
659
100
AcDbEntity
  8
M0
100
AcDbLine
 10
166.346031
 20
447.560683
 11
167.162437
 21
450.208022
  0
LINE
  5
65A
100
AcDbEntity
  8
M0
100
AcDbLine
 10
164.787437
 20
454.607924
 11
166.607505
 21
454.607924
  0
LINE
  5
65B
100
AcDbEntity
  8
M0
100
AcDbLine
 10
165.709068
 20
453.407973
 11
166.977379
 21
453.407973
  0
LINE
  5
65C
100
AcDbEntity
  8
M0
100
AcDbLine
 10
165.709068
 20
449.607924
 11
166.977379
 21
449.607924
  0
LINE
  5
65D
100
AcDbEntity
  8
M0
100
AcDbLine
 10
164.787437
 20
448.407973
 11
166.607505
 21
448.407973
  0
LINE
  5
65E
100
AcDbEntity
  8
M0
100
AcDbLine
 10
161.987388
 20
454.607924
 11
160.16732
 21
454.607924
  0
LINE
  5
65F
100
AcDbEntity
  8
M0
100
AcDbLine
 10
161.065757
 20
453.407973
 11
159.797447
 21
453.407973
  0
LINE
  5
660
100
AcDbEntity
  8
M0
100
AcDbLine
 10
161.065757
 20
449.607924
 11
159.797447
 21
449.607924
  0
LINE
  5
661
100
AcDbEntity
  8
M0
100
AcDbLine
 10
161.987388
 20
448.407973
 11
160.16732
 21
448.407973
  0
LINE
  5
662
100
AcDbEntity
  8
M0
100
AcDbLine
 10
160.906578
 20
447.208022
 11
165.868248
 21
447.208022
  0
LINE
  5
663
100
AcDbEntity
  8
M0
100
AcDbLine
 10
167.162437
 20
450.208022
 11
167.162437
 21
452.807997
  0
LINE
  5
664
100
AcDbEntity
  8
M0
100
AcDbLine
 10
165.868248
 20
455.807997
 11
160.906578
 21
455.807982
  0
LINE
  5
665
100
AcDbEntity
  8
M0
100
AcDbLine
 10
159.612388
 20
452.807997
 11
159.612388
 21
450.208022
  0
LINE
  5
666
100
AcDbEntity
  8
M0
100
AcDbLine
 10
164.787437
 20
448.407973
 11
164.787437
 21
448.854628
  0
LINE
  5
667
100
AcDbEntity
  8
M0
100
AcDbLine
 10
164.787437
 20
454.161269
 11
164.787437
 21
454.607924
  0
LINE
  5
668
100
AcDbEntity
  8
M0
100
AcDbLine
 10
161.987388
 20
454.161269
 11
161.987388
 21
454.607924
  0
LINE
  5
669
100
AcDbEntity
  8
M0
100
AcDbLine
 10
161.987388
 20
448.407973
 11
161.987388
 21
448.854628
  0
LINE
  5
66A
100
AcDbEntity
  8
M0
100
AcDbLine
 10
164.978111
 20
449.917128
 11
161.79647
 21
453.098891
  0
LINE
  5
66B
100
AcDbEntity
  8
M0
100
AcDbLine
 10
163.740806
 20
452.922133
 11
161.973228
 21
451.154433
  0
LINE
  5
66C
100
AcDbEntity
  8
M0
100
AcDbLine
 10
164.801353
 20
451.861464
 11
163.033775
 21
450.093886
  0
ARC
  5
66D
100
AcDbEntity
  8
M0
100
AcDbCircle
 10
160.906578
 20
455.307982
 40
0.5
100
AcDbArc
 50
89.998251
 51
162.872331
  0
ARC
  5
66E
100
AcDbEntity
  8
M0
100
AcDbCircle
 10
160.906578
 20
447.708022
 40
0.5
100
AcDbArc
 50
197.127669
 51
270.0
  0
ARC
  5
66F
100
AcDbEntity
  8
M0
100
AcDbCircle
 10
165.868248
 20
447.708022
 40
0.5
100
AcDbArc
 50
270.0
 51
342.86179
  0
ARC
  5
670
100
AcDbEntity
  8
M0
100
AcDbCircle
 10
165.868248
 20
455.307982
 40
0.5
100
AcDbArc
 50
17.137695
 51
89.998251
  0
CIRCLE
  5
671
100
AcDbEntity
  8
M0
100
AcDbCircle
 10
235.38752
 20
451.508208
 40
3.0
  0
LINE
  5
672
100
AcDbEntity
  8
M0
100
AcDbLine
 10
232.428535
 20
455.45555
 11
231.612373
 21
452.808257
  0
LINE
  5
673
100
AcDbEntity
  8
M0
100
AcDbLine
 10
232.428535
 20
447.560958
 11
231.612373
 21
450.208281
  0
LINE
  5
674
100
AcDbEntity
  8
M0
100
AcDbLine
 10
238.346016
 20
455.455565
 11
239.162422
 21
452.808257
  0
LINE
  5
675
100
AcDbEntity
  8
M0
100
AcDbLine
 10
238.346016
 20
447.560942
 11
239.162422
 21
450.208281
  0
LINE
  5
676
100
AcDbEntity
  8
M0
100
AcDbLine
 10
236.787422
 20
454.608184
 11
238.60749
 21
454.608184
  0
LINE
  5
677
100
AcDbEntity
  8
M0
100
AcDbLine
 10
237.709053
 20
453.408232
 11
238.977363
 21
453.408232
  0
LINE
  5
678
100
AcDbEntity
  8
M0
100
AcDbLine
 10
237.709053
 20
449.608184
 11
238.977363
 21
449.608184
  0
LINE
  5
679
100
AcDbEntity
  8
M0
100
AcDbLine
 10
236.787422
 20
448.408232
 11
238.60749
 21
448.408232
  0
LINE
  5
67A
100
AcDbEntity
  8
M0
100
AcDbLine
 10
233.987373
 20
454.608184
 11
232.167305
 21
454.608184
  0
LINE
  5
67B
100
AcDbEntity
  8
M0
100
AcDbLine
 10
233.065742
 20
453.408232
 11
231.797432
 21
453.408232
  0
LINE
  5
67C
100
AcDbEntity
  8
M0
100
AcDbLine
 10
233.065742
 20
449.608184
 11
231.797432
 21
449.608184
  0
LINE
  5
67D
100
AcDbEntity
  8
M0
100
AcDbLine
 10
233.987373
 20
448.408232
 11
232.167305
 21
448.408232
  0
LINE
  5
67E
100
AcDbEntity
  8
M0
100
AcDbLine
 10
232.906562
 20
447.208281
 11
237.868232
 21
447.208281
  0
LINE
  5
67F
100
AcDbEntity
  8
M0
100
AcDbLine
 10
239.162422
 20
450.208281
 11
239.162422
 21
452.808257
  0
LINE
  5
680
100
AcDbEntity
  8
M0
100
AcDbLine
 10
237.868232
 20
455.808257
 11
232.906562
 21
455.808242
  0
LINE
  5
681
100
AcDbEntity
  8
M0
100
AcDbLine
 10
231.612373
 20
452.808257
 11
231.612373
 21
450.208281
  0
LINE
  5
682
100
AcDbEntity
  8
M0
100
AcDbLine
 10
236.787422
 20
448.408232
 11
236.787422
 21
448.854888
  0
LINE
  5
683
100
AcDbEntity
  8
M0
100
AcDbLine
 10
236.787422
 20
454.161528
 11
236.787422
 21
454.608184
  0
LINE
  5
684
100
AcDbEntity
  8
M0
100
AcDbLine
 10
233.987373
 20
454.161528
 11
233.987373
 21
454.608184
  0
LINE
  5
685
100
AcDbEntity
  8
M0
100
AcDbLine
 10
233.987373
 20
448.408232
 11
233.987373
 21
448.854888
  0
LINE
  5
686
100
AcDbEntity
  8
M0
100
AcDbLine
 10
236.978096
 20
449.917388
 11
233.796455
 21
453.09915
  0
LINE
  5
687
100
AcDbEntity
  8
M0
100
AcDbLine
 10
235.740791
 20
452.922393
 11
233.973213
 21
451.154692
  0
LINE
  5
688
100
AcDbEntity
  8
M0
100
AcDbLine
 10
236.801338
 20
451.861724
 11
235.03376
 21
450.094146
  0
ARC
  5
689
100
AcDbEntity
  8
M0
100
AcDbCircle
 10
232.906562
 20
455.308242
 40
0.5
100
AcDbArc
 50
90.0
 51
162.872846
  0
ARC
  5
68A
100
AcDbEntity
  8
M0
100
AcDbCircle
 10
232.906562
 20
447.708281
 40
0.5
100
AcDbArc
 50
197.127154
 51
269.998251
  0
ARC
  5
68B
100
AcDbEntity
  8
M0
100
AcDbCircle
 10
237.868232
 20
447.708281
 40
0.5
100
AcDbArc
 50
269.998251
 51
342.861275
  0
ARC
  5
68C
100
AcDbEntity
  8
M0
100
AcDbCircle
 10
237.868232
 20
455.308242
 40
0.5
100
AcDbArc
 50
17.13821
 51
90.0
  0
LINE
  5
68D
100
AcDbEntity
  8
M0
100
AcDbLine
 10
232.428535
 20
445.955565
 11
231.612373
 21
443.308272
  0
LINE
  5
68E
100
AcDbEntity
  8
M0
100
AcDbLine
 10
238.346016
 20
445.95558
 11
239.162422
 21
443.308272
  0
LINE
  5
68F
100
AcDbEntity
  8
M0
100
AcDbLine
 10
236.787422
 20
445.108199
 11
238.60749
 21
445.108199
  0
LINE
  5
690
100
AcDbEntity
  8
M0
100
AcDbLine
 10
237.709053
 20
443.908248
 11
238.977363
 21
443.908248
  0
LINE
  5
691
100
AcDbEntity
  8
M0
100
AcDbLine
 10
233.987373
 20
445.108199
 11
232.167305
 21
445.108199
  0
LINE
  5
692
100
AcDbEntity
  8
M0
100
AcDbLine
 10
233.065742
 20
443.908248
 11
231.797432
 21
443.908248
  0
LINE
  5
693
100
AcDbEntity
  8
M0
100
AcDbLine
 10
237.868232
 20
446.308272
 11
232.906562
 21
446.308257
  0
LINE
  5
694
100
AcDbEntity
  8
M0
100
AcDbLine
 10
236.787422
 20
444.661544
 11
236.787422
 21
445.108199
  0
LINE
  5
695
100
AcDbEntity
  8
M0
100
AcDbLine
 10
233.987373
 20
444.661544
 11
233.987373
 21
445.108199
  0
ARC
  5
696
100
AcDbEntity
  8
M0
100
AcDbCircle
 10
232.906562
 20
445.808257
 40
0.5
100
AcDbArc
 50
90.0
 51
162.872846
  0
ARC
  5
697
100
AcDbEntity
  8
M0
100
AcDbCircle
 10
237.868232
 20
445.808257
 40
0.5
100
AcDbArc
 50
17.13821
 51
90.0
  0
LINE
  5
698
100
AcDbEntity
  8
M0
 62
     5
100
AcDbLine
 10
231.43708
 20
416.792922
 11
240.387275
 21
422.946056
  0
LINE
  5
699
100
AcDbEntity
  8
M0
 62
     6
100
AcDbLine
 10
155.887535
 20
432.507949
 11
157.387535
 21
432.507949
  0
LINE
  5
69A
100
AcDbEntity
  8
M0
 62
     6
100
AcDbLine
 10
155.387535
 20
435.507949
 11
167.387535
 21
435.507949
  0
LINE
  5
69B
100
AcDbEntity
  8
M0
 62
     6
100
AcDbLine
 10
159.387535
 20
436.507949
 11
167.387535
 21
436.507949
  0
LINE
  5
69C
100
AcDbEntity
  8
M0
 62
     6
100
AcDbLine
 10
159.387535
 20
438.007949
 11
160.444908
 21
438.007949
  0
LINE
  5
69D
100
AcDbEntity
  8
M0
 62
     6
100
AcDbLine
 10
157.887535
 20
433.007949
 11
157.887535
 21
435.507949
  0
ARC
  5
69E
100
AcDbEntity
  8
M0
 62
     6
100
AcDbCircle
 10
157.387535
 20
433.007949
 40
0.5
100
AcDbArc
 50
-90.0
 51
0.0
  0
ARC
  5
69F
100
AcDbEntity
  8
M0
 62
     6
100
AcDbCircle
 10
155.887535
 20
433.007949
 40
0.5
100
AcDbArc
 50
179.998251
 51
270.0
  0
LINE
  5
6A0
100
AcDbEntity
  8
M0
 62
     6
100
AcDbLine
 10
155.387535
 20
435.507949
 11
159.387535
 21
435.507949
  0
ARC
  5
6A1
100
AcDbEntity
  8
M0
 62
     6
100
AcDbCircle
 10
158.887535
 20
436.007949
 40
0.5
100
AcDbArc
 50
-90.0
 51
0.0
  0
LINE
  5
6A2
100
AcDbEntity
  8
M0
 62
     6
100
AcDbLine
 10
242.88752
 20
432.508193
 11
241.38752
 21
432.508193
  0
LINE
  5
6A3
100
AcDbEntity
  8
M0
 62
     6
100
AcDbLine
 10
239.88752
 20
435.508178
 11
231.38752
 21
435.508193
  0
LINE
  5
6A4
100
AcDbEntity
  8
M0
 62
     6
100
AcDbLine
 10
239.38752
 20
436.508193
 11
231.38752
 21
436.508193
  0
LINE
  5
6A5
100
AcDbEntity
  8
M0
 62
     6
100
AcDbLine
 10
239.38752
 20
438.008193
 11
238.329658
 21
438.008178
  0
LINE
  5
6A6
100
AcDbEntity
  8
M0
 62
     6
100
AcDbLine
 10
240.88752
 20
433.008193
 11
240.88752
 21
435.508193
  0
ARC
  5
6A7
100
AcDbEntity
  8
M0
 62
     6
100
AcDbCircle
 10
241.38752
 20
433.008193
 40
0.5
100
AcDbArc
 50
179.998251
 51
269.998251
  0
ARC
  5
6A8
100
AcDbEntity
  8
M0
 62
     6
100
AcDbCircle
 10
242.88752
 20
433.008193
 40
0.5
100
AcDbArc
 50
269.998251
 51
360.0
  0
LINE
  5
6A9
100
AcDbEntity
  8
M0
 62
     6
100
AcDbLine
 10
243.38752
 20
435.508193
 11
239.38752
 21
435.508193
  0
ARC
  5
6AA
100
AcDbEntity
  8
M0
 62
     6
100
AcDbCircle
 10
239.88752
 20
436.008193
 40
0.5
100
AcDbArc
 50
179.998251
 51
269.998251
  0
LINE
  5
6AB
100
AcDbEntity
  8
M0
 62
     6
100
AcDbLine
 10
166.329918
 20
438.007949
 11
167.387535
 21
438.007949
  0
LINE
  5
6AC
100
AcDbEntity
  8
M0
 62
     6
100
AcDbLine
 10
232.444648
 20
438.008178
 11
231.38752
 21
438.008193
  0
ARC
  5
6AD
100
AcDbEntity
  8
M0
 62
     7
100
AcDbCircle
 10
191.887534
 20
428.50775
 40
0.5
100
AcDbArc
 50
179.998251
 51
270.0
  0
LINE
  5
6AE
100
AcDbEntity
  8
M0
 62
     7
100
AcDbLine
 10
193.887534
 20
428.007735
 11
191.887534
 21
428.007735
  0
LINE
  5
6AF
100
AcDbEntity
  8
M0
 62
     7
100
AcDbLine
 10
167.887535
 20
429.50772
 11
199.388129
 21
429.50772
  0
ARC
  5
6B0
100
AcDbEntity
  8
M0
 62
     7
100
AcDbCircle
 10
167.887535
 20
430.00772
 40
0.5
100
AcDbArc
 50
179.998251
 51
270.0
  0
ARC
  5
6B1
100
AcDbEntity
  8
M0
 62
     7
100
AcDbCircle
 10
230.88752
 20
430.00772
 40
0.5
100
AcDbArc
 50
269.998251
 51
360.0
  0
LINE
  5
6B2
100
AcDbEntity
  8
M0
 62
     7
100
AcDbLine
 10
191.387534
 20
428.50775
 11
191.387534
 21
429.507735
  0
ARC
  5
6B3
100
AcDbEntity
  8
M0
 62
     7
100
AcDbCircle
 10
193.887534
 20
428.50775
 40
0.5
100
AcDbArc
 50
-90.0
 51
0.0
  0
LINE
  5
6B4
100
AcDbEntity
  8
M0
 62
     7
100
AcDbLine
 10
194.387534
 20
428.50775
 11
194.387534
 21
429.507735
  0
LINE
  5
6B5
100
AcDbEntity
  8
M0
100
AcDbLine
 10
164.787437
 20
438.907973
 11
166.607505
 21
438.907973
  0
LINE
  5
6B6
100
AcDbEntity
  8
M0
100
AcDbLine
 10
161.987388
 20
438.907973
 11
160.16732
 21
438.907973
  0
LINE
  5
6B7
100
AcDbEntity
  8
M0
100
AcDbLine
 10
160.906578
 20
437.708022
 11
165.868248
 21
437.708022
  0
LINE
  5
6B8
100
AcDbEntity
  8
M0
100
AcDbLine
 10
164.787437
 20
438.907973
 11
164.787437
 21
439.354628
  0
LINE
  5
6B9
100
AcDbEntity
  8
M0
100
AcDbLine
 10
161.987388
 20
438.907973
 11
161.987388
 21
439.354628
  0
ARC
  5
6BA
100
AcDbEntity
  8
M0
100
AcDbCircle
 10
160.906578
 20
438.208022
 40
0.5
100
AcDbArc
 50
197.127669
 51
270.0
  0
ARC
  5
6BB
100
AcDbEntity
  8
M0
100
AcDbCircle
 10
165.868248
 20
438.208022
 40
0.5
100
AcDbArc
 50
270.0
 51
342.86179
  0
LINE
  5
6BC
100
AcDbEntity
  8
M0
100
AcDbLine
 10
236.787422
 20
438.908248
 11
238.60749
 21
438.908248
  0
LINE
  5
6BD
100
AcDbEntity
  8
M0
100
AcDbLine
 10
233.987373
 20
438.908248
 11
232.167305
 21
438.908248
  0
LINE
  5
6BE
100
AcDbEntity
  8
M0
100
AcDbLine
 10
232.906562
 20
437.708297
 11
237.868232
 21
437.708297
  0
LINE
  5
6BF
100
AcDbEntity
  8
M0
100
AcDbLine
 10
236.787422
 20
438.908248
 11
236.787422
 21
439.354903
  0
LINE
  5
6C0
100
AcDbEntity
  8
M0
100
AcDbLine
 10
233.987373
 20
438.908248
 11
233.987373
 21
439.354903
  0
ARC
  5
6C1
100
AcDbEntity
  8
M0
100
AcDbCircle
 10
232.906562
 20
438.208297
 40
0.5
100
AcDbArc
 50
197.127154
 51
269.998251
  0
ARC
  5
6C2
100
AcDbEntity
  8
M0
100
AcDbCircle
 10
237.868232
 20
438.208297
 40
0.5
100
AcDbArc
 50
269.998251
 51
342.861275
  0
LINE
  5
6C3
100
AcDbEntity
  8
M0
 62
     5
100
AcDbLine
 10
240.387275
 20
434.507979
 11
240.387275
 21
422.946056
  0
ARC
  5
6C4
100
AcDbEntity
  8
M0
 62
     5
100
AcDbCircle
 10
237.387275
 20
424.52426
 40
3.0
100
AcDbArc
 50
304.507247
 51
360.0
  0
LINE
  5
6C5
100
AcDbEntity
  8
M0
 62
     5
100
AcDbLine
 10
243.387275
 20
435.507979
 11
231.387275
 21
435.507979
  0
LINE
  5
6C6
100
AcDbEntity
  8
M0
 62
     5
100
AcDbLine
 10
240.887275
 20
434.507964
 11
240.387275
 21
434.507979
  0
ARC
  5
6C7
100
AcDbEntity
  8
M0
 62
     5
100
AcDbCircle
 10
155.887046
 20
424.507979
 40
0.5
100
AcDbArc
 50
179.998251
 51
270.0
  0
LINE
  5
6C8
100
AcDbEntity
  8
M0
 62
     5
100
AcDbLine
 10
159.387291
 20
424.007979
 11
159.387291
 21
435.507949
  0
LINE
  5
6C9
100
AcDbEntity
  8
M0
 62
     5
100
AcDbLine
 10
155.887046
 20
424.007979
 11
159.387291
 21
424.007979
  0
LINE
  5
6CA
100
AcDbEntity
  8
M0
 62
     5
100
AcDbLine
 10
159.387291
 20
435.007979
 11
167.387535
 21
435.007979
  0
LINE
  5
6CB
100
AcDbEntity
  8
M0
 62
     5
100
AcDbLine
 10
159.387291
 20
425.507979
 11
167.387535
 21
425.507979
  0
CIRCLE
  5
6CC
100
AcDbEntity
  8
M0
100
AcDbCircle
 10
163.387291
 20
430.007964
 40
3.0
  0
LINE
  5
6CD
100
AcDbEntity
  8
M0
100
AcDbLine
 10
160.428306
 20
433.955306
 11
159.612144
 21
431.308013
  0
LINE
  5
6CE
100
AcDbEntity
  8
M0
100
AcDbLine
 10
160.428306
 20
426.060714
 11
159.612144
 21
428.708037
  0
LINE
  5
6CF
100
AcDbEntity
  8
M0
100
AcDbLine
 10
166.345787
 20
433.955321
 11
167.162193
 21
431.308013
  0
LINE
  5
6D0
100
AcDbEntity
  8
M0
100
AcDbLine
 10
166.345787
 20
426.060698
 11
167.162193
 21
428.708037
  0
LINE
  5
6D1
100
AcDbEntity
  8
M0
100
AcDbLine
 10
164.787193
 20
433.107939
 11
166.607261
 21
433.107939
  0
LINE
  5
6D2
100
AcDbEntity
  8
M0
100
AcDbLine
 10
165.708824
 20
431.907988
 11
166.977134
 21
431.907988
  0
LINE
  5
6D3
100
AcDbEntity
  8
M0
100
AcDbLine
 10
165.708824
 20
428.107939
 11
166.977134
 21
428.107939
  0
LINE
  5
6D4
100
AcDbEntity
  8
M0
100
AcDbLine
 10
164.787193
 20
426.907988
 11
166.607261
 21
426.907988
  0
LINE
  5
6D5
100
AcDbEntity
  8
M0
100
AcDbLine
 10
161.987144
 20
433.107939
 11
160.167076
 21
433.107939
  0
LINE
  5
6D6
100
AcDbEntity
  8
M0
100
AcDbLine
 10
161.065513
 20
431.907988
 11
159.797203
 21
431.907988
  0
LINE
  5
6D7
100
AcDbEntity
  8
M0
100
AcDbLine
 10
161.065513
 20
428.107939
 11
159.797203
 21
428.107939
  0
LINE
  5
6D8
100
AcDbEntity
  8
M0
100
AcDbLine
 10
161.987144
 20
426.907988
 11
160.167076
 21
426.907988
  0
LINE
  5
6D9
100
AcDbEntity
  8
M0
100
AcDbLine
 10
160.906334
 20
425.708037
 11
165.868004
 21
425.708037
  0
LINE
  5
6DA
100
AcDbEntity
  8
M0
100
AcDbLine
 10
167.162193
 20
428.708037
 11
167.162193
 21
431.308013
  0
LINE
  5
6DB
100
AcDbEntity
  8
M0
100
AcDbLine
 10
165.868004
 20
434.308013
 11
160.906334
 21
434.307997
  0
LINE
  5
6DC
100
AcDbEntity
  8
M0
100
AcDbLine
 10
159.612144
 20
431.308013
 11
159.612144
 21
428.708037
  0
LINE
  5
6DD
100
AcDbEntity
  8
M0
  6
DASHDOT
100
AcDbLine
 10
157.112144
 20
430.007964
 11
169.662193
 21
430.007964
  0
LINE
  5
6DE
100
AcDbEntity
  8
M0
100
AcDbLine
 10
164.787193
 20
426.907988
 11
164.787193
 21
427.354644
  0
LINE
  5
6DF
100
AcDbEntity
  8
M0
100
AcDbLine
 10
164.787193
 20
432.661284
 11
164.787193
 21
433.107939
  0
LINE
  5
6E0
100
AcDbEntity
  8
M0
100
AcDbLine
 10
161.987144
 20
432.661284
 11
161.987144
 21
433.107939
  0
LINE
  5
6E1
100
AcDbEntity
  8
M0
100
AcDbLine
 10
161.987144
 20
426.907988
 11
161.987144
 21
427.354644
  0
LINE
  5
6E2
100
AcDbEntity
  8
M0
100
AcDbLine
 10
164.977867
 20
428.417144
 11
161.796226
 21
431.598906
  0
LINE
  5
6E3
100
AcDbEntity
  8
M0
100
AcDbLine
 10
163.740562
 20
431.422148
 11
161.972984
 21
429.654448
  0
LINE
  5
6E4
100
AcDbEntity
  8
M0
100
AcDbLine
 10
164.801109
 20
430.36148
 11
163.033531
 21
428.593901
  0
ARC
  5
6E5
100
AcDbEntity
  8
M0
100
AcDbCircle
 10
160.906334
 20
433.807997
 40
0.5
100
AcDbArc
 50
89.998251
 51
162.872331
  0
ARC
  5
6E6
100
AcDbEntity
  8
M0
100
AcDbCircle
 10
160.906334
 20
426.208037
 40
0.5
100
AcDbArc
 50
197.127669
 51
270.0
  0
ARC
  5
6E7
100
AcDbEntity
  8
M0
100
AcDbCircle
 10
165.868004
 20
426.208037
 40
0.5
100
AcDbArc
 50
270.0
 51
342.86179
  0
ARC
  5
6E8
100
AcDbEntity
  8
M0
100
AcDbCircle
 10
165.868004
 20
433.807997
 40
0.5
100
AcDbArc
 50
17.137695
 51
89.998251
  0
LINE
  5
6E9
100
AcDbEntity
  8
M0
  6
DASHDOT
100
AcDbLine
 10
221.387275
 20
429.507964
 11
239.522895
 21
429.507964
  0
LINE
  5
6EA
100
AcDbEntity
  8
M0
  6
DASHDOT
 62
     6
100
AcDbLine
 10
157.063697
 20
442.007949
 11
170.06147
 21
442.007949
  0
LINE
  5
6EB
100
AcDbEntity
  8
M0
 62
     6
100
AcDbLine
 10
159.387535
 20
443.007949
 11
159.887535
 21
444.507949
  0
LINE
  5
6EC
100
AcDbEntity
  8
M0
 62
     6
100
AcDbLine
 10
167.387535
 20
443.007949
 11
166.887535
 21
444.507949
  0
LINE
  5
6ED
100
AcDbEntity
  8
M0
  6
DASHDOT
 62
     6
100
AcDbLine
 10
241.739525
 20
442.008193
 11
228.487983
 21
442.008193
  0
LINE
  5
6EE
100
AcDbEntity
  8
M0
 62
     6
100
AcDbLine
 10
239.38752
 20
443.008193
 11
238.88752
 21
444.508193
  0
LINE
  5
6EF
100
AcDbEntity
  8
M0
 62
     6
100
AcDbLine
 10
231.38752
 20
443.008193
 11
231.88752
 21
444.508193
  0
LINE
  5
6F0
100
AcDbEntity
  8
M0
 62
     7
100
AcDbLine
 10
231.38752
 20
430.007705
 11
231.38752
 21
455.807692
  0
LINE
  5
6F1
100
AcDbEntity
  8
M0
 62
     7
100
AcDbLine
 10
167.387535
 20
455.807662
 11
167.387535
 21
430.00772
  0
CIRCLE
  5
6F2
100
AcDbEntity
  8
M0
100
AcDbCircle
 10
163.387535
 20
442.007949
 40
3.0
  0
LINE
  5
6F3
100
AcDbEntity
  8
M0
100
AcDbLine
 10
160.42855
 20
438.060698
 11
159.612388
 21
440.708022
  0
LINE
  5
6F4
100
AcDbEntity
  8
M0
100
AcDbLine
 10
166.346031
 20
438.060683
 11
167.162437
 21
440.708022
  0
LINE
  5
6F5
100
AcDbEntity
  8
M0
100
AcDbLine
 10
165.709068
 20
440.107924
 11
166.977379
 21
440.107924
  0
LINE
  5
6F6
100
AcDbEntity
  8
M0
100
AcDbLine
 10
161.065757
 20
440.107924
 11
159.797447
 21
440.107924
  0
LINE
  5
6F7
100
AcDbEntity
  8
M0
100
AcDbLine
 10
167.162437
 20
440.708022
 11
167.162437
 21
443.307997
  0
LINE
  5
6F8
100
AcDbEntity
  8
M0
100
AcDbLine
 10
159.612388
 20
443.307997
 11
159.612388
 21
440.708022
  0
LINE
  5
6F9
100
AcDbEntity
  8
M0
100
AcDbLine
 10
164.978111
 20
440.417128
 11
161.79647
 21
443.598891
  0
LINE
  5
6FA
100
AcDbEntity
  8
M0
100
AcDbLine
 10
163.740806
 20
443.422133
 11
161.973228
 21
441.654433
  0
LINE
  5
6FB
100
AcDbEntity
  8
M0
100
AcDbLine
 10
164.801353
 20
442.361464
 11
163.033775
 21
440.593886
  0
CIRCLE
  5
6FC
100
AcDbEntity
  8
M0
100
AcDbCircle
 10
235.38752
 20
442.008223
 40
3.0
  0
LINE
  5
6FD
100
AcDbEntity
  8
M0
100
AcDbLine
 10
232.428535
 20
438.060973
 11
231.612373
 21
440.708297
  0
LINE
  5
6FE
100
AcDbEntity
  8
M0
100
AcDbLine
 10
238.346016
 20
438.060958
 11
239.162422
 21
440.708297
  0
LINE
  5
6FF
100
AcDbEntity
  8
M0
100
AcDbLine
 10
237.709053
 20
440.108199
 11
238.977363
 21
440.108199
  0
LINE
  5
700
100
AcDbEntity
  8
M0
100
AcDbLine
 10
233.065742
 20
440.108199
 11
231.797432
 21
440.108199
  0
LINE
  5
701
100
AcDbEntity
  8
M0
100
AcDbLine
 10
239.162422
 20
440.708297
 11
239.162422
 21
443.308272
  0
LINE
  5
702
100
AcDbEntity
  8
M0
100
AcDbLine
 10
231.612373
 20
443.308272
 11
231.612373
 21
440.708297
  0
LINE
  5
703
100
AcDbEntity
  8
M0
100
AcDbLine
 10
236.978096
 20
440.417403
 11
233.796455
 21
443.599166
  0
LINE
  5
704
100
AcDbEntity
  8
M0
100
AcDbLine
 10
235.740791
 20
443.422408
 11
233.973213
 21
441.654708
  0
LINE
  5
705
100
AcDbEntity
  8
M0
100
AcDbLine
 10
236.801338
 20
442.361739
 11
235.03376
 21
440.594161
  0
LINE
  5
706
100
AcDbEntity
  8
M0
  6
DASHDOT
100
AcDbLine
 10
163.387291
 20
423.208052
 11
163.387291
 21
457.474776
  0
ARC
  5
707
100
AcDbEntity
  8
M0
 62
     6
100
AcDbCircle
 10
167.887535
 20
414.508666
 40
0.5
100
AcDbArc
 50
179.998251
 51
270.0
  0
ARC
  5
708
100
AcDbEntity
  8
M0
 62
     6
100
AcDbCircle
 10
170.637535
 20
414.508666
 40
0.5
100
AcDbArc
 50
270.0
 51
360.0
  0
ARC
  5
709
100
AcDbEntity
  8
M0
 62
     6
100
AcDbCircle
 10
230.88752
 20
414.508925
 40
0.5
100
AcDbArc
 50
269.998251
 51
360.0
  0
LINE
  5
70A
100
AcDbEntity
  8
M0
 62
     6
100
AcDbLine
 10
187.637535
 20
414.00862
 11
167.887535
 21
414.008666
  0
LINE
  5
70B
100
AcDbEntity
  8
M0
 62
     6
100
AcDbLine
 10
171.137535
 20
414.508651
 11
171.137535
 21
429.50772
  0
LINE
  5
70C
100
AcDbEntity
  8
M0
 62
     6
100
AcDbLine
 10
167.387535
 20
455.807662
 11
167.387535
 21
414.508666
  0
LINE
  5
70D
100
AcDbEntity
  8
M0
 62
     6
100
AcDbLine
 10
231.38752
 20
455.807692
 11
231.38752
 21
414.508925
  0
LINE
  5
70E
100
AcDbEntity
  8
M0
  6
DASHDOT
100
AcDbLine
 10
234.887275
 20
424.831038
 11
234.887275
 21
433.895034
  0
LINE
  5
70F
100
AcDbEntity
  8
M0
  6
DASHDOT
100
AcDbLine
 10
235.387275
 20
436.23062
 11
235.387275
 21
458.707442
  0
LINE
  5
710
100
AcDbEntity
  8
M0
 62
     6
100
AcDbLine
 10
191.137534
 20
414.008925
 11
199.387244
 21
414.008925
  0
LINE
  5
711
100
AcDbEntity
  8
M0
 62
     6
100
AcDbLine
 10
229.887184
 20
414.008925
 11
230.88752
 21
414.008925
  0
LINE
  5
712
100
AcDbEntity
  8
M0
 62
     6
100
AcDbLine
 10
155.387535
 20
465.757946
 11
158.587486
 21
465.757946
  0
LINE
  5
713
100
AcDbEntity
  8
M0
 62
     6
100
AcDbLine
 10
158.587486
 20
465.757946
 11
158.587486
 21
458.257949
  0
LINE
  5
714
100
AcDbEntity
  8
M0
 62
     6
100
AcDbLine
 10
158.587486
 20
465.757946
 11
159.387535
 21
466.707897
  0
LINE
  5
715
100
AcDbEntity
  8
M0
 62
     6
100
AcDbLine
 10
243.38752
 20
465.757702
 11
240.187324
 21
465.757702
  0
LINE
  5
716
100
AcDbEntity
  8
M0
 62
     6
100
AcDbLine
 10
240.187324
 20
465.757702
 11
240.187324
 21
458.258193
  0
LINE
  5
717
100
AcDbEntity
  8
M0
 62
     6
100
AcDbLine
 10
240.187324
 20
465.757702
 11
239.38752
 21
466.707653
  0
CIRCLE
  5
718
100
AcDbEntity
  8
M0
 62
     7
100
AcDbCircle
 10
165.387535
 20
462.007717
 40
3.249996
  0
CIRCLE
  5
719
100
AcDbEntity
  8
M0
 62
     7
100
AcDbCircle
 10
233.38752
 20
462.007717
 40
3.249996
  0
LINE
  5
71A
100
AcDbEntity
  8
M0
 62
     7
100
AcDbLine
 10
188.087486
 20
469.307476
 11
188.087486
 21
459.007702
  0
CIRCLE
  5
71B
100
AcDbEntity
  8
M0
100
AcDbCircle
 10
233.387031
 20
462.007946
 40
2.749996
  0
CIRCLE
  5
71C
100
AcDbEntity
  8
M0
100
AcDbCircle
 10
233.387031
 20
462.007946
 40
3.0
  0
LINE
  5
71D
100
AcDbEntity
  8
M0
100
AcDbLine
 10
231.972725
 20
463.422008
 11
234.801094
 21
460.593639
  0
LINE
  5
71E
100
AcDbEntity
  8
M0
100
AcDbLine
 10
233.88166
 20
463.634166
 11
231.760322
 21
461.512829
  0
LINE
  5
71F
100
AcDbEntity
  8
M0
100
AcDbLine
 10
235.013252
 20
462.502575
 11
232.891914
 21
460.381237
  0
CIRCLE
  5
720
100
AcDbEntity
  8
M0
100
AcDbCircle
 10
165.387291
 20
462.007946
 40
2.749996
  0
CIRCLE
  5
721
100
AcDbEntity
  8
M0
100
AcDbCircle
 10
165.387291
 20
462.007946
 40
3.0
  0
LINE
  5
722
100
AcDbEntity
  8
M0
100
AcDbLine
 10
163.972984
 20
463.422008
 11
166.801353
 21
460.593639
  0
LINE
  5
723
100
AcDbEntity
  8
M0
100
AcDbLine
 10
165.88192
 20
463.634166
 11
163.760582
 21
461.512829
  0
LINE
  5
724
100
AcDbEntity
  8
M0
100
AcDbLine
 10
167.013511
 20
462.502575
 11
164.892173
 21
460.381237
  0
LINE
  5
725
100
AcDbEntity
  8
M0
100
AcDbLine
 10
196.387534
 20
462.157619
 11
199.387244
 21
462.157619
  0
LINE
  5
726
100
AcDbEntity
  8
M0
100
AcDbLine
 10
196.387534
 20
466.657619
 11
196.387534
 21
462.157619
  0
LINE
  5
727
100
AcDbEntity
  8
M0
 62
     7
100
AcDbLine
 10
238.88752
 20
456.807677
 11
238.88752
 21
467.207699
  0
LINE
  5
728
100
AcDbEntity
  8
M0
 62
     7
100
AcDbLine
 10
159.887535
 20
467.207714
 11
159.887535
 21
456.807662
  0
LINE
  5
729
100
AcDbEntity
  8
M0
  6
DASHDOT
100
AcDbLine
 10
233.387031
 20
456.30783
 11
233.387031
 21
467.707241
  0
LINE
  5
72A
100
AcDbEntity
  8
M0
  6
DASHDOT
100
AcDbLine
 10
165.387291
 20
456.30783
 11
165.387291
 21
467.707729
  0
LINE
  5
72B
100
AcDbEntity
  8
M0
 62
     5
100
AcDbLine
 10
155.387046
 20
489.507762
 11
155.387046
 21
424.507979
  0
LINE
  5
72C
100
AcDbEntity
  8
M0
 62
     5
100
AcDbLine
 10
243.387275
 20
434.507964
 11
243.387275
 21
499.507506
  0
LINE
  5
72D
100
AcDbEntity
  8
M0
 62
     6
100
AcDbLine
 10
159.387535
 20
488.007762
 11
159.387535
 21
436.007949
  0
LINE
  5
72E
100
AcDbEntity
  8
M0
 62
     6
100
AcDbLine
 10
239.38752
 20
488.007518
 11
239.38752
 21
436.008193
  0
LINE
  5
72F
100
AcDbEntity
  8
M0
 62
     6
100
AcDbLine
 10
155.387291
 20
491.007506
 11
155.387291
 21
433.008193
  0
LINE
  5
730
100
AcDbEntity
  8
M0
 62
     6
100
AcDbLine
 10
243.38752
 20
491.007262
 11
243.38752
 21
433.008437
  0
LINE
  5
731
100
AcDbEntity
  8
M0
  6
DASHDOT
100
AcDbLine
 10
163.387291
 20
466.067623
 11
163.387291
 21
489.308543
  0
LINE
  5
732
100
AcDbEntity
  8
M0
  6
DASHDOT
100
AcDbLine
 10
233.387275
 20
425.519896
 11
233.387275
 21
433.931288
  0
LINE
  5
733
100
AcDbEntity
  8
M0
100
AcDbLine
 10
233.387275
 20
431.807952
 11
234.887275
 21
431.807952
  0
LINE
  5
734
100
AcDbEntity
  8
M0
100
AcDbLine
 10
233.387275
 20
427.207961
 11
234.887275
 21
427.207961
  0
ARC
  5
735
100
AcDbEntity
  8
M0
100
AcDbCircle
 10
234.887275
 20
429.507964
 40
2.299998
100
AcDbArc
 50
269.99962
 51
450.0
  0
ARC
  5
736
100
AcDbEntity
  8
M0
100
AcDbCircle
 10
233.387275
 20
429.507964
 40
2.299998
100
AcDbArc
 50
90.0
 51
150.395947
  0
ARC
  5
737
100
AcDbEntity
  8
M0
100
AcDbCircle
 10
233.387275
 20
429.507964
 40
2.299998
100
AcDbArc
 50
209.60391
 51
269.99962
  0
LINE
  5
738
100
AcDbEntity
  8
M0
 62
     7
100
AcDbLine
 10
229.887184
 20
429.50772
 11
230.88752
 21
429.50772
  0
LINE
  5
739
100
AcDbEntity
  8
M0
 62
     7
100
AcDbLine
 10
207.687004
 20
456.00772
 11
207.386955
 21
456.00772
  0
LINE
  5
73A
100
AcDbEntity
  8
M0
 62
     7
100
AcDbLine
 10
207.386955
 20
456.00772
 11
207.386955
 21
452.00772
  0
ARC
  5
73B
100
AcDbEntity
  8
M0
 62
     7
100
AcDbCircle
 10
207.687004
 20
459.007706
 40
3.0
100
AcDbArc
 50
-90.000291
 51
0.0
  0
LINE
  5
73C
100
AcDbEntity
  8
M0
 62
     7
100
AcDbLine
 10
210.686989
 20
469.307482
 11
210.687004
 21
459.007707
  0
LINE
  5
73D
100
AcDbEntity
  8
M0
100
AcDbLine
 10
202.386952
 20
466.657621
 11
202.386954
 21
462.157621
  0
LINE
  5
73E
100
AcDbEntity
  8
M0
100
AcDbLine
 10
202.386954
 20
462.157621
 11
199.387244
 21
462.157619
  0
LINE
  5
73F
100
AcDbEntity
  8
M0
 62
     7
100
AcDbLine
 10
230.88697
 20
429.507735
 11
199.386377
 21
429.50772
  0
LINE
  5
740
100
AcDbEntity
  8
M0
  6
DASHDOT
 62
     6
100
AcDbLine
 10
241.739525
 20
451.50804
 11
228.487983
 21
451.50804
  0
LINE
  5
741
100
AcDbEntity
  8
M0
 62
     6
100
AcDbLine
 10
188.13752
 20
409.008391
 11
190.63752
 21
409.008391
  0
ARC
  5
742
100
AcDbEntity
  8
M0
 62
     6
100
AcDbCircle
 10
188.13752
 20
409.508391
 40
0.5
100
AcDbArc
 50
180.0
 51
269.998251
  0
ARC
  5
743
100
AcDbEntity
  8
M0
 62
     6
100
AcDbCircle
 10
190.63752
 20
409.508391
 40
0.5
100
AcDbArc
 50
269.998251
 51
360.0
  0
LINE
  5
744
100
AcDbEntity
  8
M0
 62
     6
100
AcDbLine
 10
191.13752
 20
409.508376
 11
191.13752
 21
429.508162
  0
LINE
  5
745
100
AcDbEntity
  8
M0
 62
     6
100
AcDbLine
 10
187.63752
 20
409.508391
 11
187.63752
 21
429.508162
  0
LINE
  5
746
100
AcDbEntity
  8
M0
 62
     6
100
AcDbLine
 10
211.13697
 20
409.508406
 11
211.13697
 21
429.508178
  0
LINE
  5
747
100
AcDbEntity
  8
M0
  6
DASHDOT
100
AcDbLine
 10
229.686234
 20
422.00862
 11
210.253143
 21
422.008633
  0
LINE
  5
748
100
AcDbEntity
  8
M0
  6
DASHDOT
100
AcDbLine
 10
209.685425
 20
422.00862
 11
190.252334
 21
422.008633
  0
LINE
  5
749
100
AcDbEntity
  8
M0
 62
     1
100
AcDbLine
 10
207.63726
 20
510.007506
 11
199.386756
 21
510.007262
  0
LINE
  5
74A
100
AcDbEntity
  8
M0
 62
     1
100
AcDbLine
 10
207.63726
 20
514.507979
 11
207.637245
 21
494.508223
  0
LINE
  5
74B
100
AcDbEntity
  8
M0
 62
     1
100
AcDbLine
 10
210.63726
 20
515.008223
 11
208.13726
 21
515.008223
  0
LINE
  5
74C
100
AcDbEntity
  8
M0
 62
     1
100
AcDbLine
 10
211.13726
 20
510.007506
 11
229.887184
 21
510.007445
  0
LINE
  5
74D
100
AcDbEntity
  8
M0
 62
     1
100
AcDbLine
 10
227.63726
 20
510.008223
 11
227.63726
 21
494.507491
  0
LINE
  5
74E
100
AcDbEntity
  8
M0
 62
     1
100
AcDbLine
 10
211.13726
 20
514.507979
 11
211.13726
 21
494.507491
  0
ARC
  5
74F
100
AcDbEntity
  8
M0
 62
     1
100
AcDbCircle
 10
226.63723
 20
494.508239
 40
1.0
100
AcDbArc
 50
-14.520977
 51
0.0
  0
ARC
  5
750
100
AcDbEntity
  8
M0
 62
     1
100
AcDbCircle
 10
212.137245
 20
494.508239
 40
1.0
100
AcDbArc
 50
180.0
 51
194.521604
  0
LINE
  5
751
100
AcDbEntity
  8
M0
 62
     1
100
AcDbLine
 10
207.63726
 20
514.507979
 11
207.63726
 21
494.507491
  0
ARC
  5
752
100
AcDbEntity
  8
M0
 62
     1
100
AcDbCircle
 10
206.637245
 20
494.508239
 40
1.0
100
AcDbArc
 50
-14.520977
 51
0.0
  0
LINE
  5
753
100
AcDbEntity
  8
M0
 62
     1
100
AcDbLine
 10
207.63726
 20
414.009459
 11
199.386756
 21
414.008971
  0
LINE
  5
754
100
AcDbEntity
  8
M0
 62
     1
100
AcDbLine
 10
207.63726
 20
409.508712
 11
207.637245
 21
429.508727
  0
LINE
  5
755
100
AcDbEntity
  8
M0
 62
     1
100
AcDbLine
 10
210.63726
 20
409.008727
 11
208.13726
 21
409.008712
  0
LINE
  5
756
100
AcDbEntity
  8
M0
 62
     1
100
AcDbLine
 10
211.13726
 20
414.009459
 11
229.887184
 21
414.009398
  0
ARC
  5
757
100
AcDbEntity
  8
M0
 62
     1
100
AcDbCircle
 10
226.63723
 20
429.508727
 40
1.0
100
AcDbArc
 50
0.0
 51
29.967834
  0
LINE
  5
758
100
AcDbEntity
  8
M0
  6
DASHDOT
 62
     1
100
AcDbLine
 10
199.387222
 20
549.336785
 11
199.387244
 21
462.008239
  0
LINE
  5
759
100
AcDbEntity
  8
M0
  6
DASHDOT
 62
     1
100
AcDbLine
 10
199.387244
 20
462.008483
 11
199.386756
 21
462.007994
  0
ARC
  5
75A
100
AcDbEntity
  8
M0
 62
     1
100
AcDbCircle
 10
208.13726
 20
409.508712
 40
0.5
100
AcDbArc
 50
180.0
 51
269.998251
  0
ARC
  5
75B
100
AcDbEntity
  8
M0
 62
     1
100
AcDbCircle
 10
210.63726
 20
409.508712
 40
0.5
100
AcDbArc
 50
269.998251
 51
360.0
  0
LINE
  5
75C
100
AcDbEntity
  8
M0
  6
DIVIDE
 62
     1
100
AcDbLine
 10
199.386756
 20
462.007994
 11
199.387244
 21
462.008483
  0
LINE
  5
75D
100
AcDbEntity
  8
M0
  6
DASHDOT
 62
     1
100
AcDbLine
 10
229.887184
 20
442.008666
 11
227.63723
 21
442.008727
  0
ARC
  5
75E
100
AcDbEntity
  8
M0
 62
     1
100
AcDbCircle
 10
210.63726
 20
514.507979
 40
0.5
100
AcDbArc
 50
0.0
 51
90.0
  0
ARC
  5
75F
100
AcDbEntity
  8
M0
 62
     1
100
AcDbCircle
 10
208.13726
 20
514.507979
 40
0.5
100
AcDbArc
 50
90.0
 51
180.0
  0
LINE
  5
760
100
AcDbEntity
  8
M0
  6
DASHDOT
 62
     1
100
AcDbLine
 10
199.387244
 20
462.008239
 11
199.387258
 21
408.547621
  0
LINE
  5
761
100
AcDbEntity
  8
M0
 62
     7
100
AcDbLine
 10
212.237357
 20
414.008727
 11
226.537391
 21
414.008727
  0
LINE
  5
762
100
AcDbEntity
  8
M0
 62
     7
100
AcDbLine
 10
227.537391
 20
415.008727
 11
227.537391
 21
429.508727
  0
LINE
  5
763
100
AcDbEntity
  8
M0
 62
     7
100
AcDbLine
 10
211.237357
 20
429.508727
 11
211.237357
 21
415.008727
  0
ARC
  5
764
100
AcDbEntity
  8
M0
 62
     7
100
AcDbCircle
 10
226.537391
 20
415.008727
 40
1.0
100
AcDbArc
 50
269.999126
 51
360.0
  0
ARC
  5
765
100
AcDbEntity
  8
M0
 62
     7
100
AcDbCircle
 10
212.237357
 20
415.008727
 40
1.0
100
AcDbArc
 50
180.0
 51
270.0
  0
LINE
  5
766
100
AcDbEntity
  8
M0
 62
     4
100
AcDbLine
 10
172.237342
 20
414.007994
 11
186.537376
 21
414.007994
  0
LINE
  5
767
100
AcDbEntity
  8
M0
 62
     4
100
AcDbLine
 10
187.537376
 20
415.007994
 11
187.537376
 21
429.507994
  0
LINE
  5
768
100
AcDbEntity
  8
M0
 62
     4
100
AcDbLine
 10
171.237342
 20
429.507994
 11
171.237342
 21
415.007994
  0
ARC
  5
769
100
AcDbEntity
  8
M0
 62
     4
100
AcDbCircle
 10
186.537376
 20
415.007994
 40
1.0
100
AcDbArc
 50
269.999126
 51
360.0
  0
ARC
  5
76A
100
AcDbEntity
  8
M0
 62
     4
100
AcDbCircle
 10
172.237342
 20
415.007994
 40
1.0
100
AcDbArc
 50
180.0
 51
270.0
  0
LINE
  5
76B
100
AcDbEntity
  8
M0
 62
     7
100
AcDbLine
 10
226.53719
 20
510.007982
 11
212.237156
 21
510.007991
  0
LINE
  5
76C
100
AcDbEntity
  8
M0
 62
     7
100
AcDbLine
 10
211.237155
 20
509.007991
 11
211.237146
 21
494.507991
  0
LINE
  5
76D
100
AcDbEntity
  8
M0
 62
     7
100
AcDbLine
 10
227.537181
 20
494.507981
 11
227.53719
 21
509.007981
  0
ARC
  5
76E
100
AcDbEntity
  8
M0
 62
     7
100
AcDbCircle
 10
212.237155
 20
509.007991
 40
1.0
100
AcDbArc
 50
90.0
 51
179.999964
  0
ARC
  5
76F
100
AcDbEntity
  8
M0
 62
     7
100
AcDbCircle
 10
212.237146
 20
494.507991
 40
1.0
100
AcDbArc
 50
179.999964
 51
194.507219
  0
ARC
  5
770
100
AcDbEntity
  8
M0
 62
     7
100
AcDbCircle
 10
226.537181
 20
494.507982
 40
1.0
100
AcDbArc
 50
345.494252
 51
359.99909
  0
ARC
  5
771
100
AcDbEntity
  8
M0
 62
     7
100
AcDbCircle
 10
226.53719
 20
509.007982
 40
1.0
100
AcDbArc
 50
359.99909
 51
450.0
  0
LINE
  5
772
100
AcDbEntity
  8
M0
 62
     4
100
AcDbLine
 10
186.538075
 20
510.007493
 11
172.238041
 21
510.007502
  0
LINE
  5
773
100
AcDbEntity
  8
M0
 62
     4
100
AcDbLine
 10
171.23804
 20
509.007503
 11
171.238031
 21
494.507503
  0
LINE
  5
774
100
AcDbEntity
  8
M0
 62
     4
100
AcDbLine
 10
187.538066
 20
494.507493
 11
187.538075
 21
509.007493
  0
ARC
  5
775
100
AcDbEntity
  8
M0
 62
     4
100
AcDbCircle
 10
172.23804
 20
509.007502
 40
1.0
100
AcDbArc
 50
90.0
 51
179.999964
  0
ARC
  5
776
100
AcDbEntity
  8
M0
 62
     4
100
AcDbCircle
 10
186.538075
 20
509.007493
 40
1.0
100
AcDbArc
 50
359.99909
 51
450.0
  0
LINE
  5
777
100
AcDbEntity
  8
M0
100
AcDbLine
 10
176.559092
 20
424.836776
 11
182.215934
 21
419.17993
  0
LINE
  5
778
100
AcDbEntity
  8
M0
100
AcDbLine
 10
178.680412
 20
419.887023
 11
181.508838
 21
422.715453
  0
LINE
  5
779
100
AcDbEntity
  8
M0
100
AcDbLine
 10
177.266199
 20
421.301238
 11
180.094626
 21
424.129668
  0
LINE
  5
77A
100
AcDbEntity
  8
M0
  6
DASHDOT
100
AcDbLine
 10
179.387519
 20
432.012801
 11
179.387519
 21
410.79814
  0
CIRCLE
  5
77B
100
AcDbEntity
  8
M0
100
AcDbCircle
 10
179.387519
 20
422.008345
 40
5.949995
  0
LINE
  5
77C
100
AcDbEntity
  8
M0
100
AcDbLine
 10
178.637763
 20
427.910933
 11
178.637763
 21
429.508834
  0
LINE
  5
77D
100
AcDbEntity
  8
M0
100
AcDbLine
 10
180.137519
 20
427.910933
 11
180.137519
 21
429.508834
  0
LINE
  5
77E
100
AcDbEntity
  8
M0
100
AcDbLine
 10
184.387504
 20
429.508834
 11
187.137748
 21
426.758345
  0
LINE
  5
77F
100
AcDbEntity
  8
M0
100
AcDbLine
 10
171.637763
 20
426.758345
 11
174.388007
 21
429.508834
  0
ARC
  5
780
100
AcDbEntity
  8
M0
100
AcDbCircle
 10
186.137504
 20
428.758345
 40
1.0
100
AcDbArc
 50
0.0
 51
48.611504
  0
ARC
  5
781
100
AcDbEntity
  8
M0
100
AcDbCircle
 10
172.637763
 20
428.758345
 40
1.0
100
AcDbArc
 50
131.378543
 51
180.0
  0
LINE
  5
782
100
AcDbEntity
  8
M0
100
AcDbLine
 10
187.137504
 20
428.758345
 11
187.137504
 21
415.258345
  0
LINE
  5
783
100
AcDbEntity
  8
M0
100
AcDbLine
 10
171.637763
 20
415.258345
 11
171.637763
 21
428.758345
  0
LINE
  5
784
100
AcDbEntity
  8
M0
100
AcDbLine
 10
173.485175
 20
422.758345
 11
171.637763
 21
422.758345
  0
LINE
  5
785
100
AcDbEntity
  8
M0
100
AcDbLine
 10
173.485175
 20
421.258345
 11
171.637763
 21
421.258345
  0
LINE
  5
786
100
AcDbEntity
  8
M0
100
AcDbLine
 10
187.137504
 20
421.258345
 11
185.290092
 21
421.258345
  0
LINE
  5
787
100
AcDbEntity
  8
M0
100
AcDbLine
 10
187.137504
 20
422.758345
 11
185.290092
 21
422.758345
  0
LINE
  5
788
100
AcDbEntity
  8
M0
100
AcDbLine
 10
178.637763
 20
414.258345
 11
178.637763
 21
416.106002
  0
LINE
  5
789
100
AcDbEntity
  8
M0
100
AcDbLine
 10
180.137519
 20
414.258345
 11
180.137519
 21
416.106002
  0
LINE
  5
78A
100
AcDbEntity
  8
M0
100
AcDbLine
 10
187.137504
 20
417.258345
 11
184.137504
 21
414.258345
  0
LINE
  5
78B
100
AcDbEntity
  8
M0
100
AcDbLine
 10
174.637763
 20
414.258345
 11
171.637763
 21
417.258345
  0
ARC
  5
78C
100
AcDbEntity
  8
M0
100
AcDbCircle
 10
186.137504
 20
415.258345
 40
1.0
100
AcDbArc
 50
-90.000874
 51
0.0
  0
ARC
  5
78D
100
AcDbEntity
  8
M0
100
AcDbCircle
 10
172.637763
 20
415.258345
 40
1.0
100
AcDbArc
 50
180.0
 51
270.0
  0
LINE
  5
78E
100
AcDbEntity
  8
M0
100
AcDbLine
 10
186.137504
 20
414.258345
 11
172.637763
 21
414.258345
  0
LINE
  5
78F
100
AcDbEntity
  8
M0
  6
DASHDOT
100
AcDbLine
 10
189.6856
 20
422.008345
 11
170.252509
 21
422.008345
  0
LINE
  5
790
100
AcDbEntity
  8
M0
  6
DASHDOT
100
AcDbLine
 10
219.387504
 20
432.012679
 11
219.387504
 21
410.798079
  0
LINE
  5
791
100
AcDbEntity
  8
M0
100
AcDbLine
 10
224.388405
 20
429.507949
 11
227.137489
 21
426.75862
  0
LINE
  5
792
100
AcDbEntity
  8
M0
100
AcDbLine
 10
211.637503
 20
426.75862
 11
214.386589
 21
429.507949
  0
LINE
  5
793
100
AcDbEntity
  8
M0
100
AcDbLine
 10
218.637503
 20
427.911208
 11
218.637503
 21
429.507949
  0
LINE
  5
794
100
AcDbEntity
  8
M0
100
AcDbLine
 10
220.137259
 20
427.911208
 11
220.137259
 21
429.507949
  0
ARC
  5
795
100
AcDbEntity
  8
M0
100
AcDbCircle
 10
226.137245
 20
428.75862
 40
1.0
100
AcDbArc
 50
0.0
 51
48.532218
  0
ARC
  5
796
100
AcDbEntity
  8
M0
100
AcDbCircle
 10
212.637503
 20
428.75862
 40
1.0
100
AcDbArc
 50
131.546201
 51
180.0
  0
LINE
  5
797
100
AcDbEntity
  8
M0
  6
DASHDOT
100
AcDbLine
 10
229.685341
 20
422.00862
 11
210.252249
 21
422.00862
  0
LINE
  5
798
100
AcDbEntity
  8
M0
100
AcDbLine
 10
226.137245
 20
414.25862
 11
212.637503
 21
414.25862
  0
ARC
  5
799
100
AcDbEntity
  8
M0
100
AcDbCircle
 10
212.637503
 20
415.25862
 40
1.0
100
AcDbArc
 50
180.0
 51
270.0
  0
ARC
  5
79A
100
AcDbEntity
  8
M0
100
AcDbCircle
 10
226.137245
 20
415.25862
 40
1.0
100
AcDbArc
 50
-90.000874
 51
0.0
  0
LINE
  5
79B
100
AcDbEntity
  8
M0
100
AcDbLine
 10
214.637503
 20
414.25862
 11
211.637503
 21
417.25862
  0
LINE
  5
79C
100
AcDbEntity
  8
M0
100
AcDbLine
 10
227.137245
 20
417.25862
 11
224.137245
 21
414.25862
  0
LINE
  5
79D
100
AcDbEntity
  8
M0
100
AcDbLine
 10
220.137259
 20
414.25862
 11
220.137259
 21
416.106276
  0
LINE
  5
79E
100
AcDbEntity
  8
M0
100
AcDbLine
 10
218.637503
 20
414.25862
 11
218.637503
 21
416.106276
  0
LINE
  5
79F
100
AcDbEntity
  8
M0
100
AcDbLine
 10
227.137245
 20
422.75862
 11
225.289833
 21
422.75862
  0
LINE
  5
7A0
100
AcDbEntity
  8
M0
100
AcDbLine
 10
227.137245
 20
421.25862
 11
225.289833
 21
421.25862
  0
LINE
  5
7A1
100
AcDbEntity
  8
M0
100
AcDbLine
 10
213.484915
 20
421.25862
 11
211.637503
 21
421.25862
  0
LINE
  5
7A2
100
AcDbEntity
  8
M0
100
AcDbLine
 10
213.484915
 20
422.75862
 11
211.637503
 21
422.75862
  0
LINE
  5
7A3
100
AcDbEntity
  8
M0
100
AcDbLine
 10
211.637503
 20
415.25862
 11
211.637503
 21
428.75862
  0
LINE
  5
7A4
100
AcDbEntity
  8
M0
100
AcDbLine
 10
227.137245
 20
428.75862
 11
227.137245
 21
415.25862
  0
CIRCLE
  5
7A5
100
AcDbEntity
  8
M0
100
AcDbCircle
 10
219.387259
 20
422.00862
 40
5.949995
  0
LINE
  5
7A6
100
AcDbEntity
  8
M0
100
AcDbLine
 10
217.265939
 20
421.301512
 11
220.094367
 21
424.129943
  0
LINE
  5
7A7
100
AcDbEntity
  8
M0
100
AcDbLine
 10
218.680153
 20
419.887297
 11
221.508579
 21
422.715728
  0
LINE
  5
7A8
100
AcDbEntity
  8
M0
100
AcDbLine
 10
216.558833
 20
424.83705
 11
222.215675
 21
419.180205
  0
LINE
  5
7A9
100
AcDbEntity
  8
M0
100
AcDbLine
 10
204.388633
 20
429.507705
 11
207.137474
 21
426.75862
  0
LINE
  5
7AA
100
AcDbEntity
  8
M0
100
AcDbLine
 10
191.637488
 20
426.75862
 11
192.886927
 21
428.008178
  0
LINE
  5
7AB
100
AcDbEntity
  8
M0
100
AcDbLine
 10
198.637488
 20
427.911208
 11
198.637488
 21
429.508162
  0
LINE
  5
7AC
100
AcDbEntity
  8
M0
100
AcDbLine
 10
200.137244
 20
427.911208
 11
200.137244
 21
429.562255
  0
ARC
  5
7AD
100
AcDbEntity
  8
M0
100
AcDbCircle
 10
206.13723
 20
428.75862
 40
1.0
100
AcDbArc
 50
0.0
 51
48.511742
  0
LINE
  5
7AE
100
AcDbEntity
  8
M0
  6
DASHDOT
100
AcDbLine
 10
209.685325
 20
422.00862
 11
190.252234
 21
422.00862
  0
LINE
  5
7AF
100
AcDbEntity
  8
M0
100
AcDbLine
 10
206.13723
 20
414.25862
 11
192.637488
 21
414.25862
  0
ARC
  5
7B0
100
AcDbEntity
  8
M0
100
AcDbCircle
 10
192.637488
 20
415.25862
 40
1.0
100
AcDbArc
 50
180.0
 51
270.0
  0
ARC
  5
7B1
100
AcDbEntity
  8
M0
100
AcDbCircle
 10
206.13723
 20
415.25862
 40
1.0
100
AcDbArc
 50
-90.000874
 51
0.0
  0
LINE
  5
7B2
100
AcDbEntity
  8
M0
100
AcDbLine
 10
194.637488
 20
414.25862
 11
191.637488
 21
417.25862
  0
LINE
  5
7B3
100
AcDbEntity
  8
M0
100
AcDbLine
 10
207.13723
 20
417.25862
 11
204.13723
 21
414.25862
  0
LINE
  5
7B4
100
AcDbEntity
  8
M0
100
AcDbLine
 10
200.137244
 20
414.25862
 11
200.137244
 21
416.106276
  0
LINE
  5
7B5
100
AcDbEntity
  8
M0
100
AcDbLine
 10
198.637488
 20
414.25862
 11
198.637488
 21
416.106276
  0
LINE
  5
7B6
100
AcDbEntity
  8
M0
100
AcDbLine
 10
207.13723
 20
422.75862
 11
205.289817
 21
422.75862
  0
LINE
  5
7B7
100
AcDbEntity
  8
M0
100
AcDbLine
 10
207.13723
 20
421.25862
 11
205.289817
 21
421.25862
  0
LINE
  5
7B8
100
AcDbEntity
  8
M0
100
AcDbLine
 10
193.4849
 20
421.25862
 11
191.637488
 21
421.25862
  0
LINE
  5
7B9
100
AcDbEntity
  8
M0
100
AcDbLine
 10
193.4849
 20
422.75862
 11
191.637488
 21
422.75862
  0
LINE
  5
7BA
100
AcDbEntity
  8
M0
100
AcDbLine
 10
191.637488
 20
415.25862
 11
191.637488
 21
428.075194
  0
LINE
  5
7BB
100
AcDbEntity
  8
M0
100
AcDbLine
 10
207.13723
 20
428.75862
 11
207.13723
 21
415.25862
  0
CIRCLE
  5
7BC
100
AcDbEntity
  8
M0
100
AcDbCircle
 10
199.387244
 20
422.00862
 40
5.949995
  0
LINE
  5
7BD
100
AcDbEntity
  8
M0
100
AcDbLine
 10
197.265924
 20
421.301512
 11
200.094351
 21
424.129943
  0
LINE
  5
7BE
100
AcDbEntity
  8
M0
100
AcDbLine
 10
198.680137
 20
419.887297
 11
201.508564
 21
422.715728
  0
LINE
  5
7BF
100
AcDbEntity
  8
M0
100
AcDbLine
 10
196.558818
 20
424.83705
 11
202.21566
 21
419.180205
  0
LINE
  5
7C0
100
AcDbEntity
  8
M0
100
AcDbLine
 10
224.137764
 20
509.757506
 11
227.137489
 21
506.757506
  0
LINE
  5
7C1
100
AcDbEntity
  8
M0
100
AcDbLine
 10
211.637503
 20
506.757506
 11
214.637237
 21
509.757506
  0
LINE
  5
7C2
100
AcDbEntity
  8
M0
100
AcDbLine
 10
218.637503
 20
507.910094
 11
218.637503
 21
509.757506
  0
LINE
  5
7C3
100
AcDbEntity
  8
M0
100
AcDbLine
 10
220.137259
 20
507.910094
 11
220.137259
 21
509.757506
  0
LINE
  5
7C4
100
AcDbEntity
  8
M0
100
AcDbLine
 10
212.637503
 20
509.757506
 11
226.137245
 21
509.757506
  0
ARC
  5
7C5
100
AcDbEntity
  8
M0
100
AcDbCircle
 10
226.137245
 20
508.757506
 40
1.0
100
AcDbArc
 50
0.0
 51
90.0
  0
ARC
  5
7C6
100
AcDbEntity
  8
M0
100
AcDbCircle
 10
212.637503
 20
508.757506
 40
1.0
100
AcDbArc
 50
90.0
 51
180.0
  0
LINE
  5
7C7
100
AcDbEntity
  8
M0
  6
DASHDOT
100
AcDbLine
 10
229.685341
 20
502.007506
 11
210.252249
 21
502.007506
  0
ARC
  5
7C8
100
AcDbEntity
  8
M0
100
AcDbCircle
 10
212.637503
 20
495.257506
 40
1.0
100
AcDbArc
 50
180.0
 51
270.0
  0
ARC
  5
7C9
100
AcDbEntity
  8
M0
100
AcDbCircle
 10
226.137245
 20
495.257506
 40
1.0
100
AcDbArc
 50
-90.000874
 51
0.0
  0
LINE
  5
7CA
100
AcDbEntity
  8
M0
100
AcDbLine
 10
214.637503
 20
494.257506
 11
211.637503
 21
497.257506
  0
LINE
  5
7CB
100
AcDbEntity
  8
M0
100
AcDbLine
 10
227.137245
 20
497.257506
 11
224.137245
 21
494.257506
  0
LINE
  5
7CC
100
AcDbEntity
  8
M0
100
AcDbLine
 10
220.137259
 20
494.257506
 11
220.137259
 21
496.105162
  0
LINE
  5
7CD
100
AcDbEntity
  8
M0
100
AcDbLine
 10
218.637503
 20
494.257506
 11
218.637503
 21
496.105162
  0
LINE
  5
7CE
100
AcDbEntity
  8
M0
100
AcDbLine
 10
227.137245
 20
502.757506
 11
225.289833
 21
502.757506
  0
LINE
  5
7CF
100
AcDbEntity
  8
M0
100
AcDbLine
 10
227.137245
 20
501.257506
 11
225.289833
 21
501.257506
  0
LINE
  5
7D0
100
AcDbEntity
  8
M0
100
AcDbLine
 10
213.484915
 20
501.257506
 11
211.637503
 21
501.257506
  0
LINE
  5
7D1
100
AcDbEntity
  8
M0
100
AcDbLine
 10
213.484915
 20
502.757506
 11
211.637503
 21
502.757506
  0
LINE
  5
7D2
100
AcDbEntity
  8
M0
100
AcDbLine
 10
211.637503
 20
495.257506
 11
211.637503
 21
508.757506
  0
LINE
  5
7D3
100
AcDbEntity
  8
M0
100
AcDbLine
 10
227.137245
 20
508.757506
 11
227.137245
 21
495.257506
  0
CIRCLE
  5
7D4
100
AcDbEntity
  8
M0
100
AcDbCircle
 10
219.387259
 20
502.007506
 40
5.949995
  0
LINE
  5
7D5
100
AcDbEntity
  8
M0
100
AcDbLine
 10
217.265939
 20
501.300399
 11
220.094367
 21
504.128829
  0
LINE
  5
7D6
100
AcDbEntity
  8
M0
100
AcDbLine
 10
218.680153
 20
499.886184
 11
221.508579
 21
502.714614
  0
LINE
  5
7D7
100
AcDbEntity
  8
M0
100
AcDbLine
 10
216.558833
 20
504.835936
 11
222.215675
 21
499.179091
  0
LINE
  5
7D8
100
AcDbEntity
  8
M0
100
AcDbLine
 10
204.137733
 20
509.757506
 11
207.137458
 21
506.757506
  0
LINE
  5
7D9
100
AcDbEntity
  8
M0
100
AcDbLine
 10
191.637473
 20
506.757506
 11
194.637207
 21
509.757506
  0
LINE
  5
7DA
100
AcDbEntity
  8
M0
100
AcDbLine
 10
198.637473
 20
507.910094
 11
198.637473
 21
509.757506
  0
LINE
  5
7DB
100
AcDbEntity
  8
M0
100
AcDbLine
 10
200.137229
 20
507.910094
 11
200.137229
 21
509.757506
  0
LINE
  5
7DC
100
AcDbEntity
  8
M0
100
AcDbLine
 10
192.637473
 20
509.757506
 11
206.137214
 21
509.757506
  0
ARC
  5
7DD
100
AcDbEntity
  8
M0
100
AcDbCircle
 10
206.137214
 20
508.757506
 40
1.0
100
AcDbArc
 50
0.0
 51
90.0
  0
ARC
  5
7DE
100
AcDbEntity
  8
M0
100
AcDbCircle
 10
192.637473
 20
508.757506
 40
1.0
100
AcDbArc
 50
90.0
 51
180.0
  0
LINE
  5
7DF
100
AcDbEntity
  8
M0
  6
DASHDOT
100
AcDbLine
 10
209.68531
 20
502.007506
 11
190.252219
 21
502.007506
  0
ARC
  5
7E0
100
AcDbEntity
  8
M0
100
AcDbCircle
 10
206.137214
 20
495.257506
 40
1.0
100
AcDbArc
 50
-90.000874
 51
0.0
  0
LINE
  5
7E1
100
AcDbEntity
  8
M0
100
AcDbLine
 10
192.887597
 20
496.007384
 11
191.637473
 21
497.257506
  0
LINE
  5
7E2
100
AcDbEntity
  8
M0
100
AcDbLine
 10
207.137214
 20
497.257506
 11
204.137214
 21
494.257506
  0
LINE
  5
7E3
100
AcDbEntity
  8
M0
100
AcDbLine
 10
200.137229
 20
494.257506
 11
200.137229
 21
496.105162
  0
LINE
  5
7E4
100
AcDbEntity
  8
M0
100
AcDbLine
 10
198.637473
 20
494.507155
 11
198.637473
 21
496.105162
  0
LINE
  5
7E5
100
AcDbEntity
  8
M0
100
AcDbLine
 10
207.137214
 20
502.757506
 11
205.289802
 21
502.757506
  0
LINE
  5
7E6
100
AcDbEntity
  8
M0
100
AcDbLine
 10
207.137214
 20
501.257506
 11
205.289802
 21
501.257506
  0
LINE
  5
7E7
100
AcDbEntity
  8
M0
100
AcDbLine
 10
193.484885
 20
501.257506
 11
191.637473
 21
501.257506
  0
LINE
  5
7E8
100
AcDbEntity
  8
M0
100
AcDbLine
 10
193.484885
 20
502.757506
 11
191.637473
 21
502.757506
  0
LINE
  5
7E9
100
AcDbEntity
  8
M0
100
AcDbLine
 10
191.637473
 20
495.940367
 11
191.637473
 21
508.757506
  0
LINE
  5
7EA
100
AcDbEntity
  8
M0
100
AcDbLine
 10
207.137214
 20
508.757506
 11
207.137214
 21
495.257506
  0
CIRCLE
  5
7EB
100
AcDbEntity
  8
M0
100
AcDbCircle
 10
199.387229
 20
502.007506
 40
5.949995
  0
LINE
  5
7EC
100
AcDbEntity
  8
M0
100
AcDbLine
 10
197.265909
 20
501.300399
 11
200.094336
 21
504.128829
  0
LINE
  5
7ED
100
AcDbEntity
  8
M0
100
AcDbLine
 10
198.680122
 20
499.886184
 11
201.508548
 21
502.714614
  0
LINE
  5
7EE
100
AcDbEntity
  8
M0
100
AcDbLine
 10
196.558802
 20
504.835936
 11
202.215645
 21
499.179091
  0
LINE
  5
7EF
100
AcDbEntity
  8
M0
  6
DASHDOT
100
AcDbLine
 10
159.387564
 20
492.01245
 11
159.387564
 21
472.126021
  0
LINE
  5
7F0
100
AcDbEntity
  8
M0
100
AcDbLine
 10
184.138038
 20
509.75775
 11
187.137764
 21
506.75775
  0
LINE
  5
7F1
100
AcDbEntity
  8
M0
100
AcDbLine
 10
171.637778
 20
506.75775
 11
174.637512
 21
509.75775
  0
LINE
  5
7F2
100
AcDbEntity
  8
M0
100
AcDbLine
 10
178.637778
 20
507.910338
 11
178.637778
 21
509.75775
  0
LINE
  5
7F3
100
AcDbEntity
  8
M0
100
AcDbLine
 10
180.137534
 20
507.910338
 11
180.137534
 21
509.75775
  0
LINE
  5
7F4
100
AcDbEntity
  8
M0
100
AcDbLine
 10
172.637778
 20
509.75775
 11
186.13752
 21
509.75775
  0
ARC
  5
7F5
100
AcDbEntity
  8
M0
100
AcDbCircle
 10
186.13752
 20
508.75775
 40
1.0
100
AcDbArc
 50
0.0
 51
90.0
  0
ARC
  5
7F6
100
AcDbEntity
  8
M0
100
AcDbCircle
 10
172.637778
 20
508.75775
 40
1.0
100
AcDbArc
 50
90.0
 51
180.0
  0
LINE
  5
7F7
100
AcDbEntity
  8
M0
  6
DASHDOT
100
AcDbLine
 10
189.685615
 20
502.00775
 11
170.252524
 21
502.00775
  0
ARC
  5
7F8
100
AcDbEntity
  8
M0
100
AcDbCircle
 10
172.637778
 20
495.25775
 40
1.0
100
AcDbArc
 50
180.0
 51
228.614759
  0
ARC
  5
7F9
100
AcDbEntity
  8
M0
100
AcDbCircle
 10
186.13752
 20
495.25775
 40
1.0
100
AcDbArc
 50
-48.624421
 51
0.0
  0
LINE
  5
7FA
100
AcDbEntity
  8
M0
100
AcDbLine
 10
174.388073
 20
494.50746
 11
171.637778
 21
497.25775
  0
LINE
  5
7FB
100
AcDbEntity
  8
M0
100
AcDbLine
 10
187.13752
 20
497.25775
 11
184.387153
 21
494.507384
  0
LINE
  5
7FC
100
AcDbEntity
  8
M0
100
AcDbLine
 10
180.137534
 20
494.507415
 11
180.137534
 21
496.105407
  0
LINE
  5
7FD
100
AcDbEntity
  8
M0
100
AcDbLine
 10
178.637778
 20
494.50743
 11
178.637778
 21
496.105407
  0
LINE
  5
7FE
100
AcDbEntity
  8
M0
100
AcDbLine
 10
187.13752
 20
502.75775
 11
185.290107
 21
502.75775
  0
LINE
  5
7FF
100
AcDbEntity
  8
M0
100
AcDbLine
 10
187.13752
 20
501.25775
 11
185.290107
 21
501.25775
  0
LINE
  5
800
100
AcDbEntity
  8
M0
100
AcDbLine
 10
173.48519
 20
501.25775
 11
171.637778
 21
501.25775
  0
LINE
  5
801
100
AcDbEntity
  8
M0
100
AcDbLine
 10
173.48519
 20
502.75775
 11
171.637778
 21
502.75775
  0
LINE
  5
802
100
AcDbEntity
  8
M0
100
AcDbLine
 10
171.637778
 20
495.25775
 11
171.637778
 21
508.75775
  0
LINE
  5
803
100
AcDbEntity
  8
M0
100
AcDbLine
 10
187.13752
 20
508.75775
 11
187.13752
 21
495.25775
  0
CIRCLE
  5
804
100
AcDbEntity
  8
M0
100
AcDbCircle
 10
179.387534
 20
502.00775
 40
5.949995
  0
LINE
  5
805
100
AcDbEntity
  8
M0
  6
DASHDOT
100
AcDbLine
 10
179.387534
 20
512.012206
 11
179.387534
 21
492.125777
  0
LINE
  5
806
100
AcDbEntity
  8
M0
100
AcDbLine
 10
177.266214
 20
501.300643
 11
180.094641
 21
504.129073
  0
LINE
  5
807
100
AcDbEntity
  8
M0
100
AcDbLine
 10
178.680427
 20
499.886428
 11
181.508854
 21
502.714858
  0
LINE
  5
808
100
AcDbEntity
  8
M0
100
AcDbLine
 10
176.559107
 20
504.83618
 11
182.21595
 21
499.179335
  0
LINE
  5
809
100
AcDbEntity
  8
M0
  6
DASHDOT
100
AcDbLine
 10
219.38752
 20
512.012191
 11
219.38752
 21
492.125716
  0
LINE
  5
80A
100
AcDbEntity
  8
M0
100
AcDbLine
 10
191.38752
 20
452.007552
 11
207.386955
 21
452.007552
  0
LINE
  5
80B
100
AcDbEntity
  8
M0
 62
     4
100
AcDbLine
 10
206.538045
 20
510.007249
 11
192.23801
 21
510.007258
  0
LINE
  5
80C
100
AcDbEntity
  8
M0
 62
     4
100
AcDbLine
 10
191.23801
 20
509.007259
 11
191.238001
 21
494.507259
  0
LINE
  5
80D
100
AcDbEntity
  8
M0
 62
     4
100
AcDbLine
 10
207.538035
 20
494.507249
 11
207.538044
 21
509.007249
  0
ARC
  5
80E
100
AcDbEntity
  8
M0
 62
     4
100
AcDbCircle
 10
192.23801
 20
509.007258
 40
1.0
100
AcDbArc
 50
90.0
 51
179.999964
  0
ARC
  5
80F
100
AcDbEntity
  8
M0
 62
     4
100
AcDbCircle
 10
206.538035
 20
494.507249
 40
1.0
100
AcDbArc
 50
345.537726
 51
359.99909
  0
ARC
  5
810
100
AcDbEntity
  8
M0
 62
     4
100
AcDbCircle
 10
206.538044
 20
509.007249
 40
1.0
100
AcDbArc
 50
359.99909
 51
450.0
  0
LINE
  5
811
100
AcDbEntity
  8
M0
 62
     4
100
AcDbLine
 10
192.237296
 20
414.007994
 11
206.53733
 21
414.007994
  0
LINE
  5
812
100
AcDbEntity
  8
M0
 62
     4
100
AcDbLine
 10
207.53733
 20
415.007994
 11
207.53733
 21
429.507994
  0
LINE
  5
813
100
AcDbEntity
  8
M0
 62
     4
100
AcDbLine
 10
191.237296
 20
429.507994
 11
191.237296
 21
415.007994
  0
ARC
  5
814
100
AcDbEntity
  8
M0
 62
     4
100
AcDbCircle
 10
206.53733
 20
415.007994
 40
1.0
100
AcDbArc
 50
269.999126
 51
360.0
  0
ARC
  5
815
100
AcDbEntity
  8
M0
 62
     4
100
AcDbCircle
 10
192.237296
 20
415.007994
 40
1.0
100
AcDbArc
 50
180.0
 51
270.0
  0
LINE
  5
816
100
AcDbEntity
  8
M0
 62
     1
100
AcDbLine
 10
199.387214
 20
494.008239
 11
167.887245
 21
494.008239
  0
LINE
  5
817
100
AcDbEntity
  8
M0
 62
     1
100
AcDbLine
 10
167.887245
 20
430.008239
 11
199.38723
 21
430.008239
  0
LINE
  5
818
100
AcDbEntity
  8
M0
 62
     1
100
AcDbLine
 10
167.887245
 20
494.008239
 11
167.887245
 21
466.338362
  0
LINE
  5
819
100
AcDbEntity
  8
M0
 62
     1
100
AcDbLine
 10
167.887245
 20
457.678115
 11
167.887245
 21
430.008239
  0
ARC
  5
81A
100
AcDbEntity
  8
M0
 62
     1
100
AcDbCircle
 10
165.387245
 20
462.008239
 40
5.0
100
AcDbArc
 50
299.99993
 51
419.999925
  0
LINE
  5
81B
100
AcDbEntity
  8
M0
 62
     1
100
AcDbLine
 10
199.387267
 20
494.008239
 11
230.88723
 21
494.008239
  0
LINE
  5
81C
100
AcDbEntity
  8
M0
 62
     1
100
AcDbLine
 10
230.88723
 20
430.008239
 11
199.387251
 21
430.008239
  0
LINE
  5
81D
100
AcDbEntity
  8
M0
 62
     1
100
AcDbLine
 10
230.88723
 20
494.008239
 11
230.88723
 21
466.338362
  0
LINE
  5
81E
100
AcDbEntity
  8
M0
 62
     1
100
AcDbLine
 10
230.88723
 20
457.678115
 11
230.88723
 21
430.008239
  0
ARC
  5
81F
100
AcDbEntity
  8
M0
 62
     1
100
AcDbCircle
 10
233.38723
 20
462.008239
 40
5.0
100
AcDbArc
 50
120.000018
 51
239.999918
  0
LINE
  5
820
100
AcDbEntity
  8
M0
  6
DASHDOT
100
AcDbLine
 10
155.387031
 20
432.00804
 11
155.387031
 21
492.00804
  0
LINE
  5
821
100
AcDbEntity
  8
M0
100
AcDbLine
 10
233.987098
 20
490.907408
 11
233.987098
 21
491.354186
  0
LINE
  5
822
100
AcDbEntity
  8
M0
100
AcDbLine
 10
233.987098
 20
496.660826
 11
233.987098
 21
497.10736
  0
LINE
  5
823
100
AcDbEntity
  8
M0
100
AcDbLine
 10
235.740516
 20
495.421569
 11
233.972938
 21
493.653991
  0
LINE
  5
824
100
AcDbEntity
  8
M0
100
AcDbLine
 10
236.977821
 20
492.416686
 11
233.79618
 21
495.598326
  0
LINE
  5
825
100
AcDbEntity
  8
M0
  6
DASHDOT
100
AcDbLine
 10
229.887214
 20
494.007506
 11
241.662147
 21
494.007506
  0
LINE
  5
826
100
AcDbEntity
  8
M0
100
AcDbLine
 10
231.612098
 20
495.307555
 11
231.612098
 21
492.707457
  0
LINE
  5
827
100
AcDbEntity
  8
M0
100
AcDbLine
 10
236.787147
 20
496.660826
 11
236.787147
 21
497.10736
  0
ARC
  5
828
100
AcDbEntity
  8
M0
100
AcDbCircle
 10
232.906288
 20
490.207469
 40
0.5
100
AcDbArc
 50
197.116934
 51
269.998251
  0
ARC
  5
829
100
AcDbEntity
  8
M0
100
AcDbCircle
 10
237.867958
 20
497.807311
 40
0.5
100
AcDbArc
 50
17.151452
 51
90.0
  0
LINE
  5
82A
100
AcDbEntity
  8
M0
  6
DASHDOT
100
AcDbLine
 10
235.387245
 20
466.520519
 11
235.387245
 21
500.807555
  0
ARC
  5
82B
100
AcDbEntity
  8
M0
100
AcDbCircle
 10
237.867958
 20
490.207469
 40
0.5
100
AcDbArc
 50
269.998251
 51
342.874517
  0
LINE
  5
82C
100
AcDbEntity
  8
M0
100
AcDbLine
 10
236.801063
 20
494.361022
 11
235.033485
 21
492.593444
  0
LINE
  5
82D
100
AcDbEntity
  8
M0
100
AcDbLine
 10
236.787147
 20
490.907408
 11
236.787147
 21
491.354186
  0
ARC
  5
82E
100
AcDbEntity
  8
M0
100
AcDbCircle
 10
232.906288
 20
497.807311
 40
0.5
100
AcDbArc
 50
90.0
 51
162.856778
  0
CIRCLE
  5
82F
100
AcDbEntity
  8
M0
100
AcDbCircle
 10
235.387245
 20
494.007506
 40
3.0
  0
LINE
  5
830
100
AcDbEntity
  8
M0
100
AcDbLine
 10
238.345741
 20
497.954772
 11
239.162147
 21
495.307555
  0
LINE
  5
831
100
AcDbEntity
  8
M0
100
AcDbLine
 10
232.42826
 20
490.060252
 11
231.612098
 21
492.707457
  0
LINE
  5
832
100
AcDbEntity
  8
M0
100
AcDbLine
 10
237.708778
 20
495.907408
 11
238.977089
 21
495.907408
  0
LINE
  5
833
100
AcDbEntity
  8
M0
100
AcDbLine
 10
238.345741
 20
490.060252
 11
239.162147
 21
492.707457
  0
LINE
  5
834
100
AcDbEntity
  8
M0
100
AcDbLine
 10
233.987098
 20
497.10736
 11
232.16703
 21
497.10736
  0
LINE
  5
835
100
AcDbEntity
  8
M0
100
AcDbLine
 10
236.787147
 20
497.10736
 11
238.607216
 21
497.10736
  0
LINE
  5
836
100
AcDbEntity
  8
M0
100
AcDbLine
 10
232.42826
 20
497.954772
 11
231.612098
 21
495.307555
  0
LINE
  5
837
100
AcDbEntity
  8
M0
100
AcDbLine
 10
233.987098
 20
490.907408
 11
232.16703
 21
490.907408
  0
LINE
  5
838
100
AcDbEntity
  8
M0
100
AcDbLine
 10
233.065468
 20
492.10736
 11
231.797157
 21
492.10736
  0
LINE
  5
839
100
AcDbEntity
  8
M0
100
AcDbLine
 10
239.162147
 20
492.707457
 11
239.162147
 21
495.307555
  0
LINE
  5
83A
100
AcDbEntity
  8
M0
100
AcDbLine
 10
232.906288
 20
489.707469
 11
237.867958
 21
489.707469
  0
LINE
  5
83B
100
AcDbEntity
  8
M0
100
AcDbLine
 10
237.708778
 20
492.10736
 11
238.977089
 21
492.10736
  0
LINE
  5
83C
100
AcDbEntity
  8
M0
100
AcDbLine
 10
237.867958
 20
498.307555
 11
232.906288
 21
498.307311
  0
LINE
  5
83D
100
AcDbEntity
  8
M0
100
AcDbLine
 10
233.065468
 20
495.907408
 11
231.797157
 21
495.907408
  0
LINE
  5
83E
100
AcDbEntity
  8
M0
100
AcDbLine
 10
236.787147
 20
490.907408
 11
238.607216
 21
490.907408
  0
LINE
  5
83F
100
AcDbEntity
  8
M0
100
AcDbLine
 10
190.387229
 20
529.108233
 11
190.387229
 21
515.007506
  0
LINE
  5
840
100
AcDbEntity
  8
M0
100
AcDbLine
 10
178.387229
 20
529.108226
 11
178.387229
 21
513.108226
  0
LINE
  5
841
100
AcDbEntity
  8
M0
100
AcDbLine
 10
188.387229
 20
529.108232
 11
188.387229
 21
515.007506
  0
LINE
  5
842
100
AcDbEntity
  8
M0
100
AcDbLine
 10
180.387229
 20
529.108227
 11
180.387229
 21
513.108227
  0
LINE
  5
843
100
AcDbEntity
  8
M0
100
AcDbLine
 10
182.987082
 20
519.907897
 11
182.987082
 21
520.354674
  0
LINE
  5
844
100
AcDbEntity
  8
M0
100
AcDbLine
 10
182.987082
 20
525.661315
 11
182.987082
 21
526.107848
  0
LINE
  5
845
100
AcDbEntity
  8
M0
100
AcDbLine
 10
184.7405
 20
524.422057
 11
182.972922
 21
522.654479
  0
LINE
  5
846
100
AcDbEntity
  8
M0
100
AcDbLine
 10
185.977805
 20
521.417174
 11
182.796164
 21
524.598815
  0
LINE
  5
847
100
AcDbEntity
  8
M0
  6
DASHDOT
100
AcDbLine
 10
178.887198
 20
523.007994
 11
190.662131
 21
523.007994
  0
LINE
  5
848
100
AcDbEntity
  8
M0
100
AcDbLine
 10
180.612082
 20
524.308043
 11
180.612082
 21
521.707946
  0
LINE
  5
849
100
AcDbEntity
  8
M0
100
AcDbLine
 10
185.787131
 20
525.661315
 11
185.787131
 21
526.107848
  0
ARC
  5
84A
100
AcDbEntity
  8
M0
100
AcDbCircle
 10
181.906272
 20
519.207957
 40
0.5
100
AcDbArc
 50
197.116934
 51
269.998251
  0
ARC
  5
84B
100
AcDbEntity
  8
M0
100
AcDbCircle
 10
186.867941
 20
526.807799
 40
0.5
100
AcDbArc
 50
17.151452
 51
90.0
  0
LINE
  5
84C
100
AcDbEntity
  8
M0
  6
DASHDOT
100
AcDbLine
 10
184.387229
 20
516.549976
 11
184.387229
 21
529.808043
  0
ARC
  5
84D
100
AcDbEntity
  8
M0
100
AcDbCircle
 10
186.867941
 20
519.207957
 40
0.5
100
AcDbArc
 50
269.998251
 51
342.874517
  0
LINE
  5
84E
100
AcDbEntity
  8
M0
100
AcDbLine
 10
185.801047
 20
523.36151
 11
184.033469
 21
521.593932
  0
LINE
  5
84F
100
AcDbEntity
  8
M0
100
AcDbLine
 10
185.787131
 20
519.907897
 11
185.787131
 21
520.354674
  0
ARC
  5
850
100
AcDbEntity
  8
M0
100
AcDbCircle
 10
181.906272
 20
526.807799
 40
0.5
100
AcDbArc
 50
90.0
 51
162.856778
  0
CIRCLE
  5
851
100
AcDbEntity
  8
M0
100
AcDbCircle
 10
184.387229
 20
523.007994
 40
3.0
  0
LINE
  5
852
100
AcDbEntity
  8
M0
100
AcDbLine
 10
187.345725
 20
526.95526
 11
188.162131
 21
524.308043
  0
LINE
  5
853
100
AcDbEntity
  8
M0
100
AcDbLine
 10
181.428244
 20
519.06074
 11
180.612082
 21
521.707946
  0
LINE
  5
854
100
AcDbEntity
  8
M0
100
AcDbLine
 10
186.708762
 20
524.907897
 11
187.977072
 21
524.907897
  0
LINE
  5
855
100
AcDbEntity
  8
M0
100
AcDbLine
 10
187.345725
 20
519.06074
 11
188.162131
 21
521.707946
  0
LINE
  5
856
100
AcDbEntity
  8
M0
100
AcDbLine
 10
182.987082
 20
526.107848
 11
181.167014
 21
526.107848
  0
LINE
  5
857
100
AcDbEntity
  8
M0
100
AcDbLine
 10
185.787131
 20
526.107848
 11
187.607199
 21
526.107848
  0
LINE
  5
858
100
AcDbEntity
  8
M0
100
AcDbLine
 10
181.428244
 20
526.95526
 11
180.612082
 21
524.308043
  0
LINE
  5
859
100
AcDbEntity
  8
M0
100
AcDbLine
 10
182.987082
 20
519.907897
 11
181.167014
 21
519.907897
  0
LINE
  5
85A
100
AcDbEntity
  8
M0
100
AcDbLine
 10
182.065451
 20
521.107848
 11
180.797141
 21
521.107848
  0
LINE
  5
85B
100
AcDbEntity
  8
M0
100
AcDbLine
 10
188.162131
 20
521.707946
 11
188.162131
 21
524.308043
  0
LINE
  5
85C
100
AcDbEntity
  8
M0
100
AcDbLine
 10
181.906272
 20
518.707957
 11
186.867941
 21
518.707957
  0
LINE
  5
85D
100
AcDbEntity
  8
M0
100
AcDbLine
 10
186.708762
 20
521.107848
 11
187.977072
 21
521.107848
  0
LINE
  5
85E
100
AcDbEntity
  8
M0
100
AcDbLine
 10
186.867941
 20
527.308043
 11
181.906272
 21
527.307799
  0
LINE
  5
85F
100
AcDbEntity
  8
M0
100
AcDbLine
 10
182.065451
 20
524.907897
 11
180.797141
 21
524.907897
  0
LINE
  5
860
100
AcDbEntity
  8
M0
100
AcDbLine
 10
185.787131
 20
519.907897
 11
187.607199
 21
519.907897
  0
LINE
  5
861
100
AcDbEntity
  8
M0
100
AcDbLine
 10
208.387225
 20
529.108244
 11
208.387233
 21
515.007511
  0
LINE
  5
862
100
AcDbEntity
  8
M0
100
AcDbLine
 10
220.387225
 20
529.108252
 11
220.387234
 21
513.108252
  0
LINE
  5
863
100
AcDbEntity
  8
M0
100
AcDbLine
 10
210.387225
 20
529.108245
 11
210.387233
 21
515.007512
  0
LINE
  5
864
100
AcDbEntity
  8
M0
100
AcDbLine
 10
218.387225
 20
529.10825
 11
218.387234
 21
513.10825
  0
LINE
  5
865
100
AcDbEntity
  8
M0
100
AcDbLine
 10
215.787377
 20
519.907905
 11
215.787376
 21
520.354682
  0
LINE
  5
866
100
AcDbEntity
  8
M0
100
AcDbLine
 10
215.787374
 20
525.661323
 11
215.787373
 21
526.107856
  0
LINE
  5
867
100
AcDbEntity
  8
M0
100
AcDbLine
 10
214.033956
 20
524.422064
 11
215.801535
 21
522.654487
  0
LINE
  5
868
100
AcDbEntity
  8
M0
100
AcDbLine
 10
212.796653
 20
521.417181
 11
215.978292
 21
524.598823
  0
LINE
  5
869
100
AcDbEntity
  8
M0
  6
DASHDOT
100
AcDbLine
 10
219.887259
 20
523.008005
 11
208.112326
 21
523.007999
  0
LINE
  5
86A
100
AcDbEntity
  8
M0
100
AcDbLine
 10
218.162374
 20
524.308053
 11
218.162376
 21
521.707955
  0
LINE
  5
86B
100
AcDbEntity
  8
M0
100
AcDbLine
 10
212.987325
 20
525.661322
 11
212.987325
 21
526.107855
  0
ARC
  5
86C
100
AcDbEntity
  8
M0
100
AcDbCircle
 10
216.868187
 20
519.207966
 40
0.5
100
AcDbArc
 50
270.001777
 51
342.883095
  0
ARC
  5
86D
100
AcDbEntity
  8
M0
100
AcDbCircle
 10
211.906514
 20
526.807805
 40
0.5
100
AcDbArc
 50
90.0
 51
162.848577
  0
LINE
  5
86E
100
AcDbEntity
  8
M0
  6
DASHDOT
100
AcDbLine
 10
214.387232
 20
516.549984
 11
214.387225
 21
529.808051
  0
ARC
  5
86F
100
AcDbEntity
  8
M0
100
AcDbCircle
 10
211.906518
 20
519.207963
 40
0.5
100
AcDbArc
 50
197.125512
 51
270.001777
  0
LINE
  5
870
100
AcDbEntity
  8
M0
100
AcDbLine
 10
212.97341
 20
523.361517
 11
214.740989
 21
521.59394
  0
LINE
  5
871
100
AcDbEntity
  8
M0
100
AcDbLine
 10
212.987328
 20
519.907904
 11
212.987328
 21
520.354681
  0
ARC
  5
872
100
AcDbEntity
  8
M0
100
AcDbCircle
 10
216.868184
 20
526.807808
 40
0.5
100
AcDbArc
 50
17.143251
 51
90.0
  0
CIRCLE
  5
873
100
AcDbEntity
  8
M0
100
AcDbCircle
 10
214.387229
 20
523.008002
 40
3.0
  0
LINE
  5
874
100
AcDbEntity
  8
M0
100
AcDbLine
 10
211.42873
 20
526.955266
 11
210.612326
 21
524.308049
  0
LINE
  5
875
100
AcDbEntity
  8
M0
100
AcDbLine
 10
217.346215
 20
519.060749
 11
218.162376
 21
521.707955
  0
LINE
  5
876
100
AcDbEntity
  8
M0
100
AcDbLine
 10
212.065694
 20
524.907903
 11
210.797384
 21
524.907903
  0
LINE
  5
877
100
AcDbEntity
  8
M0
100
AcDbLine
 10
211.428734
 20
519.060746
 11
210.612327
 21
521.707951
  0
LINE
  5
878
100
AcDbEntity
  8
M0
100
AcDbLine
 10
215.787373
 20
526.107856
 11
217.607442
 21
526.107857
  0
LINE
  5
879
100
AcDbEntity
  8
M0
100
AcDbLine
 10
212.987325
 20
526.107855
 11
211.167256
 21
526.107854
  0
LINE
  5
87A
100
AcDbEntity
  8
M0
100
AcDbLine
 10
217.346211
 20
526.955269
 11
218.162374
 21
524.308053
  0
LINE
  5
87B
100
AcDbEntity
  8
M0
100
AcDbLine
 10
215.787377
 20
519.907905
 11
217.607445
 21
519.907906
  0
LINE
  5
87C
100
AcDbEntity
  8
M0
100
AcDbLine
 10
216.709007
 20
521.107857
 11
217.977317
 21
521.107857
  0
LINE
  5
87D
100
AcDbEntity
  8
M0
100
AcDbLine
 10
210.612327
 20
521.707951
 11
210.612326
 21
524.308049
  0
LINE
  5
87E
100
AcDbEntity
  8
M0
100
AcDbLine
 10
216.868188
 20
518.707966
 11
211.906518
 21
518.707963
  0
LINE
  5
87F
100
AcDbEntity
  8
M0
100
AcDbLine
 10
212.065696
 20
521.107854
 11
210.797386
 21
521.107854
  0
LINE
  5
880
100
AcDbEntity
  8
M0
100
AcDbLine
 10
211.906513
 20
527.30805
 11
216.868183
 21
527.307808
  0
LINE
  5
881
100
AcDbEntity
  8
M0
100
AcDbLine
 10
216.709005
 20
524.907905
 11
217.977315
 21
524.907906
  0
LINE
  5
882
100
AcDbEntity
  8
M0
100
AcDbLine
 10
212.987328
 20
519.907904
 11
211.167259
 21
519.907903
  0
LINE
  5
883
100
AcDbEntity
  8
M0
100
AcDbLine
 10
167.387535
 20
417.908219
 11
155.387255
 21
417.908211
  0
LINE
  5
884
100
AcDbEntity
  8
M0
100
AcDbLine
 10
155.387046
 20
424.507979
 11
155.387046
 21
417.908211
  0
LINE
  5
885
100
AcDbEntity
  8
M0
100
AcDbLine
 10
187.637504
 20
513.108231
 11
155.387231
 21
513.108211
  0
LINE
  5
886
100
AcDbEntity
  8
M0
100
AcDbLine
 10
207.63726
 20
513.108244
 11
191.137503
 21
513.108233
  0
LINE
  5
887
100
AcDbEntity
  8
M0
100
AcDbLine
 10
246.387275
 20
513.108268
 11
211.13726
 21
513.108246
  0
LINE
  5
888
100
AcDbEntity
  8
M0
  6
DIVIDE
 62
     7
100
AcDbLine
 10
229.387197
 20
321.94817
 11
169.387197
 21
321.94817
  0
LINE
  5
889
100
AcDbEntity
  8
M0
  6
DIVIDE
 62
     7
100
AcDbLine
 10
169.387197
 20
321.94817
 11
169.387197
 21
318.447918
  0
LINE
  5
88A
100
AcDbEntity
  8
M0
  6
DIVIDE
 62
     7
100
AcDbLine
 10
229.387197
 20
321.94817
 11
229.387197
 21
318.447876
  0
LINE
  5
88B
100
AcDbEntity
  8
M0
  6
DIVIDE
 62
     7
100
AcDbLine
 10
122.387212
 20
321.948231
 11
62.387212
 21
321.948231
  0
LINE
  5
88C
100
AcDbEntity
  8
M0
  6
DIVIDE
 62
     7
100
AcDbLine
 10
62.387212
 20
321.948231
 11
62.387213
 21
318.447991
  0
LINE
  5
88D
100
AcDbEntity
  8
M0
  6
DIVIDE
 62
     7
100
AcDbLine
 10
122.387212
 20
321.948231
 11
122.387213
 21
318.44795
  0
LINE
  5
88E
100
AcDbEntity
  8
M0
  6
DIVIDE
 62
     7
100
AcDbLine
 10
245.886925
 20
198.44788
 11
245.887001
 21
318.447865
  0
LINE
  5
88F
100
AcDbEntity
  8
M0
  6
DIVIDE
 62
     7
100
AcDbLine
 10
245.887001
 20
318.447865
 11
229.387197
 21
318.447876
  0
LINE
  5
890
100
AcDbEntity
  8
M0
  6
DIVIDE
 62
     7
100
AcDbLine
 10
45.887017
 20
318.448002
 11
45.88694
 21
198.448018
  0
LINE
  5
891
100
AcDbEntity
  8
M0
  6
DIVIDE
 62
     7
100
AcDbLine
 10
45.88694
 20
198.448018
 11
245.886925
 21
198.44788
  0
LINE
  5
892
100
AcDbEntity
  8
M0
  6
DASHDOT
 62
     7
100
AcDbLine
 10
35.303505
 20
258.448014
 11
256.612221
 21
258.447869
  0
LINE
  5
893
100
AcDbEntity
  8
M0
  6
DASHDOT
 62
     7
100
AcDbLine
 10
145.886927
 20
188.447957
 11
145.887015
 21
328.447926
  0
CIRCLE
  5
894
100
AcDbEntity
  8
M0
 62
     7
100
AcDbCircle
 10
238.386986
 20
310.94788
 40
3.0
  0
CIRCLE
  5
895
100
AcDbEntity
  8
M0
 62
     7
100
AcDbCircle
 10
53.387017
 20
310.947987
 40
3.0
  0
CIRCLE
  5
896
100
AcDbEntity
  8
M0
 62
     7
100
AcDbCircle
 10
238.38691
 20
205.947896
 40
3.0
  0
CIRCLE
  5
897
100
AcDbEntity
  8
M0
 62
     7
100
AcDbCircle
 10
53.386956
 20
205.948002
 40
3.0
  0
LINE
  5
898
100
AcDbEntity
  8
M0
  6
DIVIDE
 62
     7
100
AcDbLine
 10
62.387213
 20
318.447991
 11
45.887017
 21
318.448002
  0
LINE
  5
899
100
AcDbEntity
  8
M0
  6
DIVIDE
 62
     7
100
AcDbLine
 10
169.387197
 20
318.447918
 11
122.387213
 21
318.44795
  0
LINE
  5
89A
100
AcDbEntity
  8
M0
  6
DASHDOT
 62
     7
100
AcDbLine
 10
227.386986
 20
310.94788
 11
249.386986
 21
310.94788
  0
LINE
  5
89B
100
AcDbEntity
  8
M0
  6
DASHDOT
 62
     7
100
AcDbLine
 10
238.386986
 20
299.94788
 11
238.386986
 21
321.94788
  0
LINE
  5
89C
100
AcDbEntity
  8
M0
  6
DASHDOT
 62
     7
100
AcDbLine
 10
42.387017
 20
310.947987
 11
64.387017
 21
310.947987
  0
LINE
  5
89D
100
AcDbEntity
  8
M0
  6
DASHDOT
 62
     7
100
AcDbLine
 10
53.387017
 20
299.947987
 11
53.387017
 21
321.947987
  0
LINE
  5
89E
100
AcDbEntity
  8
M0
  6
DASHDOT
 62
     7
100
AcDbLine
 10
42.386956
 20
205.948002
 11
64.386956
 21
205.948002
  0
LINE
  5
89F
100
AcDbEntity
  8
M0
  6
DASHDOT
 62
     7
100
AcDbLine
 10
53.386956
 20
194.948002
 11
53.386956
 21
216.948002
  0
LINE
  5
8A0
100
AcDbEntity
  8
M0
  6
DASHDOT
 62
     7
100
AcDbLine
 10
227.38691
 20
205.947896
 11
249.38691
 21
205.947896
  0
LINE
  5
8A1
100
AcDbEntity
  8
M0
  6
DASHDOT
 62
     7
100
AcDbLine
 10
238.38691
 20
194.947896
 11
238.38691
 21
216.947896
  0
LINE
  5
8A2
100
AcDbEntity
  8
M1
 62
     2
100
AcDbLine
 10
23.529411
 20
23.529411
 11
23.529411
 21
670.588216
  0
LINE
  5
8A3
100
AcDbEntity
  8
M1
 62
     2
100
AcDbLine
 10
23.529411
 20
670.588216
 11
470.588222
 21
670.588216
  0
LINE
  5
8A4
100
AcDbEntity
  8
M1
 62
     2
100
AcDbLine
 10
470.588222
 20
670.588216
 11
470.588222
 21
23.529411
  0
LINE
  5
8A5
100
AcDbEntity
  8
M1
 62
     2
100
AcDbLine
 10
470.588222
 20
23.529411
 11
23.529411
 21
23.529411
  0
LINE
  5
8A6
100
AcDbEntity
  8
M1
 62
     2
100
AcDbLine
 10
470.588222
 20
47.058822
 11
235.294111
 21
47.058822
  0
LINE
  5
8A7
100
AcDbEntity
  8
M1
 62
     2
100
AcDbLine
 10
470.588222
 20
70.588233
 11
235.294111
 21
70.588233
  0
LINE
  5
8A8
100
AcDbEntity
  8
M1
 62
     2
100
AcDbLine
 10
470.588222
 20
94.117644
 11
235.294111
 21
94.117644
  0
LINE
  5
8A9
100
AcDbEntity
  8
M1
 62
     2
100
AcDbLine
 10
235.294111
 20
23.529411
 11
235.294111
 21
94.117644
  0
TEXT
  5
8AA
100
AcDbEntity
  8
M1
 62
     2
100
AcDbText
 10
241.176464
 20
29.411764
 40
11.764706
  1
適　用；
 41
1.0
  7
STANDARD
100
AcDbText
  0
TEXT
  5
8AB
100
AcDbEntity
  8
M1
 62
     2
100
AcDbText
 10
241.176464
 20
76.470586
 40
11.764706
  1
登録名：
 41
1.0
  7
STANDARD
100
AcDbText
  0
TEXT
  5
8AC
100
AcDbEntity
  8
M1
 62
     2
100
AcDbText
 10
297.64705
 20
76.470586
 40
11.764706
  1
ＤＭＨ６５ＣＲＬＲ００
 41
0.5
  7
STANDARD
100
AcDbText
  0
TEXT
  5
8AD
100
AcDbEntity
  8
M1
 62
     2
100
AcDbText
 10
241.176464
 20
52.941175
 40
11.764706
  1
形　式；
 41
1.0
  7
STANDARD
100
AcDbText
  0
TEXT
  5
8AE
100
AcDbEntity
  8
M1
 62
     2
100
AcDbText
 10
297.64705
 20
52.941175
 40
11.764706
  1
Ｈ６５Ｃ－ＲＬ
 41
0.5
  7
STANDARD
100
AcDbText
  0
LINE
  5
8AF
100
AcDbEntity
  8
DN0
100
AcDbLine
 10
122.169475
 20
153.046594
 11
165.134172
 21
153.046594
  0
TEXT
  5
8B0
100
AcDbEntity
  8
DN0
100
AcDbText
 10
123.35771
 20
154.105418
 40
10.588235
  1
せん孔図
 41
0.833333
  7
STANDARD
100
AcDbText
  0
ENDSEC
  0
SECTION
  2
OBJECTS
  0
DICTIONARY
  5
C
100
AcDbDictionary
  3
ACAD_GROUP
350
D
  3
ACAD_MLINESTYLE
350
E
  0
DICTIONARY
  5
D
102
{ACAD_REACTORS
330
C
102
}
100
AcDbDictionary
  0
DICTIONARY
  5
E
102
{ACAD_REACTORS
330
C
102
}
100
AcDbDictionary
  3
STANDARD
350
13
  0
MLINESTYLE
  5
13
102
{ACAD_REACTORS
330
E
102
}
100
AcDbMlineStyle
  2
STANDARD
 70
     0
  3

 62
     0
 51
90.0
 52
90.0
 71
     2
 49
0.5
 62
   256
  6
BYLAYER
 49
-0.5
 62
   256
  6
BYLAYER
  0
ENDSEC
  0
EOF
