  0
SECTION
  2
HEADER
  9
$ACADVER
  1
AC1014
  9
$INSBASE
 10
0.000000
 20
0.000000
 30
0.0
  9
$VIEWCTR
 10
7.531722
 20
4.5
  9
$VIEWSIZE
 40
9.0
  9
$SNAPMODE
 70
     0
  9
$SNAPUNIT
 10
1.0
 20
1.0
  9
$SNAPBASE
 10
0.0
 20
0.0
  9
$SNAPANG
 50
0.0
  9
$SNAPSTYLE
 70
     0
  9
$SNAPISOPAIR
 70
     0
  9
$GRIDMODE
 70
     0
  9
$GRIDUNIT
 10
0.0
 20
0.0
  9
$ORTHOMODE
 70
     0
  9
$REGENMODE
 70
     1
  9
$FILLMODE
 70
     1
  9
$QTEXTMODE
 70
     0
  9
$DRAGMODE
 70
     2
  9
$LTSCALE
  40
     1.000000
  9
$OSMODE
 70
     0
  9
$ATTMODE
 70
     1
  9
$TEXTSIZE
 40
0.2
  9
$TRACEWID
 40
0.05
  9
$TEXTSTYLE
  7
STANDARD
  9
$CELTYPE
  6
BYLAYER
  9
$CECOLOR
 62
   256
  9
$DIMSCALE
 40
1.0
  9
$DIMASZ
 40
0.18
  9
$DIMEXO
 40
0.0625
  9
$DIMDLI
 40
0.38
  9
$DIMRND
 40
0.0
  9
$DIMDLE
 40
0.0
  9
$DIMEXE
 40
0.18
  9
$DIMTP
 40
0.0
  9
$DIMTM
 40
0.0
  9
$DIMTXT
 40
0.18
  9
$DIMCEN
 40
0.09
  9
$DIMTSZ
 40
0.0
  9
$DIMTOL
 70
     0
  9
$DIMLIM
 70
     0
  9
$DIMTIH
 70
     1
  9
$DIMTOH
 70
     1
  9
$DIMSE1
 70
     0
  9
$DIMSE2
 70
     0
  9
$DIMTAD
 70
     0
  9
$DIMZIN
 70
     0
  9
$DIMBLK
  1

  9
$LUNITS
 70
     2
  9
$LUPREC
 70
     4
  9
$AXISMODE
 70
     0
  9
$AXISUNIT
 10
0.0
 20
0.0
  9
$SKETCHINC
 40
0.1
  9
$FILLETRAD
 40
0.0
  9
$AUNITS
 70
     0
  9
$AUPREC
 70
     0
  9
$MENU
  1
ACAD
  9
$ELEVATION
 40
0.0
  9
$THICKNESS
 40
0.0
  9
$VIEWDIR
 10
0.0
 20
0.0
 30
1.0
  9
$LIMCHECK
 70
     0
  9
$BLIPMODE
 70
     1
  9
$CHAMFERA
 40
0.0
  9
$CHAMFERB
 40
0.0
  9
$FASTZOOM
 70
     1
  9
$SKPOLY
 70
     0
  9
$TDCREATE
 40
0000000.0000000000
  9
$TDUPDATE
 40
0000000.0000000000
  9
$TDINDWG
 40
0.0000000000
  9
$TDUSRTIMER
 40
0.0000000000
  9
$USRTIMER
 70
     1
  9
$ANGBASE
 50
0.0
  9
$ANGDIR
 70
     0
  9
$PDMODE
 70
     0
  9
$PDSIZE
 40
0.0
  9
$PLINEWID
 40
0.0
  9
$COORDS
 70
     0
  9
$USERI1
 70
     0
  9
$USERI2
 70
     0
  9
$USERI3
 70
     0
  9
$USERI4
 70
     0
  9
$USERI5
 70
     0
  9
$USERR1
 40
0.0
  9
$USERR2
 40
0.0
  9
$USERR3
 40
0.0
  9
$USERR4
 40
0.0
  9
$USERR5
 40
0.0
  9
$CLAYER
  8
M0
  9
$EXTMIN
 10
25.0
 20
25.0
  9
$EXTMAX
 10
499.999993
 20
712.499989
  9
$LIMMIN
 10
0.0
 20
0.0
  9
$LIMMAX
 10
210.0
 20
297.0
  9
$HANDSEED
  5
742
  0
ENDSEC
  0
SECTION
  2
CLASSES
  0
ENDSEC
  0
SECTION
  2
TABLES
  0
TABLE
  2
VPORT
  5
8
100
AcDbSymbolTable
 70
     2
  0
VPORT
  5
14
100
AcDbSymbolTableRecord
100
AcDbViewportTableRecord
  2
*ACTIVE
 70
     0
 10
0.0
 20
0.0
 11
1.0
 21
1.0
 12
484.0
 22
297.0
 13
0.0
 23
0.0
 14
1.0
 24
1.0
 15
0.0
 25
0.0
 16
0.0
 26
0.0
 36
1.0
 17
0.0
 27
0.0
 37
0.0
 40
594.0
 41
2.0
 42
50.0
 43
0.0
 44
0.0
 50
0.0
 51
0.0
 71
     0
 72
   100
 73
     1
 74
     1
 75
     0
 76
     0
 77
     0
 78
     0
  0
ENDTAB
  0
TABLE
  2
LTYPE
  5
5
100
AcDbSymbolTable
 70
     5
  0
LTYPE
  5
15
100
AcDbSymbolTableRecord
100
AcDbLinetypeTableRecord
  2
BYBLOCK
 70
     0
  3

 72
    65
 73
     0
 40
0.0
  0
LTYPE
  5
16
100
AcDbSymbolTableRecord
100
AcDbLinetypeTableRecord
  2
BYLAYER
 70
     0
  3

 72
    65
 73
     0
 40
0.0
  0
LTYPE
  5
17
100
AcDbSymbolTableRecord
100
AcDbLinetypeTableRecord
  2
CONTINUOUS
 70
    64
  3
Solid line
 72
    65
 73
     0
 40
0.0
  0
LTYPE
  5
18
100
AcDbSymbolTableRecord
100
AcDbLinetypeTableRecord
  2
DASHED
 70
    64
  3
__ __ __ __ __ __ __ __ __ __ __ __ __ __ __ __
 72
    65
 73
     2
 40
0.75
 49
0.5
 74
     0
 49
-0.25
 74
     0
  0
LTYPE
  5
19
100
AcDbSymbolTableRecord
100
AcDbLinetypeTableRecord
  2
DASHDOT
 70
    64
  3
__ . __ . __ . __ . __ . __ . __ . __ . __ . __
 72
    65
 73
     4
 40
1.0
 49
0.5
 74
     0
 49
-0.25
 74
     0
 49
0.0
 74
     0
 49
-0.25
 74
     0
  0
LTYPE
  5
1A
100
AcDbSymbolTableRecord
100
AcDbLinetypeTableRecord
  2
DIVIDE
 70
    64
  3
____ . . ____ . . ____ . . ____ . . ____ . . __
 72
    65
 73
     6
 40
1.25
 49
0.5
 74
     0
 49
-0.25
 74
     0
 49
0.0
 74
     0
 49
-0.25
 74
     0
 49
0.0
 74
     0
 49
-0.25
 74
     0
  0
LTYPE
  5
1B
100
AcDbSymbolTableRecord
100
AcDbLinetypeTableRecord
  2
DOT
 70
    64
  3
. . . . . . . . . . . . . . . . . . . . . . . .
 72
    65
 73
     2
 40
0.25
 49
0.0
 74
     0
 49
-0.25
 74
     0
  0
ENDTAB
  0
TABLE
  2
LAYER
  5
2
100
AcDbSymbolTable
 70
   102
  0
LAYER
  5
F
100
AcDbSymbolTableRecord
100
AcDbLayerTableRecord
  2
0
 70
     0
 62
     7
  6
CONTINUOUS
  0
LAYER
  5
1C
100
AcDbSymbolTableRecord
100
AcDbLayerTableRecord
  2
DEFPOINTS
 70
     0
 62
     7
  6
CONTINUOUS
  0
LAYER
  5
1D
100
AcDbSymbolTableRecord
100
AcDbLayerTableRecord
  2
M0
 70
     0
 62
     3
  6
CONTINUOUS
  0
LAYER
  5
1E
100
AcDbSymbolTableRecord
100
AcDbLayerTableRecord
  2
M1
 70
     0
 62
     3
  6
CONTINUOUS
  0
LAYER
  5
1F
100
AcDbSymbolTableRecord
100
AcDbLayerTableRecord
  2
DD0
 70
     0
 62
     4
  6
CONTINUOUS
  0
LAYER
  5
20
100
AcDbSymbolTableRecord
100
AcDbLayerTableRecord
  2
DN0
 70
     0
 62
     2
  6
CONTINUOUS
  0
ENDTAB
  0
TABLE
  2
STYLE
  5
3
100
AcDbSymbolTable
 70
     2
  0
STYLE
  5
10
100
AcDbSymbolTableRecord
100
AcDbTextStyleTableRecord
  2
STANDARD
 70
     0
 40
0.0
 41
1.0
 50
0.0
 71
     0
 42
0.2
  3
txt
  4
BIGFONT
  0
ENDTAB
  0
TABLE
  2
VIEW
  5
6
100
AcDbSymbolTable
 70
     0
  0
ENDTAB
  0
TABLE
  2
UCS
  5
7
100
AcDbSymbolTable
 70
     0
  0
ENDTAB
  0
TABLE
  2
APPID
  5
9
100
AcDbSymbolTable
 70
     1
  0
APPID
  5
11
100
AcDbSymbolTableRecord
100
AcDbRegAppTableRecord
  2
ACAD
 70
     0
  0
ENDTAB
  0
TABLE
  2
DIMSTYLE
  5
A
100
AcDbSymbolTable
 70
     2
  0
DIMSTYLE
105
27
100
AcDbSymbolTableRecord
100
AcDbDimStyleTableRecord
  2
STANDARD
 70
     0
  3

  4

  5

  6
_OPEN
  7
_OPEN
 40
1.0
 41
7.5
 42
1.0
 43
8.0
 44
1.0
 45
0.0
 46
0.0
 47
0.0
 48
0.0
140
7.875
141
0.09
142
0.0
143
0.03937
144
1.0
145
0.0
146
1.0
147
0.6
 71
     0
 72
     0
 73
     1
 74
     1
 75
     0
 76
     0
 77
     3
 78
     8
170
     0
171
     2
172
     0
173
     1
174
     0
175
     0
176
     0
177
     0
178
     0
270
     2
271
     2
272
     4
273
     2
274
     2
340
10
275
     0
280
     0
281
     0
282
     0
283
     1
284
     0
285
     0
286
     0
287
     3
288
     0
  0
DIMSTYLE
105
28
100
AcDbSymbolTableRecord
100
AcDbDimStyleTableRecord
  2
LEADSTYL
 70
     0
  3

  4

  5

  6
_OPEN
  7
_OPEN
 40
1.0
 41
7.5
 42
0.0625
 43
0.38
 44
0.18
 45
0.0
 46
0.0
 47
0.0
 48
0.0
140
7.875
141
0.09
142
0.0
143
25.4
144
1.0
145
0.0
146
1.0
147
0.6
 71
     0
 72
     0
 73
     1
 74
     1
 75
     0
 76
     0
 77
     0
 78
     0
170
     0
171
     2
172
     0
173
     1
174
     0
175
     0
176
     0
177
     0
178
     0
270
     2
271
     4
272
     4
273
     2
274
     2
340
10
275
     0
280
     0
281
     0
282
     0
283
     1
284
     0
285
     0
286
     0
287
     3
288
     0
  0
ENDTAB
  0
TABLE
  2
BLOCK_RECORD
  5
1
100
AcDbSymbolTable
 70
    16
  0
BLOCK_RECORD
  5
21
100
AcDbSymbolTableRecord
100
AcDbBlockTableRecord
  2
*MODEL_SPACE
  0
BLOCK_RECORD
  5
24
100
AcDbSymbolTableRecord
100
AcDbBlockTableRecord
  2
*PAPER_SPACE
  0
BLOCK_RECORD
  5
29
100
AcDbSymbolTableRecord
100
AcDbBlockTableRecord
  2
_NONE
  0
BLOCK_RECORD
  5
2D
100
AcDbSymbolTableRecord
100
AcDbBlockTableRecord
  2
_OPEN
  0
BLOCK_RECORD
  5
33
100
AcDbSymbolTableRecord
100
AcDbBlockTableRecord
  2
_CLOSED
  0
BLOCK_RECORD
  5
3A
100
AcDbSymbolTableRecord
100
AcDbBlockTableRecord
  2
_ORIGIN
  0
BLOCK_RECORD
  5
3F
100
AcDbSymbolTableRecord
100
AcDbBlockTableRecord
  2
_DOT
  0
BLOCK_RECORD
  5
47
100
AcDbSymbolTableRecord
100
AcDbBlockTableRecord
  2
_OBLIQUE
  0
BLOCK_RECORD
  5
4B
100
AcDbSymbolTableRecord
100
AcDbBlockTableRecord
  2
DIMS0
  0
BLOCK_RECORD
  5
57
100
AcDbSymbolTableRecord
100
AcDbBlockTableRecord
  2
DIMS1
  0
BLOCK_RECORD
  5
63
100
AcDbSymbolTableRecord
100
AcDbBlockTableRecord
  2
DIMS2
  0
BLOCK_RECORD
  5
6F
100
AcDbSymbolTableRecord
100
AcDbBlockTableRecord
  2
DIMS3
  0
BLOCK_RECORD
  5
7B
100
AcDbSymbolTableRecord
100
AcDbBlockTableRecord
  2
DIMS4
  0
BLOCK_RECORD
  5
87
100
AcDbSymbolTableRecord
100
AcDbBlockTableRecord
  2
DIMS5
  0
BLOCK_RECORD
  5
93
100
AcDbSymbolTableRecord
100
AcDbBlockTableRecord
  2
DIMS6
  0
BLOCK_RECORD
  5
9F
100
AcDbSymbolTableRecord
100
AcDbBlockTableRecord
  2
DIMS7
  0
BLOCK_RECORD
  5
AB
100
AcDbSymbolTableRecord
100
AcDbBlockTableRecord
  2
DIMS8
  0
BLOCK_RECORD
  5
B4
100
AcDbSymbolTableRecord
100
AcDbBlockTableRecord
  2
DIMS9
  0
ENDTAB
  0
ENDSEC
  0
SECTION
  2
BLOCKS
  0
BLOCK
  5
22
100
AcDbEntity
  8
0
100
AcDbBlockBegin
  2
*MODEL_SPACE
 70
     0
 10
0.0
 20
0.0
 30
0.0
  3
*MODEL_SPACE
  1

  0
ENDBLK
  5
23
100
AcDbEntity
  8
0
100
AcDbBlockEnd
  0
BLOCK
  5
25
100
AcDbEntity
 67
     1
  8
0
100
AcDbBlockBegin
  2
*PAPER_SPACE
 70
     0
 10
0.0
 20
0.0
 30
0.0
  3
*PAPER_SPACE
  1

  0
ENDBLK
  5
26
100
AcDbEntity
 67
     1
  8
0
100
AcDbBlockEnd
  0
BLOCK
  5
2A
100
AcDbEntity
  8
0
100
AcDbBlockBegin
  2
_NONE
 70
     0
 10
0.0
 20
0.0
  0
CIRCLE
  5
2B
100
AcDbEntity
  8
0
 62
     0
100
AcDbCircle
 10
0.0
 20
0.0
 40
0.25
  0
ENDBLK
  5
2C
100
AcDbEntity
  8
0
100
AcDbBlockEnd
  0
BLOCK
  5
2E
100
AcDbEntity
  8
0
100
AcDbBlockBegin
  2
_OPEN
 70
     0
 10
0.0
 20
0.0
  0
LINE
  5
2F
100
AcDbEntity
  8
0
 62
     0
100
AcDbLine
 10
-0.965926
 20
0.258819
 11
0.0
 21
0.0
  0
LINE
  5
30
100
AcDbEntity
  8
0
 62
     0
100
AcDbLine
 10
0.0
 20
0.0
 11
-0.965926
 21
-0.258819
  0
LINE
  5
31
100
AcDbEntity
  8
0
 62
     0
100
AcDbLine
 10
0.0
 20
0.0
 11
-1.0
 21
0.0
  0
ENDBLK
  5
32
100
AcDbEntity
  8
0
100
AcDbBlockEnd
  0
BLOCK
  5
34
100
AcDbEntity
  8
0
100
AcDbBlockBegin
  2
_CLOSED
 70
     0
 10
0.0
 20
0.0
  0
LINE
  5
35
100
AcDbEntity
  8
0
 62
     0
100
AcDbLine
 10
-0.965926
 20
0.258819
 11
0.0
 21
0.0
  0
LINE
  5
36
100
AcDbEntity
  8
0
 62
     0
100
AcDbLine
 10
0.0
 20
0.0
 11
-0.965926
 21
-0.258819
  0
LINE
  5
37
100
AcDbEntity
  8
0
 62
     0
100
AcDbLine
 10
-0.965926
 20
0.258819
 11
-0.965926
 21
-0.258819
  0
LINE
  5
38
100
AcDbEntity
  8
0
 62
     0
100
AcDbLine
 10
0.0
 20
0.0
 11
-1.0
 21
0.0
  0
ENDBLK
  5
39
100
AcDbEntity
  8
0
100
AcDbBlockEnd
  0
BLOCK
  5
3B
100
AcDbEntity
  8
0
100
AcDbBlockBegin
  2
_ORIGIN
 70
     0
 10
0.0
 20
0.0
  0
CIRCLE
  5
3C
100
AcDbEntity
  8
0
 62
     0
100
AcDbCircle
 10
0.0
 20
0.0
 40
0.5
  0
LINE
  5
3D
100
AcDbEntity
  8
0
 62
     0
100
AcDbLine
 10
0.0
 20
0.0
 11
-1.0
 21
0.0
  0
ENDBLK
  5
3E
100
AcDbEntity
  8
0
100
AcDbBlockEnd
  0
BLOCK
  5
40
100
AcDbEntity
  8
0
100
AcDbBlockBegin
  2
_DOT
 70
     0
 10
0.0
 20
0.0
  0
POLYLINE
  5
41
100
AcDbEntity
  8
0
 62
     0
100
AcDb2dPolyline
 66
     1
 70
     1
 40
0.5
 41
0.5
  0
VERTEX
  5
42
100
AcDbEntity
  8
0
 62
     0
100
AcDbVertex
100
AcDb2dVertex
 10
-0.25
 20
0.0
 42
1.0
  0
VERTEX
  5
43
100
AcDbEntity
  8
0
 62
     0
100
AcDbVertex
100
AcDb2dVertex
 10
0.25
 20
0.0
 42
1.0
  0
SEQEND
  5
44
100
AcDbEntity
  8
0
 62
     0
  0
LINE
  5
45
100
AcDbEntity
  8
0
 62
     0
100
AcDbLine
 10
-0.5
 20
0.0
 11
-1.0
 21
0.0
  0
ENDBLK
  5
46
100
AcDbEntity
  8
0
100
AcDbBlockEnd
  0
BLOCK
  5
48
100
AcDbEntity
  8
0
100
AcDbBlockBegin
  2
_OBLIQUE
 70
     0
 10
0.0
 20
0.0
  0
LINE
  5
49
100
AcDbEntity
  8
0
 62
     0
100
AcDbLine
 10
-0.353553
 20
-0.353553
 11
0.353553
 21
0.353553
  0
ENDBLK
  5
4A
100
AcDbEntity
  8
0
100
AcDbBlockEnd
  0
BLOCK
  5
4C
100
AcDbEntity
  8
DD0
100
AcDbBlockBegin
  2
DIMS0
 70
     0
 10
0.0
 20
0.0
  0
LINE
  5
4D
100
AcDbEntity
  8
DD0
100
AcDbLine
 10
415.634683
 20
623.09928
 11
415.634683
 21
651.90978
  0
LINE
  5
4E
100
AcDbEntity
  8
DD0
100
AcDbLine
 10
292.235027
 20
577.599326
 11
292.235027
 21
651.90978
  0
LINE
  5
4F
100
AcDbEntity
  8
DD0
100
AcDbLine
 10
408.39024
 20
647.468637
 11
415.634683
 21
649.40978
  0
LINE
  5
50
100
AcDbEntity
  8
DD0
100
AcDbLine
 10
415.634683
 20
649.40978
 11
408.39024
 21
651.350923
  0
LINE
  5
51
100
AcDbEntity
  8
DD0
100
AcDbLine
 10
299.47947
 20
651.350923
 11
292.235027
 21
649.40978
  0
LINE
  5
52
100
AcDbEntity
  8
DD0
100
AcDbLine
 10
292.235027
 20
649.40978
 11
299.47947
 21
647.468637
  0
LINE
  5
53
100
AcDbEntity
  8
DD0
100
AcDbLine
 10
415.634683
 20
649.40978
 11
292.235027
 21
649.40978
  0
TEXT
  5
54
100
AcDbEntity
  8
DD0
100
AcDbText
 10
342.766093
 20
650.909796
 40
7.875
  1
１２３
 41
0.833333
  7
STANDARD
100
AcDbText
  0
ENDBLK
  5
55
100
AcDbEntity
  8
DD0
100
AcDbBlockEnd
  0
BLOCK
  5
58
100
AcDbEntity
  8
DD0
100
AcDbBlockBegin
  2
DIMS1
 70
     0
 10
0.0
 20
0.0
  0
LINE
  5
59
100
AcDbEntity
  8
DD0
100
AcDbLine
 10
106.665877
 20
572.099067
 11
106.665877
 21
651.072302
  0
LINE
  5
5A
100
AcDbEntity
  8
DD0
100
AcDbLine
 10
118.665865
 20
618.099394
 11
118.665865
 21
651.072302
  0
LINE
  5
5B
100
AcDbEntity
  8
DD0
100
AcDbLine
 10
99.421433
 20
646.631159
 11
106.665877
 21
648.572302
  0
LINE
  5
5C
100
AcDbEntity
  8
DD0
100
AcDbLine
 10
106.665877
 20
648.572302
 11
99.421433
 21
650.513445
  0
LINE
  5
5D
100
AcDbEntity
  8
DD0
100
AcDbLine
 10
125.910309
 20
650.513445
 11
118.665865
 21
648.572302
  0
LINE
  5
5E
100
AcDbEntity
  8
DD0
100
AcDbLine
 10
118.665865
 20
648.572302
 11
125.910309
 21
646.631159
  0
LINE
  5
5F
100
AcDbEntity
  8
DD0
100
AcDbLine
 10
64.415878
 20
648.572302
 11
126.915865
 21
648.572302
  0
TEXT
  5
60
100
AcDbEntity
  8
DD0
100
AcDbText
 10
66.434629
 20
650.072317
 40
7.875
  1
※　１２
 41
0.833333
  7
STANDARD
100
AcDbText
  0
ENDBLK
  5
61
100
AcDbEntity
  8
DD0
100
AcDbBlockEnd
  0
BLOCK
  5
64
100
AcDbEntity
  8
DD0
100
AcDbBlockBegin
  2
DIMS2
 70
     0
 10
0.0
 20
0.0
  0
LINE
  5
65
100
AcDbEntity
  8
DD0
 60
     1
100
AcDbLine
 10
415.634683
 20
623.09928
 11
415.634683
 21
634.879904
  0
LINE
  5
66
100
AcDbEntity
  8
DD0
100
AcDbLine
 10
414.034608
 20
623.09928
 11
414.034608
 21
634.879904
  0
LINE
  5
67
100
AcDbEntity
  8
DD0
100
AcDbLine
 10
422.879127
 20
634.321047
 11
415.634683
 21
632.379904
  0
LINE
  5
68
100
AcDbEntity
  8
DD0
100
AcDbLine
 10
415.634683
 20
632.379904
 11
422.879127
 21
630.438761
  0
LINE
  5
69
100
AcDbEntity
  8
DD0
100
AcDbLine
 10
406.790165
 20
630.438761
 11
414.034608
 21
632.379904
  0
LINE
  5
6A
100
AcDbEntity
  8
DD0
100
AcDbLine
 10
414.034608
 20
632.379904
 11
406.790165
 21
634.321047
  0
LINE
  5
6B
100
AcDbEntity
  8
DD0
100
AcDbLine
 10
457.884682
 20
632.379904
 11
405.784609
 21
632.379904
  0
TEXT
  5
6C
100
AcDbEntity
  8
DD0
100
AcDbText
 10
424.528444
 20
633.879919
 40
7.875
  1
ｔ１．６
 41
0.833333
  7
STANDARD
100
AcDbText
  0
ENDBLK
  5
6D
100
AcDbEntity
  8
DD0
100
AcDbBlockEnd
  0
BLOCK
  5
70
100
AcDbEntity
  8
DD0
100
AcDbBlockBegin
  2
DIMS3
 70
     0
 10
0.0
 20
0.0
  0
LINE
  5
71
100
AcDbEntity
  8
DD0
100
AcDbLine
 10
212.165753
 20
620.599165
 11
246.751362
 21
620.599165
  0
LINE
  5
72
100
AcDbEntity
  8
DD0
100
AcDbLine
 10
212.165753
 20
405.599435
 11
246.751362
 21
405.599435
  0
LINE
  5
73
100
AcDbEntity
  8
DD0
100
AcDbLine
 10
246.192505
 20
613.354722
 11
244.251362
 21
620.599165
  0
LINE
  5
74
100
AcDbEntity
  8
DD0
100
AcDbLine
 10
244.251362
 20
620.599165
 11
242.310219
 21
613.354722
  0
LINE
  5
75
100
AcDbEntity
  8
DD0
100
AcDbLine
 10
242.310219
 20
412.843879
 11
244.251362
 21
405.599435
  0
LINE
  5
76
100
AcDbEntity
  8
DD0
100
AcDbLine
 10
244.251362
 20
405.599435
 11
246.192505
 21
412.843879
  0
LINE
  5
77
100
AcDbEntity
  8
DD0
100
AcDbLine
 10
244.251362
 20
620.599165
 11
244.251362
 21
405.599435
  0
TEXT
  5
78
100
AcDbEntity
  8
DD0
100
AcDbText
 10
242.751366
 20
501.930519
 40
7.875
  1
２１５
 50
90.000003
 41
0.833333
  7
STANDARD
100
AcDbText
  0
ENDBLK
  5
79
100
AcDbEntity
  8
DD0
100
AcDbBlockEnd
  0
BLOCK
  5
7C
100
AcDbEntity
  8
DD0
100
AcDbBlockBegin
  2
DIMS4
 70
     0
 10
0.0
 20
0.0
  0
LINE
  5
7D
100
AcDbEntity
  8
DD0
100
AcDbLine
 10
214.665753
 20
618.099394
 11
214.665753
 21
651.072302
  0
LINE
  5
7E
100
AcDbEntity
  8
DD0
100
AcDbLine
 10
221.665799
 20
479.097855
 11
221.665799
 21
651.072302
  0
LINE
  5
7F
100
AcDbEntity
  8
DD0
100
AcDbLine
 10
207.421309
 20
646.631159
 11
214.665753
 21
648.572302
  0
LINE
  5
80
100
AcDbEntity
  8
DD0
100
AcDbLine
 10
214.665753
 20
648.572302
 11
207.421309
 21
650.513445
  0
LINE
  5
81
100
AcDbEntity
  8
DD0
100
AcDbLine
 10
228.910242
 20
650.513445
 11
221.665799
 21
648.572302
  0
LINE
  5
82
100
AcDbEntity
  8
DD0
100
AcDbLine
 10
221.665799
 20
648.572302
 11
228.910242
 21
646.631159
  0
LINE
  5
83
100
AcDbEntity
  8
DD0
100
AcDbLine
 10
206.415753
 20
648.572302
 11
229.915798
 21
648.572302
  0
TEXT
  5
84
100
AcDbEntity
  8
DD0
100
AcDbText
 10
214.872037
 20
650.072317
 40
7.875
  1
７
 41
0.833333
  7
STANDARD
100
AcDbText
  0
ENDBLK
  5
85
100
AcDbEntity
  8
DD0
100
AcDbBlockEnd
  0
BLOCK
  5
88
100
AcDbEntity
  8
DD0
100
AcDbBlockBegin
  2
DIMS5
 70
     0
 10
0.0
 20
0.0
  0
LINE
  5
89
100
AcDbEntity
  8
DD0
100
AcDbLine
 10
118.665865
 20
618.099394
 11
118.665865
 21
651.072302
  0
LINE
  5
8A
100
AcDbEntity
  8
DD0
100
AcDbLine
 10
214.665753
 20
618.099394
 11
214.665753
 21
651.072302
  0
LINE
  5
8B
100
AcDbEntity
  8
DD0
100
AcDbLine
 10
125.910309
 20
650.513445
 11
118.665865
 21
648.572302
  0
LINE
  5
8C
100
AcDbEntity
  8
DD0
100
AcDbLine
 10
118.665865
 20
648.572302
 11
125.910309
 21
646.631159
  0
LINE
  5
8D
100
AcDbEntity
  8
DD0
100
AcDbLine
 10
207.421309
 20
646.631159
 11
214.665753
 21
648.572302
  0
LINE
  5
8E
100
AcDbEntity
  8
DD0
100
AcDbLine
 10
214.665753
 20
648.572302
 11
207.421309
 21
650.513445
  0
LINE
  5
8F
100
AcDbEntity
  8
DD0
100
AcDbLine
 10
118.665865
 20
648.572302
 11
214.665753
 21
648.572302
  0
TEXT
  5
90
100
AcDbEntity
  8
DD0
100
AcDbText
 10
159.434549
 20
650.072317
 40
7.875
  1
９６
 41
0.833333
  7
STANDARD
100
AcDbText
  0
ENDBLK
  5
91
100
AcDbEntity
  8
DD0
100
AcDbBlockEnd
  0
BLOCK
  5
94
100
AcDbEntity
  8
DD0
100
AcDbBlockBegin
  2
DIMS6
 70
     0
 10
0.0
 20
0.0
  0
LINE
  5
95
100
AcDbEntity
  8
DD0
100
AcDbLine
 10
217.166001
 20
357.687945
 11
247.588898
 21
357.687945
  0
LINE
  5
96
100
AcDbEntity
  8
DD0
100
AcDbLine
 10
196.665837
 20
350.187945
 11
247.588898
 21
350.187945
  0
LINE
  5
97
100
AcDbEntity
  8
DD0
100
AcDbLine
 10
243.147755
 20
364.932388
 11
245.088898
 21
357.687945
  0
LINE
  5
98
100
AcDbEntity
  8
DD0
100
AcDbLine
 10
245.088898
 20
357.687945
 11
247.030041
 21
364.932388
  0
LINE
  5
99
100
AcDbEntity
  8
DD0
100
AcDbLine
 10
247.030041
 20
342.943501
 11
245.088898
 21
350.187945
  0
LINE
  5
9A
100
AcDbEntity
  8
DD0
100
AcDbLine
 10
245.088898
 20
350.187945
 11
243.147755
 21
342.943501
  0
LINE
  5
9B
100
AcDbEntity
  8
DD0
100
AcDbLine
 10
245.088898
 20
392.062947
 11
245.088898
 21
341.937945
  0
TEXT
  5
9C
100
AcDbEntity
  8
DD0
100
AcDbText
 10
243.588902
 20
366.581705
 40
7.875
  1
７．５
 50
90.000003
 41
0.833333
  7
STANDARD
100
AcDbText
  0
ENDBLK
  5
9D
100
AcDbEntity
  8
DD0
100
AcDbBlockEnd
  0
BLOCK
  5
A0
100
AcDbEntity
  8
DD0
100
AcDbBlockBegin
  2
DIMS7
 70
     0
 10
0.0
 20
0.0
  0
LINE
  5
A1
100
AcDbEntity
  8
DD0
 60
     1
100
AcDbLine
 10
196.665837
 20
350.187945
 11
247.589012
 21
350.187945
  0
LINE
  5
A2
100
AcDbEntity
  8
DD0
100
AcDbLine
 10
231.665837
 20
150.187948
 11
247.589012
 21
150.187948
  0
LINE
  5
A3
100
AcDbEntity
  8
DD0
100
AcDbLine
 10
247.030155
 20
342.943501
 11
245.089012
 21
350.187945
  0
LINE
  5
A4
100
AcDbEntity
  8
DD0
100
AcDbLine
 10
245.089012
 20
350.187945
 11
243.147869
 21
342.943501
  0
LINE
  5
A5
100
AcDbEntity
  8
DD0
100
AcDbLine
 10
243.147869
 20
157.432391
 11
245.089012
 21
150.187948
  0
LINE
  5
A6
100
AcDbEntity
  8
DD0
100
AcDbLine
 10
245.089012
 20
150.187948
 11
247.030155
 21
157.432391
  0
LINE
  5
A7
100
AcDbEntity
  8
DD0
100
AcDbLine
 10
245.089012
 20
350.187945
 11
245.089012
 21
150.187948
  0
TEXT
  5
A8
100
AcDbEntity
  8
DD0
100
AcDbText
 10
243.589016
 20
239.019203
 40
7.875
  1
２００
 50
90.000003
 41
0.833333
  7
STANDARD
100
AcDbText
  0
ENDBLK
  5
A9
100
AcDbEntity
  8
DD0
100
AcDbBlockEnd
  0
BLOCK
  5
AC
100
AcDbEntity
  8
DD0
100
AcDbBlockBegin
  2
DIMS8
 70
     0
 10
0.0
 20
0.0
  0
TEXT
  5
AD
100
AcDbEntity
  8
DD0
100
AcDbText
 10
55.917323
 20
177.658097
 40
7.875
  1
３－Ｍ５ねじ穴
 41
0.833333
  7
STANDARD
100
AcDbText
  0
LINE
  5
AE
100
AcDbEntity
  8
DD0
100
AcDbLine
 10
124.136597
 20
156.759547
 11
129.886301
 21
151.943853
  0
LINE
  5
AF
100
AcDbEntity
  8
DD0
100
AcDbLine
 10
129.886301
 20
151.943853
 11
127.314759
 21
158.989218
  0
LINE
  5
B0
100
AcDbEntity
  8
DD0
100
AcDbLine
 10
129.886301
 20
151.943853
 11
112.898577
 21
176.158063
  0
LINE
  5
B1
100
AcDbEntity
  8
DD0
100
AcDbLine
 10
112.898577
 20
176.158063
 11
52.773575
 21
176.158101
  0
ENDBLK
  5
B2
100
AcDbEntity
  8
DD0
100
AcDbBlockEnd
  0
BLOCK
  5
B5
100
AcDbEntity
  8
DD0
100
AcDbBlockBegin
  2
DIMS9
 70
     0
 10
0.0
 20
0.0
  0
LINE
  5
B6
100
AcDbEntity
  8
DD0
100
AcDbLine
 10
131.665857
 20
120.187967
 11
131.665857
 21
101.366099
  0
LINE
  5
B7
100
AcDbEntity
  8
DD0
100
AcDbLine
 10
201.665837
 20
120.187967
 11
201.665837
 21
101.366099
  0
LINE
  5
B8
100
AcDbEntity
  8
DD0
100
AcDbLine
 10
138.910301
 20
105.807242
 11
131.665857
 21
103.866099
  0
LINE
  5
B9
100
AcDbEntity
  8
DD0
100
AcDbLine
 10
131.665857
 20
103.866099
 11
138.910301
 21
101.924956
  0
LINE
  5
BA
100
AcDbEntity
  8
DD0
100
AcDbLine
 10
194.421394
 20
101.924956
 11
201.665837
 21
103.866099
  0
LINE
  5
BB
100
AcDbEntity
  8
DD0
100
AcDbLine
 10
201.665837
 20
103.866099
 11
194.421394
 21
105.807242
  0
LINE
  5
BC
100
AcDbEntity
  8
DD0
100
AcDbLine
 10
131.665857
 20
103.866099
 11
201.665837
 21
103.866099
  0
TEXT
  5
BD
100
AcDbEntity
  8
DD0
100
AcDbText
 10
159.434587
 20
105.366095
 40
7.875
  1
７０
 41
0.833333
  7
STANDARD
100
AcDbText
  0
ENDBLK
  5
BE
100
AcDbEntity
  8
DD0
100
AcDbBlockEnd
  0
ENDSEC
  0
SECTION
  2
ENTITIES
  0
INSERT
  5
56
100
AcDbEntity
  8
DD0
100
AcDbBlockReference
  2
DIMS0
 10
0.0
 20
0.0
  0
INSERT
  5
62
100
AcDbEntity
  8
DD0
100
AcDbBlockReference
  2
DIMS1
 10
0.0
 20
0.0
  0
INSERT
  5
6E
100
AcDbEntity
  8
DD0
100
AcDbBlockReference
  2
DIMS2
 10
0.0
 20
0.0
  0
INSERT
  5
7A
100
AcDbEntity
  8
DD0
100
AcDbBlockReference
  2
DIMS3
 10
0.0
 20
0.0
  0
INSERT
  5
86
100
AcDbEntity
  8
DD0
100
AcDbBlockReference
  2
DIMS4
 10
0.0
 20
0.0
  0
INSERT
  5
92
100
AcDbEntity
  8
DD0
100
AcDbBlockReference
  2
DIMS5
 10
0.0
 20
0.0
  0
INSERT
  5
9E
100
AcDbEntity
  8
DD0
100
AcDbBlockReference
  2
DIMS6
 10
0.0
 20
0.0
  0
INSERT
  5
AA
100
AcDbEntity
  8
DD0
100
AcDbBlockReference
  2
DIMS7
 10
0.0
 20
0.0
  0
INSERT
  5
B3
100
AcDbEntity
  8
DD0
100
AcDbBlockReference
  2
DIMS8
 10
0.0
 20
0.0
  0
INSERT
  5
BF
100
AcDbEntity
  8
DD0
100
AcDbBlockReference
  2
DIMS9
 10
0.0
 20
0.0
  0
LINE
  5
C0
100
AcDbEntity
  8
M0
 62
     7
100
AcDbLine
 10
292.735033
 20
575.599312
 11
306.934984
 21
575.599312
  0
LINE
  5
C1
100
AcDbEntity
  8
M0
 62
     7
100
AcDbLine
 10
292.735033
 20
548.799508
 11
303.035081
 21
548.799508
  0
LINE
  5
C2
100
AcDbEntity
  8
M0
 62
     7
100
AcDbLine
 10
292.735033
 20
510.599556
 11
306.934984
 21
510.599556
  0
LINE
  5
C3
100
AcDbEntity
  8
M0
 62
     7
100
AcDbLine
 10
292.735033
 20
537.399605
 11
303.035081
 21
537.399605
  0
LINE
  5
C4
100
AcDbEntity
  8
M0
 62
     7
100
AcDbLine
 10
306.934984
 20
575.599312
 11
306.934984
 21
561.099312
  0
LINE
  5
C5
100
AcDbEntity
  8
M0
 62
     7
100
AcDbLine
 10
292.235033
 20
575.099312
 11
292.235033
 21
546.099801
  0
ARC
  5
C6
100
AcDbEntity
  8
M0
 62
     7
100
AcDbCircle
 10
292.735033
 20
575.099312
 40
0.5
100
AcDbArc
 50
90.0
 51
180.0
  0
ARC
  5
C7
100
AcDbEntity
  8
M0
 62
     7
100
AcDbCircle
 10
292.735033
 20
511.099556
 40
0.5
100
AcDbArc
 50
180.0
 51
269.998251
  0
ARC
  5
C8
100
AcDbEntity
  8
M0
 62
     7
100
AcDbCircle
 10
292.735033
 20
537.899605
 40
0.5
100
AcDbArc
 50
180.0
 51
269.998251
  0
ARC
  5
C9
100
AcDbEntity
  8
M0
 62
     7
100
AcDbCircle
 10
292.735033
 20
548.299752
 40
0.5
100
AcDbArc
 50
90.0
 51
180.0
  0
LINE
  5
CA
100
AcDbEntity
  8
M0
 62
     7
100
AcDbLine
 10
306.934984
 20
577.099312
 11
306.968431
 21
577.099312
  0
LINE
  5
CB
100
AcDbEntity
  8
M0
 62
     7
100
AcDbLine
 10
304.934984
 20
575.599312
 11
306.934984
 21
577.099312
  0
LINE
  5
CC
100
AcDbEntity
  8
M0
 62
     7
100
AcDbLine
 10
306.934984
 20
509.099556
 11
306.968431
 21
509.099556
  0
LINE
  5
CD
100
AcDbEntity
  8
M0
 62
     7
100
AcDbLine
 10
304.934984
 20
510.599556
 11
306.934984
 21
509.099556
  0
LINE
  5
CE
100
AcDbEntity
  8
M0
 62
     7
100
AcDbLine
 10
306.934984
 20
525.100045
 11
306.934984
 21
510.599556
  0
LINE
  5
CF
100
AcDbEntity
  8
M0
 62
     6
100
AcDbLine
 10
367.434984
 20
565.849556
 11
371.934984
 21
565.849556
  0
LINE
  5
D0
100
AcDbEntity
  8
M0
 62
     6
100
AcDbLine
 10
367.434984
 20
560.849556
 11
371.934984
 21
560.849556
  0
ARC
  5
D1
100
AcDbEntity
  8
M0
 62
     6
100
AcDbCircle
 10
367.434984
 20
563.349556
 40
2.499996
100
AcDbArc
 50
90.0
 51
180.0
  0
LINE
  5
D2
100
AcDbEntity
  8
M0
 62
     6
100
AcDbLine
 10
367.43474
 20
520.349801
 11
371.93474
 21
520.349801
  0
ARC
  5
D3
100
AcDbEntity
  8
M0
 62
     6
100
AcDbCircle
 10
367.43474
 20
522.849801
 40
2.499996
100
AcDbArc
 50
180.0
 51
269.99965
  0
LINE
  5
D4
100
AcDbEntity
  8
M0
 62
     6
100
AcDbLine
 10
367.43474
 20
525.349801
 11
371.93474
 21
525.349801
  0
LINE
  5
D5
100
AcDbEntity
  8
M0
 62
     6
100
AcDbLine
 10
326.934984
 20
596.099312
 11
343.691331
 21
596.099312
  0
LINE
  5
D6
100
AcDbEntity
  8
M0
 62
     6
100
AcDbLine
 10
321.934984
 20
591.09858
 11
371.934984
 21
591.09858
  0
LINE
  5
D7
100
AcDbEntity
  8
M0
 62
     6
100
AcDbLine
 10
353.434984
 20
572.599312
 11
357.727464
 21
572.599312
  0
LINE
  5
D8
100
AcDbEntity
  8
M0
 62
     6
100
AcDbLine
 10
336.773607
 20
569.599312
 11
352.934984
 21
569.599312
  0
LINE
  5
D9
100
AcDbEntity
  8
M0
 62
     6
100
AcDbLine
 10
304.034837
 20
561.099312
 11
326.734788
 21
561.099312
  0
LINE
  5
DA
100
AcDbEntity
  8
M0
 62
     6
100
AcDbLine
 10
303.034837
 20
546.849556
 11
305.434984
 21
546.849556
  0
LINE
  5
DB
100
AcDbEntity
  8
M0
 62
     6
100
AcDbLine
 10
371.934984
 20
495.100777
 11
371.934984
 21
520.850045
  0
LINE
  5
DC
100
AcDbEntity
  8
M0
 62
     6
100
AcDbLine
 10
345.812669
 20
595.220406
 11
349.93474
 21
591.098336
  0
LINE
  5
DD
100
AcDbEntity
  8
M0
 62
     6
100
AcDbLine
 10
306.934984
 20
576.098336
 11
306.934984
 21
561.099312
  0
ARC
  5
DE
100
AcDbEntity
  8
M0
 62
     6
100
AcDbCircle
 10
326.934984
 20
576.099312
 40
19.999939
100
AcDbArc
 50
90.0
 51
177.134707
  0
ARC
  5
DF
100
AcDbEntity
  8
M0
 62
     6
100
AcDbCircle
 10
321.934984
 20
576.09858
 40
14.999996
100
AcDbArc
 50
90.0
 51
180.0
  0
LINE
  5
E0
100
AcDbEntity
  8
M0
 62
     6
100
AcDbLine
 10
352.934984
 20
572.099312
 11
352.934984
 21
569.599312
  0
LINE
  5
E1
100
AcDbEntity
  8
M0
 62
     6
100
AcDbLine
 10
358.081224
 20
572.452828
 11
360.934984
 21
569.599312
  0
LINE
  5
E2
100
AcDbEntity
  8
M0
 62
     6
100
AcDbLine
 10
335.788988
 20
568.772896
 11
334.580736
 21
561.925484
  0
LINE
  5
E3
100
AcDbEntity
  8
M0
 62
     6
100
AcDbLine
 10
360.934984
 20
569.599312
 11
371.934984
 21
569.599312
  0
LINE
  5
E4
100
AcDbEntity
  8
M0
 62
     6
100
AcDbLine
 10
322.834886
 20
560.599312
 11
322.834886
 21
558.599556
  0
LINE
  5
E5
100
AcDbEntity
  8
M0
 62
     6
100
AcDbLine
 10
326.734788
 20
560.599312
 11
326.734788
 21
558.599556
  0
LINE
  5
E6
100
AcDbEntity
  8
M0
 62
     6
100
AcDbLine
 10
323.334886
 20
558.099556
 11
326.234788
 21
558.099556
  0
LINE
  5
E7
100
AcDbEntity
  8
M0
 62
     6
100
AcDbLine
 10
326.734788
 20
561.099312
 11
333.595872
 21
561.099312
  0
LINE
  5
E8
100
AcDbEntity
  8
M0
 62
     6
100
AcDbLine
 10
303.034837
 20
560.099312
 11
303.034837
 21
546.849556
  0
ARC
  5
E9
100
AcDbEntity
  8
M0
 62
     6
100
AcDbCircle
 10
304.034837
 20
560.099312
 40
1.0
100
AcDbArc
 50
90.0
 51
180.0
  0
LINE
  5
EA
100
AcDbEntity
  8
M0
 62
     6
100
AcDbLine
 10
303.534837
 20
546.849556
 11
303.534837
 21
540.099801
  0
LINE
  5
EB
100
AcDbEntity
  8
M0
 62
     6
100
AcDbLine
 10
305.434984
 20
546.849556
 11
305.434984
 21
540.099801
  0
LINE
  5
EC
100
AcDbEntity
  8
M0
 62
     6
100
AcDbLine
 10
326.934984
 20
490.100045
 11
336.635911
 21
490.100045
  0
LINE
  5
ED
100
AcDbEntity
  8
M0
 62
     6
100
AcDbLine
 10
321.934984
 20
495.100777
 11
371.934984
 21
495.100777
  0
LINE
  5
EE
100
AcDbEntity
  8
M0
 62
     6
100
AcDbLine
 10
353.434984
 20
513.600045
 11
357.727708
 21
513.600045
  0
LINE
  5
EF
100
AcDbEntity
  8
M0
 62
     6
100
AcDbLine
 10
336.773607
 20
516.600045
 11
352.934984
 21
516.600045
  0
LINE
  5
F0
100
AcDbEntity
  8
M0
 62
     6
100
AcDbLine
 10
304.034837
 20
525.100045
 11
326.734544
 21
525.100045
  0
LINE
  5
F1
100
AcDbEntity
  8
M0
 62
     6
100
AcDbLine
 10
303.034837
 20
539.350045
 11
305.434984
 21
539.350045
  0
LINE
  5
F2
100
AcDbEntity
  8
M0
 62
     6
100
AcDbLine
 10
345.812425
 20
490.978707
 11
349.93474
 21
495.100777
  0
LINE
  5
F3
100
AcDbEntity
  8
M0
 62
     6
100
AcDbLine
 10
306.934984
 20
510.100777
 11
306.934984
 21
525.100045
  0
ARC
  5
F4
100
AcDbEntity
  8
M0
 62
     6
100
AcDbCircle
 10
326.934984
 20
510.100045
 40
19.999939
100
AcDbArc
 50
182.867391
 51
269.999913
  0
ARC
  5
F5
100
AcDbEntity
  8
M0
 62
     6
100
AcDbCircle
 10
321.934984
 20
510.100777
 40
14.999996
100
AcDbArc
 50
180.0
 51
269.999942
  0
LINE
  5
F6
100
AcDbEntity
  8
M0
 62
     6
100
AcDbLine
 10
352.934984
 20
514.100045
 11
352.934984
 21
516.600045
  0
LINE
  5
F7
100
AcDbEntity
  8
M0
 62
     6
100
AcDbLine
 10
358.081224
 20
513.746529
 11
360.934984
 21
516.600045
  0
LINE
  5
F8
100
AcDbEntity
  8
M0
 62
     6
100
AcDbLine
 10
335.788988
 20
517.426461
 11
334.580736
 21
524.273873
  0
LINE
  5
F9
100
AcDbEntity
  8
M0
 62
     6
100
AcDbLine
 10
360.934984
 20
516.600045
 11
371.934984
 21
516.600045
  0
LINE
  5
FA
100
AcDbEntity
  8
M0
 62
     6
100
AcDbLine
 10
326.734788
 20
525.100045
 11
333.595872
 21
525.100045
  0
LINE
  5
FB
100
AcDbEntity
  8
M0
 62
     6
100
AcDbLine
 10
303.034837
 20
526.100045
 11
303.034837
 21
539.350045
  0
ARC
  5
FC
100
AcDbEntity
  8
M0
 62
     6
100
AcDbCircle
 10
304.034837
 20
526.100045
 40
1.0
100
AcDbArc
 50
180.0
 51
269.999126
  0
LINE
  5
FD
100
AcDbEntity
  8
M0
 62
     6
100
AcDbLine
 10
369.934984
 20
550.099556
 11
369.934984
 21
550.099312
  0
ARC
  5
FE
100
AcDbEntity
  8
M0
 62
     6
100
AcDbCircle
 10
367.434984
 20
563.349556
 40
2.499996
100
AcDbArc
 50
180.0
 51
269.99965
  0
ARC
  5
FF
100
AcDbEntity
  8
M0
 62
     6
100
AcDbCircle
 10
367.43474
 20
522.849801
 40
2.499996
100
AcDbArc
 50
90.0
 51
180.0
  0
LINE
  5
100
100
AcDbEntity
  8
M0
 62
     6
100
AcDbLine
 10
365.934984
 20
591.09858
 11
365.934984
 21
569.599312
  0
LINE
  5
101
100
AcDbEntity
  8
M0
 62
     6
100
AcDbLine
 10
354.934984
 20
513.600045
 11
354.934984
 21
495.100777
  0
LINE
  5
102
100
AcDbEntity
  8
M0
 62
     6
100
AcDbLine
 10
371.93474
 20
550.099556
 11
360.93474
 21
550.099556
  0
LINE
  5
103
100
AcDbEntity
  8
M0
 62
     6
100
AcDbLine
 10
358.93474
 20
548.099068
 11
358.93474
 21
545.099801
  0
ARC
  5
104
100
AcDbEntity
  8
M0
 62
     6
100
AcDbCircle
 10
360.93474
 20
548.099312
 40
1.999996
100
AcDbArc
 50
90.0
 51
180.006994
  0
LINE
  5
105
100
AcDbEntity
  8
M0
 62
     6
100
AcDbLine
 10
369.934984
 20
536.100045
 11
369.934984
 21
536.100289
  0
LINE
  5
106
100
AcDbEntity
  8
M0
 62
     6
100
AcDbLine
 10
371.93474
 20
536.100045
 11
360.93474
 21
536.100045
  0
LINE
  5
107
100
AcDbEntity
  8
M0
 62
     6
100
AcDbLine
 10
358.93474
 20
538.100533
 11
358.93474
 21
541.099801
  0
ARC
  5
108
100
AcDbEntity
  8
M0
 62
     6
100
AcDbCircle
 10
360.93474
 20
538.100289
 40
1.999996
100
AcDbArc
 50
180.0
 51
269.999563
  0
ARC
  5
109
100
AcDbEntity
  8
M0
 62
     6
100
AcDbCircle
 10
336.773607
 20
568.599312
 40
1.0
100
AcDbArc
 50
90.0
 51
170.003719
  0
ARC
  5
10A
100
AcDbEntity
  8
M0
 62
     6
100
AcDbCircle
 10
336.773607
 20
517.600045
 40
1.0
100
AcDbArc
 50
190.010056
 51
269.999126
  0
ARC
  5
10B
100
AcDbEntity
  8
M0
 62
     6
100
AcDbCircle
 10
343.691331
 20
593.099312
 40
2.999996
100
AcDbArc
 50
44.997115
 51
90.0
  0
ARC
  5
10C
100
AcDbEntity
  8
M0
 62
     6
100
AcDbCircle
 10
343.691331
 20
493.100045
 40
2.999996
100
AcDbArc
 50
269.999709
 51
314.994642
  0
ARC
  5
10D
100
AcDbEntity
  8
M0
 62
     6
100
AcDbCircle
 10
333.595872
 20
562.099312
 40
1.0
100
AcDbArc
 50
269.999126
 51
349.989488
  0
ARC
  5
10E
100
AcDbEntity
  8
M0
 62
     6
100
AcDbCircle
 10
333.595872
 20
524.100045
 40
1.0
100
AcDbArc
 50
9.996736
 51
90.0
  0
ARC
  5
10F
100
AcDbEntity
  8
M0
 62
     6
100
AcDbCircle
 10
322.334886
 20
560.599312
 40
0.5
100
AcDbArc
 50
0.0
 51
90.0
  0
ARC
  5
110
100
AcDbEntity
  8
M0
 62
     6
100
AcDbCircle
 10
323.334886
 20
558.599556
 40
0.5
100
AcDbArc
 50
180.0
 51
269.998251
  0
ARC
  5
111
100
AcDbEntity
  8
M0
 62
     6
100
AcDbCircle
 10
326.234788
 20
558.599556
 40
0.5
100
AcDbArc
 50
269.998251
 51
360.0
  0
ARC
  5
112
100
AcDbEntity
  8
M0
 62
     6
100
AcDbCircle
 10
327.234788
 20
560.599312
 40
0.5
100
AcDbArc
 50
90.0
 51
180.0
  0
ARC
  5
113
100
AcDbEntity
  8
M0
 62
     6
100
AcDbCircle
 10
322.334642
 20
525.600045
 40
0.5
100
AcDbArc
 50
-90.001749
 51
0.0
  0
LINE
  5
114
100
AcDbEntity
  8
M0
 62
     6
100
AcDbLine
 10
322.834642
 20
525.600045
 11
322.834642
 21
527.599801
  0
LINE
  5
115
100
AcDbEntity
  8
M0
 62
     6
100
AcDbLine
 10
323.334642
 20
528.099801
 11
326.234544
 21
528.099801
  0
ARC
  5
116
100
AcDbEntity
  8
M0
 62
     6
100
AcDbCircle
 10
323.334642
 20
527.599801
 40
0.5
100
AcDbArc
 50
90.0
 51
180.0
  0
ARC
  5
117
100
AcDbEntity
  8
M0
 62
     6
100
AcDbCircle
 10
326.234544
 20
527.599801
 40
0.5
100
AcDbArc
 50
0.0
 51
90.0
  0
LINE
  5
118
100
AcDbEntity
  8
M0
 62
     6
100
AcDbLine
 10
326.734544
 20
525.600045
 11
326.734544
 21
527.599801
  0
ARC
  5
119
100
AcDbEntity
  8
M0
 62
     6
100
AcDbCircle
 10
327.234544
 20
525.600045
 40
0.5
100
AcDbArc
 50
180.0
 51
269.998251
  0
LINE
  5
11A
100
AcDbEntity
  8
M0
 62
     6
100
AcDbLine
 10
371.934984
 20
550.099312
 11
371.934984
 21
561.349556
  0
ARC
  5
11B
100
AcDbEntity
  8
M0
 62
     6
100
AcDbCircle
 10
353.434984
 20
514.100045
 40
0.5
100
AcDbArc
 50
180.0
 51
269.998251
  0
ARC
  5
11C
100
AcDbEntity
  8
M0
 62
     6
100
AcDbCircle
 10
357.727708
 20
514.100045
 40
0.5
100
AcDbArc
 50
269.998251
 51
314.982695
  0
ARC
  5
11D
100
AcDbEntity
  8
M0
 62
     6
100
AcDbCircle
 10
357.727464
 20
572.099312
 40
0.5
100
AcDbArc
 50
44.967846
 51
90.0
  0
ARC
  5
11E
100
AcDbEntity
  8
M0
 62
     6
100
AcDbCircle
 10
353.434984
 20
572.099312
 40
0.5
100
AcDbArc
 50
90.0
 51
180.0
  0
LINE
  5
11F
100
AcDbEntity
  8
M0
 62
     6
100
AcDbLine
 10
344.434984
 20
516.600045
 11
344.434984
 21
496.100777
  0
LINE
  5
120
100
AcDbEntity
  8
M0
 62
     6
100
AcDbLine
 10
340.684984
 20
516.600045
 11
340.684984
 21
496.100777
  0
ARC
  5
121
100
AcDbEntity
  8
M0
 62
     6
100
AcDbCircle
 10
339.684984
 20
496.100777
 40
1.0
100
AcDbArc
 50
269.999126
 51
360.0
  0
ARC
  5
122
100
AcDbEntity
  8
M0
 62
     6
100
AcDbCircle
 10
345.434984
 20
496.100777
 40
1.0
100
AcDbArc
 50
180.0
 51
269.999126
  0
LINE
  5
123
100
AcDbEntity
  8
M0
 62
     6
100
AcDbLine
 10
340.684984
 20
569.599068
 11
340.684984
 21
590.098336
  0
LINE
  5
124
100
AcDbEntity
  8
M0
 62
     6
100
AcDbLine
 10
344.434984
 20
569.599068
 11
344.434984
 21
590.098336
  0
ARC
  5
125
100
AcDbEntity
  8
M0
 62
     6
100
AcDbCircle
 10
339.684984
 20
590.098336
 40
1.0
100
AcDbArc
 50
0.0
 51
90.0
  0
ARC
  5
126
100
AcDbEntity
  8
M0
 62
     6
100
AcDbCircle
 10
345.434984
 20
590.098336
 40
1.0
100
AcDbArc
 50
90.0
 51
180.0
  0
LINE
  5
127
100
AcDbEntity
  8
M0
 62
     6
100
AcDbLine
 10
371.934984
 20
565.349556
 11
371.934984
 21
591.09858
  0
LINE
  5
128
100
AcDbEntity
  8
M0
 62
     6
100
AcDbLine
 10
371.934984
 20
524.850045
 11
371.934984
 21
536.099801
  0
LINE
  5
129
100
AcDbEntity
  8
M0
 62
     6
100
AcDbLine
 10
338.934007
 20
490.100045
 11
343.691331
 21
490.100045
  0
LINE
  5
12A
100
AcDbEntity
  8
M0
 62
     5
100
AcDbLine
 10
395.535066
 20
515.600045
 11
409.535066
 21
515.600045
  0
LINE
  5
12B
100
AcDbEntity
  8
M0
 62
     5
100
AcDbLine
 10
372.035081
 20
516.600045
 11
394.535066
 21
516.600045
  0
LINE
  5
12C
100
AcDbEntity
  8
M0
 62
     5
100
AcDbLine
 10
371.935228
 20
495.100045
 11
409.535066
 21
495.100045
  0
LINE
  5
12D
100
AcDbEntity
  8
M0
 62
     5
100
AcDbLine
 10
409.535066
 20
591.099312
 11
371.935228
 21
591.099556
  0
LINE
  5
12E
100
AcDbEntity
  8
M0
 62
     5
100
AcDbLine
 10
372.035081
 20
579.099556
 11
372.035081
 21
565.349801
  0
LINE
  5
12F
100
AcDbEntity
  8
M0
 62
     5
100
AcDbLine
 10
395.535066
 20
515.600045
 11
395.535066
 21
495.100045
  0
ARC
  5
130
100
AcDbEntity
  8
M0
 62
     5
100
AcDbCircle
 10
394.535066
 20
515.600045
 40
1.0
100
AcDbArc
 50
0.0
 51
90.0
  0
LINE
  5
131
100
AcDbEntity
  8
M0
 62
     5
100
AcDbLine
 10
372.035081
 20
537.100045
 11
372.035081
 21
524.850045
  0
LINE
  5
132
100
AcDbEntity
  8
M0
 62
     5
100
AcDbLine
 10
374.035081
 20
581.099556
 11
391.535066
 21
581.099556
  0
ARC
  5
133
100
AcDbEntity
  8
M0
 62
     5
100
AcDbCircle
 10
374.035081
 20
579.099556
 40
1.999996
100
AcDbArc
 50
90.0
 51
180.0
  0
LINE
  5
134
100
AcDbEntity
  8
M0
 62
     5
100
AcDbLine
 10
395.535066
 20
570.099801
 11
409.535066
 21
570.099801
  0
LINE
  5
135
100
AcDbEntity
  8
M0
 62
     5
100
AcDbLine
 10
393.535066
 20
579.099556
 11
393.535066
 21
572.099801
  0
ARC
  5
136
100
AcDbEntity
  8
M0
 62
     5
100
AcDbCircle
 10
391.535066
 20
579.099556
 40
1.999996
100
AcDbArc
 50
0.0
 51
90.0
  0
ARC
  5
137
100
AcDbEntity
  8
M0
 62
     5
100
AcDbCircle
 10
395.535066
 20
572.099801
 40
1.999996
100
AcDbArc
 50
180.0
 51
269.993006
  0
LINE
  5
138
100
AcDbEntity
  8
M0
 62
     5
100
AcDbLine
 10
369.935228
 20
521.850045
 11
369.935228
 21
523.850045
  0
LINE
  5
139
100
AcDbEntity
  8
M0
 62
     5
100
AcDbLine
 10
370.935228
 20
524.850045
 11
372.035081
 21
524.850045
  0
LINE
  5
13A
100
AcDbEntity
  8
M0
 62
     5
100
AcDbLine
 10
370.935228
 20
520.850045
 11
372.035081
 21
520.850045
  0
LINE
  5
13B
100
AcDbEntity
  8
M0
 62
     5
100
AcDbLine
 10
369.935228
 20
523.850045
 11
370.935228
 21
524.850045
  0
LINE
  5
13C
100
AcDbEntity
  8
M0
 62
     5
100
AcDbLine
 10
369.935228
 20
521.850045
 11
370.935228
 21
520.850045
  0
LINE
  5
13D
100
AcDbEntity
  8
M0
 62
     5
100
AcDbLine
 10
372.035081
 20
520.850045
 11
372.035081
 21
511.100045
  0
LINE
  5
13E
100
AcDbEntity
  8
M0
 62
     5
100
AcDbLine
 10
370.935228
 20
561.349801
 11
372.035081
 21
561.349801
  0
LINE
  5
13F
100
AcDbEntity
  8
M0
 62
     5
100
AcDbLine
 10
369.935228
 20
562.349801
 11
370.935228
 21
561.349801
  0
LINE
  5
140
100
AcDbEntity
  8
M0
 62
     5
100
AcDbLine
 10
369.935228
 20
564.349801
 11
369.935228
 21
562.349801
  0
LINE
  5
141
100
AcDbEntity
  8
M0
 62
     5
100
AcDbLine
 10
369.935228
 20
564.349801
 11
370.935228
 21
565.349801
  0
LINE
  5
142
100
AcDbEntity
  8
M0
 62
     5
100
AcDbLine
 10
370.935228
 20
565.349801
 11
372.035081
 21
565.349801
  0
LINE
  5
143
100
AcDbEntity
  8
M0
 62
     5
100
AcDbLine
 10
372.035081
 20
561.349801
 11
372.035081
 21
549.100045
  0
LINE
  5
144
100
AcDbEntity
  8
M0
 62
     5
100
AcDbLine
 10
372.034837
 20
537.100045
 11
379.034822
 21
537.100045
  0
LINE
  5
145
100
AcDbEntity
  8
M0
 62
     5
100
AcDbLine
 10
381.034822
 20
539.100045
 11
381.034822
 21
547.100045
  0
LINE
  5
146
100
AcDbEntity
  8
M0
 62
     5
100
AcDbLine
 10
379.034822
 20
549.100045
 11
372.034837
 21
549.100045
  0
ARC
  5
147
100
AcDbEntity
  8
M0
 62
     5
100
AcDbCircle
 10
379.034822
 20
539.100045
 40
1.999996
100
AcDbArc
 50
269.993006
 51
360.0
  0
ARC
  5
148
100
AcDbEntity
  8
M0
 62
     5
100
AcDbCircle
 10
379.034822
 20
547.100045
 40
1.999996
100
AcDbArc
 50
0.0
 51
90.0
  0
LINE
  5
149
100
AcDbEntity
  8
M0
 62
     5
100
AcDbLine
 10
409.535066
 20
591.099312
 11
409.535066
 21
495.100045
  0
LINE
  5
14A
100
AcDbEntity
  8
M0
100
AcDbLine
 10
414.035066
 20
573.599801
 11
414.035066
 21
577.599801
  0
LINE
  5
14B
100
AcDbEntity
  8
M0
100
AcDbLine
 10
411.134675
 20
577.599801
 11
414.035066
 21
577.599801
  0
LINE
  5
14C
100
AcDbEntity
  8
M0
100
AcDbLine
 10
411.134675
 20
573.599801
 11
414.035066
 21
573.599801
  0
LINE
  5
14D
100
AcDbEntity
  8
M0
100
AcDbLine
 10
411.134675
 20
577.099801
 11
414.035066
 21
577.099801
  0
LINE
  5
14E
100
AcDbEntity
  8
M0
100
AcDbLine
 10
411.134675
 20
574.099801
 11
414.035066
 21
574.099801
  0
LINE
  5
14F
100
AcDbEntity
  8
M0
100
AcDbLine
 10
394.035066
 20
507.099801
 11
394.035066
 21
514.099801
  0
LINE
  5
150
100
AcDbEntity
  8
M0
  6
DASHDOT
100
AcDbLine
 10
385.948396
 20
510.599801
 11
417.581453
 21
510.599801
  0
LINE
  5
151
100
AcDbEntity
  8
M0
100
AcDbLine
 10
394.035066
 20
514.099556
 11
392.915437
 21
514.001412
  0
LINE
  5
152
100
AcDbEntity
  8
M0
100
AcDbLine
 10
394.035066
 20
507.099556
 11
392.915437
 21
507.197457
  0
LINE
  5
153
100
AcDbEntity
  8
M0
100
AcDbLine
 10
391.435213
 20
511.099801
 11
392.834871
 21
511.099801
  0
LINE
  5
154
100
AcDbEntity
  8
M0
100
AcDbLine
 10
391.435213
 20
510.099801
 11
392.834871
 21
510.099801
  0
ARC
  5
155
100
AcDbEntity
  8
M0
100
AcDbCircle
 10
400.435213
 20
510.599801
 40
8.999996
100
AcDbArc
 50
164.12463
 51
176.816894
  0
ARC
  5
156
100
AcDbEntity
  8
M0
100
AcDbCircle
 10
393.028963
 20
512.70649
 40
1.299995
100
AcDbArc
 50
95.021013
 51
164.14181
  0
ARC
  5
157
100
AcDbEntity
  8
M0
100
AcDbCircle
 10
393.028963
 20
508.492623
 40
1.299995
100
AcDbArc
 50
195.889238
 51
264.990647
  0
ARC
  5
158
100
AcDbEntity
  8
M0
100
AcDbCircle
 10
400.435213
 20
510.599801
 40
8.999996
100
AcDbArc
 50
183.184658
 51
195.88327
  0
LINE
  5
159
100
AcDbEntity
  8
M0
100
AcDbLine
 10
395.035066
 20
506.599801
 11
395.035066
 21
514.599801
  0
LINE
  5
15A
100
AcDbEntity
  8
M0
100
AcDbLine
 10
395.535066
 20
506.599801
 11
395.535066
 21
514.599801
  0
LINE
  5
15B
100
AcDbEntity
  8
M0
100
AcDbLine
 10
395.035066
 20
514.599801
 11
395.535066
 21
514.599801
  0
LINE
  5
15C
100
AcDbEntity
  8
M0
100
AcDbLine
 10
395.035066
 20
506.599801
 11
395.535066
 21
506.599801
  0
LINE
  5
15D
100
AcDbEntity
  8
M0
100
AcDbLine
 10
394.035066
 20
514.099801
 11
395.035066
 21
514.099801
  0
LINE
  5
15E
100
AcDbEntity
  8
M0
100
AcDbLine
 10
394.035066
 20
507.099801
 11
395.035066
 21
507.099801
  0
LINE
  5
15F
100
AcDbEntity
  8
M0
100
AcDbLine
 10
395.035066
 20
510.849801
 11
394.035066
 21
511.426949
  0
LINE
  5
160
100
AcDbEntity
  8
M0
100
AcDbLine
 10
394.035066
 20
510.349801
 11
395.035066
 21
509.772408
  0
LINE
  5
161
100
AcDbEntity
  8
M0
100
AcDbLine
 10
414.035066
 20
508.599801
 11
414.035066
 21
512.599801
  0
LINE
  5
162
100
AcDbEntity
  8
M0
100
AcDbLine
 10
411.134675
 20
512.599801
 11
414.035066
 21
512.599801
  0
LINE
  5
163
100
AcDbEntity
  8
M0
100
AcDbLine
 10
411.134675
 20
508.599801
 11
414.035066
 21
508.599801
  0
LINE
  5
164
100
AcDbEntity
  8
M0
100
AcDbLine
 10
411.134675
 20
512.099801
 11
414.035066
 21
512.099801
  0
LINE
  5
165
100
AcDbEntity
  8
M0
100
AcDbLine
 10
411.134675
 20
509.099801
 11
414.035066
 21
509.099801
  0
LINE
  5
166
100
AcDbEntity
  8
M0
100
AcDbLine
 10
392.834871
 20
511.099801
 11
392.834871
 21
510.099801
  0
LINE
  5
167
100
AcDbEntity
  8
M0
100
AcDbLine
 10
405.936189
 20
477.599801
 11
405.937654
 21
477.599801
  0
LINE
  5
168
100
AcDbEntity
  8
M0
100
AcDbLine
 10
405.935213
 20
438.599801
 11
405.936677
 21
438.599801
  0
LINE
  5
169
100
AcDbEntity
  8
M0
 62
     7
100
AcDbLine
 10
292.235033
 20
546.099801
 11
292.235033
 21
511.099556
  0
LINE
  5
16A
100
AcDbEntity
  8
M0
 62
     6
100
AcDbLine
 10
303.534837
 20
540.099801
 11
303.534837
 21
539.350045
  0
LINE
  5
16B
100
AcDbEntity
  8
M0
 62
     6
100
AcDbLine
 10
305.434984
 20
540.099801
 11
305.434984
 21
539.350045
  0
LINE
  5
16C
100
AcDbEntity
  8
M0
 62
     6
100
AcDbLine
 10
360.134691
 20
542.099801
 11
360.134691
 21
544.099801
  0
LINE
  5
16D
100
AcDbEntity
  8
M0
100
AcDbLine
 10
358.93474
 20
545.099801
 11
360.134691
 21
544.099801
  0
LINE
  5
16E
100
AcDbEntity
  8
M0
100
AcDbLine
 10
358.93474
 20
541.099801
 11
360.134691
 21
542.099801
  0
LINE
  5
16F
100
AcDbEntity
  8
M0
  6
DASHDOT
 62
     6
100
AcDbLine
 10
282.022279
 20
543.099801
 11
428.005037
 21
543.099801
  0
LINE
  5
170
100
AcDbEntity
  8
M0
  6
DIVIDE
100
AcDbLine
 10
106.66588
 20
569.599068
 11
106.66588
 21
516.599312
  0
LINE
  5
171
100
AcDbEntity
  8
M0
  6
DIVIDE
100
AcDbLine
 10
148.665773
 20
569.598824
 11
148.665773
 21
516.599556
  0
LINE
  5
172
100
AcDbEntity
  8
M0
 62
     1
100
AcDbLine
 10
415.634691
 20
405.599282
 11
415.634691
 21
427.099282
  0
LINE
  5
173
100
AcDbEntity
  8
M0
 62
     1
100
AcDbLine
 10
415.634691
 20
620.599282
 11
414.034593
 21
620.599038
  0
LINE
  5
174
100
AcDbEntity
  8
M0
 62
     1
100
AcDbLine
 10
409.534837
 20
590.49894
 11
409.534837
 21
430.699379
  0
LINE
  5
175
100
AcDbEntity
  8
M0
 62
     1
100
AcDbLine
 10
411.134691
 20
590.49894
 11
411.134691
 21
430.699379
  0
LINE
  5
176
100
AcDbEntity
  8
M0
 62
     1
100
AcDbLine
 10
414.034593
 20
405.599282
 11
414.034593
 21
427.099282
  0
LINE
  5
177
100
AcDbEntity
  8
M0
 62
     1
100
AcDbLine
 10
413.034593
 20
593.099282
 11
412.134691
 21
593.099282
  0
LINE
  5
178
100
AcDbEntity
  8
M0
 62
     1
100
AcDbLine
 10
412.134691
 20
428.099282
 11
413.034593
 21
428.099282
  0
LINE
  5
179
100
AcDbEntity
  8
M0
 62
     1
100
AcDbLine
 10
414.034593
 20
594.098793
 11
414.034593
 21
620.599282
  0
LINE
  5
17A
100
AcDbEntity
  8
M0
 62
     1
100
AcDbLine
 10
415.634691
 20
594.098549
 11
415.634691
 21
620.599282
  0
ARC
  5
17B
100
AcDbEntity
  8
M0
 62
     1
100
AcDbCircle
 10
413.034593
 20
594.099038
 40
1.0
100
AcDbArc
 50
269.999126
 51
359.972023
  0
LINE
  5
17C
100
AcDbEntity
  8
M0
 62
     1
100
AcDbLine
 10
413.034593
 20
591.499184
 11
412.134691
 21
591.499184
  0
ARC
  5
17D
100
AcDbEntity
  8
M0
 62
     1
100
AcDbCircle
 10
413.034593
 20
594.098793
 40
2.599999
100
AcDbArc
 50
269.999664
 51
360.0
  0
ARC
  5
17E
100
AcDbEntity
  8
M0
 62
     1
100
AcDbCircle
 10
412.134691
 20
590.49894
 40
1.0
100
AcDbArc
 50
90.0
 51
180.0
  0
ARC
  5
17F
100
AcDbEntity
  8
M0
 62
     1
100
AcDbCircle
 10
412.134691
 20
590.49894
 40
2.599999
100
AcDbArc
 50
90.0
 51
180.0
  0
ARC
  5
180
100
AcDbEntity
  8
M0
 62
     1
100
AcDbCircle
 10
413.034593
 20
427.099282
 40
1.0
100
AcDbArc
 50
0.0
 51
90.0
  0
LINE
  5
181
100
AcDbEntity
  8
M0
 62
     1
100
AcDbLine
 10
412.134691
 20
429.699379
 11
413.034593
 21
429.699379
  0
ARC
  5
182
100
AcDbEntity
  8
M0
 62
     1
100
AcDbCircle
 10
413.034593
 20
427.099282
 40
2.599999
100
AcDbArc
 50
0.0
 51
90.0
  0
ARC
  5
183
100
AcDbEntity
  8
M0
 62
     1
100
AcDbCircle
 10
412.134691
 20
430.699379
 40
1.0
100
AcDbArc
 50
180.0
 51
269.999126
  0
ARC
  5
184
100
AcDbEntity
  8
M0
 62
     1
100
AcDbCircle
 10
412.134691
 20
430.699379
 40
2.599999
100
AcDbArc
 50
180.0
 51
269.999664
  0
LINE
  5
185
100
AcDbEntity
  8
M0
  6
DASHDOT
 62
     1
100
AcDbLine
 10
401.817216
 20
575.599282
 11
415.634691
 21
575.599282
  0
LINE
  5
186
100
AcDbEntity
  8
M0
 62
     1
100
AcDbLine
 10
414.034593
 20
405.599038
 11
415.634691
 21
405.599038
  0
LINE
  5
187
100
AcDbEntity
  8
M0
 62
     1
100
AcDbLine
 10
411.134691
 20
488.099373
 11
409.534837
 21
488.099373
  0
LINE
  5
188
100
AcDbEntity
  8
M0
 62
     7
100
AcDbLine
 10
326.536546
 20
474.599862
 11
326.536546
 21
454.599862
  0
ARC
  5
189
100
AcDbEntity
  8
M0
 62
     7
100
AcDbCircle
 10
330.536546
 20
474.600106
 40
3.999991
100
AcDbArc
 50
90.0
 51
180.0
  0
LINE
  5
18A
100
AcDbEntity
  8
M0
 62
     7
100
AcDbLine
 10
326.536302
 20
454.599862
 11
332.535326
 21
454.599862
  0
LINE
  5
18B
100
AcDbEntity
  8
M0
 62
     7
100
AcDbLine
 10
335.929124
 20
430.999764
 11
361.174974
 21
430.999764
  0
LINE
  5
18C
100
AcDbEntity
  8
M0
 62
     7
100
AcDbLine
 10
326.536546
 20
454.599862
 11
332.065355
 21
433.964364
  0
ARC
  5
18D
100
AcDbEntity
  8
M0
 62
     7
100
AcDbCircle
 10
335.929124
 20
434.999764
 40
3.999993
100
AcDbArc
 50
195.001812
 51
269.999781
  0
LINE
  5
18E
100
AcDbEntity
  8
M0
 62
     7
100
AcDbLine
 10
340.427415
 20
436.599862
 11
361.535081
 21
436.599862
  0
ARC
  5
18F
100
AcDbEntity
  8
M0
 62
     7
100
AcDbCircle
 10
361.174974
 20
434.999764
 40
3.999993
100
AcDbArc
 50
269.999781
 51
344.998131
  0
LINE
  5
190
100
AcDbEntity
  8
M0
 62
     7
100
AcDbLine
 10
364.535081
 20
434.599862
 11
370.535081
 21
434.599862
  0
LINE
  5
191
100
AcDbEntity
  8
M0
 62
     7
100
AcDbLine
 10
371.535081
 20
436.599862
 11
377.875658
 21
436.599862
  0
ARC
  5
192
100
AcDbEntity
  8
M0
 62
     7
100
AcDbCircle
 10
370.535081
 20
435.599862
 40
1.0
100
AcDbArc
 50
269.999126
 51
360.0
  0
LINE
  5
193
100
AcDbEntity
  8
M0
 62
     7
100
AcDbLine
 10
408.535326
 20
437.499276
 11
408.535326
 21
440.599129
  0
LINE
  5
194
100
AcDbEntity
  8
M0
 62
     7
100
AcDbLine
 10
352.955003
 20
441.100838
 11
376.571702
 21
441.100106
  0
LINE
  5
195
100
AcDbEntity
  8
M0
 62
     7
100
AcDbLine
 10
359.836839
 20
478.60035
 11
329.53679
 21
478.600594
  0
LINE
  5
196
100
AcDbEntity
  8
M0
 62
     7
100
AcDbLine
 10
346.036058
 20
454.600838
 11
346.03679
 21
475.600838
  0
LINE
  5
197
100
AcDbEntity
  8
M0
  6
DASHED
 62
     7
100
AcDbLine
 10
339.536302
 20
458.851082
 11
339.536546
 21
465.351082
  0
LINE
  5
198
100
AcDbEntity
  8
M0
 62
     7
100
AcDbLine
 10
347.036302
 20
454.600838
 11
350.057298
 21
443.324471
  0
ARC
  5
199
100
AcDbEntity
  8
M0
 62
     7
100
AcDbCircle
 10
352.955247
 20
444.100838
 40
2.999993
100
AcDbArc
 50
194.998171
 51
269.999709
  0
LINE
  5
19A
100
AcDbEntity
  8
M0
  6
DASHED
 62
     7
100
AcDbLine
 10
345.536058
 20
454.600838
 11
345.536058
 21
461.598641
  0
LINE
  5
19B
100
AcDbEntity
  8
M0
  6
DASHED
 62
     7
100
AcDbLine
 10
345.536546
 20
469.600838
 11
346.036546
 21
469.600838
  0
LINE
  5
19C
100
AcDbEntity
  8
M0
 62
     7
100
AcDbLine
 10
339.036302
 20
458.851082
 11
339.536302
 21
458.851082
  0
LINE
  5
19D
100
AcDbEntity
  8
M0
 62
     7
100
AcDbLine
 10
356.236009
 20
445.100838
 11
361.536058
 21
445.100594
  0
LINE
  5
19E
100
AcDbEntity
  8
M0
 62
     7
100
AcDbLine
 10
364.535814
 20
443.10035
 11
376.035814
 21
443.100106
  0
LINE
  5
19F
100
AcDbEntity
  8
M0
 62
     7
100
AcDbLine
 10
378.910081
 20
438.100106
 11
382.735765
 21
438.100106
  0
LINE
  5
1A0
100
AcDbEntity
  8
M0
 62
     7
100
AcDbLine
 10
379.811937
 20
434.100106
 11
396.129564
 21
434.099617
  0
ARC
  5
1A1
100
AcDbEntity
  8
M0
 62
     7
100
AcDbCircle
 10
359.836839
 20
476.60035
 40
1.999994
100
AcDbArc
 50
14.405411
 51
90.0
  0
LINE
  5
1A2
100
AcDbEntity
  8
M0
 62
     7
100
AcDbLine
 10
397.861497
 20
435.099617
 11
401.037279
 21
440.599617
  0
ARC
  5
1A3
100
AcDbEntity
  8
M0
 62
     7
100
AcDbCircle
 10
396.129564
 20
436.099617
 40
1.999994
100
AcDbArc
 50
269.999563
 51
329.993357
  0
ARC
  5
1A4
100
AcDbEntity
  8
M0
 62
     7
100
AcDbCircle
 10
378.910326
 20
440.100106
 40
1.999994
100
AcDbArc
 50
194.998208
 51
269.992569
  0
LINE
  5
1A5
100
AcDbEntity
  8
M0
 62
     7
100
AcDbLine
 10
385.735765
 20
436.099862
 11
397.284349
 21
436.099617
  0
ARC
  5
1A6
100
AcDbEntity
  8
M0
 62
     7
100
AcDbCircle
 10
397.284349
 20
438.099617
 40
1.999994
100
AcDbArc
 50
269.999563
 51
329.993357
  0
LINE
  5
1A7
100
AcDbEntity
  8
M0
 62
     7
100
AcDbLine
 10
376.535814
 20
440.600106
 11
364.535814
 21
440.600594
  0
LINE
  5
1A8
100
AcDbEntity
  8
M0
 62
     7
100
AcDbLine
 10
363.785814
 20
441.100594
 11
364.535814
 21
440.600594
  0
LINE
  5
1A9
100
AcDbEntity
  8
M0
 62
     7
100
AcDbLine
 10
361.536058
 20
445.100594
 11
364.535814
 21
443.10035
  0
LINE
  5
1AA
100
AcDbEntity
  8
M0
 62
     7
100
AcDbLine
 10
401.037279
 20
440.599617
 11
408.535814
 21
440.599373
  0
LINE
  5
1AB
100
AcDbEntity
  8
M0
 62
     7
100
AcDbLine
 10
397.861497
 20
435.099617
 11
403.53557
 21
435.099373
  0
LINE
  5
1AC
100
AcDbEntity
  8
M0
 62
     7
100
AcDbLine
 10
405.535814
 20
437.099373
 11
405.535814
 21
440.599373
  0
ARC
  5
1AD
100
AcDbEntity
  8
M0
 62
     7
100
AcDbCircle
 10
403.535814
 20
437.099373
 40
1.999994
100
AcDbArc
 50
269.992569
 51
360.0
  0
LINE
  5
1AE
100
AcDbEntity
  8
M0
 62
     7
100
AcDbLine
 10
382.735765
 20
438.100106
 11
385.735765
 21
436.099862
  0
LINE
  5
1AF
100
AcDbEntity
  8
M0
 62
     7
100
AcDbLine
 10
376.535814
 20
440.60035
 11
377.880296
 21
435.582528
  0
LINE
  5
1B0
100
AcDbEntity
  8
M0
 62
     7
100
AcDbLine
 10
376.035814
 20
443.100106
 11
376.978441
 21
439.582528
  0
ARC
  5
1B1
100
AcDbEntity
  8
M0
 62
     7
100
AcDbCircle
 10
379.811937
 20
436.100106
 40
1.999994
100
AcDbArc
 50
195.005077
 51
269.999563
  0
LINE
  5
1B2
100
AcDbEntity
  8
M0
  6
DASHED
 62
     7
100
AcDbLine
 10
351.035326
 20
441.795174
 11
351.035326
 21
451.080086
  0
LINE
  5
1B3
100
AcDbEntity
  8
M0
  6
DASHED
 62
     7
100
AcDbLine
 10
352.035326
 20
441.100594
 11
352.03557
 21
451.080086
  0
LINE
  5
1B4
100
AcDbEntity
  8
M0
 62
     7
100
AcDbLine
 10
365.25847
 20
434.784432
 11
365.038743
 21
433.964608
  0
LINE
  5
1B5
100
AcDbEntity
  8
M0
 62
     7
100
AcDbLine
 10
332.535326
 20
454.60035
 11
336.56389
 21
439.565194
  0
ARC
  5
1B6
100
AcDbEntity
  8
M0
 62
     7
100
AcDbCircle
 10
340.427415
 20
440.600594
 40
3.999993
100
AcDbArc
 50
195.005247
 51
269.999781
  0
LINE
  5
1B7
100
AcDbEntity
  8
M0
 62
     7
100
AcDbLine
 10
361.535326
 20
441.100106
 11
361.535081
 21
436.600106
  0
LINE
  5
1B8
100
AcDbEntity
  8
M0
 62
     7
100
AcDbLine
 10
361.535081
 20
436.600106
 11
364.535081
 21
434.600106
  0
LINE
  5
1B9
100
AcDbEntity
  8
M0
 62
     7
100
AcDbLine
 10
371.535326
 20
436.600106
 11
371.535326
 21
435.600106
  0
LINE
  5
1BA
100
AcDbEntity
  8
M0
 62
     7
100
AcDbLine
 10
409.534593
 20
437.499031
 11
409.534837
 21
485.999276
  0
LINE
  5
1BB
100
AcDbEntity
  8
M0
 62
     7
100
AcDbLine
 10
408.534837
 20
437.499276
 11
409.534349
 21
437.499031
  0
LINE
  5
1BC
100
AcDbEntity
  8
M0
 62
     7
100
AcDbLine
 10
338.036546
 20
475.598641
 11
333.536058
 21
475.598641
  0
LINE
  5
1BD
100
AcDbEntity
  8
M0
 62
     7
100
AcDbLine
 10
377.276292
 20
478.097664
 11
377.276292
 21
477.097908
  0
LINE
  5
1BE
100
AcDbEntity
  8
M0
  6
DASHED
 62
     7
100
AcDbLine
 10
339.53972
 20
453.799813
 11
343.53972
 21
453.799813
  0
LINE
  5
1BF
100
AcDbEntity
  8
M0
  6
DASHED
 62
     7
100
AcDbLine
 10
343.53972
 20
453.799813
 11
343.53972
 21
470.399666
  0
LINE
  5
1C0
100
AcDbEntity
  8
M0
  6
DASHED
 62
     7
100
AcDbLine
 10
343.53972
 20
470.399666
 11
339.53972
 21
470.399666
  0
LINE
  5
1C1
100
AcDbEntity
  8
M0
  6
DASHED
 62
     7
100
AcDbLine
 10
339.53972
 20
470.399666
 11
339.53972
 21
453.799813
  0
LINE
  5
1C2
100
AcDbEntity
  8
M0
  6
DASHED
 62
     7
100
AcDbLine
 10
343.53972
 20
455.099617
 11
345.53972
 21
455.099617
  0
LINE
  5
1C3
100
AcDbEntity
  8
M0
  6
DASHED
 62
     7
100
AcDbLine
 10
345.53972
 20
469.099617
 11
343.53972
 21
469.099617
  0
LINE
  5
1C4
100
AcDbEntity
  8
M0
 62
     7
100
AcDbLine
 10
336.539476
 20
458.849617
 11
338.036546
 21
458.849617
  0
LINE
  5
1C5
100
AcDbEntity
  8
M0
  6
DASHED
 62
     7
100
AcDbLine
 10
339.53972
 20
465.349617
 11
338.036546
 21
465.349617
  0
ARC
  5
1C6
100
AcDbEntity
  8
M0
 62
     7
100
AcDbCircle
 10
336.539476
 20
464.849129
 40
0.5
100
AcDbArc
 50
90.0
 51
180.0
  0
ARC
  5
1C7
100
AcDbEntity
  8
M0
 62
     7
100
AcDbCircle
 10
336.539476
 20
459.349617
 40
0.5
100
AcDbArc
 50
180.0
 51
269.998251
  0
LINE
  5
1C8
100
AcDbEntity
  8
M0
  6
DASHDOT
 62
     7
100
AcDbLine
 10
331.097826
 20
462.099373
 11
348.917406
 21
462.099373
  0
LINE
  5
1C9
100
AcDbEntity
  8
M0
 62
     7
100
AcDbLine
 10
336.03972
 20
464.849129
 11
336.03972
 21
459.349617
  0
LINE
  5
1CA
100
AcDbEntity
  8
M0
 62
     7
100
AcDbLine
 10
408.534837
 20
485.999276
 11
409.534349
 21
485.999276
  0
LINE
  5
1CB
100
AcDbEntity
  8
M0
 62
     7
100
AcDbLine
 10
407.535081
 20
438.599373
 11
408.535081
 21
438.599373
  0
LINE
  5
1CC
100
AcDbEntity
  8
M0
  6
DASHED
 62
     4
100
AcDbLine
 10
339.135713
 20
591.098397
 11
339.135713
 21
569.599129
  0
LINE
  5
1CD
100
AcDbEntity
  8
M0
 62
     4
100
AcDbLine
 10
339.521409
 20
481.513436
 11
340.276292
 21
480.758309
  0
LINE
  5
1CE
100
AcDbEntity
  8
M0
 62
     4
100
AcDbLine
 10
337.894701
 20
479.887215
 11
338.650072
 21
479.131844
  0
ARC
  5
1CF
100
AcDbEntity
  8
M0
 62
     4
100
AcDbCircle
 10
337.236009
 20
477.717781
 40
1.999994
100
AcDbArc
 50
26.186182
 51
44.997218
  0
ARC
  5
1D0
100
AcDbEntity
  8
M0
 62
     4
100
AcDbCircle
 10
340.935716
 20
482.927498
 40
1.999994
100
AcDbArc
 50
180.0
 51
224.999382
  0
ARC
  5
1D1
100
AcDbEntity
  8
M0
 62
     4
100
AcDbCircle
 10
337.236009
 20
477.717781
 40
4.299992
100
AcDbArc
 50
11.844092
 51
45.001006
  0
ARC
  5
1D2
100
AcDbEntity
  8
M0
 62
     4
100
AcDbCircle
 10
340.935716
 20
482.927498
 40
4.299992
100
AcDbArc
 50
180.0
 51
224.993962
  0
LINE
  5
1D3
100
AcDbEntity
  8
M0
 62
     7
100
AcDbLine
 10
334.536058
 20
457.098641
 11
334.536058
 21
473.098641
  0
LINE
  5
1D4
100
AcDbEntity
  8
M0
 62
     7
100
AcDbLine
 10
333.536058
 20
454.600838
 11
333.536058
 21
456.098641
  0
LINE
  5
1D5
100
AcDbEntity
  8
M0
 62
     7
100
AcDbLine
 10
333.536058
 20
474.098641
 11
333.536058
 21
475.600838
  0
ARC
  5
1D6
100
AcDbEntity
  8
M0
 62
     7
100
AcDbCircle
 10
334.536058
 20
474.098641
 40
1.0
100
AcDbArc
 50
180.0
 51
269.999126
  0
LINE
  5
1D7
100
AcDbEntity
  8
M0
  6
DASHED
 62
     7
100
AcDbLine
 10
338.036546
 20
458.849617
 11
339.53972
 21
458.849617
  0
LINE
  5
1D8
100
AcDbEntity
  8
M0
 62
     7
100
AcDbLine
 10
338.036546
 20
465.349617
 11
336.539476
 21
465.349617
  0
LINE
  5
1D9
100
AcDbEntity
  8
M0
 62
     7
100
AcDbLine
 10
345.536058
 20
461.598641
 11
345.536058
 21
468.598641
  0
LINE
  5
1DA
100
AcDbEntity
  8
M0
  6
DASHED
 62
     7
100
AcDbLine
 10
345.536058
 20
468.598641
 11
345.536546
 21
469.600838
  0
LINE
  5
1DB
100
AcDbEntity
  8
M0
 62
     7
100
AcDbLine
 10
353.236009
 20
448.100838
 11
353.236009
 21
454.598641
  0
ARC
  5
1DC
100
AcDbEntity
  8
M0
 62
     7
100
AcDbCircle
 10
356.236009
 20
448.100838
 40
2.999993
100
AcDbArc
 50
180.0
 51
269.999709
  0
LINE
  5
1DD
100
AcDbEntity
  8
M0
100
AcDbLine
 10
349.736497
 20
453.39869
 11
349.736497
 21
454.598641
  0
LINE
  5
1DE
100
AcDbEntity
  8
M0
100
AcDbLine
 10
349.736497
 20
476.798836
 11
334.236742
 21
476.798836
  0
LINE
  5
1DF
100
AcDbEntity
  8
M0
100
AcDbLine
 10
334.236742
 20
476.798836
 11
334.236742
 21
475.598641
  0
LINE
  5
1E0
100
AcDbEntity
  8
M0
100
AcDbLine
 10
334.236497
 20
453.39869
 11
349.736497
 21
453.39869
  0
LINE
  5
1E1
100
AcDbEntity
  8
M0
100
AcDbLine
 10
333.535814
 20
454.598641
 11
338.036302
 21
454.598641
  0
LINE
  5
1E2
100
AcDbEntity
  8
M0
100
AcDbLine
 10
407.035814
 20
475.598641
 11
346.036302
 21
475.598641
  0
LINE
  5
1E3
100
AcDbEntity
  8
M0
100
AcDbLine
 10
346.036546
 20
454.598641
 11
346.036546
 21
461.598641
  0
LINE
  5
1E4
100
AcDbEntity
  8
M0
100
AcDbLine
 10
344.536546
 20
461.598641
 11
344.536546
 21
468.598641
  0
LINE
  5
1E5
100
AcDbEntity
  8
M0
100
AcDbLine
 10
344.536546
 20
468.598641
 11
346.036546
 21
468.598641
  0
LINE
  5
1E6
100
AcDbEntity
  8
M0
100
AcDbLine
 10
344.536546
 20
461.598641
 11
346.036546
 21
461.598641
  0
LINE
  5
1E7
100
AcDbEntity
  8
M0
100
AcDbLine
 10
349.736253
 20
475.598641
 11
349.736253
 21
477.097664
  0
LINE
  5
1E8
100
AcDbEntity
  8
M0
100
AcDbLine
 10
346.036546
 20
468.598641
 11
346.036546
 21
475.598641
  0
LINE
  5
1E9
100
AcDbEntity
  8
M0
100
AcDbLine
 10
334.236497
 20
454.598641
 11
334.236497
 21
453.39869
  0
LINE
  5
1EA
100
AcDbEntity
  8
M0
  6
DASHED
100
AcDbLine
 10
345.53557
 20
454.598641
 11
346.035814
 21
454.598641
  0
LINE
  5
1EB
100
AcDbEntity
  8
M0
100
AcDbLine
 10
338.036546
 20
475.598641
 11
334.236742
 21
475.598641
  0
LINE
  5
1EC
100
AcDbEntity
  8
M0
100
AcDbLine
 10
346.736497
 20
452.098641
 11
346.736497
 21
453.39869
  0
LINE
  5
1ED
100
AcDbEntity
  8
M0
100
AcDbLine
 10
338.036546
 20
452.098641
 11
338.036546
 21
476.798836
  0
LINE
  5
1EE
100
AcDbEntity
  8
M0
100
AcDbLine
 10
338.036546
 20
452.098641
 11
346.736497
 21
452.098641
  0
LINE
  5
1EF
100
AcDbEntity
  8
M0
100
AcDbLine
 10
334.536058
 20
457.098641
 11
338.036302
 21
457.098641
  0
LINE
  5
1F0
100
AcDbEntity
  8
M0
100
AcDbLine
 10
334.536058
 20
473.098641
 11
338.036546
 21
473.098641
  0
ARC
  5
1F1
100
AcDbEntity
  8
M0
100
AcDbCircle
 10
334.536058
 20
456.098641
 40
1.0
100
AcDbArc
 50
90.0
 51
180.0
  0
LINE
  5
1F2
100
AcDbEntity
  8
M0
100
AcDbLine
 10
346.03557
 20
454.598641
 11
353.235765
 21
454.598641
  0
LINE
  5
1F3
100
AcDbEntity
  8
M0
 62
     7
100
AcDbLine
 10
408.535326
 20
440.599129
 11
408.536302
 21
478.598885
  0
LINE
  5
1F4
100
AcDbEntity
  8
M0
 62
     7
100
AcDbLine
 10
408.536302
 20
478.598641
 11
408.536302
 21
485.999276
  0
LINE
  5
1F5
100
AcDbEntity
  8
M0
 62
     7
100
AcDbLine
 10
408.535081
 20
477.097664
 11
349.736497
 21
477.097664
  0
LINE
  5
1F6
100
AcDbEntity
  8
M0
 62
     7
100
AcDbLine
 10
407.036058
 20
477.098397
 11
407.036058
 21
475.598397
  0
LINE
  5
1F7
100
AcDbEntity
  8
M0
 62
     7
100
AcDbLine
 10
405.587327
 20
478.097176
 11
377.276292
 21
478.097176
  0
LINE
  5
1F8
100
AcDbEntity
  8
M0
 62
     7
100
AcDbLine
 10
407.536302
 20
477.599373
 11
408.536302
 21
477.599373
  0
LINE
  5
1F9
100
AcDbEntity
  8
M0
100
AcDbLine
 10
407.536302
 20
477.599373
 11
407.536302
 21
484.599373
  0
LINE
  5
1FA
100
AcDbEntity
  8
M0
  6
DASHDOT
100
AcDbLine
 10
401.597581
 20
481.099373
 11
417.536302
 21
481.099373
  0
LINE
  5
1FB
100
AcDbEntity
  8
M0
100
AcDbLine
 10
407.536302
 20
484.599129
 11
406.416673
 21
484.500985
  0
LINE
  5
1FC
100
AcDbEntity
  8
M0
100
AcDbLine
 10
407.536302
 20
477.599129
 11
406.416673
 21
477.69703
  0
LINE
  5
1FD
100
AcDbEntity
  8
M0
100
AcDbLine
 10
404.936449
 20
481.599373
 11
406.336107
 21
481.599373
  0
LINE
  5
1FE
100
AcDbEntity
  8
M0
100
AcDbLine
 10
404.936449
 20
480.599373
 11
406.336107
 21
480.599373
  0
ARC
  5
1FF
100
AcDbEntity
  8
M0
100
AcDbCircle
 10
413.936449
 20
481.099373
 40
8.999993
100
AcDbArc
 50
164.124497
 51
176.816813
  0
ARC
  5
200
100
AcDbEntity
  8
M0
100
AcDbCircle
 10
406.530199
 20
483.206063
 40
1.299994
100
AcDbArc
 50
95.010963
 51
164.141442
  0
ARC
  5
201
100
AcDbEntity
  8
M0
100
AcDbCircle
 10
406.530199
 20
478.992196
 40
1.299994
100
AcDbArc
 50
195.891079
 51
264.990647
  0
ARC
  5
202
100
AcDbEntity
  8
M0
100
AcDbCircle
 10
413.936449
 20
481.099373
 40
8.999993
100
AcDbArc
 50
183.184739
 51
195.883403
  0
LINE
  5
203
100
AcDbEntity
  8
M0
100
AcDbLine
 10
408.536302
 20
477.599373
 11
408.536302
 21
484.599373
  0
LINE
  5
204
100
AcDbEntity
  8
M0
100
AcDbLine
 10
407.536302
 20
484.599373
 11
408.536302
 21
484.599373
  0
LINE
  5
205
100
AcDbEntity
  8
M0
100
AcDbLine
 10
407.536302
 20
477.599373
 11
407.537767
 21
477.599373
  0
LINE
  5
206
100
AcDbEntity
  8
M0
100
AcDbLine
 10
408.536302
 20
481.349373
 11
407.536302
 21
481.926522
  0
LINE
  5
207
100
AcDbEntity
  8
M0
100
AcDbLine
 10
407.536302
 20
480.849373
 11
408.536302
 21
480.271981
  0
LINE
  5
208
100
AcDbEntity
  8
M0
100
AcDbLine
 10
411.134935
 20
483.099373
 11
413.536302
 21
483.099373
  0
LINE
  5
209
100
AcDbEntity
  8
M0
100
AcDbLine
 10
411.134691
 20
479.099373
 11
413.536302
 21
479.099373
  0
LINE
  5
20A
100
AcDbEntity
  8
M0
100
AcDbLine
 10
411.134935
 20
482.599373
 11
413.536302
 21
482.599373
  0
LINE
  5
20B
100
AcDbEntity
  8
M0
100
AcDbLine
 10
411.134691
 20
479.599373
 11
413.536302
 21
479.599373
  0
LINE
  5
20C
100
AcDbEntity
  8
M0
100
AcDbLine
 10
406.336107
 20
481.599373
 11
406.336107
 21
480.599373
  0
LINE
  5
20D
100
AcDbEntity
  8
M0
100
AcDbLine
 10
413.536302
 20
483.099373
 11
413.536302
 21
479.099373
  0
LINE
  5
20E
100
AcDbEntity
  8
M0
 62
     7
100
AcDbLine
 10
407.535326
 20
438.599373
 11
408.535326
 21
438.599373
  0
LINE
  5
20F
100
AcDbEntity
  8
M0
100
AcDbLine
 10
407.535326
 20
438.599373
 11
407.535326
 21
440.599617
  0
LINE
  5
210
100
AcDbEntity
  8
M0
  6
DASHDOT
100
AcDbLine
 10
403.011644
 20
442.099373
 11
417.535326
 21
442.099373
  0
LINE
  5
211
100
AcDbEntity
  8
M0
100
AcDbLine
 10
407.535326
 20
438.599129
 11
406.415697
 21
438.69703
  0
ARC
  5
212
100
AcDbEntity
  8
M0
100
AcDbCircle
 10
406.529222
 20
439.992196
 40
1.299994
100
AcDbArc
 50
220.171949
 51
264.990647
  0
LINE
  5
213
100
AcDbEntity
  8
M0
100
AcDbLine
 10
407.535326
 20
438.599373
 11
407.53679
 21
438.599373
  0
LINE
  5
214
100
AcDbEntity
  8
M0
100
AcDbLine
 10
411.133958
 20
444.099373
 11
413.535326
 21
444.099373
  0
LINE
  5
215
100
AcDbEntity
  8
M0
100
AcDbLine
 10
411.133958
 20
443.599373
 11
413.535326
 21
443.599373
  0
LINE
  5
216
100
AcDbEntity
  8
M0
100
AcDbLine
 10
411.133714
 20
440.599373
 11
413.535326
 21
440.599373
  0
LINE
  5
217
100
AcDbEntity
  8
M0
100
AcDbLine
 10
413.535326
 20
444.099373
 11
413.535326
 21
440.099373
  0
LINE
  5
218
100
AcDbEntity
  8
M0
 62
     4
100
AcDbLine
 10
336.635911
 20
495.100838
 11
336.635911
 21
482.927498
  0
LINE
  5
219
100
AcDbEntity
  8
M0
 62
     4
100
AcDbLine
 10
338.935716
 20
495.100838
 11
338.935716
 21
482.927498
  0
LINE
  5
21A
100
AcDbEntity
  8
M0
  6
DASHED
 62
     4
100
AcDbLine
 10
341.135713
 20
591.098397
 11
341.135713
 21
569.599129
  0
LINE
  5
21B
100
AcDbEntity
  8
M0
  6
DASHDOT
 62
     6
100
AcDbLine
 10
114.337083
 20
543.09948
 11
218.083574
 21
543.09948
  0
LINE
  5
21C
100
AcDbEntity
  8
M0
 62
     6
100
AcDbLine
 10
131.166917
 20
575.09948
 11
194.166902
 21
575.09948
  0
LINE
  5
21D
100
AcDbEntity
  8
M0
 62
     6
100
AcDbLine
 10
131.166917
 20
511.09948
 11
194.166902
 21
511.09948
  0
LINE
  5
21E
100
AcDbEntity
  8
M0
 62
     6
100
AcDbLine
 10
150.916907
 20
560.09948
 11
174.416906
 21
560.09948
  0
LINE
  5
21F
100
AcDbEntity
  8
M0
 62
     6
100
AcDbLine
 10
150.916907
 20
526.09948
 11
174.416906
 21
526.09948
  0
LINE
  5
220
100
AcDbEntity
  8
M0
 62
     6
100
AcDbLine
 10
170.916311
 20
591.098183
 11
154.416312
 21
591.097939
  0
LINE
  5
221
100
AcDbEntity
  8
M0
 62
     6
100
AcDbLine
 10
151.416312
 20
596.09916
 11
153.916312
 21
596.09916
  0
LINE
  5
222
100
AcDbEntity
  8
M0
  6
DASHDOT
 62
     6
100
AcDbLine
 10
132.368227
 20
583.09916
 11
151.801321
 21
583.09916
  0
LINE
  5
223
100
AcDbEntity
  8
M0
 62
     6
100
AcDbLine
 10
173.916311
 20
596.098916
 11
171.416311
 21
596.098916
  0
LINE
  5
224
100
AcDbEntity
  8
M0
  6
DASHDOT
 62
     6
100
AcDbLine
 10
192.166307
 20
583.098916
 11
173.166311
 21
583.098916
  0
LINE
  5
225
100
AcDbEntity
  8
M0
  6
DASHDOT
 62
     6
100
AcDbLine
 10
153.396536
 20
583.09916
 11
172.166311
 21
583.098916
  0
LINE
  5
226
100
AcDbEntity
  8
M0
 62
     6
100
AcDbLine
 10
150.916312
 20
591.097939
 11
130.666322
 21
591.098427
  0
LINE
  5
227
100
AcDbEntity
  8
M0
 62
     6
100
AcDbLine
 10
174.416311
 20
591.098183
 11
194.666307
 21
591.098183
  0
LINE
  5
228
100
AcDbEntity
  8
M0
100
AcDbLine
 10
135.916322
 20
590.84916
 11
149.416068
 21
590.84916
  0
ARC
  5
229
100
AcDbEntity
  8
M0
100
AcDbCircle
 10
149.416068
 20
589.84916
 40
1.0
100
AcDbArc
 50
0.0
 51
90.0
  0
ARC
  5
22A
100
AcDbEntity
  8
M0
100
AcDbCircle
 10
135.916322
 20
589.84916
 40
1.0
100
AcDbArc
 50
89.999126
 51
180.0
  0
LINE
  5
22B
100
AcDbEntity
  8
M0
100
AcDbLine
 10
147.416068
 20
590.84916
 11
150.416068
 21
587.84916
  0
LINE
  5
22C
100
AcDbEntity
  8
M0
100
AcDbLine
 10
134.916322
 20
587.84916
 11
137.916322
 21
590.84916
  0
LINE
  5
22D
100
AcDbEntity
  8
M0
100
AcDbLine
 10
141.916322
 20
590.84916
 11
141.916322
 21
589.001503
  0
LINE
  5
22E
100
AcDbEntity
  8
M0
100
AcDbLine
 10
143.416078
 20
590.84916
 11
143.416078
 21
589.001503
  0
LINE
  5
22F
100
AcDbEntity
  8
M0
100
AcDbLine
 10
134.916322
 20
582.34916
 11
136.763734
 21
582.34916
  0
LINE
  5
230
100
AcDbEntity
  8
M0
100
AcDbLine
 10
134.916322
 20
583.84916
 11
136.763734
 21
583.84916
  0
LINE
  5
231
100
AcDbEntity
  8
M0
100
AcDbLine
 10
148.568655
 20
583.84916
 11
150.416068
 21
583.84916
  0
LINE
  5
232
100
AcDbEntity
  8
M0
100
AcDbLine
 10
148.568655
 20
582.34916
 11
150.416068
 21
582.34916
  0
LINE
  5
233
100
AcDbEntity
  8
M0
100
AcDbLine
 10
137.450502
 20
582.499062
 11
140.566225
 21
582.499062
  0
LINE
  5
234
100
AcDbEntity
  8
M0
100
AcDbLine
 10
137.450502
 20
583.699013
 11
140.566225
 21
583.699013
  0
LINE
  5
235
100
AcDbEntity
  8
M0
100
AcDbLine
 10
144.766176
 20
582.499062
 11
147.881644
 21
582.499062
  0
LINE
  5
236
100
AcDbEntity
  8
M0
100
AcDbLine
 10
144.766176
 20
583.699013
 11
147.881644
 21
583.699013
  0
ARC
  5
237
100
AcDbEntity
  8
M0
100
AcDbCircle
 10
144.766176
 20
585.199013
 40
1.5
100
AcDbArc
 50
180.0
 51
270.0
  0
ARC
  5
238
100
AcDbEntity
  8
M0
100
AcDbCircle
 10
140.566225
 20
580.999062
 40
1.5
100
AcDbArc
 50
0.0
 51
89.999417
  0
LINE
  5
239
100
AcDbEntity
  8
M0
100
AcDbLine
 10
140.566225
 20
582.499062
 11
140.566225
 21
583.699013
  0
LINE
  5
23A
100
AcDbEntity
  8
M0
100
AcDbLine
 10
144.766176
 20
582.499062
 11
144.766176
 21
583.699013
  0
LINE
  5
23B
100
AcDbEntity
  8
M0
100
AcDbLine
 10
142.066225
 20
586.199013
 11
143.266176
 21
586.199013
  0
LINE
  5
23C
100
AcDbEntity
  8
M0
100
AcDbLine
 10
143.266176
 20
586.199013
 11
143.266176
 21
585.199013
  0
LINE
  5
23D
100
AcDbEntity
  8
M0
100
AcDbLine
 10
143.266176
 20
579.999062
 11
142.066225
 21
579.999062
  0
LINE
  5
23E
100
AcDbEntity
  8
M0
100
AcDbLine
 10
142.066225
 20
579.999062
 11
142.066225
 21
580.999062
  0
LINE
  5
23F
100
AcDbEntity
  8
M0
100
AcDbLine
 10
142.066225
 20
585.199013
 11
142.066225
 21
586.199013
  0
LINE
  5
240
100
AcDbEntity
  8
M0
100
AcDbLine
 10
143.266176
 20
580.999062
 11
143.266176
 21
579.999062
  0
ARC
  5
241
100
AcDbEntity
  8
M0
100
AcDbCircle
 10
144.766176
 20
580.999062
 40
1.5
100
AcDbArc
 50
89.999417
 51
180.0
  0
ARC
  5
242
100
AcDbEntity
  8
M0
100
AcDbCircle
 10
140.566225
 20
585.199013
 40
1.5
100
AcDbArc
 50
-90.0
 51
0.0
  0
LINE
  5
243
100
AcDbEntity
  8
M0
100
AcDbLine
 10
155.916312
 20
590.848916
 11
169.416067
 21
590.848916
  0
ARC
  5
244
100
AcDbEntity
  8
M0
100
AcDbCircle
 10
169.416067
 20
589.848916
 40
1.0
100
AcDbArc
 50
0.0
 51
90.0
  0
ARC
  5
245
100
AcDbEntity
  8
M0
100
AcDbCircle
 10
155.916312
 20
589.848916
 40
1.0
100
AcDbArc
 50
90.0
 51
180.0
  0
LINE
  5
246
100
AcDbEntity
  8
M0
100
AcDbLine
 10
167.416067
 20
590.848916
 11
170.416067
 21
587.848916
  0
LINE
  5
247
100
AcDbEntity
  8
M0
100
AcDbLine
 10
154.916312
 20
587.848916
 11
157.916312
 21
590.848916
  0
LINE
  5
248
100
AcDbEntity
  8
M0
100
AcDbLine
 10
161.916312
 20
590.848916
 11
161.916312
 21
589.001259
  0
LINE
  5
249
100
AcDbEntity
  8
M0
100
AcDbLine
 10
163.416067
 20
590.848916
 11
163.416067
 21
589.001259
  0
LINE
  5
24A
100
AcDbEntity
  8
M0
100
AcDbLine
 10
154.916312
 20
582.348916
 11
156.763724
 21
582.348916
  0
LINE
  5
24B
100
AcDbEntity
  8
M0
100
AcDbLine
 10
154.916312
 20
583.848916
 11
156.763724
 21
583.848916
  0
LINE
  5
24C
100
AcDbEntity
  8
M0
100
AcDbLine
 10
168.568655
 20
583.848916
 11
170.416067
 21
583.848916
  0
LINE
  5
24D
100
AcDbEntity
  8
M0
100
AcDbLine
 10
168.568655
 20
582.348916
 11
170.416067
 21
582.348916
  0
LINE
  5
24E
100
AcDbEntity
  8
M0
100
AcDbLine
 10
157.450491
 20
582.498818
 11
160.566214
 21
582.498818
  0
LINE
  5
24F
100
AcDbEntity
  8
M0
100
AcDbLine
 10
157.450491
 20
583.698769
 11
160.566214
 21
583.698769
  0
LINE
  5
250
100
AcDbEntity
  8
M0
100
AcDbLine
 10
164.766164
 20
582.498818
 11
167.881643
 21
582.498818
  0
LINE
  5
251
100
AcDbEntity
  8
M0
100
AcDbLine
 10
164.766164
 20
583.698769
 11
167.881643
 21
583.698769
  0
ARC
  5
252
100
AcDbEntity
  8
M0
100
AcDbCircle
 10
164.766164
 20
585.198769
 40
1.5
100
AcDbArc
 50
180.0
 51
270.0
  0
ARC
  5
253
100
AcDbEntity
  8
M0
100
AcDbCircle
 10
160.566214
 20
580.998818
 40
1.5
100
AcDbArc
 50
0.0
 51
90.0
  0
LINE
  5
254
100
AcDbEntity
  8
M0
100
AcDbLine
 10
160.566214
 20
582.498818
 11
160.566214
 21
583.698769
  0
LINE
  5
255
100
AcDbEntity
  8
M0
100
AcDbLine
 10
164.766164
 20
582.498818
 11
164.766164
 21
583.698769
  0
LINE
  5
256
100
AcDbEntity
  8
M0
100
AcDbLine
 10
162.066214
 20
586.198769
 11
163.266165
 21
586.198769
  0
LINE
  5
257
100
AcDbEntity
  8
M0
100
AcDbLine
 10
163.266165
 20
586.198769
 11
163.266165
 21
585.198769
  0
LINE
  5
258
100
AcDbEntity
  8
M0
100
AcDbLine
 10
163.266165
 20
579.998818
 11
162.066214
 21
579.998818
  0
LINE
  5
259
100
AcDbEntity
  8
M0
100
AcDbLine
 10
162.066214
 20
579.998818
 11
162.066214
 21
580.998818
  0
LINE
  5
25A
100
AcDbEntity
  8
M0
100
AcDbLine
 10
162.066214
 20
585.198769
 11
162.066214
 21
586.198769
  0
LINE
  5
25B
100
AcDbEntity
  8
M0
100
AcDbLine
 10
163.266165
 20
580.998818
 11
163.266165
 21
579.998818
  0
ARC
  5
25C
100
AcDbEntity
  8
M0
100
AcDbCircle
 10
164.766164
 20
580.998818
 40
1.5
100
AcDbArc
 50
90.0
 51
180.0
  0
ARC
  5
25D
100
AcDbEntity
  8
M0
100
AcDbCircle
 10
160.566214
 20
585.198769
 40
1.5
100
AcDbArc
 50
-90.0
 51
0.0
  0
LINE
  5
25E
100
AcDbEntity
  8
M0
100
AcDbLine
 10
175.916311
 20
590.848916
 11
189.416063
 21
590.848916
  0
ARC
  5
25F
100
AcDbEntity
  8
M0
100
AcDbCircle
 10
189.416063
 20
589.848916
 40
1.0
100
AcDbArc
 50
0.0
 51
90.0
  0
ARC
  5
260
100
AcDbEntity
  8
M0
100
AcDbCircle
 10
175.916311
 20
589.848916
 40
1.0
100
AcDbArc
 50
90.0
 51
180.0
  0
LINE
  5
261
100
AcDbEntity
  8
M0
100
AcDbLine
 10
187.416063
 20
590.848916
 11
190.416063
 21
587.848916
  0
LINE
  5
262
100
AcDbEntity
  8
M0
100
AcDbLine
 10
174.916311
 20
587.848916
 11
177.916311
 21
590.848916
  0
LINE
  5
263
100
AcDbEntity
  8
M0
100
AcDbLine
 10
181.916307
 20
590.848916
 11
181.916307
 21
589.001259
  0
LINE
  5
264
100
AcDbEntity
  8
M0
100
AcDbLine
 10
183.416063
 20
590.848916
 11
183.416063
 21
589.001259
  0
LINE
  5
265
100
AcDbEntity
  8
M0
100
AcDbLine
 10
174.916311
 20
582.348916
 11
176.763723
 21
582.348916
  0
LINE
  5
266
100
AcDbEntity
  8
M0
100
AcDbLine
 10
174.916311
 20
583.848916
 11
176.763723
 21
583.848916
  0
LINE
  5
267
100
AcDbEntity
  8
M0
100
AcDbLine
 10
188.568651
 20
583.848916
 11
190.416063
 21
583.848916
  0
LINE
  5
268
100
AcDbEntity
  8
M0
100
AcDbLine
 10
188.568651
 20
582.348916
 11
190.416063
 21
582.348916
  0
LINE
  5
269
100
AcDbEntity
  8
M0
100
AcDbLine
 10
177.45049
 20
582.498818
 11
180.566209
 21
582.498818
  0
LINE
  5
26A
100
AcDbEntity
  8
M0
100
AcDbLine
 10
177.45049
 20
583.698769
 11
180.566209
 21
583.698769
  0
LINE
  5
26B
100
AcDbEntity
  8
M0
100
AcDbLine
 10
184.76616
 20
582.498818
 11
187.881639
 21
582.498818
  0
LINE
  5
26C
100
AcDbEntity
  8
M0
100
AcDbLine
 10
184.76616
 20
583.698769
 11
187.881639
 21
583.698769
  0
ARC
  5
26D
100
AcDbEntity
  8
M0
100
AcDbCircle
 10
184.76616
 20
585.198769
 40
1.5
100
AcDbArc
 50
180.0
 51
269.999417
  0
ARC
  5
26E
100
AcDbEntity
  8
M0
100
AcDbCircle
 10
180.566209
 20
580.998818
 40
1.5
100
AcDbArc
 50
0.0
 51
90.0
  0
LINE
  5
26F
100
AcDbEntity
  8
M0
100
AcDbLine
 10
180.566209
 20
582.498818
 11
180.566209
 21
583.698769
  0
LINE
  5
270
100
AcDbEntity
  8
M0
100
AcDbLine
 10
184.76616
 20
582.498818
 11
184.76616
 21
583.698769
  0
LINE
  5
271
100
AcDbEntity
  8
M0
100
AcDbLine
 10
182.066209
 20
586.198769
 11
183.26616
 21
586.198769
  0
LINE
  5
272
100
AcDbEntity
  8
M0
100
AcDbLine
 10
183.26616
 20
586.198769
 11
183.26616
 21
585.198769
  0
LINE
  5
273
100
AcDbEntity
  8
M0
100
AcDbLine
 10
183.26616
 20
579.998818
 11
182.066209
 21
579.998818
  0
LINE
  5
274
100
AcDbEntity
  8
M0
100
AcDbLine
 10
182.066209
 20
579.998818
 11
182.066209
 21
580.998818
  0
LINE
  5
275
100
AcDbEntity
  8
M0
100
AcDbLine
 10
182.066209
 20
585.198769
 11
182.066209
 21
586.198769
  0
LINE
  5
276
100
AcDbEntity
  8
M0
100
AcDbLine
 10
183.26616
 20
580.998818
 11
183.26616
 21
579.998818
  0
ARC
  5
277
100
AcDbEntity
  8
M0
100
AcDbCircle
 10
184.76616
 20
580.998818
 40
1.5
100
AcDbArc
 50
90.0
 51
180.0
  0
ARC
  5
278
100
AcDbEntity
  8
M0
100
AcDbCircle
 10
180.566209
 20
585.198769
 40
1.5
100
AcDbArc
 50
-90.000583
 51
0.0
  0
LINE
  5
279
100
AcDbEntity
  8
M0
 62
     5
100
AcDbLine
 10
130.616029
 20
588.314248
 11
122.966371
 21
583.05497
  0
ARC
  5
27A
100
AcDbEntity
  8
M0
 62
     5
100
AcDbCircle
 10
124.666078
 20
580.582802
 40
3.0
100
AcDbArc
 50
124.509994
 51
180.0
  0
ARC
  5
27B
100
AcDbEntity
  8
M0
 62
     5
100
AcDbCircle
 10
129.666078
 20
582.098916
 40
2.249998
100
AcDbArc
 50
65.0255
 51
294.974336
  0
LINE
  5
27C
100
AcDbEntity
  8
M0
  6
DASHDOT
 62
     5
100
AcDbLine
 10
125.472719
 20
582.098916
 11
133.303987
 21
582.098916
  0
ARC
  5
27D
100
AcDbEntity
  8
M0
 62
     5
100
AcDbCircle
 10
206.166063
 20
580.598916
 40
0.5
100
AcDbArc
 50
0.0
 51
90.0
  0
LINE
  5
27E
100
AcDbEntity
  8
M0
 62
     5
100
AcDbLine
 10
202.666063
 20
581.09916
 11
206.166063
 21
581.09916
  0
LINE
  5
27F
100
AcDbEntity
  8
M0
 62
     5
100
AcDbLine
 10
194.666307
 20
579.59916
 11
202.666063
 21
579.59916
  0
LINE
  5
280
100
AcDbEntity
  8
M0
100
AcDbLine
 10
200.065965
 20
578.199013
 11
201.886034
 21
578.199013
  0
LINE
  5
281
100
AcDbEntity
  8
M0
100
AcDbLine
 10
197.265916
 20
578.199013
 11
195.445848
 21
578.199013
  0
LINE
  5
282
100
AcDbEntity
  8
M0
100
AcDbLine
 10
201.146776
 20
579.399208
 11
196.185106
 21
579.398964
  0
ARC
  5
283
100
AcDbEntity
  8
M0
100
AcDbCircle
 10
196.185106
 20
578.898964
 40
0.5
100
AcDbArc
 50
90.0
 51
162.856778
  0
ARC
  5
284
100
AcDbEntity
  8
M0
100
AcDbCircle
 10
201.146776
 20
578.898964
 40
0.5
100
AcDbArc
 50
17.151452
 51
90.0
  0
LINE
  5
285
100
AcDbEntity
  8
M0
 62
     6
100
AcDbLine
 10
154.416312
 20
595.59916
 11
154.416312
 21
575.59916
  0
LINE
  5
286
100
AcDbEntity
  8
M0
 62
     6
100
AcDbLine
 10
119.166322
 20
572.59916
 11
120.666322
 21
572.59916
  0
ARC
  5
287
100
AcDbEntity
  8
M0
 62
     6
100
AcDbCircle
 10
120.666322
 20
572.09916
 40
0.5
100
AcDbArc
 50
0.0
 51
89.998251
  0
ARC
  5
288
100
AcDbEntity
  8
M0
 62
     6
100
AcDbCircle
 10
119.166322
 20
572.09916
 40
0.5
100
AcDbArc
 50
89.998251
 51
180.0
  0
LINE
  5
289
100
AcDbEntity
  8
M0
 62
     6
100
AcDbLine
 10
134.416322
 20
591.09916
 11
134.416322
 21
575.598671
  0
LINE
  5
28A
100
AcDbEntity
  8
M0
 62
     6
100
AcDbLine
 10
150.916312
 20
595.59916
 11
150.916312
 21
575.598671
  0
LINE
  5
28B
100
AcDbEntity
  8
M0
 62
     6
100
AcDbLine
 10
154.416312
 20
595.59916
 11
154.416312
 21
575.598671
  0
LINE
  5
28C
100
AcDbEntity
  8
M0
 62
     6
100
AcDbLine
 10
170.916311
 20
595.598671
 11
170.916311
 21
575.598916
  0
LINE
  5
28D
100
AcDbEntity
  8
M0
 62
     6
100
AcDbLine
 10
206.166307
 20
572.598916
 11
204.666307
 21
572.598916
  0
ARC
  5
28E
100
AcDbEntity
  8
M0
 62
     6
100
AcDbCircle
 10
204.666307
 20
572.098916
 40
0.5
100
AcDbArc
 50
90.0
 51
180.0
  0
ARC
  5
28F
100
AcDbEntity
  8
M0
 62
     6
100
AcDbCircle
 10
206.166307
 20
572.098916
 40
0.5
100
AcDbArc
 50
0.0
 51
90.0
  0
LINE
  5
290
100
AcDbEntity
  8
M0
 62
     6
100
AcDbLine
 10
190.916307
 20
591.098916
 11
190.916307
 21
575.598671
  0
LINE
  5
291
100
AcDbEntity
  8
M0
 62
     6
100
AcDbLine
 10
174.416311
 20
595.598671
 11
174.416311
 21
575.598671
  0
LINE
  5
292
100
AcDbEntity
  8
M0
 62
     6
100
AcDbLine
 10
170.916311
 20
595.598671
 11
170.916311
 21
575.598671
  0
LINE
  5
293
100
AcDbEntity
  8
M0
 62
     7
100
AcDbLine
 10
170.166311
 20
577.098916
 11
168.166311
 21
577.098916
  0
LINE
  5
294
100
AcDbEntity
  8
M0
 62
     7
100
AcDbLine
 10
157.166312
 20
577.098916
 11
155.166312
 21
577.098916
  0
ARC
  5
295
100
AcDbEntity
  8
M0
 62
     7
100
AcDbCircle
 10
168.166311
 20
576.598916
 40
0.5
100
AcDbArc
 50
90.0
 51
180.0
  0
ARC
  5
296
100
AcDbEntity
  8
M0
 62
     7
100
AcDbCircle
 10
155.166312
 20
576.598916
 40
0.5
100
AcDbArc
 50
90.0
 51
180.0
  0
LINE
  5
297
100
AcDbEntity
  8
M0
 62
     7
100
AcDbLine
 10
194.166307
 20
575.598916
 11
131.166322
 21
575.598916
  0
ARC
  5
298
100
AcDbEntity
  8
M0
 62
     7
100
AcDbCircle
 10
131.166322
 20
575.098916
 40
0.5
100
AcDbArc
 50
89.998251
 51
180.0
  0
ARC
  5
299
100
AcDbEntity
  8
M0
 62
     7
100
AcDbCircle
 10
194.166307
 20
575.098916
 40
0.5
100
AcDbArc
 50
0.0
 51
90.0
  0
LINE
  5
29A
100
AcDbEntity
  8
M0
 62
     7
100
AcDbLine
 10
157.666312
 20
576.598916
 11
157.666312
 21
575.598916
  0
LINE
  5
29B
100
AcDbEntity
  8
M0
 62
     7
100
AcDbLine
 10
167.666311
 20
576.598916
 11
167.666311
 21
575.598916
  0
LINE
  5
29C
100
AcDbEntity
  8
M0
 62
     7
100
AcDbLine
 10
154.666312
 20
576.598916
 11
154.666312
 21
575.598916
  0
LINE
  5
29D
100
AcDbEntity
  8
M0
 62
     7
100
AcDbLine
 10
170.666311
 20
576.598916
 11
170.666311
 21
575.598916
  0
ARC
  5
29E
100
AcDbEntity
  8
M0
 62
     7
100
AcDbCircle
 10
170.166311
 20
576.598916
 40
0.5
100
AcDbArc
 50
0.0
 51
90.0
  0
ARC
  5
29F
100
AcDbEntity
  8
M0
 62
     7
100
AcDbCircle
 10
157.166312
 20
576.598916
 40
0.5
100
AcDbArc
 50
0.0
 51
90.0
  0
LINE
  5
2A0
100
AcDbEntity
  8
M0
100
AcDbLine
 10
150.416068
 20
589.84916
 11
150.416068
 21
576.34916
  0
LINE
  5
2A1
100
AcDbEntity
  8
M0
100
AcDbLine
 10
134.916322
 20
576.34916
 11
134.916322
 21
589.84916
  0
ARC
  5
2A2
100
AcDbEntity
  8
M0
100
AcDbCircle
 10
149.416068
 20
576.34916
 40
1.0
100
AcDbArc
 50
-48.622035
 51
0.0
  0
ARC
  5
2A3
100
AcDbEntity
  8
M0
100
AcDbCircle
 10
135.916322
 20
576.34916
 40
1.0
100
AcDbArc
 50
180.0
 51
228.612082
  0
LINE
  5
2A4
100
AcDbEntity
  8
M0
100
AcDbLine
 10
150.416068
 20
578.34916
 11
147.665823
 21
575.598671
  0
LINE
  5
2A5
100
AcDbEntity
  8
M0
100
AcDbLine
 10
137.666322
 20
575.598671
 11
134.916078
 21
578.34916
  0
LINE
  5
2A6
100
AcDbEntity
  8
M0
100
AcDbLine
 10
141.916322
 20
577.196572
 11
141.916322
 21
575.598671
  0
LINE
  5
2A7
100
AcDbEntity
  8
M0
100
AcDbLine
 10
143.416078
 20
577.196572
 11
143.416078
 21
575.598671
  0
CIRCLE
  5
2A8
100
AcDbEntity
  8
M0
100
AcDbCircle
 10
142.666322
 20
583.09916
 40
5.949997
  0
CIRCLE
  5
2A9
100
AcDbEntity
  8
M0
100
AcDbCircle
 10
142.666322
 20
583.09916
 40
5.249998
  0
LINE
  5
2AA
100
AcDbEntity
  8
M0
100
AcDbLine
 10
170.416067
 20
589.848916
 11
170.416067
 21
577.031533
  0
LINE
  5
2AB
100
AcDbEntity
  8
M0
100
AcDbLine
 10
154.916312
 20
577.031533
 11
154.916312
 21
589.848916
  0
LINE
  5
2AC
100
AcDbEntity
  8
M0
100
AcDbLine
 10
170.416067
 20
578.348916
 11
169.166067
 21
577.098671
  0
LINE
  5
2AD
100
AcDbEntity
  8
M0
100
AcDbLine
 10
156.166068
 20
577.098671
 11
154.916068
 21
578.348916
  0
LINE
  5
2AE
100
AcDbEntity
  8
M0
100
AcDbLine
 10
161.916312
 20
577.196328
 11
161.916312
 21
575.598427
  0
LINE
  5
2AF
100
AcDbEntity
  8
M0
100
AcDbLine
 10
163.416067
 20
577.196328
 11
163.416067
 21
575.598427
  0
CIRCLE
  5
2B0
100
AcDbEntity
  8
M0
100
AcDbCircle
 10
162.666312
 20
583.098916
 40
5.949997
  0
CIRCLE
  5
2B1
100
AcDbEntity
  8
M0
100
AcDbCircle
 10
162.666312
 20
583.098916
 40
5.249998
  0
LINE
  5
2B2
100
AcDbEntity
  8
M0
100
AcDbLine
 10
190.416063
 20
589.848916
 11
190.416063
 21
576.348916
  0
LINE
  5
2B3
100
AcDbEntity
  8
M0
100
AcDbLine
 10
174.916311
 20
576.348916
 11
174.916311
 21
589.848916
  0
ARC
  5
2B4
100
AcDbEntity
  8
M0
100
AcDbCircle
 10
189.416063
 20
576.348916
 40
1.0
100
AcDbArc
 50
-48.622609
 51
0.0
  0
ARC
  5
2B5
100
AcDbEntity
  8
M0
100
AcDbCircle
 10
175.916311
 20
576.348916
 40
1.0
100
AcDbArc
 50
180.0
 51
228.611467
  0
LINE
  5
2B6
100
AcDbEntity
  8
M0
100
AcDbLine
 10
190.416063
 20
578.348916
 11
187.665819
 21
575.598427
  0
LINE
  5
2B7
100
AcDbEntity
  8
M0
100
AcDbLine
 10
177.666311
 20
575.598427
 11
174.916067
 21
578.348916
  0
LINE
  5
2B8
100
AcDbEntity
  8
M0
100
AcDbLine
 10
181.916307
 20
577.196328
 11
181.916307
 21
575.598427
  0
LINE
  5
2B9
100
AcDbEntity
  8
M0
100
AcDbLine
 10
183.416063
 20
577.196328
 11
183.416063
 21
575.598427
  0
CIRCLE
  5
2BA
100
AcDbEntity
  8
M0
100
AcDbCircle
 10
182.666307
 20
583.098916
 40
5.949997
  0
CIRCLE
  5
2BB
100
AcDbEntity
  8
M0
100
AcDbCircle
 10
182.666307
 20
583.098916
 40
5.249998
  0
LINE
  5
2BC
100
AcDbEntity
  8
M0
 62
     5
100
AcDbLine
 10
121.666078
 20
570.59916
 11
121.666078
 21
580.582802
  0
LINE
  5
2BD
100
AcDbEntity
  8
M0
  6
DASHDOT
 62
     5
100
AcDbLine
 10
129.666078
 20
577.958291
 11
129.666078
 21
585.57206
  0
LINE
  5
2BE
100
AcDbEntity
  8
M0
 62
     5
100
AcDbLine
 10
121.166078
 20
570.59916
 11
121.666078
 21
570.59916
  0
LINE
  5
2BF
100
AcDbEntity
  8
M0
 62
     5
100
AcDbLine
 10
194.666307
 20
570.09916
 11
202.666063
 21
570.09916
  0
CIRCLE
  5
2C0
100
AcDbEntity
  8
M0
100
AcDbCircle
 10
198.666063
 20
575.09916
 40
3.0
  0
LINE
  5
2C1
100
AcDbEntity
  8
M0
100
AcDbLine
 10
195.707078
 20
579.046425
 11
194.890916
 21
576.399208
  0
LINE
  5
2C2
100
AcDbEntity
  8
M0
100
AcDbLine
 10
195.707078
 20
571.151894
 11
194.890916
 21
573.799111
  0
LINE
  5
2C3
100
AcDbEntity
  8
M0
100
AcDbLine
 10
201.624559
 20
579.046425
 11
202.440965
 21
576.399208
  0
LINE
  5
2C4
100
AcDbEntity
  8
M0
100
AcDbLine
 10
201.624559
 20
571.151894
 11
202.440965
 21
573.799111
  0
LINE
  5
2C5
100
AcDbEntity
  8
M0
100
AcDbLine
 10
200.987596
 20
576.999062
 11
202.255907
 21
576.999062
  0
LINE
  5
2C6
100
AcDbEntity
  8
M0
100
AcDbLine
 10
200.987596
 20
573.199013
 11
202.255907
 21
573.199013
  0
LINE
  5
2C7
100
AcDbEntity
  8
M0
100
AcDbLine
 10
200.065965
 20
571.999062
 11
201.886034
 21
571.999062
  0
LINE
  5
2C8
100
AcDbEntity
  8
M0
100
AcDbLine
 10
196.344285
 20
576.999062
 11
195.075975
 21
576.999062
  0
LINE
  5
2C9
100
AcDbEntity
  8
M0
100
AcDbLine
 10
196.344285
 20
573.199013
 11
195.075975
 21
573.199013
  0
LINE
  5
2CA
100
AcDbEntity
  8
M0
100
AcDbLine
 10
197.265916
 20
571.999062
 11
195.445848
 21
571.999062
  0
LINE
  5
2CB
100
AcDbEntity
  8
M0
100
AcDbLine
 10
196.185106
 20
570.799111
 11
201.146776
 21
570.799111
  0
LINE
  5
2CC
100
AcDbEntity
  8
M0
100
AcDbLine
 10
202.440965
 20
573.799111
 11
202.440965
 21
576.399208
  0
LINE
  5
2CD
100
AcDbEntity
  8
M0
100
AcDbLine
 10
194.890916
 20
576.399208
 11
194.890916
 21
573.799111
  0
LINE
  5
2CE
100
AcDbEntity
  8
M0
  6
DASHDOT
100
AcDbLine
 10
192.390916
 20
575.09916
 11
204.940965
 21
575.09916
  0
LINE
  5
2CF
100
AcDbEntity
  8
M0
100
AcDbLine
 10
200.065965
 20
571.999062
 11
200.065965
 21
572.445839
  0
LINE
  5
2D0
100
AcDbEntity
  8
M0
100
AcDbLine
 10
200.065965
 20
577.75248
 11
200.065965
 21
578.199013
  0
LINE
  5
2D1
100
AcDbEntity
  8
M0
100
AcDbLine
 10
197.265916
 20
577.75248
 11
197.265916
 21
578.199013
  0
LINE
  5
2D2
100
AcDbEntity
  8
M0
100
AcDbLine
 10
197.265916
 20
571.999062
 11
197.265916
 21
572.445839
  0
LINE
  5
2D3
100
AcDbEntity
  8
M0
100
AcDbLine
 10
200.256639
 20
573.508339
 11
197.074998
 21
576.68998
  0
LINE
  5
2D4
100
AcDbEntity
  8
M0
100
AcDbLine
 10
199.019334
 20
576.513222
 11
197.251756
 21
574.745644
  0
LINE
  5
2D5
100
AcDbEntity
  8
M0
100
AcDbLine
 10
200.079881
 20
575.452675
 11
198.312303
 21
573.685097
  0
ARC
  5
2D6
100
AcDbEntity
  8
M0
100
AcDbCircle
 10
196.185106
 20
571.299111
 40
0.5
100
AcDbArc
 50
197.11777
 51
269.998251
  0
ARC
  5
2D7
100
AcDbEntity
  8
M0
100
AcDbCircle
 10
201.146776
 20
571.299111
 40
0.5
100
AcDbArc
 50
269.998251
 51
342.874517
  0
CIRCLE
  5
2D8
100
AcDbEntity
  8
M0
100
AcDbCircle
 10
127.165834
 20
575.59916
 40
3.5
  0
LINE
  5
2D9
100
AcDbEntity
  8
M0
  6
DASHDOT
100
AcDbLine
 10
119.236696
 20
575.59916
 11
140.665834
 21
575.59916
  0
ARC
  5
2DA
100
AcDbEntity
  8
M0
100
AcDbCircle
 10
127.165834
 20
575.59916
 40
4.0
100
AcDbArc
 50
28.952301
 51
331.044578
  0
LINE
  5
2DB
100
AcDbEntity
  8
M0
100
AcDbLine
 10
125.398012
 20
577.366738
 11
128.933412
 21
573.831337
  0
LINE
  5
2DC
100
AcDbEntity
  8
M0
100
AcDbLine
 10
125.397768
 20
575.2454
 11
127.519105
 21
577.366738
  0
LINE
  5
2DD
100
AcDbEntity
  8
M0
100
AcDbLine
 10
126.812074
 20
573.831093
 11
128.933412
 21
575.952431
  0
LINE
  5
2DE
100
AcDbEntity
  8
M0
 62
     7
100
AcDbLine
 10
166.666311
 20
555.099068
 11
165.166311
 21
555.099068
  0
LINE
  5
2DF
100
AcDbEntity
  8
M0
 62
     7
100
AcDbLine
 10
158.666312
 20
555.099068
 11
160.166312
 21
555.099068
  0
LINE
  5
2E0
100
AcDbEntity
  8
M0
100
AcDbLine
 10
200.98784
 20
555.498818
 11
202.256151
 21
555.498818
  0
LINE
  5
2E1
100
AcDbEntity
  8
M0
100
AcDbLine
 10
196.34453
 20
555.498818
 11
195.076219
 21
555.498818
  0
LINE
  5
2E2
100
AcDbEntity
  8
M0
100
AcDbLine
 10
166.416311
 20
554.74897
 11
158.916312
 21
554.74897
  0
LINE
  5
2E3
100
AcDbEntity
  8
M0
100
AcDbLine
 10
160.166312
 20
555.24897
 11
165.166311
 21
555.24897
  0
LINE
  5
2E4
100
AcDbEntity
  8
M0
 62
     6
100
AcDbLine
 10
129.866273
 20
558.59916
 11
129.866273
 21
557.59916
  0
LINE
  5
2E5
100
AcDbEntity
  8
M0
 62
     6
100
AcDbLine
 10
123.466127
 20
558.59916
 11
123.466127
 21
557.59916
  0
LINE
  5
2E6
100
AcDbEntity
  8
M0
 62
     6
100
AcDbLine
 10
123.166322
 20
560.598916
 11
123.166322
 21
559.09916
  0
LINE
  5
2E7
100
AcDbEntity
  8
M0
 62
     6
100
AcDbLine
 10
130.166322
 20
560.59916
 11
130.166322
 21
559.09916
  0
ARC
  5
2E8
100
AcDbEntity
  8
M0
 62
     6
100
AcDbCircle
 10
122.966127
 20
558.59916
 40
0.5
100
AcDbArc
 50
0.0
 51
89.998251
  0
LINE
  5
2E9
100
AcDbEntity
  8
M0
 62
     6
100
AcDbLine
 10
122.666322
 20
557.59916
 11
123.727113
 21
557.59916
  0
LINE
  5
2EA
100
AcDbEntity
  8
M0
 62
     6
100
AcDbLine
 10
122.666322
 20
559.09916
 11
122.966127
 21
559.09916
  0
LINE
  5
2EB
100
AcDbEntity
  8
M0
 62
     6
100
AcDbLine
 10
130.366273
 20
559.09916
 11
130.666322
 21
559.09916
  0
ARC
  5
2EC
100
AcDbEntity
  8
M0
 62
     6
100
AcDbCircle
 10
130.366273
 20
558.59916
 40
0.5
100
AcDbArc
 50
89.998251
 51
180.0
  0
LINE
  5
2ED
100
AcDbEntity
  8
M0
 62
     6
100
AcDbLine
 10
195.466112
 20
558.598916
 11
195.466112
 21
557.598916
  0
LINE
  5
2EE
100
AcDbEntity
  8
M0
 62
     6
100
AcDbLine
 10
201.866258
 20
558.598916
 11
201.866258
 21
557.598916
  0
LINE
  5
2EF
100
AcDbEntity
  8
M0
 62
     6
100
AcDbLine
 10
202.166307
 20
560.598671
 11
202.166307
 21
559.098916
  0
LINE
  5
2F0
100
AcDbEntity
  8
M0
 62
     6
100
AcDbLine
 10
195.166307
 20
560.598916
 11
195.166307
 21
559.098916
  0
ARC
  5
2F1
100
AcDbEntity
  8
M0
 62
     6
100
AcDbCircle
 10
202.366258
 20
558.598916
 40
0.5
100
AcDbArc
 50
90.0
 51
180.0
  0
LINE
  5
2F2
100
AcDbEntity
  8
M0
 62
     6
100
AcDbLine
 10
202.666307
 20
557.598916
 11
201.605272
 21
557.598916
  0
LINE
  5
2F3
100
AcDbEntity
  8
M0
 62
     6
100
AcDbLine
 10
202.666307
 20
559.098916
 11
202.366258
 21
559.098916
  0
LINE
  5
2F4
100
AcDbEntity
  8
M0
 62
     6
100
AcDbLine
 10
194.966112
 20
559.098916
 11
194.666307
 21
559.098916
  0
ARC
  5
2F5
100
AcDbEntity
  8
M0
 62
     6
100
AcDbCircle
 10
194.966112
 20
558.598916
 40
0.5
100
AcDbArc
 50
0.0
 51
90.0
  0
LINE
  5
2F6
100
AcDbEntity
  8
M0
 62
     6
100
AcDbLine
 10
129.605287
 20
557.59916
 11
130.666322
 21
557.59916
  0
LINE
  5
2F7
100
AcDbEntity
  8
M0
 62
     6
100
AcDbLine
 10
195.727098
 20
557.598916
 11
194.666307
 21
557.598916
  0
LINE
  5
2F8
100
AcDbEntity
  8
M0
 62
     6
100
AcDbLine
 10
195.466112
 20
558.098916
 11
201.866258
 21
558.098916
  0
LINE
  5
2F9
100
AcDbEntity
  8
M0
 62
     6
100
AcDbLine
 10
123.466127
 20
558.09916
 11
129.866273
 21
558.09916
  0
LINE
  5
2FA
100
AcDbEntity
  8
M0
 62
     7
100
AcDbLine
 10
164.166311
 20
559.098916
 11
161.166312
 21
559.098916
  0
LINE
  5
2FB
100
AcDbEntity
  8
M0
 62
     7
100
AcDbLine
 10
165.166311
 20
558.098916
 11
165.166311
 21
555.099068
  0
LINE
  5
2FC
100
AcDbEntity
  8
M0
 62
     7
100
AcDbLine
 10
160.166312
 20
558.098916
 11
160.166312
 21
555.099068
  0
LINE
  5
2FD
100
AcDbEntity
  8
M0
 62
     7
100
AcDbLine
 10
166.666311
 20
555.798867
 11
165.166311
 21
555.798867
  0
LINE
  5
2FE
100
AcDbEntity
  8
M0
 62
     7
100
AcDbLine
 10
158.666312
 20
555.798867
 11
160.166312
 21
555.798867
  0
ARC
  5
2FF
100
AcDbEntity
  8
M0
 62
     7
100
AcDbCircle
 10
164.166311
 20
558.098916
 40
1.0
100
AcDbArc
 50
0.0
 51
90.0
  0
ARC
  5
300
100
AcDbEntity
  8
M0
 62
     7
100
AcDbCircle
 10
161.166312
 20
558.098916
 40
1.0
100
AcDbArc
 50
90.0
 51
180.0
  0
LINE
  5
301
100
AcDbEntity
  8
M0
100
AcDbLine
 10
123.707338
 20
557.546425
 11
122.891176
 21
554.899361
  0
LINE
  5
302
100
AcDbEntity
  8
M0
100
AcDbLine
 10
129.624818
 20
557.546425
 11
130.441225
 21
554.899361
  0
LINE
  5
303
100
AcDbEntity
  8
M0
100
AcDbLine
 10
128.066225
 20
556.699013
 11
129.886293
 21
556.699013
  0
LINE
  5
304
100
AcDbEntity
  8
M0
100
AcDbLine
 10
128.987855
 20
555.499062
 11
130.256166
 21
555.499062
  0
LINE
  5
305
100
AcDbEntity
  8
M0
100
AcDbLine
 10
125.266176
 20
556.699013
 11
123.446107
 21
556.699013
  0
LINE
  5
306
100
AcDbEntity
  8
M0
100
AcDbLine
 10
124.344545
 20
555.499062
 11
123.076234
 21
555.499062
  0
LINE
  5
307
100
AcDbEntity
  8
M0
100
AcDbLine
 10
129.147035
 20
557.899208
 11
124.185365
 21
557.898964
  0
LINE
  5
308
100
AcDbEntity
  8
M0
100
AcDbLine
 10
128.066225
 20
556.25248
 11
128.066225
 21
556.699013
  0
LINE
  5
309
100
AcDbEntity
  8
M0
100
AcDbLine
 10
125.266176
 20
556.25248
 11
125.266176
 21
556.699013
  0
ARC
  5
30A
100
AcDbEntity
  8
M0
100
AcDbCircle
 10
124.185365
 20
557.398964
 40
0.5
100
AcDbArc
 50
89.998251
 51
162.856158
  0
ARC
  5
30B
100
AcDbEntity
  8
M0
100
AcDbCircle
 10
129.147035
 20
557.398964
 40
0.5
100
AcDbArc
 50
17.151876
 51
89.998251
  0
LINE
  5
30C
100
AcDbEntity
  8
M0
100
AcDbLine
 10
128.066225
 20
559.999062
 11
129.886293
 21
559.999062
  0
LINE
  5
30D
100
AcDbEntity
  8
M0
100
AcDbLine
 10
125.266176
 20
559.999062
 11
123.446107
 21
559.999062
  0
LINE
  5
30E
100
AcDbEntity
  8
M0
100
AcDbLine
 10
124.185365
 20
558.799111
 11
129.147035
 21
558.799111
  0
LINE
  5
30F
100
AcDbEntity
  8
M0
100
AcDbLine
 10
128.066225
 20
559.999062
 11
128.066225
 21
560.445839
  0
LINE
  5
310
100
AcDbEntity
  8
M0
100
AcDbLine
 10
125.266176
 20
559.999062
 11
125.266176
 21
560.445839
  0
ARC
  5
311
100
AcDbEntity
  8
M0
100
AcDbCircle
 10
124.185365
 20
559.299111
 40
0.5
100
AcDbArc
 50
197.118284
 51
270.0
  0
ARC
  5
312
100
AcDbEntity
  8
M0
100
AcDbCircle
 10
129.147035
 20
559.299111
 40
0.5
100
AcDbArc
 50
270.0
 51
342.875032
  0
LINE
  5
313
100
AcDbEntity
  8
M0
100
AcDbLine
 10
200.066209
 20
559.998818
 11
201.886278
 21
559.998818
  0
LINE
  5
314
100
AcDbEntity
  8
M0
100
AcDbLine
 10
197.26616
 20
559.998818
 11
195.446092
 21
559.998818
  0
LINE
  5
315
100
AcDbEntity
  8
M0
100
AcDbLine
 10
196.18535
 20
558.798867
 11
201.14702
 21
558.798867
  0
LINE
  5
316
100
AcDbEntity
  8
M0
100
AcDbLine
 10
200.066209
 20
559.998818
 11
200.066209
 21
560.445595
  0
LINE
  5
317
100
AcDbEntity
  8
M0
100
AcDbLine
 10
197.26616
 20
559.998818
 11
197.26616
 21
560.445595
  0
ARC
  5
318
100
AcDbEntity
  8
M0
100
AcDbCircle
 10
196.18535
 20
559.298867
 40
0.5
100
AcDbArc
 50
197.11777
 51
269.998251
  0
ARC
  5
319
100
AcDbEntity
  8
M0
100
AcDbCircle
 10
201.14702
 20
559.298867
 40
0.5
100
AcDbArc
 50
269.998251
 51
342.874517
  0
LINE
  5
31A
100
AcDbEntity
  8
M0
100
AcDbLine
 10
195.707323
 20
557.546181
 11
194.89116
 21
554.899117
  0
LINE
  5
31B
100
AcDbEntity
  8
M0
100
AcDbLine
 10
201.624803
 20
557.546181
 11
202.441209
 21
554.899117
  0
LINE
  5
31C
100
AcDbEntity
  8
M0
100
AcDbLine
 10
200.066209
 20
556.698769
 11
201.886278
 21
556.698769
  0
LINE
  5
31D
100
AcDbEntity
  8
M0
100
AcDbLine
 10
197.26616
 20
556.698769
 11
195.446092
 21
556.698769
  0
LINE
  5
31E
100
AcDbEntity
  8
M0
100
AcDbLine
 10
201.14702
 20
557.898964
 11
196.18535
 21
557.89872
  0
LINE
  5
31F
100
AcDbEntity
  8
M0
100
AcDbLine
 10
200.066209
 20
556.252236
 11
200.066209
 21
556.698769
  0
LINE
  5
320
100
AcDbEntity
  8
M0
100
AcDbLine
 10
197.26616
 20
556.252236
 11
197.26616
 21
556.698769
  0
ARC
  5
321
100
AcDbEntity
  8
M0
100
AcDbCircle
 10
196.18535
 20
557.39872
 40
0.5
100
AcDbArc
 50
90.0
 51
162.856673
  0
ARC
  5
322
100
AcDbEntity
  8
M0
100
AcDbCircle
 10
201.14702
 20
557.39872
 40
0.5
100
AcDbArc
 50
17.152392
 51
90.0
  0
LINE
  5
323
100
AcDbEntity
  8
M0
100
AcDbLine
 10
160.166312
 20
556.248818
 11
165.166311
 21
556.248818
  0
LINE
  5
324
100
AcDbEntity
  8
M0
100
AcDbLine
 10
160.416312
 20
556.948769
 11
164.916311
 21
556.948769
  0
LINE
  5
325
100
AcDbEntity
  8
M0
100
AcDbLine
 10
164.916311
 20
556.948769
 11
164.916311
 21
556.248818
  0
LINE
  5
326
100
AcDbEntity
  8
M0
100
AcDbLine
 10
160.416312
 20
556.948769
 11
160.416312
 21
556.248818
  0
LINE
  5
327
100
AcDbEntity
  8
M0
  6
DASHDOT
 62
     6
100
AcDbLine
 10
120.596284
 20
553.599312
 11
133.449022
 21
553.599312
  0
LINE
  5
328
100
AcDbEntity
  8
M0
 62
     6
100
AcDbLine
 10
124.408021
 20
548.799294
 11
128.924379
 21
548.799294
  0
LINE
  5
329
100
AcDbEntity
  8
M0
 62
     6
100
AcDbLine
 10
123.45099
 20
549.509255
 11
122.666322
 21
552.099312
  0
LINE
  5
32A
100
AcDbEntity
  8
M0
 62
     6
100
AcDbLine
 10
129.88141
 20
549.509255
 11
130.666322
 21
552.099312
  0
ARC
  5
32B
100
AcDbEntity
  8
M0
 62
     6
100
AcDbCircle
 10
124.408021
 20
549.799294
 40
1.0
100
AcDbArc
 50
196.860014
 51
270.0
  0
ARC
  5
32C
100
AcDbEntity
  8
M0
 62
     6
100
AcDbCircle
 10
128.924379
 20
549.799294
 40
1.0
100
AcDbArc
 50
270.0
 51
343.140188
  0
LINE
  5
32D
100
AcDbEntity
  8
M0
  6
DASHDOT
 62
     6
100
AcDbLine
 10
204.510728
 20
553.599068
 11
191.676134
 21
553.599068
  0
LINE
  5
32E
100
AcDbEntity
  8
M0
 62
     6
100
AcDbLine
 10
200.924364
 20
548.79905
 11
196.408006
 21
548.79905
  0
LINE
  5
32F
100
AcDbEntity
  8
M0
 62
     6
100
AcDbLine
 10
201.881395
 20
549.509011
 11
202.666307
 21
552.099068
  0
LINE
  5
330
100
AcDbEntity
  8
M0
 62
     6
100
AcDbLine
 10
195.450975
 20
549.509011
 11
194.666307
 21
552.099068
  0
ARC
  5
331
100
AcDbEntity
  8
M0
 62
     6
100
AcDbCircle
 10
200.924364
 20
549.79905
 40
1.0
100
AcDbArc
 50
269.999126
 51
343.139934
  0
ARC
  5
332
100
AcDbEntity
  8
M0
 62
     6
100
AcDbCircle
 10
196.408006
 20
549.79905
 40
1.0
100
AcDbArc
 50
196.85976
 51
269.999126
  0
LINE
  5
333
100
AcDbEntity
  8
M0
 62
     7
100
AcDbLine
 10
123.666322
 20
548.799111
 11
130.166322
 21
548.799111
  0
LINE
  5
334
100
AcDbEntity
  8
M0
 62
     7
100
AcDbLine
 10
195.166307
 20
548.799111
 11
201.666307
 21
548.799111
  0
ARC
  5
335
100
AcDbEntity
  8
M0
 62
     7
100
AcDbCircle
 10
130.166322
 20
549.299111
 40
0.5
100
AcDbArc
 50
270.0
 51
360.0
  0
ARC
  5
336
100
AcDbEntity
  8
M0
 62
     7
100
AcDbCircle
 10
201.666307
 20
548.299111
 40
0.5
100
AcDbArc
 50
0.0
 51
90.0
  0
ARC
  5
337
100
AcDbEntity
  8
M0
 62
     7
100
AcDbCircle
 10
123.666322
 20
548.299111
 40
0.5
100
AcDbArc
 50
89.998251
 51
180.0
  0
ARC
  5
338
100
AcDbEntity
  8
M0
 62
     7
100
AcDbCircle
 10
195.166307
 20
549.299111
 40
0.5
100
AcDbArc
 50
180.0
 51
269.998251
  0
LINE
  5
339
100
AcDbEntity
  8
M0
 62
     7
100
AcDbLine
 10
154.366263
 20
553.398873
 11
158.666312
 21
553.398873
  0
ARC
  5
33A
100
AcDbEntity
  8
M0
 62
     7
100
AcDbCircle
 10
170.966115
 20
550.398873
 40
3.0
100
AcDbArc
 50
0.0
 51
90.0
  0
ARC
  5
33B
100
AcDbEntity
  8
M0
 62
     7
100
AcDbCircle
 10
154.366263
 20
550.398873
 40
3.0
100
AcDbArc
 50
90.0
 51
179.999982
  0
ARC
  5
33C
100
AcDbEntity
  8
M0
 62
     7
100
AcDbCircle
 10
173.466115
 20
550.599068
 40
0.5
100
AcDbArc
 50
0.0
 51
90.0
  0
ARC
  5
33D
100
AcDbEntity
  8
M0
 62
     7
100
AcDbCircle
 10
155.166312
 20
552.898873
 40
0.5
100
AcDbArc
 50
90.0
 51
136.107726
  0
ARC
  5
33E
100
AcDbEntity
  8
M0
 62
     7
100
AcDbCircle
 10
170.166311
 20
552.898873
 40
0.5
100
AcDbArc
 50
43.911595
 51
90.0
  0
ARC
  5
33F
100
AcDbEntity
  8
M0
 62
     7
100
AcDbCircle
 10
151.866263
 20
550.599068
 40
0.5
100
AcDbArc
 50
90.0
 51
180.0
  0
LINE
  5
340
100
AcDbEntity
  8
M0
 62
     7
100
AcDbLine
 10
166.666311
 20
553.398873
 11
170.966115
 21
553.398873
  0
LINE
  5
341
100
AcDbEntity
  8
M0
100
AcDbLine
 10
123.707338
 20
549.652062
 11
122.891176
 21
552.299263
  0
LINE
  5
342
100
AcDbEntity
  8
M0
100
AcDbLine
 10
129.624818
 20
549.652047
 11
130.441225
 21
552.299263
  0
LINE
  5
343
100
AcDbEntity
  8
M0
100
AcDbLine
 10
128.987855
 20
551.699166
 11
130.256166
 21
551.699166
  0
LINE
  5
344
100
AcDbEntity
  8
M0
100
AcDbLine
 10
128.066225
 20
550.499215
 11
129.886293
 21
550.499215
  0
LINE
  5
345
100
AcDbEntity
  8
M0
100
AcDbLine
 10
124.344545
 20
551.699166
 11
123.076234
 21
551.699166
  0
LINE
  5
346
100
AcDbEntity
  8
M0
100
AcDbLine
 10
125.266176
 20
550.499215
 11
123.446107
 21
550.499215
  0
LINE
  5
347
100
AcDbEntity
  8
M0
100
AcDbLine
 10
124.185365
 20
549.299385
 11
129.147035
 21
549.299385
  0
LINE
  5
348
100
AcDbEntity
  8
M0
100
AcDbLine
 10
130.441225
 20
552.299263
 11
130.441225
 21
554.899361
  0
LINE
  5
349
100
AcDbEntity
  8
M0
100
AcDbLine
 10
122.891176
 20
554.899361
 11
122.891176
 21
552.299263
  0
LINE
  5
34A
100
AcDbEntity
  8
M0
100
AcDbLine
 10
128.066225
 20
550.499215
 11
128.066225
 21
550.945992
  0
LINE
  5
34B
100
AcDbEntity
  8
M0
100
AcDbLine
 10
125.266176
 20
550.499215
 11
125.266176
 21
550.945992
  0
LINE
  5
34C
100
AcDbEntity
  8
M0
100
AcDbLine
 10
128.256898
 20
552.008492
 11
125.075258
 21
555.190133
  0
LINE
  5
34D
100
AcDbEntity
  8
M0
100
AcDbLine
 10
127.019594
 20
555.013375
 11
125.252016
 21
553.245797
  0
LINE
  5
34E
100
AcDbEntity
  8
M0
100
AcDbLine
 10
128.080141
 20
553.952828
 11
126.312562
 21
552.18525
  0
ARC
  5
34F
100
AcDbEntity
  8
M0
100
AcDbCircle
 10
124.185365
 20
549.799385
 40
0.5
100
AcDbArc
 50
197.129131
 51
270.0
  0
ARC
  5
350
100
AcDbEntity
  8
M0
100
AcDbCircle
 10
129.147035
 20
549.799385
 40
0.5
100
AcDbArc
 50
270.0
 51
342.861268
  0
LINE
  5
351
100
AcDbEntity
  8
M0
100
AcDbLine
 10
195.707323
 20
549.651818
 11
194.89116
 21
552.299019
  0
LINE
  5
352
100
AcDbEntity
  8
M0
100
AcDbLine
 10
201.624803
 20
549.651802
 11
202.441209
 21
552.299019
  0
LINE
  5
353
100
AcDbEntity
  8
M0
100
AcDbLine
 10
200.98784
 20
551.698922
 11
202.256151
 21
551.698922
  0
LINE
  5
354
100
AcDbEntity
  8
M0
100
AcDbLine
 10
200.066209
 20
550.49897
 11
201.886278
 21
550.49897
  0
LINE
  5
355
100
AcDbEntity
  8
M0
100
AcDbLine
 10
196.34453
 20
551.698922
 11
195.076219
 21
551.698922
  0
LINE
  5
356
100
AcDbEntity
  8
M0
100
AcDbLine
 10
197.26616
 20
550.49897
 11
195.446092
 21
550.49897
  0
LINE
  5
357
100
AcDbEntity
  8
M0
100
AcDbLine
 10
196.18535
 20
549.299141
 11
201.14702
 21
549.299141
  0
LINE
  5
358
100
AcDbEntity
  8
M0
100
AcDbLine
 10
202.441209
 20
552.299019
 11
202.441209
 21
554.899117
  0
LINE
  5
359
100
AcDbEntity
  8
M0
100
AcDbLine
 10
194.89116
 20
554.899117
 11
194.89116
 21
552.299019
  0
LINE
  5
35A
100
AcDbEntity
  8
M0
100
AcDbLine
 10
200.066209
 20
550.49897
 11
200.066209
 21
550.945748
  0
LINE
  5
35B
100
AcDbEntity
  8
M0
100
AcDbLine
 10
197.26616
 20
550.49897
 11
197.26616
 21
550.945748
  0
LINE
  5
35C
100
AcDbEntity
  8
M0
100
AcDbLine
 10
200.256883
 20
552.008248
 11
197.075242
 21
555.189888
  0
LINE
  5
35D
100
AcDbEntity
  8
M0
100
AcDbLine
 10
199.019578
 20
555.013131
 11
197.252
 21
553.245552
  0
LINE
  5
35E
100
AcDbEntity
  8
M0
100
AcDbLine
 10
200.080125
 20
553.952584
 11
198.312547
 21
552.185006
  0
ARC
  5
35F
100
AcDbEntity
  8
M0
100
AcDbCircle
 10
196.18535
 20
549.799141
 40
0.5
100
AcDbArc
 50
197.128616
 51
269.998251
  0
ARC
  5
360
100
AcDbEntity
  8
M0
100
AcDbCircle
 10
201.14702
 20
549.799141
 40
0.5
100
AcDbArc
 50
269.998251
 51
342.860753
  0
LINE
  5
361
100
AcDbEntity
  8
M0
100
AcDbLine
 10
170.666067
 20
553.249215
 11
166.416311
 21
553.24897
  0
ARC
  5
362
100
AcDbEntity
  8
M0
100
AcDbCircle
 10
154.666312
 20
550.24897
 40
3.0
100
AcDbArc
 50
90.0
 51
179.999982
  0
ARC
  5
363
100
AcDbEntity
  8
M0
100
AcDbCircle
 10
170.666311
 20
550.24897
 40
3.0
100
AcDbArc
 50
0.0
 51
90.0
  0
LINE
  5
364
100
AcDbEntity
  8
M0
100
AcDbLine
 10
166.416311
 20
555.098824
 11
166.416311
 21
553.249215
  0
LINE
  5
365
100
AcDbEntity
  8
M0
100
AcDbLine
 10
158.916312
 20
555.099068
 11
158.916312
 21
553.249215
  0
LINE
  5
366
100
AcDbEntity
  8
M0
100
AcDbLine
 10
158.916312
 20
553.24897
 11
154.666312
 21
553.249215
  0
LINE
  5
367
100
AcDbEntity
  8
M0
100
AcDbLine
 10
159.666312
 20
547.749016
 11
165.666311
 21
547.749016
  0
LINE
  5
368
100
AcDbEntity
  8
M0
 62
     7
100
AcDbLine
 10
166.666311
 20
555.798867
 11
166.666311
 21
553.398873
  0
LINE
  5
369
100
AcDbEntity
  8
M0
 62
     7
100
AcDbLine
 10
158.666312
 20
555.798867
 11
158.666312
 21
553.398873
  0
CIRCLE
  5
36A
100
AcDbEntity
  8
M0
100
AcDbCircle
 10
126.666322
 20
553.599312
 40
3.0
  0
CIRCLE
  5
36B
100
AcDbEntity
  8
M0
100
AcDbCircle
 10
198.666307
 20
553.599068
 40
3.0
  0
LINE
  5
36C
100
AcDbEntity
  8
M0
 62
     6
100
AcDbLine
 10
122.666322
 20
568.59916
 11
130.666322
 21
568.59916
  0
LINE
  5
36D
100
AcDbEntity
  8
M0
 62
     6
100
AcDbLine
 10
122.666322
 20
567.09916
 11
123.727113
 21
567.09916
  0
LINE
  5
36E
100
AcDbEntity
  8
M0
 62
     6
100
AcDbLine
 10
119.166322
 20
561.09916
 11
122.166322
 21
561.09916
  0
ARC
  5
36F
100
AcDbEntity
  8
M0
 62
     6
100
AcDbCircle
 10
119.166322
 20
560.59916
 40
0.5
100
AcDbArc
 50
89.998251
 51
180.0
  0
LINE
  5
370
100
AcDbEntity
  8
M0
  6
DASHDOT
 62
     6
100
AcDbLine
 10
120.342485
 20
563.09916
 11
132.778276
 21
563.09916
  0
LINE
  5
371
100
AcDbEntity
  8
M0
 62
     6
100
AcDbLine
 10
122.666322
 20
562.09916
 11
123.166322
 21
560.59916
  0
LINE
  5
372
100
AcDbEntity
  8
M0
 62
     6
100
AcDbLine
 10
130.666322
 20
562.09916
 11
130.166322
 21
560.59916
  0
ARC
  5
373
100
AcDbEntity
  8
M0
 62
     6
100
AcDbCircle
 10
122.166322
 20
560.59916
 40
0.5
100
AcDbArc
 50
0.0
 51
89.998251
  0
LINE
  5
374
100
AcDbEntity
  8
M0
  6
DIVIDE
 62
     6
100
AcDbLine
 10
218.665758
 20
569.598916
 11
206.666063
 21
569.598916
  0
LINE
  5
375
100
AcDbEntity
  8
M0
 62
     6
100
AcDbLine
 10
202.666307
 20
568.598916
 11
194.666307
 21
568.598916
  0
LINE
  5
376
100
AcDbEntity
  8
M0
 62
     6
100
AcDbLine
 10
202.666307
 20
567.098916
 11
201.605272
 21
567.098916
  0
LINE
  5
377
100
AcDbEntity
  8
M0
 62
     6
100
AcDbLine
 10
206.666307
 20
569.598916
 11
202.666307
 21
569.598916
  0
LINE
  5
378
100
AcDbEntity
  8
M0
 62
     6
100
AcDbLine
 10
206.166307
 20
561.098916
 11
203.166307
 21
561.098916
  0
ARC
  5
379
100
AcDbEntity
  8
M0
 62
     6
100
AcDbCircle
 10
206.166307
 20
560.598916
 40
0.5
100
AcDbArc
 50
0.0
 51
90.0
  0
LINE
  5
37A
100
AcDbEntity
  8
M0
  6
DASHDOT
 62
     6
100
AcDbLine
 10
205.108949
 20
563.098916
 11
192.002443
 21
563.098916
  0
ARC
  5
37B
100
AcDbEntity
  8
M0
 62
     6
100
AcDbCircle
 10
203.166307
 20
569.098916
 40
0.5
100
AcDbArc
 50
90.0
 51
180.0
  0
LINE
  5
37C
100
AcDbEntity
  8
M0
 62
     6
100
AcDbLine
 10
202.666307
 20
562.098916
 11
202.166307
 21
560.598916
  0
LINE
  5
37D
100
AcDbEntity
  8
M0
 62
     6
100
AcDbLine
 10
194.666307
 20
562.098916
 11
195.166307
 21
560.598916
  0
ARC
  5
37E
100
AcDbEntity
  8
M0
 62
     6
100
AcDbCircle
 10
203.166307
 20
560.598916
 40
0.5
100
AcDbArc
 50
90.0
 51
180.0
  0
LINE
  5
37F
100
AcDbEntity
  8
M0
 62
     6
100
AcDbLine
 10
129.605287
 20
567.09916
 11
130.666322
 21
567.09916
  0
LINE
  5
380
100
AcDbEntity
  8
M0
 62
     6
100
AcDbLine
 10
195.727098
 20
567.098916
 11
194.666307
 21
567.098916
  0
CIRCLE
  5
381
100
AcDbEntity
  8
M0
100
AcDbCircle
 10
126.666322
 20
563.09916
 40
3.0
  0
LINE
  5
382
100
AcDbEntity
  8
M0
100
AcDbLine
 10
123.707338
 20
567.046425
 11
122.891176
 21
564.399208
  0
LINE
  5
383
100
AcDbEntity
  8
M0
100
AcDbLine
 10
123.707338
 20
559.151894
 11
122.891176
 21
561.799111
  0
LINE
  5
384
100
AcDbEntity
  8
M0
100
AcDbLine
 10
129.624818
 20
567.046425
 11
130.441225
 21
564.399208
  0
LINE
  5
385
100
AcDbEntity
  8
M0
100
AcDbLine
 10
129.624818
 20
559.151894
 11
130.441225
 21
561.799111
  0
LINE
  5
386
100
AcDbEntity
  8
M0
100
AcDbLine
 10
128.066225
 20
566.199013
 11
129.886293
 21
566.199013
  0
LINE
  5
387
100
AcDbEntity
  8
M0
100
AcDbLine
 10
128.987855
 20
564.999062
 11
130.256166
 21
564.999062
  0
LINE
  5
388
100
AcDbEntity
  8
M0
100
AcDbLine
 10
128.987855
 20
561.199013
 11
130.256166
 21
561.199013
  0
LINE
  5
389
100
AcDbEntity
  8
M0
100
AcDbLine
 10
125.266176
 20
566.199013
 11
123.446107
 21
566.199013
  0
LINE
  5
38A
100
AcDbEntity
  8
M0
100
AcDbLine
 10
124.344545
 20
564.999062
 11
123.076234
 21
564.999062
  0
LINE
  5
38B
100
AcDbEntity
  8
M0
100
AcDbLine
 10
124.344545
 20
561.199013
 11
123.076234
 21
561.199013
  0
LINE
  5
38C
100
AcDbEntity
  8
M0
100
AcDbLine
 10
130.441225
 20
561.799111
 11
130.441225
 21
564.399208
  0
LINE
  5
38D
100
AcDbEntity
  8
M0
100
AcDbLine
 10
129.147035
 20
567.399208
 11
124.185365
 21
567.398964
  0
LINE
  5
38E
100
AcDbEntity
  8
M0
100
AcDbLine
 10
122.891176
 20
564.399208
 11
122.891176
 21
561.799111
  0
LINE
  5
38F
100
AcDbEntity
  8
M0
100
AcDbLine
 10
128.066225
 20
565.75248
 11
128.066225
 21
566.199013
  0
LINE
  5
390
100
AcDbEntity
  8
M0
100
AcDbLine
 10
125.266176
 20
565.75248
 11
125.266176
 21
566.199013
  0
LINE
  5
391
100
AcDbEntity
  8
M0
100
AcDbLine
 10
128.256898
 20
561.508339
 11
125.075258
 21
564.68998
  0
LINE
  5
392
100
AcDbEntity
  8
M0
100
AcDbLine
 10
127.019594
 20
564.513222
 11
125.252016
 21
562.745644
  0
LINE
  5
393
100
AcDbEntity
  8
M0
100
AcDbLine
 10
128.080141
 20
563.452675
 11
126.312562
 21
561.685097
  0
ARC
  5
394
100
AcDbEntity
  8
M0
100
AcDbCircle
 10
124.185365
 20
566.898964
 40
0.5
100
AcDbArc
 50
89.998251
 51
162.856262
  0
ARC
  5
395
100
AcDbEntity
  8
M0
100
AcDbCircle
 10
129.147035
 20
566.898964
 40
0.5
100
AcDbArc
 50
17.150937
 51
89.998251
  0
CIRCLE
  5
396
100
AcDbEntity
  8
M0
100
AcDbCircle
 10
198.666307
 20
563.098916
 40
3.0
  0
LINE
  5
397
100
AcDbEntity
  8
M0
100
AcDbLine
 10
195.707323
 20
567.046181
 11
194.89116
 21
564.398964
  0
LINE
  5
398
100
AcDbEntity
  8
M0
100
AcDbLine
 10
195.707323
 20
559.15165
 11
194.89116
 21
561.798867
  0
LINE
  5
399
100
AcDbEntity
  8
M0
100
AcDbLine
 10
201.624803
 20
567.046181
 11
202.441209
 21
564.398964
  0
LINE
  5
39A
100
AcDbEntity
  8
M0
100
AcDbLine
 10
201.624803
 20
559.15165
 11
202.441209
 21
561.798867
  0
LINE
  5
39B
100
AcDbEntity
  8
M0
100
AcDbLine
 10
200.066209
 20
566.198769
 11
201.886278
 21
566.198769
  0
LINE
  5
39C
100
AcDbEntity
  8
M0
100
AcDbLine
 10
200.98784
 20
564.998818
 11
202.256151
 21
564.998818
  0
LINE
  5
39D
100
AcDbEntity
  8
M0
100
AcDbLine
 10
200.98784
 20
561.198769
 11
202.256151
 21
561.198769
  0
LINE
  5
39E
100
AcDbEntity
  8
M0
100
AcDbLine
 10
197.26616
 20
566.198769
 11
195.446092
 21
566.198769
  0
LINE
  5
39F
100
AcDbEntity
  8
M0
100
AcDbLine
 10
196.34453
 20
564.998818
 11
195.076219
 21
564.998818
  0
LINE
  5
3A0
100
AcDbEntity
  8
M0
100
AcDbLine
 10
196.34453
 20
561.198769
 11
195.076219
 21
561.198769
  0
LINE
  5
3A1
100
AcDbEntity
  8
M0
100
AcDbLine
 10
202.441209
 20
561.798867
 11
202.441209
 21
564.398964
  0
LINE
  5
3A2
100
AcDbEntity
  8
M0
100
AcDbLine
 10
201.14702
 20
567.398964
 11
196.18535
 21
567.39872
  0
LINE
  5
3A3
100
AcDbEntity
  8
M0
100
AcDbLine
 10
194.89116
 20
564.398964
 11
194.89116
 21
561.798867
  0
LINE
  5
3A4
100
AcDbEntity
  8
M0
100
AcDbLine
 10
200.066209
 20
565.752236
 11
200.066209
 21
566.198769
  0
LINE
  5
3A5
100
AcDbEntity
  8
M0
100
AcDbLine
 10
197.26616
 20
565.752236
 11
197.26616
 21
566.198769
  0
LINE
  5
3A6
100
AcDbEntity
  8
M0
100
AcDbLine
 10
200.256883
 20
561.508095
 11
197.075242
 21
564.689736
  0
LINE
  5
3A7
100
AcDbEntity
  8
M0
100
AcDbLine
 10
199.019578
 20
564.512978
 11
197.252
 21
562.7454
  0
LINE
  5
3A8
100
AcDbEntity
  8
M0
100
AcDbLine
 10
200.080125
 20
563.452431
 11
198.312547
 21
561.684853
  0
ARC
  5
3A9
100
AcDbEntity
  8
M0
100
AcDbCircle
 10
196.18535
 20
566.89872
 40
0.5
100
AcDbArc
 50
90.0
 51
162.856778
  0
ARC
  5
3AA
100
AcDbEntity
  8
M0
100
AcDbCircle
 10
201.14702
 20
566.89872
 40
0.5
100
AcDbArc
 50
17.151452
 51
90.0
  0
LINE
  5
3AB
100
AcDbEntity
  8
M0
  6
DIVIDE
 62
     6
100
AcDbLine
 10
106.665864
 20
569.59916
 11
118.665864
 21
569.59916
  0
LINE
  5
3AC
100
AcDbEntity
  8
M0
 62
     6
100
AcDbLine
 10
121.166322
 20
572.09916
 11
121.166322
 21
569.59916
  0
LINE
  5
3AD
100
AcDbEntity
  8
M0
 62
     6
100
AcDbLine
 10
118.666322
 20
569.59916
 11
122.666322
 21
569.59916
  0
ARC
  5
3AE
100
AcDbEntity
  8
M0
 62
     6
100
AcDbCircle
 10
122.166322
 20
569.09916
 40
0.5
100
AcDbArc
 50
0.0
 51
89.998251
  0
LINE
  5
3AF
100
AcDbEntity
  8
M0
 62
     6
100
AcDbLine
 10
204.166307
 20
572.098916
 11
204.166307
 21
569.598916
  0
LINE
  5
3B0
100
AcDbEntity
  8
M0
  6
DASHDOT
 62
     2
100
AcDbLine
 10
142.666322
 20
566.09916
 11
142.666322
 21
596.09916
  0
LINE
  5
3B1
100
AcDbEntity
  8
M0
  6
DASHDOT
 62
     2
100
AcDbLine
 10
182.666063
 20
566.098916
 11
182.666063
 21
596.098671
  0
LINE
  5
3B2
100
AcDbEntity
  8
M0
 62
     5
100
AcDbLine
 10
118.665834
 20
569.59916
 11
130.666078
 21
569.59916
  0
LINE
  5
3B3
100
AcDbEntity
  8
M0
 62
     5
100
AcDbLine
 10
202.666063
 20
569.598671
 11
202.666063
 21
581.09916
  0
LINE
  5
3B4
100
AcDbEntity
  8
M0
  6
DASHDOT
100
AcDbLine
 10
127.165834
 20
569.764443
 11
127.165834
 21
581.620156
  0
LINE
  5
3B5
100
AcDbEntity
  8
M0
 62
     6
100
AcDbLine
 10
130.666322
 20
549.298806
 11
130.666322
 21
591.09916
  0
LINE
  5
3B6
100
AcDbEntity
  8
M0
 62
     6
100
AcDbLine
 10
194.666307
 20
549.29905
 11
194.666307
 21
591.098916
  0
LINE
  5
3B7
100
AcDbEntity
  8
M0
 62
     7
100
AcDbLine
 10
130.666322
 20
575.098916
 11
130.666322
 21
549.299111
  0
LINE
  5
3B8
100
AcDbEntity
  8
M0
 62
     7
100
AcDbLine
 10
194.666307
 20
549.299111
 11
194.666307
 21
575.098916
  0
LINE
  5
3B9
100
AcDbEntity
  8
M0
  6
DASHDOT
100
AcDbLine
 10
198.666063
 20
547.61216
 11
198.666063
 21
581.899208
  0
LINE
  5
3BA
100
AcDbEntity
  8
M0
 62
     1
100
AcDbLine
 10
209.665758
 20
620.59916
 11
123.665849
 21
620.59916
  0
LINE
  5
3BB
100
AcDbEntity
  8
M0
 62
     1
100
AcDbLine
 10
118.665864
 20
615.599404
 11
123.665864
 21
620.599404
  0
LINE
  5
3BC
100
AcDbEntity
  8
M0
 62
     1
100
AcDbLine
 10
214.665758
 20
615.599404
 11
209.665758
 21
620.599404
  0
LINE
  5
3BD
100
AcDbEntity
  8
M0
 62
     1
100
AcDbLine
 10
118.665864
 20
593.09916
 11
150.916312
 21
593.09916
  0
LINE
  5
3BE
100
AcDbEntity
  8
M0
  6
DASHDOT
 62
     1
100
AcDbLine
 10
137.824235
 20
613.09916
 11
196.395662
 21
613.09916
  0
LINE
  5
3BF
100
AcDbEntity
  8
M0
 62
     1
100
AcDbLine
 10
169.665853
 20
609.865273
 11
169.665853
 21
613.09916
  0
LINE
  5
3C0
100
AcDbEntity
  8
M0
 62
     1
100
AcDbLine
 10
163.665854
 20
609.865273
 11
163.665854
 21
613.09916
  0
LINE
  5
3C1
100
AcDbEntity
  8
M0
  6
DASHDOT
 62
     1
100
AcDbLine
 10
186.665849
 20
605.788125
 11
186.665849
 21
620.471962
  0
LINE
  5
3C2
100
AcDbEntity
  8
M0
  6
DASHDOT
 62
     1
100
AcDbLine
 10
146.665864
 20
605.063027
 11
146.665864
 21
621.03373
  0
CIRCLE
  5
3C3
100
AcDbEntity
  8
M0
 62
     1
100
AcDbCircle
 10
186.665849
 20
613.09916
 40
2.999997
  0
CIRCLE
  5
3C4
100
AcDbEntity
  8
M0
 62
     1
100
AcDbCircle
 10
146.665864
 20
613.09916
 40
2.999997
  0
LINE
  5
3C5
100
AcDbEntity
  8
M0
  6
DASHDOT
 62
     1
100
AcDbLine
 10
153.559378
 20
604.09916
 11
180.570131
 21
604.09916
  0
ARC
  5
3C6
100
AcDbEntity
  8
M0
 62
     1
100
AcDbCircle
 10
166.665853
 20
604.09916
 40
6.499997
100
AcDbArc
 50
117.487108
 51
422.512828
  0
ARC
  5
3C7
100
AcDbEntity
  8
M0
 62
     1
100
AcDbCircle
 10
166.665853
 20
613.09916
 40
2.999997
100
AcDbArc
 50
0.0
 51
180.0
  0
LINE
  5
3C8
100
AcDbEntity
  8
M0
 62
     1
100
AcDbLine
 10
154.416312
 20
593.09916
 11
170.916311
 21
593.09916
  0
LINE
  5
3C9
100
AcDbEntity
  8
M0
 62
     1
100
AcDbLine
 10
174.416311
 20
593.09916
 11
214.665758
 21
593.09916
  0
ARC
  5
3CA
100
AcDbEntity
  8
M0
 62
     6
100
AcDbCircle
 10
173.916311
 20
595.598671
 40
0.5
100
AcDbArc
 50
0.0
 51
90.0
  0
ARC
  5
3CB
100
AcDbEntity
  8
M0
 62
     6
100
AcDbCircle
 10
171.416311
 20
595.598671
 40
0.5
100
AcDbArc
 50
90.0
 51
180.0
  0
ARC
  5
3CC
100
AcDbEntity
  8
M0
 62
     6
100
AcDbCircle
 10
153.916312
 20
595.59916
 40
0.5
100
AcDbArc
 50
0.0
 51
90.0
  0
ARC
  5
3CD
100
AcDbEntity
  8
M0
 62
     6
100
AcDbCircle
 10
151.416312
 20
595.59916
 40
0.5
100
AcDbArc
 50
90.0
 51
180.0
  0
LINE
  5
3CE
100
AcDbEntity
  8
M0
 62
     6
100
AcDbLine
 10
118.666322
 20
539.349343
 11
121.866273
 21
539.349343
  0
LINE
  5
3CF
100
AcDbEntity
  8
M0
 62
     6
100
AcDbLine
 10
206.666307
 20
539.349587
 11
203.466112
 21
539.349587
  0
LINE
  5
3D0
100
AcDbEntity
  8
M0
 62
     6
100
AcDbLine
 10
119.166322
 20
525.099343
 11
122.166322
 21
525.099343
  0
LINE
  5
3D1
100
AcDbEntity
  8
M0
 62
     6
100
AcDbLine
 10
121.866273
 20
539.349343
 11
122.666322
 21
538.399392
  0
ARC
  5
3D2
100
AcDbEntity
  8
M0
 62
     6
100
AcDbCircle
 10
119.166322
 20
525.599343
 40
0.5
100
AcDbArc
 50
179.998251
 51
270.0
  0
LINE
  5
3D3
100
AcDbEntity
  8
M0
 62
     6
100
AcDbLine
 10
129.866273
 20
527.599343
 11
129.866273
 21
528.599343
  0
LINE
  5
3D4
100
AcDbEntity
  8
M0
 62
     6
100
AcDbLine
 10
123.466127
 20
527.599343
 11
123.466127
 21
528.599343
  0
LINE
  5
3D5
100
AcDbEntity
  8
M0
 62
     6
100
AcDbLine
 10
123.166322
 20
525.599587
 11
123.166322
 21
527.099343
  0
LINE
  5
3D6
100
AcDbEntity
  8
M0
 62
     6
100
AcDbLine
 10
130.166322
 20
525.599343
 11
130.166322
 21
527.099343
  0
ARC
  5
3D7
100
AcDbEntity
  8
M0
 62
     6
100
AcDbCircle
 10
122.966127
 20
527.599343
 40
0.5
100
AcDbArc
 50
-90.0
 51
0.0
  0
ARC
  5
3D8
100
AcDbEntity
  8
M0
 62
     6
100
AcDbCircle
 10
122.166322
 20
525.599343
 40
0.5
100
AcDbArc
 50
-90.0
 51
0.0
  0
LINE
  5
3D9
100
AcDbEntity
  8
M0
  6
DASHDOT
 62
     6
100
AcDbLine
 10
120.269975
 20
532.599343
 11
133.376512
 21
532.599343
  0
LINE
  5
3DA
100
AcDbEntity
  8
M0
 62
     6
100
AcDbLine
 10
122.666322
 20
528.599343
 11
123.727113
 21
528.599343
  0
LINE
  5
3DB
100
AcDbEntity
  8
M0
 62
     6
100
AcDbLine
 10
124.408021
 20
537.399392
 11
128.924379
 21
537.399392
  0
LINE
  5
3DC
100
AcDbEntity
  8
M0
 62
     6
100
AcDbLine
 10
123.45099
 20
536.689431
 11
122.666322
 21
534.099343
  0
LINE
  5
3DD
100
AcDbEntity
  8
M0
 62
     6
100
AcDbLine
 10
129.88141
 20
536.689431
 11
130.666322
 21
534.099343
  0
ARC
  5
3DE
100
AcDbEntity
  8
M0
 62
     6
100
AcDbCircle
 10
124.408021
 20
536.399392
 40
1.0
100
AcDbArc
 50
89.999126
 51
163.139934
  0
ARC
  5
3DF
100
AcDbEntity
  8
M0
 62
     6
100
AcDbCircle
 10
128.924379
 20
536.399392
 40
1.0
100
AcDbArc
 50
16.859812
 51
89.999126
  0
LINE
  5
3E0
100
AcDbEntity
  8
M0
 62
     6
100
AcDbLine
 10
122.666322
 20
527.099343
 11
122.966127
 21
527.099343
  0
LINE
  5
3E1
100
AcDbEntity
  8
M0
 62
     6
100
AcDbLine
 10
130.366273
 20
527.099343
 11
130.666322
 21
527.099343
  0
ARC
  5
3E2
100
AcDbEntity
  8
M0
 62
     6
100
AcDbCircle
 10
130.366273
 20
527.599343
 40
0.5
100
AcDbArc
 50
179.999891
 51
270.0
  0
LINE
  5
3E3
100
AcDbEntity
  8
M0
 62
     6
100
AcDbLine
 10
206.166307
 20
525.099587
 11
203.166307
 21
525.099587
  0
LINE
  5
3E4
100
AcDbEntity
  8
M0
 62
     6
100
AcDbLine
 10
203.466112
 20
539.349587
 11
202.666307
 21
538.399636
  0
ARC
  5
3E5
100
AcDbEntity
  8
M0
 62
     6
100
AcDbCircle
 10
206.166307
 20
525.599587
 40
0.5
100
AcDbArc
 50
269.998251
 51
360.0
  0
LINE
  5
3E6
100
AcDbEntity
  8
M0
 62
     6
100
AcDbLine
 10
195.466112
 20
527.599587
 11
195.466112
 21
528.599587
  0
LINE
  5
3E7
100
AcDbEntity
  8
M0
 62
     6
100
AcDbLine
 10
201.866258
 20
527.599587
 11
201.866258
 21
528.599587
  0
LINE
  5
3E8
100
AcDbEntity
  8
M0
 62
     6
100
AcDbLine
 10
202.166307
 20
525.599831
 11
202.166307
 21
527.099587
  0
LINE
  5
3E9
100
AcDbEntity
  8
M0
 62
     6
100
AcDbLine
 10
195.166307
 20
525.599587
 11
195.166307
 21
527.099587
  0
ARC
  5
3EA
100
AcDbEntity
  8
M0
 62
     6
100
AcDbCircle
 10
202.366258
 20
527.599587
 40
0.5
100
AcDbArc
 50
179.999891
 51
269.998251
  0
ARC
  5
3EB
100
AcDbEntity
  8
M0
 62
     6
100
AcDbCircle
 10
203.166307
 20
525.599587
 40
0.5
100
AcDbArc
 50
179.998251
 51
269.998251
  0
LINE
  5
3EC
100
AcDbEntity
  8
M0
  6
DASHDOT
 62
     6
100
AcDbLine
 10
204.909547
 20
532.599587
 11
191.984315
 21
532.599587
  0
LINE
  5
3ED
100
AcDbEntity
  8
M0
 62
     6
100
AcDbLine
 10
202.666307
 20
528.599587
 11
201.608446
 21
528.599572
  0
LINE
  5
3EE
100
AcDbEntity
  8
M0
 62
     6
100
AcDbLine
 10
200.924364
 20
537.399636
 11
196.408006
 21
537.399636
  0
LINE
  5
3EF
100
AcDbEntity
  8
M0
 62
     6
100
AcDbLine
 10
201.881395
 20
536.689675
 11
202.666307
 21
534.099587
  0
LINE
  5
3F0
100
AcDbEntity
  8
M0
 62
     6
100
AcDbLine
 10
195.450975
 20
536.689675
 11
194.666307
 21
534.099587
  0
ARC
  5
3F1
100
AcDbEntity
  8
M0
 62
     6
100
AcDbCircle
 10
200.924364
 20
536.399636
 40
1.0
100
AcDbArc
 50
16.860066
 51
90.0
  0
ARC
  5
3F2
100
AcDbEntity
  8
M0
 62
     6
100
AcDbCircle
 10
196.408006
 20
536.399636
 40
1.0
100
AcDbArc
 50
90.0
 51
163.140188
  0
LINE
  5
3F3
100
AcDbEntity
  8
M0
 62
     6
100
AcDbLine
 10
202.666307
 20
527.099587
 11
202.366258
 21
527.099587
  0
LINE
  5
3F4
100
AcDbEntity
  8
M0
 62
     6
100
AcDbLine
 10
194.966112
 20
527.099587
 11
194.666307
 21
527.099587
  0
ARC
  5
3F5
100
AcDbEntity
  8
M0
 62
     6
100
AcDbCircle
 10
194.966112
 20
527.599587
 40
0.5
100
AcDbArc
 50
269.998251
 51
360.0
  0
LINE
  5
3F6
100
AcDbEntity
  8
M0
 62
     6
100
AcDbLine
 10
129.605287
 20
528.599343
 11
130.666322
 21
528.599343
  0
LINE
  5
3F7
100
AcDbEntity
  8
M0
 62
     6
100
AcDbLine
 10
195.723436
 20
528.599572
 11
194.666307
 21
528.599587
  0
LINE
  5
3F8
100
AcDbEntity
  8
M0
 62
     6
100
AcDbLine
 10
123.466127
 20
528.099343
 11
129.866273
 21
528.099343
  0
LINE
  5
3F9
100
AcDbEntity
  8
M0
 62
     6
100
AcDbLine
 10
195.466112
 20
528.099572
 11
201.866258
 21
528.099572
  0
LINE
  5
3FA
100
AcDbEntity
  8
M0
 62
     7
100
AcDbLine
 10
201.666307
 20
537.399102
 11
195.166307
 21
537.399086
  0
LINE
  5
3FB
100
AcDbEntity
  8
M0
 62
     7
100
AcDbLine
 10
130.166322
 20
537.399056
 11
123.666322
 21
537.399056
  0
ARC
  5
3FC
100
AcDbEntity
  8
M0
 62
     7
100
AcDbCircle
 10
195.166307
 20
536.899086
 40
0.5
100
AcDbArc
 50
90.0
 51
179.999891
  0
ARC
  5
3FD
100
AcDbEntity
  8
M0
 62
     7
100
AcDbCircle
 10
201.666307
 20
537.899086
 40
0.5
100
AcDbArc
 50
269.998251
 51
360.0
  0
ARC
  5
3FE
100
AcDbEntity
  8
M0
 62
     7
100
AcDbCircle
 10
123.666322
 20
537.899056
 40
0.5
100
AcDbArc
 50
179.999891
 51
270.0
  0
ARC
  5
3FF
100
AcDbEntity
  8
M0
 62
     7
100
AcDbCircle
 10
130.166322
 20
536.899056
 40
0.5
100
AcDbArc
 50
0.0
 51
89.998251
  0
LINE
  5
400
100
AcDbEntity
  8
M0
 62
     7
100
AcDbLine
 10
154.366263
 20
533.099099
 11
154.816214
 21
533.099099
  0
LINE
  5
401
100
AcDbEntity
  8
M0
 62
     7
100
AcDbLine
 10
173.966115
 20
527.599083
 11
173.966115
 21
530.099083
  0
LINE
  5
402
100
AcDbEntity
  8
M0
 62
     7
100
AcDbLine
 10
151.866263
 20
527.099099
 11
173.466115
 21
527.099099
  0
LINE
  5
403
100
AcDbEntity
  8
M0
 62
     7
100
AcDbLine
 10
152.130179
 20
532.099099
 11
173.202199
 21
532.099099
  0
LINE
  5
404
100
AcDbEntity
  8
M0
 62
     7
100
AcDbLine
 10
154.366263
 20
537.099099
 11
154.666312
 21
537.099099
  0
LINE
  5
405
100
AcDbEntity
  8
M0
 62
     7
100
AcDbLine
 10
170.666311
 20
537.099099
 11
170.666311
 21
533.099099
  0
LINE
  5
406
100
AcDbEntity
  8
M0
 62
     7
100
AcDbLine
 10
154.666312
 20
537.099099
 11
154.666312
 21
533.099099
  0
LINE
  5
407
100
AcDbEntity
  8
M0
 62
     7
100
AcDbLine
 10
154.666312
 20
536.099099
 11
154.816214
 21
536.099099
  0
LINE
  5
408
100
AcDbEntity
  8
M0
 62
     7
100
AcDbLine
 10
154.666312
 20
534.099099
 11
154.816214
 21
534.099099
  0
LINE
  5
409
100
AcDbEntity
  8
M0
 62
     7
100
AcDbLine
 10
170.516164
 20
536.099099
 11
170.666311
 21
536.099099
  0
LINE
  5
40A
100
AcDbEntity
  8
M0
 62
     7
100
AcDbLine
 10
170.516164
 20
534.099099
 11
170.666311
 21
534.099099
  0
LINE
  5
40B
100
AcDbEntity
  8
M0
 62
     7
100
AcDbLine
 10
170.666311
 20
537.099099
 11
170.966115
 21
537.099099
  0
ARC
  5
40C
100
AcDbEntity
  8
M0
 62
     7
100
AcDbCircle
 10
170.966115
 20
530.099099
 40
3.0
100
AcDbArc
 50
0.0
 51
90.0
  0
ARC
  5
40D
100
AcDbEntity
  8
M0
 62
     7
100
AcDbCircle
 10
154.366263
 20
530.099099
 40
3.0
100
AcDbArc
 50
90.0
 51
179.999964
  0
LINE
  5
40E
100
AcDbEntity
  8
M0
 62
     7
100
AcDbLine
 10
151.366263
 20
530.099099
 11
151.366263
 21
527.599099
  0
ARC
  5
40F
100
AcDbEntity
  8
M0
 62
     7
100
AcDbCircle
 10
170.966115
 20
540.099099
 40
3.0
100
AcDbArc
 50
270.0
 51
360.0
  0
ARC
  5
410
100
AcDbEntity
  8
M0
 62
     7
100
AcDbCircle
 10
154.366263
 20
540.099099
 40
3.0
100
AcDbArc
 50
179.999964
 51
270.0
  0
ARC
  5
411
100
AcDbEntity
  8
M0
 62
     7
100
AcDbCircle
 10
151.866263
 20
527.599099
 40
0.5
100
AcDbArc
 50
179.999891
 51
270.0
  0
ARC
  5
412
100
AcDbEntity
  8
M0
 62
     7
100
AcDbCircle
 10
173.466115
 20
527.599099
 40
0.5
100
AcDbArc
 50
270.0
 51
360.0
  0
LINE
  5
413
100
AcDbEntity
  8
M0
 62
     7
100
AcDbLine
 10
170.516164
 20
533.099099
 11
170.966115
 21
533.099099
  0
LINE
  5
414
100
AcDbEntity
  8
M0
100
AcDbLine
 10
123.707338
 20
527.046685
 11
122.891176
 21
524.399392
  0
LINE
  5
415
100
AcDbEntity
  8
M0
100
AcDbLine
 10
129.624818
 20
527.0467
 11
130.441225
 21
524.399392
  0
LINE
  5
416
100
AcDbEntity
  8
M0
100
AcDbLine
 10
128.066225
 20
526.199318
 11
129.886293
 21
526.199318
  0
LINE
  5
417
100
AcDbEntity
  8
M0
100
AcDbLine
 10
128.987855
 20
524.999367
 11
130.256166
 21
524.999367
  0
LINE
  5
418
100
AcDbEntity
  8
M0
100
AcDbLine
 10
125.266176
 20
526.199318
 11
123.446107
 21
526.199318
  0
LINE
  5
419
100
AcDbEntity
  8
M0
100
AcDbLine
 10
124.344545
 20
524.999367
 11
123.076234
 21
524.999367
  0
LINE
  5
41A
100
AcDbEntity
  8
M0
100
AcDbLine
 10
129.147035
 20
527.399392
 11
124.185365
 21
527.399376
  0
LINE
  5
41B
100
AcDbEntity
  8
M0
100
AcDbLine
 10
128.066225
 20
525.752663
 11
128.066225
 21
526.199318
  0
LINE
  5
41C
100
AcDbEntity
  8
M0
100
AcDbLine
 10
125.266176
 20
525.752663
 11
125.266176
 21
526.199318
  0
ARC
  5
41D
100
AcDbEntity
  8
M0
100
AcDbCircle
 10
124.185365
 20
526.899376
 40
0.5
100
AcDbArc
 50
89.998251
 51
162.872331
  0
ARC
  5
41E
100
AcDbEntity
  8
M0
100
AcDbCircle
 10
129.147035
 20
526.899376
 40
0.5
100
AcDbArc
 50
17.137695
 51
89.998251
  0
CIRCLE
  5
41F
100
AcDbEntity
  8
M0
100
AcDbCircle
 10
126.666322
 20
532.599343
 40
3.0
  0
LINE
  5
420
100
AcDbEntity
  8
M0
100
AcDbLine
 10
123.707338
 20
536.546685
 11
122.891176
 21
533.899392
  0
LINE
  5
421
100
AcDbEntity
  8
M0
100
AcDbLine
 10
123.707338
 20
528.652092
 11
122.891176
 21
531.299416
  0
LINE
  5
422
100
AcDbEntity
  8
M0
100
AcDbLine
 10
129.624818
 20
536.5467
 11
130.441225
 21
533.899392
  0
LINE
  5
423
100
AcDbEntity
  8
M0
100
AcDbLine
 10
129.624818
 20
528.652077
 11
130.441225
 21
531.299416
  0
LINE
  5
424
100
AcDbEntity
  8
M0
100
AcDbLine
 10
128.066225
 20
535.699318
 11
129.886293
 21
535.699318
  0
LINE
  5
425
100
AcDbEntity
  8
M0
100
AcDbLine
 10
128.987855
 20
534.499367
 11
130.256166
 21
534.499367
  0
LINE
  5
426
100
AcDbEntity
  8
M0
100
AcDbLine
 10
128.987855
 20
530.699318
 11
130.256166
 21
530.699318
  0
LINE
  5
427
100
AcDbEntity
  8
M0
100
AcDbLine
 10
128.066225
 20
529.499367
 11
129.886293
 21
529.499367
  0
LINE
  5
428
100
AcDbEntity
  8
M0
100
AcDbLine
 10
125.266176
 20
535.699318
 11
123.446107
 21
535.699318
  0
LINE
  5
429
100
AcDbEntity
  8
M0
100
AcDbLine
 10
124.344545
 20
534.499367
 11
123.076234
 21
534.499367
  0
LINE
  5
42A
100
AcDbEntity
  8
M0
100
AcDbLine
 10
124.344545
 20
530.699318
 11
123.076234
 21
530.699318
  0
LINE
  5
42B
100
AcDbEntity
  8
M0
100
AcDbLine
 10
125.266176
 20
529.499367
 11
123.446107
 21
529.499367
  0
LINE
  5
42C
100
AcDbEntity
  8
M0
100
AcDbLine
 10
124.185365
 20
528.299416
 11
129.147035
 21
528.299416
  0
LINE
  5
42D
100
AcDbEntity
  8
M0
100
AcDbLine
 10
130.441225
 20
531.299416
 11
130.441225
 21
533.899392
  0
LINE
  5
42E
100
AcDbEntity
  8
M0
100
AcDbLine
 10
129.147035
 20
536.899392
 11
124.185365
 21
536.899376
  0
LINE
  5
42F
100
AcDbEntity
  8
M0
100
AcDbLine
 10
122.891176
 20
533.899392
 11
122.891176
 21
531.299416
  0
LINE
  5
430
100
AcDbEntity
  8
M0
100
AcDbLine
 10
128.066225
 20
529.499367
 11
128.066225
 21
529.946022
  0
LINE
  5
431
100
AcDbEntity
  8
M0
100
AcDbLine
 10
128.066225
 20
535.252663
 11
128.066225
 21
535.699318
  0
LINE
  5
432
100
AcDbEntity
  8
M0
100
AcDbLine
 10
125.266176
 20
535.252663
 11
125.266176
 21
535.699318
  0
LINE
  5
433
100
AcDbEntity
  8
M0
100
AcDbLine
 10
125.266176
 20
529.499367
 11
125.266176
 21
529.946022
  0
LINE
  5
434
100
AcDbEntity
  8
M0
100
AcDbLine
 10
128.256898
 20
531.008522
 11
125.075258
 21
534.190285
  0
LINE
  5
435
100
AcDbEntity
  8
M0
100
AcDbLine
 10
127.019594
 20
534.013527
 11
125.252016
 21
532.245827
  0
LINE
  5
436
100
AcDbEntity
  8
M0
100
AcDbLine
 10
128.080141
 20
532.952858
 11
126.312562
 21
531.18528
  0
ARC
  5
437
100
AcDbEntity
  8
M0
100
AcDbCircle
 10
124.185365
 20
536.399376
 40
0.5
100
AcDbArc
 50
89.998251
 51
162.872331
  0
ARC
  5
438
100
AcDbEntity
  8
M0
100
AcDbCircle
 10
124.185365
 20
528.799416
 40
0.5
100
AcDbArc
 50
197.129027
 51
270.0
  0
ARC
  5
439
100
AcDbEntity
  8
M0
100
AcDbCircle
 10
129.147035
 20
528.799416
 40
0.5
100
AcDbArc
 50
270.0
 51
342.861372
  0
ARC
  5
43A
100
AcDbEntity
  8
M0
100
AcDbCircle
 10
129.147035
 20
536.399376
 40
0.5
100
AcDbArc
 50
17.13665
 51
89.998251
  0
CIRCLE
  5
43B
100
AcDbEntity
  8
M0
100
AcDbCircle
 10
198.666307
 20
532.599602
 40
3.0
  0
LINE
  5
43C
100
AcDbEntity
  8
M0
100
AcDbLine
 10
195.707323
 20
536.546944
 11
194.89116
 21
533.899651
  0
LINE
  5
43D
100
AcDbEntity
  8
M0
100
AcDbLine
 10
195.707323
 20
528.652352
 11
194.89116
 21
531.299675
  0
LINE
  5
43E
100
AcDbEntity
  8
M0
100
AcDbLine
 10
201.624803
 20
536.546959
 11
202.441209
 21
533.899651
  0
LINE
  5
43F
100
AcDbEntity
  8
M0
100
AcDbLine
 10
201.624803
 20
528.652337
 11
202.441209
 21
531.299675
  0
LINE
  5
440
100
AcDbEntity
  8
M0
100
AcDbLine
 10
200.066209
 20
535.699578
 11
201.886278
 21
535.699578
  0
LINE
  5
441
100
AcDbEntity
  8
M0
100
AcDbLine
 10
200.98784
 20
534.499627
 11
202.256151
 21
534.499627
  0
LINE
  5
442
100
AcDbEntity
  8
M0
100
AcDbLine
 10
200.98784
 20
530.699578
 11
202.256151
 21
530.699578
  0
LINE
  5
443
100
AcDbEntity
  8
M0
100
AcDbLine
 10
200.066209
 20
529.499627
 11
201.886278
 21
529.499627
  0
LINE
  5
444
100
AcDbEntity
  8
M0
100
AcDbLine
 10
197.26616
 20
535.699578
 11
195.446092
 21
535.699578
  0
LINE
  5
445
100
AcDbEntity
  8
M0
100
AcDbLine
 10
196.34453
 20
534.499627
 11
195.076219
 21
534.499627
  0
LINE
  5
446
100
AcDbEntity
  8
M0
100
AcDbLine
 10
196.34453
 20
530.699578
 11
195.076219
 21
530.699578
  0
LINE
  5
447
100
AcDbEntity
  8
M0
100
AcDbLine
 10
197.26616
 20
529.499627
 11
195.446092
 21
529.499627
  0
LINE
  5
448
100
AcDbEntity
  8
M0
100
AcDbLine
 10
196.18535
 20
528.299675
 11
201.14702
 21
528.299675
  0
LINE
  5
449
100
AcDbEntity
  8
M0
100
AcDbLine
 10
202.441209
 20
531.299675
 11
202.441209
 21
533.899651
  0
LINE
  5
44A
100
AcDbEntity
  8
M0
100
AcDbLine
 10
201.14702
 20
536.899651
 11
196.18535
 21
536.899636
  0
LINE
  5
44B
100
AcDbEntity
  8
M0
100
AcDbLine
 10
194.89116
 20
533.899651
 11
194.89116
 21
531.299675
  0
LINE
  5
44C
100
AcDbEntity
  8
M0
100
AcDbLine
 10
200.066209
 20
529.499627
 11
200.066209
 21
529.946282
  0
LINE
  5
44D
100
AcDbEntity
  8
M0
100
AcDbLine
 10
200.066209
 20
535.252922
 11
200.066209
 21
535.699578
  0
LINE
  5
44E
100
AcDbEntity
  8
M0
100
AcDbLine
 10
197.26616
 20
535.252922
 11
197.26616
 21
535.699578
  0
LINE
  5
44F
100
AcDbEntity
  8
M0
100
AcDbLine
 10
197.26616
 20
529.499627
 11
197.26616
 21
529.946282
  0
LINE
  5
450
100
AcDbEntity
  8
M0
100
AcDbLine
 10
200.256883
 20
531.008782
 11
197.075242
 21
534.190545
  0
LINE
  5
451
100
AcDbEntity
  8
M0
100
AcDbLine
 10
199.019578
 20
534.013787
 11
197.252
 21
532.246087
  0
LINE
  5
452
100
AcDbEntity
  8
M0
100
AcDbLine
 10
200.080125
 20
532.953118
 11
198.312547
 21
531.18554
  0
ARC
  5
453
100
AcDbEntity
  8
M0
100
AcDbCircle
 10
196.18535
 20
536.399636
 40
0.5
100
AcDbArc
 50
90.0
 51
162.872846
  0
ARC
  5
454
100
AcDbEntity
  8
M0
100
AcDbCircle
 10
196.18535
 20
528.799675
 40
0.5
100
AcDbArc
 50
197.128512
 51
269.998251
  0
ARC
  5
455
100
AcDbEntity
  8
M0
100
AcDbCircle
 10
201.14702
 20
528.799675
 40
0.5
100
AcDbArc
 50
269.998251
 51
342.860857
  0
ARC
  5
456
100
AcDbEntity
  8
M0
100
AcDbCircle
 10
201.14702
 20
536.399636
 40
0.5
100
AcDbArc
 50
17.137166
 51
90.0
  0
LINE
  5
457
100
AcDbEntity
  8
M0
100
AcDbLine
 10
195.707323
 20
527.046959
 11
194.89116
 21
524.399666
  0
LINE
  5
458
100
AcDbEntity
  8
M0
100
AcDbLine
 10
201.624803
 20
527.046975
 11
202.441209
 21
524.399666
  0
LINE
  5
459
100
AcDbEntity
  8
M0
100
AcDbLine
 10
200.066209
 20
526.199593
 11
201.886278
 21
526.199593
  0
LINE
  5
45A
100
AcDbEntity
  8
M0
100
AcDbLine
 10
200.98784
 20
524.999642
 11
202.256151
 21
524.999642
  0
LINE
  5
45B
100
AcDbEntity
  8
M0
100
AcDbLine
 10
197.26616
 20
526.199593
 11
195.446092
 21
526.199593
  0
LINE
  5
45C
100
AcDbEntity
  8
M0
100
AcDbLine
 10
196.34453
 20
524.999642
 11
195.076219
 21
524.999642
  0
LINE
  5
45D
100
AcDbEntity
  8
M0
100
AcDbLine
 10
201.14702
 20
527.399666
 11
196.18535
 21
527.399651
  0
LINE
  5
45E
100
AcDbEntity
  8
M0
100
AcDbLine
 10
200.066209
 20
525.752938
 11
200.066209
 21
526.199593
  0
LINE
  5
45F
100
AcDbEntity
  8
M0
100
AcDbLine
 10
197.26616
 20
525.752938
 11
197.26616
 21
526.199593
  0
ARC
  5
460
100
AcDbEntity
  8
M0
100
AcDbCircle
 10
196.18535
 20
526.899651
 40
0.5
100
AcDbArc
 50
90.0
 51
162.872846
  0
ARC
  5
461
100
AcDbEntity
  8
M0
100
AcDbCircle
 10
201.14702
 20
526.899651
 40
0.5
100
AcDbArc
 50
17.13821
 51
90.0
  0
LINE
  5
462
100
AcDbEntity
  8
M0
100
AcDbLine
 10
154.816214
 20
532.949212
 11
170.516164
 21
532.949212
  0
LINE
  5
463
100
AcDbEntity
  8
M0
100
AcDbLine
 10
154.666312
 20
537.549065
 11
154.816214
 21
537.549065
  0
LINE
  5
464
100
AcDbEntity
  8
M0
100
AcDbLine
 10
154.816214
 20
532.949212
 11
154.816214
 21
537.549065
  0
LINE
  5
465
100
AcDbEntity
  8
M0
100
AcDbLine
 10
170.516164
 20
532.949212
 11
170.516164
 21
537.549065
  0
LINE
  5
466
100
AcDbEntity
  8
M0
100
AcDbLine
 10
170.516164
 20
537.549065
 11
170.666311
 21
537.549065
  0
LINE
  5
467
100
AcDbEntity
  8
M0
  6
DASHDOT
 62
     6
100
AcDbLine
 10
133.166322
 20
503.099343
 11
152.166312
 21
503.099343
  0
LINE
  5
468
100
AcDbEntity
  8
M0
  6
DASHDOT
 62
     6
100
AcDbLine
 10
153.166312
 20
503.099343
 11
172.166311
 21
503.099587
  0
LINE
  5
469
100
AcDbEntity
  8
M0
  6
DASHDOT
 62
     6
100
AcDbLine
 10
192.166307
 20
503.099587
 11
173.166311
 21
503.099587
  0
LINE
  5
46A
100
AcDbEntity
  8
M0
100
AcDbLine
 10
147.881888
 20
502.499337
 11
144.766176
 21
502.499337
  0
LINE
  5
46B
100
AcDbEntity
  8
M0
100
AcDbLine
 10
140.566225
 20
502.499337
 11
137.450746
 21
502.499337
  0
ARC
  5
46C
100
AcDbEntity
  8
M0
100
AcDbCircle
 10
140.566225
 20
500.999337
 40
1.5
100
AcDbArc
 50
0.0
 51
89.999417
  0
LINE
  5
46D
100
AcDbEntity
  8
M0
100
AcDbLine
 10
143.266176
 20
499.999337
 11
142.066225
 21
499.999337
  0
LINE
  5
46E
100
AcDbEntity
  8
M0
100
AcDbLine
 10
142.066225
 20
499.999337
 11
142.066225
 21
500.999337
  0
LINE
  5
46F
100
AcDbEntity
  8
M0
100
AcDbLine
 10
143.266176
 20
500.999337
 11
143.266176
 21
499.999337
  0
ARC
  5
470
100
AcDbEntity
  8
M0
100
AcDbCircle
 10
144.766176
 20
500.999337
 40
1.5
100
AcDbArc
 50
89.999417
 51
179.999417
  0
LINE
  5
471
100
AcDbEntity
  8
M0
100
AcDbLine
 10
167.881887
 20
502.499566
 11
164.766164
 21
502.499566
  0
LINE
  5
472
100
AcDbEntity
  8
M0
100
AcDbLine
 10
160.566214
 20
502.499566
 11
157.450736
 21
502.499566
  0
ARC
  5
473
100
AcDbEntity
  8
M0
100
AcDbCircle
 10
160.566214
 20
500.999566
 40
1.5
100
AcDbArc
 50
0.0
 51
90.0
  0
LINE
  5
474
100
AcDbEntity
  8
M0
100
AcDbLine
 10
163.266165
 20
499.999566
 11
162.066214
 21
499.999566
  0
LINE
  5
475
100
AcDbEntity
  8
M0
100
AcDbLine
 10
162.066214
 20
499.999566
 11
162.066214
 21
500.999566
  0
LINE
  5
476
100
AcDbEntity
  8
M0
100
AcDbLine
 10
163.266165
 20
500.999566
 11
163.266165
 21
499.999566
  0
ARC
  5
477
100
AcDbEntity
  8
M0
100
AcDbCircle
 10
164.766164
 20
500.999566
 40
1.5
100
AcDbArc
 50
90.0
 51
179.999417
  0
LINE
  5
478
100
AcDbEntity
  8
M0
100
AcDbLine
 10
187.881883
 20
502.499566
 11
184.76616
 21
502.499566
  0
LINE
  5
479
100
AcDbEntity
  8
M0
100
AcDbLine
 10
180.566209
 20
502.499566
 11
177.450735
 21
502.499566
  0
ARC
  5
47A
100
AcDbEntity
  8
M0
100
AcDbCircle
 10
180.566209
 20
500.999566
 40
1.5
100
AcDbArc
 50
0.0
 51
90.0
  0
LINE
  5
47B
100
AcDbEntity
  8
M0
100
AcDbLine
 10
183.26616
 20
499.999566
 11
182.066209
 21
499.999566
  0
LINE
  5
47C
100
AcDbEntity
  8
M0
100
AcDbLine
 10
182.066209
 20
499.999566
 11
182.066209
 21
500.999566
  0
LINE
  5
47D
100
AcDbEntity
  8
M0
100
AcDbLine
 10
183.26616
 20
500.999566
 11
183.26616
 21
499.999566
  0
ARC
  5
47E
100
AcDbEntity
  8
M0
100
AcDbCircle
 10
184.76616
 20
500.999566
 40
1.5
100
AcDbArc
 50
90.0
 51
179.999417
  0
LINE
  5
47F
100
AcDbEntity
  8
M0
 62
     5
100
AcDbLine
 10
194.715867
 20
497.884316
 11
202.365526
 21
503.143349
  0
LINE
  5
480
100
AcDbEntity
  8
M0
 62
     6
100
AcDbLine
 10
119.166322
 20
513.599343
 11
120.666322
 21
513.599343
  0
LINE
  5
481
100
AcDbEntity
  8
M0
  6
DIVIDE
 62
     6
100
AcDbLine
 10
106.665864
 20
516.599343
 11
118.665864
 21
516.599343
  0
LINE
  5
482
100
AcDbEntity
  8
M0
 62
     6
100
AcDbLine
 10
122.666322
 20
517.599343
 11
130.666322
 21
517.599343
  0
LINE
  5
483
100
AcDbEntity
  8
M0
 62
     6
100
AcDbLine
 10
122.666322
 20
519.099343
 11
123.723695
 21
519.099343
  0
LINE
  5
484
100
AcDbEntity
  8
M0
 62
     6
100
AcDbLine
 10
121.166322
 20
514.099343
 11
121.166322
 21
516.599343
  0
ARC
  5
485
100
AcDbEntity
  8
M0
 62
     6
100
AcDbCircle
 10
120.666322
 20
514.099343
 40
0.5
100
AcDbArc
 50
-90.0
 51
0.0
  0
ARC
  5
486
100
AcDbEntity
  8
M0
 62
     6
100
AcDbCircle
 10
119.166322
 20
514.099343
 40
0.5
100
AcDbArc
 50
179.998251
 51
270.0
  0
LINE
  5
487
100
AcDbEntity
  8
M0
 62
     6
100
AcDbLine
 10
118.666322
 20
516.599343
 11
122.666322
 21
516.599343
  0
ARC
  5
488
100
AcDbEntity
  8
M0
 62
     6
100
AcDbCircle
 10
122.166322
 20
517.099343
 40
0.5
100
AcDbArc
 50
-90.0
 51
0.0
  0
LINE
  5
489
100
AcDbEntity
  8
M0
 62
     6
100
AcDbLine
 10
206.166307
 20
513.599587
 11
204.666307
 21
513.599587
  0
LINE
  5
48A
100
AcDbEntity
  8
M0
 62
     6
100
AcDbLine
 10
203.166307
 20
516.599572
 11
194.666307
 21
516.599587
  0
LINE
  5
48B
100
AcDbEntity
  8
M0
 62
     6
100
AcDbLine
 10
202.666307
 20
517.599587
 11
194.666307
 21
517.599587
  0
LINE
  5
48C
100
AcDbEntity
  8
M0
 62
     6
100
AcDbLine
 10
202.666307
 20
519.099587
 11
201.608446
 21
519.099572
  0
LINE
  5
48D
100
AcDbEntity
  8
M0
 62
     6
100
AcDbLine
 10
204.166307
 20
514.099587
 11
204.166307
 21
516.599587
  0
ARC
  5
48E
100
AcDbEntity
  8
M0
 62
     6
100
AcDbCircle
 10
204.666307
 20
514.099587
 40
0.5
100
AcDbArc
 50
179.998251
 51
269.998251
  0
ARC
  5
48F
100
AcDbEntity
  8
M0
 62
     6
100
AcDbCircle
 10
206.166307
 20
514.099587
 40
0.5
100
AcDbArc
 50
269.998251
 51
360.0
  0
LINE
  5
490
100
AcDbEntity
  8
M0
  6
DIVIDE
 62
     6
100
AcDbLine
 10
218.665758
 20
516.599587
 11
206.666063
 21
516.599587
  0
ARC
  5
491
100
AcDbEntity
  8
M0
 62
     6
100
AcDbCircle
 10
203.166307
 20
517.099587
 40
0.5
100
AcDbArc
 50
179.998251
 51
269.998251
  0
LINE
  5
492
100
AcDbEntity
  8
M0
 62
     6
100
AcDbLine
 10
129.608705
 20
519.099343
 11
130.666322
 21
519.099343
  0
LINE
  5
493
100
AcDbEntity
  8
M0
 62
     6
100
AcDbLine
 10
195.723436
 20
519.099572
 11
194.666307
 21
519.099587
  0
ARC
  5
494
100
AcDbEntity
  8
M0
 62
     7
100
AcDbCircle
 10
155.166312
 20
509.599144
 40
0.5
100
AcDbArc
 50
179.998251
 51
270.0
  0
LINE
  5
495
100
AcDbEntity
  8
M0
 62
     7
100
AcDbLine
 10
157.166312
 20
509.099129
 11
155.166312
 21
509.099129
  0
ARC
  5
496
100
AcDbEntity
  8
M0
 62
     7
100
AcDbCircle
 10
168.166311
 20
509.599144
 40
0.5
100
AcDbArc
 50
179.998251
 51
270.0
  0
LINE
  5
497
100
AcDbEntity
  8
M0
 62
     7
100
AcDbLine
 10
170.166311
 20
509.099129
 11
168.166311
 21
509.099129
  0
LINE
  5
498
100
AcDbEntity
  8
M0
 62
     7
100
AcDbLine
 10
131.166322
 20
510.599114
 11
194.166307
 21
510.599114
  0
ARC
  5
499
100
AcDbEntity
  8
M0
 62
     7
100
AcDbCircle
 10
131.166322
 20
511.099114
 40
0.5
100
AcDbArc
 50
179.998251
 51
270.0
  0
ARC
  5
49A
100
AcDbEntity
  8
M0
 62
     7
100
AcDbCircle
 10
194.166307
 20
511.099114
 40
0.5
100
AcDbArc
 50
269.998251
 51
360.0
  0
LINE
  5
49B
100
AcDbEntity
  8
M0
 62
     7
100
AcDbLine
 10
154.666312
 20
509.599144
 11
154.666312
 21
510.599129
  0
ARC
  5
49C
100
AcDbEntity
  8
M0
 62
     7
100
AcDbCircle
 10
157.166312
 20
509.599144
 40
0.5
100
AcDbArc
 50
-90.0
 51
0.0
  0
LINE
  5
49D
100
AcDbEntity
  8
M0
 62
     7
100
AcDbLine
 10
157.666312
 20
509.599144
 11
157.666312
 21
510.599129
  0
LINE
  5
49E
100
AcDbEntity
  8
M0
 62
     7
100
AcDbLine
 10
167.666311
 20
509.599144
 11
167.666311
 21
510.599129
  0
ARC
  5
49F
100
AcDbEntity
  8
M0
 62
     7
100
AcDbCircle
 10
170.166311
 20
509.599144
 40
0.5
100
AcDbArc
 50
-90.0
 51
0.0
  0
LINE
  5
4A0
100
AcDbEntity
  8
M0
 62
     7
100
AcDbLine
 10
170.666311
 20
509.599144
 11
170.666311
 21
510.599129
  0
LINE
  5
4A1
100
AcDbEntity
  8
M0
100
AcDbLine
 10
128.066225
 20
519.999367
 11
129.886293
 21
519.999367
  0
LINE
  5
4A2
100
AcDbEntity
  8
M0
100
AcDbLine
 10
125.266176
 20
519.999367
 11
123.446107
 21
519.999367
  0
LINE
  5
4A3
100
AcDbEntity
  8
M0
100
AcDbLine
 10
124.185365
 20
518.799416
 11
129.147035
 21
518.799416
  0
LINE
  5
4A4
100
AcDbEntity
  8
M0
100
AcDbLine
 10
128.066225
 20
519.999367
 11
128.066225
 21
520.446022
  0
LINE
  5
4A5
100
AcDbEntity
  8
M0
100
AcDbLine
 10
125.266176
 20
519.999367
 11
125.266176
 21
520.446022
  0
ARC
  5
4A6
100
AcDbEntity
  8
M0
100
AcDbCircle
 10
124.185365
 20
519.299416
 40
0.5
100
AcDbArc
 50
197.127669
 51
270.0
  0
ARC
  5
4A7
100
AcDbEntity
  8
M0
100
AcDbCircle
 10
129.147035
 20
519.299416
 40
0.5
100
AcDbArc
 50
270.0
 51
342.86179
  0
LINE
  5
4A8
100
AcDbEntity
  8
M0
100
AcDbLine
 10
147.881888
 20
503.699334
 11
144.766176
 21
503.699334
  0
LINE
  5
4A9
100
AcDbEntity
  8
M0
100
AcDbLine
 10
140.566225
 20
503.699334
 11
137.450746
 21
503.699334
  0
ARC
  5
4AA
100
AcDbEntity
  8
M0
100
AcDbCircle
 10
144.766176
 20
505.199334
 40
1.5
100
AcDbArc
 50
179.999417
 51
270.0
  0
LINE
  5
4AB
100
AcDbEntity
  8
M0
100
AcDbLine
 10
144.766176
 20
503.699334
 11
144.766176
 21
502.499337
  0
LINE
  5
4AC
100
AcDbEntity
  8
M0
100
AcDbLine
 10
140.566225
 20
503.699334
 11
140.566225
 21
502.499337
  0
CIRCLE
  5
4AD
100
AcDbEntity
  8
M0
100
AcDbCircle
 10
142.666322
 20
503.099343
 40
5.249998
  0
LINE
  5
4AE
100
AcDbEntity
  8
M0
100
AcDbLine
 10
142.066225
 20
506.199334
 11
143.266176
 21
506.199334
  0
LINE
  5
4AF
100
AcDbEntity
  8
M0
100
AcDbLine
 10
143.266176
 20
506.199334
 11
143.266176
 21
505.199334
  0
LINE
  5
4B0
100
AcDbEntity
  8
M0
100
AcDbLine
 10
142.066225
 20
505.199334
 11
142.066225
 21
506.199334
  0
ARC
  5
4B1
100
AcDbEntity
  8
M0
100
AcDbCircle
 10
140.566225
 20
505.199334
 40
1.5
100
AcDbArc
 50
-90.0
 51
0.0
  0
LINE
  5
4B2
100
AcDbEntity
  8
M0
100
AcDbLine
 10
167.881887
 20
503.699562
 11
164.766164
 21
503.699562
  0
LINE
  5
4B3
100
AcDbEntity
  8
M0
100
AcDbLine
 10
160.566214
 20
503.699562
 11
157.450736
 21
503.699562
  0
ARC
  5
4B4
100
AcDbEntity
  8
M0
100
AcDbCircle
 10
164.766164
 20
505.199562
 40
1.5
100
AcDbArc
 50
179.999417
 51
270.0
  0
LINE
  5
4B5
100
AcDbEntity
  8
M0
100
AcDbLine
 10
164.766164
 20
503.699562
 11
164.766164
 21
502.499566
  0
LINE
  5
4B6
100
AcDbEntity
  8
M0
100
AcDbLine
 10
160.566214
 20
503.699562
 11
160.566214
 21
502.499566
  0
CIRCLE
  5
4B7
100
AcDbEntity
  8
M0
100
AcDbCircle
 10
162.666312
 20
503.099572
 40
5.249998
  0
LINE
  5
4B8
100
AcDbEntity
  8
M0
100
AcDbLine
 10
162.066214
 20
506.199562
 11
163.266165
 21
506.199562
  0
LINE
  5
4B9
100
AcDbEntity
  8
M0
100
AcDbLine
 10
163.266165
 20
506.199562
 11
163.266165
 21
505.199562
  0
LINE
  5
4BA
100
AcDbEntity
  8
M0
100
AcDbLine
 10
162.066214
 20
505.199562
 11
162.066214
 21
506.199562
  0
ARC
  5
4BB
100
AcDbEntity
  8
M0
100
AcDbCircle
 10
160.566214
 20
505.199562
 40
1.5
100
AcDbArc
 50
-90.0
 51
0.0
  0
LINE
  5
4BC
100
AcDbEntity
  8
M0
100
AcDbLine
 10
187.881883
 20
503.699562
 11
184.76616
 21
503.699562
  0
LINE
  5
4BD
100
AcDbEntity
  8
M0
100
AcDbLine
 10
180.566209
 20
503.699562
 11
177.450735
 21
503.699562
  0
ARC
  5
4BE
100
AcDbEntity
  8
M0
100
AcDbCircle
 10
184.76616
 20
505.199562
 40
1.5
100
AcDbArc
 50
179.999417
 51
269.999417
  0
LINE
  5
4BF
100
AcDbEntity
  8
M0
100
AcDbLine
 10
184.76616
 20
503.699562
 11
184.76616
 21
502.499566
  0
LINE
  5
4C0
100
AcDbEntity
  8
M0
100
AcDbLine
 10
180.566209
 20
503.699562
 11
180.566209
 21
502.499566
  0
CIRCLE
  5
4C1
100
AcDbEntity
  8
M0
100
AcDbCircle
 10
182.666307
 20
503.099572
 40
5.249998
  0
LINE
  5
4C2
100
AcDbEntity
  8
M0
100
AcDbLine
 10
182.066209
 20
506.199562
 11
183.26616
 21
506.199562
  0
LINE
  5
4C3
100
AcDbEntity
  8
M0
100
AcDbLine
 10
183.26616
 20
506.199562
 11
183.26616
 21
505.199562
  0
LINE
  5
4C4
100
AcDbEntity
  8
M0
100
AcDbLine
 10
182.066209
 20
505.199562
 11
182.066209
 21
506.199562
  0
ARC
  5
4C5
100
AcDbEntity
  8
M0
100
AcDbCircle
 10
180.566209
 20
505.199562
 40
1.5
100
AcDbArc
 50
-90.000583
 51
0.0
  0
LINE
  5
4C6
100
AcDbEntity
  8
M0
100
AcDbLine
 10
200.066209
 20
519.999642
 11
201.886278
 21
519.999642
  0
LINE
  5
4C7
100
AcDbEntity
  8
M0
100
AcDbLine
 10
197.26616
 20
519.999642
 11
195.446092
 21
519.999642
  0
LINE
  5
4C8
100
AcDbEntity
  8
M0
100
AcDbLine
 10
196.18535
 20
518.799691
 11
201.14702
 21
518.799691
  0
LINE
  5
4C9
100
AcDbEntity
  8
M0
100
AcDbLine
 10
200.066209
 20
519.999642
 11
200.066209
 21
520.446297
  0
LINE
  5
4CA
100
AcDbEntity
  8
M0
100
AcDbLine
 10
197.26616
 20
519.999642
 11
197.26616
 21
520.446297
  0
ARC
  5
4CB
100
AcDbEntity
  8
M0
100
AcDbCircle
 10
196.18535
 20
519.299691
 40
0.5
100
AcDbArc
 50
197.127154
 51
269.998251
  0
ARC
  5
4CC
100
AcDbEntity
  8
M0
100
AcDbCircle
 10
201.14702
 20
519.299691
 40
0.5
100
AcDbArc
 50
269.998251
 51
342.861275
  0
LINE
  5
4CD
100
AcDbEntity
  8
M0
 62
     5
100
AcDbLine
 10
203.666063
 20
515.599373
 11
203.666063
 21
505.615654
  0
ARC
  5
4CE
100
AcDbEntity
  8
M0
 62
     5
100
AcDbCircle
 10
200.666063
 20
505.615654
 40
3.0
100
AcDbArc
 50
304.507247
 51
360.0
  0
ARC
  5
4CF
100
AcDbEntity
  8
M0
 62
     5
100
AcDbCircle
 10
195.666063
 20
504.099541
 40
2.249998
100
AcDbArc
 50
245.020289
 51
474.979547
  0
LINE
  5
4D0
100
AcDbEntity
  8
M0
  6
DASHDOT
 62
     5
100
AcDbLine
 10
200.486314
 20
504.099541
 11
191.585496
 21
504.099541
  0
LINE
  5
4D1
100
AcDbEntity
  8
M0
 62
     5
100
AcDbLine
 10
206.666063
 20
516.599373
 11
194.666063
 21
516.599373
  0
LINE
  5
4D2
100
AcDbEntity
  8
M0
 62
     5
100
AcDbLine
 10
204.166063
 20
515.599358
 11
203.666063
 21
515.599373
  0
ARC
  5
4D3
100
AcDbEntity
  8
M0
 62
     5
100
AcDbCircle
 10
119.165834
 20
505.599373
 40
0.5
100
AcDbArc
 50
179.998251
 51
270.0
  0
LINE
  5
4D4
100
AcDbEntity
  8
M0
 62
     5
100
AcDbLine
 10
122.666078
 20
505.099373
 11
122.666078
 21
516.599343
  0
LINE
  5
4D5
100
AcDbEntity
  8
M0
 62
     5
100
AcDbLine
 10
119.165834
 20
505.099373
 11
122.666078
 21
505.099373
  0
LINE
  5
4D6
100
AcDbEntity
  8
M0
 62
     5
100
AcDbLine
 10
122.666078
 20
516.099373
 11
130.666322
 21
516.099373
  0
LINE
  5
4D7
100
AcDbEntity
  8
M0
 62
     5
100
AcDbLine
 10
122.666078
 20
506.599373
 11
130.666322
 21
506.599373
  0
CIRCLE
  5
4D8
100
AcDbEntity
  8
M0
100
AcDbCircle
 10
126.666078
 20
511.099358
 40
3.0
  0
LINE
  5
4D9
100
AcDbEntity
  8
M0
100
AcDbLine
 10
123.707094
 20
515.0467
 11
122.890932
 21
512.399407
  0
LINE
  5
4DA
100
AcDbEntity
  8
M0
100
AcDbLine
 10
123.707094
 20
507.152108
 11
122.890932
 21
509.799431
  0
LINE
  5
4DB
100
AcDbEntity
  8
M0
100
AcDbLine
 10
129.624574
 20
515.046715
 11
130.44098
 21
512.399407
  0
LINE
  5
4DC
100
AcDbEntity
  8
M0
100
AcDbLine
 10
129.624574
 20
507.152092
 11
130.44098
 21
509.799431
  0
LINE
  5
4DD
100
AcDbEntity
  8
M0
100
AcDbLine
 10
128.06598
 20
514.199334
 11
129.886049
 21
514.199334
  0
LINE
  5
4DE
100
AcDbEntity
  8
M0
100
AcDbLine
 10
128.987611
 20
512.999382
 11
130.255922
 21
512.999382
  0
LINE
  5
4DF
100
AcDbEntity
  8
M0
100
AcDbLine
 10
128.987611
 20
509.199334
 11
130.255922
 21
509.199334
  0
LINE
  5
4E0
100
AcDbEntity
  8
M0
100
AcDbLine
 10
128.06598
 20
507.999382
 11
129.886049
 21
507.999382
  0
LINE
  5
4E1
100
AcDbEntity
  8
M0
100
AcDbLine
 10
125.265932
 20
514.199334
 11
123.445863
 21
514.199334
  0
LINE
  5
4E2
100
AcDbEntity
  8
M0
100
AcDbLine
 10
124.344301
 20
512.999382
 11
123.07599
 21
512.999382
  0
LINE
  5
4E3
100
AcDbEntity
  8
M0
100
AcDbLine
 10
124.344301
 20
509.199334
 11
123.07599
 21
509.199334
  0
LINE
  5
4E4
100
AcDbEntity
  8
M0
100
AcDbLine
 10
125.265932
 20
507.999382
 11
123.445863
 21
507.999382
  0
LINE
  5
4E5
100
AcDbEntity
  8
M0
100
AcDbLine
 10
124.185121
 20
506.799431
 11
129.146791
 21
506.799431
  0
LINE
  5
4E6
100
AcDbEntity
  8
M0
100
AcDbLine
 10
130.44098
 20
509.799431
 11
130.44098
 21
512.399407
  0
LINE
  5
4E7
100
AcDbEntity
  8
M0
100
AcDbLine
 10
129.146791
 20
515.399407
 11
124.185121
 21
515.399392
  0
LINE
  5
4E8
100
AcDbEntity
  8
M0
100
AcDbLine
 10
122.890932
 20
512.399407
 11
122.890932
 21
509.799431
  0
LINE
  5
4E9
100
AcDbEntity
  8
M0
  6
DASHDOT
100
AcDbLine
 10
120.390932
 20
511.099358
 11
132.94098
 21
511.099358
  0
LINE
  5
4EA
100
AcDbEntity
  8
M0
100
AcDbLine
 10
128.06598
 20
507.999382
 11
128.06598
 21
508.446038
  0
LINE
  5
4EB
100
AcDbEntity
  8
M0
100
AcDbLine
 10
128.06598
 20
513.752678
 11
128.06598
 21
514.199334
  0
LINE
  5
4EC
100
AcDbEntity
  8
M0
100
AcDbLine
 10
125.265932
 20
513.752678
 11
125.265932
 21
514.199334
  0
LINE
  5
4ED
100
AcDbEntity
  8
M0
100
AcDbLine
 10
125.265932
 20
507.999382
 11
125.265932
 21
508.446038
  0
LINE
  5
4EE
100
AcDbEntity
  8
M0
100
AcDbLine
 10
128.256654
 20
509.508538
 11
125.075014
 21
512.6903
  0
LINE
  5
4EF
100
AcDbEntity
  8
M0
100
AcDbLine
 10
127.01935
 20
512.513543
 11
125.251771
 21
510.745842
  0
LINE
  5
4F0
100
AcDbEntity
  8
M0
100
AcDbLine
 10
128.079896
 20
511.452874
 11
126.312318
 21
509.685296
  0
ARC
  5
4F1
100
AcDbEntity
  8
M0
100
AcDbCircle
 10
124.185121
 20
514.899392
 40
0.5
100
AcDbArc
 50
89.998251
 51
162.872331
  0
ARC
  5
4F2
100
AcDbEntity
  8
M0
100
AcDbCircle
 10
124.185121
 20
507.299431
 40
0.5
100
AcDbArc
 50
197.127669
 51
270.0
  0
ARC
  5
4F3
100
AcDbEntity
  8
M0
100
AcDbCircle
 10
129.146791
 20
507.299431
 40
0.5
100
AcDbArc
 50
270.0
 51
342.86179
  0
ARC
  5
4F4
100
AcDbEntity
  8
M0
100
AcDbCircle
 10
129.146791
 20
514.899392
 40
0.5
100
AcDbArc
 50
17.137695
 51
89.998251
  0
CIRCLE
  5
4F5
100
AcDbEntity
  8
M0
100
AcDbCircle
 10
198.166063
 20
510.599358
 40
3.5
  0
LINE
  5
4F6
100
AcDbEntity
  8
M0
  6
DASHDOT
100
AcDbLine
 10
184.666063
 20
510.599358
 11
206.015336
 21
510.599358
  0
ARC
  5
4F7
100
AcDbEntity
  8
M0
100
AcDbCircle
 10
198.166063
 20
510.599358
 40
4.0
100
AcDbArc
 50
208.947504
 51
511.052305
  0
LINE
  5
4F8
100
AcDbEntity
  8
M0
100
AcDbLine
 10
196.398241
 20
512.366936
 11
199.933641
 21
508.831536
  0
LINE
  5
4F9
100
AcDbEntity
  8
M0
100
AcDbLine
 10
196.397996
 20
510.245598
 11
198.519334
 21
512.366936
  0
LINE
  5
4FA
100
AcDbEntity
  8
M0
100
AcDbLine
 10
197.812303
 20
508.831292
 11
199.933641
 21
510.95263
  0
LINE
  5
4FB
100
AcDbEntity
  8
M0
  6
DASHDOT
 62
     6
100
AcDbLine
 10
120.342485
 20
523.099343
 11
133.340257
 21
523.099343
  0
LINE
  5
4FC
100
AcDbEntity
  8
M0
 62
     6
100
AcDbLine
 10
122.666322
 20
524.099343
 11
123.166322
 21
525.599343
  0
LINE
  5
4FD
100
AcDbEntity
  8
M0
 62
     6
100
AcDbLine
 10
130.666322
 20
524.099343
 11
130.166322
 21
525.599343
  0
LINE
  5
4FE
100
AcDbEntity
  8
M0
  6
DASHDOT
 62
     6
100
AcDbLine
 10
205.018312
 20
523.099587
 11
191.766771
 21
523.099587
  0
LINE
  5
4FF
100
AcDbEntity
  8
M0
 62
     6
100
AcDbLine
 10
202.666307
 20
524.099587
 11
202.166307
 21
525.599587
  0
LINE
  5
500
100
AcDbEntity
  8
M0
 62
     6
100
AcDbLine
 10
194.666307
 20
524.099587
 11
195.166307
 21
525.599587
  0
LINE
  5
501
100
AcDbEntity
  8
M0
 62
     7
100
AcDbLine
 10
194.666307
 20
511.099099
 11
194.666307
 21
536.899086
  0
LINE
  5
502
100
AcDbEntity
  8
M0
 62
     7
100
AcDbLine
 10
130.666322
 20
536.899056
 11
130.666322
 21
511.099114
  0
CIRCLE
  5
503
100
AcDbEntity
  8
M0
100
AcDbCircle
 10
126.666322
 20
523.099343
 40
3.0
  0
LINE
  5
504
100
AcDbEntity
  8
M0
100
AcDbLine
 10
123.707338
 20
519.152092
 11
122.891176
 21
521.799416
  0
LINE
  5
505
100
AcDbEntity
  8
M0
100
AcDbLine
 10
129.624818
 20
519.152077
 11
130.441225
 21
521.799416
  0
LINE
  5
506
100
AcDbEntity
  8
M0
100
AcDbLine
 10
128.987855
 20
521.199318
 11
130.256166
 21
521.199318
  0
LINE
  5
507
100
AcDbEntity
  8
M0
100
AcDbLine
 10
124.344545
 20
521.199318
 11
123.076234
 21
521.199318
  0
LINE
  5
508
100
AcDbEntity
  8
M0
100
AcDbLine
 10
130.441225
 20
521.799416
 11
130.441225
 21
524.399392
  0
LINE
  5
509
100
AcDbEntity
  8
M0
100
AcDbLine
 10
122.891176
 20
524.399392
 11
122.891176
 21
521.799416
  0
LINE
  5
50A
100
AcDbEntity
  8
M0
100
AcDbLine
 10
128.256898
 20
521.508522
 11
125.075258
 21
524.690285
  0
LINE
  5
50B
100
AcDbEntity
  8
M0
100
AcDbLine
 10
127.019594
 20
524.513527
 11
125.252016
 21
522.745827
  0
LINE
  5
50C
100
AcDbEntity
  8
M0
100
AcDbLine
 10
128.080141
 20
523.452858
 11
126.312562
 21
521.68528
  0
CIRCLE
  5
50D
100
AcDbEntity
  8
M0
100
AcDbCircle
 10
198.666307
 20
523.099617
 40
3.0
  0
LINE
  5
50E
100
AcDbEntity
  8
M0
100
AcDbLine
 10
195.707323
 20
519.152367
 11
194.89116
 21
521.799691
  0
LINE
  5
50F
100
AcDbEntity
  8
M0
100
AcDbLine
 10
201.624803
 20
519.152352
 11
202.441209
 21
521.799691
  0
LINE
  5
510
100
AcDbEntity
  8
M0
100
AcDbLine
 10
200.98784
 20
521.199593
 11
202.256151
 21
521.199593
  0
LINE
  5
511
100
AcDbEntity
  8
M0
100
AcDbLine
 10
196.34453
 20
521.199593
 11
195.076219
 21
521.199593
  0
LINE
  5
512
100
AcDbEntity
  8
M0
100
AcDbLine
 10
202.441209
 20
521.799691
 11
202.441209
 21
524.399666
  0
LINE
  5
513
100
AcDbEntity
  8
M0
100
AcDbLine
 10
194.89116
 20
524.399666
 11
194.89116
 21
521.799691
  0
LINE
  5
514
100
AcDbEntity
  8
M0
100
AcDbLine
 10
200.256883
 20
521.508797
 11
197.075242
 21
524.69056
  0
LINE
  5
515
100
AcDbEntity
  8
M0
100
AcDbLine
 10
199.019578
 20
524.513802
 11
197.252
 21
522.746102
  0
LINE
  5
516
100
AcDbEntity
  8
M0
100
AcDbLine
 10
200.080125
 20
523.453133
 11
198.312547
 21
521.685555
  0
LINE
  5
517
100
AcDbEntity
  8
M0
  6
DASHDOT
100
AcDbLine
 10
126.666078
 20
504.299447
 11
126.666078
 21
538.56617
  0
LINE
  5
518
100
AcDbEntity
  8
M0
 62
     6
100
AcDbLine
 10
151.416312
 20
490.099343
 11
153.916312
 21
490.099343
  0
LINE
  5
519
100
AcDbEntity
  8
M0
 62
     6
100
AcDbLine
 10
173.916311
 20
490.099587
 11
171.416311
 21
490.099572
  0
ARC
  5
51A
100
AcDbEntity
  8
M0
 62
     6
100
AcDbCircle
 10
151.416312
 20
490.599343
 40
0.5
100
AcDbArc
 50
179.998251
 51
270.0
  0
ARC
  5
51B
100
AcDbEntity
  8
M0
 62
     6
100
AcDbCircle
 10
153.916312
 20
490.599343
 40
0.5
100
AcDbArc
 50
270.0
 51
360.0
  0
ARC
  5
51C
100
AcDbEntity
  8
M0
 62
     6
100
AcDbCircle
 10
131.166322
 20
495.60006
 40
0.5
100
AcDbArc
 50
179.998251
 51
270.0
  0
ARC
  5
51D
100
AcDbEntity
  8
M0
 62
     6
100
AcDbCircle
 10
171.416311
 20
490.599572
 40
0.5
100
AcDbArc
 50
179.998251
 51
270.0
  0
ARC
  5
51E
100
AcDbEntity
  8
M0
 62
     6
100
AcDbCircle
 10
173.916311
 20
490.599572
 40
0.5
100
AcDbArc
 50
270.0
 51
360.0
  0
ARC
  5
51F
100
AcDbEntity
  8
M0
 62
     6
100
AcDbCircle
 10
133.916322
 20
495.60006
 40
0.5
100
AcDbArc
 50
270.0
 51
360.0
  0
ARC
  5
520
100
AcDbEntity
  8
M0
 62
     6
100
AcDbCircle
 10
194.166307
 20
495.600319
 40
0.5
100
AcDbArc
 50
269.998251
 51
360.0
  0
LINE
  5
521
100
AcDbEntity
  8
M0
 62
     6
100
AcDbLine
 10
136.350236
 20
495.100029
 11
131.166322
 21
495.10006
  0
LINE
  5
522
100
AcDbEntity
  8
M0
 62
     6
100
AcDbLine
 10
145.693742
 20
495.100319
 11
150.916312
 21
495.100319
  0
LINE
  5
523
100
AcDbEntity
  8
M0
 62
     6
100
AcDbLine
 10
154.416312
 20
490.599328
 11
154.416312
 21
510.599114
  0
LINE
  5
524
100
AcDbEntity
  8
M0
 62
     6
100
AcDbLine
 10
134.416322
 20
495.600045
 11
134.416322
 21
510.599114
  0
LINE
  5
525
100
AcDbEntity
  8
M0
 62
     6
100
AcDbLine
 10
150.916312
 20
490.599343
 11
150.916312
 21
510.599114
  0
LINE
  5
526
100
AcDbEntity
  8
M0
 62
     6
100
AcDbLine
 10
170.916311
 20
490.599572
 11
170.916311
 21
510.599587
  0
LINE
  5
527
100
AcDbEntity
  8
M0
  6
DASHDOT
 62
     6
100
AcDbLine
 10
182.666063
 20
510.934502
 11
182.666246
 21
493.173836
  0
LINE
  5
528
100
AcDbEntity
  8
M0
 62
     6
100
AcDbLine
 10
190.916307
 20
495.099587
 11
190.916307
 21
510.599114
  0
LINE
  5
529
100
AcDbEntity
  8
M0
 62
     6
100
AcDbLine
 10
174.416311
 20
490.599556
 11
174.416311
 21
510.599114
  0
LINE
  5
52A
100
AcDbEntity
  8
M0
 62
     6
100
AcDbLine
 10
170.916311
 20
490.599572
 11
170.916311
 21
510.599114
  0
LINE
  5
52B
100
AcDbEntity
  8
M0
  6
DASHDOT
 62
     6
100
AcDbLine
 10
142.666322
 20
510.599114
 11
142.666322
 21
492.865654
  0
LINE
  5
52C
100
AcDbEntity
  8
M0
  6
DASHDOT
 62
     5
100
AcDbLine
 10
195.666063
 20
509.108422
 11
195.666063
 21
499.065438
  0
LINE
  5
52D
100
AcDbEntity
  8
M0
 62
     6
100
AcDbLine
 10
130.666322
 20
536.899056
 11
130.666322
 21
495.60006
  0
LINE
  5
52E
100
AcDbEntity
  8
M0
 62
     6
100
AcDbLine
 10
194.666307
 20
536.899086
 11
194.666307
 21
495.600319
  0
LINE
  5
52F
100
AcDbEntity
  8
M0
  6
DASHDOT
100
AcDbLine
 10
198.166063
 20
503.887505
 11
198.166063
 21
516.849038
  0
LINE
  5
530
100
AcDbEntity
  8
M0
  6
DASHDOT
100
AcDbLine
 10
198.666063
 20
517.322014
 11
198.666063
 21
539.798836
  0
LINE
  5
531
100
AcDbEntity
  8
M0
 62
     6
100
AcDbLine
 10
154.416312
 20
495.100319
 11
157.753912
 21
495.100319
  0
LINE
  5
532
100
AcDbEntity
  8
M0
 62
     6
100
AcDbLine
 10
174.416311
 20
495.100319
 11
179.090166
 21
495.100319
  0
LINE
  5
533
100
AcDbEntity
  8
M0
 62
     6
100
AcDbLine
 10
166.523488
 20
495.100319
 11
170.916311
 21
495.100319
  0
LINE
  5
534
100
AcDbEntity
  8
M0
 62
     6
100
AcDbLine
 10
187.57509
 20
495.100319
 11
194.166307
 21
495.100319
  0
CIRCLE
  5
535
100
AcDbEntity
  8
M0
100
AcDbCircle
 10
182.666063
 20
503.099572
 40
6.499997
  0
CIRCLE
  5
536
100
AcDbEntity
  8
M0
100
AcDbCircle
 10
162.667181
 20
503.099343
 40
6.499997
  0
CIRCLE
  5
537
100
AcDbEntity
  8
M0
100
AcDbCircle
 10
142.66646
 20
503.099343
 40
6.499997
  0
LINE
  5
538
100
AcDbEntity
  8
M0
 62
     4
100
AcDbLine
 10
188.631669
 20
509.991127
 11
185.441865
 21
509.734017
  0
LINE
  5
539
100
AcDbEntity
  8
M0
 62
     4
100
AcDbLine
 10
175.673635
 20
508.946389
 11
176.477437
 21
498.978798
  0
LINE
  5
53A
100
AcDbEntity
  8
M0
 62
     4
100
AcDbLine
 10
178.863191
 20
509.203438
 11
175.673635
 21
508.946389
  0
LINE
  5
53B
100
AcDbEntity
  8
M0
 62
     4
100
AcDbLine
 10
185.505037
 20
508.946785
 11
185.441621
 21
509.733925
  0
LINE
  5
53C
100
AcDbEntity
  8
M0
 62
     4
100
AcDbLine
 10
178.926408
 20
508.416024
 11
178.862962
 21
509.203347
  0
LINE
  5
53D
100
AcDbEntity
  8
M0
 62
     4
100
AcDbLine
 10
189.435243
 20
500.023491
 11
188.631669
 21
509.991127
  0
LINE
  5
53E
100
AcDbEntity
  8
M0
 62
     4
100
AcDbLine
 10
176.477437
 20
498.978798
 11
179.041536
 21
495.172524
  0
LINE
  5
53F
100
AcDbEntity
  8
M0
 62
     4
100
AcDbLine
 10
189.435243
 20
500.023491
 11
187.514192
 21
495.85569
  0
LINE
  5
540
100
AcDbEntity
  8
M0
 62
     4
100
AcDbLine
 10
150.377905
 20
507.309578
 11
147.268149
 21
508.064873
  0
LINE
  5
541
100
AcDbEntity
  8
M0
 62
     4
100
AcDbLine
 10
137.745027
 20
510.377587
 11
135.385225
 21
500.660057
  0
LINE
  5
542
100
AcDbEntity
  8
M0
 62
     4
100
AcDbLine
 10
140.854524
 20
509.622292
 11
137.745027
 21
510.377587
  0
LINE
  5
543
100
AcDbEntity
  8
M0
 62
     4
100
AcDbLine
 10
147.194479
 20
507.762642
 11
147.267905
 21
508.064873
  0
LINE
  5
544
100
AcDbEntity
  8
M0
 62
     4
100
AcDbLine
 10
140.780778
 20
509.319786
 11
140.854265
 21
509.622292
  0
LINE
  5
545
100
AcDbEntity
  8
M0
 62
     4
100
AcDbLine
 10
148.017844
 20
497.59208
 11
150.377905
 21
507.309578
  0
LINE
  5
546
100
AcDbEntity
  8
M0
 62
     4
100
AcDbLine
 10
135.385225
 20
500.660057
 11
136.62758
 21
496.242043
  0
LINE
  5
547
100
AcDbEntity
  8
M0
 62
     4
100
AcDbLine
 10
148.017844
 20
497.59208
 11
144.887651
 21
494.236077
  0
LINE
  5
548
100
AcDbEntity
  8
M0
 62
     4
100
AcDbLine
 10
169.662618
 20
508.942391
 11
166.472951
 21
509.201348
  0
LINE
  5
549
100
AcDbEntity
  8
M0
 62
     4
100
AcDbLine
 10
156.632483
 20
509.099099
 11
155.896277
 21
500.026925
  0
LINE
  5
54A
100
AcDbEntity
  8
M0
 62
     4
100
AcDbLine
 10
159.894537
 20
509.735131
 11
157.678137
 21
509.915093
  0
LINE
  5
54B
100
AcDbEntity
  8
M0
 62
     4
100
AcDbLine
 10
166.408788
 20
508.414391
 11
166.472707
 21
509.201287
  0
LINE
  5
54C
100
AcDbEntity
  8
M0
 62
     4
100
AcDbLine
 10
159.830344
 20
508.947594
 11
159.894293
 21
509.735054
  0
LINE
  5
54D
100
AcDbEntity
  8
M0
 62
     4
100
AcDbLine
 10
168.853506
 20
498.975197
 11
169.662618
 21
508.942391
  0
LINE
  5
54E
100
AcDbEntity
  8
M0
 62
     4
100
AcDbLine
 10
155.896277
 20
500.026955
 11
157.815192
 21
495.858025
  0
LINE
  5
54F
100
AcDbEntity
  8
M0
 62
     4
100
AcDbLine
 10
168.853506
 20
498.975197
 11
166.287496
 21
495.170388
  0
ARC
  5
550
100
AcDbEntity
  8
M0
100
AcDbCircle
 10
154.666312
 20
540.549065
 40
3.0
100
AcDbArc
 50
179.999964
 51
270.0
  0
ARC
  5
551
100
AcDbEntity
  8
M0
100
AcDbCircle
 10
170.666311
 20
540.549065
 40
3.0
100
AcDbArc
 50
270.0
 51
360.0
  0
LINE
  5
552
100
AcDbEntity
  8
M0
 62
     6
100
AcDbLine
 10
118.666322
 20
546.849343
 11
121.866273
 21
546.849343
  0
LINE
  5
553
100
AcDbEntity
  8
M0
 62
     6
100
AcDbLine
 10
121.866273
 20
546.849343
 11
121.866273
 21
539.349343
  0
LINE
  5
554
100
AcDbEntity
  8
M0
 62
     6
100
AcDbLine
 10
121.866273
 20
546.849343
 11
122.666322
 21
547.799294
  0
LINE
  5
555
100
AcDbEntity
  8
M0
 62
     6
100
AcDbLine
 10
206.666307
 20
546.849099
 11
203.466112
 21
546.849099
  0
LINE
  5
556
100
AcDbEntity
  8
M0
 62
     6
100
AcDbLine
 10
203.466112
 20
546.849099
 11
203.466112
 21
539.349587
  0
LINE
  5
557
100
AcDbEntity
  8
M0
 62
     6
100
AcDbLine
 10
203.466112
 20
546.849099
 11
202.666307
 21
547.79905
  0
CIRCLE
  5
558
100
AcDbEntity
  8
M0
 62
     7
100
AcDbCircle
 10
128.666322
 20
543.099114
 40
3.249996
  0
CIRCLE
  5
559
100
AcDbEntity
  8
M0
 62
     7
100
AcDbCircle
 10
196.666307
 20
543.099114
 40
3.249996
  0
LINE
  5
55A
100
AcDbEntity
  8
M0
 62
     7
100
AcDbLine
 10
151.366263
 20
550.398873
 11
151.366263
 21
540.099099
  0
LINE
  5
55B
100
AcDbEntity
  8
M0
 62
     7
100
AcDbLine
 10
173.966115
 20
540.099083
 11
173.966115
 21
550.398873
  0
CIRCLE
  5
55C
100
AcDbEntity
  8
M0
100
AcDbCircle
 10
196.665819
 20
543.099343
 40
2.749996
  0
CIRCLE
  5
55D
100
AcDbEntity
  8
M0
100
AcDbCircle
 10
196.665819
 20
543.099343
 40
3.0
  0
LINE
  5
55E
100
AcDbEntity
  8
M0
100
AcDbLine
 10
195.251512
 20
544.513405
 11
198.079881
 21
541.685036
  0
LINE
  5
55F
100
AcDbEntity
  8
M0
100
AcDbLine
 10
197.160448
 20
544.725563
 11
195.03911
 21
542.604226
  0
LINE
  5
560
100
AcDbEntity
  8
M0
100
AcDbLine
 10
198.292039
 20
543.593972
 11
196.170701
 21
541.472634
  0
CIRCLE
  5
561
100
AcDbEntity
  8
M0
100
AcDbCircle
 10
128.666078
 20
543.099343
 40
2.749996
  0
CIRCLE
  5
562
100
AcDbEntity
  8
M0
100
AcDbCircle
 10
128.666078
 20
543.099343
 40
3.0
  0
LINE
  5
563
100
AcDbEntity
  8
M0
100
AcDbLine
 10
127.251771
 20
544.513405
 11
130.080141
 21
541.685036
  0
LINE
  5
564
100
AcDbEntity
  8
M0
100
AcDbLine
 10
129.160707
 20
544.725563
 11
127.039369
 21
542.604226
  0
LINE
  5
565
100
AcDbEntity
  8
M0
100
AcDbLine
 10
130.292299
 20
543.593972
 11
128.170961
 21
541.472634
  0
LINE
  5
566
100
AcDbEntity
  8
M0
100
AcDbLine
 10
173.666311
 20
540.548821
 11
173.666311
 21
550.248726
  0
LINE
  5
567
100
AcDbEntity
  8
M0
100
AcDbLine
 10
151.666312
 20
550.24897
 11
151.666312
 21
540.549065
  0
LINE
  5
568
100
AcDbEntity
  8
M0
100
AcDbLine
 10
159.666312
 20
543.249016
 11
165.666311
 21
543.249016
  0
LINE
  5
569
100
AcDbEntity
  8
M0
100
AcDbLine
 10
165.666311
 20
547.749016
 11
165.666311
 21
543.249016
  0
LINE
  5
56A
100
AcDbEntity
  8
M0
100
AcDbLine
 10
159.666312
 20
547.749016
 11
159.666312
 21
543.249016
  0
LINE
  5
56B
100
AcDbEntity
  8
M0
 62
     7
100
AcDbLine
 10
202.166307
 20
537.899071
 11
202.166307
 21
548.299096
  0
LINE
  5
56C
100
AcDbEntity
  8
M0
 62
     7
100
AcDbLine
 10
123.166322
 20
548.299111
 11
123.166322
 21
537.899056
  0
LINE
  5
56D
100
AcDbEntity
  8
M0
  6
DASHDOT
100
AcDbLine
 10
196.665819
 20
537.399224
 11
196.665819
 21
548.798638
  0
LINE
  5
56E
100
AcDbEntity
  8
M0
  6
DASHDOT
100
AcDbLine
 10
128.666078
 20
537.399224
 11
128.666078
 21
548.799126
  0
LINE
  5
56F
100
AcDbEntity
  8
M0
  6
DASHDOT
 62
     1
100
AcDbLine
 10
162.666907
 20
596.09916
 11
162.666006
 21
492.901925
  0
LINE
  5
570
100
AcDbEntity
  8
M0
 62
     5
100
AcDbLine
 10
118.665834
 20
570.59916
 11
118.665834
 21
505.599373
  0
LINE
  5
571
100
AcDbEntity
  8
M0
 62
     5
100
AcDbLine
 10
206.666063
 20
515.599358
 11
206.666063
 21
580.598916
  0
LINE
  5
572
100
AcDbEntity
  8
M0
 62
     6
100
AcDbLine
 10
122.666322
 20
569.09916
 11
122.666322
 21
517.099343
  0
LINE
  5
573
100
AcDbEntity
  8
M0
 62
     6
100
AcDbLine
 10
202.666307
 20
569.098916
 11
202.666307
 21
517.099587
  0
LINE
  5
574
100
AcDbEntity
  8
M0
 62
     6
100
AcDbLine
 10
118.666078
 20
572.098916
 11
118.666078
 21
514.099587
  0
LINE
  5
575
100
AcDbEntity
  8
M0
 62
     6
100
AcDbLine
 10
206.666307
 20
572.098671
 11
206.666307
 21
514.099831
  0
LINE
  5
576
100
AcDbEntity
  8
M0
  6
DASHDOT
100
AcDbLine
 10
126.666078
 20
547.15902
 11
126.666078
 21
570.399941
  0
LINE
  5
577
100
AcDbEntity
  8
M0
 62
     1
100
AcDbLine
 10
194.166902
 20
575.09948
 11
194.166902
 21
547.43023
  0
LINE
  5
578
100
AcDbEntity
  8
M0
 62
     1
100
AcDbLine
 10
131.166917
 20
575.09948
 11
131.166917
 21
547.429116
  0
ARC
  5
579
100
AcDbEntity
  8
M0
100
AcDbCircle
 10
196.665819
 20
543.09948
 40
5.0
100
AcDbArc
 50
119.985666
 51
240.01434
  0
ARC
  5
57A
100
AcDbEntity
  8
M0
100
AcDbCircle
 10
128.666078
 20
543.09948
 40
5.0
100
AcDbArc
 50
300.011089
 51
419.988726
  0
LINE
  5
57B
100
AcDbEntity
  8
M0
 62
     1
100
AcDbLine
 10
194.166902
 20
538.768715
 11
194.166902
 21
511.09948
  0
LINE
  5
57C
100
AcDbEntity
  8
M0
 62
     1
100
AcDbLine
 10
131.166917
 20
538.769829
 11
131.166917
 21
511.09948
  0
LINE
  5
57D
100
AcDbEntity
  8
M0
 62
     1
100
AcDbLine
 10
174.416906
 20
560.09948
 11
174.416906
 21
526.09948
  0
LINE
  5
57E
100
AcDbEntity
  8
M0
 62
     1
100
AcDbLine
 10
150.916907
 20
560.09948
 11
150.916907
 21
526.09948
  0
CIRCLE
  5
57F
100
AcDbEntity
  8
M0
100
AcDbCircle
 10
207.666048
 20
481.099328
 40
3.5
  0
LINE
  5
580
100
AcDbEntity
  8
M0
 62
     1
100
AcDbLine
 10
123.665864
 20
405.599419
 11
209.665758
 21
405.599419
  0
LINE
  5
581
100
AcDbEntity
  8
M0
 62
     1
100
AcDbLine
 10
214.665758
 20
410.599419
 11
214.665758
 21
438.798302
  0
LINE
  5
582
100
AcDbEntity
  8
M0
 62
     1
100
AcDbLine
 10
209.665758
 20
405.599419
 11
214.665758
 21
410.599419
  0
LINE
  5
583
100
AcDbEntity
  8
M0
 62
     1
100
AcDbLine
 10
123.665864
 20
405.599419
 11
118.665864
 21
410.599419
  0
LINE
  5
584
100
AcDbEntity
  8
M0
  6
DASHDOT
 62
     1
100
AcDbLine
 10
118.665864
 20
413.099419
 11
214.665758
 21
413.099419
  0
LINE
  5
585
100
AcDbEntity
  8
M0
  6
DASHDOT
 62
     1
100
AcDbLine
 10
146.665864
 20
421.02755
 11
146.665864
 21
405.599419
  0
LINE
  5
586
100
AcDbEntity
  8
M0
  6
DASHDOT
 62
     1
100
AcDbLine
 10
131.665864
 20
420.17553
 11
131.665864
 21
405.599419
  0
LINE
  5
587
100
AcDbEntity
  8
M0
  6
DASHDOT
 62
     1
100
AcDbLine
 10
186.665849
 20
420.320565
 11
186.665849
 21
405.599419
  0
LINE
  5
588
100
AcDbEntity
  8
M0
  6
DASHDOT
 62
     1
100
AcDbLine
 10
201.665758
 20
419.885491
 11
201.665758
 21
405.599419
  0
CIRCLE
  5
589
100
AcDbEntity
  8
M0
 62
     1
100
AcDbCircle
 10
131.665864
 20
413.099419
 40
2.999997
  0
CIRCLE
  5
58A
100
AcDbEntity
  8
M0
 62
     1
100
AcDbCircle
 10
146.665864
 20
413.099419
 40
2.999997
  0
CIRCLE
  5
58B
100
AcDbEntity
  8
M0
 62
     1
100
AcDbCircle
 10
186.665849
 20
413.099419
 40
2.999997
  0
CIRCLE
  5
58C
100
AcDbEntity
  8
M0
 62
     1
100
AcDbCircle
 10
201.665758
 20
413.099419
 40
2.999997
  0
ARC
  5
58D
100
AcDbEntity
  8
M0
 62
     1
100
AcDbCircle
 10
121.165864
 20
439.599328
 40
2.5
100
AcDbArc
 50
179.99965
 51
270.0
  0
CIRCLE
  5
58E
100
AcDbEntity
  8
M0
  6
DASHED
 62
     7
100
AcDbCircle
 10
209.664903
 20
462.098427
 40
7.699996
  0
LINE
  5
58F
100
AcDbEntity
  8
M0
 62
     7
100
AcDbLine
 10
126.912462
 20
436.750206
 11
140.412462
 21
436.750206
  0
LINE
  5
590
100
AcDbEntity
  8
M0
 62
     7
100
AcDbLine
 10
141.412462
 20
437.749962
 11
141.412462
 21
451.249718
  0
LINE
  5
591
100
AcDbEntity
  8
M0
 62
     7
100
AcDbLine
 10
125.912462
 20
451.249962
 11
125.912462
 21
437.750206
  0
ARC
  5
592
100
AcDbEntity
  8
M0
 62
     7
100
AcDbCircle
 10
140.412462
 20
451.249962
 40
1.0
100
AcDbArc
 50
359.986012
 51
374.508033
  0
ARC
  5
593
100
AcDbEntity
  8
M0
 62
     7
100
AcDbCircle
 10
126.912462
 20
451.249962
 40
1.0
100
AcDbArc
 50
165.491748
 51
179.999126
  0
ARC
  5
594
100
AcDbEntity
  8
M0
 62
     7
100
AcDbCircle
 10
126.912462
 20
437.750206
 40
1.0
100
AcDbArc
 50
179.999126
 51
270.0
  0
ARC
  5
595
100
AcDbEntity
  8
M0
 62
     7
100
AcDbCircle
 10
140.412462
 20
437.750206
 40
1.0
100
AcDbArc
 50
270.0
 51
359.986012
  0
CIRCLE
  5
596
100
AcDbEntity
  8
M0
 62
     7
100
AcDbCircle
 10
133.662462
 20
444.500206
 40
5.249992
  0
LINE
  5
597
100
AcDbEntity
  8
M0
  6
DASHDOT
 62
     7
100
AcDbLine
 10
120.904893
 20
444.500206
 11
146.419786
 21
444.500206
  0
LINE
  5
598
100
AcDbEntity
  8
M0
 62
     7
100
AcDbLine
 10
136.029649
 20
442.132775
 11
131.093126
 21
447.069542
  0
LINE
  5
599
100
AcDbEntity
  8
M0
 62
     7
100
AcDbLine
 10
131.394151
 20
442.938683
 11
135.195177
 21
446.739708
  0
LINE
  5
59A
100
AcDbEntity
  8
M0
 62
     7
100
AcDbLine
 10
132.101182
 20
442.231408
 11
135.902208
 21
446.032433
  0
LINE
  5
59B
100
AcDbEntity
  8
M0
 62
     7
100
AcDbLine
 10
152.912207
 20
436.750206
 11
166.412206
 21
436.750206
  0
LINE
  5
59C
100
AcDbEntity
  8
M0
 62
     7
100
AcDbLine
 10
167.412206
 20
437.749962
 11
167.412206
 21
451.249718
  0
LINE
  5
59D
100
AcDbEntity
  8
M0
 62
     7
100
AcDbLine
 10
151.912207
 20
451.249962
 11
151.912207
 21
437.750206
  0
ARC
  5
59E
100
AcDbEntity
  8
M0
 62
     7
100
AcDbCircle
 10
166.412206
 20
451.249962
 40
1.0
100
AcDbArc
 50
359.986012
 51
374.494652
  0
ARC
  5
59F
100
AcDbEntity
  8
M0
 62
     7
100
AcDbCircle
 10
152.912207
 20
451.249962
 40
1.0
100
AcDbArc
 50
165.508952
 51
179.999126
  0
ARC
  5
5A0
100
AcDbEntity
  8
M0
 62
     7
100
AcDbCircle
 10
152.912207
 20
437.750206
 40
1.0
100
AcDbArc
 50
179.999126
 51
270.0
  0
ARC
  5
5A1
100
AcDbEntity
  8
M0
 62
     7
100
AcDbCircle
 10
166.412206
 20
437.750206
 40
1.0
100
AcDbArc
 50
270.0
 51
359.986012
  0
CIRCLE
  5
5A2
100
AcDbEntity
  8
M0
 62
     7
100
AcDbCircle
 10
159.662207
 20
444.500206
 40
5.249992
  0
LINE
  5
5A3
100
AcDbEntity
  8
M0
  6
DASHDOT
 62
     7
100
AcDbLine
 10
146.904639
 20
444.500206
 11
172.41953
 21
444.500206
  0
LINE
  5
5A4
100
AcDbEntity
  8
M0
 62
     7
100
AcDbLine
 10
162.029394
 20
442.132775
 11
157.092627
 21
447.069542
  0
LINE
  5
5A5
100
AcDbEntity
  8
M0
 62
     7
100
AcDbLine
 10
157.393652
 20
442.938683
 11
161.194922
 21
446.739708
  0
LINE
  5
5A6
100
AcDbEntity
  8
M0
 62
     7
100
AcDbLine
 10
158.100928
 20
442.231408
 11
161.901953
 21
446.032433
  0
LINE
  5
5A7
100
AcDbEntity
  8
M0
 62
     7
100
AcDbLine
 10
178.912202
 20
436.750206
 11
192.412202
 21
436.750206
  0
LINE
  5
5A8
100
AcDbEntity
  8
M0
 62
     7
100
AcDbLine
 10
177.912206
 20
451.249962
 11
177.912206
 21
437.750206
  0
ARC
  5
5A9
100
AcDbEntity
  8
M0
 62
     7
100
AcDbCircle
 10
178.912202
 20
451.249962
 40
1.0
100
AcDbArc
 50
165.508966
 51
179.999126
  0
ARC
  5
5AA
100
AcDbEntity
  8
M0
 62
     7
100
AcDbCircle
 10
178.912202
 20
437.750206
 40
1.0
100
AcDbArc
 50
179.999126
 51
269.999126
  0
ARC
  5
5AB
100
AcDbEntity
  8
M0
 62
     7
100
AcDbCircle
 10
192.412202
 20
437.750206
 40
1.0
100
AcDbArc
 50
269.999126
 51
359.986012
  0
LINE
  5
5AC
100
AcDbEntity
  8
M0
 62
     7
100
AcDbLine
 10
188.02939
 20
442.132775
 11
183.092622
 21
447.069542
  0
LINE
  5
5AD
100
AcDbEntity
  8
M0
 62
     7
100
AcDbLine
 10
183.393648
 20
442.938683
 11
187.194917
 21
446.739708
  0
LINE
  5
5AE
100
AcDbEntity
  8
M0
  6
DASHDOT
 62
     7
100
AcDbLine
 10
146.904639
 20
466.000206
 11
172.41953
 21
466.000206
  0
LINE
  5
5AF
100
AcDbEntity
  8
M0
 62
     7
100
AcDbLine
 10
162.029394
 20
463.632775
 11
157.092627
 21
468.569542
  0
LINE
  5
5B0
100
AcDbEntity
  8
M0
 62
     7
100
AcDbLine
 10
157.393652
 20
464.438683
 11
161.194922
 21
468.239708
  0
LINE
  5
5B1
100
AcDbEntity
  8
M0
 62
     7
100
AcDbLine
 10
158.100928
 20
463.731408
 11
161.901953
 21
467.532433
  0
LINE
  5
5B2
100
AcDbEntity
  8
M0
 62
     7
100
AcDbLine
 10
183.393648
 20
464.438683
 11
187.194917
 21
468.239708
  0
LINE
  5
5B3
100
AcDbEntity
  8
M0
  6
DASHDOT
 62
     7
100
AcDbLine
 10
120.904893
 20
466.000206
 11
146.419786
 21
466.000206
  0
LINE
  5
5B4
100
AcDbEntity
  8
M0
 62
     7
100
AcDbLine
 10
136.029649
 20
463.632775
 11
131.093126
 21
468.569542
  0
LINE
  5
5B5
100
AcDbEntity
  8
M0
 62
     7
100
AcDbLine
 10
131.394151
 20
464.438683
 11
135.195177
 21
468.239708
  0
LINE
  5
5B6
100
AcDbEntity
  8
M0
 62
     7
100
AcDbLine
 10
132.101182
 20
463.731408
 11
135.902208
 21
467.532433
  0
LINE
  5
5B7
100
AcDbEntity
  8
M0
 62
     7
100
AcDbLine
 10
145.661973
 20
431.000206
 11
147.661963
 21
431.000206
  0
LINE
  5
5B8
100
AcDbEntity
  8
M0
 62
     7
100
AcDbLine
 10
173.661718
 20
431.499962
 11
171.661718
 21
431.499962
  0
ARC
  5
5B9
100
AcDbEntity
  8
M0
 62
     7
100
AcDbCircle
 10
173.661962
 20
432.499962
 40
1.0
100
AcDbArc
 50
269.985957
 51
360.0
  0
ARC
  5
5BA
100
AcDbEntity
  8
M0
 62
     7
100
AcDbCircle
 10
171.661962
 20
432.499962
 40
1.0
100
AcDbArc
 50
179.999126
 51
269.985957
  0
ARC
  5
5BB
100
AcDbEntity
  8
M0
 62
     7
100
AcDbCircle
 10
145.661973
 20
432.000451
 40
1.0
100
AcDbArc
 50
179.999126
 51
270.0
  0
ARC
  5
5BC
100
AcDbEntity
  8
M0
 62
     7
100
AcDbCircle
 10
147.661963
 20
432.000451
 40
1.0
100
AcDbArc
 50
270.0
 51
360.0
  0
LINE
  5
5BD
100
AcDbEntity
  8
M0
 62
     7
100
AcDbLine
 10
168.161962
 20
436.500206
 11
168.161962
 21
450.500206
  0
LINE
  5
5BE
100
AcDbEntity
  8
M0
 62
     7
100
AcDbLine
 10
170.661962
 20
433.999962
 11
168.161962
 21
436.500206
  0
LINE
  5
5BF
100
AcDbEntity
  8
M0
 62
     7
100
AcDbLine
 10
148.661963
 20
434.000451
 11
151.161963
 21
436.500695
  0
LINE
  5
5C0
100
AcDbEntity
  8
M0
 62
     7
100
AcDbLine
 10
151.161963
 20
436.500695
 11
151.161963
 21
450.500451
  0
ARC
  5
5C1
100
AcDbEntity
  8
M0
 62
     7
100
AcDbCircle
 10
169.661962
 20
450.500206
 40
1.0
100
AcDbArc
 50
0.0
 51
90.0
  0
ARC
  5
5C2
100
AcDbEntity
  8
M0
 62
     7
100
AcDbCircle
 10
167.161962
 20
450.500451
 40
1.0
100
AcDbArc
 50
359.986012
 51
450.0
  0
ARC
  5
5C3
100
AcDbEntity
  8
M0
 62
     7
100
AcDbCircle
 10
149.661963
 20
450.500451
 40
1.0
100
AcDbArc
 50
90.0
 51
179.999126
  0
ARC
  5
5C4
100
AcDbEntity
  8
M0
 62
     7
100
AcDbCircle
 10
152.161963
 20
450.500451
 40
1.0
100
AcDbArc
 50
90.0
 51
179.999126
  0
ARC
  5
5C5
100
AcDbEntity
  8
M0
 62
     7
100
AcDbCircle
 10
152.161963
 20
457.000451
 40
1.0
100
AcDbArc
 50
179.999126
 51
270.0
  0
ARC
  5
5C6
100
AcDbEntity
  8
M0
 62
     7
100
AcDbCircle
 10
167.161962
 20
457.000451
 40
1.0
100
AcDbArc
 50
270.0
 51
359.986012
  0
ARC
  5
5C7
100
AcDbEntity
  8
M0
 62
     7
100
AcDbCircle
 10
149.661963
 20
457.000451
 40
1.0
100
AcDbArc
 50
179.999126
 51
270.0
  0
ARC
  5
5C8
100
AcDbEntity
  8
M0
 62
     7
100
AcDbCircle
 10
169.661962
 20
457.000206
 40
1.0
100
AcDbArc
 50
270.0
 51
360.0
  0
LINE
  5
5C9
100
AcDbEntity
  8
M0
 62
     7
100
AcDbLine
 10
143.661973
 20
451.500451
 11
123.662218
 21
451.500695
  0
LINE
  5
5CA
100
AcDbEntity
  8
M0
 62
     7
100
AcDbLine
 10
143.661973
 20
454.000451
 11
123.662218
 21
454.000695
  0
LINE
  5
5CB
100
AcDbEntity
  8
M0
 62
     7
100
AcDbLine
 10
143.661973
 20
456.000451
 11
123.662218
 21
456.000695
  0
LINE
  5
5CC
100
AcDbEntity
  8
M0
 62
     7
100
AcDbLine
 10
142.161973
 20
450.500451
 11
142.161973
 21
436.500939
  0
LINE
  5
5CD
100
AcDbEntity
  8
M0
 62
     7
100
AcDbLine
 10
125.162218
 20
450.500939
 11
125.162218
 21
445.500939
  0
ARC
  5
5CE
100
AcDbEntity
  8
M0
 62
     7
100
AcDbCircle
 10
143.661973
 20
450.500451
 40
1.0
100
AcDbArc
 50
0.0
 51
89.999126
  0
ARC
  5
5CF
100
AcDbEntity
  8
M0
 62
     7
100
AcDbCircle
 10
143.661973
 20
457.000451
 40
1.0
100
AcDbArc
 50
270.0
 51
360.0
  0
ARC
  5
5D0
100
AcDbEntity
  8
M0
 62
     7
100
AcDbCircle
 10
123.662218
 20
450.500695
 40
1.0
100
AcDbArc
 50
89.999126
 51
179.999126
  0
ARC
  5
5D1
100
AcDbEntity
  8
M0
 62
     7
100
AcDbCircle
 10
123.662218
 20
457.000695
 40
1.0
100
AcDbArc
 50
179.999126
 51
270.0
  0
ARC
  5
5D2
100
AcDbEntity
  8
M0
 62
     7
100
AcDbCircle
 10
143.661973
 20
453.000451
 40
1.0
100
AcDbArc
 50
0.0
 51
89.999126
  0
ARC
  5
5D3
100
AcDbEntity
  8
M0
 62
     7
100
AcDbCircle
 10
123.662218
 20
453.000695
 40
1.0
100
AcDbArc
 50
89.999126
 51
179.999126
  0
LINE
  5
5D4
100
AcDbEntity
  8
M0
 62
     7
100
AcDbLine
 10
122.662218
 20
443.000695
 11
125.162218
 21
445.500939
  0
LINE
  5
5D5
100
AcDbEntity
  8
M0
 62
     7
100
AcDbLine
 10
144.661973
 20
434.001183
 11
142.161973
 21
436.500939
  0
ARC
  5
5D6
100
AcDbEntity
  8
M0
 62
     7
100
AcDbCircle
 10
141.161973
 20
450.500451
 40
1.0
100
AcDbArc
 50
0.0
 51
89.999126
  0
ARC
  5
5D7
100
AcDbEntity
  8
M0
 62
     7
100
AcDbCircle
 10
126.162218
 20
450.500695
 40
1.0
100
AcDbArc
 50
89.999126
 51
179.985137
  0
LINE
  5
5D8
100
AcDbEntity
  8
M0
 62
     7
100
AcDbLine
 10
121.661973
 20
441.500695
 11
119.161973
 21
441.500695
  0
ARC
  5
5D9
100
AcDbEntity
  8
M0
 62
     7
100
AcDbCircle
 10
119.161973
 20
442.000695
 40
0.5
100
AcDbArc
 50
179.998251
 51
270.0
  0
ARC
  5
5DA
100
AcDbEntity
  8
M0
 62
     7
100
AcDbCircle
 10
121.661973
 20
442.500695
 40
1.0
100
AcDbArc
 50
270.0
 51
360.0
  0
LINE
  5
5DB
100
AcDbEntity
  8
M0
 62
     7
100
AcDbLine
 10
177.161962
 20
436.500695
 11
177.161962
 21
450.500206
  0
LINE
  5
5DC
100
AcDbEntity
  8
M0
 62
     7
100
AcDbLine
 10
174.661962
 20
434.000939
 11
177.161962
 21
436.500695
  0
ARC
  5
5DD
100
AcDbEntity
  8
M0
 62
     7
100
AcDbCircle
 10
178.161962
 20
450.500206
 40
1.0
100
AcDbArc
 50
90.0
 51
179.999126
  0
ARC
  5
5DE
100
AcDbEntity
  8
M0
 62
     7
100
AcDbCircle
 10
175.661962
 20
450.500206
 40
1.0
100
AcDbArc
 50
90.0
 51
179.999126
  0
LINE
  5
5DF
100
AcDbEntity
  8
M0
 62
     7
100
AcDbLine
 10
169.661962
 20
451.500206
 11
149.661963
 21
451.500451
  0
LINE
  5
5E0
100
AcDbEntity
  8
M0
 62
     7
100
AcDbLine
 10
178.161962
 20
451.500206
 11
175.661962
 21
451.500206
  0
ARC
  5
5E1
100
AcDbEntity
  8
M0
 62
     7
100
AcDbCircle
 10
178.161962
 20
457.000206
 40
1.0
100
AcDbArc
 50
179.999126
 51
270.0
  0
ARC
  5
5E2
100
AcDbEntity
  8
M0
 62
     7
100
AcDbCircle
 10
175.661962
 20
457.000206
 40
1.0
100
AcDbArc
 50
179.999126
 51
270.0
  0
LINE
  5
5E3
100
AcDbEntity
  8
M0
 62
     7
100
AcDbLine
 10
169.661962
 20
454.000206
 11
149.661963
 21
454.000451
  0
LINE
  5
5E4
100
AcDbEntity
  8
M0
 62
     7
100
AcDbLine
 10
169.661962
 20
456.000206
 11
149.661963
 21
456.000451
  0
ARC
  5
5E5
100
AcDbEntity
  8
M0
 62
     7
100
AcDbCircle
 10
175.661962
 20
453.000206
 40
1.0
100
AcDbArc
 50
90.0
 51
179.999126
  0
ARC
  5
5E6
100
AcDbEntity
  8
M0
 62
     7
100
AcDbCircle
 10
149.661963
 20
453.000451
 40
1.0
100
AcDbArc
 50
90.0
 51
179.999126
  0
ARC
  5
5E7
100
AcDbEntity
  8
M0
 62
     7
100
AcDbCircle
 10
169.661962
 20
453.000206
 40
1.0
100
AcDbArc
 50
0.0
 51
90.0
  0
LINE
  5
5E8
100
AcDbEntity
  8
M0
 62
     7
100
AcDbLine
 10
197.665864
 20
435.995964
 11
194.161958
 21
439.500451
  0
LINE
  5
5E9
100
AcDbEntity
  8
M0
 62
     7
100
AcDbLine
 10
194.479585
 20
443.098351
 11
197.164644
 21
443.098595
  0
LINE
  5
5EA
100
AcDbEntity
  8
M0
 62
     7
100
AcDbLine
 10
211.707124
 20
439.151085
 11
210.890962
 21
441.798302
  0
LINE
  5
5EB
100
AcDbEntity
  8
M0
 62
     7
100
AcDbLine
 10
217.624605
 20
439.151085
 11
218.441011
 21
441.798302
  0
LINE
  5
5EC
100
AcDbEntity
  8
M0
 62
     7
100
AcDbLine
 10
212.185152
 20
438.798302
 11
217.146821
 21
438.798302
  0
LINE
  5
5ED
100
AcDbEntity
  8
M0
  6
DASHDOT
 62
     7
100
AcDbLine
 10
208.390962
 20
443.098351
 11
220.941011
 21
443.098351
  0
ARC
  5
5EE
100
AcDbEntity
  8
M0
 62
     7
100
AcDbCircle
 10
212.185152
 20
439.298302
 40
0.5
100
AcDbArc
 50
197.116099
 51
269.998251
  0
ARC
  5
5EF
100
AcDbEntity
  8
M0
 62
     7
100
AcDbCircle
 10
217.146821
 20
439.298302
 40
0.5
100
AcDbArc
 50
269.998251
 51
342.876188
  0
LINE
  5
5F0
100
AcDbEntity
  8
M0
 62
     7
100
AcDbLine
 10
201.707124
 20
439.151085
 11
200.890962
 21
441.798302
  0
LINE
  5
5F1
100
AcDbEntity
  8
M0
 62
     7
100
AcDbLine
 10
207.624605
 20
439.151085
 11
208.252779
 21
441.187951
  0
LINE
  5
5F2
100
AcDbEntity
  8
M0
 62
     7
100
AcDbLine
 10
202.185152
 20
438.798302
 11
207.146821
 21
438.798302
  0
LINE
  5
5F3
100
AcDbEntity
  8
M0
  6
DASHDOT
 62
     7
100
AcDbLine
 10
198.390962
 20
443.098351
 11
210.941011
 21
443.098351
  0
ARC
  5
5F4
100
AcDbEntity
  8
M0
 62
     7
100
AcDbCircle
 10
202.185152
 20
439.298302
 40
0.5
100
AcDbArc
 50
197.116099
 51
269.998251
  0
ARC
  5
5F5
100
AcDbEntity
  8
M0
 62
     7
100
AcDbCircle
 10
207.146821
 20
439.298302
 40
0.5
100
AcDbArc
 50
269.998251
 51
342.876188
  0
ARC
  5
5F6
100
AcDbEntity
  8
M0
 62
     7
100
AcDbCircle
 10
209.665864
 20
435.098351
 40
1.0
100
AcDbArc
 50
179.999126
 51
269.999126
  0
ARC
  5
5F7
100
AcDbEntity
  8
M0
 62
     7
100
AcDbCircle
 10
209.665864
 20
435.098351
 40
1.0
100
AcDbArc
 50
269.999126
 51
360.0
  0
LINE
  5
5F8
100
AcDbEntity
  8
M0
 62
     7
100
AcDbLine
 10
200.665864
 20
435.098351
 11
197.665864
 21
435.098351
  0
LINE
  5
5F9
100
AcDbEntity
  8
M0
 62
     7
100
AcDbLine
 10
200.665864
 20
439.098351
 11
201.723237
 21
439.098351
  0
LINE
  5
5FA
100
AcDbEntity
  8
M0
 62
     7
100
AcDbLine
 10
221.165864
 20
438.098351
 11
219.665864
 21
438.098351
  0
LINE
  5
5FB
100
AcDbEntity
  8
M0
 62
     7
100
AcDbLine
 10
221.165864
 20
436.098351
 11
219.665864
 21
436.098351
  0
ARC
  5
5FC
100
AcDbEntity
  8
M0
 62
     7
100
AcDbCircle
 10
221.165864
 20
436.598351
 40
0.499999
100
AcDbArc
 50
269.998251
 51
360.0
  0
ARC
  5
5FD
100
AcDbEntity
  8
M0
 62
     7
100
AcDbCircle
 10
219.665864
 20
437.098351
 40
1.0
100
AcDbArc
 50
179.999126
 51
269.999126
  0
ARC
  5
5FE
100
AcDbEntity
  8
M0
 62
     7
100
AcDbCircle
 10
221.165864
 20
438.598351
 40
0.499999
100
AcDbArc
 50
269.998251
 51
360.0
  0
ARC
  5
5FF
100
AcDbEntity
  8
M0
 62
     7
100
AcDbCircle
 10
219.665864
 20
439.098351
 40
1.0
100
AcDbArc
 50
179.999126
 51
269.999126
  0
LINE
  5
600
100
AcDbEntity
  8
M0
 62
     7
100
AcDbLine
 10
221.165864
 20
443.098351
 11
219.665864
 21
443.098351
  0
LINE
  5
601
100
AcDbEntity
  8
M0
 62
     7
100
AcDbLine
 10
217.608247
 20
439.098351
 11
218.665864
 21
439.098351
  0
LINE
  5
602
100
AcDbEntity
  8
M0
 62
     7
100
AcDbLine
 10
209.665864
 20
441.098351
 11
208.665864
 21
441.098351
  0
ARC
  5
603
100
AcDbEntity
  8
M0
 62
     7
100
AcDbCircle
 10
209.665864
 20
442.098351
 40
1.0
100
AcDbArc
 50
269.999126
 51
360.0
  0
ARC
  5
604
100
AcDbEntity
  8
M0
 62
     7
100
AcDbCircle
 10
208.665864
 20
442.098351
 40
1.0
100
AcDbArc
 50
179.999126
 51
269.999126
  0
LINE
  5
605
100
AcDbEntity
  8
M0
 62
     7
100
AcDbLine
 10
201.665864
 20
439.098351
 11
201.665864
 21
439.284142
  0
LINE
  5
606
100
AcDbEntity
  8
M0
 62
     7
100
AcDbLine
 10
208.665864
 20
435.098351
 11
208.665864
 21
441.098351
  0
LINE
  5
607
100
AcDbEntity
  8
M0
 62
     7
100
AcDbLine
 10
210.665864
 20
439.098351
 11
211.723237
 21
439.098351
  0
LINE
  5
608
100
AcDbEntity
  8
M0
 62
     7
100
AcDbLine
 10
200.665864
 20
440.598351
 11
197.165864
 21
440.598351
  0
LINE
  5
609
100
AcDbEntity
  8
M0
 62
     7
100
AcDbLine
 10
200.665864
 20
442.598351
 11
197.165864
 21
442.598351
  0
LINE
  5
60A
100
AcDbEntity
  8
M0
 62
     7
100
AcDbLine
 10
197.665864
 20
435.098351
 11
197.665864
 21
440.598351
  0
LINE
  5
60B
100
AcDbEntity
  8
M0
 62
     7
100
AcDbLine
 10
207.608247
 20
439.098351
 11
208.665864
 21
439.098351
  0
LINE
  5
60C
100
AcDbEntity
  8
M0
 62
     7
100
AcDbLine
 10
198.665864
 20
438.098351
 11
198.665864
 21
440.598351
  0
LINE
  5
60D
100
AcDbEntity
  8
M0
 62
     7
100
AcDbLine
 10
200.665864
 20
437.098351
 11
197.665864
 21
437.098351
  0
ARC
  5
60E
100
AcDbEntity
  8
M0
 62
     7
100
AcDbCircle
 10
199.665864
 20
438.098351
 40
1.0
100
AcDbArc
 50
179.999126
 51
269.999126
  0
ARC
  5
60F
100
AcDbEntity
  8
M0
 62
     7
100
AcDbCircle
 10
199.665864
 20
438.098351
 40
1.0
100
AcDbArc
 50
269.999126
 51
360.0
  0
ARC
  5
610
100
AcDbEntity
  8
M0
 62
     7
100
AcDbCircle
 10
123.66588
 20
442.099328
 40
3.499996
100
AcDbArc
 50
189.84797
 51
309.932285
  0
LINE
  5
611
100
AcDbEntity
  8
M0
  6
DASHDOT
 62
     7
100
AcDbLine
 10
116.373704
 20
442.099328
 11
131.256746
 21
442.099328
  0
LINE
  5
612
100
AcDbEntity
  8
M0
  6
DASHDOT
 62
     7
100
AcDbLine
 10
123.66588
 20
434.728829
 11
123.66588
 21
447.273369
  0
LINE
  5
613
100
AcDbEntity
  8
M0
 62
     7
100
AcDbLine
 10
122.662218
 20
443.102745
 11
125.433458
 21
440.331505
  0
LINE
  5
614
100
AcDbEntity
  8
M0
 62
     7
100
AcDbLine
 10
122.662218
 20
442.509972
 11
124.019151
 21
443.866906
  0
LINE
  5
615
100
AcDbEntity
  8
M0
 62
     7
100
AcDbLine
 10
123.31212
 20
440.331261
 11
125.433458
 21
442.452599
  0
LINE
  5
616
100
AcDbEntity
  8
M0
 62
     7
100
AcDbLine
 10
193.412202
 20
437.749962
 11
193.412202
 21
451.249718
  0
ARC
  5
617
100
AcDbEntity
  8
M0
 62
     7
100
AcDbCircle
 10
192.412202
 20
451.249962
 40
1.0
100
AcDbArc
 50
359.986012
 51
374.477503
  0
CIRCLE
  5
618
100
AcDbEntity
  8
M0
 62
     7
100
AcDbCircle
 10
185.662202
 20
444.500206
 40
5.249992
  0
LINE
  5
619
100
AcDbEntity
  8
M0
  6
DASHDOT
 62
     7
100
AcDbLine
 10
172.904638
 20
444.500206
 11
198.419527
 21
444.500206
  0
LINE
  5
61A
100
AcDbEntity
  8
M0
 62
     7
100
AcDbLine
 10
184.100923
 20
442.231408
 11
187.901948
 21
446.032433
  0
LINE
  5
61B
100
AcDbEntity
  8
M0
 62
     7
100
AcDbLine
 10
188.02939
 20
463.632775
 11
183.092622
 21
468.569542
  0
LINE
  5
61C
100
AcDbEntity
  8
M0
 62
     7
100
AcDbLine
 10
184.100923
 20
463.731408
 11
187.901948
 21
467.532433
  0
LINE
  5
61D
100
AcDbEntity
  8
M0
 62
     7
100
AcDbLine
 10
193.161958
 20
451.500206
 11
178.161962
 21
451.500206
  0
LINE
  5
61E
100
AcDbEntity
  8
M0
 62
     7
100
AcDbLine
 10
200.705904
 20
446.151085
 11
199.889741
 21
448.798302
  0
LINE
  5
61F
100
AcDbEntity
  8
M0
 62
     7
100
AcDbLine
 10
206.623384
 20
446.151085
 11
207.43979
 21
448.798302
  0
LINE
  5
620
100
AcDbEntity
  8
M0
 62
     7
100
AcDbLine
 10
201.183931
 20
445.798302
 11
206.145601
 21
445.798302
  0
ARC
  5
621
100
AcDbEntity
  8
M0
 62
     7
100
AcDbCircle
 10
201.183931
 20
446.298302
 40
0.5
100
AcDbArc
 50
197.116099
 51
269.998251
  0
ARC
  5
622
100
AcDbEntity
  8
M0
 62
     7
100
AcDbCircle
 10
206.145601
 20
446.298302
 40
0.5
100
AcDbArc
 50
269.998251
 51
342.876188
  0
LINE
  5
623
100
AcDbEntity
  8
M0
  6
DASHDOT
 62
     7
100
AcDbLine
 10
207.164888
 20
450.098351
 11
200.164888
 21
450.098351
  0
LINE
  5
624
100
AcDbEntity
  8
M0
 62
     7
100
AcDbLine
 10
211.705904
 20
446.151085
 11
210.889741
 21
448.798302
  0
LINE
  5
625
100
AcDbEntity
  8
M0
 62
     7
100
AcDbLine
 10
217.623384
 20
446.151085
 11
218.43979
 21
448.798302
  0
LINE
  5
626
100
AcDbEntity
  8
M0
 62
     7
100
AcDbLine
 10
212.183931
 20
445.798302
 11
217.145601
 21
445.798302
  0
ARC
  5
627
100
AcDbEntity
  8
M0
 62
     7
100
AcDbCircle
 10
212.183931
 20
446.298302
 40
0.5
100
AcDbArc
 50
197.116099
 51
269.998251
  0
ARC
  5
628
100
AcDbEntity
  8
M0
 62
     7
100
AcDbCircle
 10
217.145601
 20
446.298302
 40
0.5
100
AcDbArc
 50
269.998251
 51
342.876188
  0
LINE
  5
629
100
AcDbEntity
  8
M0
  6
DASHDOT
 62
     7
100
AcDbLine
 10
218.164888
 20
450.098351
 11
211.164888
 21
450.098351
  0
ARC
  5
62A
100
AcDbEntity
  8
M0
 62
     7
100
AcDbCircle
 10
214.666109
 20
443.098351
 40
2.999992
100
AcDbArc
 50
115.845625
 51
424.158809
  0
LINE
  5
62B
100
AcDbEntity
  8
M0
 62
     7
100
AcDbLine
 10
211.568452
 20
446.596154
 11
210.890962
 21
444.3984
  0
LINE
  5
62C
100
AcDbEntity
  8
M0
 62
     7
100
AcDbLine
 10
217.761812
 20
446.600304
 11
218.441011
 21
444.3984
  0
LINE
  5
62D
100
AcDbEntity
  8
M0
 62
     7
100
AcDbLine
 10
218.441011
 20
441.798302
 11
218.441011
 21
444.3984
  0
LINE
  5
62E
100
AcDbEntity
  8
M0
 62
     7
100
AcDbLine
 10
210.890962
 20
444.3984
 11
210.890962
 21
441.798302
  0
LINE
  5
62F
100
AcDbEntity
  8
M0
  6
DASHDOT
 62
     7
100
AcDbLine
 10
214.666109
 20
436.298302
 11
214.666109
 21
445.574181
  0
LINE
  5
630
100
AcDbEntity
  8
M0
 62
     7
100
AcDbLine
 10
216.256685
 20
441.507531
 11
213.075044
 21
444.689171
  0
LINE
  5
631
100
AcDbEntity
  8
M0
 62
     7
100
AcDbLine
 10
215.01938
 20
444.512413
 11
213.251802
 21
442.744835
  0
LINE
  5
632
100
AcDbEntity
  8
M0
 62
     7
100
AcDbLine
 10
216.079927
 20
443.451867
 11
214.312349
 21
441.684288
  0
ARC
  5
633
100
AcDbEntity
  8
M0
 62
     7
100
AcDbCircle
 10
204.666109
 20
443.098351
 40
2.999992
100
AcDbArc
 50
115.845625
 51
424.158809
  0
LINE
  5
634
100
AcDbEntity
  8
M0
 62
     7
100
AcDbLine
 10
201.322359
 20
445.798302
 11
200.890962
 21
444.3984
  0
LINE
  5
635
100
AcDbEntity
  8
M0
 62
     7
100
AcDbLine
 10
200.890962
 20
444.3984
 11
200.890962
 21
441.798302
  0
LINE
  5
636
100
AcDbEntity
  8
M0
  6
DASHDOT
 62
     7
100
AcDbLine
 10
204.666109
 20
436.298302
 11
204.666109
 21
449.8984
  0
LINE
  5
637
100
AcDbEntity
  8
M0
 62
     7
100
AcDbLine
 10
206.256685
 20
441.507531
 11
203.075044
 21
444.689171
  0
LINE
  5
638
100
AcDbEntity
  8
M0
 62
     7
100
AcDbLine
 10
205.01938
 20
444.512413
 11
203.251802
 21
442.744835
  0
LINE
  5
639
100
AcDbEntity
  8
M0
 62
     7
100
AcDbLine
 10
206.079927
 20
443.451867
 11
204.312349
 21
441.684288
  0
LINE
  5
63A
100
AcDbEntity
  8
M0
 62
     7
100
AcDbLine
 10
221.165864
 20
445.098351
 11
219.665864
 21
445.098351
  0
ARC
  5
63B
100
AcDbEntity
  8
M0
 62
     7
100
AcDbCircle
 10
221.165864
 20
445.598351
 40
0.499999
100
AcDbArc
 50
269.998251
 51
360.0
  0
ARC
  5
63C
100
AcDbEntity
  8
M0
 62
     7
100
AcDbCircle
 10
219.665864
 20
446.098351
 40
1.0
100
AcDbArc
 50
179.999126
 51
269.999126
  0
ARC
  5
63D
100
AcDbEntity
  8
M0
 62
     7
100
AcDbCircle
 10
219.665864
 20
444.098351
 40
1.0
100
AcDbArc
 50
179.999126
 51
269.999126
  0
ARC
  5
63E
100
AcDbEntity
  8
M0
 62
     7
100
AcDbCircle
 10
221.165864
 20
443.598351
 40
0.499999
100
AcDbArc
 50
269.998251
 51
360.0
  0
LINE
  5
63F
100
AcDbEntity
  8
M0
 62
     7
100
AcDbLine
 10
218.665864
 20
446.098351
 11
217.916597
 21
446.098107
  0
LINE
  5
640
100
AcDbEntity
  8
M0
 62
     7
100
AcDbLine
 10
211.414888
 20
446.098107
 11
210.665864
 21
446.098351
  0
LINE
  5
641
100
AcDbEntity
  8
M0
 62
     7
100
AcDbLine
 10
206.607027
 20
446.098351
 11
207.665864
 21
446.098351
  0
LINE
  5
642
100
AcDbEntity
  8
M0
 62
     7
100
AcDbLine
 10
200.665864
 20
435.098351
 11
200.665864
 21
446.280236
  0
ARC
  5
643
100
AcDbEntity
  8
M0
 62
     7
100
AcDbCircle
 10
198.165864
 20
443.598351
 40
1.0
100
AcDbArc
 50
179.999126
 51
269.999126
  0
ARC
  5
644
100
AcDbEntity
  8
M0
 62
     7
100
AcDbCircle
 10
198.665864
 20
443.598351
 40
1.0
100
AcDbArc
 50
269.999126
 51
360.0
  0
LINE
  5
645
100
AcDbEntity
  8
M0
 62
     7
100
AcDbLine
 10
201.312227
 20
456.598473
 11
201.312227
 21
454.598702
  0
ARC
  5
646
100
AcDbEntity
  8
M0
 62
     7
100
AcDbCircle
 10
200.812227
 20
456.598473
 40
0.5
100
AcDbArc
 50
0.0
 51
90.0
  0
LINE
  5
647
100
AcDbEntity
  8
M0
  6
DASHDOT
 62
     7
100
AcDbLine
 10
172.904577
 20
466.000191
 11
198.419466
 21
466.000191
  0
LINE
  5
648
100
AcDbEntity
  8
M0
 62
     7
100
AcDbLine
 10
196.183992
 20
451.499947
 11
193.161897
 21
451.500191
  0
LINE
  5
649
100
AcDbEntity
  8
M0
 62
     7
100
AcDbLine
 10
196.71512
 20
454.000176
 11
175.661901
 21
454.000191
  0
LINE
  5
64A
100
AcDbEntity
  8
M0
 62
     7
100
AcDbLine
 10
194.661897
 20
456.000191
 11
175.661901
 21
456.000191
  0
LINE
  5
64B
100
AcDbEntity
  8
M0
 62
     7
100
AcDbLine
 10
194.161897
 20
439.500679
 11
194.161897
 21
450.500191
  0
ARC
  5
64C
100
AcDbEntity
  8
M0
 62
     7
100
AcDbCircle
 10
193.161897
 20
450.500191
 40
1.0
100
AcDbArc
 50
0.0
 51
90.0
  0
ARC
  5
64D
100
AcDbEntity
  8
M0
 62
     7
100
AcDbCircle
 10
193.161897
 20
457.000191
 40
1.0
100
AcDbArc
 50
269.999126
 51
360.0
  0
ARC
  5
64E
100
AcDbEntity
  8
M0
 62
     7
100
AcDbCircle
 10
194.661897
 20
457.000191
 40
1.0
100
AcDbArc
 50
269.999126
 51
360.0
  0
ARC
  5
64F
100
AcDbEntity
  8
M0
 62
     7
100
AcDbCircle
 10
196.161897
 20
450.500191
 40
1.0
100
AcDbArc
 50
0.0
 51
90.0
  0
ARC
  5
650
100
AcDbEntity
  8
M0
 62
     7
100
AcDbCircle
 10
196.161897
 20
453.000191
 40
1.0
100
AcDbArc
 50
0.0
 51
23.485354
  0
CIRCLE
  5
651
100
AcDbEntity
  8
M0
 62
     7
100
AcDbCircle
 10
203.664827
 20
450.098336
 40
2.999992
  0
LINE
  5
652
100
AcDbEntity
  8
M0
 62
     7
100
AcDbLine
 10
200.506364
 20
453.398644
 11
199.88968
 21
451.398385
  0
LINE
  5
653
100
AcDbEntity
  8
M0
 62
     7
100
AcDbLine
 10
207.168169
 20
452.278908
 11
207.439729
 21
451.398385
  0
LINE
  5
654
100
AcDbEntity
  8
M0
 62
     7
100
AcDbLine
 10
207.439729
 20
448.798287
 11
207.439729
 21
451.398385
  0
LINE
  5
655
100
AcDbEntity
  8
M0
 62
     7
100
AcDbLine
 10
199.88968
 20
451.398385
 11
199.88968
 21
448.798287
  0
LINE
  5
656
100
AcDbEntity
  8
M0
 62
     7
100
AcDbLine
 10
205.255403
 20
448.507515
 11
202.073762
 21
451.689156
  0
LINE
  5
657
100
AcDbEntity
  8
M0
 62
     7
100
AcDbLine
 10
204.018098
 20
451.512398
 11
202.25052
 21
449.74482
  0
LINE
  5
658
100
AcDbEntity
  8
M0
 62
     7
100
AcDbLine
 10
205.078645
 20
450.451851
 11
203.311067
 21
448.684273
  0
LINE
  5
659
100
AcDbEntity
  8
M0
  6
DASHDOT
 62
     7
100
AcDbLine
 10
203.664583
 20
453.598336
 11
203.664827
 21
446.598336
  0
CIRCLE
  5
65A
100
AcDbEntity
  8
M0
 62
     7
100
AcDbCircle
 10
214.664827
 20
450.098336
 40
2.999992
  0
LINE
  5
65B
100
AcDbEntity
  8
M0
 62
     7
100
AcDbLine
 10
211.105562
 20
452.09861
 11
210.88968
 21
451.398385
  0
LINE
  5
65C
100
AcDbEntity
  8
M0
 62
     7
100
AcDbLine
 10
217.822877
 20
453.398537
 11
218.439729
 21
451.398385
  0
LINE
  5
65D
100
AcDbEntity
  8
M0
 62
     7
100
AcDbLine
 10
218.439729
 20
448.798287
 11
218.439729
 21
451.398385
  0
LINE
  5
65E
100
AcDbEntity
  8
M0
 62
     7
100
AcDbLine
 10
210.88968
 20
451.398385
 11
210.88968
 21
448.798287
  0
LINE
  5
65F
100
AcDbEntity
  8
M0
 62
     7
100
AcDbLine
 10
216.255403
 20
448.507515
 11
213.073762
 21
451.689156
  0
LINE
  5
660
100
AcDbEntity
  8
M0
 62
     7
100
AcDbLine
 10
215.018098
 20
451.512398
 11
213.25052
 21
449.74482
  0
LINE
  5
661
100
AcDbEntity
  8
M0
 62
     7
100
AcDbLine
 10
216.078645
 20
450.451851
 11
214.311067
 21
448.684273
  0
LINE
  5
662
100
AcDbEntity
  8
M0
  6
DASHDOT
 62
     7
100
AcDbLine
 10
214.664583
 20
453.598336
 11
214.664827
 21
446.598336
  0
LINE
  5
663
100
AcDbEntity
  8
M0
 62
     7
100
AcDbLine
 10
197.166048
 20
436.295845
 11
197.166048
 21
453.398644
  0
LINE
  5
664
100
AcDbEntity
  8
M0
 62
     7
100
AcDbLine
 10
218.665803
 20
437.098336
 11
218.665803
 21
453.398537
  0
LINE
  5
665
100
AcDbEntity
  8
M0
 62
     7
100
AcDbLine
 10
210.665803
 20
435.098336
 11
210.665803
 21
452.09861
  0
LINE
  5
666
100
AcDbEntity
  8
M0
 62
     7
100
AcDbLine
 10
207.665803
 20
442.098336
 11
207.665803
 21
452.09861
  0
LINE
  5
667
100
AcDbEntity
  8
M0
 62
     7
100
AcDbLine
 10
199.665803
 20
443.598336
 11
199.665803
 21
453.398644
  0
LINE
  5
668
100
AcDbEntity
  8
M0
 62
     7
100
AcDbLine
 10
199.665803
 20
444.098336
 11
199.665803
 21
453.398644
  0
ARC
  5
669
100
AcDbEntity
  8
M0
 62
     7
100
AcDbCircle
 10
201.166048
 20
453.098336
 40
1.499992
100
AcDbArc
 50
168.451056
 51
179.999417
  0
LINE
  5
66A
100
AcDbEntity
  8
M0
 62
     7
100
AcDbLine
 10
199.515901
 20
462.098336
 11
198.015901
 21
460.598336
  0
LINE
  5
66B
100
AcDbEntity
  8
M0
 62
     7
100
AcDbLine
 10
199.515901
 20
462.098336
 11
198.015901
 21
463.598336
  0
LINE
  5
66C
100
AcDbEntity
  8
M0
 62
     7
100
AcDbLine
 10
197.166048
 20
460.598336
 11
197.166048
 21
463.598092
  0
LINE
  5
66D
100
AcDbEntity
  8
M0
 62
     7
100
AcDbLine
 10
198.015901
 20
460.598092
 11
197.166048
 21
460.598336
  0
LINE
  5
66E
100
AcDbEntity
  8
M0
 62
     7
100
AcDbLine
 10
198.015901
 20
463.598092
 11
197.166048
 21
463.598336
  0
LINE
  5
66F
100
AcDbEntity
  8
M0
 62
     7
100
AcDbLine
 10
200.014925
 20
467.583672
 11
199.515901
 21
467.871773
  0
LINE
  5
670
100
AcDbEntity
  8
M0
 62
     7
100
AcDbLine
 10
197.166048
 20
454.598656
 11
197.166048
 21
457.098458
  0
LINE
  5
671
100
AcDbEntity
  8
M0
 62
     7
100
AcDbLine
 10
196.715089
 20
453.39869
 11
206.215089
 21
453.398613
  0
LINE
  5
672
100
AcDbEntity
  8
M0
 62
     7
100
AcDbLine
 10
207.514925
 20
452.09861
 11
211.514879
 21
452.098565
  0
LINE
  5
673
100
AcDbEntity
  8
M0
  6
DASHDOT
 62
     7
100
AcDbLine
 10
221.714998
 20
462.098427
 11
196.715181
 21
462.098687
  0
LINE
  5
674
100
AcDbEntity
  8
M0
 62
     7
100
AcDbLine
 10
202.214921
 20
454.598656
 11
202.214937
 21
456.298668
  0
LINE
  5
675
100
AcDbEntity
  8
M0
 62
     7
100
AcDbLine
 10
196.715105
 20
454.598702
 11
206.215105
 21
454.598626
  0
LINE
  5
676
100
AcDbEntity
  8
M0
 62
     7
100
AcDbLine
 10
206.215089
 20
453.398598
 11
206.215105
 21
454.59861
  0
LINE
  5
677
100
AcDbEntity
  8
M0
 62
     7
100
AcDbLine
 10
200.01494
 20
457.298684
 11
201.214937
 21
457.298668
  0
LINE
  5
678
100
AcDbEntity
  8
M0
 62
     7
100
AcDbLine
 10
196.715105
 20
454.598717
 11
196.715089
 21
453.39869
  0
LINE
  5
679
100
AcDbEntity
  8
M0
 62
     7
100
AcDbLine
 10
214.014909
 20
453.398537
 11
211.514894
 21
452.098565
  0
LINE
  5
67A
100
AcDbEntity
  8
M0
 62
     7
100
AcDbLine
 10
207.514894
 20
452.09861
 11
205.014909
 21
453.398629
  0
LINE
  5
67B
100
AcDbEntity
  8
M0
 62
     7
100
AcDbLine
 10
214.014894
 20
453.398537
 11
221.214906
 21
453.398476
  0
ARC
  5
67C
100
AcDbEntity
  8
M0
 62
     7
100
AcDbCircle
 10
201.214937
 20
456.298684
 40
1.0
100
AcDbArc
 50
0.0
 51
90.0
  0
ARC
  5
67D
100
AcDbEntity
  8
M0
 62
     7
100
AcDbCircle
 10
221.214906
 20
453.898476
 40
0.5
100
AcDbArc
 50
269.998251
 51
360.0
  0
LINE
  5
67E
100
AcDbEntity
  8
M0
 62
     7
100
AcDbLine
 10
199.512224
 20
458.698479
 11
196.71515
 21
458.698632
  0
LINE
  5
67F
100
AcDbEntity
  8
M0
 62
     7
100
AcDbLine
 10
199.512239
 20
465.498482
 11
196.715181
 21
465.49862
  0
ARC
  5
680
100
AcDbEntity
  8
M0
 62
     7
100
AcDbCircle
 10
209.514986
 20
462.098519
 40
13.299992
100
AcDbArc
 50
165.188223
 51
194.811027
  0
LINE
  5
681
100
AcDbEntity
  8
M0
 62
     7
100
AcDbLine
 10
200.812227
 20
457.098488
 11
197.166017
 21
457.098504
  0
CIRCLE
  5
682
100
AcDbEntity
  8
M0
 62
     7
100
AcDbCircle
 10
209.664873
 20
462.098443
 40
4.249996
  0
CIRCLE
  5
683
100
AcDbEntity
  8
M0
 62
     7
100
AcDbCircle
 10
209.664873
 20
462.098443
 40
3.749996
  0
LINE
  5
684
100
AcDbEntity
  8
M0
 62
     7
100
AcDbLine
 10
210.264833
 20
464.598381
 11
209.064836
 21
464.598381
  0
LINE
  5
685
100
AcDbEntity
  8
M0
 62
     7
100
AcDbLine
 10
209.064836
 20
459.598671
 11
210.264833
 21
459.598671
  0
LINE
  5
686
100
AcDbEntity
  8
M0
 62
     7
100
AcDbLine
 10
210.264848
 20
464.598412
 11
210.264833
 21
459.598641
  0
LINE
  5
687
100
AcDbEntity
  8
M0
 62
     7
100
AcDbLine
 10
209.064836
 20
464.598412
 11
209.064836
 21
459.598641
  0
ARC
  5
688
100
AcDbEntity
  8
M0
 62
     7
100
AcDbCircle
 10
196.161897
 20
453.000191
 40
1.0
100
AcDbArc
 50
56.412985
 51
90.0
  0
LINE
  5
689
100
AcDbEntity
  8
M0
 62
     7
100
AcDbLine
 10
202.215089
 20
453.398598
 11
202.215089
 21
454.59861
  0
LINE
  5
68A
100
AcDbEntity
  8
M0
 62
     7
100
AcDbLine
 10
121.165864
 20
437.099328
 11
126.153276
 21
437.099328
  0
LINE
  5
68B
100
AcDbEntity
  8
M0
 62
     4
100
AcDbLine
 10
179.692247
 20
459.108101
 11
182.882005
 21
459.365456
  0
LINE
  5
68C
100
AcDbEntity
  8
M0
 62
     4
100
AcDbLine
 10
192.650239
 20
460.153099
 11
191.846437
 21
470.120659
  0
LINE
  5
68D
100
AcDbEntity
  8
M0
 62
     4
100
AcDbLine
 10
182.881761
 20
459.36541
 11
182.81801
 21
460.155388
  0
LINE
  5
68E
100
AcDbEntity
  8
M0
 62
     4
100
AcDbLine
 10
189.460481
 20
459.89576
 11
189.397157
 21
460.680626
  0
LINE
  5
68F
100
AcDbEntity
  8
M0
 62
     4
100
AcDbLine
 10
189.460496
 20
459.895745
 11
192.650239
 21
460.153099
  0
LINE
  5
690
100
AcDbEntity
  8
M0
 62
     4
100
AcDbLine
 10
178.888689
 20
469.075737
 11
179.692247
 21
459.108101
  0
LINE
  5
691
100
AcDbEntity
  8
M0
 62
     4
100
AcDbLine
 10
125.945497
 20
461.789772
 11
129.055253
 21
461.034722
  0
LINE
  5
692
100
AcDbEntity
  8
M0
 62
     4
100
AcDbLine
 10
138.578386
 20
458.722023
 11
140.938203
 21
468.439522
  0
LINE
  5
693
100
AcDbEntity
  8
M0
 62
     4
100
AcDbLine
 10
129.055009
 20
461.034768
 11
129.129487
 21
461.341561
  0
LINE
  5
694
100
AcDbEntity
  8
M0
 62
     4
100
AcDbLine
 10
135.468629
 20
459.477105
 11
135.541643
 21
459.77784
  0
LINE
  5
695
100
AcDbEntity
  8
M0
 62
     4
100
AcDbLine
 10
135.468629
 20
459.477074
 11
138.578386
 21
458.722023
  0
LINE
  5
696
100
AcDbEntity
  8
M0
 62
     4
100
AcDbLine
 10
152.660361
 20
460.157967
 11
155.849997
 21
459.899254
  0
LINE
  5
697
100
AcDbEntity
  8
M0
 62
     4
100
AcDbLine
 10
165.617818
 20
459.106469
 11
166.426687
 21
469.073632
  0
LINE
  5
698
100
AcDbEntity
  8
M0
 62
     4
100
AcDbLine
 10
155.849753
 20
459.89927
 11
155.913855
 21
460.689797
  0
LINE
  5
699
100
AcDbEntity
  8
M0
 62
     4
100
AcDbLine
 10
162.428168
 20
459.365227
 11
162.49169
 21
460.148461
  0
LINE
  5
69A
100
AcDbEntity
  8
M0
 62
     4
100
AcDbLine
 10
162.428183
 20
459.365197
 11
165.617818
 21
459.106469
  0
LINE
  5
69B
100
AcDbEntity
  8
M0
 62
     4
100
AcDbLine
 10
153.469473
 20
470.125161
 11
152.660361
 21
460.157967
  0
CIRCLE
  5
69C
100
AcDbEntity
  8
M0
 62
     7
100
AcDbCircle
 10
159.662207
 20
466.000206
 40
5.249989
  0
CIRCLE
  5
69D
100
AcDbEntity
  8
M0
 62
     7
100
AcDbCircle
 10
133.662462
 20
466.000206
 40
5.249989
  0
LINE
  5
69E
100
AcDbEntity
  8
M0
 62
     7
100
AcDbLine
 10
144.662218
 20
477.600548
 11
144.661973
 21
432.000451
  0
LINE
  5
69F
100
AcDbEntity
  8
M0
 62
     7
100
AcDbLine
 10
148.661963
 20
432.000451
 11
148.662207
 21
477.600304
  0
LINE
  5
6A0
100
AcDbEntity
  8
M0
 62
     7
100
AcDbLine
 10
170.661962
 20
432.499962
 11
170.662206
 21
477.60006
  0
LINE
  5
6A1
100
AcDbEntity
  8
M0
 62
     7
100
AcDbLine
 10
174.661962
 20
432.499962
 11
174.662206
 21
477.60006
  0
LINE
  5
6A2
100
AcDbEntity
  8
M0
  6
DASHDOT
 62
     7
100
AcDbLine
 10
159.661963
 20
431.500451
 11
159.662207
 21
474.100548
  0
LINE
  5
6A3
100
AcDbEntity
  8
M0
 62
     7
100
AcDbLine
 10
168.161962
 20
457.000206
 11
168.162206
 21
473.100304
  0
LINE
  5
6A4
100
AcDbEntity
  8
M0
 62
     7
100
AcDbLine
 10
151.161963
 20
457.000451
 11
151.162207
 21
473.100304
  0
LINE
  5
6A5
100
AcDbEntity
  8
M0
 62
     7
100
AcDbLine
 10
122.662218
 20
475.500695
 11
122.661973
 21
442.500695
  0
LINE
  5
6A6
100
AcDbEntity
  8
M0
 62
     7
100
AcDbLine
 10
118.662462
 20
477.598839
 11
118.661973
 21
442.000695
  0
LINE
  5
6A7
100
AcDbEntity
  8
M0
  6
DASHDOT
 62
     7
100
AcDbLine
 10
133.662218
 20
474.100792
 11
133.661973
 21
431.500695
  0
LINE
  5
6A8
100
AcDbEntity
  8
M0
 62
     7
100
AcDbLine
 10
125.162218
 20
473.100548
 11
125.162218
 21
456.000695
  0
LINE
  5
6A9
100
AcDbEntity
  8
M0
 62
     7
100
AcDbLine
 10
142.162218
 20
473.100548
 11
142.161973
 21
456.000451
  0
LINE
  5
6AA
100
AcDbEntity
  8
M0
 62
     7
100
AcDbLine
 10
122.662218
 20
475.600548
 11
125.162218
 21
473.100548
  0
ARC
  5
6AB
100
AcDbEntity
  8
M0
 62
     7
100
AcDbCircle
 10
121.662218
 20
475.600548
 40
1.0
100
AcDbArc
 50
0.0
 51
89.999126
  0
LINE
  5
6AC
100
AcDbEntity
  8
M0
  6
DASHDOT
 62
     7
100
AcDbLine
 10
185.661958
 20
432.499962
 11
185.662202
 21
475.60006
  0
LINE
  5
6AD
100
AcDbEntity
  8
M0
 62
     7
100
AcDbLine
 10
177.161962
 20
457.000206
 11
177.162206
 21
473.100548
  0
LINE
  5
6AE
100
AcDbEntity
  8
M0
 62
     7
100
AcDbLine
 10
144.662218
 20
475.600304
 11
142.162218
 21
473.100548
  0
LINE
  5
6AF
100
AcDbEntity
  8
M0
 62
     7
100
AcDbLine
 10
148.662207
 20
475.600304
 11
151.162207
 21
473.100304
  0
LINE
  5
6B0
100
AcDbEntity
  8
M0
 62
     7
100
AcDbLine
 10
174.662206
 20
475.60006
 11
177.162206
 21
473.100304
  0
LINE
  5
6B1
100
AcDbEntity
  8
M0
 62
     7
100
AcDbLine
 10
170.662206
 20
475.60006
 11
168.162206
 21
473.100304
  0
ARC
  5
6B2
100
AcDbEntity
  8
M0
 62
     7
100
AcDbCircle
 10
173.662206
 20
477.60006
 40
1.0
100
AcDbArc
 50
0.0
 51
90.0
  0
LINE
  5
6B3
100
AcDbEntity
  8
M0
 62
     7
100
AcDbLine
 10
173.662206
 20
478.60006
 11
171.662206
 21
478.60006
  0
ARC
  5
6B4
100
AcDbEntity
  8
M0
 62
     7
100
AcDbCircle
 10
171.662206
 20
477.60006
 40
1.0
100
AcDbArc
 50
90.0
 51
179.999126
  0
ARC
  5
6B5
100
AcDbEntity
  8
M0
 62
     7
100
AcDbCircle
 10
147.662207
 20
477.600304
 40
1.0
100
AcDbArc
 50
0.0
 51
90.0
  0
LINE
  5
6B6
100
AcDbEntity
  8
M0
 62
     7
100
AcDbLine
 10
147.662207
 20
478.600304
 11
145.662218
 21
478.600304
  0
ARC
  5
6B7
100
AcDbEntity
  8
M0
 62
     7
100
AcDbCircle
 10
145.662218
 20
477.600304
 40
1.0
100
AcDbArc
 50
89.999126
 51
179.985137
  0
LINE
  5
6B8
100
AcDbEntity
  8
M0
 62
     7
100
AcDbLine
 10
144.662218
 20
476.599328
 11
140.604524
 21
476.599312
  0
LINE
  5
6B9
100
AcDbEntity
  8
M0
 62
     7
100
AcDbLine
 10
170.661962
 20
476.599328
 11
164.780416
 21
476.599312
  0
LINE
  5
6BA
100
AcDbEntity
  8
M0
 62
     7
100
AcDbLine
 10
170.661962
 20
475.599816
 11
164.6993
 21
475.599801
  0
LINE
  5
6BB
100
AcDbEntity
  8
M0
 62
     7
100
AcDbLine
 10
144.662218
 20
475.599572
 11
140.361726
 21
475.599556
  0
LINE
  5
6BC
100
AcDbEntity
  8
M0
 62
     7
100
AcDbLine
 10
144.662218
 20
477.599328
 11
140.847383
 21
477.599312
  0
LINE
  5
6BD
100
AcDbEntity
  8
M0
 62
     7
100
AcDbLine
 10
170.662206
 20
477.599083
 11
164.861562
 21
477.599068
  0
LINE
  5
6BE
100
AcDbEntity
  8
M0
 62
     7
100
AcDbLine
 10
118.662462
 20
476.600304
 11
124.662462
 21
476.600304
  0
LINE
  5
6BF
100
AcDbEntity
  8
M0
 62
     7
100
AcDbLine
 10
124.662462
 20
476.600304
 11
124.662462
 21
477.60006
  0
LINE
  5
6C0
100
AcDbEntity
  8
M0
 62
     7
100
AcDbLine
 10
123.662462
 20
478.600304
 11
119.662462
 21
478.60006
  0
LINE
  5
6C1
100
AcDbEntity
  8
M0
 62
     7
100
AcDbLine
 10
118.662462
 20
477.60006
 11
118.662462
 21
476.600304
  0
ARC
  5
6C2
100
AcDbEntity
  8
M0
 62
     7
100
AcDbCircle
 10
123.662462
 20
477.60006
 40
1.0
100
AcDbArc
 50
0.0
 51
89.999126
  0
ARC
  5
6C3
100
AcDbEntity
  8
M0
 62
     7
100
AcDbCircle
 10
119.662462
 20
477.60006
 40
1.0
100
AcDbArc
 50
89.999126
 51
179.999126
  0
LINE
  5
6C4
100
AcDbEntity
  8
M0
 62
     7
100
AcDbLine
 10
156.333487
 20
477.599053
 11
148.662207
 21
477.599083
  0
LINE
  5
6C5
100
AcDbEntity
  8
M0
 62
     7
100
AcDbLine
 10
156.252341
 20
476.599297
 11
148.661963
 21
476.599328
  0
LINE
  5
6C6
100
AcDbEntity
  8
M0
 62
     7
100
AcDbLine
 10
156.171225
 20
475.599785
 11
148.661963
 21
475.599572
  0
LINE
  5
6C7
100
AcDbEntity
  8
M0
 62
     7
100
AcDbLine
 10
180.458635
 20
477.597725
 11
174.662206
 21
477.598595
  0
LINE
  5
6C8
100
AcDbEntity
  8
M0
 62
     7
100
AcDbLine
 10
180.539171
 20
476.599053
 11
174.662206
 21
476.599083
  0
LINE
  5
6C9
100
AcDbEntity
  8
M0
 62
     7
100
AcDbLine
 10
180.619722
 20
475.600029
 11
174.661962
 21
475.599816
  0
LINE
  5
6CA
100
AcDbEntity
  8
M0
 62
     7
100
AcDbLine
 10
132.100191
 20
477.599297
 11
124.662218
 21
477.598839
  0
LINE
  5
6CB
100
AcDbEntity
  8
M0
 62
     7
100
AcDbLine
 10
131.857332
 20
476.599297
 11
118.662462
 21
476.600304
  0
LINE
  5
6CC
100
AcDbEntity
  8
M0
 62
     7
100
AcDbLine
 10
131.614549
 20
475.599541
 11
122.662218
 21
475.60006
  0
LINE
  5
6CD
100
AcDbEntity
  8
M0
 62
     7
100
AcDbLine
 10
205.898042
 20
480.745552
 11
208.100969
 21
482.949257
  0
CIRCLE
  5
6CE
100
AcDbEntity
  8
M0
 62
     7
100
AcDbCircle
 10
185.662202
 20
466.000206
 40
5.249989
  0
LINE
  5
6CF
100
AcDbEntity
  8
M0
 62
     7
100
AcDbLine
 10
193.860445
 20
477.597863
 11
188.98633
 21
477.597847
  0
LINE
  5
6D0
100
AcDbEntity
  8
M0
 62
     7
100
AcDbLine
 10
198.860689
 20
478.599083
 11
194.860689
 21
478.598839
  0
LINE
  5
6D1
100
AcDbEntity
  8
M0
 62
     7
100
AcDbLine
 10
193.860689
 20
477.598839
 11
193.860689
 21
476.599083
  0
ARC
  5
6D2
100
AcDbEntity
  8
M0
 62
     7
100
AcDbCircle
 10
194.860689
 20
477.598839
 40
1.0
100
AcDbArc
 50
90.0
 51
179.999126
  0
LINE
  5
6D3
100
AcDbEntity
  8
M0
 62
     7
100
AcDbLine
 10
205.906145
 20
482.858529
 11
209.433687
 21
479.33149
  0
LINE
  5
6D4
100
AcDbEntity
  8
M0
 62
     7
100
AcDbLine
 10
207.312349
 20
479.331246
 11
209.515611
 21
481.534646
  0
LINE
  5
6D5
100
AcDbEntity
  8
M0
 62
     7
100
AcDbLine
 10
201.312227
 20
473.598519
 11
201.312227
 21
475.59858
  0
LINE
  5
6D6
100
AcDbEntity
  8
M0
 62
     7
100
AcDbLine
 10
199.512239
 20
475.600045
 11
189.147417
 21
475.600029
  0
LINE
  5
6D7
100
AcDbEntity
  8
M0
 62
     7
100
AcDbLine
 10
196.715288
 20
476.599053
 11
189.066865
 21
476.599038
  0
LINE
  5
6D8
100
AcDbEntity
  8
M0
 62
     7
100
AcDbLine
 10
195.661897
 20
457.000191
 11
195.662141
 21
475.600045
  0
LINE
  5
6D9
100
AcDbEntity
  8
M0
 62
     7
100
AcDbLine
 10
194.161897
 20
457.000191
 11
194.162141
 21
474.100289
  0
LINE
  5
6DA
100
AcDbEntity
  8
M0
 62
     7
100
AcDbLine
 10
199.512239
 20
473.098504
 11
199.512239
 21
457.098458
  0
LINE
  5
6DB
100
AcDbEntity
  8
M0
 62
     7
100
AcDbLine
 10
195.662141
 20
475.600045
 11
194.162141
 21
474.100289
  0
LINE
  5
6DC
100
AcDbEntity
  8
M0
 62
     7
100
AcDbLine
 10
196.715288
 20
475.59832
 11
195.660432
 21
475.598092
  0
LINE
  5
6DD
100
AcDbEntity
  8
M0
 62
     7
100
AcDbLine
 10
221.665803
 20
436.598336
 11
221.666048
 21
478.598336
  0
LINE
  5
6DE
100
AcDbEntity
  8
M0
 62
     7
100
AcDbLine
 10
199.515901
 20
473.098504
 11
199.515901
 21
468.348092
  0
LINE
  5
6DF
100
AcDbEntity
  8
M0
 62
     7
100
AcDbLine
 10
202.666048
 20
483.599328
 11
202.666048
 21
476.798424
  0
LINE
  5
6E0
100
AcDbEntity
  8
M0
 62
     7
100
AcDbLine
 10
221.665803
 20
476.597847
 11
221.665803
 21
483.599312
  0
LINE
  5
6E1
100
AcDbEntity
  8
M0
 62
     7
100
AcDbLine
 10
193.860628
 20
476.599068
 11
196.715318
 21
476.599068
  0
LINE
  5
6E2
100
AcDbEntity
  8
M0
 62
     7
100
AcDbLine
 10
199.860628
 20
476.798424
 11
199.860628
 21
477.598824
  0
ARC
  5
6E3
100
AcDbEntity
  8
M0
 62
     7
100
AcDbCircle
 10
198.860628
 20
477.598824
 40
1.0
100
AcDbArc
 50
0.0
 51
90.0
  0
LINE
  5
6E4
100
AcDbEntity
  8
M0
  6
DASHDOT
 62
     7
100
AcDbLine
 10
207.666048
 20
473.849038
 11
207.666048
 21
485.396523
  0
LINE
  5
6E5
100
AcDbEntity
  8
M0
 62
     7
100
AcDbLine
 10
221.215135
 20
476.798439
 11
196.715318
 21
476.798684
  0
LINE
  5
6E6
100
AcDbEntity
  8
M0
 62
     7
100
AcDbLine
 10
196.715318
 20
476.798684
 11
196.715318
 21
475.598687
  0
LINE
  5
6E7
100
AcDbEntity
  8
M0
 62
     7
100
AcDbLine
 10
221.714906
 20
453.898461
 11
221.715135
 21
476.298424
  0
LINE
  5
6E8
100
AcDbEntity
  8
M0
  6
DASHDOT
 62
     7
100
AcDbLine
 10
209.664857
 20
450.735848
 11
209.665086
 21
472.561898
  0
LINE
  5
6E9
100
AcDbEntity
  8
M0
 62
     7
100
AcDbLine
 10
206.215318
 20
475.598595
 11
196.715318
 21
475.598687
  0
LINE
  5
6EA
100
AcDbEntity
  8
M0
 62
     7
100
AcDbLine
 10
206.215318
 20
475.598595
 11
206.215318
 21
476.798592
  0
LINE
  5
6EB
100
AcDbEntity
  8
M0
 62
     7
100
AcDbLine
 10
201.215105
 20
472.898644
 11
200.015108
 21
472.898659
  0
LINE
  5
6EC
100
AcDbEntity
  8
M0
 62
     7
100
AcDbLine
 10
200.01494
 20
457.298699
 11
200.015108
 21
472.898659
  0
LINE
  5
6ED
100
AcDbEntity
  8
M0
 62
     7
100
AcDbLine
 10
202.215105
 20
473.898629
 11
202.215135
 21
475.598626
  0
ARC
  5
6EE
100
AcDbEntity
  8
M0
 62
     7
100
AcDbCircle
 10
201.215105
 20
473.898644
 40
1.0
100
AcDbArc
 50
269.999126
 51
360.0
  0
ARC
  5
6EF
100
AcDbEntity
  8
M0
 62
     7
100
AcDbCircle
 10
221.215135
 20
476.298439
 40
0.5
100
AcDbArc
 50
0.0
 51
90.0
  0
LINE
  5
6F0
100
AcDbEntity
  8
M0
 62
     7
100
AcDbLine
 10
200.812227
 20
473.098549
 11
195.661928
 21
473.098565
  0
ARC
  5
6F1
100
AcDbEntity
  8
M0
 62
     7
100
AcDbCircle
 10
200.812227
 20
473.598534
 40
0.5
100
AcDbArc
 50
269.998251
 51
360.0
  0
LINE
  5
6F2
100
AcDbEntity
  8
M0
  6
DASHED
 62
     7
100
AcDbLine
 10
214.014848
 20
471.948418
 11
214.014848
 21
474.748406
  0
LINE
  5
6F3
100
AcDbEntity
  8
M0
  6
DASHED
 62
     7
100
AcDbLine
 10
210.014848
 20
471.948418
 11
210.014848
 21
474.748406
  0
LINE
  5
6F4
100
AcDbEntity
  8
M0
  6
DASHED
 62
     7
100
AcDbLine
 10
210.014848
 20
471.948418
 11
214.014848
 21
471.948418
  0
LINE
  5
6F5
100
AcDbEntity
  8
M0
  6
DASHED
 62
     7
100
AcDbLine
 10
210.014848
 20
474.748406
 11
214.014848
 21
474.748406
  0
LINE
  5
6F6
100
AcDbEntity
  8
M0
 62
     7
100
AcDbLine
 10
202.215318
 20
475.598595
 11
202.215318
 21
476.798592
  0
LINE
  5
6F7
100
AcDbEntity
  8
M0
 62
     7
100
AcDbLine
 10
203.215105
 20
472.798409
 11
203.215105
 21
475.298409
  0
LINE
  5
6F8
100
AcDbEntity
  8
M0
 62
     7
100
AcDbLine
 10
205.215105
 20
472.798424
 11
203.215105
 21
472.798424
  0
LINE
  5
6F9
100
AcDbEntity
  8
M0
 62
     7
100
AcDbLine
 10
205.215105
 20
472.798409
 11
205.215105
 21
475.298409
  0
LINE
  5
6FA
100
AcDbEntity
  8
M0
 62
     7
100
AcDbLine
 10
205.215105
 20
475.298424
 11
203.215105
 21
475.298424
  0
CIRCLE
  5
6FB
100
AcDbEntity
  8
M0
 62
     7
100
AcDbCircle
 10
133.662355
 20
466.000206
 40
6.499993
  0
CIRCLE
  5
6FC
100
AcDbEntity
  8
M0
 62
     7
100
AcDbCircle
 10
159.6621
 20
466.000206
 40
6.499993
  0
CIRCLE
  5
6FD
100
AcDbEntity
  8
M0
 62
     7
100
AcDbCircle
 10
185.661958
 20
466.000191
 40
6.499993
  0
LINE
  5
6FE
100
AcDbEntity
  8
M0
  6
DASHDOT
 62
     7
100
AcDbLine
 10
201.012346
 20
481.099328
 11
214.665758
 21
481.099328
  0
LINE
  5
6FF
100
AcDbEntity
  8
M0
 62
     7
100
AcDbLine
 10
205.166048
 20
486.099328
 11
219.165803
 21
486.099328
  0
ARC
  5
700
100
AcDbEntity
  8
M0
 62
     7
100
AcDbCircle
 10
219.165803
 20
483.599328
 40
2.5
100
AcDbArc
 50
0.0
 51
90.0
  0
ARC
  5
701
100
AcDbEntity
  8
M0
 62
     7
100
AcDbCircle
 10
205.166048
 20
483.599328
 40
2.5
100
AcDbArc
 50
90.0
 51
179.99965
  0
LINE
  5
702
100
AcDbEntity
  8
M0
 62
     4
100
AcDbLine
 10
178.888689
 20
469.075737
 11
180.80974
 21
473.243538
  0
LINE
  5
703
100
AcDbEntity
  8
M0
 62
     4
100
AcDbLine
 10
191.846437
 20
470.120659
 11
189.282335
 21
473.926934
  0
LINE
  5
704
100
AcDbEntity
  8
M0
 62
     4
100
AcDbLine
 10
180.920793
 20
481.198433
 11
187.898286
 21
481.760888
  0
LINE
  5
705
100
AcDbEntity
  8
M0
 62
     4
100
AcDbLine
 10
189.282335
 20
473.926934
 11
187.514192
 21
495.85569
  0
LINE
  5
706
100
AcDbEntity
  8
M0
 62
     4
100
AcDbLine
 10
180.80974
 20
473.243538
 11
179.041536
 21
495.172524
  0
LINE
  5
707
100
AcDbEntity
  8
M0
 62
     4
100
AcDbLine
 10
180.502168
 20
486.391396
 11
187.479372
 21
486.954033
  0
LINE
  5
708
100
AcDbEntity
  8
M0
 62
     4
100
AcDbLine
 10
128.305543
 20
471.507271
 11
131.435747
 21
474.863274
  0
LINE
  5
709
100
AcDbEntity
  8
M0
 62
     4
100
AcDbLine
 10
140.938203
 20
468.439522
 11
139.695833
 21
472.857537
  0
LINE
  5
70A
100
AcDbEntity
  8
M0
 62
     4
100
AcDbLine
 10
128.305543
 20
471.507271
 11
125.945497
 21
461.789772
  0
LINE
  5
70B
100
AcDbEntity
  8
M0
 62
     4
100
AcDbLine
 10
134.033708
 20
482.38279
 11
140.836091
 21
480.730675
  0
LINE
  5
70C
100
AcDbEntity
  8
M0
 62
     4
100
AcDbLine
 10
139.695833
 20
472.857537
 11
144.887651
 21
494.236077
  0
LINE
  5
70D
100
AcDbEntity
  8
M0
 62
     4
100
AcDbLine
 10
131.435747
 20
474.863274
 11
136.62758
 21
496.242043
  0
LINE
  5
70E
100
AcDbEntity
  8
M0
 62
     4
100
AcDbLine
 10
135.263292
 20
487.445443
 11
142.065431
 21
485.793572
  0
LINE
  5
70F
100
AcDbEntity
  8
M0
 62
     4
100
AcDbLine
 10
153.469473
 20
470.125161
 11
156.035483
 21
473.929955
  0
LINE
  5
710
100
AcDbEntity
  8
M0
 62
     4
100
AcDbLine
 10
166.426687
 20
469.073632
 11
164.507757
 21
473.242577
  0
LINE
  5
711
100
AcDbEntity
  8
M0
 62
     4
100
AcDbLine
 10
157.423789
 20
481.763558
 11
164.40096
 21
481.197136
  0
LINE
  5
712
100
AcDbEntity
  8
M0
 62
     4
100
AcDbLine
 10
164.507757
 20
473.242577
 11
166.287496
 21
495.170388
  0
LINE
  5
713
100
AcDbEntity
  8
M0
 62
     4
100
AcDbLine
 10
156.035483
 20
473.929955
 11
157.815192
 21
495.858025
  0
LINE
  5
714
100
AcDbEntity
  8
M0
 62
     4
100
AcDbLine
 10
157.845343
 20
486.956292
 11
164.822256
 21
486.390084
  0
LINE
  5
715
100
AcDbEntity
  8
M0
 62
     1
100
AcDbLine
 10
118.665864
 20
615.599404
 11
118.665864
 21
410.599419
  0
LINE
  5
716
100
AcDbEntity
  8
M0
  6
DASHDOT
 62
     1
100
AcDbLine
 10
166.665853
 20
629.224404
 11
166.665853
 21
395.011177
  0
LINE
  5
717
100
AcDbEntity
  8
M0
 62
     1
100
AcDbLine
 10
214.665758
 20
486.099328
 11
214.665758
 21
615.599404
  0
LINE
  5
718
100
AcDbEntity
  8
M0
 62
     6
100
AcDbLine
 10
118.665864
 20
569.59916
 11
130.666322
 21
569.59916
  0
LINE
  5
719
100
AcDbEntity
  8
M0
 62
     6
100
AcDbLine
 10
118.665864
 20
516.599343
 11
130.666322
 21
516.599343
  0
LINE
  5
71A
100
AcDbEntity
  8
M0
 62
     6
100
AcDbLine
 10
206.666063
 20
569.598916
 11
194.666307
 21
569.598916
  0
LINE
  5
71B
100
AcDbEntity
  8
M0
 62
     6
100
AcDbLine
 10
206.666063
 20
516.599587
 11
202.666307
 21
516.599587
  0
LINE
  5
71C
100
AcDbEntity
  8
M0
  6
DASHDOT
100
AcDbLine
 10
166.665853
 20
374.213644
 11
166.665853
 21
126.591164
  0
LINE
  5
71D
100
AcDbEntity
  8
M0
  6
DIVIDE
100
AcDbLine
 10
214.666006
 20
357.687935
 11
214.666006
 21
223.188102
  0
LINE
  5
71E
100
AcDbEntity
  8
M0
  6
DIVIDE
100
AcDbLine
 10
214.666006
 20
223.188102
 11
221.666326
 21
223.188102
  0
LINE
  5
71F
100
AcDbEntity
  8
M0
  6
DIVIDE
100
AcDbLine
 10
214.666006
 20
147.688194
 11
214.666006
 21
142.688194
  0
LINE
  5
720
100
AcDbEntity
  8
M0
  6
DIVIDE
100
AcDbLine
 10
214.666006
 20
142.688194
 11
118.666097
 21
142.688194
  0
LINE
  5
721
100
AcDbEntity
  8
M0
  6
DIVIDE
100
AcDbLine
 10
118.666097
 20
357.687935
 11
214.666006
 21
357.687935
  0
LINE
  5
722
100
AcDbEntity
  8
M0
  6
DIVIDE
100
AcDbLine
 10
118.666097
 20
142.688194
 11
118.666097
 21
357.687935
  0
LINE
  5
723
100
AcDbEntity
  8
M0
  6
DIVIDE
100
AcDbLine
 10
214.666006
 20
147.688194
 11
221.665899
 21
147.688153
  0
LINE
  5
724
100
AcDbEntity
  8
M0
  6
DIVIDE
100
AcDbLine
 10
221.666326
 20
223.188102
 11
221.665899
 21
147.688153
  0
CIRCLE
  5
725
100
AcDbEntity
  8
M0
100
AcDbCircle
 10
166.665853
 20
350.18795
 40
2.5
  0
LINE
  5
726
100
AcDbEntity
  8
M0
  6
DASHDOT
100
AcDbLine
 10
139.165868
 20
350.18795
 11
194.165838
 21
350.18795
  0
CIRCLE
  5
727
100
AcDbEntity
  8
M0
100
AcDbCircle
 10
131.665853
 20
150.18795
 40
2.5
  0
LINE
  5
728
100
AcDbEntity
  8
M0
  6
DASHDOT
100
AcDbLine
 10
104.165868
 20
150.18795
 11
159.165838
 21
150.18795
  0
LINE
  5
729
100
AcDbEntity
  8
M0
  6
DASHDOT
100
AcDbLine
 10
131.665853
 20
122.687965
 11
131.665853
 21
177.687935
  0
CIRCLE
  5
72A
100
AcDbEntity
  8
M0
100
AcDbCircle
 10
131.665853
 20
150.18795
 40
1.75
  0
CIRCLE
  5
72B
100
AcDbEntity
  8
M0
100
AcDbCircle
 10
166.665853
 20
350.18795
 40
1.75
  0
CIRCLE
  5
72C
100
AcDbEntity
  8
M0
100
AcDbCircle
 10
201.665838
 20
150.18795
 40
2.5
  0
LINE
  5
72D
100
AcDbEntity
  8
M0
  6
DASHDOT
100
AcDbLine
 10
229.165838
 20
150.18795
 11
174.165853
 21
150.18795
  0
LINE
  5
72E
100
AcDbEntity
  8
M0
  6
DASHDOT
100
AcDbLine
 10
201.665838
 20
122.687965
 11
201.665838
 21
177.687935
  0
CIRCLE
  5
72F
100
AcDbEntity
  8
M0
100
AcDbCircle
 10
201.665838
 20
150.18795
 40
1.75
  0
LINE
  5
730
100
AcDbEntity
  8
M1
 62
     2
100
AcDbLine
 10
25.0
 20
25.0
 11
25.0
 21
712.499989
  0
LINE
  5
731
100
AcDbEntity
  8
M1
 62
     2
100
AcDbLine
 10
25.0
 20
712.499989
 11
499.999993
 21
712.499989
  0
LINE
  5
732
100
AcDbEntity
  8
M1
 62
     2
100
AcDbLine
 10
499.999993
 20
712.499989
 11
499.999993
 21
25.0
  0
LINE
  5
733
100
AcDbEntity
  8
M1
 62
     2
100
AcDbLine
 10
499.999993
 20
25.0
 11
25.0
 21
25.0
  0
LINE
  5
734
100
AcDbEntity
  8
M1
 62
     2
100
AcDbLine
 10
499.999993
 20
49.999999
 11
249.999996
 21
49.999999
  0
LINE
  5
735
100
AcDbEntity
  8
M1
 62
     2
100
AcDbLine
 10
499.999993
 20
74.999999
 11
249.999996
 21
74.999999
  0
LINE
  5
736
100
AcDbEntity
  8
M1
 62
     2
100
AcDbLine
 10
499.999993
 20
99.999999
 11
249.999996
 21
99.999999
  0
LINE
  5
737
100
AcDbEntity
  8
M1
 62
     2
100
AcDbLine
 10
249.999996
 20
25.0
 11
249.999996
 21
99.999999
  0
TEXT
  5
738
100
AcDbEntity
  8
M1
 62
     2
100
AcDbText
 10
256.249996
 20
31.25
 40
12.5
  1
適　用；
  7
STANDARD
100
AcDbText
  0
TEXT
  5
739
100
AcDbEntity
  8
M1
 62
     2
100
AcDbText
 10
256.249996
 20
81.249999
 40
12.5
  1
登録名：
  7
STANDARD
100
AcDbText
  0
TEXT
  5
73A
100
AcDbEntity
  8
M1
 62
     2
100
AcDbText
 10
316.249995
 20
81.249999
 40
12.5
  1
ＤＭＨ６５ＣＴＲ００
 41
0.5
  7
STANDARD
100
AcDbText
  0
TEXT
  5
73B
100
AcDbEntity
  8
M1
 62
     2
100
AcDbText
 10
256.249996
 20
56.249999
 40
12.5
  1
形　式；
  7
STANDARD
100
AcDbText
  0
TEXT
  5
73C
100
AcDbEntity
  8
M1
 62
     2
100
AcDbText
 10
316.249995
 20
56.249999
 40
12.5
  1
Ｈ６５Ｃ－Ｔ，Ｈ６５Ｃ－ＴＫ
 41
0.5
  7
STANDARD
100
AcDbText
  0
LINE
  5
73D
100
AcDbEntity
  8
DN0
100
AcDbLine
 10
145.754661
 20
74.02701
 11
191.404653
 21
74.02701
  0
TEXT
  5
73E
100
AcDbEntity
  8
DN0
100
AcDbText
 10
147.017161
 20
75.15201
 40
11.25
  1
せん孔図
 41
0.833333
  7
STANDARD
100
AcDbText
  0
LINE
  5
73F
100
AcDbEntity
  8
DN0
100
AcDbLine
 10
85.381785
 20
674.838582
 11
266.031784
 21
674.838582
  0
TEXT
  5
740
100
AcDbEntity
  8
DN0
100
AcDbText
 10
86.644285
 20
675.963582
 40
11.25
  1
※寸法は補助接点４ａ４ｂ付の場合
 41
0.833333
  7
STANDARD
100
AcDbText
  0
ENDSEC
  0
SECTION
  2
OBJECTS
  0
DICTIONARY
  5
C
100
AcDbDictionary
  3
ACAD_GROUP
350
D
  3
ACAD_MLINESTYLE
350
E
  0
DICTIONARY
  5
D
102
{ACAD_REACTORS
330
C
102
}
100
AcDbDictionary
  0
DICTIONARY
  5
E
102
{ACAD_REACTORS
330
C
102
}
100
AcDbDictionary
  3
STANDARD
350
13
  0
MLINESTYLE
  5
13
102
{ACAD_REACTORS
330
E
102
}
100
AcDbMlineStyle
  2
STANDARD
 70
     0
  3

 62
     0
 51
90.0
 52
90.0
 71
     2
 49
0.5
 62
   256
  6
BYLAYER
 49
-0.5
 62
   256
  6
BYLAYER
  0
ENDSEC
  0
EOF
