  0
SECTION
  2
HEADER
  9
$ACADVER
  1
AC1014
  9
$INSBASE
 10
0.000000
 20
0.000000
 30
0.0
  9
$VIEWCTR
 10
7.531722
 20
4.5
  9
$VIEWSIZE
 40
9.0
  9
$SNAPMODE
 70
     0
  9
$SNAPUNIT
 10
1.0
 20
1.0
  9
$SNAPBASE
 10
0.0
 20
0.0
  9
$SNAPANG
 50
0.0
  9
$SNAPSTYLE
 70
     0
  9
$SNAPISOPAIR
 70
     0
  9
$GRIDMODE
 70
     0
  9
$GRIDUNIT
 10
0.0
 20
0.0
  9
$ORTHOMODE
 70
     0
  9
$REGENMODE
 70
     1
  9
$FILLMODE
 70
     1
  9
$QTEXTMODE
 70
     0
  9
$DRAGMODE
 70
     2
  9
$LTSCALE
  40
     1.000000
  9
$OSMODE
 70
     0
  9
$ATTMODE
 70
     1
  9
$TEXTSIZE
 40
0.2
  9
$TRACEWID
 40
0.05
  9
$TEXTSTYLE
  7
STANDARD
  9
$CELTYPE
  6
BYLAYER
  9
$CECOLOR
 62
   256
  9
$DIMSCALE
 40
1.0
  9
$DIMASZ
 40
0.18
  9
$DIMEXO
 40
0.0625
  9
$DIMDLI
 40
0.38
  9
$DIMRND
 40
0.0
  9
$DIMDLE
 40
0.0
  9
$DIMEXE
 40
0.18
  9
$DIMTP
 40
0.0
  9
$DIMTM
 40
0.0
  9
$DIMTXT
 40
0.18
  9
$DIMCEN
 40
0.09
  9
$DIMTSZ
 40
0.0
  9
$DIMTOL
 70
     0
  9
$DIMLIM
 70
     0
  9
$DIMTIH
 70
     1
  9
$DIMTOH
 70
     1
  9
$DIMSE1
 70
     0
  9
$DIMSE2
 70
     0
  9
$DIMTAD
 70
     0
  9
$DIMZIN
 70
     0
  9
$DIMBLK
  1

  9
$LUNITS
 70
     2
  9
$LUPREC
 70
     4
  9
$AXISMODE
 70
     0
  9
$AXISUNIT
 10
0.0
 20
0.0
  9
$SKETCHINC
 40
0.1
  9
$FILLETRAD
 40
0.0
  9
$AUNITS
 70
     0
  9
$AUPREC
 70
     0
  9
$MENU
  1
ACAD
  9
$ELEVATION
 40
0.0
  9
$THICKNESS
 40
0.0
  9
$VIEWDIR
 10
0.0
 20
0.0
 30
1.0
  9
$LIMCHECK
 70
     0
  9
$BLIPMODE
 70
     1
  9
$CHAMFERA
 40
0.0
  9
$CHAMFERB
 40
0.0
  9
$FASTZOOM
 70
     1
  9
$SKPOLY
 70
     0
  9
$TDCREATE
 40
0000000.0000000000
  9
$TDUPDATE
 40
0000000.0000000000
  9
$TDINDWG
 40
0.0000000000
  9
$TDUSRTIMER
 40
0.0000000000
  9
$USRTIMER
 70
     1
  9
$ANGBASE
 50
0.0
  9
$ANGDIR
 70
     0
  9
$PDMODE
 70
     0
  9
$PDSIZE
 40
0.0
  9
$PLINEWID
 40
0.0
  9
$COORDS
 70
     0
  9
$USERI1
 70
     0
  9
$USERI2
 70
     0
  9
$USERI3
 70
     0
  9
$USERI4
 70
     0
  9
$USERI5
 70
     0
  9
$USERR1
 40
0.0
  9
$USERR2
 40
0.0
  9
$USERR3
 40
0.0
  9
$USERR4
 40
0.0
  9
$USERR5
 40
0.0
  9
$CLAYER
  8
M0
  9
$EXTMIN
 10
49.999999
 20
49.999999
  9
$EXTMAX
 10
999.999985
 20
1424.999979
  9
$LIMMIN
 10
0.0
 20
0.0
  9
$LIMMAX
 10
210.0
 20
297.0
  9
$HANDSEED
  5
683
  0
ENDSEC
  0
SECTION
  2
CLASSES
  0
ENDSEC
  0
SECTION
  2
TABLES
  0
TABLE
  2
VPORT
  5
8
100
AcDbSymbolTable
 70
     2
  0
VPORT
  5
14
100
AcDbSymbolTableRecord
100
AcDbViewportTableRecord
  2
*ACTIVE
 70
     0
 10
0.0
 20
0.0
 11
1.0
 21
1.0
 12
484.0
 22
297.0
 13
0.0
 23
0.0
 14
1.0
 24
1.0
 15
0.0
 25
0.0
 16
0.0
 26
0.0
 36
1.0
 17
0.0
 27
0.0
 37
0.0
 40
594.0
 41
2.0
 42
50.0
 43
0.0
 44
0.0
 50
0.0
 51
0.0
 71
     0
 72
   100
 73
     1
 74
     1
 75
     0
 76
     0
 77
     0
 78
     0
  0
ENDTAB
  0
TABLE
  2
LTYPE
  5
5
100
AcDbSymbolTable
 70
     5
  0
LTYPE
  5
15
100
AcDbSymbolTableRecord
100
AcDbLinetypeTableRecord
  2
BYBLOCK
 70
     0
  3

 72
    65
 73
     0
 40
0.0
  0
LTYPE
  5
16
100
AcDbSymbolTableRecord
100
AcDbLinetypeTableRecord
  2
BYLAYER
 70
     0
  3

 72
    65
 73
     0
 40
0.0
  0
LTYPE
  5
17
100
AcDbSymbolTableRecord
100
AcDbLinetypeTableRecord
  2
CONTINUOUS
 70
    64
  3
Solid line
 72
    65
 73
     0
 40
0.0
  0
LTYPE
  5
18
100
AcDbSymbolTableRecord
100
AcDbLinetypeTableRecord
  2
DASHED
 70
    64
  3
__ __ __ __ __ __ __ __ __ __ __ __ __ __ __ __
 72
    65
 73
     2
 40
0.75
 49
0.5
 74
     0
 49
-0.25
 74
     0
  0
LTYPE
  5
19
100
AcDbSymbolTableRecord
100
AcDbLinetypeTableRecord
  2
DASHDOT
 70
    64
  3
__ . __ . __ . __ . __ . __ . __ . __ . __ . __
 72
    65
 73
     4
 40
1.0
 49
0.5
 74
     0
 49
-0.25
 74
     0
 49
0.0
 74
     0
 49
-0.25
 74
     0
  0
LTYPE
  5
1A
100
AcDbSymbolTableRecord
100
AcDbLinetypeTableRecord
  2
DIVIDE
 70
    64
  3
____ . . ____ . . ____ . . ____ . . ____ . . __
 72
    65
 73
     6
 40
1.25
 49
0.5
 74
     0
 49
-0.25
 74
     0
 49
0.0
 74
     0
 49
-0.25
 74
     0
 49
0.0
 74
     0
 49
-0.25
 74
     0
  0
LTYPE
  5
1B
100
AcDbSymbolTableRecord
100
AcDbLinetypeTableRecord
  2
DOT
 70
    64
  3
. . . . . . . . . . . . . . . . . . . . . . . .
 72
    65
 73
     2
 40
0.25
 49
0.0
 74
     0
 49
-0.25
 74
     0
  0
ENDTAB
  0
TABLE
  2
LAYER
  5
2
100
AcDbSymbolTable
 70
   102
  0
LAYER
  5
F
100
AcDbSymbolTableRecord
100
AcDbLayerTableRecord
  2
0
 70
     0
 62
     7
  6
CONTINUOUS
  0
LAYER
  5
1C
100
AcDbSymbolTableRecord
100
AcDbLayerTableRecord
  2
DEFPOINTS
 70
     0
 62
     7
  6
CONTINUOUS
  0
LAYER
  5
1D
100
AcDbSymbolTableRecord
100
AcDbLayerTableRecord
  2
M0
 70
     0
 62
     3
  6
CONTINUOUS
  0
LAYER
  5
1E
100
AcDbSymbolTableRecord
100
AcDbLayerTableRecord
  2
M1
 70
     0
 62
     3
  6
CONTINUOUS
  0
LAYER
  5
1F
100
AcDbSymbolTableRecord
100
AcDbLayerTableRecord
  2
DD0
 70
     0
 62
     4
  6
CONTINUOUS
  0
LAYER
  5
20
100
AcDbSymbolTableRecord
100
AcDbLayerTableRecord
  2
DN0
 70
     0
 62
     2
  6
CONTINUOUS
  0
ENDTAB
  0
TABLE
  2
STYLE
  5
3
100
AcDbSymbolTable
 70
     2
  0
STYLE
  5
10
100
AcDbSymbolTableRecord
100
AcDbTextStyleTableRecord
  2
STANDARD
 70
     0
 40
0.0
 41
1.0
 50
0.0
 71
     0
 42
0.2
  3
txt
  4
BIGFONT
  0
ENDTAB
  0
TABLE
  2
VIEW
  5
6
100
AcDbSymbolTable
 70
     0
  0
ENDTAB
  0
TABLE
  2
UCS
  5
7
100
AcDbSymbolTable
 70
     0
  0
ENDTAB
  0
TABLE
  2
APPID
  5
9
100
AcDbSymbolTable
 70
     1
  0
APPID
  5
11
100
AcDbSymbolTableRecord
100
AcDbRegAppTableRecord
  2
ACAD
 70
     0
  0
ENDTAB
  0
TABLE
  2
DIMSTYLE
  5
A
100
AcDbSymbolTable
 70
     2
  0
DIMSTYLE
105
27
100
AcDbSymbolTableRecord
100
AcDbDimStyleTableRecord
  2
STANDARD
 70
     0
  3

  4

  5

  6
_OPEN
  7
_OPEN
 40
1.0
 41
15.0
 42
1.0
 43
8.0
 44
1.0
 45
0.0
 46
0.0
 47
0.0
 48
0.0
140
15.75
141
0.09
142
0.0
143
0.03937
144
1.0
145
0.0
146
1.0
147
0.6
 71
     0
 72
     0
 73
     1
 74
     1
 75
     0
 76
     0
 77
     3
 78
     8
170
     0
171
     2
172
     0
173
     1
174
     0
175
     0
176
     0
177
     0
178
     0
270
     2
271
     2
272
     4
273
     2
274
     2
340
10
275
     0
280
     0
281
     0
282
     0
283
     1
284
     0
285
     0
286
     0
287
     3
288
     0
  0
DIMSTYLE
105
28
100
AcDbSymbolTableRecord
100
AcDbDimStyleTableRecord
  2
LEADSTYL
 70
     0
  3

  4

  5

  6
_OPEN
  7
_OPEN
 40
1.0
 41
15.0
 42
0.0625
 43
0.38
 44
0.18
 45
0.0
 46
0.0
 47
0.0
 48
0.0
140
15.75
141
0.09
142
0.0
143
25.4
144
1.0
145
0.0
146
1.0
147
0.6
 71
     0
 72
     0
 73
     1
 74
     1
 75
     0
 76
     0
 77
     0
 78
     0
170
     0
171
     2
172
     0
173
     1
174
     0
175
     0
176
     0
177
     0
178
     0
270
     2
271
     4
272
     4
273
     2
274
     2
340
10
275
     0
280
     0
281
     0
282
     0
283
     1
284
     0
285
     0
286
     0
287
     3
288
     0
  0
ENDTAB
  0
TABLE
  2
BLOCK_RECORD
  5
1
100
AcDbSymbolTable
 70
    17
  0
BLOCK_RECORD
  5
21
100
AcDbSymbolTableRecord
100
AcDbBlockTableRecord
  2
*MODEL_SPACE
  0
BLOCK_RECORD
  5
24
100
AcDbSymbolTableRecord
100
AcDbBlockTableRecord
  2
*PAPER_SPACE
  0
BLOCK_RECORD
  5
29
100
AcDbSymbolTableRecord
100
AcDbBlockTableRecord
  2
_NONE
  0
BLOCK_RECORD
  5
2D
100
AcDbSymbolTableRecord
100
AcDbBlockTableRecord
  2
_OPEN
  0
BLOCK_RECORD
  5
33
100
AcDbSymbolTableRecord
100
AcDbBlockTableRecord
  2
_CLOSED
  0
BLOCK_RECORD
  5
3A
100
AcDbSymbolTableRecord
100
AcDbBlockTableRecord
  2
_ORIGIN
  0
BLOCK_RECORD
  5
3F
100
AcDbSymbolTableRecord
100
AcDbBlockTableRecord
  2
_DOT
  0
BLOCK_RECORD
  5
47
100
AcDbSymbolTableRecord
100
AcDbBlockTableRecord
  2
_OBLIQUE
  0
BLOCK_RECORD
  5
4B
100
AcDbSymbolTableRecord
100
AcDbBlockTableRecord
  2
DIMS0
  0
BLOCK_RECORD
  5
57
100
AcDbSymbolTableRecord
100
AcDbBlockTableRecord
  2
DIMS1
  0
BLOCK_RECORD
  5
63
100
AcDbSymbolTableRecord
100
AcDbBlockTableRecord
  2
DIMS2
  0
BLOCK_RECORD
  5
6F
100
AcDbSymbolTableRecord
100
AcDbBlockTableRecord
  2
DIMS3
  0
BLOCK_RECORD
  5
78
100
AcDbSymbolTableRecord
100
AcDbBlockTableRecord
  2
DIMS4
  0
BLOCK_RECORD
  5
84
100
AcDbSymbolTableRecord
100
AcDbBlockTableRecord
  2
DIMS5
  0
BLOCK_RECORD
  5
90
100
AcDbSymbolTableRecord
100
AcDbBlockTableRecord
  2
DIMS6
  0
BLOCK_RECORD
  5
9C
100
AcDbSymbolTableRecord
100
AcDbBlockTableRecord
  2
DIMS7
  0
BLOCK_RECORD
  5
A8
100
AcDbSymbolTableRecord
100
AcDbBlockTableRecord
  2
DIMS8
  0
BLOCK_RECORD
  5
B1
100
AcDbSymbolTableRecord
100
AcDbBlockTableRecord
  2
DIMS9
  0
BLOCK_RECORD
  5
BD
100
AcDbSymbolTableRecord
100
AcDbBlockTableRecord
  2
DIMS10
  0
ENDTAB
  0
ENDSEC
  0
SECTION
  2
BLOCKS
  0
BLOCK
  5
22
100
AcDbEntity
  8
0
100
AcDbBlockBegin
  2
*MODEL_SPACE
 70
     0
 10
0.0
 20
0.0
 30
0.0
  3
*MODEL_SPACE
  1

  0
ENDBLK
  5
23
100
AcDbEntity
  8
0
100
AcDbBlockEnd
  0
BLOCK
  5
25
100
AcDbEntity
 67
     1
  8
0
100
AcDbBlockBegin
  2
*PAPER_SPACE
 70
     0
 10
0.0
 20
0.0
 30
0.0
  3
*PAPER_SPACE
  1

  0
ENDBLK
  5
26
100
AcDbEntity
 67
     1
  8
0
100
AcDbBlockEnd
  0
BLOCK
  5
2A
100
AcDbEntity
  8
0
100
AcDbBlockBegin
  2
_NONE
 70
     0
 10
0.0
 20
0.0
  0
CIRCLE
  5
2B
100
AcDbEntity
  8
0
 62
     0
100
AcDbCircle
 10
0.0
 20
0.0
 40
0.25
  0
ENDBLK
  5
2C
100
AcDbEntity
  8
0
100
AcDbBlockEnd
  0
BLOCK
  5
2E
100
AcDbEntity
  8
0
100
AcDbBlockBegin
  2
_OPEN
 70
     0
 10
0.0
 20
0.0
  0
LINE
  5
2F
100
AcDbEntity
  8
0
 62
     0
100
AcDbLine
 10
-0.965926
 20
0.258819
 11
0.0
 21
0.0
  0
LINE
  5
30
100
AcDbEntity
  8
0
 62
     0
100
AcDbLine
 10
0.0
 20
0.0
 11
-0.965926
 21
-0.258819
  0
LINE
  5
31
100
AcDbEntity
  8
0
 62
     0
100
AcDbLine
 10
0.0
 20
0.0
 11
-1.0
 21
0.0
  0
ENDBLK
  5
32
100
AcDbEntity
  8
0
100
AcDbBlockEnd
  0
BLOCK
  5
34
100
AcDbEntity
  8
0
100
AcDbBlockBegin
  2
_CLOSED
 70
     0
 10
0.0
 20
0.0
  0
LINE
  5
35
100
AcDbEntity
  8
0
 62
     0
100
AcDbLine
 10
-0.965926
 20
0.258819
 11
0.0
 21
0.0
  0
LINE
  5
36
100
AcDbEntity
  8
0
 62
     0
100
AcDbLine
 10
0.0
 20
0.0
 11
-0.965926
 21
-0.258819
  0
LINE
  5
37
100
AcDbEntity
  8
0
 62
     0
100
AcDbLine
 10
-0.965926
 20
0.258819
 11
-0.965926
 21
-0.258819
  0
LINE
  5
38
100
AcDbEntity
  8
0
 62
     0
100
AcDbLine
 10
0.0
 20
0.0
 11
-1.0
 21
0.0
  0
ENDBLK
  5
39
100
AcDbEntity
  8
0
100
AcDbBlockEnd
  0
BLOCK
  5
3B
100
AcDbEntity
  8
0
100
AcDbBlockBegin
  2
_ORIGIN
 70
     0
 10
0.0
 20
0.0
  0
CIRCLE
  5
3C
100
AcDbEntity
  8
0
 62
     0
100
AcDbCircle
 10
0.0
 20
0.0
 40
0.5
  0
LINE
  5
3D
100
AcDbEntity
  8
0
 62
     0
100
AcDbLine
 10
0.0
 20
0.0
 11
-1.0
 21
0.0
  0
ENDBLK
  5
3E
100
AcDbEntity
  8
0
100
AcDbBlockEnd
  0
BLOCK
  5
40
100
AcDbEntity
  8
0
100
AcDbBlockBegin
  2
_DOT
 70
     0
 10
0.0
 20
0.0
  0
POLYLINE
  5
41
100
AcDbEntity
  8
0
 62
     0
100
AcDb2dPolyline
 66
     1
 70
     1
 40
0.5
 41
0.5
  0
VERTEX
  5
42
100
AcDbEntity
  8
0
 62
     0
100
AcDbVertex
100
AcDb2dVertex
 10
-0.25
 20
0.0
 42
1.0
  0
VERTEX
  5
43
100
AcDbEntity
  8
0
 62
     0
100
AcDbVertex
100
AcDb2dVertex
 10
0.25
 20
0.0
 42
1.0
  0
SEQEND
  5
44
100
AcDbEntity
  8
0
 62
     0
  0
LINE
  5
45
100
AcDbEntity
  8
0
 62
     0
100
AcDbLine
 10
-0.5
 20
0.0
 11
-1.0
 21
0.0
  0
ENDBLK
  5
46
100
AcDbEntity
  8
0
100
AcDbBlockEnd
  0
BLOCK
  5
48
100
AcDbEntity
  8
0
100
AcDbBlockBegin
  2
_OBLIQUE
 70
     0
 10
0.0
 20
0.0
  0
LINE
  5
49
100
AcDbEntity
  8
0
 62
     0
100
AcDbLine
 10
-0.353553
 20
-0.353553
 11
0.353553
 21
0.353553
  0
ENDBLK
  5
4A
100
AcDbEntity
  8
0
100
AcDbBlockEnd
  0
BLOCK
  5
4C
100
AcDbEntity
  8
DD0
100
AcDbBlockBegin
  2
DIMS0
 70
     0
 10
0.0
 20
0.0
  0
LINE
  5
4D
100
AcDbEntity
  8
DD0
100
AcDbLine
 10
401.21467
 20
1240.261593
 11
534.713775
 21
1240.261593
  0
LINE
  5
4E
100
AcDbEntity
  8
DD0
100
AcDbLine
 10
401.21467
 20
860.259844
 11
534.713775
 21
860.259844
  0
LINE
  5
4F
100
AcDbEntity
  8
DD0
100
AcDbLine
 10
533.596061
 20
1225.772706
 11
529.713775
 21
1240.261593
  0
LINE
  5
50
100
AcDbEntity
  8
DD0
100
AcDbLine
 10
529.713775
 20
1240.261593
 11
525.83149
 21
1225.772706
  0
LINE
  5
51
100
AcDbEntity
  8
DD0
100
AcDbLine
 10
525.83149
 20
874.748732
 11
529.713775
 21
860.259844
  0
LINE
  5
52
100
AcDbEntity
  8
DD0
100
AcDbLine
 10
529.713775
 20
860.259844
 11
533.596061
 21
874.748732
  0
LINE
  5
53
100
AcDbEntity
  8
DD0
100
AcDbLine
 10
529.713775
 20
1240.261593
 11
529.713775
 21
860.259844
  0
TEXT
  5
54
100
AcDbEntity
  8
DD0
100
AcDbText
 10
526.713783
 20
1027.923233
 40
15.75
  1
３８０
 50
90.000003
 41
0.833333
  7
STANDARD
100
AcDbText
  0
ENDBLK
  5
55
100
AcDbEntity
  8
DD0
100
AcDbBlockEnd
  0
BLOCK
  5
58
100
AcDbEntity
  8
DD0
100
AcDbBlockBegin
  2
DIMS1
 70
     0
 10
0.0
 20
0.0
  0
LINE
  5
59
100
AcDbEntity
  8
DD0
100
AcDbLine
 10
345.21377
 20
1270.260754
 11
534.713775
 21
1270.260754
  0
LINE
  5
5A
100
AcDbEntity
  8
DD0
100
AcDbLine
 10
401.21467
 20
1240.261593
 11
534.713775
 21
1240.261593
  0
LINE
  5
5B
100
AcDbEntity
  8
DD0
100
AcDbLine
 10
525.83149
 20
1284.749641
 11
529.713775
 21
1270.260754
  0
LINE
  5
5C
100
AcDbEntity
  8
DD0
100
AcDbLine
 10
529.713775
 20
1270.260754
 11
533.596061
 21
1284.749641
  0
LINE
  5
5D
100
AcDbEntity
  8
DD0
100
AcDbLine
 10
533.596061
 20
1225.772706
 11
529.713775
 21
1240.261593
  0
LINE
  5
5E
100
AcDbEntity
  8
DD0
100
AcDbLine
 10
529.713775
 20
1240.261593
 11
525.83149
 21
1225.772706
  0
LINE
  5
5F
100
AcDbEntity
  8
DD0
100
AcDbLine
 10
529.713775
 20
1286.760753
 11
529.713775
 21
1223.761594
  0
TEXT
  5
60
100
AcDbEntity
  8
DD0
100
AcDbText
 10
526.213791
 20
1242.269598
 40
15.75
  1
３０
 50
90.000003
 41
0.751323
  7
STANDARD
100
AcDbText
  0
ENDBLK
  5
61
100
AcDbEntity
  8
DD0
100
AcDbBlockEnd
  0
BLOCK
  5
64
100
AcDbEntity
  8
DD0
100
AcDbBlockBegin
  2
DIMS2
 70
     0
 10
0.0
 20
0.0
  0
LINE
  5
65
100
AcDbEntity
  8
DD0
100
AcDbLine
 10
176.26415
 20
1180.260755
 11
176.26415
 21
1339.136943
  0
LINE
  5
66
100
AcDbEntity
  8
DD0
100
AcDbLine
 10
459.713776
 20
1174.26077
 11
459.713776
 21
1339.136943
  0
LINE
  5
67
100
AcDbEntity
  8
DD0
100
AcDbLine
 10
190.753037
 20
1338.019229
 11
176.26415
 21
1334.136943
  0
LINE
  5
68
100
AcDbEntity
  8
DD0
100
AcDbLine
 10
176.26415
 20
1334.136943
 11
190.753037
 21
1330.254657
  0
LINE
  5
69
100
AcDbEntity
  8
DD0
100
AcDbLine
 10
445.224889
 20
1330.254657
 11
459.713776
 21
1334.136943
  0
LINE
  5
6A
100
AcDbEntity
  8
DD0
100
AcDbLine
 10
459.713776
 20
1334.136943
 11
445.224889
 21
1338.019229
  0
LINE
  5
6B
100
AcDbEntity
  8
DD0
100
AcDbLine
 10
176.26415
 20
1334.136943
 11
459.713776
 21
1334.136943
  0
TEXT
  5
6C
100
AcDbEntity
  8
DD0
100
AcDbText
 10
295.651477
 20
1337.136973
 40
15.75
  1
２８４
 41
0.833333
  7
STANDARD
100
AcDbText
  0
ENDBLK
  5
6D
100
AcDbEntity
  8
DD0
100
AcDbBlockEnd
  0
BLOCK
  5
70
100
AcDbEntity
  8
DD0
100
AcDbBlockBegin
  2
DIMS3
 70
     0
 10
0.0
 20
0.0
  0
TEXT
  5
71
100
AcDbEntity
  8
DD0
100
AcDbText
 10
363.796961
 20
1296.195202
 40
15.75
  1
相間バリア
 41
0.833333
  7
STANDARD
100
AcDbText
  0
LINE
  5
72
100
AcDbEntity
  8
DD0
100
AcDbLine
 10
339.555797
 20
1285.253329
 11
339.083895
 21
1270.260754
  0
LINE
  5
73
100
AcDbEntity
  8
DD0
100
AcDbLine
 10
339.083895
 20
1270.260754
 11
346.988862
 21
1283.008754
  0
LINE
  5
74
100
AcDbEntity
  8
DD0
100
AcDbLine
 10
339.083895
 20
1270.260754
 11
346.00944
 21
1293.195171
  0
LINE
  5
75
100
AcDbEntity
  8
DD0
100
AcDbLine
 10
346.00944
 20
1293.195171
 11
457.759469
 21
1293.195171
  0
ENDBLK
  5
76
100
AcDbEntity
  8
DD0
100
AcDbBlockEnd
  0
BLOCK
  5
79
100
AcDbEntity
  8
DD0
100
AcDbBlockBegin
  2
DIMS4
 70
     0
 10
0.0
 20
0.0
  0
LINE
  5
7A
100
AcDbEntity
  8
DD0
100
AcDbLine
 10
465.215066
 20
665.742864
 11
534.713775
 21
665.742864
  0
LINE
  5
7B
100
AcDbEntity
  8
DD0
100
AcDbLine
 10
461.715043
 20
587.742873
 11
534.713775
 21
587.742873
  0
LINE
  5
7C
100
AcDbEntity
  8
DD0
100
AcDbLine
 10
525.83149
 20
680.231751
 11
529.713775
 21
665.742864
  0
LINE
  5
7D
100
AcDbEntity
  8
DD0
100
AcDbLine
 10
529.713775
 20
665.742864
 11
533.596061
 21
680.231751
  0
LINE
  5
7E
100
AcDbEntity
  8
DD0
100
AcDbLine
 10
533.596061
 20
573.253986
 11
529.713775
 21
587.742873
  0
LINE
  5
7F
100
AcDbEntity
  8
DD0
100
AcDbLine
 10
529.713775
 20
587.742873
 11
525.83149
 21
573.253986
  0
LINE
  5
80
100
AcDbEntity
  8
DD0
100
AcDbLine
 10
529.713775
 20
703.776847
 11
529.713775
 21
571.242874
  0
TEXT
  5
81
100
AcDbEntity
  8
DD0
100
AcDbText
 10
524.163046
 20
668.564336
 40
15.75
  1
７８
 50
90.000365
 41
0.833333
  7
STANDARD
100
AcDbText
  0
ENDBLK
  5
82
100
AcDbEntity
  8
DD0
100
AcDbBlockEnd
  0
BLOCK
  5
85
100
AcDbEntity
  8
DD0
100
AcDbBlockBegin
  2
DIMS5
 70
     0
 10
0.0
 20
0.0
  0
LINE
  5
86
100
AcDbEntity
  8
DD0
 60
     1
100
AcDbLine
 10
461.715043
 20
587.742873
 11
534.713775
 21
587.742873
  0
LINE
  5
87
100
AcDbEntity
  8
DD0
100
AcDbLine
 10
463.215058
 20
365.742869
 11
534.713775
 21
365.742869
  0
LINE
  5
88
100
AcDbEntity
  8
DD0
100
AcDbLine
 10
533.596061
 20
573.253986
 11
529.713775
 21
587.742873
  0
LINE
  5
89
100
AcDbEntity
  8
DD0
100
AcDbLine
 10
529.713775
 20
587.742873
 11
525.83149
 21
573.253986
  0
LINE
  5
8A
100
AcDbEntity
  8
DD0
100
AcDbLine
 10
525.83149
 20
380.231756
 11
529.713775
 21
365.742869
  0
LINE
  5
8B
100
AcDbEntity
  8
DD0
100
AcDbLine
 10
529.713775
 20
365.742869
 11
533.596061
 21
380.231756
  0
LINE
  5
8C
100
AcDbEntity
  8
DD0
100
AcDbLine
 10
529.713775
 20
587.742873
 11
529.713775
 21
365.742869
  0
TEXT
  5
8D
100
AcDbEntity
  8
DD0
100
AcDbText
 10
526.713783
 20
454.405366
 40
15.75
  1
２２２
 50
90.000003
 41
0.833333
  7
STANDARD
100
AcDbText
  0
ENDBLK
  5
8E
100
AcDbEntity
  8
DD0
100
AcDbBlockEnd
  0
BLOCK
  5
91
100
AcDbEntity
  8
DD0
100
AcDbBlockBegin
  2
DIMS6
 70
     0
 10
0.0
 20
0.0
  0
LINE
  5
92
100
AcDbEntity
  8
DD0
100
AcDbLine
 10
176.215055
 20
670.742864
 11
176.215055
 21
758.595646
  0
LINE
  5
93
100
AcDbEntity
  8
DD0
100
AcDbLine
 10
306.215053
 20
688.742894
 11
306.215053
 21
758.595646
  0
LINE
  5
94
100
AcDbEntity
  8
DD0
100
AcDbLine
 10
190.703942
 20
757.477932
 11
176.215055
 21
753.595646
  0
LINE
  5
95
100
AcDbEntity
  8
DD0
100
AcDbLine
 10
176.215055
 20
753.595646
 11
190.703942
 21
749.71336
  0
LINE
  5
96
100
AcDbEntity
  8
DD0
100
AcDbLine
 10
291.726166
 20
749.71336
 11
306.215053
 21
753.595646
  0
LINE
  5
97
100
AcDbEntity
  8
DD0
100
AcDbLine
 10
306.215053
 20
753.595646
 11
291.726166
 21
757.477932
  0
LINE
  5
98
100
AcDbEntity
  8
DD0
100
AcDbLine
 10
176.215055
 20
753.595646
 11
306.215053
 21
753.595646
  0
TEXT
  5
99
100
AcDbEntity
  8
DD0
100
AcDbText
 10
218.877568
 20
756.595677
 40
15.75
  1
１３０
 41
0.833333
  7
STANDARD
100
AcDbText
  0
ENDBLK
  5
9A
100
AcDbEntity
  8
DD0
100
AcDbBlockEnd
  0
BLOCK
  5
9D
100
AcDbEntity
  8
DD0
100
AcDbBlockBegin
  2
DIMS7
 70
     0
 10
0.0
 20
0.0
  0
LINE
  5
9E
100
AcDbEntity
  8
DD0
100
AcDbLine
 10
221.215073
 20
646.242819
 11
221.215073
 21
711.877049
  0
LINE
  5
9F
100
AcDbEntity
  8
DD0
100
AcDbLine
 10
391.215052
 20
646.242819
 11
391.215052
 21
711.877049
  0
LINE
  5
A0
100
AcDbEntity
  8
DD0
100
AcDbLine
 10
235.70396
 20
710.759335
 11
221.215073
 21
706.877049
  0
LINE
  5
A1
100
AcDbEntity
  8
DD0
100
AcDbLine
 10
221.215073
 20
706.877049
 11
235.70396
 21
702.994764
  0
LINE
  5
A2
100
AcDbEntity
  8
DD0
100
AcDbLine
 10
376.726164
 20
702.994764
 11
391.215052
 21
706.877049
  0
LINE
  5
A3
100
AcDbEntity
  8
DD0
100
AcDbLine
 10
391.215052
 20
706.877049
 11
376.726164
 21
710.759335
  0
LINE
  5
A4
100
AcDbEntity
  8
DD0
100
AcDbLine
 10
221.215073
 20
706.877049
 11
391.215052
 21
706.877049
  0
TEXT
  5
A5
100
AcDbEntity
  8
DD0
100
AcDbText
 10
291.705306
 20
713.381718
 40
15.75
  1
１７０
 41
0.833333
  7
STANDARD
100
AcDbText
  0
ENDBLK
  5
A6
100
AcDbEntity
  8
DD0
100
AcDbBlockEnd
  0
BLOCK
  5
A9
100
AcDbEntity
  8
DD0
100
AcDbBlockBegin
  2
DIMS8
 70
     0
 10
0.0
 20
0.0
  0
LINE
  5
AA
100
AcDbEntity
  8
DD0
100
AcDbLine
 10
404.571646
 20
351.369505
 11
393.203195
 21
361.155123
  0
LINE
  5
AB
100
AcDbEntity
  8
DD0
100
AcDbLine
 10
393.203195
 20
361.155123
 11
398.155753
 21
346.996304
  0
LINE
  5
AC
100
AcDbEntity
  8
DD0
100
AcDbLine
 10
393.203195
 20
361.155123
 11
464.849847
 21
256.04282
  0
LINE
  5
AD
100
AcDbEntity
  8
DD0
100
AcDbLine
 10
464.849847
 20
256.04282
 11
623.849821
 21
256.04282
  0
TEXT
  5
AE
100
AcDbEntity
  8
DD0
100
AcDbText
 10
482.637368
 20
259.042812
 40
15.75
  1
４－Ｍ１０ねじ穴
 41
0.833333
  7
STANDARD
100
AcDbText
  0
ENDBLK
  5
AF
100
AcDbEntity
  8
DD0
100
AcDbBlockEnd
  0
BLOCK
  5
B2
100
AcDbEntity
  8
DD0
100
AcDbBlockBegin
  2
DIMS9
 70
     0
 10
0.0
 20
0.0
  0
LINE
  5
B3
100
AcDbEntity
  8
DD0
100
AcDbLine
 10
873.709856
 20
1180.260679
 11
873.709856
 21
1339.136943
  0
LINE
  5
B4
100
AcDbEntity
  8
DD0
100
AcDbLine
 10
641.709814
 20
1147.260725
 11
641.709814
 21
1339.136943
  0
LINE
  5
B5
100
AcDbEntity
  8
DD0
100
AcDbLine
 10
859.220969
 20
1330.254657
 11
873.709856
 21
1334.136943
  0
LINE
  5
B6
100
AcDbEntity
  8
DD0
100
AcDbLine
 10
873.709856
 20
1334.136943
 11
859.220969
 21
1338.019229
  0
LINE
  5
B7
100
AcDbEntity
  8
DD0
100
AcDbLine
 10
656.198701
 20
1338.019229
 11
641.709814
 21
1334.136943
  0
LINE
  5
B8
100
AcDbEntity
  8
DD0
100
AcDbLine
 10
641.709814
 20
1334.136943
 11
656.198701
 21
1330.254657
  0
LINE
  5
B9
100
AcDbEntity
  8
DD0
100
AcDbLine
 10
873.709856
 20
1334.136943
 11
641.709814
 21
1334.136943
  0
TEXT
  5
BA
100
AcDbEntity
  8
DD0
100
AcDbText
 10
735.372273
 20
1337.136973
 40
15.75
  1
２３２
 41
0.833333
  7
STANDARD
100
AcDbText
  0
ENDBLK
  5
BB
100
AcDbEntity
  8
DD0
100
AcDbBlockEnd
  0
BLOCK
  5
BE
100
AcDbEntity
  8
DD0
100
AcDbBlockBegin
  2
DIMS10
 70
     0
 10
0.0
 20
0.0
  0
LINE
  5
BF
100
AcDbEntity
  8
DD0
100
AcDbLine
 10
873.709856
 20
1180.260679
 11
873.709856
 21
1275.260754
  0
LINE
  5
C0
100
AcDbEntity
  8
DD0
100
AcDbLine
 10
870.509859
 20
1180.260679
 11
870.509859
 21
1275.260754
  0
LINE
  5
C1
100
AcDbEntity
  8
DD0
100
AcDbLine
 10
888.198744
 20
1274.14304
 11
873.709856
 21
1270.260754
  0
LINE
  5
C2
100
AcDbEntity
  8
DD0
100
AcDbLine
 10
873.709856
 20
1270.260754
 11
888.198744
 21
1266.378468
  0
LINE
  5
C3
100
AcDbEntity
  8
DD0
100
AcDbLine
 10
856.020972
 20
1266.378468
 11
870.509859
 21
1270.260754
  0
LINE
  5
C4
100
AcDbEntity
  8
DD0
100
AcDbLine
 10
870.509859
 20
1270.260754
 11
856.020972
 21
1274.14304
  0
LINE
  5
C5
100
AcDbEntity
  8
DD0
100
AcDbLine
 10
942.45986
 20
1270.260754
 11
854.00986
 21
1270.260754
  0
TEXT
  5
C6
100
AcDbEntity
  8
DD0
100
AcDbText
 10
891.497377
 20
1273.260784
 40
15.75
  1
３．２
 41
0.833333
  7
STANDARD
100
AcDbText
  0
ENDBLK
  5
C7
100
AcDbEntity
  8
DD0
100
AcDbBlockEnd
  0
ENDSEC
  0
SECTION
  2
ENTITIES
  0
INSERT
  5
56
100
AcDbEntity
  8
DD0
100
AcDbBlockReference
  2
DIMS0
 10
0.0
 20
0.0
  0
INSERT
  5
62
100
AcDbEntity
  8
DD0
100
AcDbBlockReference
  2
DIMS1
 10
0.0
 20
0.0
  0
INSERT
  5
6E
100
AcDbEntity
  8
DD0
100
AcDbBlockReference
  2
DIMS2
 10
0.0
 20
0.0
  0
INSERT
  5
77
100
AcDbEntity
  8
DD0
100
AcDbBlockReference
  2
DIMS3
 10
0.0
 20
0.0
  0
INSERT
  5
83
100
AcDbEntity
  8
DD0
100
AcDbBlockReference
  2
DIMS4
 10
0.0
 20
0.0
  0
INSERT
  5
8F
100
AcDbEntity
  8
DD0
100
AcDbBlockReference
  2
DIMS5
 10
0.0
 20
0.0
  0
INSERT
  5
9B
100
AcDbEntity
  8
DD0
100
AcDbBlockReference
  2
DIMS6
 10
0.0
 20
0.0
  0
INSERT
  5
A7
100
AcDbEntity
  8
DD0
100
AcDbBlockReference
  2
DIMS7
 10
0.0
 20
0.0
  0
INSERT
  5
B0
100
AcDbEntity
  8
DD0
100
AcDbBlockReference
  2
DIMS8
 10
0.0
 20
0.0
  0
INSERT
  5
BC
100
AcDbEntity
  8
DD0
100
AcDbBlockReference
  2
DIMS9
 10
0.0
 20
0.0
  0
INSERT
  5
C8
100
AcDbEntity
  8
DD0
100
AcDbBlockReference
  2
DIMS10
 10
0.0
 20
0.0
  0
LINE
  5
C9
100
AcDbEntity
  8
M0
100
AcDbLine
 10
261.213309
 20
1175.260473
 11
261.213309
 21
1229.259985
  0
LINE
  5
CA
100
AcDbEntity
  8
M0
100
AcDbLine
 10
351.216331
 20
1175.259985
 11
351.216361
 21
1229.259496
  0
LINE
  5
CB
100
AcDbEntity
  8
M0
100
AcDbLine
 10
261.214552
 20
1233.261912
 11
261.214524
 21
1139.260722
  0
LINE
  5
CC
100
AcDbEntity
  8
M0
100
AcDbLine
 10
396.214758
 20
1175.261641
 11
381.212867
 21
1160.261561
  0
LINE
  5
CD
100
AcDbEntity
  8
M0
100
AcDbLine
 10
381.212823
 20
1139.26069
 11
381.212867
 21
1160.261561
  0
LINE
  5
CE
100
AcDbEntity
  8
M0
100
AcDbLine
 10
396.214672
 20
1239.685305
 11
396.214758
 21
1175.260725
  0
LINE
  5
CF
100
AcDbEntity
  8
M0
100
AcDbLine
 10
351.213039
 20
1240.261388
 11
396.214672
 21
1240.26163
  0
LINE
  5
D0
100
AcDbEntity
  8
M0
100
AcDbLine
 10
351.213029
 20
1231.261388
 11
351.212912
 21
1175.260697
  0
LINE
  5
D1
100
AcDbEntity
  8
M0
100
AcDbLine
 10
351.214688
 20
1239.302556
 11
351.214824
 21
1142.846837
  0
LINE
  5
D2
100
AcDbEntity
  8
M0
100
AcDbLine
 10
351.214752
 20
1233.26238
 11
351.214903
 21
1139.261205
  0
LINE
  5
D3
100
AcDbEntity
  8
M0
100
AcDbLine
 10
216.212836
 20
1175.260884
 11
231.214746
 21
1160.260823
  0
LINE
  5
D4
100
AcDbEntity
  8
M0
100
AcDbLine
 10
231.214816
 20
1139.259951
 11
231.214746
 21
1160.260823
  0
LINE
  5
D5
100
AcDbEntity
  8
M0
100
AcDbLine
 10
216.212841
 20
1239.684548
 11
216.212836
 21
1175.259968
  0
LINE
  5
D6
100
AcDbEntity
  8
M0
100
AcDbLine
 10
261.214473
 20
1240.260687
 11
216.212841
 21
1240.260872
  0
LINE
  5
D7
100
AcDbEntity
  8
M0
100
AcDbLine
 10
261.214494
 20
1231.260687
 11
261.214682
 21
1175.259996
  0
LINE
  5
D8
100
AcDbEntity
  8
M0
100
AcDbLine
 10
261.212826
 20
1239.301855
 11
261.21281
 21
1142.846136
  0
LINE
  5
D9
100
AcDbEntity
  8
M0
100
AcDbLine
 10
261.212769
 20
1233.261679
 11
261.212736
 21
1139.260504
  0
LINE
  5
DA
100
AcDbEntity
  8
M0
100
AcDbLine
 10
328.713505
 20
1240.261345
 11
328.713903
 21
1165.261361
  0
LINE
  5
DB
100
AcDbEntity
  8
M0
100
AcDbLine
 10
283.71352
 20
1240.261103
 11
328.71352
 21
1240.261345
  0
LINE
  5
DC
100
AcDbEntity
  8
M0
100
AcDbLine
 10
283.713918
 20
1165.261119
 11
283.71352
 21
1240.261103
  0
LINE
  5
DD
100
AcDbEntity
  8
M0
100
AcDbLine
 10
291.213807
 20
1139.260925
 11
291.213943
 21
1165.261169
  0
LINE
  5
DE
100
AcDbEntity
  8
M0
100
AcDbLine
 10
283.713918
 20
1165.261119
 11
291.213943
 21
1165.261169
  0
LINE
  5
DF
100
AcDbEntity
  8
M0
100
AcDbLine
 10
321.213903
 20
1165.261325
 11
321.214041
 21
1139.261081
  0
LINE
  5
E0
100
AcDbEntity
  8
M0
100
AcDbLine
 10
321.213903
 20
1165.261325
 11
328.713674
 21
1165.261361
  0
CIRCLE
  5
E1
100
AcDbEntity
  8
M0
100
AcDbCircle
 10
376.213202
 20
1225.260747
 40
6.5
  0
CIRCLE
  5
E2
100
AcDbEntity
  8
M0
100
AcDbCircle
 10
376.213404
 20
1187.260747
 40
8.0
  0
CIRCLE
  5
E3
100
AcDbEntity
  8
M0
100
AcDbCircle
 10
306.213404
 20
1187.260747
 40
8.0
  0
CIRCLE
  5
E4
100
AcDbEntity
  8
M0
100
AcDbCircle
 10
306.213202
 20
1225.260747
 40
6.5
  0
CIRCLE
  5
E5
100
AcDbEntity
  8
M0
100
AcDbCircle
 10
236.213202
 20
1225.260747
 40
6.5
  0
CIRCLE
  5
E6
100
AcDbEntity
  8
M0
100
AcDbCircle
 10
236.213404
 20
1187.260747
 40
8.0
  0
LINE
  5
E7
100
AcDbEntity
  8
M0
  6
DASHDOT
100
AcDbLine
 10
218.213403
 20
1187.260747
 11
254.213404
 21
1187.260747
  0
LINE
  5
E8
100
AcDbEntity
  8
M0
  6
DASHDOT
100
AcDbLine
 10
236.213404
 20
1169.260747
 11
236.213404
 21
1205.260748
  0
LINE
  5
E9
100
AcDbEntity
  8
M0
  6
DASHDOT
100
AcDbLine
 10
288.213403
 20
1187.260747
 11
324.213404
 21
1187.260747
  0
LINE
  5
EA
100
AcDbEntity
  8
M0
  6
DASHDOT
100
AcDbLine
 10
358.213403
 20
1187.260747
 11
394.213404
 21
1187.260747
  0
LINE
  5
EB
100
AcDbEntity
  8
M0
  6
DASHDOT
100
AcDbLine
 10
376.213404
 20
1169.260747
 11
376.213404
 21
1205.260748
  0
LINE
  5
EC
100
AcDbEntity
  8
M0
  6
DASHDOT
100
AcDbLine
 10
359.713202
 20
1225.260747
 11
392.713203
 21
1225.260747
  0
LINE
  5
ED
100
AcDbEntity
  8
M0
  6
DASHDOT
100
AcDbLine
 10
376.213202
 20
1208.760747
 11
376.213202
 21
1241.760748
  0
LINE
  5
EE
100
AcDbEntity
  8
M0
  6
DASHDOT
100
AcDbLine
 10
289.713202
 20
1225.260747
 11
322.713203
 21
1225.260747
  0
LINE
  5
EF
100
AcDbEntity
  8
M0
  6
DASHDOT
100
AcDbLine
 10
219.713202
 20
1225.260747
 11
252.713203
 21
1225.260747
  0
LINE
  5
F0
100
AcDbEntity
  8
M0
  6
DASHDOT
100
AcDbLine
 10
236.213202
 20
1208.760747
 11
236.213202
 21
1241.760748
  0
LINE
  5
F1
100
AcDbEntity
  8
M0
100
AcDbLine
 10
734.710112
 20
1174.258713
 11
734.710112
 21
1200.258713
  0
LINE
  5
F2
100
AcDbEntity
  8
M0
100
AcDbLine
 10
746.710112
 20
1200.258713
 11
746.710112
 21
1174.258713
  0
LINE
  5
F3
100
AcDbEntity
  8
M0
100
AcDbLine
 10
734.709868
 20
1240.261503
 11
734.709868
 21
1145.258713
  0
LINE
  5
F4
100
AcDbEntity
  8
M0
100
AcDbLine
 10
746.709625
 20
1151.258713
 11
746.709868
 21
1240.261567
  0
LINE
  5
F5
100
AcDbEntity
  8
M0
100
AcDbLine
 10
734.709868
 20
1240.261503
 11
746.709868
 21
1240.261567
  0
LINE
  5
F6
100
AcDbEntity
  8
M0
100
AcDbLine
 10
734.709868
 20
1175.260678
 11
746.709691
 21
1175.260678
  0
LINE
  5
F7
100
AcDbEntity
  8
M0
100
AcDbLine
 10
734.710112
 20
926.262713
 11
734.710112
 21
900.262713
  0
LINE
  5
F8
100
AcDbEntity
  8
M0
100
AcDbLine
 10
746.710112
 20
900.262713
 11
746.710112
 21
926.262713
  0
LINE
  5
F9
100
AcDbEntity
  8
M0
100
AcDbLine
 10
734.709868
 20
860.259923
 11
734.709868
 21
955.262713
  0
LINE
  5
FA
100
AcDbEntity
  8
M0
100
AcDbLine
 10
746.70962
 20
951.262713
 11
746.70963
 21
947.772436
  0
LINE
  5
FB
100
AcDbEntity
  8
M0
100
AcDbLine
 10
734.709868
 20
860.259923
 11
746.709868
 21
860.259858
  0
LINE
  5
FC
100
AcDbEntity
  8
M0
100
AcDbLine
 10
746.70967
 20
932.752623
 11
746.709868
 21
860.259858
  0
LINE
  5
FD
100
AcDbEntity
  8
M0
100
AcDbLine
 10
734.709868
 20
925.260747
 11
746.709691
 21
925.260747
  0
LINE
  5
FE
100
AcDbEntity
  8
M0
100
AcDbLine
 10
261.213308
 20
925.261022
 11
261.213308
 21
871.26151
  0
LINE
  5
FF
100
AcDbEntity
  8
M0
100
AcDbLine
 10
351.216329
 20
925.26151
 11
351.216359
 21
871.261999
  0
LINE
  5
100
100
AcDbEntity
  8
M0
100
AcDbLine
 10
261.21455
 20
867.259583
 11
261.214523
 21
961.260773
  0
LINE
  5
101
100
AcDbEntity
  8
M0
100
AcDbLine
 10
396.214757
 20
925.259854
 11
381.212865
 21
940.259934
  0
LINE
  5
102
100
AcDbEntity
  8
M0
100
AcDbLine
 10
381.212821
 20
961.260805
 11
381.212865
 21
940.259934
  0
LINE
  5
103
100
AcDbEntity
  8
M0
100
AcDbLine
 10
396.21467
 20
860.83619
 11
396.214757
 21
925.26077
  0
LINE
  5
104
100
AcDbEntity
  8
M0
100
AcDbLine
 10
351.213037
 20
860.260107
 11
396.21467
 21
860.259865
  0
LINE
  5
105
100
AcDbEntity
  8
M0
100
AcDbLine
 10
351.213028
 20
869.260107
 11
351.21291
 21
925.260798
  0
LINE
  5
106
100
AcDbEntity
  8
M0
100
AcDbLine
 10
351.214686
 20
861.218939
 11
351.214823
 21
957.674658
  0
LINE
  5
107
100
AcDbEntity
  8
M0
100
AcDbLine
 10
351.214751
 20
867.259115
 11
351.214901
 21
961.26029
  0
LINE
  5
108
100
AcDbEntity
  8
M0
100
AcDbLine
 10
216.212834
 20
925.260611
 11
231.214744
 21
940.260672
  0
LINE
  5
109
100
AcDbEntity
  8
M0
100
AcDbLine
 10
231.214815
 20
961.261544
 11
231.214744
 21
940.260672
  0
LINE
  5
10A
100
AcDbEntity
  8
M0
100
AcDbLine
 10
216.212839
 20
860.836947
 11
216.212834
 21
925.261528
  0
LINE
  5
10B
100
AcDbEntity
  8
M0
100
AcDbLine
 10
261.214472
 20
860.260808
 11
216.212839
 21
860.260623
  0
LINE
  5
10C
100
AcDbEntity
  8
M0
100
AcDbLine
 10
261.214493
 20
869.260808
 11
261.21468
 21
925.261499
  0
LINE
  5
10D
100
AcDbEntity
  8
M0
100
AcDbLine
 10
261.212824
 20
861.21964
 11
261.212809
 21
957.675359
  0
LINE
  5
10E
100
AcDbEntity
  8
M0
100
AcDbLine
 10
261.212767
 20
867.259816
 11
261.212735
 21
961.260991
  0
LINE
  5
10F
100
AcDbEntity
  8
M0
100
AcDbLine
 10
328.713503
 20
860.26015
 11
328.713901
 21
935.260135
  0
LINE
  5
110
100
AcDbEntity
  8
M0
100
AcDbLine
 10
283.713519
 20
860.260392
 11
328.713519
 21
860.26015
  0
LINE
  5
111
100
AcDbEntity
  8
M0
100
AcDbLine
 10
283.713917
 20
935.260376
 11
283.713519
 21
860.260392
  0
LINE
  5
112
100
AcDbEntity
  8
M0
100
AcDbLine
 10
291.213805
 20
961.26057
 11
291.213941
 21
935.260326
  0
LINE
  5
113
100
AcDbEntity
  8
M0
100
AcDbLine
 10
283.713917
 20
935.260376
 11
291.213941
 21
935.260326
  0
LINE
  5
114
100
AcDbEntity
  8
M0
100
AcDbLine
 10
321.213901
 20
935.26017
 11
321.21404
 21
961.260414
  0
LINE
  5
115
100
AcDbEntity
  8
M0
100
AcDbLine
 10
321.213901
 20
935.26017
 11
328.713672
 21
935.260135
  0
CIRCLE
  5
116
100
AcDbEntity
  8
M0
100
AcDbCircle
 10
376.21506
 20
875.260747
 40
6.5
  0
CIRCLE
  5
117
100
AcDbEntity
  8
M0
100
AcDbCircle
 10
376.214858
 20
913.260747
 40
8.0
  0
CIRCLE
  5
118
100
AcDbEntity
  8
M0
100
AcDbCircle
 10
306.21506
 20
875.260747
 40
6.5
  0
CIRCLE
  5
119
100
AcDbEntity
  8
M0
100
AcDbCircle
 10
306.214858
 20
913.260747
 40
8.0
  0
CIRCLE
  5
11A
100
AcDbEntity
  8
M0
100
AcDbCircle
 10
236.21506
 20
875.260747
 40
6.5
  0
CIRCLE
  5
11B
100
AcDbEntity
  8
M0
100
AcDbCircle
 10
236.214858
 20
913.260747
 40
8.0
  0
LINE
  5
11C
100
AcDbEntity
  8
M0
  6
DASHDOT
100
AcDbLine
 10
358.214857
 20
913.260747
 11
394.214859
 21
913.260747
  0
LINE
  5
11D
100
AcDbEntity
  8
M0
  6
DASHDOT
100
AcDbLine
 10
376.214858
 20
895.260747
 11
376.214858
 21
931.260748
  0
LINE
  5
11E
100
AcDbEntity
  8
M0
  6
DASHDOT
100
AcDbLine
 10
288.214857
 20
913.260747
 11
324.214859
 21
913.260747
  0
LINE
  5
11F
100
AcDbEntity
  8
M0
  6
DASHDOT
100
AcDbLine
 10
218.214857
 20
913.260747
 11
254.214859
 21
913.260747
  0
LINE
  5
120
100
AcDbEntity
  8
M0
  6
DASHDOT
100
AcDbLine
 10
236.214858
 20
895.260747
 11
236.214858
 21
931.260748
  0
LINE
  5
121
100
AcDbEntity
  8
M0
  6
DASHDOT
100
AcDbLine
 10
219.715059
 20
875.260747
 11
252.71506
 21
875.260747
  0
LINE
  5
122
100
AcDbEntity
  8
M0
  6
DASHDOT
100
AcDbLine
 10
236.21506
 20
858.760747
 11
236.21506
 21
891.760748
  0
LINE
  5
123
100
AcDbEntity
  8
M0
  6
DASHDOT
100
AcDbLine
 10
289.715059
 20
875.260747
 11
322.71506
 21
875.260747
  0
LINE
  5
124
100
AcDbEntity
  8
M0
  6
DASHDOT
100
AcDbLine
 10
359.715059
 20
875.260747
 11
392.71506
 21
875.260747
  0
LINE
  5
125
100
AcDbEntity
  8
M0
  6
DASHDOT
100
AcDbLine
 10
376.21506
 20
858.760747
 11
376.21506
 21
891.760748
  0
ARC
  5
126
100
AcDbEntity
  8
M0
 62
     7
100
AcDbCircle
 10
403.714156
 20
1006.760747
 40
1.5
100
AcDbArc
 50
269.999417
 51
360.0
  0
ARC
  5
127
100
AcDbEntity
  8
M0
 62
     7
100
AcDbCircle
 10
403.714156
 20
1003.760747
 40
1.5
100
AcDbArc
 50
90.0
 51
180.0
  0
ARC
  5
128
100
AcDbEntity
  8
M0
 62
     7
100
AcDbCircle
 10
401.214156
 20
1141.260747
 40
4.0
100
AcDbArc
 50
0.0
 51
90.0
  0
LINE
  5
129
100
AcDbEntity
  8
M0
 62
     7
100
AcDbLine
 10
401.214156
 20
1145.260747
 11
396.214156
 21
1145.260747
  0
LINE
  5
12A
100
AcDbEntity
  8
M0
 62
     7
100
AcDbLine
 10
331.594145
 20
1141.420736
 11
331.874144
 21
1142.380742
  0
ARC
  5
12B
100
AcDbEntity
  8
M0
 62
     7
100
AcDbCircle
 10
328.714156
 20
1142.260747
 40
3.0
100
AcDbArc
 50
269.999709
 51
343.738968
  0
LINE
  5
12C
100
AcDbEntity
  8
M0
 62
     7
100
AcDbLine
 10
340.554152
 20
1142.380742
 11
340.834151
 21
1141.420736
  0
ARC
  5
12D
100
AcDbEntity
  8
M0
 62
     7
100
AcDbCircle
 10
343.714156
 20
1142.260747
 40
3.0
100
AcDbArc
 50
196.260391
 51
269.999709
  0
LINE
  5
12E
100
AcDbEntity
  8
M0
 62
     7
100
AcDbLine
 10
392.094145
 20
1141.420736
 11
392.374144
 21
1142.380742
  0
ARC
  5
12F
100
AcDbEntity
  8
M0
 62
     7
100
AcDbCircle
 10
396.214156
 20
1141.260747
 40
4.0
100
AcDbArc
 50
90.0
 51
163.740119
  0
ARC
  5
130
100
AcDbEntity
  8
M0
 62
     7
100
AcDbCircle
 10
389.214156
 20
1142.260747
 40
3.0
100
AcDbArc
 50
269.999709
 51
343.738968
  0
LINE
  5
131
100
AcDbEntity
  8
M0
 62
     7
100
AcDbLine
 10
389.214156
 20
1139.260747
 11
343.714156
 21
1139.260747
  0
ARC
  5
132
100
AcDbEntity
  8
M0
 62
     7
100
AcDbCircle
 10
336.714156
 20
1141.260747
 40
4.0
100
AcDbArc
 50
16.260152
 51
90.0
  0
ARC
  5
133
100
AcDbEntity
  8
M0
 62
     7
100
AcDbCircle
 10
335.714156
 20
1141.260747
 40
4.0
100
AcDbArc
 50
90.0
 51
163.740119
  0
LINE
  5
134
100
AcDbEntity
  8
M0
 62
     7
100
AcDbLine
 10
335.714156
 20
1145.260747
 11
336.714156
 21
1145.260747
  0
ARC
  5
135
100
AcDbEntity
  8
M0
 62
     7
100
AcDbCircle
 10
402.214156
 20
1128.260747
 40
3.0
100
AcDbArc
 50
269.999709
 51
360.0
  0
ARC
  5
136
100
AcDbEntity
  8
M0
 62
     7
100
AcDbCircle
 10
402.214156
 20
1112.260747
 40
3.0
100
AcDbArc
 50
0.0
 51
90.0
  0
LINE
  5
137
100
AcDbEntity
  8
M0
 62
     7
100
AcDbLine
 10
402.214156
 20
1125.260747
 11
397.214156
 21
1125.260747
  0
LINE
  5
138
100
AcDbEntity
  8
M0
 62
     7
100
AcDbLine
 10
402.214156
 20
1115.260747
 11
397.214156
 21
1115.260747
  0
ARC
  5
139
100
AcDbEntity
  8
M0
 62
     7
100
AcDbCircle
 10
397.214156
 20
1120.260747
 40
5.0
100
AcDbArc
 50
90.0
 51
269.999825
  0
ARC
  5
13A
100
AcDbEntity
  8
M0
 62
     7
100
AcDbCircle
 10
211.214156
 20
1141.260747
 40
4.0
100
AcDbArc
 50
89.999781
 51
180.0
  0
LINE
  5
13B
100
AcDbEntity
  8
M0
 62
     7
100
AcDbLine
 10
211.214156
 20
1145.260747
 11
216.214156
 21
1145.260747
  0
LINE
  5
13C
100
AcDbEntity
  8
M0
 62
     7
100
AcDbLine
 10
280.834166
 20
1141.420736
 11
280.554167
 21
1142.380742
  0
ARC
  5
13D
100
AcDbEntity
  8
M0
 62
     7
100
AcDbCircle
 10
283.714156
 20
1142.260747
 40
3.0
100
AcDbArc
 50
196.260753
 51
270.0
  0
LINE
  5
13E
100
AcDbEntity
  8
M0
 62
     7
100
AcDbLine
 10
271.874159
 20
1142.380742
 11
271.594161
 21
1141.420736
  0
ARC
  5
13F
100
AcDbEntity
  8
M0
 62
     7
100
AcDbCircle
 10
268.714156
 20
1142.260747
 40
3.0
100
AcDbArc
 50
270.0
 51
343.739609
  0
LINE
  5
140
100
AcDbEntity
  8
M0
 62
     7
100
AcDbLine
 10
220.334166
 20
1141.420736
 11
220.054167
 21
1142.380742
  0
ARC
  5
141
100
AcDbEntity
  8
M0
 62
     7
100
AcDbCircle
 10
216.214156
 20
1141.260747
 40
4.0
100
AcDbArc
 50
16.259671
 51
89.999781
  0
ARC
  5
142
100
AcDbEntity
  8
M0
 62
     7
100
AcDbCircle
 10
223.214156
 20
1142.260747
 40
3.0
100
AcDbArc
 50
196.260753
 51
270.0
  0
LINE
  5
143
100
AcDbEntity
  8
M0
 62
     7
100
AcDbLine
 10
223.214156
 20
1139.260747
 11
268.714156
 21
1139.260747
  0
LINE
  5
144
100
AcDbEntity
  8
M0
 62
     7
100
AcDbLine
 10
328.714156
 20
1139.260747
 11
283.714156
 21
1139.260747
  0
ARC
  5
145
100
AcDbEntity
  8
M0
 62
     7
100
AcDbCircle
 10
275.714156
 20
1141.260747
 40
4.0
100
AcDbArc
 50
89.999781
 51
163.739848
  0
ARC
  5
146
100
AcDbEntity
  8
M0
 62
     7
100
AcDbCircle
 10
276.714156
 20
1141.260747
 40
4.0
100
AcDbArc
 50
16.259671
 51
89.999781
  0
LINE
  5
147
100
AcDbEntity
  8
M0
 62
     7
100
AcDbLine
 10
276.714156
 20
1145.260747
 11
275.714156
 21
1145.260747
  0
ARC
  5
148
100
AcDbEntity
  8
M0
 62
     7
100
AcDbCircle
 10
210.214156
 20
1128.260747
 40
3.0
100
AcDbArc
 50
180.0
 51
270.0
  0
ARC
  5
149
100
AcDbEntity
  8
M0
 62
     7
100
AcDbCircle
 10
210.214156
 20
1112.260747
 40
3.0
100
AcDbArc
 50
89.999709
 51
180.0
  0
LINE
  5
14A
100
AcDbEntity
  8
M0
 62
     7
100
AcDbLine
 10
210.214156
 20
1125.260747
 11
215.214156
 21
1125.260747
  0
LINE
  5
14B
100
AcDbEntity
  8
M0
 62
     7
100
AcDbLine
 10
210.214156
 20
1115.260747
 11
215.214156
 21
1115.260747
  0
ARC
  5
14C
100
AcDbEntity
  8
M0
 62
     7
100
AcDbCircle
 10
215.214156
 20
1120.260747
 40
5.0
100
AcDbArc
 50
-90.0
 51
89.999825
  0
LINE
  5
14D
100
AcDbEntity
  8
M0
 62
     7
100
AcDbLine
 10
331.594145
 20
959.100749
 11
331.874144
 21
958.140749
  0
ARC
  5
14E
100
AcDbEntity
  8
M0
 62
     7
100
AcDbCircle
 10
328.714156
 20
958.260749
 40
3.0
100
AcDbArc
 50
16.260368
 51
90.0
  0
LINE
  5
14F
100
AcDbEntity
  8
M0
 62
     7
100
AcDbLine
 10
340.554152
 20
958.140749
 11
340.834151
 21
959.100749
  0
ARC
  5
150
100
AcDbEntity
  8
M0
 62
     7
100
AcDbCircle
 10
343.714156
 20
958.260749
 40
3.0
100
AcDbArc
 50
90.0
 51
163.739819
  0
LINE
  5
151
100
AcDbEntity
  8
M0
 62
     7
100
AcDbLine
 10
328.714156
 20
961.260749
 11
283.714156
 21
961.260749
  0
ARC
  5
152
100
AcDbEntity
  8
M0
 62
     7
100
AcDbCircle
 10
336.714156
 20
959.260749
 40
4.0
100
AcDbArc
 50
269.999781
 51
343.739703
  0
ARC
  5
153
100
AcDbEntity
  8
M0
 62
     7
100
AcDbCircle
 10
398.214156
 20
959.260749
 40
4.0
100
AcDbArc
 50
-90.000219
 51
0.0
  0
LINE
  5
154
100
AcDbEntity
  8
M0
 62
     7
100
AcDbLine
 10
210.214156
 20
959.260749
 11
210.214156
 21
1003.760747
  0
LINE
  5
155
100
AcDbEntity
  8
M0
 62
     7
100
AcDbLine
 10
402.214156
 20
959.260749
 11
402.214156
 21
1003.760747
  0
LINE
  5
156
100
AcDbEntity
  8
M0
 62
     7
100
AcDbLine
 10
398.214156
 20
955.260749
 11
396.314146
 21
955.260749
  0
LINE
  5
157
100
AcDbEntity
  8
M0
 62
     7
100
AcDbLine
 10
392.194151
 20
959.100749
 11
392.47415
 21
958.140749
  0
ARC
  5
158
100
AcDbEntity
  8
M0
 62
     7
100
AcDbCircle
 10
396.314146
 20
959.260749
 40
4.0
100
AcDbArc
 50
196.260039
 51
269.999781
  0
ARC
  5
159
100
AcDbEntity
  8
M0
 62
     7
100
AcDbCircle
 10
389.314146
 20
958.260749
 40
3.0
100
AcDbArc
 50
16.260298
 51
90.0
  0
LINE
  5
15A
100
AcDbEntity
  8
M0
 62
     7
100
AcDbLine
 10
389.314146
 20
961.260749
 11
343.714156
 21
961.260749
  0
ARC
  5
15B
100
AcDbEntity
  8
M0
 62
     7
100
AcDbCircle
 10
335.714156
 20
959.260749
 40
4.0
100
AcDbArc
 50
196.260039
 51
269.999781
  0
LINE
  5
15C
100
AcDbEntity
  8
M0
 62
     7
100
AcDbLine
 10
335.714156
 20
955.260749
 11
336.714156
 21
955.260749
  0
LINE
  5
15D
100
AcDbEntity
  8
M0
 62
     7
100
AcDbLine
 10
280.834166
 20
959.100749
 11
280.554167
 21
958.140749
  0
ARC
  5
15E
100
AcDbEntity
  8
M0
 62
     7
100
AcDbCircle
 10
283.714156
 20
958.260749
 40
3.0
100
AcDbArc
 50
89.999709
 51
163.739527
  0
LINE
  5
15F
100
AcDbEntity
  8
M0
 62
     7
100
AcDbLine
 10
271.874159
 20
958.140749
 11
271.594161
 21
959.100749
  0
ARC
  5
160
100
AcDbEntity
  8
M0
 62
     7
100
AcDbCircle
 10
268.714156
 20
958.260749
 40
3.0
100
AcDbArc
 50
16.260146
 51
89.999709
  0
ARC
  5
161
100
AcDbEntity
  8
M0
 62
     7
100
AcDbCircle
 10
275.714156
 20
959.260749
 40
4.0
100
AcDbArc
 50
196.260192
 51
270.0
  0
ARC
  5
162
100
AcDbEntity
  8
M0
 62
     7
100
AcDbCircle
 10
276.714156
 20
959.260749
 40
4.0
100
AcDbArc
 50
270.0
 51
343.73987
  0
LINE
  5
163
100
AcDbEntity
  8
M0
 62
     7
100
AcDbLine
 10
276.714156
 20
955.260749
 11
275.714156
 21
955.260749
  0
ARC
  5
164
100
AcDbEntity
  8
M0
 62
     7
100
AcDbCircle
 10
214.214156
 20
959.260749
 40
4.0
100
AcDbArc
 50
179.999959
 51
270.0
  0
ARC
  5
165
100
AcDbEntity
  8
M0
 62
     7
100
AcDbCircle
 10
213.214156
 20
972.260748
 40
3.0
100
AcDbArc
 50
89.999709
 51
179.999982
  0
ARC
  5
166
100
AcDbEntity
  8
M0
 62
     7
100
AcDbCircle
 10
213.214156
 20
988.260747
 40
3.0
100
AcDbArc
 50
180.0
 51
270.0
  0
LINE
  5
167
100
AcDbEntity
  8
M0
 62
     7
100
AcDbLine
 10
213.214156
 20
975.260748
 11
218.214156
 21
975.260748
  0
LINE
  5
168
100
AcDbEntity
  8
M0
 62
     7
100
AcDbLine
 10
213.214156
 20
985.260747
 11
218.214156
 21
985.260747
  0
ARC
  5
169
100
AcDbEntity
  8
M0
 62
     7
100
AcDbCircle
 10
218.214156
 20
980.260747
 40
5.0
100
AcDbArc
 50
270.0
 51
449.999825
  0
ARC
  5
16A
100
AcDbEntity
  8
M0
 62
     7
100
AcDbCircle
 10
399.214156
 20
972.260748
 40
3.0
100
AcDbArc
 50
0.0
 51
90.0
  0
ARC
  5
16B
100
AcDbEntity
  8
M0
 62
     7
100
AcDbCircle
 10
399.214156
 20
988.260747
 40
3.0
100
AcDbArc
 50
-90.000291
 51
0.0
  0
LINE
  5
16C
100
AcDbEntity
  8
M0
 62
     7
100
AcDbLine
 10
399.214156
 20
975.260748
 11
394.214156
 21
975.260748
  0
LINE
  5
16D
100
AcDbEntity
  8
M0
 62
     7
100
AcDbLine
 10
399.214156
 20
985.260747
 11
394.214156
 21
985.260747
  0
ARC
  5
16E
100
AcDbEntity
  8
M0
 62
     7
100
AcDbCircle
 10
394.214156
 20
980.260747
 40
5.0
100
AcDbArc
 50
90.0
 51
269.999825
  0
LINE
  5
16F
100
AcDbEntity
  8
M0
 62
     7
100
AcDbLine
 10
207.214156
 20
1006.760747
 11
207.214156
 21
1141.260747
  0
ARC
  5
170
100
AcDbEntity
  8
M0
 62
     7
100
AcDbCircle
 10
208.714156
 20
1006.760747
 40
1.5
100
AcDbArc
 50
180.0
 51
270.0
  0
ARC
  5
171
100
AcDbEntity
  8
M0
 62
     7
100
AcDbCircle
 10
208.714156
 20
1003.760747
 40
1.5
100
AcDbArc
 50
0.0
 51
89.999417
  0
LINE
  5
172
100
AcDbEntity
  8
M0
 62
     7
100
AcDbLine
 10
405.214156
 20
1006.760747
 11
405.214156
 21
1141.260747
  0
LINE
  5
173
100
AcDbEntity
  8
M0
 62
     7
100
AcDbLine
 10
223.114165
 20
961.260749
 11
268.714156
 21
961.260749
  0
ARC
  5
174
100
AcDbEntity
  8
M0
 62
     7
100
AcDbCircle
 10
223.114165
 20
958.260749
 40
3.0
100
AcDbArc
 50
89.999709
 51
163.739632
  0
ARC
  5
175
100
AcDbEntity
  8
M0
 62
     7
100
AcDbCircle
 10
216.114165
 20
959.260749
 40
4.0
100
AcDbArc
 50
270.0
 51
343.73987
  0
LINE
  5
176
100
AcDbEntity
  8
M0
 62
     7
100
AcDbLine
 10
220.23416
 20
959.100749
 11
219.954161
 21
958.140749
  0
LINE
  5
177
100
AcDbEntity
  8
M0
 62
     7
100
AcDbLine
 10
214.214156
 20
955.260749
 11
216.114165
 21
955.260749
  0
LINE
  5
178
100
AcDbEntity
  8
M0
  6
DASHDOT
 62
     7
100
AcDbLine
 10
289.914168
 20
1061.760747
 11
322.514143
 21
1061.760747
  0
ARC
  5
179
100
AcDbEntity
  8
M0
 62
     7
100
AcDbCircle
 10
308.214156
 20
1077.110738
 40
1.0
100
AcDbArc
 50
0.0
 51
90.0
  0
LINE
  5
17A
100
AcDbEntity
  8
M0
 62
     7
100
AcDbLine
 10
304.214156
 20
1078.110738
 11
308.214156
 21
1078.110738
  0
ARC
  5
17B
100
AcDbEntity
  8
M0
 62
     7
100
AcDbCircle
 10
304.214156
 20
1077.110738
 40
1.0
100
AcDbArc
 50
90.0
 51
180.0
  0
LINE
  5
17C
100
AcDbEntity
  8
M0
 62
     7
100
AcDbLine
 10
303.214156
 20
1077.110738
 11
303.214156
 21
1074.110738
  0
LINE
  5
17D
100
AcDbEntity
  8
M0
 62
     7
100
AcDbLine
 10
309.214156
 20
1077.110738
 11
309.214156
 21
1074.110738
  0
LINE
  5
17E
100
AcDbEntity
  8
M0
 62
     7
100
AcDbLine
 10
299.714156
 20
1075.110738
 11
312.714156
 21
1075.110738
  0
LINE
  5
17F
100
AcDbEntity
  8
M0
 62
     7
100
AcDbLine
 10
299.714156
 20
1074.110738
 11
303.214156
 21
1074.110738
  0
LINE
  5
180
100
AcDbEntity
  8
M0
 62
     7
100
AcDbLine
 10
309.214156
 20
1074.110738
 11
312.714156
 21
1074.110738
  0
LINE
  5
181
100
AcDbEntity
  8
M0
 62
     7
100
AcDbLine
 10
299.714156
 20
1075.110738
 11
299.714156
 21
1071.910741
  0
LINE
  5
182
100
AcDbEntity
  8
M0
 62
     7
100
AcDbLine
 10
312.714156
 20
1075.110738
 11
312.714156
 21
1071.910741
  0
LINE
  5
183
100
AcDbEntity
  8
M0
 62
     7
100
AcDbLine
 10
314.514155
 20
1071.910741
 11
312.714156
 21
1071.910741
  0
ARC
  5
184
100
AcDbEntity
  8
M0
 62
     7
100
AcDbCircle
 10
314.514155
 20
1068.910741
 40
3.0
100
AcDbArc
 50
0.0
 51
90.0
  0
LINE
  5
185
100
AcDbEntity
  8
M0
 62
     7
100
AcDbLine
 10
299.714156
 20
1071.910741
 11
297.914156
 21
1071.910741
  0
ARC
  5
186
100
AcDbEntity
  8
M0
 62
     7
100
AcDbCircle
 10
297.914156
 20
1068.910741
 40
3.0
100
AcDbArc
 50
90.0
 51
180.0
  0
LINE
  5
187
100
AcDbEntity
  8
M0
 62
     7
100
AcDbLine
 10
315.214156
 20
1065.760747
 11
315.214156
 21
1057.760747
  0
LINE
  5
188
100
AcDbEntity
  8
M0
 62
     7
100
AcDbLine
 10
297.214156
 20
1065.760747
 11
297.214156
 21
1057.760747
  0
LINE
  5
189
100
AcDbEntity
  8
M0
 62
     7
100
AcDbLine
 10
315.214156
 20
1065.760747
 11
316.514155
 21
1065.760747
  0
ARC
  5
18A
100
AcDbEntity
  8
M0
 62
     7
100
AcDbCircle
 10
316.514155
 20
1066.760747
 40
1.0
100
AcDbArc
 50
270.0
 51
360.0
  0
LINE
  5
18B
100
AcDbEntity
  8
M0
 62
     7
100
AcDbLine
 10
295.914156
 20
1065.760747
 11
297.214156
 21
1065.760747
  0
ARC
  5
18C
100
AcDbEntity
  8
M0
 62
     7
100
AcDbCircle
 10
295.914156
 20
1066.760747
 40
1.0
100
AcDbArc
 50
180.0
 51
270.0
  0
LINE
  5
18D
100
AcDbEntity
  8
M0
 62
     7
100
AcDbLine
 10
295.914156
 20
1057.760747
 11
297.214156
 21
1057.760747
  0
ARC
  5
18E
100
AcDbEntity
  8
M0
 62
     7
100
AcDbCircle
 10
295.914156
 20
1056.760747
 40
1.0
100
AcDbArc
 50
90.0
 51
180.0
  0
LINE
  5
18F
100
AcDbEntity
  8
M0
 62
     7
100
AcDbLine
 10
315.214156
 20
1057.760747
 11
316.514155
 21
1057.760747
  0
ARC
  5
190
100
AcDbEntity
  8
M0
 62
     7
100
AcDbCircle
 10
316.514155
 20
1056.760747
 40
1.0
100
AcDbArc
 50
0.0
 51
90.0
  0
LINE
  5
191
100
AcDbEntity
  8
M0
 62
     7
100
AcDbLine
 10
294.914156
 20
1045.610738
 11
317.514155
 21
1045.610738
  0
LINE
  5
192
100
AcDbEntity
  8
M0
 62
     7
100
AcDbLine
 10
294.914156
 20
1068.910741
 11
294.914156
 21
1045.610738
  0
LINE
  5
193
100
AcDbEntity
  8
M0
 62
     7
100
AcDbLine
 10
317.514155
 20
1045.610738
 11
317.514155
 21
1068.910741
  0
LINE
  5
194
100
AcDbEntity
  8
M0
 62
     6
100
AcDbLine
 10
420.114153
 20
1095.260745
 11
405.214153
 21
1095.26075
  0
LINE
  5
195
100
AcDbEntity
  8
M0
 62
     6
100
AcDbLine
 10
405.214153
 20
1095.26075
 11
405.214125
 21
1005.26075
  0
LINE
  5
196
100
AcDbEntity
  8
M0
 62
     6
100
AcDbLine
 10
405.214125
 20
1005.26075
 11
420.114124
 21
1005.260745
  0
LINE
  5
197
100
AcDbEntity
  8
M0
 62
     6
100
AcDbLine
 10
420.114124
 20
1005.260745
 11
420.114153
 21
1095.260745
  0
LINE
  5
198
100
AcDbEntity
  8
M0
 62
     6
100
AcDbLine
 10
407.164133
 20
1032.260749
 11
407.164133
 21
1033.760749
  0
LINE
  5
199
100
AcDbEntity
  8
M0
 62
     6
100
AcDbLine
 10
418.164133
 20
1032.260746
 11
418.164133
 21
1033.760746
  0
LINE
  5
19A
100
AcDbEntity
  8
M0
 62
     6
100
AcDbLine
 10
407.164133
 20
1033.760749
 11
418.164133
 21
1033.760746
  0
LINE
  5
19B
100
AcDbEntity
  8
M0
 62
     6
100
AcDbLine
 10
408.164137
 20
1043.86074
 11
408.164133
 21
1033.760749
  0
LINE
  5
19C
100
AcDbEntity
  8
M0
 62
     6
100
AcDbLine
 10
408.164133
 20
1032.260749
 11
408.164125
 21
1005.260749
  0
LINE
  5
19D
100
AcDbEntity
  8
M0
 62
     6
100
AcDbLine
 10
417.164137
 20
1043.860737
 11
417.164133
 21
1033.760746
  0
LINE
  5
19E
100
AcDbEntity
  8
M0
 62
     6
100
AcDbLine
 10
417.164133
 20
1032.260746
 11
417.164125
 21
1005.260746
  0
LINE
  5
19F
100
AcDbEntity
  8
M0
 62
     6
100
AcDbLine
 10
418.164133
 20
1032.260746
 11
417.164133
 21
1032.260746
  0
LINE
  5
1A0
100
AcDbEntity
  8
M0
 62
     6
100
AcDbLine
 10
408.164133
 20
1032.260749
 11
407.164133
 21
1032.260749
  0
LINE
  5
1A1
100
AcDbEntity
  8
M0
 62
     6
100
AcDbLine
 10
417.164137
 20
1043.860737
 11
408.164137
 21
1043.86074
  0
LINE
  5
1A2
100
AcDbEntity
  8
M0
 62
     6
100
AcDbLine
 10
408.164126
 20
1011.260749
 11
417.164126
 21
1011.260746
  0
LINE
  5
1A3
100
AcDbEntity
  8
M0
 62
     6
100
AcDbLine
 10
405.214131
 20
1025.26075
 11
408.164131
 21
1025.260749
  0
LINE
  5
1A4
100
AcDbEntity
  8
M0
 62
     6
100
AcDbLine
 10
417.164131
 20
1025.260746
 11
420.114131
 21
1025.260745
  0
LINE
  5
1A5
100
AcDbEntity
  8
M0
 62
     6
100
AcDbLine
 10
418.164144
 20
1068.260746
 11
418.164144
 21
1066.760746
  0
LINE
  5
1A6
100
AcDbEntity
  8
M0
 62
     6
100
AcDbLine
 10
407.164144
 20
1066.760749
 11
418.164144
 21
1066.760746
  0
LINE
  5
1A7
100
AcDbEntity
  8
M0
 62
     6
100
AcDbLine
 10
417.164141
 20
1056.66074
 11
417.164144
 21
1066.760746
  0
LINE
  5
1A8
100
AcDbEntity
  8
M0
 62
     6
100
AcDbLine
 10
417.164144
 20
1068.260746
 11
417.164153
 21
1095.260746
  0
LINE
  5
1A9
100
AcDbEntity
  8
M0
 62
     6
100
AcDbLine
 10
418.164144
 20
1068.260746
 11
417.164144
 21
1068.260746
  0
LINE
  5
1AA
100
AcDbEntity
  8
M0
 62
     6
100
AcDbLine
 10
417.164141
 20
1056.66074
 11
408.164141
 21
1056.660743
  0
LINE
  5
1AB
100
AcDbEntity
  8
M0
 62
     6
100
AcDbLine
 10
408.164151
 20
1089.260749
 11
417.164151
 21
1089.260746
  0
LINE
  5
1AC
100
AcDbEntity
  8
M0
 62
     6
100
AcDbLine
 10
417.164147
 20
1075.260746
 11
420.114146
 21
1075.260745
  0
LINE
  5
1AD
100
AcDbEntity
  8
M0
 62
     6
100
AcDbLine
 10
408.164141
 20
1056.660743
 11
408.164144
 21
1066.760749
  0
LINE
  5
1AE
100
AcDbEntity
  8
M0
 62
     6
100
AcDbLine
 10
407.164144
 20
1068.260749
 11
407.164144
 21
1066.760749
  0
LINE
  5
1AF
100
AcDbEntity
  8
M0
 62
     6
100
AcDbLine
 10
408.164144
 20
1068.260749
 11
407.164144
 21
1068.260749
  0
LINE
  5
1B0
100
AcDbEntity
  8
M0
 62
     6
100
AcDbLine
 10
408.164144
 20
1068.260749
 11
408.164153
 21
1095.260749
  0
LINE
  5
1B1
100
AcDbEntity
  8
M0
 62
     6
100
AcDbLine
 10
405.214147
 20
1075.26075
 11
408.164147
 21
1075.260749
  0
CIRCLE
  5
1B2
100
AcDbEntity
  8
M0
 62
     6
100
AcDbCircle
 10
412.664139
 20
1050.260747
 40
2.799999
  0
LINE
  5
1B3
100
AcDbEntity
  8
M0
 62
     6
100
AcDbLine
 10
192.314128
 20
1095.260745
 11
207.214128
 21
1095.26075
  0
LINE
  5
1B4
100
AcDbEntity
  8
M0
 62
     6
100
AcDbLine
 10
207.214128
 20
1095.26075
 11
207.214156
 21
1005.26075
  0
LINE
  5
1B5
100
AcDbEntity
  8
M0
 62
     6
100
AcDbLine
 10
207.214156
 20
1005.26075
 11
192.314156
 21
1005.260745
  0
LINE
  5
1B6
100
AcDbEntity
  8
M0
 62
     6
100
AcDbLine
 10
192.314156
 20
1005.260745
 11
192.314128
 21
1095.260745
  0
LINE
  5
1B7
100
AcDbEntity
  8
M0
 62
     6
100
AcDbLine
 10
205.264148
 20
1032.260749
 11
205.264147
 21
1033.760749
  0
LINE
  5
1B8
100
AcDbEntity
  8
M0
 62
     6
100
AcDbLine
 10
194.264148
 20
1032.260746
 11
194.264147
 21
1033.760746
  0
LINE
  5
1B9
100
AcDbEntity
  8
M0
 62
     6
100
AcDbLine
 10
205.264147
 20
1033.760749
 11
194.264147
 21
1033.760746
  0
LINE
  5
1BA
100
AcDbEntity
  8
M0
 62
     6
100
AcDbLine
 10
204.264144
 20
1043.86074
 11
204.264147
 21
1033.760749
  0
LINE
  5
1BB
100
AcDbEntity
  8
M0
 62
     6
100
AcDbLine
 10
204.264148
 20
1032.260749
 11
204.264156
 21
1005.260749
  0
LINE
  5
1BC
100
AcDbEntity
  8
M0
 62
     6
100
AcDbLine
 10
195.264144
 20
1043.860737
 11
195.264147
 21
1033.760746
  0
LINE
  5
1BD
100
AcDbEntity
  8
M0
 62
     6
100
AcDbLine
 10
195.264148
 20
1032.260746
 11
195.264156
 21
1005.260746
  0
LINE
  5
1BE
100
AcDbEntity
  8
M0
 62
     6
100
AcDbLine
 10
194.264148
 20
1032.260746
 11
195.264148
 21
1032.260746
  0
LINE
  5
1BF
100
AcDbEntity
  8
M0
 62
     6
100
AcDbLine
 10
204.264148
 20
1032.260749
 11
205.264148
 21
1032.260749
  0
LINE
  5
1C0
100
AcDbEntity
  8
M0
 62
     6
100
AcDbLine
 10
195.264144
 20
1043.860737
 11
204.264144
 21
1043.86074
  0
LINE
  5
1C1
100
AcDbEntity
  8
M0
 62
     6
100
AcDbLine
 10
204.264154
 20
1011.260749
 11
195.264154
 21
1011.260746
  0
LINE
  5
1C2
100
AcDbEntity
  8
M0
 62
     6
100
AcDbLine
 10
207.21415
 20
1025.26075
 11
204.26415
 21
1025.260749
  0
LINE
  5
1C3
100
AcDbEntity
  8
M0
 62
     6
100
AcDbLine
 10
195.26415
 20
1025.260746
 11
192.31415
 21
1025.260745
  0
LINE
  5
1C4
100
AcDbEntity
  8
M0
 62
     6
100
AcDbLine
 10
194.264136
 20
1068.260746
 11
194.264137
 21
1066.760746
  0
LINE
  5
1C5
100
AcDbEntity
  8
M0
 62
     6
100
AcDbLine
 10
205.264137
 20
1066.760749
 11
194.264137
 21
1066.760746
  0
LINE
  5
1C6
100
AcDbEntity
  8
M0
 62
     6
100
AcDbLine
 10
195.26414
 20
1056.66074
 11
195.264137
 21
1066.760746
  0
LINE
  5
1C7
100
AcDbEntity
  8
M0
 62
     6
100
AcDbLine
 10
195.264136
 20
1068.260746
 11
195.264128
 21
1095.260746
  0
LINE
  5
1C8
100
AcDbEntity
  8
M0
 62
     6
100
AcDbLine
 10
194.264136
 20
1068.260746
 11
195.264136
 21
1068.260746
  0
LINE
  5
1C9
100
AcDbEntity
  8
M0
 62
     6
100
AcDbLine
 10
195.26414
 20
1056.66074
 11
204.26414
 21
1056.660743
  0
LINE
  5
1CA
100
AcDbEntity
  8
M0
 62
     6
100
AcDbLine
 10
204.26413
 20
1089.260749
 11
195.26413
 21
1089.260746
  0
LINE
  5
1CB
100
AcDbEntity
  8
M0
 62
     6
100
AcDbLine
 10
195.264134
 20
1075.260746
 11
192.314134
 21
1075.260745
  0
LINE
  5
1CC
100
AcDbEntity
  8
M0
 62
     6
100
AcDbLine
 10
204.26414
 20
1056.660743
 11
204.264137
 21
1066.760749
  0
LINE
  5
1CD
100
AcDbEntity
  8
M0
 62
     6
100
AcDbLine
 10
205.264136
 20
1068.260749
 11
205.264137
 21
1066.760749
  0
LINE
  5
1CE
100
AcDbEntity
  8
M0
 62
     6
100
AcDbLine
 10
204.264136
 20
1068.260749
 11
205.264136
 21
1068.260749
  0
LINE
  5
1CF
100
AcDbEntity
  8
M0
 62
     6
100
AcDbLine
 10
204.264136
 20
1068.260749
 11
204.264128
 21
1095.260749
  0
LINE
  5
1D0
100
AcDbEntity
  8
M0
 62
     6
100
AcDbLine
 10
207.214134
 20
1075.26075
 11
204.264134
 21
1075.260749
  0
CIRCLE
  5
1D1
100
AcDbEntity
  8
M0
 62
     6
100
AcDbCircle
 10
199.764142
 20
1050.260747
 40
2.799999
  0
LINE
  5
1D2
100
AcDbEntity
  8
M0
 62
     4
100
AcDbLine
 10
448.214061
 20
1093.260749
 11
436.214061
 21
1093.260746
  0
LINE
  5
1D3
100
AcDbEntity
  8
M0
  6
DASHDOT
 62
     4
100
AcDbLine
 10
458.285459
 20
1050.260753
 11
427.05187
 21
1050.260743
  0
LINE
  5
1D4
100
AcDbEntity
  8
M0
 62
     4
100
AcDbLine
 10
448.214088
 20
1007.260749
 11
448.214061
 21
1093.260749
  0
LINE
  5
1D5
100
AcDbEntity
  8
M0
 62
     4
100
AcDbLine
 10
448.214088
 20
1007.260749
 11
436.214088
 21
1007.260746
  0
LINE
  5
1D6
100
AcDbEntity
  8
M0
  6
DASHDOT
 62
     4
100
AcDbLine
 10
458.285459
 20
1050.260753
 11
427.05187
 21
1050.260743
  0
LINE
  5
1D7
100
AcDbEntity
  8
M0
 62
     4
100
AcDbLine
 10
436.214088
 20
1007.260746
 11
436.214061
 21
1093.260749
  0
LINE
  5
1D8
100
AcDbEntity
  8
M0
100
AcDbLine
 10
436.164153
 20
925.260763
 11
436.164153
 21
1175.260747
  0
LINE
  5
1D9
100
AcDbEntity
  8
M0
100
AcDbLine
 10
436.164153
 20
1175.260747
 11
396.214758
 21
1175.260747
  0
LINE
  5
1DA
100
AcDbEntity
  8
M0
100
AcDbLine
 10
176.264159
 20
1175.260747
 11
176.264159
 21
925.260763
  0
LINE
  5
1DB
100
AcDbEntity
  8
M0
100
AcDbLine
 10
176.264159
 20
925.260763
 11
216.212986
 21
925.260763
  0
LINE
  5
1DC
100
AcDbEntity
  8
M0
  6
DASHDOT
100
AcDbLine
 10
151.264159
 20
1050.260747
 11
462.154143
 21
1050.260747
  0
CIRCLE
  5
1DD
100
AcDbEntity
  8
M0
100
AcDbCircle
 10
221.214006
 20
940.260747
 40
5.75
  0
CIRCLE
  5
1DE
100
AcDbEntity
  8
M0
100
AcDbCircle
 10
221.213867
 20
1162.260747
 40
5.75
  0
CIRCLE
  5
1DF
100
AcDbEntity
  8
M0
100
AcDbCircle
 10
391.213867
 20
1162.260747
 40
5.75
  0
CIRCLE
  5
1E0
100
AcDbEntity
  8
M0
100
AcDbCircle
 10
391.214006
 20
940.260747
 40
5.75
  0
LINE
  5
1E1
100
AcDbEntity
  8
M0
100
AcDbLine
 10
436.164153
 20
1144.760747
 11
432.96414
 21
1144.760747
  0
LINE
  5
1E2
100
AcDbEntity
  8
M0
100
AcDbLine
 10
432.96414
 20
1175.260747
 11
432.96414
 21
1144.760747
  0
LINE
  5
1E3
100
AcDbEntity
  8
M0
100
AcDbLine
 10
176.264159
 20
1144.760747
 11
179.034712
 21
1144.760747
  0
LINE
  5
1E4
100
AcDbEntity
  8
M0
100
AcDbLine
 10
179.464171
 20
1175.260747
 11
179.464171
 21
1144.760747
  0
LINE
  5
1E5
100
AcDbEntity
  8
M0
100
AcDbLine
 10
328.713848
 20
925.260763
 11
351.216329
 21
925.260763
  0
LINE
  5
1E6
100
AcDbEntity
  8
M0
100
AcDbLine
 10
396.214757
 20
925.260763
 11
436.164153
 21
925.260763
  0
ARC
  5
1E7
100
AcDbEntity
  8
M0
100
AcDbCircle
 10
391.214006
 20
940.260747
 40
11.5
100
AcDbArc
 50
277.054554
 51
349.61912
  0
LINE
  5
1E8
100
AcDbEntity
  8
M0
100
AcDbLine
 10
261.213308
 20
925.260763
 11
283.713864
 21
925.260763
  0
ARC
  5
1E9
100
AcDbEntity
  8
M0
100
AcDbCircle
 10
221.214006
 20
940.260747
 40
11.5
100
AcDbArc
 50
29.591783
 51
122.120143
  0
LINE
  5
1EA
100
AcDbEntity
  8
M0
100
AcDbLine
 10
351.214778
 20
1175.260747
 11
328.71385
 21
1175.260747
  0
LINE
  5
1EB
100
AcDbEntity
  8
M0
100
AcDbLine
 10
283.713865
 20
1175.260747
 11
261.213309
 21
1175.260747
  0
LINE
  5
1EC
100
AcDbEntity
  8
M0
100
AcDbLine
 10
217.285597
 20
1175.260747
 11
176.264159
 21
1175.260747
  0
ARC
  5
1ED
100
AcDbEntity
  8
M0
100
AcDbCircle
 10
221.213867
 20
1162.260747
 40
11.5
100
AcDbArc
 50
105.537097
 51
175.011504
  0
ARC
  5
1EE
100
AcDbEntity
  8
M0
100
AcDbCircle
 10
391.213867
 20
1162.260747
 40
11.5
100
AcDbArc
 50
209.591812
 51
290.354715
  0
ARC
  5
1EF
100
AcDbEntity
  8
M0
100
AcDbCircle
 10
391.214006
 20
940.260747
 40
11.5
100
AcDbArc
 50
58.551019
 51
150.4081
  0
ARC
  5
1F0
100
AcDbEntity
  8
M0
100
AcDbCircle
 10
221.214006
 20
940.260747
 40
11.5
100
AcDbArc
 50
190.38088
 51
262.94022
  0
ARC
  5
1F1
100
AcDbEntity
  8
M0
100
AcDbCircle
 10
336.213867
 20
1162.260747
 40
5.75
100
AcDbArc
 50
328.551019
 51
585.916817
  0
ARC
  5
1F2
100
AcDbEntity
  8
M0
100
AcDbCircle
 10
336.213867
 20
1162.260747
 40
11.5
100
AcDbArc
 50
321.497772
 51
490.705667
  0
ARC
  5
1F3
100
AcDbEntity
  8
M0
100
AcDbCircle
 10
221.213867
 20
1162.260747
 40
11.5
100
AcDbArc
 50
249.645357
 51
330.408018
  0
ARC
  5
1F4
100
AcDbEntity
  8
M0
100
AcDbCircle
 10
391.213867
 20
1162.260747
 40
11.5
100
AcDbArc
 50
4.989102
 51
74.466512
  0
LINE
  5
1F5
100
AcDbEntity
  8
M0
  6
DASHDOT
100
AcDbLine
 10
306.215192
 20
850.260271
 11
306.21307
 21
1250.261224
  0
ARC
  5
1F6
100
AcDbEntity
  8
M0
100
AcDbCircle
 10
336.214006
 20
940.260747
 40
11.5
100
AcDbArc
 50
248.502484
 51
291.497516
  0
ARC
  5
1F7
100
AcDbEntity
  8
M0
100
AcDbCircle
 10
336.213867
 20
1162.260747
 40
11.5
100
AcDbArc
 50
164.875258
 51
249.644094
  0
LINE
  5
1F8
100
AcDbEntity
  8
M0
100
AcDbLine
 10
873.709851
 20
1138.260713
 11
873.70986
 21
1166.260713
  0
ARC
  5
1F9
100
AcDbEntity
  8
M0
 62
     2
100
AcDbCircle
 10
181.214156
 20
1140.260747
 40
5.0
100
AcDbArc
 50
89.999825
 51
180.0
  0
LINE
  5
1FA
100
AcDbEntity
  8
M0
 62
     2
100
AcDbLine
 10
216.214156
 20
1145.260747
 11
181.214156
 21
1145.260747
  0
ARC
  5
1FB
100
AcDbEntity
  8
M0
 62
     2
100
AcDbCircle
 10
216.214156
 20
1141.260747
 40
4.0
100
AcDbArc
 50
0.0
 51
89.999781
  0
LINE
  5
1FC
100
AcDbEntity
  8
M0
 62
     2
100
AcDbLine
 10
176.214156
 20
1120.260747
 11
207.214156
 21
1120.260747
  0
LINE
  5
1FD
100
AcDbEntity
  8
M0
 62
     2
100
AcDbLine
 10
176.214156
 20
1140.260747
 11
176.214156
 21
930.260763
  0
ARC
  5
1FE
100
AcDbEntity
  8
M0
 62
     2
100
AcDbCircle
 10
181.214156
 20
930.260763
 40
5.0
100
AcDbArc
 50
179.999825
 51
270.0
  0
ARC
  5
1FF
100
AcDbEntity
  8
M0
 62
     2
100
AcDbCircle
 10
216.214156
 20
959.260748
 40
4.0
100
AcDbArc
 50
270.0
 51
360.0
  0
ARC
  5
200
100
AcDbEntity
  8
M0
 62
     2
100
AcDbCircle
 10
214.214156
 20
959.260748
 40
4.0
100
AcDbArc
 50
179.999973
 51
270.0
  0
LINE
  5
201
100
AcDbEntity
  8
M0
 62
     2
100
AcDbLine
 10
216.214156
 20
955.260748
 11
210.014156
 21
955.260748
  0
LINE
  5
202
100
AcDbEntity
  8
M0
 62
     2
100
AcDbLine
 10
193.214156
 20
955.260748
 11
190.014156
 21
955.260748
  0
LINE
  5
203
100
AcDbEntity
  8
M0
 62
     2
100
AcDbLine
 10
181.214156
 20
925.260763
 11
200.951567
 21
925.260763
  0
ARC
  5
204
100
AcDbEntity
  8
M0
 62
     2
100
AcDbCircle
 10
200.951567
 20
930.260763
 40
5.0
100
AcDbArc
 50
270.0
 51
336.250608
  0
LINE
  5
205
100
AcDbEntity
  8
M0
 62
     2
100
AcDbLine
 10
215.214156
 20
950.260748
 11
215.214156
 21
955.260748
  0
LINE
  5
206
100
AcDbEntity
  8
M0
 62
     2
100
AcDbLine
 10
176.214156
 20
1005.260747
 11
208.714156
 21
1005.260747
  0
LINE
  5
207
100
AcDbEntity
  8
M0
 62
     2
100
AcDbLine
 10
193.214156
 20
1005.260747
 11
193.214156
 21
955.260748
  0
LINE
  5
208
100
AcDbEntity
  8
M0
 62
     2
100
AcDbLine
 10
198.214156
 20
955.260748
 11
198.214156
 21
1005.260747
  0
LINE
  5
209
100
AcDbEntity
  8
M0
 62
     2
100
AcDbLine
 10
193.214156
 20
968.260747
 11
195.714156
 21
971.260747
  0
LINE
  5
20A
100
AcDbEntity
  8
M0
 62
     2
100
AcDbLine
 10
193.214156
 20
955.260748
 11
195.714156
 21
958.260748
  0
LINE
  5
20B
100
AcDbEntity
  8
M0
 62
     2
100
AcDbLine
 10
198.214156
 20
968.260747
 11
195.714156
 21
971.260747
  0
LINE
  5
20C
100
AcDbEntity
  8
M0
 62
     2
100
AcDbLine
 10
198.214156
 20
955.260748
 11
195.714156
 21
958.260748
  0
LINE
  5
20D
100
AcDbEntity
  8
M0
 62
     2
100
AcDbLine
 10
176.214156
 20
968.260747
 11
181.414156
 21
968.260747
  0
LINE
  5
20E
100
AcDbEntity
  8
M0
 62
     2
100
AcDbLine
 10
198.214156
 20
968.260747
 11
201.414156
 21
968.260747
  0
LINE
  5
20F
100
AcDbEntity
  8
M0
 62
     2
100
AcDbLine
 10
195.714156
 20
1005.260747
 11
195.714156
 21
958.260748
  0
LINE
  5
210
100
AcDbEntity
  8
M0
 62
     2
100
AcDbLine
 10
181.214156
 20
968.260747
 11
181.214156
 21
995.760747
  0
LINE
  5
211
100
AcDbEntity
  8
M0
 62
     2
100
AcDbLine
 10
190.214156
 20
968.260747
 11
190.214156
 21
995.760747
  0
LINE
  5
212
100
AcDbEntity
  8
M0
 62
     2
100
AcDbLine
 10
201.214156
 20
995.760747
 11
201.214156
 21
968.260747
  0
LINE
  5
213
100
AcDbEntity
  8
M0
 62
     2
100
AcDbLine
 10
181.214156
 20
998.260747
 11
181.214156
 21
1005.260747
  0
ARC
  5
214
100
AcDbEntity
  8
M0
 62
     2
100
AcDbCircle
 10
183.214156
 20
998.260747
 40
2.0
100
AcDbArc
 50
180.0
 51
270.0
  0
LINE
  5
215
100
AcDbEntity
  8
M0
 62
     2
100
AcDbLine
 10
190.214156
 20
998.260747
 11
190.214156
 21
1005.260747
  0
LINE
  5
216
100
AcDbEntity
  8
M0
 62
     2
100
AcDbLine
 10
201.214156
 20
1005.260747
 11
201.214156
 21
998.260747
  0
ARC
  5
217
100
AcDbEntity
  8
M0
 62
     2
100
AcDbCircle
 10
203.214156
 20
998.260747
 40
2.0
100
AcDbArc
 50
180.0
 51
270.0
  0
LINE
  5
218
100
AcDbEntity
  8
M0
 62
     2
100
AcDbLine
 10
205.528136
 20
928.24706
 11
215.214156
 21
950.260748
  0
LINE
  5
219
100
AcDbEntity
  8
M0
 62
     2
100
AcDbLine
 10
183.214156
 20
996.260747
 11
188.214156
 21
996.260747
  0
ARC
  5
21A
100
AcDbEntity
  8
M0
 62
     2
100
AcDbCircle
 10
188.214156
 20
998.260747
 40
2.0
100
AcDbArc
 50
270.0
 51
360.0
  0
LINE
  5
21B
100
AcDbEntity
  8
M0
 62
     2
100
AcDbLine
 10
203.214156
 20
996.260747
 11
210.214156
 21
996.260747
  0
LINE
  5
21C
100
AcDbEntity
  8
M0
 62
     2
100
AcDbLine
 10
201.214156
 20
995.760747
 11
210.214156
 21
995.760747
  0
LINE
  5
21D
100
AcDbEntity
  8
M0
 62
     2
100
AcDbLine
 10
181.214156
 20
995.760747
 11
190.214156
 21
995.760747
  0
ARC
  5
21E
100
AcDbEntity
  8
M0
 62
     2
100
AcDbCircle
 10
431.214156
 20
1140.260747
 40
5.0
100
AcDbArc
 50
0.0
 51
90.0
  0
LINE
  5
21F
100
AcDbEntity
  8
M0
 62
     2
100
AcDbLine
 10
396.214156
 20
1145.260747
 11
431.214156
 21
1145.260747
  0
ARC
  5
220
100
AcDbEntity
  8
M0
 62
     2
100
AcDbCircle
 10
396.214156
 20
1141.260747
 40
4.0
100
AcDbArc
 50
90.0
 51
180.0
  0
LINE
  5
221
100
AcDbEntity
  8
M0
 62
     2
100
AcDbLine
 10
436.214156
 20
1120.260747
 11
405.214156
 21
1120.260747
  0
LINE
  5
222
100
AcDbEntity
  8
M0
 62
     2
100
AcDbLine
 10
436.214156
 20
1140.260747
 11
436.214156
 21
930.260763
  0
ARC
  5
223
100
AcDbEntity
  8
M0
 62
     2
100
AcDbCircle
 10
431.214156
 20
930.260763
 40
5.0
100
AcDbArc
 50
-90.000175
 51
0.0
  0
ARC
  5
224
100
AcDbEntity
  8
M0
 62
     2
100
AcDbCircle
 10
396.214156
 20
959.260748
 40
4.0
100
AcDbArc
 50
179.999973
 51
269.999781
  0
ARC
  5
225
100
AcDbEntity
  8
M0
 62
     2
100
AcDbCircle
 10
398.214156
 20
959.260748
 40
4.0
100
AcDbArc
 50
-90.000219
 51
0.0
  0
LINE
  5
226
100
AcDbEntity
  8
M0
 62
     2
100
AcDbLine
 10
396.214156
 20
955.260748
 11
402.414156
 21
955.260748
  0
LINE
  5
227
100
AcDbEntity
  8
M0
 62
     2
100
AcDbLine
 10
419.214156
 20
955.260748
 11
436.214156
 21
955.260748
  0
LINE
  5
228
100
AcDbEntity
  8
M0
 62
     2
100
AcDbLine
 10
431.214156
 20
925.260763
 11
411.476744
 21
925.260763
  0
ARC
  5
229
100
AcDbEntity
  8
M0
 62
     2
100
AcDbCircle
 10
411.476744
 20
930.260763
 40
5.0
100
AcDbArc
 50
203.749232
 51
269.999825
  0
LINE
  5
22A
100
AcDbEntity
  8
M0
 62
     2
100
AcDbLine
 10
397.214156
 20
950.260748
 11
397.214156
 21
955.260748
  0
LINE
  5
22B
100
AcDbEntity
  8
M0
 62
     2
100
AcDbLine
 10
436.214156
 20
1005.260747
 11
403.71414
 21
1005.260747
  0
LINE
  5
22C
100
AcDbEntity
  8
M0
 62
     2
100
AcDbLine
 10
419.214156
 20
1005.260747
 11
419.214156
 21
955.260748
  0
LINE
  5
22D
100
AcDbEntity
  8
M0
 62
     2
100
AcDbLine
 10
414.214156
 20
955.260748
 11
414.214156
 21
1005.260747
  0
LINE
  5
22E
100
AcDbEntity
  8
M0
 62
     2
100
AcDbLine
 10
419.214156
 20
968.260747
 11
416.714156
 21
971.260747
  0
LINE
  5
22F
100
AcDbEntity
  8
M0
 62
     2
100
AcDbLine
 10
419.214156
 20
955.260748
 11
416.714156
 21
958.260748
  0
LINE
  5
230
100
AcDbEntity
  8
M0
 62
     2
100
AcDbLine
 10
414.214156
 20
968.260747
 11
416.714156
 21
971.260747
  0
LINE
  5
231
100
AcDbEntity
  8
M0
 62
     2
100
AcDbLine
 10
414.214156
 20
955.260748
 11
416.714156
 21
958.260748
  0
LINE
  5
232
100
AcDbEntity
  8
M0
 62
     2
100
AcDbLine
 10
436.214156
 20
968.260747
 11
419.214156
 21
968.260747
  0
LINE
  5
233
100
AcDbEntity
  8
M0
 62
     2
100
AcDbLine
 10
414.214156
 20
968.260747
 11
411.014156
 21
968.260747
  0
LINE
  5
234
100
AcDbEntity
  8
M0
 62
     2
100
AcDbLine
 10
416.714156
 20
1005.260747
 11
416.714156
 21
958.260748
  0
LINE
  5
235
100
AcDbEntity
  8
M0
 62
     2
100
AcDbLine
 10
431.214156
 20
968.260747
 11
431.214156
 21
995.760747
  0
LINE
  5
236
100
AcDbEntity
  8
M0
 62
     2
100
AcDbLine
 10
422.214156
 20
968.260747
 11
422.214156
 21
995.760747
  0
LINE
  5
237
100
AcDbEntity
  8
M0
 62
     2
100
AcDbLine
 10
411.214156
 20
995.760747
 11
411.214156
 21
968.260747
  0
LINE
  5
238
100
AcDbEntity
  8
M0
 62
     2
100
AcDbLine
 10
431.214156
 20
998.260747
 11
431.214156
 21
1005.260747
  0
ARC
  5
239
100
AcDbEntity
  8
M0
 62
     2
100
AcDbCircle
 10
429.214156
 20
998.260747
 40
2.0
100
AcDbArc
 50
-90.000437
 51
0.0
  0
LINE
  5
23A
100
AcDbEntity
  8
M0
 62
     2
100
AcDbLine
 10
422.214156
 20
998.260747
 11
422.214156
 21
1005.260747
  0
LINE
  5
23B
100
AcDbEntity
  8
M0
 62
     2
100
AcDbLine
 10
411.214156
 20
1005.260747
 11
411.214156
 21
998.260747
  0
ARC
  5
23C
100
AcDbEntity
  8
M0
 62
     2
100
AcDbCircle
 10
409.214156
 20
998.260747
 40
2.0
100
AcDbArc
 50
-90.000437
 51
0.0
  0
LINE
  5
23D
100
AcDbEntity
  8
M0
 62
     2
100
AcDbLine
 10
406.900176
 20
928.24706
 11
397.214156
 21
950.260748
  0
CIRCLE
  5
23E
100
AcDbEntity
  8
M0
 62
     2
100
AcDbCircle
 10
426.714156
 20
973.260747
 40
2.099999
  0
CIRCLE
  5
23F
100
AcDbEntity
  8
M0
 62
     2
100
AcDbCircle
 10
426.714156
 20
981.260747
 40
2.099999
  0
CIRCLE
  5
240
100
AcDbEntity
  8
M0
 62
     2
100
AcDbCircle
 10
426.714156
 20
989.260747
 40
2.099999
  0
LINE
  5
241
100
AcDbEntity
  8
M0
 62
     2
100
AcDbLine
 10
429.214156
 20
996.260747
 11
424.214156
 21
996.260747
  0
ARC
  5
242
100
AcDbEntity
  8
M0
 62
     2
100
AcDbCircle
 10
424.214156
 20
998.260747
 40
2.0
100
AcDbArc
 50
180.0
 51
269.999563
  0
LINE
  5
243
100
AcDbEntity
  8
M0
 62
     2
100
AcDbLine
 10
409.214156
 20
996.260747
 11
402.214156
 21
996.260747
  0
LINE
  5
244
100
AcDbEntity
  8
M0
 62
     2
100
AcDbLine
 10
411.214156
 20
995.760747
 11
402.214156
 21
995.760747
  0
LINE
  5
245
100
AcDbEntity
  8
M0
 62
     2
100
AcDbLine
 10
431.214156
 20
995.760747
 11
422.214156
 21
995.760747
  0
CIRCLE
  5
246
100
AcDbEntity
  8
M0
 62
     2
100
AcDbCircle
 10
426.714156
 20
973.260747
 40
3.0
  0
CIRCLE
  5
247
100
AcDbEntity
  8
M0
 62
     2
100
AcDbCircle
 10
426.714156
 20
981.260747
 40
3.0
  0
CIRCLE
  5
248
100
AcDbEntity
  8
M0
 62
     2
100
AcDbCircle
 10
426.714156
 20
989.260747
 40
3.0
  0
LINE
  5
249
100
AcDbEntity
  8
M0
 62
     2
100
AcDbLine
 10
421.214163
 20
1141.766088
 11
427.715613
 21
1138.013494
  0
LINE
  5
24A
100
AcDbEntity
  8
M0
 62
     2
100
AcDbLine
 10
427.715613
 20
1138.013494
 11
427.715613
 21
1130.507848
  0
LINE
  5
24B
100
AcDbEntity
  8
M0
 62
     2
100
AcDbLine
 10
427.715613
 20
1130.507848
 11
421.214163
 21
1126.755102
  0
LINE
  5
24C
100
AcDbEntity
  8
M0
 62
     2
100
AcDbLine
 10
421.214163
 20
1126.755102
 11
414.71514
 21
1130.507848
  0
LINE
  5
24D
100
AcDbEntity
  8
M0
 62
     2
100
AcDbLine
 10
414.71514
 20
1130.507848
 11
414.71514
 21
1138.013494
  0
LINE
  5
24E
100
AcDbEntity
  8
M0
 62
     2
100
AcDbLine
 10
414.71514
 20
1138.013494
 11
421.214163
 21
1141.766088
  0
CIRCLE
  5
24F
100
AcDbEntity
  8
M0
 62
     2
100
AcDbCircle
 10
421.214156
 20
1134.260747
 40
8.0
  0
CIRCLE
  5
250
100
AcDbEntity
  8
M0
 62
     2
100
AcDbCircle
 10
421.214156
 20
1134.260747
 40
7.700005
  0
LINE
  5
251
100
AcDbEntity
  8
M0
 62
     2
100
AcDbLine
 10
421.214163
 20
947.76609
 11
427.715613
 21
944.013496
  0
LINE
  5
252
100
AcDbEntity
  8
M0
 62
     2
100
AcDbLine
 10
427.715613
 20
944.013496
 11
427.715613
 21
936.50785
  0
LINE
  5
253
100
AcDbEntity
  8
M0
 62
     2
100
AcDbLine
 10
427.715613
 20
936.50785
 11
421.214163
 21
932.755104
  0
LINE
  5
254
100
AcDbEntity
  8
M0
 62
     2
100
AcDbLine
 10
421.214163
 20
932.755104
 11
414.71514
 21
936.50785
  0
LINE
  5
255
100
AcDbEntity
  8
M0
 62
     2
100
AcDbLine
 10
414.71514
 20
936.50785
 11
414.71514
 21
944.013496
  0
LINE
  5
256
100
AcDbEntity
  8
M0
 62
     2
100
AcDbLine
 10
414.71514
 20
944.013496
 11
421.214163
 21
947.76609
  0
CIRCLE
  5
257
100
AcDbEntity
  8
M0
 62
     2
100
AcDbCircle
 10
421.214156
 20
940.260749
 40
8.0
  0
CIRCLE
  5
258
100
AcDbEntity
  8
M0
 62
     2
100
AcDbCircle
 10
421.214156
 20
940.260749
 40
7.700005
  0
LINE
  5
259
100
AcDbEntity
  8
M0
 62
     2
100
AcDbLine
 10
191.214163
 20
947.76609
 11
197.715613
 21
944.013496
  0
LINE
  5
25A
100
AcDbEntity
  8
M0
 62
     2
100
AcDbLine
 10
197.715613
 20
944.013496
 11
197.715613
 21
936.50785
  0
LINE
  5
25B
100
AcDbEntity
  8
M0
 62
     2
100
AcDbLine
 10
197.715613
 20
936.50785
 11
191.214163
 21
932.755104
  0
LINE
  5
25C
100
AcDbEntity
  8
M0
 62
     2
100
AcDbLine
 10
191.214163
 20
932.755104
 11
184.71514
 21
936.50785
  0
LINE
  5
25D
100
AcDbEntity
  8
M0
 62
     2
100
AcDbLine
 10
184.71514
 20
936.50785
 11
184.71514
 21
944.013496
  0
LINE
  5
25E
100
AcDbEntity
  8
M0
 62
     2
100
AcDbLine
 10
184.71514
 20
944.013496
 11
191.214163
 21
947.76609
  0
CIRCLE
  5
25F
100
AcDbEntity
  8
M0
 62
     2
100
AcDbCircle
 10
191.214156
 20
940.260749
 40
8.0
  0
CIRCLE
  5
260
100
AcDbEntity
  8
M0
 62
     2
100
AcDbCircle
 10
191.214156
 20
940.260749
 40
7.700005
  0
LINE
  5
261
100
AcDbEntity
  8
M0
 62
     2
100
AcDbLine
 10
191.214163
 20
1141.766088
 11
197.715613
 21
1138.013494
  0
LINE
  5
262
100
AcDbEntity
  8
M0
 62
     2
100
AcDbLine
 10
197.715613
 20
1138.013494
 11
197.715613
 21
1130.507848
  0
LINE
  5
263
100
AcDbEntity
  8
M0
 62
     2
100
AcDbLine
 10
197.715613
 20
1130.507848
 11
191.214163
 21
1126.755102
  0
LINE
  5
264
100
AcDbEntity
  8
M0
 62
     2
100
AcDbLine
 10
191.214163
 20
1126.755102
 11
184.71514
 21
1130.507848
  0
LINE
  5
265
100
AcDbEntity
  8
M0
 62
     2
100
AcDbLine
 10
184.71514
 20
1130.507848
 11
184.71514
 21
1138.013494
  0
LINE
  5
266
100
AcDbEntity
  8
M0
 62
     2
100
AcDbLine
 10
184.71514
 20
1138.013494
 11
191.214163
 21
1141.766088
  0
CIRCLE
  5
267
100
AcDbEntity
  8
M0
 62
     2
100
AcDbCircle
 10
191.214156
 20
1134.260747
 40
8.0
  0
CIRCLE
  5
268
100
AcDbEntity
  8
M0
 62
     2
100
AcDbCircle
 10
191.214156
 20
1134.260747
 40
7.700005
  0
LINE
  5
269
100
AcDbEntity
  8
M0
 62
     2
100
AcDbLine
 10
333.213869
 20
1159.260747
 11
344.213869
 21
1159.260747
  0
LINE
  5
26A
100
AcDbEntity
  8
M0
 62
     2
100
AcDbLine
 10
345.213869
 20
1158.260748
 11
345.213881
 21
1139.260747
  0
LINE
  5
26B
100
AcDbEntity
  8
M0
 62
     2
100
AcDbLine
 10
332.213869
 20
1158.260747
 11
332.213879
 21
1143.196738
  0
ARC
  5
26C
100
AcDbEntity
  8
M0
 62
     2
100
AcDbCircle
 10
344.213869
 20
1158.260747
 40
1.0
100
AcDbArc
 50
3.597218E-005
 51
90.0
  0
ARC
  5
26D
100
AcDbEntity
  8
M0
 62
     2
100
AcDbCircle
 10
333.213869
 20
1158.260747
 40
1.0
100
AcDbArc
 50
90.0
 51
180.000036
  0
LINE
  5
26E
100
AcDbEntity
  8
M0
 62
     2
100
AcDbLine
 10
267.213869
 20
1158.260699
 11
267.213881
 21
1139.260698
  0
LINE
  5
26F
100
AcDbEntity
  8
M0
 62
     2
100
AcDbLine
 10
280.213869
 20
1158.260714
 11
280.213879
 21
1143.196706
  0
ARC
  5
270
100
AcDbEntity
  8
M0
 62
     2
100
AcDbCircle
 10
268.213869
 20
1158.2607
 40
1.0
100
AcDbArc
 50
90.0
 51
180.000036
  0
LINE
  5
271
100
AcDbEntity
  8
M0
 62
     2
100
AcDbLine
 10
279.213868
 20
1159.260713
 11
268.213868
 21
1159.2607
  0
ARC
  5
272
100
AcDbEntity
  8
M0
 62
     2
100
AcDbCircle
 10
279.213869
 20
1158.260713
 40
1.0
100
AcDbArc
 50
3.597218E-005
 51
90.0
  0
LINE
  5
273
100
AcDbEntity
  8
M0
 62
     2
100
AcDbLine
 10
332.213869
 20
942.260748
 11
332.213879
 21
957.324757
  0
LINE
  5
274
100
AcDbEntity
  8
M0
 62
     2
100
AcDbLine
 10
333.213869
 20
941.260747
 11
344.213869
 21
941.260747
  0
ARC
  5
275
100
AcDbEntity
  8
M0
 62
     2
100
AcDbCircle
 10
333.213869
 20
942.260747
 40
1.0
100
AcDbArc
 50
179.999964
 51
270.0
  0
ARC
  5
276
100
AcDbEntity
  8
M0
 62
     2
100
AcDbCircle
 10
344.213869
 20
942.260747
 40
1.0
100
AcDbArc
 50
270.0
 51
359.999964
  0
LINE
  5
277
100
AcDbEntity
  8
M0
 62
     2
100
AcDbLine
 10
345.213869
 20
942.260747
 11
345.213881
 21
961.260747
  0
LINE
  5
278
100
AcDbEntity
  8
M0
 62
     2
100
AcDbLine
 10
280.213869
 20
942.260781
 11
280.213879
 21
957.324789
  0
LINE
  5
279
100
AcDbEntity
  8
M0
 62
     2
100
AcDbLine
 10
279.213868
 20
941.260781
 11
268.213868
 21
941.260795
  0
ARC
  5
27A
100
AcDbEntity
  8
M0
 62
     2
100
AcDbCircle
 10
279.213869
 20
942.260781
 40
1.0
100
AcDbArc
 50
270.0
 51
359.999964
  0
ARC
  5
27B
100
AcDbEntity
  8
M0
 62
     2
100
AcDbCircle
 10
268.213869
 20
942.260795
 40
1.0
100
AcDbArc
 50
179.999964
 51
270.0
  0
LINE
  5
27C
100
AcDbEntity
  8
M0
 62
     2
100
AcDbLine
 10
267.213869
 20
942.260796
 11
267.213881
 21
961.260796
  0
LINE
  5
27D
100
AcDbEntity
  8
M0
 62
     2
100
AcDbLine
 10
190.014156
 20
968.260747
 11
193.214156
 21
968.260747
  0
LINE
  5
27E
100
AcDbEntity
  8
M0
 62
     2
100
AcDbLine
 10
181.414156
 20
955.260748
 11
176.214156
 21
955.260748
  0
LINE
  5
27F
100
AcDbEntity
  8
M0
 62
     2
100
AcDbLine
 10
188.214156
 20
955.260748
 11
183.214156
 21
955.260748
  0
LINE
  5
280
100
AcDbEntity
  8
M0
 62
     2
100
AcDbLine
 10
210.014156
 20
968.260747
 11
210.214156
 21
968.260747
  0
LINE
  5
281
100
AcDbEntity
  8
M0
 62
     2
100
AcDbLine
 10
208.214156
 20
955.260748
 11
203.214156
 21
955.260748
  0
LINE
  5
282
100
AcDbEntity
  8
M0
 62
     2
100
AcDbLine
 10
201.414156
 20
955.260748
 11
198.214156
 21
955.260748
  0
LINE
  5
283
100
AcDbEntity
  8
M0
 62
     2
100
AcDbLine
 10
402.414156
 20
968.260747
 11
402.214156
 21
968.260747
  0
LINE
  5
284
100
AcDbEntity
  8
M0
 62
     2
100
AcDbLine
 10
411.014156
 20
955.260748
 11
414.214156
 21
955.260748
  0
LINE
  5
285
100
AcDbEntity
  8
M0
 62
     2
100
AcDbLine
 10
404.214156
 20
955.260748
 11
409.214156
 21
955.260748
  0
LINE
  5
286
100
AcDbEntity
  8
M0
  6
DIVIDE
 62
     2
100
AcDbLine
 10
338.213844
 20
941.260747
 11
338.213774
 21
830.260771
  0
LINE
  5
287
100
AcDbEntity
  8
M0
  6
DIVIDE
 62
     2
100
AcDbLine
 10
340.213774
 20
830.26077
 11
340.213844
 21
941.260746
  0
LINE
  5
288
100
AcDbEntity
  8
M0
  6
DIVIDE
 62
     2
100
AcDbLine
 10
338.213774
 20
830.260771
 11
340.213774
 21
830.26077
  0
LINE
  5
289
100
AcDbEntity
  8
M0
  6
DIVIDE
 62
     2
100
AcDbLine
 10
274.213844
 20
941.260747
 11
274.213774
 21
830.260811
  0
LINE
  5
28A
100
AcDbEntity
  8
M0
  6
DIVIDE
 62
     2
100
AcDbLine
 10
272.213774
 20
830.260813
 11
274.213774
 21
830.260811
  0
LINE
  5
28B
100
AcDbEntity
  8
M0
  6
DIVIDE
 62
     2
100
AcDbLine
 10
272.213774
 20
830.260813
 11
272.213844
 21
941.260749
  0
LINE
  5
28C
100
AcDbEntity
  8
M0
  6
DIVIDE
 62
     2
100
AcDbLine
 10
338.213844
 20
1159.260747
 11
338.213774
 21
1270.260724
  0
LINE
  5
28D
100
AcDbEntity
  8
M0
  6
DIVIDE
 62
     2
100
AcDbLine
 10
340.213774
 20
1270.260725
 11
340.213844
 21
1159.260749
  0
LINE
  5
28E
100
AcDbEntity
  8
M0
  6
DIVIDE
 62
     2
100
AcDbLine
 10
274.213844
 20
1159.260747
 11
274.213774
 21
1270.260683
  0
LINE
  5
28F
100
AcDbEntity
  8
M0
  6
DIVIDE
 62
     2
100
AcDbLine
 10
272.213774
 20
1270.260682
 11
274.213774
 21
1270.260683
  0
LINE
  5
290
100
AcDbEntity
  8
M0
  6
DIVIDE
 62
     2
100
AcDbLine
 10
272.213774
 20
1270.260682
 11
272.213844
 21
1159.260746
  0
LINE
  5
291
100
AcDbEntity
  8
M0
 62
     6
100
AcDbLine
 10
435.014055
 20
1095.260745
 11
420.114055
 21
1095.26075
  0
LINE
  5
292
100
AcDbEntity
  8
M0
 62
     6
100
AcDbLine
 10
420.114055
 20
1095.26075
 11
420.114027
 21
1005.26075
  0
LINE
  5
293
100
AcDbEntity
  8
M0
 62
     6
100
AcDbLine
 10
420.114027
 20
1005.26075
 11
435.014027
 21
1005.260745
  0
LINE
  5
294
100
AcDbEntity
  8
M0
 62
     6
100
AcDbLine
 10
435.014027
 20
1005.260745
 11
435.014055
 21
1095.260745
  0
LINE
  5
295
100
AcDbEntity
  8
M0
 62
     6
100
AcDbLine
 10
422.064035
 20
1032.260749
 11
422.064036
 21
1033.760749
  0
LINE
  5
296
100
AcDbEntity
  8
M0
 62
     6
100
AcDbLine
 10
433.064035
 20
1032.260746
 11
433.064036
 21
1033.760746
  0
LINE
  5
297
100
AcDbEntity
  8
M0
 62
     6
100
AcDbLine
 10
422.064036
 20
1033.760749
 11
433.064036
 21
1033.760746
  0
LINE
  5
298
100
AcDbEntity
  8
M0
 62
     6
100
AcDbLine
 10
423.064039
 20
1043.86074
 11
423.064036
 21
1033.760749
  0
LINE
  5
299
100
AcDbEntity
  8
M0
 62
     6
100
AcDbLine
 10
423.064035
 20
1032.260749
 11
423.064027
 21
1005.260749
  0
LINE
  5
29A
100
AcDbEntity
  8
M0
 62
     6
100
AcDbLine
 10
432.064039
 20
1043.860737
 11
432.064036
 21
1033.760746
  0
LINE
  5
29B
100
AcDbEntity
  8
M0
 62
     6
100
AcDbLine
 10
432.064035
 20
1032.260746
 11
432.064027
 21
1005.260746
  0
LINE
  5
29C
100
AcDbEntity
  8
M0
 62
     6
100
AcDbLine
 10
433.064035
 20
1032.260746
 11
432.064035
 21
1032.260746
  0
LINE
  5
29D
100
AcDbEntity
  8
M0
 62
     6
100
AcDbLine
 10
423.064035
 20
1032.260749
 11
422.064035
 21
1032.260749
  0
LINE
  5
29E
100
AcDbEntity
  8
M0
 62
     6
100
AcDbLine
 10
432.064039
 20
1043.860737
 11
423.064039
 21
1043.86074
  0
LINE
  5
29F
100
AcDbEntity
  8
M0
 62
     6
100
AcDbLine
 10
423.064029
 20
1011.260749
 11
432.064029
 21
1011.260746
  0
LINE
  5
2A0
100
AcDbEntity
  8
M0
 62
     6
100
AcDbLine
 10
420.114033
 20
1025.26075
 11
423.064033
 21
1025.260749
  0
LINE
  5
2A1
100
AcDbEntity
  8
M0
 62
     6
100
AcDbLine
 10
432.064033
 20
1025.260746
 11
435.014033
 21
1025.260745
  0
LINE
  5
2A2
100
AcDbEntity
  8
M0
 62
     6
100
AcDbLine
 10
433.064047
 20
1068.260746
 11
433.064046
 21
1066.760746
  0
LINE
  5
2A3
100
AcDbEntity
  8
M0
 62
     6
100
AcDbLine
 10
422.064046
 20
1066.760749
 11
433.064046
 21
1066.760746
  0
LINE
  5
2A4
100
AcDbEntity
  8
M0
 62
     6
100
AcDbLine
 10
432.064043
 20
1056.66074
 11
432.064046
 21
1066.760746
  0
LINE
  5
2A5
100
AcDbEntity
  8
M0
 62
     6
100
AcDbLine
 10
432.064047
 20
1068.260746
 11
432.064055
 21
1095.260746
  0
LINE
  5
2A6
100
AcDbEntity
  8
M0
 62
     6
100
AcDbLine
 10
433.064047
 20
1068.260746
 11
432.064047
 21
1068.260746
  0
LINE
  5
2A7
100
AcDbEntity
  8
M0
 62
     6
100
AcDbLine
 10
432.064043
 20
1056.66074
 11
423.064043
 21
1056.660743
  0
LINE
  5
2A8
100
AcDbEntity
  8
M0
 62
     6
100
AcDbLine
 10
423.064053
 20
1089.260749
 11
432.064053
 21
1089.260746
  0
LINE
  5
2A9
100
AcDbEntity
  8
M0
 62
     6
100
AcDbLine
 10
432.064049
 20
1075.260746
 11
435.014049
 21
1075.260745
  0
LINE
  5
2AA
100
AcDbEntity
  8
M0
 62
     6
100
AcDbLine
 10
423.064043
 20
1056.660743
 11
423.064046
 21
1066.760749
  0
LINE
  5
2AB
100
AcDbEntity
  8
M0
 62
     6
100
AcDbLine
 10
422.064047
 20
1068.260749
 11
422.064046
 21
1066.760749
  0
LINE
  5
2AC
100
AcDbEntity
  8
M0
 62
     6
100
AcDbLine
 10
423.064047
 20
1068.260749
 11
422.064047
 21
1068.260749
  0
LINE
  5
2AD
100
AcDbEntity
  8
M0
 62
     6
100
AcDbLine
 10
423.064047
 20
1068.260749
 11
423.064055
 21
1095.260749
  0
LINE
  5
2AE
100
AcDbEntity
  8
M0
 62
     6
100
AcDbLine
 10
420.114049
 20
1075.26075
 11
423.064049
 21
1075.260749
  0
CIRCLE
  5
2AF
100
AcDbEntity
  8
M0
 62
     6
100
AcDbCircle
 10
427.564041
 20
1050.260747
 40
2.799999
  0
LINE
  5
2B0
100
AcDbEntity
  8
M0
 62
     6
100
AcDbLine
 10
192.314211
 20
1095.260745
 11
177.414211
 21
1095.26075
  0
LINE
  5
2B1
100
AcDbEntity
  8
M0
 62
     6
100
AcDbLine
 10
177.414211
 20
1095.26075
 11
177.414183
 21
1005.26075
  0
LINE
  5
2B2
100
AcDbEntity
  8
M0
 62
     6
100
AcDbLine
 10
177.414183
 20
1005.26075
 11
192.314182
 21
1005.260745
  0
LINE
  5
2B3
100
AcDbEntity
  8
M0
 62
     6
100
AcDbLine
 10
192.314182
 20
1005.260745
 11
192.314211
 21
1095.260745
  0
LINE
  5
2B4
100
AcDbEntity
  8
M0
 62
     6
100
AcDbLine
 10
179.364191
 20
1032.260749
 11
179.364191
 21
1033.760749
  0
LINE
  5
2B5
100
AcDbEntity
  8
M0
 62
     6
100
AcDbLine
 10
190.364191
 20
1032.260746
 11
190.364191
 21
1033.760746
  0
LINE
  5
2B6
100
AcDbEntity
  8
M0
 62
     6
100
AcDbLine
 10
179.364191
 20
1033.760749
 11
190.364191
 21
1033.760746
  0
LINE
  5
2B7
100
AcDbEntity
  8
M0
 62
     6
100
AcDbLine
 10
180.364195
 20
1043.86074
 11
180.364191
 21
1033.760749
  0
LINE
  5
2B8
100
AcDbEntity
  8
M0
 62
     6
100
AcDbLine
 10
180.364191
 20
1032.260749
 11
180.364183
 21
1005.260749
  0
LINE
  5
2B9
100
AcDbEntity
  8
M0
 62
     6
100
AcDbLine
 10
189.364195
 20
1043.860737
 11
189.364191
 21
1033.760746
  0
LINE
  5
2BA
100
AcDbEntity
  8
M0
 62
     6
100
AcDbLine
 10
189.364191
 20
1032.260746
 11
189.364183
 21
1005.260746
  0
LINE
  5
2BB
100
AcDbEntity
  8
M0
 62
     6
100
AcDbLine
 10
190.364191
 20
1032.260746
 11
189.364191
 21
1032.260746
  0
LINE
  5
2BC
100
AcDbEntity
  8
M0
 62
     6
100
AcDbLine
 10
180.364191
 20
1032.260749
 11
179.364191
 21
1032.260749
  0
LINE
  5
2BD
100
AcDbEntity
  8
M0
 62
     6
100
AcDbLine
 10
189.364195
 20
1043.860737
 11
180.364195
 21
1043.86074
  0
LINE
  5
2BE
100
AcDbEntity
  8
M0
 62
     6
100
AcDbLine
 10
180.364184
 20
1011.260749
 11
189.364184
 21
1011.260746
  0
LINE
  5
2BF
100
AcDbEntity
  8
M0
 62
     6
100
AcDbLine
 10
177.414189
 20
1025.26075
 11
180.364189
 21
1025.260749
  0
LINE
  5
2C0
100
AcDbEntity
  8
M0
 62
     6
100
AcDbLine
 10
189.364189
 20
1025.260746
 11
192.314189
 21
1025.260745
  0
LINE
  5
2C1
100
AcDbEntity
  8
M0
 62
     6
100
AcDbLine
 10
190.364202
 20
1068.260746
 11
190.364202
 21
1066.760746
  0
LINE
  5
2C2
100
AcDbEntity
  8
M0
 62
     6
100
AcDbLine
 10
179.364202
 20
1066.760749
 11
190.364202
 21
1066.760746
  0
LINE
  5
2C3
100
AcDbEntity
  8
M0
 62
     6
100
AcDbLine
 10
189.364199
 20
1056.66074
 11
189.364202
 21
1066.760746
  0
LINE
  5
2C4
100
AcDbEntity
  8
M0
 62
     6
100
AcDbLine
 10
189.364202
 20
1068.260746
 11
189.364211
 21
1095.260746
  0
LINE
  5
2C5
100
AcDbEntity
  8
M0
 62
     6
100
AcDbLine
 10
190.364202
 20
1068.260746
 11
189.364202
 21
1068.260746
  0
LINE
  5
2C6
100
AcDbEntity
  8
M0
 62
     6
100
AcDbLine
 10
189.364199
 20
1056.66074
 11
180.364199
 21
1056.660743
  0
LINE
  5
2C7
100
AcDbEntity
  8
M0
 62
     6
100
AcDbLine
 10
180.364209
 20
1089.260749
 11
189.364209
 21
1089.260746
  0
LINE
  5
2C8
100
AcDbEntity
  8
M0
 62
     6
100
AcDbLine
 10
189.364204
 20
1075.260746
 11
192.314204
 21
1075.260745
  0
LINE
  5
2C9
100
AcDbEntity
  8
M0
 62
     6
100
AcDbLine
 10
180.364199
 20
1056.660743
 11
180.364202
 21
1066.760749
  0
LINE
  5
2CA
100
AcDbEntity
  8
M0
 62
     6
100
AcDbLine
 10
179.364202
 20
1068.260749
 11
179.364202
 21
1066.760749
  0
LINE
  5
2CB
100
AcDbEntity
  8
M0
 62
     6
100
AcDbLine
 10
180.364202
 20
1068.260749
 11
179.364202
 21
1068.260749
  0
LINE
  5
2CC
100
AcDbEntity
  8
M0
 62
     6
100
AcDbLine
 10
180.364202
 20
1068.260749
 11
180.364211
 21
1095.260749
  0
LINE
  5
2CD
100
AcDbEntity
  8
M0
 62
     6
100
AcDbLine
 10
177.414205
 20
1075.26075
 11
180.364204
 21
1075.260749
  0
CIRCLE
  5
2CE
100
AcDbEntity
  8
M0
 62
     6
100
AcDbCircle
 10
184.864197
 20
1050.260747
 40
2.799999
  0
CIRCLE
  5
2CF
100
AcDbEntity
  8
M0
100
AcDbCircle
 10
184.864165
 20
1016.260717
 40
3.5
  0
ARC
  5
2D0
100
AcDbEntity
  8
M0
100
AcDbCircle
 10
187.964167
 20
1012.46072
 40
1.0
100
AcDbArc
 50
-90.0
 51
3.597218E-005
  0
LINE
  5
2D1
100
AcDbEntity
  8
M0
100
AcDbLine
 10
187.964167
 20
1011.46072
 11
181.764168
 21
1011.460716
  0
ARC
  5
2D2
100
AcDbEntity
  8
M0
100
AcDbCircle
 10
181.764168
 20
1012.460716
 40
1.0
100
AcDbArc
 50
180.000036
 51
270.0
  0
LINE
  5
2D3
100
AcDbEntity
  8
M0
100
AcDbLine
 10
180.764168
 20
1012.460715
 11
180.764163
 21
1020.060714
  0
ARC
  5
2D4
100
AcDbEntity
  8
M0
100
AcDbCircle
 10
181.764163
 20
1020.060714
 40
1.0
100
AcDbArc
 50
90.0
 51
180.000036
  0
LINE
  5
2D5
100
AcDbEntity
  8
M0
100
AcDbLine
 10
181.764162
 20
1021.060714
 11
187.964161
 21
1021.060718
  0
LINE
  5
2D6
100
AcDbEntity
  8
M0
100
AcDbLine
 10
188.964162
 20
1020.060719
 11
188.964167
 21
1012.46072
  0
ARC
  5
2D7
100
AcDbEntity
  8
M0
100
AcDbCircle
 10
187.964162
 20
1020.060718
 40
1.0
100
AcDbArc
 50
-1.866939E-005
 51
90.0
  0
LINE
  5
2D8
100
AcDbEntity
  8
M0
100
AcDbLine
 10
183.334467
 20
1014.731018
 11
186.467127
 21
1017.863681
  0
LINE
  5
2D9
100
AcDbEntity
  8
M0
100
AcDbLine
 10
186.962104
 20
1015.152729
 11
183.82944
 21
1018.285389
  0
LINE
  5
2DA
100
AcDbEntity
  8
M0
100
AcDbLine
 10
185.972155
 20
1014.162779
 11
182.839492
 21
1017.295439
  0
LINE
  5
2DB
100
AcDbEntity
  8
M0
  6
DASHDOT
100
AcDbLine
 10
180.364165
 20
1016.260717
 11
189.364165
 21
1016.260717
  0
LINE
  5
2DC
100
AcDbEntity
  8
M0
  6
DASHDOT
100
AcDbLine
 10
184.864165
 20
1011.760717
 11
184.864165
 21
1020.760717
  0
CIRCLE
  5
2DD
100
AcDbEntity
  8
M0
100
AcDbCircle
 10
184.864165
 20
1038.760717
 40
3.5
  0
ARC
  5
2DE
100
AcDbEntity
  8
M0
100
AcDbCircle
 10
187.964167
 20
1034.96072
 40
1.0
100
AcDbArc
 50
-90.0
 51
3.597218E-005
  0
LINE
  5
2DF
100
AcDbEntity
  8
M0
100
AcDbLine
 10
187.964167
 20
1033.96072
 11
181.764168
 21
1033.960716
  0
ARC
  5
2E0
100
AcDbEntity
  8
M0
100
AcDbCircle
 10
181.764168
 20
1034.960716
 40
1.0
100
AcDbArc
 50
180.000036
 51
270.0
  0
LINE
  5
2E1
100
AcDbEntity
  8
M0
100
AcDbLine
 10
180.764168
 20
1034.960715
 11
180.764163
 21
1042.560714
  0
ARC
  5
2E2
100
AcDbEntity
  8
M0
100
AcDbCircle
 10
181.764163
 20
1042.560714
 40
1.0
100
AcDbArc
 50
90.0
 51
180.000036
  0
LINE
  5
2E3
100
AcDbEntity
  8
M0
100
AcDbLine
 10
181.764162
 20
1043.560714
 11
187.964161
 21
1043.560718
  0
LINE
  5
2E4
100
AcDbEntity
  8
M0
100
AcDbLine
 10
188.964162
 20
1042.560719
 11
188.964167
 21
1034.96072
  0
ARC
  5
2E5
100
AcDbEntity
  8
M0
100
AcDbCircle
 10
187.964162
 20
1042.560718
 40
1.0
100
AcDbArc
 50
-1.866939E-005
 51
90.0
  0
LINE
  5
2E6
100
AcDbEntity
  8
M0
100
AcDbLine
 10
183.334467
 20
1037.231018
 11
186.467127
 21
1040.363681
  0
LINE
  5
2E7
100
AcDbEntity
  8
M0
100
AcDbLine
 10
186.962104
 20
1037.652729
 11
183.82944
 21
1040.785389
  0
LINE
  5
2E8
100
AcDbEntity
  8
M0
100
AcDbLine
 10
185.972155
 20
1036.662779
 11
182.839492
 21
1039.795439
  0
LINE
  5
2E9
100
AcDbEntity
  8
M0
  6
DASHDOT
100
AcDbLine
 10
180.364165
 20
1038.760717
 11
189.364165
 21
1038.760717
  0
LINE
  5
2EA
100
AcDbEntity
  8
M0
  6
DASHDOT
100
AcDbLine
 10
184.864165
 20
1034.260717
 11
184.864165
 21
1043.260717
  0
LINE
  5
2EB
100
AcDbEntity
  8
M0
 62
     7
100
AcDbLine
 10
185.571272
 20
1025.760717
 11
187.667204
 21
1027.856649
  0
LINE
  5
2EC
100
AcDbEntity
  8
M0
 62
     7
100
AcDbLine
 10
182.768221
 20
1022.957667
 11
184.864165
 21
1025.05361
  0
LINE
  5
2ED
100
AcDbEntity
  8
M0
 62
     7
100
AcDbLine
 10
184.157058
 20
1025.760717
 11
182.061115
 21
1023.664774
  0
LINE
  5
2EE
100
AcDbEntity
  8
M0
 62
     7
100
AcDbLine
 10
186.960097
 20
1028.563756
 11
184.864165
 21
1026.467824
  0
LINE
  5
2EF
100
AcDbEntity
  8
M0
 62
     7
100
AcDbLine
 10
184.864165
 20
1026.467824
 11
183.768115
 21
1027.563874
  0
LINE
  5
2F0
100
AcDbEntity
  8
M0
 62
     7
100
AcDbLine
 10
186.667322
 20
1024.664667
 11
185.571272
 21
1025.760717
  0
LINE
  5
2F1
100
AcDbEntity
  8
M0
 62
     7
100
AcDbLine
 10
184.864165
 20
1025.05361
 11
185.960215
 21
1023.95756
  0
LINE
  5
2F2
100
AcDbEntity
  8
M0
 62
     7
100
AcDbLine
 10
183.061008
 20
1026.856767
 11
184.157058
 21
1025.760717
  0
CIRCLE
  5
2F3
100
AcDbEntity
  8
M0
 62
     7
100
AcDbCircle
 10
184.864165
 20
1025.760717
 40
3.5
  0
LINE
  5
2F4
100
AcDbEntity
  8
M0
 62
     7
100
AcDbLine
 10
185.960215
 20
1023.95756
 11
186.667322
 21
1024.664667
  0
LINE
  5
2F5
100
AcDbEntity
  8
M0
 62
     7
100
AcDbLine
 10
183.768115
 20
1027.563874
 11
183.061008
 21
1026.856767
  0
LINE
  5
2F6
100
AcDbEntity
  8
M0
100
AcDbLine
 10
303.214156
 20
1059.510717
 11
309.214156
 21
1059.510717
  0
LINE
  5
2F7
100
AcDbEntity
  8
M0
100
AcDbLine
 10
309.214156
 20
1059.510717
 11
309.214156
 21
1064.010717
  0
LINE
  5
2F8
100
AcDbEntity
  8
M0
100
AcDbLine
 10
309.214156
 20
1064.010717
 11
303.214156
 21
1064.010717
  0
LINE
  5
2F9
100
AcDbEntity
  8
M0
100
AcDbLine
 10
303.214156
 20
1064.010717
 11
303.214156
 21
1059.510717
  0
LINE
  5
2FA
100
AcDbEntity
  8
M0
  6
DASHDOT
 62
   234
100
AcDbLine
 10
883.709823
 20
1050.260713
 11
631.709823
 21
1050.260713
  0
LINE
  5
2FB
100
AcDbEntity
  8
M0
 62
   234
100
AcDbLine
 10
770.409823
 20
941.260713
 11
780.409823
 21
931.260713
  0
LINE
  5
2FC
100
AcDbEntity
  8
M0
 62
   234
100
AcDbLine
 10
750.409823
 20
1085.260713
 11
738.409823
 21
1085.260713
  0
LINE
  5
2FD
100
AcDbEntity
  8
M0
 62
   234
100
AcDbLine
 10
750.409823
 20
1077.260713
 11
738.409823
 21
1077.260713
  0
LINE
  5
2FE
100
AcDbEntity
  8
M0
 62
   234
100
AcDbLine
 10
738.409823
 20
1015.260713
 11
750.409823
 21
1015.260713
  0
LINE
  5
2FF
100
AcDbEntity
  8
M0
 62
   234
100
AcDbLine
 10
738.409823
 20
1023.260713
 11
750.409823
 21
1023.260713
  0
LINE
  5
300
100
AcDbEntity
  8
M0
 62
   234
100
AcDbLine
 10
738.409823
 20
1066.260713
 11
750.409823
 21
1066.260713
  0
LINE
  5
301
100
AcDbEntity
  8
M0
 62
   234
100
AcDbLine
 10
738.409823
 20
1074.260713
 11
750.409823
 21
1074.260713
  0
LINE
  5
302
100
AcDbEntity
  8
M0
 62
   234
100
AcDbLine
 10
738.409823
 20
1012.260713
 11
750.409823
 21
1012.260713
  0
LINE
  5
303
100
AcDbEntity
  8
M0
 62
   234
100
AcDbLine
 10
738.409823
 20
1004.260713
 11
738.409823
 21
1012.260713
  0
LINE
  5
304
100
AcDbEntity
  8
M0
 62
   234
100
AcDbLine
 10
738.409823
 20
1015.260713
 11
738.409823
 21
1023.260713
  0
LINE
  5
305
100
AcDbEntity
  8
M0
 62
   234
100
AcDbLine
 10
738.409823
 20
1066.260713
 11
738.409823
 21
1074.260713
  0
LINE
  5
306
100
AcDbEntity
  8
M0
 62
   234
100
AcDbLine
 10
738.409823
 20
1077.260713
 11
738.409823
 21
1085.260713
  0
LINE
  5
307
100
AcDbEntity
  8
M0
 62
   234
100
AcDbLine
 10
724.909823
 20
1006.260713
 11
724.909823
 21
1004.260713
  0
LINE
  5
308
100
AcDbEntity
  8
M0
 62
   234
100
AcDbLine
 10
724.909823
 20
1004.260713
 11
750.409823
 21
1004.260713
  0
LINE
  5
309
100
AcDbEntity
  8
M0
 62
   234
100
AcDbLine
 10
724.909823
 20
1006.260713
 11
738.409823
 21
1006.260713
  0
LINE
  5
30A
100
AcDbEntity
  8
M0
 62
   234
100
AcDbLine
 10
740.409823
 20
972.260713
 11
750.409823
 21
972.260713
  0
LINE
  5
30B
100
AcDbEntity
  8
M0
 62
   234
100
AcDbLine
 10
750.409823
 20
974.260713
 11
740.409823
 21
974.260713
  0
LINE
  5
30C
100
AcDbEntity
  8
M0
 62
   234
100
AcDbLine
 10
750.409823
 20
976.260713
 11
740.409823
 21
976.260713
  0
LINE
  5
30D
100
AcDbEntity
  8
M0
 62
   234
100
AcDbLine
 10
761.409823
 20
941.260713
 11
770.409823
 21
941.260713
  0
ARC
  5
30E
100
AcDbEntity
  8
M0
 62
   234
100
AcDbCircle
 10
761.409823
 20
952.260713
 40
11.0
100
AcDbArc
 50
180.0
 51
270.0
  0
ARC
  5
30F
100
AcDbEntity
  8
M0
 62
   234
100
AcDbCircle
 10
745.409823
 20
956.260713
 40
5.0
100
AcDbArc
 50
180.0
 51
270.0
  0
LINE
  5
310
100
AcDbEntity
  8
M0
 62
   234
100
AcDbLine
 10
745.409823
 20
951.260713
 11
750.455372
 21
951.260713
  0
LINE
  5
311
100
AcDbEntity
  8
M0
 62
   234
100
AcDbLine
 10
740.409823
 20
956.260713
 11
740.409823
 21
972.260713
  0
LINE
  5
312
100
AcDbEntity
  8
M0
 62
   234
100
AcDbLine
 10
740.409823
 20
974.260713
 11
740.409823
 21
976.260713
  0
LINE
  5
313
100
AcDbEntity
  8
M0
 62
   234
100
AcDbLine
 10
750.409823
 20
952.260713
 11
750.409823
 21
1151.360713
  0
LINE
  5
314
100
AcDbEntity
  8
M0
 62
   234
100
AcDbLine
 10
815.409823
 20
1169.260713
 11
797.509823
 21
1151.360713
  0
LINE
  5
315
100
AcDbEntity
  8
M0
 62
   234
100
AcDbLine
 10
745.409823
 20
1151.360713
 11
797.509823
 21
1151.360713
  0
ARC
  5
316
100
AcDbEntity
  8
M0
 62
   234
100
AcDbCircle
 10
745.409823
 20
1146.360713
 40
5.0
100
AcDbArc
 50
90.0
 51
180.0
  0
LINE
  5
317
100
AcDbEntity
  8
M0
 62
   234
100
AcDbLine
 10
742.409823
 20
1136.360713
 11
750.409823
 21
1136.360713
  0
LINE
  5
318
100
AcDbEntity
  8
M0
 62
   234
100
AcDbLine
 10
740.409823
 20
1146.360713
 11
740.409823
 21
1138.360713
  0
ARC
  5
319
100
AcDbEntity
  8
M0
 62
   234
100
AcDbCircle
 10
742.409823
 20
1138.360713
 40
2.0
100
AcDbArc
 50
180.0
 51
270.0
  0
LINE
  5
31A
100
AcDbEntity
  8
M0
 62
   234
100
AcDbLine
 10
826.909823
 20
931.260713
 11
826.909823
 21
1169.260713
  0
LINE
  5
31B
100
AcDbEntity
  8
M0
 62
   234
100
AcDbLine
 10
826.909823
 20
931.260713
 11
780.409823
 21
931.260713
  0
LINE
  5
31C
100
AcDbEntity
  8
M0
 62
   234
100
AcDbLine
 10
815.409823
 20
1169.260713
 11
826.909823
 21
1169.260713
  0
LINE
  5
31D
100
AcDbEntity
  8
M0
 62
   234
100
AcDbLine
 10
820.209823
 20
931.260713
 11
820.209823
 21
1169.260713
  0
LINE
  5
31E
100
AcDbEntity
  8
M0
 62
   154
100
AcDbLine
 10
698.409823
 20
1056.760713
 11
710.409823
 21
1056.760713
  0
LINE
  5
31F
100
AcDbEntity
  8
M0
 62
   154
100
AcDbLine
 10
698.409823
 20
1043.760713
 11
710.409823
 21
1043.760713
  0
LINE
  5
320
100
AcDbEntity
  8
M0
 62
   154
100
AcDbLine
 10
738.409823
 20
1037.760713
 11
749.209823
 21
1037.760713
  0
LINE
  5
321
100
AcDbEntity
  8
M0
 62
   154
100
AcDbLine
 10
738.409823
 20
1062.760713
 11
749.209823
 21
1062.760713
  0
LINE
  5
322
100
AcDbEntity
  8
M0
 62
   154
100
AcDbLine
 10
737.409823
 20
1007.260713
 11
737.409823
 21
1037.760713
  0
LINE
  5
323
100
AcDbEntity
  8
M0
 62
   154
100
AcDbLine
 10
737.409823
 20
1062.760713
 11
737.409823
 21
1093.260713
  0
ARC
  5
324
100
AcDbEntity
  8
M0
 62
   154
100
AcDbCircle
 10
719.409823
 20
1086.260713
 40
3.0
100
AcDbArc
 50
270.0
 51
360.0
  0
ARC
  5
325
100
AcDbEntity
  8
M0
 62
   154
100
AcDbCircle
 10
719.409823
 20
1014.260713
 40
3.0
100
AcDbArc
 50
0.0
 51
90.0
  0
LINE
  5
326
100
AcDbEntity
  8
M0
 62
   154
100
AcDbLine
 10
715.409823
 20
1083.260713
 11
719.409823
 21
1083.260713
  0
LINE
  5
327
100
AcDbEntity
  8
M0
 62
   154
100
AcDbLine
 10
710.409823
 20
1078.260713
 11
710.409823
 21
1056.760713
  0
ARC
  5
328
100
AcDbEntity
  8
M0
 62
   154
100
AcDbCircle
 10
715.409823
 20
1078.260713
 40
5.0
100
AcDbArc
 50
90.0
 51
180.0
  0
LINE
  5
329
100
AcDbEntity
  8
M0
 62
   154
100
AcDbLine
 10
710.409823
 20
1043.760713
 11
710.409823
 21
1022.260713
  0
LINE
  5
32A
100
AcDbEntity
  8
M0
 62
   154
100
AcDbLine
 10
715.409823
 20
1017.260713
 11
719.409823
 21
1017.260713
  0
ARC
  5
32B
100
AcDbEntity
  8
M0
 62
   154
100
AcDbCircle
 10
715.409823
 20
1022.260713
 40
5.0
100
AcDbArc
 50
180.0
 51
270.0
  0
LINE
  5
32C
100
AcDbEntity
  8
M0
 62
   154
100
AcDbLine
 10
722.409823
 20
1014.260713
 11
722.409823
 21
1012.260713
  0
LINE
  5
32D
100
AcDbEntity
  8
M0
 62
   154
100
AcDbLine
 10
727.409823
 20
1007.260713
 11
737.409823
 21
1007.260713
  0
ARC
  5
32E
100
AcDbEntity
  8
M0
 62
   154
100
AcDbCircle
 10
727.409823
 20
1012.260713
 40
5.0
100
AcDbArc
 50
180.0
 51
270.0
  0
LINE
  5
32F
100
AcDbEntity
  8
M0
 62
   154
100
AcDbLine
 10
737.409823
 20
1093.260713
 11
727.409823
 21
1093.260713
  0
LINE
  5
330
100
AcDbEntity
  8
M0
 62
   154
100
AcDbLine
 10
722.409823
 20
1088.260713
 11
722.409823
 21
1086.260713
  0
ARC
  5
331
100
AcDbEntity
  8
M0
 62
   154
100
AcDbCircle
 10
727.409823
 20
1088.260713
 40
5.0
100
AcDbArc
 50
90.0
 51
180.0
  0
LINE
  5
332
100
AcDbEntity
  8
M0
 62
   154
100
AcDbLine
 10
698.409823
 20
1056.760713
 11
698.409823
 21
1043.760713
  0
LINE
  5
333
100
AcDbEntity
  8
M0
 62
   154
100
AcDbLine
 10
749.209823
 20
1062.760713
 11
749.209823
 21
1037.760713
  0
LINE
  5
334
100
AcDbEntity
  8
M0
 62
   154
100
AcDbLine
 10
738.409823
 20
1007.260713
 11
738.409823
 21
1093.260713
  0
LINE
  5
335
100
AcDbEntity
  8
M0
 62
   154
100
AcDbLine
 10
738.409823
 20
1093.260713
 11
737.409823
 21
1093.260713
  0
LINE
  5
336
100
AcDbEntity
  8
M0
 62
   154
100
AcDbLine
 10
737.409823
 20
1093.260713
 11
737.409823
 21
1007.260713
  0
LINE
  5
337
100
AcDbEntity
  8
M0
 62
   154
100
AcDbLine
 10
737.409823
 20
1007.260713
 11
738.409823
 21
1007.260713
  0
LINE
  5
338
100
AcDbEntity
  8
M0
100
AcDbLine
 10
829.209823
 20
1169.260713
 11
829.209823
 21
931.260713
  0
ARC
  5
339
100
AcDbEntity
  8
M0
100
AcDbCircle
 10
858.709823
 20
934.260713
 40
3.0
100
AcDbArc
 50
270.0
 51
360.0
  0
LINE
  5
33A
100
AcDbEntity
  8
M0
100
AcDbLine
 10
861.709823
 20
934.260713
 11
861.709823
 21
962.260713
  0
LINE
  5
33B
100
AcDbEntity
  8
M0
100
AcDbLine
 10
858.709823
 20
965.260713
 11
829.209823
 21
965.260713
  0
ARC
  5
33C
100
AcDbEntity
  8
M0
100
AcDbCircle
 10
858.709823
 20
962.260713
 40
3.0
100
AcDbArc
 50
0.0
 51
90.0
  0
LINE
  5
33D
100
AcDbEntity
  8
M0
100
AcDbLine
 10
858.709823
 20
1135.260713
 11
829.209823
 21
1135.260713
  0
ARC
  5
33E
100
AcDbEntity
  8
M0
100
AcDbCircle
 10
858.709823
 20
1138.260713
 40
3.0
100
AcDbArc
 50
270.0
 51
360.0
  0
LINE
  5
33F
100
AcDbEntity
  8
M0
100
AcDbLine
 10
861.709823
 20
1138.260713
 11
861.709823
 21
1166.260713
  0
ARC
  5
340
100
AcDbEntity
  8
M0
100
AcDbCircle
 10
858.709823
 20
1166.260713
 40
3.0
100
AcDbArc
 50
0.0
 51
90.0
  0
CIRCLE
  5
341
100
AcDbEntity
  8
M0
100
AcDbCircle
 10
840.709823
 20
1161.260713
 40
3.5
  0
CIRCLE
  5
342
100
AcDbEntity
  8
M0
100
AcDbCircle
 10
840.709823
 20
1145.260713
 40
3.5
  0
CIRCLE
  5
343
100
AcDbEntity
  8
M0
100
AcDbCircle
 10
840.709823
 20
955.260713
 40
3.5
  0
CIRCLE
  5
344
100
AcDbEntity
  8
M0
100
AcDbCircle
 10
840.709823
 20
939.260713
 40
3.5
  0
LINE
  5
345
100
AcDbEntity
  8
M0
100
AcDbLine
 10
826.909823
 20
1169.260713
 11
858.709823
 21
1169.260713
  0
LINE
  5
346
100
AcDbEntity
  8
M0
100
AcDbLine
 10
826.909823
 20
931.260713
 11
858.709823
 21
931.260713
  0
LINE
  5
347
100
AcDbEntity
  8
M0
100
AcDbLine
 10
769.509823
 20
925.260713
 11
769.509823
 21
941.260713
  0
LINE
  5
348
100
AcDbEntity
  8
M0
100
AcDbLine
 10
740.409823
 20
1145.260713
 11
674.509823
 21
1145.260713
  0
LINE
  5
349
100
AcDbEntity
  8
M0
100
AcDbLine
 10
674.509823
 20
1145.260713
 11
674.509823
 21
1075.260713
  0
LINE
  5
34A
100
AcDbEntity
  8
M0
100
AcDbLine
 10
754.509823
 20
925.260713
 11
769.509823
 21
925.260713
  0
LINE
  5
34B
100
AcDbEntity
  8
M0
100
AcDbLine
 10
754.509823
 20
943.693916
 11
754.509823
 21
925.260713
  0
LINE
  5
34C
100
AcDbEntity
  8
M0
100
AcDbLine
 10
750.409823
 20
1120.260713
 11
711.509823
 21
1120.260713
  0
LINE
  5
34D
100
AcDbEntity
  8
M0
100
AcDbLine
 10
721.509823
 20
1005.260713
 11
721.509823
 21
968.260713
  0
LINE
  5
34E
100
AcDbEntity
  8
M0
100
AcDbLine
 10
711.509823
 20
1120.260713
 11
711.509823
 21
1081.38961
  0
LINE
  5
34F
100
AcDbEntity
  8
M0
100
AcDbLine
 10
721.509823
 20
1005.260713
 11
711.509823
 21
1005.260713
  0
LINE
  5
350
100
AcDbEntity
  8
M0
100
AcDbLine
 10
740.409823
 20
963.592531
 11
732.509823
 21
968.260713
  0
LINE
  5
351
100
AcDbEntity
  8
M0
100
AcDbLine
 10
732.509823
 20
968.260713
 11
721.509823
 21
968.260713
  0
LINE
  5
352
100
AcDbEntity
  8
M0
100
AcDbLine
 10
732.509823
 20
1153.760713
 11
734.709868
 21
1153.760713
  0
LINE
  5
353
100
AcDbEntity
  8
M0
100
AcDbLine
 10
752.509823
 20
1151.360713
 11
752.509823
 21
1153.760713
  0
LINE
  5
354
100
AcDbEntity
  8
M0
100
AcDbLine
 10
700.509823
 20
1159.260713
 11
732.509823
 21
1159.260713
  0
LINE
  5
355
100
AcDbEntity
  8
M0
100
AcDbLine
 10
700.509823
 20
1159.260713
 11
700.509823
 21
1145.260713
  0
LINE
  5
356
100
AcDbEntity
  8
M0
100
AcDbLine
 10
732.509823
 20
1159.260713
 11
732.509823
 21
1153.760713
  0
LINE
  5
357
100
AcDbEntity
  8
M0
100
AcDbLine
 10
740.510844
 20
955.260713
 11
674.509823
 21
955.260713
  0
LINE
  5
358
100
AcDbEntity
  8
M0
100
AcDbLine
 10
732.509823
 20
946.760713
 11
734.709868
 21
946.760713
  0
LINE
  5
359
100
AcDbEntity
  8
M0
100
AcDbLine
 10
732.509823
 20
941.260713
 11
732.509823
 21
946.760713
  0
LINE
  5
35A
100
AcDbEntity
  8
M0
100
AcDbLine
 10
700.509823
 20
941.260713
 11
732.509823
 21
941.260713
  0
LINE
  5
35B
100
AcDbEntity
  8
M0
100
AcDbLine
 10
700.509823
 20
941.260713
 11
700.509823
 21
955.260713
  0
LINE
  5
35C
100
AcDbEntity
  8
M0
100
AcDbLine
 10
711.509823
 20
1019.131815
 11
711.509823
 21
1005.260713
  0
LINE
  5
35D
100
AcDbEntity
  8
M0
100
AcDbLine
 10
674.509823
 20
1025.260713
 11
674.509823
 21
955.260713
  0
LINE
  5
35E
100
AcDbEntity
  8
M0
100
AcDbLine
 10
746.709761
 20
1153.760713
 11
752.509823
 21
1153.760713
  0
LINE
  5
35F
100
AcDbEntity
  8
M0
100
AcDbLine
 10
778.985233
 20
1151.360713
 11
807.005622
 21
1160.856511
  0
LINE
  5
360
100
AcDbEntity
  8
M0
100
AcDbLine
 10
849.509823
 20
1175.260713
 11
873.709823
 21
1175.260713
  0
LINE
  5
361
100
AcDbEntity
  8
M0
100
AcDbLine
 10
769.509823
 20
925.260713
 11
873.709823
 21
925.260713
  0
LINE
  5
362
100
AcDbEntity
  8
M0
  6
DOT
100
AcDbLine
 10
870.509823
 20
1175.260713
 11
870.509823
 21
925.260713
  0
LINE
  5
363
100
AcDbEntity
  8
M0
100
AcDbLine
 10
873.709823
 20
1175.260713
 11
873.709823
 21
925.260713
  0
LINE
  5
364
100
AcDbEntity
  8
M0
100
AcDbLine
 10
831.804905
 20
1169.260713
 11
849.509823
 21
1175.260713
  0
ARC
  5
365
100
AcDbEntity
  8
M0
100
AcDbCircle
 10
681.509823
 20
1085.260713
 40
10.0
100
AcDbArc
 50
270.0
 51
360.0
  0
ARC
  5
366
100
AcDbEntity
  8
M0
100
AcDbCircle
 10
681.509823
 20
1015.260713
 40
10.0
100
AcDbArc
 50
0.0
 51
90.0
  0
LINE
  5
367
100
AcDbEntity
  8
M0
100
AcDbLine
 10
669.509823
 20
1025.260713
 11
681.509823
 21
1025.260713
  0
ARC
  5
368
100
AcDbEntity
  8
M0
100
AcDbCircle
 10
669.509823
 20
1028.260713
 40
3.0
100
AcDbArc
 50
180.0
 51
270.0
  0
LINE
  5
369
100
AcDbEntity
  8
M0
100
AcDbLine
 10
669.509823
 20
1075.260713
 11
681.509823
 21
1075.260713
  0
LINE
  5
36A
100
AcDbEntity
  8
M0
100
AcDbLine
 10
666.509823
 20
1072.260713
 11
666.509823
 21
1028.260713
  0
ARC
  5
36B
100
AcDbEntity
  8
M0
100
AcDbCircle
 10
669.509823
 20
1072.260713
 40
3.0
100
AcDbArc
 50
90.0
 51
180.0
  0
LINE
  5
36C
100
AcDbEntity
  8
M0
100
AcDbLine
 10
691.509823
 20
1015.260713
 11
691.509823
 21
1010.260713
  0
LINE
  5
36D
100
AcDbEntity
  8
M0
100
AcDbLine
 10
696.509823
 20
1005.260713
 11
711.509823
 21
1005.260713
  0
ARC
  5
36E
100
AcDbEntity
  8
M0
100
AcDbCircle
 10
696.509823
 20
1010.260713
 40
5.0
100
AcDbArc
 50
180.0
 51
270.0
  0
LINE
  5
36F
100
AcDbEntity
  8
M0
100
AcDbLine
 10
711.509823
 20
1095.260713
 11
696.509823
 21
1095.260713
  0
LINE
  5
370
100
AcDbEntity
  8
M0
100
AcDbLine
 10
691.509823
 20
1090.260713
 11
691.509823
 21
1085.260713
  0
ARC
  5
371
100
AcDbEntity
  8
M0
100
AcDbCircle
 10
696.509823
 20
1090.260713
 40
5.0
100
AcDbArc
 50
90.0
 51
180.0
  0
LINE
  5
372
100
AcDbEntity
  8
M0
100
AcDbLine
 10
711.509823
 20
1005.260713
 11
711.509823
 21
1019.131815
  0
LINE
  5
373
100
AcDbEntity
  8
M0
100
AcDbLine
 10
711.509823
 20
1081.38961
 11
711.509823
 21
1095.260713
  0
CIRCLE
  5
374
100
AcDbEntity
  8
M0
 62
   234
100
AcDbCircle
 10
851.709823
 20
1161.260713
 40
5.25
  0
LINE
  5
375
100
AcDbEntity
  8
M0
 62
   234
100
AcDbLine
 10
852.558414
 20
1161.260637
 11
855.822126
 21
1164.524349
  0
LINE
  5
376
100
AcDbEntity
  8
M0
 62
   234
100
AcDbLine
 10
848.446176
 20
1157.1484
 11
851.709888
 21
1160.412111
  0
LINE
  5
377
100
AcDbEntity
  8
M0
 62
   234
100
AcDbLine
 10
850.861405
 20
1161.260594
 11
847.597672
 21
1157.996861
  0
LINE
  5
378
100
AcDbEntity
  8
M0
 62
   234
100
AcDbLine
 10
854.973654
 20
1165.372864
 11
851.709931
 21
1162.10912
  0
LINE
  5
379
100
AcDbEntity
  8
M0
 62
   234
100
AcDbLine
 10
851.709921
 20
1162.109131
 11
849.942154
 21
1163.876898
  0
LINE
  5
37A
100
AcDbEntity
  8
M0
 62
   234
100
AcDbLine
 10
854.326181
 20
1159.49287
 11
852.558414
 21
1161.260637
  0
LINE
  5
37B
100
AcDbEntity
  8
M0
 62
   234
100
AcDbLine
 10
851.709888
 20
1160.412111
 11
853.477655
 21
1158.644344
  0
LINE
  5
37C
100
AcDbEntity
  8
M0
 62
   234
100
AcDbLine
 10
849.093628
 20
1163.028372
 11
850.861395
 21
1161.260605
  0
LINE
  5
37D
100
AcDbEntity
  8
M0
 62
   234
100
AcDbLine
 10
853.477655
 20
1158.644344
 11
854.326181
 21
1159.49287
  0
LINE
  5
37E
100
AcDbEntity
  8
M0
 62
   234
100
AcDbLine
 10
849.942154
 20
1163.876898
 11
849.093628
 21
1163.028372
  0
CIRCLE
  5
37F
100
AcDbEntity
  8
M0
 62
   234
100
AcDbCircle
 10
851.709823
 20
1161.260713
 40
5.5
  0
CIRCLE
  5
380
100
AcDbEntity
  8
M0
 62
   234
100
AcDbCircle
 10
851.709823
 20
1145.260713
 40
5.25
  0
LINE
  5
381
100
AcDbEntity
  8
M0
 62
   234
100
AcDbLine
 10
852.558414
 20
1145.260637
 11
855.822126
 21
1148.524349
  0
LINE
  5
382
100
AcDbEntity
  8
M0
 62
   234
100
AcDbLine
 10
848.446176
 20
1141.1484
 11
851.709888
 21
1144.412111
  0
LINE
  5
383
100
AcDbEntity
  8
M0
 62
   234
100
AcDbLine
 10
850.861405
 20
1145.260594
 11
847.597672
 21
1141.996861
  0
LINE
  5
384
100
AcDbEntity
  8
M0
 62
   234
100
AcDbLine
 10
854.973654
 20
1149.372864
 11
851.709931
 21
1146.10912
  0
LINE
  5
385
100
AcDbEntity
  8
M0
 62
   234
100
AcDbLine
 10
851.709921
 20
1146.109131
 11
849.942154
 21
1147.876898
  0
LINE
  5
386
100
AcDbEntity
  8
M0
 62
   234
100
AcDbLine
 10
854.326181
 20
1143.49287
 11
852.558414
 21
1145.260637
  0
LINE
  5
387
100
AcDbEntity
  8
M0
 62
   234
100
AcDbLine
 10
851.709888
 20
1144.412111
 11
853.477655
 21
1142.644344
  0
LINE
  5
388
100
AcDbEntity
  8
M0
 62
   234
100
AcDbLine
 10
849.093628
 20
1147.028372
 11
850.861395
 21
1145.260605
  0
LINE
  5
389
100
AcDbEntity
  8
M0
 62
   234
100
AcDbLine
 10
853.477655
 20
1142.644344
 11
854.326181
 21
1143.49287
  0
LINE
  5
38A
100
AcDbEntity
  8
M0
 62
   234
100
AcDbLine
 10
849.942154
 20
1147.876898
 11
849.093628
 21
1147.028372
  0
CIRCLE
  5
38B
100
AcDbEntity
  8
M0
 62
   234
100
AcDbCircle
 10
851.709823
 20
1145.260713
 40
5.5
  0
CIRCLE
  5
38C
100
AcDbEntity
  8
M0
 62
   234
100
AcDbCircle
 10
851.709823
 20
955.260713
 40
5.25
  0
LINE
  5
38D
100
AcDbEntity
  8
M0
 62
   234
100
AcDbLine
 10
852.558414
 20
955.260637
 11
855.822126
 21
958.524349
  0
LINE
  5
38E
100
AcDbEntity
  8
M0
 62
   234
100
AcDbLine
 10
848.446176
 20
951.1484
 11
851.709888
 21
954.412111
  0
LINE
  5
38F
100
AcDbEntity
  8
M0
 62
   234
100
AcDbLine
 10
850.861405
 20
955.260594
 11
847.597672
 21
951.996861
  0
LINE
  5
390
100
AcDbEntity
  8
M0
 62
   234
100
AcDbLine
 10
854.973654
 20
959.372864
 11
851.709931
 21
956.10912
  0
LINE
  5
391
100
AcDbEntity
  8
M0
 62
   234
100
AcDbLine
 10
851.709921
 20
956.109131
 11
849.942154
 21
957.876898
  0
LINE
  5
392
100
AcDbEntity
  8
M0
 62
   234
100
AcDbLine
 10
854.326181
 20
953.49287
 11
852.558414
 21
955.260637
  0
LINE
  5
393
100
AcDbEntity
  8
M0
 62
   234
100
AcDbLine
 10
851.709888
 20
954.412111
 11
853.477655
 21
952.644344
  0
LINE
  5
394
100
AcDbEntity
  8
M0
 62
   234
100
AcDbLine
 10
849.093628
 20
957.028372
 11
850.861395
 21
955.260605
  0
LINE
  5
395
100
AcDbEntity
  8
M0
 62
   234
100
AcDbLine
 10
853.477655
 20
952.644344
 11
854.326181
 21
953.49287
  0
LINE
  5
396
100
AcDbEntity
  8
M0
 62
   234
100
AcDbLine
 10
849.942154
 20
957.876898
 11
849.093628
 21
957.028372
  0
CIRCLE
  5
397
100
AcDbEntity
  8
M0
 62
   234
100
AcDbCircle
 10
851.709823
 20
955.260713
 40
5.5
  0
CIRCLE
  5
398
100
AcDbEntity
  8
M0
 62
   234
100
AcDbCircle
 10
851.709823
 20
939.260713
 40
5.25
  0
LINE
  5
399
100
AcDbEntity
  8
M0
 62
   234
100
AcDbLine
 10
852.558414
 20
939.260637
 11
855.822126
 21
942.524349
  0
LINE
  5
39A
100
AcDbEntity
  8
M0
 62
   234
100
AcDbLine
 10
848.446176
 20
935.1484
 11
851.709888
 21
938.412111
  0
LINE
  5
39B
100
AcDbEntity
  8
M0
 62
   234
100
AcDbLine
 10
850.861405
 20
939.260594
 11
847.597672
 21
935.996861
  0
LINE
  5
39C
100
AcDbEntity
  8
M0
 62
   234
100
AcDbLine
 10
854.973654
 20
943.372864
 11
851.709931
 21
940.10912
  0
LINE
  5
39D
100
AcDbEntity
  8
M0
 62
   234
100
AcDbLine
 10
851.709921
 20
940.109131
 11
849.942154
 21
941.876898
  0
LINE
  5
39E
100
AcDbEntity
  8
M0
 62
   234
100
AcDbLine
 10
854.326181
 20
937.49287
 11
852.558414
 21
939.260637
  0
LINE
  5
39F
100
AcDbEntity
  8
M0
 62
   234
100
AcDbLine
 10
851.709888
 20
938.412111
 11
853.477655
 21
936.644344
  0
LINE
  5
3A0
100
AcDbEntity
  8
M0
 62
   234
100
AcDbLine
 10
849.093628
 20
941.028372
 11
850.861395
 21
939.260605
  0
LINE
  5
3A1
100
AcDbEntity
  8
M0
 62
   234
100
AcDbLine
 10
853.477655
 20
936.644344
 11
854.326181
 21
937.49287
  0
LINE
  5
3A2
100
AcDbEntity
  8
M0
 62
   234
100
AcDbLine
 10
849.942154
 20
941.876898
 11
849.093628
 21
941.028372
  0
CIRCLE
  5
3A3
100
AcDbEntity
  8
M0
 62
   234
100
AcDbCircle
 10
851.709823
 20
939.260713
 40
5.5
  0
LINE
  5
3A4
100
AcDbEntity
  8
M0
100
AcDbLine
 10
644.709823
 20
1145.260713
 11
674.509823
 21
1145.260713
  0
ARC
  5
3A5
100
AcDbEntity
  8
M0
100
AcDbCircle
 10
644.709823
 20
1142.260713
 40
3.0
100
AcDbArc
 50
90.0
 51
180.0
  0
LINE
  5
3A6
100
AcDbEntity
  8
M0
100
AcDbLine
 10
641.709823
 20
958.260713
 11
641.709823
 21
1142.260713
  0
LINE
  5
3A7
100
AcDbEntity
  8
M0
100
AcDbLine
 10
644.709823
 20
955.260713
 11
674.509823
 21
955.260713
  0
ARC
  5
3A8
100
AcDbEntity
  8
M0
100
AcDbCircle
 10
644.709823
 20
958.260713
 40
3.0
100
AcDbArc
 50
180.0
 51
270.0
  0
LINE
  5
3A9
100
AcDbEntity
  8
M0
 62
   114
100
AcDbLine
 10
744.808362
 20
1126.750622
 11
750.409823
 21
1126.750622
  0
LINE
  5
3AA
100
AcDbEntity
  8
M0
 62
   114
100
AcDbLine
 10
744.808362
 20
1126.750622
 11
744.808362
 21
1136.260713
  0
LINE
  5
3AB
100
AcDbEntity
  8
M0
 62
   114
100
AcDbLine
 10
744.808362
 20
1130.507967
 11
750.409823
 21
1130.507967
  0
LINE
  5
3AC
100
AcDbEntity
  8
M0
 62
   114
100
AcDbLine
 10
744.808362
 20
932.750622
 11
751.309827
 21
932.750622
  0
LINE
  5
3AD
100
AcDbEntity
  8
M0
 62
   114
100
AcDbLine
 10
751.309827
 20
932.750622
 11
751.309827
 21
947.902954
  0
LINE
  5
3AE
100
AcDbEntity
  8
M0
 62
   114
100
AcDbLine
 10
751.367942
 20
947.770654
 11
744.808362
 21
947.770346
  0
LINE
  5
3AF
100
AcDbEntity
  8
M0
 62
   114
100
AcDbLine
 10
744.808362
 20
932.750622
 11
744.808362
 21
947.770346
  0
LINE
  5
3B0
100
AcDbEntity
  8
M0
 62
   114
100
AcDbLine
 10
744.808362
 20
944.013612
 11
751.309827
 21
944.013612
  0
LINE
  5
3B1
100
AcDbEntity
  8
M0
 62
   114
100
AcDbLine
 10
744.808362
 20
936.507967
 11
751.309827
 21
936.507967
  0
LINE
  5
3B2
100
AcDbEntity
  8
M0
 62
   114
100
AcDbLine
 10
753.309827
 20
932.260723
 11
754.509823
 21
932.260723
  0
LINE
  5
3B3
100
AcDbEntity
  8
M0
 62
   114
100
AcDbLine
 10
754.509823
 20
932.260723
 11
754.509823
 21
943.693916
  0
LINE
  5
3B4
100
AcDbEntity
  8
M0
 62
   114
100
AcDbLine
 10
753.309827
 20
944.818264
 11
753.309827
 21
932.260723
  0
LINE
  5
3B5
100
AcDbEntity
  8
M0
 62
   114
100
AcDbLine
 10
751.309827
 20
932.560702
 11
753.309827
 21
932.560702
  0
LINE
  5
3B6
100
AcDbEntity
  8
M0
 62
   114
100
AcDbLine
 10
753.309827
 20
932.560702
 11
753.309827
 21
944.818264
  0
LINE
  5
3B7
100
AcDbEntity
  8
M0
 62
   114
100
AcDbLine
 10
751.309827
 20
947.960711
 11
751.309827
 21
932.560702
  0
LINE
  5
3B8
100
AcDbEntity
  8
M0
 62
   114
100
AcDbLine
 10
751.309827
 20
940.260698
 11
753.309827
 21
939.106005
  0
LINE
  5
3B9
100
AcDbEntity
  8
M0
 62
   114
100
AcDbLine
 10
751.309827
 20
941.415392
 11
753.309827
 21
940.260698
  0
CIRCLE
  5
3BA
100
AcDbEntity
  8
M0
100
AcDbCircle
 10
184.864165
 20
1084.260778
 40
3.5
  0
ARC
  5
3BB
100
AcDbEntity
  8
M0
100
AcDbCircle
 10
187.964167
 20
1088.060775
 40
1.0
100
AcDbArc
 50
359.999964
 51
450.0
  0
LINE
  5
3BC
100
AcDbEntity
  8
M0
100
AcDbLine
 10
187.964167
 20
1089.060775
 11
181.764168
 21
1089.060779
  0
ARC
  5
3BD
100
AcDbEntity
  8
M0
100
AcDbCircle
 10
181.764168
 20
1088.060779
 40
1.0
100
AcDbArc
 50
90.0
 51
179.999964
  0
LINE
  5
3BE
100
AcDbEntity
  8
M0
100
AcDbLine
 10
180.764168
 20
1088.06078
 11
180.764163
 21
1080.460781
  0
ARC
  5
3BF
100
AcDbEntity
  8
M0
100
AcDbCircle
 10
181.764163
 20
1080.460781
 40
1.0
100
AcDbArc
 50
179.999964
 51
270.0
  0
LINE
  5
3C0
100
AcDbEntity
  8
M0
100
AcDbLine
 10
181.764162
 20
1079.460781
 11
187.964161
 21
1079.460777
  0
LINE
  5
3C1
100
AcDbEntity
  8
M0
100
AcDbLine
 10
188.964162
 20
1080.460776
 11
188.964167
 21
1088.060775
  0
ARC
  5
3C2
100
AcDbEntity
  8
M0
100
AcDbCircle
 10
187.964162
 20
1080.460777
 40
1.0
100
AcDbArc
 50
270.0
 51
360.000019
  0
LINE
  5
3C3
100
AcDbEntity
  8
M0
100
AcDbLine
 10
183.334467
 20
1085.790477
 11
186.467127
 21
1082.657813
  0
LINE
  5
3C4
100
AcDbEntity
  8
M0
100
AcDbLine
 10
186.962104
 20
1085.368766
 11
183.82944
 21
1082.236106
  0
LINE
  5
3C5
100
AcDbEntity
  8
M0
100
AcDbLine
 10
185.972155
 20
1086.358716
 11
182.839492
 21
1083.226056
  0
LINE
  5
3C6
100
AcDbEntity
  8
M0
  6
DASHDOT
100
AcDbLine
 10
180.364165
 20
1084.260778
 11
189.364165
 21
1084.260778
  0
LINE
  5
3C7
100
AcDbEntity
  8
M0
  6
DASHDOT
100
AcDbLine
 10
184.864165
 20
1088.760778
 11
184.864165
 21
1079.760778
  0
LINE
  5
3C8
100
AcDbEntity
  8
M0
 62
     7
100
AcDbLine
 10
185.571272
 20
1074.760778
 11
187.667204
 21
1072.664846
  0
LINE
  5
3C9
100
AcDbEntity
  8
M0
 62
     7
100
AcDbLine
 10
182.768221
 20
1077.563828
 11
184.864165
 21
1075.467885
  0
LINE
  5
3CA
100
AcDbEntity
  8
M0
 62
     7
100
AcDbLine
 10
184.157058
 20
1074.760778
 11
182.061115
 21
1076.856721
  0
LINE
  5
3CB
100
AcDbEntity
  8
M0
 62
     7
100
AcDbLine
 10
186.960097
 20
1071.957739
 11
184.864165
 21
1074.053671
  0
LINE
  5
3CC
100
AcDbEntity
  8
M0
 62
     7
100
AcDbLine
 10
184.864165
 20
1074.053671
 11
183.768115
 21
1072.957621
  0
LINE
  5
3CD
100
AcDbEntity
  8
M0
 62
     7
100
AcDbLine
 10
186.667322
 20
1075.856828
 11
185.571272
 21
1074.760778
  0
LINE
  5
3CE
100
AcDbEntity
  8
M0
 62
     7
100
AcDbLine
 10
184.864165
 20
1075.467885
 11
185.960215
 21
1076.563935
  0
LINE
  5
3CF
100
AcDbEntity
  8
M0
 62
     7
100
AcDbLine
 10
183.061008
 20
1073.664728
 11
184.157058
 21
1074.760778
  0
CIRCLE
  5
3D0
100
AcDbEntity
  8
M0
 62
     7
100
AcDbCircle
 10
184.864165
 20
1074.760778
 40
3.5
  0
LINE
  5
3D1
100
AcDbEntity
  8
M0
 62
     7
100
AcDbLine
 10
185.960215
 20
1076.563935
 11
186.667322
 21
1075.856828
  0
LINE
  5
3D2
100
AcDbEntity
  8
M0
 62
     7
100
AcDbLine
 10
183.768115
 20
1072.957621
 11
183.061008
 21
1073.664728
  0
CIRCLE
  5
3D3
100
AcDbEntity
  8
M0
100
AcDbCircle
 10
184.864165
 20
1061.760778
 40
3.5
  0
ARC
  5
3D4
100
AcDbEntity
  8
M0
100
AcDbCircle
 10
187.964167
 20
1065.560775
 40
1.0
100
AcDbArc
 50
359.999964
 51
450.0
  0
LINE
  5
3D5
100
AcDbEntity
  8
M0
100
AcDbLine
 10
187.964167
 20
1066.560775
 11
181.764168
 21
1066.560779
  0
ARC
  5
3D6
100
AcDbEntity
  8
M0
100
AcDbCircle
 10
181.764168
 20
1065.560779
 40
1.0
100
AcDbArc
 50
90.0
 51
179.999964
  0
LINE
  5
3D7
100
AcDbEntity
  8
M0
100
AcDbLine
 10
180.764168
 20
1065.56078
 11
180.764163
 21
1057.960781
  0
ARC
  5
3D8
100
AcDbEntity
  8
M0
100
AcDbCircle
 10
181.764163
 20
1057.960781
 40
1.0
100
AcDbArc
 50
179.999964
 51
270.0
  0
LINE
  5
3D9
100
AcDbEntity
  8
M0
100
AcDbLine
 10
181.764162
 20
1056.960781
 11
187.964161
 21
1056.960777
  0
LINE
  5
3DA
100
AcDbEntity
  8
M0
100
AcDbLine
 10
188.964162
 20
1057.960776
 11
188.964167
 21
1065.560775
  0
ARC
  5
3DB
100
AcDbEntity
  8
M0
100
AcDbCircle
 10
187.964162
 20
1057.960777
 40
1.0
100
AcDbArc
 50
270.0
 51
360.000019
  0
LINE
  5
3DC
100
AcDbEntity
  8
M0
100
AcDbLine
 10
183.334467
 20
1063.290477
 11
186.467127
 21
1060.157813
  0
LINE
  5
3DD
100
AcDbEntity
  8
M0
100
AcDbLine
 10
186.962104
 20
1062.868766
 11
183.82944
 21
1059.736106
  0
LINE
  5
3DE
100
AcDbEntity
  8
M0
100
AcDbLine
 10
185.972155
 20
1063.858716
 11
182.839492
 21
1060.726056
  0
LINE
  5
3DF
100
AcDbEntity
  8
M0
  6
DASHDOT
100
AcDbLine
 10
180.364165
 20
1061.760778
 11
189.364165
 21
1061.760778
  0
LINE
  5
3E0
100
AcDbEntity
  8
M0
  6
DASHDOT
100
AcDbLine
 10
184.864165
 20
1066.260778
 11
184.864165
 21
1057.260778
  0
CIRCLE
  5
3E1
100
AcDbEntity
  8
M0
100
AcDbCircle
 10
199.764098
 20
1084.260783
 40
3.5
  0
ARC
  5
3E2
100
AcDbEntity
  8
M0
100
AcDbCircle
 10
196.664094
 20
1088.060778
 40
1.0
100
AcDbArc
 50
90.0
 51
180.000072
  0
LINE
  5
3E3
100
AcDbEntity
  8
M0
100
AcDbLine
 10
196.664093
 20
1089.060778
 11
202.864092
 21
1089.060786
  0
ARC
  5
3E4
100
AcDbEntity
  8
M0
100
AcDbCircle
 10
202.864093
 20
1088.060786
 40
1.0
100
AcDbArc
 50
7.194436E-005
 51
90.0
  0
LINE
  5
3E5
100
AcDbEntity
  8
M0
100
AcDbLine
 10
203.864093
 20
1088.060787
 11
203.864103
 21
1080.460788
  0
ARC
  5
3E6
100
AcDbEntity
  8
M0
100
AcDbCircle
 10
202.864103
 20
1080.460787
 40
1.0
100
AcDbArc
 50
-90.0
 51
7.194436E-005
  0
LINE
  5
3E7
100
AcDbEntity
  8
M0
100
AcDbLine
 10
202.864104
 20
1079.460787
 11
196.664105
 21
1079.460779
  0
LINE
  5
3E8
100
AcDbEntity
  8
M0
100
AcDbLine
 10
195.664104
 20
1080.460778
 11
195.664094
 21
1088.060777
  0
ARC
  5
3E9
100
AcDbEntity
  8
M0
100
AcDbCircle
 10
196.664104
 20
1080.460779
 40
1.0
100
AcDbArc
 50
180.000017
 51
270.0
  0
LINE
  5
3EA
100
AcDbEntity
  8
M0
100
AcDbLine
 10
201.293795
 20
1085.790483
 11
198.161137
 21
1082.657817
  0
LINE
  5
3EB
100
AcDbEntity
  8
M0
100
AcDbLine
 10
197.666158
 20
1085.368769
 11
200.798824
 21
1082.236111
  0
LINE
  5
3EC
100
AcDbEntity
  8
M0
100
AcDbLine
 10
198.656106
 20
1086.35872
 11
201.788772
 21
1083.226062
  0
LINE
  5
3ED
100
AcDbEntity
  8
M0
  6
DASHDOT
100
AcDbLine
 10
204.264098
 20
1084.260785
 11
195.264098
 21
1084.26078
  0
LINE
  5
3EE
100
AcDbEntity
  8
M0
  6
DASHDOT
100
AcDbLine
 10
199.764096
 20
1088.760783
 11
199.764101
 21
1079.760783
  0
LINE
  5
3EF
100
AcDbEntity
  8
M0
 62
     7
100
AcDbLine
 10
199.056998
 20
1074.760782
 11
196.961066
 21
1072.664848
  0
LINE
  5
3F0
100
AcDbEntity
  8
M0
 62
     7
100
AcDbLine
 10
201.860046
 20
1077.563834
 11
199.764104
 21
1075.467889
  0
LINE
  5
3F1
100
AcDbEntity
  8
M0
 62
     7
100
AcDbLine
 10
200.471211
 20
1074.760783
 11
202.567153
 21
1076.856727
  0
LINE
  5
3F2
100
AcDbEntity
  8
M0
 62
     7
100
AcDbLine
 10
197.668174
 20
1071.957742
 11
199.764105
 21
1074.053676
  0
LINE
  5
3F3
100
AcDbEntity
  8
M0
 62
     7
100
AcDbLine
 10
199.764105
 20
1074.053676
 11
200.860155
 21
1072.957626
  0
LINE
  5
3F4
100
AcDbEntity
  8
M0
 62
     7
100
AcDbLine
 10
197.960947
 20
1075.856832
 11
199.056998
 21
1074.760782
  0
LINE
  5
3F5
100
AcDbEntity
  8
M0
 62
     7
100
AcDbLine
 10
199.764104
 20
1075.467889
 11
198.668053
 21
1076.563939
  0
LINE
  5
3F6
100
AcDbEntity
  8
M0
 62
     7
100
AcDbLine
 10
201.567262
 20
1073.664734
 11
200.471211
 21
1074.760783
  0
CIRCLE
  5
3F7
100
AcDbEntity
  8
M0
 62
     7
100
AcDbCircle
 10
199.764104
 20
1074.760783
 40
3.5
  0
LINE
  5
3F8
100
AcDbEntity
  8
M0
 62
     7
100
AcDbLine
 10
198.668053
 20
1076.563939
 11
197.960947
 21
1075.856832
  0
LINE
  5
3F9
100
AcDbEntity
  8
M0
 62
     7
100
AcDbLine
 10
200.860155
 20
1072.957626
 11
201.567262
 21
1073.664734
  0
CIRCLE
  5
3FA
100
AcDbEntity
  8
M0
100
AcDbCircle
 10
199.764113
 20
1061.760783
 40
3.5
  0
ARC
  5
3FB
100
AcDbEntity
  8
M0
100
AcDbCircle
 10
196.664108
 20
1065.560778
 40
1.0
100
AcDbArc
 50
90.0
 51
180.000072
  0
LINE
  5
3FC
100
AcDbEntity
  8
M0
100
AcDbLine
 10
196.664107
 20
1066.560778
 11
202.864106
 21
1066.560786
  0
ARC
  5
3FD
100
AcDbEntity
  8
M0
100
AcDbCircle
 10
202.864107
 20
1065.560786
 40
1.0
100
AcDbArc
 50
7.194436E-005
 51
90.0
  0
LINE
  5
3FE
100
AcDbEntity
  8
M0
100
AcDbLine
 10
203.864107
 20
1065.560787
 11
203.864117
 21
1057.960788
  0
ARC
  5
3FF
100
AcDbEntity
  8
M0
100
AcDbCircle
 10
202.864117
 20
1057.960787
 40
1.0
100
AcDbArc
 50
-90.0
 51
7.194436E-005
  0
LINE
  5
400
100
AcDbEntity
  8
M0
100
AcDbLine
 10
202.864118
 20
1056.960787
 11
196.664119
 21
1056.960779
  0
LINE
  5
401
100
AcDbEntity
  8
M0
100
AcDbLine
 10
195.664118
 20
1057.960778
 11
195.664108
 21
1065.560777
  0
ARC
  5
402
100
AcDbEntity
  8
M0
100
AcDbCircle
 10
196.664118
 20
1057.960779
 40
1.0
100
AcDbArc
 50
180.000017
 51
270.0
  0
LINE
  5
403
100
AcDbEntity
  8
M0
100
AcDbLine
 10
201.293809
 20
1063.290483
 11
198.161151
 21
1060.157817
  0
LINE
  5
404
100
AcDbEntity
  8
M0
100
AcDbLine
 10
197.666173
 20
1062.868769
 11
200.798838
 21
1059.736111
  0
LINE
  5
405
100
AcDbEntity
  8
M0
100
AcDbLine
 10
198.656121
 20
1063.85872
 11
201.788786
 21
1060.726062
  0
LINE
  5
406
100
AcDbEntity
  8
M0
  6
DASHDOT
100
AcDbLine
 10
204.264113
 20
1061.760785
 11
195.264113
 21
1061.76078
  0
LINE
  5
407
100
AcDbEntity
  8
M0
  6
DASHDOT
100
AcDbLine
 10
199.76411
 20
1066.260783
 11
199.764115
 21
1057.260783
  0
CIRCLE
  5
408
100
AcDbEntity
  8
M0
100
AcDbCircle
 10
199.764127
 20
1038.760722
 40
3.5
  0
ARC
  5
409
100
AcDbEntity
  8
M0
100
AcDbCircle
 10
196.664128
 20
1034.960722
 40
1.0
100
AcDbArc
 50
180.0
 51
270.0
  0
LINE
  5
40A
100
AcDbEntity
  8
M0
100
AcDbLine
 10
196.664128
 20
1033.960722
 11
202.864126
 21
1033.960722
  0
ARC
  5
40B
100
AcDbEntity
  8
M0
100
AcDbCircle
 10
202.864126
 20
1034.960722
 40
1.0
100
AcDbArc
 50
270.0
 51
360.0
  0
LINE
  5
40C
100
AcDbEntity
  8
M0
100
AcDbLine
 10
203.864126
 20
1034.960722
 11
203.864126
 21
1042.560721
  0
ARC
  5
40D
100
AcDbEntity
  8
M0
100
AcDbCircle
 10
202.864126
 20
1042.560721
 40
1.0
100
AcDbArc
 50
0.0
 51
90.0
  0
LINE
  5
40E
100
AcDbEntity
  8
M0
100
AcDbLine
 10
202.864126
 20
1043.560721
 11
196.664128
 21
1043.560721
  0
LINE
  5
40F
100
AcDbEntity
  8
M0
100
AcDbLine
 10
195.664128
 20
1042.560721
 11
195.664128
 21
1034.960722
  0
ARC
  5
410
100
AcDbEntity
  8
M0
100
AcDbCircle
 10
196.664128
 20
1042.560721
 40
1.0
100
AcDbArc
 50
90.0
 51
180.000055
  0
LINE
  5
411
100
AcDbEntity
  8
M0
100
AcDbLine
 10
201.293825
 20
1037.231023
 11
198.161164
 21
1040.363685
  0
LINE
  5
412
100
AcDbEntity
  8
M0
100
AcDbLine
 10
197.666188
 20
1037.652732
 11
200.79885
 21
1040.785394
  0
LINE
  5
413
100
AcDbEntity
  8
M0
100
AcDbLine
 10
198.656138
 20
1036.662783
 11
201.788799
 21
1039.795445
  0
LINE
  5
414
100
AcDbEntity
  8
M0
  6
DASHDOT
100
AcDbLine
 10
204.264127
 20
1038.760724
 11
195.264127
 21
1038.760719
  0
LINE
  5
415
100
AcDbEntity
  8
M0
  6
DASHDOT
100
AcDbLine
 10
199.76413
 20
1034.260722
 11
199.764124
 21
1043.260722
  0
LINE
  5
416
100
AcDbEntity
  8
M0
 62
     7
100
AcDbLine
 10
199.057028
 20
1025.760721
 11
196.961095
 21
1027.856652
  0
LINE
  5
417
100
AcDbEntity
  8
M0
 62
     7
100
AcDbLine
 10
201.86008
 20
1022.957673
 11
199.764136
 21
1025.053615
  0
LINE
  5
418
100
AcDbEntity
  8
M0
 62
     7
100
AcDbLine
 10
200.471242
 20
1025.760722
 11
202.567187
 21
1023.66478
  0
LINE
  5
419
100
AcDbEntity
  8
M0
 62
     7
100
AcDbLine
 10
197.668201
 20
1028.563759
 11
199.764135
 21
1026.467828
  0
LINE
  5
41A
100
AcDbEntity
  8
M0
 62
     7
100
AcDbLine
 10
199.764135
 20
1026.467828
 11
200.860184
 21
1027.563879
  0
LINE
  5
41B
100
AcDbEntity
  8
M0
 62
     7
100
AcDbLine
 10
197.960979
 20
1024.66467
 11
199.057028
 21
1025.760721
  0
LINE
  5
41C
100
AcDbEntity
  8
M0
 62
     7
100
AcDbLine
 10
199.764136
 20
1025.053615
 11
198.668086
 21
1023.957564
  0
LINE
  5
41D
100
AcDbEntity
  8
M0
 62
     7
100
AcDbLine
 10
201.567291
 20
1026.856773
 11
200.471242
 21
1025.760722
  0
CIRCLE
  5
41E
100
AcDbEntity
  8
M0
 62
     7
100
AcDbCircle
 10
199.764135
 20
1025.760722
 40
3.5
  0
LINE
  5
41F
100
AcDbEntity
  8
M0
 62
     7
100
AcDbLine
 10
198.668086
 20
1023.957564
 11
197.960979
 21
1024.66467
  0
LINE
  5
420
100
AcDbEntity
  8
M0
 62
     7
100
AcDbLine
 10
200.860184
 20
1027.563879
 11
201.567291
 21
1026.856773
  0
CIRCLE
  5
421
100
AcDbEntity
  8
M0
100
AcDbCircle
 10
199.764141
 20
1016.260722
 40
3.5
  0
ARC
  5
422
100
AcDbEntity
  8
M0
100
AcDbCircle
 10
196.664142
 20
1012.460722
 40
1.0
100
AcDbArc
 50
180.0
 51
270.0
  0
LINE
  5
423
100
AcDbEntity
  8
M0
100
AcDbLine
 10
196.664142
 20
1011.460722
 11
202.864141
 21
1011.460722
  0
ARC
  5
424
100
AcDbEntity
  8
M0
100
AcDbCircle
 10
202.864141
 20
1012.460722
 40
1.0
100
AcDbArc
 50
270.0
 51
360.0
  0
LINE
  5
425
100
AcDbEntity
  8
M0
100
AcDbLine
 10
203.864141
 20
1012.460722
 11
203.864141
 21
1020.060721
  0
ARC
  5
426
100
AcDbEntity
  8
M0
100
AcDbCircle
 10
202.864141
 20
1020.060721
 40
1.0
100
AcDbArc
 50
0.0
 51
90.0
  0
LINE
  5
427
100
AcDbEntity
  8
M0
100
AcDbLine
 10
202.864141
 20
1021.060721
 11
196.664142
 21
1021.060721
  0
LINE
  5
428
100
AcDbEntity
  8
M0
100
AcDbLine
 10
195.664142
 20
1020.060721
 11
195.664142
 21
1012.460722
  0
ARC
  5
429
100
AcDbEntity
  8
M0
100
AcDbCircle
 10
196.664142
 20
1020.060721
 40
1.0
100
AcDbArc
 50
90.0
 51
180.000055
  0
LINE
  5
42A
100
AcDbEntity
  8
M0
100
AcDbLine
 10
201.293839
 20
1014.731023
 11
198.161178
 21
1017.863685
  0
LINE
  5
42B
100
AcDbEntity
  8
M0
100
AcDbLine
 10
197.666203
 20
1015.152732
 11
200.798864
 21
1018.285394
  0
LINE
  5
42C
100
AcDbEntity
  8
M0
100
AcDbLine
 10
198.656152
 20
1014.162783
 11
201.788814
 21
1017.295445
  0
LINE
  5
42D
100
AcDbEntity
  8
M0
  6
DASHDOT
100
AcDbLine
 10
204.264141
 20
1016.260724
 11
195.264141
 21
1016.260719
  0
LINE
  5
42E
100
AcDbEntity
  8
M0
  6
DASHDOT
100
AcDbLine
 10
199.764144
 20
1011.760722
 11
199.764138
 21
1020.760722
  0
CIRCLE
  5
42F
100
AcDbEntity
  8
M0
100
AcDbCircle
 10
412.66417
 20
1016.260722
 40
3.5
  0
ARC
  5
430
100
AcDbEntity
  8
M0
100
AcDbCircle
 10
415.76417
 20
1012.460722
 40
1.0
100
AcDbArc
 50
-90.0
 51
0.0
  0
LINE
  5
431
100
AcDbEntity
  8
M0
100
AcDbLine
 10
415.76417
 20
1011.460722
 11
409.564171
 21
1011.460722
  0
ARC
  5
432
100
AcDbEntity
  8
M0
100
AcDbCircle
 10
409.564171
 20
1012.460722
 40
1.0
100
AcDbArc
 50
180.0
 51
270.0
  0
LINE
  5
433
100
AcDbEntity
  8
M0
100
AcDbLine
 10
408.564171
 20
1012.460722
 11
408.564171
 21
1020.060721
  0
ARC
  5
434
100
AcDbEntity
  8
M0
100
AcDbCircle
 10
409.564171
 20
1020.060721
 40
1.0
100
AcDbArc
 50
90.0
 51
180.0
  0
LINE
  5
435
100
AcDbEntity
  8
M0
100
AcDbLine
 10
409.564171
 20
1021.060721
 11
415.76417
 21
1021.060721
  0
LINE
  5
436
100
AcDbEntity
  8
M0
100
AcDbLine
 10
416.76417
 20
1020.060721
 11
416.76417
 21
1012.460722
  0
ARC
  5
437
100
AcDbEntity
  8
M0
100
AcDbCircle
 10
415.76417
 20
1020.060721
 40
1.0
100
AcDbArc
 50
-5.464157E-005
 51
90.0
  0
LINE
  5
438
100
AcDbEntity
  8
M0
100
AcDbLine
 10
411.134472
 20
1014.731023
 11
414.267134
 21
1017.863685
  0
LINE
  5
439
100
AcDbEntity
  8
M0
100
AcDbLine
 10
414.762109
 20
1015.152732
 11
411.629447
 21
1018.285394
  0
LINE
  5
43A
100
AcDbEntity
  8
M0
100
AcDbLine
 10
413.772159
 20
1014.162783
 11
410.639498
 21
1017.295445
  0
LINE
  5
43B
100
AcDbEntity
  8
M0
  6
DASHDOT
100
AcDbLine
 10
408.16417
 20
1016.260724
 11
417.16417
 21
1016.260719
  0
LINE
  5
43C
100
AcDbEntity
  8
M0
  6
DASHDOT
100
AcDbLine
 10
412.664167
 20
1011.760722
 11
412.664173
 21
1020.760722
  0
CIRCLE
  5
43D
100
AcDbEntity
  8
M0
100
AcDbCircle
 10
427.564146
 20
1016.260717
 40
3.5
  0
ARC
  5
43E
100
AcDbEntity
  8
M0
100
AcDbCircle
 10
424.464145
 20
1012.46072
 40
1.0
100
AcDbArc
 50
179.999964
 51
270.0
  0
LINE
  5
43F
100
AcDbEntity
  8
M0
100
AcDbLine
 10
424.464144
 20
1011.46072
 11
430.664143
 21
1011.460716
  0
ARC
  5
440
100
AcDbEntity
  8
M0
100
AcDbCircle
 10
430.664144
 20
1012.460716
 40
1.0
100
AcDbArc
 50
270.0
 51
359.999964
  0
LINE
  5
441
100
AcDbEntity
  8
M0
100
AcDbLine
 10
431.664144
 20
1012.460715
 11
431.664148
 21
1020.060714
  0
ARC
  5
442
100
AcDbEntity
  8
M0
100
AcDbCircle
 10
430.664148
 20
1020.060714
 40
1.0
100
AcDbArc
 50
359.999964
 51
450.0
  0
LINE
  5
443
100
AcDbEntity
  8
M0
100
AcDbLine
 10
430.664149
 20
1021.060714
 11
424.46415
 21
1021.060718
  0
LINE
  5
444
100
AcDbEntity
  8
M0
100
AcDbLine
 10
423.464149
 20
1020.060719
 11
423.464145
 21
1012.46072
  0
ARC
  5
445
100
AcDbEntity
  8
M0
100
AcDbCircle
 10
424.464149
 20
1020.060718
 40
1.0
100
AcDbArc
 50
90.0
 51
180.000019
  0
LINE
  5
446
100
AcDbEntity
  8
M0
100
AcDbLine
 10
429.093844
 20
1014.731018
 11
425.961184
 21
1017.863681
  0
LINE
  5
447
100
AcDbEntity
  8
M0
100
AcDbLine
 10
425.466207
 20
1015.152729
 11
428.598871
 21
1018.285389
  0
LINE
  5
448
100
AcDbEntity
  8
M0
100
AcDbLine
 10
426.456156
 20
1014.162779
 11
429.58882
 21
1017.295439
  0
LINE
  5
449
100
AcDbEntity
  8
M0
  6
DASHDOT
100
AcDbLine
 10
432.064146
 20
1016.260717
 11
423.064146
 21
1016.260717
  0
LINE
  5
44A
100
AcDbEntity
  8
M0
  6
DASHDOT
100
AcDbLine
 10
427.564146
 20
1011.760717
 11
427.564146
 21
1020.760717
  0
LINE
  5
44B
100
AcDbEntity
  8
M0
 62
     7
100
AcDbLine
 10
426.85704
 20
1025.760717
 11
424.761107
 21
1027.856649
  0
LINE
  5
44C
100
AcDbEntity
  8
M0
 62
     7
100
AcDbLine
 10
429.66009
 20
1022.957667
 11
427.564146
 21
1025.05361
  0
LINE
  5
44D
100
AcDbEntity
  8
M0
 62
     7
100
AcDbLine
 10
428.271253
 20
1025.760717
 11
430.367197
 21
1023.664774
  0
LINE
  5
44E
100
AcDbEntity
  8
M0
 62
     7
100
AcDbLine
 10
425.468214
 20
1028.563756
 11
427.564146
 21
1026.467824
  0
LINE
  5
44F
100
AcDbEntity
  8
M0
 62
     7
100
AcDbLine
 10
427.564146
 20
1026.467824
 11
428.660196
 21
1027.563874
  0
LINE
  5
450
100
AcDbEntity
  8
M0
 62
     7
100
AcDbLine
 10
425.76099
 20
1024.664667
 11
426.85704
 21
1025.760717
  0
LINE
  5
451
100
AcDbEntity
  8
M0
 62
     7
100
AcDbLine
 10
427.564146
 20
1025.05361
 11
426.468097
 21
1023.95756
  0
LINE
  5
452
100
AcDbEntity
  8
M0
 62
     7
100
AcDbLine
 10
429.367303
 20
1026.856767
 11
428.271253
 21
1025.760717
  0
CIRCLE
  5
453
100
AcDbEntity
  8
M0
 62
     7
100
AcDbCircle
 10
427.564146
 20
1025.760717
 40
3.5
  0
LINE
  5
454
100
AcDbEntity
  8
M0
 62
     7
100
AcDbLine
 10
426.468097
 20
1023.95756
 11
425.76099
 21
1024.664667
  0
LINE
  5
455
100
AcDbEntity
  8
M0
 62
     7
100
AcDbLine
 10
428.660196
 20
1027.563874
 11
429.367303
 21
1026.856767
  0
LINE
  5
456
100
AcDbEntity
  8
M0
 62
     7
100
AcDbLine
 10
413.371283
 20
1025.760721
 11
415.467217
 21
1027.856652
  0
LINE
  5
457
100
AcDbEntity
  8
M0
 62
     7
100
AcDbLine
 10
410.568231
 20
1022.957673
 11
412.664176
 21
1025.053615
  0
LINE
  5
458
100
AcDbEntity
  8
M0
 62
     7
100
AcDbLine
 10
411.957069
 20
1025.760722
 11
409.861125
 21
1023.66478
  0
LINE
  5
459
100
AcDbEntity
  8
M0
 62
     7
100
AcDbLine
 10
414.76011
 20
1028.563759
 11
412.664177
 21
1026.467828
  0
LINE
  5
45A
100
AcDbEntity
  8
M0
 62
     7
100
AcDbLine
 10
412.664177
 20
1026.467828
 11
411.568127
 21
1027.563879
  0
LINE
  5
45B
100
AcDbEntity
  8
M0
 62
     7
100
AcDbLine
 10
414.467332
 20
1024.66467
 11
413.371283
 21
1025.760721
  0
LINE
  5
45C
100
AcDbEntity
  8
M0
 62
     7
100
AcDbLine
 10
412.664176
 20
1025.053615
 11
413.760225
 21
1023.957564
  0
LINE
  5
45D
100
AcDbEntity
  8
M0
 62
     7
100
AcDbLine
 10
410.86102
 20
1026.856773
 11
411.957069
 21
1025.760722
  0
CIRCLE
  5
45E
100
AcDbEntity
  8
M0
 62
     7
100
AcDbCircle
 10
412.664176
 20
1025.760722
 40
3.5
  0
LINE
  5
45F
100
AcDbEntity
  8
M0
 62
     7
100
AcDbLine
 10
413.760225
 20
1023.957564
 11
414.467332
 21
1024.66467
  0
LINE
  5
460
100
AcDbEntity
  8
M0
 62
     7
100
AcDbLine
 10
411.568127
 20
1027.563879
 11
410.86102
 21
1026.856773
  0
CIRCLE
  5
461
100
AcDbEntity
  8
M0
100
AcDbCircle
 10
412.664184
 20
1038.760722
 40
3.5
  0
ARC
  5
462
100
AcDbEntity
  8
M0
100
AcDbCircle
 10
415.764184
 20
1034.960722
 40
1.0
100
AcDbArc
 50
-90.0
 51
0.0
  0
LINE
  5
463
100
AcDbEntity
  8
M0
100
AcDbLine
 10
415.764184
 20
1033.960722
 11
409.564185
 21
1033.960722
  0
ARC
  5
464
100
AcDbEntity
  8
M0
100
AcDbCircle
 10
409.564185
 20
1034.960722
 40
1.0
100
AcDbArc
 50
180.0
 51
270.0
  0
LINE
  5
465
100
AcDbEntity
  8
M0
100
AcDbLine
 10
408.564185
 20
1034.960722
 11
408.564185
 21
1042.560721
  0
ARC
  5
466
100
AcDbEntity
  8
M0
100
AcDbCircle
 10
409.564185
 20
1042.560721
 40
1.0
100
AcDbArc
 50
90.0
 51
180.0
  0
LINE
  5
467
100
AcDbEntity
  8
M0
100
AcDbLine
 10
409.564185
 20
1043.560721
 11
415.764184
 21
1043.560721
  0
LINE
  5
468
100
AcDbEntity
  8
M0
100
AcDbLine
 10
416.764184
 20
1042.560721
 11
416.764184
 21
1034.960722
  0
ARC
  5
469
100
AcDbEntity
  8
M0
100
AcDbCircle
 10
415.764184
 20
1042.560721
 40
1.0
100
AcDbArc
 50
-5.464157E-005
 51
90.0
  0
LINE
  5
46A
100
AcDbEntity
  8
M0
100
AcDbLine
 10
411.134486
 20
1037.231023
 11
414.267148
 21
1040.363685
  0
LINE
  5
46B
100
AcDbEntity
  8
M0
100
AcDbLine
 10
414.762123
 20
1037.652732
 11
411.629461
 21
1040.785394
  0
LINE
  5
46C
100
AcDbEntity
  8
M0
100
AcDbLine
 10
413.772174
 20
1036.662783
 11
410.639512
 21
1039.795445
  0
LINE
  5
46D
100
AcDbEntity
  8
M0
  6
DASHDOT
100
AcDbLine
 10
408.164184
 20
1038.760724
 11
417.164184
 21
1038.760719
  0
LINE
  5
46E
100
AcDbEntity
  8
M0
  6
DASHDOT
100
AcDbLine
 10
412.664181
 20
1034.260722
 11
412.664187
 21
1043.260722
  0
CIRCLE
  5
46F
100
AcDbEntity
  8
M0
100
AcDbCircle
 10
427.564146
 20
1038.760717
 40
3.5
  0
ARC
  5
470
100
AcDbEntity
  8
M0
100
AcDbCircle
 10
424.464145
 20
1034.96072
 40
1.0
100
AcDbArc
 50
179.999964
 51
270.0
  0
LINE
  5
471
100
AcDbEntity
  8
M0
100
AcDbLine
 10
424.464144
 20
1033.96072
 11
430.664143
 21
1033.960716
  0
ARC
  5
472
100
AcDbEntity
  8
M0
100
AcDbCircle
 10
430.664144
 20
1034.960716
 40
1.0
100
AcDbArc
 50
270.0
 51
359.999964
  0
LINE
  5
473
100
AcDbEntity
  8
M0
100
AcDbLine
 10
431.664144
 20
1034.960715
 11
431.664148
 21
1042.560714
  0
ARC
  5
474
100
AcDbEntity
  8
M0
100
AcDbCircle
 10
430.664148
 20
1042.560714
 40
1.0
100
AcDbArc
 50
359.999964
 51
450.0
  0
LINE
  5
475
100
AcDbEntity
  8
M0
100
AcDbLine
 10
430.664149
 20
1043.560714
 11
424.46415
 21
1043.560718
  0
LINE
  5
476
100
AcDbEntity
  8
M0
100
AcDbLine
 10
423.464149
 20
1042.560719
 11
423.464145
 21
1034.96072
  0
ARC
  5
477
100
AcDbEntity
  8
M0
100
AcDbCircle
 10
424.464149
 20
1042.560718
 40
1.0
100
AcDbArc
 50
90.0
 51
180.000019
  0
LINE
  5
478
100
AcDbEntity
  8
M0
100
AcDbLine
 10
429.093844
 20
1037.231018
 11
425.961184
 21
1040.363681
  0
LINE
  5
479
100
AcDbEntity
  8
M0
100
AcDbLine
 10
425.466207
 20
1037.652729
 11
428.598871
 21
1040.785389
  0
LINE
  5
47A
100
AcDbEntity
  8
M0
100
AcDbLine
 10
426.456156
 20
1036.662779
 11
429.58882
 21
1039.795439
  0
LINE
  5
47B
100
AcDbEntity
  8
M0
  6
DASHDOT
100
AcDbLine
 10
432.064146
 20
1038.760717
 11
423.064146
 21
1038.760717
  0
LINE
  5
47C
100
AcDbEntity
  8
M0
  6
DASHDOT
100
AcDbLine
 10
427.564146
 20
1034.260717
 11
427.564146
 21
1043.260717
  0
CIRCLE
  5
47D
100
AcDbEntity
  8
M0
100
AcDbCircle
 10
412.664199
 20
1061.760783
 40
3.5
  0
ARC
  5
47E
100
AcDbEntity
  8
M0
100
AcDbCircle
 10
415.764203
 20
1065.560778
 40
1.0
100
AcDbArc
 50
359.999928
 51
450.0
  0
LINE
  5
47F
100
AcDbEntity
  8
M0
100
AcDbLine
 10
415.764204
 20
1066.560778
 11
409.564205
 21
1066.560786
  0
ARC
  5
480
100
AcDbEntity
  8
M0
100
AcDbCircle
 10
409.564204
 20
1065.560786
 40
1.0
100
AcDbArc
 50
90.0
 51
179.999928
  0
LINE
  5
481
100
AcDbEntity
  8
M0
100
AcDbLine
 10
408.564204
 20
1065.560787
 11
408.564195
 21
1057.960788
  0
ARC
  5
482
100
AcDbEntity
  8
M0
100
AcDbCircle
 10
409.564195
 20
1057.960787
 40
1.0
100
AcDbArc
 50
179.999928
 51
270.0
  0
LINE
  5
483
100
AcDbEntity
  8
M0
100
AcDbLine
 10
409.564193
 20
1056.960787
 11
415.764192
 21
1056.960779
  0
LINE
  5
484
100
AcDbEntity
  8
M0
100
AcDbLine
 10
416.764193
 20
1057.960778
 11
416.764203
 21
1065.560777
  0
ARC
  5
485
100
AcDbEntity
  8
M0
100
AcDbCircle
 10
415.764193
 20
1057.960779
 40
1.0
100
AcDbArc
 50
270.0
 51
359.999983
  0
LINE
  5
486
100
AcDbEntity
  8
M0
100
AcDbLine
 10
411.134502
 20
1063.290483
 11
414.26716
 21
1060.157817
  0
LINE
  5
487
100
AcDbEntity
  8
M0
100
AcDbLine
 10
414.762139
 20
1062.868769
 11
411.629473
 21
1059.736111
  0
LINE
  5
488
100
AcDbEntity
  8
M0
100
AcDbLine
 10
413.772191
 20
1063.85872
 11
410.639525
 21
1060.726062
  0
LINE
  5
489
100
AcDbEntity
  8
M0
  6
DASHDOT
100
AcDbLine
 10
408.164199
 20
1061.760785
 11
417.164199
 21
1061.76078
  0
LINE
  5
48A
100
AcDbEntity
  8
M0
  6
DASHDOT
100
AcDbLine
 10
412.664202
 20
1066.260783
 11
412.664196
 21
1057.260783
  0
CIRCLE
  5
48B
100
AcDbEntity
  8
M0
100
AcDbCircle
 10
427.564146
 20
1061.760778
 40
3.5
  0
ARC
  5
48C
100
AcDbEntity
  8
M0
100
AcDbCircle
 10
424.464145
 20
1065.560775
 40
1.0
100
AcDbArc
 50
90.0
 51
180.000036
  0
LINE
  5
48D
100
AcDbEntity
  8
M0
100
AcDbLine
 10
424.464144
 20
1066.560775
 11
430.664143
 21
1066.560779
  0
ARC
  5
48E
100
AcDbEntity
  8
M0
100
AcDbCircle
 10
430.664144
 20
1065.560779
 40
1.0
100
AcDbArc
 50
3.597218E-005
 51
90.0
  0
LINE
  5
48F
100
AcDbEntity
  8
M0
100
AcDbLine
 10
431.664144
 20
1065.56078
 11
431.664148
 21
1057.960781
  0
ARC
  5
490
100
AcDbEntity
  8
M0
100
AcDbCircle
 10
430.664148
 20
1057.960781
 40
1.0
100
AcDbArc
 50
-90.0
 51
3.597218E-005
  0
LINE
  5
491
100
AcDbEntity
  8
M0
100
AcDbLine
 10
430.664149
 20
1056.960781
 11
424.46415
 21
1056.960777
  0
LINE
  5
492
100
AcDbEntity
  8
M0
100
AcDbLine
 10
423.464149
 20
1057.960776
 11
423.464145
 21
1065.560775
  0
ARC
  5
493
100
AcDbEntity
  8
M0
100
AcDbCircle
 10
424.464149
 20
1057.960777
 40
1.0
100
AcDbArc
 50
179.999981
 51
270.0
  0
LINE
  5
494
100
AcDbEntity
  8
M0
100
AcDbLine
 10
429.093844
 20
1063.290477
 11
425.961184
 21
1060.157813
  0
LINE
  5
495
100
AcDbEntity
  8
M0
100
AcDbLine
 10
425.466207
 20
1062.868766
 11
428.598871
 21
1059.736106
  0
LINE
  5
496
100
AcDbEntity
  8
M0
100
AcDbLine
 10
426.456156
 20
1063.858716
 11
429.58882
 21
1060.726056
  0
LINE
  5
497
100
AcDbEntity
  8
M0
  6
DASHDOT
100
AcDbLine
 10
432.064146
 20
1061.760778
 11
423.064146
 21
1061.760778
  0
LINE
  5
498
100
AcDbEntity
  8
M0
  6
DASHDOT
100
AcDbLine
 10
427.564146
 20
1066.260778
 11
427.564146
 21
1057.260778
  0
LINE
  5
499
100
AcDbEntity
  8
M0
 62
     7
100
AcDbLine
 10
426.85704
 20
1074.760778
 11
424.761107
 21
1072.664846
  0
LINE
  5
49A
100
AcDbEntity
  8
M0
 62
     7
100
AcDbLine
 10
429.66009
 20
1077.563828
 11
427.564146
 21
1075.467885
  0
LINE
  5
49B
100
AcDbEntity
  8
M0
 62
     7
100
AcDbLine
 10
428.271253
 20
1074.760778
 11
430.367197
 21
1076.856721
  0
LINE
  5
49C
100
AcDbEntity
  8
M0
 62
     7
100
AcDbLine
 10
425.468214
 20
1071.957739
 11
427.564146
 21
1074.053671
  0
LINE
  5
49D
100
AcDbEntity
  8
M0
 62
     7
100
AcDbLine
 10
427.564146
 20
1074.053671
 11
428.660196
 21
1072.957621
  0
LINE
  5
49E
100
AcDbEntity
  8
M0
 62
     7
100
AcDbLine
 10
425.76099
 20
1075.856828
 11
426.85704
 21
1074.760778
  0
LINE
  5
49F
100
AcDbEntity
  8
M0
 62
     7
100
AcDbLine
 10
427.564146
 20
1075.467885
 11
426.468097
 21
1076.563935
  0
LINE
  5
4A0
100
AcDbEntity
  8
M0
 62
     7
100
AcDbLine
 10
429.367303
 20
1073.664728
 11
428.271253
 21
1074.760778
  0
CIRCLE
  5
4A1
100
AcDbEntity
  8
M0
 62
     7
100
AcDbCircle
 10
427.564146
 20
1074.760778
 40
3.5
  0
LINE
  5
4A2
100
AcDbEntity
  8
M0
 62
     7
100
AcDbLine
 10
426.468097
 20
1076.563935
 11
425.76099
 21
1075.856828
  0
LINE
  5
4A3
100
AcDbEntity
  8
M0
 62
     7
100
AcDbLine
 10
428.660196
 20
1072.957621
 11
429.367303
 21
1073.664728
  0
LINE
  5
4A4
100
AcDbEntity
  8
M0
 62
     7
100
AcDbLine
 10
413.371314
 20
1074.760782
 11
415.467245
 21
1072.664848
  0
LINE
  5
4A5
100
AcDbEntity
  8
M0
 62
     7
100
AcDbLine
 10
410.568265
 20
1077.563834
 11
412.664207
 21
1075.467889
  0
LINE
  5
4A6
100
AcDbEntity
  8
M0
 62
     7
100
AcDbLine
 10
411.9571
 20
1074.760783
 11
409.861158
 21
1076.856727
  0
LINE
  5
4A7
100
AcDbEntity
  8
M0
 62
     7
100
AcDbLine
 10
414.760138
 20
1071.957742
 11
412.664206
 21
1074.053676
  0
LINE
  5
4A8
100
AcDbEntity
  8
M0
 62
     7
100
AcDbLine
 10
412.664206
 20
1074.053676
 11
411.568156
 21
1072.957626
  0
LINE
  5
4A9
100
AcDbEntity
  8
M0
 62
     7
100
AcDbLine
 10
414.467364
 20
1075.856832
 11
413.371314
 21
1074.760782
  0
LINE
  5
4AA
100
AcDbEntity
  8
M0
 62
     7
100
AcDbLine
 10
412.664207
 20
1075.467889
 11
413.760258
 21
1076.563939
  0
LINE
  5
4AB
100
AcDbEntity
  8
M0
 62
     7
100
AcDbLine
 10
410.861049
 20
1073.664734
 11
411.9571
 21
1074.760783
  0
CIRCLE
  5
4AC
100
AcDbEntity
  8
M0
 62
     7
100
AcDbCircle
 10
412.664207
 20
1074.760783
 40
3.5
  0
LINE
  5
4AD
100
AcDbEntity
  8
M0
 62
     7
100
AcDbLine
 10
413.760258
 20
1076.563939
 11
414.467364
 21
1075.856832
  0
LINE
  5
4AE
100
AcDbEntity
  8
M0
 62
     7
100
AcDbLine
 10
411.568156
 20
1072.957626
 11
410.861049
 21
1073.664734
  0
CIRCLE
  5
4AF
100
AcDbEntity
  8
M0
100
AcDbCircle
 10
412.664213
 20
1084.260783
 40
3.5
  0
ARC
  5
4B0
100
AcDbEntity
  8
M0
100
AcDbCircle
 10
415.764217
 20
1088.060778
 40
1.0
100
AcDbArc
 50
359.999928
 51
450.0
  0
LINE
  5
4B1
100
AcDbEntity
  8
M0
100
AcDbLine
 10
415.764218
 20
1089.060778
 11
409.564219
 21
1089.060786
  0
ARC
  5
4B2
100
AcDbEntity
  8
M0
100
AcDbCircle
 10
409.564218
 20
1088.060786
 40
1.0
100
AcDbArc
 50
90.0
 51
179.999928
  0
LINE
  5
4B3
100
AcDbEntity
  8
M0
100
AcDbLine
 10
408.564218
 20
1088.060787
 11
408.564209
 21
1080.460788
  0
ARC
  5
4B4
100
AcDbEntity
  8
M0
100
AcDbCircle
 10
409.564209
 20
1080.460787
 40
1.0
100
AcDbArc
 50
179.999928
 51
270.0
  0
LINE
  5
4B5
100
AcDbEntity
  8
M0
100
AcDbLine
 10
409.564207
 20
1079.460787
 11
415.764206
 21
1079.460779
  0
LINE
  5
4B6
100
AcDbEntity
  8
M0
100
AcDbLine
 10
416.764207
 20
1080.460778
 11
416.764217
 21
1088.060777
  0
ARC
  5
4B7
100
AcDbEntity
  8
M0
100
AcDbCircle
 10
415.764207
 20
1080.460779
 40
1.0
100
AcDbArc
 50
270.0
 51
359.999983
  0
LINE
  5
4B8
100
AcDbEntity
  8
M0
100
AcDbLine
 10
411.134516
 20
1085.790483
 11
414.267174
 21
1082.657817
  0
LINE
  5
4B9
100
AcDbEntity
  8
M0
100
AcDbLine
 10
414.762153
 20
1085.368769
 11
411.629487
 21
1082.236111
  0
LINE
  5
4BA
100
AcDbEntity
  8
M0
100
AcDbLine
 10
413.772205
 20
1086.35872
 11
410.639539
 21
1083.226062
  0
LINE
  5
4BB
100
AcDbEntity
  8
M0
  6
DASHDOT
100
AcDbLine
 10
408.164213
 20
1084.260785
 11
417.164213
 21
1084.26078
  0
LINE
  5
4BC
100
AcDbEntity
  8
M0
  6
DASHDOT
100
AcDbLine
 10
412.664216
 20
1088.760783
 11
412.66421
 21
1079.760783
  0
CIRCLE
  5
4BD
100
AcDbEntity
  8
M0
100
AcDbCircle
 10
427.564146
 20
1084.260778
 40
3.5
  0
ARC
  5
4BE
100
AcDbEntity
  8
M0
100
AcDbCircle
 10
424.464145
 20
1088.060775
 40
1.0
100
AcDbArc
 50
90.0
 51
180.000036
  0
LINE
  5
4BF
100
AcDbEntity
  8
M0
100
AcDbLine
 10
424.464144
 20
1089.060775
 11
430.664143
 21
1089.060779
  0
ARC
  5
4C0
100
AcDbEntity
  8
M0
100
AcDbCircle
 10
430.664144
 20
1088.060779
 40
1.0
100
AcDbArc
 50
3.597218E-005
 51
90.0
  0
LINE
  5
4C1
100
AcDbEntity
  8
M0
100
AcDbLine
 10
431.664144
 20
1088.06078
 11
431.664148
 21
1080.460781
  0
ARC
  5
4C2
100
AcDbEntity
  8
M0
100
AcDbCircle
 10
430.664148
 20
1080.460781
 40
1.0
100
AcDbArc
 50
-90.0
 51
3.597218E-005
  0
LINE
  5
4C3
100
AcDbEntity
  8
M0
100
AcDbLine
 10
430.664149
 20
1079.460781
 11
424.46415
 21
1079.460777
  0
LINE
  5
4C4
100
AcDbEntity
  8
M0
100
AcDbLine
 10
423.464149
 20
1080.460776
 11
423.464145
 21
1088.060775
  0
ARC
  5
4C5
100
AcDbEntity
  8
M0
100
AcDbCircle
 10
424.464149
 20
1080.460777
 40
1.0
100
AcDbArc
 50
179.999981
 51
270.0
  0
LINE
  5
4C6
100
AcDbEntity
  8
M0
100
AcDbLine
 10
429.093844
 20
1085.790477
 11
425.961184
 21
1082.657813
  0
LINE
  5
4C7
100
AcDbEntity
  8
M0
100
AcDbLine
 10
425.466207
 20
1085.368766
 11
428.598871
 21
1082.236106
  0
LINE
  5
4C8
100
AcDbEntity
  8
M0
100
AcDbLine
 10
426.456156
 20
1086.358716
 11
429.58882
 21
1083.226056
  0
LINE
  5
4C9
100
AcDbEntity
  8
M0
  6
DASHDOT
100
AcDbLine
 10
432.064146
 20
1084.260778
 11
423.064146
 21
1084.260778
  0
LINE
  5
4CA
100
AcDbEntity
  8
M0
  6
DASHDOT
100
AcDbLine
 10
427.564146
 20
1088.760778
 11
427.564146
 21
1079.760778
  0
LINE
  5
4CB
100
AcDbEntity
  8
M0
 62
   114
100
AcDbLine
 10
215.921262
 20
1120.260747
 11
218.017195
 21
1122.35668
  0
LINE
  5
4CC
100
AcDbEntity
  8
M0
 62
   114
100
AcDbLine
 10
213.118212
 20
1117.457697
 11
215.214156
 21
1119.553641
  0
LINE
  5
4CD
100
AcDbEntity
  8
M0
 62
   114
100
AcDbLine
 10
214.507049
 20
1120.260747
 11
212.411106
 21
1118.164804
  0
LINE
  5
4CE
100
AcDbEntity
  8
M0
 62
   114
100
AcDbLine
 10
217.310088
 20
1123.063787
 11
215.214156
 21
1120.967854
  0
LINE
  5
4CF
100
AcDbEntity
  8
M0
 62
   114
100
AcDbLine
 10
215.214156
 20
1120.967854
 11
214.118106
 21
1122.063904
  0
LINE
  5
4D0
100
AcDbEntity
  8
M0
 62
   114
100
AcDbLine
 10
217.017312
 20
1119.164697
 11
215.921262
 21
1120.260747
  0
LINE
  5
4D1
100
AcDbEntity
  8
M0
 62
   114
100
AcDbLine
 10
215.214156
 20
1119.553641
 11
216.310206
 21
1118.457591
  0
LINE
  5
4D2
100
AcDbEntity
  8
M0
 62
   114
100
AcDbLine
 10
213.410999
 20
1121.356797
 11
214.507049
 21
1120.260747
  0
CIRCLE
  5
4D3
100
AcDbEntity
  8
M0
 62
   114
100
AcDbCircle
 10
215.214156
 20
1120.260747
 40
3.5
  0
LINE
  5
4D4
100
AcDbEntity
  8
M0
 62
   114
100
AcDbLine
 10
216.310206
 20
1118.457591
 11
217.017312
 21
1119.164697
  0
LINE
  5
4D5
100
AcDbEntity
  8
M0
 62
   114
100
AcDbLine
 10
214.118106
 20
1122.063904
 11
213.410999
 21
1121.356797
  0
CIRCLE
  5
4D6
100
AcDbEntity
  8
M0
 62
   114
100
AcDbCircle
 10
215.214156
 20
1120.260747
 40
4.0
  0
LINE
  5
4D7
100
AcDbEntity
  8
M0
 62
   114
100
AcDbLine
 10
218.921262
 20
980.260747
 11
221.017195
 21
982.35668
  0
LINE
  5
4D8
100
AcDbEntity
  8
M0
 62
   114
100
AcDbLine
 10
216.118212
 20
977.457697
 11
218.214156
 21
979.553641
  0
LINE
  5
4D9
100
AcDbEntity
  8
M0
 62
   114
100
AcDbLine
 10
217.507049
 20
980.260747
 11
215.411106
 21
978.164804
  0
LINE
  5
4DA
100
AcDbEntity
  8
M0
 62
   114
100
AcDbLine
 10
220.310088
 20
983.063787
 11
218.214156
 21
980.967854
  0
LINE
  5
4DB
100
AcDbEntity
  8
M0
 62
   114
100
AcDbLine
 10
218.214156
 20
980.967854
 11
217.118106
 21
982.063904
  0
LINE
  5
4DC
100
AcDbEntity
  8
M0
 62
   114
100
AcDbLine
 10
220.017312
 20
979.164697
 11
218.921262
 21
980.260747
  0
LINE
  5
4DD
100
AcDbEntity
  8
M0
 62
   114
100
AcDbLine
 10
218.214156
 20
979.553641
 11
219.310206
 21
978.457591
  0
LINE
  5
4DE
100
AcDbEntity
  8
M0
 62
   114
100
AcDbLine
 10
216.410999
 20
981.356797
 11
217.507049
 21
980.260747
  0
CIRCLE
  5
4DF
100
AcDbEntity
  8
M0
 62
   114
100
AcDbCircle
 10
218.214156
 20
980.260747
 40
3.5
  0
LINE
  5
4E0
100
AcDbEntity
  8
M0
 62
   114
100
AcDbLine
 10
219.310206
 20
978.457591
 11
220.017312
 21
979.164697
  0
LINE
  5
4E1
100
AcDbEntity
  8
M0
 62
   114
100
AcDbLine
 10
217.118106
 20
982.063904
 11
216.410999
 21
981.356797
  0
CIRCLE
  5
4E2
100
AcDbEntity
  8
M0
 62
   114
100
AcDbCircle
 10
218.214156
 20
980.260747
 40
4.0
  0
LINE
  5
4E3
100
AcDbEntity
  8
M0
 62
   114
100
AcDbLine
 10
394.921262
 20
980.260747
 11
397.017195
 21
982.35668
  0
LINE
  5
4E4
100
AcDbEntity
  8
M0
 62
   114
100
AcDbLine
 10
392.118212
 20
977.457697
 11
394.214156
 21
979.553641
  0
LINE
  5
4E5
100
AcDbEntity
  8
M0
 62
   114
100
AcDbLine
 10
393.507049
 20
980.260747
 11
391.411106
 21
978.164804
  0
LINE
  5
4E6
100
AcDbEntity
  8
M0
 62
   114
100
AcDbLine
 10
396.310088
 20
983.063787
 11
394.214156
 21
980.967854
  0
LINE
  5
4E7
100
AcDbEntity
  8
M0
 62
   114
100
AcDbLine
 10
394.214156
 20
980.967854
 11
393.118106
 21
982.063904
  0
LINE
  5
4E8
100
AcDbEntity
  8
M0
 62
   114
100
AcDbLine
 10
396.017312
 20
979.164697
 11
394.921262
 21
980.260747
  0
LINE
  5
4E9
100
AcDbEntity
  8
M0
 62
   114
100
AcDbLine
 10
394.214156
 20
979.553641
 11
395.310206
 21
978.457591
  0
LINE
  5
4EA
100
AcDbEntity
  8
M0
 62
   114
100
AcDbLine
 10
392.410999
 20
981.356797
 11
393.507049
 21
980.260747
  0
CIRCLE
  5
4EB
100
AcDbEntity
  8
M0
 62
   114
100
AcDbCircle
 10
394.214156
 20
980.260747
 40
3.5
  0
LINE
  5
4EC
100
AcDbEntity
  8
M0
 62
   114
100
AcDbLine
 10
395.310206
 20
978.457591
 11
396.017312
 21
979.164697
  0
LINE
  5
4ED
100
AcDbEntity
  8
M0
 62
   114
100
AcDbLine
 10
393.118106
 20
982.063904
 11
392.410999
 21
981.356797
  0
CIRCLE
  5
4EE
100
AcDbEntity
  8
M0
 62
   114
100
AcDbCircle
 10
394.214156
 20
980.260747
 40
4.0
  0
LINE
  5
4EF
100
AcDbEntity
  8
M0
 62
   114
100
AcDbLine
 10
397.921262
 20
1120.260747
 11
400.017195
 21
1122.35668
  0
LINE
  5
4F0
100
AcDbEntity
  8
M0
 62
   114
100
AcDbLine
 10
395.118212
 20
1117.457697
 11
397.214156
 21
1119.553641
  0
LINE
  5
4F1
100
AcDbEntity
  8
M0
 62
   114
100
AcDbLine
 10
396.507049
 20
1120.260747
 11
394.411106
 21
1118.164804
  0
LINE
  5
4F2
100
AcDbEntity
  8
M0
 62
   114
100
AcDbLine
 10
399.310088
 20
1123.063787
 11
397.214156
 21
1120.967854
  0
LINE
  5
4F3
100
AcDbEntity
  8
M0
 62
   114
100
AcDbLine
 10
397.214156
 20
1120.967854
 11
396.118106
 21
1122.063904
  0
LINE
  5
4F4
100
AcDbEntity
  8
M0
 62
   114
100
AcDbLine
 10
399.017312
 20
1119.164697
 11
397.921262
 21
1120.260747
  0
LINE
  5
4F5
100
AcDbEntity
  8
M0
 62
   114
100
AcDbLine
 10
397.214156
 20
1119.553641
 11
398.310206
 21
1118.457591
  0
LINE
  5
4F6
100
AcDbEntity
  8
M0
 62
   114
100
AcDbLine
 10
395.410999
 20
1121.356797
 11
396.507049
 21
1120.260747
  0
CIRCLE
  5
4F7
100
AcDbEntity
  8
M0
 62
   114
100
AcDbCircle
 10
397.214156
 20
1120.260747
 40
3.5
  0
LINE
  5
4F8
100
AcDbEntity
  8
M0
 62
   114
100
AcDbLine
 10
398.310206
 20
1118.457591
 11
399.017312
 21
1119.164697
  0
LINE
  5
4F9
100
AcDbEntity
  8
M0
 62
   114
100
AcDbLine
 10
396.118106
 20
1122.063904
 11
395.410999
 21
1121.356797
  0
CIRCLE
  5
4FA
100
AcDbEntity
  8
M0
 62
   114
100
AcDbCircle
 10
397.214156
 20
1120.260747
 40
4.0
  0
LINE
  5
4FB
100
AcDbEntity
  8
M0
100
AcDbLine
 10
442.213784
 20
976.260747
 11
454.213784
 21
976.260747
  0
LINE
  5
4FC
100
AcDbEntity
  8
M0
100
AcDbLine
 10
442.213784
 20
974.260747
 11
454.213784
 21
974.260747
  0
LINE
  5
4FD
100
AcDbEntity
  8
M0
100
AcDbLine
 10
447.213784
 20
972.260747
 11
458.613784
 21
972.260747
  0
LINE
  5
4FE
100
AcDbEntity
  8
M0
100
AcDbLine
 10
451.913784
 20
943.260747
 11
451.913784
 21
944.760747
  0
LINE
  5
4FF
100
AcDbEntity
  8
M0
100
AcDbLine
 10
452.913784
 20
943.260747
 11
452.913784
 21
944.760747
  0
LINE
  5
500
100
AcDbEntity
  8
M0
100
AcDbLine
 10
452.913784
 20
943.260747
 11
451.913784
 21
943.260747
  0
LINE
  5
501
100
AcDbEntity
  8
M0
100
AcDbLine
 10
447.913784
 20
944.760747
 11
456.913784
 21
944.760747
  0
LINE
  5
502
100
AcDbEntity
  8
M0
100
AcDbLine
 10
447.913784
 20
960.260747
 11
447.913784
 21
944.760747
  0
LINE
  5
503
100
AcDbEntity
  8
M0
100
AcDbLine
 10
439.213784
 20
947.260747
 11
447.913784
 21
947.260747
  0
LINE
  5
504
100
AcDbEntity
  8
M0
100
AcDbLine
 10
458.613784
 20
960.260747
 11
437.813784
 21
960.260747
  0
LINE
  5
505
100
AcDbEntity
  8
M0
100
AcDbLine
 10
457.213784
 20
970.260747
 11
449.213784
 21
970.260747
  0
LINE
  5
506
100
AcDbEntity
  8
M0
100
AcDbLine
 10
457.213784
 20
960.260747
 11
457.213784
 21
970.260747
  0
LINE
  5
507
100
AcDbEntity
  8
M0
100
AcDbLine
 10
449.213784
 20
960.260747
 11
449.213784
 21
970.260747
  0
LINE
  5
508
100
AcDbEntity
  8
M0
100
AcDbLine
 10
439.213784
 20
947.260747
 11
439.213784
 21
960.260747
  0
LINE
  5
509
100
AcDbEntity
  8
M0
100
AcDbLine
 10
447.213784
 20
947.260747
 11
447.213784
 21
960.260747
  0
LINE
  5
50A
100
AcDbEntity
  8
M0
100
AcDbLine
 10
449.213784
 20
960.760747
 11
457.213784
 21
960.760747
  0
LINE
  5
50B
100
AcDbEntity
  8
M0
100
AcDbLine
 10
439.213784
 20
950.760747
 11
447.213784
 21
950.760747
  0
LINE
  5
50C
100
AcDbEntity
  8
M0
100
AcDbLine
 10
443.213784
 20
969.760747
 11
447.213784
 21
969.760747
  0
LINE
  5
50D
100
AcDbEntity
  8
M0
100
AcDbLine
 10
442.213784
 20
1004.260747
 11
458.613784
 21
1004.260747
  0
LINE
  5
50E
100
AcDbEntity
  8
M0
100
AcDbLine
 10
445.677886
 20
1006.260747
 11
458.613784
 21
1006.260747
  0
LINE
  5
50F
100
AcDbEntity
  8
M0
100
AcDbLine
 10
442.163784
 20
1136.360747
 11
440.213784
 21
1136.360747
  0
LINE
  5
510
100
AcDbEntity
  8
M0
100
AcDbLine
 10
444.263784
 20
1136.360747
 11
444.263784
 21
1151.360747
  0
LINE
  5
511
100
AcDbEntity
  8
M0
100
AcDbLine
 10
442.163784
 20
1136.360747
 11
442.163784
 21
1151.360747
  0
LINE
  5
512
100
AcDbEntity
  8
M0
100
AcDbLine
 10
440.213784
 20
1151.360747
 11
440.213784
 21
1136.360747
  0
LINE
  5
513
100
AcDbEntity
  8
M0
100
AcDbLine
 10
446.213784
 20
1136.360747
 11
446.213784
 21
1151.360747
  0
LINE
  5
514
100
AcDbEntity
  8
M0
100
AcDbLine
 10
446.213784
 20
1136.360747
 11
444.263784
 21
1136.360747
  0
LINE
  5
515
100
AcDbEntity
  8
M0
100
AcDbLine
 10
437.813784
 20
960.260747
 11
437.813784
 21
1007.260746
  0
LINE
  5
516
100
AcDbEntity
  8
M0
100
AcDbLine
 10
439.513784
 20
1151.360747
 11
439.513784
 21
1169.260747
  0
LINE
  5
517
100
AcDbEntity
  8
M0
100
AcDbLine
 10
458.613784
 20
960.260747
 11
458.613784
 21
1151.360747
  0
LINE
  5
518
100
AcDbEntity
  8
M0
100
AcDbLine
 10
456.913784
 20
1151.360747
 11
456.913784
 21
1169.260747
  0
LINE
  5
519
100
AcDbEntity
  8
M0
100
AcDbLine
 10
458.613784
 20
1151.360747
 11
437.813784
 21
1151.360747
  0
LINE
  5
51A
100
AcDbEntity
  8
M0
100
AcDbLine
 10
456.913784
 20
931.260747
 11
456.913784
 21
960.260747
  0
LINE
  5
51B
100
AcDbEntity
  8
M0
100
AcDbLine
 10
439.513784
 20
931.260747
 11
439.513784
 21
947.260747
  0
LINE
  5
51C
100
AcDbEntity
  8
M0
  6
DASHDOT
100
AcDbLine
 10
448.213784
 20
1179.260747
 11
448.213784
 21
921.260747
  0
LINE
  5
51D
100
AcDbEntity
  8
M0
  6
DASHDOT
100
AcDbLine
 10
469.713784
 20
1050.260747
 11
426.713784
 21
1050.260747
  0
LINE
  5
51E
100
AcDbEntity
  8
M0
100
AcDbLine
 10
459.713784
 20
1169.260747
 11
436.713784
 21
1169.260747
  0
LINE
  5
51F
100
AcDbEntity
  8
M0
100
AcDbLine
 10
459.713784
 20
931.260747
 11
459.713784
 21
1169.260747
  0
LINE
  5
520
100
AcDbEntity
  8
M0
100
AcDbLine
 10
436.713784
 20
931.260747
 11
459.713784
 21
931.260747
  0
LINE
  5
521
100
AcDbEntity
  8
M0
100
AcDbLine
 10
436.713784
 20
1169.260747
 11
436.713784
 21
1093.260746
  0
ARC
  5
522
100
AcDbEntity
  8
M0
100
AcDbCircle
 10
446.213784
 20
1152.360747
 40
3.0
100
AcDbArc
 50
90.0
 51
180.0
  0
ARC
  5
523
100
AcDbEntity
  8
M0
100
AcDbCircle
 10
450.213784
 20
1152.360747
 40
3.0
100
AcDbArc
 50
0.0
 51
90.0
  0
LINE
  5
524
100
AcDbEntity
  8
M0
100
AcDbLine
 10
446.213784
 20
1155.360747
 11
450.213784
 21
1155.360747
  0
LINE
  5
525
100
AcDbEntity
  8
M0
100
AcDbLine
 10
443.213784
 20
1152.360747
 11
443.213784
 21
1151.360747
  0
LINE
  5
526
100
AcDbEntity
  8
M0
100
AcDbLine
 10
453.213784
 20
1152.360747
 11
453.213784
 21
1151.360747
  0
LINE
  5
527
100
AcDbEntity
  8
M0
100
AcDbLine
 10
443.213784
 20
960.260747
 11
443.213784
 21
969.760747
  0
LINE
  5
528
100
AcDbEntity
  8
M0
100
AcDbLine
 10
447.213784
 20
972.260747
 11
447.213784
 21
969.760747
  0
ARC
  5
529
100
AcDbEntity
  8
M0
100
AcDbCircle
 10
442.213784
 20
975.260747
 40
1.0
100
AcDbArc
 50
180.0
 51
270.0
  0
ARC
  5
52A
100
AcDbEntity
  8
M0
100
AcDbCircle
 10
442.213784
 20
975.260747
 40
1.0
100
AcDbArc
 50
90.0
 51
180.0
  0
ARC
  5
52B
100
AcDbEntity
  8
M0
100
AcDbCircle
 10
454.213784
 20
975.260747
 40
1.0
100
AcDbArc
 50
0.0
 51
90.0
  0
ARC
  5
52C
100
AcDbEntity
  8
M0
100
AcDbCircle
 10
454.213784
 20
975.260747
 40
1.0
100
AcDbArc
 50
270.0
 51
360.0
  0
ARC
  5
52D
100
AcDbEntity
  8
M0
100
AcDbCircle
 10
442.213784
 20
1008.260747
 40
4.0
100
AcDbArc
 50
194.477528
 51
270.0
  0
LINE
  5
52E
100
AcDbEntity
  8
M0
100
AcDbLine
 10
437.813784
 20
1093.260746
 11
437.813784
 21
1151.360747
  0
LINE
  5
52F
100
AcDbEntity
  8
M0
100
AcDbLine
 10
436.713784
 20
1007.260746
 11
436.713784
 21
931.260747
  0
ARC
  5
530
100
AcDbEntity
  8
M0
100
AcDbCircle
 10
442.213784
 20
1008.260747
 40
4.0
100
AcDbArc
 50
330.0
 51
345.522508
  0
LINE
  5
531
100
AcDbEntity
  8
M0
100
AcDbLine
 10
449.213784
 20
1006.260747
 11
449.213784
 21
1004.260747
  0
CIRCLE
  5
532
100
AcDbEntity
  8
M0
100
AcDbCircle
 10
443.213784
 20
955.760747
 40
3.0
  0
LINE
  5
533
100
AcDbEntity
  8
M0
100
AcDbLine
 10
446.172769
 20
959.708089
 11
446.988931
 21
957.060796
  0
LINE
  5
534
100
AcDbEntity
  8
M0
100
AcDbLine
 10
446.172769
 20
951.813498
 11
446.988931
 21
954.460822
  0
LINE
  5
535
100
AcDbEntity
  8
M0
100
AcDbLine
 10
440.255288
 20
959.708105
 11
439.438882
 21
957.060796
  0
LINE
  5
536
100
AcDbEntity
  8
M0
100
AcDbLine
 10
440.255288
 20
951.813483
 11
439.438882
 21
954.460822
  0
LINE
  5
537
100
AcDbEntity
  8
M0
100
AcDbLine
 10
445.694741
 20
951.460822
 11
440.733072
 21
951.460822
  0
LINE
  5
538
100
AcDbEntity
  8
M0
100
AcDbLine
 10
439.438882
 20
954.460822
 11
439.438882
 21
957.060796
  0
LINE
  5
539
100
AcDbEntity
  8
M0
100
AcDbLine
 10
440.733072
 20
960.060796
 11
445.694741
 21
960.060781
  0
LINE
  5
53A
100
AcDbEntity
  8
M0
100
AcDbLine
 10
446.988931
 20
957.060796
 11
446.988931
 21
954.460822
  0
LINE
  5
53B
100
AcDbEntity
  8
M0
  6
DASHDOT
100
AcDbLine
 10
449.48893
 20
955.760747
 11
436.938882
 21
955.760747
  0
LINE
  5
53C
100
AcDbEntity
  8
M0
100
AcDbLine
 10
441.623208
 20
954.169928
 11
444.804849
 21
957.35169
  0
LINE
  5
53D
100
AcDbEntity
  8
M0
100
AcDbLine
 10
442.860513
 20
957.174932
 11
444.628091
 21
955.407232
  0
LINE
  5
53E
100
AcDbEntity
  8
M0
100
AcDbLine
 10
441.799966
 20
956.114263
 11
443.567544
 21
954.346686
  0
ARC
  5
53F
100
AcDbEntity
  8
M0
100
AcDbCircle
 10
445.694741
 20
959.560781
 40
0.5
100
AcDbArc
 50
17.127146
 51
90.0
  0
ARC
  5
540
100
AcDbEntity
  8
M0
100
AcDbCircle
 10
445.694741
 20
951.960822
 40
0.5
100
AcDbArc
 50
270.0
 51
342.871263
  0
ARC
  5
541
100
AcDbEntity
  8
M0
100
AcDbCircle
 10
440.733072
 20
951.960822
 40
0.5
100
AcDbArc
 50
197.138555
 51
270.0
  0
ARC
  5
542
100
AcDbEntity
  8
M0
100
AcDbCircle
 10
440.733072
 20
959.560781
 40
0.5
100
AcDbArc
 50
90.0
 51
162.862931
  0
LINE
  5
543
100
AcDbEntity
  8
M0
  6
DASHDOT
100
AcDbLine
 10
443.213784
 20
948.960837
 11
443.213784
 21
963.136145
  0
CIRCLE
  5
544
100
AcDbEntity
  8
M0
100
AcDbCircle
 10
453.213784
 20
965.760747
 40
3.0
  0
LINE
  5
545
100
AcDbEntity
  8
M0
100
AcDbLine
 10
456.172769
 20
969.708089
 11
456.988931
 21
967.060796
  0
LINE
  5
546
100
AcDbEntity
  8
M0
100
AcDbLine
 10
456.172769
 20
961.813498
 11
456.988931
 21
964.460822
  0
LINE
  5
547
100
AcDbEntity
  8
M0
100
AcDbLine
 10
450.255288
 20
969.708105
 11
449.438882
 21
967.060796
  0
LINE
  5
548
100
AcDbEntity
  8
M0
100
AcDbLine
 10
450.255288
 20
961.813483
 11
449.438882
 21
964.460822
  0
LINE
  5
549
100
AcDbEntity
  8
M0
100
AcDbLine
 10
455.694741
 20
961.460822
 11
450.733072
 21
961.460822
  0
LINE
  5
54A
100
AcDbEntity
  8
M0
100
AcDbLine
 10
449.438882
 20
964.460822
 11
449.438882
 21
967.060796
  0
LINE
  5
54B
100
AcDbEntity
  8
M0
100
AcDbLine
 10
450.733072
 20
970.060796
 11
455.694741
 21
970.060781
  0
LINE
  5
54C
100
AcDbEntity
  8
M0
100
AcDbLine
 10
456.988931
 20
967.060796
 11
456.988931
 21
964.460822
  0
LINE
  5
54D
100
AcDbEntity
  8
M0
  6
DASHDOT
100
AcDbLine
 10
459.48893
 20
965.760747
 11
446.938882
 21
965.760747
  0
LINE
  5
54E
100
AcDbEntity
  8
M0
100
AcDbLine
 10
451.623208
 20
964.169928
 11
454.804849
 21
967.35169
  0
LINE
  5
54F
100
AcDbEntity
  8
M0
100
AcDbLine
 10
452.860513
 20
967.174932
 11
454.628091
 21
965.407232
  0
LINE
  5
550
100
AcDbEntity
  8
M0
100
AcDbLine
 10
451.799966
 20
966.114263
 11
453.567544
 21
964.346686
  0
ARC
  5
551
100
AcDbEntity
  8
M0
100
AcDbCircle
 10
455.694741
 20
969.560781
 40
0.5
100
AcDbArc
 50
17.127146
 51
90.0
  0
ARC
  5
552
100
AcDbEntity
  8
M0
100
AcDbCircle
 10
455.694741
 20
961.960822
 40
0.5
100
AcDbArc
 50
270.0
 51
342.871263
  0
ARC
  5
553
100
AcDbEntity
  8
M0
100
AcDbCircle
 10
450.733072
 20
961.960822
 40
0.5
100
AcDbArc
 50
197.138555
 51
270.0
  0
ARC
  5
554
100
AcDbEntity
  8
M0
100
AcDbCircle
 10
450.733072
 20
969.560781
 40
0.5
100
AcDbArc
 50
90.0
 51
162.862931
  0
LINE
  5
555
100
AcDbEntity
  8
M0
  6
DASHDOT
100
AcDbLine
 10
453.213784
 20
958.960837
 11
453.213784
 21
973.136145
  0
CIRCLE
  5
556
100
AcDbEntity
  8
M0
 62
   114
100
AcDbCircle
 10
448.213784
 20
939.260747
 40
4.5
  0
LINE
  5
557
100
AcDbEntity
  8
M0
 62
   114
100
AcDbLine
 10
449.062386
 20
939.260683
 11
451.791668
 21
941.989964
  0
LINE
  5
558
100
AcDbEntity
  8
M0
 62
   114
100
AcDbLine
 10
445.484557
 20
935.682854
 11
448.213849
 21
938.412146
  0
LINE
  5
559
100
AcDbEntity
  8
M0
 62
   114
100
AcDbLine
 10
447.365366
 20
939.260629
 11
444.636042
 21
936.531304
  0
LINE
  5
55A
100
AcDbEntity
  8
M0
 62
   114
100
AcDbLine
 10
450.943206
 20
942.83849
 11
448.213903
 21
940.109165
  0
LINE
  5
55B
100
AcDbEntity
  8
M0
 62
   114
100
AcDbLine
 10
448.213849
 20
938.412146
 11
449.486676
 21
937.139319
  0
LINE
  5
55C
100
AcDbEntity
  8
M0
 62
   114
100
AcDbLine
 10
446.092529
 20
940.533466
 11
447.365356
 21
939.26064
  0
LINE
  5
55D
100
AcDbEntity
  8
M0
 62
   114
100
AcDbLine
 10
448.213892
 20
940.109176
 11
446.941066
 21
941.382003
  0
LINE
  5
55E
100
AcDbEntity
  8
M0
 62
   114
100
AcDbLine
 10
450.335213
 20
937.987856
 11
449.062386
 21
939.260683
  0
LINE
  5
55F
100
AcDbEntity
  8
M0
 62
   114
100
AcDbLine
 10
449.486676
 20
937.139319
 11
450.335213
 21
937.987856
  0
LINE
  5
560
100
AcDbEntity
  8
M0
 62
   114
100
AcDbLine
 10
446.941066
 20
941.382003
 11
446.092529
 21
940.533466
  0
CIRCLE
  5
561
100
AcDbEntity
  8
M0
 62
   114
100
AcDbCircle
 10
448.213784
 20
939.260747
 40
5.0
  0
CIRCLE
  5
562
100
AcDbEntity
  8
M0
 62
   114
100
AcDbCircle
 10
448.213784
 20
1161.260747
 40
4.5
  0
LINE
  5
563
100
AcDbEntity
  8
M0
 62
   114
100
AcDbLine
 10
449.062386
 20
1161.260683
 11
451.791668
 21
1163.989964
  0
LINE
  5
564
100
AcDbEntity
  8
M0
 62
   114
100
AcDbLine
 10
445.484557
 20
1157.682854
 11
448.213849
 21
1160.412146
  0
LINE
  5
565
100
AcDbEntity
  8
M0
 62
   114
100
AcDbLine
 10
447.365366
 20
1161.260629
 11
444.636042
 21
1158.531304
  0
LINE
  5
566
100
AcDbEntity
  8
M0
 62
   114
100
AcDbLine
 10
450.943206
 20
1164.83849
 11
448.213903
 21
1162.109165
  0
LINE
  5
567
100
AcDbEntity
  8
M0
 62
   114
100
AcDbLine
 10
448.213849
 20
1160.412146
 11
449.486676
 21
1159.139319
  0
LINE
  5
568
100
AcDbEntity
  8
M0
 62
   114
100
AcDbLine
 10
446.092529
 20
1162.533466
 11
447.365356
 21
1161.26064
  0
LINE
  5
569
100
AcDbEntity
  8
M0
 62
   114
100
AcDbLine
 10
448.213892
 20
1162.109176
 11
446.941066
 21
1163.382003
  0
LINE
  5
56A
100
AcDbEntity
  8
M0
 62
   114
100
AcDbLine
 10
450.335213
 20
1159.987856
 11
449.062386
 21
1161.260683
  0
LINE
  5
56B
100
AcDbEntity
  8
M0
 62
   114
100
AcDbLine
 10
449.486676
 20
1159.139319
 11
450.335213
 21
1159.987856
  0
LINE
  5
56C
100
AcDbEntity
  8
M0
 62
   114
100
AcDbLine
 10
446.941066
 20
1163.382003
 11
446.092529
 21
1162.533466
  0
CIRCLE
  5
56D
100
AcDbEntity
  8
M0
 62
   114
100
AcDbCircle
 10
448.213784
 20
1161.260747
 40
5.0
  0
LINE
  5
56E
100
AcDbEntity
  8
M0
100
AcDbLine
 10
426.213822
 20
1145.260747
 11
426.213822
 21
1146.660747
  0
LINE
  5
56F
100
AcDbEntity
  8
M0
100
AcDbLine
 10
426.213822
 20
1146.660747
 11
381.214121
 21
1146.660747
  0
LINE
  5
570
100
AcDbEntity
  8
M0
100
AcDbLine
 10
186.213822
 20
1146.660747
 11
186.213822
 21
1145.260747
  0
LINE
  5
571
100
AcDbEntity
  8
M0
100
AcDbLine
 10
220.111591
 20
1142.160747
 11
231.214123
 21
1142.160747
  0
LINE
  5
572
100
AcDbEntity
  8
M0
100
AcDbLine
 10
231.214121
 20
1146.660747
 11
186.213822
 21
1146.660747
  0
LINE
  5
573
100
AcDbEntity
  8
M0
100
AcDbLine
 10
261.214123
 20
1142.160747
 11
267.213879
 21
1142.160747
  0
LINE
  5
574
100
AcDbEntity
  8
M0
100
AcDbLine
 10
291.214121
 20
1146.660747
 11
280.213876
 21
1146.660747
  0
LINE
  5
575
100
AcDbEntity
  8
M0
100
AcDbLine
 10
321.214123
 20
1142.160747
 11
331.80998
 21
1142.160747
  0
LINE
  5
576
100
AcDbEntity
  8
M0
100
AcDbLine
 10
280.618332
 20
1142.160747
 11
291.214123
 21
1142.160747
  0
LINE
  5
577
100
AcDbEntity
  8
M0
100
AcDbLine
 10
267.213876
 20
1146.660747
 11
261.214121
 21
1146.660747
  0
LINE
  5
578
100
AcDbEntity
  8
M0
100
AcDbLine
 10
332.213876
 20
1146.660747
 11
321.214121
 21
1146.660747
  0
LINE
  5
579
100
AcDbEntity
  8
M0
100
AcDbLine
 10
345.213879
 20
1142.160747
 11
351.214123
 21
1142.160747
  0
LINE
  5
57A
100
AcDbEntity
  8
M0
100
AcDbLine
 10
351.214121
 20
1146.660747
 11
345.213876
 21
1146.660747
  0
LINE
  5
57B
100
AcDbEntity
  8
M0
100
AcDbLine
 10
381.214123
 20
1142.160747
 11
392.30998
 21
1142.160747
  0
LINE
  5
57C
100
AcDbEntity
  8
M0
 62
     7
100
AcDbLine
 10
217.213822
 20
1149.260738
 11
217.213822
 21
1153.260738
  0
LINE
  5
57D
100
AcDbEntity
  8
M0
 62
     7
100
AcDbLine
 10
217.213822
 20
1153.260738
 11
189.213822
 21
1153.260738
  0
LINE
  5
57E
100
AcDbEntity
  8
M0
 62
     7
100
AcDbLine
 10
189.213822
 20
1153.260738
 11
189.213822
 21
1149.260738
  0
LINE
  5
57F
100
AcDbEntity
  8
M0
 62
     7
100
AcDbLine
 10
189.213822
 20
1149.260738
 11
217.213822
 21
1149.260738
  0
LINE
  5
580
100
AcDbEntity
  8
M0
 62
     7
100
AcDbLine
 10
203.213837
 20
1149.260738
 11
205.52324
 21
1153.260738
  0
LINE
  5
581
100
AcDbEntity
  8
M0
 62
     7
100
AcDbLine
 10
200.904435
 20
1149.260738
 11
203.213837
 21
1153.260738
  0
LINE
  5
582
100
AcDbEntity
  8
M0
 62
     2
100
AcDbLine
 10
219.213822
 20
1146.660747
 11
219.213822
 21
1149.260738
  0
LINE
  5
583
100
AcDbEntity
  8
M0
 62
     2
100
AcDbLine
 10
219.213822
 20
1149.260738
 11
187.213822
 21
1149.260738
  0
LINE
  5
584
100
AcDbEntity
  8
M0
 62
     2
100
AcDbLine
 10
187.213822
 20
1149.260738
 11
187.213822
 21
1146.660747
  0
LINE
  5
585
100
AcDbEntity
  8
M0
 62
     2
100
AcDbLine
 10
187.213822
 20
1146.660747
 11
219.213822
 21
1146.660747
  0
LINE
  5
586
100
AcDbEntity
  8
M0
 62
   114
100
AcDbLine
 10
809.40997
 20
1163.260859
 11
805.661867
 21
1163.260859
  0
LINE
  5
587
100
AcDbEntity
  8
M0
 62
   114
100
AcDbLine
 10
805.661867
 20
1163.260859
 11
805.661867
 21
1160.401127
  0
LINE
  5
588
100
AcDbEntity
  8
M0
100
AcDbLine
 10
191.213822
 20
1163.260738
 11
191.213822
 21
1153.260738
  0
LINE
  5
589
100
AcDbEntity
  8
M0
100
AcDbLine
 10
191.213822
 20
1163.260738
 11
215.213913
 21
1163.260738
  0
LINE
  5
58A
100
AcDbEntity
  8
M0
100
AcDbLine
 10
203.213874
 20
1153.260738
 11
203.213867
 21
1163.260738
  0
LINE
  5
58B
100
AcDbEntity
  8
M0
100
AcDbLine
 10
215.213913
 20
1163.260753
 11
215.213926
 21
1153.260753
  0
LINE
  5
58C
100
AcDbEntity
  8
M0
100
AcDbLine
 10
421.21391
 20
1163.260883
 11
421.213922
 21
1153.260883
  0
LINE
  5
58D
100
AcDbEntity
  8
M0
100
AcDbLine
 10
421.21391
 20
1163.260883
 11
397.213819
 21
1163.260852
  0
LINE
  5
58E
100
AcDbEntity
  8
M0
100
AcDbLine
 10
409.213871
 20
1153.260868
 11
409.213864
 21
1163.260868
  0
LINE
  5
58F
100
AcDbEntity
  8
M0
100
AcDbLine
 10
397.213819
 20
1163.260868
 11
397.213819
 21
1153.260868
  0
LINE
  5
590
100
AcDbEntity
  8
M0
 62
     7
100
AcDbLine
 10
395.213928
 20
1149.26085
 11
395.213922
 21
1153.26085
  0
LINE
  5
591
100
AcDbEntity
  8
M0
 62
     7
100
AcDbLine
 10
395.213922
 20
1153.26085
 11
423.213922
 21
1153.260885
  0
LINE
  5
592
100
AcDbEntity
  8
M0
 62
     7
100
AcDbLine
 10
423.213922
 20
1153.260885
 11
423.213928
 21
1149.260885
  0
LINE
  5
593
100
AcDbEntity
  8
M0
 62
     7
100
AcDbLine
 10
423.213928
 20
1149.260885
 11
395.213928
 21
1149.26085
  0
LINE
  5
594
100
AcDbEntity
  8
M0
 62
     7
100
AcDbLine
 10
409.213912
 20
1149.260868
 11
406.904505
 21
1153.260865
  0
LINE
  5
595
100
AcDbEntity
  8
M0
 62
     7
100
AcDbLine
 10
411.523315
 20
1149.26087
 11
409.213907
 21
1153.260868
  0
LINE
  5
596
100
AcDbEntity
  8
M0
 62
     2
100
AcDbLine
 10
393.213931
 20
1146.660857
 11
393.213928
 21
1149.260847
  0
LINE
  5
597
100
AcDbEntity
  8
M0
 62
     2
100
AcDbLine
 10
393.213928
 20
1149.260847
 11
425.213928
 21
1149.260888
  0
LINE
  5
598
100
AcDbEntity
  8
M0
 62
     2
100
AcDbLine
 10
425.213928
 20
1149.260888
 11
425.213931
 21
1146.660897
  0
LINE
  5
599
100
AcDbEntity
  8
M0
 62
     2
100
AcDbLine
 10
425.213931
 20
1146.660897
 11
393.213931
 21
1146.660857
  0
LINE
  5
59A
100
AcDbEntity
  8
M0
 62
    74
100
AcDbLine
 10
190.214156
 20
994.260747
 11
181.214156
 21
994.260747
  0
LINE
  5
59B
100
AcDbEntity
  8
M0
 62
    74
100
AcDbLine
 10
190.014156
 20
965.260747
 11
181.414156
 21
965.260747
  0
LINE
  5
59C
100
AcDbEntity
  8
M0
 62
    74
100
AcDbLine
 10
183.214156
 20
956.260747
 11
183.214156
 21
954.260747
  0
LINE
  5
59D
100
AcDbEntity
  8
M0
 62
    74
100
AcDbLine
 10
188.214156
 20
956.260747
 11
188.214156
 21
954.260747
  0
LINE
  5
59E
100
AcDbEntity
  8
M0
 62
    74
100
AcDbLine
 10
181.414156
 20
970.260747
 11
181.414156
 21
954.260747
  0
LINE
  5
59F
100
AcDbEntity
  8
M0
 62
    74
100
AcDbLine
 10
190.014156
 20
970.260747
 11
190.014156
 21
954.260747
  0
LINE
  5
5A0
100
AcDbEntity
  8
M0
 62
    74
100
AcDbLine
 10
181.214156
 20
994.260747
 11
181.214156
 21
970.260747
  0
LINE
  5
5A1
100
AcDbEntity
  8
M0
 62
    74
100
AcDbLine
 10
190.214156
 20
970.260747
 11
190.214156
 21
994.260747
  0
LINE
  5
5A2
100
AcDbEntity
  8
M0
 62
    74
100
AcDbLine
 10
188.214156
 20
956.260747
 11
183.214156
 21
956.260747
  0
LINE
  5
5A3
100
AcDbEntity
  8
M0
 62
    74
100
AcDbLine
 10
188.214156
 20
954.260747
 11
190.014156
 21
954.260747
  0
LINE
  5
5A4
100
AcDbEntity
  8
M0
 62
    74
100
AcDbLine
 10
181.414156
 20
954.260747
 11
183.214156
 21
954.260747
  0
LINE
  5
5A5
100
AcDbEntity
  8
M0
 62
    74
100
AcDbLine
 10
190.214156
 20
970.260747
 11
190.014156
 21
970.260747
  0
LINE
  5
5A6
100
AcDbEntity
  8
M0
 62
    74
100
AcDbLine
 10
181.414156
 20
970.260747
 11
181.214156
 21
970.260747
  0
CIRCLE
  5
5A7
100
AcDbEntity
  8
M0
 62
    74
100
AcDbCircle
 10
185.714156
 20
981.260747
 40
2.0
  0
LINE
  5
5A8
100
AcDbEntity
  8
M0
 62
    74
100
AcDbLine
 10
210.214156
 20
994.260747
 11
201.214156
 21
994.260747
  0
LINE
  5
5A9
100
AcDbEntity
  8
M0
 62
    74
100
AcDbLine
 10
210.014156
 20
965.260747
 11
201.414156
 21
965.260747
  0
LINE
  5
5AA
100
AcDbEntity
  8
M0
 62
    74
100
AcDbLine
 10
203.214156
 20
956.260747
 11
203.214156
 21
954.260747
  0
LINE
  5
5AB
100
AcDbEntity
  8
M0
 62
    74
100
AcDbLine
 10
208.214156
 20
956.260747
 11
208.214156
 21
954.260747
  0
LINE
  5
5AC
100
AcDbEntity
  8
M0
 62
    74
100
AcDbLine
 10
201.414156
 20
970.260747
 11
201.414156
 21
954.260747
  0
LINE
  5
5AD
100
AcDbEntity
  8
M0
 62
    74
100
AcDbLine
 10
210.014156
 20
970.260747
 11
210.014156
 21
954.260747
  0
LINE
  5
5AE
100
AcDbEntity
  8
M0
 62
    74
100
AcDbLine
 10
201.214156
 20
994.260747
 11
201.214156
 21
970.260747
  0
LINE
  5
5AF
100
AcDbEntity
  8
M0
 62
    74
100
AcDbLine
 10
210.214156
 20
970.260747
 11
210.214156
 21
994.260747
  0
LINE
  5
5B0
100
AcDbEntity
  8
M0
 62
    74
100
AcDbLine
 10
208.214156
 20
956.260747
 11
203.214156
 21
956.260747
  0
LINE
  5
5B1
100
AcDbEntity
  8
M0
 62
    74
100
AcDbLine
 10
208.214156
 20
954.260747
 11
210.014156
 21
954.260747
  0
LINE
  5
5B2
100
AcDbEntity
  8
M0
 62
    74
100
AcDbLine
 10
201.414156
 20
954.260747
 11
203.214156
 21
954.260747
  0
LINE
  5
5B3
100
AcDbEntity
  8
M0
 62
    74
100
AcDbLine
 10
210.214156
 20
970.260747
 11
210.014156
 21
970.260747
  0
LINE
  5
5B4
100
AcDbEntity
  8
M0
 62
    74
100
AcDbLine
 10
201.414156
 20
970.260747
 11
201.214156
 21
970.260747
  0
CIRCLE
  5
5B5
100
AcDbEntity
  8
M0
 62
    74
100
AcDbCircle
 10
205.714156
 20
981.260747
 40
2.0
  0
LINE
  5
5B6
100
AcDbEntity
  8
M0
 62
    74
100
AcDbLine
 10
411.214156
 20
994.260747
 11
402.214156
 21
994.260747
  0
LINE
  5
5B7
100
AcDbEntity
  8
M0
 62
    74
100
AcDbLine
 10
411.014156
 20
965.260747
 11
402.414156
 21
965.260747
  0
LINE
  5
5B8
100
AcDbEntity
  8
M0
 62
    74
100
AcDbLine
 10
404.214156
 20
956.260747
 11
404.214156
 21
954.260747
  0
LINE
  5
5B9
100
AcDbEntity
  8
M0
 62
    74
100
AcDbLine
 10
409.214156
 20
956.260747
 11
409.214156
 21
954.260747
  0
LINE
  5
5BA
100
AcDbEntity
  8
M0
 62
    74
100
AcDbLine
 10
402.414156
 20
970.260747
 11
402.414156
 21
954.260747
  0
LINE
  5
5BB
100
AcDbEntity
  8
M0
 62
    74
100
AcDbLine
 10
411.014156
 20
970.260747
 11
411.014156
 21
954.260747
  0
LINE
  5
5BC
100
AcDbEntity
  8
M0
 62
    74
100
AcDbLine
 10
402.214156
 20
994.260747
 11
402.214156
 21
970.260747
  0
LINE
  5
5BD
100
AcDbEntity
  8
M0
 62
    74
100
AcDbLine
 10
411.214156
 20
970.260747
 11
411.214156
 21
994.260747
  0
LINE
  5
5BE
100
AcDbEntity
  8
M0
 62
    74
100
AcDbLine
 10
409.214156
 20
956.260747
 11
404.214156
 21
956.260747
  0
LINE
  5
5BF
100
AcDbEntity
  8
M0
 62
    74
100
AcDbLine
 10
409.214156
 20
954.260747
 11
411.014156
 21
954.260747
  0
LINE
  5
5C0
100
AcDbEntity
  8
M0
 62
    74
100
AcDbLine
 10
402.414156
 20
954.260747
 11
404.214156
 21
954.260747
  0
LINE
  5
5C1
100
AcDbEntity
  8
M0
 62
    74
100
AcDbLine
 10
411.214156
 20
970.260747
 11
411.014156
 21
970.260747
  0
LINE
  5
5C2
100
AcDbEntity
  8
M0
 62
    74
100
AcDbLine
 10
402.414156
 20
970.260747
 11
402.214156
 21
970.260747
  0
CIRCLE
  5
5C3
100
AcDbEntity
  8
M0
 62
    74
100
AcDbCircle
 10
406.714156
 20
981.260747
 40
2.0
  0
LINE
  5
5C4
100
AcDbEntity
  8
M0
 62
   114
100
AcDbLine
 10
186.421262
 20
960.260747
 11
188.517195
 21
962.35668
  0
LINE
  5
5C5
100
AcDbEntity
  8
M0
 62
   114
100
AcDbLine
 10
183.618212
 20
957.457697
 11
185.714156
 21
959.553641
  0
LINE
  5
5C6
100
AcDbEntity
  8
M0
 62
   114
100
AcDbLine
 10
185.007049
 20
960.260747
 11
182.911106
 21
958.164804
  0
LINE
  5
5C7
100
AcDbEntity
  8
M0
 62
   114
100
AcDbLine
 10
187.810088
 20
963.063787
 11
185.714156
 21
960.967854
  0
LINE
  5
5C8
100
AcDbEntity
  8
M0
 62
   114
100
AcDbLine
 10
185.714156
 20
960.967854
 11
184.618106
 21
962.063904
  0
LINE
  5
5C9
100
AcDbEntity
  8
M0
 62
   114
100
AcDbLine
 10
187.517312
 20
959.164697
 11
186.421262
 21
960.260747
  0
LINE
  5
5CA
100
AcDbEntity
  8
M0
 62
   114
100
AcDbLine
 10
185.714156
 20
959.553641
 11
186.810206
 21
958.457591
  0
LINE
  5
5CB
100
AcDbEntity
  8
M0
 62
   114
100
AcDbLine
 10
183.910999
 20
961.356797
 11
185.007049
 21
960.260747
  0
CIRCLE
  5
5CC
100
AcDbEntity
  8
M0
 62
   114
100
AcDbCircle
 10
185.714156
 20
960.260747
 40
3.5
  0
LINE
  5
5CD
100
AcDbEntity
  8
M0
 62
   114
100
AcDbLine
 10
186.810206
 20
958.457591
 11
187.517312
 21
959.164697
  0
LINE
  5
5CE
100
AcDbEntity
  8
M0
 62
   114
100
AcDbLine
 10
184.618106
 20
962.063904
 11
183.910999
 21
961.356797
  0
LINE
  5
5CF
100
AcDbEntity
  8
M0
 62
   114
100
AcDbLine
 10
206.421262
 20
960.260747
 11
208.517195
 21
962.35668
  0
LINE
  5
5D0
100
AcDbEntity
  8
M0
 62
   114
100
AcDbLine
 10
203.618212
 20
957.457697
 11
205.714156
 21
959.553641
  0
LINE
  5
5D1
100
AcDbEntity
  8
M0
 62
   114
100
AcDbLine
 10
205.007049
 20
960.260747
 11
202.911106
 21
958.164804
  0
LINE
  5
5D2
100
AcDbEntity
  8
M0
 62
   114
100
AcDbLine
 10
207.810088
 20
963.063787
 11
205.714156
 21
960.967854
  0
LINE
  5
5D3
100
AcDbEntity
  8
M0
 62
   114
100
AcDbLine
 10
205.714156
 20
960.967854
 11
204.618106
 21
962.063904
  0
LINE
  5
5D4
100
AcDbEntity
  8
M0
 62
   114
100
AcDbLine
 10
207.517312
 20
959.164697
 11
206.421262
 21
960.260747
  0
LINE
  5
5D5
100
AcDbEntity
  8
M0
 62
   114
100
AcDbLine
 10
205.714156
 20
959.553641
 11
206.810206
 21
958.457591
  0
LINE
  5
5D6
100
AcDbEntity
  8
M0
 62
   114
100
AcDbLine
 10
203.910999
 20
961.356797
 11
205.007049
 21
960.260747
  0
CIRCLE
  5
5D7
100
AcDbEntity
  8
M0
 62
   114
100
AcDbCircle
 10
205.714156
 20
960.260747
 40
3.5
  0
LINE
  5
5D8
100
AcDbEntity
  8
M0
 62
   114
100
AcDbLine
 10
206.810206
 20
958.457591
 11
207.517312
 21
959.164697
  0
LINE
  5
5D9
100
AcDbEntity
  8
M0
 62
   114
100
AcDbLine
 10
204.618106
 20
962.063904
 11
203.910999
 21
961.356797
  0
LINE
  5
5DA
100
AcDbEntity
  8
M0
 62
   114
100
AcDbLine
 10
407.421262
 20
960.260747
 11
409.517195
 21
962.35668
  0
LINE
  5
5DB
100
AcDbEntity
  8
M0
 62
   114
100
AcDbLine
 10
404.618212
 20
957.457697
 11
406.714156
 21
959.553641
  0
LINE
  5
5DC
100
AcDbEntity
  8
M0
 62
   114
100
AcDbLine
 10
406.007049
 20
960.260747
 11
403.911106
 21
958.164804
  0
LINE
  5
5DD
100
AcDbEntity
  8
M0
 62
   114
100
AcDbLine
 10
408.810088
 20
963.063787
 11
406.714156
 21
960.967854
  0
LINE
  5
5DE
100
AcDbEntity
  8
M0
 62
   114
100
AcDbLine
 10
406.714156
 20
960.967854
 11
405.618106
 21
962.063904
  0
LINE
  5
5DF
100
AcDbEntity
  8
M0
 62
   114
100
AcDbLine
 10
408.517312
 20
959.164697
 11
407.421262
 21
960.260747
  0
LINE
  5
5E0
100
AcDbEntity
  8
M0
 62
   114
100
AcDbLine
 10
406.714156
 20
959.553641
 11
407.810206
 21
958.457591
  0
LINE
  5
5E1
100
AcDbEntity
  8
M0
 62
   114
100
AcDbLine
 10
404.910999
 20
961.356797
 11
406.007049
 21
960.260747
  0
CIRCLE
  5
5E2
100
AcDbEntity
  8
M0
 62
   114
100
AcDbCircle
 10
406.714156
 20
960.260747
 40
3.5
  0
LINE
  5
5E3
100
AcDbEntity
  8
M0
 62
   114
100
AcDbLine
 10
407.810206
 20
958.457591
 11
408.517312
 21
959.164697
  0
LINE
  5
5E4
100
AcDbEntity
  8
M0
 62
   114
100
AcDbLine
 10
405.618106
 20
962.063904
 11
404.910999
 21
961.356797
  0
LINE
  5
5E5
100
AcDbEntity
  8
M0
 62
     4
100
AcDbLine
 10
458.213781
 20
1093.260753
 11
448.214061
 21
1093.260749
  0
LINE
  5
5E6
100
AcDbEntity
  8
M0
 62
     4
100
AcDbLine
 10
458.213808
 20
1007.260753
 11
458.213781
 21
1093.260753
  0
LINE
  5
5E7
100
AcDbEntity
  8
M0
 62
     4
100
AcDbLine
 10
458.213808
 20
1007.260753
 11
448.214088
 21
1007.260749
  0
LINE
  5
5E8
100
AcDbEntity
  8
M0
 62
   114
100
AcDbLine
 10
699.309928
 20
905.260747
 11
699.309928
 21
921.260747
  0
LINE
  5
5E9
100
AcDbEntity
  8
M0
 62
   114
100
AcDbLine
 10
699.309928
 20
921.260747
 11
715.110827
 21
921.260747
  0
LINE
  5
5EA
100
AcDbEntity
  8
M0
 62
   114
100
AcDbLine
 10
715.110827
 20
905.260747
 11
699.309928
 21
905.260747
  0
LINE
  5
5EB
100
AcDbEntity
  8
M0
  6
DASHDOT
 62
   114
100
AcDbLine
 10
763.242576
 20
913.260747
 11
694.309928
 21
913.260747
  0
LINE
  5
5EC
100
AcDbEntity
  8
M0
 62
   114
100
AcDbLine
 10
749.309714
 20
899.41274
 11
749.309714
 21
927.108739
  0
LINE
  5
5ED
100
AcDbEntity
  8
M0
 62
   114
100
AcDbLine
 10
749.309714
 20
927.108739
 11
759.309714
 21
927.108739
  0
LINE
  5
5EE
100
AcDbEntity
  8
M0
 62
   114
100
AcDbLine
 10
759.309714
 20
927.108739
 11
759.309714
 21
899.41274
  0
LINE
  5
5EF
100
AcDbEntity
  8
M0
 62
   114
100
AcDbLine
 10
759.309714
 20
899.41274
 11
749.309714
 21
899.41274
  0
LINE
  5
5F0
100
AcDbEntity
  8
M0
 62
   114
100
AcDbLine
 10
759.309714
 20
921.260747
 11
749.309714
 21
921.260747
  0
LINE
  5
5F1
100
AcDbEntity
  8
M0
 62
   114
100
AcDbLine
 10
759.309714
 20
905.260747
 11
749.309714
 21
905.260747
  0
LINE
  5
5F2
100
AcDbEntity
  8
M0
 62
   114
100
AcDbLine
 10
715.110827
 20
927.116949
 11
715.110827
 21
899.404317
  0
LINE
  5
5F3
100
AcDbEntity
  8
M0
 62
   114
100
AcDbLine
 10
728.110095
 20
899.404317
 11
728.110095
 21
927.116949
  0
LINE
  5
5F4
100
AcDbEntity
  8
M0
 62
   114
100
AcDbLine
 10
715.110827
 20
927.116949
 11
728.110095
 21
927.116949
  0
LINE
  5
5F5
100
AcDbEntity
  8
M0
 62
   114
100
AcDbLine
 10
715.110827
 20
899.404317
 11
728.110095
 21
899.404317
  0
LINE
  5
5F6
100
AcDbEntity
  8
M0
 62
   114
100
AcDbLine
 10
715.110827
 20
920.188695
 11
728.110095
 21
920.188695
  0
LINE
  5
5F7
100
AcDbEntity
  8
M0
 62
   114
100
AcDbLine
 10
715.110827
 20
906.332494
 11
728.110095
 21
906.332494
  0
LINE
  5
5F8
100
AcDbEntity
  8
M0
 62
     7
100
AcDbLine
 10
728.110121
 20
899.260747
 11
732.110121
 21
899.260747
  0
LINE
  5
5F9
100
AcDbEntity
  8
M0
 62
     7
100
AcDbLine
 10
732.110121
 20
899.260747
 11
732.110121
 21
927.260747
  0
LINE
  5
5FA
100
AcDbEntity
  8
M0
 62
     7
100
AcDbLine
 10
732.110121
 20
927.260747
 11
728.110121
 21
927.260747
  0
LINE
  5
5FB
100
AcDbEntity
  8
M0
 62
     7
100
AcDbLine
 10
728.110121
 20
927.260747
 11
728.110121
 21
899.260747
  0
LINE
  5
5FC
100
AcDbEntity
  8
M0
 62
     7
100
AcDbLine
 10
728.110121
 20
913.260732
 11
732.110121
 21
910.95133
  0
LINE
  5
5FD
100
AcDbEntity
  8
M0
 62
     7
100
AcDbLine
 10
728.110121
 20
915.570135
 11
732.110121
 21
913.260732
  0
LINE
  5
5FE
100
AcDbEntity
  8
M0
 62
     2
100
AcDbLine
 10
732.110121
 20
897.260747
 11
734.710112
 21
897.260747
  0
LINE
  5
5FF
100
AcDbEntity
  8
M0
 62
     2
100
AcDbLine
 10
734.710112
 20
897.260747
 11
734.710112
 21
929.260747
  0
LINE
  5
600
100
AcDbEntity
  8
M0
 62
     2
100
AcDbLine
 10
734.710112
 20
929.260747
 11
732.110121
 21
929.260747
  0
LINE
  5
601
100
AcDbEntity
  8
M0
 62
     2
100
AcDbLine
 10
732.110121
 20
929.260747
 11
732.110121
 21
897.260747
  0
LINE
  5
602
100
AcDbEntity
  8
M0
 62
   114
100
AcDbLine
 10
376.214858
 20
899.404333
 11
388.21559
 21
906.332509
  0
LINE
  5
603
100
AcDbEntity
  8
M0
 62
   114
100
AcDbLine
 10
376.214858
 20
899.404333
 11
364.215346
 21
906.332509
  0
LINE
  5
604
100
AcDbEntity
  8
M0
 62
   114
100
AcDbLine
 10
364.215346
 20
906.332509
 11
364.215346
 21
920.18894
  0
LINE
  5
605
100
AcDbEntity
  8
M0
 62
   114
100
AcDbLine
 10
388.21559
 20
906.332509
 11
388.21559
 21
920.188711
  0
LINE
  5
606
100
AcDbEntity
  8
M0
 62
   114
100
AcDbLine
 10
376.214858
 20
927.116964
 11
364.215346
 21
920.18894
  0
LINE
  5
607
100
AcDbEntity
  8
M0
 62
   114
100
AcDbLine
 10
376.214858
 20
927.116964
 11
388.21559
 21
920.188711
  0
CIRCLE
  5
608
100
AcDbEntity
  8
M0
 62
   114
100
AcDbCircle
 10
376.214858
 20
913.260747
 40
8.0
  0
CIRCLE
  5
609
100
AcDbEntity
  8
M0
 62
     2
100
AcDbCircle
 10
376.214858
 20
913.260747
 40
16.0
  0
CIRCLE
  5
60A
100
AcDbEntity
  8
M0
 62
     7
100
AcDbCircle
 10
376.214858
 20
913.260747
 40
14.0
  0
LINE
  5
60B
100
AcDbEntity
  8
M0
 62
   114
100
AcDbLine
 10
306.214858
 20
899.404333
 11
318.21559
 21
906.332509
  0
LINE
  5
60C
100
AcDbEntity
  8
M0
 62
   114
100
AcDbLine
 10
306.214858
 20
899.404333
 11
294.215346
 21
906.332509
  0
LINE
  5
60D
100
AcDbEntity
  8
M0
 62
   114
100
AcDbLine
 10
294.215346
 20
906.332509
 11
294.215346
 21
920.18894
  0
LINE
  5
60E
100
AcDbEntity
  8
M0
 62
   114
100
AcDbLine
 10
318.21559
 20
906.332509
 11
318.21559
 21
920.188711
  0
LINE
  5
60F
100
AcDbEntity
  8
M0
 62
   114
100
AcDbLine
 10
306.214858
 20
927.116964
 11
294.215346
 21
920.18894
  0
LINE
  5
610
100
AcDbEntity
  8
M0
 62
   114
100
AcDbLine
 10
306.214858
 20
927.116964
 11
318.21559
 21
920.188711
  0
CIRCLE
  5
611
100
AcDbEntity
  8
M0
 62
   114
100
AcDbCircle
 10
306.214858
 20
913.260747
 40
8.0
  0
CIRCLE
  5
612
100
AcDbEntity
  8
M0
 62
     2
100
AcDbCircle
 10
306.214858
 20
913.260747
 40
16.0
  0
CIRCLE
  5
613
100
AcDbEntity
  8
M0
 62
     7
100
AcDbCircle
 10
306.214858
 20
913.260747
 40
14.0
  0
LINE
  5
614
100
AcDbEntity
  8
M0
 62
   114
100
AcDbLine
 10
236.214858
 20
899.404333
 11
248.21559
 21
906.332509
  0
LINE
  5
615
100
AcDbEntity
  8
M0
 62
   114
100
AcDbLine
 10
236.214858
 20
899.404333
 11
224.215346
 21
906.332509
  0
LINE
  5
616
100
AcDbEntity
  8
M0
 62
   114
100
AcDbLine
 10
224.215346
 20
906.332509
 11
224.215346
 21
920.18894
  0
LINE
  5
617
100
AcDbEntity
  8
M0
 62
   114
100
AcDbLine
 10
248.21559
 20
906.332509
 11
248.21559
 21
920.188711
  0
LINE
  5
618
100
AcDbEntity
  8
M0
 62
   114
100
AcDbLine
 10
236.214858
 20
927.116964
 11
224.215346
 21
920.18894
  0
LINE
  5
619
100
AcDbEntity
  8
M0
 62
   114
100
AcDbLine
 10
236.214858
 20
927.116964
 11
248.21559
 21
920.188711
  0
CIRCLE
  5
61A
100
AcDbEntity
  8
M0
 62
   114
100
AcDbCircle
 10
236.214858
 20
913.260747
 40
8.0
  0
CIRCLE
  5
61B
100
AcDbEntity
  8
M0
 62
     2
100
AcDbCircle
 10
236.214858
 20
913.260747
 40
16.0
  0
CIRCLE
  5
61C
100
AcDbEntity
  8
M0
 62
     7
100
AcDbCircle
 10
236.214858
 20
913.260747
 40
14.0
  0
LINE
  5
61D
100
AcDbEntity
  8
M0
 62
   114
100
AcDbLine
 10
376.213404
 20
1173.404333
 11
388.214136
 21
1180.332509
  0
LINE
  5
61E
100
AcDbEntity
  8
M0
 62
   114
100
AcDbLine
 10
376.213404
 20
1173.404333
 11
364.213892
 21
1180.332509
  0
LINE
  5
61F
100
AcDbEntity
  8
M0
 62
   114
100
AcDbLine
 10
364.213892
 20
1180.332509
 11
364.213892
 21
1194.18894
  0
LINE
  5
620
100
AcDbEntity
  8
M0
 62
   114
100
AcDbLine
 10
388.214136
 20
1180.332509
 11
388.214136
 21
1194.188711
  0
LINE
  5
621
100
AcDbEntity
  8
M0
 62
   114
100
AcDbLine
 10
376.213404
 20
1201.116964
 11
364.213892
 21
1194.18894
  0
LINE
  5
622
100
AcDbEntity
  8
M0
 62
   114
100
AcDbLine
 10
376.213404
 20
1201.116964
 11
388.214136
 21
1194.188711
  0
CIRCLE
  5
623
100
AcDbEntity
  8
M0
 62
   114
100
AcDbCircle
 10
376.213404
 20
1187.260747
 40
8.0
  0
CIRCLE
  5
624
100
AcDbEntity
  8
M0
 62
     2
100
AcDbCircle
 10
376.213404
 20
1187.260747
 40
16.0
  0
CIRCLE
  5
625
100
AcDbEntity
  8
M0
 62
     7
100
AcDbCircle
 10
376.213404
 20
1187.260747
 40
14.0
  0
LINE
  5
626
100
AcDbEntity
  8
M0
 62
   114
100
AcDbLine
 10
306.213404
 20
1173.404333
 11
318.214136
 21
1180.332509
  0
LINE
  5
627
100
AcDbEntity
  8
M0
 62
   114
100
AcDbLine
 10
306.213404
 20
1173.404333
 11
294.213892
 21
1180.332509
  0
LINE
  5
628
100
AcDbEntity
  8
M0
 62
   114
100
AcDbLine
 10
294.213892
 20
1180.332509
 11
294.213892
 21
1194.18894
  0
LINE
  5
629
100
AcDbEntity
  8
M0
 62
   114
100
AcDbLine
 10
318.214136
 20
1180.332509
 11
318.214136
 21
1194.188711
  0
LINE
  5
62A
100
AcDbEntity
  8
M0
 62
   114
100
AcDbLine
 10
306.213404
 20
1201.116964
 11
294.213892
 21
1194.18894
  0
LINE
  5
62B
100
AcDbEntity
  8
M0
 62
   114
100
AcDbLine
 10
306.213404
 20
1201.116964
 11
318.214136
 21
1194.188711
  0
CIRCLE
  5
62C
100
AcDbEntity
  8
M0
 62
   114
100
AcDbCircle
 10
306.213404
 20
1187.260747
 40
8.0
  0
CIRCLE
  5
62D
100
AcDbEntity
  8
M0
 62
     2
100
AcDbCircle
 10
306.213404
 20
1187.260747
 40
16.0
  0
CIRCLE
  5
62E
100
AcDbEntity
  8
M0
 62
     7
100
AcDbCircle
 10
306.213404
 20
1187.260747
 40
14.0
  0
LINE
  5
62F
100
AcDbEntity
  8
M0
 62
   114
100
AcDbLine
 10
236.213404
 20
1173.404333
 11
248.214136
 21
1180.332509
  0
LINE
  5
630
100
AcDbEntity
  8
M0
 62
   114
100
AcDbLine
 10
236.213404
 20
1173.404333
 11
224.213892
 21
1180.332509
  0
LINE
  5
631
100
AcDbEntity
  8
M0
 62
   114
100
AcDbLine
 10
224.213892
 20
1180.332509
 11
224.213892
 21
1194.18894
  0
LINE
  5
632
100
AcDbEntity
  8
M0
 62
   114
100
AcDbLine
 10
248.214136
 20
1180.332509
 11
248.214136
 21
1194.188711
  0
LINE
  5
633
100
AcDbEntity
  8
M0
 62
   114
100
AcDbLine
 10
236.213404
 20
1201.116964
 11
224.213892
 21
1194.18894
  0
LINE
  5
634
100
AcDbEntity
  8
M0
 62
   114
100
AcDbLine
 10
236.213404
 20
1201.116964
 11
248.214136
 21
1194.188711
  0
CIRCLE
  5
635
100
AcDbEntity
  8
M0
 62
   114
100
AcDbCircle
 10
236.213404
 20
1187.260747
 40
8.0
  0
CIRCLE
  5
636
100
AcDbEntity
  8
M0
 62
     2
100
AcDbCircle
 10
236.213404
 20
1187.260747
 40
16.0
  0
CIRCLE
  5
637
100
AcDbEntity
  8
M0
 62
     7
100
AcDbCircle
 10
236.213404
 20
1187.260747
 40
14.0
  0
LINE
  5
638
100
AcDbEntity
  8
M0
 62
     2
100
AcDbLine
 10
746.709724
 20
897.260747
 11
749.309714
 21
897.260747
  0
LINE
  5
639
100
AcDbEntity
  8
M0
 62
     2
100
AcDbLine
 10
749.309714
 20
897.260747
 11
749.309714
 21
929.260747
  0
LINE
  5
63A
100
AcDbEntity
  8
M0
 62
     2
100
AcDbLine
 10
749.309714
 20
929.260747
 11
746.709724
 21
929.260747
  0
LINE
  5
63B
100
AcDbEntity
  8
M0
 62
     2
100
AcDbLine
 10
746.709724
 20
929.260747
 11
746.709724
 21
897.260747
  0
LINE
  5
63C
100
AcDbEntity
  8
M0
 62
   114
100
AcDbLine
 10
699.309928
 20
1195.260678
 11
699.309928
 21
1179.260678
  0
LINE
  5
63D
100
AcDbEntity
  8
M0
 62
   114
100
AcDbLine
 10
699.309928
 20
1179.260678
 11
715.110827
 21
1179.260678
  0
LINE
  5
63E
100
AcDbEntity
  8
M0
 62
   114
100
AcDbLine
 10
715.110827
 20
1195.260678
 11
699.309928
 21
1195.260678
  0
LINE
  5
63F
100
AcDbEntity
  8
M0
  6
DASHDOT
 62
   114
100
AcDbLine
 10
763.242576
 20
1187.260678
 11
694.309928
 21
1187.260678
  0
LINE
  5
640
100
AcDbEntity
  8
M0
 62
   114
100
AcDbLine
 10
749.309714
 20
1201.108685
 11
749.309714
 21
1173.412686
  0
LINE
  5
641
100
AcDbEntity
  8
M0
 62
   114
100
AcDbLine
 10
749.309714
 20
1173.412686
 11
759.309714
 21
1173.412686
  0
LINE
  5
642
100
AcDbEntity
  8
M0
 62
   114
100
AcDbLine
 10
759.309714
 20
1173.412686
 11
759.309714
 21
1201.108685
  0
LINE
  5
643
100
AcDbEntity
  8
M0
 62
   114
100
AcDbLine
 10
759.309714
 20
1201.108685
 11
749.309714
 21
1201.108685
  0
LINE
  5
644
100
AcDbEntity
  8
M0
 62
   114
100
AcDbLine
 10
759.309714
 20
1179.260678
 11
749.309714
 21
1179.260678
  0
LINE
  5
645
100
AcDbEntity
  8
M0
 62
   114
100
AcDbLine
 10
759.309714
 20
1195.260678
 11
749.309714
 21
1195.260678
  0
LINE
  5
646
100
AcDbEntity
  8
M0
 62
   114
100
AcDbLine
 10
715.110827
 20
1173.404477
 11
715.110827
 21
1201.117108
  0
LINE
  5
647
100
AcDbEntity
  8
M0
 62
   114
100
AcDbLine
 10
728.110095
 20
1201.117108
 11
728.110095
 21
1173.404477
  0
LINE
  5
648
100
AcDbEntity
  8
M0
 62
   114
100
AcDbLine
 10
715.110827
 20
1173.404477
 11
728.110095
 21
1173.404477
  0
LINE
  5
649
100
AcDbEntity
  8
M0
 62
   114
100
AcDbLine
 10
715.110827
 20
1201.117108
 11
728.110095
 21
1201.117108
  0
LINE
  5
64A
100
AcDbEntity
  8
M0
 62
   114
100
AcDbLine
 10
715.110827
 20
1180.33273
 11
728.110095
 21
1180.33273
  0
LINE
  5
64B
100
AcDbEntity
  8
M0
 62
   114
100
AcDbLine
 10
715.110827
 20
1194.188931
 11
728.110095
 21
1194.188931
  0
LINE
  5
64C
100
AcDbEntity
  8
M0
 62
     7
100
AcDbLine
 10
728.110121
 20
1201.260678
 11
732.110121
 21
1201.260678
  0
LINE
  5
64D
100
AcDbEntity
  8
M0
 62
     7
100
AcDbLine
 10
732.110121
 20
1201.260678
 11
732.110121
 21
1173.260678
  0
LINE
  5
64E
100
AcDbEntity
  8
M0
 62
     7
100
AcDbLine
 10
732.110121
 20
1173.260678
 11
728.110121
 21
1173.260678
  0
LINE
  5
64F
100
AcDbEntity
  8
M0
 62
     7
100
AcDbLine
 10
728.110121
 20
1173.260678
 11
728.110121
 21
1201.260678
  0
LINE
  5
650
100
AcDbEntity
  8
M0
 62
     7
100
AcDbLine
 10
728.110121
 20
1187.260693
 11
732.110121
 21
1189.570096
  0
LINE
  5
651
100
AcDbEntity
  8
M0
 62
     7
100
AcDbLine
 10
728.110121
 20
1184.951291
 11
732.110121
 21
1187.260693
  0
LINE
  5
652
100
AcDbEntity
  8
M0
 62
     2
100
AcDbLine
 10
732.110121
 20
1203.260678
 11
734.710112
 21
1203.260678
  0
LINE
  5
653
100
AcDbEntity
  8
M0
 62
     2
100
AcDbLine
 10
734.710112
 20
1203.260678
 11
734.710112
 21
1171.260678
  0
LINE
  5
654
100
AcDbEntity
  8
M0
 62
     2
100
AcDbLine
 10
734.710112
 20
1171.260678
 11
732.110121
 21
1171.260678
  0
LINE
  5
655
100
AcDbEntity
  8
M0
 62
     2
100
AcDbLine
 10
732.110121
 20
1171.260678
 11
732.110121
 21
1203.260678
  0
LINE
  5
656
100
AcDbEntity
  8
M0
 62
     2
100
AcDbLine
 10
746.709724
 20
1203.260678
 11
749.309714
 21
1203.260678
  0
LINE
  5
657
100
AcDbEntity
  8
M0
 62
     2
100
AcDbLine
 10
749.309714
 20
1203.260678
 11
749.309714
 21
1171.260678
  0
LINE
  5
658
100
AcDbEntity
  8
M0
 62
     2
100
AcDbLine
 10
749.309714
 20
1171.260678
 11
746.709724
 21
1171.260678
  0
LINE
  5
659
100
AcDbEntity
  8
M0
 62
     2
100
AcDbLine
 10
746.709724
 20
1171.260678
 11
746.709724
 21
1203.260678
  0
LINE
  5
65A
100
AcDbEntity
  8
M0
 62
     6
100
AcDbLine
 10
351.214783
 20
929.560763
 11
328.713871
 21
929.560763
  0
LINE
  5
65B
100
AcDbEntity
  8
M0
 62
     6
100
AcDbLine
 10
261.214532
 20
929.560763
 11
283.713886
 21
929.560763
  0
ARC
  5
65C
100
AcDbEntity
  8
M0
 62
     6
100
AcDbCircle
 10
336.214156
 20
941.060763
 40
5.75
100
AcDbArc
 50
134.083159
 51
361.993147
  0
LINE
  5
65D
100
AcDbEntity
  8
M0
  6
DIVIDE
100
AcDbLine
 10
338.213774
 20
1270.260724
 11
340.213774
 21
1270.260725
  0
CIRCLE
  5
65E
100
AcDbEntity
  8
M0
100
AcDbCircle
 10
391.215066
 20
587.742867
 40
3.5
  0
CIRCLE
  5
65F
100
AcDbEntity
  8
M0
100
AcDbCircle
 10
221.215069
 20
587.742867
 40
3.5
  0
LINE
  5
660
100
AcDbEntity
  8
M0
  6
DIVIDE
100
AcDbLine
 10
460.215071
 20
665.742873
 11
176.21505
 21
665.742873
  0
LINE
  5
661
100
AcDbEntity
  8
M0
  6
DIVIDE
100
AcDbLine
 10
460.215071
 20
285.742845
 11
460.215071
 21
665.742873
  0
LINE
  5
662
100
AcDbEntity
  8
M0
  6
DIVIDE
100
AcDbLine
 10
176.21505
 20
665.742873
 11
176.21505
 21
285.742845
  0
LINE
  5
663
100
AcDbEntity
  8
M0
  6
DASHDOT
100
AcDbLine
 10
306.21506
 20
269.742859
 11
306.21506
 21
683.742859
  0
LINE
  5
664
100
AcDbEntity
  8
M0
  6
DIVIDE
100
AcDbLine
 10
176.21505
 20
285.742845
 11
460.215071
 21
285.742845
  0
CIRCLE
  5
665
100
AcDbEntity
  8
M0
100
AcDbCircle
 10
391.215066
 20
587.742867
 40
5.0
  0
LINE
  5
666
100
AcDbEntity
  8
M0
  6
DASHDOT
100
AcDbLine
 10
337.715077
 20
587.742867
 11
456.715056
 21
587.742867
  0
LINE
  5
667
100
AcDbEntity
  8
M0
  6
DASHDOT
100
AcDbLine
 10
391.215066
 20
534.242879
 11
391.215066
 21
641.242856
  0
CIRCLE
  5
668
100
AcDbEntity
  8
M0
100
AcDbCircle
 10
221.215069
 20
587.742867
 40
5.0
  0
LINE
  5
669
100
AcDbEntity
  8
M0
  6
DASHDOT
100
AcDbLine
 10
274.715057
 20
587.742867
 11
179.715066
 21
587.742867
  0
LINE
  5
66A
100
AcDbEntity
  8
M0
  6
DASHDOT
100
AcDbLine
 10
221.215069
 20
534.242879
 11
221.215069
 21
641.242856
  0
CIRCLE
  5
66B
100
AcDbEntity
  8
M0
100
AcDbCircle
 10
391.215066
 20
365.742851
 40
3.5
  0
LINE
  5
66C
100
AcDbEntity
  8
M0
  6
DASHDOT
100
AcDbLine
 10
336.215077
 20
365.742851
 11
458.215056
 21
365.742851
  0
LINE
  5
66D
100
AcDbEntity
  8
M0
  6
DASHDOT
100
AcDbLine
 10
391.215066
 20
310.742862
 11
391.215066
 21
420.74284
  0
CIRCLE
  5
66E
100
AcDbEntity
  8
M0
100
AcDbCircle
 10
221.215069
 20
365.742851
 40
3.5
  0
LINE
  5
66F
100
AcDbEntity
  8
M0
  6
DASHDOT
100
AcDbLine
 10
276.215057
 20
365.742851
 11
178.215065
 21
365.742851
  0
LINE
  5
670
100
AcDbEntity
  8
M0
  6
DASHDOT
100
AcDbLine
 10
221.215069
 20
310.742862
 11
221.215069
 21
420.74284
  0
CIRCLE
  5
671
100
AcDbEntity
  8
M0
100
AcDbCircle
 10
391.215066
 20
365.742851
 40
5.0
  0
CIRCLE
  5
672
100
AcDbEntity
  8
M0
100
AcDbCircle
 10
221.215069
 20
365.742851
 40
5.0
  0
LINE
  5
673
100
AcDbEntity
  8
M1
 62
     2
100
AcDbLine
 10
49.999999
 20
49.999999
 11
49.999999
 21
1424.999979
  0
LINE
  5
674
100
AcDbEntity
  8
M1
 62
     2
100
AcDbLine
 10
49.999999
 20
1424.999979
 11
999.999985
 21
1424.999979
  0
LINE
  5
675
100
AcDbEntity
  8
M1
 62
     2
100
AcDbLine
 10
999.999985
 20
1424.999979
 11
999.999985
 21
49.999999
  0
LINE
  5
676
100
AcDbEntity
  8
M1
 62
     2
100
AcDbLine
 10
999.999985
 20
49.999999
 11
49.999999
 21
49.999999
  0
LINE
  5
677
100
AcDbEntity
  8
M1
 62
     2
100
AcDbLine
 10
999.999985
 20
99.999999
 11
499.999993
 21
99.999999
  0
LINE
  5
678
100
AcDbEntity
  8
M1
 62
     2
100
AcDbLine
 10
999.999985
 20
149.999998
 11
499.999993
 21
149.999998
  0
LINE
  5
679
100
AcDbEntity
  8
M1
 62
     2
100
AcDbLine
 10
999.999985
 20
199.999997
 11
499.999993
 21
199.999997
  0
LINE
  5
67A
100
AcDbEntity
  8
M1
 62
     2
100
AcDbLine
 10
499.999993
 20
49.999999
 11
499.999993
 21
199.999997
  0
TEXT
  5
67B
100
AcDbEntity
  8
M1
 62
     2
100
AcDbText
 10
512.499992
 20
62.499999
 40
25.0
  1
適　用；
  7
STANDARD
100
AcDbText
  0
TEXT
  5
67C
100
AcDbEntity
  8
M1
 62
     2
100
AcDbText
 10
512.499992
 20
112.499998
 40
25.0
  1
形　式；
  7
STANDARD
100
AcDbText
  0
TEXT
  5
67D
100
AcDbEntity
  8
M1
 62
     2
100
AcDbText
 10
632.499991
 20
112.499998
 40
25.0
  1
Ｈ８００Ｃ，Ｈ８００Ｃ－Ｇ
 41
0.5
  7
STANDARD
100
AcDbText
  0
TEXT
  5
67E
100
AcDbEntity
  8
M1
 62
     2
100
AcDbText
 10
512.499992
 20
162.499998
 40
25.0
  1
登録名：
  7
STANDARD
100
AcDbText
  0
TEXT
  5
67F
100
AcDbEntity
  8
M1
 62
     2
100
AcDbText
 10
632.499991
 20
162.499998
 40
25.0
  1
ＤＭＨ８００ＣＲ００
 41
0.5
  7
STANDARD
100
AcDbText
  0
LINE
  5
680
100
AcDbEntity
  8
DN0
100
AcDbLine
 10
262.409515
 20
201.781541
 11
353.709498
 21
201.781541
  0
TEXT
  5
681
100
AcDbEntity
  8
DN0
100
AcDbText
 10
264.934515
 20
204.031541
 40
22.5
  1
せん孔図
 41
0.833333
  7
STANDARD
100
AcDbText
  0
ENDSEC
  0
SECTION
  2
OBJECTS
  0
DICTIONARY
  5
C
100
AcDbDictionary
  3
ACAD_GROUP
350
D
  3
ACAD_MLINESTYLE
350
E
  0
DICTIONARY
  5
D
102
{ACAD_REACTORS
330
C
102
}
100
AcDbDictionary
  0
DICTIONARY
  5
E
102
{ACAD_REACTORS
330
C
102
}
100
AcDbDictionary
  3
STANDARD
350
13
  0
MLINESTYLE
  5
13
102
{ACAD_REACTORS
330
E
102
}
100
AcDbMlineStyle
  2
STANDARD
 70
     0
  3

 62
     0
 51
90.0
 52
90.0
 71
     2
 49
0.5
 62
   256
  6
BYLAYER
 49
-0.5
 62
   256
  6
BYLAYER
  0
ENDSEC
  0
EOF
