  0
SECTION
  2
HEADER
  9
$ACADVER
  1
AC1014
  9
$INSBASE
 10
0.000000
 20
0.000000
 30
0.0
  9
$VIEWCTR
 10
7.531722
 20
4.5
  9
$VIEWSIZE
 40
9.0
  9
$SNAPMODE
 70
     0
  9
$SNAPUNIT
 10
1.0
 20
1.0
  9
$SNAPBASE
 10
0.0
 20
0.0
  9
$SNAPANG
 50
0.0
  9
$SNAPSTYLE
 70
     0
  9
$SNAPISOPAIR
 70
     0
  9
$GRIDMODE
 70
     0
  9
$GRIDUNIT
 10
0.0
 20
0.0
  9
$ORTHOMODE
 70
     0
  9
$REGENMODE
 70
     1
  9
$FILLMODE
 70
     1
  9
$QTEXTMODE
 70
     0
  9
$DRAGMODE
 70
     2
  9
$LTSCALE
  40
     1.000000
  9
$OSMODE
 70
     0
  9
$ATTMODE
 70
     1
  9
$TEXTSIZE
 40
0.2
  9
$TRACEWID
 40
0.05
  9
$TEXTSTYLE
  7
STANDARD
  9
$CELTYPE
  6
BYLAYER
  9
$CECOLOR
 62
   256
  9
$DIMSCALE
 40
1.0
  9
$DIMASZ
 40
0.18
  9
$DIMEXO
 40
0.0625
  9
$DIMDLI
 40
0.38
  9
$DIMRND
 40
0.0
  9
$DIMDLE
 40
0.0
  9
$DIMEXE
 40
0.18
  9
$DIMTP
 40
0.0
  9
$DIMTM
 40
0.0
  9
$DIMTXT
 40
0.18
  9
$DIMCEN
 40
0.09
  9
$DIMTSZ
 40
0.0
  9
$DIMTOL
 70
     0
  9
$DIMLIM
 70
     0
  9
$DIMTIH
 70
     1
  9
$DIMTOH
 70
     1
  9
$DIMSE1
 70
     0
  9
$DIMSE2
 70
     0
  9
$DIMTAD
 70
     0
  9
$DIMZIN
 70
     0
  9
$DIMBLK
  1

  9
$LUNITS
 70
     2
  9
$LUPREC
 70
     4
  9
$AXISMODE
 70
     0
  9
$AXISUNIT
 10
0.0
 20
0.0
  9
$SKETCHINC
 40
0.1
  9
$FILLETRAD
 40
0.0
  9
$AUNITS
 70
     0
  9
$AUPREC
 70
     0
  9
$MENU
  1
ACAD
  9
$ELEVATION
 40
0.0
  9
$THICKNESS
 40
0.0
  9
$VIEWDIR
 10
0.0
 20
0.0
 30
1.0
  9
$LIMCHECK
 70
     0
  9
$BLIPMODE
 70
     1
  9
$CHAMFERA
 40
0.0
  9
$CHAMFERB
 40
0.0
  9
$FASTZOOM
 70
     1
  9
$SKPOLY
 70
     0
  9
$TDCREATE
 40
0000000.0000000000
  9
$TDUPDATE
 40
0000000.0000000000
  9
$TDINDWG
 40
0.0000000000
  9
$TDUSRTIMER
 40
0.0000000000
  9
$USRTIMER
 70
     1
  9
$ANGBASE
 50
0.0
  9
$ANGDIR
 70
     0
  9
$PDMODE
 70
     0
  9
$PDSIZE
 40
0.0
  9
$PLINEWID
 40
0.0
  9
$COORDS
 70
     0
  9
$USERI1
 70
     0
  9
$USERI2
 70
     0
  9
$USERI3
 70
     0
  9
$USERI4
 70
     0
  9
$USERI5
 70
     0
  9
$USERR1
 40
0.0
  9
$USERR2
 40
0.0
  9
$USERR3
 40
0.0
  9
$USERR4
 40
0.0
  9
$USERR5
 40
0.0
  9
$CLAYER
  8
M0
  9
$EXTMIN
 10
22.222223
 20
22.222223
  9
$EXTMAX
 10
444.444456
 20
633.33335
  9
$LIMMIN
 10
0.0
 20
0.0
  9
$LIMMAX
 10
210.0
 20
297.0
  9
$HANDSEED
  5
513
  0
ENDSEC
  0
SECTION
  2
CLASSES
  0
ENDSEC
  0
SECTION
  2
TABLES
  0
TABLE
  2
VPORT
  5
8
100
AcDbSymbolTable
 70
     2
  0
VPORT
  5
14
100
AcDbSymbolTableRecord
100
AcDbViewportTableRecord
  2
*ACTIVE
 70
     0
 10
0.0
 20
0.0
 11
1.0
 21
1.0
 12
484.0
 22
297.0
 13
0.0
 23
0.0
 14
1.0
 24
1.0
 15
0.0
 25
0.0
 16
0.0
 26
0.0
 36
1.0
 17
0.0
 27
0.0
 37
0.0
 40
594.0
 41
2.0
 42
50.0
 43
0.0
 44
0.0
 50
0.0
 51
0.0
 71
     0
 72
   100
 73
     1
 74
     1
 75
     0
 76
     0
 77
     0
 78
     0
  0
ENDTAB
  0
TABLE
  2
LTYPE
  5
5
100
AcDbSymbolTable
 70
     5
  0
LTYPE
  5
15
100
AcDbSymbolTableRecord
100
AcDbLinetypeTableRecord
  2
BYBLOCK
 70
     0
  3

 72
    65
 73
     0
 40
0.0
  0
LTYPE
  5
16
100
AcDbSymbolTableRecord
100
AcDbLinetypeTableRecord
  2
BYLAYER
 70
     0
  3

 72
    65
 73
     0
 40
0.0
  0
LTYPE
  5
17
100
AcDbSymbolTableRecord
100
AcDbLinetypeTableRecord
  2
CONTINUOUS
 70
    64
  3
Solid line
 72
    65
 73
     0
 40
0.0
  0
LTYPE
  5
18
100
AcDbSymbolTableRecord
100
AcDbLinetypeTableRecord
  2
DASHED
 70
    64
  3
__ __ __ __ __ __ __ __ __ __ __ __ __ __ __ __
 72
    65
 73
     2
 40
0.75
 49
0.5
 74
     0
 49
-0.25
 74
     0
  0
LTYPE
  5
19
100
AcDbSymbolTableRecord
100
AcDbLinetypeTableRecord
  2
DASHDOT
 70
    64
  3
__ . __ . __ . __ . __ . __ . __ . __ . __ . __
 72
    65
 73
     4
 40
1.0
 49
0.5
 74
     0
 49
-0.25
 74
     0
 49
0.0
 74
     0
 49
-0.25
 74
     0
  0
LTYPE
  5
1A
100
AcDbSymbolTableRecord
100
AcDbLinetypeTableRecord
  2
DIVIDE
 70
    64
  3
____ . . ____ . . ____ . . ____ . . ____ . . __
 72
    65
 73
     6
 40
1.25
 49
0.5
 74
     0
 49
-0.25
 74
     0
 49
0.0
 74
     0
 49
-0.25
 74
     0
 49
0.0
 74
     0
 49
-0.25
 74
     0
  0
LTYPE
  5
1B
100
AcDbSymbolTableRecord
100
AcDbLinetypeTableRecord
  2
DOT
 70
    64
  3
. . . . . . . . . . . . . . . . . . . . . . . .
 72
    65
 73
     2
 40
0.25
 49
0.0
 74
     0
 49
-0.25
 74
     0
  0
ENDTAB
  0
TABLE
  2
LAYER
  5
2
100
AcDbSymbolTable
 70
   102
  0
LAYER
  5
F
100
AcDbSymbolTableRecord
100
AcDbLayerTableRecord
  2
0
 70
     0
 62
     7
  6
CONTINUOUS
  0
LAYER
  5
1C
100
AcDbSymbolTableRecord
100
AcDbLayerTableRecord
  2
DEFPOINTS
 70
     0
 62
     7
  6
CONTINUOUS
  0
LAYER
  5
1D
100
AcDbSymbolTableRecord
100
AcDbLayerTableRecord
  2
M0
 70
     0
 62
     3
  6
CONTINUOUS
  0
LAYER
  5
1E
100
AcDbSymbolTableRecord
100
AcDbLayerTableRecord
  2
M1
 70
     0
 62
     3
  6
CONTINUOUS
  0
LAYER
  5
1F
100
AcDbSymbolTableRecord
100
AcDbLayerTableRecord
  2
DD0
 70
     0
 62
     4
  6
CONTINUOUS
  0
LAYER
  5
20
100
AcDbSymbolTableRecord
100
AcDbLayerTableRecord
  2
DN0
 70
     0
 62
     2
  6
CONTINUOUS
  0
ENDTAB
  0
TABLE
  2
STYLE
  5
3
100
AcDbSymbolTable
 70
     2
  0
STYLE
  5
10
100
AcDbSymbolTableRecord
100
AcDbTextStyleTableRecord
  2
STANDARD
 70
     0
 40
0.0
 41
1.0
 50
0.0
 71
     0
 42
0.2
  3
txt
  4
BIGFONT
  0
ENDTAB
  0
TABLE
  2
VIEW
  5
6
100
AcDbSymbolTable
 70
     0
  0
ENDTAB
  0
TABLE
  2
UCS
  5
7
100
AcDbSymbolTable
 70
     0
  0
ENDTAB
  0
TABLE
  2
APPID
  5
9
100
AcDbSymbolTable
 70
     1
  0
APPID
  5
11
100
AcDbSymbolTableRecord
100
AcDbRegAppTableRecord
  2
ACAD
 70
     0
  0
ENDTAB
  0
TABLE
  2
DIMSTYLE
  5
A
100
AcDbSymbolTable
 70
     2
  0
DIMSTYLE
105
27
100
AcDbSymbolTableRecord
100
AcDbDimStyleTableRecord
  2
STANDARD
 70
     0
  3

  4

  5

  6
_OPEN
  7
_OPEN
 40
1.0
 41
6.666667
 42
1.0
 43
8.0
 44
1.0
 45
0.0
 46
0.0
 47
0.0
 48
0.0
140
7.0
141
0.09
142
0.0
143
0.03937
144
1.0
145
0.0
146
1.0
147
0.6
 71
     0
 72
     0
 73
     1
 74
     1
 75
     0
 76
     0
 77
     3
 78
     8
170
     0
171
     2
172
     0
173
     1
174
     0
175
     0
176
     0
177
     0
178
     0
270
     2
271
     2
272
     4
273
     2
274
     2
340
10
275
     0
280
     0
281
     0
282
     0
283
     1
284
     0
285
     0
286
     0
287
     3
288
     0
  0
DIMSTYLE
105
28
100
AcDbSymbolTableRecord
100
AcDbDimStyleTableRecord
  2
LEADSTYL
 70
     0
  3

  4

  5

  6
_OPEN
  7
_OPEN
 40
1.0
 41
6.666667
 42
0.0625
 43
0.38
 44
0.18
 45
0.0
 46
0.0
 47
0.0
 48
0.0
140
7.0
141
0.09
142
0.0
143
25.4
144
1.0
145
0.0
146
1.0
147
0.6
 71
     0
 72
     0
 73
     1
 74
     1
 75
     0
 76
     0
 77
     0
 78
     0
170
     0
171
     2
172
     0
173
     1
174
     0
175
     0
176
     0
177
     0
178
     0
270
     2
271
     4
272
     4
273
     2
274
     2
340
10
275
     0
280
     0
281
     0
282
     0
283
     1
284
     0
285
     0
286
     0
287
     3
288
     0
  0
ENDTAB
  0
TABLE
  2
BLOCK_RECORD
  5
1
100
AcDbSymbolTable
 70
    18
  0
BLOCK_RECORD
  5
21
100
AcDbSymbolTableRecord
100
AcDbBlockTableRecord
  2
*MODEL_SPACE
  0
BLOCK_RECORD
  5
24
100
AcDbSymbolTableRecord
100
AcDbBlockTableRecord
  2
*PAPER_SPACE
  0
BLOCK_RECORD
  5
29
100
AcDbSymbolTableRecord
100
AcDbBlockTableRecord
  2
_NONE
  0
BLOCK_RECORD
  5
2D
100
AcDbSymbolTableRecord
100
AcDbBlockTableRecord
  2
_OPEN
  0
BLOCK_RECORD
  5
33
100
AcDbSymbolTableRecord
100
AcDbBlockTableRecord
  2
_CLOSED
  0
BLOCK_RECORD
  5
3A
100
AcDbSymbolTableRecord
100
AcDbBlockTableRecord
  2
_ORIGIN
  0
BLOCK_RECORD
  5
3F
100
AcDbSymbolTableRecord
100
AcDbBlockTableRecord
  2
_DOT
  0
BLOCK_RECORD
  5
47
100
AcDbSymbolTableRecord
100
AcDbBlockTableRecord
  2
_OBLIQUE
  0
BLOCK_RECORD
  5
4B
100
AcDbSymbolTableRecord
100
AcDbBlockTableRecord
  2
DIMS0
  0
BLOCK_RECORD
  5
57
100
AcDbSymbolTableRecord
100
AcDbBlockTableRecord
  2
DIMS1
  0
BLOCK_RECORD
  5
63
100
AcDbSymbolTableRecord
100
AcDbBlockTableRecord
  2
DIMS2
  0
BLOCK_RECORD
  5
6F
100
AcDbSymbolTableRecord
100
AcDbBlockTableRecord
  2
DIMS3
  0
BLOCK_RECORD
  5
7B
100
AcDbSymbolTableRecord
100
AcDbBlockTableRecord
  2
DIMS4
  0
BLOCK_RECORD
  5
87
100
AcDbSymbolTableRecord
100
AcDbBlockTableRecord
  2
DIMS5
  0
BLOCK_RECORD
  5
93
100
AcDbSymbolTableRecord
100
AcDbBlockTableRecord
  2
DIMS6
  0
BLOCK_RECORD
  5
9C
100
AcDbSymbolTableRecord
100
AcDbBlockTableRecord
  2
DIMS7
  0
BLOCK_RECORD
  5
A8
100
AcDbSymbolTableRecord
100
AcDbBlockTableRecord
  2
DIMS8
  0
BLOCK_RECORD
  5
B4
100
AcDbSymbolTableRecord
100
AcDbBlockTableRecord
  2
DIMS9
  0
BLOCK_RECORD
  5
BA
100
AcDbSymbolTableRecord
100
AcDbBlockTableRecord
  2
DIMS10
  0
BLOCK_RECORD
  5
C6
100
AcDbSymbolTableRecord
100
AcDbBlockTableRecord
  2
DIMS11
  0
ENDTAB
  0
ENDSEC
  0
SECTION
  2
BLOCKS
  0
BLOCK
  5
22
100
AcDbEntity
  8
0
100
AcDbBlockBegin
  2
*MODEL_SPACE
 70
     0
 10
0.0
 20
0.0
 30
0.0
  3
*MODEL_SPACE
  1

  0
ENDBLK
  5
23
100
AcDbEntity
  8
0
100
AcDbBlockEnd
  0
BLOCK
  5
25
100
AcDbEntity
 67
     1
  8
0
100
AcDbBlockBegin
  2
*PAPER_SPACE
 70
     0
 10
0.0
 20
0.0
 30
0.0
  3
*PAPER_SPACE
  1

  0
ENDBLK
  5
26
100
AcDbEntity
 67
     1
  8
0
100
AcDbBlockEnd
  0
BLOCK
  5
2A
100
AcDbEntity
  8
0
100
AcDbBlockBegin
  2
_NONE
 70
     0
 10
0.0
 20
0.0
  0
CIRCLE
  5
2B
100
AcDbEntity
  8
0
 62
     0
100
AcDbCircle
 10
0.0
 20
0.0
 40
0.25
  0
ENDBLK
  5
2C
100
AcDbEntity
  8
0
100
AcDbBlockEnd
  0
BLOCK
  5
2E
100
AcDbEntity
  8
0
100
AcDbBlockBegin
  2
_OPEN
 70
     0
 10
0.0
 20
0.0
  0
LINE
  5
2F
100
AcDbEntity
  8
0
 62
     0
100
AcDbLine
 10
-0.965926
 20
0.258819
 11
0.0
 21
0.0
  0
LINE
  5
30
100
AcDbEntity
  8
0
 62
     0
100
AcDbLine
 10
0.0
 20
0.0
 11
-0.965926
 21
-0.258819
  0
LINE
  5
31
100
AcDbEntity
  8
0
 62
     0
100
AcDbLine
 10
0.0
 20
0.0
 11
-1.0
 21
0.0
  0
ENDBLK
  5
32
100
AcDbEntity
  8
0
100
AcDbBlockEnd
  0
BLOCK
  5
34
100
AcDbEntity
  8
0
100
AcDbBlockBegin
  2
_CLOSED
 70
     0
 10
0.0
 20
0.0
  0
LINE
  5
35
100
AcDbEntity
  8
0
 62
     0
100
AcDbLine
 10
-0.965926
 20
0.258819
 11
0.0
 21
0.0
  0
LINE
  5
36
100
AcDbEntity
  8
0
 62
     0
100
AcDbLine
 10
0.0
 20
0.0
 11
-0.965926
 21
-0.258819
  0
LINE
  5
37
100
AcDbEntity
  8
0
 62
     0
100
AcDbLine
 10
-0.965926
 20
0.258819
 11
-0.965926
 21
-0.258819
  0
LINE
  5
38
100
AcDbEntity
  8
0
 62
     0
100
AcDbLine
 10
0.0
 20
0.0
 11
-1.0
 21
0.0
  0
ENDBLK
  5
39
100
AcDbEntity
  8
0
100
AcDbBlockEnd
  0
BLOCK
  5
3B
100
AcDbEntity
  8
0
100
AcDbBlockBegin
  2
_ORIGIN
 70
     0
 10
0.0
 20
0.0
  0
CIRCLE
  5
3C
100
AcDbEntity
  8
0
 62
     0
100
AcDbCircle
 10
0.0
 20
0.0
 40
0.5
  0
LINE
  5
3D
100
AcDbEntity
  8
0
 62
     0
100
AcDbLine
 10
0.0
 20
0.0
 11
-1.0
 21
0.0
  0
ENDBLK
  5
3E
100
AcDbEntity
  8
0
100
AcDbBlockEnd
  0
BLOCK
  5
40
100
AcDbEntity
  8
0
100
AcDbBlockBegin
  2
_DOT
 70
     0
 10
0.0
 20
0.0
  0
POLYLINE
  5
41
100
AcDbEntity
  8
0
 62
     0
100
AcDb2dPolyline
 66
     1
 70
     1
 40
0.5
 41
0.5
  0
VERTEX
  5
42
100
AcDbEntity
  8
0
 62
     0
100
AcDbVertex
100
AcDb2dVertex
 10
-0.25
 20
0.0
 42
1.0
  0
VERTEX
  5
43
100
AcDbEntity
  8
0
 62
     0
100
AcDbVertex
100
AcDb2dVertex
 10
0.25
 20
0.0
 42
1.0
  0
SEQEND
  5
44
100
AcDbEntity
  8
0
 62
     0
  0
LINE
  5
45
100
AcDbEntity
  8
0
 62
     0
100
AcDbLine
 10
-0.5
 20
0.0
 11
-1.0
 21
0.0
  0
ENDBLK
  5
46
100
AcDbEntity
  8
0
100
AcDbBlockEnd
  0
BLOCK
  5
48
100
AcDbEntity
  8
0
100
AcDbBlockBegin
  2
_OBLIQUE
 70
     0
 10
0.0
 20
0.0
  0
LINE
  5
49
100
AcDbEntity
  8
0
 62
     0
100
AcDbLine
 10
-0.353553
 20
-0.353553
 11
0.353553
 21
0.353553
  0
ENDBLK
  5
4A
100
AcDbEntity
  8
0
100
AcDbBlockEnd
  0
BLOCK
  5
4C
100
AcDbEntity
  8
DD0
100
AcDbBlockBegin
  2
DIMS0
 70
     0
 10
0.0
 20
0.0
  0
LINE
  5
4D
100
AcDbEntity
  8
DD0
100
AcDbLine
 10
103.651346
 20
502.82567
 11
103.651346
 21
580.090212
  0
LINE
  5
4E
100
AcDbEntity
  8
DD0
100
AcDbLine
 10
203.651349
 20
502.826382
 11
203.651349
 21
580.090212
  0
LINE
  5
4F
100
AcDbEntity
  8
DD0
100
AcDbLine
 10
110.090852
 20
579.59345
 11
103.651346
 21
577.867989
  0
LINE
  5
50
100
AcDbEntity
  8
DD0
100
AcDbLine
 10
103.651346
 20
577.867989
 11
110.090852
 21
576.142529
  0
LINE
  5
51
100
AcDbEntity
  8
DD0
100
AcDbLine
 10
197.211843
 20
576.142529
 11
203.651349
 21
577.867989
  0
LINE
  5
52
100
AcDbEntity
  8
DD0
100
AcDbLine
 10
203.651349
 20
577.867989
 11
197.211843
 21
579.59345
  0
LINE
  5
53
100
AcDbEntity
  8
DD0
100
AcDbLine
 10
103.651346
 20
577.867989
 11
203.651349
 21
577.867989
  0
TEXT
  5
54
100
AcDbEntity
  8
DD0
100
AcDbText
 10
140.223574
 20
579.201336
 40
7.0
  1
※１００
 41
0.833333
  7
STANDARD
100
AcDbText
  0
ENDBLK
  5
55
100
AcDbEntity
  8
DD0
100
AcDbBlockEnd
  0
BLOCK
  5
58
100
AcDbEntity
  8
DD0
100
AcDbBlockBegin
  2
DIMS1
 70
     0
 10
0.0
 20
0.0
  0
LINE
  5
59
100
AcDbEntity
  8
DD0
100
AcDbLine
 10
408.221514
 20
526.344585
 11
408.221514
 21
580.090212
  0
LINE
  5
5A
100
AcDbEntity
  8
DD0
100
AcDbLine
 10
254.721686
 20
512.344103
 11
254.721686
 21
580.090212
  0
LINE
  5
5B
100
AcDbEntity
  8
DD0
100
AcDbLine
 10
401.782009
 20
576.142529
 11
408.221514
 21
577.867989
  0
LINE
  5
5C
100
AcDbEntity
  8
DD0
100
AcDbLine
 10
408.221514
 20
577.867989
 11
401.782009
 21
579.59345
  0
LINE
  5
5D
100
AcDbEntity
  8
DD0
100
AcDbLine
 10
261.161192
 20
579.59345
 11
254.721686
 21
577.867989
  0
LINE
  5
5E
100
AcDbEntity
  8
DD0
100
AcDbLine
 10
254.721686
 20
577.867989
 11
261.161192
 21
576.142529
  0
LINE
  5
5F
100
AcDbEntity
  8
DD0
100
AcDbLine
 10
408.221514
 20
577.867989
 11
254.721686
 21
577.867989
  0
TEXT
  5
60
100
AcDbEntity
  8
DD0
100
AcDbText
 10
321.543811
 20
579.201336
 40
7.0
  1
１５４
 41
0.833333
  7
STANDARD
100
AcDbText
  0
ENDBLK
  5
61
100
AcDbEntity
  8
DD0
100
AcDbBlockEnd
  0
BLOCK
  5
64
100
AcDbEntity
  8
DD0
100
AcDbBlockBegin
  2
DIMS2
 70
     0
 10
0.0
 20
0.0
  0
LINE
  5
65
100
AcDbEntity
  8
DD0
100
AcDbLine
 10
390.721514
 20
526.302945
 11
390.721514
 21
553.826376
  0
LINE
  5
66
100
AcDbEntity
  8
DD0
100
AcDbLine
 10
408.221514
 20
526.344585
 11
408.221514
 21
553.826376
  0
LINE
  5
67
100
AcDbEntity
  8
DD0
100
AcDbLine
 10
397.161019
 20
553.329615
 11
390.721514
 21
551.604154
  0
LINE
  5
68
100
AcDbEntity
  8
DD0
100
AcDbLine
 10
390.721514
 20
551.604154
 11
397.161019
 21
549.878694
  0
LINE
  5
69
100
AcDbEntity
  8
DD0
100
AcDbLine
 10
401.782009
 20
549.878694
 11
408.221514
 21
551.604154
  0
LINE
  5
6A
100
AcDbEntity
  8
DD0
100
AcDbLine
 10
408.221514
 20
551.604154
 11
401.782009
 21
553.329615
  0
LINE
  5
6B
100
AcDbEntity
  8
DD0
100
AcDbLine
 10
390.721514
 20
551.604154
 11
408.221514
 21
551.604154
  0
TEXT
  5
6C
100
AcDbEntity
  8
DD0
100
AcDbText
 10
380.814816
 20
553.870491
 40
7.0
  1
１７．５
 50
-0.000444
 41
0.833333
  7
STANDARD
100
AcDbText
  0
ENDBLK
  5
6D
100
AcDbEntity
  8
DD0
100
AcDbBlockEnd
  0
BLOCK
  5
70
100
AcDbEntity
  8
DD0
100
AcDbBlockBegin
  2
DIMS3
 70
     0
 10
0.0
 20
0.0
  0
LINE
  5
71
100
AcDbEntity
  8
DD0
100
AcDbLine
 10
134.428943
 20
551.604154
 11
80.967935
 21
551.604154
  0
LINE
  5
72
100
AcDbEntity
  8
DD0
100
AcDbLine
 10
108.428856
 20
531.604086
 11
80.967935
 21
531.604086
  0
LINE
  5
73
100
AcDbEntity
  8
DD0
100
AcDbLine
 10
84.915618
 20
545.164648
 11
83.190157
 21
551.604154
  0
LINE
  5
74
100
AcDbEntity
  8
DD0
100
AcDbLine
 10
83.190157
 20
551.604154
 11
81.464697
 21
545.164648
  0
LINE
  5
75
100
AcDbEntity
  8
DD0
100
AcDbLine
 10
81.464697
 20
538.043591
 11
83.190157
 21
531.604086
  0
LINE
  5
76
100
AcDbEntity
  8
DD0
100
AcDbLine
 10
83.190157
 20
531.604086
 11
84.915618
 21
538.043591
  0
LINE
  5
77
100
AcDbEntity
  8
DD0
100
AcDbLine
 10
83.190157
 20
551.604154
 11
83.190157
 21
531.604086
  0
TEXT
  5
78
100
AcDbEntity
  8
DD0
100
AcDbText
 10
81.856827
 20
535.176358
 40
7.0
  1
４３
 50
90.000003
 41
0.833333
  7
STANDARD
100
AcDbText
  0
ENDBLK
  5
79
100
AcDbEntity
  8
DD0
100
AcDbBlockEnd
  0
BLOCK
  5
7C
100
AcDbEntity
  8
DD0
100
AcDbBlockBegin
  2
DIMS4
 70
     0
 10
0.0
 20
0.0
  0
LINE
  5
7D
100
AcDbEntity
  8
DD0
 60
     1
100
AcDbLine
 10
108.428856
 20
531.604086
 11
80.967926
 21
531.604086
  0
LINE
  5
7E
100
AcDbEntity
  8
DD0
100
AcDbLine
 10
108.428882
 20
395.604157
 11
80.967926
 21
395.604157
  0
LINE
  5
7F
100
AcDbEntity
  8
DD0
100
AcDbLine
 10
84.915609
 20
525.16458
 11
83.190149
 21
531.604086
  0
LINE
  5
80
100
AcDbEntity
  8
DD0
100
AcDbLine
 10
83.190149
 20
531.604086
 11
81.464688
 21
525.16458
  0
LINE
  5
81
100
AcDbEntity
  8
DD0
100
AcDbLine
 10
81.464688
 20
402.043662
 11
83.190149
 21
395.604157
  0
LINE
  5
82
100
AcDbEntity
  8
DD0
100
AcDbLine
 10
83.190149
 20
395.604157
 11
84.915609
 21
402.043662
  0
LINE
  5
83
100
AcDbEntity
  8
DD0
100
AcDbLine
 10
83.190149
 20
531.604086
 11
83.190149
 21
395.604157
  0
TEXT
  5
84
100
AcDbEntity
  8
DD0
100
AcDbText
 10
81.856819
 20
453.676349
 40
7.0
  1
１３６
 50
90.000003
 41
0.833333
  7
STANDARD
100
AcDbText
  0
ENDBLK
  5
85
100
AcDbEntity
  8
DD0
100
AcDbBlockEnd
  0
BLOCK
  5
88
100
AcDbEntity
  8
DD0
100
AcDbBlockBegin
  2
DIMS5
 70
     0
 10
0.0
 20
0.0
  0
LINE
  5
89
100
AcDbEntity
  8
DD0
 60
     1
100
AcDbLine
 10
108.428882
 20
395.604157
 11
80.967935
 21
395.604157
  0
LINE
  5
8A
100
AcDbEntity
  8
DD0
100
AcDbLine
 10
134.428943
 20
375.60419
 11
80.967935
 21
375.60419
  0
LINE
  5
8B
100
AcDbEntity
  8
DD0
100
AcDbLine
 10
84.915618
 20
389.164651
 11
83.190157
 21
395.604157
  0
LINE
  5
8C
100
AcDbEntity
  8
DD0
100
AcDbLine
 10
83.190157
 20
395.604157
 11
81.464697
 21
389.164651
  0
LINE
  5
8D
100
AcDbEntity
  8
DD0
100
AcDbLine
 10
81.464697
 20
382.043696
 11
83.190157
 21
375.60419
  0
LINE
  5
8E
100
AcDbEntity
  8
DD0
100
AcDbLine
 10
83.190157
 20
375.60419
 11
84.915618
 21
382.043696
  0
LINE
  5
8F
100
AcDbEntity
  8
DD0
100
AcDbLine
 10
83.190157
 20
395.604157
 11
83.190157
 21
375.60419
  0
TEXT
  5
90
100
AcDbEntity
  8
DD0
100
AcDbText
 10
81.856827
 20
379.176429
 40
7.0
  1
４３
 50
90.000003
 41
0.833333
  7
STANDARD
100
AcDbText
  0
ENDBLK
  5
91
100
AcDbEntity
  8
DD0
100
AcDbBlockEnd
  0
BLOCK
  5
94
100
AcDbEntity
  8
DD0
100
AcDbBlockBegin
  2
DIMS6
 70
     0
 10
0.0
 20
0.0
  0
TEXT
  5
95
100
AcDbEntity
  8
DD0
100
AcDbText
 10
200.517655
 20
372.891618
 40
7.0
  1
相間バリヤ
 41
0.833333
  7
STANDARD
100
AcDbText
  0
LINE
  5
96
100
AcDbEntity
  8
DD0
100
AcDbLine
 10
177.09605
 20
385.370253
 11
170.651165
 21
387.075511
  0
LINE
  5
97
100
AcDbEntity
  8
DD0
100
AcDbLine
 10
170.651165
 20
387.075511
 11
175.37997
 21
382.376272
  0
LINE
  5
98
100
AcDbEntity
  8
DD0
100
AcDbLine
 10
170.651165
 20
387.075511
 11
197.723343
 21
371.558373
  0
LINE
  5
99
100
AcDbEntity
  8
DD0
100
AcDbLine
 10
197.723343
 20
371.558373
 11
237.167789
 21
371.558271
  0
ENDBLK
  5
9A
100
AcDbEntity
  8
DD0
100
AcDbBlockEnd
  0
BLOCK
  5
9D
100
AcDbEntity
  8
DD0
100
AcDbBlockBegin
  2
DIMS7
 70
     0
 10
0.0
 20
0.0
  0
LINE
  5
9E
100
AcDbEntity
  8
DD0
100
AcDbLine
 10
198.873381
 20
297.81461
 11
226.361107
 21
297.81461
  0
LINE
  5
9F
100
AcDbEntity
  8
DD0
100
AcDbLine
 10
217.040055
 20
284.814596
 11
226.361107
 21
284.814596
  0
LINE
  5
A0
100
AcDbEntity
  8
DD0
100
AcDbLine
 10
222.413424
 20
304.254116
 11
224.138885
 21
297.81461
  0
LINE
  5
A1
100
AcDbEntity
  8
DD0
100
AcDbLine
 10
224.138885
 20
297.81461
 11
225.864345
 21
304.254116
  0
LINE
  5
A2
100
AcDbEntity
  8
DD0
100
AcDbLine
 10
225.864345
 20
278.375091
 11
224.138885
 21
284.814596
  0
LINE
  5
A3
100
AcDbEntity
  8
DD0
100
AcDbLine
 10
224.138885
 20
284.814596
 11
222.413424
 21
278.375091
  0
LINE
  5
A4
100
AcDbEntity
  8
DD0
100
AcDbLine
 10
224.138885
 20
315.506844
 11
224.138885
 21
277.481263
  0
TEXT
  5
A5
100
AcDbEntity
  8
DD0
100
AcDbText
 10
222.271275
 20
299.856799
 40
7.0
  1
１３
 50
90.001328
 41
0.833333
  7
STANDARD
100
AcDbText
  0
ENDBLK
  5
A6
100
AcDbEntity
  8
DD0
100
AcDbBlockEnd
  0
BLOCK
  5
A9
100
AcDbEntity
  8
DD0
100
AcDbBlockBegin
  2
DIMS8
 70
     0
 10
0.0
 20
0.0
  0
LINE
  5
AA
100
AcDbEntity
  8
DD0
 60
     1
100
AcDbLine
 10
217.040055
 20
284.814596
 11
226.361141
 21
284.814596
  0
LINE
  5
AB
100
AcDbEntity
  8
DD0
100
AcDbLine
 10
133.040054
 20
174.81461
 11
226.361141
 21
174.81461
  0
LINE
  5
AC
100
AcDbEntity
  8
DD0
100
AcDbLine
 10
225.864379
 20
278.375091
 11
224.138919
 21
284.814596
  0
LINE
  5
AD
100
AcDbEntity
  8
DD0
100
AcDbLine
 10
224.138919
 20
284.814596
 11
222.413458
 21
278.375091
  0
LINE
  5
AE
100
AcDbEntity
  8
DD0
100
AcDbLine
 10
222.413458
 20
181.254116
 11
224.138919
 21
174.81461
  0
LINE
  5
AF
100
AcDbEntity
  8
DD0
100
AcDbLine
 10
224.138919
 20
174.81461
 11
225.864379
 21
181.254116
  0
LINE
  5
B0
100
AcDbEntity
  8
DD0
100
AcDbLine
 10
224.138919
 20
284.814596
 11
224.138919
 21
174.81461
  0
TEXT
  5
B1
100
AcDbEntity
  8
DD0
100
AcDbText
 10
222.805589
 20
219.886823
 40
7.0
  1
１１０
 50
90.000003
 41
0.833333
  7
STANDARD
100
AcDbText
  0
ENDBLK
  5
B2
100
AcDbEntity
  8
DD0
100
AcDbBlockEnd
  0
BLOCK
  5
B5
100
AcDbEntity
  8
DD0
100
AcDbBlockBegin
  2
DIMS9
 70
     0
 10
0.0
 20
0.0
  0
LINE
  5
B6
100
AcDbEntity
  8
DD0
100
AcDbLine
 10
134.775151
 20
130.827008
 11
170.841811
 21
130.827008
  0
TEXT
  5
B7
100
AcDbEntity
  8
DD0
100
AcDbText
 10
135.771448
 20
131.715897
 40
8.888889
  1
せん孔図
 41
0.833333
  7
STANDARD
100
AcDbText
  0
ENDBLK
  5
B8
100
AcDbEntity
  8
DD0
100
AcDbBlockEnd
  0
BLOCK
  5
BB
100
AcDbEntity
  8
DD0
100
AcDbBlockBegin
  2
DIMS10
 70
     0
 10
0.0
 20
0.0
  0
LINE
  5
BC
100
AcDbEntity
  8
DD0
100
AcDbLine
 10
111.651157
 20
196.2035
 11
111.651157
 21
330.664953
  0
LINE
  5
BD
100
AcDbEntity
  8
DD0
100
AcDbLine
 10
195.651149
 20
306.20352
 11
195.651149
 21
330.664953
  0
LINE
  5
BE
100
AcDbEntity
  8
DD0
100
AcDbLine
 10
118.090662
 20
330.168191
 11
111.651157
 21
328.442731
  0
LINE
  5
BF
100
AcDbEntity
  8
DD0
100
AcDbLine
 10
111.651157
 20
328.442731
 11
118.090662
 21
326.71727
  0
LINE
  5
C0
100
AcDbEntity
  8
DD0
100
AcDbLine
 10
189.211643
 20
326.71727
 11
195.651149
 21
328.442731
  0
LINE
  5
C1
100
AcDbEntity
  8
DD0
100
AcDbLine
 10
195.651149
 20
328.442731
 11
189.211643
 21
330.168191
  0
LINE
  5
C2
100
AcDbEntity
  8
DD0
100
AcDbLine
 10
111.651157
 20
328.442731
 11
195.651149
 21
328.442731
  0
TEXT
  5
C3
100
AcDbEntity
  8
DD0
100
AcDbText
 10
122.723387
 20
329.776078
 40
7.0
  1
８４（８０も可能）
 41
0.833333
  7
STANDARD
100
AcDbText
  0
ENDBLK
  5
C4
100
AcDbEntity
  8
DD0
100
AcDbBlockEnd
  0
BLOCK
  5
C7
100
AcDbEntity
  8
DD0
100
AcDbBlockBegin
  2
DIMS11
 70
     0
 10
0.0
 20
0.0
  0
TEXT
  5
C8
100
AcDbEntity
  8
DD0
100
AcDbText
 10
36.889581
 20
137.689569
 40
7.0
  1
２－Ｍ５ねじ穴
 41
0.833333
  7
STANDARD
100
AcDbText
  0
LINE
  5
C9
100
AcDbEntity
  8
DD0
100
AcDbLine
 10
107.466868
 20
164.281506
 11
108.603891
 21
170.850496
  0
LINE
  5
CA
100
AcDbEntity
  8
DD0
100
AcDbLine
 10
108.603891
 20
170.850496
 11
104.334706
 21
165.730095
  0
LINE
  5
CB
100
AcDbEntity
  8
DD0
100
AcDbLine
 10
108.603891
 20
170.850496
 11
92.650691
 21
136.356239
  0
LINE
  5
CC
100
AcDbEntity
  8
DD0
100
AcDbLine
 10
92.650691
 20
136.356239
 11
28.984022
 21
136.356239
  0
ENDBLK
  5
CD
100
AcDbEntity
  8
DD0
100
AcDbBlockEnd
  0
ENDSEC
  0
SECTION
  2
ENTITIES
  0
INSERT
  5
56
100
AcDbEntity
  8
DD0
100
AcDbBlockReference
  2
DIMS0
 10
0.0
 20
0.0
  0
INSERT
  5
62
100
AcDbEntity
  8
DD0
100
AcDbBlockReference
  2
DIMS1
 10
0.0
 20
0.0
  0
INSERT
  5
6E
100
AcDbEntity
  8
DD0
100
AcDbBlockReference
  2
DIMS2
 10
0.0
 20
0.0
  0
INSERT
  5
7A
100
AcDbEntity
  8
DD0
100
AcDbBlockReference
  2
DIMS3
 10
0.0
 20
0.0
  0
INSERT
  5
86
100
AcDbEntity
  8
DD0
100
AcDbBlockReference
  2
DIMS4
 10
0.0
 20
0.0
  0
INSERT
  5
92
100
AcDbEntity
  8
DD0
100
AcDbBlockReference
  2
DIMS5
 10
0.0
 20
0.0
  0
INSERT
  5
9B
100
AcDbEntity
  8
DD0
100
AcDbBlockReference
  2
DIMS6
 10
0.0
 20
0.0
  0
INSERT
  5
A7
100
AcDbEntity
  8
DD0
100
AcDbBlockReference
  2
DIMS7
 10
0.0
 20
0.0
  0
INSERT
  5
B3
100
AcDbEntity
  8
DD0
100
AcDbBlockReference
  2
DIMS8
 10
0.0
 20
0.0
  0
INSERT
  5
B9
100
AcDbEntity
  8
DD0
100
AcDbBlockReference
  2
DIMS9
 10
0.0
 20
0.0
  0
INSERT
  5
C5
100
AcDbEntity
  8
DD0
100
AcDbBlockReference
  2
DIMS10
 10
0.0
 20
0.0
  0
INSERT
  5
CE
100
AcDbEntity
  8
DD0
100
AcDbBlockReference
  2
DIMS11
 10
0.0
 20
0.0
  0
ARC
  5
CF
100
AcDbEntity
  8
M0
 62
     4
100
AcDbCircle
 10
142.151606
 20
507.604542
 40
4.5
100
AcDbArc
 50
180.0
 51
360.0
  0
ARC
  5
D0
100
AcDbEntity
  8
M0
 62
     4
100
AcDbCircle
 10
165.151606
 20
419.604557
 40
4.5
100
AcDbArc
 50
0.0
 51
180.0
  0
LINE
  5
D1
100
AcDbEntity
  8
M0
 62
     4
100
AcDbLine
 10
190.151362
 20
422.104526
 11
190.151362
 21
505.104313
  0
LINE
  5
D2
100
AcDbEntity
  8
M0
 62
     4
100
AcDbLine
 10
176.65095
 20
512.604069
 11
169.151362
 21
512.604069
  0
LINE
  5
D3
100
AcDbEntity
  8
M0
 62
     4
100
AcDbLine
 10
117.151362
 20
505.104313
 11
117.151362
 21
422.104542
  0
LINE
  5
D4
100
AcDbEntity
  8
M0
 62
     4
100
AcDbLine
 10
119.151362
 20
507.104313
 11
134.651362
 21
507.104313
  0
LINE
  5
D5
100
AcDbEntity
  8
M0
 62
     4
100
AcDbLine
 10
119.151362
 20
420.104542
 11
134.151423
 21
420.104542
  0
CIRCLE
  5
D6
100
AcDbEntity
  8
M0
 62
     4
100
AcDbCircle
 10
185.651362
 20
493.104313
 40
1.5
  0
LINE
  5
D7
100
AcDbEntity
  8
M0
  6
DASHDOT
 62
     4
100
AcDbLine
 10
185.651362
 20
486.604313
 11
185.651362
 21
499.604313
  0
CIRCLE
  5
D8
100
AcDbEntity
  8
M0
 62
     4
100
AcDbCircle
 10
185.651362
 20
493.104313
 40
1.0
  0
CIRCLE
  5
D9
100
AcDbEntity
  8
M0
 62
     4
100
AcDbCircle
 10
185.651362
 20
434.104542
 40
1.5
  0
LINE
  5
DA
100
AcDbEntity
  8
M0
  6
DASHDOT
 62
     4
100
AcDbLine
 10
179.151362
 20
434.104542
 11
192.151362
 21
434.104542
  0
LINE
  5
DB
100
AcDbEntity
  8
M0
  6
DASHDOT
 62
     4
100
AcDbLine
 10
185.651362
 20
440.604542
 11
185.651362
 21
427.604542
  0
CIRCLE
  5
DC
100
AcDbEntity
  8
M0
 62
     4
100
AcDbCircle
 10
185.651362
 20
434.104542
 40
1.0
  0
CIRCLE
  5
DD
100
AcDbEntity
  8
M0
 62
     4
100
AcDbCircle
 10
121.651392
 20
493.104313
 40
1.5
  0
LINE
  5
DE
100
AcDbEntity
  8
M0
  6
DASHDOT
 62
     4
100
AcDbLine
 10
128.151377
 20
493.104313
 11
115.151392
 21
493.104313
  0
LINE
  5
DF
100
AcDbEntity
  8
M0
  6
DASHDOT
 62
     4
100
AcDbLine
 10
121.651377
 20
486.604313
 11
121.651392
 21
499.604069
  0
CIRCLE
  5
E0
100
AcDbEntity
  8
M0
 62
     4
100
AcDbCircle
 10
121.651392
 20
493.104313
 40
1.0
  0
CIRCLE
  5
E1
100
AcDbEntity
  8
M0
 62
     4
100
AcDbCircle
 10
121.651392
 20
434.104542
 40
1.5
  0
LINE
  5
E2
100
AcDbEntity
  8
M0
  6
DASHDOT
 62
     4
100
AcDbLine
 10
128.151377
 20
434.104542
 11
115.151392
 21
434.104526
  0
LINE
  5
E3
100
AcDbEntity
  8
M0
  6
DASHDOT
 62
     4
100
AcDbLine
 10
121.651377
 20
440.604526
 11
121.651392
 21
427.604542
  0
CIRCLE
  5
E4
100
AcDbEntity
  8
M0
 62
     4
100
AcDbCircle
 10
121.651392
 20
434.104542
 40
1.0
  0
LINE
  5
E5
100
AcDbEntity
  8
M0
 62
     4
100
AcDbLine
 10
180.651362
 20
506.604313
 11
180.651362
 21
504.104313
  0
LINE
  5
E6
100
AcDbEntity
  8
M0
 62
     4
100
AcDbLine
 10
172.651362
 20
512.103824
 11
172.651362
 21
504.104313
  0
LINE
  5
E7
100
AcDbEntity
  8
M0
 62
     4
100
AcDbLine
 10
168.651362
 20
512.103824
 11
168.651362
 21
507.104313
  0
LINE
  5
E8
100
AcDbEntity
  8
M0
 62
     4
100
AcDbLine
 10
176.651362
 20
512.604069
 11
185.651362
 21
507.104313
  0
LINE
  5
E9
100
AcDbEntity
  8
M0
 62
     4
100
AcDbLine
 10
149.651362
 20
512.103824
 11
149.651362
 21
504.104313
  0
LINE
  5
EA
100
AcDbEntity
  8
M0
 62
     4
100
AcDbLine
 10
149.151362
 20
512.604069
 11
130.651759
 21
512.603824
  0
LINE
  5
EB
100
AcDbEntity
  8
M0
 62
     4
100
AcDbLine
 10
134.651362
 20
512.103824
 11
134.651362
 21
504.104313
  0
LINE
  5
EC
100
AcDbEntity
  8
M0
 62
     4
100
AcDbLine
 10
130.651362
 20
512.603824
 11
121.651362
 21
507.104313
  0
ARC
  5
ED
100
AcDbEntity
  8
M0
 62
     4
100
AcDbCircle
 10
119.151362
 20
505.104313
 40
2.0
100
AcDbArc
 50
90.0
 51
180.0
  0
ARC
  5
EE
100
AcDbEntity
  8
M0
 62
     4
100
AcDbCircle
 10
188.151362
 20
505.104313
 40
2.0
100
AcDbArc
 50
0.0
 51
90.0
  0
LINE
  5
EF
100
AcDbEntity
  8
M0
  6
DASHDOT
 62
     4
100
AcDbLine
 10
130.651362
 20
515.159733
 11
130.651362
 21
500.965885
  0
LINE
  5
F0
100
AcDbEntity
  8
M0
 62
     4
100
AcDbLine
 10
149.651362
 20
507.104313
 11
168.651362
 21
507.104313
  0
LINE
  5
F1
100
AcDbEntity
  8
M0
 62
     4
100
AcDbLine
 10
138.651423
 20
415.10477
 11
138.651423
 21
419.604542
  0
LINE
  5
F2
100
AcDbEntity
  8
M0
 62
     4
100
AcDbLine
 10
134.651423
 20
415.104786
 11
134.651423
 21
423.104542
  0
LINE
  5
F3
100
AcDbEntity
  8
M0
 62
     4
100
AcDbLine
 10
130.651423
 20
414.604786
 11
121.651408
 21
420.104557
  0
LINE
  5
F4
100
AcDbEntity
  8
M0
 62
     4
100
AcDbLine
 10
130.651835
 20
414.604786
 11
138.151423
 21
414.604786
  0
LINE
  5
F5
100
AcDbEntity
  8
M0
 62
     4
100
AcDbLine
 10
158.151362
 20
414.604786
 11
176.651347
 21
414.604786
  0
LINE
  5
F6
100
AcDbEntity
  8
M0
 62
     4
100
AcDbLine
 10
176.651362
 20
414.604786
 11
185.651362
 21
420.104542
  0
ARC
  5
F7
100
AcDbEntity
  8
M0
 62
     4
100
AcDbCircle
 10
188.151362
 20
422.104542
 40
2.0
100
AcDbArc
 50
269.999563
 51
360.0
  0
LINE
  5
F8
100
AcDbEntity
  8
M0
 62
     4
100
AcDbLine
 10
172.651362
 20
423.104542
 11
172.651362
 21
415.104786
  0
LINE
  5
F9
100
AcDbEntity
  8
M0
 62
     4
100
AcDbLine
 10
157.651362
 20
423.104542
 11
157.651362
 21
415.104786
  0
LINE
  5
FA
100
AcDbEntity
  8
M0
 62
     4
100
AcDbLine
 10
173.151362
 20
420.104542
 11
188.151362
 21
420.104542
  0
ARC
  5
FB
100
AcDbEntity
  8
M0
 62
     4
100
AcDbCircle
 10
119.151362
 20
422.104542
 40
2.0
100
AcDbArc
 50
180.0
 51
269.999563
  0
LINE
  5
FC
100
AcDbEntity
  8
M0
 62
     4
100
AcDbLine
 10
146.651362
 20
512.103824
 11
146.651362
 21
507.604313
  0
LINE
  5
FD
100
AcDbEntity
  8
M0
 62
     4
100
AcDbLine
 10
137.651362
 20
512.103824
 11
137.651362
 21
507.604313
  0
LINE
  5
FE
100
AcDbEntity
  8
M0
 62
     4
100
AcDbLine
 10
169.651362
 20
419.604542
 11
169.651362
 21
415.104786
  0
LINE
  5
FF
100
AcDbEntity
  8
M0
 62
     4
100
AcDbLine
 10
160.651362
 20
419.604526
 11
160.651362
 21
415.10477
  0
CIRCLE
  5
100
100
AcDbEntity
  8
M0
 62
     4
100
AcDbCircle
 10
165.151362
 20
419.604542
 40
2.75
  0
CIRCLE
  5
101
100
AcDbEntity
  8
M0
 62
     4
100
AcDbCircle
 10
142.151362
 20
507.604313
 40
2.75
  0
CIRCLE
  5
102
100
AcDbEntity
  8
M0
 62
     4
100
AcDbCircle
 10
142.151362
 20
507.604313
 40
2.0
  0
CIRCLE
  5
103
100
AcDbEntity
  8
M0
 62
     4
100
AcDbCircle
 10
165.151362
 20
419.604542
 40
2.0
  0
LINE
  5
104
100
AcDbEntity
  8
M0
  6
DASHDOT
 62
     4
100
AcDbLine
 10
158.151362
 20
419.604542
 11
172.151362
 21
419.604542
  0
LINE
  5
105
100
AcDbEntity
  8
M0
  6
DASHDOT
 62
     4
100
AcDbLine
 10
165.151362
 20
412.604542
 11
165.151362
 21
426.604542
  0
LINE
  5
106
100
AcDbEntity
  8
M0
 62
     4
100
AcDbLine
 10
149.651362
 20
504.104313
 11
157.651362
 21
504.104313
  0
LINE
  5
107
100
AcDbEntity
  8
M0
 62
     4
100
AcDbLine
 10
126.651362
 20
504.104313
 11
134.651362
 21
504.104313
  0
LINE
  5
108
100
AcDbEntity
  8
M0
 62
     4
100
AcDbLine
 10
157.651362
 20
506.604313
 11
157.651362
 21
504.104313
  0
LINE
  5
109
100
AcDbEntity
  8
M0
 62
     4
100
AcDbLine
 10
172.651362
 20
504.104313
 11
180.651362
 21
504.104313
  0
LINE
  5
10A
100
AcDbEntity
  8
M0
 62
     4
100
AcDbLine
 10
126.651362
 20
506.604313
 11
126.651362
 21
504.104313
  0
LINE
  5
10B
100
AcDbEntity
  8
M0
 62
     4
100
AcDbLine
 10
126.651316
 20
420.604526
 11
126.651316
 21
423.104542
  0
LINE
  5
10C
100
AcDbEntity
  8
M0
 62
     4
100
AcDbLine
 10
126.651316
 20
423.104542
 11
134.651316
 21
423.104542
  0
LINE
  5
10D
100
AcDbEntity
  8
M0
 62
     4
100
AcDbLine
 10
149.651316
 20
423.104542
 11
157.651316
 21
423.104542
  0
LINE
  5
10E
100
AcDbEntity
  8
M0
 62
     4
100
AcDbLine
 10
149.651301
 20
420.604526
 11
149.651316
 21
423.104542
  0
LINE
  5
10F
100
AcDbEntity
  8
M0
 62
     4
100
AcDbLine
 10
180.651316
 20
420.604542
 11
180.651316
 21
423.104542
  0
LINE
  5
110
100
AcDbEntity
  8
M0
 62
     4
100
AcDbLine
 10
172.651316
 20
423.104542
 11
180.651316
 21
423.104542
  0
ARC
  5
111
100
AcDbEntity
  8
M0
 62
     4
100
AcDbCircle
 10
169.151362
 20
512.103824
 40
0.5
100
AcDbArc
 50
90.0
 51
180.0
  0
ARC
  5
112
100
AcDbEntity
  8
M0
 62
     4
100
AcDbCircle
 10
149.151362
 20
512.103824
 40
0.5
100
AcDbArc
 50
0.0
 51
90.0
  0
ARC
  5
113
100
AcDbEntity
  8
M0
 62
     4
100
AcDbCircle
 10
172.151362
 20
512.103824
 40
0.5
100
AcDbArc
 50
0.0
 51
90.0
  0
ARC
  5
114
100
AcDbEntity
  8
M0
 62
     4
100
AcDbCircle
 10
137.151362
 20
512.103824
 40
0.5
100
AcDbArc
 50
0.0
 51
90.0
  0
ARC
  5
115
100
AcDbEntity
  8
M0
 62
     4
100
AcDbCircle
 10
147.151362
 20
512.103824
 40
0.5
100
AcDbArc
 50
90.0
 51
180.0
  0
ARC
  5
116
100
AcDbEntity
  8
M0
 62
     4
100
AcDbCircle
 10
135.151362
 20
512.103824
 40
0.5
100
AcDbArc
 50
90.0
 51
180.0
  0
ARC
  5
117
100
AcDbEntity
  8
M0
 62
     4
100
AcDbCircle
 10
181.151316
 20
420.604542
 40
0.5
100
AcDbArc
 50
180.0
 51
269.998251
  0
ARC
  5
118
100
AcDbEntity
  8
M0
 62
     4
100
AcDbCircle
 10
173.151362
 20
419.604542
 40
0.5
100
AcDbArc
 50
90.0
 51
180.0
  0
ARC
  5
119
100
AcDbEntity
  8
M0
 62
     4
100
AcDbCircle
 10
172.151362
 20
415.104786
 40
0.5
100
AcDbArc
 50
269.998251
 51
360.0
  0
ARC
  5
11A
100
AcDbEntity
  8
M0
 62
     4
100
AcDbCircle
 10
170.151362
 20
415.104786
 40
0.5
100
AcDbArc
 50
180.0
 51
269.998251
  0
ARC
  5
11B
100
AcDbEntity
  8
M0
 62
     4
100
AcDbCircle
 10
160.151362
 20
415.10477
 40
0.5
100
AcDbArc
 50
269.998251
 51
360.0
  0
ARC
  5
11C
100
AcDbEntity
  8
M0
 62
     4
100
AcDbCircle
 10
158.151362
 20
415.104786
 40
0.5
100
AcDbArc
 50
180.0
 51
269.998251
  0
ARC
  5
11D
100
AcDbEntity
  8
M0
 62
     4
100
AcDbCircle
 10
138.151423
 20
415.104786
 40
0.5
100
AcDbArc
 50
269.998251
 51
360.0
  0
ARC
  5
11E
100
AcDbEntity
  8
M0
 62
     4
100
AcDbCircle
 10
135.151423
 20
415.104786
 40
0.5
100
AcDbArc
 50
180.0
 51
269.998251
  0
LINE
  5
11F
100
AcDbEntity
  8
M0
  6
DASHDOT
 62
     4
100
AcDbLine
 10
130.651423
 20
411.178486
 11
130.651423
 21
425.481434
  0
LINE
  5
120
100
AcDbEntity
  8
M0
 62
     4
100
AcDbLine
 10
172.651362
 20
507.104313
 11
188.151362
 21
507.104313
  0
ARC
  5
121
100
AcDbEntity
  8
M0
 62
     4
100
AcDbCircle
 10
126.151362
 20
506.604313
 40
0.5
100
AcDbArc
 50
0.0
 51
90.0
  0
ARC
  5
122
100
AcDbEntity
  8
M0
 62
     4
100
AcDbCircle
 10
157.151362
 20
419.604542
 40
0.5
100
AcDbArc
 50
0.0
 51
90.0
  0
ARC
  5
123
100
AcDbEntity
  8
M0
 62
     4
100
AcDbCircle
 10
149.151301
 20
420.604542
 40
0.5
100
AcDbArc
 50
269.998251
 51
360.0
  0
LINE
  5
124
100
AcDbEntity
  8
M0
 62
     4
100
AcDbLine
 10
139.151423
 20
420.104542
 11
157.151362
 21
420.104542
  0
ARC
  5
125
100
AcDbEntity
  8
M0
 62
     4
100
AcDbCircle
 10
139.151423
 20
419.604542
 40
0.5
100
AcDbArc
 50
90.0
 51
180.0
  0
ARC
  5
126
100
AcDbEntity
  8
M0
 62
     4
100
AcDbCircle
 10
134.151423
 20
419.604542
 40
0.5
100
AcDbArc
 50
0.0
 51
90.0
  0
ARC
  5
127
100
AcDbEntity
  8
M0
 62
     4
100
AcDbCircle
 10
126.151316
 20
420.604542
 40
0.5
100
AcDbArc
 50
269.998251
 51
360.0
  0
ARC
  5
128
100
AcDbEntity
  8
M0
 62
     4
100
AcDbCircle
 10
158.151362
 20
506.604313
 40
0.5
100
AcDbArc
 50
90.0
 51
180.0
  0
ARC
  5
129
100
AcDbEntity
  8
M0
 62
     4
100
AcDbCircle
 10
181.151362
 20
506.604313
 40
0.5
100
AcDbArc
 50
90.0
 51
180.0
  0
LINE
  5
12A
100
AcDbEntity
  8
M0
  6
DASHDOT
 62
     4
100
AcDbLine
 10
179.150919
 20
493.104282
 11
192.150904
 21
493.104267
  0
LINE
  5
12B
100
AcDbEntity
  8
M0
 62
     7
100
AcDbLine
 10
119.151392
 20
414.104175
 11
159.151286
 21
414.104175
  0
LINE
  5
12C
100
AcDbEntity
  8
M0
 62
     7
100
AcDbLine
 10
203.651347
 20
426.60416
 11
203.651347
 21
500.604175
  0
LINE
  5
12D
100
AcDbEntity
  8
M0
 62
     7
100
AcDbLine
 10
188.151347
 20
513.103931
 11
159.151179
 21
513.103748
  0
LINE
  5
12E
100
AcDbEntity
  8
M0
 62
     7
100
AcDbLine
 10
103.651347
 20
500.603443
 11
103.651347
 21
426.60416
  0
LINE
  5
12F
100
AcDbEntity
  8
M0
  6
DASHDOT
 62
     7
100
AcDbLine
 10
96.820139
 20
463.604175
 11
153.651347
 21
463.604175
  0
LINE
  5
130
100
AcDbEntity
  8
M0
 62
     7
100
AcDbLine
 10
189.151347
 20
506.836399
 11
189.151347
 21
512.103687
  0
ARC
  5
131
100
AcDbEntity
  8
M0
 62
     7
100
AcDbCircle
 10
188.151347
 20
512.103687
 40
1.0
100
AcDbArc
 50
0.0
 51
90.0
  0
LINE
  5
132
100
AcDbEntity
  8
M0
 62
     7
100
AcDbLine
 10
190.151347
 20
501.104175
 11
203.151347
 21
501.104175
  0
LINE
  5
133
100
AcDbEntity
  8
M0
 62
     7
100
AcDbLine
 10
146.651347
 20
515.603687
 11
137.651347
 21
515.603687
  0
LINE
  5
134
100
AcDbEntity
  8
M0
 62
     7
100
AcDbLine
 10
136.151347
 20
513.103687
 11
119.151408
 21
513.103687
  0
ARC
  5
135
100
AcDbEntity
  8
M0
 62
     7
100
AcDbCircle
 10
146.651347
 20
514.603443
 40
1.0
100
AcDbArc
 50
0.0
 51
90.0
  0
ARC
  5
136
100
AcDbEntity
  8
M0
 62
     7
100
AcDbCircle
 10
137.651347
 20
514.603443
 40
1.0
100
AcDbArc
 50
90.0
 51
180.013988
  0
LINE
  5
137
100
AcDbEntity
  8
M0
 62
     7
100
AcDbLine
 10
190.151301
 20
426.104175
 11
203.151347
 21
426.104175
  0
LINE
  5
138
100
AcDbEntity
  8
M0
 62
     7
100
AcDbLine
 10
189.151301
 20
420.372471
 11
189.151301
 21
415.104664
  0
ARC
  5
139
100
AcDbEntity
  8
M0
 62
     7
100
AcDbCircle
 10
188.151301
 20
415.104664
 40
1.0
100
AcDbArc
 50
-90.000874
 51
0.0
  0
ARC
  5
13A
100
AcDbEntity
  8
M0
 62
     7
100
AcDbCircle
 10
119.151408
 20
512.103687
 40
1.0
100
AcDbArc
 50
90.0
 51
180.0
  0
ARC
  5
13B
100
AcDbEntity
  8
M0
 62
     7
100
AcDbCircle
 10
119.151392
 20
415.104679
 40
1.0
100
AcDbArc
 50
180.0
 51
269.999126
  0
LINE
  5
13C
100
AcDbEntity
  8
M0
 62
     7
100
AcDbLine
 10
118.151392
 20
506.836399
 11
118.151408
 21
512.103687
  0
LINE
  5
13D
100
AcDbEntity
  8
M0
 62
     7
100
AcDbLine
 10
160.151347
 20
507.604175
 11
165.40153
 21
507.604175
  0
ARC
  5
13E
100
AcDbEntity
  8
M0
 62
     7
100
AcDbCircle
 10
165.40153
 20
506.104175
 40
1.5
100
AcDbArc
 50
41.81873
 51
90.0
  0
LINE
  5
13F
100
AcDbEntity
  8
M0
 62
     7
100
AcDbLine
 10
141.901148
 20
419.604175
 11
147.151286
 21
419.604175
  0
ARC
  5
140
100
AcDbEntity
  8
M0
 62
     7
100
AcDbCircle
 10
141.901148
 20
421.104175
 40
1.5
100
AcDbArc
 50
221.790314
 51
269.999417
  0
LINE
  5
141
100
AcDbEntity
  8
M0
 62
     7
100
AcDbLine
 10
161.401179
 20
411.604175
 11
169.651286
 21
411.604175
  0
LINE
  5
142
100
AcDbEntity
  8
M0
 62
     7
100
AcDbLine
 10
171.151286
 20
414.104175
 11
188.151301
 21
414.104175
  0
ARC
  5
143
100
AcDbEntity
  8
M0
 62
     7
100
AcDbCircle
 10
169.651286
 20
412.604175
 40
1.0
100
AcDbArc
 50
269.999126
 51
360.0
  0
LINE
  5
144
100
AcDbEntity
  8
M0
 62
     7
100
AcDbLine
 10
118.151377
 20
420.104572
 11
118.151392
 21
415.104679
  0
LINE
  5
145
100
AcDbEntity
  8
M0
 62
     7
100
AcDbLine
 10
117.151377
 20
501.103687
 11
104.151347
 21
501.103687
  0
LINE
  5
146
100
AcDbEntity
  8
M0
 62
     7
100
AcDbLine
 10
117.151377
 20
426.104175
 11
104.151347
 21
426.10416
  0
LINE
  5
147
100
AcDbEntity
  8
M0
 62
     7
100
AcDbLine
 10
200.151347
 20
491.104175
 11
203.651347
 21
491.104175
  0
LINE
  5
148
100
AcDbEntity
  8
M0
 62
     7
100
AcDbLine
 10
201.151347
 20
501.104175
 11
201.151347
 21
491.104175
  0
LINE
  5
149
100
AcDbEntity
  8
M0
 62
     7
100
AcDbLine
 10
201.151347
 20
498.604175
 11
203.651347
 21
498.604175
  0
ARC
  5
14A
100
AcDbEntity
  8
M0
 62
     7
100
AcDbCircle
 10
203.151347
 20
500.604175
 40
0.5
100
AcDbArc
 50
0.0
 51
90.0
  0
ARC
  5
14B
100
AcDbEntity
  8
M0
 62
     7
100
AcDbCircle
 10
104.151347
 20
500.603443
 40
0.5
100
AcDbArc
 50
90.0
 51
180.0
  0
ARC
  5
14C
100
AcDbEntity
  8
M0
 62
     7
100
AcDbCircle
 10
104.151347
 20
426.60416
 40
0.5
100
AcDbArc
 50
180.0
 51
269.998251
  0
ARC
  5
14D
100
AcDbEntity
  8
M0
 62
     7
100
AcDbCircle
 10
203.151347
 20
426.604175
 40
0.5
100
AcDbArc
 50
269.998251
 51
360.0
  0
LINE
  5
14E
100
AcDbEntity
  8
M0
 62
     7
100
AcDbLine
 10
104.151347
 20
446.104175
 11
107.151347
 21
446.104175
  0
LINE
  5
14F
100
AcDbEntity
  8
M0
 62
     7
100
AcDbLine
 10
107.651347
 20
449.104175
 11
108.708613
 21
449.104175
  0
LINE
  5
150
100
AcDbEntity
  8
M0
 62
     7
100
AcDbLine
 10
107.651347
 20
438.104175
 11
117.151377
 21
438.104175
  0
LINE
  5
151
100
AcDbEntity
  8
M0
 62
     7
100
AcDbLine
 10
104.151347
 20
436.104175
 11
107.151347
 21
436.104175
  0
LINE
  5
152
100
AcDbEntity
  8
M0
 62
     7
100
AcDbLine
 10
106.151347
 20
436.104175
 11
106.151347
 21
426.104175
  0
LINE
  5
153
100
AcDbEntity
  8
M0
 62
     7
100
AcDbLine
 10
103.651347
 20
428.604175
 11
106.151347
 21
428.604175
  0
LINE
  5
154
100
AcDbEntity
  8
M0
 62
     7
100
AcDbLine
 10
116.151347
 20
447.104175
 11
117.151377
 21
447.104175
  0
ARC
  5
155
100
AcDbEntity
  8
M0
 62
     7
100
AcDbCircle
 10
107.151347
 20
436.604175
 40
0.5
100
AcDbArc
 50
269.998251
 51
360.0
  0
ARC
  5
156
100
AcDbEntity
  8
M0
 62
     7
100
AcDbCircle
 10
104.151347
 20
436.604175
 40
0.5
100
AcDbArc
 50
180.0
 51
269.998251
  0
ARC
  5
157
100
AcDbEntity
  8
M0
 62
     7
100
AcDbCircle
 10
104.151347
 20
446.604175
 40
0.5
100
AcDbArc
 50
180.0
 51
269.998251
  0
ARC
  5
158
100
AcDbEntity
  8
M0
 62
     7
100
AcDbCircle
 10
107.151347
 20
446.604175
 40
0.5
100
AcDbArc
 50
269.998251
 51
360.0
  0
LINE
  5
159
100
AcDbEntity
  8
M0
 62
     7
100
AcDbLine
 10
104.151347
 20
481.103931
 11
107.151347
 21
481.103931
  0
ARC
  5
15A
100
AcDbEntity
  8
M0
 62
     7
100
AcDbCircle
 10
107.151347
 20
480.603931
 40
0.5
100
AcDbArc
 50
0.0
 51
90.0
  0
LINE
  5
15B
100
AcDbEntity
  8
M0
 62
     7
100
AcDbLine
 10
116.151347
 20
480.103931
 11
117.151377
 21
480.103931
  0
LINE
  5
15C
100
AcDbEntity
  8
M0
 62
     7
100
AcDbLine
 10
106.151347
 20
491.103931
 11
106.151347
 21
501.103931
  0
LINE
  5
15D
100
AcDbEntity
  8
M0
 62
     7
100
AcDbLine
 10
103.651347
 20
498.603931
 11
106.151347
 21
498.603931
  0
LINE
  5
15E
100
AcDbEntity
  8
M0
 62
     7
100
AcDbLine
 10
104.151347
 20
491.103931
 11
107.151347
 21
491.103931
  0
ARC
  5
15F
100
AcDbEntity
  8
M0
 62
     7
100
AcDbCircle
 10
107.151347
 20
490.603931
 40
0.5
100
AcDbArc
 50
0.0
 51
90.0
  0
LINE
  5
160
100
AcDbEntity
  8
M0
 62
     7
100
AcDbLine
 10
107.651347
 20
489.103931
 11
117.151377
 21
489.103931
  0
ARC
  5
161
100
AcDbEntity
  8
M0
 62
     7
100
AcDbCircle
 10
104.151347
 20
480.603931
 40
0.5
100
AcDbArc
 50
90.0
 51
180.0
  0
ARC
  5
162
100
AcDbEntity
  8
M0
 62
     7
100
AcDbCircle
 10
104.151347
 20
490.603931
 40
0.5
100
AcDbArc
 50
90.0
 51
180.0
  0
LINE
  5
163
100
AcDbEntity
  8
M0
 62
     7
100
AcDbLine
 10
199.651347
 20
449.103931
 11
198.593623
 21
449.103931
  0
LINE
  5
164
100
AcDbEntity
  8
M0
 62
     7
100
AcDbLine
 10
203.151347
 20
446.103931
 11
200.151347
 21
446.103931
  0
LINE
  5
165
100
AcDbEntity
  8
M0
 62
     7
100
AcDbLine
 10
191.151347
 20
447.103931
 11
190.151377
 21
447.103931
  0
ARC
  5
166
100
AcDbEntity
  8
M0
 62
     7
100
AcDbCircle
 10
200.151347
 20
446.603931
 40
0.5
100
AcDbArc
 50
180.0
 51
269.998251
  0
ARC
  5
167
100
AcDbEntity
  8
M0
 62
     7
100
AcDbCircle
 10
203.151347
 20
446.603931
 40
0.5
100
AcDbArc
 50
-90.001749
 51
0.0
  0
LINE
  5
168
100
AcDbEntity
  8
M0
 62
     7
100
AcDbLine
 10
199.651347
 20
438.103931
 11
190.151377
 21
438.103931
  0
ARC
  5
169
100
AcDbEntity
  8
M0
 62
     7
100
AcDbCircle
 10
200.151347
 20
436.603931
 40
0.5
100
AcDbArc
 50
180.0
 51
269.998251
  0
LINE
  5
16A
100
AcDbEntity
  8
M0
 62
     7
100
AcDbLine
 10
203.151347
 20
436.103931
 11
200.151347
 21
436.103931
  0
LINE
  5
16B
100
AcDbEntity
  8
M0
 62
     7
100
AcDbLine
 10
201.151347
 20
436.103931
 11
201.151347
 21
426.10416
  0
LINE
  5
16C
100
AcDbEntity
  8
M0
 62
     7
100
AcDbLine
 10
203.651347
 20
428.604145
 11
201.151347
 21
428.60416
  0
LINE
  5
16D
100
AcDbEntity
  8
M0
 62
     7
100
AcDbLine
 10
199.651347
 20
478.104175
 11
198.593577
 21
478.104175
  0
LINE
  5
16E
100
AcDbEntity
  8
M0
 62
     7
100
AcDbLine
 10
191.151347
 20
480.104175
 11
190.151377
 21
480.104175
  0
ARC
  5
16F
100
AcDbEntity
  8
M0
 62
     7
100
AcDbCircle
 10
200.151347
 20
480.604175
 40
0.5
100
AcDbArc
 50
90.0
 51
180.0
  0
LINE
  5
170
100
AcDbEntity
  8
M0
 62
     7
100
AcDbLine
 10
203.151347
 20
481.104175
 11
200.151347
 21
481.104175
  0
ARC
  5
171
100
AcDbEntity
  8
M0
 62
     7
100
AcDbCircle
 10
203.151347
 20
480.604175
 40
0.5
100
AcDbArc
 50
0.0
 51
90.0
  0
LINE
  5
172
100
AcDbEntity
  8
M0
 62
     7
100
AcDbLine
 10
199.651347
 20
489.104175
 11
190.151377
 21
489.104175
  0
ARC
  5
173
100
AcDbEntity
  8
M0
 62
     7
100
AcDbCircle
 10
200.151347
 20
490.604175
 40
0.5
100
AcDbArc
 50
90.0
 51
180.0
  0
ARC
  5
174
100
AcDbEntity
  8
M0
 62
     7
100
AcDbCircle
 10
203.151347
 20
436.603931
 40
0.5
100
AcDbArc
 50
-90.001749
 51
0.0
  0
LINE
  5
175
100
AcDbEntity
  8
M0
 62
     7
100
AcDbLine
 10
103.651347
 20
467.354175
 11
110.651347
 21
467.354175
  0
LINE
  5
176
100
AcDbEntity
  8
M0
 62
     7
100
AcDbLine
 10
103.651347
 20
459.854175
 11
110.651347
 21
459.854175
  0
LINE
  5
177
100
AcDbEntity
  8
M0
 62
     7
100
AcDbLine
 10
111.651347
 20
466.354175
 11
111.651347
 21
460.854175
  0
ARC
  5
178
100
AcDbEntity
  8
M0
 62
     7
100
AcDbCircle
 10
110.651347
 20
460.854175
 40
1.0
100
AcDbArc
 50
269.999126
 51
360.0
  0
ARC
  5
179
100
AcDbEntity
  8
M0
 62
     7
100
AcDbCircle
 10
110.651347
 20
466.354175
 40
1.0
100
AcDbArc
 50
0.0
 51
90.0
  0
LINE
  5
17A
100
AcDbEntity
  8
M0
 62
     7
100
AcDbLine
 10
107.651347
 20
467.354175
 11
107.651347
 21
466.354175
  0
LINE
  5
17B
100
AcDbEntity
  8
M0
 62
     7
100
AcDbLine
 10
103.651347
 20
466.354175
 11
107.651347
 21
466.354175
  0
LINE
  5
17C
100
AcDbEntity
  8
M0
 62
     7
100
AcDbLine
 10
103.651347
 20
460.854175
 11
107.651347
 21
460.854175
  0
LINE
  5
17D
100
AcDbEntity
  8
M0
 62
     7
100
AcDbLine
 10
107.651347
 20
460.854175
 11
107.651347
 21
459.854175
  0
LINE
  5
17E
100
AcDbEntity
  8
M0
 62
     7
100
AcDbLine
 10
203.651377
 20
467.353931
 11
196.651377
 21
467.353931
  0
LINE
  5
17F
100
AcDbEntity
  8
M0
 62
     7
100
AcDbLine
 10
203.651377
 20
466.353931
 11
199.651377
 21
466.353931
  0
LINE
  5
180
100
AcDbEntity
  8
M0
 62
     7
100
AcDbLine
 10
199.651377
 20
467.353931
 11
199.651377
 21
466.353931
  0
ARC
  5
181
100
AcDbEntity
  8
M0
 62
     7
100
AcDbCircle
 10
196.651377
 20
466.353931
 40
1.0
100
AcDbArc
 50
90.0
 51
180.0
  0
LINE
  5
182
100
AcDbEntity
  8
M0
 62
     7
100
AcDbLine
 10
195.651377
 20
466.353931
 11
195.651377
 21
460.853931
  0
ARC
  5
183
100
AcDbEntity
  8
M0
 62
     7
100
AcDbCircle
 10
196.651377
 20
460.853931
 40
1.0
100
AcDbArc
 50
180.0
 51
269.999126
  0
LINE
  5
184
100
AcDbEntity
  8
M0
 62
     7
100
AcDbLine
 10
203.651377
 20
459.853931
 11
196.651377
 21
459.853931
  0
LINE
  5
185
100
AcDbEntity
  8
M0
 62
     7
100
AcDbLine
 10
203.651377
 20
460.853931
 11
199.651377
 21
460.853931
  0
LINE
  5
186
100
AcDbEntity
  8
M0
 62
     7
100
AcDbLine
 10
199.651377
 20
460.853931
 11
199.651377
 21
459.853931
  0
LINE
  5
187
100
AcDbEntity
  8
M0
 62
     7
100
AcDbLine
 10
144.351282
 20
416.604175
 11
147.151286
 21
416.604175
  0
LINE
  5
188
100
AcDbEntity
  8
M0
 62
     7
100
AcDbLine
 10
143.851282
 20
416.104175
 11
143.851282
 21
414.104175
  0
LINE
  5
189
100
AcDbEntity
  8
M0
  6
DASHDOT
 62
     7
100
AcDbLine
 10
153.651347
 20
463.604175
 11
214.219782
 21
463.604175
  0
ARC
  5
18A
100
AcDbEntity
  8
M0
 62
     7
100
AcDbCircle
 10
148.151347
 20
512.603687
 40
0.5
100
AcDbArc
 50
90.0
 51
180.0
  0
ARC
  5
18B
100
AcDbEntity
  8
M0
 62
     7
100
AcDbCircle
 10
136.151347
 20
512.603443
 40
0.5
100
AcDbArc
 50
0.0
 51
90.0
  0
LINE
  5
18C
100
AcDbEntity
  8
M0
 62
     7
100
AcDbLine
 10
163.451334
 20
513.103687
 11
163.451334
 21
511.103931
  0
LINE
  5
18D
100
AcDbEntity
  8
M0
 62
     7
100
AcDbLine
 10
160.151347
 20
510.603931
 11
162.951334
 21
510.603931
  0
ARC
  5
18E
100
AcDbEntity
  8
M0
 62
     7
100
AcDbCircle
 10
162.951334
 20
511.103931
 40
0.5
100
AcDbArc
 50
269.998251
 51
360.0
  0
ARC
  5
18F
100
AcDbEntity
  8
M0
 62
     7
100
AcDbCircle
 10
160.151347
 20
510.103931
 40
0.5
100
AcDbArc
 50
90.0
 51
180.0
  0
ARC
  5
190
100
AcDbEntity
  8
M0
 62
     7
100
AcDbCircle
 10
160.151347
 20
508.104175
 40
0.5
100
AcDbArc
 50
180.0
 51
269.998251
  0
ARC
  5
191
100
AcDbEntity
  8
M0
 62
     7
100
AcDbCircle
 10
144.351282
 20
416.104175
 40
0.5
100
AcDbArc
 50
90.0
 51
180.0
  0
ARC
  5
192
100
AcDbEntity
  8
M0
 62
     7
100
AcDbCircle
 10
147.151286
 20
417.104175
 40
0.5
100
AcDbArc
 50
269.998251
 51
360.0
  0
ARC
  5
193
100
AcDbEntity
  8
M0
 62
     7
100
AcDbCircle
 10
147.151286
 20
419.104175
 40
0.5
100
AcDbArc
 50
0.0
 51
90.0
  0
LINE
  5
194
100
AcDbEntity
  8
M0
 62
     7
100
AcDbLine
 10
107.151347
 20
467.354175
 11
107.151347
 21
466.354175
  0
LINE
  5
195
100
AcDbEntity
  8
M0
 62
     7
100
AcDbLine
 10
107.151347
 20
460.854175
 11
107.151347
 21
459.854175
  0
LINE
  5
196
100
AcDbEntity
  8
M0
 62
     7
100
AcDbLine
 10
200.151377
 20
467.353931
 11
200.151377
 21
466.353931
  0
LINE
  5
197
100
AcDbEntity
  8
M0
 62
     7
100
AcDbLine
 10
200.151377
 20
460.853931
 11
200.151377
 21
459.853931
  0
LINE
  5
198
100
AcDbEntity
  8
M0
  6
DASHDOT
 62
     7
100
AcDbLine
 10
169.851298
 20
421.604175
 11
183.451289
 21
421.604175
  0
LINE
  5
199
100
AcDbEntity
  8
M0
  6
DASHDOT
 62
     7
100
AcDbLine
 10
137.451334
 20
421.604175
 11
123.851344
 21
421.604175
  0
LINE
  5
19A
100
AcDbEntity
  8
M0
  6
DASHDOT
 62
     7
100
AcDbLine
 10
146.85116
 20
505.603931
 11
160.451151
 21
505.603931
  0
LINE
  5
19B
100
AcDbEntity
  8
M0
  6
DASHDOT
 62
     7
100
AcDbLine
 10
146.851115
 20
421.60442
 11
160.451105
 21
421.60442
  0
LINE
  5
19C
100
AcDbEntity
  8
M0
 62
     7
100
AcDbLine
 10
147.65124
 20
514.617847
 11
147.65124
 21
513.103931
  0
LINE
  5
19D
100
AcDbEntity
  8
M0
 62
     7
100
AcDbLine
 10
136.65124
 20
514.603443
 11
136.65124
 21
513.103931
  0
LINE
  5
19E
100
AcDbEntity
  8
M0
  6
DASHDOT
 62
     7
100
AcDbLine
 10
104.651347
 20
443.604175
 11
118.651347
 21
443.604175
  0
LINE
  5
19F
100
AcDbEntity
  8
M0
  6
DASHDOT
 62
     7
100
AcDbLine
 10
111.651347
 20
436.604175
 11
111.651347
 21
450.604175
  0
LINE
  5
1A0
100
AcDbEntity
  8
M0
 62
     7
100
AcDbLine
 10
115.651347
 20
457.104175
 11
115.651347
 21
438.104175
  0
LINE
  5
1A1
100
AcDbEntity
  8
M0
 62
     7
100
AcDbLine
 10
107.651347
 20
457.104175
 11
107.651347
 21
436.604175
  0
ARC
  5
1A2
100
AcDbEntity
  8
M0
 62
     7
100
AcDbCircle
 10
114.651347
 20
457.104175
 40
1.0
100
AcDbArc
 50
0.0
 51
90.0
  0
ARC
  5
1A3
100
AcDbEntity
  8
M0
 62
     7
100
AcDbCircle
 10
116.151347
 20
447.604175
 40
0.5
100
AcDbArc
 50
180.0
 51
269.998251
  0
ARC
  5
1A4
100
AcDbEntity
  8
M0
 62
     7
100
AcDbCircle
 10
114.651347
 20
470.103931
 40
1.0
100
AcDbArc
 50
-90.000874
 51
0.0
  0
LINE
  5
1A5
100
AcDbEntity
  8
M0
 62
     7
100
AcDbLine
 10
107.651347
 20
470.103931
 11
107.651347
 21
490.603931
  0
LINE
  5
1A6
100
AcDbEntity
  8
M0
 62
     7
100
AcDbLine
 10
115.651347
 20
470.103931
 11
115.651347
 21
489.103931
  0
LINE
  5
1A7
100
AcDbEntity
  8
M0
  6
DASHDOT
 62
     7
100
AcDbLine
 10
104.651347
 20
483.603931
 11
118.651347
 21
483.603931
  0
ARC
  5
1A8
100
AcDbEntity
  8
M0
 62
     7
100
AcDbCircle
 10
116.151347
 20
479.603931
 40
0.5
100
AcDbArc
 50
90.0
 51
180.0
  0
ARC
  5
1A9
100
AcDbEntity
  8
M0
 62
     7
100
AcDbCircle
 10
192.651347
 20
457.103931
 40
1.0
100
AcDbArc
 50
90.0
 51
180.0
  0
LINE
  5
1AA
100
AcDbEntity
  8
M0
  6
DASHDOT
 62
     7
100
AcDbLine
 10
111.651347
 20
490.603931
 11
111.651347
 21
476.603931
  0
LINE
  5
1AB
100
AcDbEntity
  8
M0
 62
     7
100
AcDbLine
 10
199.651347
 20
457.103931
 11
199.651347
 21
436.603931
  0
LINE
  5
1AC
100
AcDbEntity
  8
M0
 62
     7
100
AcDbLine
 10
191.651347
 20
457.103931
 11
191.651347
 21
438.103931
  0
ARC
  5
1AD
100
AcDbEntity
  8
M0
 62
     7
100
AcDbCircle
 10
191.151347
 20
447.603931
 40
0.5
100
AcDbArc
 50
-90.001749
 51
0.0
  0
ARC
  5
1AE
100
AcDbEntity
  8
M0
 62
     7
100
AcDbCircle
 10
192.651347
 20
470.104175
 40
1.0
100
AcDbArc
 50
180.0
 51
269.999126
  0
LINE
  5
1AF
100
AcDbEntity
  8
M0
 62
     7
100
AcDbLine
 10
191.651347
 20
470.104175
 11
191.651347
 21
489.104175
  0
LINE
  5
1B0
100
AcDbEntity
  8
M0
 62
     7
100
AcDbLine
 10
199.651347
 20
470.104175
 11
199.651347
 21
490.604175
  0
LINE
  5
1B1
100
AcDbEntity
  8
M0
 62
     7
100
AcDbLine
 10
191.651347
 20
470.104175
 11
191.651347
 21
489.104175
  0
LINE
  5
1B2
100
AcDbEntity
  8
M0
 62
     7
100
AcDbLine
 10
191.651347
 20
487.703541
 11
192.73939
 21
487.703541
  0
LINE
  5
1B3
100
AcDbEntity
  8
M0
 62
     7
100
AcDbLine
 10
191.651316
 20
439.50481
 11
192.739466
 21
439.50481
  0
LINE
  5
1B4
100
AcDbEntity
  8
M0
 62
     7
100
AcDbLine
 10
191.651347
 20
470.104175
 11
191.651347
 21
489.104175
  0
ARC
  5
1B5
100
AcDbEntity
  8
M0
 62
     7
100
AcDbCircle
 10
191.151347
 20
479.604175
 40
0.5
100
AcDbArc
 50
0.0
 51
90.0
  0
LINE
  5
1B6
100
AcDbEntity
  8
M0
 62
     7
100
AcDbLine
 10
115.651377
 20
487.703541
 11
114.562861
 21
487.703541
  0
LINE
  5
1B7
100
AcDbEntity
  8
M0
 62
     7
100
AcDbLine
 10
115.651377
 20
439.50481
 11
114.562937
 21
439.50481
  0
LINE
  5
1B8
100
AcDbEntity
  8
M0
  6
DASHDOT
 62
     7
100
AcDbLine
 10
104.651347
 20
453.104175
 11
118.651347
 21
453.104175
  0
LINE
  5
1B9
100
AcDbEntity
  8
M0
  6
DASHDOT
 62
     7
100
AcDbLine
 10
111.651347
 20
446.104175
 11
111.651347
 21
460.104175
  0
LINE
  5
1BA
100
AcDbEntity
  8
M0
 62
     7
100
AcDbLine
 10
108.651347
 20
458.104175
 11
114.651347
 21
458.104175
  0
ARC
  5
1BB
100
AcDbEntity
  8
M0
 62
     7
100
AcDbCircle
 10
108.651347
 20
457.104175
 40
1.0
100
AcDbArc
 50
90.0
 51
180.0
  0
LINE
  5
1BC
100
AcDbEntity
  8
M0
 62
     7
100
AcDbLine
 10
108.651347
 20
469.103931
 11
114.651347
 21
469.103931
  0
ARC
  5
1BD
100
AcDbEntity
  8
M0
 62
     7
100
AcDbCircle
 10
108.651347
 20
470.103931
 40
1.0
100
AcDbArc
 50
180.0
 51
269.999126
  0
LINE
  5
1BE
100
AcDbEntity
  8
M0
  6
DASHDOT
 62
     7
100
AcDbLine
 10
111.651347
 20
481.103931
 11
111.651347
 21
467.103931
  0
LINE
  5
1BF
100
AcDbEntity
  8
M0
  6
DASHDOT
 62
     7
100
AcDbLine
 10
104.651347
 20
474.103931
 11
118.651347
 21
474.103931
  0
ARC
  5
1C0
100
AcDbEntity
  8
M0
 62
     7
100
AcDbCircle
 10
198.651347
 20
457.103931
 40
1.0
100
AcDbArc
 50
0.0
 51
90.0
  0
LINE
  5
1C1
100
AcDbEntity
  8
M0
 62
     7
100
AcDbLine
 10
198.651377
 20
458.103931
 11
192.651377
 21
458.103931
  0
LINE
  5
1C2
100
AcDbEntity
  8
M0
 62
     7
100
AcDbLine
 10
198.651377
 20
469.104175
 11
192.651377
 21
469.104175
  0
ARC
  5
1C3
100
AcDbEntity
  8
M0
 62
     7
100
AcDbCircle
 10
198.651347
 20
470.104175
 40
1.0
100
AcDbArc
 50
269.999126
 51
360.0
  0
LINE
  5
1C4
100
AcDbEntity
  8
M0
  6
DASHDOT
 62
     7
100
AcDbLine
 10
202.651347
 20
474.104175
 11
188.651347
 21
474.104175
  0
LINE
  5
1C5
100
AcDbEntity
  8
M0
  6
DASHDOT
 62
     7
100
AcDbLine
 10
105.901347
 20
433.604175
 11
120.401347
 21
433.604175
  0
LINE
  5
1C6
100
AcDbEntity
  8
M0
  6
DASHDOT
 62
     7
100
AcDbLine
 10
113.151347
 20
426.354175
 11
113.151347
 21
440.854175
  0
LINE
  5
1C7
100
AcDbEntity
  8
M0
  6
DASHDOT
 62
     7
100
AcDbLine
 10
198.151377
 20
493.603687
 11
190.151377
 21
493.603687
  0
LINE
  5
1C8
100
AcDbEntity
  8
M0
  6
DASHDOT
 62
     7
100
AcDbLine
 10
133.326228
 20
507.604175
 11
150.976237
 21
507.604175
  0
LINE
  5
1C9
100
AcDbEntity
  8
M0
  6
DASHDOT
 62
     7
100
AcDbLine
 10
142.15124
 20
498.77898
 11
142.15124
 21
516.429127
  0
LINE
  5
1CA
100
AcDbEntity
  8
M0
 62
     7
100
AcDbLine
 10
107.651377
 20
478.104175
 11
108.708689
 21
478.104175
  0
ARC
  5
1CB
100
AcDbEntity
  8
M0
 62
     7
100
AcDbCircle
 10
171.151286
 20
414.604175
 40
0.5
100
AcDbArc
 50
180.0
 51
269.998251
  0
ARC
  5
1CC
100
AcDbEntity
  8
M0
 62
     7
100
AcDbCircle
 10
159.151286
 20
414.604175
 40
0.5
100
AcDbArc
 50
269.998251
 51
360.0
  0
LINE
  5
1CD
100
AcDbEntity
  8
M0
 62
     7
100
AcDbLine
 10
159.651347
 20
510.103931
 11
159.651347
 21
508.104175
  0
LINE
  5
1CE
100
AcDbEntity
  8
M0
 62
     7
100
AcDbLine
 10
147.651286
 20
419.10416
 11
147.651286
 21
417.10416
  0
LINE
  5
1CF
100
AcDbEntity
  8
M0
 62
     7
100
AcDbLine
 10
108.739329
 20
487.703541
 11
107.651377
 21
487.703541
  0
LINE
  5
1D0
100
AcDbEntity
  8
M0
 62
     7
100
AcDbLine
 10
114.5935
 20
478.104175
 11
115.651377
 21
478.104175
  0
LINE
  5
1D1
100
AcDbEntity
  8
M0
 62
     7
100
AcDbLine
 10
114.593577
 20
449.104175
 11
115.651347
 21
449.104175
  0
LINE
  5
1D2
100
AcDbEntity
  8
M0
 62
     7
100
AcDbLine
 10
108.739252
 20
439.50481
 11
107.651377
 21
439.50481
  0
LINE
  5
1D3
100
AcDbEntity
  8
M0
 62
     7
100
AcDbLine
 10
198.562754
 20
487.703541
 11
199.651347
 21
487.703541
  0
LINE
  5
1D4
100
AcDbEntity
  8
M0
 62
     7
100
AcDbLine
 10
192.708613
 20
478.104175
 11
191.651347
 21
478.104175
  0
LINE
  5
1D5
100
AcDbEntity
  8
M0
 62
     7
100
AcDbLine
 10
192.708659
 20
449.103931
 11
191.651347
 21
449.103931
  0
LINE
  5
1D6
100
AcDbEntity
  8
M0
 62
     7
100
AcDbLine
 10
198.562846
 20
439.50481
 11
199.651316
 21
439.50481
  0
ARC
  5
1D7
100
AcDbEntity
  8
M0
 62
     7
100
AcDbCircle
 10
130.651331
 20
421.604175
 40
2.799999
100
AcDbArc
 50
212.382922
 51
327.616911
  0
ARC
  5
1D8
100
AcDbEntity
  8
M0
 62
     7
100
AcDbCircle
 10
130.651331
 20
421.604175
 40
1.799999
100
AcDbArc
 50
236.419989
 51
303.579606
  0
ARC
  5
1D9
100
AcDbEntity
  8
M0
 62
     7
100
AcDbCircle
 10
153.651118
 20
421.60442
 40
1.799999
100
AcDbArc
 50
236.433999
 51
303.565596
  0
ARC
  5
1DA
100
AcDbEntity
  8
M0
 62
     7
100
AcDbCircle
 10
153.651118
 20
421.60442
 40
2.799999
100
AcDbArc
 50
212.38855
 51
327.611019
  0
ARC
  5
1DB
100
AcDbEntity
  8
M0
 62
     7
100
AcDbCircle
 10
176.651301
 20
421.604175
 40
2.799999
100
AcDbArc
 50
212.382922
 51
327.616911
  0
ARC
  5
1DC
100
AcDbEntity
  8
M0
 62
     7
100
AcDbCircle
 10
176.651301
 20
421.604175
 40
1.799999
100
AcDbArc
 50
236.419989
 51
303.579606
  0
ARC
  5
1DD
100
AcDbEntity
  8
M0
 62
     7
100
AcDbCircle
 10
130.651377
 20
505.604175
 40
2.799999
100
AcDbArc
 50
32.396332
 51
147.603835
  0
ARC
  5
1DE
100
AcDbEntity
  8
M0
 62
     7
100
AcDbCircle
 10
130.651377
 20
505.604175
 40
1.799999
100
AcDbArc
 50
56.452457
 51
123.548353
  0
ARC
  5
1DF
100
AcDbEntity
  8
M0
 62
     7
100
AcDbCircle
 10
153.651163
 20
505.603931
 40
2.799999
100
AcDbArc
 50
32.402223
 51
147.597944
  0
ARC
  5
1E0
100
AcDbEntity
  8
M0
 62
     7
100
AcDbCircle
 10
153.651163
 20
505.603931
 40
1.799999
100
AcDbArc
 50
56.466467
 51
123.533938
  0
ARC
  5
1E1
100
AcDbEntity
  8
M0
 62
     7
100
AcDbCircle
 10
176.651347
 20
505.604175
 40
2.799999
100
AcDbArc
 50
32.396332
 51
147.603835
  0
ARC
  5
1E2
100
AcDbEntity
  8
M0
 62
     7
100
AcDbCircle
 10
176.651347
 20
505.604175
 40
1.799999
100
AcDbArc
 50
56.452457
 51
123.548353
  0
LINE
  5
1E3
100
AcDbEntity
  8
M0
100
AcDbLine
 10
161.951136
 20
453.404072
 11
161.651148
 21
453.404072
  0
LINE
  5
1E4
100
AcDbEntity
  8
M0
 62
     4
100
AcDbLine
 10
256.721681
 20
414.122577
 11
323.021486
 21
414.122577
  0
LINE
  5
1E5
100
AcDbEntity
  8
M0
 62
     4
100
AcDbLine
 10
323.021486
 20
512.122104
 11
256.721681
 21
512.121891
  0
LINE
  5
1E6
100
AcDbEntity
  8
M0
 62
     4
100
AcDbLine
 10
323.021486
 20
414.122577
 11
323.021486
 21
435.622379
  0
LINE
  5
1E7
100
AcDbEntity
  8
M0
 62
     4
100
AcDbLine
 10
256.721681
 20
419.622577
 11
323.021486
 21
419.622577
  0
LINE
  5
1E8
100
AcDbEntity
  8
M0
 62
     4
100
AcDbLine
 10
256.721681
 20
506.621891
 11
323.021486
 21
506.621891
  0
LINE
  5
1E9
100
AcDbEntity
  8
M0
 62
     4
100
AcDbLine
 10
288.921632
 20
448.490986
 11
288.921632
 21
477.753208
  0
LINE
  5
1EA
100
AcDbEntity
  8
M0
 62
     4
100
AcDbLine
 10
314.421632
 20
438.122577
 11
314.421632
 21
441.200123
  0
LINE
  5
1EB
100
AcDbEntity
  8
M0
 62
     4
100
AcDbLine
 10
315.421632
 20
437.122577
 11
316.921632
 21
437.122577
  0
LINE
  5
1EC
100
AcDbEntity
  8
M0
 62
     4
100
AcDbLine
 10
315.421632
 20
489.122349
 11
316.921632
 21
489.122349
  0
ARC
  5
1ED
100
AcDbEntity
  8
M0
 62
     4
100
AcDbCircle
 10
315.421632
 20
488.122349
 40
1.0
100
AcDbArc
 50
90.0
 51
180.0
  0
ARC
  5
1EE
100
AcDbEntity
  8
M0
 62
     4
100
AcDbCircle
 10
315.421632
 20
438.122577
 40
1.0
100
AcDbArc
 50
180.0
 51
269.999126
  0
LINE
  5
1EF
100
AcDbEntity
  8
M0
 62
     4
100
AcDbLine
 10
314.421632
 20
485.043735
 11
314.421632
 21
488.122349
  0
LINE
  5
1F0
100
AcDbEntity
  8
M0
 62
     4
100
AcDbLine
 10
314.421632
 20
419.622577
 11
314.421632
 21
414.122577
  0
LINE
  5
1F1
100
AcDbEntity
  8
M0
 62
     4
100
AcDbLine
 10
314.421632
 20
512.122104
 11
314.421632
 21
506.622104
  0
LINE
  5
1F2
100
AcDbEntity
  8
M0
 62
     4
100
AcDbLine
 10
323.021486
 20
490.622379
 11
323.021486
 21
512.622166
  0
ARC
  5
1F3
100
AcDbEntity
  8
M0
 62
     4
100
AcDbCircle
 10
309.421632
 20
441.200138
 40
5.0
100
AcDbArc
 50
0.0
 51
89.101917
  0
ARC
  5
1F4
100
AcDbEntity
  8
M0
 62
     4
100
AcDbCircle
 10
309.421632
 20
485.043979
 40
5.0
100
AcDbArc
 50
270.89808
 51
360.0
  0
LINE
  5
1F5
100
AcDbEntity
  8
M0
  6
DASHDOT
 62
     4
100
AcDbLine
 10
248.443483
 20
463.122379
 11
337.921632
 21
463.122379
  0
LINE
  5
1F6
100
AcDbEntity
  8
M0
 62
     4
100
AcDbLine
 10
254.721681
 20
510.121891
 11
254.721681
 21
416.122577
  0
ARC
  5
1F7
100
AcDbEntity
  8
M0
 62
     4
100
AcDbCircle
 10
256.721681
 20
510.121891
 40
2.0
100
AcDbArc
 50
90.0
 51
180.0
  0
ARC
  5
1F8
100
AcDbEntity
  8
M0
 62
     4
100
AcDbCircle
 10
256.721681
 20
416.122577
 40
2.0
100
AcDbArc
 50
180.0
 51
269.999563
  0
ARC
  5
1F9
100
AcDbEntity
  8
M0
 62
     4
100
AcDbCircle
 10
256.721681
 20
421.622577
 40
2.0
100
AcDbArc
 50
180.0
 51
269.999563
  0
ARC
  5
1FA
100
AcDbEntity
  8
M0
 62
     4
100
AcDbCircle
 10
256.721681
 20
504.621891
 40
2.0
100
AcDbArc
 50
90.0
 51
180.0
  0
LINE
  5
1FB
100
AcDbEntity
  8
M0
100
AcDbLine
 10
352.421632
 20
472.622272
 11
354.921632
 21
477.122516
  0
LINE
  5
1FC
100
AcDbEntity
  8
M0
100
AcDbLine
 10
318.921632
 20
413.622516
 11
354.921632
 21
413.622516
  0
LINE
  5
1FD
100
AcDbEntity
  8
M0
100
AcDbLine
 10
354.921632
 20
413.622516
 11
354.921632
 21
444.623142
  0
LINE
  5
1FE
100
AcDbEntity
  8
M0
100
AcDbLine
 10
354.921632
 20
512.622516
 11
318.921632
 21
512.622272
  0
LINE
  5
1FF
100
AcDbEntity
  8
M0
100
AcDbLine
 10
288.921632
 20
478.622516
 11
288.921632
 21
447.622516
  0
LINE
  5
200
100
AcDbEntity
  8
M0
100
AcDbLine
 10
316.921632
 20
488.622516
 11
316.921632
 21
484.622516
  0
LINE
  5
201
100
AcDbEntity
  8
M0
100
AcDbLine
 10
290.921632
 20
445.622516
 11
308.921632
 21
445.622516
  0
LINE
  5
202
100
AcDbEntity
  8
M0
100
AcDbLine
 10
290.921632
 20
480.622516
 11
308.921632
 21
480.622516
  0
LINE
  5
203
100
AcDbEntity
  8
M0
100
AcDbLine
 10
316.921632
 20
441.622516
 11
316.921632
 21
437.622516
  0
ARC
  5
204
100
AcDbEntity
  8
M0
100
AcDbCircle
 10
312.921632
 20
441.622516
 40
4.0
100
AcDbArc
 50
0.0
 51
90.0
  0
ARC
  5
205
100
AcDbEntity
  8
M0
100
AcDbCircle
 10
312.921632
 20
484.622516
 40
4.0
100
AcDbArc
 50
269.999781
 51
360.0
  0
LINE
  5
206
100
AcDbEntity
  8
M0
100
AcDbLine
 10
341.921388
 20
500.622516
 11
354.921632
 21
500.622516
  0
LINE
  5
207
100
AcDbEntity
  8
M0
100
AcDbLine
 10
341.921144
 20
425.622516
 11
354.921632
 21
425.622516
  0
LINE
  5
208
100
AcDbEntity
  8
M0
100
AcDbLine
 10
318.921632
 20
490.622516
 11
329.921632
 21
490.622516
  0
LINE
  5
209
100
AcDbEntity
  8
M0
100
AcDbLine
 10
318.921632
 20
435.622516
 11
329.921388
 21
435.622516
  0
LINE
  5
20A
100
AcDbEntity
  8
M0
100
AcDbLine
 10
338.921632
 20
498.122516
 11
338.921632
 21
489.622516
  0
LINE
  5
20B
100
AcDbEntity
  8
M0
100
AcDbLine
 10
330.921632
 20
489.622516
 11
338.921632
 21
489.622516
  0
LINE
  5
20C
100
AcDbEntity
  8
M0
100
AcDbLine
 10
330.921388
 20
436.622516
 11
338.921388
 21
436.622516
  0
LINE
  5
20D
100
AcDbEntity
  8
M0
100
AcDbLine
 10
338.921632
 20
498.122516
 11
341.921632
 21
500.622516
  0
ARC
  5
20E
100
AcDbEntity
  8
M0
100
AcDbCircle
 10
318.921632
 20
488.622516
 40
2.0
100
AcDbArc
 50
90.0
 51
180.0
  0
LINE
  5
20F
100
AcDbEntity
  8
M0
100
AcDbLine
 10
338.921388
 20
428.122516
 11
341.921388
 21
425.622516
  0
LINE
  5
210
100
AcDbEntity
  8
M0
100
AcDbLine
 10
338.921388
 20
428.122516
 11
338.921388
 21
436.622516
  0
ARC
  5
211
100
AcDbEntity
  8
M0
100
AcDbCircle
 10
318.921632
 20
437.622516
 40
2.0
100
AcDbArc
 50
180.0
 51
269.999563
  0
ARC
  5
212
100
AcDbEntity
  8
M0
100
AcDbCircle
 10
290.921632
 20
478.622516
 40
2.0
100
AcDbArc
 50
90.0
 51
180.0
  0
ARC
  5
213
100
AcDbEntity
  8
M0
100
AcDbCircle
 10
290.921632
 20
447.622516
 40
2.0
100
AcDbArc
 50
180.0
 51
269.999563
  0
ARC
  5
214
100
AcDbEntity
  8
M0
100
AcDbCircle
 10
318.921632
 20
510.622272
 40
2.0
100
AcDbArc
 50
90.0
 51
131.412097
  0
ARC
  5
215
100
AcDbEntity
  8
M0
100
AcDbCircle
 10
318.921632
 20
415.622516
 40
2.0
100
AcDbArc
 50
228.581695
 51
269.999563
  0
LINE
  5
216
100
AcDbEntity
  8
M0
100
AcDbLine
 10
295.421388
 20
466.872516
 11
295.421388
 21
459.372516
  0
LINE
  5
217
100
AcDbEntity
  8
M0
100
AcDbLine
 10
288.921632
 20
466.872516
 11
295.421388
 21
466.872516
  0
LINE
  5
218
100
AcDbEntity
  8
M0
100
AcDbLine
 10
288.921632
 20
459.372516
 11
295.421388
 21
459.372516
  0
LINE
  5
219
100
AcDbEntity
  8
M0
100
AcDbLine
 10
312.921632
 20
480.622516
 11
312.921632
 21
478.122516
  0
LINE
  5
21A
100
AcDbEntity
  8
M0
100
AcDbLine
 10
308.921632
 20
480.622516
 11
308.921632
 21
478.122516
  0
LINE
  5
21B
100
AcDbEntity
  8
M0
100
AcDbLine
 10
308.921632
 20
478.122516
 11
312.921632
 21
478.122516
  0
LINE
  5
21C
100
AcDbEntity
  8
M0
100
AcDbLine
 10
308.921632
 20
448.122516
 11
312.921632
 21
448.122516
  0
LINE
  5
21D
100
AcDbEntity
  8
M0
100
AcDbLine
 10
308.921632
 20
448.122516
 11
308.921632
 21
445.622516
  0
LINE
  5
21E
100
AcDbEntity
  8
M0
100
AcDbLine
 10
312.921632
 20
448.122516
 11
312.921632
 21
445.622516
  0
LINE
  5
21F
100
AcDbEntity
  8
M0
100
AcDbLine
 10
293.921388
 20
466.872516
 11
293.921388
 21
465.872516
  0
LINE
  5
220
100
AcDbEntity
  8
M0
100
AcDbLine
 10
293.921388
 20
465.872516
 11
295.421388
 21
465.872516
  0
LINE
  5
221
100
AcDbEntity
  8
M0
100
AcDbLine
 10
293.921388
 20
460.372516
 11
295.421388
 21
460.372516
  0
LINE
  5
222
100
AcDbEntity
  8
M0
100
AcDbLine
 10
293.921388
 20
460.372516
 11
293.921388
 21
459.372516
  0
LINE
  5
223
100
AcDbEntity
  8
M0
100
AcDbLine
 10
308.921632
 20
479.60445
 11
312.921632
 21
479.60445
  0
LINE
  5
224
100
AcDbEntity
  8
M0
100
AcDbLine
 10
308.921388
 20
446.640583
 11
312.921388
 21
446.640583
  0
LINE
  5
225
100
AcDbEntity
  8
M0
  6
DASHDOT
100
AcDbLine
 10
347.210207
 20
483.372516
 11
356.61841
 21
483.372516
  0
LINE
  5
226
100
AcDbEntity
  8
M0
  6
DASHDOT
100
AcDbLine
 10
348.841554
 20
442.872516
 11
356.654542
 21
442.872516
  0
LINE
  5
227
100
AcDbEntity
  8
M0
100
AcDbLine
 10
352.421632
 20
485.872516
 11
354.921632
 21
485.872516
  0
LINE
  5
228
100
AcDbEntity
  8
M0
100
AcDbLine
 10
352.421632
 20
480.872516
 11
354.921632
 21
480.872516
  0
LINE
  5
229
100
AcDbEntity
  8
M0
100
AcDbLine
 10
352.421632
 20
445.372516
 11
354.921632
 21
445.372516
  0
LINE
  5
22A
100
AcDbEntity
  8
M0
100
AcDbLine
 10
352.421632
 20
440.372516
 11
354.921632
 21
440.372516
  0
ARC
  5
22B
100
AcDbEntity
  8
M0
100
AcDbCircle
 10
352.421632
 20
483.372516
 40
2.5
100
AcDbArc
 50
90.0
 51
269.99965
  0
ARC
  5
22C
100
AcDbEntity
  8
M0
100
AcDbCircle
 10
352.421632
 20
442.872516
 40
2.5
100
AcDbArc
 50
90.0
 51
269.99965
  0
LINE
  5
22D
100
AcDbEntity
  8
M0
100
AcDbLine
 10
339.421632
 20
459.122516
 11
339.421632
 21
461.122516
  0
LINE
  5
22E
100
AcDbEntity
  8
M0
100
AcDbLine
 10
341.421632
 20
457.122516
 11
354.921632
 21
457.122516
  0
LINE
  5
22F
100
AcDbEntity
  8
M0
100
AcDbLine
 10
341.421632
 20
469.122516
 11
352.421632
 21
469.122516
  0
LINE
  5
230
100
AcDbEntity
  8
M0
100
AcDbLine
 10
339.689455
 20
458.122516
 11
351.921632
 21
458.122516
  0
LINE
  5
231
100
AcDbEntity
  8
M0
100
AcDbLine
 10
339.689455
 20
468.122516
 11
349.443605
 21
468.122516
  0
LINE
  5
232
100
AcDbEntity
  8
M0
100
AcDbLine
 10
352.421632
 20
472.622272
 11
352.421632
 21
469.122272
  0
ARC
  5
233
100
AcDbEntity
  8
M0
100
AcDbCircle
 10
351.921632
 20
457.122516
 40
1.0
100
AcDbArc
 50
0.0
 51
90.0
  0
ARC
  5
234
100
AcDbEntity
  8
M0
100
AcDbCircle
 10
349.421632
 20
469.122272
 40
1.0
100
AcDbArc
 50
269.999126
 51
360.0
  0
LINE
  5
235
100
AcDbEntity
  8
M0
100
AcDbLine
 10
340.421632
 20
464.122516
 11
340.421632
 21
462.122516
  0
LINE
  5
236
100
AcDbEntity
  8
M0
100
AcDbLine
 10
339.421632
 20
465.122516
 11
340.421632
 21
464.122516
  0
LINE
  5
237
100
AcDbEntity
  8
M0
100
AcDbLine
 10
339.421632
 20
461.122516
 11
340.421632
 21
462.122516
  0
LINE
  5
238
100
AcDbEntity
  8
M0
100
AcDbLine
 10
339.421632
 20
465.122516
 11
339.421632
 21
467.122516
  0
LINE
  5
239
100
AcDbEntity
  8
M0
100
AcDbLine
 10
354.921632
 20
477.122516
 11
354.921632
 21
480.872516
  0
LINE
  5
23A
100
AcDbEntity
  8
M0
100
AcDbLine
 10
325.921632
 20
512.622272
 11
325.921632
 21
504.122516
  0
LINE
  5
23B
100
AcDbEntity
  8
M0
100
AcDbLine
 10
323.021486
 20
504.122516
 11
325.921632
 21
504.122516
  0
LINE
  5
23C
100
AcDbEntity
  8
M0
100
AcDbLine
 10
325.421388
 20
413.622761
 11
325.421388
 21
422.122516
  0
LINE
  5
23D
100
AcDbEntity
  8
M0
100
AcDbLine
 10
323.021486
 20
422.122516
 11
325.421388
 21
422.122516
  0
ARC
  5
23E
100
AcDbEntity
  8
M0
100
AcDbCircle
 10
330.921632
 20
490.622516
 40
1.0
100
AcDbArc
 50
180.0
 51
269.999126
  0
ARC
  5
23F
100
AcDbEntity
  8
M0
100
AcDbCircle
 10
330.921388
 20
435.622516
 40
1.0
100
AcDbArc
 50
90.0
 51
180.0
  0
ARC
  5
240
100
AcDbEntity
  8
M0
100
AcDbCircle
 10
341.421632
 20
459.122516
 40
2.0
100
AcDbArc
 50
180.0
 51
269.999563
  0
ARC
  5
241
100
AcDbEntity
  8
M0
100
AcDbCircle
 10
341.421632
 20
467.122516
 40
2.0
100
AcDbArc
 50
90.0
 51
180.0
  0
LINE
  5
242
100
AcDbEntity
  8
M0
100
AcDbLine
 10
354.921632
 20
430.123966
 11
355.621583
 21
430.123966
  0
LINE
  5
243
100
AcDbEntity
  8
M0
100
AcDbLine
 10
354.921632
 20
436.123966
 11
355.621583
 21
436.123966
  0
LINE
  5
244
100
AcDbEntity
  8
M0
100
AcDbLine
 10
355.621583
 20
436.123966
 11
355.621583
 21
430.123966
  0
LINE
  5
245
100
AcDbEntity
  8
M0
100
AcDbLine
 10
355.621583
 20
490.121052
 11
355.621583
 21
496.121052
  0
LINE
  5
246
100
AcDbEntity
  8
M0
100
AcDbLine
 10
354.921632
 20
496.121052
 11
355.621583
 21
496.121052
  0
LINE
  5
247
100
AcDbEntity
  8
M0
100
AcDbLine
 10
354.921632
 20
490.121052
 11
355.621583
 21
490.121052
  0
LINE
  5
248
100
AcDbEntity
  8
M0
100
AcDbLine
 10
354.921632
 20
445.372516
 11
354.921632
 21
457.122516
  0
LINE
  5
249
100
AcDbEntity
  8
M0
100
AcDbLine
 10
354.921632
 20
482.324421
 11
354.921632
 21
512.622516
  0
LINE
  5
24A
100
AcDbEntity
  8
M0
100
AcDbLine
 10
350.151857
 20
482.324421
 11
354.921632
 21
482.324421
  0
LINE
  5
24B
100
AcDbEntity
  8
M0
100
AcDbLine
 10
350.63672
 20
444.623142
 11
354.921632
 21
444.623142
  0
LINE
  5
24C
100
AcDbEntity
  8
M0
100
AcDbLine
 10
164.951136
 20
447.404178
 11
164.951136
 21
450.404178
  0
LINE
  5
24D
100
AcDbEntity
  8
M0
100
AcDbLine
 10
142.35113
 20
450.404178
 11
142.35113
 21
447.404178
  0
LINE
  5
24E
100
AcDbEntity
  8
M0
100
AcDbLine
 10
142.35113
 20
447.404178
 11
164.951136
 21
447.404178
  0
ARC
  5
24F
100
AcDbEntity
  8
M0
100
AcDbCircle
 10
161.951136
 20
450.404178
 40
3.0
100
AcDbArc
 50
0.0
 51
90.0
  0
ARC
  5
250
100
AcDbEntity
  8
M0
100
AcDbCircle
 10
145.35113
 20
450.404178
 40
3.0
100
AcDbArc
 50
84.260757
 51
180.0
  0
LINE
  5
251
100
AcDbEntity
  8
M0
100
AcDbLine
 10
150.651163
 20
461.354023
 11
156.651163
 21
461.354023
  0
LINE
  5
252
100
AcDbEntity
  8
M0
100
AcDbLine
 10
156.651163
 20
461.354023
 11
156.651163
 21
465.854023
  0
LINE
  5
253
100
AcDbEntity
  8
M0
100
AcDbLine
 10
156.651163
 20
465.854023
 11
150.651163
 21
465.854023
  0
LINE
  5
254
100
AcDbEntity
  8
M0
100
AcDbLine
 10
150.651163
 20
465.854023
 11
150.651163
 21
461.354023
  0
LINE
  5
255
100
AcDbEntity
  8
M0
100
AcDbLine
 10
161.651133
 20
453.404178
 11
161.651133
 21
457.404178
  0
LINE
  5
256
100
AcDbEntity
  8
M0
100
AcDbLine
 10
161.951136
 20
457.404178
 11
161.651133
 21
457.404178
  0
LINE
  5
257
100
AcDbEntity
  8
M0
100
AcDbLine
 10
145.651133
 20
457.404178
 11
145.651133
 21
453.404178
  0
LINE
  5
258
100
AcDbEntity
  8
M0
100
AcDbLine
 10
145.35113
 20
473.704181
 11
149.651133
 21
473.704181
  0
LINE
  5
259
100
AcDbEntity
  8
M0
100
AcDbLine
 10
152.151148
 20
479.404178
 11
155.151148
 21
479.404178
  0
LINE
  5
25A
100
AcDbEntity
  8
M0
100
AcDbLine
 10
164.951136
 20
470.704181
 11
164.951136
 21
460.404178
  0
LINE
  5
25B
100
AcDbEntity
  8
M0
100
AcDbLine
 10
142.35113
 20
470.704181
 11
142.35113
 21
460.404178
  0
LINE
  5
25C
100
AcDbEntity
  8
M0
100
AcDbLine
 10
156.151148
 20
478.404178
 11
156.151133
 21
475.404178
  0
LINE
  5
25D
100
AcDbEntity
  8
M0
100
AcDbLine
 10
151.151148
 20
478.404178
 11
151.151133
 21
475.404178
  0
LINE
  5
25E
100
AcDbEntity
  8
M0
100
AcDbLine
 10
157.651133
 20
476.104175
 11
157.651133
 21
473.704181
  0
LINE
  5
25F
100
AcDbEntity
  8
M0
100
AcDbLine
 10
149.651133
 20
476.104175
 11
149.651133
 21
473.704181
  0
ARC
  5
260
100
AcDbEntity
  8
M0
100
AcDbCircle
 10
155.151148
 20
478.404178
 40
1.0
100
AcDbArc
 50
0.0
 51
90.0
  0
ARC
  5
261
100
AcDbEntity
  8
M0
100
AcDbCircle
 10
152.151148
 20
478.404178
 40
1.0
100
AcDbArc
 50
90.0
 51
180.0
  0
LINE
  5
262
100
AcDbEntity
  8
M0
100
AcDbLine
 10
157.651133
 20
475.404178
 11
156.151133
 21
475.404178
  0
LINE
  5
263
100
AcDbEntity
  8
M0
100
AcDbLine
 10
157.651133
 20
476.104175
 11
156.151133
 21
476.104175
  0
LINE
  5
264
100
AcDbEntity
  8
M0
100
AcDbLine
 10
151.151133
 20
475.404178
 11
149.651133
 21
475.404178
  0
LINE
  5
265
100
AcDbEntity
  8
M0
100
AcDbLine
 10
151.151133
 20
476.104175
 11
149.651133
 21
476.104175
  0
ARC
  5
266
100
AcDbEntity
  8
M0
100
AcDbCircle
 10
161.951136
 20
470.704181
 40
3.0
100
AcDbArc
 50
0.0
 51
90.0
  0
ARC
  5
267
100
AcDbEntity
  8
M0
100
AcDbCircle
 10
145.35113
 20
470.704181
 40
3.0
100
AcDbArc
 50
90.0
 51
180.0
  0
ARC
  5
268
100
AcDbEntity
  8
M0
100
AcDbCircle
 10
145.35113
 20
460.404178
 40
3.0
100
AcDbArc
 50
180.0
 51
269.999709
  0
ARC
  5
269
100
AcDbEntity
  8
M0
100
AcDbCircle
 10
161.951136
 20
460.404178
 40
3.0
100
AcDbArc
 50
269.999709
 51
360.0
  0
LINE
  5
26A
100
AcDbEntity
  8
M0
100
AcDbLine
 10
157.651133
 20
473.704181
 11
161.951136
 21
473.704181
  0
LINE
  5
26B
100
AcDbEntity
  8
M0
100
AcDbLine
 10
145.651133
 20
457.404178
 11
145.35113
 21
457.404178
  0
LINE
  5
26C
100
AcDbEntity
  8
M0
100
AcDbLine
 10
407.721529
 20
525.122379
 11
391.721529
 21
525.122379
  0
LINE
  5
26D
100
AcDbEntity
  8
M0
  6
DASHDOT
100
AcDbLine
 10
344.821535
 20
463.122379
 11
417.721529
 21
463.122379
  0
LINE
  5
26E
100
AcDbEntity
  8
M0
100
AcDbLine
 10
408.221529
 20
524.122379
 11
408.221529
 21
512.122379
  0
LINE
  5
26F
100
AcDbEntity
  8
M0
100
AcDbLine
 10
390.721529
 20
524.080707
 11
390.721529
 21
512.122379
  0
LINE
  5
270
100
AcDbEntity
  8
M0
100
AcDbLine
 10
391.721529
 20
525.122379
 11
391.721529
 21
513.122379
  0
ARC
  5
271
100
AcDbEntity
  8
M0
100
AcDbCircle
 10
367.421526
 20
468.122379
 40
2.0
100
AcDbArc
 50
0.0
 51
90.0
  0
LINE
  5
272
100
AcDbEntity
  8
M0
100
AcDbLine
 10
389.721529
 20
511.122379
 11
354.921526
 21
511.122379
  0
LINE
  5
273
100
AcDbEntity
  8
M0
100
AcDbLine
 10
379.721529
 20
512.622379
 11
354.921526
 21
512.622379
  0
LINE
  5
274
100
AcDbEntity
  8
M0
100
AcDbLine
 10
379.721529
 20
512.622379
 11
391.721529
 21
525.122379
  0
ARC
  5
275
100
AcDbEntity
  8
M0
100
AcDbCircle
 10
389.721529
 20
512.122379
 40
1.0
100
AcDbArc
 50
269.999126
 51
360.0
  0
ARC
  5
276
100
AcDbEntity
  8
M0
100
AcDbCircle
 10
389.721529
 20
513.122379
 40
2.0
100
AcDbArc
 50
269.999563
 51
360.0
  0
LINE
  5
277
100
AcDbEntity
  8
M0
100
AcDbLine
 10
407.721529
 20
496.122379
 11
408.221529
 21
496.122379
  0
LINE
  5
278
100
AcDbEntity
  8
M0
100
AcDbLine
 10
407.721529
 20
506.122379
 11
408.221529
 21
506.122379
  0
LINE
  5
279
100
AcDbEntity
  8
M0
100
AcDbLine
 10
407.721529
 20
512.122379
 11
408.221529
 21
512.122379
  0
LINE
  5
27A
100
AcDbEntity
  8
M0
100
AcDbLine
 10
407.721529
 20
524.122379
 11
408.221529
 21
524.122379
  0
LINE
  5
27B
100
AcDbEntity
  8
M0
100
AcDbLine
 10
408.221529
 20
506.122379
 11
408.221529
 21
496.122379
  0
LINE
  5
27C
100
AcDbEntity
  8
M0
100
AcDbLine
 10
407.721529
 20
463.122379
 11
407.721529
 21
525.122379
  0
LINE
  5
27D
100
AcDbEntity
  8
M0
100
AcDbLine
 10
369.421526
 20
463.122379
 11
369.421526
 21
468.122379
  0
LINE
  5
27E
100
AcDbEntity
  8
M0
100
AcDbLine
 10
352.921526
 20
470.122379
 11
367.421526
 21
470.122379
  0
LINE
  5
27F
100
AcDbEntity
  8
M0
100
AcDbLine
 10
352.921526
 20
472.122379
 11
354.921526
 21
476.622379
  0
LINE
  5
280
100
AcDbEntity
  8
M0
100
AcDbLine
 10
354.921526
 20
512.622379
 11
354.921526
 21
476.622379
  0
LINE
  5
281
100
AcDbEntity
  8
M0
100
AcDbLine
 10
352.921526
 20
470.122379
 11
352.921526
 21
472.122379
  0
LINE
  5
282
100
AcDbEntity
  8
M0
100
AcDbLine
 10
407.721529
 20
401.122379
 11
391.721529
 21
401.122379
  0
LINE
  5
283
100
AcDbEntity
  8
M0
  6
DASHDOT
100
AcDbLine
 10
344.821535
 20
463.122379
 11
417.721529
 21
463.122379
  0
LINE
  5
284
100
AcDbEntity
  8
M0
100
AcDbLine
 10
408.221529
 20
402.122379
 11
408.221529
 21
414.122379
  0
LINE
  5
285
100
AcDbEntity
  8
M0
100
AcDbLine
 10
390.721529
 20
402.164051
 11
390.721529
 21
414.122379
  0
LINE
  5
286
100
AcDbEntity
  8
M0
100
AcDbLine
 10
391.721529
 20
401.122379
 11
391.721529
 21
413.122379
  0
ARC
  5
287
100
AcDbEntity
  8
M0
100
AcDbCircle
 10
367.421526
 20
458.122379
 40
2.0
100
AcDbArc
 50
-90.000437
 51
0.0
  0
LINE
  5
288
100
AcDbEntity
  8
M0
100
AcDbLine
 10
389.721529
 20
415.122379
 11
354.921526
 21
415.122379
  0
LINE
  5
289
100
AcDbEntity
  8
M0
100
AcDbLine
 10
379.721529
 20
413.622379
 11
354.921526
 21
413.622379
  0
LINE
  5
28A
100
AcDbEntity
  8
M0
100
AcDbLine
 10
379.721529
 20
413.622379
 11
391.721529
 21
401.122379
  0
ARC
  5
28B
100
AcDbEntity
  8
M0
100
AcDbCircle
 10
389.721529
 20
414.122379
 40
1.0
100
AcDbArc
 50
0.0
 51
90.0
  0
ARC
  5
28C
100
AcDbEntity
  8
M0
100
AcDbCircle
 10
389.721529
 20
413.122379
 40
2.0
100
AcDbArc
 50
0.0
 51
90.0
  0
LINE
  5
28D
100
AcDbEntity
  8
M0
100
AcDbLine
 10
407.721529
 20
430.122379
 11
408.221529
 21
430.122379
  0
LINE
  5
28E
100
AcDbEntity
  8
M0
100
AcDbLine
 10
407.721529
 20
420.122379
 11
408.221529
 21
420.122379
  0
LINE
  5
28F
100
AcDbEntity
  8
M0
100
AcDbLine
 10
407.721529
 20
414.122379
 11
408.221529
 21
414.122379
  0
LINE
  5
290
100
AcDbEntity
  8
M0
100
AcDbLine
 10
407.721529
 20
402.122379
 11
408.221529
 21
402.122379
  0
LINE
  5
291
100
AcDbEntity
  8
M0
100
AcDbLine
 10
408.221529
 20
420.122379
 11
408.221529
 21
430.122379
  0
LINE
  5
292
100
AcDbEntity
  8
M0
100
AcDbLine
 10
407.721529
 20
463.122379
 11
407.721529
 21
401.122379
  0
LINE
  5
293
100
AcDbEntity
  8
M0
100
AcDbLine
 10
369.421526
 20
463.122379
 11
369.421526
 21
458.122379
  0
LINE
  5
294
100
AcDbEntity
  8
M0
100
AcDbLine
 10
354.921526
 20
456.122379
 11
367.421526
 21
456.122379
  0
LINE
  5
295
100
AcDbEntity
  8
M0
100
AcDbLine
 10
354.921526
 20
413.622379
 11
354.921526
 21
456.122379
  0
ARC
  5
296
100
AcDbEntity
  8
M0
100
AcDbCircle
 10
196.401163
 20
518.604069
 40
7.0
100
AcDbArc
 50
0.0
 51
90.0
  0
ARC
  5
297
100
AcDbEntity
  8
M0
100
AcDbCircle
 10
110.901163
 20
518.604069
 40
7.0
100
AcDbArc
 50
90.0
 51
180.0
  0
LINE
  5
298
100
AcDbEntity
  8
M0
100
AcDbLine
 10
103.901163
 20
518.604069
 11
103.901163
 21
501.10358
  0
ARC
  5
299
100
AcDbEntity
  8
M0
100
AcDbCircle
 10
110.901163
 20
408.604069
 40
7.0
100
AcDbArc
 50
180.0
 51
269.999875
  0
LINE
  5
29A
100
AcDbEntity
  8
M0
100
AcDbLine
 10
203.401163
 20
408.604069
 11
203.401163
 21
426.170963
  0
ARC
  5
29B
100
AcDbEntity
  8
M0
100
AcDbCircle
 10
196.401163
 20
408.604069
 40
7.0
100
AcDbArc
 50
269.999875
 51
360.0
  0
LINE
  5
29C
100
AcDbEntity
  8
M0
100
AcDbLine
 10
180.651163
 20
513.104069
 11
159.151163
 21
513.104069
  0
LINE
  5
29D
100
AcDbEntity
  8
M0
100
AcDbLine
 10
180.651163
 20
414.104069
 11
126.651163
 21
414.104069
  0
ARC
  5
29E
100
AcDbEntity
  8
M0
100
AcDbCircle
 10
196.901163
 20
518.604069
 40
2.75
100
AcDbArc
 50
269.999682
 51
450.0
  0
LINE
  5
29F
100
AcDbEntity
  8
M0
100
AcDbLine
 10
196.901163
 20
521.354069
 11
196.651163
 21
521.354069
  0
LINE
  5
2A0
100
AcDbEntity
  8
M0
100
AcDbLine
 10
194.699244
 20
515.854069
 11
196.901163
 21
515.854069
  0
LINE
  5
2A1
100
AcDbEntity
  8
M0
  6
DASHDOT
100
AcDbLine
 10
181.651163
 20
518.604069
 11
209.651163
 21
518.604069
  0
LINE
  5
2A2
100
AcDbEntity
  8
M0
  6
DASHDOT
100
AcDbLine
 10
195.651163
 20
505.854069
 11
195.651163
 21
531.354069
  0
LINE
  5
2A3
100
AcDbEntity
  8
M0
100
AcDbLine
 10
112.603083
 20
411.354069
 11
110.401163
 21
411.354069
  0
ARC
  5
2A4
100
AcDbEntity
  8
M0
100
AcDbCircle
 10
110.401163
 20
408.604069
 40
2.75
100
AcDbArc
 50
90.0
 51
269.999682
  0
LINE
  5
2A5
100
AcDbEntity
  8
M0
100
AcDbLine
 10
110.401163
 20
405.854069
 11
110.651118
 21
405.854069
  0
LINE
  5
2A6
100
AcDbEntity
  8
M0
  6
DASHDOT
100
AcDbLine
 10
97.651163
 20
408.604069
 11
125.651163
 21
408.604069
  0
LINE
  5
2A7
100
AcDbEntity
  8
M0
  6
DASHDOT
100
AcDbLine
 10
111.651163
 20
395.854069
 11
111.651163
 21
421.354069
  0
LINE
  5
2A8
100
AcDbEntity
  8
M0
100
AcDbLine
 10
203.401163
 20
501.037189
 11
203.401163
 21
518.604069
  0
LINE
  5
2A9
100
AcDbEntity
  8
M0
100
AcDbLine
 10
103.901163
 20
426.104053
 11
103.901163
 21
408.604069
  0
LINE
  5
2AA
100
AcDbEntity
  8
M0
100
AcDbLine
 10
148.151163
 20
513.104069
 11
126.651163
 21
513.104069
  0
LINE
  5
2AB
100
AcDbEntity
  8
M0
100
AcDbLine
 10
163.651207
 20
531.604042
 11
143.651207
 21
531.604048
  0
LINE
  5
2AC
100
AcDbEntity
  8
M0
  6
DASHDOT
100
AcDbLine
 10
153.65116
 20
380.686206
 11
153.65121
 21
541.604045
  0
LINE
  5
2AD
100
AcDbEntity
  8
M0
100
AcDbLine
 10
147.815569
 20
513.902387
 11
143.651202
 21
517.604048
  0
ARC
  5
2AE
100
AcDbEntity
  8
M0
100
AcDbCircle
 10
147.151201
 20
513.154981
 40
1.0
100
AcDbArc
 50
359.999108
 51
408.365571
  0
ARC
  5
2AF
100
AcDbEntity
  8
M0
100
AcDbCircle
 10
160.151201
 20
513.154977
 40
1.0
100
AcDbArc
 50
131.634393
 51
179.999982
  0
LINE
  5
2B0
100
AcDbEntity
  8
M0
100
AcDbLine
 10
143.651207
 20
531.604048
 11
143.651202
 21
517.604048
  0
LINE
  5
2B1
100
AcDbEntity
  8
M0
100
AcDbLine
 10
159.486834
 20
513.902383
 11
163.651202
 21
517.604042
  0
LINE
  5
2B2
100
AcDbEntity
  8
M0
100
AcDbLine
 10
163.651202
 20
517.604042
 11
163.651207
 21
531.604042
  0
LINE
  5
2B3
100
AcDbEntity
  8
M0
100
AcDbLine
 10
148.151201
 20
512.603955
 11
148.151201
 21
513.154981
  0
LINE
  5
2B4
100
AcDbEntity
  8
M0
100
AcDbLine
 10
159.151199
 20
507.104211
 11
159.151201
 21
513.154977
  0
LINE
  5
2B5
100
AcDbEntity
  8
M0
  6
DASHDOT
100
AcDbLine
 10
166.651204
 20
523.604041
 11
140.651204
 21
523.604049
  0
ARC
  5
2B6
100
AcDbEntity
  8
M0
100
AcDbCircle
 10
153.651199
 20
505.604045
 40
2.0
100
AcDbArc
 50
48.597506
 51
131.402785
  0
LINE
  5
2B7
100
AcDbEntity
  8
M0
100
AcDbLine
 10
163.651048
 20
395.604255
 11
143.651048
 21
395.604236
  0
LINE
  5
2B8
100
AcDbEntity
  8
M0
100
AcDbLine
 10
147.815399
 20
413.3059
 11
143.651035
 21
409.604236
  0
ARC
  5
2B9
100
AcDbEntity
  8
M0
100
AcDbCircle
 10
147.151031
 20
414.053305
 40
1.0
100
AcDbArc
 50
311.632649
 51
359.99918
  0
ARC
  5
2BA
100
AcDbEntity
  8
M0
100
AcDbCircle
 10
160.151031
 20
414.053318
 40
1.0
100
AcDbArc
 50
180.000054
 51
228.365571
  0
LINE
  5
2BB
100
AcDbEntity
  8
M0
100
AcDbLine
 10
143.651048
 20
395.604236
 11
143.651035
 21
409.604236
  0
LINE
  5
2BC
100
AcDbEntity
  8
M0
100
AcDbLine
 10
159.486664
 20
413.305911
 11
163.651035
 21
409.604255
  0
LINE
  5
2BD
100
AcDbEntity
  8
M0
100
AcDbLine
 10
163.651035
 20
409.604255
 11
163.651048
 21
395.604255
  0
LINE
  5
2BE
100
AcDbEntity
  8
M0
100
AcDbLine
 10
148.151031
 20
414.10424
 11
148.151031
 21
414.053306
  0
LINE
  5
2BF
100
AcDbEntity
  8
M0
  6
DASHDOT
100
AcDbLine
 10
166.651041
 20
403.604258
 11
140.651041
 21
403.604233
  0
ARC
  5
2C0
100
AcDbEntity
  8
M0
100
AcDbCircle
 10
153.651024
 20
421.604245
 40
2.0
100
AcDbArc
 50
228.573361
 51
311.426419
  0
LINE
  5
2C1
100
AcDbEntity
  8
M0
100
AcDbLine
 10
170.65127
 20
412.604175
 11
170.65127
 21
414.104175
  0
LINE
  5
2C2
100
AcDbEntity
  8
M0
100
AcDbLine
 10
322.721498
 20
531.60416
 11
325.921449
 21
531.60416
  0
LINE
  5
2C3
100
AcDbEntity
  8
M0
100
AcDbLine
 10
322.721498
 20
531.60416
 11
322.721498
 21
512.622227
  0
LINE
  5
2C4
100
AcDbEntity
  8
M0
100
AcDbLine
 10
325.921449
 20
531.60416
 11
325.921449
 21
512.622227
  0
LINE
  5
2C5
100
AcDbEntity
  8
M0
100
AcDbLine
 10
325.421449
 20
394.640858
 11
325.421449
 21
413.622715
  0
LINE
  5
2C6
100
AcDbEntity
  8
M0
100
AcDbLine
 10
322.221498
 20
394.640858
 11
325.421449
 21
394.640858
  0
LINE
  5
2C7
100
AcDbEntity
  8
M0
100
AcDbLine
 10
322.221498
 20
394.640858
 11
322.221498
 21
413.62273
  0
LINE
  5
2C8
100
AcDbEntity
  8
M0
  6
DASHED
100
AcDbLine
 10
169.151163
 20
551.60416
 11
169.151163
 21
513.103672
  0
LINE
  5
2C9
100
AcDbEntity
  8
M0
  6
DASHED
100
AcDbLine
 10
138.151163
 20
551.60416
 11
138.151163
 21
513.103428
  0
LINE
  5
2CA
100
AcDbEntity
  8
M0
  6
DASHED
100
AcDbLine
 10
136.651163
 20
551.60416
 11
136.651163
 21
513.103428
  0
LINE
  5
2CB
100
AcDbEntity
  8
M0
  6
DASHED
100
AcDbLine
 10
170.651163
 20
551.60416
 11
170.651163
 21
513.103672
  0
LINE
  5
2CC
100
AcDbEntity
  8
M0
  6
DASHED
100
AcDbLine
 10
136.651163
 20
551.60416
 11
138.151163
 21
551.60416
  0
LINE
  5
2CD
100
AcDbEntity
  8
M0
  6
DASHED
100
AcDbLine
 10
136.651163
 20
375.604175
 11
138.151163
 21
375.604175
  0
LINE
  5
2CE
100
AcDbEntity
  8
M0
  6
DASHED
100
AcDbLine
 10
169.151163
 20
375.604175
 11
170.651163
 21
375.604175
  0
LINE
  5
2CF
100
AcDbEntity
  8
M0
  6
DASHED
100
AcDbLine
 10
169.151163
 20
551.60416
 11
170.651163
 21
551.60416
  0
LINE
  5
2D0
100
AcDbEntity
  8
M0
  6
DASHED
100
AcDbLine
 10
136.651163
 20
414.104175
 11
136.651163
 21
375.604175
  0
LINE
  5
2D1
100
AcDbEntity
  8
M0
  6
DASHED
100
AcDbLine
 10
138.151163
 20
414.104175
 11
138.151163
 21
375.604175
  0
LINE
  5
2D2
100
AcDbEntity
  8
M0
  6
DASHED
100
AcDbLine
 10
169.151163
 20
414.104175
 11
169.151163
 21
375.604175
  0
LINE
  5
2D3
100
AcDbEntity
  8
M0
  6
DASHED
100
AcDbLine
 10
170.651163
 20
414.104175
 11
170.651163
 21
375.604175
  0
LINE
  5
2D4
100
AcDbEntity
  8
M0
100
AcDbLine
 10
196.651218
 20
531.604041
 11
176.651218
 21
531.604047
  0
LINE
  5
2D5
100
AcDbEntity
  8
M0
100
AcDbLine
 10
173.557234
 20
513.103712
 11
176.651214
 21
517.604047
  0
LINE
  5
2D6
100
AcDbEntity
  8
M0
100
AcDbLine
 10
196.651214
 20
517.604041
 11
196.651218
 21
531.604041
  0
LINE
  5
2D7
100
AcDbEntity
  8
M0
100
AcDbLine
 10
176.651218
 20
531.604047
 11
176.651214
 21
517.604047
  0
LINE
  5
2D8
100
AcDbEntity
  8
M0
100
AcDbLine
 10
189.15138
 20
510.880059
 11
196.651214
 21
517.604041
  0
LINE
  5
2D9
100
AcDbEntity
  8
M0
  6
DASHDOT
100
AcDbLine
 10
176.651207
 20
493.604047
 11
176.651214
 21
517.604047
  0
LINE
  5
2DA
100
AcDbEntity
  8
M0
  6
DASHDOT
100
AcDbLine
 10
188.65121
 20
505.604043
 11
164.65121
 21
505.604051
  0
ARC
  5
2DB
100
AcDbEntity
  8
M0
100
AcDbCircle
 10
176.65121
 20
505.604047
 40
2.0
100
AcDbArc
 50
48.597506
 51
131.402785
  0
LINE
  5
2DC
100
AcDbEntity
  8
M0
100
AcDbLine
 10
110.651078
 20
531.604087
 11
130.651078
 21
531.604094
  0
LINE
  5
2DD
100
AcDbEntity
  8
M0
100
AcDbLine
 10
133.745185
 20
513.103576
 11
130.651082
 21
517.604094
  0
LINE
  5
2DE
100
AcDbEntity
  8
M0
100
AcDbLine
 10
110.651082
 20
517.604087
 11
110.651078
 21
531.604087
  0
LINE
  5
2DF
100
AcDbEntity
  8
M0
100
AcDbLine
 10
130.651078
 20
531.604094
 11
130.651082
 21
517.604094
  0
LINE
  5
2E0
100
AcDbEntity
  8
M0
100
AcDbLine
 10
118.150917
 20
510.880106
 11
110.651082
 21
517.604087
  0
LINE
  5
2E1
100
AcDbEntity
  8
M0
  6
DASHDOT
100
AcDbLine
 10
130.65109
 20
493.604094
 11
130.651082
 21
517.604094
  0
LINE
  5
2E2
100
AcDbEntity
  8
M0
  6
DASHDOT
100
AcDbLine
 10
118.651086
 20
505.60409
 11
142.651086
 21
505.604097
  0
ARC
  5
2E3
100
AcDbEntity
  8
M0
100
AcDbCircle
 10
130.651086
 20
505.604094
 40
2.0
100
AcDbArc
 50
48.596308
 51
131.404055
  0
LINE
  5
2E4
100
AcDbEntity
  8
M0
100
AcDbLine
 10
110.651106
 20
395.604164
 11
130.651106
 21
395.60417
  0
LINE
  5
2E5
100
AcDbEntity
  8
M0
100
AcDbLine
 10
133.744866
 20
414.104201
 11
130.651102
 21
409.60417
  0
LINE
  5
2E6
100
AcDbEntity
  8
M0
100
AcDbLine
 10
110.651102
 20
409.604164
 11
110.651106
 21
395.604164
  0
LINE
  5
2E7
100
AcDbEntity
  8
M0
100
AcDbLine
 10
130.651106
 20
395.60417
 11
130.651102
 21
409.60417
  0
LINE
  5
2E8
100
AcDbEntity
  8
M0
100
AcDbLine
 10
118.150932
 20
416.32815
 11
110.651102
 21
409.604164
  0
LINE
  5
2E9
100
AcDbEntity
  8
M0
  6
DASHDOT
100
AcDbLine
 10
130.651094
 20
433.60417
 11
130.651102
 21
409.60417
  0
LINE
  5
2EA
100
AcDbEntity
  8
M0
  6
DASHDOT
100
AcDbLine
 10
118.651098
 20
421.604166
 11
142.651098
 21
421.604174
  0
ARC
  5
2EB
100
AcDbEntity
  8
M0
100
AcDbCircle
 10
130.651098
 20
421.60417
 40
2.0
100
AcDbArc
 50
228.572091
 51
311.427617
  0
LINE
  5
2EC
100
AcDbEntity
  8
M0
100
AcDbLine
 10
196.651083
 20
395.604259
 11
176.651083
 21
395.60424
  0
LINE
  5
2ED
100
AcDbEntity
  8
M0
100
AcDbLine
 10
172.651263
 20
415.422138
 11
176.65107
 21
409.60424
  0
LINE
  5
2EE
100
AcDbEntity
  8
M0
100
AcDbLine
 10
196.65107
 20
409.604259
 11
196.651083
 21
395.604259
  0
LINE
  5
2EF
100
AcDbEntity
  8
M0
100
AcDbLine
 10
176.651083
 20
395.60424
 11
176.65107
 21
409.60424
  0
LINE
  5
2F0
100
AcDbEntity
  8
M0
100
AcDbLine
 10
189.151231
 20
416.328236
 11
196.65107
 21
409.604259
  0
LINE
  5
2F1
100
AcDbEntity
  8
M0
  6
DASHDOT
100
AcDbLine
 10
176.651047
 20
433.60424
 11
176.65107
 21
409.60424
  0
ARC
  5
2F2
100
AcDbEntity
  8
M0
100
AcDbCircle
 10
176.651059
 20
421.60424
 40
2.0
100
AcDbArc
 50
228.573361
 51
311.426419
  0
LINE
  5
2F3
100
AcDbEntity
  8
M0
  6
DASHDOT
100
AcDbLine
 10
111.651347
 20
476.766208
 11
111.650721
 21
489.495731
  0
LINE
  5
2F4
100
AcDbEntity
  8
M0
100
AcDbLine
 10
113.051249
 20
480.503666
 11
114.871317
 21
480.503666
  0
LINE
  5
2F5
100
AcDbEntity
  8
M0
100
AcDbLine
 10
110.2512
 20
480.503666
 11
108.431132
 21
480.503666
  0
LINE
  5
2F6
100
AcDbEntity
  8
M0
100
AcDbLine
 10
109.17039
 20
479.303715
 11
114.132059
 21
479.303715
  0
LINE
  5
2F7
100
AcDbEntity
  8
M0
100
AcDbLine
 10
113.051249
 20
480.503666
 11
113.051249
 21
480.950443
  0
LINE
  5
2F8
100
AcDbEntity
  8
M0
100
AcDbLine
 10
110.2512
 20
480.503666
 11
110.2512
 21
480.950443
  0
ARC
  5
2F9
100
AcDbEntity
  8
M0
100
AcDbCircle
 10
109.17039
 20
479.803715
 40
0.5
100
AcDbArc
 50
197.11777
 51
269.998251
  0
ARC
  5
2FA
100
AcDbEntity
  8
M0
100
AcDbCircle
 10
114.132059
 20
479.803715
 40
0.5
100
AcDbArc
 50
269.998251
 51
342.874517
  0
LINE
  5
2FB
100
AcDbEntity
  8
M0
  6
DASHDOT
 62
     6
100
AcDbLine
 10
105.327509
 20
483.603763
 11
117.7633
 21
483.603763
  0
CIRCLE
  5
2FC
100
AcDbEntity
  8
M0
100
AcDbCircle
 10
111.651347
 20
483.603763
 40
3.0
  0
LINE
  5
2FD
100
AcDbEntity
  8
M0
100
AcDbLine
 10
108.692362
 20
487.551029
 11
107.8762
 21
484.903812
  0
LINE
  5
2FE
100
AcDbEntity
  8
M0
100
AcDbLine
 10
108.692362
 20
479.656498
 11
107.8762
 21
482.303715
  0
LINE
  5
2FF
100
AcDbEntity
  8
M0
100
AcDbLine
 10
114.609843
 20
487.551029
 11
115.426249
 21
484.903812
  0
LINE
  5
300
100
AcDbEntity
  8
M0
100
AcDbLine
 10
114.609843
 20
479.656498
 11
115.426249
 21
482.303715
  0
LINE
  5
301
100
AcDbEntity
  8
M0
100
AcDbLine
 10
113.051249
 20
486.703617
 11
114.871317
 21
486.703617
  0
LINE
  5
302
100
AcDbEntity
  8
M0
100
AcDbLine
 10
113.97288
 20
485.503666
 11
115.24119
 21
485.503666
  0
LINE
  5
303
100
AcDbEntity
  8
M0
100
AcDbLine
 10
113.97288
 20
481.703617
 11
115.24119
 21
481.703617
  0
LINE
  5
304
100
AcDbEntity
  8
M0
100
AcDbLine
 10
110.2512
 20
486.703617
 11
108.431132
 21
486.703617
  0
LINE
  5
305
100
AcDbEntity
  8
M0
100
AcDbLine
 10
109.329569
 20
485.503666
 11
108.061259
 21
485.503666
  0
LINE
  5
306
100
AcDbEntity
  8
M0
100
AcDbLine
 10
109.329569
 20
481.703617
 11
108.061259
 21
481.703617
  0
LINE
  5
307
100
AcDbEntity
  8
M0
100
AcDbLine
 10
115.426249
 20
482.303715
 11
115.426249
 21
484.903812
  0
LINE
  5
308
100
AcDbEntity
  8
M0
100
AcDbLine
 10
114.132059
 20
487.903812
 11
109.17039
 21
487.903568
  0
LINE
  5
309
100
AcDbEntity
  8
M0
100
AcDbLine
 10
107.8762
 20
484.903812
 11
107.8762
 21
482.303715
  0
LINE
  5
30A
100
AcDbEntity
  8
M0
100
AcDbLine
 10
113.051249
 20
486.257084
 11
113.051249
 21
486.703617
  0
LINE
  5
30B
100
AcDbEntity
  8
M0
100
AcDbLine
 10
110.2512
 20
486.257084
 11
110.2512
 21
486.703617
  0
LINE
  5
30C
100
AcDbEntity
  8
M0
100
AcDbLine
 10
113.241923
 20
482.012943
 11
110.060282
 21
485.194584
  0
LINE
  5
30D
100
AcDbEntity
  8
M0
100
AcDbLine
 10
112.004618
 20
485.017826
 11
110.23704
 21
483.250248
  0
LINE
  5
30E
100
AcDbEntity
  8
M0
100
AcDbLine
 10
113.065165
 20
483.957279
 11
111.297587
 21
482.189701
  0
ARC
  5
30F
100
AcDbEntity
  8
M0
100
AcDbCircle
 10
109.17039
 20
487.403568
 40
0.5
100
AcDbArc
 50
90.0
 51
162.856778
  0
ARC
  5
310
100
AcDbEntity
  8
M0
100
AcDbCircle
 10
114.132059
 20
487.403568
 40
0.5
100
AcDbArc
 50
17.151452
 51
90.0
  0
LINE
  5
311
100
AcDbEntity
  8
M0
  6
DASHDOT
100
AcDbLine
 10
111.651347
 20
467.266208
 11
111.650721
 21
479.995731
  0
LINE
  5
312
100
AcDbEntity
  8
M0
100
AcDbLine
 10
113.051249
 20
471.003666
 11
114.871317
 21
471.003666
  0
LINE
  5
313
100
AcDbEntity
  8
M0
100
AcDbLine
 10
110.2512
 20
471.003666
 11
108.431132
 21
471.003666
  0
LINE
  5
314
100
AcDbEntity
  8
M0
100
AcDbLine
 10
109.17039
 20
469.803715
 11
114.132059
 21
469.803715
  0
LINE
  5
315
100
AcDbEntity
  8
M0
100
AcDbLine
 10
113.051249
 20
471.003666
 11
113.051249
 21
471.450443
  0
LINE
  5
316
100
AcDbEntity
  8
M0
100
AcDbLine
 10
110.2512
 20
471.003666
 11
110.2512
 21
471.450443
  0
ARC
  5
317
100
AcDbEntity
  8
M0
100
AcDbCircle
 10
109.17039
 20
470.303715
 40
0.5
100
AcDbArc
 50
197.11777
 51
269.998251
  0
ARC
  5
318
100
AcDbEntity
  8
M0
100
AcDbCircle
 10
114.132059
 20
470.303715
 40
0.5
100
AcDbArc
 50
269.998251
 51
342.874517
  0
LINE
  5
319
100
AcDbEntity
  8
M0
  6
DASHDOT
 62
     6
100
AcDbLine
 10
105.327509
 20
474.103763
 11
117.7633
 21
474.103763
  0
CIRCLE
  5
31A
100
AcDbEntity
  8
M0
100
AcDbCircle
 10
111.651347
 20
474.103763
 40
3.0
  0
LINE
  5
31B
100
AcDbEntity
  8
M0
100
AcDbLine
 10
108.692362
 20
478.051029
 11
107.8762
 21
475.403812
  0
LINE
  5
31C
100
AcDbEntity
  8
M0
100
AcDbLine
 10
108.692362
 20
470.156498
 11
107.8762
 21
472.803715
  0
LINE
  5
31D
100
AcDbEntity
  8
M0
100
AcDbLine
 10
114.609843
 20
478.051029
 11
115.426249
 21
475.403812
  0
LINE
  5
31E
100
AcDbEntity
  8
M0
100
AcDbLine
 10
114.609843
 20
470.156498
 11
115.426249
 21
472.803715
  0
LINE
  5
31F
100
AcDbEntity
  8
M0
100
AcDbLine
 10
113.051249
 20
477.203617
 11
114.871317
 21
477.203617
  0
LINE
  5
320
100
AcDbEntity
  8
M0
100
AcDbLine
 10
113.97288
 20
476.003666
 11
115.24119
 21
476.003666
  0
LINE
  5
321
100
AcDbEntity
  8
M0
100
AcDbLine
 10
113.97288
 20
472.203617
 11
115.24119
 21
472.203617
  0
LINE
  5
322
100
AcDbEntity
  8
M0
100
AcDbLine
 10
110.2512
 20
477.203617
 11
108.431132
 21
477.203617
  0
LINE
  5
323
100
AcDbEntity
  8
M0
100
AcDbLine
 10
109.329569
 20
476.003666
 11
108.061259
 21
476.003666
  0
LINE
  5
324
100
AcDbEntity
  8
M0
100
AcDbLine
 10
109.329569
 20
472.203617
 11
108.061259
 21
472.203617
  0
LINE
  5
325
100
AcDbEntity
  8
M0
100
AcDbLine
 10
115.426249
 20
472.803715
 11
115.426249
 21
475.403812
  0
LINE
  5
326
100
AcDbEntity
  8
M0
100
AcDbLine
 10
114.132059
 20
478.403812
 11
109.17039
 21
478.403568
  0
LINE
  5
327
100
AcDbEntity
  8
M0
100
AcDbLine
 10
107.8762
 20
475.403812
 11
107.8762
 21
472.803715
  0
LINE
  5
328
100
AcDbEntity
  8
M0
100
AcDbLine
 10
113.051249
 20
476.757084
 11
113.051249
 21
477.203617
  0
LINE
  5
329
100
AcDbEntity
  8
M0
100
AcDbLine
 10
110.2512
 20
476.757084
 11
110.2512
 21
477.203617
  0
LINE
  5
32A
100
AcDbEntity
  8
M0
100
AcDbLine
 10
113.241923
 20
472.512943
 11
110.060282
 21
475.694584
  0
LINE
  5
32B
100
AcDbEntity
  8
M0
100
AcDbLine
 10
112.004618
 20
475.517826
 11
110.23704
 21
473.750248
  0
LINE
  5
32C
100
AcDbEntity
  8
M0
100
AcDbLine
 10
113.065165
 20
474.457279
 11
111.297587
 21
472.689701
  0
ARC
  5
32D
100
AcDbEntity
  8
M0
100
AcDbCircle
 10
109.17039
 20
477.903568
 40
0.5
100
AcDbArc
 50
90.0
 51
162.856778
  0
ARC
  5
32E
100
AcDbEntity
  8
M0
100
AcDbCircle
 10
114.132059
 20
477.903568
 40
0.5
100
AcDbArc
 50
17.151452
 51
90.0
  0
LINE
  5
32F
100
AcDbEntity
  8
M0
  6
DASHDOT
100
AcDbLine
 10
111.651347
 20
446.266453
 11
111.650721
 21
458.995975
  0
LINE
  5
330
100
AcDbEntity
  8
M0
100
AcDbLine
 10
113.051249
 20
450.00391
 11
114.871317
 21
450.00391
  0
LINE
  5
331
100
AcDbEntity
  8
M0
100
AcDbLine
 10
110.2512
 20
450.00391
 11
108.431132
 21
450.00391
  0
LINE
  5
332
100
AcDbEntity
  8
M0
100
AcDbLine
 10
109.17039
 20
448.803959
 11
114.132059
 21
448.803959
  0
LINE
  5
333
100
AcDbEntity
  8
M0
100
AcDbLine
 10
113.051249
 20
450.00391
 11
113.051249
 21
450.450687
  0
LINE
  5
334
100
AcDbEntity
  8
M0
100
AcDbLine
 10
110.2512
 20
450.00391
 11
110.2512
 21
450.450687
  0
ARC
  5
335
100
AcDbEntity
  8
M0
100
AcDbCircle
 10
109.17039
 20
449.303959
 40
0.5
100
AcDbArc
 50
197.11777
 51
269.998251
  0
ARC
  5
336
100
AcDbEntity
  8
M0
100
AcDbCircle
 10
114.132059
 20
449.303959
 40
0.5
100
AcDbArc
 50
269.998251
 51
342.874517
  0
LINE
  5
337
100
AcDbEntity
  8
M0
  6
DASHDOT
 62
     6
100
AcDbLine
 10
105.327509
 20
453.104008
 11
117.7633
 21
453.104008
  0
CIRCLE
  5
338
100
AcDbEntity
  8
M0
100
AcDbCircle
 10
111.651347
 20
453.104008
 40
3.0
  0
LINE
  5
339
100
AcDbEntity
  8
M0
100
AcDbLine
 10
108.692362
 20
457.051273
 11
107.8762
 21
454.404056
  0
LINE
  5
33A
100
AcDbEntity
  8
M0
100
AcDbLine
 10
108.692362
 20
449.156742
 11
107.8762
 21
451.803959
  0
LINE
  5
33B
100
AcDbEntity
  8
M0
100
AcDbLine
 10
114.609843
 20
457.051273
 11
115.426249
 21
454.404056
  0
LINE
  5
33C
100
AcDbEntity
  8
M0
100
AcDbLine
 10
114.609843
 20
449.156742
 11
115.426249
 21
451.803959
  0
LINE
  5
33D
100
AcDbEntity
  8
M0
100
AcDbLine
 10
113.051249
 20
456.203861
 11
114.871317
 21
456.203861
  0
LINE
  5
33E
100
AcDbEntity
  8
M0
100
AcDbLine
 10
113.97288
 20
455.00391
 11
115.24119
 21
455.00391
  0
LINE
  5
33F
100
AcDbEntity
  8
M0
100
AcDbLine
 10
113.97288
 20
451.203861
 11
115.24119
 21
451.203861
  0
LINE
  5
340
100
AcDbEntity
  8
M0
100
AcDbLine
 10
110.2512
 20
456.203861
 11
108.431132
 21
456.203861
  0
LINE
  5
341
100
AcDbEntity
  8
M0
100
AcDbLine
 10
109.329569
 20
455.00391
 11
108.061259
 21
455.00391
  0
LINE
  5
342
100
AcDbEntity
  8
M0
100
AcDbLine
 10
109.329569
 20
451.203861
 11
108.061259
 21
451.203861
  0
LINE
  5
343
100
AcDbEntity
  8
M0
100
AcDbLine
 10
115.426249
 20
451.803959
 11
115.426249
 21
454.404056
  0
LINE
  5
344
100
AcDbEntity
  8
M0
100
AcDbLine
 10
114.132059
 20
457.404056
 11
109.17039
 21
457.403812
  0
LINE
  5
345
100
AcDbEntity
  8
M0
100
AcDbLine
 10
107.8762
 20
454.404056
 11
107.8762
 21
451.803959
  0
LINE
  5
346
100
AcDbEntity
  8
M0
100
AcDbLine
 10
113.051249
 20
455.757328
 11
113.051249
 21
456.203861
  0
LINE
  5
347
100
AcDbEntity
  8
M0
100
AcDbLine
 10
110.2512
 20
455.757328
 11
110.2512
 21
456.203861
  0
LINE
  5
348
100
AcDbEntity
  8
M0
100
AcDbLine
 10
113.241923
 20
451.513187
 11
110.060282
 21
454.694828
  0
LINE
  5
349
100
AcDbEntity
  8
M0
100
AcDbLine
 10
112.004618
 20
454.51807
 11
110.23704
 21
452.750492
  0
LINE
  5
34A
100
AcDbEntity
  8
M0
100
AcDbLine
 10
113.065165
 20
453.457523
 11
111.297587
 21
451.689945
  0
ARC
  5
34B
100
AcDbEntity
  8
M0
100
AcDbCircle
 10
109.17039
 20
456.903812
 40
0.5
100
AcDbArc
 50
90.0
 51
162.856778
  0
ARC
  5
34C
100
AcDbEntity
  8
M0
100
AcDbCircle
 10
114.132059
 20
456.903812
 40
0.5
100
AcDbArc
 50
17.151452
 51
90.0
  0
LINE
  5
34D
100
AcDbEntity
  8
M0
  6
DASHDOT
100
AcDbLine
 10
111.651347
 20
436.766453
 11
111.650721
 21
449.495975
  0
LINE
  5
34E
100
AcDbEntity
  8
M0
100
AcDbLine
 10
113.051249
 20
440.50391
 11
114.871317
 21
440.50391
  0
LINE
  5
34F
100
AcDbEntity
  8
M0
100
AcDbLine
 10
110.2512
 20
440.50391
 11
108.431132
 21
440.50391
  0
LINE
  5
350
100
AcDbEntity
  8
M0
100
AcDbLine
 10
109.17039
 20
439.303959
 11
114.132059
 21
439.303959
  0
LINE
  5
351
100
AcDbEntity
  8
M0
100
AcDbLine
 10
113.051249
 20
440.50391
 11
113.051249
 21
440.950687
  0
LINE
  5
352
100
AcDbEntity
  8
M0
100
AcDbLine
 10
110.2512
 20
440.50391
 11
110.2512
 21
440.950687
  0
ARC
  5
353
100
AcDbEntity
  8
M0
100
AcDbCircle
 10
109.17039
 20
439.803959
 40
0.5
100
AcDbArc
 50
197.11777
 51
269.998251
  0
ARC
  5
354
100
AcDbEntity
  8
M0
100
AcDbCircle
 10
114.132059
 20
439.803959
 40
0.5
100
AcDbArc
 50
269.998251
 51
342.874517
  0
LINE
  5
355
100
AcDbEntity
  8
M0
  6
DASHDOT
 62
     6
100
AcDbLine
 10
105.327509
 20
443.604008
 11
117.7633
 21
443.604008
  0
CIRCLE
  5
356
100
AcDbEntity
  8
M0
100
AcDbCircle
 10
111.651347
 20
443.604008
 40
3.0
  0
LINE
  5
357
100
AcDbEntity
  8
M0
100
AcDbLine
 10
108.692362
 20
447.551273
 11
107.8762
 21
444.904056
  0
LINE
  5
358
100
AcDbEntity
  8
M0
100
AcDbLine
 10
108.692362
 20
439.656742
 11
107.8762
 21
442.303959
  0
LINE
  5
359
100
AcDbEntity
  8
M0
100
AcDbLine
 10
114.609843
 20
447.551273
 11
115.426249
 21
444.904056
  0
LINE
  5
35A
100
AcDbEntity
  8
M0
100
AcDbLine
 10
114.609843
 20
439.656742
 11
115.426249
 21
442.303959
  0
LINE
  5
35B
100
AcDbEntity
  8
M0
100
AcDbLine
 10
113.051249
 20
446.703861
 11
114.871317
 21
446.703861
  0
LINE
  5
35C
100
AcDbEntity
  8
M0
100
AcDbLine
 10
113.97288
 20
445.50391
 11
115.24119
 21
445.50391
  0
LINE
  5
35D
100
AcDbEntity
  8
M0
100
AcDbLine
 10
113.97288
 20
441.703861
 11
115.24119
 21
441.703861
  0
LINE
  5
35E
100
AcDbEntity
  8
M0
100
AcDbLine
 10
110.2512
 20
446.703861
 11
108.431132
 21
446.703861
  0
LINE
  5
35F
100
AcDbEntity
  8
M0
100
AcDbLine
 10
109.329569
 20
445.50391
 11
108.061259
 21
445.50391
  0
LINE
  5
360
100
AcDbEntity
  8
M0
100
AcDbLine
 10
109.329569
 20
441.703861
 11
108.061259
 21
441.703861
  0
LINE
  5
361
100
AcDbEntity
  8
M0
100
AcDbLine
 10
115.426249
 20
442.303959
 11
115.426249
 21
444.904056
  0
LINE
  5
362
100
AcDbEntity
  8
M0
100
AcDbLine
 10
114.132059
 20
447.904056
 11
109.17039
 21
447.903812
  0
LINE
  5
363
100
AcDbEntity
  8
M0
100
AcDbLine
 10
107.8762
 20
444.904056
 11
107.8762
 21
442.303959
  0
LINE
  5
364
100
AcDbEntity
  8
M0
100
AcDbLine
 10
113.051249
 20
446.257328
 11
113.051249
 21
446.703861
  0
LINE
  5
365
100
AcDbEntity
  8
M0
100
AcDbLine
 10
110.2512
 20
446.257328
 11
110.2512
 21
446.703861
  0
LINE
  5
366
100
AcDbEntity
  8
M0
100
AcDbLine
 10
113.241923
 20
442.013187
 11
110.060282
 21
445.194828
  0
LINE
  5
367
100
AcDbEntity
  8
M0
100
AcDbLine
 10
112.004618
 20
445.01807
 11
110.23704
 21
443.250492
  0
LINE
  5
368
100
AcDbEntity
  8
M0
100
AcDbLine
 10
113.065165
 20
443.957523
 11
111.297587
 21
442.189945
  0
ARC
  5
369
100
AcDbEntity
  8
M0
100
AcDbCircle
 10
109.17039
 20
447.403812
 40
0.5
100
AcDbArc
 50
90.0
 51
162.856778
  0
ARC
  5
36A
100
AcDbEntity
  8
M0
100
AcDbCircle
 10
114.132059
 20
447.403812
 40
0.5
100
AcDbArc
 50
17.151452
 51
90.0
  0
LINE
  5
36B
100
AcDbEntity
  8
M0
  6
DASHDOT
100
AcDbLine
 10
195.651316
 20
476.765964
 11
195.65069
 21
489.495487
  0
LINE
  5
36C
100
AcDbEntity
  8
M0
100
AcDbLine
 10
197.051218
 20
480.503422
 11
198.871287
 21
480.503422
  0
LINE
  5
36D
100
AcDbEntity
  8
M0
100
AcDbLine
 10
194.25117
 20
480.503422
 11
192.431101
 21
480.503422
  0
LINE
  5
36E
100
AcDbEntity
  8
M0
100
AcDbLine
 10
193.170359
 20
479.30347
 11
198.132029
 21
479.30347
  0
LINE
  5
36F
100
AcDbEntity
  8
M0
100
AcDbLine
 10
197.051218
 20
480.503422
 11
197.051218
 21
480.950199
  0
LINE
  5
370
100
AcDbEntity
  8
M0
100
AcDbLine
 10
194.25117
 20
480.503422
 11
194.25117
 21
480.950199
  0
ARC
  5
371
100
AcDbEntity
  8
M0
100
AcDbCircle
 10
193.170359
 20
479.80347
 40
0.5
100
AcDbArc
 50
197.11777
 51
269.998251
  0
ARC
  5
372
100
AcDbEntity
  8
M0
100
AcDbCircle
 10
198.132029
 20
479.80347
 40
0.5
100
AcDbArc
 50
269.998251
 51
342.874517
  0
LINE
  5
373
100
AcDbEntity
  8
M0
  6
DASHDOT
 62
     6
100
AcDbLine
 10
189.327479
 20
483.603519
 11
201.76327
 21
483.603519
  0
CIRCLE
  5
374
100
AcDbEntity
  8
M0
100
AcDbCircle
 10
195.651316
 20
483.603519
 40
3.0
  0
LINE
  5
375
100
AcDbEntity
  8
M0
100
AcDbLine
 10
192.692332
 20
487.550785
 11
191.87617
 21
484.903568
  0
LINE
  5
376
100
AcDbEntity
  8
M0
100
AcDbLine
 10
192.692332
 20
479.656254
 11
191.87617
 21
482.30347
  0
LINE
  5
377
100
AcDbEntity
  8
M0
100
AcDbLine
 10
198.609812
 20
487.550785
 11
199.426218
 21
484.903568
  0
LINE
  5
378
100
AcDbEntity
  8
M0
100
AcDbLine
 10
198.609812
 20
479.656254
 11
199.426218
 21
482.30347
  0
LINE
  5
379
100
AcDbEntity
  8
M0
100
AcDbLine
 10
197.051218
 20
486.703373
 11
198.871287
 21
486.703373
  0
LINE
  5
37A
100
AcDbEntity
  8
M0
100
AcDbLine
 10
197.972849
 20
485.503422
 11
199.24116
 21
485.503422
  0
LINE
  5
37B
100
AcDbEntity
  8
M0
100
AcDbLine
 10
197.972849
 20
481.703373
 11
199.24116
 21
481.703373
  0
LINE
  5
37C
100
AcDbEntity
  8
M0
100
AcDbLine
 10
194.25117
 20
486.703373
 11
192.431101
 21
486.703373
  0
LINE
  5
37D
100
AcDbEntity
  8
M0
100
AcDbLine
 10
193.329539
 20
485.503422
 11
192.061228
 21
485.503422
  0
LINE
  5
37E
100
AcDbEntity
  8
M0
100
AcDbLine
 10
193.329539
 20
481.703373
 11
192.061228
 21
481.703373
  0
LINE
  5
37F
100
AcDbEntity
  8
M0
100
AcDbLine
 10
199.426218
 20
482.30347
 11
199.426218
 21
484.903568
  0
LINE
  5
380
100
AcDbEntity
  8
M0
100
AcDbLine
 10
198.132029
 20
487.903568
 11
193.170359
 21
487.903324
  0
LINE
  5
381
100
AcDbEntity
  8
M0
100
AcDbLine
 10
191.87617
 20
484.903568
 11
191.87617
 21
482.30347
  0
LINE
  5
382
100
AcDbEntity
  8
M0
100
AcDbLine
 10
197.051218
 20
486.25684
 11
197.051218
 21
486.703373
  0
LINE
  5
383
100
AcDbEntity
  8
M0
100
AcDbLine
 10
194.25117
 20
486.25684
 11
194.25117
 21
486.703373
  0
LINE
  5
384
100
AcDbEntity
  8
M0
100
AcDbLine
 10
197.241892
 20
482.012699
 11
194.060252
 21
485.19434
  0
LINE
  5
385
100
AcDbEntity
  8
M0
100
AcDbLine
 10
196.004588
 20
485.017582
 11
194.237009
 21
483.250004
  0
LINE
  5
386
100
AcDbEntity
  8
M0
100
AcDbLine
 10
197.065134
 20
483.957035
 11
195.297556
 21
482.189457
  0
ARC
  5
387
100
AcDbEntity
  8
M0
100
AcDbCircle
 10
193.170359
 20
487.403324
 40
0.5
100
AcDbArc
 50
90.0
 51
162.856778
  0
ARC
  5
388
100
AcDbEntity
  8
M0
100
AcDbCircle
 10
198.132029
 20
487.403324
 40
0.5
100
AcDbArc
 50
17.151452
 51
90.0
  0
LINE
  5
389
100
AcDbEntity
  8
M0
  6
DASHDOT
100
AcDbLine
 10
195.651347
 20
467.266453
 11
195.650721
 21
479.995975
  0
LINE
  5
38A
100
AcDbEntity
  8
M0
100
AcDbLine
 10
197.051249
 20
471.00391
 11
198.871317
 21
471.00391
  0
LINE
  5
38B
100
AcDbEntity
  8
M0
100
AcDbLine
 10
194.2512
 20
471.00391
 11
192.431132
 21
471.00391
  0
LINE
  5
38C
100
AcDbEntity
  8
M0
100
AcDbLine
 10
193.17039
 20
469.803959
 11
198.132059
 21
469.803959
  0
LINE
  5
38D
100
AcDbEntity
  8
M0
100
AcDbLine
 10
197.051249
 20
471.00391
 11
197.051249
 21
471.450687
  0
LINE
  5
38E
100
AcDbEntity
  8
M0
100
AcDbLine
 10
194.2512
 20
471.00391
 11
194.2512
 21
471.450687
  0
ARC
  5
38F
100
AcDbEntity
  8
M0
100
AcDbCircle
 10
193.17039
 20
470.303959
 40
0.5
100
AcDbArc
 50
197.11777
 51
269.998251
  0
ARC
  5
390
100
AcDbEntity
  8
M0
100
AcDbCircle
 10
198.132059
 20
470.303959
 40
0.5
100
AcDbArc
 50
269.998251
 51
342.874517
  0
LINE
  5
391
100
AcDbEntity
  8
M0
  6
DASHDOT
 62
     6
100
AcDbLine
 10
189.327509
 20
474.104008
 11
201.7633
 21
474.104008
  0
CIRCLE
  5
392
100
AcDbEntity
  8
M0
100
AcDbCircle
 10
195.651347
 20
474.104008
 40
3.0
  0
LINE
  5
393
100
AcDbEntity
  8
M0
100
AcDbLine
 10
192.692362
 20
478.051273
 11
191.8762
 21
475.404056
  0
LINE
  5
394
100
AcDbEntity
  8
M0
100
AcDbLine
 10
192.692362
 20
470.156742
 11
191.8762
 21
472.803959
  0
LINE
  5
395
100
AcDbEntity
  8
M0
100
AcDbLine
 10
198.609843
 20
478.051273
 11
199.426249
 21
475.404056
  0
LINE
  5
396
100
AcDbEntity
  8
M0
100
AcDbLine
 10
198.609843
 20
470.156742
 11
199.426249
 21
472.803959
  0
LINE
  5
397
100
AcDbEntity
  8
M0
100
AcDbLine
 10
197.051249
 20
477.203861
 11
198.871317
 21
477.203861
  0
LINE
  5
398
100
AcDbEntity
  8
M0
100
AcDbLine
 10
197.97288
 20
476.00391
 11
199.24119
 21
476.00391
  0
LINE
  5
399
100
AcDbEntity
  8
M0
100
AcDbLine
 10
197.97288
 20
472.203861
 11
199.24119
 21
472.203861
  0
LINE
  5
39A
100
AcDbEntity
  8
M0
100
AcDbLine
 10
194.2512
 20
477.203861
 11
192.431132
 21
477.203861
  0
LINE
  5
39B
100
AcDbEntity
  8
M0
100
AcDbLine
 10
193.329569
 20
476.00391
 11
192.061259
 21
476.00391
  0
LINE
  5
39C
100
AcDbEntity
  8
M0
100
AcDbLine
 10
193.329569
 20
472.203861
 11
192.061259
 21
472.203861
  0
LINE
  5
39D
100
AcDbEntity
  8
M0
100
AcDbLine
 10
199.426249
 20
472.803959
 11
199.426249
 21
475.404056
  0
LINE
  5
39E
100
AcDbEntity
  8
M0
100
AcDbLine
 10
198.132059
 20
478.404056
 11
193.17039
 21
478.403812
  0
LINE
  5
39F
100
AcDbEntity
  8
M0
100
AcDbLine
 10
191.8762
 20
475.404056
 11
191.8762
 21
472.803959
  0
LINE
  5
3A0
100
AcDbEntity
  8
M0
100
AcDbLine
 10
197.051249
 20
476.757328
 11
197.051249
 21
477.203861
  0
LINE
  5
3A1
100
AcDbEntity
  8
M0
100
AcDbLine
 10
194.2512
 20
476.757328
 11
194.2512
 21
477.203861
  0
LINE
  5
3A2
100
AcDbEntity
  8
M0
100
AcDbLine
 10
197.241923
 20
472.513187
 11
194.060282
 21
475.694828
  0
LINE
  5
3A3
100
AcDbEntity
  8
M0
100
AcDbLine
 10
196.004618
 20
475.51807
 11
194.23704
 21
473.750492
  0
LINE
  5
3A4
100
AcDbEntity
  8
M0
100
AcDbLine
 10
197.065165
 20
474.457523
 11
195.297587
 21
472.689945
  0
ARC
  5
3A5
100
AcDbEntity
  8
M0
100
AcDbCircle
 10
193.17039
 20
477.903812
 40
0.5
100
AcDbArc
 50
90.0
 51
162.856778
  0
ARC
  5
3A6
100
AcDbEntity
  8
M0
100
AcDbCircle
 10
198.132059
 20
477.903812
 40
0.5
100
AcDbArc
 50
17.151452
 51
90.0
  0
LINE
  5
3A7
100
AcDbEntity
  8
M0
  6
DASHDOT
100
AcDbLine
 10
195.651392
 20
446.266208
 11
195.650767
 21
458.995731
  0
LINE
  5
3A8
100
AcDbEntity
  8
M0
100
AcDbLine
 10
197.051295
 20
450.003666
 11
198.871363
 21
450.003666
  0
LINE
  5
3A9
100
AcDbEntity
  8
M0
100
AcDbLine
 10
194.251246
 20
450.003666
 11
192.431178
 21
450.003666
  0
LINE
  5
3AA
100
AcDbEntity
  8
M0
100
AcDbLine
 10
193.170435
 20
448.803715
 11
198.132105
 21
448.803715
  0
LINE
  5
3AB
100
AcDbEntity
  8
M0
100
AcDbLine
 10
197.051295
 20
450.003666
 11
197.051295
 21
450.450443
  0
LINE
  5
3AC
100
AcDbEntity
  8
M0
100
AcDbLine
 10
194.251246
 20
450.003666
 11
194.251246
 21
450.450443
  0
ARC
  5
3AD
100
AcDbEntity
  8
M0
100
AcDbCircle
 10
193.170435
 20
449.303715
 40
0.5
100
AcDbArc
 50
197.11777
 51
269.998251
  0
ARC
  5
3AE
100
AcDbEntity
  8
M0
100
AcDbCircle
 10
198.132105
 20
449.303715
 40
0.5
100
AcDbArc
 50
269.998251
 51
342.874517
  0
LINE
  5
3AF
100
AcDbEntity
  8
M0
  6
DASHDOT
 62
     6
100
AcDbLine
 10
189.327555
 20
453.103763
 11
201.763346
 21
453.103763
  0
CIRCLE
  5
3B0
100
AcDbEntity
  8
M0
100
AcDbCircle
 10
195.651392
 20
453.103763
 40
3.0
  0
LINE
  5
3B1
100
AcDbEntity
  8
M0
100
AcDbLine
 10
192.692408
 20
457.051029
 11
191.876246
 21
454.403812
  0
LINE
  5
3B2
100
AcDbEntity
  8
M0
100
AcDbLine
 10
192.692408
 20
449.156498
 11
191.876246
 21
451.803715
  0
LINE
  5
3B3
100
AcDbEntity
  8
M0
100
AcDbLine
 10
198.609888
 20
457.051029
 11
199.426295
 21
454.403812
  0
LINE
  5
3B4
100
AcDbEntity
  8
M0
100
AcDbLine
 10
198.609888
 20
449.156498
 11
199.426295
 21
451.803715
  0
LINE
  5
3B5
100
AcDbEntity
  8
M0
100
AcDbLine
 10
197.051295
 20
456.203617
 11
198.871363
 21
456.203617
  0
LINE
  5
3B6
100
AcDbEntity
  8
M0
100
AcDbLine
 10
197.972926
 20
455.003666
 11
199.241236
 21
455.003666
  0
LINE
  5
3B7
100
AcDbEntity
  8
M0
100
AcDbLine
 10
197.972926
 20
451.203617
 11
199.241236
 21
451.203617
  0
LINE
  5
3B8
100
AcDbEntity
  8
M0
100
AcDbLine
 10
194.251246
 20
456.203617
 11
192.431178
 21
456.203617
  0
LINE
  5
3B9
100
AcDbEntity
  8
M0
100
AcDbLine
 10
193.329615
 20
455.003666
 11
192.061304
 21
455.003666
  0
LINE
  5
3BA
100
AcDbEntity
  8
M0
100
AcDbLine
 10
193.329615
 20
451.203617
 11
192.061304
 21
451.203617
  0
LINE
  5
3BB
100
AcDbEntity
  8
M0
100
AcDbLine
 10
199.426295
 20
451.803715
 11
199.426295
 21
454.403812
  0
LINE
  5
3BC
100
AcDbEntity
  8
M0
100
AcDbLine
 10
198.132105
 20
457.403812
 11
193.170435
 21
457.403568
  0
LINE
  5
3BD
100
AcDbEntity
  8
M0
100
AcDbLine
 10
191.876246
 20
454.403812
 11
191.876246
 21
451.803715
  0
LINE
  5
3BE
100
AcDbEntity
  8
M0
100
AcDbLine
 10
197.051295
 20
455.757084
 11
197.051295
 21
456.203617
  0
LINE
  5
3BF
100
AcDbEntity
  8
M0
100
AcDbLine
 10
194.251246
 20
455.757084
 11
194.251246
 21
456.203617
  0
LINE
  5
3C0
100
AcDbEntity
  8
M0
100
AcDbLine
 10
197.241969
 20
451.512943
 11
194.060328
 21
454.694584
  0
LINE
  5
3C1
100
AcDbEntity
  8
M0
100
AcDbLine
 10
196.004664
 20
454.517826
 11
194.237086
 21
452.750248
  0
LINE
  5
3C2
100
AcDbEntity
  8
M0
100
AcDbLine
 10
197.065211
 20
453.457279
 11
195.297633
 21
451.689701
  0
ARC
  5
3C3
100
AcDbEntity
  8
M0
100
AcDbCircle
 10
193.170435
 20
456.903568
 40
0.5
100
AcDbArc
 50
90.0
 51
162.856778
  0
ARC
  5
3C4
100
AcDbEntity
  8
M0
100
AcDbCircle
 10
198.132105
 20
456.903568
 40
0.5
100
AcDbArc
 50
17.151452
 51
90.0
  0
LINE
  5
3C5
100
AcDbEntity
  8
M0
  6
DASHDOT
100
AcDbLine
 10
195.651408
 20
436.766941
 11
195.650782
 21
449.496464
  0
LINE
  5
3C6
100
AcDbEntity
  8
M0
100
AcDbLine
 10
197.05131
 20
440.504398
 11
198.871378
 21
440.504398
  0
LINE
  5
3C7
100
AcDbEntity
  8
M0
100
AcDbLine
 10
194.251261
 20
440.504398
 11
192.431193
 21
440.504398
  0
LINE
  5
3C8
100
AcDbEntity
  8
M0
100
AcDbLine
 10
193.170451
 20
439.304447
 11
198.13212
 21
439.304447
  0
LINE
  5
3C9
100
AcDbEntity
  8
M0
100
AcDbLine
 10
197.05131
 20
440.504398
 11
197.05131
 21
440.951176
  0
LINE
  5
3CA
100
AcDbEntity
  8
M0
100
AcDbLine
 10
194.251261
 20
440.504398
 11
194.251261
 21
440.951176
  0
ARC
  5
3CB
100
AcDbEntity
  8
M0
100
AcDbCircle
 10
193.170451
 20
439.804447
 40
0.5
100
AcDbArc
 50
197.11777
 51
269.998251
  0
ARC
  5
3CC
100
AcDbEntity
  8
M0
100
AcDbCircle
 10
198.13212
 20
439.804447
 40
0.5
100
AcDbArc
 50
269.998251
 51
342.874517
  0
LINE
  5
3CD
100
AcDbEntity
  8
M0
  6
DASHDOT
 62
     6
100
AcDbLine
 10
189.32757
 20
443.604496
 11
201.763361
 21
443.604496
  0
CIRCLE
  5
3CE
100
AcDbEntity
  8
M0
100
AcDbCircle
 10
195.651408
 20
443.604496
 40
3.0
  0
LINE
  5
3CF
100
AcDbEntity
  8
M0
100
AcDbLine
 10
192.692423
 20
447.551761
 11
191.876261
 21
444.904545
  0
LINE
  5
3D0
100
AcDbEntity
  8
M0
100
AcDbLine
 10
192.692423
 20
439.65723
 11
191.876261
 21
442.304447
  0
LINE
  5
3D1
100
AcDbEntity
  8
M0
100
AcDbLine
 10
198.609904
 20
447.551761
 11
199.42631
 21
444.904545
  0
LINE
  5
3D2
100
AcDbEntity
  8
M0
100
AcDbLine
 10
198.609904
 20
439.65723
 11
199.42631
 21
442.304447
  0
LINE
  5
3D3
100
AcDbEntity
  8
M0
100
AcDbLine
 10
197.05131
 20
446.704349
 11
198.871378
 21
446.704349
  0
LINE
  5
3D4
100
AcDbEntity
  8
M0
100
AcDbLine
 10
197.972941
 20
445.504398
 11
199.241251
 21
445.504398
  0
LINE
  5
3D5
100
AcDbEntity
  8
M0
100
AcDbLine
 10
197.972941
 20
441.704349
 11
199.241251
 21
441.704349
  0
LINE
  5
3D6
100
AcDbEntity
  8
M0
100
AcDbLine
 10
194.251261
 20
446.704349
 11
192.431193
 21
446.704349
  0
LINE
  5
3D7
100
AcDbEntity
  8
M0
100
AcDbLine
 10
193.32963
 20
445.504398
 11
192.06132
 21
445.504398
  0
LINE
  5
3D8
100
AcDbEntity
  8
M0
100
AcDbLine
 10
193.32963
 20
441.704349
 11
192.06132
 21
441.704349
  0
LINE
  5
3D9
100
AcDbEntity
  8
M0
100
AcDbLine
 10
199.42631
 20
442.304447
 11
199.42631
 21
444.904545
  0
LINE
  5
3DA
100
AcDbEntity
  8
M0
100
AcDbLine
 10
198.13212
 20
447.904545
 11
193.170451
 21
447.904301
  0
LINE
  5
3DB
100
AcDbEntity
  8
M0
100
AcDbLine
 10
191.876261
 20
444.904545
 11
191.876261
 21
442.304447
  0
LINE
  5
3DC
100
AcDbEntity
  8
M0
100
AcDbLine
 10
197.05131
 20
446.257816
 11
197.05131
 21
446.704349
  0
LINE
  5
3DD
100
AcDbEntity
  8
M0
100
AcDbLine
 10
194.251261
 20
446.257816
 11
194.251261
 21
446.704349
  0
LINE
  5
3DE
100
AcDbEntity
  8
M0
100
AcDbLine
 10
197.241984
 20
442.013676
 11
194.060343
 21
445.195316
  0
LINE
  5
3DF
100
AcDbEntity
  8
M0
100
AcDbLine
 10
196.004679
 20
445.018558
 11
194.237101
 21
443.25098
  0
LINE
  5
3E0
100
AcDbEntity
  8
M0
100
AcDbLine
 10
197.065226
 20
443.958011
 11
195.297648
 21
442.190433
  0
ARC
  5
3E1
100
AcDbEntity
  8
M0
100
AcDbCircle
 10
193.170451
 20
447.404301
 40
0.5
100
AcDbArc
 50
90.0
 51
162.856778
  0
ARC
  5
3E2
100
AcDbEntity
  8
M0
100
AcDbCircle
 10
198.13212
 20
447.404301
 40
0.5
100
AcDbArc
 50
17.151452
 51
90.0
  0
LINE
  5
3E3
100
AcDbEntity
  8
M0
  6
DASHDOT
 62
     6
100
AcDbLine
 10
187.827525
 20
493.603519
 11
200.263316
 21
493.603519
  0
CIRCLE
  5
3E4
100
AcDbEntity
  8
M0
100
AcDbCircle
 10
194.151362
 20
493.603519
 40
3.0
  0
LINE
  5
3E5
100
AcDbEntity
  8
M0
100
AcDbLine
 10
195.741938
 20
492.012699
 11
192.560297
 21
495.19434
  0
LINE
  5
3E6
100
AcDbEntity
  8
M0
100
AcDbLine
 10
194.504633
 20
495.017582
 11
192.737055
 21
493.250004
  0
LINE
  5
3E7
100
AcDbEntity
  8
M0
100
AcDbLine
 10
195.56518
 20
493.957035
 11
193.797602
 21
492.189457
  0
LINE
  5
3E8
100
AcDbEntity
  8
M0
  6
DASHDOT
100
AcDbLine
 10
113.151347
 20
426.766453
 11
113.150721
 21
439.495975
  0
LINE
  5
3E9
100
AcDbEntity
  8
M0
  6
DASHDOT
 62
     6
100
AcDbLine
 10
106.827509
 20
433.604008
 11
119.2633
 21
433.604008
  0
CIRCLE
  5
3EA
100
AcDbEntity
  8
M0
100
AcDbCircle
 10
113.151347
 20
433.604008
 40
3.0
  0
LINE
  5
3EB
100
AcDbEntity
  8
M0
100
AcDbLine
 10
114.741923
 20
432.013187
 11
111.560282
 21
435.194828
  0
LINE
  5
3EC
100
AcDbEntity
  8
M0
100
AcDbLine
 10
113.504618
 20
435.01807
 11
111.73704
 21
433.250492
  0
LINE
  5
3ED
100
AcDbEntity
  8
M0
100
AcDbLine
 10
114.565165
 20
433.957523
 11
112.797587
 21
432.189945
  0
CIRCLE
  5
3EE
100
AcDbEntity
  8
M0
100
AcDbCircle
 10
111.651163
 20
505.604023
 40
2.0
  0
LINE
  5
3EF
100
AcDbEntity
  8
M0
  6
DASHDOT
100
AcDbLine
 10
99.651163
 20
505.604023
 11
123.651163
 21
505.604023
  0
LINE
  5
3F0
100
AcDbEntity
  8
M0
  6
DASHDOT
100
AcDbLine
 10
111.651163
 20
493.604023
 11
111.651163
 21
517.604023
  0
LINE
  5
3F1
100
AcDbEntity
  8
M0
100
AcDbLine
 10
115.651163
 20
513.103535
 11
115.651163
 21
501.103535
  0
LINE
  5
3F2
100
AcDbEntity
  8
M0
100
AcDbLine
 10
107.651163
 20
513.103535
 11
107.651163
 21
501.103535
  0
LINE
  5
3F3
100
AcDbEntity
  8
M0
100
AcDbLine
 10
109.401163
 20
502.604023
 11
113.901163
 21
502.604023
  0
LINE
  5
3F4
100
AcDbEntity
  8
M0
100
AcDbLine
 10
114.401163
 20
509.604053
 11
114.401163
 21
503.104023
  0
LINE
  5
3F5
100
AcDbEntity
  8
M0
100
AcDbLine
 10
108.901163
 20
509.604053
 11
108.901163
 21
503.104023
  0
ARC
  5
3F6
100
AcDbEntity
  8
M0
100
AcDbCircle
 10
109.401163
 20
503.104023
 40
0.5
100
AcDbArc
 50
180.0
 51
269.998251
  0
ARC
  5
3F7
100
AcDbEntity
  8
M0
100
AcDbCircle
 10
113.901163
 20
503.104023
 40
0.5
100
AcDbArc
 50
269.998251
 51
360.0
  0
LINE
  5
3F8
100
AcDbEntity
  8
M0
100
AcDbLine
 10
107.651163
 20
509.604053
 11
115.651163
 21
509.604053
  0
LINE
  5
3F9
100
AcDbEntity
  8
M0
100
AcDbLine
 10
103.901163
 20
513.103535
 11
115.670924
 21
513.103535
  0
LINE
  5
3FA
100
AcDbEntity
  8
M0
100
AcDbLine
 10
103.901163
 20
513.103535
 11
115.670924
 21
513.103535
  0
LINE
  5
3FB
100
AcDbEntity
  8
M0
100
AcDbLine
 10
191.651163
 20
513.103535
 11
191.651163
 21
501.103535
  0
LINE
  5
3FC
100
AcDbEntity
  8
M0
100
AcDbLine
 10
199.651163
 20
513.103535
 11
199.651163
 21
501.103535
  0
LINE
  5
3FD
100
AcDbEntity
  8
M0
100
AcDbLine
 10
199.651163
 20
509.604053
 11
198.593378
 21
509.604053
  0
LINE
  5
3FE
100
AcDbEntity
  8
M0
  6
DASHDOT
100
AcDbLine
 10
195.651163
 20
493.604023
 11
195.651163
 21
517.604023
  0
LINE
  5
3FF
100
AcDbEntity
  8
M0
  6
DASHDOT
100
AcDbLine
 10
207.651163
 20
505.604023
 11
183.651163
 21
505.604023
  0
LINE
  5
400
100
AcDbEntity
  8
M0
100
AcDbLine
 10
203.401163
 20
513.103535
 11
191.631388
 21
513.103535
  0
LINE
  5
401
100
AcDbEntity
  8
M0
100
AcDbLine
 10
115.651163
 20
414.104511
 11
115.651163
 21
426.104511
  0
LINE
  5
402
100
AcDbEntity
  8
M0
100
AcDbLine
 10
107.651163
 20
414.104511
 11
107.651163
 21
426.104511
  0
LINE
  5
403
100
AcDbEntity
  8
M0
100
AcDbLine
 10
107.651163
 20
417.603992
 11
108.708445
 21
417.603992
  0
LINE
  5
404
100
AcDbEntity
  8
M0
  6
DASHDOT
100
AcDbLine
 10
111.651163
 20
433.604023
 11
111.651163
 21
409.604023
  0
LINE
  5
405
100
AcDbEntity
  8
M0
  6
DASHDOT
100
AcDbLine
 10
99.651163
 20
421.604023
 11
123.651163
 21
421.604023
  0
LINE
  5
406
100
AcDbEntity
  8
M0
100
AcDbLine
 10
103.901163
 20
414.104511
 11
115.670924
 21
414.104511
  0
LINE
  5
407
100
AcDbEntity
  8
M0
100
AcDbLine
 10
191.651163
 20
414.104511
 11
191.651163
 21
426.104511
  0
LINE
  5
408
100
AcDbEntity
  8
M0
100
AcDbLine
 10
199.651163
 20
414.104511
 11
199.651163
 21
426.104511
  0
LINE
  5
409
100
AcDbEntity
  8
M0
100
AcDbLine
 10
199.651163
 20
417.603992
 11
191.651163
 21
417.603992
  0
LINE
  5
40A
100
AcDbEntity
  8
M0
100
AcDbLine
 10
192.901163
 20
417.603992
 11
192.901163
 21
424.104023
  0
ARC
  5
40B
100
AcDbEntity
  8
M0
100
AcDbCircle
 10
193.401163
 20
424.104023
 40
0.5
100
AcDbArc
 50
90.0
 51
179.998251
  0
LINE
  5
40C
100
AcDbEntity
  8
M0
100
AcDbLine
 10
197.901163
 20
424.604023
 11
193.401163
 21
424.604023
  0
ARC
  5
40D
100
AcDbEntity
  8
M0
100
AcDbCircle
 10
197.901163
 20
424.104023
 40
0.5
100
AcDbArc
 50
0.0
 51
90.0
  0
LINE
  5
40E
100
AcDbEntity
  8
M0
100
AcDbLine
 10
198.401163
 20
417.603992
 11
198.401163
 21
424.104023
  0
LINE
  5
40F
100
AcDbEntity
  8
M0
100
AcDbLine
 10
203.401163
 20
414.104511
 11
191.631388
 21
414.104511
  0
LINE
  5
410
100
AcDbEntity
  8
M0
100
AcDbLine
 10
114.593378
 20
417.603992
 11
115.651163
 21
417.603992
  0
LINE
  5
411
100
AcDbEntity
  8
M0
100
AcDbLine
 10
192.708445
 20
509.604053
 11
191.651163
 21
509.604053
  0
LINE
  5
412
100
AcDbEntity
  8
M0
  6
DASHDOT
100
AcDbLine
 10
207.651163
 20
505.604023
 11
183.651163
 21
505.604023
  0
CIRCLE
  5
413
100
AcDbEntity
  8
M0
100
AcDbCircle
 10
195.651138
 20
421.604045
 40
2.0
  0
LINE
  5
414
100
AcDbEntity
  8
M0
  6
DASHDOT
100
AcDbLine
 10
207.651138
 20
421.604052
 11
183.651138
 21
421.604037
  0
LINE
  5
415
100
AcDbEntity
  8
M0
  6
DASHDOT
100
AcDbLine
 10
195.651131
 20
433.604045
 11
195.651146
 21
409.604045
  0
LINE
  5
416
100
AcDbEntity
  8
M0
  6
DASHDOT
100
AcDbLine
 10
99.651138
 20
421.604037
 11
123.651138
 21
421.604052
  0
LINE
  5
417
100
AcDbEntity
  8
M0
  6
DASHDOT
100
AcDbLine
 10
111.651131
 20
433.604045
 11
111.651146
 21
409.604045
  0
LINE
  5
418
100
AcDbEntity
  8
M0
  6
DASHDOT
100
AcDbLine
 10
111.651179
 20
414.766453
 11
111.650553
 21
427.495975
  0
LINE
  5
419
100
AcDbEntity
  8
M0
100
AcDbLine
 10
113.051081
 20
418.50391
 11
114.871149
 21
418.50391
  0
LINE
  5
41A
100
AcDbEntity
  8
M0
100
AcDbLine
 10
110.251032
 20
418.50391
 11
108.430964
 21
418.50391
  0
LINE
  5
41B
100
AcDbEntity
  8
M0
100
AcDbLine
 10
109.170222
 20
417.303959
 11
114.131892
 21
417.303959
  0
LINE
  5
41C
100
AcDbEntity
  8
M0
100
AcDbLine
 10
113.051081
 20
418.50391
 11
113.051081
 21
418.950687
  0
LINE
  5
41D
100
AcDbEntity
  8
M0
100
AcDbLine
 10
110.251032
 20
418.50391
 11
110.251032
 21
418.950687
  0
ARC
  5
41E
100
AcDbEntity
  8
M0
100
AcDbCircle
 10
109.170222
 20
417.803959
 40
0.5
100
AcDbArc
 50
197.11777
 51
269.998251
  0
ARC
  5
41F
100
AcDbEntity
  8
M0
100
AcDbCircle
 10
114.131892
 20
417.803959
 40
0.5
100
AcDbArc
 50
269.998251
 51
342.874517
  0
LINE
  5
420
100
AcDbEntity
  8
M0
  6
DASHDOT
 62
     6
100
AcDbLine
 10
105.327341
 20
421.604008
 11
117.763132
 21
421.604008
  0
CIRCLE
  5
421
100
AcDbEntity
  8
M0
100
AcDbCircle
 10
111.651179
 20
421.604008
 40
3.0
  0
LINE
  5
422
100
AcDbEntity
  8
M0
100
AcDbLine
 10
108.692194
 20
425.551273
 11
107.876032
 21
422.904056
  0
LINE
  5
423
100
AcDbEntity
  8
M0
100
AcDbLine
 10
108.692194
 20
417.656742
 11
107.876032
 21
420.303959
  0
LINE
  5
424
100
AcDbEntity
  8
M0
100
AcDbLine
 10
114.609675
 20
425.551273
 11
115.426081
 21
422.904056
  0
LINE
  5
425
100
AcDbEntity
  8
M0
100
AcDbLine
 10
114.609675
 20
417.656742
 11
115.426081
 21
420.303959
  0
LINE
  5
426
100
AcDbEntity
  8
M0
100
AcDbLine
 10
113.051081
 20
424.703861
 11
114.871149
 21
424.703861
  0
LINE
  5
427
100
AcDbEntity
  8
M0
100
AcDbLine
 10
113.972712
 20
423.50391
 11
115.241022
 21
423.50391
  0
LINE
  5
428
100
AcDbEntity
  8
M0
100
AcDbLine
 10
113.972712
 20
419.703861
 11
115.241022
 21
419.703861
  0
LINE
  5
429
100
AcDbEntity
  8
M0
100
AcDbLine
 10
110.251032
 20
424.703861
 11
108.430964
 21
424.703861
  0
LINE
  5
42A
100
AcDbEntity
  8
M0
100
AcDbLine
 10
109.329401
 20
423.50391
 11
108.061091
 21
423.50391
  0
LINE
  5
42B
100
AcDbEntity
  8
M0
100
AcDbLine
 10
109.329401
 20
419.703861
 11
108.061091
 21
419.703861
  0
LINE
  5
42C
100
AcDbEntity
  8
M0
100
AcDbLine
 10
115.426081
 20
420.303959
 11
115.426081
 21
422.904056
  0
LINE
  5
42D
100
AcDbEntity
  8
M0
100
AcDbLine
 10
114.131892
 20
425.904056
 11
109.170222
 21
425.903812
  0
LINE
  5
42E
100
AcDbEntity
  8
M0
100
AcDbLine
 10
107.876032
 20
422.904056
 11
107.876032
 21
420.303959
  0
LINE
  5
42F
100
AcDbEntity
  8
M0
100
AcDbLine
 10
113.051081
 20
424.257328
 11
113.051081
 21
424.703861
  0
LINE
  5
430
100
AcDbEntity
  8
M0
100
AcDbLine
 10
110.251032
 20
424.257328
 11
110.251032
 21
424.703861
  0
LINE
  5
431
100
AcDbEntity
  8
M0
100
AcDbLine
 10
113.241755
 20
420.013187
 11
110.060114
 21
423.194828
  0
LINE
  5
432
100
AcDbEntity
  8
M0
100
AcDbLine
 10
112.00445
 20
423.01807
 11
110.236872
 21
421.250492
  0
LINE
  5
433
100
AcDbEntity
  8
M0
100
AcDbLine
 10
113.064997
 20
421.957523
 11
111.297419
 21
420.189945
  0
ARC
  5
434
100
AcDbEntity
  8
M0
100
AcDbCircle
 10
109.170222
 20
425.403812
 40
0.5
100
AcDbArc
 50
90.0
 51
162.856778
  0
ARC
  5
435
100
AcDbEntity
  8
M0
100
AcDbCircle
 10
114.131892
 20
425.403812
 40
0.5
100
AcDbArc
 50
17.151452
 51
90.0
  0
LINE
  5
436
100
AcDbEntity
  8
M0
100
AcDbLine
 10
197.051081
 20
502.50391
 11
198.871149
 21
502.50391
  0
LINE
  5
437
100
AcDbEntity
  8
M0
100
AcDbLine
 10
194.251032
 20
502.50391
 11
192.430964
 21
502.50391
  0
LINE
  5
438
100
AcDbEntity
  8
M0
100
AcDbLine
 10
193.170222
 20
501.303959
 11
198.131892
 21
501.303959
  0
LINE
  5
439
100
AcDbEntity
  8
M0
100
AcDbLine
 10
197.051081
 20
502.50391
 11
197.051081
 21
502.950687
  0
LINE
  5
43A
100
AcDbEntity
  8
M0
100
AcDbLine
 10
194.251032
 20
502.50391
 11
194.251032
 21
502.950687
  0
ARC
  5
43B
100
AcDbEntity
  8
M0
100
AcDbCircle
 10
193.170222
 20
501.803959
 40
0.5
100
AcDbArc
 50
197.11777
 51
269.998251
  0
ARC
  5
43C
100
AcDbEntity
  8
M0
100
AcDbCircle
 10
198.131892
 20
501.803959
 40
0.5
100
AcDbArc
 50
269.998251
 51
342.874517
  0
CIRCLE
  5
43D
100
AcDbEntity
  8
M0
100
AcDbCircle
 10
195.651179
 20
505.604008
 40
3.0
  0
LINE
  5
43E
100
AcDbEntity
  8
M0
100
AcDbLine
 10
192.692194
 20
509.551273
 11
191.876032
 21
506.904056
  0
LINE
  5
43F
100
AcDbEntity
  8
M0
100
AcDbLine
 10
192.692194
 20
501.656742
 11
191.876032
 21
504.303959
  0
LINE
  5
440
100
AcDbEntity
  8
M0
100
AcDbLine
 10
198.609675
 20
509.551273
 11
199.426081
 21
506.904056
  0
LINE
  5
441
100
AcDbEntity
  8
M0
100
AcDbLine
 10
198.609675
 20
501.656742
 11
199.426081
 21
504.303959
  0
LINE
  5
442
100
AcDbEntity
  8
M0
100
AcDbLine
 10
197.051081
 20
508.703861
 11
198.871149
 21
508.703861
  0
LINE
  5
443
100
AcDbEntity
  8
M0
100
AcDbLine
 10
197.972712
 20
507.50391
 11
199.241022
 21
507.50391
  0
LINE
  5
444
100
AcDbEntity
  8
M0
100
AcDbLine
 10
197.972712
 20
503.703861
 11
199.241022
 21
503.703861
  0
LINE
  5
445
100
AcDbEntity
  8
M0
100
AcDbLine
 10
194.251032
 20
508.703861
 11
192.430964
 21
508.703861
  0
LINE
  5
446
100
AcDbEntity
  8
M0
100
AcDbLine
 10
193.329401
 20
507.50391
 11
192.061091
 21
507.50391
  0
LINE
  5
447
100
AcDbEntity
  8
M0
100
AcDbLine
 10
193.329401
 20
503.703861
 11
192.061091
 21
503.703861
  0
LINE
  5
448
100
AcDbEntity
  8
M0
100
AcDbLine
 10
199.426081
 20
504.303959
 11
199.426081
 21
506.904056
  0
LINE
  5
449
100
AcDbEntity
  8
M0
100
AcDbLine
 10
198.131892
 20
509.904056
 11
193.170222
 21
509.903812
  0
LINE
  5
44A
100
AcDbEntity
  8
M0
100
AcDbLine
 10
191.876032
 20
506.904056
 11
191.876032
 21
504.303959
  0
LINE
  5
44B
100
AcDbEntity
  8
M0
100
AcDbLine
 10
197.051081
 20
508.257328
 11
197.051081
 21
508.703861
  0
LINE
  5
44C
100
AcDbEntity
  8
M0
100
AcDbLine
 10
194.251032
 20
508.257328
 11
194.251032
 21
508.703861
  0
LINE
  5
44D
100
AcDbEntity
  8
M0
100
AcDbLine
 10
197.241755
 20
504.013187
 11
194.060114
 21
507.194828
  0
LINE
  5
44E
100
AcDbEntity
  8
M0
100
AcDbLine
 10
196.00445
 20
507.01807
 11
194.236872
 21
505.250492
  0
LINE
  5
44F
100
AcDbEntity
  8
M0
100
AcDbLine
 10
197.064997
 20
505.957523
 11
195.297419
 21
504.189945
  0
ARC
  5
450
100
AcDbEntity
  8
M0
100
AcDbCircle
 10
193.170222
 20
509.403812
 40
0.5
100
AcDbArc
 50
90.0
 51
162.856778
  0
ARC
  5
451
100
AcDbEntity
  8
M0
100
AcDbCircle
 10
198.131892
 20
509.403812
 40
0.5
100
AcDbArc
 50
17.151452
 51
90.0
  0
CIRCLE
  5
452
100
AcDbEntity
  8
M0
 62
     7
100
AcDbCircle
 10
120.651133
 20
523.604023
 40
5.25
  0
LINE
  5
453
100
AcDbEntity
  8
M0
 62
     7
100
AcDbLine
 10
121.251124
 20
523.003925
 11
125.866709
 21
523.003925
  0
LINE
  5
454
100
AcDbEntity
  8
M0
 62
     7
100
AcDbLine
 10
115.435542
 20
523.003925
 11
120.051127
 21
523.003925
  0
LINE
  5
455
100
AcDbEntity
  8
M0
 62
     7
100
AcDbLine
 10
120.051127
 20
524.203861
 11
115.435511
 21
524.203861
  0
LINE
  5
456
100
AcDbEntity
  8
M0
 62
     7
100
AcDbLine
 10
125.86674
 20
524.203876
 11
121.251124
 21
524.203861
  0
LINE
  5
457
100
AcDbEntity
  8
M0
 62
     7
100
AcDbLine
 10
121.251124
 20
524.203876
 11
121.251124
 21
526.703876
  0
LINE
  5
458
100
AcDbEntity
  8
M0
 62
     7
100
AcDbLine
 10
121.251124
 20
520.503925
 11
121.251124
 21
523.003925
  0
LINE
  5
459
100
AcDbEntity
  8
M0
 62
     7
100
AcDbLine
 10
120.051127
 20
523.003925
 11
120.051127
 21
520.503925
  0
LINE
  5
45A
100
AcDbEntity
  8
M0
 62
     7
100
AcDbLine
 10
120.051127
 20
526.703876
 11
120.051127
 21
524.203876
  0
LINE
  5
45B
100
AcDbEntity
  8
M0
 62
     7
100
AcDbLine
 10
120.051127
 20
520.503925
 11
121.251124
 21
520.503925
  0
LINE
  5
45C
100
AcDbEntity
  8
M0
 62
     7
100
AcDbLine
 10
121.251124
 20
526.703876
 11
120.051127
 21
526.703876
  0
LINE
  5
45D
100
AcDbEntity
  8
M0
  6
DASHDOT
 62
     7
100
AcDbLine
 10
127.901133
 20
523.604023
 11
113.401133
 21
523.604023
  0
LINE
  5
45E
100
AcDbEntity
  8
M0
  6
DASHDOT
 62
     7
100
AcDbLine
 10
120.651118
 20
530.854023
 11
120.651133
 21
516.354023
  0
CIRCLE
  5
45F
100
AcDbEntity
  8
M0
 62
     7
100
AcDbCircle
 10
153.651163
 20
523.604023
 40
5.25
  0
LINE
  5
460
100
AcDbEntity
  8
M0
 62
     7
100
AcDbLine
 10
154.251154
 20
523.003925
 11
158.86674
 21
523.003925
  0
LINE
  5
461
100
AcDbEntity
  8
M0
 62
     7
100
AcDbLine
 10
148.435572
 20
523.003925
 11
153.051157
 21
523.003925
  0
LINE
  5
462
100
AcDbEntity
  8
M0
 62
     7
100
AcDbLine
 10
153.051157
 20
524.203861
 11
148.435542
 21
524.203861
  0
LINE
  5
463
100
AcDbEntity
  8
M0
 62
     7
100
AcDbLine
 10
158.86677
 20
524.203876
 11
154.251154
 21
524.203861
  0
LINE
  5
464
100
AcDbEntity
  8
M0
 62
     7
100
AcDbLine
 10
154.251154
 20
524.203876
 11
154.251154
 21
526.703876
  0
LINE
  5
465
100
AcDbEntity
  8
M0
 62
     7
100
AcDbLine
 10
154.251154
 20
520.503925
 11
154.251154
 21
523.003925
  0
LINE
  5
466
100
AcDbEntity
  8
M0
 62
     7
100
AcDbLine
 10
153.051157
 20
523.003925
 11
153.051157
 21
520.503925
  0
LINE
  5
467
100
AcDbEntity
  8
M0
 62
     7
100
AcDbLine
 10
153.051157
 20
526.703876
 11
153.051157
 21
524.203876
  0
LINE
  5
468
100
AcDbEntity
  8
M0
 62
     7
100
AcDbLine
 10
153.051157
 20
520.503925
 11
154.251154
 21
520.503925
  0
LINE
  5
469
100
AcDbEntity
  8
M0
 62
     7
100
AcDbLine
 10
154.251154
 20
526.703876
 11
153.051157
 21
526.703876
  0
CIRCLE
  5
46A
100
AcDbEntity
  8
M0
 62
     7
100
AcDbCircle
 10
186.651163
 20
523.604023
 40
5.25
  0
LINE
  5
46B
100
AcDbEntity
  8
M0
 62
     7
100
AcDbLine
 10
187.251154
 20
523.003925
 11
191.86674
 21
523.003925
  0
LINE
  5
46C
100
AcDbEntity
  8
M0
 62
     7
100
AcDbLine
 10
181.435572
 20
523.003925
 11
186.051157
 21
523.003925
  0
LINE
  5
46D
100
AcDbEntity
  8
M0
 62
     7
100
AcDbLine
 10
186.051157
 20
524.203861
 11
181.435542
 21
524.203861
  0
LINE
  5
46E
100
AcDbEntity
  8
M0
 62
     7
100
AcDbLine
 10
191.86677
 20
524.203876
 11
187.251154
 21
524.203861
  0
LINE
  5
46F
100
AcDbEntity
  8
M0
 62
     7
100
AcDbLine
 10
187.251154
 20
524.203876
 11
187.251154
 21
526.703876
  0
LINE
  5
470
100
AcDbEntity
  8
M0
 62
     7
100
AcDbLine
 10
187.251154
 20
520.503925
 11
187.251154
 21
523.003925
  0
LINE
  5
471
100
AcDbEntity
  8
M0
 62
     7
100
AcDbLine
 10
186.051157
 20
523.003925
 11
186.051157
 21
520.503925
  0
LINE
  5
472
100
AcDbEntity
  8
M0
 62
     7
100
AcDbLine
 10
186.051157
 20
526.703876
 11
186.051157
 21
524.203876
  0
LINE
  5
473
100
AcDbEntity
  8
M0
 62
     7
100
AcDbLine
 10
186.051157
 20
520.503925
 11
187.251154
 21
520.503925
  0
LINE
  5
474
100
AcDbEntity
  8
M0
 62
     7
100
AcDbLine
 10
187.251154
 20
526.703876
 11
186.051157
 21
526.703876
  0
LINE
  5
475
100
AcDbEntity
  8
M0
  6
DASHDOT
 62
     7
100
AcDbLine
 10
193.901163
 20
523.604023
 11
179.401163
 21
523.604023
  0
LINE
  5
476
100
AcDbEntity
  8
M0
  6
DASHDOT
 62
     7
100
AcDbLine
 10
186.651148
 20
530.854023
 11
186.651163
 21
516.354023
  0
CIRCLE
  5
477
100
AcDbEntity
  8
M0
 62
     7
100
AcDbCircle
 10
186.651163
 20
403.604023
 40
5.25
  0
LINE
  5
478
100
AcDbEntity
  8
M0
 62
     7
100
AcDbLine
 10
187.251154
 20
403.003925
 11
191.86674
 21
403.003925
  0
LINE
  5
479
100
AcDbEntity
  8
M0
 62
     7
100
AcDbLine
 10
181.435572
 20
403.003925
 11
186.051157
 21
403.003925
  0
LINE
  5
47A
100
AcDbEntity
  8
M0
 62
     7
100
AcDbLine
 10
186.051157
 20
404.203861
 11
181.435542
 21
404.203861
  0
LINE
  5
47B
100
AcDbEntity
  8
M0
 62
     7
100
AcDbLine
 10
191.86677
 20
404.203876
 11
187.251154
 21
404.203861
  0
LINE
  5
47C
100
AcDbEntity
  8
M0
 62
     7
100
AcDbLine
 10
187.251154
 20
404.203876
 11
187.251154
 21
406.703876
  0
LINE
  5
47D
100
AcDbEntity
  8
M0
 62
     7
100
AcDbLine
 10
187.251154
 20
400.503925
 11
187.251154
 21
403.003925
  0
LINE
  5
47E
100
AcDbEntity
  8
M0
 62
     7
100
AcDbLine
 10
186.051157
 20
403.003925
 11
186.051157
 21
400.503925
  0
LINE
  5
47F
100
AcDbEntity
  8
M0
 62
     7
100
AcDbLine
 10
186.051157
 20
406.703876
 11
186.051157
 21
404.203876
  0
LINE
  5
480
100
AcDbEntity
  8
M0
 62
     7
100
AcDbLine
 10
186.051157
 20
400.503925
 11
187.251154
 21
400.503925
  0
LINE
  5
481
100
AcDbEntity
  8
M0
 62
     7
100
AcDbLine
 10
187.251154
 20
406.703876
 11
186.051157
 21
406.703876
  0
LINE
  5
482
100
AcDbEntity
  8
M0
  6
DASHDOT
 62
     7
100
AcDbLine
 10
193.901163
 20
403.604023
 11
179.401163
 21
403.604023
  0
LINE
  5
483
100
AcDbEntity
  8
M0
  6
DASHDOT
 62
     7
100
AcDbLine
 10
186.651148
 20
410.854023
 11
186.651163
 21
396.354023
  0
CIRCLE
  5
484
100
AcDbEntity
  8
M0
 62
     7
100
AcDbCircle
 10
153.651163
 20
403.604023
 40
5.25
  0
LINE
  5
485
100
AcDbEntity
  8
M0
 62
     7
100
AcDbLine
 10
154.251154
 20
403.003925
 11
158.86674
 21
403.003925
  0
LINE
  5
486
100
AcDbEntity
  8
M0
 62
     7
100
AcDbLine
 10
148.435572
 20
403.003925
 11
153.051157
 21
403.003925
  0
LINE
  5
487
100
AcDbEntity
  8
M0
 62
     7
100
AcDbLine
 10
153.051157
 20
404.203861
 11
148.435542
 21
404.203861
  0
LINE
  5
488
100
AcDbEntity
  8
M0
 62
     7
100
AcDbLine
 10
158.86677
 20
404.203876
 11
154.251154
 21
404.203861
  0
LINE
  5
489
100
AcDbEntity
  8
M0
 62
     7
100
AcDbLine
 10
154.251154
 20
404.203876
 11
154.251154
 21
406.703876
  0
LINE
  5
48A
100
AcDbEntity
  8
M0
 62
     7
100
AcDbLine
 10
154.251154
 20
400.503925
 11
154.251154
 21
403.003925
  0
LINE
  5
48B
100
AcDbEntity
  8
M0
 62
     7
100
AcDbLine
 10
153.051157
 20
403.003925
 11
153.051157
 21
400.503925
  0
LINE
  5
48C
100
AcDbEntity
  8
M0
 62
     7
100
AcDbLine
 10
153.051157
 20
406.703876
 11
153.051157
 21
404.203876
  0
LINE
  5
48D
100
AcDbEntity
  8
M0
 62
     7
100
AcDbLine
 10
153.051157
 20
400.503925
 11
154.251154
 21
400.503925
  0
LINE
  5
48E
100
AcDbEntity
  8
M0
 62
     7
100
AcDbLine
 10
154.251154
 20
406.703876
 11
153.051157
 21
406.703876
  0
CIRCLE
  5
48F
100
AcDbEntity
  8
M0
 62
     7
100
AcDbCircle
 10
120.651133
 20
403.604023
 40
5.25
  0
LINE
  5
490
100
AcDbEntity
  8
M0
 62
     7
100
AcDbLine
 10
121.251124
 20
403.003925
 11
125.866709
 21
403.003925
  0
LINE
  5
491
100
AcDbEntity
  8
M0
 62
     7
100
AcDbLine
 10
115.435542
 20
403.003925
 11
120.051127
 21
403.003925
  0
LINE
  5
492
100
AcDbEntity
  8
M0
 62
     7
100
AcDbLine
 10
120.051127
 20
404.203861
 11
115.435511
 21
404.203861
  0
LINE
  5
493
100
AcDbEntity
  8
M0
 62
     7
100
AcDbLine
 10
125.86674
 20
404.203876
 11
121.251124
 21
404.203861
  0
LINE
  5
494
100
AcDbEntity
  8
M0
 62
     7
100
AcDbLine
 10
121.251124
 20
404.203876
 11
121.251124
 21
406.703876
  0
LINE
  5
495
100
AcDbEntity
  8
M0
 62
     7
100
AcDbLine
 10
121.251124
 20
400.503925
 11
121.251124
 21
403.003925
  0
LINE
  5
496
100
AcDbEntity
  8
M0
 62
     7
100
AcDbLine
 10
120.051127
 20
403.003925
 11
120.051127
 21
400.503925
  0
LINE
  5
497
100
AcDbEntity
  8
M0
 62
     7
100
AcDbLine
 10
120.051127
 20
406.703876
 11
120.051127
 21
404.203876
  0
LINE
  5
498
100
AcDbEntity
  8
M0
 62
     7
100
AcDbLine
 10
120.051127
 20
400.503925
 11
121.251124
 21
400.503925
  0
LINE
  5
499
100
AcDbEntity
  8
M0
 62
     7
100
AcDbLine
 10
121.251124
 20
406.703876
 11
120.051127
 21
406.703876
  0
LINE
  5
49A
100
AcDbEntity
  8
M0
  6
DASHDOT
 62
     7
100
AcDbLine
 10
127.901133
 20
403.604023
 11
113.401133
 21
403.604023
  0
LINE
  5
49B
100
AcDbEntity
  8
M0
  6
DASHDOT
 62
     7
100
AcDbLine
 10
120.651118
 20
410.854023
 11
120.651133
 21
396.354023
  0
ARC
  5
49C
100
AcDbEntity
  8
M0
100
AcDbCircle
 10
329.821611
 20
403.604023
 40
14.0
100
AcDbArc
 50
182.455684
 51
196.072605
  0
ARC
  5
49D
100
AcDbEntity
  8
M0
100
AcDbCircle
 10
329.821611
 20
403.604023
 40
14.0
100
AcDbArc
 50
163.926409
 51
177.543315
  0
LINE
  5
49E
100
AcDbEntity
  8
M0
100
AcDbLine
 10
317.93448
 20
403.004169
 11
315.834474
 21
403.004169
  0
LINE
  5
49F
100
AcDbEntity
  8
M0
100
AcDbLine
 10
317.93448
 20
404.20412
 11
317.93448
 21
403.004169
  0
LINE
  5
4A0
100
AcDbEntity
  8
M0
100
AcDbLine
 10
315.834474
 20
404.20412
 11
317.93448
 21
404.20412
  0
ARC
  5
4A1
100
AcDbEntity
  8
M0
100
AcDbCircle
 10
318.194597
 20
400.254169
 40
1.9
100
AcDbArc
 50
196.075598
 51
269.99954
  0
LINE
  5
4A2
100
AcDbEntity
  8
M0
100
AcDbLine
 10
318.194597
 20
398.354023
 11
319.72162
 21
398.354023
  0
ARC
  5
4A3
100
AcDbEntity
  8
M0
100
AcDbCircle
 10
318.194597
 20
406.95412
 40
1.9
100
AcDbArc
 50
90.0
 51
163.924845
  0
LINE
  5
4A4
100
AcDbEntity
  8
M0
100
AcDbLine
 10
319.72162
 20
408.854023
 11
318.194597
 21
408.854023
  0
LINE
  5
4A5
100
AcDbEntity
  8
M0
100
AcDbLine
 10
319.72162
 20
398.354023
 11
319.72162
 21
408.854023
  0
LINE
  5
4A6
100
AcDbEntity
  8
M0
  6
DASHDOT
100
AcDbLine
 10
313.466569
 20
403.604023
 11
335.384492
 21
403.604023
  0
LINE
  5
4A7
100
AcDbEntity
  8
M0
100
AcDbLine
 10
333.72162
 20
400.604023
 11
333.72162
 21
406.604023
  0
LINE
  5
4A8
100
AcDbEntity
  8
M0
100
AcDbLine
 10
333.72162
 20
406.604023
 11
325.421617
 21
406.604023
  0
LINE
  5
4A9
100
AcDbEntity
  8
M0
100
AcDbLine
 10
325.421617
 20
406.104023
 11
333.72162
 21
406.104023
  0
LINE
  5
4AA
100
AcDbEntity
  8
M0
100
AcDbLine
 10
325.421617
 20
401.104023
 11
333.72162
 21
401.104023
  0
LINE
  5
4AB
100
AcDbEntity
  8
M0
100
AcDbLine
 10
325.421617
 20
400.604023
 11
333.72162
 21
400.604023
  0
LINE
  5
4AC
100
AcDbEntity
  8
M0
100
AcDbLine
 10
321.22162
 20
397.104023
 11
322.22162
 21
397.104023
  0
LINE
  5
4AD
100
AcDbEntity
  8
M0
100
AcDbLine
 10
322.22162
 20
397.104023
 11
322.22162
 21
410.104023
  0
LINE
  5
4AE
100
AcDbEntity
  8
M0
100
AcDbLine
 10
322.22162
 20
410.104023
 11
321.22162
 21
410.104023
  0
LINE
  5
4AF
100
AcDbEntity
  8
M0
100
AcDbLine
 10
321.22162
 20
410.104023
 11
321.22162
 21
397.104023
  0
LINE
  5
4B0
100
AcDbEntity
  8
M0
  6
DASHDOT
100
AcDbLine
 10
318.221605
 20
403.604008
 11
325.22162
 21
403.604023
  0
LINE
  5
4B1
100
AcDbEntity
  8
M0
100
AcDbLine
 10
319.72162
 20
397.504017
 11
321.22162
 21
397.504017
  0
LINE
  5
4B2
100
AcDbEntity
  8
M0
100
AcDbLine
 10
321.22162
 20
397.504017
 11
321.22162
 21
409.704014
  0
LINE
  5
4B3
100
AcDbEntity
  8
M0
100
AcDbLine
 10
321.22162
 20
409.704014
 11
319.72162
 21
409.704014
  0
LINE
  5
4B4
100
AcDbEntity
  8
M0
100
AcDbLine
 10
319.72162
 20
409.704014
 11
319.72162
 21
397.504017
  0
LINE
  5
4B5
100
AcDbEntity
  8
M0
  6
DASHDOT
100
AcDbLine
 10
314.72162
 20
403.604023
 11
326.22162
 21
403.604023
  0
LINE
  5
4B6
100
AcDbEntity
  8
M0
100
AcDbLine
 10
319.72162
 20
403.603992
 11
321.22162
 21
402.73798
  0
LINE
  5
4B7
100
AcDbEntity
  8
M0
100
AcDbLine
 10
319.72162
 20
404.47002
 11
321.22162
 21
403.604008
  0
ARC
  5
4B8
100
AcDbEntity
  8
M0
100
AcDbCircle
 10
330.321586
 20
522.640687
 40
14.0
100
AcDbArc
 50
163.927431
 51
177.544352
  0
ARC
  5
4B9
100
AcDbEntity
  8
M0
100
AcDbCircle
 10
330.321586
 20
522.640687
 40
14.0
100
AcDbArc
 50
182.456721
 51
196.073687
  0
LINE
  5
4BA
100
AcDbEntity
  8
M0
100
AcDbLine
 10
318.434455
 20
523.240533
 11
316.334449
 21
523.240531
  0
LINE
  5
4BB
100
AcDbEntity
  8
M0
100
AcDbLine
 10
318.434455
 20
522.040582
 11
318.434455
 21
523.240533
  0
LINE
  5
4BC
100
AcDbEntity
  8
M0
100
AcDbLine
 10
316.334449
 20
522.04058
 11
318.434455
 21
522.040582
  0
ARC
  5
4BD
100
AcDbEntity
  8
M0
100
AcDbCircle
 10
318.69457
 20
525.990533
 40
1.9
100
AcDbArc
 50
90.0
 51
163.924881
  0
LINE
  5
4BE
100
AcDbEntity
  8
M0
100
AcDbLine
 10
318.694568
 20
527.890679
 11
320.221592
 21
527.89068
  0
ARC
  5
4BF
100
AcDbEntity
  8
M0
100
AcDbCircle
 10
318.694574
 20
519.290582
 40
1.9
100
AcDbArc
 50
196.075634
 51
269.999576
  0
LINE
  5
4C0
100
AcDbEntity
  8
M0
100
AcDbLine
 10
320.221598
 20
517.39068
 11
318.694575
 21
517.390679
  0
LINE
  5
4C1
100
AcDbEntity
  8
M0
100
AcDbLine
 10
320.221592
 20
527.89068
 11
320.221598
 21
517.39068
  0
LINE
  5
4C2
100
AcDbEntity
  8
M0
  6
DASHDOT
100
AcDbLine
 10
313.966544
 20
522.640676
 11
335.884467
 21
522.64069
  0
LINE
  5
4C3
100
AcDbEntity
  8
M0
100
AcDbLine
 10
334.221593
 20
525.640689
 11
334.221597
 21
519.640689
  0
LINE
  5
4C4
100
AcDbEntity
  8
M0
100
AcDbLine
 10
334.221597
 20
519.640689
 11
325.921594
 21
519.640684
  0
LINE
  5
4C5
100
AcDbEntity
  8
M0
100
AcDbLine
 10
325.921594
 20
520.140684
 11
334.221597
 21
520.140689
  0
LINE
  5
4C6
100
AcDbEntity
  8
M0
100
AcDbLine
 10
325.92159
 20
525.140684
 11
334.221593
 21
525.140689
  0
LINE
  5
4C7
100
AcDbEntity
  8
M0
100
AcDbLine
 10
325.92159
 20
525.640684
 11
334.221593
 21
525.640689
  0
LINE
  5
4C8
100
AcDbEntity
  8
M0
100
AcDbLine
 10
321.721591
 20
529.140681
 11
322.721591
 21
529.140682
  0
LINE
  5
4C9
100
AcDbEntity
  8
M0
100
AcDbLine
 10
322.721591
 20
529.140682
 11
322.721599
 21
516.140682
  0
LINE
  5
4CA
100
AcDbEntity
  8
M0
100
AcDbLine
 10
322.721599
 20
516.140682
 11
321.721599
 21
516.140681
  0
LINE
  5
4CB
100
AcDbEntity
  8
M0
100
AcDbLine
 10
321.721599
 20
516.140681
 11
321.721591
 21
529.140681
  0
LINE
  5
4CC
100
AcDbEntity
  8
M0
  6
DASHDOT
100
AcDbLine
 10
318.72158
 20
522.640695
 11
325.721595
 21
522.640684
  0
LINE
  5
4CD
100
AcDbEntity
  8
M0
100
AcDbLine
 10
320.221591
 20
528.740687
 11
321.721591
 21
528.740687
  0
LINE
  5
4CE
100
AcDbEntity
  8
M0
100
AcDbLine
 10
321.721591
 20
528.740687
 11
321.721599
 21
516.540691
  0
LINE
  5
4CF
100
AcDbEntity
  8
M0
100
AcDbLine
 10
321.721599
 20
516.540691
 11
320.221599
 21
516.54069
  0
LINE
  5
4D0
100
AcDbEntity
  8
M0
100
AcDbLine
 10
320.221599
 20
516.54069
 11
320.221591
 21
528.740687
  0
LINE
  5
4D1
100
AcDbEntity
  8
M0
  6
DASHDOT
100
AcDbLine
 10
315.221595
 20
522.640677
 11
326.721595
 21
522.640684
  0
LINE
  5
4D2
100
AcDbEntity
  8
M0
100
AcDbLine
 10
320.221595
 20
522.640711
 11
321.721594
 21
523.506724
  0
LINE
  5
4D3
100
AcDbEntity
  8
M0
100
AcDbLine
 10
320.221596
 20
521.774683
 11
321.721595
 21
522.640697
  0
ARC
  5
4D4
100
AcDbEntity
  8
M0
  6
DIVIDE
100
AcDbCircle
 10
110.901158
 20
284.814607
 40
7.000001
100
AcDbArc
 50
92.046839
 51
180.0
  0
LINE
  5
4D5
100
AcDbEntity
  8
M0
  6
DIVIDE
100
AcDbLine
 10
110.651127
 20
291.810152
 11
110.651127
 21
297.814654
  0
LINE
  5
4D6
100
AcDbEntity
  8
M0
  6
DIVIDE
100
AcDbLine
 10
110.651127
 20
297.814654
 11
130.65113
 21
297.814654
  0
LINE
  5
4D7
100
AcDbEntity
  8
M0
  6
DIVIDE
100
AcDbLine
 10
130.65113
 20
297.814654
 11
130.65113
 21
283.814653
  0
LINE
  5
4D8
100
AcDbEntity
  8
M0
  6
DIVIDE
100
AcDbLine
 10
133.745231
 20
279.314118
 11
130.65113
 21
283.814653
  0
LINE
  5
4D9
100
AcDbEntity
  8
M0
  6
DIVIDE
100
AcDbLine
 10
148.151163
 20
279.314606
 11
148.713663
 21
279.314606
  0
LINE
  5
4DA
100
AcDbEntity
  8
M0
  6
DIVIDE
100
AcDbLine
 10
148.713663
 20
279.314606
 11
143.651163
 21
283.814607
  0
LINE
  5
4DB
100
AcDbEntity
  8
M0
  6
DIVIDE
100
AcDbLine
 10
143.651163
 20
297.814609
 11
143.651163
 21
283.814607
  0
LINE
  5
4DC
100
AcDbEntity
  8
M0
  6
DIVIDE
100
AcDbLine
 10
163.651165
 20
297.814609
 11
143.651163
 21
297.814609
  0
LINE
  5
4DD
100
AcDbEntity
  8
M0
  6
DIVIDE
100
AcDbLine
 10
163.651165
 20
283.814607
 11
163.651165
 21
297.814609
  0
LINE
  5
4DE
100
AcDbEntity
  8
M0
  6
DIVIDE
100
AcDbLine
 10
158.588186
 20
279.314194
 11
163.651165
 21
283.814607
  0
LINE
  5
4DF
100
AcDbEntity
  8
M0
  6
DIVIDE
100
AcDbLine
 10
173.557172
 20
279.314286
 11
158.588186
 21
279.314194
  0
LINE
  5
4E0
100
AcDbEntity
  8
M0
  6
DIVIDE
100
AcDbLine
 10
173.557172
 20
279.314286
 11
176.651151
 21
283.814607
  0
LINE
  5
4E1
100
AcDbEntity
  8
M0
  6
DIVIDE
100
AcDbLine
 10
176.651151
 20
297.814609
 11
176.651151
 21
283.814607
  0
LINE
  5
4E2
100
AcDbEntity
  8
M0
  6
DIVIDE
100
AcDbLine
 10
196.651154
 20
297.814609
 11
176.651151
 21
297.814609
  0
LINE
  5
4E3
100
AcDbEntity
  8
M0
  6
DIVIDE
100
AcDbLine
 10
196.651154
 20
291.810152
 11
196.651154
 21
297.814609
  0
ARC
  5
4E4
100
AcDbEntity
  8
M0
  6
DIVIDE
100
AcDbCircle
 10
196.401169
 20
284.814607
 40
7.000001
100
AcDbArc
 50
0.0
 51
87.95341
  0
LINE
  5
4E5
100
AcDbEntity
  8
M0
  6
DIVIDE
100
AcDbLine
 10
203.40117
 20
174.814608
 11
203.40117
 21
284.814607
  0
ARC
  5
4E6
100
AcDbEntity
  8
M0
  6
DIVIDE
100
AcDbCircle
 10
196.401169
 20
174.814608
 40
7.000001
100
AcDbArc
 50
272.046465
 51
360.0
  0
LINE
  5
4E7
100
AcDbEntity
  8
M0
  6
DIVIDE
100
AcDbLine
 10
196.651154
 20
167.819078
 11
196.651154
 21
161.814606
  0
LINE
  5
4E8
100
AcDbEntity
  8
M0
  6
DIVIDE
100
AcDbLine
 10
196.651154
 20
161.814606
 11
176.651151
 21
161.814606
  0
LINE
  5
4E9
100
AcDbEntity
  8
M0
  6
DIVIDE
100
AcDbLine
 10
176.651151
 20
161.814606
 11
176.651151
 21
175.814608
  0
LINE
  5
4EA
100
AcDbEntity
  8
M0
  6
DIVIDE
100
AcDbLine
 10
173.557401
 20
180.314608
 11
176.651151
 21
175.814608
  0
LINE
  5
4EB
100
AcDbEntity
  8
M0
  6
DIVIDE
100
AcDbLine
 10
158.588663
 20
180.314608
 11
163.651165
 21
175.814608
  0
LINE
  5
4EC
100
AcDbEntity
  8
M0
  6
DIVIDE
100
AcDbLine
 10
163.651165
 20
175.814608
 11
163.651165
 21
161.814606
  0
LINE
  5
4ED
100
AcDbEntity
  8
M0
  6
DIVIDE
100
AcDbLine
 10
163.651165
 20
161.814606
 11
143.651162
 21
161.814606
  0
LINE
  5
4EE
100
AcDbEntity
  8
M0
  6
DIVIDE
100
AcDbLine
 10
143.651162
 20
161.814606
 11
143.651162
 21
175.814608
  0
LINE
  5
4EF
100
AcDbEntity
  8
M0
  6
DIVIDE
100
AcDbLine
 10
148.713663
 20
180.314608
 11
143.651162
 21
175.814608
  0
LINE
  5
4F0
100
AcDbEntity
  8
M0
  6
DIVIDE
100
AcDbLine
 10
133.744896
 20
180.314608
 11
148.713663
 21
180.314608
  0
LINE
  5
4F1
100
AcDbEntity
  8
M0
  6
DIVIDE
100
AcDbLine
 10
133.744896
 20
180.314608
 11
130.65113
 21
175.814577
  0
LINE
  5
4F2
100
AcDbEntity
  8
M0
  6
DIVIDE
100
AcDbLine
 10
130.65113
 20
161.814575
 11
130.65113
 21
175.814577
  0
LINE
  5
4F3
100
AcDbEntity
  8
M0
  6
DIVIDE
100
AcDbLine
 10
110.651127
 20
161.814575
 11
130.65113
 21
161.814575
  0
LINE
  5
4F4
100
AcDbEntity
  8
M0
  6
DIVIDE
100
AcDbLine
 10
110.651127
 20
167.819078
 11
110.651127
 21
161.814575
  0
ARC
  5
4F5
100
AcDbEntity
  8
M0
  6
DIVIDE
100
AcDbCircle
 10
110.901158
 20
174.814608
 40
7.000001
100
AcDbArc
 50
179.999875
 51
267.953036
  0
LINE
  5
4F6
100
AcDbEntity
  8
M0
  6
DIVIDE
100
AcDbLine
 10
103.901157
 20
284.814607
 11
103.901157
 21
174.814608
  0
LINE
  5
4F7
100
AcDbEntity
  8
M0
  6
DIVIDE
100
AcDbLine
 10
148.714208
 20
279.314133
 11
133.745292
 21
279.314042
  0
LINE
  5
4F8
100
AcDbEntity
  8
M0
  6
DIVIDE
100
AcDbLine
 10
158.588663
 20
180.314608
 11
173.557401
 21
180.314608
  0
LINE
  5
4F9
100
AcDbEntity
  8
M0
  6
DASHDOT
100
AcDbLine
 10
217.908725
 20
229.814615
 11
95.085757
 21
229.814615
  0
LINE
  5
4FA
100
AcDbEntity
  8
M0
  6
DASHDOT
100
AcDbLine
 10
153.651163
 20
151.164092
 11
153.651163
 21
307.101094
  0
CIRCLE
  5
4FB
100
AcDbEntity
  8
M0
100
AcDbCircle
 10
195.651154
 20
284.814607
 40
2.5
  0
LINE
  5
4FC
100
AcDbEntity
  8
M0
  6
DASHDOT
100
AcDbLine
 10
176.484495
 20
284.814607
 11
214.817828
 21
284.814607
  0
LINE
  5
4FD
100
AcDbEntity
  8
M0
  6
DASHDOT
100
AcDbLine
 10
195.651154
 20
265.647948
 11
195.651154
 21
303.981281
  0
CIRCLE
  5
4FE
100
AcDbEntity
  8
M0
100
AcDbCircle
 10
111.651158
 20
174.814608
 40
2.5
  0
LINE
  5
4FF
100
AcDbEntity
  8
M0
  6
DASHDOT
100
AcDbLine
 10
92.484499
 20
174.814608
 11
130.817832
 21
174.814608
  0
LINE
  5
500
100
AcDbEntity
  8
M0
  6
DASHDOT
100
AcDbLine
 10
111.651158
 20
155.647949
 11
111.651158
 21
193.981282
  0
CIRCLE
  5
501
100
AcDbEntity
  8
M0
100
AcDbCircle
 10
111.651158
 20
174.814608
 40
5.000001
  0
CIRCLE
  5
502
100
AcDbEntity
  8
M0
100
AcDbCircle
 10
195.651154
 20
284.814378
 40
5.000001
  0
LINE
  5
503
100
AcDbEntity
  8
M1
 62
     2
100
AcDbLine
 10
22.222223
 20
22.222223
 11
22.222223
 21
633.33335
  0
LINE
  5
504
100
AcDbEntity
  8
M1
 62
     2
100
AcDbLine
 10
22.222223
 20
633.33335
 11
444.444456
 21
633.33335
  0
LINE
  5
505
100
AcDbEntity
  8
M1
 62
     2
100
AcDbLine
 10
444.444456
 20
633.33335
 11
444.444456
 21
22.222223
  0
LINE
  5
506
100
AcDbEntity
  8
M1
 62
     2
100
AcDbLine
 10
444.444456
 20
22.222223
 11
22.222223
 21
22.222223
  0
LINE
  5
507
100
AcDbEntity
  8
M1
 62
     2
100
AcDbLine
 10
444.444456
 20
44.444446
 11
222.222228
 21
44.444446
  0
LINE
  5
508
100
AcDbEntity
  8
M1
 62
     2
100
AcDbLine
 10
444.444456
 20
66.666668
 11
222.222228
 21
66.666668
  0
LINE
  5
509
100
AcDbEntity
  8
M1
 62
     2
100
AcDbLine
 10
444.444456
 20
88.888891
 11
222.222228
 21
88.888891
  0
LINE
  5
50A
100
AcDbEntity
  8
M1
 62
     2
100
AcDbLine
 10
222.222228
 20
22.222223
 11
222.222228
 21
88.888891
  0
TEXT
  5
50B
100
AcDbEntity
  8
M1
 62
     2
100
AcDbText
 10
227.777784
 20
27.777779
 40
11.111112
  1
適　用；
  7
STANDARD
100
AcDbText
  0
TEXT
  5
50C
100
AcDbEntity
  8
M1
 62
     2
100
AcDbText
 10
227.777784
 20
72.222224
 40
11.111112
  1
登録名：
  7
STANDARD
100
AcDbText
  0
TEXT
  5
50D
100
AcDbEntity
  8
M1
 62
     2
100
AcDbText
 10
281.111119
 20
72.222224
 40
11.111112
  1
ＤＭＨ８０ＣＲ００
 41
0.5
  7
STANDARD
100
AcDbText
  0
TEXT
  5
50E
100
AcDbEntity
  8
M1
 62
     2
100
AcDbText
 10
227.777784
 20
50.000001
 40
11.111112
  1
形　式；
  7
STANDARD
100
AcDbText
  0
TEXT
  5
50F
100
AcDbEntity
  8
M1
 62
     2
100
AcDbText
 10
281.111119
 20
50.000001
 40
11.111112
  1
Ｈ８０Ｃ，Ｈ８０Ｃ－Ｇ
 41
0.5
  7
STANDARD
100
AcDbText
  0
LINE
  5
510
100
AcDbEntity
  8
DN0
100
AcDbLine
 10
75.509427
 20
603.777102
 11
246.087211
 21
603.777102
  0
TEXT
  5
511
100
AcDbEntity
  8
DN0
100
AcDbText
 10
76.631649
 20
604.777102
 40
10.0
  1
※補助接点４ａ４ｂ付の場合は１２４
 41
0.833333
  7
STANDARD
100
AcDbText
  0
ENDSEC
  0
SECTION
  2
OBJECTS
  0
DICTIONARY
  5
C
100
AcDbDictionary
  3
ACAD_GROUP
350
D
  3
ACAD_MLINESTYLE
350
E
  0
DICTIONARY
  5
D
102
{ACAD_REACTORS
330
C
102
}
100
AcDbDictionary
  0
DICTIONARY
  5
E
102
{ACAD_REACTORS
330
C
102
}
100
AcDbDictionary
  3
STANDARD
350
13
  0
MLINESTYLE
  5
13
102
{ACAD_REACTORS
330
E
102
}
100
AcDbMlineStyle
  2
STANDARD
 70
     0
  3

 62
     0
 51
90.0
 52
90.0
 71
     2
 49
0.5
 62
   256
  6
BYLAYER
 49
-0.5
 62
   256
  6
BYLAYER
  0
ENDSEC
  0
EOF
