  0
SECTION
  2
HEADER
  9
$ACADVER
  1
AC1014
  9
$INSBASE
 10
0.000000
 20
0.000000
 30
0.0
  9
$VIEWCTR
 10
7.531722
 20
4.5
  9
$VIEWSIZE
 40
9.0
  9
$SNAPMODE
 70
     0
  9
$SNAPUNIT
 10
1.0
 20
1.0
  9
$SNAPBASE
 10
0.0
 20
0.0
  9
$SNAPANG
 50
0.0
  9
$SNAPSTYLE
 70
     0
  9
$SNAPISOPAIR
 70
     0
  9
$GRIDMODE
 70
     0
  9
$GRIDUNIT
 10
0.0
 20
0.0
  9
$ORTHOMODE
 70
     0
  9
$REGENMODE
 70
     1
  9
$FILLMODE
 70
     1
  9
$QTEXTMODE
 70
     0
  9
$DRAGMODE
 70
     2
  9
$LTSCALE
  40
     1.000000
  9
$OSMODE
 70
     0
  9
$ATTMODE
 70
     1
  9
$TEXTSIZE
 40
0.2
  9
$TRACEWID
 40
0.05
  9
$TEXTSTYLE
  7
STANDARD
  9
$CELTYPE
  6
BYLAYER
  9
$CECOLOR
 62
   256
  9
$DIMSCALE
 40
1.0
  9
$DIMASZ
 40
0.18
  9
$DIMEXO
 40
0.0625
  9
$DIMDLI
 40
0.38
  9
$DIMRND
 40
0.0
  9
$DIMDLE
 40
0.0
  9
$DIMEXE
 40
0.18
  9
$DIMTP
 40
0.0
  9
$DIMTM
 40
0.0
  9
$DIMTXT
 40
0.18
  9
$DIMCEN
 40
0.09
  9
$DIMTSZ
 40
0.0
  9
$DIMTOL
 70
     0
  9
$DIMLIM
 70
     0
  9
$DIMTIH
 70
     1
  9
$DIMTOH
 70
     1
  9
$DIMSE1
 70
     0
  9
$DIMSE2
 70
     0
  9
$DIMTAD
 70
     0
  9
$DIMZIN
 70
     0
  9
$DIMBLK
  1

  9
$LUNITS
 70
     2
  9
$LUPREC
 70
     4
  9
$AXISMODE
 70
     0
  9
$AXISUNIT
 10
0.0
 20
0.0
  9
$SKETCHINC
 40
0.1
  9
$FILLETRAD
 40
0.0
  9
$AUNITS
 70
     0
  9
$AUPREC
 70
     0
  9
$MENU
  1
ACAD
  9
$ELEVATION
 40
0.0
  9
$THICKNESS
 40
0.0
  9
$VIEWDIR
 10
0.0
 20
0.0
 30
1.0
  9
$LIMCHECK
 70
     0
  9
$BLIPMODE
 70
     1
  9
$CHAMFERA
 40
0.0
  9
$CHAMFERB
 40
0.0
  9
$FASTZOOM
 70
     1
  9
$SKPOLY
 70
     0
  9
$TDCREATE
 40
0000000.0000000000
  9
$TDUPDATE
 40
0000000.0000000000
  9
$TDINDWG
 40
0.0000000000
  9
$TDUSRTIMER
 40
0.0000000000
  9
$USRTIMER
 70
     1
  9
$ANGBASE
 50
0.0
  9
$ANGDIR
 70
     0
  9
$PDMODE
 70
     0
  9
$PDSIZE
 40
0.0
  9
$PLINEWID
 40
0.0
  9
$COORDS
 70
     0
  9
$USERI1
 70
     0
  9
$USERI2
 70
     0
  9
$USERI3
 70
     0
  9
$USERI4
 70
     0
  9
$USERI5
 70
     0
  9
$USERR1
 40
0.0
  9
$USERR2
 40
0.0
  9
$USERR3
 40
0.0
  9
$USERR4
 40
0.0
  9
$USERR5
 40
0.0
  9
$CLAYER
  8
M0
  9
$EXTMIN
 10
22.222223
 20
22.222223
  9
$EXTMAX
 10
444.444456
 20
633.33335
  9
$LIMMIN
 10
0.0
 20
0.0
  9
$LIMMAX
 10
210.0
 20
297.0
  9
$HANDSEED
  5
79E
  0
ENDSEC
  0
SECTION
  2
CLASSES
  0
ENDSEC
  0
SECTION
  2
TABLES
  0
TABLE
  2
VPORT
  5
8
100
AcDbSymbolTable
 70
     2
  0
VPORT
  5
14
100
AcDbSymbolTableRecord
100
AcDbViewportTableRecord
  2
*ACTIVE
 70
     0
 10
0.0
 20
0.0
 11
1.0
 21
1.0
 12
484.0
 22
297.0
 13
0.0
 23
0.0
 14
1.0
 24
1.0
 15
0.0
 25
0.0
 16
0.0
 26
0.0
 36
1.0
 17
0.0
 27
0.0
 37
0.0
 40
594.0
 41
2.0
 42
50.0
 43
0.0
 44
0.0
 50
0.0
 51
0.0
 71
     0
 72
   100
 73
     1
 74
     1
 75
     0
 76
     0
 77
     0
 78
     0
  0
ENDTAB
  0
TABLE
  2
LTYPE
  5
5
100
AcDbSymbolTable
 70
     5
  0
LTYPE
  5
15
100
AcDbSymbolTableRecord
100
AcDbLinetypeTableRecord
  2
BYBLOCK
 70
     0
  3

 72
    65
 73
     0
 40
0.0
  0
LTYPE
  5
16
100
AcDbSymbolTableRecord
100
AcDbLinetypeTableRecord
  2
BYLAYER
 70
     0
  3

 72
    65
 73
     0
 40
0.0
  0
LTYPE
  5
17
100
AcDbSymbolTableRecord
100
AcDbLinetypeTableRecord
  2
CONTINUOUS
 70
    64
  3
Solid line
 72
    65
 73
     0
 40
0.0
  0
LTYPE
  5
18
100
AcDbSymbolTableRecord
100
AcDbLinetypeTableRecord
  2
DASHED
 70
    64
  3
__ __ __ __ __ __ __ __ __ __ __ __ __ __ __ __
 72
    65
 73
     2
 40
0.75
 49
0.5
 74
     0
 49
-0.25
 74
     0
  0
LTYPE
  5
19
100
AcDbSymbolTableRecord
100
AcDbLinetypeTableRecord
  2
DASHDOT
 70
    64
  3
__ . __ . __ . __ . __ . __ . __ . __ . __ . __
 72
    65
 73
     4
 40
1.0
 49
0.5
 74
     0
 49
-0.25
 74
     0
 49
0.0
 74
     0
 49
-0.25
 74
     0
  0
LTYPE
  5
1A
100
AcDbSymbolTableRecord
100
AcDbLinetypeTableRecord
  2
DIVIDE
 70
    64
  3
____ . . ____ . . ____ . . ____ . . ____ . . __
 72
    65
 73
     6
 40
1.25
 49
0.5
 74
     0
 49
-0.25
 74
     0
 49
0.0
 74
     0
 49
-0.25
 74
     0
 49
0.0
 74
     0
 49
-0.25
 74
     0
  0
LTYPE
  5
1B
100
AcDbSymbolTableRecord
100
AcDbLinetypeTableRecord
  2
DOT
 70
    64
  3
. . . . . . . . . . . . . . . . . . . . . . . .
 72
    65
 73
     2
 40
0.25
 49
0.0
 74
     0
 49
-0.25
 74
     0
  0
ENDTAB
  0
TABLE
  2
LAYER
  5
2
100
AcDbSymbolTable
 70
   102
  0
LAYER
  5
F
100
AcDbSymbolTableRecord
100
AcDbLayerTableRecord
  2
0
 70
     0
 62
     7
  6
CONTINUOUS
  0
LAYER
  5
1C
100
AcDbSymbolTableRecord
100
AcDbLayerTableRecord
  2
DEFPOINTS
 70
     0
 62
     7
  6
CONTINUOUS
  0
LAYER
  5
1D
100
AcDbSymbolTableRecord
100
AcDbLayerTableRecord
  2
M0
 70
     0
 62
     3
  6
CONTINUOUS
  0
LAYER
  5
1E
100
AcDbSymbolTableRecord
100
AcDbLayerTableRecord
  2
M1
 70
     0
 62
     3
  6
CONTINUOUS
  0
LAYER
  5
1F
100
AcDbSymbolTableRecord
100
AcDbLayerTableRecord
  2
DD0
 70
     0
 62
     4
  6
CONTINUOUS
  0
LAYER
  5
20
100
AcDbSymbolTableRecord
100
AcDbLayerTableRecord
  2
DN0
 70
     0
 62
     2
  6
CONTINUOUS
  0
ENDTAB
  0
TABLE
  2
STYLE
  5
3
100
AcDbSymbolTable
 70
     2
  0
STYLE
  5
10
100
AcDbSymbolTableRecord
100
AcDbTextStyleTableRecord
  2
STANDARD
 70
     0
 40
0.0
 41
1.0
 50
0.0
 71
     0
 42
0.2
  3
txt
  4
BIGFONT
  0
ENDTAB
  0
TABLE
  2
VIEW
  5
6
100
AcDbSymbolTable
 70
     0
  0
ENDTAB
  0
TABLE
  2
UCS
  5
7
100
AcDbSymbolTable
 70
     0
  0
ENDTAB
  0
TABLE
  2
APPID
  5
9
100
AcDbSymbolTable
 70
     1
  0
APPID
  5
11
100
AcDbSymbolTableRecord
100
AcDbRegAppTableRecord
  2
ACAD
 70
     0
  0
ENDTAB
  0
TABLE
  2
DIMSTYLE
  5
A
100
AcDbSymbolTable
 70
     2
  0
DIMSTYLE
105
27
100
AcDbSymbolTableRecord
100
AcDbDimStyleTableRecord
  2
STANDARD
 70
     0
  3

  4

  5

  6
_OPEN
  7
_OPEN
 40
1.0
 41
6.666667
 42
1.0
 43
8.0
 44
1.0
 45
0.0
 46
0.0
 47
0.0
 48
0.0
140
7.0
141
0.09
142
0.0
143
0.03937
144
1.0
145
0.0
146
1.0
147
0.6
 71
     0
 72
     0
 73
     1
 74
     1
 75
     0
 76
     0
 77
     3
 78
     8
170
     0
171
     2
172
     0
173
     1
174
     0
175
     0
176
     0
177
     0
178
     0
270
     2
271
     2
272
     4
273
     2
274
     2
340
10
275
     0
280
     0
281
     0
282
     0
283
     1
284
     0
285
     0
286
     0
287
     3
288
     0
  0
DIMSTYLE
105
28
100
AcDbSymbolTableRecord
100
AcDbDimStyleTableRecord
  2
LEADSTYL
 70
     0
  3

  4

  5

  6
_OPEN
  7
_OPEN
 40
1.0
 41
6.666667
 42
0.0625
 43
0.38
 44
0.18
 45
0.0
 46
0.0
 47
0.0
 48
0.0
140
7.0
141
0.09
142
0.0
143
25.4
144
1.0
145
0.0
146
1.0
147
0.6
 71
     0
 72
     0
 73
     1
 74
     1
 75
     0
 76
     0
 77
     0
 78
     0
170
     0
171
     2
172
     0
173
     1
174
     0
175
     0
176
     0
177
     0
178
     0
270
     2
271
     4
272
     4
273
     2
274
     2
340
10
275
     0
280
     0
281
     0
282
     0
283
     1
284
     0
285
     0
286
     0
287
     3
288
     0
  0
ENDTAB
  0
TABLE
  2
BLOCK_RECORD
  5
1
100
AcDbSymbolTable
 70
    18
  0
BLOCK_RECORD
  5
21
100
AcDbSymbolTableRecord
100
AcDbBlockTableRecord
  2
*MODEL_SPACE
  0
BLOCK_RECORD
  5
24
100
AcDbSymbolTableRecord
100
AcDbBlockTableRecord
  2
*PAPER_SPACE
  0
BLOCK_RECORD
  5
29
100
AcDbSymbolTableRecord
100
AcDbBlockTableRecord
  2
_NONE
  0
BLOCK_RECORD
  5
2D
100
AcDbSymbolTableRecord
100
AcDbBlockTableRecord
  2
_OPEN
  0
BLOCK_RECORD
  5
33
100
AcDbSymbolTableRecord
100
AcDbBlockTableRecord
  2
_CLOSED
  0
BLOCK_RECORD
  5
3A
100
AcDbSymbolTableRecord
100
AcDbBlockTableRecord
  2
_ORIGIN
  0
BLOCK_RECORD
  5
3F
100
AcDbSymbolTableRecord
100
AcDbBlockTableRecord
  2
_DOT
  0
BLOCK_RECORD
  5
47
100
AcDbSymbolTableRecord
100
AcDbBlockTableRecord
  2
_OBLIQUE
  0
BLOCK_RECORD
  5
4B
100
AcDbSymbolTableRecord
100
AcDbBlockTableRecord
  2
DIMS0
  0
BLOCK_RECORD
  5
54
100
AcDbSymbolTableRecord
100
AcDbBlockTableRecord
  2
DIMS1
  0
BLOCK_RECORD
  5
60
100
AcDbSymbolTableRecord
100
AcDbBlockTableRecord
  2
DIMS2
  0
BLOCK_RECORD
  5
6C
100
AcDbSymbolTableRecord
100
AcDbBlockTableRecord
  2
DIMS3
  0
BLOCK_RECORD
  5
78
100
AcDbSymbolTableRecord
100
AcDbBlockTableRecord
  2
DIMS4
  0
BLOCK_RECORD
  5
80
100
AcDbSymbolTableRecord
100
AcDbBlockTableRecord
  2
DIMS5
  0
BLOCK_RECORD
  5
8C
100
AcDbSymbolTableRecord
100
AcDbBlockTableRecord
  2
DIMS6
  0
BLOCK_RECORD
  5
98
100
AcDbSymbolTableRecord
100
AcDbBlockTableRecord
  2
DIMS7
  0
BLOCK_RECORD
  5
A4
100
AcDbSymbolTableRecord
100
AcDbBlockTableRecord
  2
DIMS8
  0
BLOCK_RECORD
  5
B0
100
AcDbSymbolTableRecord
100
AcDbBlockTableRecord
  2
DIMS9
  0
BLOCK_RECORD
  5
B9
100
AcDbSymbolTableRecord
100
AcDbBlockTableRecord
  2
DIMS10
  0
BLOCK_RECORD
  5
C5
100
AcDbSymbolTableRecord
100
AcDbBlockTableRecord
  2
DIMS11
  0
ENDTAB
  0
ENDSEC
  0
SECTION
  2
BLOCKS
  0
BLOCK
  5
22
100
AcDbEntity
  8
0
100
AcDbBlockBegin
  2
*MODEL_SPACE
 70
     0
 10
0.0
 20
0.0
 30
0.0
  3
*MODEL_SPACE
  1

  0
ENDBLK
  5
23
100
AcDbEntity
  8
0
100
AcDbBlockEnd
  0
BLOCK
  5
25
100
AcDbEntity
 67
     1
  8
0
100
AcDbBlockBegin
  2
*PAPER_SPACE
 70
     0
 10
0.0
 20
0.0
 30
0.0
  3
*PAPER_SPACE
  1

  0
ENDBLK
  5
26
100
AcDbEntity
 67
     1
  8
0
100
AcDbBlockEnd
  0
BLOCK
  5
2A
100
AcDbEntity
  8
0
100
AcDbBlockBegin
  2
_NONE
 70
     0
 10
0.0
 20
0.0
  0
CIRCLE
  5
2B
100
AcDbEntity
  8
0
 62
     0
100
AcDbCircle
 10
0.0
 20
0.0
 40
0.25
  0
ENDBLK
  5
2C
100
AcDbEntity
  8
0
100
AcDbBlockEnd
  0
BLOCK
  5
2E
100
AcDbEntity
  8
0
100
AcDbBlockBegin
  2
_OPEN
 70
     0
 10
0.0
 20
0.0
  0
LINE
  5
2F
100
AcDbEntity
  8
0
 62
     0
100
AcDbLine
 10
-0.965926
 20
0.258819
 11
0.0
 21
0.0
  0
LINE
  5
30
100
AcDbEntity
  8
0
 62
     0
100
AcDbLine
 10
0.0
 20
0.0
 11
-0.965926
 21
-0.258819
  0
LINE
  5
31
100
AcDbEntity
  8
0
 62
     0
100
AcDbLine
 10
0.0
 20
0.0
 11
-1.0
 21
0.0
  0
ENDBLK
  5
32
100
AcDbEntity
  8
0
100
AcDbBlockEnd
  0
BLOCK
  5
34
100
AcDbEntity
  8
0
100
AcDbBlockBegin
  2
_CLOSED
 70
     0
 10
0.0
 20
0.0
  0
LINE
  5
35
100
AcDbEntity
  8
0
 62
     0
100
AcDbLine
 10
-0.965926
 20
0.258819
 11
0.0
 21
0.0
  0
LINE
  5
36
100
AcDbEntity
  8
0
 62
     0
100
AcDbLine
 10
0.0
 20
0.0
 11
-0.965926
 21
-0.258819
  0
LINE
  5
37
100
AcDbEntity
  8
0
 62
     0
100
AcDbLine
 10
-0.965926
 20
0.258819
 11
-0.965926
 21
-0.258819
  0
LINE
  5
38
100
AcDbEntity
  8
0
 62
     0
100
AcDbLine
 10
0.0
 20
0.0
 11
-1.0
 21
0.0
  0
ENDBLK
  5
39
100
AcDbEntity
  8
0
100
AcDbBlockEnd
  0
BLOCK
  5
3B
100
AcDbEntity
  8
0
100
AcDbBlockBegin
  2
_ORIGIN
 70
     0
 10
0.0
 20
0.0
  0
CIRCLE
  5
3C
100
AcDbEntity
  8
0
 62
     0
100
AcDbCircle
 10
0.0
 20
0.0
 40
0.5
  0
LINE
  5
3D
100
AcDbEntity
  8
0
 62
     0
100
AcDbLine
 10
0.0
 20
0.0
 11
-1.0
 21
0.0
  0
ENDBLK
  5
3E
100
AcDbEntity
  8
0
100
AcDbBlockEnd
  0
BLOCK
  5
40
100
AcDbEntity
  8
0
100
AcDbBlockBegin
  2
_DOT
 70
     0
 10
0.0
 20
0.0
  0
POLYLINE
  5
41
100
AcDbEntity
  8
0
 62
     0
100
AcDb2dPolyline
 66
     1
 70
     1
 40
0.5
 41
0.5
  0
VERTEX
  5
42
100
AcDbEntity
  8
0
 62
     0
100
AcDbVertex
100
AcDb2dVertex
 10
-0.25
 20
0.0
 42
1.0
  0
VERTEX
  5
43
100
AcDbEntity
  8
0
 62
     0
100
AcDbVertex
100
AcDb2dVertex
 10
0.25
 20
0.0
 42
1.0
  0
SEQEND
  5
44
100
AcDbEntity
  8
0
 62
     0
  0
LINE
  5
45
100
AcDbEntity
  8
0
 62
     0
100
AcDbLine
 10
-0.5
 20
0.0
 11
-1.0
 21
0.0
  0
ENDBLK
  5
46
100
AcDbEntity
  8
0
100
AcDbBlockEnd
  0
BLOCK
  5
48
100
AcDbEntity
  8
0
100
AcDbBlockBegin
  2
_OBLIQUE
 70
     0
 10
0.0
 20
0.0
  0
LINE
  5
49
100
AcDbEntity
  8
0
 62
     0
100
AcDbLine
 10
-0.353553
 20
-0.353553
 11
0.353553
 21
0.353553
  0
ENDBLK
  5
4A
100
AcDbEntity
  8
0
100
AcDbBlockEnd
  0
BLOCK
  5
4C
100
AcDbEntity
  8
DD0
100
AcDbBlockBegin
  2
DIMS0
 70
     0
 10
0.0
 20
0.0
  0
TEXT
  5
4D
100
AcDbEntity
  8
DD0
100
AcDbText
 10
59.738621
 20
547.1316
 40
7.0
  1
サージアブソーバ
 41
0.666667
  7
STANDARD
100
AcDbText
  0
TEXT
  5
4E
100
AcDbEntity
  8
DD0
100
AcDbText
 10
59.738621
 20
537.020447
 40
7.0
  1
（直流操作の場合）
 41
0.666667
  7
STANDARD
100
AcDbText
  0
LINE
  5
4F
100
AcDbEntity
  8
DD0
100
AcDbLine
 10
76.682419
 20
495.945481
 11
77.904402
 21
489.391764
  0
LINE
  5
50
100
AcDbEntity
  8
DD0
100
AcDbLine
 10
77.904402
 20
489.391764
 11
80.122992
 21
495.678441
  0
LINE
  5
51
100
AcDbEntity
  8
DD0
100
AcDbLine
 10
77.904402
 20
489.391764
 11
81.312792
 21
533.305848
  0
ENDBLK
  5
52
100
AcDbEntity
  8
DD0
100
AcDbBlockEnd
  0
BLOCK
  5
55
100
AcDbEntity
  8
DD0
100
AcDbBlockBegin
  2
DIMS1
 70
     0
 10
0.0
 20
0.0
  0
LINE
  5
56
100
AcDbEntity
  8
DD0
100
AcDbLine
 10
147.876269
 20
488.690944
 11
202.047209
 21
488.690944
  0
LINE
  5
57
100
AcDbEntity
  8
DD0
100
AcDbLine
 10
174.876273
 20
344.191565
 11
202.047209
 21
344.191565
  0
LINE
  5
58
100
AcDbEntity
  8
DD0
100
AcDbLine
 10
201.550447
 20
482.251439
 11
199.824987
 21
488.690944
  0
LINE
  5
59
100
AcDbEntity
  8
DD0
100
AcDbLine
 10
199.824987
 20
488.690944
 11
198.099527
 21
482.251439
  0
LINE
  5
5A
100
AcDbEntity
  8
DD0
100
AcDbLine
 10
198.099527
 20
350.63107
 11
199.824987
 21
344.191565
  0
LINE
  5
5B
100
AcDbEntity
  8
DD0
100
AcDbLine
 10
199.824987
 20
344.191565
 11
201.550447
 21
350.63107
  0
LINE
  5
5C
100
AcDbEntity
  8
DD0
100
AcDbLine
 10
199.824987
 20
488.690944
 11
199.824987
 21
344.191565
  0
TEXT
  5
5D
100
AcDbEntity
  8
DD0
100
AcDbText
 10
198.269438
 20
408.507908
 40
7.0
  1
１４５
 50
90.000003
 41
0.666667
  7
STANDARD
100
AcDbText
  0
ENDBLK
  5
5E
100
AcDbEntity
  8
DD0
100
AcDbBlockEnd
  0
BLOCK
  5
61
100
AcDbEntity
  8
DD0
100
AcDbBlockBegin
  2
DIMS2
 70
     0
 10
0.0
 20
0.0
  0
LINE
  5
62
100
AcDbEntity
  8
DD0
100
AcDbLine
 10
110.946082
 20
334.192107
 11
202.047209
 21
334.192107
  0
LINE
  5
63
100
AcDbEntity
  8
DD0
100
AcDbLine
 10
174.876273
 20
344.191565
 11
202.047209
 21
344.191565
  0
LINE
  5
64
100
AcDbEntity
  8
DD0
100
AcDbLine
 10
201.550447
 20
327.752601
 11
199.824987
 21
334.192107
  0
LINE
  5
65
100
AcDbEntity
  8
DD0
100
AcDbLine
 10
199.824987
 20
334.192107
 11
198.099527
 21
327.752601
  0
LINE
  5
66
100
AcDbEntity
  8
DD0
100
AcDbLine
 10
198.099527
 20
350.63107
 11
199.824987
 21
344.191565
  0
LINE
  5
67
100
AcDbEntity
  8
DD0
100
AcDbLine
 10
199.824987
 20
344.191565
 11
201.550447
 21
350.63107
  0
LINE
  5
68
100
AcDbEntity
  8
DD0
100
AcDbLine
 10
199.824987
 20
319.036552
 11
199.824987
 21
351.524898
  0
TEXT
  5
69
100
AcDbEntity
  8
DD0
100
AcDbText
 10
198.269438
 20
320.92544
 40
7.0
  1
８
 50
90.000003
 41
0.666667
  7
STANDARD
100
AcDbText
  0
ENDBLK
  5
6A
100
AcDbEntity
  8
DD0
100
AcDbBlockEnd
  0
BLOCK
  5
6D
100
AcDbEntity
  8
DD0
100
AcDbBlockBegin
  2
DIMS3
 70
     0
 10
0.0
 20
0.0
  0
LINE
  5
6E
100
AcDbEntity
  8
DD0
100
AcDbLine
 10
172.654051
 20
474.613762
 11
172.654051
 21
516.633484
  0
LINE
  5
6F
100
AcDbEntity
  8
DD0
100
AcDbLine
 10
65.654049
 20
474.613762
 11
65.654049
 21
516.633484
  0
LINE
  5
70
100
AcDbEntity
  8
DD0
100
AcDbLine
 10
166.214545
 20
512.685801
 11
172.654051
 21
514.411262
  0
LINE
  5
71
100
AcDbEntity
  8
DD0
100
AcDbLine
 10
172.654051
 20
514.411262
 11
166.214545
 21
516.136722
  0
LINE
  5
72
100
AcDbEntity
  8
DD0
100
AcDbLine
 10
72.093554
 20
516.136722
 11
65.654049
 21
514.411262
  0
LINE
  5
73
100
AcDbEntity
  8
DD0
100
AcDbLine
 10
65.654049
 20
514.411262
 11
72.093554
 21
512.685801
  0
LINE
  5
74
100
AcDbEntity
  8
DD0
100
AcDbLine
 10
172.654051
 20
514.411262
 11
65.654049
 21
514.411262
  0
TEXT
  5
75
100
AcDbEntity
  8
DD0
100
AcDbText
 10
111.220717
 20
515.966811
 40
7.0
  1
１０７
 41
0.666667
  7
STANDARD
100
AcDbText
  0
ENDBLK
  5
76
100
AcDbEntity
  8
DD0
100
AcDbBlockEnd
  0
BLOCK
  5
79
100
AcDbEntity
  8
DD0
100
AcDbBlockBegin
  2
DIMS4
 70
     0
 10
0.0
 20
0.0
  0
TEXT
  5
7A
100
AcDbEntity
  8
DD0
100
AcDbText
 10
83.775402
 20
534.861397
 40
7.0
  1
　
 41
0.666667
  7
STANDARD
100
AcDbText
  0
LINE
  5
7B
100
AcDbEntity
  8
DD0
100
AcDbLine
 10
129.754743
 20
493.05498
 11
135.324778
 21
489.391764
  0
LINE
  5
7C
100
AcDbEntity
  8
DD0
100
AcDbLine
 10
135.324778
 20
489.391764
 11
132.332595
 21
495.34922
  0
LINE
  5
7D
100
AcDbEntity
  8
DD0
100
AcDbLine
 10
135.324778
 20
489.391764
 11
96.242068
 21
533.305848
  0
ENDBLK
  5
7E
100
AcDbEntity
  8
DD0
100
AcDbBlockEnd
  0
BLOCK
  5
81
100
AcDbEntity
  8
DD0
100
AcDbBlockBegin
  2
DIMS5
 70
     0
 10
0.0
 20
0.0
  0
LINE
  5
82
100
AcDbEntity
  8
DD0
100
AcDbLine
 10
147.348637
 20
271.873956
 11
201.783215
 21
271.873956
  0
LINE
  5
83
100
AcDbEntity
  8
DD0
100
AcDbLine
 10
171.348627
 20
246.374552
 11
201.783215
 21
246.374552
  0
LINE
  5
84
100
AcDbEntity
  8
DD0
100
AcDbLine
 10
201.286453
 20
265.43445
 11
199.560993
 21
271.873956
  0
LINE
  5
85
100
AcDbEntity
  8
DD0
100
AcDbLine
 10
199.560993
 20
271.873956
 11
197.835533
 21
265.43445
  0
LINE
  5
86
100
AcDbEntity
  8
DD0
100
AcDbLine
 10
197.835533
 20
252.814058
 11
199.560993
 21
246.374552
  0
LINE
  5
87
100
AcDbEntity
  8
DD0
100
AcDbLine
 10
199.560993
 20
246.374552
 11
201.286453
 21
252.814058
  0
LINE
  5
88
100
AcDbEntity
  8
DD0
100
AcDbLine
 10
199.560993
 20
303.829513
 11
199.560993
 21
246.374552
  0
TEXT
  5
89
100
AcDbEntity
  8
DD0
100
AcDbText
 10
198.005444
 20
279.673964
 40
7.0
  1
２５．５
 50
90.000003
 41
0.666667
  7
STANDARD
100
AcDbText
  0
ENDBLK
  5
8A
100
AcDbEntity
  8
DD0
100
AcDbBlockEnd
  0
BLOCK
  5
8D
100
AcDbEntity
  8
DD0
100
AcDbBlockBegin
  2
DIMS6
 70
     0
 10
0.0
 20
0.0
  0
LINE
  5
8E
100
AcDbEntity
  8
DD0
 60
     1
100
AcDbLine
 10
171.348627
 20
246.374552
 11
201.783215
 21
246.374552
  0
LINE
  5
8F
100
AcDbEntity
  8
DD0
100
AcDbLine
 10
87.348635
 20
136.374549
 11
201.783215
 21
136.374549
  0
LINE
  5
90
100
AcDbEntity
  8
DD0
100
AcDbLine
 10
201.286453
 20
239.935046
 11
199.560993
 21
246.374552
  0
LINE
  5
91
100
AcDbEntity
  8
DD0
100
AcDbLine
 10
199.560993
 20
246.374552
 11
197.835533
 21
239.935046
  0
LINE
  5
92
100
AcDbEntity
  8
DD0
100
AcDbLine
 10
197.835533
 20
142.814055
 11
199.560993
 21
136.374549
  0
LINE
  5
93
100
AcDbEntity
  8
DD0
100
AcDbLine
 10
199.560993
 20
136.374549
 11
201.286453
 21
142.814055
  0
LINE
  5
94
100
AcDbEntity
  8
DD0
100
AcDbLine
 10
199.560993
 20
246.374552
 11
199.560993
 21
136.374549
  0
TEXT
  5
95
100
AcDbEntity
  8
DD0
100
AcDbText
 10
198.005444
 20
183.441221
 40
7.0
  1
１１０
 50
90.000003
 41
0.666667
  7
STANDARD
100
AcDbText
  0
ENDBLK
  5
96
100
AcDbEntity
  8
DD0
100
AcDbBlockEnd
  0
BLOCK
  5
99
100
AcDbEntity
  8
DD0
100
AcDbBlockBegin
  2
DIMS7
 70
     0
 10
0.0
 20
0.0
  0
LINE
  5
9A
100
AcDbEntity
  8
DD0
100
AcDbLine
 10
172.126435
 20
261.69653
 11
172.126435
 21
285.864638
  0
LINE
  5
9B
100
AcDbEntity
  8
DD0
100
AcDbLine
 10
157.126418
 20
260.596778
 11
157.126418
 21
285.864638
  0
LINE
  5
9C
100
AcDbEntity
  8
DD0
100
AcDbLine
 10
178.565941
 20
285.367876
 11
172.126435
 21
283.642416
  0
LINE
  5
9D
100
AcDbEntity
  8
DD0
100
AcDbLine
 10
172.126435
 20
283.642416
 11
178.565941
 21
281.916956
  0
LINE
  5
9E
100
AcDbEntity
  8
DD0
100
AcDbLine
 10
150.686912
 20
281.916956
 11
157.126418
 21
283.642416
  0
LINE
  5
9F
100
AcDbEntity
  8
DD0
100
AcDbLine
 10
157.126418
 20
283.642416
 11
150.686912
 21
285.367876
  0
LINE
  5
A0
100
AcDbEntity
  8
DD0
100
AcDbLine
 10
188.427008
 20
283.642416
 11
149.793085
 21
283.642416
  0
TEXT
  5
A1
100
AcDbEntity
  8
DD0
100
AcDbText
 10
175.471453
 20
285.197965
 40
7.0
  1
１５
 41
0.666667
  7
STANDARD
100
AcDbText
  0
ENDBLK
  5
A2
100
AcDbEntity
  8
DD0
100
AcDbBlockEnd
  0
BLOCK
  5
A5
100
AcDbEntity
  8
DD0
100
AcDbBlockBegin
  2
DIMS8
 70
     0
 10
0.0
 20
0.0
  0
LINE
  5
A6
100
AcDbEntity
  8
DD0
 60
     1
100
AcDbLine
 10
157.126418
 20
260.596778
 11
157.126418
 21
285.864638
  0
LINE
  5
A7
100
AcDbEntity
  8
DD0
100
AcDbLine
 10
73.126409
 20
150.596775
 11
73.126409
 21
285.864638
  0
LINE
  5
A8
100
AcDbEntity
  8
DD0
100
AcDbLine
 10
150.686912
 20
281.916956
 11
157.126418
 21
283.642416
  0
LINE
  5
A9
100
AcDbEntity
  8
DD0
100
AcDbLine
 10
157.126418
 20
283.642416
 11
150.686912
 21
285.367876
  0
LINE
  5
AA
100
AcDbEntity
  8
DD0
100
AcDbLine
 10
79.565915
 20
285.367876
 11
73.126409
 21
283.642416
  0
LINE
  5
AB
100
AcDbEntity
  8
DD0
100
AcDbLine
 10
73.126409
 20
283.642416
 11
79.565915
 21
281.916956
  0
LINE
  5
AC
100
AcDbEntity
  8
DD0
100
AcDbLine
 10
157.126418
 20
283.642416
 11
73.126409
 21
283.642416
  0
TEXT
  5
AD
100
AcDbEntity
  8
DD0
100
AcDbText
 10
90.39308
 20
285.197965
 40
7.0
  1
８４（８０も可能）
 41
0.666667
  7
STANDARD
100
AcDbText
  0
ENDBLK
  5
AE
100
AcDbEntity
  8
DD0
100
AcDbBlockEnd
  0
BLOCK
  5
B1
100
AcDbEntity
  8
DD0
100
AcDbBlockBegin
  2
DIMS9
 70
     0
 10
0.0
 20
0.0
  0
TEXT
  5
B2
100
AcDbEntity
  8
DD0
100
AcDbText
 10
69.183019
 20
101.077248
 40
7.0
  1
２－Ｍ５ねじ穴
 41
0.666667
  7
STANDARD
100
AcDbText
  0
LINE
  5
B3
100
AcDbEntity
  8
DD0
100
AcDbLine
 10
70.146963
 20
127.149197
 11
70.052378
 21
133.815192
  0
LINE
  5
B4
100
AcDbEntity
  8
DD0
100
AcDbLine
 10
70.052378
 20
133.815192
 11
66.801293
 21
127.994978
  0
LINE
  5
B5
100
AcDbEntity
  8
DD0
100
AcDbLine
 10
70.052378
 20
133.815192
 11
61.38302
 21
99.52169
  0
LINE
  5
B6
100
AcDbEntity
  8
DD0
100
AcDbLine
 10
61.38302
 20
99.52169
 11
115.249688
 21
99.52169
  0
ENDBLK
  5
B7
100
AcDbEntity
  8
DD0
100
AcDbBlockEnd
  0
BLOCK
  5
BA
100
AcDbEntity
  8
DD0
100
AcDbBlockBegin
  2
DIMS10
 70
     0
 10
0.0
 20
0.0
  0
LINE
  5
BB
100
AcDbEntity
  8
DD0
100
AcDbLine
 10
409.522139
 20
344.069426
 11
409.522139
 21
304.899334
  0
LINE
  5
BC
100
AcDbEntity
  8
DD0
100
AcDbLine
 10
358.222089
 20
357.069169
 11
358.222089
 21
304.899334
  0
LINE
  5
BD
100
AcDbEntity
  8
DD0
100
AcDbLine
 10
403.082634
 20
305.396096
 11
409.522139
 21
307.121556
  0
LINE
  5
BE
100
AcDbEntity
  8
DD0
100
AcDbLine
 10
409.522139
 20
307.121556
 11
403.082634
 21
308.847017
  0
LINE
  5
BF
100
AcDbEntity
  8
DD0
100
AcDbLine
 10
364.661595
 20
308.847017
 11
358.222089
 21
307.121556
  0
LINE
  5
C0
100
AcDbEntity
  8
DD0
100
AcDbLine
 10
358.222089
 20
307.121556
 11
364.661595
 21
305.396096
  0
LINE
  5
C1
100
AcDbEntity
  8
DD0
100
AcDbLine
 10
409.522139
 20
307.121556
 11
358.222089
 21
307.121556
  0
TEXT
  5
C2
100
AcDbEntity
  8
DD0
100
AcDbText
 10
363.444346
 20
308.454903
 40
7.0
  1
５１（取付）
 41
0.833333
  7
STANDARD
100
AcDbText
  0
ENDBLK
  5
C3
100
AcDbEntity
  8
DD0
100
AcDbBlockEnd
  0
BLOCK
  5
C6
100
AcDbEntity
  8
DD0
100
AcDbBlockBegin
  2
DIMS11
 70
     0
 10
0.0
 20
0.0
  0
LINE
  5
C7
100
AcDbEntity
  8
DD0
100
AcDbLine
 10
409.522139
 20
472.513847
 11
409.522139
 21
516.979994
  0
LINE
  5
C8
100
AcDbEntity
  8
DD0
100
AcDbLine
 10
222.222228
 20
457.513135
 11
222.222228
 21
516.979994
  0
LINE
  5
C9
100
AcDbEntity
  8
DD0
100
AcDbLine
 10
403.082634
 20
513.032311
 11
409.522139
 21
514.757772
  0
LINE
  5
CA
100
AcDbEntity
  8
DD0
100
AcDbLine
 10
409.522139
 20
514.757772
 11
403.082634
 21
516.483232
  0
LINE
  5
CB
100
AcDbEntity
  8
DD0
100
AcDbLine
 10
228.661734
 20
516.483232
 11
222.222228
 21
514.757772
  0
LINE
  5
CC
100
AcDbEntity
  8
DD0
100
AcDbLine
 10
222.222228
 20
514.757772
 11
228.661734
 21
513.032311
  0
LINE
  5
CD
100
AcDbEntity
  8
DD0
100
AcDbLine
 10
409.522139
 20
514.757772
 11
222.222228
 21
514.757772
  0
TEXT
  5
CE
100
AcDbEntity
  8
DD0
100
AcDbText
 10
305.944412
 20
516.091119
 40
7.0
  1
１８８
 41
0.833333
  7
STANDARD
100
AcDbText
  0
ENDBLK
  5
CF
100
AcDbEntity
  8
DD0
100
AcDbBlockEnd
  0
ENDSEC
  0
SECTION
  2
ENTITIES
  0
INSERT
  5
53
100
AcDbEntity
  8
DD0
100
AcDbBlockReference
  2
DIMS0
 10
0.0
 20
0.0
  0
INSERT
  5
5F
100
AcDbEntity
  8
DD0
100
AcDbBlockReference
  2
DIMS1
 10
0.0
 20
0.0
  0
INSERT
  5
6B
100
AcDbEntity
  8
DD0
100
AcDbBlockReference
  2
DIMS2
 10
0.0
 20
0.0
  0
INSERT
  5
77
100
AcDbEntity
  8
DD0
100
AcDbBlockReference
  2
DIMS3
 10
0.0
 20
0.0
  0
INSERT
  5
7F
100
AcDbEntity
  8
DD0
100
AcDbBlockReference
  2
DIMS4
 10
0.0
 20
0.0
  0
INSERT
  5
8B
100
AcDbEntity
  8
DD0
100
AcDbBlockReference
  2
DIMS5
 10
0.0
 20
0.0
  0
INSERT
  5
97
100
AcDbEntity
  8
DD0
100
AcDbBlockReference
  2
DIMS6
 10
0.0
 20
0.0
  0
INSERT
  5
A3
100
AcDbEntity
  8
DD0
100
AcDbBlockReference
  2
DIMS7
 10
0.0
 20
0.0
  0
INSERT
  5
AF
100
AcDbEntity
  8
DD0
100
AcDbBlockReference
  2
DIMS8
 10
0.0
 20
0.0
  0
INSERT
  5
B8
100
AcDbEntity
  8
DD0
100
AcDbBlockReference
  2
DIMS9
 10
0.0
 20
0.0
  0
INSERT
  5
C4
100
AcDbEntity
  8
DD0
100
AcDbBlockReference
  2
DIMS10
 10
0.0
 20
0.0
  0
INSERT
  5
D0
100
AcDbEntity
  8
DD0
100
AcDbBlockReference
  2
DIMS11
 10
0.0
 20
0.0
  0
LINE
  5
D1
100
AcDbEntity
  8
M0
 62
     5
100
AcDbLine
 10
127.861128
 20
364.291773
 11
129.95706
 21
366.38772
  0
LINE
  5
D2
100
AcDbEntity
  8
M0
 62
     5
100
AcDbLine
 10
125.058088
 20
361.488733
 11
127.15402
 21
363.58468
  0
LINE
  5
D3
100
AcDbEntity
  8
M0
 62
     5
100
AcDbLine
 10
126.446928
 20
364.291788
 11
124.350981
 21
362.195841
  0
LINE
  5
D4
100
AcDbEntity
  8
M0
 62
     5
100
AcDbLine
 10
129.249967
 20
367.094812
 11
127.154035
 21
364.99888
  0
LINE
  5
D5
100
AcDbEntity
  8
M0
 62
     5
100
AcDbLine
 10
127.154035
 20
364.99888
 11
126.057981
 21
366.094934
  0
LINE
  5
D6
100
AcDbEntity
  8
M0
 62
     5
100
AcDbLine
 10
128.957182
 20
363.195734
 11
127.861128
 21
364.291773
  0
LINE
  5
D7
100
AcDbEntity
  8
M0
 62
     5
100
AcDbLine
 10
127.15402
 20
363.58468
 11
128.250074
 21
362.488626
  0
LINE
  5
D8
100
AcDbEntity
  8
M0
 62
     5
100
AcDbLine
 10
125.350874
 20
365.387827
 11
126.446928
 21
364.291788
  0
CIRCLE
  5
D9
100
AcDbEntity
  8
M0
 62
     5
100
AcDbCircle
 10
127.154035
 20
364.291788
 40
3.5
  0
LINE
  5
DA
100
AcDbEntity
  8
M0
 62
     5
100
AcDbLine
 10
128.250074
 20
362.488626
 11
128.957182
 21
363.195734
  0
LINE
  5
DB
100
AcDbEntity
  8
M0
 62
     5
100
AcDbLine
 10
126.057981
 20
366.094934
 11
125.350874
 21
365.387827
  0
CIRCLE
  5
DC
100
AcDbEntity
  8
M0
 62
     5
100
AcDbCircle
 10
127.154035
 20
364.291788
 40
4.0
  0
LINE
  5
DD
100
AcDbEntity
  8
M0
 62
     5
100
AcDbLine
 10
104.861128
 20
452.291773
 11
106.95706
 21
454.38772
  0
LINE
  5
DE
100
AcDbEntity
  8
M0
 62
     5
100
AcDbLine
 10
102.058088
 20
449.488733
 11
104.15402
 21
451.58468
  0
LINE
  5
DF
100
AcDbEntity
  8
M0
 62
     5
100
AcDbLine
 10
103.446928
 20
452.291788
 11
101.350981
 21
450.195841
  0
LINE
  5
E0
100
AcDbEntity
  8
M0
 62
     5
100
AcDbLine
 10
106.249967
 20
455.094812
 11
104.154035
 21
452.99888
  0
LINE
  5
E1
100
AcDbEntity
  8
M0
 62
     5
100
AcDbLine
 10
104.154035
 20
452.99888
 11
103.057981
 21
454.094934
  0
LINE
  5
E2
100
AcDbEntity
  8
M0
 62
     5
100
AcDbLine
 10
105.957182
 20
451.195734
 11
104.861128
 21
452.291773
  0
LINE
  5
E3
100
AcDbEntity
  8
M0
 62
     5
100
AcDbLine
 10
104.15402
 20
451.58468
 11
105.250074
 21
450.488626
  0
LINE
  5
E4
100
AcDbEntity
  8
M0
 62
     5
100
AcDbLine
 10
102.350874
 20
453.387827
 11
103.446928
 21
452.291788
  0
CIRCLE
  5
E5
100
AcDbEntity
  8
M0
 62
     5
100
AcDbCircle
 10
104.154035
 20
452.291788
 40
3.5
  0
LINE
  5
E6
100
AcDbEntity
  8
M0
 62
     5
100
AcDbLine
 10
105.250074
 20
450.488626
 11
105.957182
 21
451.195734
  0
LINE
  5
E7
100
AcDbEntity
  8
M0
 62
     5
100
AcDbLine
 10
103.057981
 20
454.094934
 11
102.350874
 21
453.387827
  0
CIRCLE
  5
E8
100
AcDbEntity
  8
M0
 62
     5
100
AcDbCircle
 10
104.154035
 20
452.291788
 40
4.0
  0
LINE
  5
E9
100
AcDbEntity
  8
M0
  6
DASHDOT
 62
     5
100
AcDbLine
 10
104.15402
 20
446.767816
 11
104.154035
 21
457.815744
  0
LINE
  5
EA
100
AcDbEntity
  8
M0
100
AcDbLine
 10
95.654005
 20
351.291544
 11
102.654005
 21
351.291544
  0
LINE
  5
EB
100
AcDbEntity
  8
M0
100
AcDbLine
 10
152.15402
 20
366.7913
 11
152.15402
 21
449.7913
  0
LINE
  5
EC
100
AcDbEntity
  8
M0
100
AcDbLine
 10
79.15402
 20
449.7913
 11
79.15402
 21
366.791544
  0
LINE
  5
ED
100
AcDbEntity
  8
M0
100
AcDbLine
 10
97.15402
 20
359.291544
 11
100.15402
 21
359.291544
  0
LINE
  5
EE
100
AcDbEntity
  8
M0
100
AcDbLine
 10
134.15402
 20
457.2913
 11
131.15402
 21
457.2913
  0
LINE
  5
EF
100
AcDbEntity
  8
M0
100
AcDbLine
 10
150.15402
 20
451.791544
 11
134.65402
 21
451.7913
  0
LINE
  5
F0
100
AcDbEntity
  8
M0
100
AcDbLine
 10
81.15402
 20
364.791544
 11
96.15402
 21
364.791544
  0
LINE
  5
F1
100
AcDbEntity
  8
M0
100
AcDbLine
 10
137.65402
 20
364.291544
 11
137.65402
 21
354.291544
  0
LINE
  5
F2
100
AcDbEntity
  8
M0
100
AcDbLine
 10
126.65402
 20
358.791544
 11
126.65402
 21
354.291544
  0
LINE
  5
F3
100
AcDbEntity
  8
M0
100
AcDbLine
 10
104.65402
 20
364.2913
 11
104.65402
 21
354.291544
  0
LINE
  5
F4
100
AcDbEntity
  8
M0
100
AcDbLine
 10
93.65402
 20
364.291544
 11
93.65402
 21
354.291544
  0
LINE
  5
F5
100
AcDbEntity
  8
M0
100
AcDbLine
 10
126.65402
 20
354.291544
 11
128.65402
 21
351.291544
  0
LINE
  5
F6
100
AcDbEntity
  8
M0
100
AcDbLine
 10
137.65402
 20
354.291528
 11
135.65402
 21
351.291528
  0
LINE
  5
F7
100
AcDbEntity
  8
M0
100
AcDbLine
 10
104.65402
 20
354.291544
 11
102.65402
 21
351.291544
  0
LINE
  5
F8
100
AcDbEntity
  8
M0
100
AcDbLine
 10
93.65402
 20
354.291528
 11
95.65402
 21
351.291528
  0
LINE
  5
F9
100
AcDbEntity
  8
M0
100
AcDbLine
 10
133.15402
 20
351.291544
 11
133.15402
 21
353.791544
  0
LINE
  5
FA
100
AcDbEntity
  8
M0
100
AcDbLine
 10
131.15402
 20
351.291544
 11
131.15402
 21
353.791544
  0
LINE
  5
FB
100
AcDbEntity
  8
M0
100
AcDbLine
 10
134.65402
 20
354.291528
 11
134.65402
 21
355.7913
  0
LINE
  5
FC
100
AcDbEntity
  8
M0
100
AcDbLine
 10
129.65402
 20
354.291544
 11
129.65402
 21
355.791544
  0
LINE
  5
FD
100
AcDbEntity
  8
M0
100
AcDbLine
 10
130.15402
 20
353.791544
 11
131.15402
 21
353.791544
  0
LINE
  5
FE
100
AcDbEntity
  8
M0
100
AcDbLine
 10
130.15402
 20
356.291544
 11
134.15402
 21
356.291544
  0
LINE
  5
FF
100
AcDbEntity
  8
M0
100
AcDbLine
 10
133.15402
 20
353.791544
 11
134.15402
 21
353.791544
  0
ARC
  5
100
100
AcDbEntity
  8
M0
100
AcDbCircle
 10
134.15402
 20
354.291544
 40
0.5
100
AcDbArc
 50
269.998251
 51
360.0
  0
ARC
  5
101
100
AcDbEntity
  8
M0
100
AcDbCircle
 10
134.15402
 20
355.791544
 40
0.5
100
AcDbArc
 50
359.972023
 51
450.0
  0
ARC
  5
102
100
AcDbEntity
  8
M0
100
AcDbCircle
 10
130.15402
 20
355.791544
 40
0.5
100
AcDbArc
 50
90.0
 51
179.998251
  0
ARC
  5
103
100
AcDbEntity
  8
M0
100
AcDbCircle
 10
130.15402
 20
354.291544
 40
0.5
100
AcDbArc
 50
179.998251
 51
270.0
  0
LINE
  5
104
100
AcDbEntity
  8
M0
100
AcDbLine
 10
128.65402
 20
357.291544
 11
129.800459
 21
356.145059
  0
LINE
  5
105
100
AcDbEntity
  8
M0
100
AcDbLine
 10
128.65402
 20
352.791544
 11
129.800459
 21
353.937982
  0
LINE
  5
106
100
AcDbEntity
  8
M0
100
AcDbLine
 10
135.65402
 20
352.791528
 11
134.507581
 21
353.937967
  0
LINE
  5
107
100
AcDbEntity
  8
M0
100
AcDbLine
 10
135.65402
 20
357.2913
 11
134.507566
 21
356.144327
  0
LINE
  5
108
100
AcDbEntity
  8
M0
100
AcDbLine
 10
100.15402
 20
351.291544
 11
100.15402
 21
353.791544
  0
LINE
  5
109
100
AcDbEntity
  8
M0
100
AcDbLine
 10
101.15402
 20
353.791544
 11
100.15402
 21
353.791544
  0
LINE
  5
10A
100
AcDbEntity
  8
M0
100
AcDbLine
 10
102.65402
 20
352.791544
 11
101.507581
 21
353.937982
  0
LINE
  5
10B
100
AcDbEntity
  8
M0
100
AcDbLine
 10
101.65402
 20
354.291544
 11
101.65402
 21
355.791544
  0
LINE
  5
10C
100
AcDbEntity
  8
M0
100
AcDbLine
 10
102.65402
 20
357.291544
 11
101.507581
 21
356.145059
  0
LINE
  5
10D
100
AcDbEntity
  8
M0
100
AcDbLine
 10
101.15402
 20
356.291544
 11
97.15402
 21
356.291544
  0
LINE
  5
10E
100
AcDbEntity
  8
M0
100
AcDbLine
 10
95.65402
 20
357.2913
 11
96.800474
 21
356.144327
  0
LINE
  5
10F
100
AcDbEntity
  8
M0
100
AcDbLine
 10
96.65402
 20
354.291528
 11
96.65402
 21
355.7913
  0
LINE
  5
110
100
AcDbEntity
  8
M0
100
AcDbLine
 10
95.65402
 20
352.791528
 11
96.800459
 21
353.937967
  0
LINE
  5
111
100
AcDbEntity
  8
M0
100
AcDbLine
 10
98.15402
 20
353.791544
 11
97.15402
 21
353.791544
  0
LINE
  5
112
100
AcDbEntity
  8
M0
100
AcDbLine
 10
98.15402
 20
351.291544
 11
98.15402
 21
353.791544
  0
ARC
  5
113
100
AcDbEntity
  8
M0
100
AcDbCircle
 10
101.15402
 20
354.291544
 40
0.5
100
AcDbArc
 50
-90.0
 51
0.0
  0
ARC
  5
114
100
AcDbEntity
  8
M0
100
AcDbCircle
 10
101.15402
 20
355.791544
 40
0.5
100
AcDbArc
 50
0.0
 51
90.0
  0
ARC
  5
115
100
AcDbEntity
  8
M0
100
AcDbCircle
 10
97.15402
 20
355.791544
 40
0.5
100
AcDbArc
 50
89.998251
 51
180.02448
  0
ARC
  5
116
100
AcDbEntity
  8
M0
100
AcDbCircle
 10
97.15402
 20
354.291544
 40
0.5
100
AcDbArc
 50
179.998251
 51
270.0
  0
LINE
  5
117
100
AcDbEntity
  8
M0
100
AcDbLine
 10
128.654005
 20
351.291544
 11
135.65402
 21
351.291544
  0
ARC
  5
118
100
AcDbEntity
  8
M0
100
AcDbCircle
 10
126.15402
 20
358.791544
 40
0.5
100
AcDbArc
 50
0.0
 51
90.0
  0
LINE
  5
119
100
AcDbEntity
  8
M0
100
AcDbLine
 10
126.654035
 20
452.291055
 11
126.654035
 21
462.2913
  0
LINE
  5
11A
100
AcDbEntity
  8
M0
100
AcDbLine
 10
126.654035
 20
462.2913
 11
128.654035
 21
465.2913
  0
LINE
  5
11B
100
AcDbEntity
  8
M0
100
AcDbLine
 10
128.65402
 20
465.2913
 11
135.654035
 21
465.2913
  0
LINE
  5
11C
100
AcDbEntity
  8
M0
100
AcDbLine
 10
137.654035
 20
462.291544
 11
135.654035
 21
465.291544
  0
LINE
  5
11D
100
AcDbEntity
  8
M0
100
AcDbLine
 10
137.654035
 20
452.2913
 11
137.654035
 21
462.2913
  0
LINE
  5
11E
100
AcDbEntity
  8
M0
100
AcDbLine
 10
133.154035
 20
465.2913
 11
133.154035
 21
462.7913
  0
LINE
  5
11F
100
AcDbEntity
  8
M0
100
AcDbLine
 10
133.154035
 20
462.7913
 11
134.154035
 21
462.7913
  0
ARC
  5
120
100
AcDbEntity
  8
M0
100
AcDbCircle
 10
134.154035
 20
462.2913
 40
0.5
100
AcDbArc
 50
0.026229
 51
90.0
  0
LINE
  5
121
100
AcDbEntity
  8
M0
100
AcDbLine
 10
134.654035
 20
462.291544
 11
134.654035
 21
460.791544
  0
ARC
  5
122
100
AcDbEntity
  8
M0
100
AcDbCircle
 10
134.154035
 20
460.7913
 40
0.5
100
AcDbArc
 50
-90.001749
 51
0.026229
  0
LINE
  5
123
100
AcDbEntity
  8
M0
100
AcDbLine
 10
130.154035
 20
460.2913
 11
134.154035
 21
460.2913
  0
ARC
  5
124
100
AcDbEntity
  8
M0
100
AcDbCircle
 10
130.154035
 20
460.7913
 40
0.5
100
AcDbArc
 50
180.0
 51
270.0
  0
LINE
  5
125
100
AcDbEntity
  8
M0
100
AcDbLine
 10
129.654035
 20
462.2913
 11
129.654035
 21
460.7913
  0
ARC
  5
126
100
AcDbEntity
  8
M0
100
AcDbCircle
 10
130.154035
 20
462.2913
 40
0.5
100
AcDbArc
 50
90.0
 51
180.0
  0
LINE
  5
127
100
AcDbEntity
  8
M0
100
AcDbLine
 10
130.154035
 20
462.7913
 11
131.154035
 21
462.7913
  0
LINE
  5
128
100
AcDbEntity
  8
M0
100
AcDbLine
 10
131.154035
 20
465.2913
 11
131.154035
 21
462.7913
  0
LINE
  5
129
100
AcDbEntity
  8
M0
100
AcDbLine
 10
128.654035
 20
463.7913
 11
129.800474
 21
462.645059
  0
LINE
  5
12A
100
AcDbEntity
  8
M0
100
AcDbLine
 10
128.654035
 20
459.2913
 11
129.800474
 21
460.437784
  0
LINE
  5
12B
100
AcDbEntity
  8
M0
100
AcDbLine
 10
135.654035
 20
459.291544
 11
134.507581
 21
460.438516
  0
LINE
  5
12C
100
AcDbEntity
  8
M0
100
AcDbLine
 10
135.654035
 20
463.791544
 11
134.507597
 21
462.645059
  0
LINE
  5
12D
100
AcDbEntity
  8
M0
100
AcDbLine
 10
93.654066
 20
457.2913
 11
93.654066
 21
462.2913
  0
LINE
  5
12E
100
AcDbEntity
  8
M0
100
AcDbLine
 10
93.654066
 20
462.291544
 11
95.654066
 21
465.291544
  0
LINE
  5
12F
100
AcDbEntity
  8
M0
100
AcDbLine
 10
102.654081
 20
465.2913
 11
95.654066
 21
465.2913
  0
LINE
  5
130
100
AcDbEntity
  8
M0
100
AcDbLine
 10
104.654066
 20
462.2913
 11
102.654066
 21
465.2913
  0
LINE
  5
131
100
AcDbEntity
  8
M0
100
AcDbLine
 10
104.654066
 20
457.791055
 11
104.654066
 21
462.2913
  0
LINE
  5
132
100
AcDbEntity
  8
M0
100
AcDbLine
 10
95.654066
 20
459.291544
 11
96.80052
 21
460.438516
  0
LINE
  5
133
100
AcDbEntity
  8
M0
100
AcDbLine
 10
95.654066
 20
463.791544
 11
96.800504
 21
462.645059
  0
LINE
  5
134
100
AcDbEntity
  8
M0
100
AcDbLine
 10
102.654066
 20
463.7913
 11
101.507627
 21
462.645059
  0
LINE
  5
135
100
AcDbEntity
  8
M0
100
AcDbLine
 10
102.654066
 20
459.2913
 11
101.507627
 21
460.437784
  0
ARC
  5
136
100
AcDbEntity
  8
M0
100
AcDbCircle
 10
101.154066
 20
460.7913
 40
0.5
100
AcDbArc
 50
270.0
 51
360.0
  0
LINE
  5
137
100
AcDbEntity
  8
M0
100
AcDbLine
 10
101.154066
 20
460.2913
 11
97.154066
 21
460.2913
  0
ARC
  5
138
100
AcDbEntity
  8
M0
100
AcDbCircle
 10
97.154066
 20
460.7913
 40
0.5
100
AcDbArc
 50
179.972023
 51
270.0
  0
LINE
  5
139
100
AcDbEntity
  8
M0
100
AcDbLine
 10
96.654066
 20
462.291544
 11
96.654066
 21
460.791544
  0
ARC
  5
13A
100
AcDbEntity
  8
M0
100
AcDbCircle
 10
97.154066
 20
462.2913
 40
0.5
100
AcDbArc
 50
89.998251
 51
179.972023
  0
LINE
  5
13B
100
AcDbEntity
  8
M0
100
AcDbLine
 10
98.154066
 20
462.7913
 11
97.154066
 21
462.7913
  0
LINE
  5
13C
100
AcDbEntity
  8
M0
100
AcDbLine
 10
98.154066
 20
465.2913
 11
98.154066
 21
462.7913
  0
LINE
  5
13D
100
AcDbEntity
  8
M0
100
AcDbLine
 10
100.154066
 20
465.2913
 11
100.154066
 21
462.7913
  0
LINE
  5
13E
100
AcDbEntity
  8
M0
100
AcDbLine
 10
101.154066
 20
462.7913
 11
100.154066
 21
462.7913
  0
ARC
  5
13F
100
AcDbEntity
  8
M0
100
AcDbCircle
 10
101.154066
 20
462.2913
 40
0.5
100
AcDbArc
 50
0.0
 51
90.0
  0
LINE
  5
140
100
AcDbEntity
  8
M0
100
AcDbLine
 10
101.654066
 20
462.2913
 11
101.654066
 21
460.7913
  0
ARC
  5
141
100
AcDbEntity
  8
M0
100
AcDbCircle
 10
138.15402
 20
364.291544
 40
0.5
100
AcDbArc
 50
90.0
 51
179.998251
  0
LINE
  5
142
100
AcDbEntity
  8
M0
100
AcDbLine
 10
142.65402
 20
365.291544
 11
142.65402
 21
367.791544
  0
LINE
  5
143
100
AcDbEntity
  8
M0
100
AcDbLine
 10
134.65402
 20
367.791544
 11
142.65402
 21
367.791544
  0
ARC
  5
144
100
AcDbEntity
  8
M0
100
AcDbCircle
 10
143.15402
 20
365.291544
 40
0.5
100
AcDbArc
 50
179.998251
 51
269.998251
  0
LINE
  5
145
100
AcDbEntity
  8
M0
100
AcDbLine
 10
137.65402
 20
359.291544
 11
138.654005
 21
359.291544
  0
ARC
  5
146
100
AcDbEntity
  8
M0
100
AcDbCircle
 10
135.15402
 20
364.291544
 40
0.5
100
AcDbArc
 50
90.0
 51
179.998251
  0
LINE
  5
147
100
AcDbEntity
  8
M0
100
AcDbLine
 10
134.65402
 20
359.7913
 11
134.65402
 21
367.791544
  0
LINE
  5
148
100
AcDbEntity
  8
M0
100
AcDbLine
 10
138.65402
 20
359.291544
 11
147.65402
 21
364.791544
  0
ARC
  5
149
100
AcDbEntity
  8
M0
100
AcDbCircle
 10
150.15402
 20
366.791544
 40
2.0
100
AcDbArc
 50
269.999563
 51
359.993006
  0
LINE
  5
14A
100
AcDbEntity
  8
M0
100
AcDbLine
 10
96.654005
 20
359.791544
 11
96.65402
 21
367.791544
  0
LINE
  5
14B
100
AcDbEntity
  8
M0
100
AcDbLine
 10
96.65402
 20
367.791544
 11
88.65402
 21
367.791544
  0
LINE
  5
14C
100
AcDbEntity
  8
M0
100
AcDbLine
 10
88.65402
 20
365.291544
 11
88.65402
 21
367.791544
  0
ARC
  5
14D
100
AcDbEntity
  8
M0
100
AcDbCircle
 10
88.15402
 20
365.291544
 40
0.5
100
AcDbArc
 50
-90.0
 51
0.0
  0
ARC
  5
14E
100
AcDbEntity
  8
M0
100
AcDbCircle
 10
96.15402
 20
364.291544
 40
0.5
100
AcDbArc
 50
0.0
 51
89.998251
  0
ARC
  5
14F
100
AcDbEntity
  8
M0
100
AcDbCircle
 10
93.15402
 20
364.291544
 40
0.5
100
AcDbArc
 50
0.0
 51
89.998251
  0
LINE
  5
150
100
AcDbEntity
  8
M0
100
AcDbLine
 10
93.65402
 20
359.291544
 11
92.654035
 21
359.291544
  0
LINE
  5
151
100
AcDbEntity
  8
M0
100
AcDbLine
 10
92.65402
 20
359.291544
 11
83.65402
 21
364.791544
  0
LINE
  5
152
100
AcDbEntity
  8
M0
100
AcDbLine
 10
120.15402
 20
359.291544
 11
134.15402
 21
359.291544
  0
ARC
  5
153
100
AcDbEntity
  8
M0
100
AcDbCircle
 10
105.15402
 20
364.291544
 40
0.5
100
AcDbArc
 50
90.0
 51
180.024479
  0
LINE
  5
154
100
AcDbEntity
  8
M0
100
AcDbLine
 10
100.65402
 20
359.7913
 11
100.65402
 21
364.291544
  0
ARC
  5
155
100
AcDbEntity
  8
M0
100
AcDbCircle
 10
97.15402
 20
359.791544
 40
0.5
100
AcDbArc
 50
179.998251
 51
270.0
  0
ARC
  5
156
100
AcDbEntity
  8
M0
100
AcDbCircle
 10
100.15402
 20
359.791544
 40
0.5
100
AcDbArc
 50
270.0
 51
359.972024
  0
ARC
  5
157
100
AcDbEntity
  8
M0
100
AcDbCircle
 10
101.15402
 20
364.291544
 40
0.5
100
AcDbArc
 50
90.0
 51
179.998251
  0
ARC
  5
158
100
AcDbEntity
  8
M0
100
AcDbCircle
 10
81.15402
 20
366.791544
 40
2.0
100
AcDbArc
 50
179.999563
 51
270.0
  0
LINE
  5
159
100
AcDbEntity
  8
M0
100
AcDbLine
 10
101.15402
 20
364.791544
 11
119.15402
 21
364.791544
  0
LINE
  5
15A
100
AcDbEntity
  8
M0
100
AcDbLine
 10
119.65402
 20
359.791544
 11
119.65402
 21
367.791544
  0
LINE
  5
15B
100
AcDbEntity
  8
M0
100
AcDbLine
 10
111.65402
 20
365.2913
 11
111.65402
 21
367.791544
  0
LINE
  5
15C
100
AcDbEntity
  8
M0
100
AcDbLine
 10
111.65402
 20
367.791544
 11
119.65402
 21
367.791544
  0
ARC
  5
15D
100
AcDbEntity
  8
M0
100
AcDbCircle
 10
111.15402
 20
365.291544
 40
0.5
100
AcDbArc
 50
270.0
 51
359.972024
  0
LINE
  5
15E
100
AcDbEntity
  8
M0
100
AcDbLine
 10
122.65402
 20
359.7913
 11
122.65402
 21
364.291544
  0
LINE
  5
15F
100
AcDbEntity
  8
M0
100
AcDbLine
 10
131.65402
 20
359.791544
 11
131.65402
 21
364.291544
  0
LINE
  5
160
100
AcDbEntity
  8
M0
100
AcDbLine
 10
135.15402
 20
364.791544
 11
150.15402
 21
364.791544
  0
ARC
  5
161
100
AcDbEntity
  8
M0
100
AcDbCircle
 10
122.15402
 20
359.791544
 40
0.5
100
AcDbArc
 50
270.0
 51
359.972023
  0
ARC
  5
162
100
AcDbEntity
  8
M0
100
AcDbCircle
 10
132.15402
 20
359.791544
 40
0.5
100
AcDbArc
 50
179.998251
 51
269.998251
  0
ARC
  5
163
100
AcDbEntity
  8
M0
100
AcDbCircle
 10
120.15402
 20
359.791544
 40
0.5
100
AcDbArc
 50
179.998251
 51
270.0
  0
ARC
  5
164
100
AcDbEntity
  8
M0
100
AcDbCircle
 10
134.15402
 20
359.791544
 40
0.5
100
AcDbArc
 50
269.998251
 51
359.972023
  0
ARC
  5
165
100
AcDbEntity
  8
M0
100
AcDbCircle
 10
150.15402
 20
449.7913
 40
2.0
100
AcDbArc
 50
0.0
 51
90.0
  0
ARC
  5
166
100
AcDbEntity
  8
M0
100
AcDbCircle
 10
81.15402
 20
449.7913
 40
2.0
100
AcDbArc
 50
89.999563
 51
180.0
  0
LINE
  5
167
100
AcDbEntity
  8
M0
100
AcDbLine
 10
92.654035
 20
457.2913
 11
83.65402
 21
451.7913
  0
LINE
  5
168
100
AcDbEntity
  8
M0
100
AcDbLine
 10
93.654035
 20
457.2913
 11
92.654051
 21
457.2913
  0
LINE
  5
169
100
AcDbEntity
  8
M0
100
AcDbLine
 10
137.654035
 20
457.2913
 11
138.65402
 21
457.2913
  0
LINE
  5
16A
100
AcDbEntity
  8
M0
100
AcDbLine
 10
138.654035
 20
457.2913
 11
147.65402
 21
451.7913
  0
ARC
  5
16B
100
AcDbEntity
  8
M0
100
AcDbCircle
 10
119.15402
 20
364.291544
 40
0.5
100
AcDbArc
 50
359.972023
 51
450.0
  0
LINE
  5
16C
100
AcDbEntity
  8
M0
100
AcDbLine
 10
142.65402
 20
451.2913
 11
142.65402
 21
448.7913
  0
LINE
  5
16D
100
AcDbEntity
  8
M0
100
AcDbLine
 10
134.65402
 20
448.7913
 11
142.65402
 21
448.7913
  0
LINE
  5
16E
100
AcDbEntity
  8
M0
100
AcDbLine
 10
134.65402
 20
456.791055
 11
134.65402
 21
448.7913
  0
LINE
  5
16F
100
AcDbEntity
  8
M0
100
AcDbLine
 10
111.65402
 20
448.7913
 11
119.65402
 21
448.7913
  0
LINE
  5
170
100
AcDbEntity
  8
M0
100
AcDbLine
 10
96.654005
 20
456.791055
 11
96.65402
 21
448.7913
  0
LINE
  5
171
100
AcDbEntity
  8
M0
100
AcDbLine
 10
96.65402
 20
448.7913
 11
88.65402
 21
448.7913
  0
LINE
  5
172
100
AcDbEntity
  8
M0
100
AcDbLine
 10
88.65402
 20
451.2913
 11
88.65402
 21
448.7913
  0
ARC
  5
173
100
AcDbEntity
  8
M0
100
AcDbCircle
 10
143.15402
 20
451.2913
 40
0.5
100
AcDbArc
 50
90.0
 51
180.0
  0
ARC
  5
174
100
AcDbEntity
  8
M0
100
AcDbCircle
 10
88.15402
 20
451.2913
 40
0.5
100
AcDbArc
 50
0.0
 51
89.998251
  0
LINE
  5
175
100
AcDbEntity
  8
M0
100
AcDbLine
 10
119.654081
 20
451.2913
 11
119.654081
 21
448.791055
  0
LINE
  5
176
100
AcDbEntity
  8
M0
100
AcDbLine
 10
111.654081
 20
456.790811
 11
111.654081
 21
448.7913
  0
ARC
  5
177
100
AcDbEntity
  8
M0
100
AcDbCircle
 10
120.154081
 20
451.2913
 40
0.5
100
AcDbArc
 50
90.0
 51
180.0
  0
ARC
  5
178
100
AcDbEntity
  8
M0
100
AcDbCircle
 10
134.15402
 20
456.791055
 40
0.5
100
AcDbArc
 50
0.0
 51
90.0
  0
ARC
  5
179
100
AcDbEntity
  8
M0
100
AcDbCircle
 10
97.154005
 20
456.791055
 40
0.5
100
AcDbArc
 50
89.998251
 51
180.0
  0
ARC
  5
17A
100
AcDbEntity
  8
M0
100
AcDbCircle
 10
105.154066
 20
457.791055
 40
0.5
100
AcDbArc
 50
180.0
 51
270.0
  0
ARC
  5
17B
100
AcDbEntity
  8
M0
100
AcDbCircle
 10
126.154035
 20
452.2913
 40
0.5
100
AcDbArc
 50
270.0
 51
359.968526
  0
LINE
  5
17C
100
AcDbEntity
  8
M0
100
AcDbLine
 10
111.154081
 20
457.291055
 11
97.154005
 21
457.291055
  0
ARC
  5
17D
100
AcDbEntity
  8
M0
100
AcDbCircle
 10
111.154081
 20
456.790811
 40
0.5
100
AcDbArc
 50
0.0
 51
90.0
  0
LINE
  5
17E
100
AcDbEntity
  8
M0
100
AcDbLine
 10
130.65402
 20
456.791055
 11
130.65402
 21
452.291055
  0
LINE
  5
17F
100
AcDbEntity
  8
M0
100
AcDbLine
 10
130.15402
 20
451.7913
 11
112.138456
 21
451.7913
  0
ARC
  5
180
100
AcDbEntity
  8
M0
100
AcDbCircle
 10
131.15402
 20
456.791055
 40
0.5
100
AcDbArc
 50
90.0
 51
180.0
  0
ARC
  5
181
100
AcDbEntity
  8
M0
100
AcDbCircle
 10
138.154035
 20
452.2913
 40
0.5
100
AcDbArc
 50
180.0
 51
269.998251
  0
ARC
  5
182
100
AcDbEntity
  8
M0
100
AcDbCircle
 10
112.154081
 20
452.291055
 40
0.5
100
AcDbArc
 50
180.0
 51
270.0
  0
LINE
  5
183
100
AcDbEntity
  8
M0
100
AcDbLine
 10
96.154005
 20
451.791055
 11
81.15402
 21
451.7913
  0
ARC
  5
184
100
AcDbEntity
  8
M0
100
AcDbCircle
 10
96.154005
 20
452.290811
 40
0.5
100
AcDbArc
 50
270.0
 51
360.0
  0
ARC
  5
185
100
AcDbEntity
  8
M0
100
AcDbCircle
 10
130.15402
 20
452.291055
 40
0.5
100
AcDbArc
 50
270.0
 51
360.0
  0
LINE
  5
186
100
AcDbEntity
  8
M0
100
AcDbLine
 10
108.654081
 20
456.790811
 11
108.654081
 21
452.2913
  0
LINE
  5
187
100
AcDbEntity
  8
M0
100
AcDbLine
 10
99.654081
 20
456.790811
 11
99.654081
 21
452.2913
  0
ARC
  5
188
100
AcDbEntity
  8
M0
100
AcDbCircle
 10
109.154081
 20
456.790811
 40
0.5
100
AcDbArc
 50
90.0
 51
180.0
  0
ARC
  5
189
100
AcDbEntity
  8
M0
100
AcDbCircle
 10
99.154081
 20
456.790811
 40
0.5
100
AcDbArc
 50
0.0
 51
89.998251
  0
LINE
  5
18A
100
AcDbEntity
  8
M0
100
AcDbLine
 10
126.954008
 20
392.591348
 11
126.954008
 21
395.091104
  0
LINE
  5
18B
100
AcDbEntity
  8
M0
100
AcDbLine
 10
104.354017
 20
392.591348
 11
104.354017
 21
395.091348
  0
LINE
  5
18C
100
AcDbEntity
  8
M0
100
AcDbLine
 10
107.354017
 20
398.091348
 11
123.954008
 21
398.091348
  0
LINE
  5
18D
100
AcDbEntity
  8
M0
100
AcDbLine
 10
105.117948
 20
397.091348
 11
126.190061
 21
397.091348
  0
LINE
  5
18E
100
AcDbEntity
  8
M0
100
AcDbLine
 10
104.854017
 20
392.091348
 11
126.454008
 21
392.091348
  0
ARC
  5
18F
100
AcDbEntity
  8
M0
100
AcDbCircle
 10
126.454008
 20
392.591348
 40
0.5
100
AcDbArc
 50
270.0
 51
360.0
  0
ARC
  5
190
100
AcDbEntity
  8
M0
100
AcDbCircle
 10
104.854017
 20
392.591348
 40
0.5
100
AcDbArc
 50
179.999891
 51
270.0
  0
LINE
  5
191
100
AcDbEntity
  8
M0
100
AcDbLine
 10
107.354017
 20
402.091348
 11
107.65402
 21
402.091348
  0
LINE
  5
192
100
AcDbEntity
  8
M0
100
AcDbLine
 10
104.354017
 20
405.091348
 11
104.354017
 21
415.391153
  0
LINE
  5
193
100
AcDbEntity
  8
M0
100
AcDbLine
 10
126.954008
 20
405.091104
 11
126.954008
 21
415.390909
  0
ARC
  5
194
100
AcDbEntity
  8
M0
100
AcDbCircle
 10
123.954008
 20
395.091348
 40
3.0
100
AcDbArc
 50
0.0
 51
90.0
  0
ARC
  5
195
100
AcDbEntity
  8
M0
100
AcDbCircle
 10
107.354017
 20
395.091348
 40
3.0
100
AcDbArc
 50
90.0
 51
179.999964
  0
ARC
  5
196
100
AcDbEntity
  8
M0
100
AcDbCircle
 10
107.354017
 20
405.091348
 40
3.0
100
AcDbArc
 50
179.999964
 51
270.0
  0
ARC
  5
197
100
AcDbEntity
  8
M0
100
AcDbCircle
 10
123.954008
 20
405.091348
 40
3.0
100
AcDbArc
 50
270.0
 51
360.0
  0
LINE
  5
198
100
AcDbEntity
  8
M0
100
AcDbLine
 10
113.65402
 20
424.091348
 11
117.65402
 21
424.091348
  0
ARC
  5
199
100
AcDbEntity
  8
M0
100
AcDbCircle
 10
123.954008
 20
415.391153
 40
3.0
100
AcDbArc
 50
0.0
 51
90.0
  0
ARC
  5
19A
100
AcDbEntity
  8
M0
100
AcDbCircle
 10
107.354017
 20
415.391153
 40
3.0
100
AcDbArc
 50
90.0
 51
179.999982
  0
ARC
  5
19B
100
AcDbEntity
  8
M0
100
AcDbCircle
 10
126.454008
 20
415.591104
 40
0.5
100
AcDbArc
 50
359.971805
 51
436.021458
  0
ARC
  5
19C
100
AcDbEntity
  8
M0
100
AcDbCircle
 10
104.854017
 20
415.591104
 40
0.5
100
AcDbArc
 50
103.981802
 51
180.0
  0
LINE
  5
19D
100
AcDbEntity
  8
M0
100
AcDbLine
 10
123.65402
 20
402.091348
 11
123.65402
 21
398.091348
  0
LINE
  5
19E
100
AcDbEntity
  8
M0
100
AcDbLine
 10
107.65402
 20
402.091348
 11
107.65402
 21
398.091348
  0
LINE
  5
19F
100
AcDbEntity
  8
M0
100
AcDbLine
 10
123.65402
 20
402.091348
 11
123.954008
 21
402.091348
  0
LINE
  5
1A0
100
AcDbEntity
  8
M0
100
AcDbLine
 10
123.503996
 20
401.091348
 11
123.65402
 21
401.091348
  0
LINE
  5
1A1
100
AcDbEntity
  8
M0
100
AcDbLine
 10
123.503996
 20
399.091348
 11
123.65402
 21
399.091348
  0
LINE
  5
1A2
100
AcDbEntity
  8
M0
100
AcDbLine
 10
107.65402
 20
401.091348
 11
107.803999
 21
401.091348
  0
LINE
  5
1A3
100
AcDbEntity
  8
M0
100
AcDbLine
 10
107.65402
 20
399.091348
 11
107.803999
 21
399.091348
  0
LINE
  5
1A4
100
AcDbEntity
  8
M0
100
AcDbLine
 10
106.804014
 20
402.814249
 11
106.804014
 21
402.14213
  0
LINE
  5
1A5
100
AcDbEntity
  8
M0
100
AcDbLine
 10
124.504011
 20
402.814249
 11
124.504011
 21
402.14213
  0
LINE
  5
1A6
100
AcDbEntity
  8
M0
100
AcDbLine
 10
119.65402
 20
420.791055
 11
119.65402
 21
418.391153
  0
LINE
  5
1A7
100
AcDbEntity
  8
M0
100
AcDbLine
 10
111.65402
 20
420.7913
 11
111.65402
 21
418.391153
  0
LINE
  5
1A8
100
AcDbEntity
  8
M0
100
AcDbLine
 10
118.15402
 20
423.591348
 11
118.15402
 21
420.091104
  0
LINE
  5
1A9
100
AcDbEntity
  8
M0
100
AcDbLine
 10
113.15402
 20
423.591348
 11
113.15402
 21
420.091348
  0
LINE
  5
1AA
100
AcDbEntity
  8
M0
100
AcDbLine
 10
111.65402
 20
420.091348
 11
113.15402
 21
420.091348
  0
LINE
  5
1AB
100
AcDbEntity
  8
M0
100
AcDbLine
 10
119.65402
 20
420.091348
 11
118.15402
 21
420.091348
  0
LINE
  5
1AC
100
AcDbEntity
  8
M0
100
AcDbLine
 10
111.65402
 20
420.7913
 11
113.15402
 21
420.7913
  0
LINE
  5
1AD
100
AcDbEntity
  8
M0
100
AcDbLine
 10
119.65402
 20
420.7913
 11
118.15402
 21
420.7913
  0
ARC
  5
1AE
100
AcDbEntity
  8
M0
100
AcDbCircle
 10
117.65402
 20
423.591348
 40
0.5
100
AcDbArc
 50
0.0
 51
90.0
  0
ARC
  5
1AF
100
AcDbEntity
  8
M0
100
AcDbCircle
 10
113.65402
 20
423.591348
 40
0.5
100
AcDbArc
 50
90.0
 51
180.0
  0
ARC
  5
1B0
100
AcDbEntity
  8
M0
100
AcDbCircle
 10
127.15402
 20
364.291544
 40
4.5
100
AcDbArc
 50
0.0
 51
179.999806
  0
ARC
  5
1B1
100
AcDbEntity
  8
M0
100
AcDbCircle
 10
104.15402
 20
452.291544
 40
4.5
100
AcDbArc
 50
180.0
 51
360.0
  0
CIRCLE
  5
1B2
100
AcDbEntity
  8
M0
100
AcDbCircle
 10
147.65402
 20
445.291544
 40
1.86
  0
CIRCLE
  5
1B3
100
AcDbEntity
  8
M0
100
AcDbCircle
 10
147.65402
 20
371.291544
 40
1.86
  0
CIRCLE
  5
1B4
100
AcDbEntity
  8
M0
100
AcDbCircle
 10
83.65402
 20
371.291544
 40
1.86
  0
CIRCLE
  5
1B5
100
AcDbEntity
  8
M0
100
AcDbCircle
 10
83.65402
 20
445.291544
 40
1.86
  0
CIRCLE
  5
1B6
100
AcDbEntity
  8
M0
100
AcDbCircle
 10
147.65402
 20
371.291544
 40
1.36
  0
CIRCLE
  5
1B7
100
AcDbEntity
  8
M0
100
AcDbCircle
 10
83.65402
 20
371.291544
 40
1.36
  0
CIRCLE
  5
1B8
100
AcDbEntity
  8
M0
100
AcDbCircle
 10
83.65402
 20
445.291544
 40
1.36
  0
CIRCLE
  5
1B9
100
AcDbEntity
  8
M0
100
AcDbCircle
 10
147.65402
 20
445.291544
 40
1.36
  0
LINE
  5
1BA
100
AcDbEntity
  8
M0
 62
     4
100
AcDbLine
 10
123.403883
 20
356.291544
 11
126.654051
 21
356.291544
  0
LINE
  5
1BB
100
AcDbEntity
  8
M0
 62
     4
100
AcDbLine
 10
107.904234
 20
460.291055
 11
104.654051
 21
460.291055
  0
LINE
  5
1BC
100
AcDbEntity
  8
M0
 62
     4
100
AcDbLine
 10
65.654051
 20
445.291544
 11
65.654051
 21
371.291544
  0
LINE
  5
1BD
100
AcDbEntity
  8
M0
 62
     4
100
AcDbLine
 10
121.654051
 20
357.846719
 11
121.654051
 21
359.291544
  0
LINE
  5
1BE
100
AcDbEntity
  8
M0
 62
     4
100
AcDbLine
 10
151.154051
 20
455.567178
 11
151.154051
 21
451.522989
  0
LINE
  5
1BF
100
AcDbEntity
  8
M0
 62
     4
100
AcDbLine
 10
80.154051
 20
455.567178
 11
80.154051
 21
451.523233
  0
LINE
  5
1C0
100
AcDbEntity
  8
M0
 62
     4
100
AcDbLine
 10
151.154051
 20
365.05961
 11
151.154051
 21
361.015421
  0
LINE
  5
1C1
100
AcDbEntity
  8
M0
 62
     4
100
AcDbLine
 10
80.154051
 20
365.059366
 11
80.154051
 21
361.015665
  0
LINE
  5
1C2
100
AcDbEntity
  8
M0
 62
     4
100
AcDbLine
 10
104.654051
 20
358.791544
 11
110.154005
 21
358.791544
  0
LINE
  5
1C3
100
AcDbEntity
  8
M0
 62
     4
100
AcDbLine
 10
126.654051
 20
457.7913
 11
121.15402
 21
457.791055
  0
LINE
  5
1C4
100
AcDbEntity
  8
M0
 62
     4
100
AcDbLine
 10
109.654051
 20
458.73588
 11
109.654051
 21
457.290811
  0
ARC
  5
1C5
100
AcDbEntity
  8
M0
 62
     4
100
AcDbCircle
 10
110.154051
 20
457.291055
 40
0.5
100
AcDbArc
 50
90.0
 51
180.0
  0
ARC
  5
1C6
100
AcDbEntity
  8
M0
 62
     4
100
AcDbCircle
 10
121.154051
 20
359.291544
 40
0.5
100
AcDbArc
 50
270.0
 51
360.0
  0
LINE
  5
1C7
100
AcDbEntity
  8
M0
 62
     4
100
AcDbLine
 10
105.854002
 20
358.791544
 11
105.854002
 21
360.791544
  0
LINE
  5
1C8
100
AcDbEntity
  8
M0
 62
     4
100
AcDbLine
 10
106.354002
 20
361.291544
 11
109.154051
 21
361.291544
  0
LINE
  5
1C9
100
AcDbEntity
  8
M0
 62
     4
100
AcDbLine
 10
109.654051
 20
364.791544
 11
109.654051
 21
361.791544
  0
ARC
  5
1CA
100
AcDbEntity
  8
M0
 62
     4
100
AcDbCircle
 10
109.154051
 20
361.791544
 40
0.5
100
AcDbArc
 50
270.0
 51
360.0
  0
ARC
  5
1CB
100
AcDbEntity
  8
M0
 62
     4
100
AcDbCircle
 10
106.354002
 20
360.791544
 40
0.5
100
AcDbArc
 50
90.0
 51
179.998251
  0
LINE
  5
1CC
100
AcDbEntity
  8
M0
 62
     4
100
AcDbLine
 10
104.654051
 20
364.291544
 11
109.154051
 21
364.291544
  0
ARC
  5
1CD
100
AcDbEntity
  8
M0
 62
     4
100
AcDbCircle
 10
109.154051
 20
363.791544
 40
0.5
100
AcDbArc
 50
0.0
 51
90.0
  0
LINE
  5
1CE
100
AcDbEntity
  8
M0
 62
     4
100
AcDbLine
 10
124.953855
 20
455.291055
 11
122.154051
 21
455.291055
  0
LINE
  5
1CF
100
AcDbEntity
  8
M0
 62
     4
100
AcDbLine
 10
121.654051
 20
454.790811
 11
121.654051
 21
451.791055
  0
LINE
  5
1D0
100
AcDbEntity
  8
M0
 62
     4
100
AcDbLine
 10
125.453855
 20
457.7913
 11
125.453855
 21
455.790811
  0
LINE
  5
1D1
100
AcDbEntity
  8
M0
 62
     4
100
AcDbLine
 10
122.154051
 20
452.291544
 11
126.654051
 21
452.291544
  0
ARC
  5
1D2
100
AcDbEntity
  8
M0
 62
     4
100
AcDbCircle
 10
122.154051
 20
454.790811
 40
0.5
100
AcDbArc
 50
90.0
 51
180.0
  0
ARC
  5
1D3
100
AcDbEntity
  8
M0
 62
     4
100
AcDbCircle
 10
124.953855
 20
455.790811
 40
0.5
100
AcDbArc
 50
270.0
 51
360.0
  0
ARC
  5
1D4
100
AcDbEntity
  8
M0
 62
     4
100
AcDbCircle
 10
122.154051
 20
452.791544
 40
0.5
100
AcDbArc
 50
180.0
 51
270.0
  0
LINE
  5
1D5
100
AcDbEntity
  8
M0
 62
     4
100
AcDbLine
 10
66.154051
 20
445.791544
 11
79.154051
 21
445.791544
  0
LINE
  5
1D6
100
AcDbEntity
  8
M0
 62
     4
100
AcDbLine
 10
66.154051
 20
370.791544
 11
79.154051
 21
370.791544
  0
ARC
  5
1D7
100
AcDbEntity
  8
M0
 62
     4
100
AcDbCircle
 10
66.154051
 20
445.291544
 40
0.5
100
AcDbArc
 50
89.998251
 51
180.0
  0
ARC
  5
1D8
100
AcDbEntity
  8
M0
 62
     4
100
AcDbCircle
 10
66.154051
 20
371.291544
 40
0.5
100
AcDbArc
 50
179.998251
 51
270.0
  0
LINE
  5
1D9
100
AcDbEntity
  8
M0
 62
     4
100
AcDbLine
 10
165.154051
 20
370.7913
 11
152.154051
 21
370.7913
  0
LINE
  5
1DA
100
AcDbEntity
  8
M0
 62
     4
100
AcDbLine
 10
165.654051
 20
445.291055
 11
165.654051
 21
371.291055
  0
LINE
  5
1DB
100
AcDbEntity
  8
M0
 62
     4
100
AcDbLine
 10
165.154051
 20
445.7913
 11
152.154051
 21
445.7913
  0
ARC
  5
1DC
100
AcDbEntity
  8
M0
 62
     4
100
AcDbCircle
 10
165.154051
 20
371.291055
 40
0.5
100
AcDbArc
 50
269.998251
 51
360.0
  0
ARC
  5
1DD
100
AcDbEntity
  8
M0
 62
     4
100
AcDbCircle
 10
165.154051
 20
445.291055
 40
0.5
100
AcDbArc
 50
0.0
 51
90.0
  0
LINE
  5
1DE
100
AcDbEntity
  8
M0
 62
     4
100
AcDbLine
 10
77.654051
 20
383.291544
 11
77.654051
 21
401.291544
  0
LINE
  5
1DF
100
AcDbEntity
  8
M0
 62
     4
100
AcDbLine
 10
69.654051
 20
381.2913
 11
69.654051
 21
401.291544
  0
LINE
  5
1E0
100
AcDbEntity
  8
M0
 62
     4
100
AcDbLine
 10
66.154051
 20
435.791544
 11
69.154051
 21
435.791544
  0
LINE
  5
1E1
100
AcDbEntity
  8
M0
 62
     4
100
AcDbLine
 10
66.154051
 20
380.791544
 11
69.154051
 21
380.791544
  0
LINE
  5
1E2
100
AcDbEntity
  8
M0
 62
     4
100
AcDbLine
 10
69.654051
 20
433.291544
 11
70.504041
 21
433.291544
  0
LINE
  5
1E3
100
AcDbEntity
  8
M0
 62
     4
100
AcDbLine
 10
69.654051
 20
383.291544
 11
70.504041
 21
383.291544
  0
LINE
  5
1E4
100
AcDbEntity
  8
M0
 62
     4
100
AcDbLine
 10
66.154051
 20
425.791544
 11
69.154051
 21
425.791544
  0
LINE
  5
1E5
100
AcDbEntity
  8
M0
 62
     4
100
AcDbLine
 10
66.154051
 20
390.791544
 11
69.154051
 21
390.791544
  0
LINE
  5
1E6
100
AcDbEntity
  8
M0
 62
     4
100
AcDbLine
 10
165.154051
 20
380.7913
 11
162.154051
 21
380.7913
  0
LINE
  5
1E7
100
AcDbEntity
  8
M0
 62
     4
100
AcDbLine
 10
165.154051
 20
390.7913
 11
162.154051
 21
390.7913
  0
LINE
  5
1E8
100
AcDbEntity
  8
M0
 62
     4
100
AcDbLine
 10
165.154051
 20
425.7913
 11
162.154051
 21
425.7913
  0
LINE
  5
1E9
100
AcDbEntity
  8
M0
 62
     4
100
AcDbLine
 10
165.154051
 20
435.7913
 11
162.154051
 21
435.7913
  0
LINE
  5
1EA
100
AcDbEntity
  8
M0
 62
     4
100
AcDbLine
 10
161.654051
 20
433.2913
 11
161.054029
 21
433.291055
  0
LINE
  5
1EB
100
AcDbEntity
  8
M0
 62
     4
100
AcDbLine
 10
161.654051
 20
383.2913
 11
161.054029
 21
383.291055
  0
LINE
  5
1EC
100
AcDbEntity
  8
M0
 62
     4
100
AcDbLine
 10
153.654051
 20
383.2913
 11
153.654051
 21
401.291544
  0
LINE
  5
1ED
100
AcDbEntity
  8
M0
 62
     4
100
AcDbLine
 10
161.654051
 20
381.291055
 11
161.654051
 21
401.291544
  0
LINE
  5
1EE
100
AcDbEntity
  8
M0
 62
     4
100
AcDbLine
 10
65.654051
 20
412.041544
 11
72.654051
 21
412.041544
  0
LINE
  5
1EF
100
AcDbEntity
  8
M0
 62
     4
100
AcDbLine
 10
65.654051
 20
404.541544
 11
72.654051
 21
404.541544
  0
LINE
  5
1F0
100
AcDbEntity
  8
M0
 62
     4
100
AcDbLine
 10
158.654051
 20
412.041544
 11
165.654051
 21
412.041544
  0
LINE
  5
1F1
100
AcDbEntity
  8
M0
 62
     4
100
AcDbLine
 10
158.654051
 20
404.541544
 11
165.654051
 21
404.541544
  0
LINE
  5
1F2
100
AcDbEntity
  8
M0
 62
     4
100
AcDbLine
 10
73.654051
 20
411.041544
 11
73.654051
 21
405.541544
  0
LINE
  5
1F3
100
AcDbEntity
  8
M0
 62
     4
100
AcDbLine
 10
157.654051
 20
411.041544
 11
157.654051
 21
405.541544
  0
LINE
  5
1F4
100
AcDbEntity
  8
M0
 62
     4
100
AcDbLine
 10
161.654051
 20
411.041544
 11
165.654051
 21
411.041544
  0
LINE
  5
1F5
100
AcDbEntity
  8
M0
 62
     4
100
AcDbLine
 10
161.654051
 20
405.541544
 11
165.654051
 21
405.541544
  0
LINE
  5
1F6
100
AcDbEntity
  8
M0
 62
     4
100
AcDbLine
 10
65.654051
 20
411.041544
 11
69.654051
 21
411.041544
  0
LINE
  5
1F7
100
AcDbEntity
  8
M0
 62
     4
100
AcDbLine
 10
65.654051
 20
405.541544
 11
69.654051
 21
405.541544
  0
LINE
  5
1F8
100
AcDbEntity
  8
M0
 62
     4
100
AcDbLine
 10
69.654051
 20
411.041544
 11
69.654051
 21
412.041544
  0
LINE
  5
1F9
100
AcDbEntity
  8
M0
 62
     4
100
AcDbLine
 10
161.654051
 20
411.041544
 11
161.654051
 21
412.041544
  0
LINE
  5
1FA
100
AcDbEntity
  8
M0
 62
     4
100
AcDbLine
 10
162.154051
 20
412.041544
 11
162.154051
 21
411.041544
  0
LINE
  5
1FB
100
AcDbEntity
  8
M0
 62
     4
100
AcDbLine
 10
162.154051
 20
405.541544
 11
162.154051
 21
404.541544
  0
LINE
  5
1FC
100
AcDbEntity
  8
M0
 62
     4
100
AcDbLine
 10
69.154051
 20
412.041544
 11
69.154051
 21
411.041544
  0
LINE
  5
1FD
100
AcDbEntity
  8
M0
 62
     4
100
AcDbLine
 10
69.154051
 20
405.541544
 11
69.154051
 21
404.541544
  0
LINE
  5
1FE
100
AcDbEntity
  8
M0
 62
     4
100
AcDbLine
 10
70.654051
 20
414.291544
 11
76.654051
 21
414.291544
  0
LINE
  5
1FF
100
AcDbEntity
  8
M0
 62
     4
100
AcDbLine
 10
70.654051
 20
402.291544
 11
76.654051
 21
402.291544
  0
LINE
  5
200
100
AcDbEntity
  8
M0
 62
     4
100
AcDbLine
 10
154.654051
 20
414.291544
 11
160.654051
 21
414.291544
  0
LINE
  5
201
100
AcDbEntity
  8
M0
 62
     4
100
AcDbLine
 10
154.654051
 20
402.291544
 11
160.654051
 21
402.291544
  0
LINE
  5
202
100
AcDbEntity
  8
M0
 62
     4
100
AcDbLine
 10
69.654051
 20
415.291544
 11
69.654051
 21
435.291544
  0
LINE
  5
203
100
AcDbEntity
  8
M0
 62
     4
100
AcDbLine
 10
69.654051
 20
404.541544
 11
69.654051
 21
405.541544
  0
LINE
  5
204
100
AcDbEntity
  8
M0
 62
     4
100
AcDbLine
 10
161.654051
 20
415.2913
 11
161.654051
 21
435.291055
  0
LINE
  5
205
100
AcDbEntity
  8
M0
 62
     4
100
AcDbLine
 10
161.654051
 20
404.541544
 11
161.654051
 21
405.541544
  0
LINE
  5
206
100
AcDbEntity
  8
M0
 62
     4
100
AcDbLine
 10
77.654051
 20
415.2913
 11
77.654051
 21
433.291544
  0
LINE
  5
207
100
AcDbEntity
  8
M0
 62
     4
100
AcDbLine
 10
153.654051
 20
415.291544
 11
153.654051
 21
433.2913
  0
ARC
  5
208
100
AcDbEntity
  8
M0
 62
     4
100
AcDbCircle
 10
70.654051
 20
415.291544
 40
1.0
100
AcDbArc
 50
180.0
 51
270.0
  0
ARC
  5
209
100
AcDbEntity
  8
M0
 62
     4
100
AcDbCircle
 10
76.654051
 20
415.291544
 40
1.0
100
AcDbArc
 50
270.0
 51
359.985902
  0
ARC
  5
20A
100
AcDbEntity
  8
M0
 62
     4
100
AcDbCircle
 10
76.654051
 20
401.291544
 40
1.0
100
AcDbArc
 50
0.0
 51
89.999126
  0
ARC
  5
20B
100
AcDbEntity
  8
M0
 62
     4
100
AcDbCircle
 10
70.654051
 20
401.291544
 40
1.0
100
AcDbArc
 50
89.999126
 51
179.999945
  0
ARC
  5
20C
100
AcDbEntity
  8
M0
 62
     4
100
AcDbCircle
 10
160.654051
 20
401.291544
 40
1.0
100
AcDbArc
 50
0.0
 51
90.0
  0
ARC
  5
20D
100
AcDbEntity
  8
M0
 62
     4
100
AcDbCircle
 10
154.654051
 20
401.291544
 40
1.0
100
AcDbArc
 50
90.0
 51
179.999945
  0
ARC
  5
20E
100
AcDbEntity
  8
M0
 62
     4
100
AcDbCircle
 10
154.654051
 20
415.291544
 40
1.0
100
AcDbArc
 50
180.0
 51
269.999126
  0
ARC
  5
20F
100
AcDbEntity
  8
M0
 62
     4
100
AcDbCircle
 10
160.654051
 20
415.291544
 40
1.0
100
AcDbArc
 50
269.999126
 51
359.985902
  0
ARC
  5
210
100
AcDbEntity
  8
M0
 62
     4
100
AcDbCircle
 10
162.154051
 20
435.291055
 40
0.5
100
AcDbArc
 50
90.0
 51
180.0
  0
ARC
  5
211
100
AcDbEntity
  8
M0
 62
     4
100
AcDbCircle
 10
69.154051
 20
435.291544
 40
0.5
100
AcDbArc
 50
0.0
 51
89.998251
  0
ARC
  5
212
100
AcDbEntity
  8
M0
 62
     4
100
AcDbCircle
 10
69.154051
 20
381.291544
 40
0.5
100
AcDbArc
 50
270.0
 51
359.972024
  0
ARC
  5
213
100
AcDbEntity
  8
M0
 62
     4
100
AcDbCircle
 10
66.154051
 20
391.291544
 40
0.5
100
AcDbArc
 50
179.998251
 51
270.0
  0
ARC
  5
214
100
AcDbEntity
  8
M0
 62
     4
100
AcDbCircle
 10
66.154051
 20
381.291544
 40
0.5
100
AcDbArc
 50
179.998251
 51
270.0
  0
ARC
  5
215
100
AcDbEntity
  8
M0
 62
     4
100
AcDbCircle
 10
69.154051
 20
425.291544
 40
0.5
100
AcDbArc
 50
359.968526
 51
449.998251
  0
ARC
  5
216
100
AcDbEntity
  8
M0
 62
     4
100
AcDbCircle
 10
165.154051
 20
435.291055
 40
0.5
100
AcDbArc
 50
0.0
 51
90.0
  0
ARC
  5
217
100
AcDbEntity
  8
M0
 62
     4
100
AcDbCircle
 10
165.154051
 20
425.291055
 40
0.5
100
AcDbArc
 50
0.0
 51
90.0
  0
ARC
  5
218
100
AcDbEntity
  8
M0
 62
     4
100
AcDbCircle
 10
162.154051
 20
391.291055
 40
0.5
100
AcDbArc
 50
179.998251
 51
269.998251
  0
ARC
  5
219
100
AcDbEntity
  8
M0
 62
     4
100
AcDbCircle
 10
162.154051
 20
381.291055
 40
0.5
100
AcDbArc
 50
179.998251
 51
269.998251
  0
ARC
  5
21A
100
AcDbEntity
  8
M0
 62
     4
100
AcDbCircle
 10
165.154051
 20
391.291055
 40
0.5
100
AcDbArc
 50
269.998251
 51
360.0
  0
ARC
  5
21B
100
AcDbEntity
  8
M0
 62
     4
100
AcDbCircle
 10
165.154051
 20
381.291055
 40
0.5
100
AcDbArc
 50
269.998251
 51
360.0
  0
ARC
  5
21C
100
AcDbEntity
  8
M0
 62
     4
100
AcDbCircle
 10
162.154051
 20
425.291055
 40
0.5
100
AcDbArc
 50
90.0
 51
180.0
  0
ARC
  5
21D
100
AcDbEntity
  8
M0
 62
     4
100
AcDbCircle
 10
66.154051
 20
435.291544
 40
0.5
100
AcDbArc
 50
89.998251
 51
180.0
  0
ARC
  5
21E
100
AcDbEntity
  8
M0
 62
     4
100
AcDbCircle
 10
66.154051
 20
425.291544
 40
0.5
100
AcDbArc
 50
89.998251
 51
180.0
  0
ARC
  5
21F
100
AcDbEntity
  8
M0
 62
     4
100
AcDbCircle
 10
69.154051
 20
391.291544
 40
0.5
100
AcDbArc
 50
270.0
 51
359.972024
  0
ARC
  5
220
100
AcDbEntity
  8
M0
 62
     4
100
AcDbCircle
 10
72.654051
 20
405.541544
 40
1.0
100
AcDbArc
 50
270.0
 51
360.0
  0
ARC
  5
221
100
AcDbEntity
  8
M0
 62
     4
100
AcDbCircle
 10
72.654051
 20
411.041544
 40
1.0
100
AcDbArc
 50
0.0
 51
89.999126
  0
LINE
  5
222
100
AcDbEntity
  8
M0
 62
     4
100
AcDbLine
 10
78.154051
 20
424.791544
 11
79.154051
 21
424.791544
  0
LINE
  5
223
100
AcDbEntity
  8
M0
 62
     4
100
AcDbLine
 10
78.154051
 20
391.791544
 11
79.154051
 21
391.791544
  0
ARC
  5
224
100
AcDbEntity
  8
M0
 62
     4
100
AcDbCircle
 10
78.154051
 20
392.291544
 40
0.5
100
AcDbArc
 50
179.999891
 51
270.0
  0
ARC
  5
225
100
AcDbEntity
  8
M0
 62
     4
100
AcDbCircle
 10
78.154051
 20
424.291544
 40
0.5
100
AcDbArc
 50
89.998251
 51
180.0
  0
ARC
  5
226
100
AcDbEntity
  8
M0
 62
     4
100
AcDbCircle
 10
158.654051
 20
411.041544
 40
1.0
100
AcDbArc
 50
90.0
 51
180.0
  0
ARC
  5
227
100
AcDbEntity
  8
M0
 62
     4
100
AcDbCircle
 10
158.654051
 20
405.541544
 40
1.0
100
AcDbArc
 50
179.999945
 51
269.999126
  0
LINE
  5
228
100
AcDbEntity
  8
M0
 62
     4
100
AcDbLine
 10
152.153806
 20
391.791544
 11
153.154051
 21
391.791544
  0
LINE
  5
229
100
AcDbEntity
  8
M0
 62
     4
100
AcDbLine
 10
152.153806
 20
424.791544
 11
153.154051
 21
424.791544
  0
ARC
  5
22A
100
AcDbEntity
  8
M0
 62
     4
100
AcDbCircle
 10
153.154051
 20
424.291544
 40
0.5
100
AcDbArc
 50
359.971804
 51
450.0
  0
ARC
  5
22B
100
AcDbEntity
  8
M0
 62
     4
100
AcDbCircle
 10
153.154051
 20
392.291544
 40
0.5
100
AcDbArc
 50
269.998251
 51
359.972023
  0
LINE
  5
22C
100
AcDbEntity
  8
M0
 62
     4
100
AcDbLine
 10
153.654051
 20
422.791544
 11
154.404173
 21
422.791544
  0
LINE
  5
22D
100
AcDbEntity
  8
M0
 62
     4
100
AcDbLine
 10
153.654051
 20
393.791544
 11
154.40399
 21
393.791544
  0
LINE
  5
22E
100
AcDbEntity
  8
M0
 62
     4
100
AcDbLine
 10
69.654051
 20
422.791544
 11
70.404173
 21
422.791544
  0
LINE
  5
22F
100
AcDbEntity
  8
M0
 62
     4
100
AcDbLine
 10
69.654051
 20
393.791544
 11
70.40399
 21
393.791544
  0
LINE
  5
230
100
AcDbEntity
  8
M0
 62
     4
100
AcDbLine
 10
153.654051
 20
432.391397
 11
154.462309
 21
432.391397
  0
LINE
  5
231
100
AcDbEntity
  8
M0
 62
     4
100
AcDbLine
 10
153.654051
 20
384.191446
 11
154.462309
 21
384.191446
  0
LINE
  5
232
100
AcDbEntity
  8
M0
 62
     4
100
AcDbLine
 10
69.654051
 20
384.191446
 11
70.462309
 21
384.191446
  0
LINE
  5
233
100
AcDbEntity
  8
M0
 62
     4
100
AcDbLine
 10
69.654051
 20
432.391397
 11
70.462309
 21
432.391397
  0
LINE
  5
234
100
AcDbEntity
  8
M0
 62
     4
100
AcDbLine
 10
69.654051
 20
416.291544
 11
69.704038
 21
416.291544
  0
LINE
  5
235
100
AcDbEntity
  8
M0
 62
     4
100
AcDbLine
 10
77.604048
 20
416.291544
 11
77.654051
 21
416.291544
  0
LINE
  5
236
100
AcDbEntity
  8
M0
 62
     4
100
AcDbLine
 10
69.654051
 20
417.791544
 11
69.704038
 21
417.641397
  0
LINE
  5
237
100
AcDbEntity
  8
M0
 62
     4
100
AcDbLine
 10
77.654051
 20
417.791544
 11
77.604048
 21
417.641397
  0
ARC
  5
238
100
AcDbEntity
  8
M0
 62
     4
100
AcDbCircle
 10
76.154051
 20
415.291544
 40
1.0
100
AcDbArc
 50
270.0
 51
337.67525
  0
ARC
  5
239
100
AcDbEntity
  8
M0
 62
     4
100
AcDbCircle
 10
71.154051
 20
415.291544
 40
1.0
100
AcDbArc
 50
202.324981
 51
270.0
  0
ARC
  5
23A
100
AcDbEntity
  8
M0
 62
     4
100
AcDbCircle
 10
71.153806
 20
401.291544
 40
1.0
100
AcDbArc
 50
89.999126
 51
157.702205
  0
LINE
  5
23B
100
AcDbEntity
  8
M0
 62
     4
100
AcDbLine
 10
69.653806
 20
400.291544
 11
69.704038
 21
400.291544
  0
LINE
  5
23C
100
AcDbEntity
  8
M0
 62
     4
100
AcDbLine
 10
69.653806
 20
398.791544
 11
69.704038
 21
398.942178
  0
LINE
  5
23D
100
AcDbEntity
  8
M0
 62
     4
100
AcDbLine
 10
77.653806
 20
398.791544
 11
77.604048
 21
398.940714
  0
LINE
  5
23E
100
AcDbEntity
  8
M0
 62
     4
100
AcDbLine
 10
77.604048
 20
400.291544
 11
77.653806
 21
400.291544
  0
ARC
  5
23F
100
AcDbEntity
  8
M0
 62
     4
100
AcDbCircle
 10
76.153806
 20
401.291544
 40
1.0
100
AcDbArc
 50
22.313081
 51
89.999126
  0
ARC
  5
240
100
AcDbEntity
  8
M0
 62
     4
100
AcDbCircle
 10
160.154051
 20
415.2913
 40
1.0
100
AcDbArc
 50
269.999126
 51
337.703851
  0
LINE
  5
241
100
AcDbEntity
  8
M0
 62
     4
100
AcDbLine
 10
161.654051
 20
416.2913
 11
161.604048
 21
416.291055
  0
LINE
  5
242
100
AcDbEntity
  8
M0
 62
     4
100
AcDbLine
 10
161.654051
 20
417.7913
 11
161.604048
 21
417.641153
  0
LINE
  5
243
100
AcDbEntity
  8
M0
 62
     4
100
AcDbLine
 10
153.654051
 20
417.7913
 11
153.704038
 21
417.641153
  0
LINE
  5
244
100
AcDbEntity
  8
M0
 62
     4
100
AcDbLine
 10
153.704038
 20
416.291055
 11
153.654051
 21
416.2913
  0
ARC
  5
245
100
AcDbEntity
  8
M0
 62
     4
100
AcDbCircle
 10
155.154051
 20
415.2913
 40
1.0
100
AcDbArc
 50
202.295463
 51
269.999126
  0
LINE
  5
246
100
AcDbEntity
  8
M0
 62
     4
100
AcDbLine
 10
153.654295
 20
398.7913
 11
153.704038
 21
398.940469
  0
LINE
  5
247
100
AcDbEntity
  8
M0
 62
     4
100
AcDbLine
 10
153.704038
 20
400.291055
 11
153.654295
 21
400.2913
  0
ARC
  5
248
100
AcDbEntity
  8
M0
 62
     4
100
AcDbCircle
 10
155.154295
 20
401.2913
 40
1.0
100
AcDbArc
 50
90.0
 51
157.65857
  0
ARC
  5
249
100
AcDbEntity
  8
M0
 62
     4
100
AcDbCircle
 10
160.154295
 20
401.2913
 40
1.0
100
AcDbArc
 50
22.313717
 51
90.0
  0
LINE
  5
24A
100
AcDbEntity
  8
M0
 62
     4
100
AcDbLine
 10
161.654295
 20
400.2913
 11
161.604048
 21
400.291055
  0
LINE
  5
24B
100
AcDbEntity
  8
M0
 62
     4
100
AcDbLine
 10
161.654295
 20
398.7913
 11
161.604048
 21
398.941934
  0
LINE
  5
24C
100
AcDbEntity
  8
M0
 62
     4
100
AcDbLine
 10
70.404051
 20
423.291544
 11
70.504041
 21
423.291544
  0
LINE
  5
24D
100
AcDbEntity
  8
M0
 62
     4
100
AcDbLine
 10
70.404051
 20
393.291544
 11
70.504041
 21
393.291544
  0
LINE
  5
24E
100
AcDbEntity
  8
M0
 62
     4
100
AcDbLine
 10
154.404051
 20
423.291544
 11
154.504041
 21
423.291544
  0
LINE
  5
24F
100
AcDbEntity
  8
M0
 62
     4
100
AcDbLine
 10
154.404051
 20
393.291544
 11
154.504041
 21
393.291544
  0
LINE
  5
250
100
AcDbEntity
  8
M0
 62
     4
100
AcDbLine
 10
76.904051
 20
393.291544
 11
76.904051
 21
393.791544
  0
LINE
  5
251
100
AcDbEntity
  8
M0
 62
     4
100
AcDbLine
 10
70.404051
 20
392.7913
 11
70.404051
 21
393.791544
  0
LINE
  5
252
100
AcDbEntity
  8
M0
 62
     4
100
AcDbLine
 10
69.654051
 20
424.291544
 11
70.504041
 21
424.291544
  0
LINE
  5
253
100
AcDbEntity
  8
M0
 62
     4
100
AcDbLine
 10
76.804044
 20
424.291544
 11
77.654051
 21
424.291544
  0
LINE
  5
254
100
AcDbEntity
  8
M0
 62
     4
100
AcDbLine
 10
70.404051
 20
422.791544
 11
70.404051
 21
423.7913
  0
LINE
  5
255
100
AcDbEntity
  8
M0
 62
     4
100
AcDbLine
 10
76.904051
 20
422.791544
 11
76.904051
 21
423.291544
  0
LINE
  5
256
100
AcDbEntity
  8
M0
 62
     4
100
AcDbLine
 10
69.654051
 20
392.291544
 11
70.504041
 21
392.291544
  0
LINE
  5
257
100
AcDbEntity
  8
M0
 62
     4
100
AcDbLine
 10
77.054029
 20
392.291544
 11
77.654051
 21
392.291544
  0
ARC
  5
258
100
AcDbEntity
  8
M0
 62
     4
100
AcDbCircle
 10
69.904051
 20
392.791544
 40
0.5
100
AcDbArc
 50
270.0
 51
359.972024
  0
ARC
  5
259
100
AcDbEntity
  8
M0
 62
     4
100
AcDbCircle
 10
77.404051
 20
392.791544
 40
0.5
100
AcDbArc
 50
225.5812
 51
270.0
  0
ARC
  5
25A
100
AcDbEntity
  8
M0
 62
     4
100
AcDbCircle
 10
69.904051
 20
423.791544
 40
0.5
100
AcDbArc
 50
359.971805
 51
449.998251
  0
ARC
  5
25B
100
AcDbEntity
  8
M0
 62
     4
100
AcDbCircle
 10
77.404051
 20
423.791544
 40
0.5
100
AcDbArc
 50
89.998251
 51
134.438276
  0
LINE
  5
25C
100
AcDbEntity
  8
M0
 62
     4
100
AcDbLine
 10
160.904051
 20
422.7913
 11
160.904051
 21
423.291544
  0
ARC
  5
25D
100
AcDbEntity
  8
M0
 62
     4
100
AcDbCircle
 10
161.404051
 20
423.7913
 40
0.5
100
AcDbArc
 50
90.0
 51
134.440136
  0
LINE
  5
25E
100
AcDbEntity
  8
M0
 62
     4
100
AcDbLine
 10
161.654051
 20
424.2913
 11
161.054029
 21
424.291055
  0
LINE
  5
25F
100
AcDbEntity
  8
M0
 62
     4
100
AcDbLine
 10
154.504041
 20
424.291055
 11
153.654051
 21
424.2913
  0
ARC
  5
260
100
AcDbEntity
  8
M0
 62
     4
100
AcDbCircle
 10
153.904051
 20
423.7913
 40
0.5
100
AcDbArc
 50
0.0
 51
90.0
  0
LINE
  5
261
100
AcDbEntity
  8
M0
 62
     4
100
AcDbLine
 10
154.404051
 20
422.7913
 11
154.404051
 21
423.7913
  0
LINE
  5
262
100
AcDbEntity
  8
M0
 62
     4
100
AcDbLine
 10
154.714826
 20
392.2913
 11
153.654051
 21
392.2913
  0
ARC
  5
263
100
AcDbEntity
  8
M0
 62
     4
100
AcDbCircle
 10
153.904051
 20
392.7913
 40
0.5
100
AcDbArc
 50
-90.001749
 51
0.0
  0
LINE
  5
264
100
AcDbEntity
  8
M0
 62
     4
100
AcDbLine
 10
154.404051
 20
392.7913
 11
154.404051
 21
393.7913
  0
LINE
  5
265
100
AcDbEntity
  8
M0
 62
     4
100
AcDbLine
 10
160.904051
 20
393.291544
 11
160.904051
 21
393.7913
  0
ARC
  5
266
100
AcDbEntity
  8
M0
 62
     4
100
AcDbCircle
 10
161.404051
 20
392.7913
 40
0.5
100
AcDbArc
 50
225.579339
 51
269.998251
  0
LINE
  5
267
100
AcDbEntity
  8
M0
 62
     4
100
AcDbLine
 10
161.654051
 20
392.2913
 11
160.593244
 21
392.2913
  0
LINE
  5
268
100
AcDbEntity
  8
M0
 62
     4
100
AcDbLine
 10
77.154051
 20
392.12626
 11
77.154051
 21
392.291544
  0
LINE
  5
269
100
AcDbEntity
  8
M0
 62
     4
100
AcDbLine
 10
70.154051
 20
392.12626
 11
70.154051
 21
392.291544
  0
LINE
  5
26A
100
AcDbEntity
  8
M0
 62
     4
100
AcDbLine
 10
77.604048
 20
425.891397
 11
77.654051
 21
425.891397
  0
LINE
  5
26B
100
AcDbEntity
  8
M0
 62
     4
100
AcDbLine
 10
69.654051
 20
425.891397
 11
69.704038
 21
425.891397
  0
LINE
  5
26C
100
AcDbEntity
  8
M0
 62
     4
100
AcDbLine
 10
69.654051
 20
390.691446
 11
69.704038
 21
390.691446
  0
LINE
  5
26D
100
AcDbEntity
  8
M0
 62
     4
100
AcDbLine
 10
77.604048
 20
390.691446
 11
77.654051
 21
390.691446
  0
LINE
  5
26E
100
AcDbEntity
  8
M0
 62
     4
100
AcDbLine
 10
70.154051
 20
424.291544
 11
70.154051
 21
424.456583
  0
LINE
  5
26F
100
AcDbEntity
  8
M0
 62
     4
100
AcDbLine
 10
77.154051
 20
424.291544
 11
77.154051
 21
424.456583
  0
LINE
  5
270
100
AcDbEntity
  8
M0
 62
     4
100
AcDbLine
 10
69.654051
 20
389.191446
 11
69.704038
 21
389.341348
  0
LINE
  5
271
100
AcDbEntity
  8
M0
 62
     4
100
AcDbLine
 10
77.604048
 20
389.341348
 11
77.654051
 21
389.191446
  0
LINE
  5
272
100
AcDbEntity
  8
M0
 62
     4
100
AcDbLine
 10
69.654051
 20
427.391397
 11
69.704038
 21
427.241251
  0
LINE
  5
273
100
AcDbEntity
  8
M0
 62
     4
100
AcDbLine
 10
77.654051
 20
427.391397
 11
77.604048
 21
427.241251
  0
LINE
  5
274
100
AcDbEntity
  8
M0
 62
     4
100
AcDbLine
 10
161.654051
 20
389.191202
 11
161.604048
 21
389.341104
  0
LINE
  5
275
100
AcDbEntity
  8
M0
 62
     4
100
AcDbLine
 10
161.654051
 20
390.691202
 11
161.604048
 21
390.690958
  0
LINE
  5
276
100
AcDbEntity
  8
M0
 62
     4
100
AcDbLine
 10
161.154051
 20
392.12626
 11
161.154051
 21
392.2913
  0
LINE
  5
277
100
AcDbEntity
  8
M0
 62
     4
100
AcDbLine
 10
153.704038
 20
389.341104
 11
153.654051
 21
389.191202
  0
LINE
  5
278
100
AcDbEntity
  8
M0
 62
     4
100
AcDbLine
 10
153.704038
 20
390.690958
 11
153.654051
 21
390.691202
  0
LINE
  5
279
100
AcDbEntity
  8
M0
 62
     4
100
AcDbLine
 10
154.154051
 20
392.12626
 11
154.154051
 21
392.2913
  0
LINE
  5
27A
100
AcDbEntity
  8
M0
 62
     4
100
AcDbLine
 10
153.704038
 20
425.890909
 11
153.654051
 21
425.891153
  0
LINE
  5
27B
100
AcDbEntity
  8
M0
 62
     4
100
AcDbLine
 10
153.654051
 20
427.391153
 11
153.704038
 21
427.241007
  0
LINE
  5
27C
100
AcDbEntity
  8
M0
 62
     4
100
AcDbLine
 10
154.154051
 20
424.2913
 11
154.154051
 21
424.456583
  0
LINE
  5
27D
100
AcDbEntity
  8
M0
 62
     4
100
AcDbLine
 10
161.154051
 20
424.2913
 11
161.154051
 21
424.456583
  0
LINE
  5
27E
100
AcDbEntity
  8
M0
 62
     4
100
AcDbLine
 10
161.654051
 20
427.391153
 11
161.604048
 21
427.241007
  0
LINE
  5
27F
100
AcDbEntity
  8
M0
 62
     4
100
AcDbLine
 10
161.654051
 20
425.891153
 11
161.604048
 21
425.890909
  0
LINE
  5
280
100
AcDbEntity
  8
M0
 62
     4
100
AcDbLine
 10
68.154051
 20
380.791544
 11
68.154051
 21
370.791544
  0
LINE
  5
281
100
AcDbEntity
  8
M0
 62
     4
100
AcDbLine
 10
68.154051
 20
445.791544
 11
68.154051
 21
435.791544
  0
LINE
  5
282
100
AcDbEntity
  8
M0
 62
     4
100
AcDbLine
 10
163.154051
 20
445.7913
 11
163.154051
 21
435.7913
  0
LINE
  5
283
100
AcDbEntity
  8
M0
 62
     4
100
AcDbLine
 10
163.154051
 20
380.7913
 11
163.154051
 21
370.7913
  0
LINE
  5
284
100
AcDbEntity
  8
M0
 62
     4
100
AcDbLine
 10
65.654051
 20
373.291544
 11
68.154051
 21
373.291544
  0
LINE
  5
285
100
AcDbEntity
  8
M0
 62
     4
100
AcDbLine
 10
65.654051
 20
443.291544
 11
68.154051
 21
443.291544
  0
LINE
  5
286
100
AcDbEntity
  8
M0
 62
     4
100
AcDbLine
 10
163.154051
 20
443.2913
 11
165.654051
 21
443.2913
  0
LINE
  5
287
100
AcDbEntity
  8
M0
 62
     4
100
AcDbLine
 10
163.154051
 20
373.2913
 11
165.654051
 21
373.2913
  0
LINE
  5
288
100
AcDbEntity
  8
M0
 62
     4
100
AcDbLine
 10
154.504041
 20
383.291055
 11
152.153806
 21
383.291055
  0
LINE
  5
289
100
AcDbEntity
  8
M0
 62
     4
100
AcDbLine
 10
160.845762
 20
384.191446
 11
161.654051
 21
384.191446
  0
LINE
  5
28A
100
AcDbEntity
  8
M0
 62
     4
100
AcDbLine
 10
160.904081
 20
393.791544
 11
161.654051
 21
393.791544
  0
LINE
  5
28B
100
AcDbEntity
  8
M0
 62
     4
100
AcDbLine
 10
76.904081
 20
393.791544
 11
77.654051
 21
393.791544
  0
LINE
  5
28C
100
AcDbEntity
  8
M0
 62
     4
100
AcDbLine
 10
76.845762
 20
384.191446
 11
77.654051
 21
384.191446
  0
LINE
  5
28D
100
AcDbEntity
  8
M0
 62
     4
100
AcDbLine
 10
77.054029
 20
383.291544
 11
79.154051
 21
383.291544
  0
LINE
  5
28E
100
AcDbEntity
  8
M0
 62
     4
100
AcDbLine
 10
160.903898
 20
422.791544
 11
161.654051
 21
422.791544
  0
LINE
  5
28F
100
AcDbEntity
  8
M0
 62
     4
100
AcDbLine
 10
160.845762
 20
432.391397
 11
161.654051
 21
432.391397
  0
LINE
  5
290
100
AcDbEntity
  8
M0
 62
     4
100
AcDbLine
 10
154.504041
 20
433.291055
 11
152.153806
 21
433.291055
  0
LINE
  5
291
100
AcDbEntity
  8
M0
 62
     4
100
AcDbLine
 10
76.845762
 20
432.391397
 11
77.654051
 21
432.391397
  0
LINE
  5
292
100
AcDbEntity
  8
M0
 62
     4
100
AcDbLine
 10
77.054029
 20
433.291544
 11
79.154051
 21
433.291544
  0
LINE
  5
293
100
AcDbEntity
  8
M0
 62
     4
100
AcDbLine
 10
76.903898
 20
422.791544
 11
77.654051
 21
422.791544
  0
LINE
  5
294
100
AcDbEntity
  8
M0
100
AcDbLine
 10
158.654051
 20
476.2913
 11
138.654051
 21
476.291055
  0
LINE
  5
295
100
AcDbEntity
  8
M0
100
AcDbLine
 10
137.654035
 20
460.836954
 11
138.654051
 21
462.291544
  0
LINE
  5
296
100
AcDbEntity
  8
M0
100
AcDbLine
 10
147.230757
 20
452.049844
 11
158.654051
 21
462.291544
  0
LINE
  5
297
100
AcDbEntity
  8
M0
100
AcDbLine
 10
158.654051
 20
462.291544
 11
158.654051
 21
476.291055
  0
LINE
  5
298
100
AcDbEntity
  8
M0
100
AcDbLine
 10
138.654051
 20
462.291544
 11
138.654051
 21
476.291055
  0
LINE
  5
299
100
AcDbEntity
  8
M0
  6
DASHDOT
100
AcDbLine
 10
140.654051
 20
468.291544
 11
156.654051
 21
468.291544
  0
LINE
  5
29A
100
AcDbEntity
  8
M0
  6
DASHDOT
100
AcDbLine
 10
148.654051
 20
460.291544
 11
148.654051
 21
476.291544
  0
LINE
  5
29B
100
AcDbEntity
  8
M0
100
AcDbLine
 10
72.654112
 20
476.29133
 11
92.6541
 21
476.291025
  0
LINE
  5
29C
100
AcDbEntity
  8
M0
100
AcDbLine
 10
93.654066
 20
460.83671
 11
92.654066
 21
462.2913
  0
LINE
  5
29D
100
AcDbEntity
  8
M0
100
AcDbLine
 10
84.077314
 20
452.049844
 11
72.654081
 21
462.291544
  0
LINE
  5
29E
100
AcDbEntity
  8
M0
100
AcDbLine
 10
72.654081
 20
462.29158
 11
72.654112
 21
476.291086
  0
LINE
  5
29F
100
AcDbEntity
  8
M0
100
AcDbLine
 10
92.654073
 20
462.291542
 11
92.6541
 21
476.291025
  0
LINE
  5
2A0
100
AcDbEntity
  8
M0
  6
DASHDOT
100
AcDbLine
 10
90.654085
 20
468.291544
 11
74.654112
 21
468.291574
  0
LINE
  5
2A1
100
AcDbEntity
  8
M0
  6
DASHDOT
100
AcDbLine
 10
82.65407
 20
460.291561
 11
82.6541
 21
476.291544
  0
LINE
  5
2A2
100
AcDbEntity
  8
M0
100
AcDbLine
 10
158.654051
 20
340.291788
 11
138.654051
 21
340.292032
  0
LINE
  5
2A3
100
AcDbEntity
  8
M0
100
AcDbLine
 10
137.65402
 20
355.745889
 11
138.654051
 21
354.291544
  0
LINE
  5
2A4
100
AcDbEntity
  8
M0
100
AcDbLine
 10
147.230909
 20
364.532755
 11
158.654051
 21
354.291544
  0
LINE
  5
2A5
100
AcDbEntity
  8
M0
100
AcDbLine
 10
158.654051
 20
354.291544
 11
158.654051
 21
340.292032
  0
LINE
  5
2A6
100
AcDbEntity
  8
M0
100
AcDbLine
 10
138.654051
 20
354.291544
 11
138.654051
 21
340.292032
  0
LINE
  5
2A7
100
AcDbEntity
  8
M0
  6
DASHDOT
100
AcDbLine
 10
140.654051
 20
348.291544
 11
156.654051
 21
348.291544
  0
LINE
  5
2A8
100
AcDbEntity
  8
M0
  6
DASHDOT
100
AcDbLine
 10
148.654051
 20
356.291544
 11
148.654051
 21
340.291544
  0
LINE
  5
2A9
100
AcDbEntity
  8
M0
100
AcDbLine
 10
72.654051
 20
340.291818
 11
92.654034
 21
340.292062
  0
LINE
  5
2AA
100
AcDbEntity
  8
M0
100
AcDbLine
 10
93.65402
 20
355.745889
 11
92.654035
 21
354.291544
  0
LINE
  5
2AB
100
AcDbEntity
  8
M0
100
AcDbLine
 10
84.077177
 20
364.532755
 11
72.654051
 21
354.291544
  0
LINE
  5
2AC
100
AcDbEntity
  8
M0
100
AcDbLine
 10
72.654051
 20
354.291557
 11
72.654051
 21
340.292062
  0
LINE
  5
2AD
100
AcDbEntity
  8
M0
100
AcDbLine
 10
92.654043
 20
354.291546
 11
92.654034
 21
340.292062
  0
LINE
  5
2AE
100
AcDbEntity
  8
M0
  6
DASHDOT
100
AcDbLine
 10
90.654041
 20
348.291574
 11
74.654051
 21
348.291574
  0
LINE
  5
2AF
100
AcDbEntity
  8
M0
  6
DASHDOT
100
AcDbLine
 10
82.654045
 20
356.291551
 11
82.654035
 21
340.291574
  0
LINE
  5
2B0
100
AcDbEntity
  8
M0
100
AcDbLine
 10
125.65402
 20
462.291544
 11
125.65402
 21
476.291544
  0
LINE
  5
2B1
100
AcDbEntity
  8
M0
100
AcDbLine
 10
125.65402
 20
476.291544
 11
105.65402
 21
476.291544
  0
LINE
  5
2B2
100
AcDbEntity
  8
M0
100
AcDbLine
 10
105.65402
 20
476.291544
 11
105.65402
 21
462.2913
  0
LINE
  5
2B3
100
AcDbEntity
  8
M0
100
AcDbLine
 10
121.15402
 20
457.842081
 11
121.15402
 21
451.791055
  0
LINE
  5
2B4
100
AcDbEntity
  8
M0
100
AcDbLine
 10
110.15402
 20
457.842081
 11
110.15402
 21
457.290811
  0
LINE
  5
2B5
100
AcDbEntity
  8
M0
100
AcDbLine
 10
105.65402
 20
462.291544
 11
109.818571
 21
458.589639
  0
LINE
  5
2B6
100
AcDbEntity
  8
M0
100
AcDbLine
 10
125.65402
 20
462.291544
 11
121.489515
 21
458.589395
  0
ARC
  5
2B7
100
AcDbEntity
  8
M0
100
AcDbCircle
 10
109.15402
 20
457.842081
 40
1.0
100
AcDbArc
 50
0.0
 51
48.364042
  0
ARC
  5
2B8
100
AcDbEntity
  8
M0
100
AcDbCircle
 10
122.15402
 20
457.842081
 40
1.0
100
AcDbArc
 50
131.643196
 51
180.0
  0
LINE
  5
2B9
100
AcDbEntity
  8
M0
  6
DASHDOT
100
AcDbLine
 10
107.65402
 20
468.291544
 11
123.65402
 21
468.291544
  0
LINE
  5
2BA
100
AcDbEntity
  8
M0
  6
DASHDOT
100
AcDbLine
 10
115.65402
 20
460.291544
 11
115.65402
 21
476.291544
  0
LINE
  5
2BB
100
AcDbEntity
  8
M0
100
AcDbLine
 10
105.654013
 20
354.29155
 11
105.654004
 21
340.29155
  0
LINE
  5
2BC
100
AcDbEntity
  8
M0
100
AcDbLine
 10
105.654004
 20
340.29155
 11
125.654004
 21
340.291537
  0
LINE
  5
2BD
100
AcDbEntity
  8
M0
100
AcDbLine
 10
125.654004
 20
340.291537
 11
125.654013
 21
354.291782
  0
LINE
  5
2BE
100
AcDbEntity
  8
M0
100
AcDbLine
 10
110.154
 20
358.74101
 11
110.154004
 21
364.791547
  0
LINE
  5
2BF
100
AcDbEntity
  8
M0
100
AcDbLine
 10
121.154
 20
358.740759
 11
121.154
 21
359.29154
  0
LINE
  5
2C0
100
AcDbEntity
  8
M0
100
AcDbLine
 10
125.654013
 20
354.291537
 11
121.489464
 21
357.993444
  0
LINE
  5
2C1
100
AcDbEntity
  8
M0
100
AcDbLine
 10
105.654013
 20
354.29155
 11
109.81852
 21
357.993696
  0
ARC
  5
2C2
100
AcDbEntity
  8
M0
100
AcDbCircle
 10
122.154015
 20
358.741002
 40
1.0
100
AcDbArc
 50
179.999964
 51
228.364006
  0
ARC
  5
2C3
100
AcDbEntity
  8
M0
100
AcDbCircle
 10
109.154015
 20
358.741011
 40
1.0
100
AcDbArc
 50
311.64316
 51
359.999964
  0
LINE
  5
2C4
100
AcDbEntity
  8
M0
  6
DASHDOT
100
AcDbLine
 10
123.654009
 20
348.291539
 11
107.654009
 21
348.291549
  0
LINE
  5
2C5
100
AcDbEntity
  8
M0
  6
DASHDOT
100
AcDbLine
 10
115.654014
 20
356.291544
 11
115.654004
 21
340.291544
  0
CIRCLE
  5
2C6
100
AcDbEntity
  8
M0
 62
     5
100
AcDbCircle
 10
82.654051
 20
348.291559
 40
5.25
  0
LINE
  5
2C7
100
AcDbEntity
  8
M0
 62
     5
100
AcDbLine
 10
83.502638
 20
348.291483
 11
86.76634
 21
351.555185
  0
LINE
  5
2C8
100
AcDbEntity
  8
M0
 62
     5
100
AcDbLine
 10
79.390394
 20
344.179239
 11
82.654112
 21
347.442957
  0
LINE
  5
2C9
100
AcDbEntity
  8
M0
 62
     5
100
AcDbLine
 10
81.805631
 20
348.291437
 11
78.541898
 21
345.027704
  0
LINE
  5
2CA
100
AcDbEntity
  8
M0
 62
     5
100
AcDbLine
 10
85.917875
 20
352.403696
 11
82.654157
 21
349.139963
  0
LINE
  5
2CB
100
AcDbEntity
  8
M0
 62
     5
100
AcDbLine
 10
82.654142
 20
349.139963
 11
80.886381
 21
350.907739
  0
LINE
  5
2CC
100
AcDbEntity
  8
M0
 62
     5
100
AcDbLine
 10
85.270399
 20
346.523706
 11
83.502638
 21
348.291483
  0
LINE
  5
2CD
100
AcDbEntity
  8
M0
 62
     5
100
AcDbLine
 10
82.654112
 20
347.442957
 11
84.421873
 21
345.67518
  0
LINE
  5
2CE
100
AcDbEntity
  8
M0
 62
     5
100
AcDbLine
 10
80.037855
 20
350.059213
 11
81.805616
 21
348.291437
  0
LINE
  5
2CF
100
AcDbEntity
  8
M0
 62
     5
100
AcDbLine
 10
84.421873
 20
345.67518
 11
85.270399
 21
346.523706
  0
LINE
  5
2D0
100
AcDbEntity
  8
M0
 62
     5
100
AcDbLine
 10
80.886381
 20
350.907739
 11
80.037855
 21
350.059213
  0
LINE
  5
2D1
100
AcDbEntity
  8
M0
  6
DASHDOT
 62
     5
100
AcDbLine
 10
74.815275
 20
348.291559
 11
90.492811
 21
348.291544
  0
LINE
  5
2D2
100
AcDbEntity
  8
M0
  6
DASHDOT
 62
     5
100
AcDbLine
 10
82.654035
 20
340.452783
 11
82.654051
 21
356.130319
  0
CIRCLE
  5
2D3
100
AcDbEntity
  8
M0
 62
     5
100
AcDbCircle
 10
115.65402
 20
348.291544
 40
6.099998
  0
LINE
  5
2D4
100
AcDbEntity
  8
M0
  6
DASHDOT
 62
     5
100
AcDbLine
 10
125.254011
 20
348.291544
 11
106.054014
 21
348.291544
  0
LINE
  5
2D5
100
AcDbEntity
  8
M0
  6
DASHDOT
 62
     5
100
AcDbLine
 10
115.65402
 20
338.691538
 11
115.65402
 21
357.891535
  0
CIRCLE
  5
2D6
100
AcDbEntity
  8
M0
 62
     5
100
AcDbCircle
 10
148.654051
 20
348.291559
 40
6.5
  0
LINE
  5
2D7
100
AcDbEntity
  8
M0
  6
DASHDOT
 62
     5
100
AcDbLine
 10
158.654051
 20
348.291559
 11
138.654051
 21
348.291559
  0
LINE
  5
2D8
100
AcDbEntity
  8
M0
  6
DASHDOT
 62
     5
100
AcDbLine
 10
148.654051
 20
338.291559
 11
148.654051
 21
358.291559
  0
CIRCLE
  5
2D9
100
AcDbEntity
  8
M0
 62
     5
100
AcDbCircle
 10
115.654035
 20
348.291544
 40
5.25
  0
LINE
  5
2DA
100
AcDbEntity
  8
M0
 62
     5
100
AcDbLine
 10
116.502622
 20
348.291467
 11
119.766325
 21
351.55517
  0
LINE
  5
2DB
100
AcDbEntity
  8
M0
 62
     5
100
AcDbLine
 10
112.390379
 20
344.179224
 11
115.654096
 21
347.442941
  0
LINE
  5
2DC
100
AcDbEntity
  8
M0
 62
     5
100
AcDbLine
 10
114.805616
 20
348.291422
 11
111.541883
 21
345.027689
  0
LINE
  5
2DD
100
AcDbEntity
  8
M0
 62
     5
100
AcDbLine
 10
118.91786
 20
352.403681
 11
115.654142
 21
349.139948
  0
LINE
  5
2DE
100
AcDbEntity
  8
M0
 62
     5
100
AcDbLine
 10
115.654127
 20
349.139948
 11
113.886366
 21
350.907724
  0
LINE
  5
2DF
100
AcDbEntity
  8
M0
 62
     5
100
AcDbLine
 10
118.270384
 20
346.523691
 11
116.502622
 21
348.291467
  0
LINE
  5
2E0
100
AcDbEntity
  8
M0
 62
     5
100
AcDbLine
 10
115.654096
 20
347.442941
 11
117.421858
 21
345.675165
  0
LINE
  5
2E1
100
AcDbEntity
  8
M0
 62
     5
100
AcDbLine
 10
113.03784
 20
350.059198
 11
114.805601
 21
348.291422
  0
LINE
  5
2E2
100
AcDbEntity
  8
M0
 62
     5
100
AcDbLine
 10
117.421858
 20
345.675165
 11
118.270384
 21
346.523691
  0
LINE
  5
2E3
100
AcDbEntity
  8
M0
 62
     5
100
AcDbLine
 10
113.886366
 20
350.907724
 11
113.03784
 21
350.059198
  0
LINE
  5
2E4
100
AcDbEntity
  8
M0
  6
DASHDOT
 62
     5
100
AcDbLine
 10
107.81526
 20
348.291544
 11
123.492796
 21
348.291528
  0
LINE
  5
2E5
100
AcDbEntity
  8
M0
  6
DASHDOT
 62
     5
100
AcDbLine
 10
115.65402
 20
340.452768
 11
115.654035
 21
356.130304
  0
CIRCLE
  5
2E6
100
AcDbEntity
  8
M0
 62
     5
100
AcDbCircle
 10
82.654051
 20
348.291574
 40
6.099998
  0
LINE
  5
2E7
100
AcDbEntity
  8
M0
  6
DASHDOT
 62
     5
100
AcDbLine
 10
92.254041
 20
348.291574
 11
73.054044
 21
348.291574
  0
LINE
  5
2E8
100
AcDbEntity
  8
M0
  6
DASHDOT
 62
     5
100
AcDbLine
 10
82.654051
 20
338.691568
 11
82.654051
 21
357.891565
  0
CIRCLE
  5
2E9
100
AcDbEntity
  8
M0
 62
     5
100
AcDbCircle
 10
115.65402
 20
348.291559
 40
6.5
  0
LINE
  5
2EA
100
AcDbEntity
  8
M0
  6
DASHDOT
 62
     5
100
AcDbLine
 10
125.65402
 20
348.291559
 11
105.65402
 21
348.291559
  0
LINE
  5
2EB
100
AcDbEntity
  8
M0
  6
DASHDOT
 62
     5
100
AcDbLine
 10
115.65402
 20
338.291559
 11
115.65402
 21
358.291559
  0
CIRCLE
  5
2EC
100
AcDbEntity
  8
M0
 62
     5
100
AcDbCircle
 10
82.654051
 20
348.291589
 40
6.5
  0
LINE
  5
2ED
100
AcDbEntity
  8
M0
  6
DASHDOT
 62
     5
100
AcDbLine
 10
92.654051
 20
348.291589
 11
72.654051
 21
348.291589
  0
LINE
  5
2EE
100
AcDbEntity
  8
M0
  6
DASHDOT
 62
     5
100
AcDbLine
 10
82.654051
 20
338.291589
 11
82.654051
 21
358.291589
  0
CIRCLE
  5
2EF
100
AcDbEntity
  8
M0
 62
     5
100
AcDbCircle
 10
148.654051
 20
348.291574
 40
6.099998
  0
LINE
  5
2F0
100
AcDbEntity
  8
M0
  6
DASHDOT
 62
     5
100
AcDbLine
 10
158.254041
 20
348.291574
 11
139.054044
 21
348.291574
  0
LINE
  5
2F1
100
AcDbEntity
  8
M0
  6
DASHDOT
 62
     5
100
AcDbLine
 10
148.654051
 20
338.691568
 11
148.654051
 21
357.891565
  0
CIRCLE
  5
2F2
100
AcDbEntity
  8
M0
 62
     5
100
AcDbCircle
 10
148.654066
 20
348.291574
 40
5.25
  0
LINE
  5
2F3
100
AcDbEntity
  8
M0
 62
     5
100
AcDbLine
 10
149.502653
 20
348.291498
 11
152.766355
 21
351.5552
  0
LINE
  5
2F4
100
AcDbEntity
  8
M0
 62
     5
100
AcDbLine
 10
145.390409
 20
344.179254
 11
148.654127
 21
347.442972
  0
LINE
  5
2F5
100
AcDbEntity
  8
M0
 62
     5
100
AcDbLine
 10
147.805647
 20
348.291452
 11
144.541914
 21
345.027719
  0
LINE
  5
2F6
100
AcDbEntity
  8
M0
 62
     5
100
AcDbLine
 10
151.91789
 20
352.403711
 11
148.654173
 21
349.139978
  0
LINE
  5
2F7
100
AcDbEntity
  8
M0
 62
     5
100
AcDbLine
 10
148.654157
 20
349.139978
 11
146.886396
 21
350.907755
  0
LINE
  5
2F8
100
AcDbEntity
  8
M0
 62
     5
100
AcDbLine
 10
151.270414
 20
346.523721
 11
149.502653
 21
348.291498
  0
LINE
  5
2F9
100
AcDbEntity
  8
M0
 62
     5
100
AcDbLine
 10
148.654127
 20
347.442972
 11
150.421888
 21
345.675195
  0
LINE
  5
2FA
100
AcDbEntity
  8
M0
 62
     5
100
AcDbLine
 10
146.03787
 20
350.059229
 11
147.805631
 21
348.291452
  0
LINE
  5
2FB
100
AcDbEntity
  8
M0
 62
     5
100
AcDbLine
 10
150.421888
 20
345.675195
 11
151.270414
 21
346.523721
  0
LINE
  5
2FC
100
AcDbEntity
  8
M0
 62
     5
100
AcDbLine
 10
146.886396
 20
350.907755
 11
146.03787
 21
350.059229
  0
LINE
  5
2FD
100
AcDbEntity
  8
M0
  6
DASHDOT
 62
     5
100
AcDbLine
 10
140.81529
 20
348.291574
 11
156.492826
 21
348.291559
  0
LINE
  5
2FE
100
AcDbEntity
  8
M0
  6
DASHDOT
 62
     5
100
AcDbLine
 10
148.654051
 20
340.452799
 11
148.654066
 21
356.130335
  0
CIRCLE
  5
2FF
100
AcDbEntity
  8
M0
 62
     5
100
AcDbCircle
 10
82.654081
 20
468.2913
 40
5.25
  0
LINE
  5
300
100
AcDbEntity
  8
M0
 62
     5
100
AcDbLine
 10
83.502668
 20
468.291223
 11
86.766371
 21
471.554926
  0
LINE
  5
301
100
AcDbEntity
  8
M0
 62
     5
100
AcDbLine
 10
79.390424
 20
464.17898
 11
82.654142
 21
467.442697
  0
LINE
  5
302
100
AcDbEntity
  8
M0
 62
     5
100
AcDbLine
 10
81.805662
 20
468.291177
 11
78.541929
 21
465.027445
  0
LINE
  5
303
100
AcDbEntity
  8
M0
 62
     5
100
AcDbLine
 10
85.917906
 20
472.403436
 11
82.654188
 21
469.139703
  0
LINE
  5
304
100
AcDbEntity
  8
M0
 62
     5
100
AcDbLine
 10
82.654173
 20
469.139703
 11
80.886411
 21
470.90748
  0
LINE
  5
305
100
AcDbEntity
  8
M0
 62
     5
100
AcDbLine
 10
85.270429
 20
466.523447
 11
83.502668
 21
468.291223
  0
LINE
  5
306
100
AcDbEntity
  8
M0
 62
     5
100
AcDbLine
 10
82.654142
 20
467.442697
 11
84.421903
 21
465.674921
  0
LINE
  5
307
100
AcDbEntity
  8
M0
 62
     5
100
AcDbLine
 10
80.037885
 20
470.058954
 11
81.805647
 21
468.291177
  0
LINE
  5
308
100
AcDbEntity
  8
M0
 62
     5
100
AcDbLine
 10
84.421903
 20
465.674921
 11
85.270429
 21
466.523447
  0
LINE
  5
309
100
AcDbEntity
  8
M0
 62
     5
100
AcDbLine
 10
80.886411
 20
470.90748
 11
80.037885
 21
470.058954
  0
LINE
  5
30A
100
AcDbEntity
  8
M0
  6
DASHDOT
 62
     5
100
AcDbLine
 10
74.815305
 20
468.2913
 11
90.492841
 21
468.291284
  0
LINE
  5
30B
100
AcDbEntity
  8
M0
  6
DASHDOT
 62
     5
100
AcDbLine
 10
82.654066
 20
460.452524
 11
82.654081
 21
476.13006
  0
CIRCLE
  5
30C
100
AcDbEntity
  8
M0
 62
     5
100
AcDbCircle
 10
115.654035
 20
468.291544
 40
5.25
  0
LINE
  5
30D
100
AcDbEntity
  8
M0
 62
     5
100
AcDbLine
 10
116.502622
 20
468.291467
 11
119.766325
 21
471.55517
  0
LINE
  5
30E
100
AcDbEntity
  8
M0
 62
     5
100
AcDbLine
 10
112.390379
 20
464.179224
 11
115.654096
 21
467.442941
  0
LINE
  5
30F
100
AcDbEntity
  8
M0
 62
     5
100
AcDbLine
 10
114.805616
 20
468.291422
 11
111.541883
 21
465.027689
  0
LINE
  5
310
100
AcDbEntity
  8
M0
 62
     5
100
AcDbLine
 10
118.91786
 20
472.403681
 11
115.654142
 21
469.139948
  0
LINE
  5
311
100
AcDbEntity
  8
M0
 62
     5
100
AcDbLine
 10
115.654127
 20
469.139948
 11
113.886366
 21
470.907724
  0
LINE
  5
312
100
AcDbEntity
  8
M0
 62
     5
100
AcDbLine
 10
118.270384
 20
466.523691
 11
116.502622
 21
468.291467
  0
LINE
  5
313
100
AcDbEntity
  8
M0
 62
     5
100
AcDbLine
 10
115.654096
 20
467.442941
 11
117.421858
 21
465.675165
  0
LINE
  5
314
100
AcDbEntity
  8
M0
 62
     5
100
AcDbLine
 10
113.03784
 20
470.059198
 11
114.805601
 21
468.291422
  0
LINE
  5
315
100
AcDbEntity
  8
M0
 62
     5
100
AcDbLine
 10
117.421858
 20
465.675165
 11
118.270384
 21
466.523691
  0
LINE
  5
316
100
AcDbEntity
  8
M0
 62
     5
100
AcDbLine
 10
113.886366
 20
470.907724
 11
113.03784
 21
470.059198
  0
LINE
  5
317
100
AcDbEntity
  8
M0
  6
DASHDOT
 62
     5
100
AcDbLine
 10
107.81526
 20
468.291544
 11
123.492796
 21
468.291528
  0
LINE
  5
318
100
AcDbEntity
  8
M0
  6
DASHDOT
 62
     5
100
AcDbLine
 10
115.65402
 20
460.452768
 11
115.654035
 21
476.130304
  0
CIRCLE
  5
319
100
AcDbEntity
  8
M0
 62
     5
100
AcDbCircle
 10
148.654066
 20
468.291544
 40
5.25
  0
LINE
  5
31A
100
AcDbEntity
  8
M0
 62
     5
100
AcDbLine
 10
149.502653
 20
468.291467
 11
152.766355
 21
471.55517
  0
LINE
  5
31B
100
AcDbEntity
  8
M0
 62
     5
100
AcDbLine
 10
145.390409
 20
464.179224
 11
148.654127
 21
467.442941
  0
LINE
  5
31C
100
AcDbEntity
  8
M0
 62
     5
100
AcDbLine
 10
147.805647
 20
468.291422
 11
144.541914
 21
465.027689
  0
LINE
  5
31D
100
AcDbEntity
  8
M0
 62
     5
100
AcDbLine
 10
151.91789
 20
472.403681
 11
148.654173
 21
469.139948
  0
LINE
  5
31E
100
AcDbEntity
  8
M0
 62
     5
100
AcDbLine
 10
148.654157
 20
469.139948
 11
146.886396
 21
470.907724
  0
LINE
  5
31F
100
AcDbEntity
  8
M0
 62
     5
100
AcDbLine
 10
151.270414
 20
466.523691
 11
149.502653
 21
468.291467
  0
LINE
  5
320
100
AcDbEntity
  8
M0
 62
     5
100
AcDbLine
 10
148.654127
 20
467.442941
 11
150.421888
 21
465.675165
  0
LINE
  5
321
100
AcDbEntity
  8
M0
 62
     5
100
AcDbLine
 10
146.03787
 20
470.059198
 11
147.805631
 21
468.291422
  0
LINE
  5
322
100
AcDbEntity
  8
M0
 62
     5
100
AcDbLine
 10
150.421888
 20
465.675165
 11
151.270414
 21
466.523691
  0
LINE
  5
323
100
AcDbEntity
  8
M0
 62
     5
100
AcDbLine
 10
146.886396
 20
470.907724
 11
146.03787
 21
470.059198
  0
LINE
  5
324
100
AcDbEntity
  8
M0
  6
DASHDOT
 62
     5
100
AcDbLine
 10
140.81529
 20
468.291544
 11
156.492826
 21
468.291528
  0
LINE
  5
325
100
AcDbEntity
  8
M0
  6
DASHDOT
 62
     5
100
AcDbLine
 10
148.654051
 20
460.452768
 11
148.654066
 21
476.130304
  0
CIRCLE
  5
326
100
AcDbEntity
  8
M0
 62
     5
100
AcDbCircle
 10
82.654081
 20
468.291315
 40
6.099998
  0
LINE
  5
327
100
AcDbEntity
  8
M0
  6
DASHDOT
 62
     5
100
AcDbLine
 10
92.254072
 20
468.291315
 11
73.054075
 21
468.291315
  0
LINE
  5
328
100
AcDbEntity
  8
M0
  6
DASHDOT
 62
     5
100
AcDbLine
 10
82.654081
 20
458.691309
 11
82.654081
 21
477.891306
  0
CIRCLE
  5
329
100
AcDbEntity
  8
M0
 62
     5
100
AcDbCircle
 10
115.654035
 20
468.291559
 40
6.099998
  0
LINE
  5
32A
100
AcDbEntity
  8
M0
  6
DASHDOT
 62
     5
100
AcDbLine
 10
125.254026
 20
468.291559
 11
106.054029
 21
468.291559
  0
LINE
  5
32B
100
AcDbEntity
  8
M0
  6
DASHDOT
 62
     5
100
AcDbLine
 10
115.654035
 20
458.691553
 11
115.654035
 21
477.89155
  0
CIRCLE
  5
32C
100
AcDbEntity
  8
M0
 62
     5
100
AcDbCircle
 10
148.654066
 20
468.291559
 40
6.099998
  0
LINE
  5
32D
100
AcDbEntity
  8
M0
  6
DASHDOT
 62
     5
100
AcDbLine
 10
158.254057
 20
468.291559
 11
139.05406
 21
468.291559
  0
LINE
  5
32E
100
AcDbEntity
  8
M0
  6
DASHDOT
 62
     5
100
AcDbLine
 10
148.654066
 20
458.691553
 11
148.654066
 21
477.89155
  0
CIRCLE
  5
32F
100
AcDbEntity
  8
M0
 62
     5
100
AcDbCircle
 10
148.654066
 20
468.291559
 40
6.5
  0
LINE
  5
330
100
AcDbEntity
  8
M0
  6
DASHDOT
 62
     5
100
AcDbLine
 10
158.654066
 20
468.291559
 11
138.654066
 21
468.291559
  0
LINE
  5
331
100
AcDbEntity
  8
M0
  6
DASHDOT
 62
     5
100
AcDbLine
 10
148.654066
 20
458.291559
 11
148.654066
 21
478.291559
  0
CIRCLE
  5
332
100
AcDbEntity
  8
M0
 62
     5
100
AcDbCircle
 10
115.654035
 20
468.291559
 40
6.5
  0
LINE
  5
333
100
AcDbEntity
  8
M0
  6
DASHDOT
 62
     5
100
AcDbLine
 10
125.654035
 20
468.291559
 11
105.654035
 21
468.291559
  0
LINE
  5
334
100
AcDbEntity
  8
M0
  6
DASHDOT
 62
     5
100
AcDbLine
 10
115.654035
 20
458.291559
 11
115.654035
 21
478.291559
  0
CIRCLE
  5
335
100
AcDbEntity
  8
M0
 62
     5
100
AcDbCircle
 10
82.654081
 20
468.291315
 40
6.5
  0
LINE
  5
336
100
AcDbEntity
  8
M0
  6
DASHDOT
 62
     5
100
AcDbLine
 10
92.654081
 20
468.291315
 11
72.654081
 21
468.291315
  0
LINE
  5
337
100
AcDbEntity
  8
M0
  6
DASHDOT
 62
     5
100
AcDbLine
 10
82.654081
 20
458.291315
 11
82.654081
 21
478.291315
  0
LINE
  5
338
100
AcDbEntity
  8
M0
100
AcDbLine
 10
165.40402
 20
353.291528
 11
165.40402
 21
370.791055
  0
LINE
  5
339
100
AcDbEntity
  8
M0
100
AcDbLine
 10
65.90402
 20
463.2913
 11
65.90402
 21
445.791544
  0
LINE
  5
33A
100
AcDbEntity
  8
M0
  6
DASHDOT
100
AcDbLine
 10
115.65402
 20
341.291544
 11
115.65402
 21
475.291544
  0
ARC
  5
33B
100
AcDbEntity
  8
M0
100
AcDbCircle
 10
158.40402
 20
353.291544
 40
7.0
100
AcDbArc
 50
272.046465
 51
360.0
  0
ARC
  5
33C
100
AcDbEntity
  8
M0
100
AcDbCircle
 10
158.40402
 20
463.2913
 40
7.0
100
AcDbArc
 50
0.0
 51
87.953285
  0
ARC
  5
33D
100
AcDbEntity
  8
M0
100
AcDbCircle
 10
72.90402
 20
463.2913
 40
7.0
100
AcDbArc
 50
92.04659
 51
180.0
  0
ARC
  5
33E
100
AcDbEntity
  8
M0
100
AcDbCircle
 10
72.90402
 20
353.291544
 40
7.0
100
AcDbArc
 50
179.999875
 51
267.953285
  0
LINE
  5
33F
100
AcDbEntity
  8
M0
100
AcDbLine
 10
65.90402
 20
370.791544
 11
65.90402
 21
353.291544
  0
LINE
  5
340
100
AcDbEntity
  8
M0
100
AcDbLine
 10
165.40402
 20
445.791055
 11
165.40402
 21
463.291055
  0
LINE
  5
341
100
AcDbEntity
  8
M0
100
AcDbLine
 10
152.65402
 20
360.291544
 11
165.40402
 21
360.291544
  0
LINE
  5
342
100
AcDbEntity
  8
M0
100
AcDbLine
 10
65.90402
 20
360.291544
 11
78.65402
 21
360.291544
  0
LINE
  5
343
100
AcDbEntity
  8
M0
100
AcDbLine
 10
152.65402
 20
456.291544
 11
165.40402
 21
456.291544
  0
LINE
  5
344
100
AcDbEntity
  8
M0
100
AcDbLine
 10
65.90402
 20
456.291544
 11
78.654035
 21
456.291544
  0
ARC
  5
345
100
AcDbEntity
  8
M0
100
AcDbCircle
 10
152.65402
 20
356.291544
 40
4.0
100
AcDbArc
 50
90.0
 51
99.152407
  0
ARC
  5
346
100
AcDbEntity
  8
M0
100
AcDbCircle
 10
78.65402
 20
356.291559
 40
4.0
100
AcDbArc
 50
80.847377
 51
89.999781
  0
ARC
  5
347
100
AcDbEntity
  8
M0
100
AcDbCircle
 10
78.654035
 20
460.2913
 40
4.0
100
AcDbArc
 50
270.0
 51
279.152192
  0
ARC
  5
348
100
AcDbEntity
  8
M0
100
AcDbCircle
 10
152.65402
 20
460.2913
 40
4.0
100
AcDbArc
 50
260.847161
 51
269.999781
  0
LINE
  5
349
100
AcDbEntity
  8
M0
100
AcDbLine
 10
164.40402
 20
353.291528
 11
164.40402
 21
360.291544
  0
LINE
  5
34A
100
AcDbEntity
  8
M0
100
AcDbLine
 10
66.90402
 20
360.291544
 11
66.90402
 21
353.291544
  0
ARC
  5
34B
100
AcDbEntity
  8
M0
100
AcDbCircle
 10
158.40402
 20
353.291544
 40
6.0
100
AcDbArc
 50
272.387727
 51
360.0
  0
ARC
  5
34C
100
AcDbEntity
  8
M0
100
AcDbCircle
 10
72.90402
 20
353.291544
 40
6.0
100
AcDbArc
 50
179.999854
 51
267.611981
  0
LINE
  5
34D
100
AcDbEntity
  8
M0
100
AcDbLine
 10
66.90402
 20
463.2913
 11
66.90402
 21
456.291544
  0
LINE
  5
34E
100
AcDbEntity
  8
M0
100
AcDbLine
 10
164.40402
 20
456.291544
 11
164.40402
 21
463.291055
  0
ARC
  5
34F
100
AcDbEntity
  8
M0
100
AcDbCircle
 10
72.90402
 20
463.2913
 40
6.0
100
AcDbArc
 50
92.387873
 51
180.0
  0
ARC
  5
350
100
AcDbEntity
  8
M0
100
AcDbCircle
 10
158.40402
 20
463.2913
 40
6.0
100
AcDbArc
 50
0.0
 51
87.611981
  0
ARC
  5
351
100
AcDbEntity
  8
M0
100
AcDbCircle
 10
76.65402
 20
446.291544
 40
1.0
100
AcDbArc
 50
329.999312
 51
360.0
  0
ARC
  5
352
100
AcDbEntity
  8
M0
100
AcDbCircle
 10
154.65402
 20
446.2913
 40
1.0
100
AcDbArc
 50
180.0
 51
209.994833
  0
ARC
  5
353
100
AcDbEntity
  8
M0
100
AcDbCircle
 10
76.653974
 20
370.291544
 40
1.0
100
AcDbArc
 50
0.0
 51
30.000688
  0
ARC
  5
354
100
AcDbEntity
  8
M0
100
AcDbCircle
 10
154.653776
 20
370.291788
 40
1.0
100
AcDbArc
 50
150.005167
 51
179.999126
  0
CIRCLE
  5
355
100
AcDbEntity
  8
M0
100
AcDbCircle
 10
157.65402
 20
366.291544
 40
2.0
  0
CIRCLE
  5
356
100
AcDbEntity
  8
M0
100
AcDbCircle
 10
73.65402
 20
450.291544
 40
2.0
  0
LINE
  5
357
100
AcDbEntity
  8
M0
100
AcDbLine
 10
69.65402
 20
456.291544
 11
69.65402
 21
446.291544
  0
LINE
  5
358
100
AcDbEntity
  8
M0
100
AcDbLine
 10
77.65402
 20
456.291544
 11
77.65402
 21
446.291544
  0
ARC
  5
359
100
AcDbEntity
  8
M0
100
AcDbCircle
 10
70.65402
 20
446.291544
 40
1.0
100
AcDbArc
 50
180.0
 51
210.001125
  0
LINE
  5
35A
100
AcDbEntity
  8
M0
100
AcDbLine
 10
71.40402
 20
447.291544
 11
75.90402
 21
447.291544
  0
LINE
  5
35B
100
AcDbEntity
  8
M0
100
AcDbLine
 10
76.40402
 20
454.291544
 11
76.40402
 21
447.791544
  0
LINE
  5
35C
100
AcDbEntity
  8
M0
100
AcDbLine
 10
70.90402
 20
454.291544
 11
70.90402
 21
447.791544
  0
LINE
  5
35D
100
AcDbEntity
  8
M0
100
AcDbLine
 10
69.65402
 20
454.291544
 11
77.65402
 21
454.291544
  0
ARC
  5
35E
100
AcDbEntity
  8
M0
100
AcDbCircle
 10
71.40402
 20
447.791544
 40
0.5
100
AcDbArc
 50
180.0
 51
270.0
  0
ARC
  5
35F
100
AcDbEntity
  8
M0
100
AcDbCircle
 10
75.90402
 20
447.791544
 40
0.5
100
AcDbArc
 50
270.0
 51
360.0
  0
ARC
  5
360
100
AcDbEntity
  8
M0
100
AcDbCircle
 10
160.65402
 20
446.2913
 40
1.0
100
AcDbArc
 50
-30.003076
 51
0.0
  0
LINE
  5
361
100
AcDbEntity
  8
M0
100
AcDbLine
 10
161.65402
 20
456.2913
 11
161.65402
 21
446.2913
  0
LINE
  5
362
100
AcDbEntity
  8
M0
100
AcDbLine
 10
161.65402
 20
454.2913
 11
160.904051
 21
454.2913
  0
LINE
  5
363
100
AcDbEntity
  8
M0
100
AcDbLine
 10
153.65402
 20
456.2913
 11
153.65402
 21
446.2913
  0
ARC
  5
364
100
AcDbEntity
  8
M0
100
AcDbCircle
 10
70.653974
 20
370.291544
 40
1.0
100
AcDbArc
 50
149.998875
 51
179.999126
  0
LINE
  5
365
100
AcDbEntity
  8
M0
100
AcDbLine
 10
69.653974
 20
360.291544
 11
69.653974
 21
370.291544
  0
LINE
  5
366
100
AcDbEntity
  8
M0
100
AcDbLine
 10
69.653974
 20
362.291544
 11
70.403959
 21
362.291544
  0
LINE
  5
367
100
AcDbEntity
  8
M0
100
AcDbLine
 10
77.653974
 20
360.291544
 11
77.653974
 21
370.291544
  0
LINE
  5
368
100
AcDbEntity
  8
M0
100
AcDbLine
 10
161.653776
 20
362.291788
 11
153.653776
 21
362.291788
  0
LINE
  5
369
100
AcDbEntity
  8
M0
100
AcDbLine
 10
154.903776
 20
362.291788
 11
154.903776
 21
368.791788
  0
LINE
  5
36A
100
AcDbEntity
  8
M0
100
AcDbLine
 10
153.653776
 20
360.291788
 11
153.653776
 21
370.291788
  0
LINE
  5
36B
100
AcDbEntity
  8
M0
100
AcDbLine
 10
160.403776
 20
362.291788
 11
160.403776
 21
368.791788
  0
LINE
  5
36C
100
AcDbEntity
  8
M0
100
AcDbLine
 10
161.653776
 20
360.291788
 11
161.653776
 21
370.291788
  0
LINE
  5
36D
100
AcDbEntity
  8
M0
100
AcDbLine
 10
159.903776
 20
369.291788
 11
155.403776
 21
369.291788
  0
ARC
  5
36E
100
AcDbEntity
  8
M0
100
AcDbCircle
 10
160.653776
 20
370.291788
 40
1.0
100
AcDbArc
 50
0.0
 51
30.003076
  0
ARC
  5
36F
100
AcDbEntity
  8
M0
100
AcDbCircle
 10
159.903776
 20
368.791788
 40
0.5
100
AcDbArc
 50
0.0
 51
90.0
  0
ARC
  5
370
100
AcDbEntity
  8
M0
100
AcDbCircle
 10
155.403776
 20
368.791788
 40
0.5
100
AcDbArc
 50
90.0
 51
179.998251
  0
LINE
  5
371
100
AcDbEntity
  8
M0
100
AcDbLine
 10
152.153776
 20
447.902384
 11
152.54196
 21
448.290567
  0
LINE
  5
372
100
AcDbEntity
  8
M0
100
AcDbLine
 10
153.65402
 20
452.290811
 11
152.542204
 21
448.290811
  0
ARC
  5
373
100
AcDbEntity
  8
M0
100
AcDbCircle
 10
157.65402
 20
450.291544
 40
4.299999
100
AcDbArc
 50
338.468918
 51
381.527608
  0
LINE
  5
374
100
AcDbEntity
  8
M0
100
AcDbLine
 10
77.654264
 20
364.292276
 11
78.766081
 21
368.292276
  0
LINE
  5
375
100
AcDbEntity
  8
M0
100
AcDbLine
 10
79.154508
 20
368.680704
 11
78.766325
 21
368.29252
  0
ARC
  5
376
100
AcDbEntity
  8
M0
100
AcDbCircle
 10
73.654264
 20
366.291544
 40
4.299999
100
AcDbArc
 50
158.468918
 51
201.527419
  0
ARC
  5
377
100
AcDbEntity
  8
M0
100
AcDbCircle
 10
158.15402
 20
463.291544
 40
2.75
100
AcDbArc
 50
269.999682
 51
439.524315
  0
ARC
  5
378
100
AcDbEntity
  8
M0
100
AcDbCircle
 10
73.15402
 20
353.291544
 40
2.75
100
AcDbArc
 50
89.999682
 51
259.524628
  0
LINE
  5
379
100
AcDbEntity
  8
M0
100
AcDbLine
 10
156.701627
 20
460.5413
 11
158.153776
 21
460.5413
  0
LINE
  5
37A
100
AcDbEntity
  8
M0
100
AcDbLine
 10
73.154035
 20
356.041513
 11
74.60597
 21
356.041513
  0
LINE
  5
37B
100
AcDbEntity
  8
M0
100
AcDbLine
 10
76.904051
 20
362.291544
 11
77.653974
 21
362.291544
  0
LINE
  5
37C
100
AcDbEntity
  8
M0
100
AcDbLine
 10
154.403959
 20
454.2913
 11
153.65402
 21
454.2913
  0
LINE
  5
37D
100
AcDbEntity
  8
M0
 62
     5
100
AcDbLine
 10
75.861158
 20
378.291528
 11
77.95709
 21
380.387476
  0
LINE
  5
37E
100
AcDbEntity
  8
M0
 62
     5
100
AcDbLine
 10
73.058119
 20
375.488489
 11
75.154051
 21
377.584436
  0
LINE
  5
37F
100
AcDbEntity
  8
M0
 62
     5
100
AcDbLine
 10
74.446958
 20
378.291544
 11
72.351011
 21
376.195596
  0
LINE
  5
380
100
AcDbEntity
  8
M0
 62
     5
100
AcDbLine
 10
77.249998
 20
381.094568
 11
75.154066
 21
378.998636
  0
LINE
  5
381
100
AcDbEntity
  8
M0
 62
     5
100
AcDbLine
 10
75.154066
 20
378.998636
 11
74.058012
 21
380.09469
  0
LINE
  5
382
100
AcDbEntity
  8
M0
 62
     5
100
AcDbLine
 10
76.957212
 20
377.19549
 11
75.861158
 21
378.291528
  0
LINE
  5
383
100
AcDbEntity
  8
M0
 62
     5
100
AcDbLine
 10
75.154051
 20
377.584436
 11
76.250105
 21
376.488382
  0
LINE
  5
384
100
AcDbEntity
  8
M0
 62
     5
100
AcDbLine
 10
73.350904
 20
379.387582
 11
74.446958
 21
378.291544
  0
CIRCLE
  5
385
100
AcDbEntity
  8
M0
 62
     5
100
AcDbCircle
 10
75.154066
 20
378.291544
 40
3.5
  0
LINE
  5
386
100
AcDbEntity
  8
M0
 62
     5
100
AcDbLine
 10
76.250105
 20
376.488382
 11
76.957212
 21
377.19549
  0
LINE
  5
387
100
AcDbEntity
  8
M0
 62
     5
100
AcDbLine
 10
74.058012
 20
380.09469
 11
73.350904
 21
379.387582
  0
LINE
  5
388
100
AcDbEntity
  8
M0
 62
     5
100
AcDbLine
 10
156.861158
 20
438.291528
 11
158.95709
 21
440.387476
  0
LINE
  5
389
100
AcDbEntity
  8
M0
 62
     5
100
AcDbLine
 10
154.058119
 20
435.488489
 11
156.154051
 21
437.584436
  0
LINE
  5
38A
100
AcDbEntity
  8
M0
 62
     5
100
AcDbLine
 10
155.446958
 20
438.291544
 11
153.351011
 21
436.195596
  0
LINE
  5
38B
100
AcDbEntity
  8
M0
 62
     5
100
AcDbLine
 10
158.249998
 20
441.094568
 11
156.154066
 21
438.998636
  0
LINE
  5
38C
100
AcDbEntity
  8
M0
 62
     5
100
AcDbLine
 10
156.154066
 20
438.998636
 11
155.058012
 21
440.09469
  0
LINE
  5
38D
100
AcDbEntity
  8
M0
 62
     5
100
AcDbLine
 10
157.957212
 20
437.19549
 11
156.861158
 21
438.291528
  0
LINE
  5
38E
100
AcDbEntity
  8
M0
 62
     5
100
AcDbLine
 10
156.154051
 20
437.584436
 11
157.250105
 21
436.488382
  0
LINE
  5
38F
100
AcDbEntity
  8
M0
 62
     5
100
AcDbLine
 10
154.350904
 20
439.387582
 11
155.446958
 21
438.291544
  0
CIRCLE
  5
390
100
AcDbEntity
  8
M0
 62
     5
100
AcDbCircle
 10
156.154066
 20
438.291544
 40
3.5
  0
LINE
  5
391
100
AcDbEntity
  8
M0
 62
     5
100
AcDbLine
 10
157.250105
 20
436.488382
 11
157.957212
 21
437.19549
  0
LINE
  5
392
100
AcDbEntity
  8
M0
 62
     5
100
AcDbLine
 10
155.058012
 20
440.09469
 11
154.350904
 21
439.387582
  0
LINE
  5
393
100
AcDbEntity
  8
M0
100
AcDbLine
 10
158.654051
 20
344.191553
 11
172.654051
 21
344.191553
  0
LINE
  5
394
100
AcDbEntity
  8
M0
100
AcDbLine
 10
125.654006
 20
344.191553
 11
138.654051
 21
344.191553
  0
LINE
  5
395
100
AcDbEntity
  8
M0
100
AcDbLine
 10
158.654051
 20
345.791559
 11
172.654051
 21
345.791559
  0
LINE
  5
396
100
AcDbEntity
  8
M0
100
AcDbLine
 10
125.654007
 20
345.791559
 11
138.654051
 21
345.791559
  0
LINE
  5
397
100
AcDbEntity
  8
M0
100
AcDbLine
 10
92.654051
 20
344.191553
 11
105.654007
 21
344.191553
  0
LINE
  5
398
100
AcDbEntity
  8
M0
100
AcDbLine
 10
92.654051
 20
345.791559
 11
105.654008
 21
345.791559
  0
LINE
  5
399
100
AcDbEntity
  8
M0
100
AcDbLine
 10
65.654051
 20
344.191553
 11
72.654051
 21
344.191553
  0
LINE
  5
39A
100
AcDbEntity
  8
M0
100
AcDbLine
 10
65.654051
 20
345.791559
 11
72.654051
 21
345.791559
  0
LINE
  5
39B
100
AcDbEntity
  8
M0
100
AcDbLine
 10
67.654051
 20
345.791559
 11
67.654051
 21
344.191553
  0
LINE
  5
39C
100
AcDbEntity
  8
M0
100
AcDbLine
 10
170.654051
 20
345.791559
 11
170.654051
 21
344.191553
  0
LINE
  5
39D
100
AcDbEntity
  8
M0
100
AcDbLine
 10
72.654112
 20
472.391535
 11
65.654051
 21
472.391535
  0
LINE
  5
39E
100
AcDbEntity
  8
M0
100
AcDbLine
 10
105.65402
 20
472.391535
 11
96.153806
 21
472.391535
  0
LINE
  5
39F
100
AcDbEntity
  8
M0
100
AcDbLine
 10
72.654112
 20
470.791528
 11
65.654051
 21
470.791528
  0
LINE
  5
3A0
100
AcDbEntity
  8
M0
100
AcDbLine
 10
105.65402
 20
470.791528
 11
92.654096
 21
470.791528
  0
LINE
  5
3A1
100
AcDbEntity
  8
M0
100
AcDbLine
 10
138.654051
 20
470.791528
 11
125.65402
 21
470.791528
  0
LINE
  5
3A2
100
AcDbEntity
  8
M0
100
AcDbLine
 10
138.654051
 20
472.391535
 11
129.154051
 21
472.391535
  0
LINE
  5
3A3
100
AcDbEntity
  8
M0
100
AcDbLine
 10
172.654051
 20
472.391535
 11
158.654051
 21
472.391535
  0
LINE
  5
3A4
100
AcDbEntity
  8
M0
100
AcDbLine
 10
172.654051
 20
470.791528
 11
158.654051
 21
470.791528
  0
LINE
  5
3A5
100
AcDbEntity
  8
M0
100
AcDbLine
 10
67.654051
 20
472.391535
 11
67.654051
 21
470.791528
  0
LINE
  5
3A6
100
AcDbEntity
  8
M0
100
AcDbLine
 10
170.654051
 20
472.391535
 11
170.654051
 21
470.791528
  0
LINE
  5
3A7
100
AcDbEntity
  8
M0
  6
DASHDOT
100
AcDbLine
 10
60.654051
 20
408.291544
 11
177.654051
 21
408.291544
  0
LINE
  5
3A8
100
AcDbEntity
  8
M0
100
AcDbLine
 10
65.654051
 20
472.391535
 11
65.654051
 21
344.191553
  0
LINE
  5
3A9
100
AcDbEntity
  8
M0
100
AcDbLine
 10
172.654051
 20
344.191553
 11
172.654051
 21
412.041544
  0
LINE
  5
3AA
100
AcDbEntity
  8
M0
100
AcDbLine
 10
109.124226
 20
345.791559
 11
109.154051
 21
345.791559
  0
LINE
  5
3AB
100
AcDbEntity
  8
M0
100
AcDbLine
 10
172.654051
 20
412.041544
 11
172.654051
 21
472.391535
  0
LINE
  5
3AC
100
AcDbEntity
  8
M0
100
AcDbLine
 10
165.254011
 20
346.291544
 11
165.254011
 21
351.850198
  0
LINE
  5
3AD
100
AcDbEntity
  8
M0
100
AcDbLine
 10
165.254011
 20
470.291544
 11
158.65402
 21
470.291544
  0
LINE
  5
3AE
100
AcDbEntity
  8
M0
100
AcDbLine
 10
66.054029
 20
470.291544
 11
66.054029
 21
464.732645
  0
LINE
  5
3AF
100
AcDbEntity
  8
M0
100
AcDbLine
 10
66.054029
 20
346.291544
 11
72.65402
 21
346.291544
  0
LINE
  5
3B0
100
AcDbEntity
  8
M0
  6
DASHDOT
100
AcDbLine
 10
115.65402
 20
341.291544
 11
115.65402
 21
475.291544
  0
LINE
  5
3B1
100
AcDbEntity
  8
M0
100
AcDbLine
 10
165.254011
 20
464.732645
 11
165.254011
 21
470.291544
  0
LINE
  5
3B2
100
AcDbEntity
  8
M0
100
AcDbLine
 10
138.65402
 20
470.291544
 11
125.65402
 21
470.291544
  0
LINE
  5
3B3
100
AcDbEntity
  8
M0
100
AcDbLine
 10
105.65402
 20
470.291544
 11
92.653776
 21
470.291544
  0
LINE
  5
3B4
100
AcDbEntity
  8
M0
100
AcDbLine
 10
72.65402
 20
470.291544
 11
66.054029
 21
470.291544
  0
LINE
  5
3B5
100
AcDbEntity
  8
M0
100
AcDbLine
 10
66.054029
 20
351.850198
 11
66.054029
 21
346.291544
  0
LINE
  5
3B6
100
AcDbEntity
  8
M0
100
AcDbLine
 10
92.653776
 20
346.291544
 11
105.65402
 21
346.291544
  0
LINE
  5
3B7
100
AcDbEntity
  8
M0
100
AcDbLine
 10
125.65402
 20
346.291544
 11
138.65402
 21
346.291544
  0
LINE
  5
3B8
100
AcDbEntity
  8
M0
100
AcDbLine
 10
158.65402
 20
346.291544
 11
165.254011
 21
346.291544
  0
LINE
  5
3B9
100
AcDbEntity
  8
M0
 62
     2
100
AcDbLine
 10
154.504041
 20
382.791544
 11
161.054029
 21
382.791544
  0
LINE
  5
3BA
100
AcDbEntity
  8
M0
 62
     2
100
AcDbLine
 10
161.604048
 20
384.691522
 11
161.604048
 21
391.291055
  0
LINE
  5
3BB
100
AcDbEntity
  8
M0
 62
     2
100
AcDbLine
 10
153.704038
 20
391.2913
 11
153.704038
 21
384.691538
  0
LINE
  5
3BC
100
AcDbEntity
  8
M0
 62
     2
100
AcDbLine
 10
153.904035
 20
384.491541
 11
154.004041
 21
384.491541
  0
LINE
  5
3BD
100
AcDbEntity
  8
M0
 62
     2
100
AcDbLine
 10
160.804044
 20
383.991541
 11
160.804044
 21
382.791544
  0
LINE
  5
3BE
100
AcDbEntity
  8
M0
 62
     2
100
AcDbLine
 10
154.504041
 20
383.991541
 11
154.504041
 21
382.791544
  0
LINE
  5
3BF
100
AcDbEntity
  8
M0
 62
     2
100
AcDbLine
 10
161.304044
 20
384.491541
 11
161.404035
 21
384.491541
  0
LINE
  5
3C0
100
AcDbEntity
  8
M0
 62
     2
100
AcDbLine
 10
161.054029
 20
383.791544
 11
161.054029
 21
382.791544
  0
LINE
  5
3C1
100
AcDbEntity
  8
M0
 62
     2
100
AcDbLine
 10
160.804044
 20
383.791544
 11
161.054029
 21
383.791544
  0
ARC
  5
3C2
100
AcDbEntity
  8
M0
 62
     2
100
AcDbCircle
 10
161.304044
 20
383.991541
 40
0.5
100
AcDbArc
 50
90.0
 51
179.999891
  0
ARC
  5
3C3
100
AcDbEntity
  8
M0
 62
     2
100
AcDbCircle
 10
154.004041
 20
383.991541
 40
0.5
100
AcDbArc
 50
0.0
 51
90.0
  0
ARC
  5
3C4
100
AcDbEntity
  8
M0
 62
     2
100
AcDbCircle
 10
160.604048
 20
391.2913
 40
1.0
100
AcDbArc
 50
359.985902
 51
450.0
  0
ARC
  5
3C5
100
AcDbEntity
  8
M0
 62
     2
100
AcDbCircle
 10
154.704038
 20
391.2913
 40
1.0
100
AcDbArc
 50
90.0
 51
180.0
  0
ARC
  5
3C6
100
AcDbEntity
  8
M0
 62
     2
100
AcDbCircle
 10
153.904035
 20
384.691538
 40
0.2
100
AcDbArc
 50
179.999727
 51
270.0
  0
ARC
  5
3C7
100
AcDbEntity
  8
M0
 62
     2
100
AcDbCircle
 10
161.404035
 20
384.691538
 40
0.2
100
AcDbArc
 50
270.0
 51
360.0
  0
LINE
  5
3C8
100
AcDbEntity
  8
M0
 62
     2
100
AcDbLine
 10
154.504041
 20
392.291544
 11
154.714933
 21
392.291544
  0
LINE
  5
3C9
100
AcDbEntity
  8
M0
 62
     2
100
AcDbLine
 10
161.604048
 20
394.191522
 11
161.604048
 21
400.791055
  0
LINE
  5
3CA
100
AcDbEntity
  8
M0
 62
     2
100
AcDbLine
 10
153.704038
 20
400.7913
 11
153.704038
 21
394.191538
  0
LINE
  5
3CB
100
AcDbEntity
  8
M0
 62
     2
100
AcDbLine
 10
153.904035
 20
393.991541
 11
154.004041
 21
393.991541
  0
LINE
  5
3CC
100
AcDbEntity
  8
M0
 62
     2
100
AcDbLine
 10
160.804044
 20
393.491541
 11
160.804044
 21
392.291544
  0
LINE
  5
3CD
100
AcDbEntity
  8
M0
 62
     2
100
AcDbLine
 10
154.504041
 20
393.491541
 11
154.504041
 21
392.291544
  0
LINE
  5
3CE
100
AcDbEntity
  8
M0
 62
     2
100
AcDbLine
 10
161.304044
 20
393.991541
 11
161.404035
 21
393.991541
  0
LINE
  5
3CF
100
AcDbEntity
  8
M0
 62
     2
100
AcDbLine
 10
161.054029
 20
393.291544
 11
161.054029
 21
392.291544
  0
LINE
  5
3D0
100
AcDbEntity
  8
M0
 62
     2
100
AcDbLine
 10
160.804044
 20
393.291544
 11
161.054029
 21
393.291544
  0
ARC
  5
3D1
100
AcDbEntity
  8
M0
 62
     2
100
AcDbCircle
 10
161.304044
 20
393.491541
 40
0.5
100
AcDbArc
 50
90.0
 51
179.999891
  0
ARC
  5
3D2
100
AcDbEntity
  8
M0
 62
     2
100
AcDbCircle
 10
154.004041
 20
393.491541
 40
0.5
100
AcDbArc
 50
0.0
 51
90.0
  0
ARC
  5
3D3
100
AcDbEntity
  8
M0
 62
     2
100
AcDbCircle
 10
160.604048
 20
400.7913
 40
1.0
100
AcDbArc
 50
359.985902
 51
450.0
  0
ARC
  5
3D4
100
AcDbEntity
  8
M0
 62
     2
100
AcDbCircle
 10
154.704038
 20
400.7913
 40
1.0
100
AcDbArc
 50
90.0
 51
180.0
  0
ARC
  5
3D5
100
AcDbEntity
  8
M0
 62
     2
100
AcDbCircle
 10
153.904035
 20
394.191538
 40
0.2
100
AcDbArc
 50
179.999727
 51
270.0
  0
ARC
  5
3D6
100
AcDbEntity
  8
M0
 62
     2
100
AcDbCircle
 10
161.404035
 20
394.191538
 40
0.2
100
AcDbArc
 50
270.0
 51
360.0
  0
LINE
  5
3D7
100
AcDbEntity
  8
M0
 62
     2
100
AcDbLine
 10
160.593137
 20
392.291544
 11
161.054029
 21
392.291544
  0
LINE
  5
3D8
100
AcDbEntity
  8
M0
 62
     2
100
AcDbLine
 10
70.504041
 20
392.291544
 11
70.714933
 21
392.291544
  0
LINE
  5
3D9
100
AcDbEntity
  8
M0
 62
     2
100
AcDbLine
 10
77.604048
 20
394.191522
 11
77.604048
 21
400.791055
  0
LINE
  5
3DA
100
AcDbEntity
  8
M0
 62
     2
100
AcDbLine
 10
69.704038
 20
400.7913
 11
69.704038
 21
394.191538
  0
LINE
  5
3DB
100
AcDbEntity
  8
M0
 62
     2
100
AcDbLine
 10
69.904035
 20
393.991541
 11
70.004041
 21
393.991541
  0
LINE
  5
3DC
100
AcDbEntity
  8
M0
 62
     2
100
AcDbLine
 10
76.804044
 20
393.491541
 11
76.804044
 21
392.291544
  0
LINE
  5
3DD
100
AcDbEntity
  8
M0
 62
     2
100
AcDbLine
 10
70.504041
 20
393.491541
 11
70.504041
 21
392.291544
  0
LINE
  5
3DE
100
AcDbEntity
  8
M0
 62
     2
100
AcDbLine
 10
77.304044
 20
393.991541
 11
77.404035
 21
393.991541
  0
LINE
  5
3DF
100
AcDbEntity
  8
M0
 62
     2
100
AcDbLine
 10
77.054029
 20
393.291544
 11
77.054029
 21
392.291544
  0
LINE
  5
3E0
100
AcDbEntity
  8
M0
 62
     2
100
AcDbLine
 10
76.804044
 20
393.291544
 11
77.054029
 21
393.291544
  0
ARC
  5
3E1
100
AcDbEntity
  8
M0
 62
     2
100
AcDbCircle
 10
77.304044
 20
393.491541
 40
0.5
100
AcDbArc
 50
90.0
 51
179.999891
  0
ARC
  5
3E2
100
AcDbEntity
  8
M0
 62
     2
100
AcDbCircle
 10
70.004041
 20
393.491541
 40
0.5
100
AcDbArc
 50
0.0
 51
90.0
  0
ARC
  5
3E3
100
AcDbEntity
  8
M0
 62
     2
100
AcDbCircle
 10
76.604048
 20
400.7913
 40
1.0
100
AcDbArc
 50
359.985902
 51
450.0
  0
ARC
  5
3E4
100
AcDbEntity
  8
M0
 62
     2
100
AcDbCircle
 10
70.704038
 20
400.7913
 40
1.0
100
AcDbArc
 50
90.0
 51
180.0
  0
ARC
  5
3E5
100
AcDbEntity
  8
M0
 62
     2
100
AcDbCircle
 10
69.904035
 20
394.191538
 40
0.2
100
AcDbArc
 50
179.999727
 51
270.0
  0
ARC
  5
3E6
100
AcDbEntity
  8
M0
 62
     2
100
AcDbCircle
 10
77.404035
 20
394.191538
 40
0.2
100
AcDbArc
 50
270.0
 51
360.0
  0
LINE
  5
3E7
100
AcDbEntity
  8
M0
 62
     2
100
AcDbLine
 10
76.593137
 20
392.291544
 11
77.054029
 21
392.291544
  0
LINE
  5
3E8
100
AcDbEntity
  8
M0
 62
     2
100
AcDbLine
 10
70.504041
 20
382.791544
 11
77.054029
 21
382.791544
  0
LINE
  5
3E9
100
AcDbEntity
  8
M0
 62
     2
100
AcDbLine
 10
77.604048
 20
384.691522
 11
77.604048
 21
391.291055
  0
LINE
  5
3EA
100
AcDbEntity
  8
M0
 62
     2
100
AcDbLine
 10
69.704038
 20
391.2913
 11
69.704038
 21
384.691538
  0
LINE
  5
3EB
100
AcDbEntity
  8
M0
 62
     2
100
AcDbLine
 10
69.904035
 20
384.491541
 11
70.004041
 21
384.491541
  0
LINE
  5
3EC
100
AcDbEntity
  8
M0
 62
     2
100
AcDbLine
 10
76.804044
 20
383.991541
 11
76.804044
 21
382.791544
  0
LINE
  5
3ED
100
AcDbEntity
  8
M0
 62
     2
100
AcDbLine
 10
70.504041
 20
383.991541
 11
70.504041
 21
382.791544
  0
LINE
  5
3EE
100
AcDbEntity
  8
M0
 62
     2
100
AcDbLine
 10
77.304044
 20
384.491541
 11
77.404035
 21
384.491541
  0
LINE
  5
3EF
100
AcDbEntity
  8
M0
 62
     2
100
AcDbLine
 10
77.054029
 20
383.791544
 11
77.054029
 21
382.791544
  0
LINE
  5
3F0
100
AcDbEntity
  8
M0
 62
     2
100
AcDbLine
 10
76.804044
 20
383.791544
 11
77.054029
 21
383.791544
  0
ARC
  5
3F1
100
AcDbEntity
  8
M0
 62
     2
100
AcDbCircle
 10
77.304044
 20
383.991541
 40
0.5
100
AcDbArc
 50
90.0
 51
179.999891
  0
ARC
  5
3F2
100
AcDbEntity
  8
M0
 62
     2
100
AcDbCircle
 10
70.004041
 20
383.991541
 40
0.5
100
AcDbArc
 50
0.0
 51
90.0
  0
ARC
  5
3F3
100
AcDbEntity
  8
M0
 62
     2
100
AcDbCircle
 10
76.604048
 20
391.2913
 40
1.0
100
AcDbArc
 50
359.985902
 51
450.0
  0
ARC
  5
3F4
100
AcDbEntity
  8
M0
 62
     2
100
AcDbCircle
 10
70.704038
 20
391.2913
 40
1.0
100
AcDbArc
 50
90.0
 51
180.0
  0
ARC
  5
3F5
100
AcDbEntity
  8
M0
 62
     2
100
AcDbCircle
 10
69.904035
 20
384.691538
 40
0.2
100
AcDbArc
 50
179.999727
 51
270.0
  0
ARC
  5
3F6
100
AcDbEntity
  8
M0
 62
     2
100
AcDbCircle
 10
77.404035
 20
384.691538
 40
0.2
100
AcDbArc
 50
270.0
 51
360.0
  0
LINE
  5
3F7
100
AcDbEntity
  8
M0
 62
     2
100
AcDbLine
 10
70.504041
 20
424.291544
 11
70.714826
 21
424.291544
  0
LINE
  5
3F8
100
AcDbEntity
  8
M0
 62
     2
100
AcDbLine
 10
77.604048
 20
422.391565
 11
77.604048
 21
415.792032
  0
LINE
  5
3F9
100
AcDbEntity
  8
M0
 62
     2
100
AcDbLine
 10
69.704038
 20
415.791788
 11
69.704038
 21
422.39155
  0
LINE
  5
3FA
100
AcDbEntity
  8
M0
 62
     2
100
AcDbLine
 10
69.904035
 20
422.591547
 11
70.004041
 21
422.591547
  0
LINE
  5
3FB
100
AcDbEntity
  8
M0
 62
     2
100
AcDbLine
 10
76.804044
 20
423.091547
 11
76.804044
 21
424.291544
  0
LINE
  5
3FC
100
AcDbEntity
  8
M0
 62
     2
100
AcDbLine
 10
70.504041
 20
423.091547
 11
70.504041
 21
424.291544
  0
LINE
  5
3FD
100
AcDbEntity
  8
M0
 62
     2
100
AcDbLine
 10
77.304044
 20
422.591547
 11
77.404035
 21
422.591547
  0
LINE
  5
3FE
100
AcDbEntity
  8
M0
 62
     2
100
AcDbLine
 10
77.054029
 20
423.291544
 11
77.054029
 21
424.291544
  0
LINE
  5
3FF
100
AcDbEntity
  8
M0
 62
     2
100
AcDbLine
 10
76.804044
 20
423.291544
 11
77.054029
 21
423.291544
  0
ARC
  5
400
100
AcDbEntity
  8
M0
 62
     2
100
AcDbCircle
 10
77.304044
 20
423.091547
 40
0.5
100
AcDbArc
 50
180.0
 51
270.0
  0
ARC
  5
401
100
AcDbEntity
  8
M0
 62
     2
100
AcDbCircle
 10
70.004041
 20
423.091547
 40
0.5
100
AcDbArc
 50
-90.0
 51
0.0
  0
ARC
  5
402
100
AcDbEntity
  8
M0
 62
     2
100
AcDbCircle
 10
76.604048
 20
415.791788
 40
1.0
100
AcDbArc
 50
-90.0
 51
0.013988
  0
ARC
  5
403
100
AcDbEntity
  8
M0
 62
     2
100
AcDbCircle
 10
70.704038
 20
415.791788
 40
1.0
100
AcDbArc
 50
179.999945
 51
270.0
  0
ARC
  5
404
100
AcDbEntity
  8
M0
 62
     2
100
AcDbCircle
 10
69.904035
 20
422.39155
 40
0.2
100
AcDbArc
 50
90.0
 51
180.0
  0
ARC
  5
405
100
AcDbEntity
  8
M0
 62
     2
100
AcDbCircle
 10
77.404035
 20
422.39155
 40
0.2
100
AcDbArc
 50
0.0
 51
90.0
  0
LINE
  5
406
100
AcDbEntity
  8
M0
 62
     2
100
AcDbLine
 10
76.593244
 20
424.291544
 11
77.054029
 21
424.291544
  0
LINE
  5
407
100
AcDbEntity
  8
M0
 62
     2
100
AcDbLine
 10
70.504041
 20
433.791544
 11
77.054029
 21
433.791544
  0
LINE
  5
408
100
AcDbEntity
  8
M0
 62
     2
100
AcDbLine
 10
77.604048
 20
431.891565
 11
77.604048
 21
425.292032
  0
LINE
  5
409
100
AcDbEntity
  8
M0
 62
     2
100
AcDbLine
 10
69.704038
 20
425.291788
 11
69.704038
 21
431.89155
  0
LINE
  5
40A
100
AcDbEntity
  8
M0
 62
     2
100
AcDbLine
 10
69.904035
 20
432.091547
 11
70.004041
 21
432.091547
  0
LINE
  5
40B
100
AcDbEntity
  8
M0
 62
     2
100
AcDbLine
 10
76.804044
 20
432.591547
 11
76.804044
 21
433.791544
  0
LINE
  5
40C
100
AcDbEntity
  8
M0
 62
     2
100
AcDbLine
 10
70.504041
 20
432.591547
 11
70.504041
 21
433.791544
  0
LINE
  5
40D
100
AcDbEntity
  8
M0
 62
     2
100
AcDbLine
 10
77.304044
 20
432.091547
 11
77.404035
 21
432.091547
  0
LINE
  5
40E
100
AcDbEntity
  8
M0
 62
     2
100
AcDbLine
 10
77.054029
 20
432.791544
 11
77.054029
 21
433.791544
  0
LINE
  5
40F
100
AcDbEntity
  8
M0
 62
     2
100
AcDbLine
 10
76.804044
 20
432.791544
 11
77.054029
 21
432.791544
  0
ARC
  5
410
100
AcDbEntity
  8
M0
 62
     2
100
AcDbCircle
 10
77.304044
 20
432.591547
 40
0.5
100
AcDbArc
 50
180.0
 51
270.0
  0
ARC
  5
411
100
AcDbEntity
  8
M0
 62
     2
100
AcDbCircle
 10
70.004041
 20
432.591547
 40
0.5
100
AcDbArc
 50
-90.0
 51
0.0
  0
ARC
  5
412
100
AcDbEntity
  8
M0
 62
     2
100
AcDbCircle
 10
76.604048
 20
425.291788
 40
1.0
100
AcDbArc
 50
-90.0
 51
0.013988
  0
ARC
  5
413
100
AcDbEntity
  8
M0
 62
     2
100
AcDbCircle
 10
70.704038
 20
425.291788
 40
1.0
100
AcDbArc
 50
179.999945
 51
270.0
  0
ARC
  5
414
100
AcDbEntity
  8
M0
 62
     2
100
AcDbCircle
 10
69.904035
 20
431.89155
 40
0.2
100
AcDbArc
 50
90.0
 51
180.0
  0
ARC
  5
415
100
AcDbEntity
  8
M0
 62
     2
100
AcDbCircle
 10
77.404035
 20
431.89155
 40
0.2
100
AcDbArc
 50
0.0
 51
90.0
  0
LINE
  5
416
100
AcDbEntity
  8
M0
 62
     2
100
AcDbLine
 10
154.504041
 20
424.291544
 11
154.714826
 21
424.291544
  0
LINE
  5
417
100
AcDbEntity
  8
M0
 62
     2
100
AcDbLine
 10
161.604048
 20
422.391565
 11
161.604048
 21
415.792032
  0
LINE
  5
418
100
AcDbEntity
  8
M0
 62
     2
100
AcDbLine
 10
160.604048
 20
414.791544
 11
160.593244
 21
414.791544
  0
LINE
  5
419
100
AcDbEntity
  8
M0
 62
     2
100
AcDbLine
 10
153.704038
 20
415.791788
 11
153.704038
 21
422.39155
  0
LINE
  5
41A
100
AcDbEntity
  8
M0
 62
     2
100
AcDbLine
 10
153.904035
 20
422.591547
 11
154.004041
 21
422.591547
  0
LINE
  5
41B
100
AcDbEntity
  8
M0
 62
     2
100
AcDbLine
 10
160.804044
 20
423.091547
 11
160.804044
 21
424.291544
  0
LINE
  5
41C
100
AcDbEntity
  8
M0
 62
     2
100
AcDbLine
 10
154.504041
 20
423.091547
 11
154.504041
 21
424.291544
  0
LINE
  5
41D
100
AcDbEntity
  8
M0
 62
     2
100
AcDbLine
 10
161.304044
 20
422.591547
 11
161.404035
 21
422.591547
  0
LINE
  5
41E
100
AcDbEntity
  8
M0
 62
     2
100
AcDbLine
 10
161.054029
 20
423.291544
 11
161.054029
 21
424.291544
  0
LINE
  5
41F
100
AcDbEntity
  8
M0
 62
     2
100
AcDbLine
 10
160.804044
 20
423.291544
 11
161.054029
 21
423.291544
  0
ARC
  5
420
100
AcDbEntity
  8
M0
 62
     2
100
AcDbCircle
 10
161.304044
 20
423.091547
 40
0.5
100
AcDbArc
 50
180.0
 51
270.0
  0
ARC
  5
421
100
AcDbEntity
  8
M0
 62
     2
100
AcDbCircle
 10
154.004041
 20
423.091547
 40
0.5
100
AcDbArc
 50
-90.0
 51
0.0
  0
ARC
  5
422
100
AcDbEntity
  8
M0
 62
     2
100
AcDbCircle
 10
160.604048
 20
415.791788
 40
1.0
100
AcDbArc
 50
-90.0
 51
0.013988
  0
ARC
  5
423
100
AcDbEntity
  8
M0
 62
     2
100
AcDbCircle
 10
154.704038
 20
415.791788
 40
1.0
100
AcDbArc
 50
179.999945
 51
270.0
  0
ARC
  5
424
100
AcDbEntity
  8
M0
 62
     2
100
AcDbCircle
 10
153.904035
 20
422.39155
 40
0.2
100
AcDbArc
 50
90.0
 51
180.0
  0
ARC
  5
425
100
AcDbEntity
  8
M0
 62
     2
100
AcDbCircle
 10
161.404035
 20
422.39155
 40
0.2
100
AcDbArc
 50
0.0
 51
90.0
  0
LINE
  5
426
100
AcDbEntity
  8
M0
 62
     2
100
AcDbLine
 10
160.593244
 20
424.291544
 11
161.054029
 21
424.291544
  0
LINE
  5
427
100
AcDbEntity
  8
M0
 62
     2
100
AcDbLine
 10
154.714826
 20
414.791544
 11
154.704038
 21
414.791544
  0
LINE
  5
428
100
AcDbEntity
  8
M0
 62
     2
100
AcDbLine
 10
154.504041
 20
433.791544
 11
161.054029
 21
433.791544
  0
LINE
  5
429
100
AcDbEntity
  8
M0
 62
     2
100
AcDbLine
 10
161.604048
 20
431.891565
 11
161.604048
 21
425.292032
  0
LINE
  5
42A
100
AcDbEntity
  8
M0
 62
     2
100
AcDbLine
 10
160.604048
 20
424.291544
 11
160.593244
 21
424.291544
  0
LINE
  5
42B
100
AcDbEntity
  8
M0
 62
     2
100
AcDbLine
 10
153.704038
 20
425.291788
 11
153.704038
 21
431.89155
  0
LINE
  5
42C
100
AcDbEntity
  8
M0
 62
     2
100
AcDbLine
 10
153.904035
 20
432.091547
 11
154.004041
 21
432.091547
  0
LINE
  5
42D
100
AcDbEntity
  8
M0
 62
     2
100
AcDbLine
 10
160.804044
 20
432.591547
 11
160.804044
 21
433.791544
  0
LINE
  5
42E
100
AcDbEntity
  8
M0
 62
     2
100
AcDbLine
 10
154.504041
 20
432.591547
 11
154.504041
 21
433.791544
  0
LINE
  5
42F
100
AcDbEntity
  8
M0
 62
     2
100
AcDbLine
 10
161.304044
 20
432.091547
 11
161.404035
 21
432.091547
  0
LINE
  5
430
100
AcDbEntity
  8
M0
 62
     2
100
AcDbLine
 10
161.054029
 20
432.791544
 11
161.054029
 21
433.791544
  0
LINE
  5
431
100
AcDbEntity
  8
M0
 62
     2
100
AcDbLine
 10
160.804044
 20
432.791544
 11
161.054029
 21
432.791544
  0
ARC
  5
432
100
AcDbEntity
  8
M0
 62
     2
100
AcDbCircle
 10
161.304044
 20
432.591547
 40
0.5
100
AcDbArc
 50
180.0
 51
270.0
  0
ARC
  5
433
100
AcDbEntity
  8
M0
 62
     2
100
AcDbCircle
 10
154.004041
 20
432.591547
 40
0.5
100
AcDbArc
 50
-90.0
 51
0.0
  0
ARC
  5
434
100
AcDbEntity
  8
M0
 62
     2
100
AcDbCircle
 10
160.604048
 20
425.291788
 40
1.0
100
AcDbArc
 50
-90.0
 51
0.013988
  0
ARC
  5
435
100
AcDbEntity
  8
M0
 62
     2
100
AcDbCircle
 10
154.704038
 20
425.291788
 40
1.0
100
AcDbArc
 50
179.999945
 51
270.0
  0
ARC
  5
436
100
AcDbEntity
  8
M0
 62
     2
100
AcDbCircle
 10
153.904035
 20
431.89155
 40
0.2
100
AcDbArc
 50
90.0
 51
180.0
  0
ARC
  5
437
100
AcDbEntity
  8
M0
 62
     2
100
AcDbCircle
 10
161.404035
 20
431.89155
 40
0.2
100
AcDbArc
 50
0.0
 51
90.0
  0
LINE
  5
438
100
AcDbEntity
  8
M0
 62
     2
100
AcDbLine
 10
154.714826
 20
424.291544
 11
154.704038
 21
424.291544
  0
LINE
  5
439
100
AcDbEntity
  8
M0
 62
     5
100
AcDbLine
 10
156.254041
 20
425.191446
 11
154.434049
 21
425.191446
  0
LINE
  5
43A
100
AcDbEntity
  8
M0
 62
     5
100
AcDbLine
 10
160.874037
 20
425.191446
 11
159.054044
 21
425.191446
  0
LINE
  5
43B
100
AcDbEntity
  8
M0
 62
     5
100
AcDbLine
 10
155.332411
 20
426.391397
 11
154.064039
 21
426.391397
  0
LINE
  5
43C
100
AcDbEntity
  8
M0
 62
     5
100
AcDbLine
 10
161.244047
 20
426.391397
 11
159.975675
 21
426.391397
  0
LINE
  5
43D
100
AcDbEntity
  8
M0
 62
     5
100
AcDbLine
 10
155.332411
 20
430.191446
 11
154.064039
 21
430.191446
  0
LINE
  5
43E
100
AcDbEntity
  8
M0
 62
     5
100
AcDbLine
 10
161.244047
 20
430.191446
 11
159.975675
 21
430.191446
  0
LINE
  5
43F
100
AcDbEntity
  8
M0
 62
     5
100
AcDbLine
 10
156.254041
 20
431.391397
 11
154.434049
 21
431.391397
  0
LINE
  5
440
100
AcDbEntity
  8
M0
 62
     5
100
AcDbLine
 10
160.874037
 20
431.391397
 11
159.054044
 21
431.391397
  0
LINE
  5
441
100
AcDbEntity
  8
M0
 62
     5
100
AcDbLine
 10
156.254041
 20
430.94462
 11
156.254041
 21
431.391397
  0
LINE
  5
442
100
AcDbEntity
  8
M0
 62
     5
100
AcDbLine
 10
156.254041
 20
425.191446
 11
156.254041
 21
425.638223
  0
LINE
  5
443
100
AcDbEntity
  8
M0
 62
     5
100
AcDbLine
 10
159.054044
 20
430.94462
 11
159.054044
 21
431.391397
  0
LINE
  5
444
100
AcDbEntity
  8
M0
 62
     5
100
AcDbLine
 10
159.054044
 20
425.191446
 11
159.054044
 21
425.638223
  0
ARC
  5
445
100
AcDbEntity
  8
M0
 62
     5
100
AcDbCircle
 10
160.134977
 20
424.491495
 40
0.5
100
AcDbArc
 50
270.0
 51
342.848967
  0
LINE
  5
446
100
AcDbEntity
  8
M0
 62
     5
100
AcDbLine
 10
160.612791
 20
424.344034
 11
161.429044
 21
426.991495
  0
LINE
  5
447
100
AcDbEntity
  8
M0
 62
     5
100
AcDbLine
 10
155.173109
 20
423.991495
 11
160.134977
 21
423.991495
  0
ARC
  5
448
100
AcDbEntity
  8
M0
 62
     5
100
AcDbCircle
 10
155.173109
 20
424.491495
 40
0.5
100
AcDbArc
 50
197.150824
 51
270.0
  0
LINE
  5
449
100
AcDbEntity
  8
M0
 62
     5
100
AcDbLine
 10
153.879041
 20
426.991495
 11
154.695295
 21
424.344034
  0
ARC
  5
44A
100
AcDbEntity
  8
M0
 62
     5
100
AcDbCircle
 10
155.173109
 20
432.091348
 40
0.5
100
AcDbArc
 50
90.0
 51
162.848967
  0
LINE
  5
44B
100
AcDbEntity
  8
M0
 62
     5
100
AcDbLine
 10
154.695295
 20
432.238809
 11
153.879041
 21
429.591348
  0
LINE
  5
44C
100
AcDbEntity
  8
M0
 62
     5
100
AcDbLine
 10
160.134977
 20
432.591348
 11
155.173109
 21
432.591348
  0
ARC
  5
44D
100
AcDbEntity
  8
M0
 62
     5
100
AcDbCircle
 10
160.134977
 20
432.091348
 40
0.5
100
AcDbArc
 50
17.151033
 51
90.0
  0
LINE
  5
44E
100
AcDbEntity
  8
M0
 62
     5
100
AcDbLine
 10
161.429044
 20
429.591348
 11
160.612791
 21
432.238809
  0
LINE
  5
44F
100
AcDbEntity
  8
M0
 62
     5
100
AcDbLine
 10
153.879041
 20
429.591348
 11
153.879041
 21
426.991495
  0
LINE
  5
450
100
AcDbEntity
  8
M0
 62
     5
100
AcDbLine
 10
161.429044
 20
426.991495
 11
161.429044
 21
429.591348
  0
CIRCLE
  5
451
100
AcDbEntity
  8
M0
 62
     5
100
AcDbCircle
 10
157.654066
 20
428.291544
 40
3.0
  0
LINE
  5
452
100
AcDbEntity
  8
M0
 62
     5
100
AcDbLine
 10
158.64401
 20
426.594278
 11
159.351118
 21
427.301553
  0
LINE
  5
453
100
AcDbEntity
  8
M0
 62
     5
100
AcDbLine
 10
159.351118
 20
427.301553
 11
158.361158
 21
428.2913
  0
LINE
  5
454
100
AcDbEntity
  8
M0
 62
     5
100
AcDbLine
 10
156.664106
 20
429.988565
 11
155.957014
 21
429.28129
  0
LINE
  5
455
100
AcDbEntity
  8
M0
 62
     5
100
AcDbLine
 10
155.957014
 20
429.28129
 11
156.946958
 21
428.291544
  0
LINE
  5
456
100
AcDbEntity
  8
M0
 62
     5
100
AcDbLine
 10
155.208845
 20
426.553262
 11
156.946958
 21
428.291544
  0
LINE
  5
457
100
AcDbEntity
  8
M0
 62
     5
100
AcDbLine
 10
155.915952
 20
425.846231
 11
157.654051
 21
427.584268
  0
LINE
  5
458
100
AcDbEntity
  8
M0
 62
     5
100
AcDbLine
 10
160.099256
 20
430.029581
 11
158.361158
 21
428.2913
  0
LINE
  5
459
100
AcDbEntity
  8
M0
 62
     5
100
AcDbLine
 10
159.392149
 20
430.736612
 11
157.654066
 21
428.998575
  0
LINE
  5
45A
100
AcDbEntity
  8
M0
 62
     5
100
AcDbLine
 10
158.64401
 20
426.594278
 11
157.654051
 21
427.584268
  0
LINE
  5
45B
100
AcDbEntity
  8
M0
 62
     5
100
AcDbLine
 10
156.664106
 20
429.988565
 11
157.654066
 21
428.998575
  0
LINE
  5
45C
100
AcDbEntity
  8
M0
 62
     5
100
AcDbLine
 10
156.254041
 20
415.691446
 11
154.434049
 21
415.691446
  0
LINE
  5
45D
100
AcDbEntity
  8
M0
 62
     5
100
AcDbLine
 10
160.874037
 20
415.691446
 11
159.054044
 21
415.691446
  0
LINE
  5
45E
100
AcDbEntity
  8
M0
 62
     5
100
AcDbLine
 10
155.332411
 20
416.891397
 11
154.064039
 21
416.891397
  0
LINE
  5
45F
100
AcDbEntity
  8
M0
 62
     5
100
AcDbLine
 10
161.244047
 20
416.891397
 11
159.975675
 21
416.891397
  0
LINE
  5
460
100
AcDbEntity
  8
M0
 62
     5
100
AcDbLine
 10
155.332411
 20
420.691446
 11
154.064039
 21
420.691446
  0
LINE
  5
461
100
AcDbEntity
  8
M0
 62
     5
100
AcDbLine
 10
161.244047
 20
420.691446
 11
159.975675
 21
420.691446
  0
LINE
  5
462
100
AcDbEntity
  8
M0
 62
     5
100
AcDbLine
 10
156.254041
 20
421.891397
 11
154.434049
 21
421.891397
  0
LINE
  5
463
100
AcDbEntity
  8
M0
 62
     5
100
AcDbLine
 10
160.874037
 20
421.891397
 11
159.054044
 21
421.891397
  0
LINE
  5
464
100
AcDbEntity
  8
M0
 62
     5
100
AcDbLine
 10
156.254041
 20
421.44462
 11
156.254041
 21
421.891397
  0
LINE
  5
465
100
AcDbEntity
  8
M0
 62
     5
100
AcDbLine
 10
156.254041
 20
415.691446
 11
156.254041
 21
416.138223
  0
LINE
  5
466
100
AcDbEntity
  8
M0
 62
     5
100
AcDbLine
 10
159.054044
 20
421.44462
 11
159.054044
 21
421.891397
  0
LINE
  5
467
100
AcDbEntity
  8
M0
 62
     5
100
AcDbLine
 10
159.054044
 20
415.691446
 11
159.054044
 21
416.138223
  0
ARC
  5
468
100
AcDbEntity
  8
M0
 62
     5
100
AcDbCircle
 10
160.134977
 20
414.991495
 40
0.5
100
AcDbArc
 50
270.0
 51
342.848967
  0
LINE
  5
469
100
AcDbEntity
  8
M0
 62
     5
100
AcDbLine
 10
160.612791
 20
414.844034
 11
161.429044
 21
417.491495
  0
LINE
  5
46A
100
AcDbEntity
  8
M0
 62
     5
100
AcDbLine
 10
155.173109
 20
414.491495
 11
160.134977
 21
414.491495
  0
ARC
  5
46B
100
AcDbEntity
  8
M0
 62
     5
100
AcDbCircle
 10
155.173109
 20
414.991495
 40
0.5
100
AcDbArc
 50
197.150824
 51
270.0
  0
LINE
  5
46C
100
AcDbEntity
  8
M0
 62
     5
100
AcDbLine
 10
153.879041
 20
417.491495
 11
154.695295
 21
414.844034
  0
ARC
  5
46D
100
AcDbEntity
  8
M0
 62
     5
100
AcDbCircle
 10
155.173109
 20
422.591348
 40
0.5
100
AcDbArc
 50
90.0
 51
162.848967
  0
LINE
  5
46E
100
AcDbEntity
  8
M0
 62
     5
100
AcDbLine
 10
154.695295
 20
422.738809
 11
153.879041
 21
420.091348
  0
LINE
  5
46F
100
AcDbEntity
  8
M0
 62
     5
100
AcDbLine
 10
160.134977
 20
423.091348
 11
155.173109
 21
423.091348
  0
ARC
  5
470
100
AcDbEntity
  8
M0
 62
     5
100
AcDbCircle
 10
160.134977
 20
422.591348
 40
0.5
100
AcDbArc
 50
17.151033
 51
90.0
  0
LINE
  5
471
100
AcDbEntity
  8
M0
 62
     5
100
AcDbLine
 10
161.429044
 20
420.091348
 11
160.612791
 21
422.738809
  0
LINE
  5
472
100
AcDbEntity
  8
M0
 62
     5
100
AcDbLine
 10
153.879041
 20
420.091348
 11
153.879041
 21
417.491495
  0
LINE
  5
473
100
AcDbEntity
  8
M0
 62
     5
100
AcDbLine
 10
161.429044
 20
417.491495
 11
161.429044
 21
420.091348
  0
CIRCLE
  5
474
100
AcDbEntity
  8
M0
 62
     5
100
AcDbCircle
 10
157.654066
 20
418.791544
 40
3.0
  0
LINE
  5
475
100
AcDbEntity
  8
M0
 62
     5
100
AcDbLine
 10
158.64401
 20
417.094278
 11
159.351118
 21
417.801553
  0
LINE
  5
476
100
AcDbEntity
  8
M0
 62
     5
100
AcDbLine
 10
159.351118
 20
417.801553
 11
158.361158
 21
418.7913
  0
LINE
  5
477
100
AcDbEntity
  8
M0
 62
     5
100
AcDbLine
 10
156.664106
 20
420.488565
 11
155.957014
 21
419.78129
  0
LINE
  5
478
100
AcDbEntity
  8
M0
 62
     5
100
AcDbLine
 10
155.957014
 20
419.78129
 11
156.946958
 21
418.791544
  0
LINE
  5
479
100
AcDbEntity
  8
M0
 62
     5
100
AcDbLine
 10
155.208845
 20
417.053262
 11
156.946958
 21
418.791544
  0
LINE
  5
47A
100
AcDbEntity
  8
M0
 62
     5
100
AcDbLine
 10
155.915952
 20
416.346231
 11
157.654051
 21
418.084268
  0
LINE
  5
47B
100
AcDbEntity
  8
M0
 62
     5
100
AcDbLine
 10
160.099256
 20
420.529581
 11
158.361158
 21
418.7913
  0
LINE
  5
47C
100
AcDbEntity
  8
M0
 62
     5
100
AcDbLine
 10
159.392149
 20
421.236612
 11
157.654066
 21
419.498575
  0
LINE
  5
47D
100
AcDbEntity
  8
M0
 62
     5
100
AcDbLine
 10
158.64401
 20
417.094278
 11
157.654051
 21
418.084268
  0
LINE
  5
47E
100
AcDbEntity
  8
M0
 62
     5
100
AcDbLine
 10
156.664106
 20
420.488565
 11
157.654066
 21
419.498575
  0
LINE
  5
47F
100
AcDbEntity
  8
M0
 62
     5
100
AcDbLine
 10
156.254041
 20
394.691446
 11
154.434049
 21
394.691446
  0
LINE
  5
480
100
AcDbEntity
  8
M0
 62
     5
100
AcDbLine
 10
160.874037
 20
394.691446
 11
159.054044
 21
394.691446
  0
LINE
  5
481
100
AcDbEntity
  8
M0
 62
     5
100
AcDbLine
 10
155.332411
 20
395.891397
 11
154.064039
 21
395.891397
  0
LINE
  5
482
100
AcDbEntity
  8
M0
 62
     5
100
AcDbLine
 10
161.244047
 20
395.891397
 11
159.975675
 21
395.891397
  0
LINE
  5
483
100
AcDbEntity
  8
M0
 62
     5
100
AcDbLine
 10
155.332411
 20
399.691446
 11
154.064039
 21
399.691446
  0
LINE
  5
484
100
AcDbEntity
  8
M0
 62
     5
100
AcDbLine
 10
161.244047
 20
399.691446
 11
159.975675
 21
399.691446
  0
LINE
  5
485
100
AcDbEntity
  8
M0
 62
     5
100
AcDbLine
 10
156.254041
 20
400.891397
 11
154.434049
 21
400.891397
  0
LINE
  5
486
100
AcDbEntity
  8
M0
 62
     5
100
AcDbLine
 10
160.874037
 20
400.891397
 11
159.054044
 21
400.891397
  0
LINE
  5
487
100
AcDbEntity
  8
M0
 62
     5
100
AcDbLine
 10
156.254041
 20
400.44462
 11
156.254041
 21
400.891397
  0
LINE
  5
488
100
AcDbEntity
  8
M0
 62
     5
100
AcDbLine
 10
156.254041
 20
394.691446
 11
156.254041
 21
395.138223
  0
LINE
  5
489
100
AcDbEntity
  8
M0
 62
     5
100
AcDbLine
 10
159.054044
 20
400.44462
 11
159.054044
 21
400.891397
  0
LINE
  5
48A
100
AcDbEntity
  8
M0
 62
     5
100
AcDbLine
 10
159.054044
 20
394.691446
 11
159.054044
 21
395.138223
  0
ARC
  5
48B
100
AcDbEntity
  8
M0
 62
     5
100
AcDbCircle
 10
160.134977
 20
393.991495
 40
0.5
100
AcDbArc
 50
270.0
 51
342.848967
  0
LINE
  5
48C
100
AcDbEntity
  8
M0
 62
     5
100
AcDbLine
 10
160.612791
 20
393.844034
 11
161.429044
 21
396.491495
  0
LINE
  5
48D
100
AcDbEntity
  8
M0
 62
     5
100
AcDbLine
 10
155.173109
 20
393.491495
 11
160.134977
 21
393.491495
  0
ARC
  5
48E
100
AcDbEntity
  8
M0
 62
     5
100
AcDbCircle
 10
155.173109
 20
393.991495
 40
0.5
100
AcDbArc
 50
197.150824
 51
270.0
  0
LINE
  5
48F
100
AcDbEntity
  8
M0
 62
     5
100
AcDbLine
 10
153.879041
 20
396.491495
 11
154.695295
 21
393.844034
  0
ARC
  5
490
100
AcDbEntity
  8
M0
 62
     5
100
AcDbCircle
 10
155.173109
 20
401.591348
 40
0.5
100
AcDbArc
 50
90.0
 51
162.848967
  0
LINE
  5
491
100
AcDbEntity
  8
M0
 62
     5
100
AcDbLine
 10
154.695295
 20
401.738809
 11
153.879041
 21
399.091348
  0
LINE
  5
492
100
AcDbEntity
  8
M0
 62
     5
100
AcDbLine
 10
160.134977
 20
402.091348
 11
155.173109
 21
402.091348
  0
ARC
  5
493
100
AcDbEntity
  8
M0
 62
     5
100
AcDbCircle
 10
160.134977
 20
401.591348
 40
0.5
100
AcDbArc
 50
17.151033
 51
90.0
  0
LINE
  5
494
100
AcDbEntity
  8
M0
 62
     5
100
AcDbLine
 10
161.429044
 20
399.091348
 11
160.612791
 21
401.738809
  0
LINE
  5
495
100
AcDbEntity
  8
M0
 62
     5
100
AcDbLine
 10
153.879041
 20
399.091348
 11
153.879041
 21
396.491495
  0
LINE
  5
496
100
AcDbEntity
  8
M0
 62
     5
100
AcDbLine
 10
161.429044
 20
396.491495
 11
161.429044
 21
399.091348
  0
CIRCLE
  5
497
100
AcDbEntity
  8
M0
 62
     5
100
AcDbCircle
 10
157.654066
 20
397.791544
 40
3.0
  0
LINE
  5
498
100
AcDbEntity
  8
M0
 62
     5
100
AcDbLine
 10
158.64401
 20
396.094278
 11
159.351118
 21
396.801553
  0
LINE
  5
499
100
AcDbEntity
  8
M0
 62
     5
100
AcDbLine
 10
159.351118
 20
396.801553
 11
158.361158
 21
397.7913
  0
LINE
  5
49A
100
AcDbEntity
  8
M0
 62
     5
100
AcDbLine
 10
156.664106
 20
399.488565
 11
155.957014
 21
398.78129
  0
LINE
  5
49B
100
AcDbEntity
  8
M0
 62
     5
100
AcDbLine
 10
155.957014
 20
398.78129
 11
156.946958
 21
397.791544
  0
LINE
  5
49C
100
AcDbEntity
  8
M0
 62
     5
100
AcDbLine
 10
155.208845
 20
396.053262
 11
156.946958
 21
397.791544
  0
LINE
  5
49D
100
AcDbEntity
  8
M0
 62
     5
100
AcDbLine
 10
155.915952
 20
395.346231
 11
157.654051
 21
397.084268
  0
LINE
  5
49E
100
AcDbEntity
  8
M0
 62
     5
100
AcDbLine
 10
160.099256
 20
399.529581
 11
158.361158
 21
397.7913
  0
LINE
  5
49F
100
AcDbEntity
  8
M0
 62
     5
100
AcDbLine
 10
159.392149
 20
400.236612
 11
157.654066
 21
398.498575
  0
LINE
  5
4A0
100
AcDbEntity
  8
M0
 62
     5
100
AcDbLine
 10
158.64401
 20
396.094278
 11
157.654051
 21
397.084268
  0
LINE
  5
4A1
100
AcDbEntity
  8
M0
 62
     5
100
AcDbLine
 10
156.664106
 20
399.488565
 11
157.654066
 21
398.498575
  0
LINE
  5
4A2
100
AcDbEntity
  8
M0
 62
     5
100
AcDbLine
 10
156.254041
 20
385.191446
 11
154.434049
 21
385.191446
  0
LINE
  5
4A3
100
AcDbEntity
  8
M0
 62
     5
100
AcDbLine
 10
160.874037
 20
385.191446
 11
159.054044
 21
385.191446
  0
LINE
  5
4A4
100
AcDbEntity
  8
M0
 62
     5
100
AcDbLine
 10
155.332411
 20
386.391397
 11
154.064039
 21
386.391397
  0
LINE
  5
4A5
100
AcDbEntity
  8
M0
 62
     5
100
AcDbLine
 10
161.244047
 20
386.391397
 11
159.975675
 21
386.391397
  0
LINE
  5
4A6
100
AcDbEntity
  8
M0
 62
     5
100
AcDbLine
 10
155.332411
 20
390.191446
 11
154.064039
 21
390.191446
  0
LINE
  5
4A7
100
AcDbEntity
  8
M0
 62
     5
100
AcDbLine
 10
161.244047
 20
390.191446
 11
159.975675
 21
390.191446
  0
LINE
  5
4A8
100
AcDbEntity
  8
M0
 62
     5
100
AcDbLine
 10
156.254041
 20
391.391397
 11
154.434049
 21
391.391397
  0
LINE
  5
4A9
100
AcDbEntity
  8
M0
 62
     5
100
AcDbLine
 10
160.874037
 20
391.391397
 11
159.054044
 21
391.391397
  0
LINE
  5
4AA
100
AcDbEntity
  8
M0
 62
     5
100
AcDbLine
 10
156.254041
 20
390.94462
 11
156.254041
 21
391.391397
  0
LINE
  5
4AB
100
AcDbEntity
  8
M0
 62
     5
100
AcDbLine
 10
156.254041
 20
385.191446
 11
156.254041
 21
385.638223
  0
LINE
  5
4AC
100
AcDbEntity
  8
M0
 62
     5
100
AcDbLine
 10
159.054044
 20
390.94462
 11
159.054044
 21
391.391397
  0
LINE
  5
4AD
100
AcDbEntity
  8
M0
 62
     5
100
AcDbLine
 10
159.054044
 20
385.191446
 11
159.054044
 21
385.638223
  0
ARC
  5
4AE
100
AcDbEntity
  8
M0
 62
     5
100
AcDbCircle
 10
160.134977
 20
384.491495
 40
0.5
100
AcDbArc
 50
270.0
 51
342.848967
  0
LINE
  5
4AF
100
AcDbEntity
  8
M0
 62
     5
100
AcDbLine
 10
160.612791
 20
384.344034
 11
161.429044
 21
386.991495
  0
LINE
  5
4B0
100
AcDbEntity
  8
M0
 62
     5
100
AcDbLine
 10
155.173109
 20
383.991495
 11
160.134977
 21
383.991495
  0
ARC
  5
4B1
100
AcDbEntity
  8
M0
 62
     5
100
AcDbCircle
 10
155.173109
 20
384.491495
 40
0.5
100
AcDbArc
 50
197.150824
 51
270.0
  0
LINE
  5
4B2
100
AcDbEntity
  8
M0
 62
     5
100
AcDbLine
 10
153.879041
 20
386.991495
 11
154.695295
 21
384.344034
  0
ARC
  5
4B3
100
AcDbEntity
  8
M0
 62
     5
100
AcDbCircle
 10
155.173109
 20
392.091348
 40
0.5
100
AcDbArc
 50
90.0
 51
162.848967
  0
LINE
  5
4B4
100
AcDbEntity
  8
M0
 62
     5
100
AcDbLine
 10
154.695295
 20
392.238809
 11
153.879041
 21
389.591348
  0
LINE
  5
4B5
100
AcDbEntity
  8
M0
 62
     5
100
AcDbLine
 10
160.134977
 20
392.591348
 11
155.173109
 21
392.591348
  0
ARC
  5
4B6
100
AcDbEntity
  8
M0
 62
     5
100
AcDbCircle
 10
160.134977
 20
392.091348
 40
0.5
100
AcDbArc
 50
17.151033
 51
90.0
  0
LINE
  5
4B7
100
AcDbEntity
  8
M0
 62
     5
100
AcDbLine
 10
161.429044
 20
389.591348
 11
160.612791
 21
392.238809
  0
LINE
  5
4B8
100
AcDbEntity
  8
M0
 62
     5
100
AcDbLine
 10
153.879041
 20
389.591348
 11
153.879041
 21
386.991495
  0
LINE
  5
4B9
100
AcDbEntity
  8
M0
 62
     5
100
AcDbLine
 10
161.429044
 20
386.991495
 11
161.429044
 21
389.591348
  0
CIRCLE
  5
4BA
100
AcDbEntity
  8
M0
 62
     5
100
AcDbCircle
 10
157.654066
 20
388.291544
 40
3.0
  0
LINE
  5
4BB
100
AcDbEntity
  8
M0
 62
     5
100
AcDbLine
 10
158.64401
 20
386.594278
 11
159.351118
 21
387.301553
  0
LINE
  5
4BC
100
AcDbEntity
  8
M0
 62
     5
100
AcDbLine
 10
159.351118
 20
387.301553
 11
158.361158
 21
388.2913
  0
LINE
  5
4BD
100
AcDbEntity
  8
M0
 62
     5
100
AcDbLine
 10
156.664106
 20
389.988565
 11
155.957014
 21
389.28129
  0
LINE
  5
4BE
100
AcDbEntity
  8
M0
 62
     5
100
AcDbLine
 10
155.957014
 20
389.28129
 11
156.946958
 21
388.291544
  0
LINE
  5
4BF
100
AcDbEntity
  8
M0
 62
     5
100
AcDbLine
 10
155.208845
 20
386.553262
 11
156.946958
 21
388.291544
  0
LINE
  5
4C0
100
AcDbEntity
  8
M0
 62
     5
100
AcDbLine
 10
155.915952
 20
385.846231
 11
157.654051
 21
387.584268
  0
LINE
  5
4C1
100
AcDbEntity
  8
M0
 62
     5
100
AcDbLine
 10
160.099256
 20
390.029581
 11
158.361158
 21
388.2913
  0
LINE
  5
4C2
100
AcDbEntity
  8
M0
 62
     5
100
AcDbLine
 10
159.392149
 20
390.736612
 11
157.654066
 21
388.998575
  0
LINE
  5
4C3
100
AcDbEntity
  8
M0
 62
     5
100
AcDbLine
 10
158.64401
 20
386.594278
 11
157.654051
 21
387.584268
  0
LINE
  5
4C4
100
AcDbEntity
  8
M0
 62
     5
100
AcDbLine
 10
156.664106
 20
389.988565
 11
157.654066
 21
388.998575
  0
LINE
  5
4C5
100
AcDbEntity
  8
M0
 62
     5
100
AcDbLine
 10
72.254041
 20
425.191446
 11
70.434049
 21
425.191446
  0
LINE
  5
4C6
100
AcDbEntity
  8
M0
 62
     5
100
AcDbLine
 10
76.874037
 20
425.191446
 11
75.054044
 21
425.191446
  0
LINE
  5
4C7
100
AcDbEntity
  8
M0
 62
     5
100
AcDbLine
 10
71.332411
 20
426.391397
 11
70.064039
 21
426.391397
  0
LINE
  5
4C8
100
AcDbEntity
  8
M0
 62
     5
100
AcDbLine
 10
77.244047
 20
426.391397
 11
75.975675
 21
426.391397
  0
LINE
  5
4C9
100
AcDbEntity
  8
M0
 62
     5
100
AcDbLine
 10
71.332411
 20
430.191446
 11
70.064039
 21
430.191446
  0
LINE
  5
4CA
100
AcDbEntity
  8
M0
 62
     5
100
AcDbLine
 10
77.244047
 20
430.191446
 11
75.975675
 21
430.191446
  0
LINE
  5
4CB
100
AcDbEntity
  8
M0
 62
     5
100
AcDbLine
 10
72.254041
 20
431.391397
 11
70.434049
 21
431.391397
  0
LINE
  5
4CC
100
AcDbEntity
  8
M0
 62
     5
100
AcDbLine
 10
76.874037
 20
431.391397
 11
75.054044
 21
431.391397
  0
LINE
  5
4CD
100
AcDbEntity
  8
M0
 62
     5
100
AcDbLine
 10
72.254041
 20
430.94462
 11
72.254041
 21
431.391397
  0
LINE
  5
4CE
100
AcDbEntity
  8
M0
 62
     5
100
AcDbLine
 10
72.254041
 20
425.191446
 11
72.254041
 21
425.638223
  0
LINE
  5
4CF
100
AcDbEntity
  8
M0
 62
     5
100
AcDbLine
 10
75.054044
 20
430.94462
 11
75.054044
 21
431.391397
  0
LINE
  5
4D0
100
AcDbEntity
  8
M0
 62
     5
100
AcDbLine
 10
75.054044
 20
425.191446
 11
75.054044
 21
425.638223
  0
ARC
  5
4D1
100
AcDbEntity
  8
M0
 62
     5
100
AcDbCircle
 10
76.134977
 20
424.491495
 40
0.5
100
AcDbArc
 50
270.0
 51
342.848967
  0
LINE
  5
4D2
100
AcDbEntity
  8
M0
 62
     5
100
AcDbLine
 10
76.612791
 20
424.344034
 11
77.429044
 21
426.991495
  0
LINE
  5
4D3
100
AcDbEntity
  8
M0
 62
     5
100
AcDbLine
 10
71.173109
 20
423.991495
 11
76.134977
 21
423.991495
  0
ARC
  5
4D4
100
AcDbEntity
  8
M0
 62
     5
100
AcDbCircle
 10
71.173109
 20
424.491495
 40
0.5
100
AcDbArc
 50
197.150824
 51
270.0
  0
LINE
  5
4D5
100
AcDbEntity
  8
M0
 62
     5
100
AcDbLine
 10
69.879041
 20
426.991495
 11
70.695295
 21
424.344034
  0
ARC
  5
4D6
100
AcDbEntity
  8
M0
 62
     5
100
AcDbCircle
 10
71.173109
 20
432.091348
 40
0.5
100
AcDbArc
 50
90.0
 51
162.848967
  0
LINE
  5
4D7
100
AcDbEntity
  8
M0
 62
     5
100
AcDbLine
 10
70.695295
 20
432.238809
 11
69.879041
 21
429.591348
  0
LINE
  5
4D8
100
AcDbEntity
  8
M0
 62
     5
100
AcDbLine
 10
76.134977
 20
432.591348
 11
71.173109
 21
432.591348
  0
ARC
  5
4D9
100
AcDbEntity
  8
M0
 62
     5
100
AcDbCircle
 10
76.134977
 20
432.091348
 40
0.5
100
AcDbArc
 50
17.151033
 51
90.0
  0
LINE
  5
4DA
100
AcDbEntity
  8
M0
 62
     5
100
AcDbLine
 10
77.429044
 20
429.591348
 11
76.612791
 21
432.238809
  0
LINE
  5
4DB
100
AcDbEntity
  8
M0
 62
     5
100
AcDbLine
 10
69.879041
 20
429.591348
 11
69.879041
 21
426.991495
  0
LINE
  5
4DC
100
AcDbEntity
  8
M0
 62
     5
100
AcDbLine
 10
77.429044
 20
426.991495
 11
77.429044
 21
429.591348
  0
CIRCLE
  5
4DD
100
AcDbEntity
  8
M0
 62
     5
100
AcDbCircle
 10
73.654066
 20
428.291544
 40
3.0
  0
LINE
  5
4DE
100
AcDbEntity
  8
M0
 62
     5
100
AcDbLine
 10
74.64401
 20
426.594278
 11
75.351118
 21
427.301553
  0
LINE
  5
4DF
100
AcDbEntity
  8
M0
 62
     5
100
AcDbLine
 10
75.351118
 20
427.301553
 11
74.361158
 21
428.2913
  0
LINE
  5
4E0
100
AcDbEntity
  8
M0
 62
     5
100
AcDbLine
 10
72.664106
 20
429.988565
 11
71.957014
 21
429.28129
  0
LINE
  5
4E1
100
AcDbEntity
  8
M0
 62
     5
100
AcDbLine
 10
71.957014
 20
429.28129
 11
72.946958
 21
428.291544
  0
LINE
  5
4E2
100
AcDbEntity
  8
M0
 62
     5
100
AcDbLine
 10
71.208845
 20
426.553262
 11
72.946958
 21
428.291544
  0
LINE
  5
4E3
100
AcDbEntity
  8
M0
 62
     5
100
AcDbLine
 10
71.915952
 20
425.846231
 11
73.654051
 21
427.584268
  0
LINE
  5
4E4
100
AcDbEntity
  8
M0
 62
     5
100
AcDbLine
 10
76.099256
 20
430.029581
 11
74.361158
 21
428.2913
  0
LINE
  5
4E5
100
AcDbEntity
  8
M0
 62
     5
100
AcDbLine
 10
75.392149
 20
430.736612
 11
73.654066
 21
428.998575
  0
LINE
  5
4E6
100
AcDbEntity
  8
M0
 62
     5
100
AcDbLine
 10
74.64401
 20
426.594278
 11
73.654051
 21
427.584268
  0
LINE
  5
4E7
100
AcDbEntity
  8
M0
 62
     5
100
AcDbLine
 10
72.664106
 20
429.988565
 11
73.654066
 21
428.998575
  0
LINE
  5
4E8
100
AcDbEntity
  8
M0
 62
     5
100
AcDbLine
 10
72.254041
 20
415.691446
 11
70.434049
 21
415.691446
  0
LINE
  5
4E9
100
AcDbEntity
  8
M0
 62
     5
100
AcDbLine
 10
76.874037
 20
415.691446
 11
75.054044
 21
415.691446
  0
LINE
  5
4EA
100
AcDbEntity
  8
M0
 62
     5
100
AcDbLine
 10
71.332411
 20
416.891397
 11
70.064039
 21
416.891397
  0
LINE
  5
4EB
100
AcDbEntity
  8
M0
 62
     5
100
AcDbLine
 10
77.244047
 20
416.891397
 11
75.975675
 21
416.891397
  0
LINE
  5
4EC
100
AcDbEntity
  8
M0
 62
     5
100
AcDbLine
 10
71.332411
 20
420.691446
 11
70.064039
 21
420.691446
  0
LINE
  5
4ED
100
AcDbEntity
  8
M0
 62
     5
100
AcDbLine
 10
77.244047
 20
420.691446
 11
75.975675
 21
420.691446
  0
LINE
  5
4EE
100
AcDbEntity
  8
M0
 62
     5
100
AcDbLine
 10
72.254041
 20
421.891397
 11
70.434049
 21
421.891397
  0
LINE
  5
4EF
100
AcDbEntity
  8
M0
 62
     5
100
AcDbLine
 10
76.874037
 20
421.891397
 11
75.054044
 21
421.891397
  0
LINE
  5
4F0
100
AcDbEntity
  8
M0
 62
     5
100
AcDbLine
 10
72.254041
 20
421.44462
 11
72.254041
 21
421.891397
  0
LINE
  5
4F1
100
AcDbEntity
  8
M0
 62
     5
100
AcDbLine
 10
72.254041
 20
415.691446
 11
72.254041
 21
416.138223
  0
LINE
  5
4F2
100
AcDbEntity
  8
M0
 62
     5
100
AcDbLine
 10
75.054044
 20
421.44462
 11
75.054044
 21
421.891397
  0
LINE
  5
4F3
100
AcDbEntity
  8
M0
 62
     5
100
AcDbLine
 10
75.054044
 20
415.691446
 11
75.054044
 21
416.138223
  0
ARC
  5
4F4
100
AcDbEntity
  8
M0
 62
     5
100
AcDbCircle
 10
76.134977
 20
414.991495
 40
0.5
100
AcDbArc
 50
270.0
 51
342.848967
  0
LINE
  5
4F5
100
AcDbEntity
  8
M0
 62
     5
100
AcDbLine
 10
76.612791
 20
414.844034
 11
77.429044
 21
417.491495
  0
LINE
  5
4F6
100
AcDbEntity
  8
M0
 62
     5
100
AcDbLine
 10
71.173109
 20
414.491495
 11
76.134977
 21
414.491495
  0
ARC
  5
4F7
100
AcDbEntity
  8
M0
 62
     5
100
AcDbCircle
 10
71.173109
 20
414.991495
 40
0.5
100
AcDbArc
 50
197.150824
 51
270.0
  0
LINE
  5
4F8
100
AcDbEntity
  8
M0
 62
     5
100
AcDbLine
 10
69.879041
 20
417.491495
 11
70.695295
 21
414.844034
  0
ARC
  5
4F9
100
AcDbEntity
  8
M0
 62
     5
100
AcDbCircle
 10
71.173109
 20
422.591348
 40
0.5
100
AcDbArc
 50
90.0
 51
162.848967
  0
LINE
  5
4FA
100
AcDbEntity
  8
M0
 62
     5
100
AcDbLine
 10
70.695295
 20
422.738809
 11
69.879041
 21
420.091348
  0
LINE
  5
4FB
100
AcDbEntity
  8
M0
 62
     5
100
AcDbLine
 10
76.134977
 20
423.091348
 11
71.173109
 21
423.091348
  0
ARC
  5
4FC
100
AcDbEntity
  8
M0
 62
     5
100
AcDbCircle
 10
76.134977
 20
422.591348
 40
0.5
100
AcDbArc
 50
17.151033
 51
90.0
  0
LINE
  5
4FD
100
AcDbEntity
  8
M0
 62
     5
100
AcDbLine
 10
77.429044
 20
420.091348
 11
76.612791
 21
422.738809
  0
LINE
  5
4FE
100
AcDbEntity
  8
M0
 62
     5
100
AcDbLine
 10
69.879041
 20
420.091348
 11
69.879041
 21
417.491495
  0
LINE
  5
4FF
100
AcDbEntity
  8
M0
 62
     5
100
AcDbLine
 10
77.429044
 20
417.491495
 11
77.429044
 21
420.091348
  0
CIRCLE
  5
500
100
AcDbEntity
  8
M0
 62
     5
100
AcDbCircle
 10
73.654066
 20
418.791544
 40
3.0
  0
LINE
  5
501
100
AcDbEntity
  8
M0
 62
     5
100
AcDbLine
 10
74.64401
 20
417.094278
 11
75.351118
 21
417.801553
  0
LINE
  5
502
100
AcDbEntity
  8
M0
 62
     5
100
AcDbLine
 10
75.351118
 20
417.801553
 11
74.361158
 21
418.7913
  0
LINE
  5
503
100
AcDbEntity
  8
M0
 62
     5
100
AcDbLine
 10
72.664106
 20
420.488565
 11
71.957014
 21
419.78129
  0
LINE
  5
504
100
AcDbEntity
  8
M0
 62
     5
100
AcDbLine
 10
71.957014
 20
419.78129
 11
72.946958
 21
418.791544
  0
LINE
  5
505
100
AcDbEntity
  8
M0
 62
     5
100
AcDbLine
 10
71.208845
 20
417.053262
 11
72.946958
 21
418.791544
  0
LINE
  5
506
100
AcDbEntity
  8
M0
 62
     5
100
AcDbLine
 10
71.915952
 20
416.346231
 11
73.654051
 21
418.084268
  0
LINE
  5
507
100
AcDbEntity
  8
M0
 62
     5
100
AcDbLine
 10
76.099256
 20
420.529581
 11
74.361158
 21
418.7913
  0
LINE
  5
508
100
AcDbEntity
  8
M0
 62
     5
100
AcDbLine
 10
75.392149
 20
421.236612
 11
73.654066
 21
419.498575
  0
LINE
  5
509
100
AcDbEntity
  8
M0
 62
     5
100
AcDbLine
 10
74.64401
 20
417.094278
 11
73.654051
 21
418.084268
  0
LINE
  5
50A
100
AcDbEntity
  8
M0
 62
     5
100
AcDbLine
 10
72.664106
 20
420.488565
 11
73.654066
 21
419.498575
  0
LINE
  5
50B
100
AcDbEntity
  8
M0
 62
     5
100
AcDbLine
 10
72.254041
 20
394.691446
 11
70.434049
 21
394.691446
  0
LINE
  5
50C
100
AcDbEntity
  8
M0
 62
     5
100
AcDbLine
 10
76.874037
 20
394.691446
 11
75.054044
 21
394.691446
  0
LINE
  5
50D
100
AcDbEntity
  8
M0
 62
     5
100
AcDbLine
 10
71.332411
 20
395.891397
 11
70.064039
 21
395.891397
  0
LINE
  5
50E
100
AcDbEntity
  8
M0
 62
     5
100
AcDbLine
 10
77.244047
 20
395.891397
 11
75.975675
 21
395.891397
  0
LINE
  5
50F
100
AcDbEntity
  8
M0
 62
     5
100
AcDbLine
 10
71.332411
 20
399.691446
 11
70.064039
 21
399.691446
  0
LINE
  5
510
100
AcDbEntity
  8
M0
 62
     5
100
AcDbLine
 10
77.244047
 20
399.691446
 11
75.975675
 21
399.691446
  0
LINE
  5
511
100
AcDbEntity
  8
M0
 62
     5
100
AcDbLine
 10
72.254041
 20
400.891397
 11
70.434049
 21
400.891397
  0
LINE
  5
512
100
AcDbEntity
  8
M0
 62
     5
100
AcDbLine
 10
76.874037
 20
400.891397
 11
75.054044
 21
400.891397
  0
LINE
  5
513
100
AcDbEntity
  8
M0
 62
     5
100
AcDbLine
 10
72.254041
 20
400.44462
 11
72.254041
 21
400.891397
  0
LINE
  5
514
100
AcDbEntity
  8
M0
 62
     5
100
AcDbLine
 10
72.254041
 20
394.691446
 11
72.254041
 21
395.138223
  0
LINE
  5
515
100
AcDbEntity
  8
M0
 62
     5
100
AcDbLine
 10
75.054044
 20
400.44462
 11
75.054044
 21
400.891397
  0
LINE
  5
516
100
AcDbEntity
  8
M0
 62
     5
100
AcDbLine
 10
75.054044
 20
394.691446
 11
75.054044
 21
395.138223
  0
ARC
  5
517
100
AcDbEntity
  8
M0
 62
     5
100
AcDbCircle
 10
76.134977
 20
393.991495
 40
0.5
100
AcDbArc
 50
270.0
 51
342.848967
  0
LINE
  5
518
100
AcDbEntity
  8
M0
 62
     5
100
AcDbLine
 10
76.612791
 20
393.844034
 11
77.429044
 21
396.491495
  0
LINE
  5
519
100
AcDbEntity
  8
M0
 62
     5
100
AcDbLine
 10
71.173109
 20
393.491495
 11
76.134977
 21
393.491495
  0
ARC
  5
51A
100
AcDbEntity
  8
M0
 62
     5
100
AcDbCircle
 10
71.173109
 20
393.991495
 40
0.5
100
AcDbArc
 50
197.150824
 51
270.0
  0
LINE
  5
51B
100
AcDbEntity
  8
M0
 62
     5
100
AcDbLine
 10
69.879041
 20
396.491495
 11
70.695295
 21
393.844034
  0
ARC
  5
51C
100
AcDbEntity
  8
M0
 62
     5
100
AcDbCircle
 10
71.173109
 20
401.591348
 40
0.5
100
AcDbArc
 50
90.0
 51
162.848967
  0
LINE
  5
51D
100
AcDbEntity
  8
M0
 62
     5
100
AcDbLine
 10
70.695295
 20
401.738809
 11
69.879041
 21
399.091348
  0
LINE
  5
51E
100
AcDbEntity
  8
M0
 62
     5
100
AcDbLine
 10
76.134977
 20
402.091348
 11
71.173109
 21
402.091348
  0
ARC
  5
51F
100
AcDbEntity
  8
M0
 62
     5
100
AcDbCircle
 10
76.134977
 20
401.591348
 40
0.5
100
AcDbArc
 50
17.151033
 51
90.0
  0
LINE
  5
520
100
AcDbEntity
  8
M0
 62
     5
100
AcDbLine
 10
77.429044
 20
399.091348
 11
76.612791
 21
401.738809
  0
LINE
  5
521
100
AcDbEntity
  8
M0
 62
     5
100
AcDbLine
 10
69.879041
 20
399.091348
 11
69.879041
 21
396.491495
  0
LINE
  5
522
100
AcDbEntity
  8
M0
 62
     5
100
AcDbLine
 10
77.429044
 20
396.491495
 11
77.429044
 21
399.091348
  0
CIRCLE
  5
523
100
AcDbEntity
  8
M0
 62
     5
100
AcDbCircle
 10
73.654066
 20
397.791544
 40
3.0
  0
LINE
  5
524
100
AcDbEntity
  8
M0
 62
     5
100
AcDbLine
 10
74.64401
 20
396.094278
 11
75.351118
 21
396.801553
  0
LINE
  5
525
100
AcDbEntity
  8
M0
 62
     5
100
AcDbLine
 10
75.351118
 20
396.801553
 11
74.361158
 21
397.7913
  0
LINE
  5
526
100
AcDbEntity
  8
M0
 62
     5
100
AcDbLine
 10
72.664106
 20
399.488565
 11
71.957014
 21
398.78129
  0
LINE
  5
527
100
AcDbEntity
  8
M0
 62
     5
100
AcDbLine
 10
71.957014
 20
398.78129
 11
72.946958
 21
397.791544
  0
LINE
  5
528
100
AcDbEntity
  8
M0
 62
     5
100
AcDbLine
 10
71.208845
 20
396.053262
 11
72.946958
 21
397.791544
  0
LINE
  5
529
100
AcDbEntity
  8
M0
 62
     5
100
AcDbLine
 10
71.915952
 20
395.346231
 11
73.654051
 21
397.084268
  0
LINE
  5
52A
100
AcDbEntity
  8
M0
 62
     5
100
AcDbLine
 10
76.099256
 20
399.529581
 11
74.361158
 21
397.7913
  0
LINE
  5
52B
100
AcDbEntity
  8
M0
 62
     5
100
AcDbLine
 10
75.392149
 20
400.236612
 11
73.654066
 21
398.498575
  0
LINE
  5
52C
100
AcDbEntity
  8
M0
 62
     5
100
AcDbLine
 10
74.64401
 20
396.094278
 11
73.654051
 21
397.084268
  0
LINE
  5
52D
100
AcDbEntity
  8
M0
 62
     5
100
AcDbLine
 10
72.664106
 20
399.488565
 11
73.654066
 21
398.498575
  0
LINE
  5
52E
100
AcDbEntity
  8
M0
 62
     5
100
AcDbLine
 10
72.254041
 20
385.191446
 11
70.434049
 21
385.191446
  0
LINE
  5
52F
100
AcDbEntity
  8
M0
 62
     5
100
AcDbLine
 10
76.874037
 20
385.191446
 11
75.054044
 21
385.191446
  0
LINE
  5
530
100
AcDbEntity
  8
M0
 62
     5
100
AcDbLine
 10
71.332411
 20
386.391397
 11
70.064039
 21
386.391397
  0
LINE
  5
531
100
AcDbEntity
  8
M0
 62
     5
100
AcDbLine
 10
77.244047
 20
386.391397
 11
75.975675
 21
386.391397
  0
LINE
  5
532
100
AcDbEntity
  8
M0
 62
     5
100
AcDbLine
 10
71.332411
 20
390.191446
 11
70.064039
 21
390.191446
  0
LINE
  5
533
100
AcDbEntity
  8
M0
 62
     5
100
AcDbLine
 10
77.244047
 20
390.191446
 11
75.975675
 21
390.191446
  0
LINE
  5
534
100
AcDbEntity
  8
M0
 62
     5
100
AcDbLine
 10
72.254041
 20
391.391397
 11
70.434049
 21
391.391397
  0
LINE
  5
535
100
AcDbEntity
  8
M0
 62
     5
100
AcDbLine
 10
76.874037
 20
391.391397
 11
75.054044
 21
391.391397
  0
LINE
  5
536
100
AcDbEntity
  8
M0
 62
     5
100
AcDbLine
 10
72.254041
 20
390.94462
 11
72.254041
 21
391.391397
  0
LINE
  5
537
100
AcDbEntity
  8
M0
 62
     5
100
AcDbLine
 10
72.254041
 20
385.191446
 11
72.254041
 21
385.638223
  0
LINE
  5
538
100
AcDbEntity
  8
M0
 62
     5
100
AcDbLine
 10
75.054044
 20
390.94462
 11
75.054044
 21
391.391397
  0
LINE
  5
539
100
AcDbEntity
  8
M0
 62
     5
100
AcDbLine
 10
75.054044
 20
385.191446
 11
75.054044
 21
385.638223
  0
ARC
  5
53A
100
AcDbEntity
  8
M0
 62
     5
100
AcDbCircle
 10
76.134977
 20
384.491495
 40
0.5
100
AcDbArc
 50
270.0
 51
342.848967
  0
LINE
  5
53B
100
AcDbEntity
  8
M0
 62
     5
100
AcDbLine
 10
76.612791
 20
384.344034
 11
77.429044
 21
386.991495
  0
LINE
  5
53C
100
AcDbEntity
  8
M0
 62
     5
100
AcDbLine
 10
71.173109
 20
383.991495
 11
76.134977
 21
383.991495
  0
ARC
  5
53D
100
AcDbEntity
  8
M0
 62
     5
100
AcDbCircle
 10
71.173109
 20
384.491495
 40
0.5
100
AcDbArc
 50
197.150824
 51
270.0
  0
LINE
  5
53E
100
AcDbEntity
  8
M0
 62
     5
100
AcDbLine
 10
69.879041
 20
386.991495
 11
70.695295
 21
384.344034
  0
ARC
  5
53F
100
AcDbEntity
  8
M0
 62
     5
100
AcDbCircle
 10
71.173109
 20
392.091348
 40
0.5
100
AcDbArc
 50
90.0
 51
162.848967
  0
LINE
  5
540
100
AcDbEntity
  8
M0
 62
     5
100
AcDbLine
 10
70.695295
 20
392.238809
 11
69.879041
 21
389.591348
  0
LINE
  5
541
100
AcDbEntity
  8
M0
 62
     5
100
AcDbLine
 10
76.134977
 20
392.591348
 11
71.173109
 21
392.591348
  0
ARC
  5
542
100
AcDbEntity
  8
M0
 62
     5
100
AcDbCircle
 10
76.134977
 20
392.091348
 40
0.5
100
AcDbArc
 50
17.151033
 51
90.0
  0
LINE
  5
543
100
AcDbEntity
  8
M0
 62
     5
100
AcDbLine
 10
77.429044
 20
389.591348
 11
76.612791
 21
392.238809
  0
LINE
  5
544
100
AcDbEntity
  8
M0
 62
     5
100
AcDbLine
 10
69.879041
 20
389.591348
 11
69.879041
 21
386.991495
  0
LINE
  5
545
100
AcDbEntity
  8
M0
 62
     5
100
AcDbLine
 10
77.429044
 20
386.991495
 11
77.429044
 21
389.591348
  0
CIRCLE
  5
546
100
AcDbEntity
  8
M0
 62
     5
100
AcDbCircle
 10
73.654066
 20
388.291544
 40
3.0
  0
LINE
  5
547
100
AcDbEntity
  8
M0
 62
     5
100
AcDbLine
 10
74.64401
 20
386.594278
 11
75.351118
 21
387.301553
  0
LINE
  5
548
100
AcDbEntity
  8
M0
 62
     5
100
AcDbLine
 10
75.351118
 20
387.301553
 11
74.361158
 21
388.2913
  0
LINE
  5
549
100
AcDbEntity
  8
M0
 62
     5
100
AcDbLine
 10
72.664106
 20
389.988565
 11
71.957014
 21
389.28129
  0
LINE
  5
54A
100
AcDbEntity
  8
M0
 62
     5
100
AcDbLine
 10
71.957014
 20
389.28129
 11
72.946958
 21
388.291544
  0
LINE
  5
54B
100
AcDbEntity
  8
M0
 62
     5
100
AcDbLine
 10
71.208845
 20
386.553262
 11
72.946958
 21
388.291544
  0
LINE
  5
54C
100
AcDbEntity
  8
M0
 62
     5
100
AcDbLine
 10
71.915952
 20
385.846231
 11
73.654051
 21
387.584268
  0
LINE
  5
54D
100
AcDbEntity
  8
M0
 62
     5
100
AcDbLine
 10
76.099256
 20
390.029581
 11
74.361158
 21
388.2913
  0
LINE
  5
54E
100
AcDbEntity
  8
M0
 62
     5
100
AcDbLine
 10
75.392149
 20
390.736612
 11
73.654066
 21
388.998575
  0
LINE
  5
54F
100
AcDbEntity
  8
M0
 62
     5
100
AcDbLine
 10
74.64401
 20
386.594278
 11
73.654051
 21
387.584268
  0
LINE
  5
550
100
AcDbEntity
  8
M0
 62
     5
100
AcDbLine
 10
72.664106
 20
389.988565
 11
73.654066
 21
388.998575
  0
LINE
  5
551
100
AcDbEntity
  8
M0
 62
     2
100
AcDbLine
 10
70.504011
 20
360.791544
 11
77.053999
 21
360.791544
  0
LINE
  5
552
100
AcDbEntity
  8
M0
 62
     2
100
AcDbLine
 10
77.604017
 20
362.691522
 11
77.604017
 21
369.291055
  0
LINE
  5
553
100
AcDbEntity
  8
M0
 62
     2
100
AcDbLine
 10
69.704008
 20
369.2913
 11
69.704008
 21
362.691538
  0
LINE
  5
554
100
AcDbEntity
  8
M0
 62
     2
100
AcDbLine
 10
69.904005
 20
362.491541
 11
70.004011
 21
362.491541
  0
LINE
  5
555
100
AcDbEntity
  8
M0
 62
     2
100
AcDbLine
 10
76.804014
 20
361.991541
 11
76.804014
 21
360.791544
  0
LINE
  5
556
100
AcDbEntity
  8
M0
 62
     2
100
AcDbLine
 10
70.504011
 20
361.991541
 11
70.504011
 21
360.791544
  0
LINE
  5
557
100
AcDbEntity
  8
M0
 62
     2
100
AcDbLine
 10
77.304014
 20
362.491541
 11
77.404005
 21
362.491541
  0
LINE
  5
558
100
AcDbEntity
  8
M0
 62
     2
100
AcDbLine
 10
77.053999
 20
361.791544
 11
77.053999
 21
360.791544
  0
LINE
  5
559
100
AcDbEntity
  8
M0
 62
     2
100
AcDbLine
 10
76.804014
 20
361.791544
 11
77.053999
 21
361.791544
  0
ARC
  5
55A
100
AcDbEntity
  8
M0
 62
     2
100
AcDbCircle
 10
77.304014
 20
361.991541
 40
0.5
100
AcDbArc
 50
90.0
 51
179.999891
  0
ARC
  5
55B
100
AcDbEntity
  8
M0
 62
     2
100
AcDbCircle
 10
70.004011
 20
361.991541
 40
0.5
100
AcDbArc
 50
0.0
 51
90.0
  0
ARC
  5
55C
100
AcDbEntity
  8
M0
 62
     2
100
AcDbCircle
 10
76.604017
 20
369.2913
 40
1.0
100
AcDbArc
 50
359.985902
 51
450.0
  0
ARC
  5
55D
100
AcDbEntity
  8
M0
 62
     2
100
AcDbCircle
 10
70.704008
 20
369.2913
 40
1.0
100
AcDbArc
 50
90.0
 51
180.0
  0
ARC
  5
55E
100
AcDbEntity
  8
M0
 62
     2
100
AcDbCircle
 10
69.904005
 20
362.691538
 40
0.2
100
AcDbArc
 50
179.999727
 51
270.0
  0
ARC
  5
55F
100
AcDbEntity
  8
M0
 62
     2
100
AcDbCircle
 10
77.404005
 20
362.691538
 40
0.2
100
AcDbArc
 50
270.0
 51
360.0
  0
LINE
  5
560
100
AcDbEntity
  8
M0
 62
     5
100
AcDbLine
 10
72.254011
 20
363.191446
 11
70.434019
 21
363.191446
  0
LINE
  5
561
100
AcDbEntity
  8
M0
 62
     5
100
AcDbLine
 10
76.874006
 20
363.191446
 11
75.054014
 21
363.191446
  0
LINE
  5
562
100
AcDbEntity
  8
M0
 62
     5
100
AcDbLine
 10
71.33238
 20
364.391397
 11
70.064008
 21
364.391397
  0
LINE
  5
563
100
AcDbEntity
  8
M0
 62
     5
100
AcDbLine
 10
77.244016
 20
364.391397
 11
75.975645
 21
364.391397
  0
LINE
  5
564
100
AcDbEntity
  8
M0
 62
     5
100
AcDbLine
 10
71.33238
 20
368.191446
 11
70.064008
 21
368.191446
  0
LINE
  5
565
100
AcDbEntity
  8
M0
 62
     5
100
AcDbLine
 10
77.244016
 20
368.191446
 11
75.975645
 21
368.191446
  0
LINE
  5
566
100
AcDbEntity
  8
M0
 62
     5
100
AcDbLine
 10
72.254011
 20
369.391397
 11
70.434019
 21
369.391397
  0
LINE
  5
567
100
AcDbEntity
  8
M0
 62
     5
100
AcDbLine
 10
76.874006
 20
369.391397
 11
75.054014
 21
369.391397
  0
LINE
  5
568
100
AcDbEntity
  8
M0
 62
     5
100
AcDbLine
 10
72.254011
 20
368.94462
 11
72.254011
 21
369.391397
  0
LINE
  5
569
100
AcDbEntity
  8
M0
 62
     5
100
AcDbLine
 10
72.254011
 20
363.191446
 11
72.254011
 21
363.638223
  0
LINE
  5
56A
100
AcDbEntity
  8
M0
 62
     5
100
AcDbLine
 10
75.054014
 20
368.94462
 11
75.054014
 21
369.391397
  0
LINE
  5
56B
100
AcDbEntity
  8
M0
 62
     5
100
AcDbLine
 10
75.054014
 20
363.191446
 11
75.054014
 21
363.638223
  0
ARC
  5
56C
100
AcDbEntity
  8
M0
 62
     5
100
AcDbCircle
 10
76.134947
 20
362.491495
 40
0.5
100
AcDbArc
 50
270.0
 51
342.848967
  0
LINE
  5
56D
100
AcDbEntity
  8
M0
 62
     5
100
AcDbLine
 10
76.61276
 20
362.344034
 11
77.429014
 21
364.991495
  0
LINE
  5
56E
100
AcDbEntity
  8
M0
 62
     5
100
AcDbLine
 10
71.173078
 20
361.991495
 11
76.134947
 21
361.991495
  0
ARC
  5
56F
100
AcDbEntity
  8
M0
 62
     5
100
AcDbCircle
 10
71.173078
 20
362.491495
 40
0.5
100
AcDbArc
 50
197.150824
 51
270.0
  0
LINE
  5
570
100
AcDbEntity
  8
M0
 62
     5
100
AcDbLine
 10
69.879011
 20
364.991495
 11
70.695265
 21
362.344034
  0
ARC
  5
571
100
AcDbEntity
  8
M0
 62
     5
100
AcDbCircle
 10
71.173078
 20
370.091348
 40
0.5
100
AcDbArc
 50
90.0
 51
162.848967
  0
LINE
  5
572
100
AcDbEntity
  8
M0
 62
     5
100
AcDbLine
 10
70.695265
 20
370.238809
 11
69.879011
 21
367.591348
  0
LINE
  5
573
100
AcDbEntity
  8
M0
 62
     5
100
AcDbLine
 10
76.134947
 20
370.591348
 11
71.173078
 21
370.591348
  0
ARC
  5
574
100
AcDbEntity
  8
M0
 62
     5
100
AcDbCircle
 10
76.134947
 20
370.091348
 40
0.5
100
AcDbArc
 50
17.151033
 51
90.0
  0
LINE
  5
575
100
AcDbEntity
  8
M0
 62
     5
100
AcDbLine
 10
77.429014
 20
367.591348
 11
76.61276
 21
370.238809
  0
LINE
  5
576
100
AcDbEntity
  8
M0
 62
     5
100
AcDbLine
 10
69.879011
 20
367.591348
 11
69.879011
 21
364.991495
  0
LINE
  5
577
100
AcDbEntity
  8
M0
 62
     5
100
AcDbLine
 10
77.429014
 20
364.991495
 11
77.429014
 21
367.591348
  0
CIRCLE
  5
578
100
AcDbEntity
  8
M0
 62
     5
100
AcDbCircle
 10
73.654035
 20
366.291544
 40
3.0
  0
LINE
  5
579
100
AcDbEntity
  8
M0
 62
     5
100
AcDbLine
 10
74.64398
 20
364.594278
 11
75.351087
 21
365.301553
  0
LINE
  5
57A
100
AcDbEntity
  8
M0
 62
     5
100
AcDbLine
 10
75.351087
 20
365.301553
 11
74.361128
 21
366.2913
  0
LINE
  5
57B
100
AcDbEntity
  8
M0
 62
     5
100
AcDbLine
 10
72.664076
 20
367.988565
 11
71.956983
 21
367.28129
  0
LINE
  5
57C
100
AcDbEntity
  8
M0
 62
     5
100
AcDbLine
 10
71.956983
 20
367.28129
 11
72.946928
 21
366.291544
  0
LINE
  5
57D
100
AcDbEntity
  8
M0
 62
     5
100
AcDbLine
 10
71.208814
 20
364.553262
 11
72.946928
 21
366.291544
  0
LINE
  5
57E
100
AcDbEntity
  8
M0
 62
     5
100
AcDbLine
 10
71.915922
 20
363.846231
 11
73.65402
 21
365.584268
  0
LINE
  5
57F
100
AcDbEntity
  8
M0
 62
     5
100
AcDbLine
 10
76.099226
 20
368.029581
 11
74.361128
 21
366.2913
  0
LINE
  5
580
100
AcDbEntity
  8
M0
 62
     5
100
AcDbLine
 10
75.392118
 20
368.736612
 11
73.654035
 21
366.998575
  0
LINE
  5
581
100
AcDbEntity
  8
M0
 62
     5
100
AcDbLine
 10
74.64398
 20
364.594278
 11
73.65402
 21
365.584268
  0
LINE
  5
582
100
AcDbEntity
  8
M0
 62
     5
100
AcDbLine
 10
72.664076
 20
367.988565
 11
73.654035
 21
366.998575
  0
LINE
  5
583
100
AcDbEntity
  8
M0
 62
     2
100
AcDbLine
 10
154.504011
 20
455.791544
 11
161.053999
 21
455.791544
  0
LINE
  5
584
100
AcDbEntity
  8
M0
 62
     2
100
AcDbLine
 10
161.604017
 20
453.891565
 11
161.604017
 21
447.292032
  0
LINE
  5
585
100
AcDbEntity
  8
M0
 62
     2
100
AcDbLine
 10
160.604017
 20
446.291544
 11
160.593214
 21
446.291544
  0
LINE
  5
586
100
AcDbEntity
  8
M0
 62
     2
100
AcDbLine
 10
153.704008
 20
447.291788
 11
153.704008
 21
453.89155
  0
LINE
  5
587
100
AcDbEntity
  8
M0
 62
     2
100
AcDbLine
 10
153.904005
 20
454.091547
 11
154.004011
 21
454.091547
  0
LINE
  5
588
100
AcDbEntity
  8
M0
 62
     2
100
AcDbLine
 10
160.804014
 20
454.591547
 11
160.804014
 21
455.791544
  0
LINE
  5
589
100
AcDbEntity
  8
M0
 62
     2
100
AcDbLine
 10
154.504011
 20
454.591547
 11
154.504011
 21
455.791544
  0
LINE
  5
58A
100
AcDbEntity
  8
M0
 62
     2
100
AcDbLine
 10
161.304014
 20
454.091547
 11
161.404005
 21
454.091547
  0
LINE
  5
58B
100
AcDbEntity
  8
M0
 62
     2
100
AcDbLine
 10
161.053999
 20
454.791544
 11
161.053999
 21
455.791544
  0
LINE
  5
58C
100
AcDbEntity
  8
M0
 62
     2
100
AcDbLine
 10
160.804014
 20
454.791544
 11
161.053999
 21
454.791544
  0
ARC
  5
58D
100
AcDbEntity
  8
M0
 62
     2
100
AcDbCircle
 10
161.304014
 20
454.591547
 40
0.5
100
AcDbArc
 50
180.0
 51
270.0
  0
ARC
  5
58E
100
AcDbEntity
  8
M0
 62
     2
100
AcDbCircle
 10
154.004011
 20
454.591547
 40
0.5
100
AcDbArc
 50
-90.0
 51
0.0
  0
ARC
  5
58F
100
AcDbEntity
  8
M0
 62
     2
100
AcDbCircle
 10
160.604017
 20
447.291788
 40
1.0
100
AcDbArc
 50
-90.0
 51
0.013988
  0
ARC
  5
590
100
AcDbEntity
  8
M0
 62
     2
100
AcDbCircle
 10
154.704008
 20
447.291788
 40
1.0
100
AcDbArc
 50
179.999945
 51
270.0
  0
ARC
  5
591
100
AcDbEntity
  8
M0
 62
     2
100
AcDbCircle
 10
153.904005
 20
453.89155
 40
0.2
100
AcDbArc
 50
90.0
 51
180.0
  0
ARC
  5
592
100
AcDbEntity
  8
M0
 62
     2
100
AcDbCircle
 10
161.404005
 20
453.89155
 40
0.2
100
AcDbArc
 50
0.0
 51
90.0
  0
LINE
  5
593
100
AcDbEntity
  8
M0
 62
     2
100
AcDbLine
 10
154.714796
 20
446.291544
 11
154.704008
 21
446.291544
  0
LINE
  5
594
100
AcDbEntity
  8
M0
 62
     5
100
AcDbLine
 10
156.254011
 20
447.191446
 11
154.434019
 21
447.191446
  0
LINE
  5
595
100
AcDbEntity
  8
M0
 62
     5
100
AcDbLine
 10
160.874006
 20
447.191446
 11
159.054014
 21
447.191446
  0
LINE
  5
596
100
AcDbEntity
  8
M0
 62
     5
100
AcDbLine
 10
155.33238
 20
448.391397
 11
154.064008
 21
448.391397
  0
LINE
  5
597
100
AcDbEntity
  8
M0
 62
     5
100
AcDbLine
 10
161.244016
 20
448.391397
 11
159.975645
 21
448.391397
  0
LINE
  5
598
100
AcDbEntity
  8
M0
 62
     5
100
AcDbLine
 10
155.33238
 20
452.191446
 11
154.064008
 21
452.191446
  0
LINE
  5
599
100
AcDbEntity
  8
M0
 62
     5
100
AcDbLine
 10
161.244016
 20
452.191446
 11
159.975645
 21
452.191446
  0
LINE
  5
59A
100
AcDbEntity
  8
M0
 62
     5
100
AcDbLine
 10
156.254011
 20
453.391397
 11
154.434019
 21
453.391397
  0
LINE
  5
59B
100
AcDbEntity
  8
M0
 62
     5
100
AcDbLine
 10
160.874006
 20
453.391397
 11
159.054014
 21
453.391397
  0
LINE
  5
59C
100
AcDbEntity
  8
M0
 62
     5
100
AcDbLine
 10
156.254011
 20
452.94462
 11
156.254011
 21
453.391397
  0
LINE
  5
59D
100
AcDbEntity
  8
M0
 62
     5
100
AcDbLine
 10
156.254011
 20
447.191446
 11
156.254011
 21
447.638223
  0
LINE
  5
59E
100
AcDbEntity
  8
M0
 62
     5
100
AcDbLine
 10
159.054014
 20
452.94462
 11
159.054014
 21
453.391397
  0
LINE
  5
59F
100
AcDbEntity
  8
M0
 62
     5
100
AcDbLine
 10
159.054014
 20
447.191446
 11
159.054014
 21
447.638223
  0
ARC
  5
5A0
100
AcDbEntity
  8
M0
 62
     5
100
AcDbCircle
 10
160.134947
 20
446.491495
 40
0.5
100
AcDbArc
 50
270.0
 51
342.848967
  0
LINE
  5
5A1
100
AcDbEntity
  8
M0
 62
     5
100
AcDbLine
 10
160.61276
 20
446.344034
 11
161.429014
 21
448.991495
  0
LINE
  5
5A2
100
AcDbEntity
  8
M0
 62
     5
100
AcDbLine
 10
155.173078
 20
445.991495
 11
160.134947
 21
445.991495
  0
ARC
  5
5A3
100
AcDbEntity
  8
M0
 62
     5
100
AcDbCircle
 10
155.173078
 20
446.491495
 40
0.5
100
AcDbArc
 50
197.150824
 51
270.0
  0
LINE
  5
5A4
100
AcDbEntity
  8
M0
 62
     5
100
AcDbLine
 10
153.879011
 20
448.991495
 11
154.695265
 21
446.344034
  0
ARC
  5
5A5
100
AcDbEntity
  8
M0
 62
     5
100
AcDbCircle
 10
155.173078
 20
454.091348
 40
0.5
100
AcDbArc
 50
90.0
 51
162.848967
  0
LINE
  5
5A6
100
AcDbEntity
  8
M0
 62
     5
100
AcDbLine
 10
154.695265
 20
454.238809
 11
153.879011
 21
451.591348
  0
LINE
  5
5A7
100
AcDbEntity
  8
M0
 62
     5
100
AcDbLine
 10
160.134947
 20
454.591348
 11
155.173078
 21
454.591348
  0
ARC
  5
5A8
100
AcDbEntity
  8
M0
 62
     5
100
AcDbCircle
 10
160.134947
 20
454.091348
 40
0.5
100
AcDbArc
 50
17.151033
 51
90.0
  0
LINE
  5
5A9
100
AcDbEntity
  8
M0
 62
     5
100
AcDbLine
 10
161.429014
 20
451.591348
 11
160.61276
 21
454.238809
  0
LINE
  5
5AA
100
AcDbEntity
  8
M0
 62
     5
100
AcDbLine
 10
153.879011
 20
451.591348
 11
153.879011
 21
448.991495
  0
LINE
  5
5AB
100
AcDbEntity
  8
M0
 62
     5
100
AcDbLine
 10
161.429014
 20
448.991495
 11
161.429014
 21
451.591348
  0
CIRCLE
  5
5AC
100
AcDbEntity
  8
M0
 62
     5
100
AcDbCircle
 10
157.654035
 20
450.291544
 40
3.0
  0
LINE
  5
5AD
100
AcDbEntity
  8
M0
 62
     5
100
AcDbLine
 10
158.64398
 20
448.594278
 11
159.351087
 21
449.301553
  0
LINE
  5
5AE
100
AcDbEntity
  8
M0
 62
     5
100
AcDbLine
 10
159.351087
 20
449.301553
 11
158.361128
 21
450.2913
  0
LINE
  5
5AF
100
AcDbEntity
  8
M0
 62
     5
100
AcDbLine
 10
156.664076
 20
451.988565
 11
155.956983
 21
451.28129
  0
LINE
  5
5B0
100
AcDbEntity
  8
M0
 62
     5
100
AcDbLine
 10
155.956983
 20
451.28129
 11
156.946928
 21
450.291544
  0
LINE
  5
5B1
100
AcDbEntity
  8
M0
 62
     5
100
AcDbLine
 10
155.208814
 20
448.553262
 11
156.946928
 21
450.291544
  0
LINE
  5
5B2
100
AcDbEntity
  8
M0
 62
     5
100
AcDbLine
 10
155.915922
 20
447.846231
 11
157.65402
 21
449.584268
  0
LINE
  5
5B3
100
AcDbEntity
  8
M0
 62
     5
100
AcDbLine
 10
160.099226
 20
452.029581
 11
158.361128
 21
450.2913
  0
LINE
  5
5B4
100
AcDbEntity
  8
M0
 62
     5
100
AcDbLine
 10
159.392118
 20
452.736612
 11
157.654035
 21
450.998575
  0
LINE
  5
5B5
100
AcDbEntity
  8
M0
 62
     5
100
AcDbLine
 10
158.64398
 20
448.594278
 11
157.65402
 21
449.584268
  0
LINE
  5
5B6
100
AcDbEntity
  8
M0
 62
     5
100
AcDbLine
 10
156.664076
 20
451.988565
 11
157.654035
 21
450.998575
  0
LINE
  5
5B7
100
AcDbEntity
  8
M0
 62
     7
100
AcDbLine
 10
126.654005
 20
405.691446
 11
126.654005
 21
415.391397
  0
LINE
  5
5B8
100
AcDbEntity
  8
M0
 62
     7
100
AcDbLine
 10
119.404005
 20
419.291397
 11
111.904007
 21
419.291397
  0
LINE
  5
5B9
100
AcDbEntity
  8
M0
 62
     7
100
AcDbLine
 10
104.654005
 20
415.391397
 11
104.654005
 21
405.691446
  0
LINE
  5
5BA
100
AcDbEntity
  8
M0
 62
     7
100
AcDbLine
 10
108.303999
 20
398.091348
 11
123.003996
 21
398.091348
  0
LINE
  5
5BB
100
AcDbEntity
  8
M0
 62
     7
100
AcDbLine
 10
118.654005
 20
408.391397
 11
112.654005
 21
408.391397
  0
LINE
  5
5BC
100
AcDbEntity
  8
M0
 62
     7
100
AcDbLine
 10
118.654005
 20
412.891397
 11
112.654005
 21
412.891397
  0
LINE
  5
5BD
100
AcDbEntity
  8
M0
 62
     7
100
AcDbLine
 10
112.654005
 20
408.391397
 11
112.654005
 21
412.891397
  0
LINE
  5
5BE
100
AcDbEntity
  8
M0
 62
     7
100
AcDbLine
 10
118.654005
 20
408.391397
 11
118.654005
 21
412.891397
  0
LINE
  5
5BF
100
AcDbEntity
  8
M0
 62
     7
100
AcDbLine
 10
123.654005
 20
402.691446
 11
123.503996
 21
402.691446
  0
LINE
  5
5C0
100
AcDbEntity
  8
M0
 62
     7
100
AcDbLine
 10
107.803999
 20
402.691446
 11
107.803999
 21
398.591348
  0
LINE
  5
5C1
100
AcDbEntity
  8
M0
 62
     7
100
AcDbLine
 10
123.503996
 20
402.691446
 11
123.503996
 21
398.591348
  0
ARC
  5
5C2
100
AcDbEntity
  8
M0
 62
     7
100
AcDbCircle
 10
123.654005
 20
405.691446
 40
3.0
100
AcDbArc
 50
270.0
 51
360.0
  0
ARC
  5
5C3
100
AcDbEntity
  8
M0
 62
     7
100
AcDbCircle
 10
107.654005
 20
405.691446
 40
3.0
100
AcDbArc
 50
179.999964
 51
270.0
  0
LINE
  5
5C4
100
AcDbEntity
  8
M0
 62
     7
100
AcDbLine
 10
107.803999
 20
402.691446
 11
107.654005
 21
402.691446
  0
ARC
  5
5C5
100
AcDbEntity
  8
M0
 62
     7
100
AcDbCircle
 10
108.303999
 20
398.591348
 40
0.5
100
AcDbArc
 50
179.999891
 51
270.0
  0
ARC
  5
5C6
100
AcDbEntity
  8
M0
 62
     7
100
AcDbCircle
 10
123.003996
 20
398.591348
 40
0.5
100
AcDbArc
 50
270.0
 51
360.0
  0
LINE
  5
5C7
100
AcDbEntity
  8
M0
 62
     7
100
AcDbLine
 10
107.654005
 20
418.391397
 11
111.904005
 21
418.391397
  0
LINE
  5
5C8
100
AcDbEntity
  8
M0
 62
     7
100
AcDbLine
 10
119.404005
 20
418.391397
 11
119.404005
 21
419.891397
  0
LINE
  5
5C9
100
AcDbEntity
  8
M0
 62
     7
100
AcDbLine
 10
111.904005
 20
418.391397
 11
111.904005
 21
419.891397
  0
LINE
  5
5CA
100
AcDbEntity
  8
M0
 62
     7
100
AcDbLine
 10
119.404005
 20
418.391397
 11
123.654005
 21
418.391397
  0
ARC
  5
5CB
100
AcDbEntity
  8
M0
 62
     7
100
AcDbCircle
 10
123.654005
 20
415.391397
 40
3.0
100
AcDbArc
 50
0.0
 51
90.0
  0
ARC
  5
5CC
100
AcDbEntity
  8
M0
 62
     7
100
AcDbCircle
 10
107.654005
 20
415.391397
 40
3.0
100
AcDbArc
 50
90.0
 51
179.999982
  0
LINE
  5
5CD
100
AcDbEntity
  8
M0
 62
     7
100
AcDbLine
 10
117.904005
 20
421.491104
 11
113.404007
 21
421.491104
  0
LINE
  5
5CE
100
AcDbEntity
  8
M0
  6
DASHDOT
 62
     7
100
AcDbLine
 10
115.654005
 20
393.391397
 11
115.654005
 21
427.091348
  0
LINE
  5
5CF
100
AcDbEntity
  8
M0
 62
     7
100
AcDbLine
 10
119.404005
 20
419.790909
 11
111.904007
 21
419.790909
  0
LINE
  5
5D0
100
AcDbEntity
  8
M0
 62
     7
100
AcDbLine
 10
117.904005
 20
421.491348
 11
117.904005
 21
419.791153
  0
LINE
  5
5D1
100
AcDbEntity
  8
M0
 62
     7
100
AcDbLine
 10
113.404007
 20
421.491348
 11
113.404007
 21
419.791153
  0
LINE
  5
5D2
100
AcDbEntity
  8
M0
 62
     7
100
AcDbLine
 10
119.404005
 20
420.091104
 11
119.404005
 21
419.891153
  0
LINE
  5
5D3
100
AcDbEntity
  8
M0
 62
     7
100
AcDbLine
 10
111.904005
 20
420.091348
 11
111.904005
 21
419.891153
  0
LINE
  5
5D4
100
AcDbEntity
  8
M0
 62
     7
100
AcDbLine
 10
117.904005
 20
420.790909
 11
119.404005
 21
420.790909
  0
LINE
  5
5D5
100
AcDbEntity
  8
M0
 62
     7
100
AcDbLine
 10
111.904007
 20
420.790909
 11
113.404007
 21
420.790909
  0
LINE
  5
5D6
100
AcDbEntity
  8
M0
 62
     7
100
AcDbLine
 10
145.65404
 20
488.690939
 11
135.15404
 21
488.690946
  0
LINE
  5
5D7
100
AcDbEntity
  8
M0
 62
     7
100
AcDbLine
 10
85.654056
 20
488.690977
 11
85.654048
 21
476.291318
  0
LINE
  5
5D8
100
AcDbEntity
  8
M0
 62
     7
100
AcDbLine
 10
92.654061
 20
472.690972
 11
105.654015
 21
472.690964
  0
LINE
  5
5D9
100
AcDbEntity
  8
M0
 62
     7
100
AcDbLine
 10
145.654017
 20
476.291037
 11
145.65404
 21
488.690695
  0
LINE
  5
5DA
100
AcDbEntity
  8
M0
  6
DASHDOT
 62
     7
100
AcDbLine
 10
115.654043
 20
493.690958
 11
115.654027
 21
467.690958
  0
LINE
  5
5DB
100
AcDbEntity
  8
M0
 62
     7
100
AcDbLine
 10
92.654061
 20
473.691216
 11
94.654031
 21
473.691459
  0
LINE
  5
5DC
100
AcDbEntity
  8
M0
 62
     7
100
AcDbLine
 10
109.654017
 20
476.291303
 11
109.65404
 21
488.690962
  0
LINE
  5
5DD
100
AcDbEntity
  8
M0
 62
     7
100
AcDbLine
 10
121.654017
 20
476.291296
 11
121.65404
 21
488.69071
  0
LINE
  5
5DE
100
AcDbEntity
  8
M0
 62
     7
100
AcDbLine
 10
106.654017
 20
476.291305
 11
106.65404
 21
488.690963
  0
LINE
  5
5DF
100
AcDbEntity
  8
M0
 62
     7
100
AcDbLine
 10
124.654017
 20
476.291294
 11
124.65404
 21
488.690708
  0
LINE
  5
5E0
100
AcDbEntity
  8
M0
 62
     7
100
AcDbLine
 10
94.654031
 20
473.690971
 11
94.65404
 21
488.690971
  0
LINE
  5
5E1
100
AcDbEntity
  8
M0
 62
     7
100
AcDbLine
 10
136.654031
 20
473.690945
 11
136.65404
 21
488.690945
  0
LINE
  5
5E2
100
AcDbEntity
  8
M0
 62
     7
100
AcDbLine
 10
91.654033
 20
476.291315
 11
91.654056
 21
488.690973
  0
LINE
  5
5E3
100
AcDbEntity
  8
M0
 62
     7
100
AcDbLine
 10
139.654017
 20
476.29104
 11
139.65404
 21
488.690699
  0
LINE
  5
5E4
100
AcDbEntity
  8
M0
 62
     7
100
AcDbLine
 10
136.654016
 20
473.691189
 11
138.654046
 21
473.691187
  0
LINE
  5
5E5
100
AcDbEntity
  8
M0
 62
     7
100
AcDbLine
 10
96.15404
 20
488.69097
 11
96.154039
 21
486.69097
  0
LINE
  5
5E6
100
AcDbEntity
  8
M0
 62
     7
100
AcDbLine
 10
105.15404
 20
488.690964
 11
105.154039
 21
486.690964
  0
LINE
  5
5E7
100
AcDbEntity
  8
M0
 62
     7
100
AcDbLine
 10
111.15404
 20
488.690961
 11
111.154039
 21
486.691205
  0
LINE
  5
5E8
100
AcDbEntity
  8
M0
 62
     7
100
AcDbLine
 10
120.15404
 20
488.690955
 11
120.154039
 21
486.691199
  0
LINE
  5
5E9
100
AcDbEntity
  8
M0
 62
     7
100
AcDbLine
 10
126.15404
 20
488.690951
 11
126.154039
 21
486.691195
  0
LINE
  5
5EA
100
AcDbEntity
  8
M0
 62
     7
100
AcDbLine
 10
135.15404
 20
488.690946
 11
135.154039
 21
486.69119
  0
LINE
  5
5EB
100
AcDbEntity
  8
M0
 62
     7
100
AcDbLine
 10
105.154039
 20
486.690964
 11
104.904283
 21
486.690964
  0
LINE
  5
5EC
100
AcDbEntity
  8
M0
 62
     7
100
AcDbLine
 10
126.154039
 20
486.690951
 11
126.404039
 21
486.691195
  0
LINE
  5
5ED
100
AcDbEntity
  8
M0
 62
     7
100
AcDbLine
 10
126.15404
 20
488.690951
 11
120.15404
 21
488.690955
  0
LINE
  5
5EE
100
AcDbEntity
  8
M0
 62
     7
100
AcDbLine
 10
111.15404
 20
488.690961
 11
105.15404
 21
488.690964
  0
LINE
  5
5EF
100
AcDbEntity
  8
M0
 62
     7
100
AcDbLine
 10
96.15404
 20
488.69097
 11
85.65404
 21
488.690977
  0
LINE
  5
5F0
100
AcDbEntity
  8
M0
 62
     7
100
AcDbLine
 10
105.154034
 20
478.190964
 11
104.904278
 21
478.190964
  0
LINE
  5
5F1
100
AcDbEntity
  8
M0
 62
     7
100
AcDbLine
 10
135.154034
 20
478.190946
 11
134.904034
 21
478.190946
  0
LINE
  5
5F2
100
AcDbEntity
  8
M0
 62
     7
100
AcDbLine
 10
96.154033
 20
476.69097
 11
94.654033
 21
476.690971
  0
LINE
  5
5F3
100
AcDbEntity
  8
M0
 62
     7
100
AcDbLine
 10
106.654033
 20
476.690963
 11
105.154033
 21
476.690964
  0
LINE
  5
5F4
100
AcDbEntity
  8
M0
 62
     7
100
AcDbLine
 10
111.154033
 20
476.690961
 11
109.654033
 21
476.690962
  0
LINE
  5
5F5
100
AcDbEntity
  8
M0
 62
     7
100
AcDbLine
 10
121.654033
 20
476.690954
 11
120.154033
 21
476.690955
  0
LINE
  5
5F6
100
AcDbEntity
  8
M0
 62
     7
100
AcDbLine
 10
126.154033
 20
476.690951
 11
124.654033
 21
476.690952
  0
LINE
  5
5F7
100
AcDbEntity
  8
M0
 62
     7
100
AcDbLine
 10
136.654033
 20
476.690945
 11
135.154033
 21
476.690946
  0
LINE
  5
5F8
100
AcDbEntity
  8
M0
 62
     7
100
AcDbLine
 10
135.154034
 20
478.190946
 11
135.154033
 21
476.690946
  0
LINE
  5
5F9
100
AcDbEntity
  8
M0
 62
     7
100
AcDbLine
 10
126.154034
 20
478.190951
 11
126.154033
 21
476.690951
  0
LINE
  5
5FA
100
AcDbEntity
  8
M0
 62
     7
100
AcDbLine
 10
120.154034
 20
478.191199
 11
120.154033
 21
476.690955
  0
LINE
  5
5FB
100
AcDbEntity
  8
M0
 62
     7
100
AcDbLine
 10
111.154034
 20
478.191205
 11
111.154033
 21
476.690961
  0
LINE
  5
5FC
100
AcDbEntity
  8
M0
 62
     7
100
AcDbLine
 10
105.154034
 20
478.190964
 11
105.154033
 21
476.690964
  0
LINE
  5
5FD
100
AcDbEntity
  8
M0
 62
     7
100
AcDbLine
 10
96.154034
 20
478.19097
 11
96.154033
 21
476.69097
  0
LINE
  5
5FE
100
AcDbEntity
  8
M0
 62
     7
100
AcDbLine
 10
134.904039
 20
486.69119
 11
135.154039
 21
486.690946
  0
LINE
  5
5FF
100
AcDbEntity
  8
M0
 62
     7
100
AcDbLine
 10
126.404034
 20
478.190951
 11
126.154034
 21
478.190951
  0
LINE
  5
600
100
AcDbEntity
  8
M0
 62
     7
100
AcDbLine
 10
111.154034
 20
478.199994
 11
120.154034
 21
478.190955
  0
LINE
  5
601
100
AcDbEntity
  8
M0
 62
     7
100
AcDbLine
 10
111.154039
 20
486.699994
 11
120.154039
 21
486.690955
  0
LINE
  5
602
100
AcDbEntity
  8
M0
 62
     7
100
AcDbLine
 10
96.404034
 20
478.19097
 11
96.154034
 21
478.19097
  0
LINE
  5
603
100
AcDbEntity
  8
M0
 62
     7
100
AcDbLine
 10
96.404039
 20
486.69097
 11
96.154039
 21
486.69097
  0
LINE
  5
604
100
AcDbEntity
  8
M0
 62
     7
100
AcDbLine
 10
126.40404
 20
487.690707
 11
126.404038
 21
484.191195
  0
LINE
  5
605
100
AcDbEntity
  8
M0
 62
     7
100
AcDbLine
 10
134.904032
 20
474.690946
 11
134.904034
 21
479.159207
  0
LINE
  5
606
100
AcDbEntity
  8
M0
 62
     7
100
AcDbLine
 10
134.90404
 20
487.690702
 11
126.40404
 21
487.690707
  0
LINE
  5
607
100
AcDbEntity
  8
M0
 62
     7
100
AcDbLine
 10
126.404032
 20
474.690707
 11
134.904032
 21
474.690702
  0
LINE
  5
608
100
AcDbEntity
  8
M0
 62
     7
100
AcDbLine
 10
126.404032
 20
475.690707
 11
134.904032
 21
475.690702
  0
LINE
  5
609
100
AcDbEntity
  8
M0
 62
     7
100
AcDbLine
 10
128.154032
 20
474.690706
 11
128.154032
 21
475.690706
  0
LINE
  5
60A
100
AcDbEntity
  8
M0
 62
     7
100
AcDbLine
 10
133.154032
 20
474.690703
 11
133.154032
 21
475.690703
  0
LINE
  5
60B
100
AcDbEntity
  8
M0
 62
     7
100
AcDbLine
 10
134.904038
 20
484.190946
 11
134.90404
 21
487.690702
  0
LINE
  5
60C
100
AcDbEntity
  8
M0
 62
     7
100
AcDbLine
 10
126.404034
 20
479.159457
 11
126.404032
 21
474.690951
  0
LINE
  5
60D
100
AcDbEntity
  8
M0
 62
     7
100
AcDbLine
 10
96.40404
 20
487.690726
 11
96.404038
 21
484.191214
  0
LINE
  5
60E
100
AcDbEntity
  8
M0
 62
     7
100
AcDbLine
 10
104.904032
 20
474.690964
 11
104.904034
 21
479.159226
  0
LINE
  5
60F
100
AcDbEntity
  8
M0
 62
     7
100
AcDbLine
 10
104.90404
 20
487.69072
 11
96.40404
 21
487.690726
  0
LINE
  5
610
100
AcDbEntity
  8
M0
 62
     7
100
AcDbLine
 10
96.404032
 20
474.690726
 11
104.904032
 21
474.69072
  0
LINE
  5
611
100
AcDbEntity
  8
M0
 62
     7
100
AcDbLine
 10
96.404032
 20
475.690726
 11
104.904032
 21
475.69072
  0
LINE
  5
612
100
AcDbEntity
  8
M0
 62
     7
100
AcDbLine
 10
98.154032
 20
474.690725
 11
98.154032
 21
475.690725
  0
LINE
  5
613
100
AcDbEntity
  8
M0
 62
     7
100
AcDbLine
 10
103.154032
 20
474.690721
 11
103.154032
 21
475.690721
  0
LINE
  5
614
100
AcDbEntity
  8
M0
 62
     7
100
AcDbLine
 10
104.904038
 20
484.190964
 11
104.90404
 21
487.69072
  0
LINE
  5
615
100
AcDbEntity
  8
M0
 62
     7
100
AcDbLine
 10
96.404034
 20
479.159476
 11
96.404032
 21
474.69097
  0
LINE
  5
616
100
AcDbEntity
  8
M0
 62
     7
100
AcDbLine
 10
132.154039
 20
486.190947
 11
129.154283
 21
486.190949
  0
LINE
  5
617
100
AcDbEntity
  8
M0
 62
     7
100
AcDbLine
 10
124.904282
 20
484.190952
 11
124.904034
 21
479.191196
  0
LINE
  5
618
100
AcDbEntity
  8
M0
 62
     7
100
AcDbLine
 10
127.154033
 20
477.191439
 11
134.154033
 21
477.19119
  0
LINE
  5
619
100
AcDbEntity
  8
M0
 62
     7
100
AcDbLine
 10
136.404034
 20
479.190945
 11
136.404038
 21
484.190945
  0
LINE
  5
61A
100
AcDbEntity
  8
M0
 62
     7
100
AcDbLine
 10
136.404038
 20
484.190945
 11
133.654038
 21
484.190946
  0
LINE
  5
61B
100
AcDbEntity
  8
M0
 62
     7
100
AcDbLine
 10
127.154034
 20
478.191195
 11
127.154033
 21
477.191683
  0
LINE
  5
61C
100
AcDbEntity
  8
M0
 62
     7
100
AcDbLine
 10
134.154034
 20
478.19119
 11
134.154033
 21
477.191434
  0
LINE
  5
61D
100
AcDbEntity
  8
M0
 62
     7
100
AcDbLine
 10
126.154034
 20
479.191195
 11
124.904034
 21
479.191196
  0
LINE
  5
61E
100
AcDbEntity
  8
M0
 62
     7
100
AcDbLine
 10
136.404034
 20
479.190945
 11
135.154034
 21
479.190946
  0
ARC
  5
61F
100
AcDbEntity
  8
M0
 62
     7
100
AcDbCircle
 10
135.154034
 20
478.190946
 40
1.0
100
AcDbArc
 50
90.0
 51
179.985867
  0
ARC
  5
620
100
AcDbEntity
  8
M0
 62
     7
100
AcDbCircle
 10
126.154034
 20
478.191195
 40
1.0
100
AcDbArc
 50
359.999964
 51
450.0
  0
LINE
  5
621
100
AcDbEntity
  8
M0
 62
     7
100
AcDbLine
 10
129.154283
 20
485.690949
 11
129.154283
 21
486.190949
  0
LINE
  5
622
100
AcDbEntity
  8
M0
 62
     7
100
AcDbLine
 10
132.154038
 20
485.690947
 11
132.154039
 21
486.190947
  0
LINE
  5
623
100
AcDbEntity
  8
M0
 62
     7
100
AcDbLine
 10
127.654282
 20
484.19095
 11
124.904282
 21
484.190952
  0
LINE
  5
624
100
AcDbEntity
  8
M0
 62
     7
100
AcDbLine
 10
132.154038
 20
484.190947
 11
129.154282
 21
484.190949
  0
ARC
  5
625
100
AcDbEntity
  8
M0
 62
     7
100
AcDbCircle
 10
127.654283
 20
485.69095
 40
1.5
100
AcDbArc
 50
270.0
 51
359.999928
  0
ARC
  5
626
100
AcDbEntity
  8
M0
 62
     7
100
AcDbCircle
 10
133.654038
 20
485.690946
 40
1.5
100
AcDbArc
 50
179.999964
 51
269.999381
  0
LINE
  5
627
100
AcDbEntity
  8
M0
 62
     7
100
AcDbLine
 10
102.154039
 20
486.190966
 11
99.154283
 21
486.190968
  0
LINE
  5
628
100
AcDbEntity
  8
M0
 62
     7
100
AcDbLine
 10
94.904282
 20
484.190971
 11
94.904034
 21
479.191215
  0
LINE
  5
629
100
AcDbEntity
  8
M0
 62
     7
100
AcDbLine
 10
97.154033
 20
477.191458
 11
104.154033
 21
477.191209
  0
LINE
  5
62A
100
AcDbEntity
  8
M0
 62
     7
100
AcDbLine
 10
106.404034
 20
479.190964
 11
106.404038
 21
484.190964
  0
LINE
  5
62B
100
AcDbEntity
  8
M0
 62
     7
100
AcDbLine
 10
106.404038
 20
484.190964
 11
103.654038
 21
484.190965
  0
LINE
  5
62C
100
AcDbEntity
  8
M0
 62
     7
100
AcDbLine
 10
97.154034
 20
478.191213
 11
97.154033
 21
477.191702
  0
LINE
  5
62D
100
AcDbEntity
  8
M0
 62
     7
100
AcDbLine
 10
104.154034
 20
478.191209
 11
104.154033
 21
477.191453
  0
LINE
  5
62E
100
AcDbEntity
  8
M0
 62
     7
100
AcDbLine
 10
96.154034
 20
479.191214
 11
94.904034
 21
479.191215
  0
LINE
  5
62F
100
AcDbEntity
  8
M0
 62
     7
100
AcDbLine
 10
106.404034
 20
479.190964
 11
105.154034
 21
479.190964
  0
ARC
  5
630
100
AcDbEntity
  8
M0
 62
     7
100
AcDbCircle
 10
105.154034
 20
478.190964
 40
1.0
100
AcDbArc
 50
90.0
 51
179.985867
  0
ARC
  5
631
100
AcDbEntity
  8
M0
 62
     7
100
AcDbCircle
 10
96.154034
 20
478.191214
 40
1.0
100
AcDbArc
 50
359.999964
 51
449.99909
  0
LINE
  5
632
100
AcDbEntity
  8
M0
 62
     7
100
AcDbLine
 10
99.154283
 20
485.690968
 11
99.154283
 21
486.190968
  0
LINE
  5
633
100
AcDbEntity
  8
M0
 62
     7
100
AcDbLine
 10
102.154038
 20
485.690966
 11
102.154039
 21
486.190966
  0
LINE
  5
634
100
AcDbEntity
  8
M0
 62
     7
100
AcDbLine
 10
97.654282
 20
484.190969
 11
94.904282
 21
484.190971
  0
LINE
  5
635
100
AcDbEntity
  8
M0
 62
     7
100
AcDbLine
 10
102.154038
 20
484.190966
 11
99.154282
 21
484.190968
  0
ARC
  5
636
100
AcDbEntity
  8
M0
 62
     7
100
AcDbCircle
 10
97.654283
 20
485.690969
 40
1.5
100
AcDbArc
 50
270.0
 51
359.999928
  0
ARC
  5
637
100
AcDbEntity
  8
M0
 62
     7
100
AcDbCircle
 10
103.654038
 20
485.690965
 40
1.5
100
AcDbArc
 50
179.999964
 51
270.0
  0
LINE
  5
638
100
AcDbEntity
  8
M0
 62
     7
100
AcDbLine
 10
125.654015
 20
472.690951
 11
138.654046
 21
472.690943
  0
LINE
  5
639
100
AcDbEntity
  8
M0
100
AcDbLine
 10
92.654066
 20
472.391397
 11
105.65402
 21
472.391397
  0
LINE
  5
63A
100
AcDbEntity
  8
M0
100
AcDbLine
 10
138.654051
 20
472.691202
 11
125.65402
 21
472.691202
  0
LINE
  5
63B
100
AcDbEntity
  8
M0
  6
DASHDOT
100
AcDbLine
 10
115.65402
 20
467.391544
 11
115.65402
 21
477.691543
  0
LINE
  5
63C
100
AcDbEntity
  8
M0
100
AcDbLine
 10
125.65402
 20
472.391397
 11
138.654051
 21
472.391397
  0
LINE
  5
63D
100
AcDbEntity
  8
M0
100
AcDbLine
 10
105.65402
 20
472.691202
 11
92.654066
 21
472.690958
  0
CIRCLE
  5
63E
100
AcDbEntity
  8
M0
 62
     5
100
AcDbCircle
 10
100.654035
 20
480.690729
 40
3.299995
  0
CIRCLE
  5
63F
100
AcDbEntity
  8
M0
 62
     5
100
AcDbCircle
 10
130.654035
 20
480.690729
 40
3.299995
  0
CIRCLE
  5
640
100
AcDbEntity
  8
M0
 62
     5
100
AcDbCircle
 10
130.654051
 20
480.690714
 40
3.0
  0
LINE
  5
641
100
AcDbEntity
  8
M0
 62
     5
100
AcDbLine
 10
131.643995
 20
478.993646
 11
132.351103
 21
479.700754
  0
LINE
  5
642
100
AcDbEntity
  8
M0
 62
     5
100
AcDbLine
 10
132.351103
 20
479.700754
 11
131.361143
 21
480.690698
  0
LINE
  5
643
100
AcDbEntity
  8
M0
 62
     5
100
AcDbLine
 10
129.664091
 20
482.38775
 11
128.956999
 21
481.680658
  0
LINE
  5
644
100
AcDbEntity
  8
M0
 62
     5
100
AcDbLine
 10
128.956999
 20
481.680658
 11
129.946943
 21
480.690714
  0
LINE
  5
645
100
AcDbEntity
  8
M0
 62
     5
100
AcDbLine
 10
128.20883
 20
478.9526
 11
129.946943
 21
480.690714
  0
LINE
  5
646
100
AcDbEntity
  8
M0
 62
     5
100
AcDbLine
 10
128.915937
 20
478.245493
 11
130.654035
 21
479.983606
  0
LINE
  5
647
100
AcDbEntity
  8
M0
 62
     5
100
AcDbLine
 10
133.099241
 20
482.428796
 11
131.361143
 21
480.690698
  0
LINE
  5
648
100
AcDbEntity
  8
M0
 62
     5
100
AcDbLine
 10
132.392133
 20
483.135904
 11
130.654051
 21
481.397806
  0
LINE
  5
649
100
AcDbEntity
  8
M0
 62
     5
100
AcDbLine
 10
131.643995
 20
478.993646
 11
130.654035
 21
479.983606
  0
LINE
  5
64A
100
AcDbEntity
  8
M0
 62
     5
100
AcDbLine
 10
129.664091
 20
482.38775
 11
130.654051
 21
481.397806
  0
LINE
  5
64B
100
AcDbEntity
  8
M0
  6
DASHDOT
 62
     5
100
AcDbLine
 10
125.453901
 20
480.690714
 11
135.854185
 21
480.690698
  0
LINE
  5
64C
100
AcDbEntity
  8
M0
  6
DASHDOT
 62
     5
100
AcDbLine
 10
130.654035
 20
475.490564
 11
130.654051
 21
485.890848
  0
CIRCLE
  5
64D
100
AcDbEntity
  8
M0
 62
     5
100
AcDbCircle
 10
100.654051
 20
480.690714
 40
3.0
  0
LINE
  5
64E
100
AcDbEntity
  8
M0
 62
     5
100
AcDbLine
 10
101.643995
 20
478.993646
 11
102.351103
 21
479.700754
  0
LINE
  5
64F
100
AcDbEntity
  8
M0
 62
     5
100
AcDbLine
 10
102.351103
 20
479.700754
 11
101.361143
 21
480.690698
  0
LINE
  5
650
100
AcDbEntity
  8
M0
 62
     5
100
AcDbLine
 10
99.664091
 20
482.38775
 11
98.956999
 21
481.680658
  0
LINE
  5
651
100
AcDbEntity
  8
M0
 62
     5
100
AcDbLine
 10
98.956999
 20
481.680658
 11
99.946943
 21
480.690714
  0
LINE
  5
652
100
AcDbEntity
  8
M0
 62
     5
100
AcDbLine
 10
98.20883
 20
478.9526
 11
99.946943
 21
480.690714
  0
LINE
  5
653
100
AcDbEntity
  8
M0
 62
     5
100
AcDbLine
 10
98.915937
 20
478.245493
 11
100.654035
 21
479.983606
  0
LINE
  5
654
100
AcDbEntity
  8
M0
 62
     5
100
AcDbLine
 10
103.099241
 20
482.428796
 11
101.361143
 21
480.690698
  0
LINE
  5
655
100
AcDbEntity
  8
M0
 62
     5
100
AcDbLine
 10
102.392133
 20
483.135904
 11
100.654051
 21
481.397806
  0
LINE
  5
656
100
AcDbEntity
  8
M0
 62
     5
100
AcDbLine
 10
101.643995
 20
478.993646
 11
100.654035
 21
479.983606
  0
LINE
  5
657
100
AcDbEntity
  8
M0
 62
     5
100
AcDbLine
 10
99.664091
 20
482.38775
 11
100.654051
 21
481.397806
  0
LINE
  5
658
100
AcDbEntity
  8
M0
  6
DASHDOT
 62
     5
100
AcDbLine
 10
95.453901
 20
480.690714
 11
105.854185
 21
480.690698
  0
LINE
  5
659
100
AcDbEntity
  8
M0
  6
DASHDOT
 62
     5
100
AcDbLine
 10
100.654035
 20
475.490564
 11
100.654051
 21
485.890848
  0
LINE
  5
65A
100
AcDbEntity
  8
M0
 62
     2
100
AcDbLine
 10
109.861974
 20
340.361517
 11
109.745948
 21
335.169518
  0
ARC
  5
65B
100
AcDbEntity
  8
M0
 62
     2
100
AcDbCircle
 10
99.748449
 20
335.322933
 40
1.0
100
AcDbArc
 50
178.719396
 51
268.720309
  0
LINE
  5
65C
100
AcDbEntity
  8
M0
 62
     2
100
AcDbLine
 10
98.748707
 20
335.345282
 11
98.946391
 21
344.191551
  0
ARC
  5
65D
100
AcDbEntity
  8
M0
 62
     2
100
AcDbCircle
 10
108.746197
 20
335.191867
 40
1.0
100
AcDbArc
 50
268.719818
 51
358.717672
  0
LINE
  5
65E
100
AcDbEntity
  8
M0
 62
     2
100
AcDbLine
 10
108.723856
 20
334.19211
 11
99.726115
 21
334.323192
  0
LINE
  5
65F
100
AcDbEntity
  8
M0
 62
   234
100
AcDbLine
 10
172.65402
 20
472.391779
 11
172.65402
 21
489.391779
  0
LINE
  5
660
100
AcDbEntity
  8
M0
 62
   234
100
AcDbLine
 10
172.65402
 20
489.391779
 11
128.65402
 21
489.391779
  0
LINE
  5
661
100
AcDbEntity
  8
M0
 62
   234
100
AcDbLine
 10
128.65402
 20
489.391779
 11
128.65402
 21
487.690705
  0
LINE
  5
662
100
AcDbEntity
  8
M0
 62
   234
100
AcDbLine
 10
158.654051
 20
472.391779
 11
172.65402
 21
472.391779
  0
LINE
  5
663
100
AcDbEntity
  8
M0
 62
   234
100
AcDbLine
 10
166.997166
 20
472.391535
 11
172.65402
 21
478.048389
  0
LINE
  5
664
100
AcDbEntity
  8
M0
 62
   234
100
AcDbLine
 10
161.340312
 20
472.391535
 11
172.65402
 21
483.705243
  0
LINE
  5
665
100
AcDbEntity
  8
M0
 62
   234
100
AcDbLine
 10
158.654051
 20
475.362128
 11
172.65402
 21
489.362097
  0
LINE
  5
666
100
AcDbEntity
  8
M0
 62
   234
100
AcDbLine
 10
153.92631
 20
476.291242
 11
167.026847
 21
489.391779
  0
LINE
  5
667
100
AcDbEntity
  8
M0
 62
   234
100
AcDbLine
 10
148.269387
 20
476.291173
 11
161.369993
 21
489.391779
  0
LINE
  5
668
100
AcDbEntity
  8
M0
 62
   234
100
AcDbLine
 10
145.654023
 20
479.332663
 11
155.713139
 21
489.391779
  0
LINE
  5
669
100
AcDbEntity
  8
M0
 62
   234
100
AcDbLine
 10
145.654033
 20
484.989528
 11
150.056284
 21
489.391779
  0
LINE
  5
66A
100
AcDbEntity
  8
M0
 62
   234
100
AcDbLine
 10
143.698592
 20
488.69094
 11
144.39943
 21
489.391779
  0
LINE
  5
66B
100
AcDbEntity
  8
M0
 62
   234
100
AcDbLine
 10
138.041741
 20
488.690944
 11
138.742576
 21
489.391779
  0
LINE
  5
66C
100
AcDbEntity
  8
M0
 62
   234
100
AcDbLine
 10
131.384647
 20
487.690704
 11
133.085722
 21
489.391779
  0
LINE
  5
66D
100
AcDbEntity
  8
M0
 62
   234
100
AcDbLine
 10
65.654051
 20
472.391779
 11
65.654051
 21
489.391779
  0
LINE
  5
66E
100
AcDbEntity
  8
M0
 62
   234
100
AcDbLine
 10
65.654051
 20
489.391779
 11
109.654051
 21
489.391779
  0
LINE
  5
66F
100
AcDbEntity
  8
M0
 62
   234
100
AcDbLine
 10
109.654051
 20
489.391779
 11
109.654051
 21
488.690962
  0
LINE
  5
670
100
AcDbEntity
  8
M0
 62
   234
100
AcDbLine
 10
72.654103
 20
472.391779
 11
65.654051
 21
472.391779
  0
LINE
  5
671
100
AcDbEntity
  8
M0
 62
   234
100
AcDbLine
 10
102.996956
 20
487.690722
 11
104.698013
 21
489.391779
  0
LINE
  5
672
100
AcDbEntity
  8
M0
 62
   234
100
AcDbLine
 10
96.34035
 20
486.69097
 11
96.404039
 21
486.754659
  0
LINE
  5
673
100
AcDbEntity
  8
M0
 62
   234
100
AcDbLine
 10
97.340106
 20
487.690725
 11
99.041159
 21
489.391779
  0
LINE
  5
674
100
AcDbEntity
  8
M0
 62
   234
100
AcDbLine
 10
80.28374
 20
476.291214
 11
85.654051
 21
481.661525
  0
LINE
  5
675
100
AcDbEntity
  8
M0
 62
   234
100
AcDbLine
 10
92.683498
 20
488.690972
 11
93.384305
 21
489.391779
  0
LINE
  5
676
100
AcDbEntity
  8
M0
 62
   234
100
AcDbLine
 10
70.727207
 20
472.391535
 11
72.654107
 21
474.318435
  0
LINE
  5
677
100
AcDbEntity
  8
M0
 62
   234
100
AcDbLine
 10
74.626972
 20
476.2913
 11
85.654055
 21
487.318383
  0
LINE
  5
678
100
AcDbEntity
  8
M0
 62
   234
100
AcDbLine
 10
87.026648
 20
488.690976
 11
87.727451
 21
489.391779
  0
LINE
  5
679
100
AcDbEntity
  8
M0
 62
   234
100
AcDbLine
 10
65.654051
 20
472.975233
 11
82.070596
 21
489.391779
  0
LINE
  5
67A
100
AcDbEntity
  8
M0
 62
   234
100
AcDbLine
 10
65.654051
 20
478.632087
 11
76.413742
 21
489.391779
  0
LINE
  5
67B
100
AcDbEntity
  8
M0
 62
   234
100
AcDbLine
 10
65.654051
 20
484.288941
 11
70.756888
 21
489.391779
  0
CIRCLE
  5
67C
100
AcDbEntity
  8
M0
 62
     5
100
AcDbCircle
 10
157.126412
 20
246.374549
 40
4.0
  0
LINE
  5
67D
100
AcDbEntity
  8
M0
  6
DASHDOT
 62
     5
100
AcDbLine
 10
169.126412
 20
246.374549
 11
145.126412
 21
246.374549
  0
LINE
  5
67E
100
AcDbEntity
  8
M0
  6
DASHDOT
 62
     5
100
AcDbLine
 10
157.126412
 20
234.374549
 11
157.126412
 21
258.374549
  0
CIRCLE
  5
67F
100
AcDbEntity
  8
M0
 62
     5
100
AcDbCircle
 10
157.126412
 20
246.374549
 40
2.799999
  0
LINE
  5
680
100
AcDbEntity
  8
M0
  6
DASHDOT
 62
     5
100
AcDbLine
 10
61.126412
 20
136.374549
 11
85.126412
 21
136.374549
  0
LINE
  5
681
100
AcDbEntity
  8
M0
  6
DASHDOT
 62
     5
100
AcDbLine
 10
73.126412
 20
124.374549
 11
73.126412
 21
148.374549
  0
CIRCLE
  5
682
100
AcDbEntity
  8
M0
 62
     5
100
AcDbCircle
 10
73.126412
 20
136.374549
 40
4.0
  0
CIRCLE
  5
683
100
AcDbEntity
  8
M0
 62
     5
100
AcDbCircle
 10
73.126412
 20
136.374549
 40
2.799999
  0
LINE
  5
684
100
AcDbEntity
  8
M0
  6
DIVIDE
 62
     5
100
AcDbLine
 10
145.126409
 20
271.873957
 11
85.126448
 21
271.873957
  0
LINE
  5
685
100
AcDbEntity
  8
M0
  6
DIVIDE
 62
     5
100
AcDbLine
 10
172.126443
 20
259.474305
 11
172.126443
 21
123.475038
  0
LINE
  5
686
100
AcDbEntity
  8
M0
  6
DIVIDE
 62
     5
100
AcDbLine
 10
172.126443
 20
259.474305
 11
145.126409
 21
259.474305
  0
LINE
  5
687
100
AcDbEntity
  8
M0
  6
DIVIDE
 62
     5
100
AcDbLine
 10
172.126443
 20
123.475038
 11
109.332803
 21
123.475038
  0
LINE
  5
688
100
AcDbEntity
  8
M0
  6
DIVIDE
 62
     5
100
AcDbLine
 10
109.332803
 20
117.375003
 11
98.221099
 21
117.375003
  0
LINE
  5
689
100
AcDbEntity
  8
M0
  6
DIVIDE
 62
     5
100
AcDbLine
 10
65.126443
 20
123.475038
 11
65.126443
 21
259.474305
  0
LINE
  5
68A
100
AcDbEntity
  8
M0
  6
DIVIDE
 62
     5
100
AcDbLine
 10
85.126448
 20
259.474305
 11
65.126443
 21
259.474305
  0
LINE
  5
68B
100
AcDbEntity
  8
M0
  6
DIVIDE
 62
     5
100
AcDbLine
 10
98.221099
 20
123.475038
 11
65.126443
 21
123.475038
  0
LINE
  5
68C
100
AcDbEntity
  8
M0
  6
DIVIDE
 62
     5
100
AcDbLine
 10
145.126409
 20
271.873957
 11
145.126409
 21
259.474305
  0
LINE
  5
68D
100
AcDbEntity
  8
M0
  6
DIVIDE
 62
     5
100
AcDbLine
 10
85.126448
 20
259.474305
 11
85.126448
 21
271.873957
  0
LINE
  5
68E
100
AcDbEntity
  8
M0
  6
DIVIDE
 62
     5
100
AcDbLine
 10
98.221099
 20
123.475038
 11
98.221099
 21
117.375003
  0
LINE
  5
68F
100
AcDbEntity
  8
M0
  6
DIVIDE
 62
     5
100
AcDbLine
 10
109.332803
 20
117.375003
 11
109.332803
 21
123.475038
  0
LINE
  5
690
100
AcDbEntity
  8
M0
100
AcDbLine
 10
346.522124
 20
489.091641
 11
324.522124
 21
489.091641
  0
LINE
  5
691
100
AcDbEntity
  8
M0
100
AcDbLine
 10
320.522124
 20
472.391641
 11
350.522124
 21
472.391641
  0
LINE
  5
692
100
AcDbEntity
  8
M0
100
AcDbLine
 10
350.522124
 20
472.391641
 11
350.522124
 21
485.091641
  0
LINE
  5
693
100
AcDbEntity
  8
M0
100
AcDbLine
 10
320.522124
 20
485.091641
 11
320.522124
 21
472.391641
  0
ARC
  5
694
100
AcDbEntity
  8
M0
100
AcDbCircle
 10
324.522124
 20
485.091641
 40
4.0
100
AcDbArc
 50
90.0
 51
180.0
  0
ARC
  5
695
100
AcDbEntity
  8
M0
100
AcDbCircle
 10
346.522124
 20
485.091641
 40
4.0
100
AcDbArc
 50
0.0
 51
90.0
  0
LINE
  5
696
100
AcDbEntity
  8
M0
  6
DASHED
100
AcDbLine
 10
325.022124
 20
489.091733
 11
325.022124
 21
477.172677
  0
LINE
  5
697
100
AcDbEntity
  8
M0
  6
DASHED
100
AcDbLine
 10
328.022155
 20
477.172677
 11
328.022155
 21
489.091641
  0
LINE
  5
698
100
AcDbEntity
  8
M0
 62
   234
100
AcDbLine
 10
398.922027
 20
472.391641
 11
398.922027
 21
489.391641
  0
LINE
  5
699
100
AcDbEntity
  8
M0
 62
   234
100
AcDbLine
 10
398.922027
 20
489.391641
 11
352.922027
 21
489.391641
  0
LINE
  5
69A
100
AcDbEntity
  8
M0
 62
   234
100
AcDbLine
 10
352.922027
 20
489.391641
 11
352.922027
 21
472.391641
  0
LINE
  5
69B
100
AcDbEntity
  8
M0
 62
   234
100
AcDbLine
 10
352.922027
 20
472.391641
 11
398.922027
 21
472.391641
  0
LINE
  5
69C
100
AcDbEntity
  8
M0
 62
   234
100
AcDbLine
 10
393.265172
 20
472.391641
 11
398.922027
 21
478.048496
  0
LINE
  5
69D
100
AcDbEntity
  8
M0
 62
   234
100
AcDbLine
 10
387.608318
 20
472.391641
 11
398.922027
 21
483.70535
  0
LINE
  5
69E
100
AcDbEntity
  8
M0
 62
   234
100
AcDbLine
 10
381.951464
 20
472.391641
 11
398.922027
 21
489.362204
  0
LINE
  5
69F
100
AcDbEntity
  8
M0
 62
   234
100
AcDbLine
 10
376.29461
 20
472.391641
 11
393.29461
 21
489.391641
  0
LINE
  5
6A0
100
AcDbEntity
  8
M0
 62
   234
100
AcDbLine
 10
370.637755
 20
472.391641
 11
387.637755
 21
489.391641
  0
LINE
  5
6A1
100
AcDbEntity
  8
M0
 62
   234
100
AcDbLine
 10
364.980901
 20
472.391641
 11
381.980901
 21
489.391641
  0
LINE
  5
6A2
100
AcDbEntity
  8
M0
 62
   234
100
AcDbLine
 10
359.324047
 20
472.391641
 11
376.324047
 21
489.391641
  0
LINE
  5
6A3
100
AcDbEntity
  8
M0
 62
   234
100
AcDbLine
 10
353.667193
 20
472.391641
 11
370.667193
 21
489.391641
  0
LINE
  5
6A4
100
AcDbEntity
  8
M0
 62
   234
100
AcDbLine
 10
352.922027
 20
477.30333
 11
365.010338
 21
489.391641
  0
LINE
  5
6A5
100
AcDbEntity
  8
M0
 62
   234
100
AcDbLine
 10
352.922027
 20
482.960184
 11
359.353484
 21
489.391641
  0
LINE
  5
6A6
100
AcDbEntity
  8
M0
 62
   234
100
AcDbLine
 10
352.922027
 20
488.617038
 11
353.69663
 21
489.391641
  0
LINE
  5
6A7
100
AcDbEntity
  8
M0
 62
     2
100
AcDbLine
 10
392.021978
 20
336.29165
 11
394.522027
 21
336.29165
  0
LINE
  5
6A8
100
AcDbEntity
  8
M0
 62
     2
100
AcDbLine
 10
394.522027
 20
336.29165
 11
394.522027
 21
344.19166
  0
LINE
  5
6A9
100
AcDbEntity
  8
M0
 62
     2
100
AcDbLine
 10
392.021978
 20
344.19166
 11
392.021978
 21
336.29165
  0
LINE
  5
6AA
100
AcDbEntity
  8
M0
 62
     7
100
AcDbLine
 10
407.922027
 20
346.29165
 11
407.922027
 21
470.29165
  0
LINE
  5
6AB
100
AcDbEntity
  8
M0
 62
     7
100
AcDbLine
 10
407.922027
 20
470.29165
 11
375.722076
 21
470.29165
  0
LINE
  5
6AC
100
AcDbEntity
  8
M0
 62
     7
100
AcDbLine
 10
375.722076
 20
470.29165
 11
375.722076
 21
346.29165
  0
LINE
  5
6AD
100
AcDbEntity
  8
M0
 62
     7
100
AcDbLine
 10
375.722076
 20
346.29165
 11
407.922027
 21
346.29165
  0
LINE
  5
6AE
100
AcDbEntity
  8
M0
100
AcDbLine
 10
409.522124
 20
346.291635
 11
409.522124
 21
470.29162
  0
LINE
  5
6AF
100
AcDbEntity
  8
M0
100
AcDbLine
 10
407.422027
 20
472.391641
 11
325.921124
 21
472.391641
  0
LINE
  5
6B0
100
AcDbEntity
  8
M0
100
AcDbLine
 10
325.921124
 20
472.391641
 11
325.921124
 21
470.79162
  0
LINE
  5
6B1
100
AcDbEntity
  8
M0
100
AcDbLine
 10
407.922027
 20
346.291635
 11
407.922027
 21
470.29162
  0
LINE
  5
6B2
100
AcDbEntity
  8
M0
100
AcDbLine
 10
407.422027
 20
470.791635
 11
325.921124
 21
470.791635
  0
ARC
  5
6B3
100
AcDbEntity
  8
M0
100
AcDbCircle
 10
407.422027
 20
346.29165
 40
0.5
100
AcDbArc
 50
270.0
 51
360.0
  0
ARC
  5
6B4
100
AcDbEntity
  8
M0
100
AcDbCircle
 10
407.422027
 20
470.29162
 40
0.5
100
AcDbArc
 50
0.0
 51
90.0
  0
ARC
  5
6B5
100
AcDbEntity
  8
M0
100
AcDbCircle
 10
407.422027
 20
346.29165
 40
2.099999
100
AcDbArc
 50
270.0
 51
360.0
  0
ARC
  5
6B6
100
AcDbEntity
  8
M0
100
AcDbCircle
 10
407.422027
 20
470.29162
 40
2.099999
100
AcDbArc
 50
0.0
 51
90.0
  0
LINE
  5
6B7
100
AcDbEntity
  8
M0
  6
DASHED
100
AcDbLine
 10
358.922027
 20
472.391641
 11
358.922027
 21
470.791635
  0
LINE
  5
6B8
100
AcDbEntity
  8
M0
  6
DASHED
100
AcDbLine
 10
400.922027
 20
472.391641
 11
400.922027
 21
470.791635
  0
LINE
  5
6B9
100
AcDbEntity
  8
M0
  6
DASHED
100
AcDbLine
 10
382.922027
 20
472.391641
 11
382.922027
 21
470.791635
  0
LINE
  5
6BA
100
AcDbEntity
  8
M0
100
AcDbLine
 10
375.922027
 20
345.79165
 11
375.922027
 21
344.19166
  0
LINE
  5
6BB
100
AcDbEntity
  8
M0
100
AcDbLine
 10
395.922027
 20
345.79165
 11
395.922027
 21
344.19166
  0
LINE
  5
6BC
100
AcDbEntity
  8
M0
100
AcDbLine
 10
375.922027
 20
345.79165
 11
407.422027
 21
345.79165
  0
LINE
  5
6BD
100
AcDbEntity
  8
M0
100
AcDbLine
 10
375.922027
 20
344.19166
 11
407.422027
 21
344.19166
  0
LINE
  5
6BE
100
AcDbEntity
  8
M0
100
AcDbLine
 10
290.222045
 20
476.773187
 11
293.421996
 21
476.773187
  0
LINE
  5
6BF
100
AcDbEntity
  8
M0
100
AcDbLine
 10
290.222045
 20
476.773187
 11
290.222045
 21
457.791254
  0
LINE
  5
6C0
100
AcDbEntity
  8
M0
100
AcDbLine
 10
293.421996
 20
476.773187
 11
293.421996
 21
457.791254
  0
ARC
  5
6C1
100
AcDbEntity
  8
M0
100
AcDbCircle
 10
297.822133
 20
467.809714
 40
14.0
100
AcDbArc
 50
163.927431
 51
177.544352
  0
ARC
  5
6C2
100
AcDbEntity
  8
M0
100
AcDbCircle
 10
297.822133
 20
467.809714
 40
14.0
100
AcDbArc
 50
182.456721
 51
196.073687
  0
LINE
  5
6C3
100
AcDbEntity
  8
M0
100
AcDbLine
 10
285.935002
 20
468.40956
 11
283.834996
 21
468.409559
  0
LINE
  5
6C4
100
AcDbEntity
  8
M0
100
AcDbLine
 10
285.935002
 20
467.209609
 11
285.935002
 21
468.40956
  0
LINE
  5
6C5
100
AcDbEntity
  8
M0
100
AcDbLine
 10
283.834996
 20
467.209608
 11
285.935002
 21
467.209609
  0
ARC
  5
6C6
100
AcDbEntity
  8
M0
100
AcDbCircle
 10
286.195117
 20
471.15956
 40
1.9
100
AcDbArc
 50
90.0
 51
163.924881
  0
LINE
  5
6C7
100
AcDbEntity
  8
M0
100
AcDbLine
 10
286.195115
 20
473.059707
 11
287.722139
 21
473.059708
  0
ARC
  5
6C8
100
AcDbEntity
  8
M0
100
AcDbCircle
 10
286.195121
 20
464.459609
 40
1.9
100
AcDbArc
 50
196.075634
 51
269.999576
  0
LINE
  5
6C9
100
AcDbEntity
  8
M0
100
AcDbLine
 10
287.722145
 20
462.559708
 11
286.195122
 21
462.559707
  0
LINE
  5
6CA
100
AcDbEntity
  8
M0
100
AcDbLine
 10
287.722139
 20
473.059708
 11
287.722145
 21
462.559708
  0
LINE
  5
6CB
100
AcDbEntity
  8
M0
  6
DASHDOT
100
AcDbLine
 10
281.467091
 20
467.809704
 11
303.385014
 21
467.809717
  0
LINE
  5
6CC
100
AcDbEntity
  8
M0
100
AcDbLine
 10
301.72214
 20
470.809716
 11
301.722144
 21
464.809716
  0
LINE
  5
6CD
100
AcDbEntity
  8
M0
100
AcDbLine
 10
301.722144
 20
464.809716
 11
293.422141
 21
464.809711
  0
LINE
  5
6CE
100
AcDbEntity
  8
M0
100
AcDbLine
 10
293.42214
 20
465.309711
 11
301.722144
 21
465.309716
  0
LINE
  5
6CF
100
AcDbEntity
  8
M0
100
AcDbLine
 10
293.422137
 20
470.309711
 11
301.72214
 21
470.309716
  0
LINE
  5
6D0
100
AcDbEntity
  8
M0
100
AcDbLine
 10
293.422137
 20
470.809711
 11
301.72214
 21
470.809716
  0
LINE
  5
6D1
100
AcDbEntity
  8
M0
100
AcDbLine
 10
289.222138
 20
474.309709
 11
290.222138
 21
474.309709
  0
LINE
  5
6D2
100
AcDbEntity
  8
M0
100
AcDbLine
 10
290.222138
 20
474.309709
 11
290.222146
 21
461.309709
  0
LINE
  5
6D3
100
AcDbEntity
  8
M0
100
AcDbLine
 10
290.222146
 20
461.309709
 11
289.222146
 21
461.309709
  0
LINE
  5
6D4
100
AcDbEntity
  8
M0
100
AcDbLine
 10
289.222146
 20
461.309709
 11
289.222138
 21
474.309709
  0
LINE
  5
6D5
100
AcDbEntity
  8
M0
  6
DASHDOT
100
AcDbLine
 10
286.222127
 20
467.809722
 11
293.222142
 21
467.809711
  0
LINE
  5
6D6
100
AcDbEntity
  8
M0
100
AcDbLine
 10
287.722138
 20
473.909714
 11
289.222138
 21
473.909715
  0
LINE
  5
6D7
100
AcDbEntity
  8
M0
100
AcDbLine
 10
289.222138
 20
473.909715
 11
289.222146
 21
461.709718
  0
LINE
  5
6D8
100
AcDbEntity
  8
M0
100
AcDbLine
 10
289.222146
 20
461.709718
 11
287.722146
 21
461.709717
  0
LINE
  5
6D9
100
AcDbEntity
  8
M0
100
AcDbLine
 10
287.722146
 20
461.709717
 11
287.722138
 21
473.909714
  0
LINE
  5
6DA
100
AcDbEntity
  8
M0
  6
DASHDOT
100
AcDbLine
 10
282.722142
 20
467.809704
 11
294.222142
 21
467.809712
  0
LINE
  5
6DB
100
AcDbEntity
  8
M0
100
AcDbLine
 10
287.722142
 20
467.809738
 11
289.222141
 21
468.675752
  0
LINE
  5
6DC
100
AcDbEntity
  8
M0
100
AcDbLine
 10
287.722143
 20
466.94371
 11
289.222142
 21
467.809724
  0
LINE
  5
6DD
100
AcDbEntity
  8
M0
 62
     4
100
AcDbLine
 10
256.422179
 20
393.660013
 11
256.422179
 21
422.922235
  0
LINE
  5
6DE
100
AcDbEntity
  8
M0
100
AcDbLine
 10
256.422179
 20
423.791544
 11
256.422179
 21
392.791544
  0
LINE
  5
6DF
100
AcDbEntity
  8
M0
100
AcDbLine
 10
258.422179
 20
390.791544
 11
276.422179
 21
390.791544
  0
ARC
  5
6E0
100
AcDbEntity
  8
M0
100
AcDbCircle
 10
258.422179
 20
392.791544
 40
2.0
100
AcDbArc
 50
180.0
 51
269.999563
  0
LINE
  5
6E1
100
AcDbEntity
  8
M0
100
AcDbLine
 10
262.921935
 20
412.041544
 11
262.921935
 21
404.541544
  0
LINE
  5
6E2
100
AcDbEntity
  8
M0
100
AcDbLine
 10
256.422179
 20
404.541544
 11
262.921935
 21
404.541544
  0
LINE
  5
6E3
100
AcDbEntity
  8
M0
100
AcDbLine
 10
261.421935
 20
405.541544
 11
262.921935
 21
405.541544
  0
LINE
  5
6E4
100
AcDbEntity
  8
M0
100
AcDbLine
 10
261.421935
 20
405.541544
 11
261.421935
 21
404.541544
  0
LINE
  5
6E5
100
AcDbEntity
  8
M0
  6
DASHED
100
AcDbLine
 10
264.722182
 20
390.791406
 11
264.722182
 21
402.441193
  0
LINE
  5
6E6
100
AcDbEntity
  8
M0
  6
DASHED
100
AcDbLine
 10
268.722182
 20
390.791406
 11
268.722182
 21
402.441193
  0
LINE
  5
6E7
100
AcDbEntity
  8
M0
100
AcDbLine
 10
258.422179
 20
425.791544
 11
276.422179
 21
425.791544
  0
ARC
  5
6E8
100
AcDbEntity
  8
M0
100
AcDbCircle
 10
258.422179
 20
423.791544
 40
2.0
100
AcDbArc
 50
90.0
 51
180.0
  0
LINE
  5
6E9
100
AcDbEntity
  8
M0
100
AcDbLine
 10
256.422179
 20
412.041544
 11
262.921935
 21
412.041544
  0
LINE
  5
6EA
100
AcDbEntity
  8
M0
100
AcDbLine
 10
261.421935
 20
412.041544
 11
261.421935
 21
411.041544
  0
LINE
  5
6EB
100
AcDbEntity
  8
M0
100
AcDbLine
 10
261.421935
 20
411.041544
 11
262.921935
 21
411.041544
  0
LINE
  5
6EC
100
AcDbEntity
  8
M0
100
AcDbLine
 10
276.422179
 20
425.791544
 11
276.422179
 21
423.291544
  0
LINE
  5
6ED
100
AcDbEntity
  8
M0
100
AcDbLine
 10
276.422179
 20
423.291544
 11
280.422179
 21
423.291544
  0
LINE
  5
6EE
100
AcDbEntity
  8
M0
100
AcDbLine
 10
276.422179
 20
424.773477
 11
280.422179
 21
424.773477
  0
LINE
  5
6EF
100
AcDbEntity
  8
M0
100
AcDbLine
 10
280.422179
 20
425.791544
 11
280.422179
 21
423.291544
  0
ARC
  5
6F0
100
AcDbEntity
  8
M0
100
AcDbCircle
 10
280.422179
 20
429.791544
 40
4.0
100
AcDbArc
 50
269.999781
 51
360.0
  0
LINE
  5
6F1
100
AcDbEntity
  8
M0
100
AcDbLine
 10
284.422179
 20
433.791544
 11
284.422179
 21
429.791544
  0
ARC
  5
6F2
100
AcDbEntity
  8
M0
100
AcDbCircle
 10
286.422179
 20
433.791544
 40
2.0
100
AcDbArc
 50
90.0
 51
180.0
  0
LINE
  5
6F3
100
AcDbEntity
  8
M0
100
AcDbLine
 10
286.422179
 20
435.791544
 11
297.422179
 21
435.791544
  0
LINE
  5
6F4
100
AcDbEntity
  8
M0
100
AcDbLine
 10
298.422179
 20
434.791544
 11
306.422179
 21
434.791544
  0
ARC
  5
6F5
100
AcDbEntity
  8
M0
100
AcDbCircle
 10
298.422179
 20
435.791544
 40
1.0
100
AcDbArc
 50
180.0
 51
269.999126
  0
LINE
  5
6F6
100
AcDbEntity
  8
M0
100
AcDbLine
 10
306.422179
 20
443.291544
 11
306.422179
 21
434.791544
  0
LINE
  5
6F7
100
AcDbEntity
  8
M0
100
AcDbLine
 10
306.422179
 20
443.291544
 11
309.422179
 21
445.791544
  0
LINE
  5
6F8
100
AcDbEntity
  8
M0
100
AcDbLine
 10
309.421935
 20
445.791544
 11
322.422179
 21
445.791544
  0
LINE
  5
6F9
100
AcDbEntity
  8
M0
100
AcDbLine
 10
276.422179
 20
393.291544
 11
276.422179
 21
390.791544
  0
LINE
  5
6FA
100
AcDbEntity
  8
M0
100
AcDbLine
 10
276.422179
 20
393.291544
 11
280.422179
 21
393.291544
  0
LINE
  5
6FB
100
AcDbEntity
  8
M0
100
AcDbLine
 10
276.421935
 20
391.80961
 11
280.421935
 21
391.80961
  0
LINE
  5
6FC
100
AcDbEntity
  8
M0
100
AcDbLine
 10
280.422179
 20
393.291544
 11
280.422179
 21
390.791544
  0
ARC
  5
6FD
100
AcDbEntity
  8
M0
100
AcDbCircle
 10
280.422179
 20
386.791544
 40
4.0
100
AcDbArc
 50
0.0
 51
90.0
  0
LINE
  5
6FE
100
AcDbEntity
  8
M0
100
AcDbLine
 10
284.422179
 20
386.791544
 11
284.422179
 21
382.791544
  0
ARC
  5
6FF
100
AcDbEntity
  8
M0
100
AcDbCircle
 10
286.422179
 20
382.791544
 40
2.0
100
AcDbArc
 50
180.0
 51
269.999563
  0
LINE
  5
700
100
AcDbEntity
  8
M0
100
AcDbLine
 10
286.422179
 20
380.791544
 11
297.421935
 21
380.791544
  0
ARC
  5
701
100
AcDbEntity
  8
M0
100
AcDbCircle
 10
298.421935
 20
380.791544
 40
1.0
100
AcDbArc
 50
90.0
 51
180.0
  0
LINE
  5
702
100
AcDbEntity
  8
M0
  6
DASHED
100
AcDbLine
 10
293.221847
 20
380.791361
 11
293.221847
 21
391.387552
  0
LINE
  5
703
100
AcDbEntity
  8
M0
  6
DASHED
100
AcDbLine
 10
297.221847
 20
391.387552
 11
297.221847
 21
380.791361
  0
LINE
  5
704
100
AcDbEntity
  8
M0
100
AcDbLine
 10
298.421935
 20
381.791544
 11
306.421935
 21
381.791544
  0
LINE
  5
705
100
AcDbEntity
  8
M0
100
AcDbLine
 10
306.421935
 20
373.291544
 11
306.421935
 21
381.791544
  0
LINE
  5
706
100
AcDbEntity
  8
M0
100
AcDbLine
 10
306.421935
 20
373.291544
 11
309.421935
 21
370.791544
  0
LINE
  5
707
100
AcDbEntity
  8
M0
100
AcDbLine
 10
309.421691
 20
370.791544
 11
322.422179
 21
370.791544
  0
LINE
  5
708
100
AcDbEntity
  8
M0
100
AcDbLine
 10
286.422179
 20
358.791544
 11
322.422179
 21
358.791544
  0
LINE
  5
709
100
AcDbEntity
  8
M0
100
AcDbLine
 10
322.422179
 20
358.791544
 11
322.422179
 21
389.792169
  0
LINE
  5
70A
100
AcDbEntity
  8
M0
  6
DASHDOT
100
AcDbLine
 10
316.342101
 20
388.041544
 11
324.155089
 21
388.041544
  0
LINE
  5
70B
100
AcDbEntity
  8
M0
100
AcDbLine
 10
319.922179
 20
390.541544
 11
322.422179
 21
390.541544
  0
LINE
  5
70C
100
AcDbEntity
  8
M0
100
AcDbLine
 10
319.922179
 20
385.541544
 11
322.422179
 21
385.541544
  0
ARC
  5
70D
100
AcDbEntity
  8
M0
100
AcDbCircle
 10
319.922179
 20
388.041544
 40
2.5
100
AcDbArc
 50
90.0
 51
269.99965
  0
LINE
  5
70E
100
AcDbEntity
  8
M0
100
AcDbLine
 10
306.922179
 20
404.291544
 11
306.922179
 21
406.291544
  0
LINE
  5
70F
100
AcDbEntity
  8
M0
100
AcDbLine
 10
308.922179
 20
402.291544
 11
322.422179
 21
402.291544
  0
LINE
  5
710
100
AcDbEntity
  8
M0
100
AcDbLine
 10
307.190002
 20
403.291544
 11
319.422179
 21
403.291544
  0
ARC
  5
711
100
AcDbEntity
  8
M0
100
AcDbCircle
 10
319.422179
 20
402.291544
 40
1.0
100
AcDbArc
 50
0.0
 51
90.0
  0
ARC
  5
712
100
AcDbEntity
  8
M0
100
AcDbCircle
 10
308.922179
 20
404.291544
 40
2.0
100
AcDbArc
 50
180.0
 51
269.999563
  0
LINE
  5
713
100
AcDbEntity
  8
M0
100
AcDbLine
 10
322.422179
 20
375.292993
 11
323.12213
 21
375.292993
  0
LINE
  5
714
100
AcDbEntity
  8
M0
100
AcDbLine
 10
322.422179
 20
381.292993
 11
323.12213
 21
381.292993
  0
LINE
  5
715
100
AcDbEntity
  8
M0
100
AcDbLine
 10
323.12213
 20
381.292993
 11
323.12213
 21
375.292993
  0
LINE
  5
716
100
AcDbEntity
  8
M0
100
AcDbLine
 10
322.422179
 20
390.541544
 11
322.422179
 21
402.291544
  0
LINE
  5
717
100
AcDbEntity
  8
M0
100
AcDbLine
 10
318.137267
 20
389.792169
 11
322.422179
 21
389.792169
  0
LINE
  5
718
100
AcDbEntity
  8
M0
100
AcDbLine
 10
375.222076
 20
346.291406
 11
359.222076
 21
346.291406
  0
LINE
  5
719
100
AcDbEntity
  8
M0
100
AcDbLine
 10
358.222076
 20
347.333078
 11
358.222076
 21
359.291406
  0
LINE
  5
71A
100
AcDbEntity
  8
M0
100
AcDbLine
 10
359.222076
 20
346.291406
 11
359.222076
 21
358.291406
  0
ARC
  5
71B
100
AcDbEntity
  8
M0
100
AcDbCircle
 10
334.922072
 20
403.291406
 40
2.0
100
AcDbArc
 50
-90.000437
 51
0.0
  0
LINE
  5
71C
100
AcDbEntity
  8
M0
100
AcDbLine
 10
357.222076
 20
360.291406
 11
322.422072
 21
360.291406
  0
LINE
  5
71D
100
AcDbEntity
  8
M0
100
AcDbLine
 10
347.222076
 20
358.791406
 11
322.422072
 21
358.791406
  0
LINE
  5
71E
100
AcDbEntity
  8
M0
100
AcDbLine
 10
347.222076
 20
358.791406
 11
359.222076
 21
346.291406
  0
ARC
  5
71F
100
AcDbEntity
  8
M0
100
AcDbCircle
 10
357.222076
 20
359.291406
 40
1.0
100
AcDbArc
 50
0.0
 51
90.0
  0
ARC
  5
720
100
AcDbEntity
  8
M0
100
AcDbCircle
 10
357.222076
 20
358.291406
 40
2.0
100
AcDbArc
 50
0.0
 51
90.0
  0
LINE
  5
721
100
AcDbEntity
  8
M0
100
AcDbLine
 10
336.922072
 20
408.291406
 11
336.922072
 21
403.291406
  0
LINE
  5
722
100
AcDbEntity
  8
M0
100
AcDbLine
 10
322.422072
 20
401.291406
 11
334.922072
 21
401.291406
  0
LINE
  5
723
100
AcDbEntity
  8
M0
100
AcDbLine
 10
322.422072
 20
358.791406
 11
322.422072
 21
401.291406
  0
LINE
  5
724
100
AcDbEntity
  8
M0
  6
DASHDOT
100
AcDbLine
 10
280.967116
 20
348.77305
 11
302.885039
 21
348.77305
  0
LINE
  5
725
100
AcDbEntity
  8
M0
100
AcDbLine
 10
301.222167
 20
345.77305
 11
301.222167
 21
351.77305
  0
LINE
  5
726
100
AcDbEntity
  8
M0
100
AcDbLine
 10
301.222167
 20
351.77305
 11
292.922164
 21
351.77305
  0
LINE
  5
727
100
AcDbEntity
  8
M0
100
AcDbLine
 10
292.922164
 20
351.27305
 11
301.222167
 21
351.27305
  0
LINE
  5
728
100
AcDbEntity
  8
M0
100
AcDbLine
 10
292.922164
 20
346.27305
 11
301.222167
 21
346.27305
  0
LINE
  5
729
100
AcDbEntity
  8
M0
100
AcDbLine
 10
292.922164
 20
345.77305
 11
301.222167
 21
345.77305
  0
LINE
  5
72A
100
AcDbEntity
  8
M0
100
AcDbLine
 10
319.922179
 20
417.7913
 11
322.422179
 21
422.291544
  0
LINE
  5
72B
100
AcDbEntity
  8
M0
100
AcDbLine
 10
322.422179
 20
457.791544
 11
286.422179
 21
457.7913
  0
LINE
  5
72C
100
AcDbEntity
  8
M0
  6
DASHDOT
100
AcDbLine
 10
314.710753
 20
428.541544
 11
324.118957
 21
428.541544
  0
LINE
  5
72D
100
AcDbEntity
  8
M0
100
AcDbLine
 10
319.922179
 20
431.041544
 11
322.422179
 21
431.041544
  0
LINE
  5
72E
100
AcDbEntity
  8
M0
100
AcDbLine
 10
319.922179
 20
426.041544
 11
322.422179
 21
426.041544
  0
ARC
  5
72F
100
AcDbEntity
  8
M0
100
AcDbCircle
 10
319.922179
 20
428.541544
 40
2.5
100
AcDbArc
 50
90.0
 51
269.99965
  0
LINE
  5
730
100
AcDbEntity
  8
M0
100
AcDbLine
 10
308.922179
 20
414.291544
 11
319.922179
 21
414.291544
  0
LINE
  5
731
100
AcDbEntity
  8
M0
100
AcDbLine
 10
307.190002
 20
413.291544
 11
316.944152
 21
413.291544
  0
LINE
  5
732
100
AcDbEntity
  8
M0
100
AcDbLine
 10
319.922179
 20
417.7913
 11
319.922179
 21
414.2913
  0
ARC
  5
733
100
AcDbEntity
  8
M0
100
AcDbCircle
 10
316.922179
 20
414.2913
 40
1.0
100
AcDbArc
 50
269.999126
 51
360.0
  0
LINE
  5
734
100
AcDbEntity
  8
M0
100
AcDbLine
 10
307.922179
 20
409.291544
 11
307.922179
 21
407.291544
  0
LINE
  5
735
100
AcDbEntity
  8
M0
100
AcDbLine
 10
306.922179
 20
410.291544
 11
307.922179
 21
409.291544
  0
LINE
  5
736
100
AcDbEntity
  8
M0
100
AcDbLine
 10
306.922179
 20
406.291544
 11
307.922179
 21
407.291544
  0
LINE
  5
737
100
AcDbEntity
  8
M0
100
AcDbLine
 10
306.922179
 20
410.291544
 11
306.922179
 21
412.291544
  0
LINE
  5
738
100
AcDbEntity
  8
M0
100
AcDbLine
 10
322.422179
 20
422.291544
 11
322.422179
 21
426.041544
  0
ARC
  5
739
100
AcDbEntity
  8
M0
100
AcDbCircle
 10
308.922179
 20
412.291544
 40
2.0
100
AcDbArc
 50
90.0
 51
180.0
  0
LINE
  5
73A
100
AcDbEntity
  8
M0
100
AcDbLine
 10
323.12213
 20
435.290079
 11
323.12213
 21
441.290079
  0
LINE
  5
73B
100
AcDbEntity
  8
M0
100
AcDbLine
 10
322.422179
 20
441.290079
 11
323.12213
 21
441.290079
  0
LINE
  5
73C
100
AcDbEntity
  8
M0
100
AcDbLine
 10
322.422179
 20
435.290079
 11
323.12213
 21
435.290079
  0
LINE
  5
73D
100
AcDbEntity
  8
M0
100
AcDbLine
 10
322.422179
 20
427.493448
 11
322.422179
 21
457.791544
  0
LINE
  5
73E
100
AcDbEntity
  8
M0
100
AcDbLine
 10
317.652404
 20
427.493448
 11
322.422179
 21
427.493448
  0
LINE
  5
73F
100
AcDbEntity
  8
M0
100
AcDbLine
 10
375.222076
 20
470.291406
 11
359.222076
 21
470.291406
  0
LINE
  5
740
100
AcDbEntity
  8
M0
100
AcDbLine
 10
358.222076
 20
469.249735
 11
358.222076
 21
457.291406
  0
LINE
  5
741
100
AcDbEntity
  8
M0
100
AcDbLine
 10
359.222076
 20
470.291406
 11
359.222076
 21
458.291406
  0
ARC
  5
742
100
AcDbEntity
  8
M0
100
AcDbCircle
 10
334.922072
 20
413.291406
 40
2.0
100
AcDbArc
 50
0.0
 51
90.0
  0
LINE
  5
743
100
AcDbEntity
  8
M0
100
AcDbLine
 10
357.222076
 20
456.291406
 11
322.422072
 21
456.291406
  0
LINE
  5
744
100
AcDbEntity
  8
M0
100
AcDbLine
 10
347.222076
 20
457.791406
 11
322.422072
 21
457.791406
  0
LINE
  5
745
100
AcDbEntity
  8
M0
100
AcDbLine
 10
347.222076
 20
457.791406
 11
359.222076
 21
470.291406
  0
ARC
  5
746
100
AcDbEntity
  8
M0
100
AcDbCircle
 10
357.222076
 20
457.291406
 40
1.0
100
AcDbArc
 50
269.999126
 51
360.0
  0
ARC
  5
747
100
AcDbEntity
  8
M0
100
AcDbCircle
 10
357.222076
 20
458.291406
 40
2.0
100
AcDbArc
 50
269.999563
 51
360.0
  0
LINE
  5
748
100
AcDbEntity
  8
M0
100
AcDbLine
 10
336.922072
 20
408.291406
 11
336.922072
 21
413.291406
  0
LINE
  5
749
100
AcDbEntity
  8
M0
100
AcDbLine
 10
320.422072
 20
415.291406
 11
334.922072
 21
415.291406
  0
LINE
  5
74A
100
AcDbEntity
  8
M0
100
AcDbLine
 10
320.422072
 20
417.291406
 11
322.422072
 21
421.791406
  0
LINE
  5
74B
100
AcDbEntity
  8
M0
100
AcDbLine
 10
322.422072
 20
457.791406
 11
322.422072
 21
421.791406
  0
LINE
  5
74C
100
AcDbEntity
  8
M0
100
AcDbLine
 10
320.422072
 20
415.291406
 11
320.422072
 21
417.291406
  0
LINE
  5
74D
100
AcDbEntity
  8
M0
  6
DASHED
100
AcDbLine
 10
329.222045
 20
456.291498
 11
329.222045
 21
441.420404
  0
LINE
  5
74E
100
AcDbEntity
  8
M0
  6
DASHED
100
AcDbLine
 10
332.222076
 20
441.42045
 11
332.222076
 21
457.791391
  0
ARC
  5
74F
100
AcDbEntity
  8
M0
100
AcDbCircle
 10
286.422179
 20
455.7913
 40
2.0
100
AcDbArc
 50
90.0
 51
131.412097
  0
LINE
  5
750
100
AcDbEntity
  8
M0
100
AcDbLine
 10
293.422179
 20
457.7913
 11
293.422179
 21
449.291544
  0
LINE
  5
751
100
AcDbEntity
  8
M0
100
AcDbLine
 10
290.522033
 20
449.291544
 11
293.422179
 21
449.291544
  0
LINE
  5
752
100
AcDbEntity
  8
M0
100
AcDbLine
 10
290.522033
 20
367.291544
 11
292.921935
 21
367.291544
  0
LINE
  5
753
100
AcDbEntity
  8
M0
100
AcDbLine
 10
292.921935
 20
358.791788
 11
292.921935
 21
367.291544
  0
LINE
  5
754
100
AcDbEntity
  8
M0
100
AcDbLine
 10
289.722045
 20
339.809885
 11
292.921996
 21
339.809885
  0
ARC
  5
755
100
AcDbEntity
  8
M0
100
AcDbCircle
 10
286.422179
 20
360.791544
 40
2.0
100
AcDbArc
 50
228.581695
 51
269.999563
  0
LINE
  5
756
100
AcDbEntity
  8
M0
100
AcDbLine
 10
292.921996
 20
339.809885
 11
292.921996
 21
358.791742
  0
LINE
  5
757
100
AcDbEntity
  8
M0
100
AcDbLine
 10
289.722045
 20
339.809885
 11
289.722045
 21
358.791757
  0
ARC
  5
758
100
AcDbEntity
  8
M0
100
AcDbCircle
 10
297.322158
 20
348.77305
 40
14.0
100
AcDbArc
 50
182.455684
 51
196.072605
  0
ARC
  5
759
100
AcDbEntity
  8
M0
100
AcDbCircle
 10
297.322158
 20
348.77305
 40
14.0
100
AcDbArc
 50
163.926409
 51
177.543315
  0
LINE
  5
75A
100
AcDbEntity
  8
M0
100
AcDbLine
 10
285.435027
 20
348.173197
 11
283.335021
 21
348.173197
  0
LINE
  5
75B
100
AcDbEntity
  8
M0
100
AcDbLine
 10
285.435027
 20
349.373148
 11
285.435027
 21
348.173197
  0
LINE
  5
75C
100
AcDbEntity
  8
M0
100
AcDbLine
 10
283.335021
 20
349.373148
 11
285.435027
 21
349.373148
  0
ARC
  5
75D
100
AcDbEntity
  8
M0
100
AcDbCircle
 10
285.695144
 20
345.423197
 40
1.9
100
AcDbArc
 50
196.075598
 51
269.99954
  0
LINE
  5
75E
100
AcDbEntity
  8
M0
100
AcDbLine
 10
285.695144
 20
343.52305
 11
287.222167
 21
343.52305
  0
ARC
  5
75F
100
AcDbEntity
  8
M0
100
AcDbCircle
 10
285.695144
 20
352.123148
 40
1.9
100
AcDbArc
 50
90.0
 51
163.924845
  0
LINE
  5
760
100
AcDbEntity
  8
M0
100
AcDbLine
 10
287.222167
 20
354.02305
 11
285.695144
 21
354.02305
  0
LINE
  5
761
100
AcDbEntity
  8
M0
100
AcDbLine
 10
287.222167
 20
343.52305
 11
287.222167
 21
354.02305
  0
LINE
  5
762
100
AcDbEntity
  8
M0
100
AcDbLine
 10
288.722167
 20
342.27305
 11
289.722167
 21
342.27305
  0
LINE
  5
763
100
AcDbEntity
  8
M0
100
AcDbLine
 10
289.722167
 20
342.27305
 11
289.722167
 21
355.27305
  0
LINE
  5
764
100
AcDbEntity
  8
M0
100
AcDbLine
 10
289.722167
 20
355.27305
 11
288.722167
 21
355.27305
  0
LINE
  5
765
100
AcDbEntity
  8
M0
100
AcDbLine
 10
288.722167
 20
355.27305
 11
288.722167
 21
342.27305
  0
LINE
  5
766
100
AcDbEntity
  8
M0
  6
DASHDOT
100
AcDbLine
 10
285.722152
 20
348.773035
 11
292.722167
 21
348.77305
  0
LINE
  5
767
100
AcDbEntity
  8
M0
100
AcDbLine
 10
287.222167
 20
342.673044
 11
288.722167
 21
342.673044
  0
LINE
  5
768
100
AcDbEntity
  8
M0
100
AcDbLine
 10
288.722167
 20
342.673044
 11
288.722167
 21
354.873041
  0
LINE
  5
769
100
AcDbEntity
  8
M0
100
AcDbLine
 10
288.722167
 20
354.873041
 11
287.222167
 21
354.873041
  0
LINE
  5
76A
100
AcDbEntity
  8
M0
100
AcDbLine
 10
287.222167
 20
354.873041
 11
287.222167
 21
342.673044
  0
LINE
  5
76B
100
AcDbEntity
  8
M0
  6
DASHDOT
100
AcDbLine
 10
282.222167
 20
348.77305
 11
293.722167
 21
348.77305
  0
LINE
  5
76C
100
AcDbEntity
  8
M0
100
AcDbLine
 10
287.222167
 20
348.77302
 11
288.722167
 21
347.907007
  0
LINE
  5
76D
100
AcDbEntity
  8
M0
100
AcDbLine
 10
287.222167
 20
349.639047
 11
288.722167
 21
348.773035
  0
LINE
  5
76E
100
AcDbEntity
  8
M0
100
AcDbLine
 10
375.222076
 20
408.291406
 11
375.222076
 21
346.291406
  0
LINE
  5
76F
100
AcDbEntity
  8
M0
100
AcDbLine
 10
375.222076
 20
408.291406
 11
375.222076
 21
470.291406
  0
LINE
  5
770
100
AcDbEntity
  8
M0
100
AcDbLine
 10
375.222076
 20
451.291406
 11
375.722076
 21
451.291406
  0
LINE
  5
771
100
AcDbEntity
  8
M0
100
AcDbLine
 10
375.222076
 20
457.291406
 11
375.722076
 21
457.291406
  0
LINE
  5
772
100
AcDbEntity
  8
M0
100
AcDbLine
 10
375.222076
 20
469.291406
 11
375.722076
 21
469.291406
  0
LINE
  5
773
100
AcDbEntity
  8
M0
100
AcDbLine
 10
375.222076
 20
441.291406
 11
375.722076
 21
441.291406
  0
LINE
  5
774
100
AcDbEntity
  8
M0
100
AcDbLine
 10
375.222076
 20
375.291406
 11
375.722076
 21
375.291406
  0
LINE
  5
775
100
AcDbEntity
  8
M0
100
AcDbLine
 10
375.222076
 20
365.291406
 11
375.722076
 21
365.291406
  0
LINE
  5
776
100
AcDbEntity
  8
M0
100
AcDbLine
 10
375.222076
 20
359.291406
 11
375.722076
 21
359.291406
  0
LINE
  5
777
100
AcDbEntity
  8
M0
100
AcDbLine
 10
375.222076
 20
347.291406
 11
375.722076
 21
347.291406
  0
LINE
  5
778
100
AcDbEntity
  8
M0
 62
     4
100
AcDbLine
 10
224.222228
 20
359.291605
 11
290.522033
 21
359.291605
  0
LINE
  5
779
100
AcDbEntity
  8
M0
 62
     4
100
AcDbLine
 10
290.522033
 20
457.291132
 11
224.222228
 21
457.290918
  0
LINE
  5
77A
100
AcDbEntity
  8
M0
 62
     4
100
AcDbLine
 10
290.522033
 20
359.291605
 11
290.522033
 21
380.791406
  0
LINE
  5
77B
100
AcDbEntity
  8
M0
 62
     4
100
AcDbLine
 10
224.222228
 20
364.791605
 11
290.522033
 21
364.791605
  0
LINE
  5
77C
100
AcDbEntity
  8
M0
 62
     4
100
AcDbLine
 10
224.222228
 20
451.790918
 11
290.522033
 21
451.790918
  0
LINE
  5
77D
100
AcDbEntity
  8
M0
 62
     4
100
AcDbLine
 10
281.922179
 20
383.291605
 11
281.922179
 21
386.36915
  0
LINE
  5
77E
100
AcDbEntity
  8
M0
 62
     4
100
AcDbLine
 10
282.922179
 20
382.291605
 11
284.422179
 21
382.291605
  0
LINE
  5
77F
100
AcDbEntity
  8
M0
 62
     4
100
AcDbLine
 10
282.922179
 20
434.291376
 11
284.422179
 21
434.291376
  0
ARC
  5
780
100
AcDbEntity
  8
M0
 62
     4
100
AcDbCircle
 10
282.922179
 20
433.291376
 40
1.0
100
AcDbArc
 50
90.0
 51
180.0
  0
ARC
  5
781
100
AcDbEntity
  8
M0
 62
     4
100
AcDbCircle
 10
282.922179
 20
383.291605
 40
1.0
100
AcDbArc
 50
180.0
 51
269.999126
  0
LINE
  5
782
100
AcDbEntity
  8
M0
 62
     4
100
AcDbLine
 10
281.922179
 20
430.212763
 11
281.922179
 21
433.291376
  0
LINE
  5
783
100
AcDbEntity
  8
M0
 62
     4
100
AcDbLine
 10
281.922179
 20
364.791605
 11
281.922179
 21
359.291605
  0
LINE
  5
784
100
AcDbEntity
  8
M0
 62
     4
100
AcDbLine
 10
281.922179
 20
457.291132
 11
281.922179
 21
451.791132
  0
LINE
  5
785
100
AcDbEntity
  8
M0
 62
     4
100
AcDbLine
 10
290.522033
 20
435.791406
 11
290.522033
 21
457.791193
  0
ARC
  5
786
100
AcDbEntity
  8
M0
 62
     4
100
AcDbCircle
 10
276.922179
 20
386.369165
 40
5.0
100
AcDbArc
 50
0.0
 51
89.101917
  0
ARC
  5
787
100
AcDbEntity
  8
M0
 62
     4
100
AcDbCircle
 10
276.922179
 20
430.213007
 40
5.0
100
AcDbArc
 50
270.89808
 51
360.0
  0
LINE
  5
788
100
AcDbEntity
  8
M0
  6
DASHDOT
 62
     4
100
AcDbLine
 10
215.94403
 20
408.291406
 11
430.466636
 21
408.291406
  0
LINE
  5
789
100
AcDbEntity
  8
M0
 62
     4
100
AcDbLine
 10
222.222228
 20
455.290918
 11
222.222228
 21
361.291605
  0
ARC
  5
78A
100
AcDbEntity
  8
M0
 62
     4
100
AcDbCircle
 10
224.222228
 20
455.290918
 40
2.0
100
AcDbArc
 50
90.0
 51
180.0
  0
ARC
  5
78B
100
AcDbEntity
  8
M0
 62
     4
100
AcDbCircle
 10
224.222228
 20
361.291605
 40
2.0
100
AcDbArc
 50
180.0
 51
269.999563
  0
ARC
  5
78C
100
AcDbEntity
  8
M0
 62
     4
100
AcDbCircle
 10
224.222228
 20
366.791605
 40
2.0
100
AcDbArc
 50
180.0
 51
269.999563
  0
ARC
  5
78D
100
AcDbEntity
  8
M0
 62
     4
100
AcDbCircle
 10
224.222228
 20
449.790918
 40
2.0
100
AcDbArc
 50
90.0
 51
180.0
  0
LINE
  5
78E
100
AcDbEntity
  8
M1
 62
     2
100
AcDbLine
 10
22.222223
 20
22.222223
 11
22.222223
 21
633.33335
  0
LINE
  5
78F
100
AcDbEntity
  8
M1
 62
     2
100
AcDbLine
 10
22.222223
 20
633.33335
 11
444.444456
 21
633.33335
  0
LINE
  5
790
100
AcDbEntity
  8
M1
 62
     2
100
AcDbLine
 10
444.444456
 20
633.33335
 11
444.444456
 21
22.222223
  0
LINE
  5
791
100
AcDbEntity
  8
M1
 62
     2
100
AcDbLine
 10
444.444456
 20
22.222223
 11
22.222223
 21
22.222223
  0
LINE
  5
792
100
AcDbEntity
  8
M1
 62
     2
100
AcDbLine
 10
444.444456
 20
44.444446
 11
222.222228
 21
44.444446
  0
LINE
  5
793
100
AcDbEntity
  8
M1
 62
     2
100
AcDbLine
 10
444.444456
 20
66.666668
 11
222.222228
 21
66.666668
  0
LINE
  5
794
100
AcDbEntity
  8
M1
 62
     2
100
AcDbLine
 10
444.444456
 20
88.888891
 11
222.222228
 21
88.888891
  0
LINE
  5
795
100
AcDbEntity
  8
M1
 62
     2
100
AcDbLine
 10
222.222228
 20
22.222223
 11
222.222228
 21
88.888891
  0
TEXT
  5
796
100
AcDbEntity
  8
M1
 62
     2
100
AcDbText
 10
227.777784
 20
27.777779
 40
11.111112
  1
適　用；
  7
STANDARD
100
AcDbText
  0
TEXT
  5
797
100
AcDbEntity
  8
M1
 62
     2
100
AcDbText
 10
227.777784
 20
72.222224
 40
11.111112
  1
登録名：
  7
STANDARD
100
AcDbText
  0
TEXT
  5
798
100
AcDbEntity
  8
M1
 62
     2
100
AcDbText
 10
281.111119
 20
72.222224
 40
11.111112
  1
ＤＭＨ８０ＣＬＲ００
 41
0.5
  7
STANDARD
100
AcDbText
  0
TEXT
  5
799
100
AcDbEntity
  8
M1
 62
     2
100
AcDbText
 10
227.777784
 20
50.000001
 40
11.111112
  1
形　式；
  7
STANDARD
100
AcDbText
  0
TEXT
  5
79A
100
AcDbEntity
  8
M1
 62
     2
100
AcDbText
 10
281.111119
 20
50.000001
 40
11.111112
  1
Ｈ８０Ｃ－Ｌ，Ｈ８０Ｃ－ＬＧ
 41
0.5
  7
STANDARD
100
AcDbText
  0
LINE
  5
79B
100
AcDbEntity
  8
DN0
100
AcDbLine
 10
110.28375
 20
67.515991
 11
150.861522
 21
67.515991
  0
TEXT
  5
79C
100
AcDbEntity
  8
DN0
100
AcDbText
 10
111.405972
 20
68.515991
 40
10.0
  1
せん孔図
 41
0.833333
  7
STANDARD
100
AcDbText
  0
ENDSEC
  0
SECTION
  2
OBJECTS
  0
DICTIONARY
  5
C
100
AcDbDictionary
  3
ACAD_GROUP
350
D
  3
ACAD_MLINESTYLE
350
E
  0
DICTIONARY
  5
D
102
{ACAD_REACTORS
330
C
102
}
100
AcDbDictionary
  0
DICTIONARY
  5
E
102
{ACAD_REACTORS
330
C
102
}
100
AcDbDictionary
  3
STANDARD
350
13
  0
MLINESTYLE
  5
13
102
{ACAD_REACTORS
330
E
102
}
100
AcDbMlineStyle
  2
STANDARD
 70
     0
  3

 62
     0
 51
90.0
 52
90.0
 71
     2
 49
0.5
 62
   256
  6
BYLAYER
 49
-0.5
 62
   256
  6
BYLAYER
  0
ENDSEC
  0
EOF
